0
SECTION
2
HEADER
9
$ACADVER
1
AC1014
9
$HANDSEED
5
       304
9
$EXTMAX
10
297.0000000000
20
210.0000000000
9
$EXTMIN
10
0.0000000000
20
0.0000000000
9
$LIMMIN
10
0.0000000000
20
0.0000000000
9
$LIMMAX
10
297.0000000000
20
210.0000000000
9
$VIEWCTR
10
148.5000000000
20
105.0000000000
9
$VIEWSIZE
40
210.0000000000
9
$CLAYER
8
0
9
$LTSCALE
40
16.3350000000
9
$CELTYPE
6
BYLAYER
9
$DIMSCALE
40
1
9
$DIMASZ
40
3.0000000000
9
$DIMEXO
40
1.8562500000
9
$DIMDLI
40
11.2860000000
9
$DIMEXE
40
5.3460000000
9
$DIMCEN
40
2.6730000000
9
$DIMLFAC
40
1.0000000000
9
$DIMTXT
40
3.0000000000
9
$DIMTOL
70
1
9
$DIMLIM
70
0
9
$DIMTFAC
40
1.0000000000
9
$DIMTP
40
0.0100000000
9
$DIMTM
40
0.0100000000
9
$MEASUREMENT
70
1
0
ENDSEC
0
SECTION
2
CLASSES
0
ENDSEC
0
SECTION
2
TABLES
0
TABLE
2
VPORT
5
8
100
AcDbSymbolTable
70
2
0
VPORT
5
1F4
100
AcDbSymbolTableRecord
100
AcDbViewportTableRecord
2
*ACTIVE
70
0
10
0.0
20
0.0
11
1.0
21
1.0
12
148.5000000000
22
105.0000000000
13
0.0
23
0.0
14
1.0
24
1.0
15
0.0
25
0.0
16
0.0
26
0.0
36
1.0
17
0.0
27
0.0
37
0.0
40
210.0000000000
41
1.4142857143
42
50.0
43
0.0
44
0.0
50
0.0
51
0.0
71
0
72
100
73
1
74
1
75
0
76
0
77
0
78
0
0
ENDTAB
0
TABLE
2
LTYPE
5
5
100
AcDbSymbolTable
70
6
0
LTYPE
5
14
100
AcDbSymbolTableRecord
100
AcDbLinetypeTableRecord
2
BYBLOCK
70
0
3

72
65
73
0
40
0.0
0
LTYPE
5
15
100
AcDbSymbolTableRecord
100
AcDbLinetypeTableRecord
2
BYLAYER
70
0
3

72
65
73
0
40
0.0
0
LTYPE
5
16
100
AcDbSymbolTableRecord
100
AcDbLinetypeTableRecord
2
CONTINUOUS
70
64
3
Solid line
72
65
73
0
40
0
0
LTYPE
5
1F5
100
AcDbSymbolTableRecord
100
AcDbLinetypeTableRecord
2
CENTER
70
64
3
____ _ ____ _ ____ _ ____ _ ____ _ ____ _ ____
72
65
73
4
40
0.6
49
0.375
74
0
49
-0.075
74
0
49
0.075
74
0
49
-0.075
74
0
0
LTYPE
5
1F6
100
AcDbSymbolTableRecord
100
AcDbLinetypeTableRecord
2
HIDDEN
70
64
3
- - - - - - - - - - - - - - - - - - - -
72
65
73
2
40
0.2
49
0.1
74
0
49
-0.1
74
0
0
LTYPE
5
1F7
100
AcDbSymbolTableRecord
100
AcDbLinetypeTableRecord
2
PHANTOM
70
64
3
_____ _ _ _____ _ _ _____ _ _ _____
72
65
73
6
40
0.8
49
0.45
74
0
49
-0.05
74
0
49
0.1
74
0
49
-0.05
74
0
49
0.1
74
0
49
-0.05
74
0
0
LTYPE
5
1F8
100
AcDbSymbolTableRecord
100
AcDbLinetypeTableRecord
2
DOT
70
64
3
. . . . . . . . . . . . . . . . . . . .
72
65
73
2
40
0.2
49
0.1
74
0
49
-0.1
74
0
0
LTYPE
5
1F9
100
AcDbSymbolTableRecord
100
AcDbLinetypeTableRecord
2
DASHED
70
64
3
- - - - - - - - - - - - - - - - - - - -
72
65
73
2
40
0.2
49
0.1
74
0
49
-0.1
74
0
0
ENDTAB
0
TABLE
2
LAYER
5
2
100
AcDbSymbolTable
70
36
0
LAYER
5
10
100
AcDbSymbolTableRecord
100
AcDbLayerTableRecord
2
0
70
0
62
7
6
CONTINUOUS
0
LAYER
5
1FA
100
AcDbSymbolTableRecord
100
AcDbLayerTableRecord
2
DEFAULT_1
70
0
62
7
6
CENTER
0
LAYER
5
1FB
100
AcDbSymbolTableRecord
100
AcDbLayerTableRecord
2
DEFAULT_2
70
0
62
8
6
HIDDEN
0
LAYER
5
1FC
100
AcDbSymbolTableRecord
100
AcDbLayerTableRecord
2
DEFAULT_3
70
0
62
7
6
PHANTOM
0
LAYER
5
1FD
100
AcDbSymbolTableRecord
100
AcDbLayerTableRecord
2
26216763_GEN
70
0
62
7
6
CONTINUOUS
0
LAYER
5
1FE
100
AcDbSymbolTableRecord
100
AcDbLayerTableRecord
2
ASSI
70
0
62
7
6
CONTINUOUS
0
LAYER
5
1FF
100
AcDbSymbolTableRecord
100
AcDbLayerTableRecord
2
COORDINATE
70
0
62
7
6
CONTINUOUS
0
LAYER
5
200
100
AcDbSymbolTableRecord
100
AcDbLayerTableRecord
2
COORD_ORIGINE
70
0
62
7
6
CONTINUOUS
0
LAYER
5
201
100
AcDbSymbolTableRecord
100
AcDbLayerTableRecord
2
CURVE
70
0
62
7
6
CONTINUOUS
0
LAYER
5
202
100
AcDbSymbolTableRecord
100
AcDbLayerTableRecord
2
DRAFT
70
0
62
7
6
CONTINUOUS
0
LAYER
5
203
100
AcDbSymbolTableRecord
100
AcDbLayerTableRecord
2
IGES_SCRITTE
70
0
62
7
6
CONTINUOUS
0
LAYER
5
204
100
AcDbSymbolTableRecord
100
AcDbLayerTableRecord
2
IMPORT
70
0
62
7
6
CONTINUOUS
0
LAYER
5
205
100
AcDbSymbolTableRecord
100
AcDbLayerTableRecord
2
NOTE
70
0
62
7
6
CONTINUOUS
0
LAYER
5
206
100
AcDbSymbolTableRecord
100
AcDbLayerTableRecord
2
PIANI
70
0
62
7
6
CONTINUOUS
0
LAYER
5
207
100
AcDbSymbolTableRecord
100
AcDbLayerTableRecord
2
PIANI_DI_RIFERIMENTO
70
0
62
7
6
CONTINUOUS
0
LAYER
5
208
100
AcDbSymbolTableRecord
100
AcDbLayerTableRecord
2
PIANI_ORIGINE
70
0
62
7
6
CONTINUOUS
0
LAYER
5
209
100
AcDbSymbolTableRecord
100
AcDbLayerTableRecord
2
PUNTI
70
0
62
7
6
CONTINUOUS
0
LAYER
5
20A
100
AcDbSymbolTableRecord
100
AcDbLayerTableRecord
2
RACCORDO
70
0
62
7
6
CONTINUOUS
0
LAYER
5
20B
100
AcDbSymbolTableRecord
100
AcDbLayerTableRecord
2
SCR_VIMAR
70
0
62
7
6
CONTINUOUS
0
LAYER
5
20C
100
AcDbSymbolTableRecord
100
AcDbLayerTableRecord
2
SOLIDO
70
0
62
7
6
CONTINUOUS
0
LAYER
5
20D
100
AcDbSymbolTableRecord
100
AcDbLayerTableRecord
2
SUPERFICI
70
0
62
7
6
CONTINUOUS
0
LAYER
5
20E
100
AcDbSymbolTableRecord
100
AcDbLayerTableRecord
2
TRASH
70
0
62
7
6
CONTINUOUS
0
LAYER
5
20F
100
AcDbSymbolTableRecord
100
AcDbLayerTableRecord
2
XSEC_DATUMS
70
0
62
7
6
CONTINUOUS
0
ENDTAB
0
TABLE
2
STYLE
5
3
100
AcDbSymbolTable
70
1
0
STYLE
5
11
100
AcDbSymbolTableRecord
100
AcDbTextStyleTableRecord
2
STANDARD
70
0
40
0.0
41
0.8000000000
50
0.0
71
0
42
0.2
3
txt
4

0
ENDTAB
0
TABLE
2
VIEW
5
6
100
AcDbSymbolTable
70
0
0
ENDTAB
0
TABLE
2
UCS
5
7
100
AcDbSymbolTable
70
0
0
ENDTAB
0
TABLE
2
APPID
5
9
100
AcDbSymbolTable
70
1
0
APPID
5
210
100
AcDbSymbolTableRecord
100
AcDbRegAppTableRecord
2
ACAD
70
0
0
ENDTAB
0
TABLE
2
DIMSTYLE
5
A
100
AcDbSymbolTable
70
1
0
DIMSTYLE
105
211
100
AcDbSymbolTableRecord
100
AcDbDimStyleTableRecord
2
STANDARD
70
0
3

4

5

6

7

40
1.0
41
3.0000000000
42
0.0625
43
0.38
44
0.18
45
0.0
46
0.0
47
0.0100000000
48
0.0100000000
140
3.0000000000
141
0.09
142
0.0
143
25.4
144
1.0000000000
145
0.0
146
1.0000000000
147
0.09
71
1
72
0
73
0
74
0
75
0
76
0
77
1
78
8
170
0
171
2
172
0
173
0
174
0
175
0
176
0
177
0
178
0
270
2
271
2
272
2
273
2
274
2
340
11
275
0
280
0
281
0
282
0
283
1
284
8
285
0
286
0
287
3
288
0
0
ENDTAB
0
TABLE
2
BLOCK_RECORD
5
1
100
AcDbSymbolTable
70
0
0
BLOCK_RECORD
5
1B
100
AcDbSymbolTableRecord
100
AcDbBlockTableRecord
2
*MODEL_SPACE
0
BLOCK_RECORD
5
1C
100
AcDbSymbolTableRecord
100
AcDbBlockTableRecord
2
*PAPER_SPACE
0
ENDTAB
0
ENDSEC
0
SECTION
2
BLOCKS
0
BLOCK
5
1E
100
AcDbEntity
8
0
100
AcDbBlockBegin
2
*MODEL_SPACE
70
0
10
0.0
20
0.0
30
0.0
3
*MODEL_SPACE
1

0
ENDBLK
5
1F
100
AcDbEntity
8
0
100
AcDbBlockEnd
0
BLOCK
5
20
100
AcDbEntity
8
0
100
AcDbBlockBegin
2
*PAPER_SPACE
70
0
10
0.0
20
0.0
30
0.0
3
*PAPER_SPACE
1

0
ENDBLK
5
21
100
AcDbEntity
8
0
100
AcDbBlockEnd
0
ENDSEC
0
SECTION
2
ENTITIES
0
LINE
5
212
100
AcDbEntity
8
0
100
AcDbLine
62
7
6
CONTINUOUS
10
-11.0639488695
20
39.9358533057
11
-12.3279624483
21
39.2972099638
0
LINE
5
213
100
AcDbEntity
8
0
100
AcDbLine
62
9
6
CONTINUOUS
10
-9.1640001358
20
40.1842006404
11
-10.4551113120
21
39.5438317701
0
LINE
5
214
100
AcDbEntity
8
0
100
AcDbLine
62
9
6
CONTINUOUS
10
-2.6910650384
20
-35.7471066154
11
-3.1331987224
21
-35.5807159552
0
LINE
5
215
100
AcDbEntity
8
0
100
AcDbLine
62
9
6
CONTINUOUS
10
0.7924032898
20
-37.0581155506
11
0.2944079942
21
-36.8706994426
0
LINE
5
216
100
AcDbEntity
8
0
100
AcDbLine
62
9
6
CONTINUOUS
10
-4.2881028973
20
-35.1460560403
11
-4.7302262652
21
-34.9796692627
0
LINE
5
217
100
AcDbEntity
8
0
100
AcDbLine
62
9
6
CONTINUOUS
10
-6.0324927965
20
-34.4895568692
11
-6.4746265838
21
-34.3231644279
0
LINE
5
218
100
AcDbEntity
8
0
100
AcDbLine
62
9
6
CONTINUOUS
10
-7.4791562793
20
-33.9451001968
11
-7.9213055407
21
-33.7787019318
0
LINE
5
219
100
AcDbEntity
8
0
100
AcDbLine
62
9
6
CONTINUOUS
10
-3.4279531022
20
-35.4697841520
11
-3.8700872509
21
-35.3033854766
0
LINE
5
21A
100
AcDbEntity
8
0
100
AcDbLine
62
9
6
CONTINUOUS
10
-5.1482362889
20
-34.8223497829
11
-5.5903704376
21
-34.6559511075
0
LINE
5
21B
100
AcDbEntity
8
0
100
AcDbLine
62
9
6
CONTINUOUS
10
-0.5346008112
20
-36.5586991876
11
-0.9767401179
21
-36.3922985709
0
LINE
5
21C
100
AcDbEntity
8
0
100
AcDbLine
62
9
6
CONTINUOUS
10
-1.2714925593
20
-36.2813753377
11
-1.7136323307
21
-36.1149667057
0
LINE
5
21D
100
AcDbEntity
8
0
100
AcDbLine
62
9
6
CONTINUOUS
10
-1.8833297823
20
-35.5368521598
11
-2.5816045313
21
-35.2740541071
0
LINE
5
21E
100
AcDbEntity
8
0
100
AcDbLine
62
9
6
CONTINUOUS
10
-2.4751960124
20
-34.8167455196
11
-2.0466518096
21
-34.9780295731
0
LINE
5
21F
100
AcDbEntity
8
0
100
AcDbLine
62
9
6
CONTINUOUS
10
-0.2072401432
20
-35.6702983467
11
-0.5931255396
21
-35.5250629678
0
LINE
5
220
100
AcDbEntity
8
0
100
AcDbLine
62
9
6
CONTINUOUS
10
-0.6263653987
20
-35.0277993874
11
-0.0884495059
21
-35.2302458447
0
LINE
5
221
100
AcDbEntity
8
0
100
AcDbLine
62
9
6
CONTINUOUS
10
5.9868688198
20
-37.3777418329
11
-13.8564684758
21
-29.9096350337
0
LINE
5
222
100
AcDbEntity
8
0
100
AcDbLine
62
9
6
CONTINUOUS
10
-0.1197760992
20
-34.5773927765
11
-0.6576986238
21
-34.3749438233
0
LINE
5
223
100
AcDbEntity
8
0
100
AcDbLine
62
9
6
CONTINUOUS
10
-8.7639905754
20
-30.8304802984
11
-8.3218512686
21
-30.9968809151
0
LINE
5
224
100
AcDbEntity
8
0
100
AcDbLine
62
9
6
CONTINUOUS
10
-7.3444237190
20
-31.3647390642
11
-6.9022844122
21
-31.5311396808
0
LINE
5
225
100
AcDbEntity
8
0
100
AcDbLine
62
9
6
CONTINUOUS
10
-6.6075315062
20
-31.6420709294
11
-6.1653973574
21
-31.8084696048
0
LINE
5
226
100
AcDbEntity
8
0
100
AcDbLine
62
9
6
CONTINUOUS
10
-5.7232801566
20
-31.9748619019
11
-5.0548925303
21
-32.2264118353
0
LINE
5
227
100
AcDbEntity
8
0
100
AcDbLine
62
9
6
CONTINUOUS
10
-4.2292504475
20
-32.5371450130
11
-3.5608628212
21
-32.7886949464
0
LINE
5
228
100
AcDbEntity
8
0
100
AcDbLine
62
9
6
CONTINUOUS
10
-2.5563388018
20
-33.1667446823
11
-2.1141840210
21
-33.3331511227
0
LINE
5
229
100
AcDbEntity
8
0
100
AcDbLine
62
9
6
CONTINUOUS
10
-1.1096495289
20
-33.7112110608
11
-0.0743215737
21
-34.1008602225
0
LINE
5
22A
100
AcDbEntity
8
0
100
AcDbLine
62
9
6
CONTINUOUS
10
13.5689765052
20
31.6285683448
11
12.2549301302
21
30.9968312138
0
LINE
5
22B
100
AcDbEntity
8
0
100
AcDbLine
62
9
6
CONTINUOUS
10
-10.9887795310
20
20.5560108690
11
-10.8400749179
21
20.6018881275
0
LINE
5
22C
100
AcDbEntity
8
0
100
AcDbLine
62
9
6
CONTINUOUS
10
-13.1600173514
20
-25.8097887009
11
5.3462272524
21
-32.7746761639
0
LINE
5
22D
100
AcDbEntity
8
0
100
AcDbLine
62
9
6
CONTINUOUS
10
-11.5028052609
20
-21.2894791380
11
5.3926148569
21
-27.6481273824
0
LINE
5
22E
100
AcDbEntity
8
0
100
AcDbLine
62
9
6
CONTINUOUS
10
-11.4865044903
20
-20.7877290085
11
5.3784831362
21
-27.1349238823
0
LINE
5
22F
100
AcDbEntity
8
0
100
AcDbLine
62
9
6
CONTINUOUS
10
17.2231544630
20
24.7780739839
11
15.8178582752
21
24.2503345221
0
LINE
5
230
100
AcDbEntity
8
0
100
AcDbLine
62
9
6
CONTINUOUS
10
5.3623690330
20
-26.5068545179
11
-10.7268244893
21
-20.4516323671
0
LINE
5
231
100
AcDbEntity
8
0
100
AcDbLine
62
7
6
CONTINUOUS
10
5.3602457104
20
-26.4189226374
11
-10.5401806680
21
-20.4347436368
0
LINE
5
232
100
AcDbEntity
8
0
100
AcDbLine
62
7
6
CONTINUOUS
10
-10.7270366796
20
-20.0896870872
11
5.3535507995
21
-26.1416703247
0
LINE
5
233
100
AcDbEntity
8
0
100
AcDbLine
62
7
6
CONTINUOUS
10
-10.7154398539
20
-19.6911280804
11
5.3437320288
21
-25.7350514861
0
LINE
5
234
100
AcDbEntity
8
0
100
AcDbLine
62
9
6
CONTINUOUS
10
-10.8711310345
20
-20.2128566304
11
-10.2372874507
21
20.3750270348
0
LINE
5
235
100
AcDbEntity
8
0
100
AcDbLine
62
7
6
CONTINUOUS
10
-10.7214313679
20
-20.0747919379
11
-10.0906059795
21
20.3198229693
0
LINE
5
236
100
AcDbEntity
8
0
100
AcDbLine
62
9
6
CONTINUOUS
10
-5.1817700820
20
-34.2364369169
11
-5.1482362295
21
-34.8223503430
0
LINE
5
237
100
AcDbEntity
8
0
100
AcDbLine
62
9
6
CONTINUOUS
10
-6.4746249756
20
-34.3231650305
11
-6.5359682092
21
-33.2394637279
0
LINE
5
238
100
AcDbEntity
8
0
100
AcDbLine
62
9
6
CONTINUOUS
10
-5.5903705522
20
-34.6559505360
11
-5.6517137678
21
-33.5722492236
0
LINE
5
239
100
AcDbEntity
8
0
100
AcDbLine
62
9
6
CONTINUOUS
10
-3.8700897253
20
-35.3033840170
11
-3.9314329408
21
-34.2196827046
0
POLYLINE
5
23A
100
AcDbEntity
8
0
100
AcDb2dPolyline
62
9
6
CONTINUOUS
66
1
70
0
0
VERTEX
5
23B
100
AcDbEntity
8
0
100
AcDbVertex
62
9
6
CONTINUOUS
100
AcDb2dVertex
10
-6.1258131167
20
-32.8190937453
0
VERTEX
5
23C
100
AcDbEntity
8
0
100
AcDbVertex
62
9
6
CONTINUOUS
100
AcDb2dVertex
10
-6.0660249858
20
-33.9036446068
0
VERTEX
5
23D
100
AcDbEntity
8
0
100
AcDbVertex
62
9
6
CONTINUOUS
100
AcDb2dVertex
10
-6.0324911333
20
-34.4895580329
0
SEQEND
5
23E
100
AcDbEntity
8
0
0
POLYLINE
5
23F
100
AcDbEntity
8
0
100
AcDb2dPolyline
62
9
6
CONTINUOUS
66
1
70
0
0
VERTEX
5
240
100
AcDbEntity
8
0
100
AcDbVertex
62
9
6
CONTINUOUS
100
AcDb2dVertex
10
-6.5359682092
20
-33.2394637279
0
VERTEX
5
241
100
AcDbEntity
8
0
100
AcDbVertex
62
9
6
CONTINUOUS
100
AcDb2dVertex
10
-6.5728223958
20
-32.5596005390
0
VERTEX
5
242
100
AcDbEntity
8
0
100
AcDbVertex
62
9
6
CONTINUOUS
100
AcDb2dVertex
10
-6.5818390365
20
-32.3730132380
0
VERTEX
5
243
100
AcDbEntity
8
0
100
AcDbVertex
62
9
6
CONTINUOUS
100
AcDb2dVertex
10
-6.5898689881
20
-32.1859045017
0
VERTEX
5
244
100
AcDbEntity
8
0
100
AcDbVertex
62
9
6
CONTINUOUS
100
AcDb2dVertex
10
-6.5969118592
20
-31.9982834497
0
VERTEX
5
245
100
AcDbEntity
8
0
100
AcDbVertex
62
9
6
CONTINUOUS
100
AcDb2dVertex
10
-6.6000630304
20
-31.9042836619
0
VERTEX
5
246
100
AcDbEntity
8
0
100
AcDbVertex
62
9
6
CONTINUOUS
100
AcDb2dVertex
10
-6.6075319428
20
-31.6420708929
0
SEQEND
5
247
100
AcDbEntity
8
0
0
POLYLINE
5
248
100
AcDbEntity
8
0
100
AcDb2dPolyline
62
9
6
CONTINUOUS
66
1
70
0
0
VERTEX
5
249
100
AcDbEntity
8
0
100
AcDbVertex
62
9
6
CONTINUOUS
100
AcDb2dVertex
10
-5.6517137678
20
-33.5722492236
0
VERTEX
5
24A
100
AcDbEntity
8
0
100
AcDbVertex
62
9
6
CONTINUOUS
100
AcDb2dVertex
10
-5.6885702150
20
-32.8923918242
0
VERTEX
5
24B
100
AcDbEntity
8
0
100
AcDbVertex
62
9
6
CONTINUOUS
100
AcDb2dVertex
10
-5.6975868557
20
-32.7058045233
0
VERTEX
5
24C
100
AcDbEntity
8
0
100
AcDbVertex
62
9
6
CONTINUOUS
100
AcDb2dVertex
10
-5.7056168073
20
-32.5186957870
0
VERTEX
5
24D
100
AcDbEntity
8
0
100
AcDbVertex
62
9
6
CONTINUOUS
100
AcDb2dVertex
10
-5.7126596785
20
-32.3310747350
0
VERTEX
5
24E
100
AcDbEntity
8
0
100
AcDbVertex
62
9
6
CONTINUOUS
100
AcDb2dVertex
10
-5.7158108497
20
-32.2370749472
0
VERTEX
5
24F
100
AcDbEntity
8
0
100
AcDbVertex
62
9
6
CONTINUOUS
100
AcDb2dVertex
10
-5.7232797621
20
-31.9748621782
0
SEQEND
5
250
100
AcDbEntity
8
0
0
LINE
5
251
100
AcDbEntity
8
0
100
AcDbLine
62
9
6
CONTINUOUS
10
-5.2464371530
20
-33.0587670789
11
-5.1817700820
21
-34.2364369169
0
POLYLINE
5
252
100
AcDbEntity
8
0
100
AcDb2dPolyline
62
9
6
CONTINUOUS
66
1
70
0
0
VERTEX
5
253
100
AcDbEntity
8
0
100
AcDbVertex
62
9
6
CONTINUOUS
100
AcDb2dVertex
10
-6.1653977856
20
-31.8084689915
0
VERTEX
5
254
100
AcDbEntity
8
0
100
AcDbVertex
62
9
6
CONTINUOUS
100
AcDb2dVertex
10
-6.1629337030
20
-31.9028127754
0
VERTEX
5
255
100
AcDbEntity
8
0
100
AcDbVertex
62
9
6
CONTINUOUS
100
AcDb2dVertex
10
-6.1572647026
20
-32.0911313879
0
VERTEX
5
256
100
AcDbEntity
8
0
100
AcDbVertex
62
9
6
CONTINUOUS
100
AcDb2dVertex
10
-6.1506081572
20
-32.2789504137
0
VERTEX
5
257
100
AcDbEntity
8
0
100
AcDbVertex
62
9
6
CONTINUOUS
100
AcDb2dVertex
10
-6.1429643913
20
-32.4662606988
0
VERTEX
5
258
100
AcDbEntity
8
0
100
AcDbVertex
62
9
6
CONTINUOUS
100
AcDb2dVertex
10
-6.1387724152
20
-32.5597222097
0
VERTEX
5
259
100
AcDbEntity
8
0
100
AcDbVertex
62
9
6
CONTINUOUS
100
AcDb2dVertex
10
-6.1258100617
20
-32.8190939154
0
SEQEND
5
25A
100
AcDbEntity
8
0
0
LINE
5
25B
100
AcDbEntity
8
0
100
AcDbLine
62
9
6
CONTINUOUS
10
-0.9767401064
20
-36.3922992233
11
-1.0380833039
21
-35.3085979010
0
POLYLINE
5
25C
100
AcDbEntity
8
0
100
AcDb2dPolyline
62
9
6
CONTINUOUS
66
1
70
0
0
VERTEX
5
25D
100
AcDbEntity
8
0
100
AcDbVertex
62
9
6
CONTINUOUS
100
AcDb2dVertex
10
-3.5212750664
20
-33.7993204094
0
VERTEX
5
25E
100
AcDbEntity
8
0
100
AcDbVertex
62
9
6
CONTINUOUS
100
AcDb2dVertex
10
-3.4614869355
20
-34.8838712709
0
VERTEX
5
25F
100
AcDbEntity
8
0
100
AcDbVertex
62
9
6
CONTINUOUS
100
AcDb2dVertex
10
-3.4279530830
20
-35.4697846970
0
SEQEND
5
260
100
AcDbEntity
8
0
0
LINE
5
261
100
AcDbEntity
8
0
100
AcDbLine
62
9
6
CONTINUOUS
10
-3.9314329408
20
-34.2196827046
11
-3.9682930756
21
-33.5398026397
0
POLYLINE
5
262
100
AcDbEntity
8
0
100
AcDb2dPolyline
62
9
6
CONTINUOUS
66
1
70
0
0
VERTEX
5
263
100
AcDbEntity
8
0
100
AcDbVertex
62
9
6
CONTINUOUS
100
AcDb2dVertex
10
-1.0380833039
20
-35.3085979010
0
VERTEX
5
264
100
AcDbEntity
8
0
100
AcDbVertex
62
9
6
CONTINUOUS
100
AcDb2dVertex
10
-1.0749393742
20
-34.6287473242
0
VERTEX
5
265
100
AcDbEntity
8
0
100
AcDbVertex
62
9
6
CONTINUOUS
100
AcDb2dVertex
10
-1.0839560149
20
-34.4421600232
0
VERTEX
5
266
100
AcDbEntity
8
0
100
AcDbVertex
62
9
6
CONTINUOUS
100
AcDb2dVertex
10
-1.0919859665
20
-34.2550512870
0
VERTEX
5
267
100
AcDbEntity
8
0
100
AcDbVertex
62
9
6
CONTINUOUS
100
AcDb2dVertex
10
-1.0990288377
20
-34.0674302350
0
VERTEX
5
268
100
AcDbEntity
8
0
100
AcDbVertex
62
9
6
CONTINUOUS
100
AcDb2dVertex
10
-1.1021800089
20
-33.9734304472
0
VERTEX
5
269
100
AcDbEntity
8
0
100
AcDbVertex
62
9
6
CONTINUOUS
100
AcDb2dVertex
10
-1.1096490780
20
-33.7112113584
0
SEQEND
5
26A
100
AcDbEntity
8
0
0
POLYLINE
5
26B
100
AcDbEntity
8
0
100
AcDb2dPolyline
62
9
6
CONTINUOUS
66
1
70
0
0
VERTEX
5
26C
100
AcDbEntity
8
0
100
AcDbVertex
62
9
6
CONTINUOUS
100
AcDb2dVertex
10
-3.5608623706
20
-32.7886946639
0
VERTEX
5
26D
100
AcDbEntity
8
0
100
AcDbVertex
62
9
6
CONTINUOUS
100
AcDb2dVertex
10
-3.5583982879
20
-32.8830384478
0
VERTEX
5
26E
100
AcDbEntity
8
0
100
AcDbVertex
62
9
6
CONTINUOUS
100
AcDb2dVertex
10
-3.5527292875
20
-33.0713570603
0
VERTEX
5
26F
100
AcDbEntity
8
0
100
AcDbVertex
62
9
6
CONTINUOUS
100
AcDb2dVertex
10
-3.5460727422
20
-33.2591760860
0
VERTEX
5
270
100
AcDbEntity
8
0
100
AcDbVertex
62
9
6
CONTINUOUS
100
AcDb2dVertex
10
-3.5384289763
20
-33.4464863711
0
VERTEX
5
271
100
AcDbEntity
8
0
100
AcDbVertex
62
9
6
CONTINUOUS
100
AcDb2dVertex
10
-3.5342370002
20
-33.5399478820
0
VERTEX
5
272
100
AcDbEntity
8
0
100
AcDbVertex
62
9
6
CONTINUOUS
100
AcDb2dVertex
10
-3.5212746466
20
-33.7993195878
0
SEQEND
5
273
100
AcDbEntity
8
0
0
LINE
5
274
100
AcDbEntity
8
0
100
AcDbLine
62
9
6
CONTINUOUS
10
-0.6411145731
20
-34.7488857201
11
-0.6263659476
21
-35.0277997205
0
LINE
5
275
100
AcDbEntity
8
0
100
AcDbLine
62
9
6
CONTINUOUS
10
-0.6498984996
20
-34.5621745961
11
-0.6411145731
21
-34.7488857201
0
LINE
5
276
100
AcDbEntity
8
0
100
AcDbLine
62
9
6
CONTINUOUS
10
-0.6576956403
20
-34.3749441859
11
-0.6498984996
21
-34.5621745961
0
LINE
5
277
100
AcDbEntity
8
0
100
AcDbLine
62
7
6
CONTINUOUS
10
5.5501040355
20
-32.4175756314
11
5.5500803464
21
-32.4169631870
0
LINE
5
278
100
AcDbEntity
8
0
100
AcDbLine
62
7
6
CONTINUOUS
10
6.3064086920
20
16.6226036193
11
6.3064185743
21
16.6227513285
0
LINE
5
279
100
AcDbEntity
8
0
100
AcDbLine
62
9
6
CONTINUOUS
10
-10.8711310345
20
-20.2128566304
11
-11.6308110355
21
-20.5489532718
0
LINE
5
27A
100
AcDbEntity
8
0
100
AcDbLine
62
9
6
CONTINUOUS
10
-10.7268244893
20
-20.4516323671
11
-11.4865044903
21
-20.7877290085
0
LINE
5
27B
100
AcDbEntity
8
0
100
AcDbLine
62
7
6
CONTINUOUS
10
16.2086667654
20
-40.1841812247
11
17.2231544630
21
24.7780739839
0
LINE
5
27C
100
AcDbEntity
8
0
100
AcDbLine
62
7
6
CONTINUOUS
10
-10.8847462652
20
20.6187003395
11
6.1508595604
21
14.2072927320
0
LINE
5
27D
100
AcDbEntity
8
0
100
AcDbLine
62
9
6
CONTINUOUS
10
-10.8477961859
20
20.6524465373
11
6.1538076305
21
14.2538357004
0
LINE
5
27E
100
AcDbEntity
8
0
100
AcDbLine
62
9
6
CONTINUOUS
10
-12.3708244676
20
24.4385923394
11
6.1297838473
21
17.4758261127
0
LINE
5
27F
100
AcDbEntity
8
0
100
AcDbLine
62
9
6
CONTINUOUS
10
-12.9351559463
20
29.0861908736
11
6.9081813470
21
21.6180840753
0
LINE
5
280
100
AcDbEntity
8
0
100
AcDbLine
62
9
6
CONTINUOUS
10
16.2086667654
20
-40.1841812247
11
14.8033705776
21
-40.7119206865
0
LINE
5
281
100
AcDbEntity
8
0
100
AcDbLine
62
7
6
CONTINUOUS
10
13.9176993061
20
-44.1252946104
11
12.5771264850
21
-44.5767855032
0
SPLINE
5
282
100
AcDbEntity
8
0
100
AcDbSpline
62
7
6
CONTINUOUS
70
0
71
3
72
13
73
9
74
7
42
0.0000001000
43
0.0000001000
44
0.0000000001
12
-1.6695905684
22
0.8407819583
32
0.0000000000
13
-1.3395730080
23
1.3038370771
33
0.0000000000
40
0.0000000000
40
0.0000000000
40
0.0000000000
40
0.0000000000
40
0.1879977968
40
0.3674002630
40
0.5382805722
40
0.7006079211
40
0.8544812309
40
1.0000000000
40
1.0000000000
40
1.0000000000
40
1.0000000000
10
-0.2627296230
20
36.8684292788
30
0.0000000000
10
-0.3673560724
20
36.9211176640
30
0.0000000000
10
-0.5700074135
20
37.0277606215
30
0.0000000000
10
-0.8603472630
20
37.1958939252
30
0.0000000000
10
-1.1294010986
20
37.3682629919
30
0.0000000000
10
-1.3766728824
20
37.5444968253
30
0.0000000000
10
-1.6015400873
20
37.7242044758
30
0.0000000000
10
-1.7399289806
20
37.8495513156
30
0.0000000000
10
-1.8049066524
20
37.9127955712
30
0.0000000000
11
-0.2627296230
21
36.8684292788
31
0.0000000000
11
-0.5735750132
21
37.0323804367
31
0.0000000000
11
-0.8636104203
21
37.2007523287
31
0.0000000000
11
-1.1323821442
21
37.3733787799
31
0.0000000000
11
-1.3792447225
21
37.5498387832
31
0.0000000000
11
-1.6036485764
21
37.7297857627
31
0.0000000000
11
-1.8049066524
21
37.9127955712
31
0.0000000000
0
SPLINE
5
283
100
AcDbEntity
8
0
100
AcDbSpline
62
7
6
CONTINUOUS
70
0
71
3
72
14
73
10
74
8
42
0.0000001000
43
0.0000001000
44
0.0000000001
12
-0.2613300013
22
0.1171089279
32
0.0000000000
13
-0.2859645193
23
-0.0152369375
33
0.0000000000
40
0.0000000000
40
0.0000000000
40
0.0000000000
40
0.0000000000
40
0.1299382206
40
0.2684904508
40
0.4125587566
40
0.5594371865
40
0.7084428734
40
0.8565395157
40
1.0000000000
40
1.0000000000
40
1.0000000000
40
1.0000000000
10
6.4225690801
20
35.2730639587
30
0.0000000000
10
6.4112501616
20
35.2781362673
30
0.0000000000
10
6.3873627611
20
35.2875246931
30
0.0000000000
10
6.3496548393
20
35.2989993299
30
0.0000000000
10
6.3096579105
20
35.3081499752
30
0.0000000000
10
6.2681716620
20
35.3148498557
30
0.0000000000
10
6.2259701522
20
35.3190218227
30
0.0000000000
10
6.1839222242
20
35.3206438705
30
0.0000000000
10
6.1560778138
20
35.3200182359
30
0.0000000000
10
6.1424029444
20
35.3192896031
30
0.0000000000
11
6.4225690801
21
35.2730639587
31
0.0000000000
11
6.3879762800
21
35.2867735992
31
0.0000000000
11
6.3500418745
21
35.2984038638
31
0.0000000000
11
6.3098359578
21
35.3076565989
31
0.0000000000
11
6.2683171762
21
35.3143922482
31
0.0000000000
11
6.2258546878
21
35.3186032807
31
0.0000000000
11
6.1834751521
21
35.3202225538
31
0.0000000000
11
6.1424029444
21
35.3192896031
31
0.0000000000
0
SPLINE
5
284
100
AcDbEntity
8
0
100
AcDbSpline
62
7
6
CONTINUOUS
70
0
71
3
72
13
73
9
74
7
42
0.0000001000
43
0.0000001000
44
0.0000000001
12
-2.8456401148
22
0.4228476132
32
0.0000000000
13
-2.7687398377
23
0.7813753761
33
0.0000000000
40
0.0000000000
40
0.0000000000
40
0.0000000000
40
0.0000000000
40
0.1735758264
40
0.3449281354
40
0.5136024883
40
0.6792387914
40
0.8414263946
40
1.0000000000
40
1.0000000000
40
1.0000000000
40
1.0000000000
10
5.0703767488
20
35.3252595164
30
0.0000000000
10
4.9057319706
20
35.3497248911
30
0.0000000000
10
4.5790251600
20
35.4015962446
30
0.0000000000
10
4.0942109843
20
35.4885890354
30
0.0000000000
10
3.6187360932
20
35.5839637147
30
0.0000000000
10
3.1539403643
20
35.6873696960
30
0.0000000000
10
2.7009156151
20
35.7985694590
30
0.0000000000
10
2.4038830819
20
35.8786179651
30
0.0000000000
10
2.2575333957
20
35.9199198020
30
0.0000000000
11
5.0703767488
21
35.3252595164
31
0.0000000000
11
4.5772008247
21
35.4035897517
31
0.0000000000
11
4.0919981621
21
35.4907036221
31
0.0000000000
11
3.6162327871
21
35.5862096497
31
0.0000000000
11
3.1511102220
21
35.6897909142
31
0.0000000000
11
2.6979894713
21
35.8011128291
31
0.0000000000
11
2.2575333957
21
35.9199198020
31
0.0000000000
0
SPLINE
5
285
100
AcDbEntity
8
0
100
AcDbSpline
62
7
6
CONTINUOUS
70
0
71
3
72
10
73
6
74
4
42
0.0000001000
43
0.0000001000
44
0.0000000001
12
-0.5177000852
22
-0.0275817639
32
0.0000000000
13
-0.5180572825
23
-0.0197682587
33
0.0000000000
40
0.0000000000
40
0.0000000000
40
0.0000000000
40
0.0000000000
40
0.3347304574
40
0.6680551100
40
1.0000000000
40
1.0000000000
40
1.0000000000
40
1.0000000000
10
6.1424029444
20
35.3192896031
30
0.0000000000
10
6.0846396156
20
35.3162121176
30
0.0000000000
10
5.9693396811
20
35.3103638955
30
0.0000000000
10
5.7967076319
20
35.3024776364
30
0.0000000000
10
5.6818357851
20
35.2978070102
30
0.0000000000
10
5.6245136292
20
35.2956196860
30
0.0000000000
11
6.1424029444
21
35.3192896031
31
0.0000000000
11
5.9690900763
21
35.3104971412
31
0.0000000000
11
5.7964631641
21
35.3026113185
31
0.0000000000
11
5.6245136292
21
35.2956196860
31
0.0000000000
0
SPLINE
5
286
100
AcDbEntity
8
0
100
AcDbSpline
62
7
6
CONTINUOUS
70
0
71
3
72
15
73
11
74
9
42
0.0000001000
43
0.0000001000
44
0.0000000001
12
-2.5955639077
22
0.7325028148
32
0.0000000000
13
-2.4087562068
23
1.2130152139
33
0.0000000000
40
0.0000000000
40
0.0000000000
40
0.0000000000
40
0.0000000000
40
0.1370998818
40
0.2709359413
40
0.4014133912
40
0.5284442588
40
0.6519279182
40
0.7717651192
40
0.8878403409
40
1.0000000000
40
1.0000000000
40
1.0000000000
40
1.0000000000
10
2.2575333964
20
35.9199197100
30
0.0000000000
10
2.1389162281
20
35.9533950598
30
0.0000000000
10
1.9050669899
20
36.0215636282
30
0.0000000000
10
1.5606284052
20
36.1292753237
30
0.0000000000
10
1.2271419064
20
36.2414294992
30
0.0000000000
10
0.9050810990
20
36.3580863362
30
0.0000000000
10
0.5949086758
20
36.4791868229
30
0.0000000000
10
0.2970420255
20
36.6044359923
30
0.0000000000
10
0.0119061038
20
36.7334057691
30
0.0000000000
10
-0.1726745277
20
36.8230787283
30
0.0000000000
10
-0.2627296194
20
36.8684291859
30
0.0000000000
11
2.2575333964
21
35.9199197100
31
0.0000000000
11
1.9026004060
21
36.0235452730
31
0.0000000000
11
1.5581469045
21
36.1314137095
31
0.0000000000
11
1.2246567118
21
36.2437133990
31
0.0000000000
11
0.9025859077
21
36.3605119958
31
0.0000000000
11
0.5924005685
21
36.4817272155
31
0.0000000000
11
0.2945091844
21
36.6070879165
31
0.0000000000
11
0.0093157437
21
36.7361772586
31
0.0000000000
11
-0.2627296194
21
36.8684291859
31
0.0000000000
0
SPLINE
5
287
100
AcDbEntity
8
0
100
AcDbSpline
62
7
6
CONTINUOUS
70
0
71
3
72
11
73
7
74
5
42
0.0000001000
43
0.0000001000
44
0.0000000001
12
-7.0682612393
22
2.1542992537
32
0.0000000000
13
-7.2707967640
23
1.3178909808
33
0.0000000000
40
0.0000000000
40
0.0000000000
40
0.0000000000
40
0.0000000000
40
0.2534705969
40
0.5045830800
40
0.7534120828
40
1.0000000000
40
1.0000000000
40
1.0000000000
40
1.0000000000
10
-1.9879587301
20
38.4383897952
30
0.0000000000
10
-2.5851575285
20
38.6204069677
30
0.0000000000
10
-3.7791303672
20
38.9661667486
30
0.0000000000
10
-5.5758880177
20
39.4312388677
30
0.0000000000
10
-7.3689056468
20
39.8400123932
30
0.0000000000
10
-8.5663699257
20
40.0758753098
30
0.0000000000
10
-9.1640001358
20
40.1842006404
30
0.0000000000
11
-1.9879587301
21
38.4383897952
31
0.0000000000
11
-3.7870748736
21
38.9591306191
31
0.0000000000
11
-5.5834750532
21
39.4238543356
31
0.0000000000
11
-7.3761978876
21
39.8323067236
31
0.0000000000
11
-9.1640001358
21
40.1842006404
31
0.0000000000
0
SPLINE
5
288
100
AcDbEntity
8
0
100
AcDbSpline
62
7
6
CONTINUOUS
70
0
71
3
72
14
73
10
74
8
42
0.0000001000
43
0.0000001000
44
0.0000000001
12
-1.9186177296
22
0.3477650502
32
0.0000000000
13
-1.7410742381
23
-0.8796493472
33
0.0000000000
40
0.0000000000
40
0.0000000000
40
0.0000000000
40
0.0000000000
40
0.1521237226
40
0.3009447040
40
0.4469187822
40
0.5907130682
40
0.7328807263
40
0.8742541608
40
1.0000000000
40
1.0000000000
40
1.0000000000
40
1.0000000000
10
-9.1640001358
20
40.1842006404
30
0.0000000000
10
-9.2612892262
20
40.2018350784
30
0.0000000000
10
-9.4553038590
20
40.2288116605
30
0.0000000000
10
-9.7457774145
20
40.2435823739
30
0.0000000000
10
-10.0310247187
20
40.2320969600
30
0.0000000000
10
-10.3096520643
20
40.1943775085
30
0.0000000000
10
-10.5804295909
20
40.1305686189
30
0.0000000000
10
-10.8325076271
20
40.0442246590
30
0.0000000000
10
-10.9909797794
20
39.9727194091
30
0.0000000000
10
-11.0639573931
20
39.9358486606
30
0.0000000000
11
-9.1640001358
21
40.1842006404
31
0.0000000000
11
-9.4578376988
21
40.2247561721
31
0.0000000000
11
-9.7476598591
21
40.2392260217
31
0.0000000000
11
-10.0320520549
21
40.2275439320
31
0.0000000000
11
-10.3098752848
21
40.1897530905
31
0.0000000000
11
-10.5796678508
21
40.1260558708
31
0.0000000000
11
-10.8404392192
21
40.0366832873
31
0.0000000000
11
-11.0639573931
21
39.9358486606
31
0.0000000000
0
SPLINE
5
289
100
AcDbEntity
8
0
100
AcDbSpline
62
7
6
CONTINUOUS
70
0
71
3
72
28
73
24
74
22
42
0.0000001000
43
0.0000001000
44
0.0000000001
12
0.1265254597
22
8.1019998781
32
0.0000000000
13
-7.0316982394
23
4.0266152767
33
0.0000000000
40
0.0000000000
40
0.0000000000
40
0.0000000000
40
0.0000000000
40
0.0462756915
40
0.0933724205
40
0.1411852658
40
0.1896425710
40
0.2386041137
40
0.2880016959
40
0.3376696255
40
0.3875442347
40
0.4374446179
40
0.4873119504
40
0.5369606702
40
0.5863367578
40
0.6352606927
40
0.6836833042
40
0.7314417795
40
0.7784923516
40
0.8246993950
40
0.8700259954
40
0.9143738857
40
0.9577156130
40
1.0000000000
40
1.0000000000
40
1.0000000000
40
1.0000000000
10
17.2231544630
20
24.7780739839
30
0.0000000000
10
17.2251061474
20
24.9030491996
30
0.0000000000
10
17.2221227039
20
25.1553724352
30
0.0000000000
10
17.1976445364
20
25.5360864713
30
0.0000000000
10
17.1532342765
20
25.9209293581
30
0.0000000000
10
17.0891022942
20
26.3080779348
30
0.0000000000
10
17.0055261408
20
26.6958747768
30
0.0000000000
10
16.9029087258
20
27.0824534153
30
0.0000000000
10
16.7816822988
20
27.4661905535
30
0.0000000000
10
16.6424399927
20
27.8452096128
30
0.0000000000
10
16.4857585466
20
28.2179420274
30
0.0000000000
10
16.3124115794
20
28.5825472864
30
0.0000000000
10
16.1231108695
20
28.9375276781
30
0.0000000000
10
15.9187936938
20
29.2811247518
30
0.0000000000
10
15.7002981136
20
29.6119270591
30
0.0000000000
10
15.4687018835
20
29.9283011778
30
0.0000000000
10
15.2249609812
20
30.2289375282
30
0.0000000000
10
14.9702651695
20
30.5123656400
30
0.0000000000
10
14.7056796929
20
30.7773943006
30
0.0000000000
10
14.4324748057
20
31.0227464991
30
0.0000000000
10
14.1518121099
20
31.2473691215
30
0.0000000000
10
13.8650222824
20
31.4501927445
30
0.0000000000
10
13.6680868550
20
31.5718140253
30
0.0000000000
10
13.5689765052
20
31.6285683448
30
0.0000000000
11
17.2231544630
21
24.7780739839
31
0.0000000000
11
17.2189054613
21
25.1530212714
31
0.0000000000
11
17.1945811589
21
25.5338694991
31
0.0000000000
11
17.1503037214
21
25.9187579401
31
0.0000000000
11
17.0862476430
21
26.3061466563
31
0.0000000000
11
17.0027527354
21
26.6939959665
31
0.0000000000
11
16.9001233016
21
27.0808831258
31
0.0000000000
11
16.7789307793
21
27.4646608196
31
0.0000000000
11
16.6395895476
21
27.8440126148
31
0.0000000000
11
16.4829006323
21
28.2167607792
31
0.0000000000
11
16.3093783660
21
28.5816801285
31
0.0000000000
11
16.1200358855
21
28.9366408365
31
0.0000000000
11
15.9154863682
21
29.2804933782
31
0.0000000000
11
15.6969234724
21
29.6112304972
31
0.0000000000
11
15.4650659132
21
29.9277657806
31
0.0000000000
11
15.2212441860
21
30.2282809939
31
0.0000000000
11
14.9662952724
21
30.5117466419
31
0.0000000000
11
14.7016333465
21
30.7765876090
31
0.0000000000
11
14.4282301932
21
31.0218343557
31
0.0000000000
11
14.1475241456
21
31.2461930718
31
0.0000000000
11
13.8606395534
21
31.4487687502
31
0.0000000000
11
13.5689765052
21
31.6285683448
31
0.0000000000
0
SPLINE
5
28A
100
AcDbEntity
8
0
100
AcDbSpline
62
7
6
CONTINUOUS
70
0
71
3
72
11
73
7
74
5
42
0.0000001000
43
0.0000001000
44
0.0000000001
12
-6.9641280383
22
3.9879220344
32
0.0000000000
13
-7.3235296774
23
3.2815414899
33
0.0000000000
40
0.0000000000
40
0.0000000000
40
0.0000000000
40
0.0000000000
40
0.2535685147
40
0.5047657796
40
0.7535680708
40
1.0000000000
40
1.0000000000
40
1.0000000000
40
1.0000000000
10
13.5689765052
20
31.6285683448
30
0.0000000000
10
12.9803486377
20
31.9656388338
30
0.0000000000
10
11.8006072232
20
32.6227905231
30
0.0000000000
10
10.0161438398
20
33.5608884105
30
0.0000000000
10
8.2261754183
20
34.4461881835
30
0.0000000000
10
7.0241494421
20
35.0035037336
30
0.0000000000
10
6.4225655931
20
35.2730626003
30
0.0000000000
11
13.5689765052
21
31.6285683448
31
0.0000000000
11
11.7911401418
21
32.6186145022
31
0.0000000000
11
10.0066845180
21
33.5564452566
31
0.0000000000
11
8.2168472620
21
34.4414140675
31
0.0000000000
11
6.4225655931
21
35.2730626003
31
0.0000000000
0
SPLINE
5
28B
100
AcDbEntity
8
0
100
AcDbSpline
62
7
6
CONTINUOUS
70
0
71
3
72
13
73
9
74
7
42
0.0000001000
43
0.0000001000
44
0.0000000001
12
-0.0431969172
22
0.1326778601
32
0.0000000000
13
-0.1329374804
23
0.0405225759
33
0.0000000000
40
0.0000000000
40
0.0000000000
40
0.0000000000
40
0.0000000000
40
0.0674301744
40
0.2068773137
40
0.3669230661
40
0.5526724948
40
0.7647168086
40
1.0000000000
40
1.0000000000
40
1.0000000000
40
1.0000000000
10
-1.8777576330
20
38.3611114753
30
0.0000000000
10
-1.8787285582
20
38.3640936391
30
0.0000000000
10
-1.8824826816
20
38.3729974336
30
0.0000000000
10
-1.8924999737
20
38.3869483686
30
0.0000000000
10
-1.9093521623
20
38.4020221331
30
0.0000000000
10
-1.9312527159
20
38.4159069857
30
0.0000000000
10
-1.9578725681
20
38.4283595701
30
0.0000000000
10
-1.9774714855
20
38.4351941633
30
0.0000000000
10
-1.9878974704
20
38.4383722570
30
0.0000000000
11
-1.8777576330
21
38.3611114753
31
0.0000000000
11
-1.8813770114
21
38.3697876163
31
0.0000000000
11
-1.8924199421
21
38.3857134746
31
0.0000000000
11
-1.9087950587
21
38.4007663271
31
0.0000000000
11
-1.9304622749
21
38.4147996951
31
0.0000000000
11
-1.9570728172
21
38.4274610831
31
0.0000000000
11
-1.9878974704
21
38.4383722570
31
0.0000000000
0
SPLINE
5
28C
100
AcDbEntity
8
0
100
AcDbSpline
62
7
6
CONTINUOUS
70
0
71
3
72
8
73
4
74
2
42
0.0000001000
43
0.0000001000
44
0.0000000001
12
-0.1719733386
22
0.5246546009
32
0.0000000000
13
-0.1703747275
23
0.5251754304
33
0.0000000000
40
0.0000000000
40
0.0000000000
40
0.0000000000
40
0.0000000000
40
1.0000000000
40
1.0000000000
40
1.0000000000
40
1.0000000000
10
-1.6994234999
20
37.8141008823
30
0.0000000000
10
-1.7567479461
20
37.9889857493
30
0.0000000000
10
-1.8138051103
20
38.1639582325
30
0.0000000000
10
-1.8705966861
20
38.3390167093
30
0.0000000000
11
-1.6994234999
21
37.8141008823
31
0.0000000000
11
-1.8705966861
21
38.3390167093
31
0.0000000000
0
SPLINE
5
28D
100
AcDbEntity
8
0
100
AcDbSpline
62
7
6
CONTINUOUS
70
0
71
3
72
25
73
21
74
19
42
0.0000001000
43
0.0000001000
44
0.0000000001
12
-0.3819315498
22
0.1731273267
32
0.0000000000
13
0.0065382218
23
0.4188312555
33
0.0000000000
40
0.0000000000
40
0.0000000000
40
0.0000000000
40
0.0000000000
40
0.0014226372
40
0.0151359638
40
0.0399021513
40
0.0748179826
40
0.1188560457
40
0.1713725989
40
0.2321124591
40
0.3002069891
40
0.3742262792
40
0.4525476551
40
0.5334484762
40
0.6151133196
40
0.6956995710
40
0.7733737379
40
0.8464075272
40
0.9133867157
40
0.9731092760
40
1.0000000000
40
1.0000000000
40
1.0000000000
40
1.0000000000
10
-10.5402221019
20
-20.4347973105
30
0.0000000000
10
-10.5404032186
20
-20.4347152114
30
0.0000000000
10
-10.5423263682
20
-20.4338342022
30
0.0000000000
10
-10.5472907725
20
-20.4313048507
30
0.0000000000
10
-10.5560004652
20
-20.4258792652
30
0.0000000000
10
-10.5676676122
20
-20.4172847984
30
0.0000000000
10
-10.5815937190
20
-20.4053048720
30
0.0000000000
10
-10.5971844996
20
-20.3898183902
30
0.0000000000
10
-10.6138768232
20
-20.3707591862
30
0.0000000000
10
-10.6310580148
20
-20.3482231043
30
0.0000000000
10
-10.6480540765
20
-20.3225443988
30
0.0000000000
10
-10.6642142181
20
-20.2942521699
30
0.0000000000
10
-10.6789696626
20
-20.2640099682
30
0.0000000000
10
-10.6918587208
20
-20.2325843205
30
0.0000000000
10
-10.7025439389
20
-20.2008176838
30
0.0000000000
10
-10.7108298194
20
-20.1695878831
30
0.0000000000
10
-10.7166779293
20
-20.1397455877
30
0.0000000000
10
-10.7202012391
20
-20.1120654491
30
0.0000000000
10
-10.7214493259
20
-20.0906450964
30
0.0000000000
10
-10.7214906722
20
-20.0785479859
30
0.0000000000
10
-10.7214320663
20
-20.0747937607
30
0.0000000000
11
-10.5402221019
21
-20.4347973105
31
0.0000000000
11
-10.5407643808
21
-20.4345489054
31
0.0000000000
11
-10.5458875539
21
-20.4319539981
31
0.0000000000
11
-10.5547324987
21
-20.4265376829
31
0.0000000000
11
-10.5665401718
21
-20.4179131376
31
0.0000000000
11
-10.5805588995
21
-20.4059301714
31
0.0000000000
11
-10.5961971517
21
-20.3904663147
31
0.0000000000
11
-10.6129894814
21
-20.3713603256
31
0.0000000000
11
-10.6303083893
21
-20.3487052674
31
0.0000000000
11
-10.6474412312
21
-20.3228725922
31
0.0000000000
11
-10.6637261198
21
-20.2944015129
31
0.0000000000
11
-10.6785908614
21
-20.2639570172
31
0.0000000000
11
-10.6915676368
21
-20.2323150581
31
0.0000000000
11
-10.7023161528
21
-20.2003246168
31
0.0000000000
11
-10.7106373919
21
-20.1688786211
31
0.0000000000
11
-10.7164891539
21
-20.1388585851
31
0.0000000000
11
-10.7199923798
21
-20.1110286980
31
0.0000000000
11
-10.7214011426
21
-20.0860578188
31
0.0000000000
11
-10.7214320663
21
-20.0747937607
31
0.0000000000
0
SPLINE
5
28E
100
AcDbEntity
8
0
100
AcDbSpline
62
7
6
CONTINUOUS
70
0
71
3
72
43
73
39
74
37
42
0.0000001000
43
0.0000001000
44
0.0000000001
12
0.0010869253
22
-0.0024364745
32
0.0000000000
13
0.2189319528
23
-0.0824263463
33
0.0000000000
40
0.0000000000
40
0.0000000000
40
0.0000000000
40
0.0000000000
40
0.0051009688
40
0.0169818141
40
0.0347508253
40
0.0577395163
40
0.0849400412
40
0.1151099029
40
0.1471431667
40
0.1801940784
40
0.2138420643
40
0.2479159585
40
0.2822060406
40
0.3164835190
40
0.3506037635
40
0.3845185620
40
0.4182244336
40
0.4517448548
40
0.4851178793
40
0.5183731966
40
0.5513820262
40
0.5841998190
40
0.6170186219
40
0.6500286807
40
0.6833612017
40
0.7170172551
40
0.7507949190
40
0.7845555196
40
0.8183011249
40
0.8512287426
40
0.8820734340
40
0.9098832258
40
0.9327869944
40
0.9506392596
40
0.9653620469
40
0.9792525737
40
0.9930375735
40
1.0000000000
40
1.0000000000
40
1.0000000000
40
1.0000000000
10
-11.1129973070
20
20.5948978044
30
0.0000000000
10
-11.1129954589
20
20.5948936617
30
0.0000000000
10
-11.1107788644
20
20.5959838068
30
0.0000000000
10
-11.1091446111
20
20.5966968444
30
0.0000000000
10
-11.1049741496
20
20.5985507614
30
0.0000000000
10
-11.1002417070
20
20.6005002453
30
0.0000000000
10
-11.0943515054
20
20.6028159203
30
0.0000000000
10
-11.0878287073
20
20.6052206971
30
0.0000000000
10
-11.0808046249
20
20.6076542562
30
0.0000000000
10
-11.0734821438
20
20.6100275034
30
0.0000000000
10
-11.0659600817
20
20.6123028711
30
0.0000000000
10
-11.0583025253
20
20.6144567961
30
0.0000000000
10
-11.0505570696
20
20.6164745201
30
0.0000000000
10
-11.0427707809
20
20.6183437704
30
0.0000000000
10
-11.0349787612
20
20.6200575674
30
0.0000000000
10
-11.0271992164
20
20.6216138540
30
0.0000000000
10
-11.0194374520
20
20.6230132917
30
0.0000000000
10
-11.0116920056
20
20.6242570577
30
0.0000000000
10
-11.0039587878
20
20.6253462530
30
0.0000000000
10
-10.9962454466
20
20.6262800733
30
0.0000000000
10
-10.9885583111
20
20.6270577792
30
0.0000000000
10
-10.9808911331
20
20.6276795932
30
0.0000000000
10
-10.9732127873
20
20.6281455965
30
0.0000000000
10
-10.9654862248
20
20.6284524198
30
0.0000000000
10
-10.9576894795
20
20.6285920957
30
0.0000000000
10
-10.9498316496
20
20.6285533752
30
0.0000000000
10
-10.9419435764
20
20.6283246515
30
0.0000000000
10
-10.9340568034
20
20.6278949064
30
0.0000000000
10
-10.9262505518
20
20.6272563542
30
0.0000000000
10
-10.9186920716
20
20.6264157193
30
0.0000000000
10
-10.9116214236
20
20.6254067212
30
0.0000000000
10
-10.9053567950
20
20.6243058446
30
0.0000000000
10
-10.9001226244
20
20.6232119004
30
0.0000000000
10
-10.8959162950
20
20.6221989759
30
0.0000000000
10
-10.8924201950
20
20.6212460816
30
0.0000000000
10
-10.8892570037
20
20.6202832753
30
0.0000000000
10
-10.8866982537
20
20.6194171983
30
0.0000000000
10
-10.8851792014
20
20.6188603501
30
0.0000000000
10
-10.8846711022
20
20.6186690543
30
0.0000000000
11
-11.1129973070
21
20.5948978044
31
0.0000000000
11
-11.1117917651
21
20.5954816519
31
0.0000000000
11
-11.1092682208
21
20.5966460157
31
0.0000000000
11
-11.1054619925
21
20.5983163143
31
0.0000000000
11
-11.1004964593
21
20.6003807924
31
0.0000000000
11
-11.0945735324
21
20.6027056109
31
0.0000000000
11
-11.0879532227
21
20.6051508226
31
0.0000000000
11
-11.0808729727
21
20.6076044366
31
0.0000000000
11
-11.0735185864
21
20.6099892723
31
0.0000000000
11
-11.0659848264
21
20.6122687664
31
0.0000000000
11
-11.0583120281
21
20.6144274964
31
0.0000000000
11
-11.0505498837
21
20.6164498216
31
0.0000000000
11
-11.0427531187
21
20.6183216791
31
0.0000000000
11
-11.0349578910
21
20.6200361277
31
0.0000000000
11
-11.0271785177
21
20.6215922143
31
0.0000000000
11
-11.0194189770
21
20.6229909660
31
0.0000000000
11
-11.0116768899
21
20.6242338895
31
0.0000000000
11
-11.0039464060
21
20.6253223996
31
0.0000000000
11
-10.9962235390
21
20.6262569638
31
0.0000000000
11
-10.9885411559
21
20.6270336956
31
0.0000000000
11
-10.9808893699
21
20.6276536684
31
0.0000000000
11
-10.9732263289
21
20.6281180269
31
0.0000000000
11
-10.9655105385
21
20.6284235425
31
0.0000000000
11
-10.9577145015
21
20.6285621039
31
0.0000000000
11
-10.9498416539
21
20.6285219098
31
0.0000000000
11
-10.9419436275
21
20.6282911184
31
0.0000000000
11
-10.9340580447
21
20.6278591337
31
0.0000000000
11
-10.9261906745
21
20.6272125126
31
0.0000000000
11
-10.9185357795
21
20.6263570093
31
0.0000000000
11
-10.9113935010
21
20.6253330479
31
0.0000000000
11
-10.9049871807
21
20.6242021593
31
0.0000000000
11
-10.8997436866
21
20.6231016602
31
0.0000000000
11
-10.8956846773
21
20.6221198283
31
0.0000000000
11
-10.8923623789
21
20.6212123398
31
0.0000000000
11
-10.8892542567
21
20.6202648780
31
0.0000000000
11
-10.8862002593
21
20.6192297956
31
0.0000000000
11
-10.8846711022
21
20.6186690543
31
0.0000000000
0
SPLINE
5
28F
100
AcDbEntity
8
0
100
AcDbSpline
62
7
6
CONTINUOUS
70
0
71
3
72
8
73
4
74
2
42
0.0000001000
43
0.0000001000
44
0.0000000001
12
-0.0904242981
22
-1.3514356204
32
0.0000000000
13
-0.0867606112
23
-1.3516749162
33
0.0000000000
40
0.0000000000
40
0.0000000000
40
0.0000000000
40
0.0000000000
40
1.0000000000
40
1.0000000000
40
1.0000000000
40
1.0000000000
10
6.3064065388
20
16.6225978341
30
0.0000000000
10
6.2762651061
20
16.1721192940
30
0.0000000000
10
6.2467331442
20
15.7216001479
30
0.0000000000
10
6.2178129405
20
15.2710418425
30
0.0000000000
11
6.3064065388
21
16.6225978341
31
0.0000000000
11
6.2178129405
21
15.2710418425
31
0.0000000000
0
SPLINE
5
290
100
AcDbEntity
8
0
100
AcDbSpline
62
7
6
CONTINUOUS
70
0
71
3
72
18
73
14
74
12
42
0.0000001000
43
0.0000001000
44
0.0000000001
12
-3.0563273258
22
-47.6156279533
32
0.0000000000
13
1.8442442699
23
-47.6780423573
33
0.0000000000
40
0.0000000000
40
0.0000000000
40
0.0000000000
40
0.0000000000
40
0.0574458056
40
0.1544146885
40
0.2509709464
40
0.3471039970
40
0.4428034324
40
0.5380590511
40
0.6328608634
40
0.7271990999
40
0.8210642253
40
0.9144469683
40
1.0000000000
40
1.0000000000
40
1.0000000000
40
1.0000000000
10
6.2178129405
20
15.2710418425
30
0.0000000000
10
6.1592885454
20
14.3592691405
30
0.0000000000
10
6.0087087274
20
11.9079872951
30
0.0000000000
10
5.7936134719
20
7.9221645066
30
0.0000000000
10
5.5888067518
20
3.3197869848
30
0.0000000000
10
5.4285490233
20
-1.2641560567
30
0.0000000000
10
5.3128742959
20
-5.8287490279
30
0.0000000000
10
5.2418077120
20
-10.3730801839
30
0.0000000000
10
5.2153655569
20
-14.8962415544
30
0.0000000000
10
5.2335552503
20
-19.3973295713
30
0.0000000000
10
5.2963753260
20
-23.8754449436
30
0.0000000000
10
5.4010011547
20
-28.2130156452
30
0.0000000000
10
5.4974868136
20
-31.0573021445
30
0.0000000000
10
5.5500803764
20
-32.4169691673
30
0.0000000000
11
6.2178129405
21
15.2710418425
31
0.0000000000
11
6.0497744589
21
12.5352546323
31
0.0000000000
11
5.8005474671
21
7.9152525604
31
0.0000000000
11
5.5958310938
21
3.3127714286
31
0.0000000000
11
5.4356680842
21
-1.2712704845
31
0.0000000000
11
5.3200923974
21
-5.8359573352
31
0.0000000000
11
5.2491291317
21
-10.3803770593
31
0.0000000000
11
5.2227945169
21
-14.9036214801
31
0.0000000000
11
5.2410959046
21
-19.4047865625
31
0.0000000000
11
5.3040317698
21
-23.8829728605
31
0.0000000000
11
5.4115917511
21
-28.3372868058
31
0.0000000000
11
5.5500803764
21
-32.4169691673
31
0.0000000000
0
SPLINE
5
291
100
AcDbEntity
8
0
100
AcDbSpline
62
7
6
CONTINUOUS
70
0
71
3
72
16
73
12
74
10
42
0.0000001000
43
0.0000001000
44
0.0000000001
12
2.8658936986
22
-0.5424521836
32
0.0000000000
13
2.7645437044
23
0.9310689936
33
0.0000000000
40
0.0000000000
40
0.0000000000
40
0.0000000000
40
0.0000000000
40
0.1168006716
40
0.2416608941
40
0.3663090091
40
0.4907742294
40
0.6150791933
40
0.7392525005
40
0.8633162108
40
0.9872927842
40
1.0000000000
40
1.0000000000
40
1.0000000000
40
1.0000000000
10
9.6984784172
20
-44.7737192274
30
0.0000000000
10
9.8100578534
20
-44.7948388205
30
0.0000000000
10
10.0422693906
20
-44.8317011335
30
0.0000000000
10
10.3969937482
20
-44.8658358409
30
0.0000000000
10
10.7606390277
20
-44.8775786500
30
0.0000000000
10
11.1237507136
20
-44.8661688400
30
0.0000000000
10
11.4849401335
20
-44.8317026100
30
0.0000000000
10
11.8428149391
20
-44.7743602735
30
0.0000000000
10
12.1959961688
20
-44.6944012689
30
0.0000000000
10
12.4393405119
20
-44.6227314724
30
0.0000000000
10
12.5654354710
20
-44.5807226399
30
0.0000000000
10
12.5771453555
20
-44.5767788751
30
0.0000000000
11
9.6984784172
21
-44.7737192274
31
0.0000000000
11
10.0349470428
21
-44.8271211848
31
0.0000000000
11
10.3974495605
21
-44.8619950549
31
0.0000000000
11
10.7608179285
21
-44.8737202622
31
0.0000000000
11
11.1236626675
21
-44.8623116467
31
0.0000000000
11
11.4845792675
21
-44.8278657259
31
0.0000000000
11
11.8421896125
21
-44.7705607566
31
0.0000000000
11
12.1951101662
21
-44.6906566868
31
0.0000000000
11
12.5419772122
21
-44.5884952214
31
0.0000000000
11
12.5771453555
21
-44.5767788751
31
0.0000000000
0
SPLINE
5
292
100
AcDbEntity
8
0
100
AcDbSpline
62
7
6
CONTINUOUS
70
0
71
3
72
23
73
19
74
17
42
0.0000001000
43
0.0000001000
44
0.0000000001
12
-5.2868255920
22
-2.6711613581
32
0.0000000000
13
-0.4983322896
23
-5.9014521215
33
0.0000000000
40
0.0000000000
40
0.0000000000
40
0.0000000000
40
0.0000000000
40
0.0087924849
40
0.0742458902
40
0.1397492295
40
0.2053230251
40
0.2709851174
40
0.3367447931
40
0.4026175617
40
0.4686225348
40
0.5347664666
40
0.6010663259
40
0.6675484682
40
0.7342438901
40
0.8011404308
40
0.8682514404
40
0.9355664997
40
1.0000000000
40
1.0000000000
40
1.0000000000
40
1.0000000000
10
-12.3279531844
20
39.2972146703
30
0.0000000000
10
-12.3434479624
20
39.2893859550
30
0.0000000000
10
-12.4739885052
20
39.2226819714
30
0.0000000000
10
-12.7148291197
20
39.0876899244
30
0.0000000000
10
-13.0398801389
20
38.8753401367
30
0.0000000000
10
-13.3501315637
20
38.6412122666
30
0.0000000000
10
-13.6441987364
20
38.3862812033
30
0.0000000000
10
-13.9207534688
20
38.1116127168
30
0.0000000000
10
-14.1785382168
20
37.8183542009
30
0.0000000000
10
-14.4163650818
20
37.5077338094
30
0.0000000000
10
-14.6331274358
20
37.1810517203
30
0.0000000000
10
-14.8278106296
20
36.8396646029
30
0.0000000000
10
-14.9995041794
20
36.4849463545
30
0.0000000000
10
-15.1473509411
20
36.1183738547
30
0.0000000000
10
-15.2705805811
20
35.7415044877
30
0.0000000000
10
-15.3685076740
20
35.3560154573
30
0.0000000000
10
-15.4394705429
20
34.9696299778
30
0.0000000000
10
-15.4696307530
20
34.7110830950
30
0.0000000000
10
-15.4803338509
20
34.5843326893
30
0.0000000000
11
-12.3279531844
21
39.2972146703
31
0.0000000000
11
-12.3743299133
21
39.2735169440
31
0.0000000000
11
-12.7124717016
21
39.0839912867
31
0.0000000000
11
-13.0372437785
21
38.8718302781
31
0.0000000000
11
-13.3472332804
21
38.6379080365
31
0.0000000000
11
-13.6410668407
21
38.3831898283
31
0.0000000000
11
-13.9173950768
21
38.1087594450
31
0.0000000000
11
-14.1749662887
21
37.8157602512
31
0.0000000000
11
-14.4126135835
21
37.5053947898
31
0.0000000000
11
-14.6292041716
21
37.1789969716
31
0.0000000000
11
-14.8237274003
21
36.8379221179
31
0.0000000000
11
-14.9952797648
21
36.4835352632
31
0.0000000000
11
-15.1430411364
21
36.1172252008
31
0.0000000000
11
-15.2661886871
21
35.7406704057
31
0.0000000000
11
-15.3640672467
21
35.3554605311
31
0.0000000000
11
-15.4360989571
21
34.9633631670
31
0.0000000000
11
-15.4803338509
21
34.5843326893
31
0.0000000000
0
SPLINE
5
293
100
AcDbEntity
8
0
100
AcDbSpline
62
7
6
CONTINUOUS
70
0
71
3
72
21
73
17
74
15
42
0.0000001000
43
0.0000001000
44
0.0000000001
12
-5.5369949763
22
-65.5728490680
32
0.0000000000
13
3.8083038896
23
-65.6959190857
33
0.0000000000
40
0.0000000000
40
0.0000000000
40
0.0000000000
40
0.0000000000
40
0.0733395073
40
0.1466025768
40
0.2195679161
40
0.2922271485
40
0.3645717703
40
0.4365935079
40
0.5082842941
40
0.5796362491
40
0.6506417010
40
0.7212931785
40
0.7915833838
40
0.8615051685
40
0.9310518761
40
1.0000000000
40
1.0000000000
40
1.0000000000
40
1.0000000000
10
-15.4803343000
20
34.5843274347
30
0.0000000000
10
-15.6156944611
20
32.9813006210
30
0.0000000000
10
-15.8711013130
20
29.7756150956
30
0.0000000000
10
-16.2076179409
20
24.9710042557
30
0.0000000000
10
-16.4967466100
20
20.1782526212
30
0.0000000000
10
-16.7380848594
20
15.4030292868
30
0.0000000000
10
-16.9315660894
20
10.6463415266
30
0.0000000000
10
-17.0771329495
20
5.9091986675
30
0.0000000000
10
-17.1747378125
20
1.1926029643
30
0.0000000000
10
-17.2243425865
20
-3.5024490764
30
0.0000000000
10
-17.2259186481
20
-8.1749664618
30
0.0000000000
10
-17.1794467644
20
-12.8239633662
30
0.0000000000
10
-17.0849171547
20
-17.4484567666
30
0.0000000000
10
-16.9423291824
20
-22.0474757279
30
0.0000000000
10
-16.7518900905
20
-26.6152930599
30
0.0000000000
10
-16.5926330999
20
-29.6491260990
30
0.0000000000
10
-16.5051079637
20
-31.1589962223
30
0.0000000000
11
-15.4803343000
21
34.5843274347
31
0.0000000000
11
-15.8635466762
21
29.7733707679
31
0.0000000000
11
-16.2003024201
21
24.9639817359
31
0.0000000000
11
-16.4893386773
21
20.1711170536
31
0.0000000000
11
-16.7305799281
21
15.3957784173
31
0.0000000000
11
-16.9239590455
21
10.6389825818
31
0.0000000000
11
-17.0694188128
21
5.9017380926
31
0.0000000000
11
-17.1669116768
21
1.1850470458
31
0.0000000000
11
-17.2163996150
21
-3.5100934754
31
0.0000000000
11
-17.2178540857
21
-8.1826925193
31
0.0000000000
11
-17.1712559450
21
-12.8317645493
31
0.0000000000
11
-17.0765954486
21
-17.4563274523
31
0.0000000000
11
-16.9338723852
21
-22.0554006634
31
0.0000000000
11
-16.7430952037
21
-26.6280274743
31
0.0000000000
11
-16.5051079637
21
-31.1589962223
31
0.0000000000
0
SPLINE
5
294
100
AcDbEntity
8
0
100
AcDbSpline
62
7
6
CONTINUOUS
70
0
71
3
72
23
73
19
74
17
42
0.0000001000
43
0.0000001000
44
0.0000000001
12
0.3510146841
22
-6.0551131514
32
0.0000000000
13
5.2942944615
23
-2.9594789905
33
0.0000000000
40
0.0000000000
40
0.0000000000
40
0.0000000000
40
0.0000000000
40
0.0620777780
40
0.1259161610
40
0.1889785144
40
0.2515108102
40
0.3137140176
40
0.3758320458
40
0.4378992317
40
0.4998457559
40
0.5616487601
40
0.6234159911
40
0.6852436087
40
0.7473393687
40
0.8099702944
40
0.8733360567
40
0.9377111931
40
1.0000000000
40
1.0000000000
40
1.0000000000
40
1.0000000000
10
-16.5051079597
20
-31.1589961540
30
0.0000000000
10
-16.4978445558
20
-31.2842921440
30
0.0000000000
10
-16.4750530756
20
-31.5380431043
30
0.0000000000
10
-16.4166247743
20
-31.9158622511
30
0.0000000000
10
-16.3339846504
20
-32.2900836485
30
0.0000000000
10
-16.2289101154
20
-32.6551821805
30
0.0000000000
10
-16.1020162947
20
-33.0112506829
30
0.0000000000
10
-15.9537954460
20
-33.3579566811
30
0.0000000000
10
-15.7848062972
20
-33.6944457790
30
0.0000000000
10
-15.5958528928
20
-34.0194050530
30
0.0000000000
10
-15.3877229372
20
-34.3316992750
30
0.0000000000
10
-15.1610190231
20
-34.6304826566
30
0.0000000000
10
-14.9160015382
20
-34.9152264248
30
0.0000000000
10
-14.6526052342
20
-35.1855124067
30
0.0000000000
10
-14.3704781096
20
-35.4408542894
30
0.0000000000
10
-14.0690364638
20
-35.6805828001
30
0.0000000000
10
-13.7532216870
20
-35.8998096909
30
0.0000000000
10
-13.5336406649
20
-36.0319846578
30
0.0000000000
10
-13.4237155698
20
-36.0934321295
30
0.0000000000
11
-16.5051079597
21
-31.1589961540
31
0.0000000000
11
-16.4714489907
21
-31.5340063977
31
0.0000000000
11
-16.4123040602
21
-31.9166497697
31
0.0000000000
11
-16.3298505124
21
-32.2901372257
31
0.0000000000
11
-16.2249766970
21
-32.6546149895
31
0.0000000000
11
-16.0983445456
21
-33.0099976566
31
0.0000000000
11
-15.9502540031
21
-33.3564254102
31
0.0000000000
11
-15.7813114233
21
-33.6928316265
31
0.0000000000
11
-15.5924505997
21
-34.0176267572
31
0.0000000000
11
-15.3845638201
21
-34.3295402728
31
0.0000000000
11
-15.1581079921
21
-34.6279730148
31
0.0000000000
11
-14.9135048367
21
-34.9122056457
31
0.0000000000
11
-14.6506391986
21
-35.1819145696
31
0.0000000000
11
-14.3689808021
21
-35.4367973234
31
0.0000000000
11
-14.0681676993
21
-35.6759918495
31
0.0000000000
11
-13.7474101919
21
-35.8986131624
31
0.0000000000
11
-13.4237155698
21
-36.0934321295
31
0.0000000000
0
SPLINE
5
295
100
AcDbEntity
8
0
100
AcDbSpline
62
7
6
CONTINUOUS
70
0
71
3
72
18
73
14
74
12
42
0.0000001000
43
0.0000001000
44
0.0000000001
12
21.6506787257
22
-12.1025424315
32
0.0000000000
13
24.3709528811
23
-4.6130781196
33
0.0000000000
40
0.0000000000
40
0.0000000000
40
0.0000000000
40
0.0000000000
40
0.0957376412
40
0.1909562765
40
0.2851286178
40
0.3782449257
40
0.4703000713
40
0.5612937255
40
0.6512271474
40
0.7401035594
40
0.8279310178
40
0.9147235756
40
1.0000000000
40
1.0000000000
40
1.0000000000
40
1.0000000000
10
-13.4237135812
20
-36.0934332531
30
0.0000000000
10
-12.7327852773
20
-36.4796562081
30
0.0000000000
10
-11.3448114706
20
-37.2325269242
30
0.0000000000
10
-9.2436720479
20
-38.3020387848
30
0.0000000000
10
-7.1341388593
20
-39.3054874493
30
0.0000000000
10
-5.0217558344
20
-40.2400413541
30
0.0000000000
10
-2.9082300137
20
-41.1048517599
30
0.0000000000
10
-0.7952672895
20
-41.8991011630
30
0.0000000000
10
1.3154091478
20
-42.6220039728
30
0.0000000000
10
3.4220462815
20
-43.2728130437
30
0.0000000000
10
5.5229051561
20
-43.8508409229
30
0.0000000000
10
7.6122081940
20
-44.3544925416
30
0.0000000000
10
9.0056952230
20
-44.6425851483
30
0.0000000000
10
9.6984511304
20
-44.7737140843
30
0.0000000000
11
-13.4237135812
21
-36.0934332531
31
0.0000000000
11
-11.3362127164
21
-37.2253740066
31
0.0000000000
11
-9.2312661009
21
-38.2964348395
31
0.0000000000
11
-7.1217659562
21
-39.2994647469
31
0.0000000000
11
-5.0094620294
21
-40.2335693097
31
0.0000000000
11
-2.8960707869
21
-41.0978998415
31
0.0000000000
11
-0.7832752445
21
-41.8916530241
31
0.0000000000
11
1.3271947825
21
-42.6140451919
31
0.0000000000
11
3.4335634190
21
-43.2643266210
31
0.0000000000
11
5.5340708430
21
-43.8418118840
31
0.0000000000
11
7.6269984765
21
-44.3458902455
31
0.0000000000
11
9.6984511304
21
-44.7737140843
31
0.0000000000
0
SPLINE
5
296
100
AcDbEntity
8
0
100
AcDbSpline
62
7
6
CONTINUOUS
70
0
71
3
72
23
73
19
74
17
42
0.0000001000
43
0.0000001000
44
0.0000000001
12
4.6077340856
22
1.5518513056
32
0.0000000000
13
0.0758880951
23
4.8594594233
33
0.0000000000
40
0.0000000000
40
0.0000000000
40
0.0000000000
40
0.0000000000
40
0.0313888991
40
0.0880281776
40
0.1449473256
40
0.2023667274
40
0.2606301685
40
0.3199079878
40
0.3804923875
40
0.4424840140
40
0.5061026685
40
0.5713756572
40
0.6384420373
40
0.7072647990
40
0.7779011233
40
0.8502661836
40
0.9243367198
40
1.0000000000
40
1.0000000000
40
1.0000000000
40
1.0000000000
10
13.9176925146
20
-44.1252949816
30
0.0000000000
10
13.9659030814
20
-44.1090580136
30
0.0000000000
10
14.0998624781
20
-44.0598291097
30
0.0000000000
10
14.3137241433
20
-43.9619345006
30
0.0000000000
10
14.5533477402
20
-43.8221122164
30
0.0000000000
10
14.7803360193
20
-43.6580834662
30
0.0000000000
10
14.9935505156
20
-43.4706973474
30
0.0000000000
10
15.1921108686
20
-43.2607648163
30
0.0000000000
10
15.3750401837
20
-43.0293613750
30
0.0000000000
10
15.5416018552
20
-42.7774681760
30
0.0000000000
10
15.6909925176
20
-42.5063498146
30
0.0000000000
10
15.8226144335
20
-42.2171439817
30
0.0000000000
10
15.9358437222
20
-41.9112719312
30
0.0000000000
10
16.0302221415
20
-41.5900234520
30
0.0000000000
10
16.1053107182
20
-41.2549437050
30
0.0000000000
10
16.1607987128
20
-40.9074685532
30
0.0000000000
10
16.1964349052
20
-40.5492404620
30
0.0000000000
10
16.2067527846
20
-40.3067421047
30
0.0000000000
10
16.2086667654
20
-40.1841812247
30
0.0000000000
11
13.9176925146
21
-44.1252949816
31
0.0000000000
11
14.0609183875
21
-44.0726502290
31
0.0000000000
11
14.3112220021
21
-43.9581007517
31
0.0000000000
11
14.5501986956
21
-43.8187655245
31
0.0000000000
11
14.7764770637
21
-43.6554459129
31
0.0000000000
11
14.9893130561
21
-43.4686778130
31
0.0000000000
11
15.1874646372
21
-43.2595517997
31
0.0000000000
11
15.3702901016
21
-43.0287451185
31
0.0000000000
11
15.5367220195
21
-42.7776045676
31
0.0000000000
11
15.6862140263
21
-42.5069561342
31
0.0000000000
11
15.8179068366
21
-42.2183526867
31
0.0000000000
11
15.9313500380
21
-41.9127851911
31
0.0000000000
11
16.0259121949
21
-41.5919482566
31
0.0000000000
11
16.1012483835
21
-41.2570202894
31
0.0000000000
11
16.1569594294
21
-40.9097628508
31
0.0000000000
11
16.1928250616
21
-40.5515673077
31
0.0000000000
11
16.2086667654
21
-40.1841812247
31
0.0000000000
0
SPLINE
5
297
100
AcDbEntity
8
0
100
AcDbSpline
62
7
6
CONTINUOUS
70
0
71
3
72
12
73
8
74
6
42
0.0000001000
43
0.0000001000
44
0.0000000001
12
-0.5552754415
22
-0.0211938383
32
0.0000000000
13
-0.5496446911
23
0.0816744034
33
0.0000000000
40
0.0000000000
40
0.0000000000
40
0.0000000000
40
0.0000000000
40
0.2013480327
40
0.4038793221
40
0.6056908439
40
0.8051402433
40
1.0000000000
40
1.0000000000
40
1.0000000000
40
1.0000000000
10
5.6245136292
20
35.2956196860
30
0.0000000000
10
5.5872457566
20
35.2941972401
30
0.0000000000
10
5.5124303609
20
35.2927487848
30
0.0000000000
10
5.4002335181
20
35.2946816856
30
0.0000000000
10
5.2885304041
20
35.3006779849
30
0.0000000000
10
5.1785395184
20
35.3106412800
30
0.0000000000
10
5.1060779590
20
35.3199544983
30
0.0000000000
10
5.0703767488
20
35.3252595164
30
0.0000000000
11
5.6245136292
21
35.2956196860
31
0.0000000000
11
5.5126499663
21
35.2934333566
31
0.0000000000
11
5.4001240531
21
35.2953677108
31
0.0000000000
11
5.2881432894
21
35.3013898644
31
0.0000000000
11
5.1777676074
21
35.3114146562
31
0.0000000000
11
5.0703767488
21
35.3252595164
31
0.0000000000
0
SPLINE
5
298
100
AcDbEntity
8
0
100
AcDbSpline
62
7
6
CONTINUOUS
70
0
71
3
72
11
73
7
74
5
42
0.0000001000
43
0.0000001000
44
0.0000000001
12
-0.1384020096
22
0.1347098498
32
0.0000000000
13
-0.0291313013
23
0.1912839536
33
0.0000000000
40
0.0000000000
40
0.0000000000
40
0.0000000000
40
0.0000000000
40
0.2806082751
40
0.5423191078
40
0.7882129972
40
1.0000000000
40
1.0000000000
40
1.0000000000
40
1.0000000000
10
-1.8049066524
20
37.9127955712
30
0.0000000000
10
-1.8178522354
20
37.9253958040
30
0.0000000000
10
-1.8414610243
20
37.9512828903
30
0.0000000000
10
-1.8699545537
20
37.9935168911
30
0.0000000000
10
-1.8891065670
20
38.0359673724
30
0.0000000000
10
-1.8962189947
20
38.0647242228
30
0.0000000000
10
-1.8982755383
20
38.0782280412
30
0.0000000000
11
-1.8049066524
21
37.9127955712
31
0.0000000000
11
-1.8412116550
21
37.9530340190
31
0.0000000000
11
-1.8692408206
21
37.9950966597
31
0.0000000000
11
-1.8885504969
21
38.0384850082
31
0.0000000000
11
-1.8982755383
21
38.0782280412
31
0.0000000000
0
SPLINE
5
299
100
AcDbEntity
8
0
100
AcDbSpline
62
9
6
CONTINUOUS
70
0
71
3
72
13
73
9
74
7
42
0.0000001000
43
0.0000001000
44
0.0000000001
12
10.3591099412
22
-4.1358672474
32
0.0000000000
13
9.6151075836
23
-5.6538714893
33
0.0000000000
40
0.0000000000
40
0.0000000000
40
0.0000000000
40
0.0000000000
40
0.1633900427
40
0.3280543952
40
0.4940230165
40
0.6613218446
40
0.8299739761
40
1.0000000000
40
1.0000000000
40
1.0000000000
40
1.0000000000
10
2.2575333957
20
35.9199198020
30
0.0000000000
10
2.8217252009
20
35.6946666266
30
0.0000000000
10
3.9485386557
20
35.2272907673
30
0.0000000000
10
5.6264136983
20
34.4794033884
30
0.0000000000
10
7.2976328153
20
33.6823703250
30
0.0000000000
10
8.9613750154
20
32.8366158573
30
0.0000000000
10
10.6168349702
20
31.9425954753
30
0.0000000000
10
11.7099906262
20
31.3172663101
30
0.0000000000
10
12.2549301302
20
30.9968312138
30
0.0000000000
11
2.2575333957
21
35.9199198020
31
0.0000000000
11
3.9410296014
21
35.2218488886
31
0.0000000000
11
5.6187013013
21
34.4742583563
31
0.0000000000
11
7.2897329196
21
33.6775275681
31
0.0000000000
11
8.9533108976
21
32.8320746640
31
0.0000000000
11
10.6086364578
21
31.9383494396
31
0.0000000000
11
12.2549301302
21
30.9968312138
31
0.0000000000
0
SPLINE
5
29A
100
AcDbEntity
8
0
100
AcDbSpline
62
9
6
CONTINUOUS
70
0
71
3
72
9
73
5
74
3
42
0.0000001000
43
0.0000001000
44
0.0000000001
12
2.5661555136
22
-0.4314199945
32
0.0000000000
13
2.5431375950
23
-0.5516612972
33
0.0000000000
40
0.0000000000
40
0.0000000000
40
0.0000000000
40
0.0000000000
40
0.7066529821
40
1.0000000000
40
1.0000000000
40
1.0000000000
40
1.0000000000
10
-13.4031820099
20
33.3846476932
30
0.0000000000
10
-12.7987215279
20
33.2830262847
30
0.0000000000
10
-11.9456937806
20
33.1247886250
30
0.0000000000
10
-11.0967267211
20
32.9466683918
30
0.0000000000
10
-10.8480527779
20
32.8927256597
30
0.0000000000
11
-13.4031820099
21
33.3846476932
31
0.0000000000
11
-11.5951600637
21
33.0494595256
31
0.0000000000
11
-10.8480527779
21
32.8927256597
31
0.0000000000
0
SPLINE
5
29B
100
AcDbEntity
8
0
100
AcDbSpline
62
9
6
CONTINUOUS
70
0
71
3
72
18
73
14
74
12
42
0.0000001000
43
0.0000001000
44
0.0000000001
12
19.9942032270
22
-4.3371731477
32
0.0000000000
13
17.6017003029
23
-10.4269932975
33
0.0000000000
40
0.0000000000
40
0.0000000000
40
0.0000000000
40
0.0000000000
40
0.0532003816
40
0.1443772047
40
0.2362514478
40
0.3288550940
40
0.4222205030
40
0.5163788880
40
0.6113597539
40
0.7071903179
40
0.8038938642
40
0.9014910035
40
1.0000000000
40
1.0000000000
40
1.0000000000
40
1.0000000000
10
-10.8480527779
20
32.8927256597
30
0.0000000000
10
-10.4934863640
20
32.8158125708
30
0.0000000000
10
-9.5332810344
20
32.5977495221
30
0.0000000000
10
-7.9717159231
20
32.2001472393
30
0.0000000000
10
-6.1656325145
20
31.6777032757
30
0.0000000000
10
-4.3628679931
20
31.0935393265
30
0.0000000000
10
-2.5646008016
20
30.4480228759
30
0.0000000000
10
-0.7719647682
20
29.7415578045
30
0.0000000000
10
1.0139332959
20
28.9745887374
30
0.0000000000
10
2.7919977692
20
28.1476090611
30
0.0000000000
10
4.5611485382
20
27.2611609024
30
0.0000000000
10
6.3202973031
20
26.3158528895
30
0.0000000000
10
7.4802839211
20
25.6499462482
30
0.0000000000
10
8.0582591989
20
25.3075620328
30
0.0000000000
11
-10.8480527779
21
32.8927256597
31
0.0000000000
11
-9.7866518840
21
32.6517246280
31
0.0000000000
11
-7.9789498377
21
32.1916784409
31
0.0000000000
11
-6.1733195573
21
31.6696046924
31
0.0000000000
11
-4.3709905627
21
31.0858321381
31
0.0000000000
11
-2.5731289349
21
30.4407226563
31
0.0000000000
11
-0.7808652016
21
29.7346763636
31
0.0000000000
11
1.0046972129
21
28.9681338995
31
0.0000000000
11
2.7824736357
21
28.1415804637
31
0.0000000000
11
4.5513710051
21
27.2555614100
31
0.0000000000
11
6.3103151178
21
26.3106736139
31
0.0000000000
11
8.0582591989
21
25.3075620328
31
0.0000000000
0
SPLINE
5
29C
100
AcDbEntity
8
0
100
AcDbSpline
62
9
6
CONTINUOUS
70
0
71
3
72
27
73
23
74
21
42
0.0000001000
43
0.0000001000
44
0.0000000001
12
-6.3841138914
22
-3.2442326118
32
0.0000000000
13
0.2311680667
23
-7.1574099186
33
0.0000000000
40
0.0000000000
40
0.0000000000
40
0.0000000000
40
0.0000000000
40
0.0407000449
40
0.0826424674
40
0.1258749176
40
0.1704162368
40
0.2162585902
40
0.2633698288
40
0.3116959255
40
0.3611633906
40
0.4116816156
40
0.4631451223
40
0.5154357116
40
0.5684245199
40
0.6219739928
40
0.6759397909
40
0.7301726427
40
0.7845201586
40
0.8388286209
40
0.8929447635
40
0.9467175552
40
1.0000000000
40
1.0000000000
40
1.0000000000
40
1.0000000000
10
-10.4551113118
20
39.5438317685
30
0.0000000000
10
-10.5417225523
20
39.4998182976
30
0.0000000000
10
-10.7137760433
20
39.4027572130
30
0.0000000000
10
-10.9629514841
20
39.2343316297
30
0.0000000000
10
-11.2058092851
20
39.0417884273
30
0.0000000000
10
-11.4411287234
20
38.8261148167
30
0.0000000000
10
-11.6677595534
20
38.5883909882
30
0.0000000000
10
-11.8845829821
20
38.3298080402
30
0.0000000000
10
-12.0905293160
20
38.0516572738
30
0.0000000000
10
-12.2845799557
20
37.7553264844
30
0.0000000000
10
-12.4657737169
20
37.4422933012
30
0.0000000000
10
-12.6332117055
20
37.1141184459
30
0.0000000000
10
-12.7860622271
20
36.7724382175
30
0.0000000000
10
-12.9235652365
20
36.4189565068
30
0.0000000000
10
-13.0450364095
20
36.0554363679
30
0.0000000000
10
-13.1498707781
20
35.6836911950
30
0.0000000000
10
-13.2375459244
20
35.3055757287
30
0.0000000000
10
-13.3076246986
20
34.9229763361
30
0.0000000000
10
-13.3597575218
20
34.5378029373
30
0.0000000000
10
-13.3936839949
20
34.1519739997
30
0.0000000000
10
-13.4092347993
20
33.7674267271
30
0.0000000000
10
-13.4072877728
20
33.5117691316
30
0.0000000000
10
-13.4031820395
20
33.3846476987
30
0.0000000000
11
-10.4551113118
21
39.5438317685
31
0.0000000000
11
-10.7091379481
21
39.4009377463
31
0.0000000000
11
-10.9581811921
21
39.2330360593
31
0.0000000000
11
-11.2009938099
21
39.0409675762
31
0.0000000000
11
-11.4363597714
21
38.8256941955
31
0.0000000000
11
-11.6631003400
21
38.5882940279
31
0.0000000000
11
-11.8800799761
21
38.3299559975
31
0.0000000000
11
-12.0862120236
21
38.0519738873
31
0.0000000000
11
-12.2804641525
21
37.7557398599
31
0.0000000000
11
-12.4618635284
21
37.4427374852
31
0.0000000000
11
-12.6295016848
21
37.1145343107
31
0.0000000000
11
-12.7825390730
21
36.7727740113
31
0.0000000000
11
-12.9202092662
21
36.4191681569
31
0.0000000000
11
-13.0418227981
21
36.0554876416
31
0.0000000000
11
-13.1467706160
21
35.6835538141
31
0.0000000000
11
-13.2345271304
21
35.3052293567
31
0.0000000000
11
-13.3046528480
21
34.9224089565
31
0.0000000000
11
-13.3567965720
21
34.5370098167
31
0.0000000000
11
-13.3906971613
21
34.1509620554
31
0.0000000000
11
-13.4061848384
21
33.7661990387
31
0.0000000000
11
-13.4031820395
21
33.3846476987
31
0.0000000000
0
SPLINE
5
29D
100
AcDbEntity
8
0
100
AcDbSpline
62
9
6
CONTINUOUS
70
0
71
3
72
13
73
9
74
7
42
0.0000001000
43
0.0000001000
44
0.0000000001
12
10.3975130023
22
-1.7870343146
32
0.0000000000
13
9.9466250721
23
-3.5165918087
33
0.0000000000
40
0.0000000000
40
0.0000000000
40
0.0000000000
40
0.0000000000
40
0.1639217113
40
0.3288829689
40
0.4949287885
40
0.6621024006
40
0.8304455275
40
1.0000000000
40
1.0000000000
40
1.0000000000
40
1.0000000000
10
-10.4551113120
20
39.5438317701
30
0.0000000000
10
-9.8869852704
20
39.4461871958
30
0.0000000000
10
-8.7499456484
20
39.2334901548
30
0.0000000000
10
-7.0489043271
20
38.8639300110
30
0.0000000000
10
-5.3480375346
20
38.4430403695
30
0.0000000000
10
-3.6483016721
20
37.9710299743
30
0.0000000000
10
-1.9506260371
20
37.4481367308
30
0.0000000000
10
-0.8248945453
20
37.0671805684
30
0.0000000000
10
-0.2627296230
20
36.8684292788
30
0.0000000000
11
-10.4551113120
21
39.5438317701
31
0.0000000000
11
-8.7552011147
21
39.2259948953
31
0.0000000000
11
-7.0545050787
21
38.8566700910
31
0.0000000000
11
-5.3539793244
21
38.4360312305
31
0.0000000000
11
-3.6545657326
21
37.9642836194
31
0.0000000000
11
-1.9571872818
21
37.4416626674
31
0.0000000000
11
-0.2627296230
21
36.8684292788
31
0.0000000000
0
SPLINE
5
29E
100
AcDbEntity
8
0
100
AcDbSpline
62
9
6
CONTINUOUS
70
0
71
3
72
28
73
24
74
22
42
0.0000001000
43
0.0000001000
44
0.0000000001
12
6.9093174370
22
-3.9641343645
32
0.0000000000
13
-0.1676187117
23
-7.9639771894
33
0.0000000000
40
0.0000000000
40
0.0000000000
40
0.0000000000
40
0.0000000000
40
0.0422557560
40
0.0855573841
40
0.1298707458
40
0.1751458508
40
0.2213189449
40
0.2683142396
40
0.3160451251
40
0.3644159301
40
0.4133232510
40
0.4626575445
40
0.5123043025
40
0.5621456186
40
0.6120613414
40
0.6619306082
40
0.7116329874
40
0.7610498946
40
0.8100658371
40
0.8585699861
40
0.9064574401
40
0.9536302753
40
1.0000000000
40
1.0000000000
40
1.0000000000
40
1.0000000000
10
12.2549301302
20
30.9968312138
30
0.0000000000
10
12.3522496073
20
30.9409953823
30
0.0000000000
10
12.5455736388
20
30.8213313337
30
0.0000000000
10
12.8270087188
20
30.6217117431
30
0.0000000000
10
13.1022717501
20
30.4006197064
30
0.0000000000
10
13.3701073360
20
30.1590721108
30
0.0000000000
10
13.6293122403
20
29.8981613826
30
0.0000000000
10
13.8787164232
20
29.6190719229
30
0.0000000000
10
14.1171942924
20
29.3230680315
30
0.0000000000
10
14.3436683820
20
29.0114913201
30
0.0000000000
10
14.5571149851
20
28.6857534284
30
0.0000000000
10
14.7565686666
20
28.3473303950
30
0.0000000000
10
14.9411269635
20
27.9977555723
30
0.0000000000
10
15.1099543534
20
27.6386131709
30
0.0000000000
10
15.2622863744
20
27.2715305113
30
0.0000000000
10
15.3974330219
20
26.8981710130
30
0.0000000000
10
15.5147818090
20
26.5202262249
30
0.0000000000
10
15.6138009948
20
26.1394088059
30
0.0000000000
10
15.6940404776
20
25.7574433743
30
0.0000000000
10
15.7551381623
20
25.3760610116
30
0.0000000000
10
15.7968101886
20
24.9969842940
30
0.0000000000
10
15.8188782775
20
24.6219440636
30
0.0000000000
10
15.8204490864
20
24.3734303321
30
0.0000000000
10
15.8178582752
20
24.2503345221
30
0.0000000000
11
12.2549301302
21
30.9968312138
31
0.0000000000
11
12.5412790591
21
30.8199053049
31
0.0000000000
11
12.8227685951
21
30.6205562720
31
0.0000000000
11
13.0981201839
21
30.3996885127
31
0.0000000000
11
13.3660816990
21
30.1583073328
31
0.0000000000
11
13.6254344353
21
29.8975102167
31
0.0000000000
11
13.8750002770
21
29.6184823205
31
0.0000000000
11
14.1136444847
21
29.3224924435
31
0.0000000000
11
14.3402824575
21
29.0108861411
31
0.0000000000
11
14.5538838466
21
28.6850803742
31
0.0000000000
11
14.7534780249
21
28.3465560077
31
0.0000000000
11
14.9381575479
21
27.9968525108
31
0.0000000000
11
15.1070831288
21
27.6375595663
31
0.0000000000
11
15.2594867548
21
27.2703111589
31
0.0000000000
11
15.3946758675
21
26.8967766645
31
0.0000000000
11
15.5120359020
21
26.5186545668
31
0.0000000000
11
15.6110334490
21
26.1376641066
31
0.0000000000
11
15.6912182481
21
25.7555381158
31
0.0000000000
11
15.7522264134
21
25.3740136359
31
0.0000000000
11
15.7937794515
21
24.9948245619
31
0.0000000000
11
15.8156911519
21
24.6196973793
31
0.0000000000
11
15.8178582752
21
24.2503345221
31
0.0000000000
0
SPLINE
5
29F
100
AcDbEntity
8
0
100
AcDbSpline
62
9
6
CONTINUOUS
70
0
71
3
72
28
73
24
74
22
42
0.0000001000
43
0.0000001000
44
0.0000000001
12
0.4770510326
22
-0.2826004935
32
0.0000000000
13
-0.0513806348
23
-0.5520876353
33
0.0000000000
40
0.0000000000
40
0.0000000000
40
0.0000000000
40
0.0000000000
40
0.0415407639
40
0.0840715230
40
0.1275845117
40
0.1720574964
40
0.2174524996
40
0.2637173429
40
0.3107868864
40
0.3585847906
40
0.4070249015
40
0.4560129016
40
0.5054475472
40
0.5552222971
40
0.6052265221
40
0.6553470747
40
0.7054694554
40
0.7554792355
40
0.8052632828
40
0.8547113175
40
0.9037170515
40
0.9521793326
40
1.0000000000
40
1.0000000000
40
1.0000000000
40
1.0000000000
10
8.0582591989
20
25.3075620328
30
0.0000000000
10
8.0648648871
20
25.3036488860
30
0.0000000000
10
8.0779492296
20
25.2952394475
30
0.0000000000
10
8.0968776810
20
25.2811486080
30
0.0000000000
10
8.1152554973
20
25.2654971194
30
0.0000000000
10
8.1329972104
20
25.2483590501
30
0.0000000000
10
8.1500226458
20
25.2298138404
30
0.0000000000
10
8.1662544629
20
25.2099475661
30
0.0000000000
10
8.1816191634
20
25.1888522040
30
0.0000000000
10
8.1960472297
20
25.1666253366
30
0.0000000000
10
8.2094735313
20
25.1433696308
30
0.0000000000
10
8.2218375960
20
25.1191923863
30
0.0000000000
10
8.2330839090
20
25.0942049969
30
0.0000000000
10
8.2431621509
20
25.0685224496
30
0.0000000000
10
8.2520274400
20
25.0422627346
30
0.0000000000
10
8.2596405172
20
25.0155463094
30
0.0000000000
10
8.2659679171
20
24.9884955020
30
0.0000000000
10
8.2709820974
20
24.9612339738
30
0.0000000000
10
8.2746615478
20
24.9338860632
30
0.0000000000
10
8.2769908786
20
24.9065763314
30
0.0000000000
10
8.2779607893
20
24.8794285689
30
0.0000000000
10
8.2775683222
20
24.8525675589
30
0.0000000000
10
8.2763917286
20
24.8348014252
30
0.0000000000
10
8.2755727098
20
24.8260010254
30
0.0000000000
11
8.0582591989
21
25.3075620328
31
0.0000000000
11
8.0776458617
21
25.2951246775
31
0.0000000000
11
8.0965731949
21
25.2810578736
31
0.0000000000
11
8.1149526278
21
25.2654278183
31
0.0000000000
11
8.1326995916
21
25.2483071934
31
0.0000000000
11
8.1497326215
21
25.2297755734
31
0.0000000000
11
8.1659737255
21
25.2099189962
31
0.0000000000
11
8.1813486377
21
25.1888296650
31
0.0000000000
11
8.1957872456
21
25.1666054018
31
0.0000000000
11
8.2092238688
21
25.1433492260
31
0.0000000000
11
8.2215976041
21
25.1191687720
31
0.0000000000
11
8.2328525401
21
25.0941758690
31
0.0000000000
11
8.2429380578
21
25.0684858973
31
0.0000000000
11
8.2518090088
21
25.0422173240
31
0.0000000000
11
8.2594259466
21
25.0154910294
31
0.0000000000
11
8.2657552554
21
24.9884298256
31
0.0000000000
11
8.2707693003
21
24.9611578275
31
0.0000000000
11
8.2744465236
21
24.9337999234
31
0.0000000000
11
8.2767715395
21
24.9064810632
31
0.0000000000
11
8.2777351536
21
24.8793257800
31
0.0000000000
11
8.2773343988
21
24.8524577240
31
0.0000000000
11
8.2755727098
21
24.8260010254
31
0.0000000000
0
SPLINE
5
2A0
100
AcDbEntity
8
0
100
AcDbSpline
62
9
6
CONTINUOUS
70
0
71
3
72
27
73
23
74
21
42
0.0000001000
43
0.0000001000
44
0.0000000001
12
-6.6123241577
22
-3.0606893637
32
0.0000000000
13
-1.5883499250
23
-7.1111036178
33
0.0000000000
40
0.0000000000
40
0.0000000000
40
0.0000000000
40
0.0000000000
40
0.0416413107
40
0.0849135513
40
0.1297573399
40
0.1760894441
40
0.2238059756
40
0.2727852652
40
0.3228904670
40
0.3739719377
40
0.4258694383
40
0.4784141977
40
0.5314308709
40
0.5847394214
40
0.6381569524
40
0.6914995067
40
0.7445838563
40
0.7972292986
40
0.8492594808
40
0.9005042705
40
0.9508016985
40
1.0000000000
40
1.0000000000
40
1.0000000000
40
1.0000000000
10
12.2549301297
20
30.9968312096
30
0.0000000000
10
12.1631481815
20
30.9543475040
30
0.0000000000
10
11.9789322455
20
30.8612371689
30
0.0000000000
10
11.7069330369
20
30.7017097034
30
0.0000000000
10
11.4351590219
20
30.5203706876
30
0.0000000000
10
11.1649721821
20
30.3181326278
30
0.0000000000
10
10.8977067188
20
30.0960004647
30
0.0000000000
10
10.6346914965
20
29.8550811291
30
0.0000000000
10
10.3772344405
20
29.5965746027
30
0.0000000000
10
10.1266178394
20
29.3217692636
30
0.0000000000
10
9.8840908619
20
29.0320352583
30
0.0000000000
10
9.6508631550
20
28.7288177609
30
0.0000000000
10
9.4280984778
20
28.4136296911
30
0.0000000000
10
9.2169086859
20
28.0880440828
30
0.0000000000
10
9.0183480068
20
27.7536861249
30
0.0000000000
10
8.8334076407
20
27.4122248887
30
0.0000000000
10
8.6630107397
20
27.0653649404
30
0.0000000000
10
8.5080076559
20
26.7148372916
30
0.0000000000
10
8.3691719822
20
26.3623918993
30
0.0000000000
10
8.2471955873
20
26.0097837942
30
0.0000000000
10
8.1426893505
20
25.6587819459
30
0.0000000000
10
8.0843072384
20
25.4241801061
30
0.0000000000
10
8.0582591989
20
25.3075620328
30
0.0000000000
11
12.2549301297
21
30.9968312096
31
0.0000000000
11
11.9839660520
21
30.8603116505
31
0.0000000000
11
11.7118170750
21
30.7011058840
31
0.0000000000
11
11.4398461483
21
30.5200112288
31
0.0000000000
11
11.1694153298
21
30.3179346251
31
0.0000000000
11
10.9018789644
21
30.0958880931
31
0.0000000000
11
10.6385769013
21
29.8549836642
31
0.0000000000
11
10.3808277839
21
29.5964278122
31
0.0000000000
11
10.1299224458
21
29.3215154110
31
0.0000000000
11
9.8871174463
21
29.0316232496
31
0.0000000000
11
9.6536287774
21
28.7282031374
31
0.0000000000
11
9.4306257741
21
28.4127746329
31
0.0000000000
11
9.2192252578
21
28.0869174341
31
0.0000000000
11
9.0204859438
21
27.7522634666
31
0.0000000000
11
8.8354031387
21
27.4104887116
31
0.0000000000
11
8.6649037559
21
27.0633048114
31
0.0000000000
11
8.5098416734
21
26.7124504982
31
0.0000000000
11
8.3709934580
21
26.3596828859
31
0.0000000000
11
8.2490544756
21
26.0067686704
31
0.0000000000
11
8.1446354088
21
25.6554752818
31
0.0000000000
11
8.0582591989
21
25.3075620328
31
0.0000000000
0
SPLINE
5
2A1
100
AcDbEntity
8
0
100
AcDbSpline
62
9
6
CONTINUOUS
70
0
71
3
72
21
73
17
74
15
42
0.0000001000
43
0.0000001000
44
0.0000000001
12
-6.0314056500
22
-64.7582633467
32
0.0000000000
13
4.3301772161
23
-64.8942223243
33
0.0000000000
40
0.0000000000
40
0.0000000000
40
0.0000000000
40
0.0000000000
40
0.0734173430
40
0.1465558450
40
0.2194077737
40
0.2919658163
40
0.3642234707
40
0.4361744106
40
0.5078121214
40
0.5791301998
40
0.6501224374
40
0.7207829013
40
0.7911062217
40
0.8610872283
40
0.9307203485
40
1.0000000000
40
1.0000000000
40
1.0000000000
40
1.0000000000
10
15.8178582752
20
24.2503345221
30
0.0000000000
10
15.6702550160
20
22.6655413110
30
0.0000000000
10
15.3925520137
20
19.5003687926
30
0.0000000000
10
15.0280700226
20
14.7576113913
30
0.0000000000
10
14.7165168159
20
10.0297459144
30
0.0000000000
10
14.4579605530
20
5.3178115159
30
0.0000000000
10
14.2524558577
20
0.6228154379
30
0.0000000000
10
14.1000464551
20
-4.0542422643
30
0.0000000000
10
14.0007653417
20
-8.7123564346
30
0.0000000000
10
13.9546342676
20
-13.3505162477
30
0.0000000000
10
13.9616632531
20
-17.9677152393
30
0.0000000000
10
14.0218507625
20
-22.5629611479
30
0.0000000000
10
14.1351842250
20
-27.1352748249
30
0.0000000000
10
14.3016403310
20
-31.6836791568
30
0.0000000000
10
14.5211829136
20
-36.2071722583
30
0.0000000000
10
14.7033728547
20
-39.2133043167
30
0.0000000000
10
14.8033705776
20
-40.7119206865
30
0.0000000000
11
15.8178582752
21
24.2503345221
31
0.0000000000
11
15.4006170637
21
19.4936428179
31
0.0000000000
11
15.0362284849
21
14.7507993158
31
0.0000000000
11
14.7247740927
21
10.0228643653
31
0.0000000000
11
14.4663216078
21
5.3108785960
31
0.0000000000
11
14.2609248323
21
0.6158375533
31
0.0000000000
11
14.1086270791
21
-4.0612669520
31
0.0000000000
11
14.0094615605
21
-8.7194230040
31
0.0000000000
11
13.9634499524
21
-13.3576178533
31
0.0000000000
11
13.9706021416
21
-17.9748431636
31
0.0000000000
11
14.0309163154
21
-22.5701001397
31
0.0000000000
11
14.1443798092
21
-27.1424179970
31
0.0000000000
11
14.3109694653
21
-31.6908301480
31
0.0000000000
11
14.5306494593
21
-36.2143348553
31
0.0000000000
11
14.8033705776
21
-40.7119206865
31
0.0000000000
0
SPLINE
5
2A2
100
AcDbEntity
8
0
100
AcDbSpline
62
9
6
CONTINUOUS
70
0
71
3
72
21
73
17
74
15
42
0.0000001000
43
0.0000001000
44
0.0000000001
12
-6.1232163525
22
-65.7924374435
32
0.0000000000
13
4.3948001737
23
-65.9304507393
33
0.0000000000
40
0.0000000000
40
0.0000000000
40
0.0000000000
40
0.0000000000
40
0.0734187905
40
0.1465585599
40
0.2194115835
40
0.2919705331
40
0.3642288908
40
0.4361803147
40
0.5078182745
40
0.5791363510
40
0.6501283198
40
0.7207882323
40
0.7911107023
40
0.8610905438
40
0.9307221678
40
1.0000000000
40
1.0000000000
40
1.0000000000
40
1.0000000000
10
8.2755727098
20
24.8260010254
30
0.0000000000
10
8.1257196635
20
23.2158672977
30
0.0000000000
10
7.8437814826
20
20.0000908183
30
0.0000000000
10
7.4737325130
20
15.1815198789
30
0.0000000000
10
7.1574116401
20
10.3780963538
30
0.0000000000
10
6.8948880121
20
5.5908754827
30
0.0000000000
10
6.6862170951
20
0.8208806041
30
0.0000000000
10
6.5314432862
20
-3.9308722527
30
0.0000000000
10
6.4306000936
20
-8.6633618787
30
0.0000000000
10
6.3837096090
20
-13.3755613091
30
0.0000000000
10
6.3907820174
20
-18.0664480140
30
0.0000000000
10
6.4518157725
20
-22.7350138958
30
0.0000000000
10
6.5667981279
20
-27.3802641842
30
0.0000000000
10
6.7357054303
20
-32.0012061756
30
0.0000000000
10
6.9585010211
20
-36.5968225427
30
0.0000000000
10
7.1434011372
20
-39.6508811968
30
0.0000000000
10
7.2448885468
20
-41.1733874304
30
0.0000000000
11
8.2755727098
21
24.8260010254
31
0.0000000000
11
7.8519677422
21
19.9932546176
31
0.0000000000
11
7.4820136582
21
15.1745962204
31
0.0000000000
11
7.1657931166
21
10.3711016069
31
0.0000000000
11
6.9033748736
21
5.5838280372
31
0.0000000000
11
6.6948135574
21
0.8137869630
31
0.0000000000
11
6.5401531483
21
-3.9380139616
31
0.0000000000
11
6.4394273734
21
-8.6705466596
31
0.0000000000
11
6.3926582499
21
-13.3827822116
31
0.0000000000
11
6.3998558274
21
-18.0736961849
31
0.0000000000
11
6.4610182793
21
-22.7422738445
31
0.0000000000
11
6.5761327632
21
-27.3875289160
31
0.0000000000
11
6.7451757844
21
-32.0084793931
31
0.0000000000
11
6.9681109922
21
-36.6041075620
31
0.0000000000
11
7.2448885468
21
-41.1733874304
31
0.0000000000
0
SPLINE
5
2A3
100
AcDbEntity
8
0
100
AcDbSpline
62
9
6
CONTINUOUS
70
0
71
3
72
29
73
25
74
23
42
0.0000001000
43
0.0000001000
44
0.0000000001
12
-7.4389039365
22
-1.8077853874
32
0.0000000000
13
-7.1478871343
23
2.7410015139
33
0.0000000000
40
0.0000000000
40
0.0000000000
40
0.0000000000
40
0.0000000000
40
0.0371760209
40
0.0763284364
40
0.1173222810
40
0.1600071585
40
0.2042194757
40
0.2497843734
40
0.2965174503
40
0.3442263455
40
0.3927122263
40
0.4417712096
40
0.4911957418
40
0.5407759509
40
0.5903009821
40
0.6395603288
40
0.6883451645
40
0.7364496858
40
0.7836724775
40
0.8298179120
40
0.8746976021
40
0.9181319334
40
0.9599517148
40
1.0000000000
40
1.0000000000
40
1.0000000000
40
1.0000000000
10
15.8178582752
20
24.2503345221
30
0.0000000000
10
15.7256753257
20
24.2279324330
30
0.0000000000
10
15.5353913761
20
24.1860531671
30
0.0000000000
10
15.2407169466
20
24.1328222390
30
0.0000000000
10
14.9304764095
20
24.0877398569
30
0.0000000000
10
14.6061450980
20
24.0510252115
30
0.0000000000
10
14.2692580550
20
24.0228557084
30
0.0000000000
10
13.9214145737
20
24.0033683150
30
0.0000000000
10
13.5642665654
20
23.9926581516
30
0.0000000000
10
13.1995113628
20
23.9907782055
30
0.0000000000
10
12.8288831022
20
23.9977390267
30
0.0000000000
10
12.4541443513
20
24.0135087067
30
0.0000000000
10
12.0770775394
20
24.0380130426
30
0.0000000000
10
11.6994763481
20
24.0711359076
30
0.0000000000
10
11.3231370539
20
24.1127198180
30
0.0000000000
10
10.9498498671
20
24.1625666934
30
0.0000000000
10
10.5813903004
20
24.2204388073
30
0.0000000000
10
10.2195105777
20
24.2860599315
30
0.0000000000
10
9.8659312055
20
24.3591166421
30
0.0000000000
10
9.5223324052
20
24.4392598960
30
0.0000000000
10
9.1903466183
20
24.5261064827
30
0.0000000000
10
8.8715478530
20
24.6192417783
30
0.0000000000
10
8.5674530123
20
24.7182187698
30
0.0000000000
10
8.3709929175
20
24.7894102221
30
0.0000000000
10
8.2755727100
20
24.8260010255
30
0.0000000000
11
15.8178582752
21
24.2503345221
31
0.0000000000
11
15.5399797930
21
24.1888569077
31
0.0000000000
11
15.2450726657
21
24.1353157577
31
0.0000000000
11
14.9345417082
21
24.0899661199
31
0.0000000000
11
14.6098661608
21
24.0530240213
31
0.0000000000
11
14.2725926429
21
24.0246654385
31
0.0000000000
11
13.9243277855
21
24.0050254601
31
0.0000000000
11
13.5667305774
21
23.9941976428
31
0.0000000000
11
13.2015044632
21
23.9922335657
31
0.0000000000
11
12.8303892281
21
23.9991425850
31
0.0000000000
11
12.4551527111
21
24.0148917890
31
0.0000000000
11
12.0775823828
21
24.0394061549
31
0.0000000000
11
11.6994768313
21
24.0725689066
31
0.0000000000
11
11.3226371943
21
24.1142220704
31
0.0000000000
11
10.9488585792
21
24.1641672280
31
0.0000000000
11
10.5799215120
21
24.2221664615
31
0.0000000000
11
10.2175834554
21
24.2879434866
31
0.0000000000
11
9.8635704375
21
24.3611849689
31
0.0000000000
11
9.5195688289
21
24.4415420164
31
0.0000000000
11
9.1872173104
21
24.5286318415
31
0.0000000000
11
8.8680990666
21
24.6220395846
31
0.0000000000
11
8.5637342439
21
24.7213202899
31
0.0000000000
11
8.2755727100
21
24.8260010255
31
0.0000000000
0
SPLINE
5
2A4
100
AcDbEntity
8
0
100
AcDbSpline
62
9
6
CONTINUOUS
70
0
71
3
72
23
73
19
74
17
42
0.0000001000
43
0.0000001000
44
0.0000000001
12
-0.0483612949
22
-4.7579206209
32
0.0000000000
13
-4.5111438974
23
-1.5193444960
33
0.0000000000
40
0.0000000000
40
0.0000000000
40
0.0000000000
40
0.0000000000
40
0.0758004830
40
0.1499720192
40
0.2224270811
40
0.2931041776
40
0.3619705267
40
0.4290251645
40
0.4943010308
40
0.5578676327
40
0.6198324953
40
0.6803419734
40
0.7395804154
40
0.7977681405
40
0.8551569928
40
0.9120243147
40
0.9686645388
40
1.0000000000
40
1.0000000000
40
1.0000000000
40
1.0000000000
10
14.8033705776
20
-40.7119206865
30
0.0000000000
10
14.8021486411
20
-40.8321382469
30
0.0000000000
10
14.7933433231
20
-41.0699828263
30
0.0000000000
10
14.7603074505
20
-41.4214042395
30
0.0000000000
10
14.7077473139
20
-41.7622450306
30
0.0000000000
10
14.6358803280
20
-42.0909494782
30
0.0000000000
10
14.5450245430
20
-42.4060346590
30
0.0000000000
10
14.4355744946
20
-42.7060717394
30
0.0000000000
10
14.3080087607
20
-42.9896985115
30
0.0000000000
10
14.1628850456
20
-43.2556215591
30
0.0000000000
10
14.0008400094
20
-43.5026217959
30
0.0000000000
10
13.8225883799
20
-43.7295581616
30
0.0000000000
10
13.6289228411
20
-43.9353727130
30
0.0000000000
10
13.4207142146
20
-44.1190962612
30
0.0000000000
10
13.1989105463
20
-44.2798560149
30
0.0000000000
10
12.9645350409
20
-44.4168839508
30
0.0000000000
10
12.7553370540
20
-44.5127313712
30
0.0000000000
10
12.6242663327
20
-44.5609070009
30
0.0000000000
10
12.5771467412
20
-44.5767767878
30
0.0000000000
11
14.8033705776
21
-40.7119206865
31
0.0000000000
11
14.7898068357
21
-41.0723368620
31
0.0000000000
11
14.7565500435
21
-41.4236869334
31
0.0000000000
11
14.7037550187
21
-41.7643737140
31
0.0000000000
11
14.6316591032
21
-42.0928480966
31
0.0000000000
11
14.5405912026
21
-42.4076166040
31
0.0000000000
11
14.4309646629
21
-42.7072488292
31
0.0000000000
11
14.3032780876
21
-42.9903820473
31
0.0000000000
11
14.1581118343
21
-43.2557291678
31
0.0000000000
11
13.9961258313
21
-43.5020838826
31
0.0000000000
11
13.8180561905
21
-43.7283266057
31
0.0000000000
11
13.6247125055
21
-43.9334286938
31
0.0000000000
11
13.4169734443
21
-44.1164580650
31
0.0000000000
11
13.1957834872
21
-44.2765826539
31
0.0000000000
11
12.9621477494
21
-44.4130749267
31
0.0000000000
11
12.7171283960
21
-44.5253144603
31
0.0000000000
11
12.5771467412
21
-44.5767767878
31
0.0000000000
0
SPLINE
5
2A5
100
AcDbEntity
8
0
100
AcDbSpline
62
9
6
CONTINUOUS
70
0
71
3
72
28
73
24
74
22
42
0.0000001000
43
0.0000001000
44
0.0000000001
12
0.0276330126
22
-0.4145640804
32
0.0000000000
13
-0.4084592591
23
0.0760788656
33
0.0000000000
40
0.0000000000
40
0.0000000000
40
0.0000000000
40
0.0000000000
40
0.0587978215
40
0.1161062063
40
0.1718479685
40
0.2259739238
40
0.2784618117
40
0.3293190187
40
0.3785852904
40
0.4263355747
40
0.4726819117
40
0.5177744830
40
0.5618008821
40
0.6049837050
40
0.6475753728
40
0.6898507954
40
0.7320975241
40
0.7746049066
40
0.8176527854
40
0.8615015216
40
0.9063834559
40
0.9524970512
40
1.0000000000
40
1.0000000000
40
1.0000000000
40
1.0000000000
10
7.2448885468
20
-41.1733874304
30
0.0000000000
10
7.2454301337
20
-41.1815125853
30
0.0000000000
10
7.2460782548
20
-41.1975889786
30
0.0000000000
10
7.2457060918
20
-41.2213986305
30
0.0000000000
10
7.2439775709
20
-41.2445014429
30
0.0000000000
10
7.2408983130
20
-41.2667906957
30
0.0000000000
10
7.2364799437
20
-41.2881648550
30
0.0000000000
10
7.2307398654
20
-41.3085259758
30
0.0000000000
10
7.2237012361
20
-41.3277803618
30
0.0000000000
10
7.2153929140
20
-41.3458387488
30
0.0000000000
10
7.2058494607
20
-41.3626165950
30
0.0000000000
10
7.1951112476
20
-41.3780342937
30
0.0000000000
10
7.1832246434
20
-41.3920175060
30
0.0000000000
10
7.1702422656
20
-41.4044976276
30
0.0000000000
10
7.1562231320
20
-41.4154125130
30
0.0000000000
10
7.1412326190
20
-41.4247073561
30
0.0000000000
10
7.1253420196
20
-41.4323356478
30
0.0000000000
10
7.1086277716
20
-41.4382599431
30
0.0000000000
10
7.0911703375
20
-41.4424522662
30
0.0000000000
10
7.0730533568
20
-41.4448941163
30
0.0000000000
10
7.0543621446
20
-41.4455759749
30
0.0000000000
10
7.0351862572
20
-41.4444974115
30
0.0000000000
10
7.0223364154
20
-41.4426382310
30
0.0000000000
10
7.0158687423
20
-41.4414335742
30
0.0000000000
11
7.2448885468
21
-41.1733874304
31
0.0000000000
11
7.2458558704
21
-41.1977978260
31
0.0000000000
11
7.2454652377
21
-41.2216053389
31
0.0000000000
11
7.2437168970
21
-41.2446990639
31
0.0000000000
11
7.2406174036
21
-41.2669729134
31
0.0000000000
11
7.2361794961
21
-41.2883244595
31
0.0000000000
11
7.2304220483
21
-41.3086553165
31
0.0000000000
11
7.2233700353
21
-41.3278715419
31
0.0000000000
11
7.2150544191
21
-41.3458841895
31
0.0000000000
11
7.2055120386
21
-41.3626097012
31
0.0000000000
11
7.1947854418
21
-41.3779703465
31
0.0000000000
11
7.1829227458
21
-41.3918945481
31
0.0000000000
11
7.1699773868
21
-41.4043173044
31
0.0000000000
11
7.1560079301
21
-41.4151804643
31
0.0000000000
11
7.1410777554
21
-41.4244330719
31
0.0000000000
11
7.1252548322
21
-41.4320315781
31
0.0000000000
11
7.1086113609
21
-41.4379401013
31
0.0000000000
11
7.0912234853
21
-41.4421305943
31
0.0000000000
11
7.0731708541
21
-41.4445830169
31
0.0000000000
11
7.0545363613
21
-41.4452854123
31
0.0000000000
11
7.0354057697
21
-41.4442340207
31
0.0000000000
11
7.0158687423
21
-41.4414335742
31
0.0000000000
0
SPLINE
5
2A6
100
AcDbEntity
8
0
100
AcDbSpline
62
9
6
CONTINUOUS
70
0
71
3
72
14
73
10
74
8
42
0.0000001000
43
0.0000001000
44
0.0000000001
12
1.7163748381
22
0.8671533578
32
0.0000000000
13
1.8916268632
23
-0.3415682881
33
0.0000000000
40
0.0000000000
40
0.0000000000
40
0.0000000000
40
0.0000000000
40
0.1260727100
40
0.2675583608
40
0.4098313464
40
0.5535932063
40
0.6994973531
40
0.8481299572
40
1.0000000000
40
1.0000000000
40
1.0000000000
40
1.0000000000
10
-12.3279457728
20
39.2972180596
30
0.0000000000
10
-12.2558164304
20
39.3336595175
30
0.0000000000
10
-12.0993479518
20
39.4042894395
30
0.0000000000
10
-11.8505594942
20
39.4896398621
30
0.0000000000
10
-11.5835574862
20
39.5527735817
30
0.0000000000
10
-11.3089169389
20
39.5902126910
30
0.0000000000
10
-11.0279139158
20
39.6018046788
30
0.0000000000
10
-10.7418752999
20
39.5875262533
30
0.0000000000
10
-10.5508717962
20
39.5611231003
30
0.0000000000
10
-10.4551113120
20
39.5438317701
30
0.0000000000
11
-12.3279457728
21
39.2972180596
31
0.0000000000
11
-12.1070397249
21
39.3969105646
31
0.0000000000
11
-11.8498039168
21
39.4852019521
31
0.0000000000
11
-11.5836879922
21
39.5482371664
31
0.0000000000
11
-11.3099015979
21
39.5857296954
31
0.0000000000
11
-11.0296895401
21
39.5975092028
31
0.0000000000
11
-10.7443279061
21
39.5835218908
31
0.0000000000
11
-10.4551113120
21
39.5438317701
31
0.0000000000
0
SPLINE
5
2A7
100
AcDbEntity
8
0
100
AcDbSpline
62
9
6
CONTINUOUS
70
0
71
3
72
19
73
15
74
13
42
0.0000001000
43
0.0000001000
44
0.0000000001
12
0.1526662674
22
-2.6308279750
32
0.0000000000
13
2.4589557772
23
-0.9409378979
33
0.0000000000
40
0.0000000000
40
0.0000000000
40
0.0000000000
40
0.0000000000
40
0.0427882319
40
0.1108515379
40
0.1807343599
40
0.2534159279
40
0.3297181201
40
0.4102884959
40
0.4956029160
40
0.5859795820
40
0.6815977461
40
0.7825168778
40
0.8886942169
40
1.0000000000
40
1.0000000000
40
1.0000000000
40
1.0000000000
10
-16.5051032575
20
-31.1589959492
30
0.0000000000
10
-16.5029258177
20
-31.1965187750
30
0.0000000000
10
-16.4927263099
20
-31.2934666452
30
0.0000000000
10
-16.4570723462
20
-31.4485969910
30
0.0000000000
10
-16.3903475031
20
-31.6216104869
30
0.0000000000
10
-16.2978711099
20
-31.7905529771
30
0.0000000000
10
-16.1802252736
20
-31.9546396523
30
0.0000000000
10
-16.0380668119
20
-32.1131532167
30
0.0000000000
10
-15.8721230485
20
-32.2654150941
30
0.0000000000
10
-15.6832001361
20
-32.4107694862
30
0.0000000000
10
-15.4721937350
20
-32.5485788150
30
0.0000000000
10
-15.2400917187
20
-32.6782276038
30
0.0000000000
10
-14.9879899680
20
-32.7991227483
30
0.0000000000
10
-14.8114066474
20
-32.8718513356
30
0.0000000000
10
-14.7201746480
20
-32.9067619454
30
0.0000000000
11
-16.5051032575
21
-31.1589959492
31
0.0000000000
11
-16.4933133634
21
-31.2710934933
31
0.0000000000
11
-16.4534175511
21
-31.4457955348
31
0.0000000000
11
-16.3876121663
21
-31.6176151666
31
0.0000000000
11
-16.2962106786
21
-31.7857339114
31
0.0000000000
11
-16.1796484866
21
-31.9493509214
31
0.0000000000
11
-16.0384808442
21
-32.1076867930
31
0.0000000000
11
-15.8733802153
21
-32.2599872801
31
0.0000000000
11
-15.6851330708
21
-32.4055268865
31
0.0000000000
11
-15.4746361417
21
-32.5436123219
31
0.0000000000
11
-15.2428921479
21
-32.6735858047
31
0.0000000000
11
-14.9910050215
21
-32.7948281954
31
0.0000000000
11
-14.7201746480
21
-32.9067619454
31
0.0000000000
0
SPLINE
5
2A8
100
AcDbEntity
8
0
100
AcDbSpline
62
9
6
CONTINUOUS
70
0
71
3
72
20
73
16
74
14
42
0.0000001000
43
0.0000001000
44
0.0000000001
12
-0.2077771180
22
-2.4580911885
32
0.0000000000
13
2.3095294620
23
-0.8527827911
33
0.0000000000
40
0.0000000000
40
0.0000000000
40
0.0000000000
40
0.0000000000
40
0.0223541085
40
0.0727045647
40
0.1258857519
40
0.1834788121
40
0.2466613489
40
0.3162358279
40
0.3926984739
40
0.4763087176
40
0.5671450715
40
0.6651463801
40
0.7701414404
40
0.8818703196
40
1.0000000000
40
1.0000000000
40
1.0000000000
40
1.0000000000
10
-15.4803199025
20
34.5843262177
30
0.0000000000
10
-15.4818681265
20
34.5660100720
30
0.0000000000
10
-15.4840204168
20
34.5061966175
30
0.0000000000
10
-15.4713089661
20
34.4029059663
30
0.0000000000
10
-15.4291479735
20
34.2767697839
30
0.0000000000
10
-15.3609881411
20
34.1506611284
30
0.0000000000
10
-15.2674693207
20
34.0249855644
30
0.0000000000
10
-15.1491469839
20
33.9001161071
30
0.0000000000
10
-15.0065834613
20
33.7764793122
30
0.0000000000
10
-14.8404159047
20
33.6545588679
30
0.0000000000
10
-14.6513871732
20
33.5348754187
30
0.0000000000
10
-14.4403550028
20
33.4179669070
30
0.0000000000
10
-14.2082891132
20
33.3043736770
30
0.0000000000
10
-13.9562725871
20
33.1946308496
30
0.0000000000
10
-13.7804318109
20
33.1262061631
30
0.0000000000
10
-13.6894904852
20
33.0926265103
30
0.0000000000
11
-15.4803199025
21
34.5843262177
31
0.0000000000
11
-15.4822941488
21
34.5292439743
31
0.0000000000
11
-15.4676599846
21
34.4061508590
31
0.0000000000
11
-15.4269793895
21
34.2817020344
31
0.0000000000
11
-15.3604461490
21
34.1564903230
31
0.0000000000
11
-15.2683771998
21
34.0311121814
31
0.0000000000
11
-15.1512111201
21
33.9061648589
31
0.0000000000
11
-15.0095060403
21
33.7822435526
31
0.0000000000
11
-14.8439369847
21
33.6599385721
31
0.0000000000
11
-14.6552926554
21
33.5398325275
31
0.0000000000
11
-14.4444716754
21
33.4224975541
31
0.0000000000
11
-14.2124783084
21
33.3084925868
31
0.0000000000
11
-13.9604176743
21
33.1983606980
31
0.0000000000
11
-13.6894904852
21
33.0926265103
31
0.0000000000
0
SPLINE
5
2A9
100
AcDbEntity
8
0
100
AcDbSpline
62
9
6
CONTINUOUS
70
0
71
3
72
29
73
25
74
23
42
0.0000001000
43
0.0000001000
44
0.0000000001
12
-6.9111433504
22
-3.5074403008
32
0.0000000000
13
-7.2685390400
23
2.6896802967
33
0.0000000000
40
0.0000000000
40
0.0000000000
40
0.0000000000
40
0.0000000000
40
0.0398860119
40
0.0813385343
40
0.1242418315
40
0.1684652272
40
0.2138653384
40
0.2602880693
40
0.3075704252
40
0.3555421960
40
0.4040275440
40
0.4528465254
40
0.5018165656
40
0.5507539087
40
0.5994750539
40
0.6477981951
40
0.6955446777
40
0.7425404881
40
0.7886177961
40
0.8336165729
40
0.8773863165
40
0.9197879234
40
0.9606957598
40
1.0000000000
40
1.0000000000
40
1.0000000000
40
1.0000000000
10
14.8033705751
20
-40.7119206855
30
0.0000000000
10
14.7114845932
20
-40.7585532873
30
0.0000000000
10
14.5216596828
20
-40.8488958693
30
0.0000000000
10
14.2257238110
20
-40.9734147200
30
0.0000000000
10
13.9142389534
20
-41.0890863190
30
0.0000000000
10
13.5886886337
20
-41.1953576885
30
0.0000000000
10
13.2506121079
20
-41.2917256498
30
0.0000000000
10
12.9016131294
20
-41.3777316950
30
0.0000000000
10
12.5433474768
20
-41.4529667178
30
0.0000000000
10
12.1775161298
20
-41.5170725438
30
0.0000000000
10
11.8058566198
20
-41.5697439483
30
0.0000000000
10
11.4301346796
20
-41.6107301537
30
0.0000000000
10
11.0521356525
20
-41.6398360952
30
0.0000000000
10
10.6736558511
20
-41.6569233814
30
0.0000000000
10
10.2964938600
20
-41.6619109692
30
0.0000000000
10
9.9224418243
20
-41.6547755464
30
0.0000000000
10
9.5532767707
20
-41.6355516231
30
0.0000000000
10
9.1907519452
20
-41.6043313098
30
0.0000000000
10
8.8365883809
20
-41.5612638354
30
0.0000000000
10
8.4924660842
20
-41.5065545658
30
0.0000000000
10
8.1600171974
20
-41.4404643215
30
0.0000000000
10
7.8408128467
20
-41.3633060259
30
0.0000000000
10
7.5363734068
20
-41.2754491013
30
0.0000000000
10
7.3401166815
20
-41.2086260438
30
0.0000000000
10
7.2448885468
20
-41.1733874304
30
0.0000000000
11
14.8033705751
21
-40.7119206855
31
0.0000000000
11
14.5243733825
21
-40.8450344168
31
0.0000000000
11
14.2283528738
21
-40.9698704390
31
0.0000000000
11
13.9167191677
21
-41.0858340852
31
0.0000000000
11
13.5909567575
21
-41.1923729526
31
0.0000000000
11
13.2526174401
21
-41.2889795345
31
0.0000000000
11
12.9033129232
21
-41.3751936373
31
0.0000000000
11
12.5447071484
21
-41.4506045728
31
0.0000000000
11
12.1785083645
21
-41.5148531146
31
0.0000000000
11
11.8064609903
21
-41.5676332094
31
0.0000000000
11
11.4303373049
21
-41.6086934348
31
0.0000000000
11
11.0519290051
21
-41.6378381969
31
0.0000000000
11
10.6730386708
21
-41.6549286622
31
0.0000000000
11
10.2954711780
21
-41.6598834188
31
0.0000000000
11
9.9210251014
21
-41.6526788644
31
0.0000000000
11
9.5514841463
21
-41.6333493184
31
0.0000000000
11
9.1886086524
21
-41.6019868587
31
0.0000000000
11
8.8341272075
21
-41.5587408831
31
0.0000000000
11
8.4897284140
21
-41.5038173974
31
0.0000000000
11
8.1570528445
21
-41.4374780343
31
0.0000000000
11
7.8376852272
21
-41.3600388069
31
0.0000000000
11
7.5331468966
21
-41.2718686035
31
0.0000000000
11
7.2448885468
21
-41.1733874304
31
0.0000000000
0
SPLINE
5
2AA
100
AcDbEntity
8
0
100
AcDbSpline
62
9
6
CONTINUOUS
70
0
71
3
72
20
73
16
74
14
42
0.0000001000
43
0.0000001000
44
0.0000000001
12
-2.6826179524
22
1.4994646882
32
0.0000000000
13
0.2201648481
23
3.0631615092
33
0.0000000000
40
0.0000000000
40
0.0000000000
40
0.0000000000
40
0.0000000000
40
0.0037099158
40
0.0718470857
40
0.1408615180
40
0.2115366145
40
0.2845706127
40
0.3605521656
40
0.4399491166
40
0.5231079152
40
0.6102600327
40
0.7015320773
40
0.7969572422
40
0.8964866669
40
1.0000000000
40
1.0000000000
40
1.0000000000
40
1.0000000000
10
-13.4237154880
20
-36.0934319831
30
0.0000000000
10
-13.4270329169
20
-36.0915776872
30
0.0000000000
10
-13.4911492790
20
-36.0554349763
30
0.0000000000
10
-13.6118590834
20
-35.9757895393
30
0.0000000000
10
-13.7730897711
20
-35.8360857917
30
0.0000000000
10
-13.9188248768
20
-35.6735457643
30
0.0000000000
10
-14.0483519816
20
-35.4890961230
30
0.0000000000
10
-14.1610770366
20
-35.2837430798
30
0.0000000000
10
-14.2565047224
20
-35.0585611034
30
0.0000000000
10
-14.3342238362
20
-34.8146931341
30
0.0000000000
10
-14.3939004482
20
-34.5533545146
30
0.0000000000
10
-14.4352772329
20
-34.2758374056
30
0.0000000000
10
-14.4581755471
20
-33.9835064887
30
0.0000000000
10
-14.4625003038
20
-33.6778146764
30
0.0000000000
10
-14.4531691619
20
-33.4700405942
30
0.0000000000
10
-14.4455724961
20
-33.3643479083
30
0.0000000000
11
-13.4237154880
21
-36.0934319831
31
0.0000000000
11
-13.4336475840
21
-36.0878331901
31
0.0000000000
11
-13.6083604886
21
-35.9726704371
31
0.0000000000
11
-13.7687087631
21
-35.8340693553
31
0.0000000000
11
-13.9138893670
21
-35.6727240728
31
0.0000000000
11
-14.0431752213
21
-35.4894426232
31
0.0000000000
11
-14.1559188493
21
-35.2851428985
31
0.0000000000
11
-14.2515556196
21
-35.0608480523
31
0.0000000000
11
-14.3296065734
21
-34.8176813760
31
0.0000000000
11
-14.3896808237
21
-34.5568606729
31
0.0000000000
11
-14.4314775126
21
-34.2796921594
31
0.0000000000
11
-14.4547873181
21
-33.9875639234
31
0.0000000000
11
-14.4594935023
21
-33.6819389728
31
0.0000000000
11
-14.4455724961
21
-33.3643479083
31
0.0000000000
0
SPLINE
5
2AB
100
AcDbEntity
8
0
100
AcDbSpline
62
9
6
CONTINUOUS
70
0
71
3
72
22
73
18
74
16
42
0.0000001000
43
0.0000001000
44
0.0000000001
12
-4.4654516395
22
0.8453431924
32
0.0000000000
13
-0.8293167210
23
4.4663918451
33
0.0000000000
40
0.0000000000
40
0.0000000000
40
0.0000000000
40
0.0000000000
40
0.0507745558
40
0.1094728538
40
0.1687875269
40
0.2290213867
40
0.2904457620
40
0.3532935202
40
0.4177546660
40
0.4839743023
40
0.5520525350
40
0.6220458344
40
0.6939693950
40
0.7678001123
40
0.8434798930
40
0.9209190987
40
1.0000000000
40
1.0000000000
40
1.0000000000
40
1.0000000000
10
9.6984512093
20
-44.7737136676
30
0.0000000000
10
9.6228741015
20
-44.7594063592
30
0.0000000000
10
9.4613193276
20
-44.7211911954
30
0.0000000000
10
9.2190304849
20
-44.6384181378
30
0.0000000000
10
8.9734168699
20
-44.5254042807
30
0.0000000000
10
8.7366873584
20
-44.3864983057
30
0.0000000000
10
8.5100351260
20
-44.2224381855
30
0.0000000000
10
8.2945892212
20
-44.0340844500
30
0.0000000000
10
8.0914125885
20
-43.8224120171
30
0.0000000000
10
7.9015008982
20
-43.5885037022
30
0.0000000000
10
7.7257812120
20
-43.3335449298
30
0.0000000000
10
7.5651100402
20
-43.0588191231
30
0.0000000000
10
7.4202706373
20
-42.7657025663
30
0.0000000000
10
7.2919701563
20
-42.4556606282
30
0.0000000000
10
7.1808352745
20
-42.1302362079
30
0.0000000000
10
7.0874129479
20
-41.7910649572
30
0.0000000000
10
7.0377297802
20
-41.5591690050
30
0.0000000000
10
7.0158687423
20
-41.4414335742
30
0.0000000000
11
9.6984512093
21
-44.7737136676
31
0.0000000000
11
9.4739615154
21
-44.7206293258
31
0.0000000000
11
9.2215947779
21
-44.6345269427
31
0.0000000000
11
8.9767390138
21
-44.5220576392
31
0.0000000000
11
8.7406204856
21
-44.3837846729
31
0.0000000000
11
8.5144216987
21
-44.2204005289
31
0.0000000000
11
8.2992754796
21
-44.0327234514
31
0.0000000000
11
8.0962593023
21
-43.8216933463
31
0.0000000000
11
7.9063898922
21
-43.5883670736
31
0.0000000000
11
7.7306181348
21
-43.3339131550
31
0.0000000000
11
7.5698243126
21
-43.0596059214
31
0.0000000000
11
7.4248136974
21
-42.7668191312
31
0.0000000000
11
7.2963125171
21
-42.4570190903
31
0.0000000000
11
7.1849643186
21
-42.1317573085
31
0.0000000000
11
7.0913267448
21
-41.7926627298
31
0.0000000000
11
7.0158687423
21
-41.4414335742
31
0.0000000000
0
SPLINE
5
2AC
100
AcDbEntity
8
0
100
AcDbSpline
62
7
6
CONTINUOUS
70
0
71
3
72
9
73
5
74
3
42
0.0000001000
43
0.0000001000
44
0.0000000001
12
0.0038675946
22
0.0240138117
32
0.0000000000
13
-0.0075602038
23
0.0232209084
33
0.0000000000
40
0.0000000000
40
0.0000000000
40
0.0000000000
40
0.0000000000
40
0.6738076988
40
1.0000000000
40
1.0000000000
40
1.0000000000
40
1.0000000000
10
-1.8758709844
20
38.3369940317
30
0.0000000000
10
-1.8750023128
20
38.3423875954
30
0.0000000000
10
-1.8749708533
20
38.3506704674
30
0.0000000000
10
-1.8769356063
20
38.3585866482
30
0.0000000000
10
-1.8777576330
20
38.3611114753
30
0.0000000000
11
-1.8758709844
21
38.3369940317
31
0.0000000000
11
-1.8758662315
21
38.3533832373
31
0.0000000000
11
-1.8777576330
21
38.3611114753
31
0.0000000000
0
SPLINE
5
2AD
100
AcDbEntity
8
0
100
AcDbSpline
62
7
6
CONTINUOUS
70
0
71
3
72
10
73
6
74
4
42
0.0000001000
43
0.0000001000
44
0.0000000001
12
0.0149605143
22
0.2103483360
32
0.0000000000
13
0.0336451629
23
0.2081783910
33
0.0000000000
40
0.0000000000
40
0.0000000000
40
0.0000000000
40
0.0000000000
40
0.3305661047
40
0.6637842014
40
1.0000000000
40
1.0000000000
40
1.0000000000
40
1.0000000000
10
-1.9002534561
20
38.1275911295
30
0.0000000000
10
-1.8986049764
20
38.1507691395
30
0.0000000000
10
-1.8945935267
20
38.1972643400
30
0.0000000000
10
-1.8864611482
20
38.2670948533
30
0.0000000000
10
-1.8796416629
20
38.3136630770
30
0.0000000000
10
-1.8758709844
20
38.3369940317
30
0.0000000000
11
-1.9002534561
21
38.1275911295
31
0.0000000000
11
-1.8942656444
21
38.1970431620
31
0.0000000000
11
-1.8861447504
21
38.2668412492
31
0.0000000000
11
-1.8758709844
21
38.3369940317
31
0.0000000000
0
SPLINE
5
2AE
100
AcDbEntity
8
0
100
AcDbSpline
62
9
6
CONTINUOUS
70
0
71
3
72
18
73
14
74
12
42
0.0000001000
43
0.0000001000
44
0.0000000001
12
0.0389168494
22
0.4604943555
32
0.0000000000
13
0.4557405730
23
-0.0766165956
33
0.0000000000
40
0.0000000000
40
0.0000000000
40
0.0000000000
40
0.0000000000
40
0.1087323254
40
0.2138769177
40
0.3146329705
40
0.4108115454
40
0.5024549388
40
0.5899954356
40
0.6741368596
40
0.7559592793
40
0.8366867478
40
0.9177136490
40
1.0000000000
40
1.0000000000
40
1.0000000000
40
1.0000000000
10
-13.6894904852
20
33.0926265103
30
0.0000000000
10
-13.6880799787
20
33.1093167176
30
0.0000000000
10
-13.6836523775
20
33.1420364402
30
0.0000000000
10
-13.6719600175
20
33.1891743350
30
0.0000000000
10
-13.6555126796
20
33.2328292576
30
0.0000000000
10
-13.6346165744
20
33.2722146274
30
0.0000000000
10
-13.6096365439
20
33.3066828546
30
0.0000000000
10
-13.5810111786
20
33.3356627368
30
0.0000000000
10
-13.5492354823
20
33.3586854810
30
0.0000000000
10
-13.5148729407
20
33.3753794011
30
0.0000000000
10
-13.4785236335
20
33.3854945790
30
0.0000000000
10
-13.4408909577
20
33.3889029315
30
0.0000000000
10
-13.4156824195
20
33.3867491932
30
0.0000000000
10
-13.4031820099
20
33.3846476932
30
0.0000000000
11
-13.6894904852
21
33.0926265103
31
0.0000000000
11
-13.6826682123
21
33.1424103384
31
0.0000000000
11
-13.6708688401
21
33.1895470410
31
0.0000000000
11
-13.6543374493
21
33.2330766274
31
0.0000000000
11
-13.6333865849
21
33.2722767269
31
0.0000000000
11
-13.6084211190
21
33.3064877198
31
0.0000000000
11
-13.5798989830
21
33.3351782009
31
0.0000000000
11
-13.5483498069
21
33.3579086851
31
0.0000000000
11
-13.5143111180
21
33.3743767261
31
0.0000000000
11
-13.4783678750
21
33.3843717247
31
0.0000000000
11
-13.4410791259
21
33.3877937191
31
0.0000000000
11
-13.4031820099
21
33.3846476932
31
0.0000000000
0
SPLINE
5
2AF
100
AcDbEntity
8
0
100
AcDbSpline
62
9
6
CONTINUOUS
70
0
71
3
72
19
73
15
74
13
42
0.0000001000
43
0.0000001000
44
0.0000000001
12
-22.6430441919
22
4.2175515345
32
0.0000000000
13
-20.0799324775
23
11.2823536074
33
0.0000000000
40
0.0000000000
40
0.0000000000
40
0.0000000000
40
0.0000000000
40
0.0778791919
40
0.1566937996
40
0.2364689753
40
0.3172255688
40
0.3989806587
40
0.4817489725
40
0.5655418432
40
0.6503669982
40
0.7362283235
40
0.8231246577
40
0.9110511848
40
1.0000000000
40
1.0000000000
40
1.0000000000
40
1.0000000000
10
7.0158687423
20
-41.4414335742
30
0.0000000000
10
6.4280614145
20
-41.3319470724
30
0.0000000000
10
5.2488094958
20
-41.0928460602
30
0.0000000000
10
3.4812242091
20
-40.6773883745
30
0.0000000000
10
1.7055562035
20
-40.2033542912
30
0.0000000000
10
-0.0770987059
20
-39.6711139473
30
0.0000000000
10
-1.8656637618
20
-39.0810515974
30
0.0000000000
10
-3.6590455278
20
-38.4335686005
30
0.0000000000
10
-5.4561411773
20
-37.7290797508
30
0.0000000000
10
-7.2558212864
20
-36.9680178209
30
0.0000000000
10
-9.0569141537
20
-36.1508412865
30
0.0000000000
10
-10.8582081979
20
-35.2780354055
30
0.0000000000
10
-12.6584345913
20
-34.3501255875
30
0.0000000000
10
-13.8502104282
20
-33.6988652371
30
0.0000000000
10
-14.4455724961
20
-33.3643479083
30
0.0000000000
11
7.0158687423
21
-41.4414335742
31
0.0000000000
11
5.2578203419
21
-41.0853316794
31
0.0000000000
11
3.4906014508
21
-40.6703173959
31
0.0000000000
11
1.7152633714
21
-40.1967270308
31
0.0000000000
11
-0.0671160293
21
-39.6649228914
31
0.0000000000
11
-1.8554411712
21
-39.0752897862
31
0.0000000000
11
-3.6486259677
21
-38.4282230711
31
0.0000000000
11
-5.4455665334
21
-37.7241340122
31
0.0000000000
11
-7.2451328017
21
-36.9634520993
31
0.0000000000
11
-9.0461601053
21
-36.1466290550
31
0.0000000000
11
-10.8474214428
21
-35.2741541798
31
0.0000000000
11
-12.6476548460
21
-34.3465457703
31
0.0000000000
11
-14.4455724961
21
-33.3643479083
31
0.0000000000
0
SPLINE
5
2B0
100
AcDbEntity
8
0
100
AcDbSpline
62
9
6
CONTINUOUS
70
0
71
3
72
14
73
10
74
8
42
0.0000001000
43
0.0000001000
44
0.0000000001
12
0.2010282127
22
0.0754933527
32
0.0000000000
13
0.0031481207
23
0.2156004743
33
0.0000000000
40
0.0000000000
40
0.0000000000
40
0.0000000000
40
0.0000000000
40
0.2111930351
40
0.4009285138
40
0.5688329306
40
0.7160194417
40
0.8457130990
40
0.9638743509
40
1.0000000000
40
1.0000000000
40
1.0000000000
40
1.0000000000
10
-10.8711310345
20
-20.2128566304
30
0.0000000000
10
-10.8569791150
20
-20.2075420736
30
0.0000000000
10
-10.8304945433
20
-20.1963684779
30
0.0000000000
10
-10.7947137983
20
-20.1767612898
30
0.0000000000
10
-10.7654019434
20
-20.1554153792
30
0.0000000000
10
-10.7429798185
20
-20.1325497682
30
0.0000000000
10
-10.7278559162
20
-20.1083171442
30
0.0000000000
10
-10.7221843406
20
-20.0884665102
30
0.0000000000
10
-10.7214775874
20
-20.0773898859
30
0.0000000000
10
-10.7214396781
20
-20.0747936502
30
0.0000000000
11
-10.8711310345
21
-20.2128566304
31
0.0000000000
11
-10.8294282037
21
-20.1950362503
31
0.0000000000
11
-10.7938276466
21
-20.1752221932
31
0.0000000000
11
-10.7648836396
21
-20.1537229503
31
0.0000000000
11
-10.7430468213
21
-20.1308732504
31
0.0000000000
11
-10.7286571761
21
-20.1070288478
31
0.0000000000
11
-10.7219387410
21
-20.0825609834
31
0.0000000000
11
-10.7214396781
21
-20.0747936502
31
0.0000000000
0
SPLINE
5
2B1
100
AcDbEntity
8
0
100
AcDbSpline
62
9
6
CONTINUOUS
70
0
71
3
72
12
73
8
74
6
42
0.0000001000
43
0.0000001000
44
0.0000000001
12
0.1729505233
22
0.0845983351
32
0.0000000000
13
0.1805205971
23
-0.0678929714
33
0.0000000000
40
0.0000000000
40
0.0000000000
40
0.0000000000
40
0.0000000000
40
0.2362266250
40
0.4585105188
40
0.6693352117
40
0.8723664111
40
1.0000000000
40
1.0000000000
40
1.0000000000
40
1.0000000000
10
-10.7268244893
20
-20.4516323671
30
0.0000000000
10
-10.7132059831
20
-20.4449709074
30
0.0000000000
10
-10.6858715517
20
-20.4337566833
30
0.0000000000
10
-10.6439198180
20
-20.4236960887
30
0.0000000000
10
-10.6029444790
20
-20.4211512700
30
0.0000000000
10
-10.5682573474
20
-20.4256513499
30
0.0000000000
10
-10.5478762818
20
-20.4318518907
30
0.0000000000
10
-10.5401961179
20
-20.4347403652
30
0.0000000000
11
-10.7268244893
21
-20.4516323671
31
0.0000000000
11
-10.6846678064
21
-20.4345630120
31
0.0000000000
11
-10.6430035731
21
-20.4247822154
31
0.0000000000
11
-10.6024804716
21
-20.4224422587
31
0.0000000000
11
-10.5637294179
21
-20.4275795755
31
0.0000000000
11
-10.5401961179
21
-20.4347403652
31
0.0000000000
0
SPLINE
5
2B2
100
AcDbEntity
8
0
100
AcDbSpline
62
9
6
CONTINUOUS
70
0
71
3
72
28
73
24
74
22
42
0.0000001000
43
0.0000001000
44
0.0000000001
12
-0.4827848639
22
0.2712653123
32
0.0000000000
13
-0.0320872617
23
0.5528440124
33
0.0000000000
40
0.0000000000
40
0.0000000000
40
0.0000000000
40
0.0000000000
40
0.0424334563
40
0.0860491147
40
0.1307824410
40
0.1765563425
40
0.2232803630
40
0.2708525729
40
0.3191610208
40
0.3680856405
40
0.4174997168
40
0.4672715934
40
0.5172659417
40
0.5673454223
40
0.6173719248
40
0.6672081773
40
0.7167189650
40
0.7657726241
40
0.8142423627
40
0.8620079352
40
0.9089569403
40
0.9549861819
40
1.0000000000
40
1.0000000000
40
1.0000000000
40
1.0000000000
10
-14.4455724961
20
-33.3643479083
30
0.0000000000
10
-14.4524012396
20
-33.3605110000
30
0.0000000000
10
-14.4660091095
20
-33.3522961162
30
0.0000000000
10
-14.4859264685
20
-33.3386327436
30
0.0000000000
10
-14.5055491476
20
-33.3235162788
30
0.0000000000
10
-14.5247858501
20
-33.3070175987
30
0.0000000000
10
-14.5435489178
20
-33.2892128501
30
0.0000000000
10
-14.5617524824
20
-33.2701843478
30
0.0000000000
10
-14.5793133878
20
-33.2500199409
30
0.0000000000
10
-14.5961514321
20
-33.2288126947
30
0.0000000000
10
-14.6121898310
20
-33.2066603882
30
0.0000000000
10
-14.6273555551
20
-33.1836650725
30
0.0000000000
10
-14.6415796988
20
-33.1599325526
30
0.0000000000
10
-14.6547977837
20
-33.1355719050
30
0.0000000000
10
-14.6669500802
20
-33.1106949151
30
0.0000000000
10
-14.6779818621
20
-33.0854155654
30
0.0000000000
10
-14.6878436592
20
-33.0598494675
30
0.0000000000
10
-14.6964914582
20
-33.0341133527
30
0.0000000000
10
-14.7038869014
20
-33.0083244462
30
0.0000000000
10
-14.7099974338
20
-32.9826000458
30
0.0000000000
10
-14.7147964152
20
-32.9570565476
30
0.0000000000
10
-14.7182630952
20
-32.9318111933
30
0.0000000000
10
-14.7196931915
20
-32.9150571522
30
0.0000000000
10
-14.7201746482
20
-32.9067619456
30
0.0000000000
11
-14.4455724961
21
-33.3643479083
31
0.0000000000
11
-14.4656998074
21
-33.3522205111
31
0.0000000000
11
-14.4856272761
21
-33.3385722595
31
0.0000000000
11
-14.5052614545
21
-33.3234673098
31
0.0000000000
11
-14.5245117145
21
-33.3069758077
31
0.0000000000
11
-14.5432893432
21
-33.2891742946
31
0.0000000000
11
-14.5615079586
21
-33.2701452973
31
0.0000000000
11
-14.5790837976
21
-33.2499770442
31
0.0000000000
11
-14.5959362043
21
-33.2287629452
31
0.0000000000
11
-14.6119879606
21
-33.2066011911
31
0.0000000000
11
-14.6271657031
21
-33.1835942018
31
0.0000000000
11
-14.6414001928
21
-33.1598482289
31
0.0000000000
11
-14.6546266987
21
-33.1354727471
31
0.0000000000
11
-14.6667852395
21
-33.1105800156
31
0.0000000000
11
-14.6778209054
21
-33.0852844437
31
0.0000000000
11
-14.6876840547
21
-33.0597021367
31
0.0000000000
11
-14.6963305518
21
-33.0339503039
31
0.0000000000
11
-14.7037219390
21
-33.0081467610
31
0.0000000000
11
-14.7098256318
21
-32.9824092604
31
0.0000000000
11
-14.7146150097
21
-32.9568550426
31
0.0000000000
11
-14.7180695195
21
-32.9316003979
31
0.0000000000
11
-14.7201746482
21
-32.9067619456
31
0.0000000000
0
SPLINE
5
2B3
100
AcDbEntity
8
0
100
AcDbSpline
62
9
6
CONTINUOUS
70
0
71
3
72
9
73
5
74
3
42
0.0000001000
43
0.0000001000
44
0.0000000001
12
0.0397879459
22
0.5946341944
32
0.0000000000
13
0.0495980671
23
0.5938866062
33
0.0000000000
40
0.0000000000
40
0.0000000000
40
0.0000000000
40
0.0000000000
40
0.3136843932
40
1.0000000000
40
1.0000000000
40
1.0000000000
40
1.0000000000
10
6.3064172212
20
16.6227514190
30
0.0000000000
10
6.3105775071
20
16.6849272412
30
0.0000000000
10
6.3246350762
20
16.8830858822
30
0.0000000000
10
6.3406620962
20
17.0810920776
30
0.0000000000
10
6.3520087387
20
17.2169566264
30
0.0000000000
11
6.3064172212
21
16.6227514190
31
0.0000000000
11
6.3195905770
21
16.8092307870
31
0.0000000000
11
6.3520087387
21
17.2169566264
31
0.0000000000
0
SPLINE
5
2B4
100
AcDbEntity
8
0
100
AcDbSpline
62
7
6
CONTINUOUS
70
0
71
3
72
9
73
5
74
3
42
0.0000001000
43
0.0000001000
44
0.0000000001
12
-0.0074541088
22
0.0489456817
32
0.0000000000
13
0.0035081807
23
0.0492951361
33
0.0000000000
40
0.0000000000
40
0.0000000000
40
0.0000000000
40
0.0000000000
40
0.0933221974
40
1.0000000000
40
1.0000000000
40
1.0000000000
40
1.0000000000
10
-1.8982755383
20
38.0782280412
30
0.0000000000
10
-1.8985074163
20
38.0797506141
30
0.0000000000
10
-1.9008239276
20
38.0960926626
30
0.0000000000
10
-1.9013137193
20
38.1126928609
30
0.0000000000
10
-1.9002534561
20
38.1275911295
30
0.0000000000
11
-1.8982755383
21
38.0782280412
31
0.0000000000
11
-1.8989238712
21
38.0828030141
31
0.0000000000
11
-1.9002534561
21
38.1275911295
31
0.0000000000
0
SPLINE
5
2B5
100
AcDbEntity
8
0
100
AcDbSpline
62
9
6
CONTINUOUS
70
0
71
3
72
21
73
17
74
15
42
0.0000001000
43
0.0000001000
44
0.0000000001
12
-3.8276830397
22
65.9516640601
32
0.0000000000
13
5.5630246819
23
65.8280024468
33
0.0000000000
40
0.0000000000
40
0.0000000000
40
0.0000000000
40
0.0000000000
40
0.0690486490
40
0.1384939556
40
0.2083284249
40
0.2785445522
40
0.3491352417
40
0.4200932058
40
0.4914106022
40
0.5630793213
40
0.6350910674
40
0.7074374429
40
0.7801102481
40
0.8531011181
40
0.9264008865
40
1.0000000000
40
1.0000000000
40
1.0000000000
40
1.0000000000
10
-14.7201746482
20
-32.9067619456
30
0.0000000000
10
-14.8082734291
20
-31.3888041773
30
0.0000000000
10
-14.9682979786
20
-28.3431752111
30
0.0000000000
10
-15.1595230980
20
-23.7595029991
30
0.0000000000
10
-15.3025914675
20
-19.1483494798
30
0.0000000000
10
-15.3974721066
20
-14.5107281140
30
0.0000000000
10
-15.4441454775
20
-9.8476304370
30
0.0000000000
10
-15.4426018201
20
-5.1600499317
30
0.0000000000
10
-15.3928413885
20
-0.4489940138
30
0.0000000000
10
-15.2948749405
20
4.2845150456
30
0.0000000000
10
-15.1487238720
20
9.0394500640
30
0.0000000000
10
-14.9544197678
20
13.8147891160
30
0.0000000000
10
-14.7120039159
20
18.6095151425
30
0.0000000000
10
-14.4215275469
20
23.4226028006
30
0.0000000000
10
-14.0830539964
20
28.2529962699
30
0.0000000000
10
-13.8259683802
20
31.4776656349
30
0.0000000000
10
-13.6894904852
20
33.0926265103
30
0.0000000000
11
-14.7201746482
21
-32.9067619456
31
0.0000000000
11
-14.9596615425
21
-28.3515165450
31
0.0000000000
11
-15.1510293823
21
-23.7677688527
31
0.0000000000
11
-15.2942353818
21
-19.1565422188
31
0.0000000000
11
-15.3892487864
21
-14.5188522583
31
0.0000000000
11
-15.4360502613
21
-9.8556794039
31
0.0000000000
11
-15.4346299892
21
-5.1680087861
31
0.0000000000
11
-15.3849880366
21
-0.4568544316
31
0.0000000000
11
-15.2871350906
21
4.2767594639
31
0.0000000000
11
-15.1410925309
21
9.0318037441
31
0.0000000000
11
-14.9468921916
21
13.8072496238
31
0.0000000000
11
-14.7045750277
21
18.6020883048
31
0.0000000000
11
-14.4141915082
21
23.4153067612
31
0.0000000000
11
-14.0758047930
21
28.2458456345
31
0.0000000000
11
-13.6894904852
21
33.0926265103
31
0.0000000000
0
SPLINE
5
2B6
100
AcDbEntity
8
0
100
AcDbSpline
62
7
6
CONTINUOUS
70
0
71
3
72
15
73
11
74
9
42
0.0000001000
43
0.0000001000
44
0.0000000001
12
0.0074326485
22
-0.2921343821
32
0.0000000000
13
0.2694313892
23
-0.1131568165
33
0.0000000000
40
0.0000000000
40
0.0000000000
40
0.0000000000
40
0.0000000000
40
0.1247905599
40
0.2553636687
40
0.3889432172
40
0.5224399268
40
0.6527681065
40
0.7771579426
40
0.8933268377
40
1.0000000000
40
1.0000000000
40
1.0000000000
40
1.0000000000
10
-11.6308116751
20
-20.5489532880
30
0.0000000000
10
-11.6305025003
20
-20.5611051591
30
0.0000000000
10
-11.6279384658
20
-20.5859462430
30
0.0000000000
10
-11.6191155274
20
-20.6228899783
30
0.0000000000
10
-11.6054438103
20
-20.6592370502
30
0.0000000000
10
-11.5875229482
20
-20.6936591333
30
0.0000000000
10
-11.5659336314
20
-20.7248311964
30
0.0000000000
10
-11.5415470332
20
-20.7516534960
30
0.0000000000
10
-11.5151862685
20
-20.7730569997
30
0.0000000000
10
-11.4960850071
20
-20.7837057688
30
0.0000000000
10
-11.4865046409
20
-20.7877293673
30
0.0000000000
11
-11.6308116751
21
-20.5489532880
31
0.0000000000
11
-11.6272254858
21
-20.5852439378
31
0.0000000000
11
-11.6184287645
21
-20.6223733410
31
0.0000000000
11
-11.6047251925
21
-20.6589247623
31
0.0000000000
11
-11.5866696392
21
-20.6935065770
31
0.0000000000
11
-11.5649271996
21
-20.7247761164
31
0.0000000000
11
-11.5403526867
21
-20.7515611533
31
0.0000000000
11
-11.5138719165
21
-20.7728033162
31
0.0000000000
11
-11.4865046409
21
-20.7877293673
31
0.0000000000
0
SPLINE
5
2B7
100
AcDbEntity
8
0
100
AcDbSpline
62
9
6
CONTINUOUS
70
0
71
3
72
21
73
17
74
15
42
0.0000001000
43
0.0000001000
44
0.0000000001
12
-0.2899926247
22
0.0824290763
32
0.0000000000
13
0.0336267119
23
0.2995989306
33
0.0000000000
40
0.0000000000
40
0.0000000000
40
0.0000000000
40
0.0000000000
40
0.0639922793
40
0.1300894502
40
0.1982000946
40
0.2678979845
40
0.3388275994
40
0.4107618618
40
0.4835971621
40
0.5572164399
40
0.6314773838
40
0.7061997664
40
0.7810306126
40
0.8553824665
40
0.9285475816
40
1.0000000000
40
1.0000000000
40
1.0000000000
40
1.0000000000
10
-10.7268244893
20
-20.4516323671
30
0.0000000000
10
-10.7330102523
20
-20.4498740923
30
0.0000000000
10
-10.7453750895
20
-20.4455166250
30
0.0000000000
10
-10.7632926389
20
-20.4367215994
30
0.0000000000
10
-10.7805826016
20
-20.4256439804
30
0.0000000000
10
-10.7969408250
20
-20.4124493073
30
0.0000000000
10
-10.8121056819
20
-20.3973524017
30
0.0000000000
10
-10.8258824850
20
-20.3805720236
30
0.0000000000
10
-10.8381221973
20
-20.3623152772
30
0.0000000000
10
-10.8486988637
20
-20.3427822486
30
0.0000000000
10
-10.8574954670
20
-20.3221797639
30
0.0000000000
10
-10.8643983512
20
-20.3007399435
30
0.0000000000
10
-10.8693004624
20
-20.2787466782
30
0.0000000000
10
-10.8721232483
20
-20.2565479040
30
0.0000000000
10
-10.8728405770
20
-20.2345235814
30
0.0000000000
10
-10.8719319378
20
-20.2199923197
30
0.0000000000
10
-10.8711310345
20
-20.2128566304
30
0.0000000000
11
-10.7268244893
21
-20.4516323671
31
0.0000000000
11
-10.7450287289
21
-20.4452446907
31
0.0000000000
11
-10.7629280818
21
-20.4364869587
31
0.0000000000
11
-10.7802316697
21
-20.4254311334
31
0.0000000000
11
-10.7966016665
21
-20.4122573107
31
0.0000000000
11
-10.8117708476
21
-20.3971852885
31
0.0000000000
11
-10.8255452461
21
-20.3804347322
31
0.0000000000
11
-10.8377839277
21
-20.3622032799
31
0.0000000000
11
-10.8483601521
21
-20.3426904529
31
0.0000000000
11
-10.8571561216
21
-20.3221025339
31
0.0000000000
11
-10.8640609281
21
-20.3006595038
31
0.0000000000
11
-10.8689656845
21
-20.2786391133
31
0.0000000000
11
-10.8717853213
21
-20.2564015527
31
0.0000000000
11
-10.8724923543
21
-20.2343550580
31
0.0000000000
11
-10.8711310345
21
-20.2128566304
31
0.0000000000
0
SPLINE
5
2B8
100
AcDbEntity
8
0
100
AcDbSpline
62
9
6
CONTINUOUS
70
0
71
3
72
11
73
7
74
5
42
0.0000001000
43
0.0000001000
44
0.0000000001
12
-0.8211463870
22
-4.0776731923
32
0.0000000000
13
-0.5084676026
23
-4.1283363174
33
0.0000000000
40
0.0000000000
40
0.0000000000
40
0.0000000000
40
0.0000000000
40
0.2463540830
40
0.4975888447
40
0.7500105196
40
1.0000000000
40
1.0000000000
40
1.0000000000
40
1.0000000000
10
-13.1600173514
20
-25.8097887009
30
0.0000000000
10
-13.2274482731
20
-26.1446391809
30
0.0000000000
10
-13.3610385156
20
-26.8215068859
30
0.0000000000
10
-13.5489271677
20
-27.8443357745
30
0.0000000000
10
-13.7182550731
20
-28.8755381190
30
0.0000000000
10
-13.8140979585
20
-29.5656214834
30
0.0000000000
10
-13.8564684758
20
-29.9096350337
30
0.0000000000
11
-13.1600173514
21
-25.8097887009
31
0.0000000000
11
-13.3575375573
21
-26.8152894352
31
0.0000000000
11
-13.5453919809
21
-27.8432850996
31
0.0000000000
11
-13.7145006904
21
-28.8795329031
31
0.0000000000
11
-13.8564684758
21
-29.9096350337
31
0.0000000000
0
SPLINE
5
2B9
100
AcDbEntity
8
0
100
AcDbSpline
62
9
6
CONTINUOUS
70
0
71
3
72
13
73
9
74
7
42
0.0000001000
43
0.0000001000
44
0.0000000001
12
0.4821998609
22
-0.0799086540
32
0.0000000000
13
0.4218146659
23
-0.2469301247
33
0.0000000000
40
0.0000000000
40
0.0000000000
40
0.0000000000
40
0.0000000000
40
0.1756945317
40
0.3504885209
40
0.5222772706
40
0.6890296238
40
0.8488423943
40
1.0000000000
40
1.0000000000
40
1.0000000000
40
1.0000000000
10
-13.6200258678
20
-25.6521144196
30
0.0000000000
10
-13.5917859083
20
-25.6567942575
30
0.0000000000
10
-13.5356929532
20
-25.6676643090
30
0.0000000000
10
-13.4531133395
20
-25.6883558272
30
0.0000000000
10
-13.3731908997
20
-25.7131497111
30
0.0000000000
10
-13.2971190746
20
-25.7416745264
30
0.0000000000
10
-13.2260343841
20
-25.7735001335
30
0.0000000000
10
-13.1812708494
20
-25.7973469120
30
0.0000000000
10
-13.1600173511
20
-25.8097887008
30
0.0000000000
11
-13.6200258678
21
-25.6521144196
31
0.0000000000
11
-13.5357186062
21
-25.6684500076
31
0.0000000000
11
-13.4528516765
21
-25.6892402246
31
0.0000000000
11
-13.3726723258
21
-25.7141721527
31
0.0000000000
11
-13.2963873502
21
-25.7428705364
31
0.0000000000
11
-13.2251449305
21
-25.7749034303
31
0.0000000000
11
-13.1600173511
21
-25.8097887008
31
0.0000000000
0
SPLINE
5
2BA
100
AcDbEntity
8
0
100
AcDbSpline
62
9
6
CONTINUOUS
70
0
71
3
72
11
73
7
74
5
42
0.0000001000
43
0.0000001000
44
0.0000000001
12
-0.3252760991
22
-4.2520525426
32
0.0000000000
13
-0.1190173319
23
-4.2628148260
33
0.0000000000
40
0.0000000000
40
0.0000000000
40
0.0000000000
40
0.0000000000
40
0.2421159827
40
0.4917975620
40
0.7456119010
40
1.0000000000
40
1.0000000000
40
1.0000000000
40
1.0000000000
10
-13.6200258678
20
-25.6521144196
30
0.0000000000
10
-13.6462773820
20
-25.9952777129
30
0.0000000000
10
-13.6972500239
20
-26.6925114258
30
0.0000000000
10
-13.7645732993
20
-27.7502732440
30
0.0000000000
10
-13.8199341351
20
-28.8262060217
30
0.0000000000
10
-13.8463763000
20
-29.5481654221
30
0.0000000000
10
-13.8564684976
20
-29.9096352087
30
0.0000000000
11
-13.6200258678
21
-25.6521144196
31
0.0000000000
11
-13.6948742721
21
-26.6818956618
31
0.0000000000
11
-13.7620648006
21
-27.7445346537
31
0.0000000000
11
-13.8172281782
21
-28.8255132003
31
0.0000000000
11
-13.8564684976
21
-29.9096352087
31
0.0000000000
0
SPLINE
5
2BB
100
AcDbEntity
8
0
100
AcDbSpline
62
9
6
CONTINUOUS
70
0
71
3
72
14
73
10
74
8
42
0.0000001000
43
0.0000001000
44
0.0000000001
12
-0.8513702970
22
-2.6076788693
32
0.0000000000
13
-0.5650008896
23
-2.6843238371
33
0.0000000000
40
0.0000000000
40
0.0000000000
40
0.0000000000
40
0.0000000000
40
0.1170828281
40
0.2452180339
40
0.3855210577
40
0.5376663899
40
0.6969152573
40
0.8581168894
40
1.0000000000
40
1.0000000000
40
1.0000000000
40
1.0000000000
10
-12.3139350521
20
-23.2022100551
30
0.0000000000
10
-12.3471619995
20
-23.3039815273
30
0.0000000000
10
-12.4190968107
20
-23.5163670848
30
0.0000000000
10
-12.5368410305
20
-23.8486387664
30
0.0000000000
10
-12.6674857343
20
-24.2103407587
30
0.0000000000
10
-12.8063188121
20
-24.5993350521
30
0.0000000000
10
-12.9447882620
20
-25.0087254339
30
0.0000000000
10
-13.0669151200
20
-25.4135713673
30
0.0000000000
10
-13.1332959902
20
-25.6828352956
30
0.0000000000
10
-13.1600173514
20
-25.8097887009
30
0.0000000000
11
-12.3139350521
21
-23.2022100551
31
0.0000000000
11
-12.4165290805
21
-23.5065579296
31
0.0000000000
11
-12.5334435362
21
-23.8380368285
31
0.0000000000
11
-12.6635871849
21
-24.2002360260
31
0.0000000000
11
-12.8030679132
21
-24.5935948845
31
0.0000000000
11
-12.9419333748
21
-25.0077776325
31
0.0000000000
11
-13.0681483203
21
-25.4315812638
31
0.0000000000
11
-13.1600173514
21
-25.8097887009
31
0.0000000000
0
SPLINE
5
2BC
100
AcDbEntity
8
0
100
AcDbSpline
62
9
6
CONTINUOUS
70
0
71
3
72
20
73
16
74
14
42
0.0000001000
43
0.0000001000
44
0.0000000001
12
0.9421329040
22
-0.1974912543
32
0.0000000000
13
0.8913445280
23
-0.3634860887
33
0.0000000000
40
0.0000000000
40
0.0000000000
40
0.0000000000
40
0.0000000000
40
0.0596502976
40
0.1259446231
40
0.1979958173
40
0.2748329089
40
0.3554163041
40
0.4386531713
40
0.5234131697
40
0.6085444912
40
0.6928901001
40
0.7753040246
40
0.8546675412
40
0.9299051146
40
1.0000000000
40
1.0000000000
40
1.0000000000
40
1.0000000000
10
-13.2311591404
20
-22.9133406870
30
0.0000000000
10
-13.2124263044
20
-22.9172674910
30
0.0000000000
10
-13.1729826770
20
-22.9260790205
30
0.0000000000
10
-13.1112594522
20
-22.9411384696
30
0.0000000000
10
-13.0444542918
20
-22.9585954025
30
0.0000000000
10
-12.9734833314
20
-22.9782141113
30
0.0000000000
10
-12.8993193173
20
-22.9997285955
30
0.0000000000
10
-12.8229790092
20
-23.0228455567
30
0.0000000000
10
-12.7455089088
20
-23.0472491002
30
0.0000000000
10
-12.6679709442
20
-23.0726051285
30
0.0000000000
10
-12.5914278281
20
-23.0985660252
30
0.0000000000
10
-12.5169284817
20
-23.1247754293
30
0.0000000000
10
-12.4454933711
20
-23.1508730333
30
0.0000000000
10
-12.3781009920
20
-23.1764994919
30
0.0000000000
10
-12.3347605917
20
-23.1937173535
30
0.0000000000
10
-12.3139343608
20
-23.2022101921
30
0.0000000000
11
-13.2311591404
21
-22.9133406870
31
0.0000000000
11
-13.1751042154
21
-22.9257864011
31
0.0000000000
11
-13.1130948269
21
-22.9408615635
31
0.0000000000
11
-13.0459811917
21
-22.9583594772
31
0.0000000000
11
-12.9746835112
21
-22.9780402261
31
0.0000000000
11
-12.9001793547
21
-22.9996339656
31
0.0000000000
11
-12.8234902557
21
-23.0228446214
31
0.0000000000
11
-12.7456677058
21
-23.0473539498
31
0.0000000000
11
-12.6677787374
21
-23.0728259007
31
0.0000000000
11
-12.5908912935
21
-23.0989112257
31
0.0000000000
11
-12.5160595853
21
-23.1252522659
31
0.0000000000
11
-12.4443096373
21
-23.1514878567
31
0.0000000000
11
-12.3766252200
21
-23.1772582791
31
0.0000000000
11
-12.3139343608
21
-23.2022101921
31
0.0000000000
0
SPLINE
5
2BD
100
AcDbEntity
8
0
100
AcDbSpline
62
9
6
CONTINUOUS
70
0
71
3
72
14
73
10
74
8
42
0.0000001000
43
0.0000001000
44
0.0000000001
12
-0.4350436136
22
-2.7326936365
32
0.0000000000
13
-0.2110636401
23
-2.7590450515
33
0.0000000000
40
0.0000000000
40
0.0000000000
40
0.0000000000
40
0.0000000000
40
0.1120293361
40
0.2358987305
40
0.3732153625
40
0.5243210627
40
0.6852126437
40
0.8512029537
40
1.0000000000
40
1.0000000000
40
1.0000000000
40
1.0000000000
10
-13.2311591404
20
-22.9133406870
30
0.0000000000
10
-13.2474050228
20
-23.0153879717
30
0.0000000000
10
-13.2824349530
20
-23.2301366248
30
0.0000000000
10
-13.3389401029
20
-23.5697093509
30
0.0000000000
10
-13.4008627972
20
-23.9449197131
30
0.0000000000
10
-13.4656023567
20
-24.3542711153
30
0.0000000000
10
-13.5286935813
20
-24.7906356738
30
0.0000000000
10
-13.5823207956
20
-25.2261419758
30
0.0000000000
10
-13.6095573182
20
-25.5152684779
30
0.0000000000
10
-13.6200258670
20
-25.6521143960
30
0.0000000000
11
-13.2311591404
21
-22.9133406870
31
0.0000000000
11
-13.2808313271
21
-23.2193322994
31
0.0000000000
11
-13.3368331274
21
-23.5574862124
31
0.0000000000
11
-13.3983926061
21
-23.9324361027
31
0.0000000000
11
-13.4633074294
21
-24.3454918289
31
0.0000000000
11
-13.5264957459
21
-24.7861889343
31
0.0000000000
11
-13.5819646079
21
-25.2421401250
31
0.0000000000
11
-13.6200258670
21
-25.6521143960
31
0.0000000000
0
SPLINE
5
2BE
100
AcDbEntity
8
0
100
AcDbSpline
62
9
6
CONTINUOUS
70
0
71
3
72
12
73
8
74
6
42
0.0000001000
43
0.0000001000
44
0.0000000001
12
-0.9726638220
22
-1.8386045993
32
0.0000000000
13
-0.6456145929
23
-1.9773020964
33
0.0000000000
40
0.0000000000
40
0.0000000000
40
0.0000000000
40
0.0000000000
40
0.1997292167
40
0.3999107409
40
0.6002150388
40
0.8003327663
40
1.0000000000
40
1.0000000000
40
1.0000000000
40
1.0000000000
10
-11.5028052305
20
-21.2894791495
30
0.0000000000
10
-11.5675616916
20
-21.4118868349
30
0.0000000000
10
-11.6930050851
20
-21.6592361852
30
0.0000000000
10
-11.8684654495
20
-22.0366789891
30
0.0000000000
10
-12.0310687506
20
-22.4201357517
30
0.0000000000
10
-12.1803846399
20
-22.8085703981
30
0.0000000000
10
-12.2709656922
20
-23.0706092418
30
0.0000000000
10
-12.3139350521
20
-23.2022100551
30
0.0000000000
11
-11.5028052305
21
-21.2894791495
31
0.0000000000
11
-11.6907335769
21
-21.6599873181
31
0.0000000000
11
-11.8662686614
21
-22.0375630017
31
0.0000000000
11
-12.0289238686
21
-22.4211408668
31
0.0000000000
11
-12.1782680786
21
-22.8096788692
31
0.0000000000
11
-12.3139350521
21
-23.2022100551
31
0.0000000000
0
SPLINE
5
2BF
100
AcDbEntity
8
0
100
AcDbSpline
62
7
6
CONTINUOUS
70
0
71
3
72
21
73
17
74
15
42
0.0000001000
43
0.0000001000
44
0.0000000001
12
0.7962053245
22
-0.5485510243
32
0.0000000000
13
0.8899119578
23
-0.3780315495
33
0.0000000000
40
0.0000000000
40
0.0000000000
40
0.0000000000
40
0.0000000000
40
0.0551478625
40
0.1163472591
40
0.1825570634
40
0.2529909147
40
0.3269961377
40
0.4037084521
40
0.4817650570
40
0.5606001419
40
0.6396525765
40
0.7175250590
40
0.7932992130
40
0.8662688296
40
0.9355683436
40
1.0000000000
40
1.0000000000
40
1.0000000000
40
1.0000000000
10
-12.3530779919
20
-20.8317319725
30
0.0000000000
10
-12.3384416513
20
-20.8418157780
30
0.0000000000
10
-12.3072764577
20
-20.8626751983
30
0.0000000000
10
-12.2577233676
20
-20.8944023364
30
0.0000000000
10
-12.2034324753
20
-20.9278481573
30
0.0000000000
10
-12.1451009759
20
-20.9625880074
30
0.0000000000
10
-12.0833786022
20
-20.9982364781
30
0.0000000000
10
-12.0190725747
20
-21.0343118786
30
0.0000000000
10
-11.9529787103
20
-21.0703708260
30
0.0000000000
10
-11.8858197129
20
-21.1060421756
30
0.0000000000
10
-11.8183127671
20
-21.1409217088
30
0.0000000000
10
-11.7512877100
20
-21.1745738512
30
0.0000000000
10
-11.6856313291
20
-21.2065716237
30
0.0000000000
10
-11.6220726258
20
-21.2365546310
30
0.0000000000
10
-11.5614284430
20
-21.2641326273
30
0.0000000000
10
-11.5219179326
20
-21.2813601776
30
0.0000000000
10
-11.5028050987
20
-21.2894792439
30
0.0000000000
11
-12.3530779919
21
-20.8317319725
31
0.0000000000
11
-12.3088039852
21
-20.8614466611
31
0.0000000000
11
-12.2589959320
21
-20.8933922033
31
0.0000000000
11
-12.2045114259
21
-20.9270014470
31
0.0000000000
11
-12.1460149877
21
-20.9618711384
31
0.0000000000
11
-12.0840616813
21
-20.9976727496
31
0.0000000000
11
-12.0193804163
21
-21.0339732526
31
0.0000000000
11
-11.9531326292
21
-21.0701274106
31
0.0000000000
11
-11.8858147343
21
-21.1058817588
31
0.0000000000
11
-11.8179073768
21
-21.1409637243
31
0.0000000000
11
-11.7506165519
21
-21.1747423819
31
0.0000000000
11
-11.6847504268
21
-21.2068252329
31
0.0000000000
11
-11.6209318710
21
-21.2369062497
31
0.0000000000
11
-11.5599264191
21
-21.2646169904
31
0.0000000000
11
-11.5028050987
21
-21.2894792439
31
0.0000000000
0
SPLINE
5
2C0
100
AcDbEntity
8
0
100
AcDbSpline
62
9
6
CONTINUOUS
70
0
71
3
72
12
73
8
74
6
42
0.0000001000
43
0.0000001000
44
0.0000000001
12
-1.0531247596
22
-2.0017187709
32
0.0000000000
13
-0.6988353802
23
-2.1511808172
33
0.0000000000
40
0.0000000000
40
0.0000000000
40
0.0000000000
40
0.0000000000
40
0.1996960071
40
0.3998584096
40
0.6001615532
40
0.8002909356
40
1.0000000000
40
1.0000000000
40
1.0000000000
40
1.0000000000
10
-12.3530750631
20
-20.8317260907
30
0.0000000000
10
-12.4231766663
20
-20.9649711727
30
0.0000000000
10
-12.5589733206
20
-21.2342053329
30
0.0000000000
10
-12.7489092318
20
-21.6449937827
30
0.0000000000
10
-12.9249300593
20
-22.0622963152
30
0.0000000000
10
-13.0865758874
20
-22.4850014663
30
0.0000000000
10
-13.1846381323
20
-22.7701371194
30
0.0000000000
10
-13.2311593856
20
-22.9133405555
30
0.0000000000
11
-12.3530750631
21
-20.8317260907
31
0.0000000000
11
-12.5565074175
21
-21.2350022453
31
0.0000000000
11
-12.7465238945
21
-21.6459331428
31
0.0000000000
11
-12.9226032271
21
-22.0633716145
31
0.0000000000
11
-13.0842758572
21
-22.4861774846
31
0.0000000000
11
-13.2311593856
21
-22.9133405555
31
0.0000000000
0
SPLINE
5
2C1
100
AcDbEntity
8
0
100
AcDbSpline
62
9
6
CONTINUOUS
70
0
71
3
72
31
73
27
74
25
42
0.0000001000
43
0.0000001000
44
0.0000000001
12
-0.7442731374
22
-0.3292770525
32
0.0000000000
13
-0.3789385848
23
-0.7202581277
33
0.0000000000
40
0.0000000000
40
0.0000000000
40
0.0000000000
40
0.0000000000
40
0.0337092155
40
0.0703547808
40
0.1116204363
40
0.1598523504
40
0.2182495574
40
0.2526199112
40
0.2916963979
40
0.3367771331
40
0.3622370130
40
0.3904548025
40
0.4216416480
40
0.4536826462
40
0.5127600672
40
0.5631941314
40
0.6074662761
40
0.6471657484
40
0.6832977692
40
0.7479961335
40
0.8060416638
40
0.8335837241
40
0.8600806556
40
0.9094308065
40
0.9551406913
40
1.0000000000
40
1.0000000000
40
1.0000000000
40
1.0000000000
10
-11.6308110362
20
-20.5489532703
30
0.0000000000
10
-11.6391739907
20
-20.5526531607
30
0.0000000000
10
-11.6570202849
20
-20.5595181838
30
0.0000000000
10
-11.6862294917
20
-20.5676522833
30
0.0000000000
10
-11.7198900385
20
-20.5740127162
30
0.0000000000
10
-11.7597654495
20
-20.5786603157
30
0.0000000000
10
-11.7979340660
20
-20.5812756016
30
0.0000000000
10
-11.8336490003
20
-20.5832026408
30
0.0000000000
10
-11.8657555248
20
-20.5849685516
30
0.0000000000
10
-11.8954325715
20
-20.5868832420
30
0.0000000000
10
-11.9221405938
20
-20.5890112344
30
0.0000000000
10
-11.9450552686
20
-20.5912538503
30
0.0000000000
10
-11.9696898443
20
-20.5941994242
30
0.0000000000
10
-12.0025394915
20
-20.5988889674
30
0.0000000000
10
-12.0402982083
20
-20.6060351684
30
0.0000000000
10
-12.0807491254
20
-20.6163559966
30
0.0000000000
10
-12.1154494264
20
-20.6276328493
30
0.0000000000
10
-12.1457567922
20
-20.6396600924
30
0.0000000000
10
-12.1802290157
20
-20.6559826906
30
0.0000000000
10
-12.2175492045
20
-20.6777787989
30
0.0000000000
10
-12.2499405004
20
-20.7027091144
30
0.0000000000
10
-12.2723964860
20
-20.7232270728
30
0.0000000000
10
-12.2920974433
20
-20.7432090509
30
0.0000000000
10
-12.3133621063
20
-20.7684875061
30
0.0000000000
10
-12.3351671262
20
-20.7996133982
30
0.0000000000
10
-12.3474087914
20
-20.8209559779
30
0.0000000000
10
-12.3530750991
20
-20.8317260718
30
0.0000000000
11
-11.6308110362
21
-20.5489532703
31
0.0000000000
11
-11.6564050091
21
-20.5588326590
31
0.0000000000
11
-11.6851094430
21
-20.5669286416
31
0.0000000000
11
-11.7180839537
21
-20.5733000027
31
0.0000000000
11
-11.7570482500
21
-20.5780599380
31
0.0000000000
11
-11.8044450309
21
-20.5815767066
31
0.0000000000
11
-11.8323740118
21
-20.5831384024
31
0.0000000000
11
-11.8641264859
21
-20.5849256966
31
0.0000000000
11
-11.9007360780
21
-20.5873435166
31
0.0000000000
11
-11.9213896402
21
-20.5890107193
31
0.0000000000
11
-11.9442452103
21
-20.5912529360
31
0.0000000000
11
-11.9694473907
21
-20.5942662340
31
0.0000000000
11
-11.9952571165
21
-20.5979891093
31
0.0000000000
11
-12.0424855845
21
-20.6070014658
31
0.0000000000
11
-12.0822393609
21
-20.6172204526
31
0.0000000000
11
-12.1164938430
21
-20.6283955447
31
0.0000000000
11
-12.1465106643
21
-20.6403500806
31
0.0000000000
11
-12.1730869810
21
-20.6529371070
31
0.0000000000
11
-12.2184513854
21
-20.6796701165
31
0.0000000000
11
-12.2559172680
21
-20.7084452121
31
0.0000000000
11
-12.2724683498
21
-20.7235617371
31
0.0000000000
11
-12.2875981789
21
-20.7389281612
31
0.0000000000
11
-12.3135096834
21
-20.7696160184
31
0.0000000000
11
-12.3348226876
21
-20.8001069820
31
0.0000000000
11
-12.3530750991
21
-20.8317260718
31
0.0000000000
0
SPLINE
5
2C2
100
AcDbEntity
8
0
100
AcDbSpline
62
9
6
CONTINUOUS
70
0
71
3
72
11
73
7
74
5
42
0.0000001000
43
0.0000001000
44
0.0000000001
12
-0.9537920599
22
4.5523874185
32
0.0000000000
13
-0.2856730254
23
4.6424499377
33
0.0000000000
40
0.0000000000
40
0.0000000000
40
0.0000000000
40
0.0000000000
40
0.2558159025
40
0.5103635032
40
0.7596530884
40
1.0000000000
40
1.0000000000
40
1.0000000000
40
1.0000000000
10
5.9868688198
20
-37.3777418329
30
0.0000000000
10
5.9055370942
20
-36.9895508008
30
0.0000000000
10
5.7553219684
20
-36.2125031096
30
0.0000000000
10
5.5708569324
20
-35.0490246172
30
0.0000000000
10
5.4315892893
20
-33.9034107883
30
0.0000000000
10
5.3691141289
20
-33.1466089989
30
0.0000000000
10
5.3462272524
20
-32.7746761639
30
0.0000000000
11
5.9868688198
21
-37.3777418329
31
0.0000000000
11
5.7615525149
21
-36.2094110984
31
0.0000000000
11
5.5767415496
21
-35.0399644337
31
0.0000000000
11
5.4374734514
21
-33.8888551069
31
0.0000000000
11
5.3462272524
21
-32.7746761639
31
0.0000000000
0
SPLINE
5
2C3
100
AcDbEntity
8
0
100
AcDbSpline
62
9
6
CONTINUOUS
70
0
71
3
72
11
73
7
74
5
42
0.0000001000
43
0.0000001000
44
0.0000000001
12
-0.5858693415
22
4.4853905428
32
0.0000000000
13
-0.2248090364
23
4.5179012942
33
0.0000000000
40
0.0000000000
40
0.0000000000
40
0.0000000000
40
0.0000000000
40
0.2564584383
40
0.5111407744
40
0.7601859125
40
1.0000000000
40
1.0000000000
40
1.0000000000
40
1.0000000000
10
5.9868688617
20
-37.3777420319
30
0.0000000000
10
5.9367851496
20
-36.9943032806
30
0.0000000000
10
5.8435322744
20
-36.2292036666
30
0.0000000000
10
5.7261242106
20
-35.0889300859
30
0.0000000000
10
5.6336924948
20
-33.9715356433
30
0.0000000000
10
5.5885880901
20
-33.2357297112
30
0.0000000000
10
5.5706172988
20
-32.8745775858
30
0.0000000000
11
5.9868688617
21
-37.3777420319
31
0.0000000000
11
5.8468103857
21
-36.2261403166
31
0.0000000000
11
5.7291337731
21
-35.0801128552
31
0.0000000000
11
5.6366110337
21
-33.9573652337
31
0.0000000000
11
5.5706172988
21
-32.8745775858
31
0.0000000000
0
SPLINE
5
2C4
100
AcDbEntity
8
0
100
AcDbSpline
62
9
6
CONTINUOUS
70
0
71
3
72
14
73
10
74
8
42
0.0000001000
43
0.0000001000
44
0.0000000001
12
-0.1847122144
22
2.6770966878
32
0.0000000000
13
0.6281941350
23
2.6095966246
33
0.0000000000
40
0.0000000000
40
0.0000000000
40
0.0000000000
40
0.0000000000
40
0.1577717291
40
0.3359171416
40
0.5094014360
40
0.6723298927
40
0.8201358565
40
0.9532861623
40
1.0000000000
40
1.0000000000
40
1.0000000000
40
1.0000000000
10
5.3462272524
20
-32.7746761639
30
0.0000000000
10
5.3365131306
20
-32.6338861061
30
0.0000000000
10
5.3173577032
20
-32.3340107209
30
0.0000000000
10
5.2999329852
20
-31.8786015345
30
0.0000000000
10
5.3013597652
20
-31.4181663832
30
0.0000000000
10
5.3251548004
20
-30.9854671930
30
0.0000000000
10
5.3702141588
20
-30.5907299900
30
0.0000000000
10
5.4217267919
20
-30.3020011601
30
0.0000000000
10
5.4573802343
20
-30.1450530119
30
0.0000000000
10
5.4671620205
20
-30.1044182542
30
0.0000000000
11
5.3462272524
21
-32.7746761639
31
0.0000000000
11
5.3202103426
21
-32.3521019559
31
0.0000000000
11
5.3031110352
21
-31.8743615231
31
0.0000000000
11
5.3055373209
21
-31.4088294320
31
0.0000000000
11
5.3303718709
21
-30.9723230982
31
0.0000000000
11
5.3760327970
21
-30.5783285437
31
0.0000000000
11
5.4393582153
21
-30.2266812300
31
0.0000000000
11
5.4671620205
21
-30.1044182542
31
0.0000000000
0
SPLINE
5
2C5
100
AcDbEntity
8
0
100
AcDbSpline
62
9
6
CONTINUOUS
70
0
71
3
72
13
73
9
74
7
42
0.0000001000
43
0.0000001000
44
0.0000000001
12
-0.0910366219
22
0.2358885811
32
0.0000000000
13
-0.2491619738
23
0.0430046512
33
0.0000000000
40
0.0000000000
40
0.0000000000
40
0.0000000000
40
0.0000000000
40
0.0961833480
40
0.2164461078
40
0.3663817829
40
0.5475531985
40
0.7593784542
40
1.0000000000
40
1.0000000000
40
1.0000000000
40
1.0000000000
10
5.5706173488
20
-32.8745775819
30
0.0000000000
10
5.5676986131
20
-32.8670147307
30
0.0000000000
10
5.5568943335
20
-32.8516666180
30
0.0000000000
10
5.5322510838
20
-32.8327022645
30
0.0000000000
10
5.4982896578
20
-32.8152396017
30
0.0000000000
10
5.4552491595
20
-32.7994772068
30
0.0000000000
10
5.4036386258
20
-32.7855653747
30
0.0000000000
10
5.3662118245
20
-32.7781254483
30
0.0000000000
10
5.3462272447
20
-32.7746761664
30
0.0000000000
11
5.5706173488
21
-32.8745775819
31
0.0000000000
11
5.5573549725
21
-32.8541925139
31
0.0000000000
11
5.5338197829
21
-32.8349379405
31
0.0000000000
11
5.5003660129
21
-32.8171036663
31
0.0000000000
11
5.4574971821
21
-32.8009581185
31
0.0000000000
11
5.4058585180
21
-32.7867443069
31
0.0000000000
11
5.3462272447
21
-32.7746761664
31
0.0000000000
0
SPLINE
5
2C6
100
AcDbEntity
8
0
100
AcDbSpline
62
9
6
CONTINUOUS
70
0
71
3
72
9
73
5
74
3
42
0.0000001000
43
0.0000001000
44
0.0000000001
12
-0.0227343974
22
0.4568969877
32
0.0000000000
13
-0.0176873794
23
0.4571261124
33
0.0000000000
40
0.0000000000
40
0.0000000000
40
0.0000000000
40
0.0000000000
40
0.9445309151
40
1.0000000000
40
1.0000000000
40
1.0000000000
40
1.0000000000
10
5.5706173488
20
-32.8745775819
30
0.0000000000
10
5.5634595684
20
-32.7307264719
30
0.0000000000
10
5.5563900400
20
-32.5784005532
30
0.0000000000
10
5.5504309939
20
-32.4260277567
30
0.0000000000
10
5.5501039597
20
-32.4175756343
30
0.0000000000
11
5.5706173488
21
-32.8745775819
31
0.0000000000
11
5.5510954963
21
-32.4429315716
31
0.0000000000
11
5.5501039597
21
-32.4175756343
31
0.0000000000
0
SPLINE
5
2C7
100
AcDbEntity
8
0
100
AcDbSpline
62
9
6
CONTINUOUS
70
0
71
3
72
29
73
25
74
23
42
0.0000001000
43
0.0000001000
44
0.0000000001
12
-0.4988123491
22
-0.2122085899
32
0.0000000000
13
-0.2595839459
23
-0.4758806787
33
0.0000000000
40
0.0000000000
40
0.0000000000
40
0.0000000000
40
0.0000000000
40
0.0376389042
40
0.0750695954
40
0.1133875762
40
0.1552778416
40
0.2023253243
40
0.2564037890
40
0.3194836964
40
0.3924305448
40
0.4642249668
40
0.5289314125
40
0.5872584400
40
0.6402715864
40
0.6887878158
40
0.7335076840
40
0.7748706287
40
0.8131734973
40
0.8485700003
40
0.8812884190
40
0.9114882552
40
0.9391243823
40
0.9679268049
40
1.0000000000
40
1.0000000000
40
1.0000000000
40
1.0000000000
10
-11.4865044903
20
-20.7877290085
30
0.0000000000
10
-11.4927627404
20
-20.7903914415
30
0.0000000000
10
-11.5048375434
20
-20.7967302277
30
0.0000000000
10
-11.5211374752
20
-20.8093391397
30
0.0000000000
10
-11.5350783870
20
-20.8255834550
30
0.0000000000
10
-11.5462595848
20
-20.8458636572
30
0.0000000000
10
-11.5538739046
20
-20.8707379104
30
0.0000000000
10
-11.5572049216
20
-20.9003582815
30
0.0000000000
10
-11.5559427881
20
-20.9347881214
30
0.0000000000
10
-11.5498886959
20
-20.9719360347
30
0.0000000000
10
-11.5402914064
20
-21.0085660954
30
0.0000000000
10
-11.5303270726
20
-21.0423358845
30
0.0000000000
10
-11.5201071690
20
-21.0724643193
30
0.0000000000
10
-11.5109421278
20
-21.0998543125
30
0.0000000000
10
-11.5027524103
20
-21.1249845014
30
0.0000000000
10
-11.4960580674
20
-21.1483649217
30
0.0000000000
10
-11.4903708736
20
-21.1701289404
30
0.0000000000
10
-11.4871946852
20
-21.1907107981
30
0.0000000000
10
-11.4855300614
20
-21.2098632897
30
0.0000000000
10
-11.4849108412
20
-21.2276647048
30
0.0000000000
10
-11.4869164519
20
-21.2439452193
30
0.0000000000
10
-11.4899368787
20
-21.2593280957
30
0.0000000000
10
-11.4951615905
20
-21.2745013786
30
0.0000000000
10
-11.5000300321
20
-21.2843914668
30
0.0000000000
10
-11.5028052609
20
-21.2894791380
30
0.0000000000
11
-11.4865044903
21
-20.7877290085
31
0.0000000000
11
-11.5045484422
21
-20.7972528726
31
0.0000000000
11
-11.5205429300
21
-20.8097377272
31
0.0000000000
11
-11.5340941283
21
-20.8254797081
31
0.0000000000
11
-11.5451233178
21
-20.8453290583
31
0.0000000000
11
-11.5527782351
21
-20.8696564257
31
0.0000000000
11
-11.5563502324
21
-20.8987526180
31
0.0000000000
11
-11.5553503530
21
-20.9329320914
31
0.0000000000
11
-11.5492415129
21
-20.9720000996
31
0.0000000000
11
-11.5397656417
21
-21.0097468931
31
0.0000000000
11
-11.5297657183
21
-21.0433670279
31
0.0000000000
11
-11.5198206646
21
-21.0733799120
31
0.0000000000
11
-11.5107212489
21
-21.1006383835
31
0.0000000000
11
-11.5026979330
21
-21.1256841196
31
0.0000000000
11
-11.4959843433
21
-21.1489774880
31
0.0000000000
11
-11.4906200639
21
-21.1707482033
31
0.0000000000
11
-11.4873525759
21
-21.1912525495
31
0.0000000000
11
-11.4856600443
21
-21.2103653449
31
0.0000000000
11
-11.4853789684
21
-21.2280989827
31
0.0000000000
11
-11.4871737287
21
-21.2443709051
31
0.0000000000
11
-11.4902232456
21
-21.2590381181
31
0.0000000000
11
-11.4952539506
21
-21.2738185390
31
0.0000000000
11
-11.5028052609
21
-21.2894791380
31
0.0000000000
0
SPLINE
5
2C8
100
AcDbEntity
8
0
100
AcDbSpline
62
9
6
CONTINUOUS
70
0
71
3
72
11
73
7
74
5
42
0.0000001000
43
0.0000001000
44
0.0000000001
12
0.3479441385
22
-4.6701237313
32
0.0000000000
13
0.7428133046
23
-4.6237808321
33
0.0000000000
40
0.0000000000
40
0.0000000000
40
0.0000000000
40
0.0000000000
40
0.2618230903
40
0.5183534687
40
0.7656084692
40
1.0000000000
40
1.0000000000
40
1.0000000000
40
1.0000000000
10
-12.9351559463
20
29.0861908736
30
0.0000000000
10
-12.9047893431
20
28.6786087978
30
0.0000000000
10
-12.8332790559
20
27.8724968504
30
0.0000000000
10
-12.6979469769
20
26.6849509234
30
0.0000000000
10
-12.5430007493
20
25.5430312343
30
0.0000000000
10
-12.4288608502
20
24.7998506952
30
0.0000000000
10
-12.3708244676
20
24.4385923394
30
0.0000000000
11
-12.9351559463
21
29.0861908736
31
0.0000000000
11
-12.8274166715
21
27.8647983238
31
0.0000000000
11
-12.6919784747
21
26.6711082160
31
0.0000000000
11
-12.5368640934
21
25.5236329996
31
0.0000000000
11
-12.3708244676
21
24.4385923394
31
0.0000000000
0
SPLINE
5
2C9
100
AcDbEntity
8
0
100
AcDbSpline
62
9
6
CONTINUOUS
70
0
71
3
72
11
73
7
74
5
42
0.0000001000
43
0.0000001000
44
0.0000000001
12
-0.0208040290
22
-4.6492406972
32
0.0000000000
13
0.1982765880
23
-4.6450574014
33
0.0000000000
40
0.0000000000
40
0.0000000000
40
0.0000000000
40
0.0000000000
40
0.2607491239
40
0.5167854186
40
0.7643342829
40
1.0000000000
40
1.0000000000
40
1.0000000000
40
1.0000000000
10
-12.9351559627
20
29.0861910903
30
0.0000000000
10
-12.9369641735
20
28.6820959441
30
0.0000000000
10
-12.9342811246
20
27.8811704573
30
0.0000000000
10
-12.9138731043
20
26.6967790465
30
0.0000000000
10
-12.8805154984
20
25.5515790629
30
0.0000000000
10
-12.8514276146
20
24.8032661803
30
0.0000000000
10
-12.8358519499
20
24.4383725857
30
0.0000000000
11
-12.9351559627
21
29.0861910903
31
0.0000000000
11
-12.9314269120
21
27.8738992503
31
0.0000000000
11
-12.9112482403
21
26.6836840120
31
0.0000000000
11
-12.8780677453
21
25.5332366215
31
0.0000000000
11
-12.8358519499
21
24.4383725857
31
0.0000000000
0
SPLINE
5
2CA
100
AcDbEntity
8
0
100
AcDbSpline
62
9
6
CONTINUOUS
70
0
71
3
72
14
73
10
74
8
42
0.0000001000
43
0.0000001000
44
0.0000000001
12
0.4272509465
22
-2.5415519402
32
0.0000000000
13
0.9342391535
23
-2.4019214892
33
0.0000000000
40
0.0000000000
40
0.0000000000
40
0.0000000000
40
0.0000000000
40
0.1582882924
40
0.3324788792
40
0.4986255298
40
0.6505502072
40
0.7841028260
40
0.8999089065
40
1.0000000000
40
1.0000000000
40
1.0000000000
40
1.0000000000
10
-12.3708244676
20
24.4385923394
30
0.0000000000
10
-12.3482815267
20
24.3044930339
30
0.0000000000
10
-12.2916005567
20
24.0243465054
30
0.0000000000
10
-12.1836976830
20
23.6096283661
30
0.0000000000
10
-12.0593935435
20
23.2053157380
30
0.0000000000
10
-11.9334778466
20
22.8382908740
30
0.0000000000
10
-11.8143543171
20
22.5147770466
30
0.0000000000
10
-11.7067825810
20
22.2345055153
30
0.0000000000
10
-11.6393258763
20
22.0617366346
30
0.0000000000
10
-11.6081562035
20
21.9815996518
30
0.0000000000
11
-12.3708244676
21
24.4385923394
31
0.0000000000
11
-12.2908510526
21
24.0385654349
31
0.0000000000
11
-12.1787371230
21
23.6038640147
31
0.0000000000
11
-12.0535205913
21
23.1943861536
31
0.0000000000
11
-11.9268962484
21
22.8238842284
31
0.0000000000
11
-11.8083010911
21
22.5007674771
31
0.0000000000
11
-11.7016582387
21
22.2220133161
31
0.0000000000
11
-11.6081562035
21
21.9815996518
31
0.0000000000
0
SPLINE
5
2CB
100
AcDbEntity
8
0
100
AcDbSpline
62
9
6
CONTINUOUS
70
0
71
3
72
13
73
9
74
7
42
0.0000001000
43
0.0000001000
44
0.0000000001
12
0.4625466712
22
0.0626842096
32
0.0000000000
13
0.4590410497
23
-0.0846170659
33
0.0000000000
40
0.0000000000
40
0.0000000000
40
0.0000000000
40
0.0000000000
40
0.1836233434
40
0.3634838070
40
0.5371991177
40
0.7025195799
40
0.8573865573
40
1.0000000000
40
1.0000000000
40
1.0000000000
40
1.0000000000
10
-12.8358519495
20
24.4383725971
30
0.0000000000
10
-12.8075404941
20
24.4422093585
30
0.0000000000
10
-12.7513321812
20
24.4486394090
30
0.0000000000
10
-12.6679333564
20
24.4545704209
30
0.0000000000
10
-12.5871943844
20
24.4566455213
30
0.0000000000
10
-12.5103330421
20
24.4548378290
30
0.0000000000
10
-12.4385098953
20
24.4491817033
30
0.0000000000
10
-12.3926462821
20
24.4426148465
30
0.0000000000
10
-12.3708244740
20
24.4385923362
30
0.0000000000
11
-12.8358519495
21
24.4383725971
31
0.0000000000
11
-12.7506937341
21
24.4480891584
31
0.0000000000
11
-12.6669473123
21
24.4539940126
31
0.0000000000
11
-12.5858861312
21
24.4559973706
31
0.0000000000
11
-12.5087428061
21
24.4540687692
31
0.0000000000
11
-12.4366903776
21
24.4482375345
31
0.0000000000
11
-12.3708244740
21
24.4385923362
31
0.0000000000
0
SPLINE
5
2CC
100
AcDbEntity
8
0
100
AcDbSpline
62
9
6
CONTINUOUS
70
0
71
3
72
14
73
10
74
8
42
0.0000001000
43
0.0000001000
44
0.0000000001
12
0.1158262928
22
-2.7133743708
32
0.0000000000
13
0.3902321008
23
-2.6876635045
33
0.0000000000
40
0.0000000000
40
0.0000000000
40
0.0000000000
40
0.0000000000
40
0.1583691837
40
0.3314344250
40
0.4960333276
40
0.6468397189
40
0.7802894753
40
0.8972852035
40
1.0000000000
40
1.0000000000
40
1.0000000000
40
1.0000000000
10
-12.8358519495
20
24.4383725971
30
0.0000000000
10
-12.8297375110
20
24.2951343024
30
0.0000000000
10
-12.8119068709
20
23.9955675338
30
0.0000000000
10
-12.7724664480
20
23.5482038834
30
0.0000000000
10
-12.7235889470
20
23.1086812383
30
0.0000000000
10
-12.6720035839
20
22.7056163545
30
0.0000000000
10
-12.6219463469
20
22.3458318634
30
0.0000000000
10
-12.5759890012
20
22.0294421507
30
0.0000000000
10
-12.5471019607
20
21.8326510599
30
0.0000000000
10
-12.5337410904
20
21.7406301232
30
0.0000000000
11
-12.8358519495
21
24.4383725971
31
0.0000000000
11
-12.8107516844
21
24.0089994080
31
0.0000000000
11
-12.7699703823
21
23.5407535133
31
0.0000000000
11
-12.7209320240
21
23.0964262200
31
0.0000000000
11
-12.6692226857
21
22.6901367378
31
0.0000000000
11
-12.6195111671
21
22.3311332880
31
0.0000000000
11
-12.5740467413
21
22.0166604572
31
0.0000000000
11
-12.5337410904
21
21.7406301232
31
0.0000000000
0
SPLINE
5
2CD
100
AcDbEntity
8
0
100
AcDbSpline
62
7
6
CONTINUOUS
70
0
71
3
72
21
73
17
74
15
42
0.0000001000
43
0.0000001000
44
0.0000000001
12
0.5765851373
22
0.8101735657
32
0.0000000000
13
0.9358742026
23
-0.3361117433
33
0.0000000000
40
0.0000000000
40
0.0000000000
40
0.0000000000
40
0.0000000000
40
0.0749211658
40
0.1512160108
40
0.2280153013
40
0.3048811059
40
0.3815571534
40
0.4576006111
40
0.5321557617
40
0.6052001137
40
0.6767374504
40
0.7460775432
40
0.8130402650
40
0.8777060331
40
0.9400966711
40
1.0000000000
40
1.0000000000
40
1.0000000000
40
1.0000000000
10
-11.7108567415
20
20.2966631159
30
0.0000000000
10
-11.6964572646
20
20.3168961652
30
0.0000000000
10
-11.6656679501
20
20.3565317826
30
0.0000000000
10
-11.6145983620
20
20.4123499290
30
0.0000000000
10
-11.5588042844
20
20.4644005787
30
0.0000000000
10
-11.4990186251
20
20.5120121509
30
0.0000000000
10
-11.4359000309
20
20.5546646582
30
0.0000000000
10
-11.3702576749
20
20.5917937092
30
0.0000000000
10
-11.3029054193
20
20.6229611072
30
0.0000000000
10
-11.2345758107
20
20.6478628039
30
0.0000000000
10
-11.1659791176
20
20.6662013356
30
0.0000000000
10
-11.0979485705
20
20.6777198949
30
0.0000000000
10
-11.0313730092
20
20.6822743022
30
0.0000000000
10
-10.9669757527
20
20.6797973536
30
0.0000000000
10
-10.9055964334
20
20.6702980733
30
0.0000000000
10
-10.8664833660
20
20.6591581429
30
0.0000000000
10
-10.8477960393
20
20.6524467388
30
0.0000000000
11
-11.7108567415
21
20.2966631159
31
0.0000000000
11
-11.6651917696
21
20.3555290766
31
0.0000000000
11
-11.6140022087
21
20.4115248104
31
0.0000000000
11
-11.5581706950
21
20.4636314373
31
0.0000000000
11
-11.4983778645
21
20.5112463790
31
0.0000000000
11
-11.4351910278
21
20.5539193053
31
0.0000000000
11
-11.3693541516
21
20.5911151503
31
0.0000000000
11
-11.3020492533
21
20.6222028015
31
0.0000000000
11
-11.2337793147
21
20.6470040966
31
0.0000000000
11
-11.1650326459
21
20.6652888147
31
0.0000000000
11
-11.0970310004
21
20.6766961192
31
0.0000000000
11
-11.0305903412
21
20.6811194523
31
0.0000000000
11
-10.9663394070
21
20.6785162520
31
0.0000000000
11
-10.9050495722
21
20.6688895215
31
0.0000000000
11
-10.8477960393
21
20.6524467388
31
0.0000000000
0
SPLINE
5
2CE
100
AcDbEntity
8
0
100
AcDbSpline
62
9
6
CONTINUOUS
70
0
71
3
72
12
73
8
74
6
42
0.0000001000
43
0.0000001000
44
0.0000000001
12
0.5573254168
22
-1.4327554906
32
0.0000000000
13
0.9730027854
23
-1.1902375794
33
0.0000000000
40
0.0000000000
40
0.0000000000
40
0.0000000000
40
0.0000000000
40
0.2088675058
40
0.4130602841
40
0.6128090331
40
0.8083593953
40
1.0000000000
40
1.0000000000
40
1.0000000000
40
1.0000000000
10
-11.6081562035
20
21.9815996518
30
0.0000000000
10
-11.5693538136
20
21.8818476299
30
0.0000000000
10
-11.4871225972
20
21.6866540885
30
0.0000000000
10
-11.3483468445
20
21.4047502357
30
0.0000000000
10
-11.1958919183
20
21.1378027821
30
0.0000000000
10
-11.0301628983
20
20.8865628623
30
0.0000000000
10
-10.9099517897
20
20.7284791499
30
0.0000000000
10
-10.8477961756
20
20.6524465334
30
0.0000000000
11
-11.6081562035
21
21.9815996518
31
0.0000000000
11
-11.4833001631
21
21.6857689718
31
0.0000000000
11
-11.3444659447
21
21.4042262782
31
0.0000000000
11
-11.1919925728
21
21.1376732927
31
0.0000000000
11
-11.0262828603
21
20.8868415324
31
0.0000000000
11
-10.8477961756
21
20.6524465334
31
0.0000000000
0
SPLINE
5
2CF
100
AcDbEntity
8
0
100
AcDbSpline
62
9
6
CONTINUOUS
70
0
71
3
72
20
73
16
74
14
42
0.0000001000
43
0.0000001000
44
0.0000000001
12
0.7246365592
22
0.6880089115
32
0.0000000000
13
0.9407469221
23
-0.3368228523
33
0.0000000000
40
0.0000000000
40
0.0000000000
40
0.0000000000
40
0.0000000000
40
0.0756158964
40
0.1537090258
40
0.2337234193
40
0.3150404539
40
0.3970009408
40
0.4789261803
40
0.5601385326
40
0.6399820148
40
0.7178434370
40
0.7931746302
40
0.8655163869
40
0.9345247387
40
1.0000000000
40
1.0000000000
40
1.0000000000
40
1.0000000000
10
-12.5337413072
20
21.7406302135
30
0.0000000000
10
-12.5154766262
20
21.7579716837
30
0.0000000000
10
-12.4767219932
20
21.7915422820
30
0.0000000000
10
-12.4137797369
20
21.8374868084
30
0.0000000000
10
-12.3458022266
20
21.8793362084
30
0.0000000000
10
-12.2737176330
20
21.9165187509
30
0.0000000000
10
-12.1985025007
20
21.9485322005
30
0.0000000000
10
-12.1211784408
20
21.9749416882
30
0.0000000000
10
-12.0427948840
20
21.9953886140
30
0.0000000000
10
-11.9644151057
20
22.0095948907
30
0.0000000000
10
-11.8871003805
20
22.0173664023
30
0.0000000000
10
-11.8118967372
20
22.0185954466
30
0.0000000000
10
-11.7398138945
20
22.0132583459
30
0.0000000000
10
-11.6718340948
20
22.0014217209
30
0.0000000000
10
-11.6286879300
20
21.9889510004
30
0.0000000000
10
-11.6081560465
20
21.9815998123
30
0.0000000000
11
-12.5337413072
21
21.7406302135
31
0.0000000000
11
-12.4767077856
21
21.7901893082
31
0.0000000000
11
-12.4137332884
21
21.8362688447
31
0.0000000000
11
-12.3456812547
21
21.8782370291
31
0.0000000000
11
-12.2734847417
21
21.9155184380
31
0.0000000000
11
-12.1981336313
21
21.9476019076
31
0.0000000000
11
-12.1206610582
21
21.9740475431
31
0.0000000000
11
-12.0421292443
21
21.9944927496
31
0.0000000000
11
-11.9636149349
21
22.0086572035
31
0.0000000000
11
-11.8861946357
21
22.0163466966
31
0.0000000000
11
-11.8109298521
21
22.0174557982
31
0.0000000000
11
-11.7388525360
21
22.0119693013
31
0.0000000000
11
-11.6709509356
21
21.9999624309
31
0.0000000000
11
-11.6081560465
21
21.9815998123
31
0.0000000000
0
SPLINE
5
2D0
100
AcDbEntity
8
0
100
AcDbSpline
62
9
6
CONTINUOUS
70
0
71
3
72
12
73
8
74
6
42
0.0000001000
43
0.0000001000
44
0.0000000001
12
0.6026844544
22
-1.5559079289
32
0.0000000000
13
1.0539304753
23
-1.2935642960
33
0.0000000000
40
0.0000000000
40
0.0000000000
40
0.0000000000
40
0.0000000000
40
0.2090070829
40
0.4132591849
40
0.6130056438
40
0.8084879123
40
1.0000000000
40
1.0000000000
40
1.0000000000
40
1.0000000000
10
-12.5337413307
20
21.7406302076
30
0.0000000000
10
-12.4917528907
20
21.6322316151
30
0.0000000000
10
-12.4027748494
20
21.4201433472
30
0.0000000000
10
-12.2525910845
20
21.1138412757
30
0.0000000000
10
-12.0876059957
20
20.8238406725
30
0.0000000000
10
-11.9082521883
20
20.5509455318
30
0.0000000000
10
-11.7781340801
20
20.3792371263
30
0.0000000000
10
-11.7108539382
20
20.2966593933
30
0.0000000000
11
-12.5337413307
21
21.7406302076
31
0.0000000000
11
-12.3986129019
21
21.4191339196
31
0.0000000000
11
-12.2483668045
21
21.1132338668
31
0.0000000000
11
-12.0833569889
21
20.8236605430
31
0.0000000000
11
-11.9040220330
21
20.5512126931
31
0.0000000000
11
-11.7108539382
21
20.2966593933
31
0.0000000000
0
SPLINE
5
2D1
100
AcDbEntity
8
0
100
AcDbSpline
62
7
6
CONTINUOUS
70
0
71
3
72
10
73
6
74
4
42
0.0000001000
43
0.0000001000
44
0.0000000001
12
0.0041263747
22
0.0744389234
32
0.0000000000
13
0.0315673991
23
0.0676236432
33
0.0000000000
40
0.0000000000
40
0.0000000000
40
0.0000000000
40
0.0000000000
40
0.3819949087
40
0.7458434162
40
1.0000000000
40
1.0000000000
40
1.0000000000
40
1.0000000000
10
-10.9887795310
20
20.5560108690
30
0.0000000000
10
-10.9882541130
20
20.5654892989
30
0.0000000000
10
-10.9861450045
20
20.5839606800
30
0.0000000000
10
-10.9800918435
20
20.6081433022
30
0.0000000000
10
-10.9744504767
20
20.6224747113
30
0.0000000000
10
-10.9717761226
20
20.6282037094
30
0.0000000000
11
-10.9887795310
21
20.5560108690
31
0.0000000000
11
-10.9854626692
21
20.5842960013
31
0.0000000000
11
-10.9787691102
21
20.6105832616
31
0.0000000000
11
-10.9717761226
21
20.6282037094
31
0.0000000000
0
SPLINE
5
2D2
100
AcDbEntity
8
0
100
AcDbSpline
62
9
6
CONTINUOUS
70
0
71
3
72
29
73
25
74
23
42
0.0000001000
43
0.0000001000
44
0.0000000001
12
0.5182173271
22
-0.6360520707
32
0.0000000000
13
0.7839689958
23
0.2418725743
33
0.0000000000
40
0.0000000000
40
0.0000000000
40
0.0000000000
40
0.0000000000
40
0.0308252064
40
0.0617771111
40
0.0956000817
40
0.1340070780
40
0.1555817966
40
0.1792081396
40
0.2346898396
40
0.3068129139
40
0.3521630314
40
0.4062609059
40
0.4726001609
40
0.5098189307
40
0.5466029797
40
0.5802169496
40
0.6107889672
40
0.6653695791
40
0.7129456668
40
0.7548025308
40
0.8252012280
40
0.8817507630
40
0.9280577608
40
1.0000000000
40
1.0000000000
40
1.0000000000
40
1.0000000000
10
-11.7108540094
20
20.2966593353
30
0.0000000000
10
-11.7055292907
20
20.2901238565
30
0.0000000000
10
-11.6938838769
20
20.2777440390
30
0.0000000000
10
-11.6724476457
20
20.2624914246
30
0.0000000000
10
-11.6465569355
20
20.2508097625
30
0.0000000000
10
-11.6212986030
20
20.2452969392
30
0.0000000000
10
-11.5984599645
20
20.2437364937
30
0.0000000000
10
-11.5708954036
20
20.2444768351
30
0.0000000000
10
-11.5299050624
20
20.2513529594
30
0.0000000000
10
-11.4848215878
20
20.2661268512
30
0.0000000000
10
-11.4416427654
20
20.2845308968
30
0.0000000000
10
-11.4009977194
20
20.3046764093
30
0.0000000000
10
-11.3633778913
20
20.3257764637
30
0.0000000000
10
-11.3305528311
20
20.3456688737
30
0.0000000000
10
-11.3056363252
20
20.3613345841
30
0.0000000000
10
-11.2824858061
20
20.3763873300
30
0.0000000000
10
-11.2554800815
20
20.3944337393
30
0.0000000000
10
-11.2255071316
20
20.4149090882
30
0.0000000000
10
-11.1931284866
20
20.4373312556
30
0.0000000000
10
-11.1572113935
20
20.4622428620
30
0.0000000000
10
-11.1190313103
20
20.4881931599
30
0.0000000000
10
-11.0789816078
20
20.5135588850
30
0.0000000000
10
-11.0373335863
20
20.5370013426
30
0.0000000000
10
-11.0075796934
20
20.5502105862
30
0.0000000000
10
-10.9887795317
20
20.5560108711
30
0.0000000000
11
-11.7108540094
21
20.2966593353
31
0.0000000000
11
-11.6933583323
21
20.2783977247
31
0.0000000000
11
-11.6726966022
21
20.2636347384
31
0.0000000000
11
-11.6474166673
21
20.2521910529
31
0.0000000000
11
-11.6166703964
21
20.2452940091
31
0.0000000000
11
-11.5990140776
21
20.2440427013
31
0.0000000000
11
-11.5796359252
21
20.2445115401
31
0.0000000000
11
-11.5346659689
21
20.2515601002
31
0.0000000000
11
-11.4782412553
21
20.2693812125
31
0.0000000000
11
-11.4439787827
21
20.2838871686
31
0.0000000000
11
-11.4041578815
21
20.3034883244
31
0.0000000000
11
-11.3566300326
21
20.3300098252
31
0.0000000000
11
-11.3304953910
21
20.3458021300
31
0.0000000000
11
-11.3049455802
21
20.3618635506
31
0.0000000000
11
-11.2818217245
21
20.3768913012
31
0.0000000000
11
-11.2609564355
21
20.3908110910
31
0.0000000000
11
-11.2239542497
21
20.4160313449
31
0.0000000000
11
-11.1918454714
21
20.4382259284
31
0.0000000000
11
-11.1636024752
21
20.4577610105
31
0.0000000000
11
-11.1157044477
21
20.4900363108
31
0.0000000000
11
-11.0763931211
21
20.5146761866
31
0.0000000000
11
-11.0431992816
21
20.5331570909
31
0.0000000000
11
-10.9887795317
21
20.5560108711
31
0.0000000000
0
SPLINE
5
2D3
100
AcDbEntity
8
0
100
AcDbSpline
62
9
6
CONTINUOUS
70
0
71
3
72
11
73
7
74
5
42
0.0000001000
43
0.0000001000
44
0.0000000001
12
0.4343306181
22
4.1959396087
32
0.0000000000
13
1.0492218892
23
4.0857907084
33
0.0000000000
40
0.0000000000
40
0.0000000000
40
0.0000000000
40
0.0000000000
40
0.2332351853
40
0.4794066378
40
0.7360180776
40
1.0000000000
40
1.0000000000
40
1.0000000000
40
1.0000000000
10
6.1297838473
20
17.4758261127
30
0.0000000000
10
6.1635509080
20
17.8020396967
30
0.0000000000
10
6.2489227784
20
18.4709789035
30
0.0000000000
10
6.4227971426
20
19.4914543978
30
0.0000000000
10
6.6432518459
20
20.5470575911
30
0.0000000000
10
6.8158561432
20
21.2585591134
30
0.0000000000
10
6.9081813470
20
21.6180840753
30
0.0000000000
11
6.1297838473
21
17.4758261127
31
0.0000000000
11
6.2532183844
21
18.4519221971
31
0.0000000000
11
6.4265111606
21
19.4758002741
31
0.0000000000
11
6.6467033477
21
20.5356476896
31
0.0000000000
11
6.9081813470
21
21.6180840753
31
0.0000000000
0
SPLINE
5
2D4
100
AcDbEntity
8
0
100
AcDbSpline
62
9
6
CONTINUOUS
70
0
71
3
72
13
73
9
74
7
42
0.0000001000
43
0.0000001000
44
0.0000000001
12
-0.0551339728
22
0.3476912509
32
0.0000000000
13
-0.3063955257
23
0.1733515005
33
0.0000000000
40
0.0000000000
40
0.0000000000
40
0.0000000000
40
0.0000000000
40
0.1369449465
40
0.2832706753
40
0.4417286227
40
0.6138418733
40
0.8000671406
40
1.0000000000
40
1.0000000000
40
1.0000000000
40
1.0000000000
10
6.3520087041
20
17.2169566273
30
0.0000000000
10
6.3494919311
20
17.2328281472
30
0.0000000000
10
6.3405128980
20
17.2651396377
30
0.0000000000
10
6.3168961271
20
17.3115897736
30
0.0000000000
10
6.2833198185
20
17.3566493861
30
0.0000000000
10
6.2403602473
20
17.3997012379
30
0.0000000000
10
6.1886812405
20
17.4401800861
30
0.0000000000
10
6.1502033589
20
17.4642732259
30
0.0000000000
10
6.1297838477
20
17.4758261130
30
0.0000000000
11
6.3520087041
21
17.2169566273
31
0.0000000000
11
6.3393691830
21
17.2634796982
31
0.0000000000
11
6.3163546293
21
17.3095644075
31
0.0000000000
11
6.2833150021
21
17.3545099916
31
0.0000000000
11
6.2407527014
21
17.3976330085
31
0.0000000000
11
6.1893149292
21
17.4382777300
31
0.0000000000
11
6.1297838477
21
17.4758261130
31
0.0000000000
0
SPLINE
5
2D5
100
AcDbEntity
8
0
100
AcDbSpline
62
9
6
CONTINUOUS
70
0
71
3
72
11
73
7
74
5
42
0.0000001000
43
0.0000001000
44
0.0000000001
12
0.3692854945
22
4.4217774816
32
0.0000000000
13
0.7112768812
23
4.3797914415
33
0.0000000000
40
0.0000000000
40
0.0000000000
40
0.0000000000
40
0.0000000000
40
0.2358299033
40
0.4831704604
40
0.7390259017
40
1.0000000000
40
1.0000000000
40
1.0000000000
40
1.0000000000
10
6.3520087041
20
17.2169566273
30
0.0000000000
10
6.3810382249
20
17.5645524125
30
0.0000000000
10
6.4489838890
20
18.2760227944
30
0.0000000000
10
6.5761423201
20
19.3617352582
30
0.0000000000
10
6.7294611203
20
20.4816034186
30
0.0000000000
10
6.8463064490
20
21.2370802264
30
0.0000000000
10
6.9081813965
20
21.6180842671
30
0.0000000000
11
6.3520087041
21
17.2169566273
31
0.0000000000
11
6.4509838577
21
18.2586829857
31
0.0000000000
11
6.5781509664
21
19.3487830105
31
0.0000000000
11
6.7316572255
21
20.4736313365
31
0.0000000000
11
6.9081813965
21
21.6180842671
31
0.0000000000
0
SPLINE
5
2D6
100
AcDbEntity
8
0
100
AcDbSpline
62
9
6
CONTINUOUS
70
0
71
3
72
14
73
10
74
8
42
0.0000001000
43
0.0000001000
44
0.0000000001
12
-0.7163083473
22
2.0940519664
32
0.0000000000
13
0.2478147347
23
2.1991438776
33
0.0000000000
40
0.0000000000
40
0.0000000000
40
0.0000000000
40
0.0000000000
40
0.1030516129
40
0.2224695270
40
0.3551993555
40
0.5034427140
40
0.6655504639
40
0.8383642056
40
1.0000000000
40
1.0000000000
40
1.0000000000
40
1.0000000000
10
6.2188768727
20
15.2833198500
30
0.0000000000
10
6.1942712959
20
15.3552516608
30
0.0000000000
10
6.1476748328
20
15.5128453932
30
0.0000000000
10
6.0949140371
20
15.7698241261
30
0.0000000000
10
6.0604085895
20
16.0635151144
30
0.0000000000
10
6.0483006143
20
16.3904541514
30
0.0000000000
10
6.0594951930
20
16.7469194073
30
0.0000000000
10
6.0895546039
20
17.1120816583
30
0.0000000000
10
6.1164319368
20
17.3573393236
30
0.0000000000
10
6.1297838473
20
17.4758261127
30
0.0000000000
11
6.2188768727
21
15.2833198500
31
0.0000000000
11
6.1540104407
21
15.5019722927
31
0.0000000000
11
6.1004181980
21
15.7607606780
31
0.0000000000
11
6.0654356316
21
16.0524095493
31
0.0000000000
11
6.0522551304
21
16.3802165026
31
0.0000000000
11
6.0621790173
21
16.7388338124
31
0.0000000000
11
6.0920017383
21
17.1201168961
31
0.0000000000
11
6.1297838473
21
17.4758261127
31
0.0000000000
0
SPLINE
5
2D7
100
AcDbEntity
8
0
100
AcDbSpline
62
9
6
CONTINUOUS
70
0
71
3
72
20
73
16
74
14
42
0.0000001000
43
0.0000001000
44
0.0000000001
12
0.0594597737
22
-0.0712468280
32
0.0000000000
13
-0.0869905567
23
0.0325634586
33
0.0000000000
40
0.0000000000
40
0.0000000000
40
0.0000000000
40
0.0000000000
40
0.1244664492
40
0.2179589354
40
0.2881382223
40
0.3475598585
40
0.3963705202
40
0.4417701667
40
0.4936094072
40
0.5585366729
40
0.6358708472
40
0.7284055748
40
0.8322396057
40
0.9459490729
40
1.0000000000
40
1.0000000000
40
1.0000000000
40
1.0000000000
10
-10.8477961859
20
20.6524465373
30
0.0000000000
10
-10.8453292703
20
20.6494905907
30
0.0000000000
10
-10.8411103102
20
20.6442341760
30
0.0000000000
10
-10.8360313715
20
20.6368716351
30
0.0000000000
10
-10.8331304258
20
20.6305854244
30
0.0000000000
10
-10.8315781278
20
20.6252438010
30
0.0000000000
10
-10.8318819338
20
20.6203392299
30
0.0000000000
10
-10.8344739279
20
20.6163941230
30
0.0000000000
10
-10.8389847921
20
20.6139058692
30
0.0000000000
10
-10.8448913040
20
20.6126578670
30
0.0000000000
10
-10.8521567600
20
20.6121327175
30
0.0000000000
10
-10.8606207029
20
20.6127857624
30
0.0000000000
10
-10.8700994750
20
20.6143106777
30
0.0000000000
10
-10.8782410864
20
20.6164301202
30
0.0000000000
10
-10.8831600600
20
20.6181133104
30
0.0000000000
10
-10.8847273668
20
20.6187000054
30
0.0000000000
11
-10.8477961859
21
20.6524465373
31
0.0000000000
11
-10.8406337158
21
20.6433851545
31
0.0000000000
11
-10.8358673506
21
20.6361357265
31
0.0000000000
11
-10.8331540505
21
20.6302153254
31
0.0000000000
11
-10.8318341654
21
20.6248613754
31
0.0000000000
11
-10.8322874827
21
20.6203545567
31
0.0000000000
11
-10.8345730690
21
20.6168153968
31
0.0000000000
11
-10.8386808872
21
20.6143118444
31
0.0000000000
11
-10.8445289771
21
20.6128618893
31
0.0000000000
11
-10.8516857004
21
20.6123294626
31
0.0000000000
11
-10.8602558115
21
20.6128692054
31
0.0000000000
11
-10.8697682595
21
20.6144051360
31
0.0000000000
11
-10.8799789414
21
20.6170675200
31
0.0000000000
11
-10.8847273668
21
20.6187000054
31
0.0000000000
0
SPLINE
5
2D8
100
AcDbEntity
8
0
100
AcDbSpline
62
9
6
CONTINUOUS
70
0
71
3
72
22
73
18
74
16
42
0.0000001000
43
0.0000001000
44
0.0000000001
12
-2.6123824625
22
52.3994121605
32
0.0000000000
13
3.3590409809
23
52.3569633359
33
0.0000000000
40
0.0000000000
40
0.0000000000
40
0.0000000000
40
0.0000000000
40
0.0682276120
40
0.1367576787
40
0.2055859353
40
0.2747080163
40
0.3441194632
40
0.4138157259
40
0.4837921617
40
0.5540440345
40
0.6245665165
40
0.6953546938
40
0.7664035709
40
0.8377080732
40
0.9092630454
40
0.9810632505
40
1.0000000000
40
1.0000000000
40
1.0000000000
40
1.0000000000
10
5.9868688524
20
-37.3777418452
30
0.0000000000
10
5.9274566466
20
-36.1860462571
30
0.0000000000
10
5.8184976855
20
-33.7968552726
30
0.0000000000
10
5.6848295043
20
-30.2039806538
30
0.0000000000
10
5.5805837172
20
-26.5944807090
30
0.0000000000
10
5.5057741289
20
-22.9688349495
30
0.0000000000
10
5.4604104667
20
-19.3275205224
30
0.0000000000
10
5.4444986407
20
-15.6710176039
30
0.0000000000
10
5.4580406873
20
-11.9998079972
30
0.0000000000
10
5.5010347861
20
-8.3143755933
30
0.0000000000
10
5.5734752478
20
-4.6152062195
30
0.0000000000
10
5.6753525169
20
-0.9027875096
30
0.0000000000
10
5.8066531738
20
2.8223912351
30
0.0000000000
10
5.9673599482
20
6.5598391765
30
0.0000000000
10
6.1574516968
20
10.3090635601
30
0.0000000000
10
6.3228000224
20
13.1424586064
30
0.0000000000
10
6.4228199598
20
14.7261301872
30
0.0000000000
10
6.4440230657
20
15.0566204201
30
0.0000000000
11
5.9868688524
21
-37.3777418452
31
0.0000000000
11
5.8237269331
21
-33.8019344710
31
0.0000000000
11
5.6899916736
21
-30.2090274155
31
0.0000000000
11
5.5856806315
21
-26.5994948021
31
0.0000000000
11
5.5108074829
21
-22.9738129347
31
0.0000000000
11
5.4653820256
21
-19.3324599504
31
0.0000000000
11
5.4494101852
21
-15.6759158058
31
0.0000000000
11
5.4628940259
21
-12.0046624011
31
0.0000000000
11
5.5058317495
21
-8.3191836906
31
0.0000000000
11
5.5782176882
21
-4.6199656383
31
0.0000000000
11
5.6800423034
21
-0.9074960133
31
0.0000000000
11
5.8112921936
21
2.8177358183
31
0.0000000000
11
5.9719501021
21
6.5552389422
31
0.0000000000
11
6.1619949161
21
10.3045207840
31
0.0000000000
11
6.3814016505
21
14.0650869797
31
0.0000000000
11
6.4440230657
21
15.0566204201
31
0.0000000000
0
SPLINE
5
2D9
100
AcDbEntity
8
0
100
AcDbSpline
62
9
6
CONTINUOUS
70
0
71
3
72
9
73
5
74
3
42
0.0000001000
43
0.0000001000
44
0.0000000001
12
0.4211497396
22
6.5644097829
32
0.0000000000
13
0.5069110581
23
6.5583304377
33
0.0000000000
40
0.0000000000
40
0.0000000000
40
0.0000000000
40
0.0000000000
40
0.4235462620
40
1.0000000000
40
1.0000000000
40
1.0000000000
40
1.0000000000
10
6.4440230657
20
15.0566204201
30
0.0000000000
10
6.5034818650
20
15.9833974953
30
0.0000000000
10
6.6499735847
20
18.1711422970
30
0.0000000000
10
6.8107777888
20
20.3578926974
30
0.0000000000
10
6.9081813802
20
21.6180840628
30
0.0000000000
11
6.4440230657
21
15.0566204201
31
0.0000000000
11
6.6301414427
21
17.8364413740
31
0.0000000000
11
6.9081813802
21
21.6180840628
31
0.0000000000
0
SPLINE
5
2DA
100
AcDbEntity
8
0
100
AcDbSpline
62
9
6
CONTINUOUS
70
0
71
3
72
23
73
19
74
17
42
0.0000001000
43
0.0000001000
44
0.0000000001
12
-5.0041791968
22
-58.8401981318
32
0.0000000000
13
3.3992251662
23
-58.9546944177
33
0.0000000000
40
0.0000000000
40
0.0000000000
40
0.0000000000
40
0.0000000000
40
0.0640766626
40
0.1279596839
40
0.1916452667
40
0.2551296830
40
0.3184092810
40
0.3814804859
40
0.4443397985
40
0.5069837939
40
0.5694091235
40
0.6316125192
40
0.6935907977
40
0.7553408623
40
0.8168597017
40
0.8781443893
40
0.9391920837
40
1.0000000000
40
1.0000000000
40
1.0000000000
40
1.0000000000
10
-12.9351559800
20
29.0861908863
30
0.0000000000
10
-13.0420396807
20
27.8294297119
30
0.0000000000
10
-13.2449127103
20
25.3187930271
30
0.0000000000
10
-13.5168271442
20
21.5561777385
30
0.0000000000
10
-13.7558574036
20
17.8030085904
30
0.0000000000
10
-13.9619717313
20
14.0597840987
30
0.0000000000
10
-14.1351430916
20
10.3269968433
30
0.0000000000
10
-14.2753486764
20
6.6051390176
30
0.0000000000
10
-14.3825700335
20
2.8947010083
30
0.0000000000
10
-14.4567930273
20
-0.8038281403
30
0.0000000000
10
-14.4980078513
20
-4.4899608791
30
0.0000000000
10
-14.5062090309
20
-8.1632112897
30
0.0000000000
10
-14.4813954248
20
-11.8230952076
30
0.0000000000
10
-14.4235702158
20
-15.4691304000
30
0.0000000000
10
-14.3327409411
20
-19.1008360081
30
0.0000000000
10
-14.2089193846
20
-22.7177343078
30
0.0000000000
10
-14.0521220170
20
-26.3193432666
30
0.0000000000
10
-13.9253684410
20
-28.7146643134
30
0.0000000000
10
-13.8564685079
20
-29.9096350216
30
0.0000000000
11
-12.9351559800
21
29.0861908863
31
0.0000000000
11
-13.2398739746
21
25.3145861989
31
0.0000000000
11
-13.5117416802
21
21.5519360890
31
0.0000000000
11
-13.7507233300
21
17.7987369961
31
0.0000000000
11
-13.9567874855
21
14.0554841047
31
0.0000000000
11
-14.1299070600
21
10.3226709883
31
0.0000000000
11
-14.2700593018
21
6.6007896049
31
0.0000000000
11
-14.3772257865
21
2.8903304292
31
0.0000000000
11
-14.4513924133
21
-0.8082174362
31
0.0000000000
11
-14.4925494109
21
-4.4943663103
31
0.0000000000
11
-14.5006913442
21
-8.1676301409
31
0.0000000000
11
-14.4758171141
21
-11.8275247104
31
0.0000000000
11
-14.4179299530
21
-15.4735676790
31
0.0000000000
11
-14.3270374250
21
-19.1052784735
31
0.0000000000
11
-14.2031514297
21
-22.7221781664
31
0.0000000000
11
-14.0462882190
21
-26.3237894832
31
0.0000000000
11
-13.8564685079
21
-29.9096350216
31
0.0000000000
0
SPLINE
5
2DB
100
AcDbEntity
8
0
100
AcDbSpline
62
9
6
CONTINUOUS
70
0
71
3
72
18
73
14
74
12
42
0.0000001000
43
0.0000001000
44
0.0000000001
12
-3.0545344582
22
-44.5763417139
32
0.0000000000
13
1.7630636642
23
-44.6460751676
33
0.0000000000
40
0.0000000000
40
0.0000000000
40
0.0000000000
40
0.0000000000
40
0.0926134796
40
0.1849056902
40
0.2768688182
40
0.3684965881
40
0.4597828709
40
0.5507216503
40
0.6413068915
40
0.7315328964
40
0.8213941656
40
0.9108853668
40
1.0000000000
40
1.0000000000
40
1.0000000000
40
1.0000000000
10
-12.5337413307
20
21.7406302076
30
0.0000000000
10
-12.6280383522
20
20.3645068361
30
0.0000000000
10
-12.8033976962
20
17.6161312427
30
0.0000000000
10
-13.0269557482
20
13.4985562974
30
0.0000000000
10
-13.2105454774
20
9.3936967423
30
0.0000000000
10
-13.3541359659
20
5.3022348311
30
0.0000000000
10
-13.4577041930
20
1.2248244332
30
0.0000000000
10
-13.5212333334
20
-2.8378780319
30
0.0000000000
10
-13.5447131075
20
-6.8852185553
30
0.0000000000
10
-13.5281397885
20
-10.9165455518
30
0.0000000000
10
-13.4715159837
20
-14.9312150870
30
0.0000000000
10
-13.3748514396
20
-18.9285594344
30
0.0000000000
10
-13.2835309762
20
-21.5871343520
30
0.0000000000
10
-13.2311593856
20
-22.9133405555
30
0.0000000000
11
-12.5337413307
21
21.7406302076
31
0.0000000000
11
-12.7971654654
21
17.6109722458
31
0.0000000000
11
-13.0206575173
21
13.4933364512
31
0.0000000000
11
-13.2041775174
21
9.3884439247
31
0.0000000000
11
-13.3476960614
21
5.2969515108
31
0.0000000000
11
-13.4511901015
21
1.2195139296
31
0.0000000000
11
-13.5146429176
21
-2.8432146482
31
0.0000000000
11
-13.5380442095
21
-6.8905746677
31
0.0000000000
11
-13.5213903415
21
-10.9219169441
31
0.0000000000
11
-13.4646840614
21
-14.9365964480
31
0.0000000000
11
-13.3679344816
21
-18.9339707972
31
0.0000000000
11
-13.2311593856
21
-22.9133405555
31
0.0000000000
0
SPLINE
5
2DC
100
AcDbEntity
8
0
100
AcDbSpline
62
9
6
CONTINUOUS
70
0
71
3
72
8
73
4
74
2
42
0.0000001000
43
0.0000001000
44
0.0000000001
12
0.1556092883
22
-0.5032626989
32
0.0000000000
13
0.1543255876
23
-0.5036582068
33
0.0000000000
40
0.0000000000
40
0.0000000000
40
0.0000000000
40
0.0000000000
40
1.0000000000
40
1.0000000000
40
1.0000000000
40
1.0000000000
10
-1.8758180592
20
38.3373203300
30
0.0000000000
10
-1.8239482965
20
38.1695660970
30
0.0000000000
10
-1.7724640740
20
38.0016931840
30
0.0000000000
10
-1.7210222114
20
37.8338071151
30
0.0000000000
11
-1.8758180592
21
38.3373203300
31
0.0000000000
11
-1.7210222114
21
37.8338071151
31
0.0000000000
0
SPLINE
5
2DD
100
AcDbEntity
8
0
100
AcDbSpline
62
9
6
CONTINUOUS
70
0
71
3
72
8
73
4
74
2
42
0.0000001000
43
0.0000001000
44
0.0000000001
12
-0.0139949494
22
0.0689732714
32
0.0000000000
13
-0.0134985151
23
0.0690708359
33
0.0000000000
40
0.0000000000
40
0.0000000000
40
0.0000000000
40
0.0000000000
40
1.0000000000
40
1.0000000000
40
1.0000000000
40
1.0000000000
10
-1.8772659428
20
38.0106164504
30
0.0000000000
10
-1.8819309259
20
38.0336075408
30
0.0000000000
10
-1.8865182940
20
38.0566141811
30
0.0000000000
10
-1.8910177991
20
38.0796377931
30
0.0000000000
11
-1.8772659428
21
38.0106164504
31
0.0000000000
11
-1.8910177991
21
38.0796377931
31
0.0000000000
0
SPLINE
5
2DE
100
AcDbEntity
8
0
100
AcDbSpline
62
9
6
CONTINUOUS
70
0
71
3
72
8
73
4
74
2
42
0.0000001000
43
0.0000001000
44
0.0000000001
12
-0.0093661671
22
0.0479259377
32
0.0000000000
13
-0.0091020862
23
0.0479763886
33
0.0000000000
40
0.0000000000
40
0.0000000000
40
0.0000000000
40
0.0000000000
40
1.0000000000
40
1.0000000000
40
1.0000000000
40
1.0000000000
10
-1.8910177991
20
38.0796377931
30
0.0000000000
10
-1.8941398548
20
38.0956131057
30
0.0000000000
10
-1.8972196087
20
38.1115965892
30
0.0000000000
10
-1.9002536375
20
38.1275887188
30
0.0000000000
11
-1.8910177991
21
38.0796377931
31
0.0000000000
11
-1.9002536375
21
38.1275887188
31
0.0000000000
0
SPLINE
5
2DF
100
AcDbEntity
8
0
100
AcDbSpline
62
9
6
CONTINUOUS
70
0
71
3
72
8
73
4
74
2
42
0.0000001000
43
0.0000001000
44
0.0000000001
12
-0.5028848334
22
1.1996570214
32
0.1655123020
13
-0.5004105143
23
1.2011429525
33
0.1629120098
40
0.0000000000
40
0.0000000000
40
0.0000000000
40
0.0000000000
40
1.0000000000
40
1.0000000000
40
1.0000000000
40
1.0000000000
10
0.2944079942
20
-36.8706994426
30
-6.2660307576
10
0.1267797164
20
-36.4708137688
30
-6.2108599903
10
-0.0404366384
20
-36.0706793308
30
-6.1561224533
10
-0.2072401432
20
-35.6702983467
30
-6.1018184500
11
0.2944079942
21
-36.8706994426
31
-6.2660307576
11
-0.2072401432
21
-35.6702983467
31
-6.1018184500
0
SPLINE
5
2E0
100
AcDbEntity
8
0
100
AcDbSpline
62
9
6
CONTINUOUS
70
0
71
3
72
8
73
4
74
2
42
0.0000001000
43
0.0000001000
44
0.0000000001
12
0.5313645590
22
-1.2759375447
32
-0.1728733858
13
0.5341563935
23
-1.2742615173
33
-0.1758072162
40
0.0000000000
40
0.0000000000
40
0.0000000000
40
0.0000000000
40
1.0000000000
40
1.0000000000
40
1.0000000000
40
1.0000000000
10
0.2596422583
20
-35.7830146906
30
-5.6750055837
10
0.4367637779
20
-36.2083272055
30
-5.7326300456
10
0.6143511586
20
-36.6333617115
30
-5.7907436610
10
0.7924032898
20
-37.0581155506
30
-5.8493460664
11
0.2596422583
21
-35.7830146906
31
-5.6750055837
11
0.7924032898
21
-37.0581155506
31
-5.8493460664
0
SPLINE
5
2E1
100
AcDbEntity
8
0
100
AcDbSpline
62
9
6
CONTINUOUS
70
0
71
3
72
16
73
12
74
10
42
0.0000001000
43
0.0000001000
44
0.0000000001
12
-0.1034881823
22
-0.7065813218
32
-0.5119751672
13
-0.5750666763
23
-0.0789032598
33
-0.6506543647
40
0.0000000000
40
0.0000000000
40
0.0000000000
40
0.0000000000
40
0.1111111111
40
0.2222222222
40
0.3333333333
40
0.4444444444
40
0.5555555556
40
0.6666666667
40
0.7777777778
40
0.8888888889
40
1.0000000000
40
1.0000000000
40
1.0000000000
40
1.0000000000
10
0.6260085136
20
-35.3601640079
30
-5.0475909841
10
0.6221756180
20
-35.3863336864
30
-5.0665530273
10
0.6120889078
20
-35.4367336336
30
-5.1059293940
10
0.5896090915
20
-35.5070531849
30
-5.1697456285
10
0.5602502728
20
-35.5706219758
30
-5.2369738217
10
0.5240584913
20
-35.6273421980
30
-5.3075040338
10
0.4818265870
20
-35.6760130923
30
-5.3798089100
10
0.4335698134
20
-35.7166402049
30
-5.4538689263
10
0.3803213466
20
-35.7483603441
30
-5.5280956837
10
0.3221668332
20
-35.7711522317
30
-5.6023803176
10
0.2809410241
20
-35.7800923476
30
-5.6509072739
10
0.2596422583
20
-35.7830146906
30
-5.6750055837
11
0.6260085136
21
-35.3601640079
31
-5.0475909841
11
0.6108639493
21
-35.4358535720
31
-5.1067213414
11
0.5884625911
21
-35.5059280582
31
-5.1703142883
11
0.5591114457
21
-35.5694805477
31
-5.2375241582
11
0.5230518042
21
-35.6260006433
31
-5.3077998112
11
0.4808224421
21
-35.6746724620
31
-5.3801014333
11
0.4327378646
21
-35.7151557093
31
-5.4538967165
11
0.3795036722
21
-35.7468723022
31
-5.5281053298
11
0.3215527998
21
-35.7695886128
31
-5.6021312843
11
0.2596422583
21
-35.7830146906
31
-5.6750055837
0
SPLINE
5
2E2
100
AcDbEntity
8
0
100
AcDbSpline
62
9
6
CONTINUOUS
70
0
71
3
72
8
73
4
74
2
42
0.0000001000
43
0.0000001000
44
0.0000000001
12
0.2674153164
22
-0.9221016176
32
-0.2449578162
13
0.2690752903
23
-0.9211461516
33
-0.2466353881
40
0.0000000000
40
0.0000000000
40
0.0000000000
40
0.0000000000
40
1.0000000000
40
1.0000000000
40
1.0000000000
40
1.0000000000
10
-8.0158587968
20
-32.1077681504
30
-12.2783886744
10
-7.9267203580
20
-32.4151353562
30
-12.3600412798
10
-7.8373050944
20
-32.7223438762
30
-12.4419736294
10
-7.7476133309
20
-33.0293925934
30
-12.5241854255
11
-8.0158587968
21
-32.1077681504
31
-12.2783886744
11
-7.7476133309
21
-33.0293925934
31
-12.5241854255
0
SPLINE
5
2E3
100
AcDbEntity
8
0
100
AcDbSpline
62
9
6
CONTINUOUS
70
0
71
3
72
8
73
4
74
2
42
0.0000001000
43
0.0000001000
44
0.0000000001
12
0.2919780387
22
-1.1183133466
32
-0.2648365581
13
0.3199346565
23
-1.1031988304
33
-0.2930665896
40
0.0000000000
40
0.0000000000
40
0.0000000000
40
0.0000000000
40
1.0000000000
40
1.0000000000
40
1.0000000000
40
1.0000000000
10
-8.3218512686
20
-30.9968809151
30
-11.9994041648
10
-8.2245252557
20
-31.3696520306
30
-12.0876830175
10
-8.1225036823
20
-31.7400352069
30
-12.1806998112
10
-8.0158587968
20
-32.1077681504
30
-12.2783886744
11
-8.3218512686
21
-30.9968809151
31
-11.9994041648
11
-8.0158587968
21
-32.1077681504
31
-12.2783886744
0
SPLINE
5
2E4
100
AcDbEntity
8
0
100
AcDbSpline
62
9
6
CONTINUOUS
70
0
71
3
72
8
73
4
74
2
42
0.0000001000
43
0.0000001000
44
0.0000000001
12
-0.3199349292
22
1.1031989330
32
0.2930663614
13
-0.2919783121
23
1.1183134495
33
0.2648363294
40
0.0000000000
40
0.0000000000
40
0.0000000000
40
0.0000000000
40
1.0000000000
40
1.0000000000
40
1.0000000000
40
1.0000000000
10
-8.4579978305
20
-31.9413676365
30
-12.6483339407
10
-8.5646428069
20
-31.5736346588
30
-12.5506451535
10
-8.6666644713
20
-31.2032514482
30
-12.4576284360
10
-8.7639905754
20
-30.8304802984
30
-12.3693496595
11
-8.4579978305
21
-31.9413676365
31
-12.6483339407
11
-8.7639905754
21
-30.8304802984
31
-12.3693496595
0
SPLINE
5
2E5
100
AcDbEntity
8
0
100
AcDbSpline
62
9
6
CONTINUOUS
70
0
71
3
72
8
73
4
74
2
42
0.0000001000
43
0.0000001000
44
0.0000000001
12
0.1754892609
22
0.7538327861
32
0.6186101262
13
0.1772613804
23
0.7547460456
33
0.6170263885
40
0.0000000000
40
0.0000000000
40
0.0000000000
40
0.0000000000
40
1.0000000000
40
1.0000000000
40
1.0000000000
40
1.0000000000
10
-7.7476133309
20
-33.0293925934
30
-12.5241854255
10
-7.6891169106
20
-32.7781149981
30
-12.3179820501
10
-7.6303250302
20
-32.5266847357
30
-12.1120422566
10
-7.5712379034
20
-32.2751027205
30
-11.9063667937
11
-7.7476133309
21
-33.0293925934
31
-12.5241854255
11
-7.5712379034
21
-32.2751027205
31
-11.9063667937
0
SPLINE
5
2E6
100
AcDbEntity
8
0
100
AcDbSpline
62
9
6
CONTINUOUS
70
0
71
3
72
8
73
4
74
2
42
0.0000001000
43
0.0000001000
44
0.0000000001
12
-0.0172888505
22
-0.0848868576
32
-0.0660430833
13
-0.0170352435
23
-0.0847562143
33
-0.0662721019
40
0.0000000000
40
0.0000000000
40
0.0000000000
40
0.0000000000
40
1.0000000000
40
1.0000000000
40
1.0000000000
40
1.0000000000
10
-3.9682936905
20
-33.5398022825
30
-8.8399240861
10
-3.9740566406
20
-33.5680979017
30
-8.8619384472
10
-3.9797773404
20
-33.5963718332
30
-8.8839910452
10
-3.9854557549
20
-33.6246239046
30
-8.9060817459
11
-3.9682936905
21
-33.5398022825
31
-8.8399240861
11
-3.9854557549
21
-33.6246239046
31
-8.9060817459
0
SPLINE
5
2E7
100
AcDbEntity
8
0
100
AcDbSpline
62
9
6
CONTINUOUS
70
0
71
3
72
8
73
4
74
2
42
0.0000001000
43
0.0000001000
44
0.0000000001
12
-0.5399911515
22
1.8354225861
32
0.4952666048
13
-0.5333908404
23
1.8392371459
33
0.4885959568
40
0.0000000000
40
0.0000000000
40
0.0000000000
40
0.0000000000
40
1.0000000000
40
1.0000000000
40
1.0000000000
40
1.0000000000
10
-7.9213055407
20
-33.7787019318
30
-13.1402664074
10
-8.1013025912
20
-33.1668944031
30
-12.9751775391
10
-8.2802008837
20
-32.5544466851
30
-12.8111992596
10
-8.4579978305
20
-31.9413676365
30
-12.6483339407
11
-7.9213055407
21
-33.7787019318
31
-13.1402664074
11
-8.4579978305
21
-31.9413676365
31
-12.6483339407
0
SPLINE
5
2E8
100
AcDbEntity
8
0
100
AcDbSpline
62
9
6
CONTINUOUS
70
0
71
3
72
8
73
4
74
2
42
0.0000001000
43
0.0000001000
44
0.0000000001
12
0.1836437282
22
0.9136754098
32
0.7144192083
13
0.2129903958
23
0.9282667762
33
0.6873522551
40
0.0000000000
40
0.0000000000
40
0.0000000000
40
0.0000000000
40
1.0000000000
40
1.0000000000
40
1.0000000000
40
1.0000000000
10
-4.4275909247
20
-33.4582248449
30
-9.2760237792
10
-4.3663763487
20
-33.1536663750
30
-9.0378840431
10
-4.3002472461
20
-32.8465672717
30
-8.8041727124
10
-4.2292504475
20
-32.5371450130
30
-8.5750552941
11
-4.4275909247
21
-33.4582248449
31
-9.2760237792
11
-4.2292504475
21
-32.5371450130
31
-8.5750552941
0
SPLINE
5
2E9
100
AcDbEntity
8
0
100
AcDbSpline
62
9
6
CONTINUOUS
70
0
71
3
72
8
73
4
74
2
42
0.0000001000
43
0.0000001000
44
0.0000000001
12
0.1338365487
22
0.6719789974
32
0.5272205463
13
0.1352068006
23
0.6726890713
33
0.5259876632
40
0.0000000000
40
0.0000000000
40
0.0000000000
40
0.0000000000
40
1.0000000000
40
1.0000000000
40
1.0000000000
40
1.0000000000
10
-4.5621126627
20
-34.1305591954
30
-9.8026281315
10
-4.5175004798
20
-33.9065661962
30
-9.6268879494
10
-4.4726598583
20
-33.6824545353
30
-9.4513530003
10
-4.4275909247
20
-33.4582248449
30
-9.2760237792
11
-4.5621126627
21
-34.1305591954
31
-9.8026281315
11
-4.4275909247
21
-33.4582248449
31
-9.2760237792
0
SPLINE
5
2EA
100
AcDbEntity
8
0
100
AcDbSpline
62
9
6
CONTINUOUS
70
0
71
3
72
8
73
4
74
2
42
0.0000001000
43
0.0000001000
44
0.0000000001
12
0.2146166271
22
-0.8043462961
32
-0.2332844380
13
0.2159093011
23
-0.8036070255
33
-0.2345822319
40
0.0000000000
40
0.0000000000
40
0.0000000000
40
0.0000000000
40
1.0000000000
40
1.0000000000
40
1.0000000000
40
1.0000000000
10
-4.7773757280
20
-33.3265821566
30
-9.5686946866
10
-4.7058368523
20
-33.5946975886
30
-9.6464561660
10
-4.6340824297
20
-33.8626901869
30
-9.7244340542
10
-4.5621126627
20
-34.1305591954
30
-9.8026281315
11
-4.7773757280
21
-33.3265821566
31
-9.5686946866
11
-4.5621126627
21
-34.1305591954
31
-9.8026281315
0
SPLINE
5
2EB
100
AcDbEntity
8
0
100
AcDbSpline
62
9
6
CONTINUOUS
70
0
71
3
72
8
73
4
74
2
42
0.0000001000
43
0.0000001000
44
0.0000000001
12
0.2634664884
22
-1.1075829286
32
-0.2886926583
13
0.2915015913
23
-1.0924979505
33
-0.3168570200
40
0.0000000000
40
0.0000000000
40
0.0000000000
40
0.0000000000
40
1.0000000000
40
1.0000000000
40
1.0000000000
40
1.0000000000
10
-5.0548925303
20
-32.2264118353
30
-9.2658840989
10
-4.9670703675
20
-32.5956061449
30
-9.3621149850
10
-4.8745429251
20
-32.9624161730
30
-9.4630756800
10
-4.7773757280
20
-33.3265821566
30
-9.5686946866
11
-5.0548925303
21
-32.2264118353
31
-9.2658840989
11
-4.7773757280
21
-33.3265821566
31
-9.5686946866
0
SPLINE
5
2EC
100
AcDbEntity
8
0
100
AcDbSpline
62
9
6
CONTINUOUS
70
0
71
3
72
8
73
4
74
2
42
0.0000001000
43
0.0000001000
44
0.0000000001
12
-0.0270403828
22
0.1013442247
32
0.0293932740
13
-0.0268006922
23
0.1014801055
33
0.0291526113
40
0.0000000000
40
0.0000000000
40
0.0000000000
40
0.0000000000
40
1.0000000000
40
1.0000000000
40
1.0000000000
40
1.0000000000
10
-5.2195170055
20
-33.1601807982
30
-9.9386418304
10
-5.2285304664
20
-33.1263993900
30
-9.9288440724
10
-5.2375040063
20
-33.0925952319
30
-9.9190863951
10
-5.2464375704
20
-33.0587685301
30
-9.9093688580
11
-5.2195170055
21
-33.1601807982
31
-9.9386418304
11
-5.2464375704
21
-33.0587685301
31
-9.9093688580
0
SPLINE
5
2ED
100
AcDbEntity
8
0
100
AcDbSpline
62
9
6
CONTINUOUS
70
0
71
3
72
8
73
4
74
2
42
0.0000001000
43
0.0000001000
44
0.0000000001
12
-0.4926017873
22
1.8175813648
32
0.5349145097
13
-0.4859773341
23
1.8213867915
33
0.5282641529
40
0.0000000000
40
0.0000000000
40
0.0000000000
40
0.0000000000
40
1.0000000000
40
1.0000000000
40
1.0000000000
40
1.0000000000
10
-4.7302262652
20
-34.9796692627
30
-10.4702324432
10
-4.8944268610
20
-34.3738088077
30
-10.2919276066
10
-5.0575245608
20
-33.7673097287
30
-10.1147298813
10
-5.2195170055
20
-33.1601807982
30
-9.9386418304
11
-4.7302262652
21
-34.9796692627
31
-10.4702324432
11
-5.2195170055
21
-33.1601807982
31
-9.9386418304
0
SPLINE
5
2EE
100
AcDbEntity
8
0
100
AcDbSpline
62
9
6
CONTINUOUS
70
0
71
3
72
8
73
4
74
2
42
0.0000001000
43
0.0000001000
44
0.0000000001
12
-0.3535770581
22
-1.5054176695
32
-1.2307336241
13
-0.3465242284
23
-1.5017734637
33
-1.2370255510
40
0.0000000000
40
0.0000000000
40
0.0000000000
40
0.0000000000
40
1.0000000000
40
1.0000000000
40
1.0000000000
40
1.0000000000
10
-7.1291047922
20
-32.4415010055
30
-11.5364264829
10
-7.2469638115
20
-32.9433068953
30
-11.9466710242
10
-7.3636482032
20
-33.4445090423
30
-12.3579671946
10
-7.4791562793
20
-33.9451001968
30
-12.7703090450
11
-7.1291047922
21
-32.4415010055
31
-11.5364264829
11
-7.4791562793
21
-33.9451001968
31
-12.7703090450
0
SPLINE
5
2EF
100
AcDbEntity
8
0
100
AcDbSpline
62
9
6
CONTINUOUS
70
0
71
3
72
8
73
4
74
2
42
0.0000001000
43
0.0000001000
44
0.0000000001
12
-0.3061606973
22
-1.5232551058
32
-1.1910550559
13
-0.2991321283
23
-1.5196018301
33
-1.1973671651
40
0.0000000000
40
0.0000000000
40
0.0000000000
40
0.0000000000
40
1.0000000000
40
1.0000000000
40
1.0000000000
40
1.0000000000
10
-3.9854557549
20
-33.6246239046
30
-8.9060817459
10
-4.0875093207
20
-34.1323756066
30
-9.3031000978
10
-4.1883921879
20
-34.6395220970
30
-9.7011733469
10
-4.2881028973
20
-35.1460560403
30
-10.1002957352
11
-3.9854557549
21
-33.6246239046
31
-8.9060817459
11
-4.2881028973
21
-35.1460560403
31
-10.1002957352
0
SPLINE
5
2F0
100
AcDbEntity
8
0
100
AcDbSpline
62
9
6
CONTINUOUS
70
0
71
3
72
8
73
4
74
2
42
0.0000001000
43
0.0000001000
44
0.0000000001
12
-0.1700243427
22
0.5779244074
32
0.1559502135
13
-0.1693704793
23
0.5783044081
33
0.1552893339
40
0.0000000000
40
0.0000000000
40
0.0000000000
40
0.0000000000
40
1.0000000000
40
1.0000000000
40
1.0000000000
40
1.0000000000
10
-1.7136323307
20
-36.1149667057
30
-7.9461923270
10
-1.7703071116
20
-35.9223252366
30
-7.8942089226
10
-1.8268729558
20
-35.7296202958
30
-7.8423356275
10
-1.8833297823
20
-35.5368521598
30
-7.7905725162
11
-1.7136323307
21
-36.1149667057
31
-7.9461923270
11
-1.8833297823
21
-35.5368521598
31
-7.7905725162
0
SPLINE
5
2F1
100
AcDbEntity
8
0
100
AcDbSpline
62
9
6
CONTINUOUS
70
0
71
3
72
8
73
4
74
2
42
0.0000001000
43
0.0000001000
44
0.0000000001
12
0.5333929913
22
-1.8392318337
32
-0.4885906643
13
0.5399932509
23
-1.8354173017
33
-0.4952612643
40
0.0000000000
40
0.0000000000
40
0.0000000000
40
0.0000000000
40
1.0000000000
40
1.0000000000
40
1.0000000000
40
1.0000000000
10
-1.8081869742
20
-34.4440463406
30
-7.0843238427
10
-1.6303893104
20
-35.0571236186
30
-7.2471873975
10
-1.4514903096
20
-35.6695695704
30
-7.4111639048
10
-1.2714925593
20
-36.2813753377
30
-7.5762509929
11
-1.8081869742
21
-34.4440463406
31
-7.0843238427
11
-1.2714925593
21
-36.2813753377
31
-7.5762509929
0
SPLINE
5
2F2
100
AcDbEntity
8
0
100
AcDbSpline
62
9
6
CONTINUOUS
70
0
71
3
72
8
73
4
74
2
42
0.0000001000
43
0.0000001000
44
0.0000000001
12
0.2919824422
22
-1.1183214195
32
-0.2648357118
13
0.3199394009
23
-1.1032067176
33
-0.2930661013
40
0.0000000000
40
0.0000000000
40
0.0000000000
40
0.0000000000
40
1.0000000000
40
1.0000000000
40
1.0000000000
40
1.0000000000
10
-2.1141840210
20
-33.3331511227
30
-6.8053400001
10
-2.0168565403
20
-33.7059249292
30
-6.8936185706
10
-1.9148334412
20
-34.0763107681
30
-6.9866351423
10
-1.8081869742
20
-34.4440463406
30
-7.0843238427
11
-2.1141840210
21
-33.3331511227
31
-6.8053400001
11
-1.8081869742
21
-34.4440463406
31
-7.0843238427
0
SPLINE
5
2F3
100
AcDbEntity
8
0
100
AcDbSpline
62
9
6
CONTINUOUS
70
0
71
3
72
8
73
4
74
2
42
0.0000001000
43
0.0000001000
44
0.0000000001
12
0.2120772978
22
0.9029804419
32
0.7382135421
13
0.2415028125
23
0.9175424477
33
0.7112119184
40
0.0000000000
40
0.0000000000
40
0.0000000000
40
0.0000000000
40
1.0000000000
40
1.0000000000
40
1.0000000000
40
1.0000000000
10
-2.7831556344
20
-34.0771136029
30
-7.9000967403
10
-2.7124632018
20
-33.7761201222
30
-7.6540255596
10
-2.6368397394
20
-33.4725921649
30
-7.4123690817
10
-2.5563388018
20
-33.1667446823
30
-7.1752984423
11
-2.7831556344
21
-34.0771136029
31
-7.9000967403
11
-2.5563388018
21
-33.1667446823
31
-7.1752984423
0
SPLINE
5
2F4
100
AcDbEntity
8
0
100
AcDbSpline
62
9
6
CONTINUOUS
70
0
71
3
72
8
73
4
74
2
42
0.0000001000
43
0.0000001000
44
0.0000000001
12
0.3465158315
22
1.5017766239
32
1.2370185252
13
0.3535686568
23
1.5054208313
33
1.2307265946
40
0.0000000000
40
0.0000000000
40
0.0000000000
40
0.0000000000
40
1.0000000000
40
1.0000000000
40
1.0000000000
40
1.0000000000
10
-3.1331987224
20
-35.5807159552
30
-9.1339722748
10
-3.0176934453
20
-35.0801237473
30
-8.7216327664
10
-2.9010118534
20
-34.5789205466
30
-8.3103389385
10
-2.7831556344
20
-34.0771136029
30
-7.9000967403
11
-3.1331987224
21
-35.5807159552
31
-9.1339722748
11
-2.7831556344
21
-34.0771136029
31
-7.9000967403
0
SPLINE
5
2F5
100
AcDbEntity
8
0
100
AcDbSpline
62
9
6
CONTINUOUS
70
0
71
3
72
8
73
4
74
2
42
0.0000001000
43
0.0000001000
44
0.0000000001
12
-0.1098102830
22
-0.4732337882
32
-0.3888846366
13
-0.1091106789
23
-0.4728710022
33
-0.3895072443
40
0.0000000000
40
0.0000000000
40
0.0000000000
40
0.0000000000
40
1.0000000000
40
1.0000000000
40
1.0000000000
40
1.0000000000
10
-2.5816045313
20
-35.2740541071
30
-8.3748309017
10
-2.6182079590
20
-35.4317987032
30
-8.5044591139
10
-2.6546948121
20
-35.5894829480
30
-8.6341911871
10
-2.6910650384
20
-35.7471066154
30
-8.7640269352
11
-2.5816045313
21
-35.2740541071
31
-8.3748309017
11
-2.6910650384
21
-35.7471066154
31
-8.7640269352
0
SPLINE
5
2F6
100
AcDbEntity
8
0
100
AcDbSpline
62
9
6
CONTINUOUS
70
0
71
3
72
8
73
4
74
2
42
0.0000001000
43
0.0000001000
44
0.0000000001
12
-0.2415061846
22
-0.9175347630
32
-0.7112119017
13
-0.2120810203
23
-0.9029729392
33
-0.7382131753
40
0.0000000000
40
0.0000000000
40
0.0000000000
40
0.0000000000
40
1.0000000000
40
1.0000000000
40
1.0000000000
40
1.0000000000
10
-6.9022844122
20
-31.5311396808
30
-10.8116283777
10
-6.9827864738
20
-31.8369846019
30
-11.0486990116
10
-7.0584111187
20
-32.1405100258
30
-11.2903554244
10
-7.1291047922
20
-32.4415010055
30
-11.5364264829
11
-6.9022844122
21
-31.5311396808
31
-10.8116283777
11
-7.1291047922
21
-32.4415010055
31
-11.5364264829
0
SPLINE
5
2F7
100
AcDbEntity
8
0
100
AcDbSpline
62
9
6
CONTINUOUS
70
0
71
3
72
8
73
4
74
2
42
0.0000001000
43
0.0000001000
44
0.0000000001
12
0.2120748341
22
0.9029752674
32
0.7382079992
13
0.2414999813
23
0.9175370977
33
0.7112067112
40
0.0000000000
40
0.0000000000
40
0.0000000000
40
0.0000000000
40
1.0000000000
40
1.0000000000
40
1.0000000000
40
1.0000000000
10
-7.5712379034
20
-32.2751027205
30
-11.9063667937
10
-7.5005462920
20
-31.9741109647
30
-11.6602974607
10
-7.4249237127
20
-31.6705847634
30
-11.4186427762
10
-7.3444237190
20
-31.3647390642
30
-11.1815738724
11
-7.5712379034
21
-32.2751027205
31
-11.9063667937
11
-7.3444237190
21
-31.3647390642
31
-11.1815738724
0
SPLINE
5
2F8
100
AcDbEntity
8
0
100
AcDbSpline
62
9
6
CONTINUOUS
70
0
71
3
72
8
73
4
74
2
42
0.0000001000
43
0.0000001000
44
0.0000000001
12
-0.1346842773
22
-0.5734971530
32
-0.4688412412
13
-0.1336611939
23
-0.5729702414
33
-0.4697559611
40
0.0000000000
40
0.0000000000
40
0.0000000000
40
0.0000000000
40
1.0000000000
40
1.0000000000
40
1.0000000000
40
1.0000000000
10
-2.3410232299
20
-34.2435116219
30
-7.5301570207
10
-2.3859179889
20
-34.4346773395
30
-7.6864374344
10
-2.4306422811
20
-34.6257554391
30
-7.8428704657
10
-2.4751960124
20
-34.8167455196
30
-7.9994557860
11
-2.3410232299
21
-34.2435116219
31
-7.5301570207
11
-2.4751960124
21
-34.8167455196
31
-7.9994557860
0
SPLINE
5
2F9
100
AcDbEntity
8
0
100
AcDbSpline
62
9
6
CONTINUOUS
70
0
71
3
72
8
73
4
74
2
42
0.0000001000
43
0.0000001000
44
0.0000000001
12
-0.0370007014
22
-0.1543349541
32
-0.1250404388
13
-0.0361421746
23
-0.1538964653
33
-0.1258123243
40
0.0000000000
40
0.0000000000
40
0.0000000000
40
0.0000000000
40
1.0000000000
40
1.0000000000
40
1.0000000000
40
1.0000000000
10
-2.3044516665
20
-34.0893953837
30
-7.4047302090
10
-2.3167852336
20
-34.1408403684
30
-7.4464103553
10
-2.3289758383
20
-34.1922128001
30
-7.4882195793
10
-2.3410232299
20
-34.2435116219
30
-7.5301570207
11
-2.3044516665
21
-34.0893953837
31
-7.4047302090
11
-2.3410232299
21
-34.2435116219
31
-7.5301570207
0
SPLINE
5
2FA
100
AcDbEntity
8
0
100
AcDbSpline
62
9
6
CONTINUOUS
70
0
71
3
72
8
73
4
74
2
42
0.0000001000
43
0.0000001000
44
0.0000000001
12
-0.0545272423
22
0.1880202056
32
0.0499476776
13
-0.0537204621
23
0.1884781694
33
0.0491324949
40
0.0000000000
40
0.0000000000
40
0.0000000000
40
0.0000000000
40
1.0000000000
40
1.0000000000
40
1.0000000000
40
1.0000000000
10
-2.2503276287
20
-34.2776452167
30
-7.4542704652
10
-2.2685033761
20
-34.2149718149
30
-7.4376212393
10
-2.2865448458
20
-34.1522214402
30
-7.4211077073
10
-2.3044516665
20
-34.0893953837
30
-7.4047302090
11
-2.2503276287
21
-34.2776452167
31
-7.4542704652
11
-2.3044516665
21
-34.0893953837
31
-7.4047302090
0
SPLINE
5
2FB
100
AcDbEntity
8
0
100
AcDbSpline
62
9
6
CONTINUOUS
70
0
71
3
72
8
73
4
74
2
42
0.0000001000
43
0.0000001000
44
0.0000000001
12
-0.2041550273
22
0.7001085136
32
0.1870993703
13
-0.2031964683
23
0.7006597091
33
0.1861306617
40
0.0000000000
40
0.0000000000
40
0.0000000000
40
0.0000000000
40
1.0000000000
40
1.0000000000
40
1.0000000000
40
1.0000000000
10
-2.0466518096
20
-34.9780295731
30
-7.6408855465
10
-2.1147034854
20
-34.7446600686
30
-7.5785190897
10
-2.1825954725
20
-34.5111984531
30
-7.5163140191
10
-2.2503276287
20
-34.2776452167
30
-7.4542704652
11
-2.0466518096
21
-34.9780295731
31
-7.6408855465
11
-2.2503276287
21
-34.2776452167
31
-7.4542704652
0
SPLINE
5
2FC
100
AcDbEntity
8
0
100
AcDbSpline
62
9
6
CONTINUOUS
70
0
71
3
72
23
73
19
74
17
42
0.0000001000
43
0.0000001000
44
0.0000000001
12
0.3001214441
22
0.4625751004
32
0.5795013199
13
-0.5861490851
23
0.2205991816
33
-0.4904409311
40
0.0000000000
40
0.0000000000
40
0.0000000000
40
0.0000000000
40
0.0625000000
40
0.1250000000
40
0.1875000000
40
0.2500000000
40
0.3125000000
40
0.3750000000
40
0.4375000000
40
0.5000000000
40
0.5625000000
40
0.6250000000
40
0.6875000000
40
0.7500000000
40
0.8125000000
40
0.8750000000
40
0.9375000000
40
1.0000000000
40
1.0000000000
40
1.0000000000
40
1.0000000000
10
0.1259455630
20
-35.1719636328
30
-5.4660021791
10
0.1321980930
20
-35.1623266515
30
-5.4539292350
10
0.1431603707
20
-35.1416020530
30
-5.4306071687
10
0.1551775324
20
-35.1059503848
30
-5.3977837932
10
0.1624122363
20
-35.0665992061
30
-5.3680043017
10
0.1647694419
20
-35.0242206429
30
-5.3417599884
10
0.1621984907
20
-34.9796174276
30
-5.3195608337
10
0.1547519893
20
-34.9336149229
30
-5.3018115653
10
0.1425682830
20
-34.8870693329
30
-5.2888350678
10
0.1258721541
20
-34.8408433724
30
-5.2808587815
10
0.1049684415
20
-34.7957911893
30
-5.2780144373
10
0.0802370720
20
-34.7527432380
30
-5.2803367430
10
0.0521243188
20
-34.7124892544
30
-5.2877653531
10
0.0211389438
20
-34.6757678116
30
-5.3001455310
10
-0.0121664448
20
-34.6432474873
30
-5.3172396787
10
-0.0471727179
20
-34.6155290078
30
-5.3387070944
10
-0.0833178574
20
-34.5930910083
30
-5.3642051353
10
-0.1075645900
20
-34.5819903879
30
-5.3834326123
10
-0.1197760293
20
-34.5773945717
30
-5.3936501317
11
0.1259455630
21
-35.1719636328
31
-5.4660021791
11
0.1424226616
21
-35.1408412580
31
-5.4309671227
11
0.1543804561
21
-35.1053337997
31
-5.3982911072
11
0.1615993199
21
-35.0660946420
31
-5.3685934981
11
0.1639480824
21
-35.0238498676
31
-5.3424341815
11
0.1613858990
21
-34.9793842127
31
-5.3203024814
11
0.1539624552
21
-34.9335244087
31
-5.3026070271
11
0.1418162126
21
-34.8871226045
31
-5.2896684364
11
0.1251708901
21
-34.8410390020
31
-5.2817141052
11
0.1043304987
21
-34.7961252279
31
-5.2788755456
11
0.0796735081
21
-34.7532088993
31
-5.2811877937
11
0.0516455485
21
-34.7130780112
31
-5.2885906144
11
0.0207522748
21
-34.6764679980
31
-5.3009311927
11
-0.0124499256
21
-34.6440477948
31
-5.3179685567
11
-0.0473625290
21
-34.6164090878
31
-5.3393788652
11
-0.0833553506
21
-34.5940555198
31
-5.3647623311
11
-0.1197760293
21
-34.5773945717
31
-5.3936501317
0
SPLINE
5
2FD
100
AcDbEntity
8
0
100
AcDbSpline
62
9
6
CONTINUOUS
70
0
71
3
72
14
73
10
74
8
42
0.0000001000
43
0.0000001000
44
0.0000000001
12
0.2621674889
22
-0.0986676171
32
0.2193600070
13
0.1343954760
23
0.2071428152
33
0.2595028023
40
0.0000000000
40
0.0000000000
40
0.0000000000
40
0.0000000000
40
0.1428571429
40
0.2857142857
40
0.4285714286
40
0.5714285714
40
0.7142857143
40
0.8571428571
40
1.0000000000
40
1.0000000000
40
1.0000000000
40
1.0000000000
10
-0.0884494093
20
-35.2302476287
30
-5.7247418277
10
-0.0759652432
20
-35.2349460866
30
-5.7142961131
10
-0.0513753525
20
-35.2421699818
30
-5.6925610350
10
-0.0151532788
20
-35.2466155114
30
-5.6570043551
10
0.0190007170
20
-35.2444963259
30
-5.6198729583
10
0.0511099649
20
-35.2357921213
30
-5.5811322720
10
0.0799033153
20
-35.2208366355
30
-5.5423117260
10
0.1054036911
20
-35.1996169260
30
-5.5033821434
10
0.1195457784
20
-35.1818275764
30
-5.4783594554
10
0.1259455630
20
-35.1719636328
30
-5.4660021791
11
-0.0884494093
21
-35.2302476287
31
-5.7247418277
11
-0.0514858129
21
-35.2411049296
31
-5.6920686912
11
-0.0154979584
21
-35.2455213922
31
-5.6567419023
11
0.0186599257
21
-35.2433988227
31
-5.6196047434
11
0.0505573153
21
-35.2347502411
31
-5.5811189620
11
0.0793544862
21
-35.2197925982
31
-5.5422935532
11
0.1046891503
21
-35.1987062069
31
-5.5036147352
11
0.1259455630
21
-35.1719636328
31
-5.4660021791
0
SPLINE
5
2FE
100
AcDbEntity
8
0
100
AcDbSpline
62
9
6
CONTINUOUS
70
0
71
3
72
24
73
20
74
18
42
0.0000001000
43
0.0000001000
44
0.0000000001
12
1.2211494445
22
-0.4595837048
32
1.0217565563
13
-0.1965737755
23
-1.3421373827
33
-0.9724868033
40
0.0000000000
40
0.0000000000
40
0.0000000000
40
0.0000000000
40
0.0588235294
40
0.1176470588
40
0.1764705882
40
0.2352941176
40
0.2941176471
40
0.3529411765
40
0.4117647059
40
0.4705882353
40
0.5294117647
40
0.5882352941
40
0.6470588235
40
0.7058823529
40
0.7647058824
40
0.8235294118
40
0.8823529412
40
0.9411764706
40
1.0000000000
40
1.0000000000
40
1.0000000000
40
1.0000000000
10
-0.0743216453
20
-34.1008573367
30
-5.0985509348
10
-0.0503775385
20
-34.1098687819
30
-5.0785164926
10
-0.0027186555
20
-34.1308620885
30
-5.0401823319
10
0.0685207809
20
-34.1714107453
30
-4.9875169566
10
0.1382085720
20
-34.2202958122
30
-4.9406837790
10
0.2059974982
20
-34.2772543349
30
-4.8999449525
10
0.2707141250
20
-34.3412592878
30
-4.8660356230
10
0.3321541933
20
-34.4120860490
30
-4.8391139462
10
0.3891493043
20
-34.4883269766
30
-4.8197300322
10
0.4416190544
20
-34.5698291309
30
-4.8079636763
10
0.4885140512
20
-34.6548954979
30
-4.8040913733
10
0.5298006733
20
-34.7433981318
30
-4.8081566322
10
0.5646501651
20
-34.8335008263
30
-4.8201160874
10
0.5930226470
20
-34.9250174458
30
-4.8399741171
10
0.6143689783
20
-35.0161487385
30
-4.8673828532
10
0.6286321056
20
-35.1065619790
30
-4.9022583058
10
0.6355508335
20
-35.1946425122
30
-4.9440080706
10
0.6350836159
20
-35.2799147955
30
-4.9924181687
10
0.6298629014
20
-35.3338475886
30
-5.0285226154
10
0.6260085136
20
-35.3601640079
30
-5.0475909841
11
-0.0743216453
21
-34.1008573367
31
-5.0985509348
11
-0.0027601369
21
-34.1323718713
31
-5.0409883095
11
0.0682621733
21
-34.1728001470
31
-4.9884889896
11
0.1378920946
21
-34.2216413882
31
-4.9416995042
11
0.2054854483
21
-34.2784287400
31
-4.9010832020
11
0.2701680319
21
-34.3423962559
31
-4.8672002318
11
0.3314133671
21
-34.4129884100
31
-4.8403702400
11
0.3883950775
21
-34.4892038477
31
-4.8209996252
11
0.4406899289
21
-34.5704231663
31
-4.8092793518
11
0.4875793221
21
-34.6554682090
31
-4.8054143002
11
0.5287278183
21
-34.7436648086
31
-4.8094723316
11
0.5635706634
21
-34.8337364805
31
-4.8214325165
11
0.5918516219
21
-34.9249532247
31
-4.8412325682
11
0.6131884443
21
-35.0160290631
31
-4.8686273059
11
0.6274080390
21
-35.1061731944
31
-4.9034040245
11
0.6343198426
21
-35.1941744706
31
-4.9451181261
11
0.6338563069
21
-35.2791859466
31
-4.9933759307
11
0.6260085136
21
-35.3601640079
31
-5.0475909841
0
SPLINE
5
2FF
100
AcDbEntity
8
0
100
AcDbSpline
62
9
6
CONTINUOUS
70
0
71
3
72
8
73
4
74
2
42
0.0000001000
43
0.0000001000
44
0.0000000001
12
0.0572167358
22
-1.0343516071
32
-0.5337432800
13
0.0598326130
23
-1.0329189227
33
-0.5362251845
40
0.0000000000
40
0.0000000000
40
0.0000000000
40
0.0000000000
40
1.0000000000
40
1.0000000000
40
1.0000000000
40
1.0000000000
10
-0.5931255396
20
-35.5250629678
30
-6.4246918300
10
-0.5740532944
20
-35.8698468368
30
-6.6026062567
10
-0.5545450155
20
-36.2143928800
30
-6.7809348284
10
-0.5346008112
20
-36.5586991876
30
-6.9596765565
11
-0.5931255396
21
-35.5250629678
31
-6.4246918300
11
-0.5346008112
21
-36.5586991876
31
-6.9596765565
0
ENDSEC
0
SECTION
2
OBJECTS
0
DICTIONARY
5
300
100
AcDbDictionary
3
ACAD_GROUP
350
301
3
ACAD_MLINESTYLE
350
302
0
DICTIONARY
5
301
102
{ACAD_REACTORS
330
300
102
}
100
AcDbDictionary
0
DICTIONARY
5
302
102
{ACAD_REACTORS
330
300
102
}
100
AcDbDictionary
3
STANDARD
350
303
0
MLINESTYLE
5
303
102
{ACAD_REACTORS
330
302
102
}
100
AcDbMlineStyle
2
STANDARD
70
0
3

62
256
51
90.0
52
90.0
71
2
49
0.5
62
256
6
BYLAYER
49
-0.5
62
256
6
BYLAYER
0
ENDSEC
0
EOF
