  0
SECTION
  2
HEADER
  9
$ACADVER
  1
AC1024
  9
$DWGCODEPAGE
  3
ANSI_1252
  9
$EXTMAX
 10
297.0
 20
210.0
 30
0.0
  9
$EXTMIN
 10
0.0
 20
0.0
 30
0.0
  9
$LIMMIN
 10
0.0
 20
0.0
  9
$LIMMAX
 10
297.0
 20
210.0
  9
$VIEWCTR
 10
148.5
 20
105.0
  9
$VIEWSIZE
 40
210.0
  9
$CLAYER
  8
0
  9
$LTSCALE
 40
16.335
  9
$CELTYPE
  6
BYLAYER
  9
$DIMSCALE
 40
1.0
  9
$DIMASZ
 40
3.0
  9
$DIMEXO
 40
0.5
  9
$DIMDLI
 40
11.286
  9
$DIMEXE
 40
1.5
  9
$DIMCEN
 40
2.673
  9
$DIMLFAC
 40
1.0
  9
$DIMBLK
  1
_FILLED
  9
$DIMALT
 70
0
  9
$DIMALTF
 40
0.0393700787
  9
$DIMTXT
 40
3.0
  9
$DIMTOL
 70
1
  9
$DIMLIM
 70
0
  9
$DIMTFAC
 40
1.0
  9
$DIMTP
 40
0.01
  9
$DIMTM
 40
0.01
  9
$DIMGAP
 40
0.625
  9
$DIMDSEP
 70
44
  9
$AUNITS
 70
0
  9
$PDMODE
 70
3
  9
$PDSIZE
 40
3.0
  9
$HANDSEED
  5
331
  9
$TILEMODE
 70
1
  9
$MEASUREMENT
 70
1
  9
$INSUNITS
 70
4
  0
ENDSEC
  0
SECTION
  2
CLASSES
  0
CLASS
  1
ACDBDICTIONARYWDFLT
  2
AcDbDictionaryWithDefault
  3
AutoCAD 2000
 90
0
 91
1
280
0
281
0
  0
CLASS
  1
ACDBPLACEHOLDER
  2
AcDbPlaceHolder
  3
AutoCAD 2000
 90
0
 91
1
280
0
281
0
  0
CLASS
  1
LAYOUT
  2
AcDbLayout
  3
AutoCAD 2000
 90
0
 91
0
280
0
281
0
  0
ENDSEC
  0
SECTION
  2
TABLES
  0
TABLE
  2
VPORT
  5
8
100
AcDbSymbolTable
 70
2
  0
VPORT
  5
1F4
100
AcDbSymbolTableRecord
100
AcDbViewportTableRecord
  2
*ACTIVE
 70
0
 10
0.0
 20
0.0
 11
1.0
 21
1.0
 12
148.5
 22
105.0
 13
0.0
 23
0.0
 14
1.0
 24
1.0
 15
0.0
 25
0.0
 16
0.0
 26
0.0
 36
1.0
 17
0.0
 27
0.0
 37
0.0
 40
210.0
 41
1.4142857143
 42
50.0
 43
0.0
 44
0.0
 50
0.0
 51
0.0
 71
0
 72
100
 73
1
 74
1
 75
0
 76
0
 77
0
 78
0
  0
ENDTAB
  0
TABLE
  2
LTYPE
  5
5
100
AcDbSymbolTable
 70
6
  0
LTYPE
  5
14
100
AcDbSymbolTableRecord
100
AcDbLinetypeTableRecord
  2
BYBLOCK
 70
0
  3

 72
65
 73
0
 40
0.0
  0
LTYPE
  5
15
100
AcDbSymbolTableRecord
100
AcDbLinetypeTableRecord
  2
BYLAYER
 70
0
  3

 72
65
 73
0
 40
0.0
  0
LTYPE
  5
16
100
AcDbSymbolTableRecord
100
AcDbLinetypeTableRecord
  2
CONTINUOUS
 70
64
  3
Solid line
 72
65
 73
0
 40
0.0
  0
LTYPE
  5
1F5
100
AcDbSymbolTableRecord
100
AcDbLinetypeTableRecord
  2
CENTER
 70
64
  3
____ _ ____ _ ____ _ ____ _ ____ _ ____ _ ____
 72
65
 73
4
 40
0.6
 49
0.375
 74
0
 49
-0.075
 74
0
 49
0.075
 74
0
 49
-0.075
 74
0
  0
LTYPE
  5
1F6
100
AcDbSymbolTableRecord
100
AcDbLinetypeTableRecord
  2
HIDDEN
 70
64
  3
- - - - - - - - - - - - - - - - - - - -
 72
65
 73
2
 40
0.2
 49
0.1
 74
0
 49
-0.1
 74
0
  0
LTYPE
  5
1F7
100
AcDbSymbolTableRecord
100
AcDbLinetypeTableRecord
  2
PHANTOM
 70
64
  3
_____ _ _ _____ _ _ _____ _ _ _____
 72
65
 73
6
 40
0.8
 49
0.45
 74
0
 49
-0.05
 74
0
 49
0.1
 74
0
 49
-0.05
 74
0
 49
0.1
 74
0
 49
-0.05
 74
0
  0
LTYPE
  5
1F8
100
AcDbSymbolTableRecord
100
AcDbLinetypeTableRecord
  2
DOT
 70
64
  3
. . . . . . . . . . . . . . . . . . . .
 72
65
 73
2
 40
0.2
 49
0.1
 74
0
 49
-0.1
 74
0
  0
LTYPE
  5
1F9
100
AcDbSymbolTableRecord
100
AcDbLinetypeTableRecord
  2
DASHED
 70
64
  3
- - - - - - - - - - - - - - - - - - - -
 72
65
 73
2
 40
0.2
 49
0.1
 74
0
 49
-0.1
 74
0
  0
ENDTAB
  0
TABLE
  2
LAYER
  5
2
100
AcDbSymbolTable
 70
36
  0
LAYER
  5
10
100
AcDbSymbolTableRecord
100
AcDbLayerTableRecord
  2
0
 70
0
 62
7
  6
CONTINUOUS
370
-3
390
F
  0
LAYER
  5
1FA
100
AcDbSymbolTableRecord
100
AcDbLayerTableRecord
  2
DEFAULT_1
 70
0
 62
7
  6
CENTER
370
-3
390
F
  0
LAYER
  5
1FB
100
AcDbSymbolTableRecord
100
AcDbLayerTableRecord
  2
DEFAULT_2
 70
0
 62
7
  6
HIDDEN
370
-3
390
F
  0
LAYER
  5
1FC
100
AcDbSymbolTableRecord
100
AcDbLayerTableRecord
  2
DEFAULT_3
 70
0
 62
7
  6
PHANTOM
370
-3
390
F
  0
LAYER
  5
1FD
100
AcDbSymbolTableRecord
100
AcDbLayerTableRecord
  2
ASSI
 70
0
 62
7
  6
CONTINUOUS
370
-3
390
F
  0
LAYER
  5
1FE
100
AcDbSymbolTableRecord
100
AcDbLayerTableRecord
  2
COLOR5
 70
0
 62
7
  6
CONTINUOUS
370
-3
390
F
  0
LAYER
  5
1FF
100
AcDbSymbolTableRecord
100
AcDbLayerTableRecord
  2
COORDINATE
 70
0
 62
7
  6
CONTINUOUS
370
-3
390
F
  0
LAYER
  5
200
100
AcDbSymbolTableRecord
100
AcDbLayerTableRecord
  2
COORD_ORIGINE
 70
0
 62
7
  6
CONTINUOUS
370
-3
390
F
  0
LAYER
  5
201
100
AcDbSymbolTableRecord
100
AcDbLayerTableRecord
  2
COPY_PUBLISH
 70
0
 62
7
  6
CONTINUOUS
370
-3
390
F
  0
LAYER
  5
202
100
AcDbSymbolTableRecord
100
AcDbLayerTableRecord
  2
COSMETIC
 70
0
 62
7
  6
CONTINUOUS
370
-3
390
F
  0
LAYER
  5
203
100
AcDbSymbolTableRecord
100
AcDbLayerTableRecord
  2
COSMETICI
 70
0
 62
7
  6
CONTINUOUS
370
-3
390
F
  0
LAYER
  5
204
100
AcDbSymbolTableRecord
100
AcDbLayerTableRecord
  2
CURVE
 70
0
 62
7
  6
CONTINUOUS
370
-3
390
F
  0
LAYER
  5
205
100
AcDbSymbolTableRecord
100
AcDbLayerTableRecord
  2
DRAFT
 70
0
 62
7
  6
CONTINUOUS
370
-3
390
F
  0
LAYER
  5
206
100
AcDbSymbolTableRecord
100
AcDbLayerTableRecord
  2
IMPORT_IGES
 70
0
 62
7
  6
CONTINUOUS
370
-3
390
F
  0
LAYER
  5
207
100
AcDbSymbolTableRecord
100
AcDbLayerTableRecord
  2
INCISIONI
 70
0
 62
7
  6
CONTINUOUS
370
-3
390
F
  0
LAYER
  5
208
100
AcDbSymbolTableRecord
100
AcDbLayerTableRecord
  2
INTF_YELLOW
 70
0
 62
7
  6
CONTINUOUS
370
-3
390
F
  0
LAYER
  5
209
100
AcDbSymbolTableRecord
100
AcDbLayerTableRecord
  2
NOTE
 70
0
 62
7
  6
CONTINUOUS
370
-3
390
F
  0
LAYER
  5
20A
100
AcDbSymbolTableRecord
100
AcDbLayerTableRecord
  2
PIANI
 70
0
 62
7
  6
CONTINUOUS
370
-3
390
F
  0
LAYER
  5
20B
100
AcDbSymbolTableRecord
100
AcDbLayerTableRecord
  2
PIANI_ORIGINE
 70
0
 62
7
  6
CONTINUOUS
370
-3
390
F
  0
LAYER
  5
20C
100
AcDbSymbolTableRecord
100
AcDbLayerTableRecord
  2
PUNTI
 70
0
 62
7
  6
CONTINUOUS
370
-3
390
F
  0
LAYER
  5
20D
100
AcDbSymbolTableRecord
100
AcDbLayerTableRecord
  2
RACCORDO
 70
0
 62
7
  6
CONTINUOUS
370
-3
390
F
  0
LAYER
  5
20E
100
AcDbSymbolTableRecord
100
AcDbLayerTableRecord
  2
SIMBOLI
 70
0
 62
7
  6
CONTINUOUS
370
-3
390
F
  0
LAYER
  5
20F
100
AcDbSymbolTableRecord
100
AcDbLayerTableRecord
  2
SNAPLINE
 70
0
 62
7
  6
CONTINUOUS
370
-3
390
F
  0
LAYER
  5
210
100
AcDbSymbolTableRecord
100
AcDbLayerTableRecord
  2
SUPERFICI
 70
0
 62
7
  6
CONTINUOUS
370
-3
390
F
  0
LAYER
  5
211
100
AcDbSymbolTableRecord
100
AcDbLayerTableRecord
  2
TRASH
 70
0
 62
7
  6
CONTINUOUS
370
-3
390
F
  0
LAYER
  5
212
100
AcDbSymbolTableRecord
100
AcDbLayerTableRecord
  2
XSEC_DATUMS
 70
0
 62
7
  6
CONTINUOUS
370
-3
390
F
  0
ENDTAB
  0
TABLE
  2
STYLE
  5
3
100
AcDbSymbolTable
 70
1
  0
STYLE
  5
11
100
AcDbSymbolTableRecord
100
AcDbTextStyleTableRecord
  2
STANDARD
 70
0
 40
0.0
 41
0.8
 50
0.0
 71
0
 42
0.2
  3
txt
  4

  0
STYLE
  5
213
100
AcDbSymbolTableRecord
100
AcDbTextStyleTableRecord
  2
TEXTSTYLE_1
 70
0
 40
0.0
 41
0.8
 50
0.0
 71
0
 42
0.2
  3
gdt
  4

  0
ENDTAB
  0
TABLE
  2
VIEW
  5
6
100
AcDbSymbolTable
 70
0
  0
ENDTAB
  0
TABLE
  2
UCS
  5
7
100
AcDbSymbolTable
 70
0
  0
ENDTAB
  0
TABLE
  2
APPID
  5
9
100
AcDbSymbolTable
 70
1
  0
APPID
  5
214
100
AcDbSymbolTableRecord
100
AcDbRegAppTableRecord
  2
ACAD
 70
0
  0
ENDTAB
  0
TABLE
  2
BLOCK_RECORD
  5
1
100
AcDbSymbolTable
 70
0
  0
BLOCK_RECORD
  5
215
100
AcDbSymbolTableRecord
100
AcDbBlockTableRecord
  2
*Model_Space
  0
BLOCK_RECORD
  5
216
100
AcDbSymbolTableRecord
100
AcDbBlockTableRecord
  2
*Paper_Space
  0
BLOCK_RECORD
  5
217
100
AcDbSymbolTableRecord
100
AcDbBlockTableRecord
  2
_FILLED
  0
ENDTAB
  0
TABLE
  2
DIMSTYLE
  5
A
100
AcDbSymbolTable
 70
1
100
AcDbDimStyleTable
 71
0
  0
DIMSTYLE
105
218
100
AcDbSymbolTableRecord
100
AcDbDimStyleTableRecord
  2
STANDARD
 70
0
  3

  4

 40
1.0
 41
3.0
 42
0.5
 43
0.38
 44
1.5
 45
0.0
 46
0.0
 47
0.01
 48
0.01
140
3.0
141
0.09
142
0.0
143
25.4
144
1.0
145
0.0
146
1.0
147
0.625
 71
1
 72
0
 73
0
 74
0
 75
0
 76
0
 77
1
 78
8
 79
2
170
0
171
1
172
0
173
0
174
0
175
0
176
0
177
0
178
0
270
2
179
2
271
2
272
2
273
2
274
2
275
0
280
0
281
0
282
0
283
1
284
8
285
0
286
0
287
3
288
0
340
11
278
44
341
217
342
217
343
217
344
217
  0
ENDTAB
  0
ENDSEC
  0
SECTION
  2
BLOCKS
  0
BLOCK
  5
20
100
AcDbEntity
  8
0
100
AcDbBlockBegin
  2
*Model_Space
 70
0
 10
0.0
 20
0.0
 30
0.0
  3
*Model_Space
  1

  0
ENDBLK
  5
21
100
AcDbEntity
  8
0
100
AcDbBlockEnd
  0
BLOCK
  5
1C
100
AcDbEntity
  8
0
100
AcDbBlockBegin
  2
*Paper_Space
 70
0
 10
0.0
 20
0.0
 30
0.0
  3
*Paper_Space
  1

  0
ENDBLK
  5
1D
100
AcDbEntity
  8
0
100
AcDbBlockEnd
  0
BLOCK
  5
219
100
AcDbEntity
  8
0
100
AcDbBlockBegin
  2
_FILLED
 70
64
 10
0.0
 20
0.0
  3
_FILLED
  1

  0
SOLID
  5
21A
100
AcDbEntity
  8
0
  6
BYBLOCK
 62
0
100
AcDbTrace
 10
0.0
 20
0.0
 11
-1.0
 21
0.3166666667
 12
-1.0
 22
-0.3166666667
 13
-1.0
 23
-0.3166666667
  0
ENDBLK
  5
21B
100
AcDbEntity
  8
0
  6
BYBLOCK
 62
0
100
AcDbBlockEnd
  0
ENDSEC
  0
SECTION
  2
ENTITIES
  0
LWPOLYLINE
  5
21C
100
AcDbEntity
  8
RACCORDO
100
AcDbPolyline
 62
250
  6
CONTINUOUS
 90
13
 70
0
 10
-13.952481462
 20
57.1060281984
 10
-13.7824026373
 20
57.2139637591
 10
-13.5973180451
 20
57.2993041446
 10
-13.3980804823
 20
57.3616566337
 10
-13.1855808271
 20
57.4007417595
 10
-12.960803247
 20
57.4163779189
 10
-12.7248431841
 20
57.4085021138
 10
-12.4788064018
 20
57.3771770609
 10
-12.2238009223
 20
57.3225682976
 10
-11.9610028407
 20
57.2449494087
 10
-11.6916162703
 20
57.1446986811
 10
-11.4168668495
 20
57.0222945195
 10
-11.1380053157
 20
56.8783155371
  0
LWPOLYLINE
  5
21D
100
AcDbEntity
  8
RACCORDO
100
AcDbPolyline
 62
7
  6
CONTINUOUS
 90
15
 70
0
 10
-15.2992095118
 20
55.8958238177
 10
-15.3383192199
 20
55.8600427401
 10
-15.5817219521
 20
55.6210955963
 10
-15.8100829274
 20
55.367860352
 10
-16.0226029653
 20
55.1012716058
 10
-16.218901593
 20
54.8217396893
 10
-16.3979772652
 20
54.5305506426
 10
-16.5590018474
 20
54.229051512
 10
-16.7017497095
 20
53.9176228762
 10
-16.8254863471
 20
53.5977087249
 10
-16.9296014923
 20
53.2708750165
 10
-17.0139364449
 20
52.9374426496
 10
-17.0781168195
 20
52.5985132702
 10
-17.1217363875
 20
52.2562193826
 10
-17.1273867128
 20
52.1944376856
  0
LINE
  5
21E
100
AcDbEntity
  8
DRAFT
100
AcDbLine
 62
7
  6
CONTINUOUS
 10
-14.0727786196
 20
57.0077802797
 11
-15.300363941
 21
55.8947972674
  0
LINE
  5
21F
100
AcDbEntity
  8
RACCORDO
100
AcDbLine
 62
7
  6
CONTINUOUS
 10
-15.2994667753
 20
55.8956099529
 11
-15.300403454
 21
55.8947614431
  0
LINE
  5
220
100
AcDbEntity
  8
RACCORDO
100
AcDbLine
 62
250
  6
CONTINUOUS
 10
-11.1380053157
 20
56.8783155371
 11
-12.4539371092
 21
55.7777892114
  0
LWPOLYLINE
  5
221
100
AcDbEntity
  8
RACCORDO
100
AcDbPolyline
 62
250
  6
CONTINUOUS
 90
3
 70
0
 10
-4.1120259513
 20
52.7277112112
 10
-4.1417899017
 20
52.7101327845
 10
-4.1704698258
 20
52.6878885897
  0
LWPOLYLINE
  5
222
100
AcDbEntity
  8
RACCORDO
100
AcDbPolyline
 62
7
  6
CONTINUOUS
 90
18
 70
0
 10
6.3948864784
 20
-58.2482592474
 10
6.4589024582
 20
-58.2842306703
 10
6.7292287055
 20
-58.4247822178
 10
7.0193073621
 20
-58.5562964941
 10
7.3315444028
 20
-58.6769430329
 10
7.6648565874
 20
-58.783225029
 10
8.0136842875
 20
-58.8708745052
 10
8.3762635424
 20
-58.9374911038
 10
8.7517664208
 20
-58.9809832619
 10
9.1343076828
 20
-58.9991624892
 10
9.5212872516
 20
-58.9909306297
 10
9.9107077872
 20
-58.9554414983
 10
10.2968587715
 20
-58.8927243855
 10
10.6773986366
 20
-58.8031156429
 10
11.0500274967
 20
-58.6872422491
 10
11.4092713302
 20
-58.5473947845
 10
11.7523332352
 20
-58.3858817093
 10
11.8538691468
 20
-58.3324450196
  0
LWPOLYLINE
  5
223
100
AcDbEntity
  8
RACCORDO
100
AcDbPolyline
 62
250
  6
CONTINUOUS
 90
22
 70
0
 10
5.2514636816
 20
-56.608522233
 10
5.2651275586
 20
-56.6158406451
 10
5.2783627616
 20
-56.6220781135
 10
5.2911693312
 20
-56.627234605
 10
5.3036049766
 20
-56.6313244796
 10
5.315612102
 20
-56.6343332854
 10
5.3270177992
 20
-56.6362177653
 10
5.3378110675
 20
-56.6369603394
 10
5.3480030612
 20
-56.6365784628
 10
5.3574540962
 20
-56.6350814386
 10
5.3661530965
 20
-56.6324532068
 10
5.3741113066
 20
-56.6287096906
 10
5.3812224969
 20
-56.6239081881
 10
5.3874742684
 20
-56.6180339784
 10
5.3928791752
 20
-56.6111016568
 10
5.3973683747
 20
-56.6032125293
 10
5.4009288583
 20
-56.5943517954
 10
5.4035737511
 20
-56.5845341613
 10
5.4052733535
 20
-56.5739052397
 10
5.40601777
 20
-56.5625135649
 10
5.4058169451
 20
-56.550310563
 10
5.4046709073
 20
-56.5372962109
  0
LINE
  5
224
100
AcDbEntity
  8
RACCORDO
100
AcDbLine
 62
7
  6
CONTINUOUS
 10
6.394884081
 20
-58.2482634608
 11
6.3952647669
 21
-58.2484805783
  0
LWPOLYLINE
  5
225
100
AcDbEntity
  8
RACCORDO
100
AcDbPolyline
 62
250
  6
CONTINUOUS
 90
22
 70
0
 10
5.4046709455
 20
-56.53729618
 10
5.6851767278
 20
-56.7188451384
 10
5.9831762456
 20
-56.8842248696
 10
6.2972165754
 20
-57.0326290497
 10
6.6257665848
 20
-57.1633341206
 10
6.9672243983
 20
-57.2757028178
 10
7.3199252074
 20
-57.3691872775
 10
7.682149387
 20
-57.4433317076
 10
8.0521308803
 20
-57.4977746104
 10
8.4280658088
 20
-57.5322505444
 10
8.8081212675
 20
-57.5465914192
 10
9.1904442614
 20
-57.5407273144
 10
9.57317074
 20
-57.514686821
 10
9.9544346854
 20
-57.4685969019
 10
10.3323772107
 20
-57.4026822726
 10
10.7051556225
 20
-57.3172643059
 10
11.0709524059
 20
-57.2127594649
 10
11.4279840853
 20
-57.0896772724
 10
11.7745099203
 20
-56.948617827
 10
12.1088403926
 20
-56.790268877
 10
12.4293454435
 20
-56.615402467
 10
12.7344624216
 20
-56.424871174
  0
LWPOLYLINE
  5
226
100
AcDbEntity
  8
RACCORDO
100
AcDbPolyline
 62
7
  6
CONTINUOUS
 90
10
 70
0
 10
-14.987604631
 20
-43.1371888955
 10
-12.7418809814
 20
-44.9911617198
 10
-10.3295945688
 20
-46.9130762711
 10
-7.9126442644
 20
-48.7669041663
 10
-5.4938780951
 20
-50.5502487864
 10
-3.0759575578
 20
-52.2608204991
 10
-0.6613425584
 20
-53.8963918176
 10
1.747647135
 20
-55.4547378418
 10
4.1485380977
 20
-56.9334853466
 10
6.3952647669
 20
-58.2484805783
  0
LINE
  5
227
100
AcDbEntity
  8
RACCORDO
100
AcDbLine
 62
7
  6
CONTINUOUS
 10
-14.987604631
 20
-43.1371888955
 11
-14.9873612203
 21
-43.1373931816
  0
LWPOLYLINE
  5
228
100
AcDbEntity
  8
RACCORDO
100
AcDbPolyline
 62
250
  6
CONTINUOUS
 90
13
 70
0
 10
-14.3464779208
 20
40.0847414976
 10
-14.2751160325
 20
40.1566700833
 10
-14.196279568
 20
40.2206672606
 10
-14.1112386063
 20
40.2757019456
 10
-14.0213631878
 20
40.3208874429
 10
-13.9281012693
 20
40.3554957188
 10
-13.8329554
 20
40.3789691431
 10
-13.7374584573
 20
40.3909294908
 10
-13.6431490012
 20
40.3911840189
 10
-13.5515465124
 20
40.379728588
 10
-13.4641268283
 20
40.3567477341
 10
-13.3822983696
 20
40.3226116748
 10
-13.3073794988
 20
40.2778703533
  0
LINE
  5
229
100
AcDbEntity
  8
RACCORDO
100
AcDbLine
 62
250
  6
CONTINUOUS
 10
-12.9301756997
 20
39.8257324204
 11
-13.0263568434
 21
39.7487551566
  0
LWPOLYLINE
  5
22A
100
AcDbEntity
  8
RACCORDO
100
AcDbPolyline
 62
250
  6
CONTINUOUS
 90
29
 70
0
 10
-13.0263568434
 20
39.7487551566
 10
-13.0499581178
 20
39.7300687243
 10
-13.0744257691
 20
39.7108844132
 10
-13.0996337501
 20
39.6913041305
 10
-13.1250616844
 20
39.6719273771
 10
-13.1507734117
 20
39.6527378422
 10
-13.1767050924
 20
39.6337518367
 10
-13.2021448314
 20
39.6156177932
 10
-13.2269612642
 20
39.5984731148
 10
-13.2512857553
 20
39.5821803984
 10
-13.2748005032
 20
39.566975869
 10
-13.2973382634
 20
39.5529778418
 10
-13.3190662804
 20
39.5400680015
 10
-13.3401684873
 20
39.5281276267
 10
-13.3605953081
 20
39.5171530308
 10
-13.3803963188
 20
39.5071479006
 10
-13.3999041792
 20
39.4980045746
 10
-13.4191860526
 20
39.4896417195
 10
-13.4381747757
 20
39.4821406687
 10
-13.4570015198
 20
39.4756377615
 10
-13.4757921127
 20
39.4700461925
 10
-13.4944207265
 20
39.465452767
 10
-13.5126410478
 20
39.4622542402
 10
-13.5304976405
 20
39.4605135511
 10
-13.5479459407
 20
39.4601677607
 10
-13.5646059431
 20
39.4614248069
 10
-13.5803509793
 20
39.4643540025
 10
-13.5953077177
 20
39.4688860347
 10
-13.6094761584
 20
39.4750209036
  0
LWPOLYLINE
  5
22B
100
AcDbEntity
  8
RACCORDO
100
AcDbPolyline
 62
7
  6
CONTINUOUS
 90
16
 70
0
 10
-13.1043357713
 20
39.8095019897
 10
-13.1050725727
 20
39.8092115703
 10
-13.1016861098
 20
39.8103640315
 10
-13.0923851681
 20
39.8131171206
 10
-13.0774220989
 20
39.8168013664
 10
-13.057304707
 20
39.8207034949
 10
-13.032362402
 20
39.8241823969
 10
-13.0030880097
 20
39.8266216718
 10
-12.9701141798
 20
39.8274254811
 10
-12.9328443585
 20
39.8260060808
 10
-12.8935068677
 20
39.8219721761
 10
-12.856791607
 20
39.8158820481
 10
-12.8273334742
 20
39.8093146022
 10
-12.8019904115
 20
39.8023821119
 10
-12.7740786076
 20
39.7933643759
 10
-12.7430152824
 20
39.7816101389
  0
LWPOLYLINE
  5
22C
100
AcDbEntity
  8
RACCORDO
100
AcDbPolyline
 62
250
  6
CONTINUOUS
 90
10
 70
0
 10
-14.8134226533
 20
-37.0508702553
 10
-14.7580376866
 20
-37.0650765627
 10
-14.7035551237
 20
-37.0822390865
 10
-14.6502532796
 20
-37.1022701547
 10
-14.5984044377
 20
-37.1250674417
 10
-14.5482734587
 20
-37.1505144913
 10
-14.5001164282
 20
-37.1784813116
 10
-14.4541793482
 20
-37.2088250384
 10
-14.4106968803
 20
-37.241390666
 10
-14.3698911472
 20
-37.2760118381
  0
LINE
  5
22D
100
AcDbEntity
  8
RACCORDO
100
AcDbLine
 62
250
  6
CONTINUOUS
 10
4.3505045375
 20
-53.575251543
 11
-14.9660367963
 21
-39.9162948281
  0
LINE
  5
22E
100
AcDbEntity
  8
RACCORDO
100
AcDbLine
 62
250
  6
CONTINUOUS
 10
3.6395423125
 20
-50.0106051741
 11
-14.369891334
 21
-37.2760122711
  0
LWPOLYLINE
  5
22F
100
AcDbEntity
  8
RACCORDO
100
AcDbPolyline
 62
250
  6
CONTINUOUS
 90
12
 70
0
 10
-15.5161287616
 20
-41.7440568944
 10
-15.7783739428
 20
-41.5418228776
 10
-16.0204791512
 20
-41.3252908041
 10
-16.2412639808
 20
-41.0955163957
 10
-16.4396519749
 20
-40.8536199385
 10
-16.6146758747
 20
-40.6007808208
 10
-16.7654823354
 20
-40.3382317827
 10
-16.8913360862
 20
-40.0672529061
 10
-16.9916235157
 20
-39.7891653732
 10
-17.0658556634
 20
-39.5053250253
 10
-17.1136706036
 20
-39.2171157519
 10
-17.1199757733
 20
-39.159718921
  0
LWPOLYLINE
  5
230
100
AcDbEntity
  8
RACCORDO
100
AcDbPolyline
 62
250
  6
CONTINUOUS
 90
13
 70
0
 10
-15.3192992483
 20
-42.062796271
 10
-13.5871414922
 20
-43.5009710461
 10
-11.8562454356
 20
-44.899204548
 10
-10.126724693
 20
-46.2575889514
 10
-8.3975604117
 20
-47.5770161603
 10
-6.6699229529
 20
-48.8567174364
 10
-4.9471720198
 20
-50.0942634443
 10
-3.2293286598
 20
-51.2895842041
 10
-1.516371825
 20
-52.4427496953
 10
0.188439749
 20
-53.55150974
 10
1.8840702764
 20
-54.6150732395
 10
3.5717070497
 20
-55.6341081283
 10
5.2514636816
 20
-56.608522233
  0
LWPOLYLINE
  5
231
100
AcDbEntity
  8
RACCORDO
100
AcDbPolyline
 62
7
  6
CONTINUOUS
 90
14
 70
0
 10
-13.6093762934
 20
39.474985764
 10
-13.5596526819
 20
39.5388394997
 10
-13.5048488573
 20
39.5977436138
 10
-13.4455181487
 20
39.6510709279
 10
-13.3822461022
 20
39.698260782
 10
-13.3156965262
 20
39.7387866675
 10
-13.2466127439
 20
39.7721807082
 10
-13.1757249406
 20
39.7980942601
 10
-13.1037625452
 20
39.8162466927
 10
-13.03150637
 20
39.8264235406
 10
-12.9596815529
 20
39.828516206
 10
-12.8890654381
 20
39.8225321567
 10
-12.8205040179
 20
39.8085934929
 10
-12.7547365185
 20
39.7868939051
  0
LINE
  5
232
100
AcDbEntity
  8
RACCORDO
100
AcDbLine
 62
250
  6
CONTINUOUS
 10
3.7314799153
 20
47.1432022175
 11
3.701860301
 21
47.1213076951
  0
LWPOLYLINE
  5
233
100
AcDbEntity
  8
RACCORDO
100
AcDbPolyline
 62
250
  6
CONTINUOUS
 90
13
 70
0
 10
-14.3464911233
 20
-34.5863887919
 10
-14.2751321589
 20
-34.5797066779
 10
-14.1962976973
 20
-34.5799059009
 10
-14.1112577599
 20
-34.5869831965
 10
-14.0213823396
 20
-34.6008244926
 10
-13.9281193302
 20
-34.6212067468
 10
-13.8329712007
 20
-34.6478015402
 10
-13.7374707896
 20
-34.6801803686
 10
-13.6431566108
 20
-34.7178215453
 10
-13.5515480677
 20
-34.7601186067
 10
-13.4641209759
 20
-34.8063900823
 10
-13.3822837869
 20
-34.8558904738
 10
-13.3073548982
 20
-34.9078222653
  0
LWPOLYLINE
  5
234
100
AcDbEntity
  8
RACCORDO
100
AcDbPolyline
 62
250
  6
CONTINUOUS
 90
9
 70
0
 10
-11.4690968141
 20
-32.1956075229
 10
-11.482031163
 20
-32.1875943847
 10
-11.5143918717
 20
-32.1753156594
 10
-11.5511985154
 20
-32.1708657223
 10
-11.5917787028
 20
-32.1743258658
 10
-11.6353911065
 20
-32.1856328795
 10
-11.6812390062
 20
-32.2045802046
 10
-11.728484843
 20
-32.2308217074
 10
-11.7762655203
 20
-32.2638780029
  0
LINE
  5
235
100
AcDbEntity
  8
RACCORDO
100
AcDbLine
 62
250
  6
CONTINUOUS
 10
3.4984136714
 20
-44.9102936456
 11
-12.6341227218
 21
-33.5028677642
  0
LINE
  5
236
100
AcDbEntity
  8
RACCORDO
100
AcDbLine
 62
250
  6
CONTINUOUS
 10
3.4523056421
 20
-44.0875576614
 11
-12.5336305442
 21
-32.7837937804
  0
LINE
  5
237
100
AcDbEntity
  8
RACCORDO
100
AcDbLine
 62
250
  6
CONTINUOUS
 10
-11.7762793102
 20
-32.263868252
 11
3.3974839443
 21
-42.9933391454
  0
LWPOLYLINE
  5
238
100
AcDbEntity
  8
RACCORDO
100
AcDbPolyline
 62
7
  6
CONTINUOUS
 90
16
 70
0
 10
-12.6341894526
 20
-33.5028595223
 10
-12.6928386408
 20
-33.4595653631
 10
-12.7554789197
 20
-33.4163001961
 10
-12.8214427789
 20
-33.3734864836
 10
-12.8900379288
 20
-33.3315587329
 10
-12.9605410655
 20
-33.2909370942
 10
-13.0322249932
 20
-33.2520590001
 10
-13.1043545579
 20
-33.2153473183
 10
-13.1761719579
 20
-33.1811681799
 10
-13.2469180042
 20
-33.149859093
 10
-13.3158607055
 20
-33.1217568118
 10
-13.3822864283
 20
-33.0971585419
 10
-13.4455042738
 20
-33.0763186726
 10
-13.5048556479
 20
-33.0594514369
 10
-13.5597308754
 20
-33.0467464887
 10
-13.6095659136
 20
-33.0383477803
  0
LINE
  5
239
100
AcDbEntity
  8
RACCORDO
100
AcDbLine
 62
7
  6
CONTINUOUS
 10
-11.4690868317
 20
-32.1956145808
 11
3.3841079953
 21
-42.6984093653
  0
LINE
  5
23A
100
AcDbEntity
  8
ASSI
100
AcDbLine
 62
7
  6
CONTINUOUS
 10
-11.8226721383
 20
-31.4561075904
 11
3.3611728952
 21
-42.192707378
  0
LINE
  5
23B
100
AcDbEntity
  8
0
100
AcDbLine
 62
7
  6
CONTINUOUS
 10
-11.8226721383
 20
-31.1025541998
 11
3.344606929
 21
-41.8274400804
  0
LINE
  5
23C
100
AcDbEntity
  8
0
100
AcDbLine
 62
7
  6
CONTINUOUS
 10
-11.8226721383
 20
-30.3525541998
 11
3.3101342661
 21
-41.0530642267
  0
LWPOLYLINE
  5
23D
100
AcDbEntity
  8
RACCORDO
100
AcDbPolyline
 62
7
  6
CONTINUOUS
 90
19
 70
0
 10
-11.4691060222
 20
-32.1956204554
 10
-11.4952678583
 20
-32.1759825514
 10
-11.5258415442
 20
-32.1503156182
 10
-11.5582126967
 20
-32.1200637794
 10
-11.5914686474
 20
-32.0855957826
 10
-11.6248990139
 20
-32.0472645884
 10
-11.6571194276
 20
-32.0064905549
 10
-11.6873940654
 20
-31.9641712722
 10
-11.715288588
 20
-31.9209513757
 10
-11.7401542579
 20
-31.8780824629
 10
-11.7617233151
 20
-31.8364593147
 10
-11.7798684553
 20
-31.7967814055
 10
-11.7944571176
 20
-31.7600500153
 10
-11.8056729891
 20
-31.7268445569
 10
-11.8136997755
 20
-31.6979263631
 10
-11.8187696807
 20
-31.6743911591
 10
-11.8214627799
 20
-31.6566970157
 10
-11.8225174063
 20
-31.6447545067
 10
-11.8226730684
 20
-31.6394877928
  0
LINE
  5
23E
100
AcDbEntity
  8
RACCORDO
100
AcDbLine
 62
250
  6
CONTINUOUS
 10
10.6693935758
 20
41.4581559009
 11
9.007029167
 21
40.1496512615
  0
LWPOLYLINE
  5
23F
100
AcDbEntity
  8
RACCORDO
100
AcDbPolyline
 62
250
  6
CONTINUOUS
 90
13
 70
0
 10
-16.0774394254
 20
-17.784076822
 10
-16.0015278244
 20
-17.8313583896
 10
-15.9177846908
 20
-17.8714878798
 10
-15.8275490855
 20
-17.9038236182
 10
-15.7322638851
 20
-17.927848553
 10
-15.6334527094
 20
-17.9431785231
 10
-15.5326955591
 20
-17.9495684007
 10
-15.4316035511
 20
-17.9469160111
 10
-15.3317931569
 20
-17.9352637662
 10
-15.2348603547
 20
-17.9147979866
 10
-15.1423551098
 20
-17.8858459221
 10
-15.0557565903
 20
-17.8488705193
 10
-14.9764495153
 20
-17.8044630184
  0
LWPOLYLINE
  5
240
100
AcDbEntity
  8
RACCORDO
100
AcDbPolyline
 62
250
  6
CONTINUOUS
 90
22
 70
0
 10
3.9610987958
 20
-31.9534630833
 10
4.2418614329
 20
-32.1385945243
 10
4.540203465
 20
-32.3094263
 10
4.8546713998
 20
-32.4651261351
 10
5.183733181
 20
-32.6049354756
 10
5.5257856528
 20
-32.7281731846
 10
5.8791623699
 20
-32.8342388603
 10
6.2421417164
 20
-32.9226157613
 10
6.6129552935
 20
-32.9928733244
 10
6.9897965346
 20
-33.0446692616
 10
7.3708295072
 20
-33.0777512285
 10
7.754197857
 20
-33.091958053
 10
8.1380338517
 20
-33.0872205209
 10
8.5204674811
 20
-33.0635617129
 10
8.8996355669
 20
-33.0210968924
 10
9.2736908404
 20
-32.9600329437
 10
9.6408109419
 20
-32.8806673643
 10
9.9992072991
 20
-32.7833868153
 10
10.3471338409
 20
-32.6686652376
 10
10.6828955044
 20
-32.5370615435
 10
11.0048564923
 20
-32.3892168927
 10
11.3114482431
 20
-32.2258515696
  0
LINE
  5
241
100
AcDbEntity
  8
RACCORDO
100
AcDbLine
 62
250
  6
CONTINUOUS
 10
-16.0774394254
 20
-17.7840492105
 11
-16.6890208572
 21
-17.3516184718
  0
LINE
  5
242
100
AcDbEntity
  8
RACCORDO
100
AcDbLine
 62
250
  6
CONTINUOUS
 10
3.9610987958
 20
-31.9534579408
 11
3.349517364
 21
-31.520982094
  0
LWPOLYLINE
  5
243
100
AcDbEntity
  8
RACCORDO
100
AcDbPolyline
 62
250
  6
CONTINUOUS
 90
13
 70
0
 10
-16.6890208572
 20
-17.3516234443
 10
-16.9508362519
 20
-17.1530942798
 10
-17.1924288659
 20
-16.9421346058
 10
-17.4126216843
 20
-16.7197721967
 10
-17.6103419499
 20
-16.4870903798
 10
-17.7846263893
 20
-16.2452227575
 10
-17.9346259063
 20
-15.9953476845
 10
-18.0596097184
 20
-15.7386825272
 10
-18.1589689169
 20
-15.4764777323
 10
-18.2322194339
 20
-15.2100107352
 10
-18.2790044002
 20
-14.9405797365
 10
-18.299095884
 20
-14.6694973767
 10
-18.2999335607
 20
-14.6016234443
  0
LINE
  5
244
100
AcDbEntity
  8
RACCORDO
100
AcDbLine
 62
7
  6
CONTINUOUS
 10
-17.1199757733
 20
-39.159718921
 11
-17.1200327783
 21
-39.1591521274
  0
LWPOLYLINE
  5
245
100
AcDbEntity
  8
RACCORDO
100
AcDbPolyline
 62
250
  6
CONTINUOUS
 90
10
 70
0
 10
-14.9660367964
 20
-39.9162948281
 10
-15.1991652262
 20
-37.5330411154
 10
-15.404922654
 20
-35.1302199549
 10
-15.5832885296
 20
-32.7080840093
 10
-15.7342456086
 20
-30.2668889033
 10
-15.8577782981
 20
-27.8068907421
 10
-15.953872523
 20
-25.3283459814
 10
-16.0225179986
 20
-22.8315147248
 10
-16.0637083671
 20
-20.3166607982
 10
-16.0774394476
 20
-17.7840491948
  0
LWPOLYLINE
  5
246
100
AcDbEntity
  8
RACCORDO
100
AcDbPolyline
 62
250
  6
CONTINUOUS
 90
5
 70
0
 10
-15.5161287634
 20
49.3874157932
 10
-15.7854350455
 20
46.0582720779
 10
-16.0144112851
 20
42.8301687382
 10
-16.2056069796
 20
39.7019785131
 10
-16.3617568114
 20
36.6729609414
  0
LWPOLYLINE
  5
247
100
AcDbEntity
  8
RACCORDO
100
AcDbPolyline
 62
7
  6
CONTINUOUS
 90
10
 70
0
 10
-17.127612641
 20
52.1919886998
 10
-17.3628643574
 20
49.2962686288
 10
-17.5834517504
 20
46.2499571351
 10
-17.7745813081
 20
43.2253579182
 10
-17.9361915636
 20
40.2229503623
 10
-18.0682350408
 20
37.2431097334
 10
-18.1706700553
 20
34.2861402415
 10
-18.2434518666
 20
31.352389485
 10
-18.2865394705
 20
28.4422918973
 10
-18.2999335607
 20
25.7034600239
  0
LINE
  5
248
100
AcDbEntity
  8
RACCORDO
100
AcDbLine
 62
7
  6
CONTINUOUS
 10
-17.127612641
 20
52.1919886998
 11
-17.1274018565
 21
52.1944389873
  0
LINE
  5
249
100
AcDbEntity
  8
RACCORDO
100
AcDbLine
 62
250
  6
CONTINUOUS
 10
-15.1991611923
 20
43.3886584456
 11
-14.9660286734
 21
46.0688763145
  0
LINE
  5
24A
100
AcDbEntity
  8
RACCORDO
100
AcDbLine
 62
250
  6
CONTINUOUS
 10
14.2367566051
 20
34.768120491
 11
12.7344389528
 21
33.9076367989
  0
LWPOLYLINE
  5
24B
100
AcDbEntity
  8
RACCORDO
100
AcDbPolyline
 62
250
  6
CONTINUOUS
 90
8
 70
0
 10
3.349517364
 20
-31.5210097056
 10
3.2826511293
 20
-31.4673320972
 10
3.2258994596
 20
-31.4081167589
 10
3.1801698198
 20
-31.34431055
 10
3.1461934313
 20
-31.2769337381
 10
3.12451358
 20
-31.2070636852
 10
3.1154769289
 20
-31.1358176208
 10
3.1152027889
 20
-31.1210097056
  0
LWPOLYLINE
  5
24C
100
AcDbEntity
  8
RACCORDO
100
AcDbPolyline
 62
250
  6
CONTINUOUS
 90
22
 70
0
 10
-15.5161287634
 20
-41.7440568959
 10
-15.5143229444
 20
-41.7575401826
 10
-15.5116043027
 20
-41.7715257915
 10
-15.5079728671
 20
-41.7860137458
 10
-15.5034053216
 20
-41.8010761186
 10
-15.4979250311
 20
-41.8166408763
 10
-15.4916020774
 20
-41.8324919083
 10
-15.4844244563
 20
-41.8486325199
 10
-15.4764042885
 20
-41.8650595002
 10
-15.4676479004
 20
-41.8815470102
 10
-15.4581444948
 20
-41.8980966567
 10
-15.4479050243
 20
-41.9147069587
 10
-15.4370684824
 20
-41.9311474801
 10
-15.4256261271
 20
-41.9474162471
 10
-15.413586869
 20
-41.9635153701
 10
-15.4011162062
 20
-41.9792205595
 10
-15.388205227
 20
-41.9945288536
 10
-15.3748629966
 20
-42.0094433386
 10
-15.3612819863
 20
-42.0237488032
 10
-15.3475263934
 20
-42.0373735433
 10
-15.3335321339
 20
-42.0503893549
 10
-15.3192992483
 20
-42.062796271
  0
LWPOLYLINE
  5
24D
100
AcDbEntity
  8
RACCORDO
100
AcDbPolyline
 62
7
  6
CONTINUOUS
 90
19
 70
0
 10
-17.1199757733
 20
-39.159718921
 10
-17.0904115879
 20
-39.40149696
 10
-17.0372206745
 20
-39.7106902858
 10
-16.9699181329
 20
-40.0061732625
 10
-16.8902636701
 20
-40.2879828278
 10
-16.7997612662
 20
-40.5566971322
 10
-16.6995003493
 20
-40.8133928435
 10
-16.5896642293
 20
-41.0604234038
 10
-16.4710777837
 20
-41.2979597831
 10
-16.3454559532
 20
-41.5244414867
 10
-16.2122238436
 20
-41.7424100274
 10
-16.0708612607
 20
-41.9534792868
 10
-15.9233678673
 20
-42.1553271594
 10
-15.7685161013
 20
-42.3502578377
 10
-15.6046424394
 20
-42.540246297
 10
-15.4336978025
 20
-42.7229036583
 10
-15.2552523633
 20
-42.8986491312
 10
-15.0661383645
 20
-43.0700873809
 10
-14.9873567841
 20
-43.1373878909
  0
LWPOLYLINE
  5
24E
100
AcDbEntity
  8
RACCORDO
100
AcDbPolyline
 62
250
  6
CONTINUOUS
 90
10
 70
0
 10
-14.3465071591
 20
-34.5864647057
 10
-14.4786736345
 20
-32.763839929
 10
-14.5953002851
 20
-30.9306564104
 10
-14.6963871108
 20
-29.0869141502
 10
-14.7819386385
 20
-27.2325488515
 10
-14.8519503413
 20
-25.3676248111
 10
-14.9064086385
 20
-23.4923349186
 10
-14.9453090031
 20
-21.6067434706
 10
-14.968655962
 20
-19.7107861706
 10
-14.9764495153
 20
-17.8044630184
  0
LWPOLYLINE
  5
24F
100
AcDbEntity
  8
RACCORDO
100
AcDbPolyline
 62
250
  6
CONTINUOUS
 90
7
 70
0
 10
-13.9649927157
 20
1.8504769798
 10
-13.9620762416
 20
1.6903667311
 10
-13.954498852
 20
1.5364956035
 10
-13.9425304641
 20
1.3887850758
 10
-13.9264382167
 20
1.2471442046
 10
-13.9064858663
 20
1.1114707322
 10
-13.8829332399
 20
0.9816521611
  0
LWPOLYLINE
  5
250
100
AcDbEntity
  8
RACCORDO
100
AcDbPolyline
 62
250
  6
CONTINUOUS
 90
10
 70
0
 10
-14.9660343895
 20
46.0687885439
 10
-14.9600245738
 20
45.652362581
 10
-14.9506938842
 20
45.2403399047
 10
-14.9382814189
 20
44.8328496172
 10
-14.9230570234
 20
44.4290067269
 10
-14.905250395
 20
44.0299268752
 10
-14.8850868665
 20
43.6386878897
 10
-14.8628552687
 20
43.2563247297
 10
-14.8388692929
 20
42.8818676699
 10
-14.8134224446
 20
42.5153312318
  0
LWPOLYLINE
  5
251
100
AcDbEntity
  8
RACCORDO
100
AcDbPolyline
 62
250
  6
CONTINUOUS
 90
19
 70
0
 10
-15.3192992492
 20
49.4894874313
 10
-15.3242485122
 20
49.8392263391
 10
-15.3069803387
 20
50.2003393054
 10
-15.2675937839
 20
50.5707548809
 10
-15.2063147807
 20
50.9483482539
 10
-15.1234948431
 20
51.3309534386
 10
-15.0196090506
 20
51.7163757002
 10
-14.8952533223
 20
52.1024041442
 10
-14.7511409988
 20
52.4868243988
 10
-14.5880987506
 20
52.8674313175
 10
-14.4070618353
 20
53.2420416279
 10
-14.2090687336
 20
53.608506456
 10
-13.9952551916
 20
53.9647236527
 10
-13.7668477061
 20
54.3086498524
 10
-13.5251564889
 20
54.638312194
 10
-13.2715679514
 20
54.9518196382
 10
-13.0075367514
 20
55.247373815
 10
-12.7345774488
 20
55.5232793394
 10
-12.4542558178
 20
55.7779535369
  0
LWPOLYLINE
  5
252
100
AcDbEntity
  8
RACCORDO
100
AcDbPolyline
 62
250
  6
CONTINUOUS
 90
7
 70
0
 10
-15.0212160705
 20
1.8973396764
 10
-15.019493273
 20
1.720512116
 10
-15.0154034655
 20
1.5489097379
 10
-15.0089832858
 20
1.3825651301
 10
-15.0002916454
 20
1.2215292143
 10
-14.9894110743
 20
1.0658704485
 10
-14.9764495153
 20
0.9156736991
  0
LWPOLYLINE
  5
253
100
AcDbEntity
  8
RACCORDO
100
AcDbPolyline
 62
7
  6
CONTINUOUS
 90
10
 70
0
 10
-18.2999335614
 20
-14.6016196861
 10
-18.2866622859
 20
-17.3050951409
 10
-18.243647006
 20
-20.1443472084
 10
-18.1708140172
 20
-22.9584338481
 10
-18.0681386744
 20
-25.7469310069
 10
-17.9355995899
 20
-28.5095210214
 10
-17.7731707683
 20
-31.2459426718
 10
-17.5808313805
 20
-33.9558631879
 10
-17.3585755799
 20
-36.6388510153
 10
-17.120039351
 20
-39.1591527842
  0
LWPOLYLINE
  5
254
100
AcDbEntity
  8
RACCORDO
100
AcDbPolyline
 62
250
  6
CONTINUOUS
 90
10
 70
0
 10
-16.689020849
 20
-17.3516184776
 10
-16.6768797988
 20
-19.8883782814
 10
-16.6404080997
 20
-22.4732424999
 10
-16.5773803483
 20
-25.1043098784
 10
-16.4852760377
 20
-27.779539747
 10
-16.3620043649
 20
-30.4969049586
 10
-16.205878596
 20
-33.2543692063
 10
-16.0146634892
 20
-36.0496852783
 10
-15.785603377
 20
-38.8804127656
 10
-15.5161287634
 20
-41.7440568959
  0
LINE
  5
255
100
AcDbEntity
  8
RACCORDO
100
AcDbLine
 62
7
  6
CONTINUOUS
 10
-18.2999335607
 20
25.7034630833
 11
-18.2999335607
 21
-14.6016234443
  0
LINE
  5
256
100
AcDbEntity
  8
RACCORDO
100
AcDbLine
 62
250
  6
CONTINUOUS
 10
-16.6890208572
 20
22.9534569896
 11
-16.6890208572
 21
-17.3516184718
  0
LINE
  5
257
100
AcDbEntity
  8
RACCORDO
100
AcDbLine
 62
250
  6
CONTINUOUS
 10
-16.0774394254
 20
-17.7840492105
 11
-16.0774394254
 21
22.5209805983
  0
LINE
  5
258
100
AcDbEntity
  8
RACCORDO
100
AcDbLine
 62
250
  6
CONTINUOUS
 10
-15.0212160705
 20
2.7458678138
 11
-15.0212160705
 21
1.8973396764
  0
LINE
  5
259
100
AcDbEntity
  8
RACCORDO
100
AcDbLine
 62
250
  6
CONTINUOUS
 10
-14.9764495153
 20
-17.8044630184
 11
-14.9764495153
 21
0.9156736991
  0
LINE
  5
25A
100
AcDbEntity
  8
RACCORDO
100
AcDbLine
 62
250
  6
CONTINUOUS
 10
-14.9764495153
 20
3.7804867917
 11
-14.9764495153
 21
22.5006235092
  0
LINE
  5
25B
100
AcDbEntity
  8
RACCORDO
100
AcDbLine
 62
250
  6
CONTINUOUS
 10
-13.9649927157
 20
2.6989488203
 11
-13.9649927157
 21
1.8504769798
  0
LWPOLYLINE
  5
25C
100
AcDbEntity
  8
RACCORDO
100
AcDbPolyline
 62
250
  6
CONTINUOUS
 90
10
 70
0
 10
-14.9764495153
 20
22.5006235092
 10
-14.9686560861
 20
24.4168608157
 10
-14.9453093455
 20
26.3425383262
 10
-14.9064092936
 20
28.2776560406
 10
-14.8519526466
 20
30.2222830337
 10
-14.7819426882
 20
32.1763502307
 10
-14.6963892692
 20
34.1396504079
 10
-14.5952956734
 20
36.1121144908
 10
-14.478658617
 20
38.093811554
 10
-14.3464781
 20
40.0847415973
  0
LWPOLYLINE
  5
25D
100
AcDbEntity
  8
RACCORDO
100
AcDbPolyline
 62
250
  6
CONTINUOUS
 90
9
 70
0
 10
-16.0774394488
 20
22.5209806149
 10
-16.0637083767
 20
25.0710800089
 10
-16.0225180061
 20
27.6383974903
 10
-15.9538725234
 20
30.222662149
 10
-15.8577784343
 20
32.8235961254
 10
-15.734245951
 20
35.4409297636
 10
-15.5832885289
 20
38.0744019463
 10
-15.4049212319
 20
40.7237398052
 10
-15.1991611923
 20
43.3886584456
  0
LWPOLYLINE
  5
25E
100
AcDbEntity
  8
RACCORDO
100
AcDbPolyline
 62
250
  6
CONTINUOUS
 90
8
 70
0
 10
-15.3192993083
 20
-42.0627963197
 10
-15.3242486517
 20
-42.2890268922
 10
-15.3069805746
 20
-42.4959599711
 10
-15.2675941316
 20
-42.6824085288
 10
-15.2063152547
 20
-42.8473030428
 10
-15.1234954572
 20
-42.9896976307
 10
-15.0196098172
 20
-43.1087754765
 10
-14.987604631
 20
-43.1371888955
  0
LWPOLYLINE
  5
25F
100
AcDbEntity
  8
RACCORDO
100
AcDbPolyline
 62
250
  6
CONTINUOUS
 90
6
 70
0
 10
-16.3617568114
 20
36.6729609414
 10
-16.4850794981
 20
33.7415093573
 10
-16.5772497248
 20
30.9051728348
 10
-16.6403434782
 20
28.1623285848
 10
-16.6768636852
 20
25.5121683344
 10
-16.6890208472
 20
22.9534569825
  0
LWPOLYLINE
  5
260
100
AcDbEntity
  8
RACCORDO
100
AcDbPolyline
 62
250
  6
CONTINUOUS
 90
7
 70
0
 10
-14.9764495153
 20
3.7804867917
 10
-14.9894961017
 20
3.6122068106
 10
-15.000429762
 20
3.4423622726
 10
-15.0091404678
 20
3.2708666187
 10
-15.0155443335
 20
3.0976502104
 10
-15.0195817634
 20
2.9226614929
 10
-15.0212160705
 20
2.7458678138
  0
LWPOLYLINE
  5
261
100
AcDbEntity
  8
RACCORDO
100
AcDbPolyline
 62
250
  6
CONTINUOUS
 90
7
 70
0
 10
-13.8829332399
 20
3.6631666214
 10
-13.9067368275
 20
3.5033179296
 10
-13.9267672902
 20
3.3428139066
 10
-13.9428173808
 20
3.1818811283
 10
-13.9546783439
 20
3.0207576735
 10
-13.962140359
 20
2.8596932082
 10
-13.9649930199
 20
2.6989490358
  0
LINE
  5
262
100
AcDbEntity
  8
RACCORDO
100
AcDbLine
 62
250
  6
CONTINUOUS
 10
-4.2071474649
 20
52.5029235402
 11
-4.2431754797
 21
52.3164791346
  0
LINE
  5
263
100
AcDbEntity
  8
RACCORDO
100
AcDbLine
 62
250
  6
CONTINUOUS
 10
-4.170479575
 20
52.687892185
 11
-4.2071474649
 21
52.5029235402
  0
LWPOLYLINE
  5
264
100
AcDbEntity
  8
RACCORDO
100
AcDbPolyline
 62
250
  6
CONTINUOUS
 90
10
 70
0
 10
-14.0966109256
 20
6.5854889025
 10
-14.2390618027
 20
6.2630846395
 10
-14.3704680778
 20
5.9429737278
 10
-14.4908297509
 20
5.6251561674
 10
-14.6003176975
 20
5.3091106394
 10
-14.6987610421
 20
4.9953584627
 10
-14.7856471588
 20
4.6854635939
 10
-14.8608051722
 20
4.3799473519
 10
-14.9244059577
 20
4.0782884179
 10
-14.9764495153
 20
3.7804867917
  0
LWPOLYLINE
  5
265
100
AcDbEntity
  8
RACCORDO
100
AcDbPolyline
 62
250
  6
CONTINUOUS
 90
13
 70
0
 10
-12.5815417648
 20
7.1804720113
 10
-12.7460561238
 20
6.8811138357
 10
-12.901200826
 20
6.5809256927
 10
-13.04669073
 20
6.2805057763
 10
-13.1822645667
 20
5.9804604302
 10
-13.307667579
 20
5.6813771016
 10
-13.4226509223
 20
5.3838233602
 10
-13.527008624
 20
5.0883801615
 10
-13.6205419135
 20
4.7956410258
 10
-13.7030434489
 20
4.5061843284
 10
-13.7743522445
 20
4.2205802186
 10
-13.8343514642
 20
3.9393903286
 10
-13.8829332399
 20
3.6631666214
  0
LWPOLYLINE
  5
266
100
AcDbEntity
  8
RACCORDO
100
AcDbPolyline
 62
250
  6
CONTINUOUS
 90
10
 70
0
 10
-12.5817003827
 20
7.1805841711
 10
-12.5444409941
 20
7.2475850669
 10
-12.5034001023
 20
7.3134393308
 10
-12.4589676956
 20
7.3775210991
 10
-12.4115661629
 20
7.4392211537
 10
-12.3616458157
 20
7.497953303
 10
-12.3096805349
 20
7.5531598509
 10
-12.2561639459
 20
7.6043161313
 10
-12.2016048007
 20
7.6509356032
 10
-12.146521628
 20
7.6925749963
  0
LWPOLYLINE
  5
267
100
AcDbEntity
  8
RACCORDO
100
AcDbPolyline
 62
7
  6
CONTINUOUS
 90
16
 70
0
 10
-14.0966109256
 20
6.5854889025
 10
-14.0083696778
 20
6.7054168552
 10
-13.920842447
 20
6.8220063847
 10
-13.834029233
 20
6.935257491
 10
-13.7480336514
 20
7.0454337212
 10
-13.6627520866
 20
7.1522715282
 10
-13.5778736924
 20
7.2549802707
 10
-13.4932453847
 20
7.3536643695
 10
-13.4090202475
 20
7.4482194038
 10
-13.3253466864
 20
7.5375414702
 10
-13.2419977159
 20
7.6217107915
 10
-13.1592003215
 20
7.7006471448
 10
-13.0777838652
 20
7.7730059582
 10
-12.998024801
 20
7.8383390411
 10
-12.9196466749
 20
7.8970945841
 10
-12.842649487
 20
7.9492725872
  0
LWPOLYLINE
  5
268
100
AcDbEntity
  8
RACCORDO
100
AcDbPolyline
 62
7
  6
CONTINUOUS
 90
9
 70
0
 10
-11.9691187477
 20
8.5060857184
 10
-11.9323760217
 20
8.5343274191
 10
-11.9006630707
 20
8.5591465665
 10
-11.8743481139
 20
8.5808466945
 10
-11.8542381528
 20
8.6000563033
 10
-11.8399380624
 20
8.6170054988
 10
-11.8299319905
 20
8.631320089
 10
-11.8241187232
 20
8.6432260152
 10
-11.8226924057
 20
8.6525438408
  0
LWPOLYLINE
  5
269
100
AcDbEntity
  8
RACCORDO
100
AcDbPolyline
 62
7
  6
CONTINUOUS
 90
9
 70
0
 10
-11.9691187477
 20
8.5060857184
 10
-11.9711817273
 20
8.5046354355
 10
-11.9732564624
 20
8.5031937604
 10
-11.9753429531
 20
8.501760693
 10
-11.9774412707
 20
8.5003361855
 10
-11.9795513438
 20
8.4989202857
 10
-11.9816729583
 20
8.4975131375
 10
-11.9838060426
 20
8.4961147887
 10
-11.9859506682
 20
8.4947251914
  0
LWPOLYLINE
  5
26A
100
AcDbEntity
  8
RACCORDO
100
AcDbPolyline
 62
250
  6
CONTINUOUS
 90
10
 70
0
 10
-14.9764495153
 20
0.9156736991
 10
-14.9244060268
 20
0.6841426498
 10
-14.8608053006
 20
0.4634707912
 10
-14.7856473366
 20
0.2536581231
 10
-14.6987610102
 20
0.054400887
 10
-14.600317446
 20
-0.1339971586
 10
-14.4908300186
 20
-0.3106247373
 10
-14.3704698529
 20
-0.4751780906
 10
-14.239065824
 20
-0.6279609771
 10
-14.0966179319
 20
-0.7689733968
  0
LINE
  5
26B
100
AcDbEntity
  8
RACCORDO
100
AcDbLine
 62
250
  6
CONTINUOUS
 10
-12.6222220292
 20
-33.2183190462
 11
-12.6174958149
 21
-33.2567262494
  0
LWPOLYLINE
  5
26C
100
AcDbEntity
  8
RACCORDO
100
AcDbPolyline
 62
250
  6
CONTINUOUS
 90
17
 70
0
 10
-12.6174958149
 20
-33.2567262494
 10
-12.615334604
 20
-33.2748821067
 10
-12.6133578744
 20
-33.2923785564
 10
-12.6115724932
 20
-33.3092365322
 10
-12.6100973845
 20
-33.3257852485
 10
-12.6089024617
 20
-33.3420888485
 10
-12.6080164322
 20
-33.3580768132
 10
-12.607634399
 20
-33.3738827298
 10
-12.6077632504
 20
-33.3895860274
 10
-12.6083839024
 20
-33.4051050355
 10
-12.6096471736
 20
-33.4203336433
 10
-12.6114716574
 20
-33.4353244115
 10
-12.6139264035
 20
-33.4500208035
 10
-12.6173874793
 20
-33.4641527622
 10
-12.621975725
 20
-33.4776284558
 10
-12.6275568212
 20
-33.4905342528
 10
-12.634123784
 20
-33.5028670131
  0
LWPOLYLINE
  5
26D
100
AcDbEntity
  8
RACCORDO
100
AcDbPolyline
 62
250
  6
CONTINUOUS
 90
13
 70
0
 10
-12.745471859
 20
-32.4221580354
 10
-12.742241781
 20
-32.4501382314
 10
-12.7356441809
 20
-32.4803295449
 10
-12.7257915274
 20
-32.5122171955
 10
-12.7128519371
 20
-32.5452576689
 10
-12.697045877
 20
-32.5788874061
 10
-12.6786424652
 20
-32.6125324018
 10
-12.6579552064
 20
-32.645618703
 10
-12.635337197
 20
-32.6775824376
 10
-12.6111747406
 20
-32.7078788655
 10
-12.5858800596
 20
-32.7359915475
 10
-12.5598842464
 20
-32.7614411325
 10
-12.5336305442
 20
-32.7837937804
  0
LWPOLYLINE
  5
26E
100
AcDbEntity
  8
RACCORDO
100
AcDbPolyline
 62
250
  6
CONTINUOUS
 90
18
 70
0
 10
-14.8134224446
 20
42.5153312318
 10
-14.8039504143
 20
42.397505277
 10
-14.7924595883
 20
42.2769907324
 10
-14.7789410906
 20
42.1539048437
 10
-14.7634398473
 20
42.0286156207
 10
-14.7459197777
 20
41.9010237399
 10
-14.7262648045
 20
41.7705779501
 10
-14.7045632408
 20
41.6373460092
 10
-14.6808243158
 20
41.5016353056
 10
-14.6548470195
 20
41.3633160092
 10
-14.6267706791
 20
41.2223182403
 10
-14.5967378335
 20
41.0792268982
 10
-14.5646266072
 20
40.9349719813
 10
-14.5306663336
 20
40.7893244862
 10
-14.4952464263
 20
40.6431561386
 10
-14.4585990505
 20
40.4990840282
 10
-14.421159666
 20
40.3581834803
 10
-14.3464782843
 20
40.084741783
  0
LINE
  5
26F
100
AcDbEntity
  8
RACCORDO
100
AcDbLine
 62
250
  6
CONTINUOUS
 10
-11.9881068351
 20
39.2445415175
 11
-11.9881068351
 21
8.4933443457
  0
LINE
  5
270
100
AcDbEntity
  8
RACCORDO
100
AcDbLine
 62
250
  6
CONTINUOUS
 10
-11.9881068351
 20
-1.3453514032
 11
-11.9881068351
 21
-31.9022573679
  0
LINE
  5
271
100
AcDbEntity
  8
RACCORDO
100
AcDbLine
 62
7
  6
CONTINUOUS
 10
-11.8226721383
 20
39.1275615216
 11
-11.8226721383
 21
8.6525323278
  0
LINE
  5
272
100
AcDbEntity
  8
RACCORDO
100
AcDbLine
 62
7
  6
CONTINUOUS
 10
-11.8226721383
 20
-1.4623313991
 11
-11.8226721383
 21
-31.6395008681
  0
LWPOLYLINE
  5
273
100
AcDbEntity
  8
RACCORDO
100
AcDbPolyline
 62
250
  6
CONTINUOUS
 90
8
 70
0
 10
-11.8226721383
 20
-31.6395008681
 10
-11.8228435005
 20
-31.6487564826
 10
-11.8291740986
 20
-31.6963325709
 10
-11.8445199912
 20
-31.7428704116
 10
-11.8686008224
 20
-31.7875198579
 10
-11.9009766683
 20
-31.8294652549
 10
-11.9410560681
 20
-31.8679403414
 10
-11.9881068351
 20
-31.902242258
  0
LWPOLYLINE
  5
274
100
AcDbEntity
  8
RACCORDO
100
AcDbPolyline
 62
250
  6
CONTINUOUS
 90
16
 70
0
 10
-11.9881078355
 20
-31.9022580553
 10
-11.9889073051
 20
-31.9266869352
 10
-11.9871005982
 20
-31.9522793763
 10
-11.9827452509
 20
-31.9787696762
 10
-11.9759393591
 20
-32.0058778985
 10
-11.9667690514
 20
-32.033321046
 10
-11.9552985345
 20
-32.0608186222
 10
-11.941641386
 20
-32.0880832061
 10
-11.925970331
 20
-32.1148164277
 10
-11.9084589597
 20
-32.1407220861
 10
-11.8892816578
 20
-32.1654998728
 10
-11.8686491955
 20
-32.1888876548
 10
-11.8468087516
 20
-32.2106584462
 10
-11.823990193
 20
-32.2305724697
 10
-11.8004047179
 20
-32.2483812947
 10
-11.7762802231
 20
-32.2638688782
  0
LWPOLYLINE
  5
275
100
AcDbEntity
  8
RACCORDO
100
AcDbPolyline
 62
250
  6
CONTINUOUS
 90
10
 70
0
 10
-14.8134224429
 20
-37.0508692263
 10
-14.8384822028
 20
-37.3610996674
 10
-14.8622300761
 20
-37.6742157845
 10
-14.8843624429
 20
-37.9901477452
 10
-14.9045614458
 20
-38.3098497384
 10
-14.9224982223
 20
-38.6322566582
 10
-14.9378843825
 20
-38.9543470485
 10
-14.9504570275
 20
-39.275172653
 10
-14.9599304214
 20
-39.5957966981
 10
-14.9660343822
 20
-39.9162928974
  0
LWPOLYLINE
  5
276
100
AcDbEntity
  8
RACCORDO
100
AcDbPolyline
 62
250
  6
CONTINUOUS
 90
7
 70
0
 10
-4.2431754797
 20
52.3164791346
 10
-4.2583822164
 20
52.1972644947
 10
-4.2602822643
 20
52.0807446059
 10
-4.2488740405
 20
51.9669000959
 10
-4.2241555534
 20
51.8557100217
 10
-4.1861244096
 20
51.7471518737
 10
-4.1347778224
 20
51.6412015783
  0
LINE
  5
277
100
AcDbEntity
  8
RACCORDO
100
AcDbLine
 62
250
  6
CONTINUOUS
 10
-3.8616798724
 20
52.5292984946
 11
-3.9233030784
 21
52.1355425362
  0
LWPOLYLINE
  5
278
100
AcDbEntity
  8
RACCORDO
100
AcDbPolyline
 62
250
  6
CONTINUOUS
 90
13
 70
0
 10
-14.976446261
 20
0.9156711459
 10
-14.8980975952
 20
0.9710528982
 10
-14.8124348853
 20
1.0188205056
 10
-14.7208290904
 20
1.0582093726
 10
-14.6247462973
 20
1.0885889976
 10
-14.5257243006
 20
1.1094730526
 10
-14.4253479951
 20
1.1205271856
 10
-14.3252239083
 20
1.121574386
 10
-14.2269546018
 20
1.1125978038
 10
-14.1321130565
 20
1.0937410564
 10
-14.0422173206
 20
1.0653059205
 10
-13.9587062218
 20
1.0277474653
 10
-13.8829164467
 20
0.9816667942
  0
LINE
  5
279
100
AcDbEntity
  8
RACCORDO
100
AcDbLine
 62
7
  6
CONTINUOUS
 10
-12.842649492
 20
7.9492725882
 11
-11.9859506682
 21
8.4947251914
  0
LWPOLYLINE
  5
27A
100
AcDbEntity
  8
RACCORDO
100
AcDbPolyline
 62
250
  6
CONTINUOUS
 90
13
 70
0
 10
-15.0212160705
 20
2.7458678138
 10
-14.941722471
 20
2.7843104609
 10
-14.8562719998
 20
2.8157200432
 10
-14.7661030087
 20
2.8396413719
 10
-14.6725222306
 20
2.8557277783
 10
-14.5768858421
 20
2.8637461372
 10
-14.4805798097
 20
2.8635802454
 10
-14.3849998044
 20
2.8552325068
 10
-14.2915309758
 20
2.8388238973
 10
-14.2015278779
 20
2.8145922113
 10
-14.1162948395
 20
2.7828886151
 10
-14.0370670613
 20
2.7441725589
 10
-13.9649927157
 20
2.6990051172
  0
LWPOLYLINE
  5
27B
100
AcDbEntity
  8
RACCORDO
100
AcDbPolyline
 62
250
  6
CONTINUOUS
 90
13
 70
0
 10
-14.9764109645
 20
3.7804565113
 10
-14.8980647692
 20
3.8126596026
 10
-14.812406066
 20
3.8376200383
 10
-14.7208056099
 20
3.8549383817
 10
-14.6247292386
 20
3.8643374886
 10
-14.5257144161
 20
3.8656669421
 10
-14.4253456289
 20
3.85890546
 10
-14.3252290303
 20
3.8441612352
 10
-14.2269667379
 20
3.8216702045
 10
-14.1321311961
 20
3.791792273
 10
-14.0422400125
 20
3.7550055547
 10
-13.9587316723
 20
3.7118987213
 10
-13.8829425193
 20
3.6631615823
  0
LWPOLYLINE
  5
27C
100
AcDbEntity
  8
RACCORDO
100
AcDbPolyline
 62
250
  6
CONTINUOUS
 90
10
 70
0
 10
3.8639653056
 20
-50.2577705888
 10
3.8540160401
 20
-50.2257797571
 10
3.84008604
 20
-50.1945683504
 10
3.8222464644
 20
-50.1642958115
 10
3.8005884434
 20
-50.1351167875
 10
3.7752226125
 20
-50.1071803395
 10
3.746278548
 20
-50.0806291813
 10
3.7139041048
 20
-50.0555989506
 10
3.6782646608
 20
-50.0322175154
 10
3.6395422727
 20
-50.0106043217
  0
LWPOLYLINE
  5
27D
100
AcDbEntity
  8
RACCORDO
100
AcDbPolyline
 62
250
  6
CONTINUOUS
 90
9
 70
0
 10
5.2514636807
 20
-56.6085222337
 10
5.3387977144
 20
-56.9000063115
 10
5.4478198197
 20
-57.1718185652
 10
5.5779046141
 20
-57.4223998005
 10
5.7283058933
 20
-57.6503126102
 10
5.8981609118
 20
-57.8542496202
 10
6.0864953314
 20
-58.0330409881
 10
6.2922288112
 20
-58.1856611146
 10
6.394884081
 20
-58.2482634608
  0
LWPOLYLINE
  5
27E
100
AcDbEntity
  8
RACCORDO
100
AcDbPolyline
 62
250
  6
CONTINUOUS
 90
10
 70
0
 10
4.3505045375
 20
-53.575251543
 10
4.2401139057
 20
-53.1778604518
 10
4.1375775702
 20
-52.7792841074
 10
4.0427622528
 20
-52.379730396
 10
3.9550398218
 20
-51.978068164
 10
3.8748031394
 20
-51.5758076176
 10
3.8032961233
 20
-51.1772233136
 10
3.7406761409
 20
-50.7839817394
 10
3.6861843334
 20
-50.3950184857
 10
3.6217834077
 20
-49.8655309956
  0
LWPOLYLINE
  5
27F
100
AcDbEntity
  8
RACCORDO
100
AcDbPolyline
 62
250
  6
CONTINUOUS
 90
12
 70
0
 10
-13.8829332399
 20
0.9816521611
 10
-13.8343514044
 20
0.7666105568
 10
-13.7743520833
 20
0.5610277302
 10
-13.7030431374
 20
0.3653031046
 10
-13.6205413579
 20
0.1798048125
 10
-13.5270077534
 20
0.0049036316
 10
-13.4226497992
 20
-0.1590304732
 10
-13.3076605024
 20
-0.3116819099
 10
-13.1822516744
 20
-0.4527642733
 10
-13.0466897174
 20
-0.5819867782
 10
-12.9012352416
 20
-0.6990972163
 10
-12.8649467543
 20
-0.7253316601
  0
LWPOLYLINE
  5
280
100
AcDbEntity
  8
RACCORDO
100
AcDbPolyline
 62
250
  6
CONTINUOUS
 90
10
 70
0
 10
-14.9660473477
 20
46.0688895195
 10
-14.9172007222
 20
45.6336767102
 10
-14.8634359154
 20
45.2050547937
 10
-14.8048368466
 20
44.7830718575
 10
-14.7410649103
 20
44.3665995674
 10
-14.6726026922
 20
43.9568699209
 10
-14.6008939626
 20
43.5573786253
 10
-14.5266175435
 20
43.1692121809
 10
-14.4495470417
 20
42.7911449053
 10
-14.3698926743
 20
42.4231081525
  0
LWPOLYLINE
  5
281
100
AcDbEntity
  8
RACCORDO
100
AcDbPolyline
 62
250
  6
CONTINUOUS
 90
4
 70
0
 10
-3.9233027921
 20
52.1355414339
 10
-3.93245982
 20
52.0250101223
 10
-3.9312546094
 20
51.9162354157
 10
-3.9209612361
 20
51.8178647672
  0
LWPOLYLINE
  5
282
100
AcDbEntity
  8
RACCORDO
100
AcDbPolyline
 62
250
  6
CONTINUOUS
 90
4
 70
0
 10
-14.3465025791
 20
-34.5865299065
 10
-14.3923277618
 20
-34.8066973544
 10
-14.4385580472
 20
-35.0173541036
 10
-14.5273068873
 20
-35.4129011006
  0
LWPOLYLINE
  5
283
100
AcDbEntity
  8
RACCORDO
100
AcDbPolyline
 62
250
  6
CONTINUOUS
 90
10
 70
0
 10
-14.6060943057
 20
-35.7759437961
 10
-14.6411993248
 20
-35.9433902095
 10
-14.6729447882
 20
-36.1027463605
 10
-14.7018041558
 20
-36.2550171029
 10
-14.7277404739
 20
-36.4003473254
 10
-14.7505332383
 20
-36.5393413058
 10
-14.7704807064
 20
-36.6735188774
 10
-14.7876718448
 20
-36.8035390718
 10
-14.8019817558
 20
-36.9292490438
 10
-14.8134224429
 20
-37.0508692263
  0
LINE
  5
284
100
AcDbEntity
  8
RACCORDO
100
AcDbLine
 62
250
  6
CONTINUOUS
 10
-14.5273068873
 20
-35.4129011006
 11
-14.6060943057
 21
-35.7759437961
  0
LWPOLYLINE
  5
285
100
AcDbEntity
  8
RACCORDO
100
AcDbPolyline
 62
250
  6
CONTINUOUS
 90
10
 70
0
 10
-14.3698913219
 20
-37.2760122797
 10
-14.4482350008
 20
-37.5720474236
 10
-14.5244945806
 20
-37.8685555385
 10
-14.5983916548
 20
-38.1652650163
 10
-14.6701057933
 20
-38.4625808989
 10
-14.7388557941
 20
-38.7594959644
 10
-14.803070717
 20
-39.0537140663
 10
-14.862205855
 20
-39.3443850084
 10
-14.9165720867
 20
-39.6319810424
 10
-14.9660367963
 20
-39.9162948281
  0
LWPOLYLINE
  5
286
100
AcDbEntity
  8
RACCORDO
100
AcDbPolyline
 62
250
  6
CONTINUOUS
 90
18
 70
0
 10
5.2514636216
 20
34.9437614337
 10
5.3387978256
 20
35.2282468998
 10
5.4478200837
 20
35.5244807312
 10
5.577905013
 20
35.8307636455
 10
5.7283064091
 20
36.1453387158
 10
5.8981615262
 20
36.4664014494
 10
6.0864960267
 20
36.7921101381
 10
6.2922295697
 20
37.1205964234
 10
6.5141820087
 20
37.4499760135
 10
6.7510801605
 20
37.7783594926
 10
7.0015651095
 20
38.1038631587
 10
7.264200002
 20
38.4246198293
 10
7.5374782889
 20
38.738789552
 10
7.8198323673
 20
39.0445701591
 10
8.1096425732
 20
39.3402076052
 10
8.4052464722
 20
39.6240060287
 10
8.7049483957
 20
39.8943374804
 10
9.007029167
 20
40.1496512615
  0
LWPOLYLINE
  5
287
100
AcDbEntity
  8
RACCORDO
100
AcDbPolyline
 62
250
  6
CONTINUOUS
 90
13
 70
0
 10
-15.0212160705
 20
1.8973396764
 10
-14.9417178889
 20
1.9357844406
 10
-14.8562629608
 20
1.9671950727
 10
-14.76608995
 20
1.9911165049
 10
-14.6725057255
 20
2.0072022431
 10
-14.5768667824
 20
2.0152193173
 10
-14.4805595997
 20
2.0150517575
 10
-14.3849799467
 20
2.0067022942
 10
-14.2915128651
 20
1.9902922229
 10
-14.2015129548
 20
1.9660597069
 10
-14.1162843148
 20
1.934356263
 10
-14.0370616737
 20
1.8956415941
 10
-13.9649927157
 20
1.8504769798
  0
LINE
  5
288
100
AcDbEntity
  8
ASSI
100
AcDbLine
 62
7
  6
CONTINUOUS
 10
3.1152027889
 20
-12.0250040567
 11
-12.8640840711
 21
-0.7259419594
  0
LINE
  5
289
100
AcDbEntity
  8
RACCORDO
100
AcDbLine
 62
250
  6
CONTINUOUS
 10
-13.9649927157
 20
1.8504769798
 11
3.1152027889
 21
-10.2270450855
  0
LINE
  5
28A
100
AcDbEntity
  8
RACCORDO
100
AcDbLine
 62
250
  6
CONTINUOUS
 10
-13.9649927157
 20
2.6989488203
 11
3.1152027889
 21
-9.3785721758
  0
LINE
  5
28B
100
AcDbEntity
  8
RACCORDO
100
AcDbLine
 62
7
  6
CONTINUOUS
 10
-12.8649467543
 20
-0.7253316601
 11
-12.8641058122
 21
-0.7259265861
  0
LWPOLYLINE
  5
28C
100
AcDbEntity
  8
RACCORDO
100
AcDbPolyline
 62
250
  6
CONTINUOUS
 90
10
 70
0
 10
4.3504713957
 20
-53.5751251218
 10
4.2790840778
 20
-53.1998343673
 10
4.2117156957
 20
-52.8248750144
 10
4.1484995922
 20
-52.4504586836
 10
4.0894078953
 20
-52.0757044734
 10
4.0346898483
 20
-51.7019227892
 10
3.984790715
 20
-51.3326538937
 10
3.9398026577
 20
-50.9692606148
 10
3.8995471754
 20
-50.6108872922
 10
3.8639581312
 20
-50.2577716851
  0
LWPOLYLINE
  5
28D
100
AcDbEntity
  8
RACCORDO
100
AcDbPolyline
 62
250
  6
CONTINUOUS
 90
4
 70
0
 10
3.8639581312
 20
-50.2577716851
 10
3.850854711
 20
-50.1171960824
 10
3.8378816099
 20
-49.970584108
 10
3.8253405497
 20
-49.8178416067
  0
LWPOLYLINE
  5
28E
100
AcDbEntity
  8
RACCORDO
100
AcDbPolyline
 62
250
  6
CONTINUOUS
 90
11
 70
0
 10
3.5892501405
 20
-49.5525022668
 10
3.5745593905
 20
-49.3844949605
 10
3.5615901109
 20
-49.2086158675
 10
3.5520955733
 20
-49.02430419
 10
3.5461905323
 20
-48.8312413571
 10
3.5445426528
 20
-48.6295464909
 10
3.5499274392
 20
-48.4192508873
 10
3.5624044914
 20
-48.1992591562
 10
3.5829652958
 20
-47.9705118002
 10
3.6158599246
 20
-47.7361078505
 10
3.6599254541
 20
-47.5118628142
  0
LINE
  5
28F
100
AcDbEntity
  8
RACCORDO
100
AcDbLine
 62
250
  6
CONTINUOUS
 10
4.7922259754
 20
-50.7662331016
 11
4.5561474811
 21
-47.9403945523
  0
LWPOLYLINE
  5
290
100
AcDbEntity
  8
RACCORDO
100
AcDbPolyline
 62
250
  6
CONTINUOUS
 90
3
 70
0
 10
3.9552036868
 20
-48.8199194344
 10
4.1405168468
 20
-51.2083176291
 10
4.3504791168
 20
-53.5752335682
  0
LWPOLYLINE
  5
291
100
AcDbEntity
  8
RACCORDO
100
AcDbPolyline
 62
250
  6
CONTINUOUS
 90
10
 70
0
 10
3.8639581467
 20
29.3084287609
 10
3.9001651324
 20
29.6313693244
 10
3.9409818654
 20
29.960003924
 10
3.9864183472
 20
30.2945185057
 10
4.036569732
 20
30.6360373216
 10
4.0913123816
 20
30.9838170746
 10
4.1502450863
 20
31.3352229784
 10
4.213123281
 20
31.689474749
 10
4.2799178355
 20
32.0476687835
 10
4.3504713891
 20
32.409956319
  0
LWPOLYLINE
  5
292
100
AcDbEntity
  8
RACCORDO
100
AcDbPolyline
 62
250
  6
CONTINUOUS
 90
10
 70
0
 10
3.6395429084
 20
29.6885133872
 10
3.6870591985
 20
29.9666271695
 10
3.7423429297
 20
30.2511060792
 10
3.8056043158
 20
30.54201876
 10
3.877507945
 20
30.8399640079
 10
3.9578417546
 20
31.1444822751
 10
4.045376247
 20
31.4539582898
 10
4.1397023973
 20
31.7677865219
 10
4.2413721618
 20
32.0864681617
 10
4.3504689821
 20
32.40995484
  0
LWPOLYLINE
  5
293
100
AcDbEntity
  8
RACCORDO
100
AcDbPolyline
 62
250
  6
CONTINUOUS
 90
7
 70
0
 10
-13.1502688
 20
-0.7118818093
 10
-13.0754169122
 20
-0.723132694
 10
-13.0038266651
 20
-0.736343277
 10
-12.9357742183
 20
-0.7514792487
 10
-12.871770653
 20
-0.768270045
 10
-12.812062194
 20
-0.7865715729
 10
-12.7567045508
 20
-0.806311363
  0
LWPOLYLINE
  5
294
100
AcDbEntity
  8
RACCORDO
100
AcDbPolyline
 62
250
  6
CONTINUOUS
 90
22
 70
0
 10
-12.581517896
 20
7.1805150477
 10
-12.6191389831
 20
7.2010499422
 10
-12.6613790663
 20
7.2172082874
 10
-12.7081489569
 20
7.2288654334
 10
-12.7592986179
 20
7.2357863025
 10
-12.8147485143
 20
7.2378977654
 10
-12.8745089258
 20
7.2352841565
 10
-12.9385921981
 20
7.2276113028
 10
-13.0066852411
 20
7.2147647387
 10
-13.0783000714
 20
7.1971254005
 10
-13.1531538871
 20
7.1743305567
 10
-13.2310950238
 20
7.1461874976
 10
-13.3118092915
 20
7.1132928706
 10
-13.3949746764
 20
7.0752595243
 10
-13.4803196129
 20
7.0317793468
 10
-13.5675506699
 20
6.9834796406
 10
-13.6565135729
 20
6.9296786388
 10
-13.7464648678
 20
6.8701596992
 10
-13.8361431739
 20
6.8062041714
 10
-13.9247226466
 20
6.7379637185
 10
-14.0118040185
 20
6.664448453
 10
-14.096687532
 20
6.5852697057
  0
LWPOLYLINE
  5
295
100
AcDbEntity
  8
RACCORDO
100
AcDbPolyline
 62
250
  6
CONTINUOUS
 90
10
 70
0
 10
-12.1465216441
 20
7.6925750166
 10
-12.2072558106
 20
7.7328568892
 10
-12.2721671219
 20
7.7702929785
 10
-12.3412555782
 20
7.8048832845
 10
-12.414552915
 20
7.8367534029
 10
-12.4920273967
 20
7.8657777379
 10
-12.5735838159
 20
7.8915795026
 10
-12.659190437
 20
7.9140331015
 10
-12.7488789957
 20
7.93326413
 10
-12.842649492
 20
7.9492725882
  0
LINE
  5
296
100
AcDbEntity
  8
RACCORDO
100
AcDbLine
 62
250
  6
CONTINUOUS
 10
3.1152027889
 20
-3.9188025042
 11
-12.5815417648
 21
7.1804720113
  0
LINE
  5
297
100
AcDbEntity
  8
RACCORDO
100
AcDbLine
 62
250
  6
CONTINUOUS
 10
3.1152027889
 20
-3.0990938223
 11
-12.1465216441
 21
7.6925750166
  0
LINE
  5
298
100
AcDbEntity
  8
RACCORDO
100
AcDbLine
 62
250
  6
CONTINUOUS
 10
3.1152027889
 20
-2.1601403297
 11
-11.9691187477
 21
8.5060857184
  0
LINE
  5
299
100
AcDbEntity
  8
RACCORDO
100
AcDbLine
 62
7
  6
CONTINUOUS
 10
3.1152027889
 20
-1.9013212846
 11
-11.8298728585
 21
8.666443051
  0
LWPOLYLINE
  5
29A
100
AcDbEntity
  8
RACCORDO
100
AcDbPolyline
 62
250
  6
CONTINUOUS
 90
19
 70
0
 10
-14.3698928135
 20
42.4231082509
 10
-14.3421799897
 20
42.3119932459
 10
-14.3108137519
 20
42.198511179
 10
-14.2756412239
 20
42.0828179891
 10
-14.2363477333
 20
41.9652003501
 10
-14.19294473
 20
41.845699044
 10
-14.1457129918
 20
41.7241575425
 10
-14.0943018854
 20
41.6006803065
 10
-14.0386209938
 20
41.4756543406
 10
-13.9792380457
 20
41.3494524763
 10
-13.9155785379
 20
41.2220458327
 10
-13.8476465275
 20
41.0941456549
 10
-13.7768252225
 20
40.9673046202
 10
-13.7023673651
 20
40.8413408468
 10
-13.6244128393
 20
40.7172542349
 10
-13.5457875147
 20
40.5982770725
 10
-13.467367993
 20
40.4856446119
 10
-13.3879548383
 20
40.3787311831
 10
-13.3073801851
 20
40.2778695161
  0
LWPOLYLINE
  5
29B
100
AcDbEntity
  8
RACCORDO
100
AcDbPolyline
 62
250
  6
CONTINUOUS
 90
3
 70
0
 10
5.4046709073
 20
-56.5372962109
 10
5.0742187317
 20
-53.6326918852
 10
4.7922259754
 20
-50.7662331016
  0
LWPOLYLINE
  5
29C
100
AcDbEntity
  8
RACCORDO
100
AcDbPolyline
 62
250
  6
CONTINUOUS
 90
3
 70
0
 10
3.6217834077
 20
-49.8655309956
 10
3.604928468
 20
-49.7128654984
 10
3.5892501405
 20
-49.5525022668
  0
LINE
  5
29D
100
AcDbEntity
  8
RACCORDO
100
AcDbLine
 62
250
  6
CONTINUOUS
 10
4.5561474811
 20
-47.9403945523
 11
4.363747772
 21
-45.1579491538
  0
LWPOLYLINE
  5
29E
100
AcDbEntity
  8
RACCORDO
100
AcDbPolyline
 62
250
  6
CONTINUOUS
 90
3
 70
0
 10
3.6586034865
 20
-43.9796961281
 10
3.7945597961
 20
-46.4102919654
 10
3.9552036868
 20
-48.8199194344
  0
LWPOLYLINE
  5
29F
100
AcDbEntity
  8
RACCORDO
100
AcDbPolyline
 62
250
  6
CONTINUOUS
 90
6
 70
0
 10
4.363747772
 20
-45.1579491538
 10
4.2123170698
 20
-42.4207756044
 10
4.0986993469
 20
-39.7298406361
 10
4.0203271706
 20
-37.0868054365
 10
3.9751960749
 20
-34.4940482685
 10
3.9610987874
 20
-31.9534579348
  0
LINE
  5
2A0
100
AcDbEntity
  8
RACCORDO
100
AcDbLine
 62
250
  6
CONTINUOUS
 10
3.5473484124
 20
-41.5283834268
 11
3.6586034865
 21
-43.9796961281
  0
LWPOLYLINE
  5
2A1
100
AcDbEntity
  8
RACCORDO
100
AcDbPolyline
 62
250
  6
CONTINUOUS
 90
5
 70
0
 10
3.3495173862
 20
-31.5209821097
 10
3.3618826512
 20
-34.0526279359
 10
3.39897963
 20
-36.5645873988
 10
3.4608041414
 20
-39.0565955054
 10
3.5473484124
 20
-41.5283834268
  0
LWPOLYLINE
  5
2A2
100
AcDbEntity
  8
RACCORDO
100
AcDbPolyline
 62
7
  6
CONTINUOUS
 90
9
 70
0
 10
3.1152028145
 20
-31.1210093388
 10
3.1263887332
 20
-33.5302168828
 10
3.1629400264
 20
-36.0787450637
 10
3.2249045473
 20
-38.6070083557
 10
3.3122814069
 20
-41.1146862342
 10
3.4250659266
 20
-43.6015014458
 10
3.5632503587
 20
-46.0672174317
 10
3.7268268464
 20
-48.5115906859
 10
3.8253483039
 20
-49.8179406685
  0
LINE
  5
2A3
100
AcDbEntity
  8
RACCORDO
100
AcDbLine
 62
7
  6
CONTINUOUS
 10
3.1152027889
 20
9.184076822
 11
3.1152027889
 21
-31.1210097056
  0
LINE
  5
2A4
100
AcDbEntity
  8
RACCORDO
100
AcDbLine
 62
250
  6
CONTINUOUS
 10
3.349517364
 20
8.7840477148
 11
3.349517364
 21
-31.520982094
  0
LINE
  5
2A5
100
AcDbEntity
  8
RACCORDO
100
AcDbLine
 62
250
  6
CONTINUOUS
 10
3.9610987958
 20
-31.9534579408
 11
3.9610987958
 21
8.3516175036
  0
LWPOLYLINE
  5
2A6
100
AcDbEntity
  8
RACCORDO
100
AcDbPolyline
 62
250
  6
CONTINUOUS
 90
9
 70
0
 10
3.9610987861
 20
8.3516175105
 10
3.975158997
 20
10.9064685583
 10
4.0202062762
 20
13.5486489923
 10
4.0984692158
 20
16.2794070729
 10
4.2119722478
 20
19.0999163155
 10
4.3633091825
 20
22.0114615797
 10
4.5556688548
 20
25.0154526367
 10
4.7917898994
 20
28.1131586315
 10
5.0739326522
 20
31.3056860532
  0
LWPOLYLINE
  5
2A7
100
AcDbEntity
  8
RACCORDO
100
AcDbPolyline
 62
7
  6
CONTINUOUS
 90
8
 70
0
 10
3.7273097896
 20
27.5397734053
 10
3.5637534761
 20
24.8408203047
 10
3.4255482028
 20
22.1600293835
 10
3.3127084256
 20
19.4976630634
 10
3.22524847
 20
16.853977508
 10
3.1631795256
 20
14.2292625967
 10
3.1265088931
 20
11.6238448764
 10
3.1152028182
 20
9.1840765678
  0
LINE
  5
2A8
100
AcDbEntity
  8
RACCORDO
100
AcDbLine
 62
7
  6
CONTINUOUS
 10
3.7273097896
 20
27.5397734053
 11
3.799372755
 21
28.617738496
  0
LWPOLYLINE
  5
2A9
100
AcDbEntity
  8
RACCORDO
100
AcDbPolyline
 62
250
  6
CONTINUOUS
 90
9
 70
0
 10
4.1405118692
 20
29.7133923396
 10
3.9552019572
 20
27.0340448148
 10
3.7945597966
 20
24.3721939904
 10
3.6586038924
 20
21.7281208257
 10
3.5473485755
 20
19.1021025295
 10
3.4608041426
 20
16.4944126239
 10
3.3989796244
 20
13.9053248149
 10
3.3618826439
 20
11.3351128697
 10
3.3495173874
 20
8.7840476982
  0
LWPOLYLINE
  5
2AA
100
AcDbEntity
  8
RACCORDO
100
AcDbPolyline
 62
250
  6
CONTINUOUS
 90
5
 70
0
 10
3.799372755
 20
28.617738496
 10
3.8038315262
 20
28.6794054846
 10
3.8125874181
 20
28.7884240392
 10
3.8220652904
 20
28.895088193
 10
3.8321192944
 20
29.0003230074
  0
LWPOLYLINE
  5
2AB
100
AcDbEntity
  8
RACCORDO
100
AcDbPolyline
 62
250
  6
CONTINUOUS
 90
22
 70
0
 10
5.4046709073
 20
34.5941764781
 10
5.4058170206
 20
34.6097470963
 10
5.4060176252
 20
34.625796924
 10
5.4052726923
 20
34.6423259439
 10
5.4035723126
 20
34.659415709
 10
5.4009263465
 20
34.6769846368
 10
5.3973643882
 20
34.6947879873
 10
5.3928730357
 20
34.7128280777
 10
5.3874655746
 20
34.7311025206
 10
5.3812115727
 20
34.7493594849
 10
5.3740985794
 20
34.7675994081
 10
5.36613889
 20
34.7858217588
 10
5.35743915
 20
34.8037732272
 10
5.3479884247
 20
34.8214502894
 10
5.3377974801
 20
34.8388563674
 10
5.3270054862
 20
34.855748555
 10
5.3156010816
 20
34.8721221582
 10
5.3035954742
 20
34.8879817783
 10
5.2911616792
 20
34.9030984467
 10
5.2783573278
 20
34.9173958161
 10
5.2651246755
 20
34.9309501653
 10
5.2514636816
 20
34.9437614699
  0
LINE
  5
2AC
100
AcDbEntity
  8
RACCORDO
100
AcDbLine
 62
250
  6
CONTINUOUS
 10
4.3504689821
 20
32.40995484
 11
4.1405118692
 21
29.7133923396
  0
LINE
  5
2AD
100
AcDbEntity
  8
RACCORDO
100
AcDbLine
 62
250
  6
CONTINUOUS
 10
5.0739326522
 20
31.3056860532
 11
5.4046709073
 21
34.5941764781
  0
LWPOLYLINE
  5
2AE
100
AcDbEntity
  8
RACCORDO
100
AcDbPolyline
 62
250
  6
CONTINUOUS
 90
3
 70
0
 10
3.8321192944
 20
29.0003230074
 10
3.8532559408
 20
29.2071437527
 10
3.8639581467
 20
29.3084287609
  0
LWPOLYLINE
  5
2AF
100
AcDbEntity
  8
RACCORDO
100
AcDbPolyline
 62
250
  6
CONTINUOUS
 90
3
 70
0
 10
-13.3073801913
 20
-34.9078272302
 10
-13.4085892243
 20
-35.1402147649
 10
-13.5061164254
 20
-35.3601595404
  0
LWPOLYLINE
  5
2B0
100
AcDbEntity
  8
RACCORDO
100
AcDbPolyline
 62
250
  6
CONTINUOUS
 90
5
 70
0
 10
-13.5061164254
 20
-35.3601595404
 10
-13.6004405438
 20
-35.5675363891
 10
-13.6935139174
 20
-35.7617156205
 10
-13.7843331808
 20
-35.9432046765
 10
-14.0207021993
 20
-36.4211379617
  0
LWPOLYLINE
  5
2B1
100
AcDbEntity
  8
RACCORDO
100
AcDbPolyline
 62
250
  6
CONTINUOUS
 90
8
 70
0
 10
-14.0207021993
 20
-36.4211379617
 10
-14.0878216706
 20
-36.5616575358
 10
-14.1487809396
 20
-36.6945745467
 10
-14.2043565981
 20
-36.819929522
 10
-14.2540747732
 20
-36.9404089778
 10
-14.2979123985
 20
-37.0569428029
 10
-14.3364276246
 20
-37.1687747178
 10
-14.369891334
 20
-37.2760122711
  0
LWPOLYLINE
  5
2B2
100
AcDbEntity
  8
RACCORDO
100
AcDbPolyline
 62
250
  6
CONTINUOUS
 90
7
 70
0
 10
-13.609475316
 20
-33.038204931
 10
-13.7480628091
 20
-33.295315348
 10
-13.8803507612
 20
-33.5527989165
 10
-14.0063391722
 20
-33.8106556365
 10
-14.1260280422
 20
-34.0688855081
 10
-14.2394173711
 20
-34.3274885311
 10
-14.3465071591
 20
-34.5864647057
  0
LWPOLYLINE
  5
2B3
100
AcDbEntity
  8
RACCORDO
100
AcDbPolyline
 62
250
  6
CONTINUOUS
 90
7
 70
0
 10
-12.6341227218
 20
-33.5028677642
 10
-12.760889982
 20
-33.7365009991
 10
-12.8820205452
 20
-33.9707241321
 10
-12.9973699584
 20
-34.2052532496
 10
-13.1067999224
 20
-34.4398036263
 10
-13.2101784788
 20
-34.6740900635
 10
-13.3073801913
 20
-34.9078272302
  0
LWPOLYLINE
  5
2B4
100
AcDbEntity
  8
RACCORDO
100
AcDbPolyline
 62
250
  6
CONTINUOUS
 90
29
 70
0
 10
-13.609475316
 20
-33.038204931
 10
-13.5953298839
 20
-33.0140661416
 10
-13.5803979088
 20
-32.9905238453
 10
-13.5646793908
 20
-32.9675780421
 10
-13.5480481276
 20
-32.9451368206
 10
-13.5306303214
 20
-32.9232920922
 10
-13.5128045786
 20
-32.9023195915
 10
-13.4946150053
 20
-32.8823384226
 10
-13.4760174954
 20
-32.8632294814
 10
-13.457258337
 20
-32.8449111908
 10
-13.438460898
 20
-32.827455653
 10
-13.4195018103
 20
-32.8107907657
 10
-13.4002572581
 20
-32.7946186449
 10
-13.3807999242
 20
-32.7789478363
 10
-13.3610571257
 20
-32.7637697943
 10
-13.3406869977
 20
-32.7487609977
 10
-13.3196470227
 20
-32.7338575862
 10
-13.2979797182
 20
-32.7191234202
 10
-13.2754707715
 20
-32.7044265603
 10
-13.2519432284
 20
-32.6896650839
 10
-13.2275740431
 20
-32.6749409136
 10
-13.2026797656
 20
-32.6604278781
 10
-13.1771166998
 20
-32.6460911987
 10
-13.1510285417
 20
-32.6319656542
 10
-13.1251629293
 20
-32.6183294094
 10
-13.0995857845
 20
-32.6052505392
 10
-13.0742311854
 20
-32.5926609686
 10
-13.0496490033
 20
-32.5806346386
 10
-13.0259752461
 20
-32.5692344977
  0
LWPOLYLINE
  5
2B5
100
AcDbEntity
  8
RACCORDO
100
AcDbPolyline
 62
250
  6
CONTINUOUS
 90
12
 70
0
 10
-14.096692959
 20
-0.7688665578
 10
-14.0107275989
 20
-0.7461652813
 10
-13.9227338708
 20
-0.7271887775
 10
-13.8334586864
 20
-0.712079533
 10
-13.7434105874
 20
-0.7011411785
 10
-13.6533755537
 20
-0.6940788931
 10
-13.5644094447
 20
-0.6901307986
 10
-13.4772169336
 20
-0.6892109238
 10
-13.3919924523
 20
-0.6912639988
 10
-13.3089217192
 20
-0.6957528311
 10
-13.2282233405
 20
-0.7026380777
 10
-13.1502688
 20
-0.7118818093
  0
LWPOLYLINE
  5
2B6
100
AcDbEntity
  8
RACCORDO
100
AcDbPolyline
 62
7
  6
CONTINUOUS
 90
9
 70
0
 10
-13.4700732752
 20
-0.7657463969
 10
-13.48814077
 20
-0.7681859663
 10
-13.5728773646
 20
-0.7775019651
 10
-13.6581200719
 20
-0.7830758451
 10
-13.7439961488
 20
-0.7850159927
 10
-13.8307586661
 20
-0.7844618749
 10
-13.9184919809
 20
-0.7817933142
 10
-14.0071117362
 20
-0.7766304881
 10
-14.0966179319
 20
-0.7689733968
  0
LWPOLYLINE
  5
2B7
100
AcDbEntity
  8
RACCORDO
100
AcDbPolyline
 62
7
  6
CONTINUOUS
 90
12
 70
0
 10
-13.4701213531
 20
-0.7658646271
 10
-13.4104576035
 20
-0.7582781338
 10
-13.3370291496
 20
-0.7513673068
 10
-13.2640865111
 20
-0.7471978803
 10
-13.1919937132
 20
-0.7458041954
 10
-13.1212138878
 20
-0.7471976342
 10
-13.0518675869
 20
-0.7513839093
 10
-12.9844443479
 20
-0.7583652264
 10
-12.9197804242
 20
-0.7680597405
 10
-12.858663804
 20
-0.7802916613
 10
-12.8014379552
 20
-0.7948906183
 10
-12.7493942986
 20
-0.8113339858
  0
LINE
  5
2B8
100
AcDbEntity
  8
0
100
AcDbLine
 62
7
  6
CONTINUOUS
 10
-11.8226721383
 20
9.2025323278
 11
3.1152027889
 21
-1.3601403297
  0
LINE
  5
2B9
100
AcDbEntity
  8
RACCORDO
100
AcDbLine
 62
7
  6
CONTINUOUS
 10
-11.8226721383
 20
9.9525323278
 11
3.1152027889
 21
-0.6101403297
  0
LINE
  5
2BA
100
AcDbEntity
  8
RACCORDO
100
AcDbLine
 62
7
  6
CONTINUOUS
 10
-3.9209612361
 20
51.8178647672
 11
-3.9209421976
 21
51.8177385217
  0
LWPOLYLINE
  5
2BB
100
AcDbEntity
  8
RACCORDO
100
AcDbPolyline
 62
250
  6
CONTINUOUS
 90
7
 70
0
 10
11.8980233926
 20
-47.9621874634
 10
11.7074802885
 20
-45.2241595683
 10
11.5597682278
 20
-42.5283988448
 10
11.4470888309
 20
-39.8801620113
 10
11.3668426379
 20
-37.2812013073
 10
11.3216291086
 20
-34.7297644934
 10
11.3114482431
 20
-32.2258515696
  0
LWPOLYLINE
  5
2BC
100
AcDbEntity
  8
RACCORDO
100
AcDbPolyline
 62
250
  6
CONTINUOUS
 90
22
 70
0
 10
3.9610987958
 20
8.3516234443
 10
4.2418614329
 20
8.1664920033
 10
4.540203465
 20
7.9956602277
 10
4.8546713997
 20
7.8399603926
 10
5.1837331809
 20
7.700151052
 10
5.5257856527
 20
7.5769133431
 10
5.8791623698
 20
7.4708476674
 10
6.2421417163
 20
7.3824707663
 10
6.6129552934
 20
7.3122132033
 10
6.9897965345
 20
7.260417266
 10
7.3708295071
 20
7.2273352991
 10
7.7541978568
 20
7.2131284746
 10
8.1380338516
 20
7.2178660068
 10
8.520467481
 20
7.2415248148
 10
8.8996355668
 20
7.2839896352
 10
9.2736908403
 20
7.3450535839
 10
9.6408109418
 20
7.4244191633
 10
9.999207299
 20
7.5216997124
 10
10.3471338409
 20
7.63642129
 10
10.6828955043
 20
7.7680249842
 10
11.0048564923
 20
7.915869635
 10
11.3114482431
 20
8.0792349581
  0
LINE
  5
2BD
100
AcDbEntity
  8
RACCORDO
100
AcDbLine
 62
250
  6
CONTINUOUS
 10
-16.0774394254
 20
22.5209805983
 11
-16.6890208572
 21
22.9534569896
  0
LINE
  5
2BE
100
AcDbEntity
  8
RACCORDO
100
AcDbLine
 62
250
  6
CONTINUOUS
 10
3.9610987958
 20
8.3516175036
 11
3.349517364
 21
8.7840477148
  0
LWPOLYLINE
  5
2BF
100
AcDbEntity
  8
RACCORDO
100
AcDbPolyline
 62
250
  6
CONTINUOUS
 90
13
 70
0
 10
-16.6890208572
 20
22.9534630833
 10
-16.9508362519
 20
23.1519922479
 10
-17.1924288659
 20
23.3629519219
 10
-17.4126216844
 20
23.585314331
 10
-17.6103419499
 20
23.817996148
 10
-17.7846263894
 20
24.0598637703
 10
-17.9346259064
 20
24.3097388432
 10
-18.0596097185
 20
24.5664040006
 10
-18.158968917
 20
24.8286087955
 10
-18.2322194339
 20
25.0950757926
 10
-18.2790044002
 20
25.3645067914
 10
-18.299095884
 20
25.6355891511
 10
-18.2999335607
 20
25.7034600239
  0
LWPOLYLINE
  5
2C0
100
AcDbEntity
  8
RACCORDO
100
AcDbPolyline
 62
250
  6
CONTINUOUS
 90
8
 70
0
 10
3.349517364
 20
8.784076822
 10
3.28265113
 20
8.8377544298
 10
3.2258994606
 20
8.8969697675
 10
3.1801698208
 20
8.9607759759
 10
3.1461934322
 20
9.0281527873
 10
3.1245135806
 20
9.0980228397
 10
3.115476929
 20
9.1692689039
 10
3.1152027889
 20
9.1840765678
  0
LINE
  5
2C1
100
AcDbEntity
  8
RACCORDO
100
AcDbLine
 62
250
  6
CONTINUOUS
 10
-3.7218196725
 20
51.3838036433
 11
-3.8150937549
 21
51.7239376899
  0
LINE
  5
2C2
100
AcDbEntity
  8
RACCORDO
100
AcDbLine
 62
250
  6
CONTINUOUS
 10
-3.8150937549
 20
51.7239376899
 11
-3.8606912147
 21
51.8939743368
  0
LWPOLYLINE
  5
2C3
100
AcDbEntity
  8
RACCORDO
100
AcDbPolyline
 62
250
  6
CONTINUOUS
 90
3
 70
0
 10
-3.8606912147
 20
51.8939743368
 10
-3.9032985266
 20
52.0567978867
 10
-3.9233030784
 20
52.1355425362
  0
LWPOLYLINE
  5
2C4
100
AcDbEntity
  8
RACCORDO
100
AcDbPolyline
 62
250
  6
CONTINUOUS
 90
10
 70
0
 10
3.8639574914
 20
29.3084287186
 10
3.854009283
 20
29.3547637327
 10
3.8400803035
 20
29.4006020341
 10
3.8222417069
 20
29.4457094654
 10
3.8005846187
 20
29.4898556024
 10
3.7752196705
 20
29.5328149318
 10
3.746276435
 20
29.574368003
 10
3.713902764
 20
29.6143025486
 10
3.6782640329
 20
29.6524145696
 10
3.6395422966
 20
29.6885093769
  0
LWPOLYLINE
  5
2C5
100
AcDbEntity
  8
RACCORDO
100
AcDbPolyline
 62
250
  6
CONTINUOUS
 90
4
 70
0
 10
12.7344373448
 20
-56.4246174596
 10
12.4128016507
 20
-53.5615402893
 10
12.133997
 20
-50.7407302906
 10
11.8980233926
 20
-47.9621874634
  0
LWPOLYLINE
  5
2C6
100
AcDbEntity
  8
RACCORDO
100
AcDbPolyline
 62
250
  6
CONTINUOUS
 90
22
 70
0
 10
12.7344609626
 20
33.9076494145
 10
12.7268271841
 20
34.1897109758
 10
12.7006855962
 20
34.4836211466
 10
12.6561569052
 20
34.7880508272
 10
12.59344657
 20
35.1016345282
 10
12.5128393677
 20
35.4229409971
 10
12.4147037592
 20
35.7504772049
 10
12.2995042012
 20
36.082750492
 10
12.1677612119
 20
36.4182597407
 10
12.020048395
 20
36.7554641155
 10
11.8570375402
 20
37.0928285065
 10
11.6794827107
 20
37.4288258236
 10
11.4881845032
 20
37.7619250174
 10
11.2840202158
 20
38.0906159339
 10
11.06792184
 20
38.4134035954
 10
10.8408593096
 20
38.7288088315
 10
10.603845312
 20
39.0354223779
 10
10.3579857405
 20
39.3318259737
 10
10.1044641784
 20
39.6165947431
 10
9.8444634715
 20
39.8884199514
 10
9.5791530519
 20
40.1461054262
 10
9.3097441443
 20
40.3884936497
  0
LINE
  5
2C7
100
AcDbEntity
  8
RACCORDO
100
AcDbLine
 62
250
  6
CONTINUOUS
 10
11.3114482431
 20
-32.2258515696
 11
11.3114482431
 21
8.0792349581
  0
LINE
  5
2C8
100
AcDbEntity
  8
RACCORDO
100
AcDbLine
 62
250
  6
CONTINUOUS
 10
14.2367566051
 20
34.768120491
 11
14.2367566051
 21
-55.5646518441
  0
LINE
  5
2C9
100
AcDbEntity
  8
RACCORDO
100
AcDbLine
 62
7
  6
CONTINUOUS
 10
14.3479604878
 20
34.9329780448
 11
14.3479604878
 21
-55.3997942903
  0
LWPOLYLINE
  5
2CA
100
AcDbEntity
  8
RACCORDO
100
AcDbPolyline
 62
250
  6
CONTINUOUS
 90
10
 70
0
 10
11.3114482431
 20
8.0792349581
 10
11.3215554776
 20
10.5918898481
 10
11.3666934073
 20
13.1929071431
 10
11.4468620323
 20
15.882286843
 10
11.5594346649
 20
18.6587896422
 10
11.7070379929
 20
21.5236548463
 10
11.8975520793
 20
24.4806003724
 10
12.1336036119
 20
27.530865526
 10
12.4125659031
 20
30.6732110015
 10
12.7344389528
 20
33.9076367989
  0
LWPOLYLINE
  5
2CB
100
AcDbEntity
  8
RACCORDO
100
AcDbPolyline
 62
250
  6
CONTINUOUS
 90
8
 70
0
 10
14.3479604878
 20
34.9329780448
 10
14.3475493482
 20
34.9218759118
 10
14.3424486428
 20
34.8925013443
 10
14.3316160604
 20
34.8639146097
 10
14.315262445
 20
34.8366721163
 10
14.293706101
 20
34.8113041083
 10
14.2673665982
 20
34.7883043452
 10
14.2367566051
 20
34.768120491
  0
LWPOLYLINE
  5
2CC
100
AcDbEntity
  8
RACCORDO
100
AcDbPolyline
 62
250
  6
CONTINUOUS
 90
13
 70
0
 10
-16.0774394254
 20
22.5210097056
 10
-16.0015278235
 20
22.4737281376
 10
-15.9177846889
 20
22.433598647
 10
-15.8275490827
 20
22.4012629086
 10
-15.7322638814
 20
22.3772379739
 10
-15.633452705
 20
22.3619080041
 10
-15.5326955543
 20
22.3555181268
 10
-15.4316035463
 20
22.3581705169
 10
-15.3317931525
 20
22.3698227622
 10
-15.234860351
 20
22.390288542
 10
-15.1423551072
 20
22.4192406065
 10
-15.055756589
 20
22.456216009
 10
-14.9764495153
 20
22.5006235092
  0
LINE
  5
2CD
100
AcDbEntity
  8
RACCORDO
100
AcDbLine
 62
7
  6
CONTINUOUS
 10
-3.0915416449
 20
50.5105524515
 11
-3.4470529843
 21
51.4696792567
  0
LINE
  5
2CE
100
AcDbEntity
  8
RACCORDO
100
AcDbLine
 62
7
  6
CONTINUOUS
 10
-3.4470529843
 20
51.4696792567
 11
-3.7420753813
 21
52.2763593044
  0
LINE
  5
2CF
100
AcDbEntity
  8
RACCORDO
100
AcDbLine
 62
7
  6
CONTINUOUS
 10
-3.7420753813
 20
52.2763593044
 11
-3.8543837727
 21
52.5865101022
  0
LINE
  5
2D0
100
AcDbEntity
  8
RACCORDO
100
AcDbLine
 62
250
  6
CONTINUOUS
 10
-3.3861552636
 20
51.095989296
 11
-3.2560506885
 21
50.7132610557
  0
LINE
  5
2D1
100
AcDbEntity
  8
RACCORDO
100
AcDbLine
 62
250
  6
CONTINUOUS
 10
-3.5487485373
 20
51.5803596723
 11
-3.3861552636
 21
51.095989296
  0
LINE
  5
2D2
100
AcDbEntity
  8
RACCORDO
100
AcDbLine
 62
250
  6
CONTINUOUS
 10
-3.8616798724
 20
52.5292984946
 11
-3.5487485373
 21
51.5803596723
  0
LWPOLYLINE
  5
2D3
100
AcDbEntity
  8
RACCORDO
100
AcDbPolyline
 62
250
  6
CONTINUOUS
 90
7
 70
0
 10
-3.8543820714
 20
52.5865060707
 10
-3.8530448861
 20
52.5822441228
 10
-3.8514321874
 20
52.5731875909
 10
-3.8513377289
 20
52.5633517148
 10
-3.8529157155
 20
52.552734633
 10
-3.8563124804
 20
52.5413712236
 10
-3.8616646455
 20
52.52929832
  0
LINE
  5
2D4
100
AcDbEntity
  8
RACCORDO
100
AcDbLine
 62
250
  6
CONTINUOUS
 10
3.6886933937
 20
47.1796624166
 11
3.7018614496
 21
47.1213084888
  0
LWPOLYLINE
  5
2D5
100
AcDbEntity
  8
RACCORDO
100
AcDbPolyline
 62
7
  6
CONTINUOUS
 90
22
 70
0
 10
14.3479604878
 20
34.9329780448
 10
14.3381228872
 20
35.2304061035
 10
14.3088517847
 20
35.5379613873
 10
14.2605475317
 20
35.8543161939
 10
14.1936557053
 20
36.1781470262
 10
14.1086598817
 20
36.5081391545
 10
14.0061061494
 20
36.8428948753
 10
13.8866346745
 20
37.1808968014
 10
13.7508669419
 20
37.5208353193
 10
13.5994035155
 20
37.8615109001
 10
13.4329759882
 20
38.2014914357
 10
13.2523643148
 20
38.5393568789
 10
13.0582855476
 20
38.8738826055
 10
12.8515947863
 20
39.203664844
 10
12.6331984482
 20
39.5273096864
 10
12.4039285493
 20
39.8436045283
 10
12.1647563088
 20
40.1512009687
 10
11.9166889423
 20
40.4487842517
 10
11.6606335022
 20
40.7352206299
 10
11.3975960788
 20
41.0093080232
 10
11.1287013075
 20
41.2697876496
 10
10.8550573692
 20
41.5154943186
  0
LINE
  5
2D6
100
AcDbEntity
  8
RACCORDO
100
AcDbLine
 62
250
  6
CONTINUOUS
 10
14.22720188
 20
35.0586300783
 11
14.2367566051
 21
34.768120491
  0
LWPOLYLINE
  5
2D7
100
AcDbEntity
  8
RACCORDO
100
AcDbPolyline
 62
250
  6
CONTINUOUS
 90
9
 70
0
 10
14.2367566051
 20
-55.5646518441
 10
14.2272016871
 20
-55.8416514975
 10
14.1985656287
 20
-56.1039732593
 10
14.1509580497
 20
-56.35041143
 10
14.0845738
 20
-56.5798331293
 10
13.9996951757
 20
-56.7911746872
 10
13.8966931111
 20
-56.9834489721
 10
13.7760081217
 20
-57.1557769634
 10
13.6381806241
 20
-57.307337922
  0
LWPOLYLINE
  5
2D8
100
AcDbEntity
  8
RACCORDO
100
AcDbPolyline
 62
250
  6
CONTINUOUS
 90
24
 70
0
 10
-12.5336305442
 20
-32.7837937804
 10
-12.5476662608
 20
-32.7944631294
 10
-12.5604507421
 20
-32.8059722406
 10
-12.5719774504
 20
-32.8182989224
 10
-12.5821460069
 20
-32.8315153147
 10
-12.5910459339
 20
-32.8455078108
 10
-12.5989572547
 20
-32.8599735846
 10
-12.6058774816
 20
-32.8747213868
 10
-12.6118051282
 20
-32.8898955041
 10
-12.6170196094
 20
-32.9057087064
 10
-12.6215706335
 20
-32.9221114757
 10
-12.6253985534
 20
-32.939141085
 10
-12.6286099969
 20
-32.9571676228
 10
-12.6312349545
 20
-32.9764028936
 10
-12.6332191924
 20
-32.9966520381
 10
-12.6345402967
 20
-33.0176806363
 10
-12.6351385566
 20
-33.039597444
 10
-12.6350540358
 20
-33.0622904317
 10
-12.634425155
 20
-33.0851743414
 10
-12.633205871
 20
-33.1082637067
 10
-12.6314402346
 20
-33.1315153746
 10
-12.629419462
 20
-33.1542362114
 10
-12.6271690267
 20
-33.1762528435
 10
-12.6222220292
 20
-33.2183190462
  0
LINE
  5
2D9
100
AcDbEntity
  8
RACCORDO
100
AcDbLine
 62
250
  6
CONTINUOUS
 10
-11.9881068351
 20
-31.9022573679
 11
-12.745471859
 21
-32.4221580354
  0
LWPOLYLINE
  5
2DA
100
AcDbEntity
  8
RACCORDO
100
AcDbPolyline
 62
250
  6
CONTINUOUS
 90
7
 70
0
 10
-14.3464781
 20
40.0847415973
 10
-14.2393576477
 20
39.9621062674
 10
-14.1259519135
 20
39.8478770232
 10
-14.0062608975
 20
39.7420538648
 10
-13.8802845996
 20
39.644636792
 10
-13.7480230199
 20
39.5556258049
 10
-13.6094761584
 20
39.4750209036
  0
LWPOLYLINE
  5
2DB
100
AcDbEntity
  8
RACCORDO
100
AcDbPolyline
 62
250
  6
CONTINUOUS
 90
6
 70
0
 10
-13.3073801851
 20
40.2778695161
 10
-13.2101754559
 20
40.1665742913
 10
-13.106794811
 20
40.0625545432
 10
-12.997363903
 20
39.9659179454
 10
-12.8820148983
 20
39.8767628072
 10
-12.8640948748
 20
39.8639586006
  0
LWPOLYLINE
  5
2DC
100
AcDbEntity
  8
RACCORDO
100
AcDbPolyline
 62
250
  6
CONTINUOUS
 90
3
 70
0
 10
3.7726303333
 20
28.2178053213
 10
3.7349167836
 20
28.2710764728
 10
3.6820522545
 20
28.3594663938
  0
LWPOLYLINE
  5
2DD
100
AcDbEntity
  8
RACCORDO
100
AcDbPolyline
 62
7
  6
CONTINUOUS
 90
5
 70
0
 10
-3.8410685231
 20
51.5856186044
 10
-3.8683210149
 20
51.6396407444
 10
-3.8909465814
 20
51.6963397505
 10
-3.9083976016
 20
51.7548465456
 10
-3.9209482509
 20
51.8177126513
  0
LWPOLYLINE
  5
2DE
100
AcDbEntity
  8
RACCORDO
100
AcDbPolyline
 62
250
  6
CONTINUOUS
 90
10
 70
0
 10
-3.9233235624
 20
52.1355554408
 10
-3.9390788923
 20
52.1669607567
 10
-3.9615434764
 20
52.1970447049
 10
-3.9901608142
 20
52.2250620521
 10
-4.0242219879
 20
52.2503187587
 10
-4.0628832237
 20
52.2721891723
 10
-4.1051867946
 20
52.2901315263
 10
-4.1500847447
 20
52.3037013602
 10
-4.1964648494
 20
52.31256253
 10
-4.2431781679
 20
52.3164955355
  0
LWPOLYLINE
  5
2DF
100
AcDbEntity
  8
RACCORDO
100
AcDbPolyline
 62
250
  6
CONTINUOUS
 90
17
 70
0
 10
3.6820522545
 20
28.3594663938
 10
3.6384742078
 20
28.4479941688
 10
3.6046730462
 20
28.5362957029
 10
3.5799341587
 20
28.624227583
 10
3.5621329596
 20
28.7116477714
 10
3.550841931
 20
28.7977859628
 10
3.5458135447
 20
28.8825177146
 10
3.5449917361
 20
28.966485733
 10
3.5478330069
 20
29.0491762966
 10
3.5542155842
 20
29.1303310671
 10
3.5627643825
 20
29.2110436268
 10
3.5730962463
 20
29.2910531561
 10
3.5851029239
 20
29.3700890724
 10
3.5979608275
 20
29.4493681984
 10
3.6113218171
 20
29.5292119017
 10
3.6252336649
 20
29.6089783395
 10
3.6395430266
 20
29.6885133037
  0
LWPOLYLINE
  5
2E0
100
AcDbEntity
  8
RACCORDO
100
AcDbPolyline
 62
250
  6
CONTINUOUS
 90
7
 70
0
 10
14.3475493495
 20
-55.4108964069
 10
14.342448644
 20
-55.4402709867
 10
14.3316160563
 20
-55.4688577343
 10
14.3152624341
 20
-55.4961002338
 10
14.2937060873
 20
-55.5214682395
 10
14.2673665872
 20
-55.5444679956
 10
14.2367566046
 20
-55.5646518395
  0
LINE
  5
2E1
100
AcDbEntity
  8
RACCORDO
100
AcDbLine
 62
250
  6
CONTINUOUS
 10
-11.7762793102
 20
-32.263868252
 11
-12.5336305442
 21
-32.7837937804
  0
LWPOLYLINE
  5
2E2
100
AcDbEntity
  8
RACCORDO
100
AcDbPolyline
 62
250
  6
CONTINUOUS
 90
12
 70
0
 10
-13.0259752461
 20
-32.5692344977
 10
-12.9403254214
 20
-32.5287720815
 10
-12.9207530435
 20
-32.5194184424
 10
-12.9015057595
 20
-32.5101072195
 10
-12.8826096698
 20
-32.5008366653
 10
-12.8635800051
 20
-32.4911938705
 10
-12.8442609366
 20
-32.4811351322
 10
-12.824808293
 20
-32.4707041533
 10
-12.8052047918
 20
-32.4596191342
 10
-12.7854446719
 20
-32.4477861415
 10
-12.7655336943
 20
-32.4352991086
 10
-12.745471859
 20
-32.4221580354
  0
LINE
  5
2E3
100
AcDbEntity
  8
RACCORDO
100
AcDbLine
 62
250
  6
CONTINUOUS
 10
-4.1347778224
 20
51.6412015783
 11
-3.9519673163
 21
51.3350026929
  0
LWPOLYLINE
  5
2E4
100
AcDbEntity
  8
RACCORDO
100
AcDbPolyline
 62
250
  6
CONTINUOUS
 90
11
 70
0
 10
-3.8411379534
 20
51.5856535001
 10
-3.8442057896
 20
51.5908590701
 10
-3.8619268025
 20
51.6134509667
 10
-3.884687244
 20
51.6324041998
 10
-3.9120114244
 20
51.6473226479
 10
-3.9433282724
 20
51.6578945155
 10
-3.9779832711
 20
51.6638988497
 10
-4.0152521373
 20
51.6652101579
 10
-4.0543559583
 20
51.6618010307
 10
-4.0944774713
 20
51.6537427149
 10
-4.134778144
 20
51.6412036239
  0
LINE
  5
2E5
100
AcDbEntity
  8
RACCORDO
100
AcDbLine
 62
7
  6
CONTINUOUS
 10
-3.8411065944
 20
51.5855973066
 11
-3.8411379534
 21
51.5856535001
  0
LINE
  5
2E6
100
AcDbEntity
  8
RACCORDO
100
AcDbLine
 62
7
  6
CONTINUOUS
 10
-12.8640948748
 20
39.8639586006
 11
-12.8635104166
 21
39.8635454666
  0
LINE
  5
2E7
100
AcDbEntity
  8
ASSI
100
AcDbLine
 62
7
  6
CONTINUOUS
 10
3.7651125532
 20
28.1053332625
 11
-12.8640819937
 21
39.8639494923
  0
LINE
  5
2E8
100
AcDbEntity
  8
RACCORDO
100
AcDbLine
 62
250
  6
CONTINUOUS
 10
3.6395429084
 20
29.6885133872
 11
-14.3698926743
 21
42.4231081525
  0
LINE
  5
2E9
100
AcDbEntity
  8
RACCORDO
100
AcDbLine
 62
250
  6
CONTINUOUS
 10
-14.9660473477
 20
46.0688895195
 11
4.3504689821
 21
32.40995484
  0
LWPOLYLINE
  5
2EA
100
AcDbEntity
  8
RACCORDO
100
AcDbPolyline
 62
250
  6
CONTINUOUS
 90
5
 70
0
 10
-3.8616646455
 20
52.52929832
 10
-3.8811635778
 20
52.5581170465
 10
-3.9054164546
 20
52.5845316551
 10
-3.9339019256
 20
52.6085427644
 10
-3.9668782211
 20
52.6304971656
  0
LWPOLYLINE
  5
2EB
100
AcDbEntity
  8
RACCORDO
100
AcDbPolyline
 62
250
  6
CONTINUOUS
 90
6
 70
0
 10
-3.9519673163
 20
51.3350026929
 10
-3.7507649235
 20
51.0343213257
 10
-3.5311586558
 20
50.7390760569
 10
-3.2931364956
 20
50.4491840427
 10
-3.0366864254
 20
50.1645610275
 10
-2.7617964592
 20
49.885121356
  0
LWPOLYLINE
  5
2EC
100
AcDbEntity
  8
RACCORDO
100
AcDbPolyline
 62
250
  6
CONTINUOUS
 90
5
 70
0
 10
-8.3975941821
 20
45.4325171032
 10
-10.1267559935
 20
46.5240589299
 10
-11.8562697349
 20
47.563663379
 10
-13.5871553575
 20
48.5521167132
 10
-15.3192992483
 20
49.4894874319
  0
LINE
  5
2ED
100
AcDbEntity
  8
RACCORDO
100
AcDbLine
 62
250
  6
CONTINUOUS
 10
-6.6699557585
 20
44.2897330631
 11
-8.3975941821
 21
45.4325171032
  0
LWPOLYLINE
  5
2EE
100
AcDbEntity
  8
RACCORDO
100
AcDbPolyline
 62
250
  6
CONTINUOUS
 90
22
 70
0
 10
5.4046709092
 20
34.5941764793
 10
5.6851761077
 20
34.4048542446
 10
5.9831750401
 20
34.2278450023
 10
6.2972147854
 20
34.0640117772
 10
6.6257642142
 20
33.9141533532
 10
6.9672214538
 20
33.7790003785
 10
7.3199216982
 20
33.659211804
 10
7.6821453253
 20
33.5553716698
 10
8.0521262807
 20
33.467986258
 10
8.4280606887
 20
33.3974816242
 10
8.8081156465
 20
33.3442015202
 10
9.1904381618
 20
33.3084057181
 10
9.5731641861
 20
33.2902687438
 10
9.954427704
 20
33.2898790256
 10
10.3323698302
 20
33.3072384639
 10
10.7051478736
 20
33.3422624213
 10
11.0709443208
 20
33.3947801352
 10
11.4279756978
 20
33.464535551
 10
11.7745012657
 20
33.5511885699
 10
12.1088315075
 20
33.6543167073
 10
12.4293363655
 20
33.7734171528
 10
12.7344531892
 20
33.9079092213
  0
LWPOLYLINE
  5
2EF
100
AcDbEntity
  8
RACCORDO
100
AcDbPolyline
 62
250
  6
CONTINUOUS
 90
3
 70
0
 10
-3.2293612658
 20
41.8568664365
 10
-4.9472037177
 20
43.0978832647
 10
-6.6699557585
 20
44.2897330631
  0
LWPOLYLINE
  5
2F0
100
AcDbEntity
  8
RACCORDO
100
AcDbPolyline
 62
250
  6
CONTINUOUS
 90
13
 70
0
 10
-15.5161287252
 20
49.3874158163
 10
-15.7783746383
 20
49.581876452
 10
-16.0204805806
 20
49.7867789095
 10
-16.2412661424
 20
50.0011241684
 10
-16.4396548636
 20
50.2238671688
 10
-16.614679482
 20
50.4539219069
 10
-16.765486649
 20
50.6901667299
 10
-16.8913410907
 20
50.9314498047
 10
-16.9916291923
 20
51.1765947336
 10
-17.0658619899
 20
51.4244062902
 10
-17.1136775548
 20
51.6736762468
 10
-17.1348427579
 20
51.923189265
 10
-17.127612641
 20
52.1919886998
  0
LINE
  5
2F1
100
AcDbEntity
  8
RACCORDO
100
AcDbLine
 62
250
  6
CONTINUOUS
 10
-1.5164051973
 20
40.5667838497
 11
-3.2293612658
 21
41.8568664365
  0
LINE
  5
2F2
100
AcDbEntity
  8
RACCORDO
100
AcDbLine
 62
250
  6
CONTINUOUS
 10
0.1884089349
 20
39.2301384853
 11
-1.5164051973
 21
40.5667838497
  0
LINE
  5
2F3
100
AcDbEntity
  8
RACCORDO
100
AcDbLine
 62
250
  6
CONTINUOUS
 10
1.8840464068
 20
37.8477949915
 11
0.1884089349
 21
39.2301384853
  0
LINE
  5
2F4
100
AcDbEntity
  8
RACCORDO
100
AcDbLine
 62
250
  6
CONTINUOUS
 10
3.5716934509
 20
36.4189798195
 11
1.8840464068
 21
37.8477949915
  0
LINE
  5
2F5
100
AcDbEntity
  8
RACCORDO
100
AcDbLine
 62
250
  6
CONTINUOUS
 10
5.2514636816
 20
34.9437614699
 11
3.5716934509
 21
36.4189798195
  0
LINE
  5
2F6
100
AcDbEntity
  8
RACCORDO
100
AcDbLine
 62
7
  6
CONTINUOUS
 10
-2.5266150167
 20
49.9021939842
 11
-2.5266665707
 21
49.9022440897
  0
LINE
  5
2F7
100
AcDbEntity
  8
RACCORDO
100
AcDbLine
 62
250
  6
CONTINUOUS
 10
-2.7617875321
 20
49.8851096305
 11
-2.6537393821
 21
49.7793384189
  0
LWPOLYLINE
  5
2F8
100
AcDbEntity
  8
RACCORDO
100
AcDbPolyline
 62
7
  6
CONTINUOUS
 90
10
 70
0
 10
-2.526799322
 20
49.9021069227
 10
-2.6186620956
 20
49.992830663
 10
-2.8200788037
 20
50.201816739
 10
-3.0104776029
 20
50.4136629285
 10
-3.1898636675
 20
50.6280690919
 10
-3.3582187841
 20
50.8447657006
 10
-3.5154358119
 20
51.0635111371
 10
-3.6613864153
 20
51.2840563903
 10
-3.7959448136
 20
51.5061498404
 10
-3.8411379534
 20
51.5856535001
  0
LWPOLYLINE
  5
2F9
100
AcDbEntity
  8
RACCORDO
100
AcDbPolyline
 62
250
  6
CONTINUOUS
 90
22
 70
0
 10
-15.3192992483
 20
49.4894874319
 10
-15.3335351785
 20
49.4964013414
 10
-15.347532198
 20
49.5021001241
 10
-15.3612902661
 20
49.5065838045
 10
-15.3748734229
 20
49.509862266
 10
-15.388217515
 20
49.5119256936
 10
-15.4011302039
 20
49.5127445695
 10
-15.4136027059
 20
49.512299746
 10
-15.425643651
 20
49.5106104635
 10
-15.4370868298
 20
49.5077047808
 10
-15.4479229771
 20
49.5035653579
 10
-15.4581611895
 20
49.4982096366
 10
-15.4676628262
 20
49.4917178332
 10
-15.4764167562
 20
49.4840743304
 10
-15.4844339552
 20
49.4752948391
 10
-15.4916089854
 20
49.4655065425
 10
-15.4979300618
 20
49.4546937747
 10
-15.5034088528
 20
49.442872272
 10
-15.5079751574
 20
49.4302162859
 10
-15.5116055709
 20
49.4167839029
 10
-15.5143234491
 20
49.4025170663
 10
-15.5161287634
 20
49.3874157932
  0
LINE
  5
2FA
100
AcDbEntity
  8
RACCORDO
100
AcDbLine
 62
250
  6
CONTINUOUS
 10
1.3883908039
 20
46.8956053164
 11
-0.2143340556
 21
48.0837944638
  0
LWPOLYLINE
  5
2FB
100
AcDbEntity
  8
RACCORDO
100
AcDbPolyline
 62
250
  6
CONTINUOUS
 90
3
 70
0
 10
4.5779681533
 20
44.4040036282
 10
2.9861120694
 20
45.6687937482
 10
1.3883908039
 20
46.8956053164
  0
LWPOLYLINE
  5
2FC
100
AcDbEntity
  8
RACCORDO
100
AcDbPolyline
 62
250
  6
CONTINUOUS
 90
3
 70
0
 10
7.7406428895
 20
41.7631612693
 10
6.1630982647
 20
43.1018985088
 10
4.5779681533
 20
44.4040036282
  0
LWPOLYLINE
  5
2FD
100
AcDbEntity
  8
RACCORDO
100
AcDbPolyline
 62
7
  6
CONTINUOUS
 90
10
 70
0
 10
10.8550573692
 20
41.5154943186
 10
10.0857684401
 20
42.175230726
 10
9.3152288059
 20
42.8273720483
 10
8.5435313815
 20
43.4718391008
 10
7.7707694604
 20
44.1085534186
 10
6.9970360008
 20
44.7374378462
 10
6.2224235795
 20
45.3584165488
 10
5.4470253348
 20
45.9714142451
 10
4.6709349901
 20
46.5763562142
 10
3.8942462829
 20
47.1731687594
  0
LWPOLYLINE
  5
2FE
100
AcDbEntity
  8
RACCORDO
100
AcDbPolyline
 62
250
  6
CONTINUOUS
 90
8
 70
0
 10
-2.5266665707
 20
49.9022440897
 10
-2.5345084646
 20
49.9090949966
 10
-2.562199938
 20
49.9246421449
 10
-2.5955483741
 20
49.9324510465
 10
-2.6334671192
 20
49.9322672507
 10
-2.6747205965
 20
49.924096746
 10
-2.7179645663
 20
49.9082057669
 10
-2.7617899301
 20
49.8851121181
  0
LINE
  5
2FF
100
AcDbEntity
  8
RACCORDO
100
AcDbLine
 62
250
  6
CONTINUOUS
 10
9.3097442702
 20
40.3884937487
 11
7.7406428895
 21
41.7631612693
  0
LINE
  5
300
100
AcDbEntity
  8
RACCORDO
100
AcDbLine
 62
250
  6
CONTINUOUS
 10
10.6693935758
 20
41.4581559009
 11
10.9482591601
 21
41.2077615718
  0
LWPOLYLINE
  5
301
100
AcDbEntity
  8
RACCORDO
100
AcDbPolyline
 62
250
  6
CONTINUOUS
 90
17
 70
0
 10
-2.5407420506
 20
49.6729966395
 10
-2.422799655
 20
49.5660951081
 10
-2.299752698
 20
49.4582840854
 10
-2.1717678423
 20
49.3499206222
 10
-2.0393369581
 20
49.2420798592
 10
-1.9023175162
 20
49.1347712062
 10
-1.7608536615
 20
49.027987775
 10
-1.6158640418
 20
48.9227913095
 10
-1.4671368286
 20
48.8191986995
 10
-1.3148777008
 20
48.7171792823
 10
-1.1606280302
 20
48.6177339738
 10
-1.0042196355
 20
48.5209209938
 10
-0.8458080591
 20
48.4266548024
 10
-0.6874184342
 20
48.3357381071
 10
-0.529721136
 20
48.2484366911
 10
-0.3720319751
 20
48.1644624958
 10
-0.2143443113
 20
48.0837961207
  0
LINE
  5
302
100
AcDbEntity
  8
RACCORDO
100
AcDbLine
 62
250
  6
CONTINUOUS
 10
-2.6537393821
 20
49.7793384189
 11
-2.5407420506
 21
49.6729966395
  0
LWPOLYLINE
  5
303
100
AcDbEntity
  8
RACCORDO
100
AcDbPolyline
 62
250
  6
CONTINUOUS
 90
20
 70
0
 10
10.9482591601
 20
41.2077615718
 10
11.2230155104
 20
40.9416042489
 10
11.492411618
 20
40.660873661
 10
11.7552231552
 20
40.3668221949
 10
12.0102437666
 20
40.0607761644
 10
12.2562922029
 20
39.7441320464
 10
12.4922593094
 20
39.4182941324
 10
12.7170409092
 20
39.0847617677
 10
12.9295411808
 20
38.7451477331
 10
13.128776096
 20
38.4010257367
 10
13.313855419
 20
38.0539353078
 10
13.4839268403
 20
37.7054754956
 10
13.6382292464
 20
37.3572049017
 10
13.7760474217
 20
37.010737077
 10
13.8967227255
 20
36.6677497015
 10
13.9997145214
 20
36.3298305871
 10
14.0845840049
 20
35.9984780989
 10
14.1509623612
 20
35.6751951372
 10
14.1985670321
 20
35.3614419734
 10
14.22720188
 20
35.0586300783
  0
LWPOLYLINE
  5
304
100
AcDbEntity
  8
RACCORDO
100
AcDbPolyline
 62
250
  6
CONTINUOUS
 90
10
 70
0
 10
-14.8134221933
 20
42.5153323157
 10
-14.7580372996
 20
42.5154697596
 10
-14.7035547997
 20
42.5129337154
 10
-14.6502530081
 20
42.5077371434
 10
-14.5984042074
 20
42.4999065953
 10
-14.5482732582
 20
42.4894820775
 10
-14.5001162456
 20
42.4765168476
 10
-14.4541791716
 20
42.4610771417
 10
-14.4106966977
 20
42.4432418367
 10
-14.3698909468
 20
42.4231020467
  0
LWPOLYLINE
  5
305
100
AcDbEntity
  8
RACCORDO
100
AcDbPolyline
 62
250
  6
CONTINUOUS
 90
6
 70
0
 10
0.181744902
 20
47.888849881
 10
0.5851920512
 20
47.7068913108
 10
0.9960193533
 20
47.5379883455
 10
1.4142388019
 20
47.3822091043
 10
1.8398623917
 20
47.2396202657
 10
2.2729020874
 20
47.1102870981
  0
LINE
  5
306
100
AcDbEntity
  8
RACCORDO
100
AcDbLine
 62
250
  6
CONTINUOUS
 10
-0.2143340556
 20
48.0837944638
 11
0.181744902
 21
47.888849881
  0
LWPOLYLINE
  5
307
100
AcDbEntity
  8
RACCORDO
100
AcDbPolyline
 62
250
  6
CONTINUOUS
 90
14
 70
0
 10
-12.4539371092
 20
55.7777892114
 10
-12.7240669927
 20
55.9168959861
 10
-12.9902410327
 20
56.0350012878
 10
-13.251248473
 20
56.1315581347
 10
-13.5059130877
 20
56.2061182214
 10
-13.7530637244
 20
56.258328711
 10
-13.9915429568
 20
56.287942794
 10
-14.2202641527
 20
56.2948186138
 10
-14.4381945109
 20
56.2789272245
 10
-14.6443276523
 20
56.2403536944
 10
-14.8377266571
 20
56.1792726005
 10
-15.017519201
 20
56.095955768
 10
-15.1828831482
 20
55.9907867379
 10
-15.2994667753
 20
55.8956099529
  0
LINE
  5
308
100
AcDbEntity
  8
RACCORDO
100
AcDbLine
 62
7
  6
CONTINUOUS
 10
-0.0588745649
 20
48.157881272
 11
-0.0589301153
 21
48.1579098864
  0
LWPOLYLINE
  5
309
100
AcDbEntity
  8
RACCORDO
100
AcDbPolyline
 62
7
  6
CONTINUOUS
 90
10
 70
0
 10
-0.0587970766
 20
48.1580312954
 10
-0.2440451033
 20
48.2552577395
 10
-0.5862787994
 20
48.4458946375
 10
-0.9179618989
 20
48.6457550684
 10
-1.2384639817
 20
48.8548893201
 10
-1.5471381644
 20
49.0732138898
 10
-1.843503823
 20
49.3004177221
 10
-2.1271590429
 20
49.5359793469
 10
-2.3977159977
 20
49.7792238192
 10
-2.5266150167
 20
49.9021939842
  0
LINE
  5
30A
100
AcDbEntity
  8
RACCORDO
100
AcDbLine
 62
250
  6
CONTINUOUS
 10
-10.8387378657
 20
54.9007963523
 11
-12.4539338145
 21
55.7777919816
  0
LWPOLYLINE
  5
30B
100
AcDbEntity
  8
RACCORDO
100
AcDbPolyline
 62
250
  6
CONTINUOUS
 90
7
 70
0
 10
-3.9728156765
 20
52.7359951273
 10
-3.9813922372
 20
52.7408954283
 10
-4.0033179585
 20
52.7485793316
 10
-4.0278399065
 20
52.7510919655
 10
-4.053998968
 20
52.7481690098
 10
-4.0822416937
 20
52.7403459179
 10
-4.1120259513
 20
52.7277112112
  0
LWPOLYLINE
  5
30C
100
AcDbEntity
  8
RACCORDO
100
AcDbPolyline
 62
250
  6
CONTINUOUS
 90
8
 70
0
 10
3.8942009825
 20
47.173203286
 10
3.882457833
 20
47.1802976486
 10
3.8630687162
 20
47.1862038657
 10
3.840741466
 20
47.1872004122
 10
3.8159079475
 20
47.1832695769
 10
3.7890636258
 20
47.1744924665
 10
3.7607377287
 20
47.1610478976
 10
3.7314799153
 20
47.1432022175
  0
LWPOLYLINE
  5
30D
100
AcDbEntity
  8
RACCORDO
100
AcDbPolyline
 62
250
  6
CONTINUOUS
 90
9
 70
0
 10
10.8550573692
 20
41.5154943186
 10
10.8425603567
 20
41.5231593137
 10
10.8252857585
 20
41.5273343175
 10
10.804775067
 20
41.526858769
 10
10.7814274993
 20
41.5217419251
 10
10.7556974933
 20
41.5120833823
 10
10.7280858566
 20
41.4980711366
 10
10.6991300181
 20
41.4799779221
 10
10.6693935705
 20
41.4581559047
  0
LWPOLYLINE
  5
30E
100
AcDbEntity
  8
RACCORDO
100
AcDbPolyline
 62
250
  6
CONTINUOUS
 90
4
 70
0
 10
-5.9893277731
 20
52.0153876899
 10
-7.6055765444
 20
53.019074381
 10
-9.2223329827
 20
53.9810541256
 10
-10.8387378657
 20
54.9007963523
  0
LWPOLYLINE
  5
30F
100
AcDbEntity
  8
RACCORDO
100
AcDbPolyline
 62
7
  6
CONTINUOUS
 90
10
 70
0
 10
-3.9728172951
 20
52.7359961189
 10
-4.7497868895
 20
53.2377688087
 10
-5.5262232377
 20
53.7306043915
 10
-6.3020328935
 20
54.214442641
 10
-7.077122293
 20
54.6892242795
 10
-7.8513983408
 20
55.1548913388
 10
-8.6247684841
 20
55.6113871821
 10
-9.3971399071
 20
56.0586560173
 10
-10.1684194778
 20
56.4966428887
 10
-10.9385143934
 20
56.9252940568
  0
LWPOLYLINE
  5
310
100
AcDbEntity
  8
RACCORDO
100
AcDbPolyline
 62
250
  6
CONTINUOUS
 90
7
 70
0
 10
3.1724768468
 20
47.1613703597
 10
3.1748035726
 20
47.1598468011
 10
3.1789386174
 20
47.151451749
 10
3.1839388966
 20
47.1359408144
 10
3.1896805255
 20
47.1136982905
 10
3.1960212517
 20
47.0852752494
 10
3.20280398
 20
47.0513758899
  0
LWPOLYLINE
  5
311
100
AcDbEntity
  8
RACCORDO
100
AcDbPolyline
 62
250
  6
CONTINUOUS
 90
3
 70
0
 10
-2.7617964592
 20
49.885121356
 10
-4.3744472547
 20
50.970545808
 10
-5.9893277731
 20
52.0153876899
  0
LINE
  5
312
100
AcDbEntity
  8
RACCORDO
100
AcDbLine
 62
250
  6
CONTINUOUS
 10
3.8942462944
 20
47.1731687507
 11
3.8942009825
 21
47.173203286
  0
LWPOLYLINE
  5
313
100
AcDbEntity
  8
RACCORDO
100
AcDbPolyline
 62
250
  6
CONTINUOUS
 90
7
 70
0
 10
3.7018680779
 20
47.1213017623
 10
4.8678143251
 20
46.2221510236
 10
6.03230697
 20
45.3047747875
 10
7.1950281635
 20
44.3694264952
 10
8.3556606242
 20
43.4163644309
 10
9.5138877242
 20
42.445851649
 10
10.6693935758
 20
41.4581559009
  0
LINE
  5
314
100
AcDbEntity
  8
RACCORDO
100
AcDbLine
 62
7
  6
CONTINUOUS
 10
3.6696185877
 20
47.2315878198
 11
3.1724761594
 21
47.1613702644
  0
LINE
  5
315
100
AcDbEntity
  8
RACCORDO
100
AcDbLine
 62
250
  6
CONTINUOUS
 10
3.2028039742
 20
47.051375988
 11
3.7018680779
 21
47.1213017623
  0
LWPOLYLINE
  5
316
100
AcDbEntity
  8
RACCORDO
100
AcDbPolyline
 62
7
  6
CONTINUOUS
 90
8
 70
0
 10
3.1724786924
 20
47.1613571161
 10
3.0894209338
 20
47.151522931
 10
2.9496535504
 20
47.1426251864
 10
2.8111943281
 20
47.1431104546
 10
2.6751903453
 20
47.1527011173
 10
2.5424488402
 20
47.1711707079
 10
2.4140769383
 20
47.1982935566
 10
2.3662945905
 20
47.2109197744
  0
LINE
  5
317
100
AcDbEntity
  8
RACCORDO
100
AcDbLine
 62
250
  6
CONTINUOUS
 10
3.0416627565
 20
47.0351812113
 11
3.2028039742
 21
47.051375988
  0
LINE
  5
318
100
AcDbEntity
  8
RACCORDO
100
AcDbLine
 62
250
  6
CONTINUOUS
 10
2.88298712
 20
47.0294152995
 11
3.0416627565
 21
47.0351812113
  0
LWPOLYLINE
  5
319
100
AcDbEntity
  8
RACCORDO
100
AcDbPolyline
 62
250
  6
CONTINUOUS
 90
3
 70
0
 10
2.5730257343
 20
47.049101371
 10
2.7267754522
 20
47.0340613193
 10
2.88298712
 20
47.0294152995
  0
LWPOLYLINE
  5
31A
100
AcDbEntity
  8
RACCORDO
100
AcDbPolyline
 62
250
  6
CONTINUOUS
 90
6
 70
0
 10
3.6696154131
 20
47.2316009181
 10
3.6703462943
 20
47.2315269653
 10
3.674140739
 20
47.2274806888
 10
3.6786462251
 20
47.2171836492
 10
3.6834375673
 20
47.2010361262
 10
3.6886933937
 20
47.1796624166
  0
LWPOLYLINE
  5
31B
100
AcDbEntity
  8
RACCORDO
100
AcDbPolyline
 62
250
  6
CONTINUOUS
 90
8
 70
0
 10
2.3662122394
 20
47.2109429522
 10
2.3609600915
 20
47.2116996117
 10
2.3485774026
 20
47.208878183
 10
2.3348764007
 20
47.2000596858
 10
2.3201435063
 20
47.1854284703
 10
2.3046867112
 20
47.1652904017
 10
2.2888291404
 20
47.140066466
 10
2.272902297
 20
47.1102839692
  0
LINE
  5
31C
100
AcDbEntity
  8
RACCORDO
100
AcDbLine
 62
250
  6
CONTINUOUS
 10
2.4217355488
 20
47.074516582
 11
2.5730257343
 21
47.049101371
  0
LINE
  5
31D
100
AcDbEntity
  8
RACCORDO
100
AcDbLine
 62
250
  6
CONTINUOUS
 10
2.2729020874
 20
47.1102870981
 11
2.4217355488
 21
47.074516582
  0
LWPOLYLINE
  5
31E
100
AcDbEntity
  8
RACCORDO
100
AcDbPolyline
 62
7
  6
CONTINUOUS
 90
10
 70
0
 10
2.3662945905
 20
47.2109197744
 10
2.2344401523
 20
47.2484502114
 10
1.9134857364
 20
47.3461868539
 10
1.5951160563
 20
47.4520989245
 10
1.2797948194
 20
47.5660132831
 10
0.9679015523
 20
47.6877816048
 10
0.6597362093
 20
47.8173084032
 10
0.3556940485
 20
47.9545502589
 10
0.0562686189
 20
48.0994492547
 10
-0.0589301153
 20
48.1579098864
  0
LWPOLYLINE
  5
31F
100
AcDbEntity
  8
RACCORDO
100
AcDbPolyline
 62
250
  6
CONTINUOUS
 90
7
 70
0
 10
-0.0589301153
 20
48.1579098864
 10
-0.0697727207
 20
48.1620329268
 10
-0.0938934423
 20
48.1633499337
 10
-0.121341578
 20
48.155804193
 10
-0.1512237718
 20
48.1396413679
 10
-0.1825674361
 20
48.11538761
 10
-0.2143524123
 20
48.0838324332
  0
LWPOLYLINE
  5
320
100
AcDbEntity
  8
RACCORDO
100
AcDbPolyline
 62
7
  6
CONTINUOUS
 90
14
 70
0
 10
-10.9385143934
 20
56.9252940568
 10
-11.234961915
 20
57.0777140177
 10
-11.527605657
 20
57.2062136832
 10
-11.8153510229
 20
57.3102220292
 10
-12.0980249627
 20
57.3894185742
 10
-12.3735518284
 20
57.4429126029
 10
-12.6382816031
 20
57.4701117169
 10
-12.8909431132
 20
57.4714023614
 10
-13.1312825935
 20
57.4472740714
 10
-13.3574845724
 20
57.3984784436
 10
-13.5676203902
 20
57.3264160079
 10
-13.7621888662
 20
57.2319565984
 10
-13.9424839614
 20
57.1148191067
 10
-14.0746466036
 20
57.0060838489
  0
LWPOLYLINE
  5
321
100
AcDbEntity
  8
RACCORDO
100
AcDbPolyline
 62
250
  6
CONTINUOUS
 90
4
 70
0
 10
-3.9668782211
 20
52.6304971656
 10
-4.0040161745
 20
52.6496462808
 10
-4.0436012215
 20
52.664877357
 10
-4.0845726362
 20
52.6761912171
  0
LWPOLYLINE
  5
322
100
AcDbEntity
  8
RACCORDO
100
AcDbPolyline
 62
250
  6
CONTINUOUS
 90
9
 70
0
 10
-10.9385143934
 20
56.9252940568
 10
-10.9418192907
 20
56.9270418856
 10
-10.9656617585
 20
56.9358610782
 10
-10.9917936921
 20
56.9393603559
 10
-11.019706463
 20
56.9374716091
 10
-11.048856781
 20
56.9302316003
 10
-11.0786772681
 20
56.9177812479
 10
-11.1085875026
 20
56.900362884
 10
-11.1380053157
 20
56.8783155371
  0
LWPOLYLINE
  5
323
100
AcDbEntity
  8
RACCORDO
100
AcDbPolyline
 62
250
  6
CONTINUOUS
 90
7
 70
0
 10
-11.1380053157
 20
56.8783155371
 10
-9.9824717694
 20
56.231864338
 10
-8.8242279197
 20
55.5643867204
 10
-7.6635897583
 20
54.876062407
 10
-6.5008739952
 20
54.1670768512
 10
-5.3363979719
 20
53.4376211884
 10
-4.170479575
 20
52.687892185
  0
LINE
  5
324
100
AcDbEntity
  8
RACCORDO
100
AcDbLine
 62
250
  6
CONTINUOUS
 10
13.6381806241
 20
-57.307337922
 11
13.4838696972
 21
-57.437386755
  0
LINE
  5
325
100
AcDbEntity
  8
RACCORDO
100
AcDbLine
 62
250
  6
CONTINUOUS
 10
-4.1270492071
 20
52.6838889175
 11
-4.1704698258
 21
52.6878885897
  0
LINE
  5
326
100
AcDbEntity
  8
RACCORDO
100
AcDbLine
 62
250
  6
CONTINUOUS
 10
-4.0845726362
 20
52.6761912171
 11
-4.1270492071
 21
52.6838889175
  0
LWPOLYLINE
  5
327
100
AcDbEntity
  8
RACCORDO
100
AcDbPolyline
 62
250
  6
CONTINUOUS
 90
11
 70
0
 10
11.8537910546
 20
-58.3325133467
 10
12.0200519723
 20
-58.2272461101
 10
12.167764721
 20
-58.1024482689
 10
12.2995086389
 20
-57.9569248878
 10
12.4147081914
 20
-57.7913249979
 10
12.5128417701
 20
-57.6063955064
 10
12.5934459486
 20
-57.4029903088
 10
12.6561539015
 20
-57.1820553805
 10
12.7006818525
 20
-56.9446109516
 10
12.7268242691
 20
-56.6917409439
 10
12.7344608657
 20
-56.4246039834
  0
LINE
  5
328
100
AcDbEntity
  8
RACCORDO
100
AcDbLine
 62
250
  6
CONTINUOUS
 10
13.4838696972
 20
-57.437386755
 11
13.3086128548
 21
-57.5481270867
  0
LINE
  5
329
100
AcDbEntity
  8
RACCORDO
100
AcDbLine
 62
250
  6
CONTINUOUS
 10
14.2367566051
 20
-55.5646518441
 11
12.7344373448
 21
-56.4246174596
  0
LWPOLYLINE
  5
32A
100
AcDbEntity
  8
RACCORDO
100
AcDbPolyline
 62
7
  6
CONTINUOUS
 90
12
 70
0
 10
13.3069900688
 20
-57.5490007618
 10
13.3379247975
 20
-57.5319565984
 10
13.5182198927
 20
-57.4148191067
 10
13.6831096948
 20
-57.2755493107
 10
13.8313644002
 20
-57.1150300959
 10
13.9632822758
 20
-56.9322546569
 10
14.0781902675
 20
-56.726321354
 10
14.1741104434
 20
-56.4986100665
 10
14.2495652737
 20
-56.2511999632
 10
14.3039239629
 20
-55.9853709458
 10
14.3368768277
 20
-55.7013217384
 10
14.3479604878
 20
-55.3997942903
  0
LINE
  5
32B
100
AcDbEntity
  8
RACCORDO
100
AcDbLine
 62
7
  6
CONTINUOUS
 10
11.8523792271
 20
-58.3332755657
 11
11.8537910546
 21
-58.3325133467
  0
LINE
  5
32C
100
AcDbEntity
  8
DRAFT
100
AcDbLine
 62
7
  6
CONTINUOUS
 10
13.3086127789
 20
-57.5481271277
 11
11.8523718386
 21
-58.3332795493
  0
ARC
  5
32D
100
AcDbEntity
  8
RACCORDO
100
AcDbCircle
 62
7
  6
CONTINUOUS
 10
3.7122863531
 20
46.9346512121
 40
0.3
100
AcDbArc
 50
52.6716491814
 51
98.1808983828
  0
ARC
  5
32E
100
AcDbEntity
  8
RACCORDO
100
AcDbCircle
 62
7
  6
CONTINUOUS
 10
-4.1365496141
 20
52.484616533
 40
0.3
100
AcDbArc
 50
19.8546349057
 51
56.912022561
  0
ENDSEC
  0
SECTION
  2
OBJECTS
  0
DICTIONARY
  5
C
100
AcDbDictionary
280
0
281
1
  3
ACAD_GROUP
350
D
  3
ACAD_MLINESTYLE
350
17
  3
ACAD_LAYOUT
350
1A
  3
ACAD_PLOTSETTINGS
350
19
  3
ACAD_PLOTSTYLENAME
350
E
  0
DICTIONARY
  5
D
102
{ACAD_REACTORS
330
C
102
}
100
AcDbDictionary
280
0
281
1
  0
ACDBDICTIONARYWDFLT
  5
E
102
{ACAD_REACTORS
330
C
102
}
100
AcDbDictionary
281
1
  3
Normal
350
F
100
AcDbDictionaryWithDefault
340
F
  0
DICTIONARY
  5
17
102
{ACAD_REACTORS
330
C
102
}
100
AcDbDictionary
280
0
281
1
  3
Standard
350
18
  0
DICTIONARY
  5
19
102
{ACAD_REACTORS
330
C
102
}
100
AcDbDictionary
281
1
  0
DICTIONARY
  5
1A
102
{ACAD_REACTORS
330
C
102
}
100
AcDbDictionary
281
1
  3
Model
350
32F
  3
Layout1
350
330
  0
ACDBPLACEHOLDER
  5
F
102
{ACAD_REACTORS
330
E
102
}
  0
MLINESTYLE
  5
18
102
{ACAD_REACTORS
330
17
102
}
100
AcDbMlineStyle
  2
STANDARD
 70
0
  3

 62
256
 51
90.0
 52
90.0
 71
2
 49
0.5
 62
256
  6
BYLAYER
 49
-0.5
 62
256
  6
BYLAYER
  0
LAYOUT
  5
32F
102
{ACAD_REACTORS
330
1A
102
}
100
AcDbPlotSettings
  1

  2
none_device
  4
ISO_A4_(297.00_x_210.00_MM)
  6

 40
0.0
 41
0.0
 42
0.0
 43
0.0
 44
297.0
 45
210.0
 46
0.0
 47
0.0
 48
0.0
 49
0.0
140
0.0
141
0.0
142
1.0
143
1.0
 70
1024
 72
1
 73
0
 74
0
  7

 75
0
147
1.0
148
0.0
149
0.0
100
AcDbLayout
  1
Model
 70
0
 71
0
 10
0.0
 20
0.0
 11
297.0
 21
210.0
 12
0.0
 22
0.0
 32
0.0
 14
0.0
 24
0.0
 34
0.0
 15
0.0
 25
0.0
 35
0.0
146
0.0
 13
0.0
 23
0.0
 33
0.0
 16
1.0
 26
0.0
 36
0.0
 17
0.0
 27
1.0
 37
0.0
 76
0
330
215
345
0
346
0
  0
LAYOUT
  5
330
102
{ACAD_REACTORS
330
1A
102
}
100
AcDbPlotSettings
  1

  2
none_device
  4
ISO_A4_(297.00_x_210.00_MM)
  6

 40
0.0
 41
0.0
 42
0.0
 43
0.0
 44
297.0
 45
210.0
 46
0.0
 47
0.0
 48
0.0
 49
0.0
140
0.0
141
0.0
142
1.0
143
1.0
 70
0
 72
1
 73
0
 74
0
  7

 75
0
147
1.0
148
0.0
149
0.0
100
AcDbLayout
  1
Layout1
 70
0
 71
1
 10
0.0
 20
0.0
 11
297.0
 21
210.0
 12
0.0
 22
0.0
 32
0.0
 14
0.0
 24
0.0
 34
0.0
 15
0.0
 25
0.0
 35
0.0
146
0.0
 13
0.0
 23
0.0
 33
0.0
 16
1.0
 26
0.0
 36
0.0
 17
0.0
 27
1.0
 37
0.0
 76
0
330
216
345
0
346
0
  0
ENDSEC
  0
EOF
