  0
SECTION
  2
HEADER
  9
$ACADVER
  1
AC1024
  9
$DWGCODEPAGE
  3
ANSI_1252
  9
$EXTMAX
 10
297.0
 20
210.0
 30
0.0
  9
$EXTMIN
 10
0.0
 20
0.0
 30
0.0
  9
$LIMMIN
 10
0.0
 20
0.0
  9
$LIMMAX
 10
297.0
 20
210.0
  9
$VIEWCTR
 10
148.5
 20
105.0
  9
$VIEWSIZE
 40
210.0
  9
$CLAYER
  8
0
  9
$LTSCALE
 40
16.335
  9
$CELTYPE
  6
BYLAYER
  9
$DIMSCALE
 40
1.0
  9
$DIMASZ
 40
3.0
  9
$DIMEXO
 40
0.5
  9
$DIMDLI
 40
11.286
  9
$DIMEXE
 40
1.5
  9
$DIMCEN
 40
2.673
  9
$DIMLFAC
 40
1.0
  9
$DIMBLK
  1
_FILLED
  9
$DIMALT
 70
0
  9
$DIMALTF
 40
0.0393700787
  9
$DIMTXT
 40
3.0
  9
$DIMTOL
 70
1
  9
$DIMLIM
 70
0
  9
$DIMTFAC
 40
1.0
  9
$DIMTP
 40
0.01
  9
$DIMTM
 40
0.01
  9
$DIMGAP
 40
0.625
  9
$DIMDSEP
 70
44
  9
$AUNITS
 70
0
  9
$PDMODE
 70
3
  9
$PDSIZE
 40
3.0
  9
$HANDSEED
  5
362
  9
$TILEMODE
 70
1
  9
$MEASUREMENT
 70
1
  9
$INSUNITS
 70
4
  0
ENDSEC
  0
SECTION
  2
CLASSES
  0
CLASS
  1
ACDBDICTIONARYWDFLT
  2
AcDbDictionaryWithDefault
  3
AutoCAD 2000
 90
0
 91
1
280
0
281
0
  0
CLASS
  1
ACDBPLACEHOLDER
  2
AcDbPlaceHolder
  3
AutoCAD 2000
 90
0
 91
1
280
0
281
0
  0
CLASS
  1
LAYOUT
  2
AcDbLayout
  3
AutoCAD 2000
 90
0
 91
0
280
0
281
0
  0
ENDSEC
  0
SECTION
  2
TABLES
  0
TABLE
  2
VPORT
  5
8
100
AcDbSymbolTable
 70
2
  0
VPORT
  5
1F4
100
AcDbSymbolTableRecord
100
AcDbViewportTableRecord
  2
*ACTIVE
 70
0
 10
0.0
 20
0.0
 11
1.0
 21
1.0
 12
148.5
 22
105.0
 13
0.0
 23
0.0
 14
1.0
 24
1.0
 15
0.0
 25
0.0
 16
0.0
 26
0.0
 36
1.0
 17
0.0
 27
0.0
 37
0.0
 40
210.0
 41
1.4142857143
 42
50.0
 43
0.0
 44
0.0
 50
0.0
 51
0.0
 71
0
 72
100
 73
1
 74
1
 75
0
 76
0
 77
0
 78
0
  0
ENDTAB
  0
TABLE
  2
LTYPE
  5
5
100
AcDbSymbolTable
 70
6
  0
LTYPE
  5
14
100
AcDbSymbolTableRecord
100
AcDbLinetypeTableRecord
  2
BYBLOCK
 70
0
  3

 72
65
 73
0
 40
0.0
  0
LTYPE
  5
15
100
AcDbSymbolTableRecord
100
AcDbLinetypeTableRecord
  2
BYLAYER
 70
0
  3

 72
65
 73
0
 40
0.0
  0
LTYPE
  5
16
100
AcDbSymbolTableRecord
100
AcDbLinetypeTableRecord
  2
CONTINUOUS
 70
64
  3
Solid line
 72
65
 73
0
 40
0.0
  0
LTYPE
  5
1F5
100
AcDbSymbolTableRecord
100
AcDbLinetypeTableRecord
  2
CENTER
 70
64
  3
____ _ ____ _ ____ _ ____ _ ____ _ ____ _ ____
 72
65
 73
4
 40
0.6
 49
0.375
 74
0
 49
-0.075
 74
0
 49
0.075
 74
0
 49
-0.075
 74
0
  0
LTYPE
  5
1F6
100
AcDbSymbolTableRecord
100
AcDbLinetypeTableRecord
  2
HIDDEN
 70
64
  3
- - - - - - - - - - - - - - - - - - - -
 72
65
 73
2
 40
0.2
 49
0.1
 74
0
 49
-0.1
 74
0
  0
LTYPE
  5
1F7
100
AcDbSymbolTableRecord
100
AcDbLinetypeTableRecord
  2
PHANTOM
 70
64
  3
_____ _ _ _____ _ _ _____ _ _ _____
 72
65
 73
6
 40
0.8
 49
0.45
 74
0
 49
-0.05
 74
0
 49
0.1
 74
0
 49
-0.05
 74
0
 49
0.1
 74
0
 49
-0.05
 74
0
  0
LTYPE
  5
1F8
100
AcDbSymbolTableRecord
100
AcDbLinetypeTableRecord
  2
DOT
 70
64
  3
. . . . . . . . . . . . . . . . . . . .
 72
65
 73
2
 40
0.2
 49
0.1
 74
0
 49
-0.1
 74
0
  0
LTYPE
  5
1F9
100
AcDbSymbolTableRecord
100
AcDbLinetypeTableRecord
  2
DASHED
 70
64
  3
- - - - - - - - - - - - - - - - - - - -
 72
65
 73
2
 40
0.2
 49
0.1
 74
0
 49
-0.1
 74
0
  0
ENDTAB
  0
TABLE
  2
LAYER
  5
2
100
AcDbSymbolTable
 70
36
  0
LAYER
  5
10
100
AcDbSymbolTableRecord
100
AcDbLayerTableRecord
  2
0
 70
0
 62
7
  6
CONTINUOUS
370
-3
390
F
  0
LAYER
  5
1FA
100
AcDbSymbolTableRecord
100
AcDbLayerTableRecord
  2
DEFAULT_1
 70
0
 62
7
  6
CENTER
370
-3
390
F
  0
LAYER
  5
1FB
100
AcDbSymbolTableRecord
100
AcDbLayerTableRecord
  2
DEFAULT_2
 70
0
 62
7
  6
HIDDEN
370
-3
390
F
  0
LAYER
  5
1FC
100
AcDbSymbolTableRecord
100
AcDbLayerTableRecord
  2
DEFAULT_3
 70
0
 62
7
  6
PHANTOM
370
-3
390
F
  0
LAYER
  5
1FD
100
AcDbSymbolTableRecord
100
AcDbLayerTableRecord
  2
ASSI
 70
0
 62
7
  6
CONTINUOUS
370
-3
390
F
  0
LAYER
  5
1FE
100
AcDbSymbolTableRecord
100
AcDbLayerTableRecord
  2
COORDINATE
 70
0
 62
7
  6
CONTINUOUS
370
-3
390
F
  0
LAYER
  5
1FF
100
AcDbSymbolTableRecord
100
AcDbLayerTableRecord
  2
COORD_ORIGINE
 70
0
 62
7
  6
CONTINUOUS
370
-3
390
F
  0
LAYER
  5
200
100
AcDbSymbolTableRecord
100
AcDbLayerTableRecord
  2
COSMETICI
 70
0
 62
7
  6
CONTINUOUS
370
-3
390
F
  0
LAYER
  5
201
100
AcDbSymbolTableRecord
100
AcDbLayerTableRecord
  2
CURVE
 70
0
 62
7
  6
CONTINUOUS
370
-3
390
F
  0
LAYER
  5
202
100
AcDbSymbolTableRecord
100
AcDbLayerTableRecord
  2
DRAFT
 70
0
 62
7
  6
CONTINUOUS
370
-3
390
F
  0
LAYER
  5
203
100
AcDbSymbolTableRecord
100
AcDbLayerTableRecord
  2
IMPORT
 70
0
 62
7
  6
CONTINUOUS
370
-3
390
F
  0
LAYER
  5
204
100
AcDbSymbolTableRecord
100
AcDbLayerTableRecord
  2
LAY0001
 70
0
 62
7
  6
CONTINUOUS
370
-3
390
F
  0
LAYER
  5
205
100
AcDbSymbolTableRecord
100
AcDbLayerTableRecord
  2
NOTE
 70
0
 62
7
  6
CONTINUOUS
370
-3
390
F
  0
LAYER
  5
206
100
AcDbSymbolTableRecord
100
AcDbLayerTableRecord
  2
PIANI
 70
0
 62
7
  6
CONTINUOUS
370
-3
390
F
  0
LAYER
  5
207
100
AcDbSymbolTableRecord
100
AcDbLayerTableRecord
  2
PIANI_ORIGINE
 70
0
 62
7
  6
CONTINUOUS
370
-3
390
F
  0
LAYER
  5
208
100
AcDbSymbolTableRecord
100
AcDbLayerTableRecord
  2
PUNTI
 70
0
 62
7
  6
CONTINUOUS
370
-3
390
F
  0
LAYER
  5
209
100
AcDbSymbolTableRecord
100
AcDbLayerTableRecord
  2
RACCORDO
 70
0
 62
7
  6
CONTINUOUS
370
-3
390
F
  0
LAYER
  5
20A
100
AcDbSymbolTableRecord
100
AcDbLayerTableRecord
  2
SIMBOLI
 70
0
 62
7
  6
CONTINUOUS
370
-3
390
F
  0
LAYER
  5
20B
100
AcDbSymbolTableRecord
100
AcDbLayerTableRecord
  2
SNAPLINE
 70
0
 62
7
  6
CONTINUOUS
370
-3
390
F
  0
LAYER
  5
20C
100
AcDbSymbolTableRecord
100
AcDbLayerTableRecord
  2
SUPERFICI
 70
0
 62
7
  6
CONTINUOUS
370
-3
390
F
  0
LAYER
  5
20D
100
AcDbSymbolTableRecord
100
AcDbLayerTableRecord
  2
TRASH
 70
0
 62
7
  6
CONTINUOUS
370
-3
390
F
  0
LAYER
  5
20E
100
AcDbSymbolTableRecord
100
AcDbLayerTableRecord
  2
XSEC_DATUMS
 70
0
 62
7
  6
CONTINUOUS
370
-3
390
F
  0
ENDTAB
  0
TABLE
  2
STYLE
  5
3
100
AcDbSymbolTable
 70
1
  0
STYLE
  5
11
100
AcDbSymbolTableRecord
100
AcDbTextStyleTableRecord
  2
STANDARD
 70
0
 40
0.0
 41
0.8
 50
0.0
 71
0
 42
0.2
  3
txt
  4

  0
STYLE
  5
20F
100
AcDbSymbolTableRecord
100
AcDbTextStyleTableRecord
  2
TEXTSTYLE_1
 70
0
 40
0.0
 41
0.8
 50
0.0
 71
0
 42
0.2
  3
gdt
  4

  0
ENDTAB
  0
TABLE
  2
VIEW
  5
6
100
AcDbSymbolTable
 70
0
  0
ENDTAB
  0
TABLE
  2
UCS
  5
7
100
AcDbSymbolTable
 70
0
  0
ENDTAB
  0
TABLE
  2
APPID
  5
9
100
AcDbSymbolTable
 70
1
  0
APPID
  5
210
100
AcDbSymbolTableRecord
100
AcDbRegAppTableRecord
  2
ACAD
 70
0
  0
ENDTAB
  0
TABLE
  2
BLOCK_RECORD
  5
1
100
AcDbSymbolTable
 70
0
  0
BLOCK_RECORD
  5
211
100
AcDbSymbolTableRecord
100
AcDbBlockTableRecord
  2
*Model_Space
  0
BLOCK_RECORD
  5
212
100
AcDbSymbolTableRecord
100
AcDbBlockTableRecord
  2
*Paper_Space
  0
BLOCK_RECORD
  5
213
100
AcDbSymbolTableRecord
100
AcDbBlockTableRecord
  2
_FILLED
  0
ENDTAB
  0
TABLE
  2
DIMSTYLE
  5
A
100
AcDbSymbolTable
 70
1
100
AcDbDimStyleTable
 71
0
  0
DIMSTYLE
105
214
100
AcDbSymbolTableRecord
100
AcDbDimStyleTableRecord
  2
STANDARD
 70
0
  3

  4

 40
1.0
 41
3.0
 42
0.5
 43
0.38
 44
1.5
 45
0.0
 46
0.0
 47
0.01
 48
0.01
140
3.0
141
0.09
142
0.0
143
25.4
144
1.0
145
0.0
146
1.0
147
0.625
 71
1
 72
0
 73
0
 74
0
 75
0
 76
0
 77
1
 78
8
 79
2
170
0
171
1
172
0
173
0
174
0
175
0
176
0
177
0
178
0
270
2
179
2
271
2
272
2
273
2
274
2
275
0
280
0
281
0
282
0
283
1
284
8
285
0
286
0
287
3
288
0
340
11
278
44
341
213
342
213
343
213
344
213
  0
ENDTAB
  0
ENDSEC
  0
SECTION
  2
BLOCKS
  0
BLOCK
  5
20
100
AcDbEntity
  8
0
100
AcDbBlockBegin
  2
*Model_Space
 70
0
 10
0.0
 20
0.0
 30
0.0
  3
*Model_Space
  1

  0
ENDBLK
  5
21
100
AcDbEntity
  8
0
100
AcDbBlockEnd
  0
BLOCK
  5
1C
100
AcDbEntity
  8
0
100
AcDbBlockBegin
  2
*Paper_Space
 70
0
 10
0.0
 20
0.0
 30
0.0
  3
*Paper_Space
  1

  0
ENDBLK
  5
1D
100
AcDbEntity
  8
0
100
AcDbBlockEnd
  0
BLOCK
  5
215
100
AcDbEntity
  8
0
100
AcDbBlockBegin
  2
_FILLED
 70
64
 10
0.0
 20
0.0
  3
_FILLED
  1

  0
SOLID
  5
216
100
AcDbEntity
  8
0
  6
BYBLOCK
 62
0
100
AcDbTrace
 10
0.0
 20
0.0
 11
-1.0
 21
0.3166666667
 12
-1.0
 22
-0.3166666667
 13
-1.0
 23
-0.3166666667
  0
ENDBLK
  5
217
100
AcDbEntity
  8
0
  6
BYBLOCK
 62
0
100
AcDbBlockEnd
  0
ENDSEC
  0
SECTION
  2
ENTITIES
  0
LINE
  5
218
100
AcDbEntity
  8
RACCORDO
100
AcDbLine
 62
7
  6
CONTINUOUS
 10
-15.2215163484
 20
35.818401954
 11
-11.2516614737
 21
39.1555727123
  0
LINE
  5
219
100
AcDbEntity
  8
RACCORDO
100
AcDbLine
 62
250
  6
CONTINUOUS
 10
-14.49375627
 20
35.7158039169
 11
-10.5399300713
 21
39.039500523
  0
LWPOLYLINE
  5
21A
100
AcDbEntity
  8
RACCORDO
100
AcDbPolyline
 62
250
  6
CONTINUOUS
 90
16
 70
0
 10
-14.49375627
 20
35.7158039169
 10
-14.5737536998
 20
35.6512307098
 10
-14.6526342937
 20
35.5799120069
 10
-14.7296899128
 20
35.5024880612
 10
-14.804228802
 20
35.4196539345
 10
-14.8755817993
 20
35.3321532578
 10
-14.943108344
 20
35.2407715555
 10
-15.0062022266
 20
35.1463291932
 10
-15.0642970311
 20
35.0496740129
 10
-15.1168712202
 20
34.9516737223
 10
-15.1634528168
 20
34.8532081042
 10
-15.2036236416
 20
34.7551611191
 10
-15.2370230672
 20
34.6584129691
 10
-15.263351255
 20
34.5638321964
 10
-15.2823718478
 20
34.4722678856
 10
-15.2939140909
 20
34.3845420418
  0
LWPOLYLINE
  5
21B
100
AcDbEntity
  8
RACCORDO
100
AcDbPolyline
 62
250
  6
CONTINUOUS
 90
13
 70
0
 10
-15.2215163484
 20
35.818401954
 10
-15.2044246118
 20
35.8316982581
 10
-15.1601195212
 20
35.8579597579
 10
-15.1104238649
 20
35.8769547816
 10
-15.0557145399
 20
35.8885392689
 10
-14.9964064673
 20
35.892625362
 10
-14.9329494455
 20
35.8891820714
 10
-14.8658247391
 20
35.8782355114
 10
-14.7955414286
 20
35.8598687018
 10
-14.7226325499
 20
35.8342209385
 10
-14.6476510513
 20
35.8014867367
 10
-14.5711656002
 20
35.7619143558
 10
-14.49375627
 20
35.7158039169
  0
LWPOLYLINE
  5
21C
100
AcDbEntity
  8
RACCORDO
100
AcDbPolyline
 62
7
  6
CONTINUOUS
 90
13
 70
0
 10
7.4907871961
 20
-36.2790897725
 10
7.4808977905
 20
-36.2804021973
 10
7.4703583646
 20
-36.2804129259
 10
7.4591688286
 20
-36.2791220304
 10
7.4472389288
 20
-36.2764307373
 10
7.434658768
 20
-36.2724379414
 10
7.4216988135
 20
-36.2674402001
 10
7.4083637034
 20
-36.2614423419
 10
7.3946487195
 20
-36.2544396026
 10
7.3808103175
 20
-36.2467141311
 10
7.3669339735
 20
-36.2383599844
 10
7.35293418
 20
-36.2292831308
 10
7.3388109294
 20
-36.2194835764
  0
LWPOLYLINE
  5
21D
100
AcDbEntity
  8
0
100
AcDbPolyline
 62
7
  6
CONTINUOUS
 90
5
 70
0
 10
1.5769095095
 20
-29.267141671
 10
1.5591710979
 20
-29.2670945263
 10
1.5299823582
 20
-29.2619552536
 10
1.5000718849
 20
-29.2517506391
 10
1.4689421623
 20
-29.2364838658
  0
LINE
  5
21E
100
AcDbEntity
  8
ASSI
100
AcDbLine
 62
7
  6
CONTINUOUS
 10
11.0100300087
 20
-39.0088215817
 11
-15.1421680615
 21
-20.5164249833
  0
LINE
  5
21F
100
AcDbEntity
  8
RACCORDO
100
AcDbLine
 62
250
  6
CONTINUOUS
 10
10.8582805763
 20
-38.7081222784
 11
7.3388109294
 21
-36.2194835764
  0
LINE
  5
220
100
AcDbEntity
  8
RACCORDO
100
AcDbLine
 62
7
  6
CONTINUOUS
 10
7.3385069132
 20
-36.219266453
 11
-11.7810122627
 21
-22.6997247907
  0
LINE
  5
221
100
AcDbEntity
  8
RACCORDO
100
AcDbLine
 62
250
  6
CONTINUOUS
 10
-11.7810122627
 20
-22.6997247907
 11
-15.2939105599
 21
-20.2157305831
  0
LWPOLYLINE
  5
222
100
AcDbEntity
  8
RACCORDO
100
AcDbPolyline
 62
7
  6
CONTINUOUS
 90
13
 70
0
 10
-11.7810122627
 20
-22.6997247907
 10
-11.7946484242
 20
-22.6896896692
 10
-11.808289102
 20
-22.6790404601
 10
-11.8219342872
 20
-22.6677771562
 10
-11.8356543781
 20
-22.6558728317
 10
-11.8493789435
 20
-22.6433543859
 10
-11.8628967194
 20
-22.6303025413
 10
-11.8762141013
 20
-22.6167254324
 10
-11.8893246198
 20
-22.6026148652
 10
-11.9019976929
 20
-22.5880270535
 10
-11.9141564114
 20
-22.5729806961
 10
-11.9258775467
 20
-22.5574569832
 10
-11.9371610173
 20
-22.5414558496
  0
LINE
  5
223
100
AcDbEntity
  8
0
100
AcDbLine
 62
7
  6
CONTINUOUS
 10
0.1562389047
 20
31.4761669074
 11
-1.1342470032
 21
30.3145624517
  0
LWPOLYLINE
  5
224
100
AcDbEntity
  8
RACCORDO
100
AcDbPolyline
 62
250
  6
CONTINUOUS
 90
15
 70
0
 10
-10.6126248725
 20
20.8615906833
 10
-10.5208020183
 20
20.9359503826
 10
-10.4210204949
 20
21.0029414409
 10
-10.3143499779
 20
21.0618465848
 10
-10.2019314164
 20
21.1120252067
 10
-10.0849723227
 20
21.1529491261
 10
-9.9647338668
 20
21.1842083318
 10
-9.8425070876
 20
21.2054760348
 10
-9.7195998702
 20
21.2165153458
 10
-9.597330451
 20
21.2172107068
 10
-9.477010144
 20
21.2075572359
 10
-9.3599279924
 20
21.1876553806
 10
-9.2473377402
 20
21.1577128919
 10
-9.1404458454
 20
21.1180487453
 10
-9.0403985438
 20
21.0690896796
  0
LWPOLYLINE
  5
225
100
AcDbEntity
  8
RACCORDO
100
AcDbPolyline
 62
250
  6
CONTINUOUS
 90
16
 70
0
 10
-10.986651196
 20
22.5190088065
 10
-10.894298076
 20
22.5910069318
 10
-10.7940003325
 20
22.6556913913
 10
-10.6868329477
 20
22.7123688905
 10
-10.5739445325
 20
22.7604319528
 10
-10.4565450211
 20
22.7993654289
 10
-10.3358927036
 20
22.8287520192
 10
-10.2132807294
 20
22.8482767499
 10
-10.0900232558
 20
22.8577303456
 10
-9.9674413681
 20
22.8570114744
 10
-9.8468489023
 20
22.8461278344
 10
-9.729538375
 20
22.8251960706
 10
-9.6167671377
 20
22.7944405275
 10
-9.5097438821
 20
22.7541908422
 10
-9.4096156863
 20
22.7048784087
 10
-9.3174557311
 20
22.6470317565
  0
LINE
  5
226
100
AcDbEntity
  8
RACCORDO
100
AcDbLine
 62
250
  6
CONTINUOUS
 10
-9.2251142701
 20
21.1498168046
 11
-9.2790346431
 21
21.1102362618
  0
LWPOLYLINE
  5
227
100
AcDbEntity
  8
RACCORDO
100
AcDbPolyline
 62
250
  6
CONTINUOUS
 90
53
 70
0
 10
-9.3284780931
 20
21.0745835819
 10
-9.3369151743
 20
21.068551636
 10
-9.3673213724
 20
21.0470992384
 10
-9.3987476928
 20
21.025221459
 10
-9.4314347644
 20
21.0029586868
 10
-9.4654207433
 20
20.9802595933
 10
-9.5006674735
 20
20.957175507
 10
-9.5373011164
 20
20.9339008032
 10
-9.5755512158
 20
20.9102898382
 10
-9.615188228
 20
20.8864882557
 10
-9.6556496831
 20
20.8631273622
 10
-9.6970787555
 20
20.8401799989
 10
-9.7393322709
 20
20.8176733246
 10
-9.7814182367
 20
20.7963201216
 10
-9.823315295
 20
20.7762197658
 10
-9.8650448037
 20
20.7572728813
 10
-9.9056788437
 20
20.739894123
 10
-9.9449578694
 20
20.7242455554
 10
-9.9831414264
 20
20.710165114
 10
-10.0200802319
 20
20.69758126
 10
-10.0557181275
 20
20.6865174245
 10
-10.0901112717
 20
20.6769501765
 10
-10.1232788568
 20
20.6687376839
 10
-10.1552430358
 20
20.661876498
 10
-10.1859816557
 20
20.6563700675
 10
-10.2154474502
 20
20.6520869063
 10
-10.2436039158
 20
20.6490337498
 10
-10.270487556
 20
20.6472038625
 10
-10.2961606153
 20
20.6464455531
 10
-10.3206216548
 20
20.6467558328
 10
-10.3438721134
 20
20.6481376904
 10
-10.3659785516
 20
20.6504484001
 10
-10.3869422457
 20
20.6536882804
 10
-10.4067619193
 20
20.657857013
 10
-10.4255003046
 20
20.662810917
 10
-10.4431412695
 20
20.6685427744
 10
-10.459700946
 20
20.6750598033
 10
-10.4752904631
 20
20.6822399771
 10
-10.4898995908
 20
20.6900622107
 10
-10.503538559
 20
20.6985475892
 10
-10.5163491859
 20
20.7076373413
 10
-10.528343812
 20
20.7173137283
 10
-10.5395100968
 20
20.7275944889
 10
-10.5499528373
 20
20.7384740671
 10
-10.559697061
 20
20.7499627728
 10
-10.5687177404
 20
20.7620502963
 10
-10.5770445902
 20
20.7747001523
 10
-10.5846830388
 20
20.787927455
 10
-10.5916276578
 20
20.8017170902
 10
-10.5978918767
 20
20.8159872311
 10
-10.6034801718
 20
20.8307106018
 10
-10.6083880669
 20
20.845914478
 10
-10.6126155617
 20
20.8615988598
  0
LWPOLYLINE
  5
228
100
AcDbEntity
  8
RACCORDO
100
AcDbPolyline
 62
7
  6
CONTINUOUS
 90
18
 70
0
 10
-9.4835460742
 20
21.0877517975
 10
-9.4886929779
 20
21.0861793489
 10
-9.4974927465
 20
21.0837490901
 10
-9.4996192077
 20
21.0832391376
 10
-9.4951869506
 20
21.0839916441
 10
-9.4840928267
 20
21.0853682385
 10
-9.4667778936
 20
21.0866438106
 10
-9.4434391176
 20
21.0871374902
 10
-9.4136577822
 20
21.0861179656
 10
-9.3772725667
 20
21.0827103008
 10
-9.3350697099
 20
21.0760682343
 10
-9.2881844793
 20
21.0655081129
 10
-9.2370887926
 20
21.0502899651
 10
-9.1830509814
 20
21.0299659031
 10
-9.1287738449
 20
21.0050192183
 10
-9.0753947497
 20
20.9757640549
 10
-9.02368025
 20
20.942532275
 10
-9.0166216236
 20
20.9375922485
  0
LINE
  5
229
100
AcDbEntity
  8
0
100
AcDbLine
 62
7
  6
CONTINUOUS
 10
1.4689421623
 20
-29.2364838658
 11
1.436592101
 21
-29.2161556206
  0
LWPOLYLINE
  5
22A
100
AcDbEntity
  8
0
100
AcDbPolyline
 62
7
  6
CONTINUOUS
 90
9
 70
0
 10
1.3302087698
 20
-29.291371487
 10
1.3615446567
 20
-29.3112667201
 10
1.3927643027
 20
-29.3266169499
 10
1.4233381571
 20
-29.3371062617
 10
1.4528284995
 20
-29.3424855038
 10
1.4806321939
 20
-29.3425790227
 10
1.5060427833
 20
-29.3374058698
 10
1.5286022501
 20
-29.3271262791
 10
1.5347795567
 20
-29.3230763584
  0
LINE
  5
22B
100
AcDbEntity
  8
0
100
AcDbLine
 62
7
  6
CONTINUOUS
 10
1.5199369467
 20
-30.6655125951
 11
1.9659639309
 21
-30.9808959402
  0
LINE
  5
22C
100
AcDbEntity
  8
0
100
AcDbLine
 62
7
  6
CONTINUOUS
 10
-1.5499808689
 20
-28.49475825
 11
-1.1539859321
 21
-28.7747635951
  0
LINE
  5
22D
100
AcDbEntity
  8
0
100
AcDbLine
 62
7
  6
CONTINUOUS
 10
-2.9803489928
 20
-27.48333525
 11
-2.5843639555
 21
-27.7633335951
  0
LINE
  5
22E
100
AcDbEntity
  8
0
100
AcDbLine
 62
7
  6
CONTINUOUS
 10
-4.5427123225
 20
-26.3785829048
 11
-4.1467173857
 21
-26.65858825
  0
LINE
  5
22F
100
AcDbEntity
  8
0
100
AcDbLine
 62
7
  6
CONTINUOUS
 10
-5.8384225665
 20
-25.4623774048
 11
-5.4424127805
 21
-25.74239325
  0
LINE
  5
230
100
AcDbEntity
  8
0
100
AcDbLine
 62
7
  6
CONTINUOUS
 10
-3.7507326385
 20
-26.93859175
 11
-3.3547379918
 21
-27.21860225
  0
LINE
  5
231
100
AcDbEntity
  8
0
100
AcDbLine
 62
7
  6
CONTINUOUS
 10
-2.2099702968
 20
-28.02807525
 11
-1.8139756501
 21
-28.30808575
  0
LINE
  5
232
100
AcDbEntity
  8
0
100
AcDbLine
 62
7
  6
CONTINUOUS
 10
0.3814405818
 20
-29.8604740951
 11
0.7774401783
 21
-30.1404880951
  0
LINE
  5
233
100
AcDbEntity
  8
0
100
AcDbLine
 62
7
  6
CONTINUOUS
 10
-0.2785537959
 20
-29.3937875951
 11
0.1174455105
 21
-29.67380675
  0
LINE
  5
234
100
AcDbEntity
  8
0
100
AcDbLine
 62
7
  6
CONTINUOUS
 10
-1.0049547831
 20
-28.4568048247
 11
-0.3795492408
 21
-28.8990333247
  0
LINE
  5
235
100
AcDbEntity
  8
0
100
AcDbLine
 62
7
  6
CONTINUOUS
 10
-0.8586904589
 20
-28.1480056724
 11
-0.4748672412
 21
-28.4194096724
  0
LINE
  5
236
100
AcDbEntity
  8
0
100
AcDbLine
 62
7
  6
CONTINUOUS
 10
0.8269760898
 20
-29.3399464752
 11
1.1725918569
 21
-29.5843391724
  0
LINE
  5
237
100
AcDbEntity
  8
0
100
AcDbLine
 62
7
  6
CONTINUOUS
 10
-0.508876447
 20
-28.2449865841
 11
-0.7523593132
 21
-28.0728181982
  0
LINE
  5
238
100
AcDbEntity
  8
0
100
AcDbLine
 62
7
  6
CONTINUOUS
 10
0.8484265142
 20
-28.9506985728
 11
1.3302086617
 21
-29.2913701493
  0
LINE
  5
239
100
AcDbEntity
  8
0
100
AcDbLine
 62
7
  6
CONTINUOUS
 10
1.4365850846
 20
-29.2161506592
 11
0.954802829
 21
-28.8754791592
  0
LINE
  5
23A
100
AcDbEntity
  8
0
100
AcDbLine
 62
7
  6
CONTINUOUS
 10
0.8871108765
 20
-28.4415192798
 11
1.3688980818
 21
-28.7821942798
  0
LWPOLYLINE
  5
23B
100
AcDbEntity
  8
RACCORDO
100
AcDbPolyline
 62
250
  6
CONTINUOUS
 90
7
 70
0
 10
11.0100300087
 20
-39.0088215817
 10
10.9887452534
 20
-38.9922906439
 10
10.9485744286
 20
-38.9510537841
 10
10.9151750031
 20
-38.9015395547
 10
10.8888468152
 20
-38.8441924623
 10
10.8698262225
 20
-38.7795273317
 10
10.8582839793
 20
-38.7081246847
  0
LWPOLYLINE
  5
23C
100
AcDbEntity
  8
RACCORDO
100
AcDbPolyline
 62
250
  6
CONTINUOUS
 90
34
 70
0
 10
7.4907917012
 20
-36.2791333023
 10
7.4807994994
 20
-36.2712161949
 10
7.4707553264
 20
-36.2615663416
 10
7.460660673
 20
-36.2501846357
 10
7.4504169798
 20
-36.2368703045
 10
7.4401280944
 20
-36.2218242437
 10
7.4300890134
 20
-36.205657204
 10
7.4203607616
 20
-36.1884209495
 10
7.41086352
 20
-36.170080462
 10
7.401669596
 20
-36.1511241279
 10
7.3928304988
 20
-36.1317201874
 10
7.3842746189
 20
-36.1117162131
 10
7.3758925699
 20
-36.0911173229
 10
7.3676739621
 20
-36.069960671
 10
7.3596195752
 20
-36.0482169695
 10
7.3516438606
 20
-36.0257870309
 10
7.3437357009
 20
-36.0026729302
 10
7.3359025272
 20
-35.9788763282
 10
7.328091238
 20
-35.9542945732
 10
7.3202958898
 20
-35.9289240459
 10
7.3125220718
 20
-35.9027699707
 10
7.3047367713
 20
-35.8757413519
 10
7.2969350949
 20
-35.8478247038
 10
7.2891236937
 20
-35.8190339153
 10
7.2812884256
 20
-35.7893182129
 10
7.2734262742
 20
-35.7586624865
 10
7.2655429897
 20
-35.7270817816
 10
7.257638142
 20
-35.6945702813
 10
7.2497089757
 20
-35.6611090038
 10
7.2417611713
 20
-35.6267168411
 10
7.2338067151
 20
-35.5914449157
 10
7.2258445836
 20
-35.5552806199
 10
7.2178780996
 20
-35.5182368247
 10
7.2099249677
 20
-35.4804032516
  0
LINE
  5
23D
100
AcDbEntity
  8
0
100
AcDbLine
 62
7
  6
CONTINUOUS
 10
3.8155004651
 20
26.8145624517
 11
5.353441682
 21
27.8011895804
  0
LINE
  5
23E
100
AcDbEntity
  8
0
100
AcDbLine
 62
7
  6
CONTINUOUS
 10
-6.3271178455
 20
-22.928920118
 11
-5.931118249
 21
-23.208934118
  0
LINE
  5
23F
100
AcDbEntity
  8
0
100
AcDbLine
 62
7
  6
CONTINUOUS
 10
-5.0556910625
 20
-23.827954618
 11
-4.6596914661
 21
-24.107968618
  0
LINE
  5
240
100
AcDbEntity
  8
0
100
AcDbLine
 62
7
  6
CONTINUOUS
 10
-4.3956966849
 20
-24.294641118
 11
-3.9997020381
 21
-24.574651618
  0
LINE
  5
241
100
AcDbEntity
  8
0
100
AcDbLine
 62
7
  6
CONTINUOUS
 10
-3.6037222407
 20
-24.854651618
 11
-3.0050849326
 21
-25.277952118
  0
LINE
  5
242
100
AcDbEntity
  8
0
100
AcDbLine
 62
7
  6
CONTINUOUS
 10
-2.2656025604
 20
-25.800845118
 11
-1.6669652523
 21
-26.224145618
  0
LINE
  5
243
100
AcDbEntity
  8
0
100
AcDbLine
 62
7
  6
CONTINUOUS
 10
0.5284511347
 20
-27.7765338535
 11
1.4557369843
 21
-28.4322237411
  0
LINE
  5
244
100
AcDbEntity
  8
0
100
AcDbLine
 62
7
  6
CONTINUOUS
 10
-0.7672690089
 20
-26.8603213535
 11
-0.3712545632
 21
-27.1403458535
  0
LINE
  5
245
100
AcDbEntity
  8
0
100
AcDbLine
 62
7
  6
CONTINUOUS
 10
-1.560470509
 20
-26.1488424629
 11
-2.1591078171
 21
-25.7255419629
  0
LINE
  5
246
100
AcDbEntity
  8
0
100
AcDbLine
 62
7
  6
CONTINUOUS
 10
-2.8985901893
 20
-25.2026489629
 11
-3.4972274974
 21
-24.7793484629
  0
LINE
  5
247
100
AcDbEntity
  8
0
100
AcDbLine
 62
7
  6
CONTINUOUS
 10
-3.8932072949
 20
-24.4993484629
 11
-4.2892019416
 21
-24.2193379629
  0
LINE
  5
248
100
AcDbEntity
  8
0
100
AcDbLine
 62
7
  6
CONTINUOUS
 10
-4.5531967228
 20
-24.0326654629
 11
-4.9491963193
 21
-23.7526514629
  0
LINE
  5
249
100
AcDbEntity
  8
0
100
AcDbLine
 62
7
  6
CONTINUOUS
 10
-5.8246235057
 20
-23.1336309629
 11
-6.2206231022
 21
-22.8536169629
  0
LINE
  5
24A
100
AcDbEntity
  8
0
100
AcDbLine
 62
7
  6
CONTINUOUS
 10
1.5622315694
 20
-28.3569206978
 11
0.6349458787
 21
-27.7012306978
  0
LINE
  5
24B
100
AcDbEntity
  8
0
100
AcDbLine
 62
7
  6
CONTINUOUS
 10
-0.2647598191
 20
-27.0650426978
 11
-0.6607742648
 21
-26.7850181978
  0
LWPOLYLINE
  5
24C
100
AcDbEntity
  8
0
100
AcDbPolyline
 62
7
  6
CONTINUOUS
 90
28
 70
0
 10
1.4557368254
 20
-28.4322220862
 10
1.50590302
 20
-28.4700733474
 10
1.5553635045
 20
-28.5121041298
 10
1.6037734793
 20
-28.5580275473
 10
1.650769932
 20
-28.607532027
 10
1.6960434572
 20
-28.6602811744
 10
1.7393376666
 20
-28.7159213991
 10
1.7803496431
 20
-28.7741187489
 10
1.8187617222
 20
-28.8344519306
 10
1.8543190664
 20
-28.896410909
 10
1.8867416446
 20
-28.9595592454
 10
1.9158074954
 20
-29.023494664
 10
1.9413846734
 20
-29.0877442688
 10
1.963272654
 20
-29.1518839301
 10
1.9812996256
 20
-29.2154880181
 10
1.9954096664
 20
-29.2780842372
 10
2.0054795525
 20
-29.33926027
 10
2.0114125818
 20
-29.3986149029
 10
2.0132294123
 20
-29.4557063053
 10
2.0108905057
 20
-29.5101595981
 10
2.0043798856
 20
-29.5616185998
 10
1.9937930887
 20
-29.6096942435
 10
1.9791770463
 20
-29.6540697698
 10
1.9605994705
 20
-29.694457386
 10
1.9382278698
 20
-29.7305468817
 10
1.9121934477
 20
-29.762099989
 10
1.8826448443
 20
-29.7889148505
 10
1.8726575326
 20
-29.7963371746
  0
LINE
  5
24D
100
AcDbEntity
  8
RACCORDO
100
AcDbLine
 62
7
  6
CONTINUOUS
 10
-15.6435226707
 20
-19.6547232487
 11
-15.6435130204
 21
-19.654820762
  0
LWPOLYLINE
  5
24E
100
AcDbEntity
  8
RACCORDO
100
AcDbPolyline
 62
250
  6
CONTINUOUS
 90
16
 70
0
 10
-15.2939105599
 20
-20.2157305831
 10
-15.6050497319
 20
-16.83144935
 10
-15.8719239865
 20
-13.4077167415
 10
-16.0944571413
 20
-9.9450797148
 10
-16.2725857465
 20
-6.4439280858
 10
-16.406239644
 20
-2.904982879
 10
-16.4953640806
 20
0.6706872805
 10
-16.5399364563
 20
4.2824907527
 10
-16.539936762
 20
7.929837271
 10
-16.4953649712
 20
11.6116229517
 10
-16.4062410281
 20
15.3272367909
 10
-16.2725874752
 20
19.0760477093
 10
-16.0944590048
 20
22.8568871399
 10
-15.8719256911
 20
26.6689273753
 10
-15.6050508995
 20
30.5116964336
 10
-15.2939107304
 20
34.3845396655
  0
LWPOLYLINE
  5
24F
100
AcDbEntity
  8
RACCORDO
100
AcDbPolyline
 62
250
  6
CONTINUOUS
 90
10
 70
0
 10
-15.6450451984
 20
35.0013664993
 10
-15.6465359042
 20
34.976775493
 10
-15.6432400235
 20
34.8977752047
 10
-15.6277100069
 20
34.8176947863
 10
-15.6000557529
 20
34.7383604414
 10
-15.5605653303
 20
34.6617736295
 10
-15.509584097
 20
34.5867044521
 10
-15.4475752742
 20
34.5138786712
 10
-15.3753584092
 20
34.4459759083
 10
-15.2939140909
 20
34.3845420419
  0
LWPOLYLINE
  5
250
100
AcDbEntity
  8
RACCORDO
100
AcDbPolyline
 62
7
  6
CONTINUOUS
 90
16
 70
0
 10
-15.6449709183
 20
35.0022284848
 10
-15.9495773447
 20
31.2158386835
 10
-16.2185576112
 20
27.3546194851
 10
-16.4427920364
 20
23.524784673
 10
-16.6222255501
 20
19.7270293504
 10
-16.7568239968
 20
15.9619746825
 10
-16.8465560877
 20
12.2302381652
 10
-16.8913952996
 20
8.5324184533
 10
-16.891328781
 20
4.8691457052
 10
-16.8463473433
 20
1.2410819617
 10
-16.7564454443
 20
-2.3511483418
 10
-16.6216311571
 20
-5.9069748114
 10
-16.4419170546
 20
-9.425819601
 10
-16.2173184015
 20
-12.9071040676
 10
-15.9478714741
 20
-16.3502048521
 10
-15.6435120937
 20
-19.6548209154
  0
LINE
  5
251
100
AcDbEntity
  8
RACCORDO
100
AcDbLine
 62
7
  6
CONTINUOUS
 10
-15.6450112156
 20
35.0017647181
 11
-15.6450451984
 21
35.0013664993
  0
LWPOLYLINE
  5
252
100
AcDbEntity
  8
RACCORDO
100
AcDbPolyline
 62
250
  6
CONTINUOUS
 90
8
 70
0
 10
-15.6435130204
 20
-19.654820762
 10
-15.6273876153
 20
-19.7494179834
 10
-15.5996260089
 20
-19.8376351794
 10
-15.560083204
 20
-19.9227713969
 10
-15.5091641061
 20
-20.0039555618
 10
-15.4473902451
 20
-20.0803559646
 10
-15.3753944193
 20
-20.1511889302
 10
-15.2939140909
 20
-20.2157280864
  0
LWPOLYLINE
  5
253
100
AcDbEntity
  8
RACCORDO
100
AcDbPolyline
 62
250
  6
CONTINUOUS
 90
7
 70
0
 10
-15.2939140909
 20
-20.2157280863
 10
-15.2823718478
 20
-20.2871307333
 10
-15.263351255
 20
-20.3517958639
 10
-15.2370230672
 20
-20.4091429563
 10
-15.2036236416
 20
-20.4586571857
 10
-15.1634528168
 20
-20.4998940455
 10
-15.1421680615
 20
-20.5164249833
  0
LWPOLYLINE
  5
254
100
AcDbEntity
  8
RACCORDO
100
AcDbPolyline
 62
250
  6
CONTINUOUS
 90
14
 70
0
 10
-11.9371610173
 20
-22.5414558496
 10
-12.2699422671
 20
-19.1460023539
 10
-12.5553141067
 20
-15.7140053353
 10
-12.7932200175
 20
-12.2460239759
 10
-12.9836143591
 20
-8.7425671101
 10
-13.1264513566
 20
-5.2042618229
 10
-13.2216925818
 20
-1.6318589293
 10
-13.2693185625
 20
1.9740537825
 10
-13.2693186488
 20
5.6128813662
 10
-13.2216928435
 20
9.2838438368
 10
-13.1264518226
 20
12.9863289533
 10
-12.9836150587
 20
16.7197236053
 10
-12.7932208738
 20
20.4832293521
 10
-12.5553149298
 20
24.2761566634
  0
LWPOLYLINE
  5
255
100
AcDbEntity
  8
RACCORDO
100
AcDbPolyline
 62
250
  6
CONTINUOUS
 90
3
 70
0
 10
-12.5553149298
 20
24.2761566634
 10
-12.2699428288
 20
28.0979299656
 10
-11.9371610222
 20
31.9479101871
  0
LINE
  5
256
100
AcDbEntity
  8
RACCORDO
100
AcDbLine
 62
250
  6
CONTINUOUS
 10
6.1779783083
 20
-22.8559512386
 11
-8.9482642734
 21
-12.1600825352
  0
LWPOLYLINE
  5
257
100
AcDbEntity
  8
RACCORDO
100
AcDbPolyline
 62
250
  6
CONTINUOUS
 90
16
 70
0
 10
-10.9866512246
 20
-14.1326563074
 10
-11.1375483338
 20
-11.795407749
 10
-11.2669015918
 20
-9.4423956697
 10
-11.3747109987
 20
-7.0736200696
 10
-11.4609864775
 20
-4.6888463421
 10
-11.5257181052
 20
-2.2883090937
 10
-11.5688761127
 20
0.1272878557
 10
-11.5904506561
 20
2.557926713
 10
-11.5904515793
 20
5.0036252714
 10
-11.5688786456
 20
7.4637330905
 10
-11.5257220856
 20
9.9382802082
 10
-11.4609916686
 20
12.4272365865
 10
-11.3747164658
 20
14.9298616723
 10
-11.2669061677
 20
17.4459086143
 10
-11.1375510839
 20
19.9756242637
 10
-10.9866512143
 20
22.5190086204
  0
LINE
  5
258
100
AcDbEntity
  8
RACCORDO
100
AcDbLine
 62
250
  6
CONTINUOUS
 10
6.0909994137
 20
-20.9437484513
 11
-8.7957125165
 21
-10.4172534959
  0
LINE
  5
259
100
AcDbEntity
  8
0
100
AcDbLine
 62
7
  6
CONTINUOUS
 10
6.0475310743
 20
-19.8337795598
 11
-8.7002895619
 21
-9.4054955803
  0
LWPOLYLINE
  5
25A
100
AcDbEntity
  8
RACCORDO
100
AcDbPolyline
 62
250
  6
CONTINUOUS
 90
92
 70
0
 10
7.3385069132
 20
-36.219266453
 10
7.321594148
 20
-36.1935935493
 10
7.3051457634
 20
-36.1674272071
 10
7.2891622677
 20
-36.1407670857
 10
7.2737084069
 20
-36.1136536071
 10
7.2587205401
 20
-36.0860456092
 10
7.2440066286
 20
-36.0578203532
 10
7.229545901
 20
-36.0289859533
 10
7.2153603673
 20
-35.9995334673
 10
7.2013222394
 20
-35.9693145196
 10
7.187415085
 20
-35.9383228282
 10
7.1736568548
 20
-35.9065636619
 10
7.1599715019
 20
-35.8739058607
 10
7.1463457702
 20
-35.8403314208
 10
7.1327947932
 20
-35.805857096
 10
7.1192852937
 20
-35.7704037398
 10
7.1058084216
 20
-35.733950422
 10
7.092375263
 20
-35.6965165879
 10
7.0789825824
 20
-35.6580835633
 10
7.0656258062
 20
-35.6186325096
 10
7.0523120373
 20
-35.5781805909
 10
7.0390556014
 20
-35.5367631071
 10
7.025850673
 20
-35.4943489276
 10
7.012705802
 20
-35.450967386
 10
6.9996567566
 20
-35.4067445606
 10
6.9867186841
 20
-35.3617229046
 10
6.9738790332
 20
-35.3158582612
 10
6.9611319237
 20
-35.2691468619
 10
6.9484897508
 20
-35.2216375005
 10
6.935942891
 20
-35.1732795721
 10
6.9234526846
 20
-35.1239200491
 10
6.9110191091
 20
-35.0735655438
 10
6.8986456219
 20
-35.0222072054
 10
6.8862993156
 20
-34.9696684634
 10
6.8739790156
 20
-34.915947148
 10
6.8616901654
 20
-34.8610426554
 10
6.8494104305
 20
-34.804780344
 10
6.8371407521
 20
-34.747163276
 10
6.8248854268
 20
-34.6881849983
 10
6.8126279159
 20
-34.6276561028
 10
6.800370012
 20
-34.5655804245
 10
6.7881163642
 20
-34.501949975
 10
6.77585565
 20
-34.436557009
 10
6.7635912054
 20
-34.3694104837
 10
6.7513276249
 20
-34.3004963518
 10
6.7390566496
 20
-34.2295716062
 10
6.7267836335
 20
-34.1566551034
 10
6.7145130629
 20
-34.0817217026
 10
6.7022369566
 20
-34.0044613891
 10
6.689956647
 20
-33.9248608202
 10
6.6776833227
 20
-33.8429253842
 10
6.6654256958
 20
-33.7583719503
 10
6.6531804324
 20
-33.6711303843
 10
6.6409664955
 20
-33.5812609536
 10
6.6288275879
 20
-33.4886751629
 10
6.6167666039
 20
-33.3933172855
 10
6.6047985545
 20
-33.2952318411
 10
6.592985974
 20
-33.1944803161
 10
6.581338512
 20
-33.0910456834
 10
6.5698657772
 20
-32.9849330451
 10
6.5586303002
 20
-32.8762370839
 10
6.5476424179
 20
-32.7649403684
 10
6.5369121444
 20
-32.6510478805
 10
6.526501266
 20
-32.5346881307
 10
6.5164256994
 20
-32.4159199823
 10
6.5066903415
 20
-32.2946720193
 10
6.4973407687
 20
-32.1708771844
 10
6.4883936996
 20
-32.0446605403
 10
6.4798551949
 20
-31.9158834579
 10
6.4717577498
 20
-31.7840815996
 10
6.4641098642
 20
-31.6492796927
 10
6.4569321836
 20
-31.5114357744
 10
6.4502809825
 20
-31.3699821258
 10
6.4441650525
 20
-31.224898988
 10
6.4386131431
 20
-31.0761841084
 10
6.433718163
 20
-30.923292048
 10
6.429492474
 20
-30.7662067886
 10
6.425970847
 20
-30.6049170249
 10
6.423287317
 20
-30.4388799964
 10
6.4214573872
 20
-30.268079173
 10
6.4205240888
 20
-30.0924976081
 10
6.4206714083
 20
-29.9115869438
 10
6.4219192271
 20
-29.7252764817
 10
6.4243200932
 20
-29.5335961389
 10
6.4281160687
 20
-29.336143395
 10
6.4333393235
 20
-29.1327085986
 10
6.4400449665
 20
-28.9234531849
 10
6.4485148517
 20
-28.708528474
 10
6.4587759263
 20
-28.4879594561
 10
6.4708949552
 20
-28.2616707945
 10
6.4852167989
 20
-28.0296618756
 10
6.4857057309
 20
-28.0226340738
  0
LINE
  5
25B
100
AcDbEntity
  8
RACCORDO
100
AcDbLine
 62
250
  6
CONTINUOUS
 10
-11.576981707
 20
30.2507615521
 11
-11.5567984041
 21
30.063175337
  0
LINE
  5
25C
100
AcDbEntity
  8
RACCORDO
100
AcDbLine
 62
250
  6
CONTINUOUS
 10
-11.5567984041
 20
30.063175337
 11
-11.5358439567
 21
29.8589250537
  0
LINE
  5
25D
100
AcDbEntity
  8
RACCORDO
100
AcDbLine
 62
250
  6
CONTINUOUS
 10
-11.5358439567
 20
29.8589250537
 11
-11.5063972705
 21
29.5564673721
  0
LINE
  5
25E
100
AcDbEntity
  8
RACCORDO
100
AcDbLine
 62
250
  6
CONTINUOUS
 10
-11.5063972705
 20
29.5564673721
 11
-11.4750426325
 21
29.2162234507
  0
LINE
  5
25F
100
AcDbEntity
  8
RACCORDO
100
AcDbLine
 62
250
  6
CONTINUOUS
 10
-11.4750426325
 20
29.2162234507
 11
-11.4333673506
 21
28.7381588292
  0
LINE
  5
260
100
AcDbEntity
  8
RACCORDO
100
AcDbLine
 62
250
  6
CONTINUOUS
 10
-11.4333673506
 20
28.7381588292
 11
-11.3801581099
 21
28.0918647968
  0
LINE
  5
261
100
AcDbEntity
  8
RACCORDO
100
AcDbLine
 62
250
  6
CONTINUOUS
 10
-11.3801581099
 20
28.0918647968
 11
-11.3126611129
 21
27.2267141125
  0
LINE
  5
262
100
AcDbEntity
  8
RACCORDO
100
AcDbLine
 62
250
  6
CONTINUOUS
 10
-11.3126611129
 20
27.2267141125
 11
-11.2357249325
 21
26.194655961
  0
LINE
  5
263
100
AcDbEntity
  8
RACCORDO
100
AcDbLine
 62
250
  6
CONTINUOUS
 10
-11.2357249325
 20
26.194655961
 11
-11.1465736948
 21
24.948747849
  0
LINE
  5
264
100
AcDbEntity
  8
RACCORDO
100
AcDbLine
 62
250
  6
CONTINUOUS
 10
-11.1465736948
 20
24.948747849
 11
-11.0761771926
 21
23.9216416252
  0
LINE
  5
265
100
AcDbEntity
  8
RACCORDO
100
AcDbLine
 62
250
  6
CONTINUOUS
 10
-11.0761771926
 20
23.9216416252
 11
-11.0167191388
 21
23.0088751835
  0
LWPOLYLINE
  5
266
100
AcDbEntity
  8
RACCORDO
100
AcDbPolyline
 62
250
  6
CONTINUOUS
 90
13
 70
0
 10
-8.9346441906
 20
-10.1741021295
 10
-8.9334556097
 20
-10.1934316382
 10
-8.9299102058
 20
-10.2141710432
 10
-8.9240686417
 20
-10.2359654872
 10
-8.9160308685
 20
-10.2584420613
 10
-8.9059344144
 20
-10.2812161848
 10
-8.893952032
 20
-10.3038981854
 10
-8.8802887415
 20
-10.3260999692
 10
-8.8651783272
 20
-10.3474416558
 10
-8.8488793374
 20
-10.3675580784
 10
-8.8316706549
 20
-10.3861050393
 10
-8.8138467238
 20
-10.4027651979
 10
-8.7957125165
 20
-10.4172534959
  0
LINE
  5
267
100
AcDbEntity
  8
RACCORDO
100
AcDbLine
 62
250
  6
CONTINUOUS
 10
-11.0167191388
 20
23.0088751835
 11
-10.9866512652
 21
22.5190088571
  0
LINE
  5
268
100
AcDbEntity
  8
RACCORDO
100
AcDbLine
 62
7
  6
CONTINUOUS
 10
-8.7002895619
 20
20.713911731
 11
-8.7002895619
 21
-10.014074224
  0
LINE
  5
269
100
AcDbEntity
  8
RACCORDO
100
AcDbLine
 62
250
  6
CONTINUOUS
 10
-10.9866512716
 20
-14.1326565903
 11
-11.0178139281
 21
-14.6760857479
  0
LINE
  5
26A
100
AcDbEntity
  8
RACCORDO
100
AcDbLine
 62
250
  6
CONTINUOUS
 10
-11.0178139281
 20
-14.6760857479
 11
-11.0642404102
 21
-15.425819216
  0
LINE
  5
26B
100
AcDbEntity
  8
RACCORDO
100
AcDbLine
 62
250
  6
CONTINUOUS
 10
-11.0642404102
 20
-15.425819216
 11
-11.1236260659
 21
-16.3178702896
  0
LINE
  5
26C
100
AcDbEntity
  8
RACCORDO
100
AcDbLine
 62
250
  6
CONTINUOUS
 10
-11.1236260659
 20
-16.3178702896
 11
-11.1796483926
 21
-17.107766005
  0
LINE
  5
26D
100
AcDbEntity
  8
RACCORDO
100
AcDbLine
 62
250
  6
CONTINUOUS
 10
-11.1796483926
 20
-17.107766005
 11
-11.2441409782
 21
-17.9669451697
  0
LINE
  5
26E
100
AcDbEntity
  8
RACCORDO
100
AcDbLine
 62
250
  6
CONTINUOUS
 10
-11.2441409782
 20
-17.9669451697
 11
-11.3023898753
 21
-18.6994035686
  0
LINE
  5
26F
100
AcDbEntity
  8
RACCORDO
100
AcDbLine
 62
250
  6
CONTINUOUS
 10
-11.3023898753
 20
-18.6994035686
 11
-11.3549649259
 21
-19.3233895565
  0
LINE
  5
270
100
AcDbEntity
  8
RACCORDO
100
AcDbLine
 62
250
  6
CONTINUOUS
 10
-11.3549649259
 20
-19.3233895565
 11
-11.3934524785
 21
-19.7554478435
  0
LINE
  5
271
100
AcDbEntity
  8
RACCORDO
100
AcDbLine
 62
250
  6
CONTINUOUS
 10
-11.3934524785
 20
-19.7554478435
 11
-11.4292271288
 21
-20.1361147568
  0
LINE
  5
272
100
AcDbEntity
  8
RACCORDO
100
AcDbLine
 62
250
  6
CONTINUOUS
 10
-11.4292271288
 20
-20.1361147568
 11
-11.4544491905
 21
-20.3911911838
  0
LINE
  5
273
100
AcDbEntity
  8
RACCORDO
100
AcDbLine
 62
250
  6
CONTINUOUS
 10
-11.4544491905
 20
-20.3911911838
 11
-11.478403764
 21
-20.6224598163
  0
LINE
  5
274
100
AcDbEntity
  8
RACCORDO
100
AcDbLine
 62
250
  6
CONTINUOUS
 10
-11.478403764
 20
-20.6224598163
 11
-11.501199937
 21
-20.8319822201
  0
LINE
  5
275
100
AcDbEntity
  8
RACCORDO
100
AcDbLine
 62
250
  6
CONTINUOUS
 10
-11.501199937
 20
-20.8319822201
 11
-11.5229578609
 21
-21.0218368773
  0
LINE
  5
276
100
AcDbEntity
  8
RACCORDO
100
AcDbLine
 62
250
  6
CONTINUOUS
 10
-11.5229578609
 20
-21.0218368773
 11
-11.5369488187
 21
-21.1384734228
  0
LINE
  5
277
100
AcDbEntity
  8
RACCORDO
100
AcDbLine
 62
250
  6
CONTINUOUS
 10
-11.5369488187
 20
-21.1384734228
 11
-11.5505831937
 21
-21.2479487296
  0
LINE
  5
278
100
AcDbEntity
  8
RACCORDO
100
AcDbLine
 62
250
  6
CONTINUOUS
 10
-11.5505831937
 20
-21.2479487296
 11
-11.5638983413
 21
-21.3507148451
  0
LINE
  5
279
100
AcDbEntity
  8
RACCORDO
100
AcDbLine
 62
250
  6
CONTINUOUS
 10
-11.5638983413
 20
-21.3507148451
 11
-11.576945678
 21
-21.4474165086
  0
LINE
  5
27A
100
AcDbEntity
  8
RACCORDO
100
AcDbLine
 62
250
  6
CONTINUOUS
 10
-11.576945678
 20
-21.4474165086
 11
-11.5897896877
 21
-21.5386833861
  0
LWPOLYLINE
  5
27B
100
AcDbEntity
  8
RACCORDO
100
AcDbPolyline
 62
250
  6
CONTINUOUS
 90
3
 70
0
 10
-11.5897896877
 20
-21.5386833861
 10
-11.6024788964
 20
-21.6249363472
 10
-11.6087916035
 20
-21.6664098833
  0
LINE
  5
27C
100
AcDbEntity
  8
RACCORDO
100
AcDbLine
 62
250
  6
CONTINUOUS
 10
-10.8684568815
 20
-13.4128420636
 11
-10.9866512246
 21
-14.1326563074
  0
LINE
  5
27D
100
AcDbEntity
  8
RACCORDO
100
AcDbLine
 62
250
  6
CONTINUOUS
 10
-10.7437783154
 20
-12.6900998462
 11
-10.8684568815
 21
-13.4128420636
  0
LINE
  5
27E
100
AcDbEntity
  8
RACCORDO
100
AcDbLine
 62
250
  6
CONTINUOUS
 10
-10.6126155264
 20
-11.9644296553
 11
-10.7437783154
 21
-12.6900998462
  0
LWPOLYLINE
  5
27F
100
AcDbEntity
  8
RACCORDO
100
AcDbPolyline
 62
250
  6
CONTINUOUS
 90
16
 70
0
 10
12.5058070594
 20
15.7768643384
 10
12.4119814933
 20
15.7312456688
 10
12.3108931394
 20
15.692553041
 10
12.2035774326
 20
15.6611837844
 10
12.0911336184
 20
15.6374605465
 10
11.9747133583
 20
15.6216265631
 10
11.8555089174
 20
15.613842993
 10
11.7347411476
 20
15.6141892902
 10
11.6136469983
 20
15.6226625356
 10
11.4934667019
 20
15.6391759471
 10
11.3754310705
 20
15.6635597689
 10
11.260749036
 20
15.695564529
 10
11.1505952546
 20
15.7348634496
 10
11.0460978826
 20
15.7810537707
 10
10.9483270384
 20
15.8336610492
 10
10.8582839793
 20
15.8921454435
  0
LWPOLYLINE
  5
280
100
AcDbEntity
  8
RACCORDO
100
AcDbPolyline
 62
250
  6
CONTINUOUS
 90
23
 70
0
 10
-9.0095124968
 20
-11.6379957557
 10
-9.0203023864
 20
-11.578952226
 10
-9.030613061
 20
-11.5181944165
 10
-9.0404284438
 20
-11.4557243615
 10
-9.048969044
 20
-11.391166602
 10
-9.0562041394
 20
-11.3243504697
 10
-9.0619774111
 20
-11.2556574949
 10
-9.0652628619
 20
-11.1855807595
 10
-9.0658426513
 20
-11.113131576
 10
-9.0637398585
 20
-11.039688158
 10
-9.0584681062
 20
-10.9692178729
 10
-9.0500088159
 20
-10.9028680085
 10
-9.0386478067
 20
-10.8396473866
 10
-9.0245475439
 20
-10.7801524133
 10
-9.0078406969
 20
-10.7245986904
 10
-8.9886455748
 20
-10.6728252759
 10
-8.9671132076
 20
-10.6248186225
 10
-8.9433051136
 20
-10.5804896873
 10
-8.917357846
 20
-10.5399308733
 10
-8.8895290141
 20
-10.5033606228
 10
-8.8599591145
 20
-10.4708041162
 10
-8.8286656454
 20
-10.4421232229
 10
-8.7957125165
 20
-10.4172534959
  0
LWPOLYLINE
  5
281
100
AcDbEntity
  8
RACCORDO
100
AcDbPolyline
 62
250
  6
CONTINUOUS
 90
9
 70
0
 10
-8.9482658661
 20
-12.160081409
 10
-8.9438115989
 20
-12.1257522998
 10
-8.9418288457
 20
-12.0882992891
 10
-8.9423085977
 20
-12.0477544885
 10
-8.9455884977
 20
-12.0038127837
 10
-8.9513127803
 20
-11.9568478698
 10
-8.958454408
 20
-11.9079195196
 10
-8.9670345331
 20
-11.8573648486
 10
-9.0095124968
 20
-11.6379957557
  0
LINE
  5
282
100
AcDbEntity
  8
RACCORDO
100
AcDbLine
 62
250
  6
CONTINUOUS
 10
-11.6087916035
 20
-21.6664098833
 11
-11.6213903083
 21
-21.7462452979
  0
LINE
  5
283
100
AcDbEntity
  8
RACCORDO
100
AcDbLine
 62
250
  6
CONTINUOUS
 10
-9.2008428079
 20
-13.5896927356
 11
-9.3659407487
 21
-14.5947042039
  0
LWPOLYLINE
  5
284
100
AcDbEntity
  8
RACCORDO
100
AcDbPolyline
 62
250
  6
CONTINUOUS
 90
36
 70
0
 10
-11.6213903083
 20
-21.7462452979
 10
-11.6340268516
 20
-21.8224435088
 10
-11.6404017283
 20
-21.8593607604
 10
-11.6468218478
 20
-21.8955546945
 10
-11.6532911005
 20
-21.9310208085
 10
-11.659862215
 20
-21.9659248435
 10
-11.666531303
 20
-22.0002939842
 10
-11.6732980312
 20
-22.0340971949
 10
-11.6802183822
 20
-22.0674096382
 10
-11.6872981951
 20
-22.1003004571
 10
-11.6945246402
 20
-22.1326931463
 10
-11.7019243127
 20
-22.1644424311
 10
-11.7095078196
 20
-22.195604319
 10
-11.7172561722
 20
-22.2261145022
 10
-11.7251521265
 20
-22.2556481687
 10
-11.7331927607
 20
-22.2841830144
 10
-11.7413739969
 20
-22.3117360005
 10
-11.749678623
 20
-22.3380437304
 10
-11.7580918985
 20
-22.3630600435
 10
-11.7666230719
 20
-22.3868284796
 10
-11.7752915698
 20
-22.4092211777
 10
-11.784061785
 20
-22.4302029586
 10
-11.792963292
 20
-22.4498063747
 10
-11.802110038
 20
-22.4680015926
 10
-11.8114865123
 20
-22.4848537433
 10
-11.8210946291
 20
-22.5002876648
 10
-11.8310677825
 20
-22.514056128
 10
-11.8414035444
 20
-22.5262553711
 10
-11.8520809997
 20
-22.5367711603
 10
-11.8631998605
 20
-22.5450350995
 10
-11.8748373733
 20
-22.5510058785
 10
-11.8868831827
 20
-22.5547009059
 10
-11.8991613926
 20
-22.5556459619
 10
-11.911611721
 20
-22.5536845647
 10
-11.9242797284
 20
-22.5489690732
 10
-11.9371566479
 20
-22.5414966147
  0
LWPOLYLINE
  5
285
100
AcDbEntity
  8
RACCORDO
100
AcDbPolyline
 62
250
  6
CONTINUOUS
 90
3
 70
0
 10
-9.3659407487
 20
-14.5947042039
 10
-9.461105935
 20
-15.1546673872
 10
-9.5080952916
 20
-15.419275464
  0
LINE
  5
286
100
AcDbEntity
  8
RACCORDO
100
AcDbLine
 62
250
  6
CONTINUOUS
 10
-9.0777739138
 20
-12.876457241
 11
-9.2008428079
 21
-13.5896927356
  0
LINE
  5
287
100
AcDbEntity
  8
RACCORDO
100
AcDbLine
 62
250
  6
CONTINUOUS
 10
-8.9482642734
 20
-12.1600825352
 11
-9.0777739138
 21
-12.876457241
  0
LWPOLYLINE
  5
288
100
AcDbEntity
  8
RACCORDO
100
AcDbPolyline
 62
250
  6
CONTINUOUS
 90
3
 70
0
 10
-9.5080952916
 20
-15.419275464
 10
-9.6006599694
 20
-15.9202259795
 10
-9.6459300931
 20
-16.1580555572
  0
LWPOLYLINE
  5
289
100
AcDbEntity
  8
RACCORDO
100
AcDbPolyline
 62
250
  6
CONTINUOUS
 90
53
 70
0
 10
-10.6126155264
 20
-11.9644296553
 10
-10.6083791414
 20
-11.9430212231
 10
-10.6035274578
 20
-11.9213289594
 10
-10.5980604758
 20
-11.8993528643
 10
-10.5919976571
 20
-11.8771367614
 10
-10.5853195399
 20
-11.8546368272
 10
-10.5779677386
 20
-11.8317215904
 10
-10.5699551641
 20
-11.8083913359
 10
-10.5612689054
 20
-11.784645779
 10
-10.5518118444
 20
-11.7603525945
 10
-10.5415866651
 20
-11.7354941595
 10
-10.5305906835
 20
-11.710088097
 10
-10.5187187286
 20
-11.6840549507
 10
-10.5059667536
 20
-11.6573753564
 10
-10.4923388053
 20
-11.6300686784
 10
-10.4777418531
 20
-11.6021135532
 10
-10.4621709904
 20
-11.5734978207
 10
-10.4456311238
 20
-11.544233641
 10
-10.4280439431
 20
-11.5143361302
 10
-10.4094135014
 20
-11.4838090354
 10
-10.3897357455
 20
-11.4526486097
 10
-10.3689202058
 20
-11.4208587284
 10
-10.346968623
 20
-11.3884360862
 10
-10.3238792564
 20
-11.3553839886
 10
-10.2995564142
 20
-11.3217162272
 10
-10.2739835274
 20
-11.2874065293
 10
-10.247177165
 20
-11.2524811677
 10
-10.2190913422
 20
-11.2170327524
 10
-10.1896864487
 20
-11.1810174401
 10
-10.1590020949
 20
-11.1444790742
 10
-10.1271111274
 20
-11.1076417946
 10
-10.0940556057
 20
-11.0705546405
 10
-10.0597934703
 20
-11.0331685727
 10
-10.0242713895
 20
-10.9955606138
 10
-9.9874284826
 20
-10.9576691858
 10
-9.9493256301
 20
-10.9195558667
 10
-9.9100921427
 20
-10.8814824133
 10
-9.8694773491
 20
-10.8432610126
 10
-9.8277319205
 20
-10.8050794776
 10
-9.7857371809
 20
-10.7677630039
 10
-9.7434304146
 20
-10.7313481719
 10
-9.7008743374
 20
-10.6957984012
 10
-9.6591384199
 20
-10.6618291461
 10
-9.6183849051
 20
-10.6296294188
 10
-9.5784515501
 20
-10.5990102069
 10
-9.5399210968
 20
-10.570119928
 10
-9.5030256793
 20
-10.5431294389
 10
-9.4675331636
 20
-10.5178678826
 10
-9.4333298892
 20
-10.4939711056
 10
-9.4004611023
 20
-10.4714442566
 10
-9.3688815568
 20
-10.4502821868
 10
-9.3383418534
 20
-10.4301052959
 10
-9.3087830813
 20
-10.4108562513
  0
LINE
  5
28A
100
AcDbEntity
  8
RACCORDO
100
AcDbLine
 62
250
  6
CONTINUOUS
 10
-9.6459300931
 20
-16.1580555572
 11
-9.7346844021
 21
-16.6096936319
  0
LINE
  5
28B
100
AcDbEntity
  8
RACCORDO
100
AcDbLine
 62
250
  6
CONTINUOUS
 10
-9.7346844021
 20
-16.6096936319
 11
-9.8208573012
 21
-17.0331349369
  0
LINE
  5
28C
100
AcDbEntity
  8
RACCORDO
100
AcDbLine
 62
250
  6
CONTINUOUS
 10
-9.8208573012
 20
-17.0331349369
 11
-9.9041831014
 21
-17.4298856486
  0
LINE
  5
28D
100
AcDbEntity
  8
RACCORDO
100
AcDbLine
 62
250
  6
CONTINUOUS
 10
-9.9041831014
 20
-17.4298856486
 11
-9.9846335779
 21
-17.8010941689
  0
LINE
  5
28E
100
AcDbEntity
  8
RACCORDO
100
AcDbLine
 62
250
  6
CONTINUOUS
 10
-9.9846335779
 20
-17.8010941689
 11
-10.061962943
 21
-18.1480102191
  0
LINE
  5
28F
100
AcDbEntity
  8
RACCORDO
100
AcDbLine
 62
250
  6
CONTINUOUS
 10
-10.061962943
 20
-18.1480102191
 11
-10.136177704
 21
-18.4722828266
  0
LINE
  5
290
100
AcDbEntity
  8
RACCORDO
100
AcDbLine
 62
250
  6
CONTINUOUS
 10
-10.136177704
 20
-18.4722828266
 11
-10.2073809284
 21
-18.7750221343
  0
LINE
  5
291
100
AcDbEntity
  8
RACCORDO
100
AcDbLine
 62
250
  6
CONTINUOUS
 10
-10.2073809284
 20
-18.7750221343
 11
-10.2756149364
 21
-19.0578261876
  0
LINE
  5
292
100
AcDbEntity
  8
RACCORDO
100
AcDbLine
 62
250
  6
CONTINUOUS
 10
-10.2756149364
 20
-19.0578261876
 11
-10.3409907154
 21
-19.3221252963
  0
LINE
  5
293
100
AcDbEntity
  8
RACCORDO
100
AcDbLine
 62
250
  6
CONTINUOUS
 10
16.049610658
 20
20.2378559647
 11
11.6584418002
 21
17.2234073185
  0
LINE
  5
294
100
AcDbEntity
  8
RACCORDO
100
AcDbLine
 62
250
  6
CONTINUOUS
 10
16.8969759171
 20
18.7913129848
 11
12.5057938507
 21
15.7768552711
  0
LWPOLYLINE
  5
295
100
AcDbEntity
  8
RACCORDO
100
AcDbPolyline
 62
250
  6
CONTINUOUS
 90
7
 70
0
 10
-10.9866512143
 20
22.5190086204
 10
-10.9283646068
 20
22.2390692514
 10
-10.8684569322
 20
21.960611646
 10
-10.8069281904
 20
21.6836358041
 10
-10.7437783814
 20
21.4081417258
 10
-10.6790075052
 20
21.134129411
 10
-10.6126155617
 20
20.8615988598
  0
LINE
  5
296
100
AcDbEntity
  8
RACCORDO
100
AcDbLine
 62
250
  6
CONTINUOUS
 10
-11.7028060558
 20
31.1989747822
 11
-11.6901651553
 21
31.1216183246
  0
LINE
  5
297
100
AcDbEntity
  8
RACCORDO
100
AcDbLine
 62
250
  6
CONTINUOUS
 10
-11.6901651553
 20
31.1216183246
 11
-11.6776653685
 21
31.0411445356
  0
LINE
  5
298
100
AcDbEntity
  8
RACCORDO
100
AcDbLine
 62
250
  6
CONTINUOUS
 10
-11.6776653685
 20
31.0411445356
 11
-11.665262781
 21
30.9573984484
  0
LINE
  5
299
100
AcDbEntity
  8
RACCORDO
100
AcDbLine
 62
250
  6
CONTINUOUS
 10
-11.665262781
 20
30.9573984484
 11
-11.6529243395
 21
30.8702058297
  0
LINE
  5
29A
100
AcDbEntity
  8
RACCORDO
100
AcDbLine
 62
250
  6
CONTINUOUS
 10
-11.6529243395
 20
30.8702058297
 11
-11.6405742285
 21
30.7791186637
  0
LINE
  5
29B
100
AcDbEntity
  8
RACCORDO
100
AcDbLine
 62
250
  6
CONTINUOUS
 10
-11.6405742285
 20
30.7791186637
 11
-11.6281562574
 21
30.6836732784
  0
LINE
  5
29C
100
AcDbEntity
  8
RACCORDO
100
AcDbLine
 62
250
  6
CONTINUOUS
 10
-11.6281562574
 20
30.6836732784
 11
-11.6156333763
 21
30.5835706415
  0
LINE
  5
29D
100
AcDbEntity
  8
RACCORDO
100
AcDbLine
 62
250
  6
CONTINUOUS
 10
-11.6156333763
 20
30.5835706415
 11
-11.5965477128
 21
30.4236718434
  0
LWPOLYLINE
  5
29E
100
AcDbEntity
  8
RACCORDO
100
AcDbPolyline
 62
250
  6
CONTINUOUS
 90
3
 70
0
 10
-11.5965477128
 20
30.4236718434
 10
-11.5835666423
 20
30.3099692063
 10
-11.576981707
 20
30.2507615521
  0
LWPOLYLINE
  5
29F
100
AcDbEntity
  8
0
100
AcDbPolyline
 62
7
  6
CONTINUOUS
 90
7
 70
0
 10
-4.0404690741
 20
-26.5834593484
 10
-4.0202154673
 20
-26.2388220247
 10
-3.9982458512
 20
-25.8930989047
 10
-3.9745602259
 20
-25.5462899886
 10
-3.9491585914
 20
-25.1983952762
 10
-3.9220409478
 20
-24.8494147677
 10
-3.8932072949
 20
-24.4993484629
  0
LINE
  5
2A0
100
AcDbEntity
  8
RACCORDO
100
AcDbLine
 62
250
  6
CONTINUOUS
 10
-10.3409907154
 20
-19.3221252963
 11
-10.403648119
 21
-19.568885767
  0
LINE
  5
2A1
100
AcDbEntity
  8
RACCORDO
100
AcDbLine
 62
250
  6
CONTINUOUS
 10
-10.403648119
 20
-19.568885767
 11
-10.4636965468
 21
-19.7994452991
  0
LINE
  5
2A2
100
AcDbEntity
  8
RACCORDO
100
AcDbLine
 62
250
  6
CONTINUOUS
 10
-10.4636965468
 20
-19.7994452991
 11
-10.5212989946
 21
-20.015073944
  0
LINE
  5
2A3
100
AcDbEntity
  8
RACCORDO
100
AcDbLine
 62
250
  6
CONTINUOUS
 10
-10.5212989946
 20
-20.015073944
 11
-10.5765924388
 21
-20.2165680506
  0
LINE
  5
2A4
100
AcDbEntity
  8
RACCORDO
100
AcDbLine
 62
250
  6
CONTINUOUS
 10
-10.5765924388
 20
-20.2165680506
 11
-10.6297000933
 21
-20.4049953754
  0
LINE
  5
2A5
100
AcDbEntity
  8
RACCORDO
100
AcDbLine
 62
250
  6
CONTINUOUS
 10
-10.6297000933
 20
-20.4049953754
 11
-10.6807070582
 21
-20.5811428901
  0
LWPOLYLINE
  5
2A6
100
AcDbEntity
  8
RACCORDO
100
AcDbPolyline
 62
250
  6
CONTINUOUS
 90
3
 70
0
 10
-10.6807070582
 20
-20.5811428901
 10
-10.7297027717
 20
-20.7455535678
 10
-10.753466894
 20
-20.8236282989
  0
LWPOLYLINE
  5
2A7
100
AcDbEntity
  8
RACCORDO
100
AcDbPolyline
 62
250
  6
CONTINUOUS
 90
3
 70
0
 10
-10.753466894
 20
-20.8236282989
 10
-10.7995933058
 20
-20.9717822499
 10
-10.8219764831
 20
-21.042103763
  0
LWPOLYLINE
  5
2A8
100
AcDbEntity
  8
RACCORDO
100
AcDbPolyline
 62
250
  6
CONTINUOUS
 90
50
 70
0
 10
-10.8219764831
 20
-21.042103763
 10
-10.8654490078
 20
-21.1754958216
 10
-10.8865659901
 20
-21.2388090066
 10
-10.9072821987
 20
-21.2998724319
 10
-10.9276273654
 20
-21.3589174021
 10
-10.9476049337
 20
-21.4159499593
 10
-10.9672239689
 20
-21.470971962
 10
-10.9865209586
 20
-21.5242073821
 10
-11.0054981258
 20
-21.5756621765
 10
-11.0241634156
 20
-21.6253368481
 10
-11.042560405
 20
-21.6734462376
 10
-11.0606899445
 20
-21.7199958896
 10
-11.0785593552
 20
-21.7649854768
 10
-11.0962205906
 20
-21.8086201805
 10
-11.1136731351
 20
-21.8509055423
 10
-11.1309239773
 20
-21.8918401706
 10
-11.148035142
 20
-21.9316180816
 10
-11.1650048677
 20
-21.9702457375
 10
-11.1818399467
 20
-22.0077199118
 10
-11.1986141777
 20
-22.0442194026
 10
-11.2153235704
 20
-22.0797507495
 10
-11.2319759326
 20
-22.114309873
 10
-11.2486618128
 20
-22.148059026
 10
-11.2653750605
 20
-22.1810075129
 10
-11.282124602
 20
-22.2131478184
 10
-11.2990227489
 20
-22.2446164079
 10
-11.316070506
 20
-22.2754425413
 10
-11.3332687308
 20
-22.3055981551
 10
-11.350728881
 20
-22.3351333137
 10
-11.3684780204
 20
-22.3641151412
 10
-11.3864903803
 20
-22.392477341
 10
-11.4047981556
 20
-22.420069839
 10
-11.4234415053
 20
-22.4469497591
 10
-11.4423819589
 20
-22.473061071
 10
-11.4615345998
 20
-22.4980845253
 10
-11.4809002443
 20
-22.5220025512
 10
-11.5004810061
 20
-22.5448346462
 10
-11.5201949926
 20
-22.5663178826
 10
-11.5400196687
 20
-22.586415669
 10
-11.5599812341
 20
-22.6051670239
 10
-11.580071521
 20
-22.6224228525
 10
-11.6002226173
 20
-22.6381679534
 10
-11.6205060996
 20
-22.6524199659
 10
-11.6411230818
 20
-22.6650790902
 10
-11.6620747745
 20
-22.6762177487
 10
-11.6833629503
 20
-22.6857655095
 10
-11.7051895831
 20
-22.6934083056
 10
-11.7276230368
 20
-22.6990421435
 10
-11.7505978625
 20
-22.7027729678
 10
-11.7741153511
 20
-22.7046016436
  0
LINE
  5
2A9
100
AcDbEntity
  8
RACCORDO
100
AcDbLine
 62
250
  6
CONTINUOUS
 10
-11.016801137
 20
29.9307124285
 11
-10.9772676259
 21
29.7889908119
  0
LINE
  5
2AA
100
AcDbEntity
  8
RACCORDO
100
AcDbLine
 62
250
  6
CONTINUOUS
 10
-10.9772676259
 20
29.7889908119
 11
-10.9362035116
 21
29.6390439816
  0
LINE
  5
2AB
100
AcDbEntity
  8
RACCORDO
100
AcDbLine
 62
250
  6
CONTINUOUS
 10
-10.9362035116
 20
29.6390439816
 11
-10.8714308867
 21
29.3972232698
  0
LINE
  5
2AC
100
AcDbEntity
  8
RACCORDO
100
AcDbLine
 62
250
  6
CONTINUOUS
 10
-10.8714308867
 20
29.3972232698
 11
-10.8027376303
 21
29.1343867234
  0
LINE
  5
2AD
100
AcDbEntity
  8
RACCORDO
100
AcDbLine
 62
250
  6
CONTINUOUS
 10
-10.8027376303
 20
29.1343867234
 11
-10.7303042088
 21
28.8509406877
  0
LINE
  5
2AE
100
AcDbEntity
  8
RACCORDO
100
AcDbLine
 62
250
  6
CONTINUOUS
 10
-10.7303042088
 20
28.8509406877
 11
-10.6543985154
 21
28.5478237669
  0
LINE
  5
2AF
100
AcDbEntity
  8
RACCORDO
100
AcDbLine
 62
250
  6
CONTINUOUS
 10
-10.6543985154
 20
28.5478237669
 11
-10.5482850352
 21
28.1151568883
  0
LINE
  5
2B0
100
AcDbEntity
  8
RACCORDO
100
AcDbLine
 62
250
  6
CONTINUOUS
 10
-10.5482850352
 20
28.1151568883
 11
-10.4072626167
 21
27.5270884531
  0
LINE
  5
2B1
100
AcDbEntity
  8
RACCORDO
100
AcDbLine
 62
250
  6
CONTINUOUS
 10
-10.4072626167
 20
27.5270884531
 11
-10.220537207
 21
26.7306900122
  0
LINE
  5
2B2
100
AcDbEntity
  8
RACCORDO
100
AcDbLine
 62
250
  6
CONTINUOUS
 10
-10.220537207
 20
26.7306900122
 11
-10.0086057839
 21
25.8081795676
  0
LINE
  5
2B3
100
AcDbEntity
  8
RACCORDO
100
AcDbLine
 62
250
  6
CONTINUOUS
 10
-10.0086057839
 20
25.8081795676
 11
-9.8100721308
 21
24.9280868352
  0
LINE
  5
2B4
100
AcDbEntity
  8
RACCORDO
100
AcDbLine
 62
250
  6
CONTINUOUS
 10
-9.8100721308
 20
24.9280868352
 11
-9.6386880768
 21
24.1549764028
  0
LINE
  5
2B5
100
AcDbEntity
  8
RACCORDO
100
AcDbLine
 62
250
  6
CONTINUOUS
 10
-9.6386880768
 20
24.1549764028
 11
-9.5038207282
 21
23.5340595525
  0
LWPOLYLINE
  5
2B6
100
AcDbEntity
  8
RACCORDO
100
AcDbPolyline
 62
250
  6
CONTINUOUS
 90
6
 70
0
 10
-9.2599580197
 20
22.3709149228
 10
-9.2008427448
 20
22.0961925591
 10
-9.1401141758
 20
21.8228691376
 10
-9.0777738494
 20
21.5509515445
 10
-9.0138233425
 20
21.2804466298
 10
-8.9482642721
 20
21.0113612068
  0
LWPOLYLINE
  5
2B7
100
AcDbEntity
  8
RACCORDO
100
AcDbPolyline
 62
250
  6
CONTINUOUS
 90
3
 70
0
 10
-9.5038207282
 20
23.5340595525
 10
-9.3648308653
 20
22.8750507775
 10
-9.2599580197
 20
22.3709149228
  0
LINE
  5
2B8
100
AcDbEntity
  8
RACCORDO
100
AcDbLine
 62
7
  6
CONTINUOUS
 10
0.1562389047
 20
29.7083999545
 11
0.1562389047
 21
31.4761669074
  0
LWPOLYLINE
  5
2B9
100
AcDbEntity
  8
0
100
AcDbPolyline
 62
7
  6
CONTINUOUS
 90
6
 70
0
 10
-1.7077273385
 20
-28.2329568484
 10
-1.6874745574
 20
-27.8883189408
 10
-1.6655057668
 20
-27.5425952372
 10
-1.6418209666
 20
-27.1957857376
 10
-1.616420157
 20
-26.847890442
 10
-1.5893033377
 20
-26.4989093504
  0
LINE
  5
2BA
100
AcDbEntity
  8
0
100
AcDbLine
 62
7
  6
CONTINUOUS
 10
-3.3277241332
 20
-26.7640722974
 11
-3.3547379918
 21
-27.21860225
  0
LINE
  5
2BB
100
AcDbEntity
  8
0
100
AcDbLine
 62
7
  6
CONTINUOUS
 10
-2.1829580889
 20
-27.5735441302
 11
-2.2099702968
 21
-28.02807525
  0
LINE
  5
2BC
100
AcDbEntity
  8
0
100
AcDbLine
 62
7
  6
CONTINUOUS
 10
-3.2484896802
 20
-27.1434733484
 11
-3.2214305791
 21
-26.6889107167
  0
LINE
  5
2BD
100
AcDbEntity
  8
0
100
AcDbLine
 62
7
  6
CONTINUOUS
 10
-3.2977316645
 20
-26.3076413741
 11
-3.3277241332
 21
-26.7640722974
  0
LINE
  5
2BE
100
AcDbEntity
  8
0
100
AcDbLine
 62
7
  6
CONTINUOUS
 10
-2.1529672701
 20
-27.1171120402
 11
-2.1829580889
 21
-27.5735441302
  0
LINE
  5
2BF
100
AcDbEntity
  8
0
100
AcDbLine
 62
7
  6
CONTINUOUS
 10
-3.2214305791
 20
-26.6889107167
 11
-3.1940318366
 21
-26.2716839946
  0
LINE
  5
2C0
100
AcDbEntity
  8
0
100
AcDbLine
 62
7
  6
CONTINUOUS
 10
-2.1199978404
 20
-26.65877898
 11
-2.1529672701
 21
-27.1171120402
  0
LINE
  5
2C1
100
AcDbEntity
  8
0
100
AcDbLine
 62
7
  6
CONTINUOUS
 10
-3.2647605857
 20
-25.84930948
 11
-3.2977316645
 21
-26.3076413741
  0
LWPOLYLINE
  5
2C2
100
AcDbEntity
  8
0
100
AcDbPolyline
 62
7
  6
CONTINUOUS
 90
7
 70
0
 10
-4.3956966849
 20
-24.294641118
 10
-4.4244821571
 20
-24.6446752441
 10
-4.451554483
 20
-24.9936251722
 10
-4.4769136625
 20
-25.3414909024
 10
-4.5005596955
 20
-25.6882724345
 10
-4.5224925822
 20
-26.0339697687
 10
-4.5427123225
 20
-26.3785829048
  0
LWPOLYLINE
  5
2C3
100
AcDbEntity
  8
0
100
AcDbPolyline
 62
7
  6
CONTINUOUS
 90
7
 70
0
 10
-3.9997020381
 20
-24.574651618
 10
-4.0284874407
 20
-24.9246848712
 10
-4.0555597053
 20
-25.273633932
 10
-4.0809188322
 20
-25.6214988002
 10
-4.1045648212
 20
-25.968279476
 10
-4.1264976724
 20
-26.3139759592
 10
-4.1467173857
 20
-26.65858825
  0
LWPOLYLINE
  5
2C4
100
AcDbEntity
  8
0
100
AcDbPolyline
 62
7
  6
CONTINUOUS
 90
7
 70
0
 10
-3.6037222407
 20
-24.854651618
 10
-3.632506819
 20
-25.204685454
 10
-3.6595782592
 20
-25.5536350978
 10
-3.6849365613
 20
-25.9015005492
 10
-3.7085817252
 20
-26.2482818084
 10
-3.7305137509
 20
-26.5939788753
 10
-3.7507326385
 20
-26.93859175
  0
LINE
  5
2C5
100
AcDbEntity
  8
RACCORDO
100
AcDbLine
 62
250
  6
CONTINUOUS
 10
-11.3117039871
 20
30.8882784728
 11
-11.2794979347
 21
30.7935310645
  0
LINE
  5
2C6
100
AcDbEntity
  8
RACCORDO
100
AcDbLine
 62
250
  6
CONTINUOUS
 10
-11.2794979347
 20
30.7935310645
 11
-11.2469224209
 21
30.6949960634
  0
LINE
  5
2C7
100
AcDbEntity
  8
RACCORDO
100
AcDbLine
 62
250
  6
CONTINUOUS
 10
-11.2469224209
 20
30.6949960634
 11
-11.2138125326
 21
30.5921836554
  0
LINE
  5
2C8
100
AcDbEntity
  8
RACCORDO
100
AcDbLine
 62
250
  6
CONTINUOUS
 10
-11.2138125326
 20
30.5921836554
 11
-11.1800384479
 21
30.4846287739
  0
LINE
  5
2C9
100
AcDbEntity
  8
RACCORDO
100
AcDbLine
 62
250
  6
CONTINUOUS
 10
-11.1800384479
 20
30.4846287739
 11
-11.1455042879
 21
30.372011555
  0
LINE
  5
2CA
100
AcDbEntity
  8
RACCORDO
100
AcDbLine
 62
250
  6
CONTINUOUS
 10
-11.1455042879
 20
30.372011555
 11
-11.1100776395
 21
30.2538342234
  0
LINE
  5
2CB
100
AcDbEntity
  8
RACCORDO
100
AcDbLine
 62
250
  6
CONTINUOUS
 10
-11.1100776395
 20
30.2538342234
 11
-11.0736299107
 21
30.1295471444
  0
LWPOLYLINE
  5
2CC
100
AcDbEntity
  8
RACCORDO
100
AcDbPolyline
 62
250
  6
CONTINUOUS
 90
3
 70
0
 10
-11.0736299107
 20
30.1295471444
 10
-11.0360583789
 20
29.9987639349
 10
-11.016801137
 20
29.9307124285
  0
LINE
  5
2CD
100
AcDbEntity
  8
RACCORDO
100
AcDbLine
 62
250
  6
CONTINUOUS
 10
7.2099249677
 20
-35.4804032516
 11
7.1940783436
 21
-35.4024508939
  0
LINE
  5
2CE
100
AcDbEntity
  8
RACCORDO
100
AcDbLine
 62
250
  6
CONTINUOUS
 10
7.1940783436
 20
-35.4024508939
 11
7.1782713224
 21
-35.321276471
  0
LINE
  5
2CF
100
AcDbEntity
  8
0
100
AcDbLine
 62
7
  6
CONTINUOUS
 10
0.8010564166
 20
-29.7409572464
 11
0.7774401783
 21
-30.1404880951
  0
LINE
  5
2D0
100
AcDbEntity
  8
0
100
AcDbLine
 62
7
  6
CONTINUOUS
 10
0.8836884903
 20
-30.0653591932
 11
0.9073442181
 21
-29.6658001719
  0
LINE
  5
2D1
100
AcDbEntity
  8
0
100
AcDbLine
 62
7
  6
CONTINUOUS
 10
0.9073442181
 20
-29.6658001719
 11
0.9237632053
 21
-29.4083868256
  0
LINE
  5
2D2
100
AcDbEntity
  8
0
100
AcDbLine
 62
7
  6
CONTINUOUS
 10
0.8269760898
 20
-29.3399464752
 11
0.8010564166
 21
-29.7409572464
  0
LINE
  5
2D3
100
AcDbEntity
  8
0
100
AcDbLine
 62
7
  6
CONTINUOUS
 10
0.8738101399
 20
-28.6115001704
 11
0.8484265142
 21
-28.9506985728
  0
LINE
  5
2D4
100
AcDbEntity
  8
0
100
AcDbLine
 62
7
  6
CONTINUOUS
 10
0.954802829
 20
-28.8754791592
 11
0.9823593368
 21
-28.508870112
  0
LINE
  5
2D5
100
AcDbEntity
  8
0
100
AcDbLine
 62
7
  6
CONTINUOUS
 10
0.8871108765
 20
-28.4415192798
 11
0.8738101399
 21
-28.6115001704
  0
LWPOLYLINE
  5
2D6
100
AcDbEntity
  8
0
100
AcDbPolyline
 62
7
  6
CONTINUOUS
 90
7
 70
0
 10
-1.6669652523
 20
-26.224145618
 10
-1.6957498306
 20
-26.574179454
 10
-1.7228212708
 20
-26.9231290978
 10
-1.7481795729
 20
-27.2709945492
 10
-1.7718247368
 20
-27.6177758084
 10
-1.7937567625
 20
-27.9634728753
 10
-1.8139756501
 20
-28.30808575
  0
LWPOLYLINE
  5
2D7
100
AcDbEntity
  8
0
100
AcDbPolyline
 62
7
  6
CONTINUOUS
 90
7
 70
0
 10
0.5284511347
 20
-27.7765338535
 10
0.4996665304
 20
-28.1265677075
 10
0.4725950644
 20
-28.4755173693
 10
0.4472367365
 20
-28.823382839
 10
0.4235915468
 20
-29.1701641165
 10
0.4016594952
 20
-29.5158612019
 10
0.3814405818
 20
-29.8604740951
  0
LINE
  5
2D8
100
AcDbEntity
  8
0
100
AcDbLine
 62
7
  6
CONTINUOUS
 10
-1.5893033377
 20
-26.4989093504
 11
-1.560470509
 21
-26.1488424629
  0
LINE
  5
2D9
100
AcDbEntity
  8
RACCORDO
100
AcDbLine
 62
250
  6
CONTINUOUS
 10
7.1782713224
 20
-35.321276471
 11
7.1624754182
 21
-35.2367066412
  0
LINE
  5
2DA
100
AcDbEntity
  8
RACCORDO
100
AcDbLine
 62
250
  6
CONTINUOUS
 10
7.1624754182
 20
-35.2367066412
 11
7.1466159113
 21
-35.1482905612
  0
LINE
  5
2DB
100
AcDbEntity
  8
RACCORDO
100
AcDbLine
 62
250
  6
CONTINUOUS
 10
7.1466159113
 20
-35.1482905612
 11
7.1306326593
 21
-35.0555625154
  0
LINE
  5
2DC
100
AcDbEntity
  8
RACCORDO
100
AcDbLine
 62
250
  6
CONTINUOUS
 10
7.1306326593
 20
-35.0555625154
 11
7.1144999456
 21
-34.9582128434
  0
LINE
  5
2DD
100
AcDbEntity
  8
RACCORDO
100
AcDbLine
 62
250
  6
CONTINUOUS
 10
7.1144999456
 20
-34.9582128434
 11
7.0981769505
 21
-34.855785108
  0
LINE
  5
2DE
100
AcDbEntity
  8
RACCORDO
100
AcDbLine
 62
250
  6
CONTINUOUS
 10
7.0981769505
 20
-34.855785108
 11
7.0816252045
 21
-34.7477624679
  0
LINE
  5
2DF
100
AcDbEntity
  8
RACCORDO
100
AcDbLine
 62
250
  6
CONTINUOUS
 10
7.0816252045
 20
-34.7477624679
 11
7.0648359023
 21
-34.6337802892
  0
LINE
  5
2E0
100
AcDbEntity
  8
RACCORDO
100
AcDbLine
 62
250
  6
CONTINUOUS
 10
7.0648359023
 20
-34.6337802892
 11
7.0477827099
 21
-34.5132842025
  0
LINE
  5
2E1
100
AcDbEntity
  8
RACCORDO
100
AcDbLine
 62
250
  6
CONTINUOUS
 10
7.0477827099
 20
-34.5132842025
 11
7.0304321728
 21
-34.3855783356
  0
LINE
  5
2E2
100
AcDbEntity
  8
RACCORDO
100
AcDbLine
 62
250
  6
CONTINUOUS
 10
7.0304321728
 20
-34.3855783356
 11
7.0127847646
 21
-34.250146407
  0
LINE
  5
2E3
100
AcDbEntity
  8
RACCORDO
100
AcDbLine
 62
250
  6
CONTINUOUS
 10
7.0127847646
 20
-34.250146407
 11
6.9948067153
 21
-34.1060924479
  0
LINE
  5
2E4
100
AcDbEntity
  8
RACCORDO
100
AcDbLine
 62
250
  6
CONTINUOUS
 10
6.9948067153
 20
-34.1060924479
 11
6.9764996145
 21
-33.9526637316
  0
LWPOLYLINE
  5
2E5
100
AcDbEntity
  8
RACCORDO
100
AcDbPolyline
 62
250
  6
CONTINUOUS
 90
3
 70
0
 10
6.9764996145
 20
-33.9526637316
 10
6.9579264973
 20
-33.7895420941
 10
6.9485629105
 20
-33.7042489875
  0
LINE
  5
2E6
100
AcDbEntity
  8
RACCORDO
100
AcDbLine
 62
250
  6
CONTINUOUS
 10
6.9485629105
 20
-33.7042489875
 11
6.9297610415
 21
-33.5263167927
  0
LINE
  5
2E7
100
AcDbEntity
  8
RACCORDO
100
AcDbLine
 62
250
  6
CONTINUOUS
 10
6.9297610415
 20
-33.5263167927
 11
6.9109599245
 21
-33.3386949884
  0
LWPOLYLINE
  5
2E8
100
AcDbEntity
  8
RACCORDO
100
AcDbPolyline
 62
250
  6
CONTINUOUS
 90
3
 70
0
 10
6.9109599245
 20
-33.3386949884
 10
6.8922865076
 20
-33.1416071954
 10
6.8884391119
 20
-33.0995445122
  0
LWPOLYLINE
  5
2E9
100
AcDbEntity
  8
RACCORDO
100
AcDbPolyline
 62
7
  6
CONTINUOUS
 90
5
 70
0
 10
6.1310135665
 20
-21.9655142999
 10
6.3165215828
 20
-25.4826887581
 10
6.5483791945
 20
-28.9635447448
 10
6.8265453388
 20
-32.4074634385
 10
6.8884390452
 20
-33.099543778
  0
LINE
  5
2EA
100
AcDbEntity
  8
RACCORDO
100
AcDbLine
 62
7
  6
CONTINUOUS
 10
5.9918755491
 20
-18.412609525
 11
6.1310135665
 21
-21.9655142999
  0
LWPOLYLINE
  5
2EB
100
AcDbEntity
  8
RACCORDO
100
AcDbPolyline
 62
7
  6
CONTINUOUS
 90
10
 70
0
 10
6.8184018645
 20
14.9701558665
 10
6.5482867011
 20
11.2238472718
 10
6.3165732085
 20
7.4071966234
 10
6.1311326817
 20
3.6213141816
 10
5.9920028307
 20
-0.1331662603
 10
5.8992159804
 20
-3.8556060581
 10
5.8527988944
 20
-7.5454163989
 10
5.8527650112
 20
-11.2019698921
 10
5.8991227488
 20
-14.8245742773
 10
5.9918755491
 20
-18.412609525
  0
LINE
  5
2EC
100
AcDbEntity
  8
RACCORDO
100
AcDbLine
 62
7
  6
CONTINUOUS
 10
6.8177249903
 20
14.9614246633
 11
6.8184015639
 21
14.9701519964
  0
LINE
  5
2ED
100
AcDbEntity
  8
RACCORDO
100
AcDbLine
 62
250
  6
CONTINUOUS
 10
6.8184015639
 20
14.9701519964
 11
6.8332151052
 21
15.1542293032
  0
LWPOLYLINE
  5
2EE
100
AcDbEntity
  8
RACCORDO
100
AcDbPolyline
 62
250
  6
CONTINUOUS
 90
16
 70
0
 10
7.49078719
 20
18.2102762687
 10
7.1693934881
 20
14.352254868
 10
6.8937837298
 20
10.5235866398
 10
6.6640144707
 20
6.7249107177
 10
6.4801324988
 20
2.9568010131
 10
6.3421825227
 20
-0.7800511337
 10
6.2501996555
 20
-4.4848420776
 10
6.2042022538
 20
-8.1569570044
 10
6.2042020867
 20
-11.7957853916
 10
6.2501991566
 20
-15.4005472538
 10
6.3421816742
 20
-18.9706463042
 10
6.4801312926
 20
-22.5054961049
 10
6.6640130455
 20
-26.0043498287
 10
6.893782384
 20
-29.4665816643
 10
7.1693925857
 20
-32.8916813907
 10
7.4907871961
 20
-36.2790897725
  0
LINE
  5
2EF
100
AcDbEntity
  8
RACCORDO
100
AcDbLine
 62
250
  6
CONTINUOUS
 10
6.8332151052
 20
15.1542293032
 11
6.8519211543
 21
15.3698455656
  0
LINE
  5
2F0
100
AcDbEntity
  8
RACCORDO
100
AcDbLine
 62
250
  6
CONTINUOUS
 10
6.8519211543
 20
15.3698455656
 11
6.8708710514
 21
15.5722514236
  0
LINE
  5
2F1
100
AcDbEntity
  8
RACCORDO
100
AcDbLine
 62
250
  6
CONTINUOUS
 10
6.8708710514
 20
15.5722514236
 11
6.8899515513
 21
15.7622654455
  0
LINE
  5
2F2
100
AcDbEntity
  8
RACCORDO
100
AcDbLine
 62
250
  6
CONTINUOUS
 10
6.8899515513
 20
15.7622654455
 11
6.909053035
 21
15.9405124512
  0
LINE
  5
2F3
100
AcDbEntity
  8
RACCORDO
100
AcDbLine
 62
250
  6
CONTINUOUS
 10
6.909053035
 20
15.9405124512
 11
6.9280657384
 21
16.1074359975
  0
LINE
  5
2F4
100
AcDbEntity
  8
RACCORDO
100
AcDbLine
 62
250
  6
CONTINUOUS
 10
6.9280657384
 20
16.1074359975
 11
6.9469191817
 21
16.2637059192
  0
LINE
  5
2F5
100
AcDbEntity
  8
RACCORDO
100
AcDbLine
 62
250
  6
CONTINUOUS
 10
6.9469191817
 20
16.2637059192
 11
6.9655648642
 21
16.4100316824
  0
LINE
  5
2F6
100
AcDbEntity
  8
RACCORDO
100
AcDbLine
 62
250
  6
CONTINUOUS
 10
6.9655648642
 20
16.4100316824
 11
6.9839433625
 21
16.546882798
  0
LINE
  5
2F7
100
AcDbEntity
  8
RACCORDO
100
AcDbLine
 62
250
  6
CONTINUOUS
 10
6.9839433625
 20
16.546882798
 11
7.0020371375
 21
16.6749720373
  0
LINE
  5
2F8
100
AcDbEntity
  8
RACCORDO
100
AcDbLine
 62
250
  6
CONTINUOUS
 10
7.0020371375
 20
16.6749720373
 11
7.0198460963
 21
16.7950140994
  0
LINE
  5
2F9
100
AcDbEntity
  8
RACCORDO
100
AcDbLine
 62
250
  6
CONTINUOUS
 10
7.0198460963
 20
16.7950140994
 11
7.0373537089
 21
16.9074809484
  0
LINE
  5
2FA
100
AcDbEntity
  8
RACCORDO
100
AcDbLine
 62
250
  6
CONTINUOUS
 10
7.0373537089
 20
16.9074809484
 11
7.0545876854
 21
17.013085086
  0
LINE
  5
2FB
100
AcDbEntity
  8
RACCORDO
100
AcDbLine
 62
250
  6
CONTINUOUS
 10
7.0545876854
 20
17.013085086
 11
7.0715924152
 21
17.1125205718
  0
LINE
  5
2FC
100
AcDbEntity
  8
RACCORDO
100
AcDbLine
 62
250
  6
CONTINUOUS
 10
7.0715924152
 20
17.1125205718
 11
7.0883906495
 21
17.2062426874
  0
LWPOLYLINE
  5
2FD
100
AcDbEntity
  8
RACCORDO
100
AcDbPolyline
 62
250
  6
CONTINUOUS
 90
39
 70
0
 10
7.0883906495
 20
17.2062426874
 10
7.1050529256
 20
17.2949294352
 10
7.1133648389
 20
17.3376021426
 10
7.1216729251
 20
17.3792387769
 10
7.12997572
 20
17.4198348362
 10
7.1383173653
 20
17.4595976579
 10
7.1466953071
 20
17.4985322416
 10
7.15511091
 20
17.5366343987
 10
7.1636183661
 20
17.5740987502
 10
7.1722196701
 20
17.6109471613
 10
7.1809162258
 20
17.6471598987
 10
7.1897661708
 20
17.6828705305
 10
7.1987888364
 20
17.7181594643
 10
7.2079738024
 20
17.7529502897
 10
7.2173383043
 20
17.7871424844
 10
7.2269104699
 20
17.8208230394
 10
7.2366737929
 20
17.8539102959
 10
7.2465783148
 20
17.8860507485
 10
7.2566286361
 20
17.9172372686
 10
7.2668284647
 20
17.9474818239
 10
7.277123406
 20
17.9764585992
 10
7.2875062482
 20
18.0041333786
 10
7.2979888494
 20
18.0305444404
 10
7.3085431088
 20
18.0554739658
 10
7.3191298967
 20
18.0788616653
 10
7.3297906728
 20
18.1007714321
 10
7.3406221774
 20
18.1211734231
 10
7.3516186297
 20
18.1401473975
 10
7.3627978878
 20
18.1576218697
 10
7.3743041517
 20
18.1733454829
 10
7.3862336288
 20
18.187501535
 10
7.3985202976
 20
18.1999248178
 10
7.4110706927
 20
18.2098442372
 10
7.4239170068
 20
18.2172093807
 10
7.4370526895
 20
18.2220894656
 10
7.4503186003
 20
18.223889666
 10
7.4636636543
 20
18.2224153863
 10
7.4771510765
 20
18.2178755716
 10
7.490787417
 20
18.2102782382
  0
LINE
  5
2FE
100
AcDbEntity
  8
RACCORDO
100
AcDbLine
 62
250
  6
CONTINUOUS
 10
-8.7002895619
 20
-10.014074224
 11
-8.9346441906
 21
-10.1741021295
  0
LINE
  5
2FF
100
AcDbEntity
  8
RACCORDO
100
AcDbLine
 62
250
  6
CONTINUOUS
 10
-8.5588466632
 20
-10.2555108131
 11
-8.7957125165
 21
-10.4172534959
  0
LWPOLYLINE
  5
300
100
AcDbEntity
  8
RACCORDO
100
AcDbPolyline
 62
250
  6
CONTINUOUS
 90
5
 70
0
 10
-9.0054857042
 20
-10.220923665
 10
-8.9870234514
 20
-10.2089826813
 10
-8.9690466521
 20
-10.1971815865
 10
-8.9515868985
 20
-10.1855547359
 10
-8.9346441906
 20
-10.1741021295
  0
LWPOLYLINE
  5
301
100
AcDbEntity
  8
RACCORDO
100
AcDbPolyline
 62
250
  6
CONTINUOUS
 90
3
 70
0
 10
-9.3087830813
 20
-10.4108562513
 10
-9.2527123964
 20
-10.375106097
 10
-9.2261395944
 20
-10.358392122
  0
LINE
  5
302
100
AcDbEntity
  8
RACCORDO
100
AcDbLine
 62
250
  6
CONTINUOUS
 10
-9.0440561229
 20
-10.2454314308
 11
-9.0054857042
 21
-10.220923665
  0
LINE
  5
303
100
AcDbEntity
  8
RACCORDO
100
AcDbLine
 62
250
  6
CONTINUOUS
 10
-9.0850520604
 20
-10.2710216809
 11
-9.0440561229
 21
-10.2454314308
  0
LWPOLYLINE
  5
304
100
AcDbEntity
  8
RACCORDO
100
AcDbPolyline
 62
250
  6
CONTINUOUS
 90
3
 70
0
 10
-9.2261395944
 20
-10.358392122
 10
-9.1519042069
 20
-10.3123313709
 10
-9.0850520604
 20
-10.2710216809
  0
LWPOLYLINE
  5
305
100
AcDbEntity
  8
RACCORDO
100
AcDbPolyline
 62
250
  6
CONTINUOUS
 90
16
 70
0
 10
10.8582839793
 20
15.8921454434
 10
10.8698262225
 20
15.9798712872
 10
10.8888468152
 20
16.071435598
 10
10.9151750031
 20
16.1660163708
 10
10.9485744286
 20
16.2627645207
 10
10.9887452534
 20
16.3608115058
 10
11.0353268501
 20
16.4592771239
 10
11.0879010391
 20
16.5572774145
 10
11.1459958436
 20
16.6539325948
 10
11.2090897262
 20
16.7483749571
 10
11.2766162709
 20
16.8397566594
 10
11.3479692682
 20
16.9272573361
 10
11.4225081574
 20
17.0100914628
 10
11.4995637765
 20
17.0875154085
 10
11.5784443704
 20
17.1588341114
 10
11.6584418002
 20
17.2234073185
  0
LWPOLYLINE
  5
306
100
AcDbEntity
  8
RACCORDO
100
AcDbPolyline
 62
250
  6
CONTINUOUS
 90
16
 70
0
 10
-10.9866505533
 20
-14.1326571163
 10
-10.8942971749
 20
-14.0911717311
 10
-10.7939992507
 20
-14.056673012
 10
-10.6868317686
 20
-14.0295307145
 10
-10.5739433444
 20
-14.0100357483
 10
-10.4565439105
 20
-13.9983970595
 10
-10.3358917481
 20
-13.9947393908
 10
-10.213280001
 20
-13.9991019451
 10
-10.0900228157
 20
-14.0114379646
 10
-9.9674412566
 20
-14.0316152324
 10
-9.8468491465
 20
-14.0594174897
 10
-9.7295389856
 20
-14.0945467532
 10
-9.6167680984
 20
-14.1366265091
 10
-9.5097451574
 20
-14.1852057488
 10
-9.4096172292
 20
-14.2397638024
 10
-9.3174574799
 20
-14.2997159194
  0
LWPOLYLINE
  5
307
100
AcDbEntity
  8
RACCORDO
100
AcDbPolyline
 62
250
  6
CONTINUOUS
 90
16
 70
0
 10
-10.6126248698
 20
-11.9644340596
 10
-10.5207795368
 20
-11.9259241273
 10
-10.4209812752
 20
-11.894359023
 10
-10.3142999117
 20
-11.870077309
 10
-10.2018781303
 20
-11.8533341062
 10
-10.0849219148
 20
-11.8443140472
 10
-9.9646875943
 20
-11.8431293378
 10
-9.8424650435
 20
-11.8497987819
 10
-9.7195632795
 20
-11.8642445437
 10
-9.5972990966
 20
-11.8863086699
 10
-9.4769830169
 20
-11.9157544344
 10
-9.3599048463
 20
-11.9522664921
 10
-9.2473192217
 20
-11.995451155
 10
-9.1404328885
 20
-12.0448447695
 10
-9.0403917669
 20
-12.0999186807
 10
-8.948268273
 20
-12.1600825444
  0
LWPOLYLINE
  5
308
100
AcDbEntity
  8
RACCORDO
100
AcDbPolyline
 62
250
  6
CONTINUOUS
 90
91
 70
0
 10
6.6084128197
 20
12.0577545285
 10
6.5905325175
 20
12.1767437891
 10
6.5627485863
 20
12.3802188223
 10
6.5380542354
 20
12.5777193659
 10
6.5163120205
 20
12.7692341996
 10
6.4975172292
 20
12.9546463195
 10
6.4811211556
 20
13.134951503
 10
6.4670151415
 20
13.3102719397
 10
6.4551957297
 20
13.4803855866
 10
6.4452872208
 20
13.6457853866
 10
6.4372157558
 20
13.8064834245
 10
6.4309579776
 20
13.9623823844
 10
6.4262217469
 20
14.1138181244
 10
6.4229479404
 20
14.2607397367
 10
6.4211098874
 20
14.4031240729
 10
6.4204707839
 20
14.541354522
 10
6.4209798596
 20
14.675400932
 10
6.4226143932
 20
14.8052308687
 10
6.4251866076
 20
14.931230302
 10
6.42865422
 20
15.0533836882
 10
6.4329973396
 20
15.1716542627
 10
6.4380681792
 20
15.2864016029
 10
6.4438315791
 20
15.3976117615
 10
6.4502702894
 20
15.5052550812
 10
6.4572690289
 20
15.6096723028
 10
6.464798468
 20
15.7108518289
 10
6.4728440248
 20
15.8087690914
 10
6.4813175328
 20
15.9037495085
 10
6.4901961391
 20
15.9957969664
 10
6.4994662073
 20
16.0848777991
 10
6.5090575618
 20
16.1712645135
 10
6.5189523709
 20
16.254963707
 10
6.5291378646
 20
16.3359440216
 10
6.5395546484
 20
16.4144236297
 10
6.5501868631
 20
16.490397681
 10
6.5610243519
 20
16.5638501489
 10
6.572018818
 20
16.6349845003
 10
6.5831558423
 20
16.7037912407
 10
6.5944278033
 20
16.7702623114
 10
6.605798873
 20
16.8346051545
 10
6.617256627
 20
16.8968128905
 10
6.6287950458
 20
16.9568778093
 10
6.6403900024
 20
17.0150077697
 10
6.6520308226
 20
17.0711982642
 10
6.663712911
 20
17.1254417947
 10
6.675423155
 20
17.1779432273
 10
6.6871522175
 20
17.2286995616
 10
6.6988969214
 20
17.2777040116
 10
6.7106550926
 20
17.3251570941
 10
6.7224184875
 20
17.3710573974
 10
6.7341852078
 20
17.4153984391
 10
6.7459641107
 20
17.4583743071
 10
6.7577477755
 20
17.4999851338
 10
6.7695355027
 20
17.540224492
 10
6.7813475736
 20
17.5792776673
 10
6.7931768626
 20
17.617145716
 10
6.8050240818
 20
17.6538226268
 10
6.816922458
 20
17.6894839994
 10
6.8288647375
 20
17.7241321183
 10
6.8408532038
 20
17.757760869
 10
6.8529364515
 20
17.790534066
 10
6.8651065326
 20
17.8224557786
 10
6.8773676487
 20
17.8535190552
 10
6.8897875731
 20
17.8838719074
 10
6.9023570454
 20
17.9135217155
 10
6.9150826237
 20
17.9424590201
 10
6.9280566662
 20
17.9708072236
 10
6.9412763451
 20
17.9985937164
 10
6.9547427009
 20
18.0257897287
 10
6.9685545229
 20
18.0524348975
 10
6.9827311781
 20
18.0785909392
 10
6.9972520639
 20
18.1041951791
 10
7.0121560154
 20
18.1291006707
 10
7.0274718372
 20
18.1533542916
 10
7.0431690698
 20
18.1769078961
 10
7.0591968422
 20
18.1994713966
 10
7.0755541661
 20
18.2210277918
 10
7.0922392018
 20
18.2415919434
 10
7.1091987743
 20
18.2609207913
 10
7.1264155374
 20
18.2789844492
 10
7.1439033108
 20
18.2958101518
 10
7.1616550339
 20
18.31124005
 10
7.1795955908
 20
18.3252536182
 10
7.1977964785
 20
18.337868672
 10
7.2164704987
 20
18.3489848327
 10
7.2356783417
 20
18.3586909303
 10
7.2553564745
 20
18.3668960114
 10
7.2755311396
 20
18.3732298575
 10
7.2962098492
 20
18.377568143
 10
7.3173818351
 20
18.3800327694
 10
7.3390456987
 20
18.3806226962
  0
LWPOLYLINE
  5
309
100
AcDbEntity
  8
RACCORDO
100
AcDbPolyline
 62
250
  6
CONTINUOUS
 90
14
 70
0
 10
10.2165284448
 20
8.2216106191
 10
9.9694694926
 20
4.4269146339
 10
9.7717052497
 20
0.6599610504
 10
9.6233112451
 20
-3.0784261559
 10
9.5243584792
 20
-6.7870896489
 10
9.4748749362
 20
-10.4654020936
 10
9.4748751382
 20
-14.1127487286
 10
9.5243590611
 20
-17.7280256547
 10
9.6233121375
 20
-21.3106463522
 10
9.7717063453
 20
-24.8600154195
 10
9.9694706483
 20
-28.3750529465
 10
10.2165294796
 20
-31.855034132
 10
10.5128248426
 20
-35.2995729009
 10
10.8582805763
 20
-38.7081222784
  0
LINE
  5
30A
100
AcDbEntity
  8
RACCORDO
100
AcDbLine
 62
250
  6
CONTINUOUS
 10
10.5128241515
 20
12.0435732649
 11
10.2165284448
 21
8.2216106191
  0
LINE
  5
30B
100
AcDbEntity
  8
RACCORDO
100
AcDbLine
 62
250
  6
CONTINUOUS
 10
10.8582804909
 20
15.89214791
 11
10.5128241515
 21
12.0435732649
  0
LWPOLYLINE
  5
30C
100
AcDbEntity
  8
RACCORDO
100
AcDbPolyline
 62
250
  6
CONTINUOUS
 90
16
 70
0
 10
12.5057938507
 20
15.7768552711
 10
12.1612283333
 20
11.9390371691
 10
11.8658153126
 20
8.1289545978
 10
11.6195547888
 20
4.3466075573
 10
11.4223914233
 20
0.5911596529
 10
11.2743805545
 20
-3.1365527207
 10
11.1756881984
 20
-6.8340203798
 10
11.126369696
 20
-10.5011772737
 10
11.1263697062
 20
-14.138089453
 10
11.1756882214
 20
-17.7424458855
 10
11.274380584
 20
-21.3142421099
 10
11.4223914514
 20
-24.8534825874
 10
11.6195547884
 20
-28.357869669
 10
11.8658152497
 20
-31.8266374717
 10
12.1612281805
 20
-35.2605518786
 10
12.5057935808
 20
-38.6596128895
  0
LWPOLYLINE
  5
30D
100
AcDbEntity
  8
RACCORDO
100
AcDbPolyline
 62
250
  6
CONTINUOUS
 90
30
 70
0
 10
-11.7741420758
 20
31.8956873817
 10
-11.7562324543
 20
31.870561172
 10
-11.7387282627
 20
31.8449783638
 10
-11.7216289851
 20
31.818939341
 10
-11.7049972482
 20
31.792483342
 10
-11.6887693024
 20
31.7655719643
 10
-11.6727550378
 20
31.7380891528
 10
-11.6569350331
 20
31.7100445113
 10
-11.6413274605
 20
31.6814293676
 10
-11.6257985275
 20
31.652100308
 10
-11.6103305729
 20
31.6220516115
 10
-11.5949397299
 20
31.5912901407
 10
-11.5795427334
 20
31.5596914801
 10
-11.5641240972
 20
31.5272396943
 10
-11.5486974236
 20
31.4939521291
 10
-11.5332228977
 20
31.4597544283
 10
-11.5176885073
 20
31.4246280655
 10
-11.5021040242
 20
31.3885932482
 10
-11.4864621739
 20
31.3516338242
 10
-11.4707546198
 20
31.3137330332
 10
-11.4549871665
 20
31.2749095404
 10
-11.4391737068
 20
31.235200367
 10
-11.4233042626
 20
31.1945791868
 10
-11.4073860919
 20
31.1530743789
 10
-11.3914590617
 20
31.1108049344
 10
-11.3755385478
 20
31.0678136318
 10
-11.3596065777
 20
31.024059661
 10
-11.343653088
 20
30.9795365641
 10
-11.3276906903
 20
30.9342910218
 10
-11.3117039871
 20
30.8882784728
  0
LWPOLYLINE
  5
30E
100
AcDbEntity
  8
RACCORDO
100
AcDbPolyline
 62
250
  6
CONTINUOUS
 90
19
 70
0
 10
12.5058070593
 20
15.7768643385
 10
12.4987871467
 20
15.8497986393
 10
12.4857909048
 20
15.9270694221
 10
12.4668768132
 20
16.0081229646
 10
12.4421288887
 20
16.0924332254
 10
12.4117090176
 20
16.1793211496
 10
12.3758967041
 20
16.267943913
 10
12.3349990001
 20
16.3575557393
 10
12.289300274
 20
16.447545849
 10
12.2391373886
 20
16.5372483942
 10
12.1848818333
 20
16.6259927517
 10
12.1269500706
 20
16.7130918817
 10
12.0657925279
 20
16.7978665039
 10
12.0018783426
 20
16.8796668921
 10
11.935689898
 20
16.9578762209
 10
11.8677307962
 20
17.0318994157
 10
11.7985179567
 20
17.1011734664
 10
11.7285776605
 20
17.1651716607
 10
11.6584418002
 20
17.2234073185
  0
LINE
  5
30F
100
AcDbEntity
  8
RACCORDO
100
AcDbLine
 62
250
  6
CONTINUOUS
 10
-9.0403985438
 20
21.0690896796
 11
-8.9482682626
 21
21.0113602297
  0
LWPOLYLINE
  5
310
100
AcDbEntity
  8
RACCORDO
100
AcDbPolyline
 62
250
  6
CONTINUOUS
 90
13
 70
0
 10
-9.0167004372
 20
20.9376480124
 10
-9.0128814221
 20
20.9350716809
 10
-9.0012564753
 20
20.9286268133
 10
-8.990021877
 20
20.9244718056
 10
-8.9791009806
 20
20.9224473233
 10
-8.9686347429
 20
20.9225313548
 10
-8.9596592127
 20
20.9255292533
 10
-8.9521204074
 20
20.9314831898
 10
-8.9460279902
 20
20.9403156142
 10
-8.9424776961
 20
20.9526983704
 10
-8.9418460815
 20
20.968816279
 10
-8.9437726083
 20
20.9883866817
 10
-8.9482658662
 20
21.011362334
  0
LINE
  5
311
100
AcDbEntity
  8
RACCORDO
100
AcDbLine
 62
7
  6
CONTINUOUS
 10
6.4730586499
 20
9.9847343171
 11
-9.0167263268
 21
20.9376663133
  0
LINE
  5
312
100
AcDbEntity
  8
RACCORDO
100
AcDbLine
 62
250
  6
CONTINUOUS
 10
6.4801666439
 20
10.1018130831
 11
-8.9482642721
 21
21.0113612068
  0
LINE
  5
313
100
AcDbEntity
  8
RACCORDO
100
AcDbLine
 62
7
  6
CONTINUOUS
 10
16.8969759171
 20
18.7913129848
 11
16.8969759171
 21
-36.0824989919
  0
LWPOLYLINE
  5
314
100
AcDbEntity
  8
RACCORDO
100
AcDbPolyline
 62
250
  6
CONTINUOUS
 90
9
 70
0
 10
12.5058070593
 20
-38.6596049791
 10
12.498707113
 20
-38.7335201661
 10
12.4855713076
 20
-38.8020923951
 10
12.4664992666
 20
-38.8648016074
 10
12.4416356342
 20
-38.9211722099
 10
12.4111689787
 20
-38.9707766822
 10
12.3753303625
 20
-39.0132388189
 10
12.3343915891
 20
-39.0482365828
 10
12.3102350577
 20
-39.0639574672
  0
LINE
  5
315
100
AcDbEntity
  8
0
100
AcDbLine
 62
7
  6
CONTINUOUS
 10
-6.2206231022
 20
-22.8536169629
 11
-6.3271178455
 21
-22.928920118
  0
LINE
  5
316
100
AcDbEntity
  8
0
100
AcDbLine
 62
7
  6
CONTINUOUS
 10
-5.8246235057
 20
-23.1336309629
 11
-5.931118249
 21
-23.208934118
  0
LINE
  5
317
100
AcDbEntity
  8
0
100
AcDbLine
 62
7
  6
CONTINUOUS
 10
-4.9491963193
 20
-23.7526514629
 11
-5.0556910625
 21
-23.827954618
  0
LINE
  5
318
100
AcDbEntity
  8
0
100
AcDbLine
 62
7
  6
CONTINUOUS
 10
-4.5531967228
 20
-24.0326654629
 11
-4.6596914661
 21
-24.107968618
  0
LINE
  5
319
100
AcDbEntity
  8
0
100
AcDbLine
 62
7
  6
CONTINUOUS
 10
-4.2892019416
 20
-24.2193379629
 11
-4.3956966849
 21
-24.294641118
  0
LWPOLYLINE
  5
31A
100
AcDbEntity
  8
RACCORDO
100
AcDbPolyline
 62
250
  6
CONTINUOUS
 90
32
 70
0
 10
-11.9371566799
 20
31.9479565935
 10
-11.927145213
 20
31.9399201959
 10
-11.9172053172
 20
31.9300838163
 10
-11.9073388645
 20
31.9184481563
 10
-11.8974740798
 20
31.9048042629
 10
-11.8876845149
 20
31.8893637932
 10
-11.878198412
 20
31.8727525998
 10
-11.8691034805
 20
31.8549937934
 10
-11.860332562
 20
31.8360531932
 10
-11.8518905642
 20
31.8164640898
 10
-11.8438355688
 20
31.7963851411
 10
-11.8361289725
 20
31.7756455362
 10
-11.8286279758
 20
31.7542860956
 10
-11.8213215255
 20
31.7323477174
 10
-11.8142305398
 20
31.709783603
 10
-11.8072545647
 20
31.6865073555
 10
-11.8003806818
 20
31.6625225821
 10
-11.7936265419
 20
31.6378234603
 10
-11.786934061
 20
31.612312341
 10
-11.7802953814
 20
31.585986837
 10
-11.7737204589
 20
31.5588492061
 10
-11.7671759624
 20
31.5308105216
 10
-11.760655494
 20
31.5018587226
 10
-11.7541660759
 20
31.4720070699
 10
-11.7476934836
 20
31.4412056032
 10
-11.7412335731
 20
31.4094399384
 10
-11.7347905289
 20
31.3767262925
 10
-11.7283622785
 20
31.3430609691
 10
-11.7219458421
 20
31.3084251446
 10
-11.7155442006
 20
31.2728396098
 10
-11.7091643751
 20
31.2363599432
 10
-11.7028060558
 20
31.1989747822
  0
LINE
  5
31B
100
AcDbEntity
  8
0
100
AcDbLine
 62
7
  6
CONTINUOUS
 10
-3.8932072949
 20
-24.4993484629
 11
-3.9997020381
 21
-24.574651618
  0
LINE
  5
31C
100
AcDbEntity
  8
0
100
AcDbLine
 62
7
  6
CONTINUOUS
 10
-5.3361644689
 20
-25.6672643484
 11
-5.4424127805
 21
-25.74239325
  0
LINE
  5
31D
100
AcDbEntity
  8
0
100
AcDbLine
 62
7
  6
CONTINUOUS
 10
-3.4972274974
 20
-24.7793484629
 11
-3.6037222407
 21
-24.854651618
  0
LINE
  5
31E
100
AcDbEntity
  8
0
100
AcDbLine
 62
7
  6
CONTINUOUS
 10
-2.8985901893
 20
-25.2026489629
 11
-3.0050849326
 21
-25.277952118
  0
LINE
  5
31F
100
AcDbEntity
  8
0
100
AcDbLine
 62
7
  6
CONTINUOUS
 10
-4.0404690741
 20
-26.5834593484
 11
-4.1467173857
 21
-26.65858825
  0
LINE
  5
320
100
AcDbEntity
  8
0
100
AcDbLine
 62
7
  6
CONTINUOUS
 10
-2.1591078171
 20
-25.7255419629
 11
-2.2656025604
 21
-25.800845118
  0
LINE
  5
321
100
AcDbEntity
  8
0
100
AcDbLine
 62
7
  6
CONTINUOUS
 10
-3.2484896802
 20
-27.1434733484
 11
-3.3547379918
 21
-27.21860225
  0
LINE
  5
322
100
AcDbEntity
  8
RACCORDO
100
AcDbLine
 62
7
  6
CONTINUOUS
 10
-11.7741420758
 20
31.8956873817
 11
7.3390456987
 21
18.3806226962
  0
LINE
  5
323
100
AcDbEntity
  8
RACCORDO
100
AcDbLine
 62
250
  6
CONTINUOUS
 10
7.343186725
 20
18.3776945484
 11
10.8582804909
 21
15.89214791
  0
LINE
  5
324
100
AcDbEntity
  8
RACCORDO
100
AcDbLine
 62
250
  6
CONTINUOUS
 10
-15.2939107304
 20
34.3845396655
 11
-11.7744659051
 21
31.8959212769
  0
LWPOLYLINE
  5
325
100
AcDbEntity
  8
RACCORDO
100
AcDbPolyline
 62
7
  6
CONTINUOUS
 90
13
 70
0
 10
7.343186725
 20
18.3776945484
 10
7.3569410825
 20
18.3675661436
 10
7.3705629927
 20
18.3567070631
 10
7.3840524639
 20
18.3451173121
 10
7.3974869829
 20
18.3327754153
 10
7.4107890957
 20
18.3197028679
 10
7.4237264114
 20
18.305964138
 10
7.4363118694
 20
18.2915583666
 10
7.4485326071
 20
18.2764864594
 10
7.4601175501
 20
18.2608155434
 10
7.4709763897
 20
18.2445680245
 10
7.4811995753
 20
18.2277215827
 10
7.49078719
 20
18.2102762687
  0
LINE
  5
326
100
AcDbEntity
  8
0
100
AcDbLine
 62
7
  6
CONTINUOUS
 10
-1.560470509
 20
-26.1488424629
 11
-1.6669652523
 21
-26.224145618
  0
LINE
  5
327
100
AcDbEntity
  8
0
100
AcDbLine
 62
7
  6
CONTINUOUS
 10
-2.4781156434
 20
-27.6882046932
 11
-2.5843639555
 21
-27.7633335951
  0
LINE
  5
328
100
AcDbEntity
  8
0
100
AcDbLine
 62
7
  6
CONTINUOUS
 10
-0.6607742648
 20
-26.7850181978
 11
-0.7672690089
 21
-26.8603213535
  0
LINE
  5
329
100
AcDbEntity
  8
0
100
AcDbLine
 62
7
  6
CONTINUOUS
 10
-0.2647598191
 20
-27.0650426978
 11
-0.3712545632
 21
-27.1403458535
  0
LINE
  5
32A
100
AcDbEntity
  8
0
100
AcDbLine
 62
7
  6
CONTINUOUS
 10
-1.7077273385
 20
-28.2329568484
 11
-1.8139756501
 21
-28.30808575
  0
LINE
  5
32B
100
AcDbEntity
  8
0
100
AcDbLine
 62
7
  6
CONTINUOUS
 10
-0.7523593132
 20
-28.0728181982
 11
-0.8586904589
 21
-28.1480056724
  0
LINE
  5
32C
100
AcDbEntity
  8
0
100
AcDbLine
 62
7
  6
CONTINUOUS
 10
-1.04773762
 20
-28.6996346932
 11
-1.1539859321
 21
-28.7747635951
  0
LINE
  5
32D
100
AcDbEntity
  8
0
100
AcDbLine
 62
7
  6
CONTINUOUS
 10
0.6349458787
 20
-27.7012306978
 11
0.5284511347
 21
-27.7765338535
  0
LINE
  5
32E
100
AcDbEntity
  8
RACCORDO
100
AcDbLine
 62
250
  6
CONTINUOUS
 10
11.6584418002
 20
17.2234073185
 11
-14.49375627
 21
35.7158039169
  0
LWPOLYLINE
  5
32F
100
AcDbEntity
  8
0
100
AcDbPolyline
 62
7
  6
CONTINUOUS
 90
18
 70
0
 10
1.5347795567
 20
-29.3230763584
 10
1.5480830033
 20
-29.3119376718
 10
1.5642014436
 20
-29.2920674407
 10
1.5767303003
 20
-29.267727524
 10
1.5854170934
 20
-29.2393295219
 10
1.5900031734
 20
-29.2074625334
 10
1.5904541278
 20
-29.1726372415
 10
1.5868004227
 20
-29.1354286925
 10
1.5790420686
 20
-29.0966361868
 10
1.5674137272
 20
-29.0570157494
 10
1.5521659269
 20
-29.0171154223
 10
1.5333884111
 20
-28.9774505575
 10
1.5112978696
 20
-28.9385316837
 10
1.4863632053
 20
-28.9011743725
 10
1.4591269445
 20
-28.8663089003
 10
1.4301365789
 20
-28.8345844338
 10
1.3998837953
 20
-28.8064013369
 10
1.3688980818
 20
-28.7821942798
  0
LWPOLYLINE
  5
330
100
AcDbEntity
  8
0
100
AcDbPolyline
 62
7
  6
CONTINUOUS
 90
28
 70
0
 10
1.9790054251
 20
-29.7210933219
 10
1.9889497108
 20
-29.7136755692
 10
2.0186286282
 20
-29.6867251404
 10
2.0446526414
 20
-29.6552590114
 10
2.0669496486
 20
-29.6191833104
 10
2.085599205
 20
-29.5785872574
 10
2.100229635
 20
-29.5343062865
 10
2.1107595563
 20
-29.4862663197
 10
2.1172737114
 20
-29.4345393845
 10
2.1196449199
 20
-29.3801830251
 10
2.117788179
 20
-29.323146417
 10
2.1117869693
 20
-29.2634814005
 10
2.1017620216
 20
-29.202402529
 10
2.0876287394
 20
-29.1398832511
 10
2.069465698
 20
-29.0759539274
 10
2.0476341477
 20
-29.0119171156
 10
2.0220557347
 20
-28.9477740886
 10
1.9927997349
 20
-28.8835292529
 10
1.960445749
 20
-28.8204917831
 10
1.9248970426
 20
-28.7586583283
 10
1.8862404155
 20
-28.6980384154
 10
1.8453290823
 20
-28.6399615728
 10
1.8021394176
 20
-28.5845306901
 10
1.7566865832
 20
-28.5316481175
 10
1.7098817559
 20
-28.4823427049
 10
1.6620269729
 20
-28.4369584449
 10
1.6128154572
 20
-28.3951542723
 10
1.5622460236
 20
-28.3569309185
  0
LINE
  5
331
100
AcDbEntity
  8
0
100
AcDbLine
 62
7
  6
CONTINUOUS
 10
1.5622315694
 20
-28.3569206978
 11
1.4557369843
 21
-28.4322237411
  0
LINE
  5
332
100
AcDbEntity
  8
0
100
AcDbLine
 62
7
  6
CONTINUOUS
 10
0.954802829
 20
-28.8754791592
 11
0.8484265142
 21
-28.9506985728
  0
LINE
  5
333
100
AcDbEntity
  8
0
100
AcDbLine
 62
7
  6
CONTINUOUS
 10
0.2236938221
 20
-29.5986778484
 11
0.1174455105
 21
-29.67380675
  0
LINE
  5
334
100
AcDbEntity
  8
0
100
AcDbLine
 62
7
  6
CONTINUOUS
 10
1.4365850846
 20
-29.2161506592
 11
1.3302086617
 21
-29.2913701493
  0
LINE
  5
335
100
AcDbEntity
  8
0
100
AcDbLine
 62
7
  6
CONTINUOUS
 10
0.8836884903
 20
-30.0653591932
 11
0.7774401783
 21
-30.1404880951
  0
LINE
  5
336
100
AcDbEntity
  8
ASSI
100
AcDbLine
 62
7
  6
CONTINUOUS
 10
1.9637216338
 20
-29.7319451311
 11
1.9790253697
 21
-29.7211237556
  0
LINE
  5
337
100
AcDbEntity
  8
0
100
AcDbLine
 62
7
  6
CONTINUOUS
 10
-1.1342470032
 20
30.3145624517
 11
3.8155004651
 21
26.8145624517
  0
LINE
  5
338
100
AcDbEntity
  8
RACCORDO
100
AcDbLine
 62
7
  6
CONTINUOUS
 10
16.049610658
 20
20.2378559647
 11
5.353441682
 21
27.8011895804
  0
LINE
  5
339
100
AcDbEntity
  8
RACCORDO
100
AcDbLine
 62
7
  6
CONTINUOUS
 10
0.1562389047
 20
31.4761669074
 11
-10.5399300713
 21
39.039500523
  0
LINE
  5
33A
100
AcDbEntity
  8
0
100
AcDbLine
 62
7
  6
CONTINUOUS
 10
2.0722122435
 20
-30.9057670379
 11
1.9659639309
 21
-30.9808959402
  0
LWPOLYLINE
  5
33B
100
AcDbEntity
  8
0
100
AcDbPolyline
 62
7
  6
CONTINUOUS
 90
8
 70
0
 10
1.8726575326
 20
-29.7963371746
 10
1.8498147331
 20
-29.8107801692
 10
1.8139101841
 20
-29.827552334
 10
1.7751534535
 20
-29.8391276245
 10
1.733834923
 20
-29.8454061495
 10
1.6902371417
 20
-29.8463433686
 10
1.6446323026
 20
-29.841949189
 10
1.5973226985
 20
-29.8322597346
  0
LWPOLYLINE
  5
33C
100
AcDbEntity
  8
RACCORDO
100
AcDbPolyline
 62
7
  6
CONTINUOUS
 90
13
 70
0
 10
-11.9371610222
 20
31.9479101871
 10
-11.9254120657
 20
31.9505391045
 10
-11.9132004521
 20
31.951733706
 10
-11.900526271
 20
31.9514939369
 10
-11.8873070833
 20
31.9497157209
 10
-11.8736254791
 20
31.9465030421
 10
-11.8597290691
 20
31.94216795
 10
-11.8456215535
 20
31.9367140194
 10
-11.8312993124
 20
31.9301376264
 10
-11.8169989533
 20
31.922740037
 10
-11.8027993545
 20
31.9146216675
 10
-11.7886216693
 20
31.9056820823
 10
-11.7744659051
 20
31.8959212769
  0
LWPOLYLINE
  5
33D
100
AcDbEntity
  8
RACCORDO
100
AcDbPolyline
 62
250
  6
CONTINUOUS
 90
16
 70
0
 10
12.5058070593
 20
-38.659604979
 10
12.4120508701
 20
-38.7228370097
 10
12.3120792892
 20
-38.7771182975
 10
12.2062557167
 20
-38.8231805509
 10
12.0946483687
 20
-38.8623435043
 10
11.9778574091
 20
-38.893952211
 10
11.8578775018
 20
-38.915753041
 10
11.7369852873
 20
-38.928363773
 10
11.6159005284
 20
-38.9326527993
 10
11.4952413399
 20
-38.9269099307
 10
11.3767761733
 20
-38.9117885969
 10
11.2620051678
 20
-38.888433194
 10
11.1513959267
 20
-38.8555273831
 10
11.0461534599
 20
-38.8132724023
 10
10.9480353521
 20
-38.7636845806
 10
10.8582839793
 20
-38.7081246848
  0
LINE
  5
33E
100
AcDbEntity
  8
RACCORDO
100
AcDbLine
 62
250
  6
CONTINUOUS
 10
12.5057935808
 20
-38.6596128895
 11
16.8969759171
 21
-36.0824989919
  0
LINE
  5
33F
100
AcDbEntity
  8
RACCORDO
100
AcDbLine
 62
7
  6
CONTINUOUS
 10
12.3102350577
 20
-39.0639574672
 11
16.7201396641
 21
-36.475855772
  0
ARC
  5
340
100
AcDbEntity
  8
RACCORDO
100
AcDbCircle
 62
7
  6
CONTINUOUS
 10
11.7028503317
 20
-38.0290256845
 40
1.2
100
AcDbArc
 50
234.7411120113
 51
300.4079833576
  0
ARC
  5
341
100
AcDbEntity
  8
RACCORDO
100
AcDbCircle
 62
7
  6
CONTINUOUS
 10
-14.4493477385
 20
34.8998402315
 40
1.2
100
AcDbArc
 50
130.0513455627
 51
175.1466759476
  0
ARC
  5
342
100
AcDbEntity
  8
RACCORDO
100
AcDbCircle
 62
7
  6
CONTINUOUS
 10
-14.4493477385
 20
-19.5366290862
 40
1.2
100
AcDbArc
 50
185.6477223122
 51
234.7581045394
  0
ELLIPSE
  5
343
100
AcDbEntity
  8
RACCORDO
100
AcDbEllipse
 62
7
  6
CONTINUOUS
 10
16.0472833055
 20
-35.4793482318
 30
0.0
 11
-0.6940708947
 21
0.9828275207
 31
0.0
 40
0.4987101158
 41
-3.1836355232
 42
-2.5267242989
  0
ELLIPSE
  5
344
100
AcDbEntity
  8
RACCORDO
100
AcDbEllipse
 62
7
  6
CONTINUOUS
 10
16.0472833055
 20
19.3898090399
 30
0.0
 11
-0.6934737074
 21
0.9794492403
 31
0.0
 40
0.501292524
 41
-2.5255069615
 42
-0.9574496904
  0
ELLIPSE
  5
345
100
AcDbEntity
  8
RACCORDO
100
AcDbEllipse
 62
7
  6
CONTINUOUS
 10
-10.5376027188
 20
38.1881622247
 30
0.0
 11
-0.6940708947
 21
0.9828275207
 31
0.0
 40
0.4987101158
 41
-0.9531889164
 42
0.0420431768
  0
ELLIPSE
  5
346
100
AcDbEntity
  8
0
100
AcDbEllipse
 62
7
  6
CONTINUOUS
 10
58.9954547335
 20
14.9592992964
 30
0.0
 11
27.6163507624
 21
88.2347518926
 31
0.0
 40
0.6912191856
 41
-4.0662225815
 42
-4.0350750035
  0
ELLIPSE
  5
347
100
AcDbEntity
  8
0
100
AcDbEllipse
 62
7
  6
CONTINUOUS
 10
56.6007143704
 20
16.6526364463
 30
0.0
 11
64.7196176156
 21
64.5305965318
 31
0.0
 40
0.265596453
 41
-3.8008214843
 42
-3.7793672313
  0
ELLIPSE
  5
348
100
AcDbEntity
  8
0
100
AcDbEllipse
 62
7
  6
CONTINUOUS
 10
61.7255216668
 20
13.0288504547
 30
0.0
 11
31.4058005976
 21
86.3657582792
 31
0.0
 40
0.6762663434
 41
-4.0188491919
 42
-3.9983177798
  0
ELLIPSE
  5
349
100
AcDbEntity
  8
0
100
AcDbEllipse
 62
7
  6
CONTINUOUS
 10
59.5867206089
 20
14.5412111863
 30
0.0
 11
63.5334482733
 21
65.3711027307
 31
0.0
 40
0.2906993817
 41
-3.8011695016
 42
-3.7808771332
  0
ELLIPSE
  5
34A
100
AcDbEntity
  8
0
100
AcDbEllipse
 62
7
  6
CONTINUOUS
 10
60.8891248619
 20
13.6202723072
 30
0.0
 11
64.7196749139
 21
64.5305560353
 31
0.0
 40
0.2655952353
 41
-3.8008215661
 42
-3.769673988
  0
ELLIPSE
  5
34B
100
AcDbEntity
  8
0
100
AcDbEllipse
 62
7
  6
CONTINUOUS
 10
64.5552844028
 20
11.0279060349
 30
0.0
 11
27.6176440696
 21
88.2341388722
 31
0.0
 40
0.6912146399
 41
-4.0411825189
 42
-4.0350626163
  0
ELLIPSE
  5
34C
100
AcDbEntity
  8
0
100
AcDbEllipse
 62
7
  6
CONTINUOUS
 10
64.5553176233
 20
11.0278825445
 30
0.0
 11
27.6164114876
 21
88.2347231096
 31
0.0
 40
0.6912189722
 41
-4.056513298
 42
-4.0471095063
  0
ELLIPSE
  5
34D
100
AcDbEntity
  8
0
100
AcDbEllipse
 62
7
  6
CONTINUOUS
 10
67.0895887521
 20
9.2358822439
 30
0.0
 11
-0.1104303473
 21
98.0814475176
 31
0.0
 40
0.7320502981
 41
-4.3062791306
 42
-4.2942441945
  0
ELLIPSE
  5
34E
100
AcDbEntity
  8
RACCORDO
100
AcDbEllipse
 62
7
  6
CONTINUOUS
 10
-8.5588466632
 20
-10.1140894568
 30
0.0
 11
-0.1154974143
 21
0.1633048449
 31
0.0
 40
0.499974606
 41
0.6153600459
 42
2.1861563727
  0
ELLIPSE
  5
34F
100
AcDbEntity
  8
RACCORDO
100
AcDbEllipse
 62
7
  6
CONTINUOUS
 10
-0.3599554584
 20
29.273404489
 30
0.0
 11
0.4106541939
 21
0.6888051431
 31
0.0
 40
0.4540638227
 41
-1.0777182138
 42
-0.6508950592
  0
ELLIPSE
  5
350
100
AcDbEntity
  8
0
100
AcDbEllipse
 62
7
  6
CONTINUOUS
 10
59.3914512581
 20
14.6792874685
 30
0.0
 11
27.5704622264
 21
88.0879092122
 31
0.0
 40
0.6912189668
 41
-4.0663718575
 42
-4.0461771039
  0
ELLIPSE
  5
351
100
AcDbEntity
  8
0
100
AcDbEllipse
 62
7
  6
CONTINUOUS
 10
59.3914512581
 20
14.6792874685
 30
0.0
 11
27.6164129968
 21
88.2347223942
 31
0.0
 40
0.6912189668
 41
-4.066221978
 42
-4.044767725
  0
ELLIPSE
  5
352
100
AcDbEntity
  8
0
100
AcDbEllipse
 62
7
  6
CONTINUOUS
 10
56.9966713107
 20
16.3726526088
 30
0.0
 11
64.7198741407
 21
64.5304152283
 31
0.0
 40
0.2655910011
 41
-3.8008215015
 42
-3.7696740013
  0
ELLIPSE
  5
353
100
AcDbEntity
  8
0
100
AcDbEllipse
 62
7
  6
CONTINUOUS
 10
62.1215461092
 20
12.748818886
 30
0.0
 11
31.4053063674
 21
86.3660116688
 31
0.0
 40
0.6762685217
 41
-4.0294700696
 42
-4.0091777012
  0
ELLIPSE
  5
354
100
AcDbEntity
  8
0
100
AcDbEllipse
 62
7
  6
CONTINUOUS
 10
59.9827346283
 20
14.2611869878
 30
0.0
 11
63.5333224863
 21
65.3711920906
 31
0.0
 40
0.2907020299
 41
-3.790553496
 42
-3.7700221617
  0
ELLIPSE
  5
355
100
AcDbEntity
  8
0
100
AcDbEllipse
 62
7
  6
CONTINUOUS
 10
61.2851028873
 20
13.3402735603
 30
0.0
 11
64.7198133084
 21
64.5304582225
 31
0.0
 40
0.265592294
 41
-3.7757939776
 42
-3.769674075
  0
ELLIPSE
  5
356
100
AcDbEntity
  8
0
100
AcDbEllipse
 62
7
  6
CONTINUOUS
 10
64.9513334328
 20
10.7478570802
 30
0.0
 11
27.6160616001
 21
88.2348889516
 31
0.0
 40
0.6912202019
 41
-4.0662254639
 42
-4.0350778857
  0
ELLIPSE
  5
357
100
AcDbEntity
  8
0
100
AcDbEllipse
 62
7
  6
CONTINUOUS
 10
61.2851915183
 20
13.3402108887
 30
0.0
 11
64.7191740866
 21
64.5309100041
 31
0.0
 40
0.2656058792
 41
-3.7911127601
 42
-3.7817089685
  0
ELLIPSE
  5
358
100
AcDbEntity
  8
0
100
AcDbEllipse
 62
7
  6
CONTINUOUS
 10
67.5356055915
 20
8.9205007123
 30
0.0
 11
-0.1099152622
 21
98.0813145029
 31
0.0
 40
0.7320503028
 41
-4.3070235489
 42
-4.2942397255
  0
ELLIPSE
  5
359
100
AcDbEntity
  8
0
100
AcDbEllipse
 62
7
  6
CONTINUOUS
 10
67.5356055915
 20
8.9205007123
 30
0.0
 11
-0.1097323749
 21
97.9181176401
 31
0.0
 40
0.7320503028
 41
-4.3062052799
 42
-4.2943374016
  0
ELLIPSE
  5
35A
100
AcDbEntity
  8
0
100
AcDbEllipse
 62
7
  6
CONTINUOUS
 10
61.2851915183
 20
13.3402108887
 30
0.0
 11
64.6114882728
 21
64.4235374417
 31
0.0
 40
0.2656058792
 41
-3.7878257269
 42
-3.781826787
  0
ELLIPSE
  5
35B
100
AcDbEntity
  8
0
100
AcDbEllipse
 62
7
  6
CONTINUOUS
 10
64.9513334328
 20
10.7478570802
 30
0.0
 11
27.5701114144
 21
88.0880754925
 31
0.0
 40
0.6912202019
 41
-4.0663753435
 42
-4.0351755615
  0
ELLIPSE
  5
35C
100
AcDbEntity
  8
0
100
AcDbEllipse
 62
7
  6
CONTINUOUS
 10
61.2851028873
 20
13.3402735603
 30
0.0
 11
64.6121264311
 21
64.4230864119
 31
0.0
 40
0.265592294
 41
-3.7737308367
 42
-3.769771751
  0
ELLIPSE
  5
35D
100
AcDbEntity
  8
0
100
AcDbEllipse
 62
7
  6
CONTINUOUS
 10
59.9827346283
 20
14.2611869878
 30
0.0
 11
63.4276098033
 21
65.2624213883
 31
0.0
 40
0.2907020299
 41
-3.7853976044
 42
-3.7701198377
  0
ELLIPSE
  5
35E
100
AcDbEntity
  8
0
100
AcDbEllipse
 62
7
  6
CONTINUOUS
 10
62.1215461092
 20
12.748818886
 30
0.0
 11
31.3530512819
 21
86.2223078225
 31
0.0
 40
0.6762685217
 41
-4.0296199491
 42
-4.0108700227
  0
ELLIPSE
  5
35F
100
AcDbEntity
  8
0
100
AcDbEllipse
 62
7
  6
CONTINUOUS
 10
56.9966713107
 20
16.3726526088
 30
0.0
 11
64.6121871621
 21
64.4230434892
 31
0.0
 40
0.2655910011
 41
-3.800971381
 42
-3.7697716772
  0
ENDSEC
  0
SECTION
  2
OBJECTS
  0
DICTIONARY
  5
C
100
AcDbDictionary
280
0
281
1
  3
ACAD_GROUP
350
D
  3
ACAD_MLINESTYLE
350
17
  3
ACAD_LAYOUT
350
1A
  3
ACAD_PLOTSETTINGS
350
19
  3
ACAD_PLOTSTYLENAME
350
E
  0
DICTIONARY
  5
D
102
{ACAD_REACTORS
330
C
102
}
100
AcDbDictionary
280
0
281
1
  0
ACDBDICTIONARYWDFLT
  5
E
102
{ACAD_REACTORS
330
C
102
}
100
AcDbDictionary
281
1
  3
Normal
350
F
100
AcDbDictionaryWithDefault
340
F
  0
DICTIONARY
  5
17
102
{ACAD_REACTORS
330
C
102
}
100
AcDbDictionary
280
0
281
1
  3
Standard
350
18
  0
DICTIONARY
  5
19
102
{ACAD_REACTORS
330
C
102
}
100
AcDbDictionary
281
1
  0
DICTIONARY
  5
1A
102
{ACAD_REACTORS
330
C
102
}
100
AcDbDictionary
281
1
  3
Model
350
360
  3
Layout1
350
361
  0
ACDBPLACEHOLDER
  5
F
102
{ACAD_REACTORS
330
E
102
}
  0
MLINESTYLE
  5
18
102
{ACAD_REACTORS
330
17
102
}
100
AcDbMlineStyle
  2
STANDARD
 70
0
  3

 62
256
 51
90.0
 52
90.0
 71
2
 49
0.5
 62
256
  6
BYLAYER
 49
-0.5
 62
256
  6
BYLAYER
  0
LAYOUT
  5
360
102
{ACAD_REACTORS
330
1A
102
}
100
AcDbPlotSettings
  1

  2
none_device
  4
ISO_A4_(297.00_x_210.00_MM)
  6

 40
0.0
 41
0.0
 42
0.0
 43
0.0
 44
297.0
 45
210.0
 46
0.0
 47
0.0
 48
0.0
 49
0.0
140
0.0
141
0.0
142
1.0
143
1.0
 70
1024
 72
1
 73
0
 74
0
  7

 75
0
147
1.0
148
0.0
149
0.0
100
AcDbLayout
  1
Model
 70
0
 71
0
 10
0.0
 20
0.0
 11
297.0
 21
210.0
 12
0.0
 22
0.0
 32
0.0
 14
0.0
 24
0.0
 34
0.0
 15
0.0
 25
0.0
 35
0.0
146
0.0
 13
0.0
 23
0.0
 33
0.0
 16
1.0
 26
0.0
 36
0.0
 17
0.0
 27
1.0
 37
0.0
 76
0
330
211
345
0
346
0
  0
LAYOUT
  5
361
102
{ACAD_REACTORS
330
1A
102
}
100
AcDbPlotSettings
  1

  2
none_device
  4
ISO_A4_(297.00_x_210.00_MM)
  6

 40
0.0
 41
0.0
 42
0.0
 43
0.0
 44
297.0
 45
210.0
 46
0.0
 47
0.0
 48
0.0
 49
0.0
140
0.0
141
0.0
142
1.0
143
1.0
 70
0
 72
1
 73
0
 74
0
  7

 75
0
147
1.0
148
0.0
149
0.0
100
AcDbLayout
  1
Layout1
 70
0
 71
1
 10
0.0
 20
0.0
 11
297.0
 21
210.0
 12
0.0
 22
0.0
 32
0.0
 14
0.0
 24
0.0
 34
0.0
 15
0.0
 25
0.0
 35
0.0
146
0.0
 13
0.0
 23
0.0
 33
0.0
 16
1.0
 26
0.0
 36
0.0
 17
0.0
 27
1.0
 37
0.0
 76
0
330
212
345
0
346
0
  0
ENDSEC
  0
EOF
