  0
SECTION
  2
HEADER
  9
$ACADVER
  1
AC1024
  9
$DWGCODEPAGE
  3
ANSI_1252
  9
$EXTMAX
 10
297.0
 20
210.0
 30
0.0
  9
$EXTMIN
 10
0.0
 20
0.0
 30
0.0
  9
$LIMMIN
 10
0.0
 20
0.0
  9
$LIMMAX
 10
297.0
 20
210.0
  9
$VIEWCTR
 10
148.5
 20
105.0
  9
$VIEWSIZE
 40
210.0
  9
$CLAYER
  8
0
  9
$LTSCALE
 40
16.335
  9
$CELTYPE
  6
BYLAYER
  9
$DIMSCALE
 40
1.0
  9
$DIMASZ
 40
3.0
  9
$DIMEXO
 40
0.5
  9
$DIMDLI
 40
11.286
  9
$DIMEXE
 40
1.5
  9
$DIMCEN
 40
2.673
  9
$DIMLFAC
 40
1.0
  9
$DIMBLK
  1
_FILLED
  9
$DIMALT
 70
0
  9
$DIMALTF
 40
0.0393700787
  9
$DIMTXT
 40
3.0
  9
$DIMTOL
 70
1
  9
$DIMLIM
 70
0
  9
$DIMTFAC
 40
1.0
  9
$DIMTP
 40
0.01
  9
$DIMTM
 40
0.01
  9
$DIMGAP
 40
0.625
  9
$DIMDSEP
 70
44
  9
$AUNITS
 70
0
  9
$PDMODE
 70
3
  9
$PDSIZE
 40
3.0
  9
$HANDSEED
  5
3A4
  9
$TILEMODE
 70
1
  9
$MEASUREMENT
 70
1
  9
$INSUNITS
 70
4
  0
ENDSEC
  0
SECTION
  2
CLASSES
  0
CLASS
  1
ACDBDICTIONARYWDFLT
  2
AcDbDictionaryWithDefault
  3
AutoCAD 2000
 90
0
 91
1
280
0
281
0
  0
CLASS
  1
ACDBPLACEHOLDER
  2
AcDbPlaceHolder
  3
AutoCAD 2000
 90
0
 91
1
280
0
281
0
  0
CLASS
  1
LAYOUT
  2
AcDbLayout
  3
AutoCAD 2000
 90
0
 91
0
280
0
281
0
  0
ENDSEC
  0
SECTION
  2
TABLES
  0
TABLE
  2
VPORT
  5
8
100
AcDbSymbolTable
 70
2
  0
VPORT
  5
1F4
100
AcDbSymbolTableRecord
100
AcDbViewportTableRecord
  2
*ACTIVE
 70
0
 10
0.0
 20
0.0
 11
1.0
 21
1.0
 12
148.5
 22
105.0
 13
0.0
 23
0.0
 14
1.0
 24
1.0
 15
0.0
 25
0.0
 16
0.0
 26
0.0
 36
1.0
 17
0.0
 27
0.0
 37
0.0
 40
210.0
 41
1.4142857143
 42
50.0
 43
0.0
 44
0.0
 50
0.0
 51
0.0
 71
0
 72
100
 73
1
 74
1
 75
0
 76
0
 77
0
 78
0
  0
ENDTAB
  0
TABLE
  2
LTYPE
  5
5
100
AcDbSymbolTable
 70
6
  0
LTYPE
  5
14
100
AcDbSymbolTableRecord
100
AcDbLinetypeTableRecord
  2
BYBLOCK
 70
0
  3

 72
65
 73
0
 40
0.0
  0
LTYPE
  5
15
100
AcDbSymbolTableRecord
100
AcDbLinetypeTableRecord
  2
BYLAYER
 70
0
  3

 72
65
 73
0
 40
0.0
  0
LTYPE
  5
16
100
AcDbSymbolTableRecord
100
AcDbLinetypeTableRecord
  2
CONTINUOUS
 70
64
  3
Solid line
 72
65
 73
0
 40
0.0
  0
LTYPE
  5
1F5
100
AcDbSymbolTableRecord
100
AcDbLinetypeTableRecord
  2
CENTER
 70
64
  3
____ _ ____ _ ____ _ ____ _ ____ _ ____ _ ____
 72
65
 73
4
 40
0.6
 49
0.375
 74
0
 49
-0.075
 74
0
 49
0.075
 74
0
 49
-0.075
 74
0
  0
LTYPE
  5
1F6
100
AcDbSymbolTableRecord
100
AcDbLinetypeTableRecord
  2
HIDDEN
 70
64
  3
- - - - - - - - - - - - - - - - - - - -
 72
65
 73
2
 40
0.2
 49
0.1
 74
0
 49
-0.1
 74
0
  0
LTYPE
  5
1F7
100
AcDbSymbolTableRecord
100
AcDbLinetypeTableRecord
  2
PHANTOM
 70
64
  3
_____ _ _ _____ _ _ _____ _ _ _____
 72
65
 73
6
 40
0.8
 49
0.45
 74
0
 49
-0.05
 74
0
 49
0.1
 74
0
 49
-0.05
 74
0
 49
0.1
 74
0
 49
-0.05
 74
0
  0
LTYPE
  5
1F8
100
AcDbSymbolTableRecord
100
AcDbLinetypeTableRecord
  2
DOT
 70
64
  3
. . . . . . . . . . . . . . . . . . . .
 72
65
 73
2
 40
0.2
 49
0.1
 74
0
 49
-0.1
 74
0
  0
LTYPE
  5
1F9
100
AcDbSymbolTableRecord
100
AcDbLinetypeTableRecord
  2
DASHED
 70
64
  3
- - - - - - - - - - - - - - - - - - - -
 72
65
 73
2
 40
0.2
 49
0.1
 74
0
 49
-0.1
 74
0
  0
ENDTAB
  0
TABLE
  2
LAYER
  5
2
100
AcDbSymbolTable
 70
36
  0
LAYER
  5
10
100
AcDbSymbolTableRecord
100
AcDbLayerTableRecord
  2
0
 70
0
 62
7
  6
CONTINUOUS
370
-3
390
F
  0
LAYER
  5
1FA
100
AcDbSymbolTableRecord
100
AcDbLayerTableRecord
  2
DEFAULT_1
 70
0
 62
7
  6
CENTER
370
-3
390
F
  0
LAYER
  5
1FB
100
AcDbSymbolTableRecord
100
AcDbLayerTableRecord
  2
DEFAULT_2
 70
0
 62
7
  6
HIDDEN
370
-3
390
F
  0
LAYER
  5
1FC
100
AcDbSymbolTableRecord
100
AcDbLayerTableRecord
  2
DEFAULT_3
 70
0
 62
7
  6
PHANTOM
370
-3
390
F
  0
LAYER
  5
1FD
100
AcDbSymbolTableRecord
100
AcDbLayerTableRecord
  2
ASSI
 70
0
 62
7
  6
CONTINUOUS
370
-3
390
F
  0
LAYER
  5
1FE
100
AcDbSymbolTableRecord
100
AcDbLayerTableRecord
  2
COORDINATE
 70
0
 62
7
  6
CONTINUOUS
370
-3
390
F
  0
LAYER
  5
1FF
100
AcDbSymbolTableRecord
100
AcDbLayerTableRecord
  2
COORD_ORIGINE
 70
0
 62
7
  6
CONTINUOUS
370
-3
390
F
  0
LAYER
  5
200
100
AcDbSymbolTableRecord
100
AcDbLayerTableRecord
  2
COSMETICI
 70
0
 62
7
  6
CONTINUOUS
370
-3
390
F
  0
LAYER
  5
201
100
AcDbSymbolTableRecord
100
AcDbLayerTableRecord
  2
CURVE
 70
0
 62
7
  6
CONTINUOUS
370
-3
390
F
  0
LAYER
  5
202
100
AcDbSymbolTableRecord
100
AcDbLayerTableRecord
  2
DRAFT
 70
0
 62
7
  6
CONTINUOUS
370
-3
390
F
  0
LAYER
  5
203
100
AcDbSymbolTableRecord
100
AcDbLayerTableRecord
  2
IMPORT
 70
0
 62
7
  6
CONTINUOUS
370
-3
390
F
  0
LAYER
  5
204
100
AcDbSymbolTableRecord
100
AcDbLayerTableRecord
  2
LAY0001
 70
0
 62
7
  6
CONTINUOUS
370
-3
390
F
  0
LAYER
  5
205
100
AcDbSymbolTableRecord
100
AcDbLayerTableRecord
  2
NOTE
 70
0
 62
7
  6
CONTINUOUS
370
-3
390
F
  0
LAYER
  5
206
100
AcDbSymbolTableRecord
100
AcDbLayerTableRecord
  2
PIANI
 70
0
 62
7
  6
CONTINUOUS
370
-3
390
F
  0
LAYER
  5
207
100
AcDbSymbolTableRecord
100
AcDbLayerTableRecord
  2
PIANI_ORIGINE
 70
0
 62
7
  6
CONTINUOUS
370
-3
390
F
  0
LAYER
  5
208
100
AcDbSymbolTableRecord
100
AcDbLayerTableRecord
  2
PUNTI
 70
0
 62
7
  6
CONTINUOUS
370
-3
390
F
  0
LAYER
  5
209
100
AcDbSymbolTableRecord
100
AcDbLayerTableRecord
  2
RACCORDO
 70
0
 62
7
  6
CONTINUOUS
370
-3
390
F
  0
LAYER
  5
20A
100
AcDbSymbolTableRecord
100
AcDbLayerTableRecord
  2
SIMBOLI
 70
0
 62
7
  6
CONTINUOUS
370
-3
390
F
  0
LAYER
  5
20B
100
AcDbSymbolTableRecord
100
AcDbLayerTableRecord
  2
SNAPLINE
 70
0
 62
7
  6
CONTINUOUS
370
-3
390
F
  0
LAYER
  5
20C
100
AcDbSymbolTableRecord
100
AcDbLayerTableRecord
  2
SUPERFICI
 70
0
 62
7
  6
CONTINUOUS
370
-3
390
F
  0
LAYER
  5
20D
100
AcDbSymbolTableRecord
100
AcDbLayerTableRecord
  2
TRASH
 70
0
 62
7
  6
CONTINUOUS
370
-3
390
F
  0
LAYER
  5
20E
100
AcDbSymbolTableRecord
100
AcDbLayerTableRecord
  2
XSEC_DATUMS
 70
0
 62
7
  6
CONTINUOUS
370
-3
390
F
  0
ENDTAB
  0
TABLE
  2
STYLE
  5
3
100
AcDbSymbolTable
 70
1
  0
STYLE
  5
11
100
AcDbSymbolTableRecord
100
AcDbTextStyleTableRecord
  2
STANDARD
 70
0
 40
0.0
 41
0.8
 50
0.0
 71
0
 42
0.2
  3
txt
  4

  0
STYLE
  5
20F
100
AcDbSymbolTableRecord
100
AcDbTextStyleTableRecord
  2
TEXTSTYLE_1
 70
0
 40
0.0
 41
0.8
 50
0.0
 71
0
 42
0.2
  3
gdt
  4

  0
ENDTAB
  0
TABLE
  2
VIEW
  5
6
100
AcDbSymbolTable
 70
0
  0
ENDTAB
  0
TABLE
  2
UCS
  5
7
100
AcDbSymbolTable
 70
0
  0
ENDTAB
  0
TABLE
  2
APPID
  5
9
100
AcDbSymbolTable
 70
1
  0
APPID
  5
210
100
AcDbSymbolTableRecord
100
AcDbRegAppTableRecord
  2
ACAD
 70
0
  0
ENDTAB
  0
TABLE
  2
BLOCK_RECORD
  5
1
100
AcDbSymbolTable
 70
0
  0
BLOCK_RECORD
  5
211
100
AcDbSymbolTableRecord
100
AcDbBlockTableRecord
  2
*Model_Space
  0
BLOCK_RECORD
  5
212
100
AcDbSymbolTableRecord
100
AcDbBlockTableRecord
  2
*Paper_Space
  0
BLOCK_RECORD
  5
213
100
AcDbSymbolTableRecord
100
AcDbBlockTableRecord
  2
_FILLED
  0
ENDTAB
  0
TABLE
  2
DIMSTYLE
  5
A
100
AcDbSymbolTable
 70
1
100
AcDbDimStyleTable
 71
0
  0
DIMSTYLE
105
214
100
AcDbSymbolTableRecord
100
AcDbDimStyleTableRecord
  2
STANDARD
 70
0
  3

  4

 40
1.0
 41
3.0
 42
0.5
 43
0.38
 44
1.5
 45
0.0
 46
0.0
 47
0.01
 48
0.01
140
3.0
141
0.09
142
0.0
143
25.4
144
1.0
145
0.0
146
1.0
147
0.625
 71
1
 72
0
 73
0
 74
0
 75
0
 76
0
 77
1
 78
8
 79
2
170
0
171
1
172
0
173
0
174
0
175
0
176
0
177
0
178
0
270
2
179
2
271
2
272
2
273
2
274
2
275
0
280
0
281
0
282
0
283
1
284
8
285
0
286
0
287
3
288
0
340
11
278
44
341
213
342
213
343
213
344
213
  0
ENDTAB
  0
ENDSEC
  0
SECTION
  2
BLOCKS
  0
BLOCK
  5
20
100
AcDbEntity
  8
0
100
AcDbBlockBegin
  2
*Model_Space
 70
0
 10
0.0
 20
0.0
 30
0.0
  3
*Model_Space
  1

  0
ENDBLK
  5
21
100
AcDbEntity
  8
0
100
AcDbBlockEnd
  0
BLOCK
  5
1C
100
AcDbEntity
  8
0
100
AcDbBlockBegin
  2
*Paper_Space
 70
0
 10
0.0
 20
0.0
 30
0.0
  3
*Paper_Space
  1

  0
ENDBLK
  5
1D
100
AcDbEntity
  8
0
100
AcDbBlockEnd
  0
BLOCK
  5
215
100
AcDbEntity
  8
0
100
AcDbBlockBegin
  2
_FILLED
 70
64
 10
0.0
 20
0.0
  3
_FILLED
  1

  0
SOLID
  5
216
100
AcDbEntity
  8
0
  6
BYBLOCK
 62
0
100
AcDbTrace
 10
0.0
 20
0.0
 11
-1.0
 21
0.3166666667
 12
-1.0
 22
-0.3166666667
 13
-1.0
 23
-0.3166666667
  0
ENDBLK
  5
217
100
AcDbEntity
  8
0
  6
BYBLOCK
 62
0
100
AcDbBlockEnd
  0
ENDSEC
  0
SECTION
  2
ENTITIES
  0
LWPOLYLINE
  5
218
100
AcDbEntity
  8
RACCORDO
100
AcDbPolyline
 62
250
  6
CONTINUOUS
 90
11
 70
0
 10
-15.221720345
 20
55.9707782598
 10
-15.1962155744
 20
55.9898994044
 10
-15.1410719034
 20
56.0188153659
 10
-15.0783781683
 20
56.0371779358
 10
-15.0088188634
 20
56.0447866303
 10
-14.9331534422
 20
56.0415583772
 10
-14.8522080247
 20
56.0275284227
 10
-14.7668663784
 20
56.0028499469
 10
-14.6780602694
 20
55.967792391
 10
-14.5867592887
 20
55.9227385159
 10
-14.4939602666
 20
55.8681802227
  0
LWPOLYLINE
  5
219
100
AcDbEntity
  8
RACCORDO
100
AcDbPolyline
 62
7
  6
CONTINUOUS
 90
10
 70
0
 10
7.4905831917
 20
-56.4317999791
 10
7.4788154145
 20
-56.433325979
 10
7.4657048224
 20
-56.432790892
 10
7.4512512766
 20
-56.4301948297
 10
7.43537576
 20
-56.4255107051
 10
7.4181570665
 20
-56.4187657846
 10
7.3998317939
 20
-56.4100416939
 10
7.3804787641
 20
-56.3993656769
 10
7.3600190301
 20
-56.3867105902
 10
7.3384525611
 20
-56.3720764587
  0
LINE
  5
21A
100
AcDbEntity
  8
RACCORDO
100
AcDbLine
 62
7
  6
CONTINUOUS
 10
-15.221720345
 20
55.9707782598
 11
-11.2518654704
 21
59.3079490181
  0
LINE
  5
21B
100
AcDbEntity
  8
RACCORDO
100
AcDbLine
 62
250
  6
CONTINUOUS
 10
-14.4939602666
 20
55.8681802227
 11
-10.5401340679
 21
59.1918768289
  0
LWPOLYLINE
  5
21C
100
AcDbEntity
  8
RACCORDO
100
AcDbPolyline
 62
250
  6
CONTINUOUS
 90
13
 70
0
 10
-14.4939602666
 20
55.8681802227
 10
-14.5938104306
 20
55.7863857128
 10
-14.6916379141
 20
55.6942972676
 10
-14.786071058
 20
55.5932060778
 10
-14.875785796
 20
55.4845295636
 10
-14.9595242196
 20
55.3697915006
 10
-15.0361122152
 20
55.2506006544
 10
-15.104475927
 20
55.1286282241
 10
-15.1636568134
 20
55.00558441
 10
-15.2128250873
 20
54.8831944345
 10
-15.2512913503
 20
54.7631743522
 10
-15.2785162591
 20
54.6472069893
 10
-15.2941180876
 20
54.5369183476
  0
LWPOLYLINE
  5
21D
100
AcDbEntity
  8
0
100
AcDbPolyline
 62
7
  6
CONTINUOUS
 90
5
 70
0
 10
1.5759215607
 20
-49.4202015632
 10
1.574623213
 20
-49.4203635342
 10
1.5422514217
 20
-49.4175262314
 10
1.5087820008
 20
-49.4079506931
 10
1.473494449
 20
-49.3917299172
  0
LWPOLYLINE
  5
21E
100
AcDbEntity
  8
RACCORDO
100
AcDbPolyline
 62
7
  6
CONTINUOUS
 90
16
 70
0
 10
-9.4622823069
 20
41.247472846
 10
-9.4709602782
 20
41.2443708524
 10
-9.4890807925
 20
41.2385011124
 10
-9.4985024234
 20
41.2359264183
 10
-9.4984980266
 20
41.2358605415
 10
-9.4877002757
 20
41.2373794175
 10
-9.4657490621
 20
41.2390785641
 10
-9.4335375329
 20
41.2393606058
 10
-9.3928972992
 20
41.2368042625
 10
-9.3453632983
 20
41.2302848529
 10
-9.2921901569
 20
41.2188633367
 10
-9.2353666457
 20
41.202016914
 10
-9.176959569
 20
41.1796851539
 10
-9.1176725374
 20
41.1516025094
 10
-9.0574931727
 20
41.1170807532
 10
-9.0169935549
 20
41.090089307
  0
LINE
  5
21F
100
AcDbEntity
  8
0
100
AcDbLine
 62
7
  6
CONTINUOUS
 10
1.473494449
 20
-49.3917299172
 11
1.4363869668
 21
-49.368865038
  0
LWPOLYLINE
  5
220
100
AcDbEntity
  8
0
100
AcDbPolyline
 62
7
  6
CONTINUOUS
 90
8
 70
0
 10
1.3300047732
 20
-49.4440817088
 10
1.3658859324
 20
-49.4664758495
 10
1.4014478062
 20
-49.4828400402
 10
1.4359071106
 20
-49.4927546222
 10
1.4685651141
 20
-49.4959095414
 10
1.4986334669
 20
-49.4921716909
 10
1.5252824091
 20
-49.4816518696
 10
1.5345615269
 20
-49.4757965031
  0
LINE
  5
221
100
AcDbEntity
  8
ASSI
100
AcDbLine
 62
7
  6
CONTINUOUS
 10
11.009826012
 20
-59.1615318035
 11
-15.1423720582
 21
-40.6691352051
  0
LINE
  5
222
100
AcDbEntity
  8
RACCORDO
100
AcDbLine
 62
250
  6
CONTINUOUS
 10
-11.7745825294
 20
-42.8571161516
 11
-15.2941138787
 21
-40.3684412843
  0
LINE
  5
223
100
AcDbEntity
  8
RACCORDO
100
AcDbLine
 62
7
  6
CONTINUOUS
 10
7.3382507975
 20
-56.3719398211
 11
-11.7742748103
 21
-42.8573433582
  0
LINE
  5
224
100
AcDbEntity
  8
RACCORDO
100
AcDbLine
 62
250
  6
CONTINUOUS
 10
10.8580757737
 20
-58.8608319304
 11
7.3384525611
 21
-56.3720764587
  0
LINE
  5
225
100
AcDbEntity
  8
0
100
AcDbLine
 62
7
  6
CONTINUOUS
 10
1.9657599343
 20
-51.1336061621
 11
1.5197329501
 21
-50.8182228169
  0
LINE
  5
226
100
AcDbEntity
  8
0
100
AcDbLine
 62
7
  6
CONTINUOUS
 10
-1.1541899288
 20
-48.9274738169
 11
-1.5501848656
 21
-48.6474684718
  0
LINE
  5
227
100
AcDbEntity
  8
0
100
AcDbLine
 62
7
  6
CONTINUOUS
 10
-2.5845679522
 20
-47.9160438169
 11
-2.9805529894
 21
-47.6360454718
  0
LINE
  5
228
100
AcDbEntity
  8
0
100
AcDbLine
 62
7
  6
CONTINUOUS
 10
-4.1469213824
 20
-46.8112984718
 11
-4.5429163192
 21
-46.5312931267
  0
LINE
  5
229
100
AcDbEntity
  8
0
100
AcDbLine
 62
7
  6
CONTINUOUS
 10
-5.4426167772
 20
-45.8951034718
 11
-5.8386265632
 21
-45.6150876267
  0
LINE
  5
22A
100
AcDbEntity
  8
0
100
AcDbLine
 62
7
  6
CONTINUOUS
 10
-1.8141796468
 20
-48.4607959718
 11
-2.2101742935
 21
-48.1807854718
  0
LINE
  5
22B
100
AcDbEntity
  8
0
100
AcDbLine
 62
7
  6
CONTINUOUS
 10
-3.3549419885
 20
-47.3713124718
 11
-3.7509366352
 21
-47.0913019718
  0
LINE
  5
22C
100
AcDbEntity
  8
0
100
AcDbLine
 62
7
  6
CONTINUOUS
 10
0.7772361816
 20
-50.2931983169
 11
0.3812365851
 21
-50.0131843169
  0
LINE
  5
22D
100
AcDbEntity
  8
0
100
AcDbLine
 62
7
  6
CONTINUOUS
 10
0.1172415138
 20
-49.8265169718
 11
-0.2787577925
 21
-49.5464978169
  0
LWPOLYLINE
  5
22E
100
AcDbEntity
  8
RACCORDO
100
AcDbPolyline
 62
7
  6
CONTINUOUS
 90
13
 70
0
 10
-11.7745825294
 20
-42.8571161516
 10
-11.7887301885
 20
-42.8469502831
 10
-11.8029055925
 20
-42.8361233515
 10
-11.8171087339
 20
-42.8246353511
 10
-11.8314185648
 20
-42.812464559
 10
-11.8457561016
 20
-42.7996326726
 10
-11.8598844213
 20
-42.7862048062
 10
-11.8738141209
 20
-42.7721687157
 10
-11.887534522
 20
-42.7575365797
 10
-11.9007767669
 20
-42.7424101287
 10
-11.9134511842
 20
-42.7268232309
 10
-11.925647296
 20
-42.7107418981
 10
-11.9373650134
 20
-42.6941660589
  0
LINE
  5
22F
100
AcDbEntity
  8
0
100
AcDbLine
 62
7
  6
CONTINUOUS
 10
0.156034908
 20
51.6285432132
 11
-1.1344509998
 21
50.4669387575
  0
LWPOLYLINE
  5
230
100
AcDbEntity
  8
RACCORDO
100
AcDbPolyline
 62
250
  6
CONTINUOUS
 90
13
 70
0
 10
-10.6128291532
 20
41.0139667325
 10
-10.5211432869
 20
41.0886293941
 10
-10.4214662604
 20
41.1558412994
 10
-10.3148631336
 20
41.2148828512
 10
-10.2024579389
 20
41.2650805067
 10
-10.0854684338
 20
41.3059314692
 10
-9.9651950012
 20
41.3371135525
 10
-9.8429412179
 20
41.358327123
 10
-9.7200032432
 20
41.3693076531
 10
-9.5977038637
 20
41.3699491998
 10
-9.4773576286
 20
41.3602561784
 10
-9.3602512228
 20
41.3403195647
 10
-9.2476345477
 20
41.3103291081
  0
LWPOLYLINE
  5
231
100
AcDbEntity
  8
RACCORDO
100
AcDbPolyline
 62
250
  6
CONTINUOUS
 90
13
 70
0
 10
-10.986856472
 20
42.6713913774
 10
-10.870133117
 20
42.7602747652
 10
-10.741410441
 20
42.8374536632
 10
-10.6028430461
 20
42.9016362019
 10
-10.4567503197
 20
42.9517480495
 10
-10.3055776253
 20
42.9869503903
 10
-10.1518553732
 20
43.0066539703
 10
-9.9981566371
 20
43.0105289659
 10
-9.8470541072
 20
42.9985104992
 10
-9.7010770395
 20
42.970799731
 10
-9.5626688834
 20
42.9278604924
 10
-9.4341463842
 20
42.8704115136
 10
-9.3176608252
 20
42.799414398
  0
LINE
  5
232
100
AcDbEntity
  8
RACCORDO
100
AcDbLine
 62
250
  6
CONTINUOUS
 10
-9.129204477
 20
41.3739172601
 11
-9.2067964403
 21
41.3159541079
  0
LWPOLYLINE
  5
233
100
AcDbEntity
  8
RACCORDO
100
AcDbPolyline
 62
250
  6
CONTINUOUS
 90
4
 70
0
 10
-9.2067964403
 20
41.3159541079
 10
-9.2644038944
 20
41.2734032347
 10
-9.2950062058
 20
41.2511517101
 10
-9.3267771525
 20
41.2283132058
  0
LINE
  5
234
100
AcDbEntity
  8
RACCORDO
100
AcDbLine
 62
250
  6
CONTINUOUS
 10
-9.3267771525
 20
41.2283132058
 11
-9.3597568057
 21
41.2048785715
  0
LWPOLYLINE
  5
235
100
AcDbEntity
  8
RACCORDO
100
AcDbPolyline
 62
250
  6
CONTINUOUS
 90
47
 70
0
 10
-9.3597568057
 20
41.2048785715
 10
-9.3940943294
 20
41.1809841428
 10
-9.4298166669
 20
41.1565875966
 10
-9.4668968749
 20
41.131731256
 10
-9.5054032873
 20
41.1066784254
 10
-9.545471412
 20
41.0813318381
 10
-9.5869657412
 20
41.0557887608
 10
-9.6295480852
 20
41.0306042977
 10
-9.6734818036
 20
41.0056746559
 10
-9.7185035368
 20
40.9811036284
 10
-9.7634850173
 20
40.9577576987
 10
-9.8083641615
 20
40.9357654149
 10
-9.8532030529
 20
40.9149982289
 10
-9.8970596742
 20
40.8959369797
 10
-9.9397588026
 20
40.8787270263
 10
-9.9814756609
 20
40.8632230097
 10
-10.0217939006
 20
40.8494696925
 10
-10.0606029988
 20
40.8375303153
 10
-10.0980134783
 20
40.8273416374
 10
-10.1339405588
 20
40.818758699
 10
-10.1683586744
 20
40.8117934239
 10
-10.201293391
 20
40.8064338882
 10
-10.2327366262
 20
40.8024993606
 10
-10.2626762507
 20
40.7999955904
 10
-10.2911243938
 20
40.7989168282
 10
-10.3181093615
 20
40.7990650954
 10
-10.3436000067
 20
40.8004388531
 10
-10.3676274764
 20
40.8030396401
 10
-10.3903135175
 20
40.8066740943
 10
-10.4116522527
 20
40.8113323136
 10
-10.4316495592
 20
40.8170242001
 10
-10.4504448153
 20
40.8235860978
 10
-10.4680335946
 20
40.8310010422
 10
-10.4844203235
 20
40.8392859979
 10
-10.4997576602
 20
40.8483282024
 10
-10.5140469016
 20
40.8580997315
 10
-10.5272867508
 20
40.8686285095
 10
-10.5396259748
 20
40.8798855459
 10
-10.5510890082
 20
40.8918594473
 10
-10.5616514163
 20
40.9045616071
 10
-10.5713886628
 20
40.9179972157
 10
-10.5803191574
 20
40.9321697079
 10
-10.5884244902
 20
40.9470756487
 10
-10.595724895
 20
40.9627099234
 10
-10.6022271162
 20
40.979070827
 10
-10.6079244093
 20
40.9961600645
 10
-10.6128167742
 20
41.0139776357
  0
LINE
  5
236
100
AcDbEntity
  8
0
100
AcDbLine
 62
7
  6
CONTINUOUS
 10
3.8152964685
 20
46.9669387575
 11
5.3532376854
 21
47.9535658862
  0
LINE
  5
237
100
AcDbEntity
  8
0
100
AcDbLine
 62
7
  6
CONTINUOUS
 10
-0.3797532374
 20
-49.0517435466
 11
-1.0051587798
 21
-48.6095150466
  0
LINE
  5
238
100
AcDbEntity
  8
0
100
AcDbLine
 62
7
  6
CONTINUOUS
 10
-0.4750712379
 20
-48.5721198942
 11
-0.8588944556
 21
-48.3007158942
  0
LINE
  5
239
100
AcDbEntity
  8
0
100
AcDbLine
 62
7
  6
CONTINUOUS
 10
1.1723878602
 20
-49.7370493942
 11
0.8267720931
 21
-49.492656697
  0
LINE
  5
23A
100
AcDbEntity
  8
0
100
AcDbLine
 62
7
  6
CONTINUOUS
 10
-0.5090804437
 20
-48.3976968059
 11
-0.7525633099
 21
-48.22552842
  0
LINE
  5
23B
100
AcDbEntity
  8
0
100
AcDbLine
 62
7
  6
CONTINUOUS
 10
1.330004665
 20
-49.4440803711
 11
0.8482225175
 21
-49.1034087946
  0
LINE
  5
23C
100
AcDbEntity
  8
0
100
AcDbLine
 62
7
  6
CONTINUOUS
 10
1.4363810879
 20
-49.3688608811
 11
0.9545988323
 21
-49.0281893811
  0
LINE
  5
23D
100
AcDbEntity
  8
0
100
AcDbLine
 62
7
  6
CONTINUOUS
 10
1.3686940852
 20
-48.9349045016
 11
0.8869068798
 21
-48.5942295016
  0
LINE
  5
23E
100
AcDbEntity
  8
0
100
AcDbLine
 62
7
  6
CONTINUOUS
 10
1.4555329876
 20
-48.5849339629
 11
0.528247138
 21
-47.9292440753
  0
LINE
  5
23F
100
AcDbEntity
  8
0
100
AcDbLine
 62
7
  6
CONTINUOUS
 10
-1.667169249
 20
-46.3768558398
 11
-2.265806557
 21
-45.9535553398
  0
LINE
  5
240
100
AcDbEntity
  8
0
100
AcDbLine
 62
7
  6
CONTINUOUS
 10
-3.0052889293
 20
-45.4306623398
 11
-3.6039262373
 21
-45.0073618398
  0
LINE
  5
241
100
AcDbEntity
  8
0
100
AcDbLine
 62
7
  6
CONTINUOUS
 10
-3.9999060348
 20
-44.7273618398
 11
-4.3959006815
 21
-44.4473513398
  0
LINE
  5
242
100
AcDbEntity
  8
0
100
AcDbLine
 62
7
  6
CONTINUOUS
 10
-4.6598954627
 20
-44.2606788398
 11
-5.0558950592
 21
-43.9806648398
  0
LINE
  5
243
100
AcDbEntity
  8
0
100
AcDbLine
 62
7
  6
CONTINUOUS
 10
-5.9313222457
 20
-43.3616443398
 11
-6.3273218421
 21
-43.0816303398
  0
LINE
  5
244
100
AcDbEntity
  8
0
100
AcDbLine
 62
7
  6
CONTINUOUS
 10
-0.3714585598
 20
-47.2930560753
 11
-0.7674730055
 21
-47.0130315753
  0
LINE
  5
245
100
AcDbEntity
  8
0
100
AcDbLine
 62
7
  6
CONTINUOUS
 10
-1.5606745057
 20
-46.3015526847
 11
-2.1593118137
 21
-45.8782521847
  0
LINE
  5
246
100
AcDbEntity
  8
0
100
AcDbLine
 62
7
  6
CONTINUOUS
 10
-2.898794186
 20
-45.3553591847
 11
-3.4974314941
 21
-44.9320586847
  0
LINE
  5
247
100
AcDbEntity
  8
0
100
AcDbLine
 62
7
  6
CONTINUOUS
 10
-3.8934112915
 20
-44.6520586847
 11
-4.2894059382
 21
-44.3720481847
  0
LINE
  5
248
100
AcDbEntity
  8
0
100
AcDbLine
 62
7
  6
CONTINUOUS
 10
-4.5534007195
 20
-44.1853756847
 11
-4.9494003159
 21
-43.9053616847
  0
LINE
  5
249
100
AcDbEntity
  8
0
100
AcDbLine
 62
7
  6
CONTINUOUS
 10
-5.8248275024
 20
-43.2863411847
 11
-6.2208270989
 21
-43.0063271847
  0
LINE
  5
24A
100
AcDbEntity
  8
0
100
AcDbLine
 62
7
  6
CONTINUOUS
 10
1.5620275727
 20
-48.5096309197
 11
0.634741882
 21
-47.8539409197
  0
LINE
  5
24B
100
AcDbEntity
  8
0
100
AcDbLine
 62
7
  6
CONTINUOUS
 10
-0.2649638158
 20
-47.2177529197
 11
-0.6609782615
 21
-46.9377284197
  0
LINE
  5
24C
100
AcDbEntity
  8
0
100
AcDbLine
 62
7
  6
CONTINUOUS
 10
1.4555328287
 20
-48.584932308
 11
1.523982111
 21
-48.6378105883
  0
LWPOLYLINE
  5
24D
100
AcDbEntity
  8
RACCORDO
100
AcDbPolyline
 62
250
  6
CONTINUOUS
 90
6
 70
0
 10
11.009826012
 20
-59.1615318035
 10
10.9885412568
 20
-59.1450008657
 10
10.9393729829
 20
-59.09214533
 10
10.9009067199
 20
-59.0265247585
 10
10.8736818112
 20
-58.9490592307
 10
10.8580799826
 20
-58.8608349065
  0
LWPOLYLINE
  5
24E
100
AcDbEntity
  8
RACCORDO
100
AcDbPolyline
 62
250
  6
CONTINUOUS
 90
31
 70
0
 10
7.4905873051
 20
-56.4318401869
 10
7.4784120784
 20
-56.4217896538
 10
7.4663370253
 20
-56.409554624
 10
7.4543581088
 20
-56.3951417535
 10
7.4424218674
 20
-56.3783871757
 10
7.4305745691
 20
-56.3594666859
 10
7.4189568618
 20
-56.338899567
 10
7.4075850716
 20
-56.3166965664
 10
7.3964239665
 20
-56.2928653261
 10
7.3855312027
 20
-56.2679239013
 10
7.3749002985
 20
-56.2418955044
 10
7.364518248
 20
-56.214773504
 10
7.3544316215
 20
-56.187031539
 10
7.3446681461
 20
-56.1588095422
 10
7.3351794328
 20
-56.1299829889
 10
7.3259007024
 20
-56.1006268046
 10
7.3168293895
 20
-56.0707952019
 10
7.3079552911
 20
-56.0404434416
 10
7.299208308
 20
-56.0094943333
 10
7.2905807637
 20
-55.977959564
 10
7.2820736771
 20
-55.9458328468
 10
7.2736349084
 20
-55.9130072899
 10
7.2652595828
 20
-55.879485265
 10
7.2569499126
 20
-55.8452673697
 10
7.2486678466
 20
-55.8102422509
 10
7.2404109635
 20
-55.7744090157
 10
7.232181826
 20
-55.7377699984
 10
7.2239523588
 20
-55.7002174751
 10
7.2157218418
 20
-55.6617488125
 10
7.2074932408
 20
-55.6223670865
 10
7.1992458828
 20
-55.5819722972
  0
LWPOLYLINE
  5
24F
100
AcDbEntity
  8
0
100
AcDbPolyline
 62
7
  6
CONTINUOUS
 90
3
 70
0
 10
1.523982111
 20
-48.6378105883
 10
1.5909604215
 20
-48.6983622413
 10
1.6555848378
 20
-48.7658341991
  0
LINE
  5
250
100
AcDbEntity
  8
RACCORDO
100
AcDbLine
 62
250
  6
CONTINUOUS
 10
6.1774503206
 20
-43.0084323642
 11
-8.9484680685
 21
-32.3127928996
  0
LINE
  5
251
100
AcDbEntity
  8
RACCORDO
100
AcDbLine
 62
250
  6
CONTINUOUS
 10
6.087625568
 20
-41.0942172513
 11
-8.7959165131
 21
-30.5699637177
  0
LINE
  5
252
100
AcDbEntity
  8
0
100
AcDbLine
 62
7
  6
CONTINUOUS
 10
6.0457677085
 20
-39.9853871411
 11
-8.7004935585
 21
-29.5582058021
  0
LWPOLYLINE
  5
253
100
AcDbEntity
  8
0
100
AcDbPolyline
 62
7
  6
CONTINUOUS
 90
18
 70
0
 10
1.6555848378
 20
-48.7658341991
 10
1.7169312773
 20
-48.8394034002
 10
1.7742243775
 20
-48.9181328077
 10
1.8268407055
 20
-49.0009913099
 10
1.8740455944
 20
-49.087046113
 10
1.9151128068
 20
-49.1751228497
 10
1.9495526915
 20
-49.2637635743
 10
1.9768304111
 20
-49.3517717844
 10
1.9965810653
 20
-49.4381269178
 10
2.0087313061
 20
-49.5216439347
 10
2.0130560515
 20
-49.6012719202
 10
2.0094224643
 20
-49.6760347191
 10
1.9980093605
 20
-49.7449157462
 10
1.9788656206
 20
-49.807090361
 10
1.9521434666
 20
-49.8617162147
 10
1.9183493354
 20
-49.9079008206
 10
1.8779251097
 20
-49.9450729627
 10
1.872479878
 20
-49.9490287697
  0
LINE
  5
254
100
AcDbEntity
  8
RACCORDO
100
AcDbLine
 62
250
  6
CONTINUOUS
 10
16.0494066613
 20
40.3902322706
 11
11.6582378036
 21
37.3757836243
  0
LWPOLYLINE
  5
255
100
AcDbEntity
  8
RACCORDO
100
AcDbPolyline
 62
250
  6
CONTINUOUS
 90
16
 70
0
 10
12.5056030628
 20
35.929240644
 10
12.4117763186
 20
35.883609675
 10
12.310686825
 20
35.8449051508
 10
12.2033700922
 20
35.8135251872
 10
12.0909254562
 20
35.7897933757
 10
11.9745046064
 20
35.7739532456
 10
11.8552997647
 20
35.766165498
 10
11.7345317761
 20
35.7665095115
 10
11.6134376271
 20
35.7749827562
 10
11.4932575494
 20
35.7914984508
 10
11.3752223179
 20
35.815886451
 10
11.2605408717
 20
35.8478973592
 10
11.1503879117
 20
35.8872048543
 10
11.045891566
 20
35.9334058824
 10
10.9481218625
 20
35.9860250568
 10
10.8580799827
 20
36.0445217495
  0
LWPOLYLINE
  5
256
100
AcDbEntity
  8
RACCORDO
100
AcDbPolyline
 62
250
  6
CONTINUOUS
 90
57
 70
0
 10
7.3382507975
 20
-56.3719398211
 10
7.31693801
 20
-56.3392440242
 10
7.2962774115
 20
-56.3056832326
 10
7.2762700714
 20
-56.2712567296
 10
7.2569220298
 20
-56.2358025959
 10
7.2382297165
 20
-56.1994810973
 10
7.2201794121
 20
-56.1627750464
 10
7.2028374618
 20
-56.1258693052
 10
7.1861391377
 20
-56.0885779341
 10
7.1698735856
 20
-56.0508278956
 10
7.1540228994
 20
-56.0126446265
 10
7.1386066549
 20
-55.9740015812
 10
7.1234702207
 20
-55.9347477493
 10
7.1085974015
 20
-55.894883824
 10
7.0940063261
 20
-55.8544078316
 10
7.0795940394
 20
-55.8131646352
 10
7.0653502764
 20
-55.7711504546
 10
7.0512876242
 20
-55.7283675359
 10
7.0373376908
 20
-55.6846695936
 10
7.0234940599
 20
-55.6400512759
 10
7.0097659554
 20
-55.5945160849
 10
6.9961087868
 20
-55.5479307904
 10
6.9825186214
 20
-55.5002890163
 10
6.9690027655
 20
-55.4515949231
 10
6.9555338656
 20
-55.4017308373
 10
6.9421096384
 20
-55.3506891599
 10
6.9287363731
 20
-55.2984748683
 10
6.9153999712
 20
-55.2449888954
 10
6.9020992419
 20
-55.1902217092
 10
6.8888400613
 20
-55.134179788
 10
6.8756193172
 20
-55.07678783
 10
6.8624368387
 20
-55.018034906
 10
6.8492981724
 20
-54.9579284577
 10
6.8362091274
 20
-54.896420519
 10
6.8231764939
 20
-54.83353224
 10
6.8101994752
 20
-54.769238603
 10
6.7972729653
 20
-54.7034220923
 10
6.7844045739
 20
-54.6361141165
 10
6.7715936673
 20
-54.5672787883
 10
6.7588236491
 20
-54.4966970866
 10
6.746096363
 20
-54.4243693995
 10
6.7334185871
 20
-54.3502898291
 10
6.7207823636
 20
-54.2742291325
 10
6.7081899524
 20
-54.1961826307
 10
6.695649663
 20
-54.1161482841
 10
6.6831640341
 20
-54.0338999047
 10
6.670736794
 20
-53.9494332125
 10
6.658377039
 20
-53.8627443855
 10
6.6460969622
 20
-53.7736069108
 10
6.6339017279
 20
-53.6820166763
 10
6.6218016221
 20
-53.5879681012
 10
6.6098183431
 20
-53.4912313288
 10
6.5979585516
 20
-53.3918025417
 10
6.5862340965
 20
-53.2896740356
 10
6.574676551
 20
-53.1846088275
 10
6.5632941507
 20
-53.0766035286
 10
6.5521007451
 20
-52.9656478997
  0
LWPOLYLINE
  5
257
100
AcDbEntity
  8
RACCORDO
100
AcDbPolyline
 62
7
  6
CONTINUOUS
 90
10
 70
0
 10
-15.6451734548
 20
55.1546113507
 10
-15.8980680591
 20
52.0476509914
 10
-16.133580338
 20
48.7977477121
 10
-16.3375403559
 20
45.5698217416
 10
-16.509911793
 20
42.3643226996
 10
-16.6506618715
 20
39.1816614542
 10
-16.7597727784
 20
36.0221682766
 10
-16.8372314094
 20
32.8861827895
 10
-16.8830235904
 20
29.77407741
 10
-16.8971830039
 20
26.8541890786
  0
LINE
  5
258
100
AcDbEntity
  8
RACCORDO
100
AcDbLine
 62
250
  6
CONTINUOUS
 10
16.8967719204
 20
38.9436892906
 11
12.5055757921
 21
35.9292219237
  0
LWPOLYLINE
  5
259
100
AcDbEntity
  8
RACCORDO
100
AcDbPolyline
 62
250
  6
CONTINUOUS
 90
13
 70
0
 10
-13.2754765919
 20
-16.3633016987
 10
-13.1588460589
 20
-16.4357323258
 10
-13.0299689106
 20
-16.4969113801
 10
-12.8910016084
 20
-16.5458151715
 10
-12.7442694489
 20
-16.581625408
 10
-12.5922276557
 20
-16.6037428881
 10
-12.437420297
 20
-16.6117975268
 10
-12.2824377162
 20
-16.6056545483
 10
-12.1298731888
 20
-16.5854167413
 10
-11.9822795294
 20
-16.5514227386
 10
-11.8421263771
 20
-16.5042413514
 10
-11.7117588709
 20
-16.4446620511
 10
-11.5933584099
 20
-16.3736817597
  0
LINE
  5
25A
100
AcDbEntity
  8
RACCORDO
100
AcDbLine
 62
250
  6
CONTINUOUS
 10
9.4684831561
 20
-32.4457098676
 11
6.1982484801
 21
-30.1333047521
  0
LINE
  5
25B
100
AcDbEntity
  8
RACCORDO
100
AcDbLine
 62
250
  6
CONTINUOUS
 10
-13.2754765919
 20
-16.3633016987
 11
-16.5457112679
 21
-14.0508965832
  0
LWPOLYLINE
  5
25C
100
AcDbEntity
  8
RACCORDO
100
AcDbPolyline
 62
250
  6
CONTINUOUS
 90
6
 70
0
 10
-15.2941180876
 20
-40.3684383081
 10
-15.2785162591
 20
-40.4566626324
 10
-15.2512913503
 20
-40.5341281602
 10
-15.2128250873
 20
-40.5997487316
 10
-15.1636568134
 20
-40.6526042673
 10
-15.1423720582
 20
-40.6691352051
  0
LWPOLYLINE
  5
25D
100
AcDbEntity
  8
RACCORDO
100
AcDbPolyline
 62
250
  6
CONTINUOUS
 90
8
 70
0
 10
-15.6437219926
 20
-39.8074806492
 10
-15.6275962452
 20
-39.9020813339
 10
-15.5998342793
 20
-39.9903021706
 10
-15.5602909451
 20
-40.0754437449
 10
-15.5093711091
 20
-40.1566353802
 10
-15.4475963263
 20
-40.2330451106
 10
-15.3755994758
 20
-40.3038884392
 10
-15.2941180876
 20
-40.3684383085
  0
LWPOLYLINE
  5
25E
100
AcDbEntity
  8
RACCORDO
100
AcDbPolyline
 62
250
  6
CONTINUOUS
 90
25
 70
0
 10
-11.9373650134
 20
-42.6941660589
 10
-12.0465195713
 20
-41.6363321029
 10
-12.1510302385
 20
-40.5750144055
 10
-12.2508966801
 20
-39.5102311648
 10
-12.346117617
 20
-38.4420124269
 10
-12.4366939821
 20
-37.370364766
 10
-12.5226284177
 20
-36.2952708892
 10
-12.603920463
 20
-35.216748517
 10
-12.6805696702
 20
-34.1348160526
 10
-12.7525779183
 20
-33.0494566061
 10
-12.8199445041
 20
-31.9606880358
 10
-12.8826687868
 20
-30.8685282387
 10
-12.9407519679
 20
-29.7729597856
 10
-12.9941931244
 20
-28.6740003488
 10
-13.0429913944
 20
-27.5716676653
 10
-13.0871472977
 20
-26.4659438196
 10
-13.1266596907
 20
-25.3568463135
 10
-13.1615274902
 20
-24.2443927343
 10
-13.1917505325
 20
-23.1285647259
 10
-13.2173274486
 20
-22.0093798718
 10
-13.2382569406
 20
-20.8868553854
 10
-13.254538171
 20
-19.7609717947
 10
-13.2661696181
 20
-18.6317339699
 10
-13.2731495761
 20
-17.4991714865
 10
-13.2754765919
 20
-16.3633016987
  0
LINE
  5
25F
100
AcDbEntity
  8
RACCORDO
100
AcDbLine
 62
7
  6
CONTINUOUS
 10
-15.6437378802
 20
-39.8073200312
 11
-15.6437219926
 21
-39.8074806492
  0
LWPOLYLINE
  5
260
100
AcDbEntity
  8
RACCORDO
100
AcDbPolyline
 62
250
  6
CONTINUOUS
 90
10
 70
0
 10
-15.2941138787
 20
-40.3684412843
 10
-15.5561884067
 20
-37.5541729888
 10
-15.7876652462
 20
-34.7116939963
 10
-15.98847165
 20
-31.8412972504
 10
-16.1585379492
 20
-28.9432308673
 10
-16.2977981328
 20
-26.0178431813
 10
-16.4061955713
 20
-23.0655870291
 10
-16.483679636
 20
-20.0868241854
 10
-16.5302000121
 20
-17.0818210254
 10
-16.5457112679
 20
-14.0508965832
  0
LWPOLYLINE
  5
261
100
AcDbEntity
  8
RACCORDO
100
AcDbPolyline
 62
250
  6
CONTINUOUS
 90
8
 70
0
 10
-16.8971831304
 20
-13.4508965832
 10
-16.8967719204
 20
-13.4731084604
 10
-16.883216943
 20
-13.5799775568
 10
-16.8506971656
 20
-13.6847826354
 10
-16.7997325826
 20
-13.7858478524
 10
-16.731138123
 20
-13.881557165
 10
-16.6460106189
 20
-13.9703801716
 10
-16.5457112679
 20
-14.0508965832
  0
LWPOLYLINE
  5
262
100
AcDbEntity
  8
RACCORDO
100
AcDbPolyline
 62
250
  6
CONTINUOUS
 90
8
 70
0
 10
-16.8971831304
 20
26.8541890786
 10
-16.8967719204
 20
26.8319780677
 10
-16.8832169431
 20
26.7251089713
 10
-16.8506971657
 20
26.6203038927
 10
-16.7997325828
 20
26.5192386755
 10
-16.7311381231
 20
26.4235293628
 10
-16.646010619
 20
26.3347063562
 10
-16.5457112679
 20
26.2541899444
  0
LWPOLYLINE
  5
263
100
AcDbEntity
  8
RACCORDO
100
AcDbPolyline
 62
7
  6
CONTINUOUS
 90
10
 70
0
 10
-16.8971829924
 20
-13.450895506
 10
-16.8828841507
 20
-16.3628122173
 10
-16.8369300608
 20
-19.4038911021
 10
-16.7592838355
 20
-22.4196385871
 10
-16.6499489548
 20
-25.4096957894
 10
-16.5089277618
 20
-28.3737363136
 10
-16.3362270721
 20
-31.3114528782
 10
-16.1318686436
 20
-34.2224796864
 10
-15.8958778914
 20
-37.1064154214
 10
-15.6437199969
 20
-39.8074808619
  0
LINE
  5
264
100
AcDbEntity
  8
RACCORDO
100
AcDbLine
 62
7
  6
CONTINUOUS
 10
-16.8971831304
 20
-13.4508965832
 11
-16.8971831304
 21
26.8541899444
  0
LINE
  5
265
100
AcDbEntity
  8
RACCORDO
100
AcDbLine
 62
250
  6
CONTINUOUS
 10
-16.5457112679
 20
-14.0508965832
 11
-16.5457112679
 21
26.2541899444
  0
LWPOLYLINE
  5
266
100
AcDbEntity
  8
RACCORDO
100
AcDbPolyline
 62
250
  6
CONTINUOUS
 90
10
 70
0
 10
-16.5457112679
 20
26.2541899444
 10
-16.5302000498
 20
29.309478075
 10
-16.4836797796
 20
32.3875194729
 10
-16.4061958663
 20
35.4879308708
 10
-16.2977986117
 20
38.6103840565
 10
-16.1585386194
 20
41.754436364
 10
-15.9884724424
 20
44.9195269928
 10
-15.7876660119
 20
48.1052049976
 10
-15.5561889529
 20
51.3111330715
 10
-15.2941139551
 20
54.5369154254
  0
LWPOLYLINE
  5
267
100
AcDbEntity
  8
RACCORDO
100
AcDbPolyline
 62
250
  6
CONTINUOUS
 90
10
 70
0
 10
-15.6452788541
 20
55.1533918447
 10
-15.6466927538
 20
55.1303672733
 10
-15.6435346532
 20
55.0507960971
 10
-15.6280243087
 20
54.9702555192
 10
-15.6003766035
 20
54.8908470983
 10
-15.5609210563
 20
54.8143794196
 10
-15.5099662998
 20
54.739379807
 10
-15.4479329259
 20
54.6664931583
 10
-15.3756578819
 20
54.5984881459
 10
-15.2941180876
 20
54.536918348
  0
LINE
  5
268
100
AcDbEntity
  8
RACCORDO
100
AcDbLine
 62
250
  6
CONTINUOUS
 10
-12.3461245898
 20
47.2897551282
 11
-12.2509036525
 21
48.4880338421
  0
LWPOLYLINE
  5
269
100
AcDbEntity
  8
RACCORDO
100
AcDbPolyline
 62
250
  6
CONTINUOUS
 90
4
 70
0
 10
-12.2509036525
 20
48.4880338421
 10
-12.1510359964
 20
49.6892359888
 10
-12.0465230479
 20
50.8933263964
 10
-11.9373650233
 20
52.1002864648
  0
LWPOLYLINE
  5
26A
100
AcDbEntity
  8
RACCORDO
100
AcDbPolyline
 62
250
  6
CONTINUOUS
 90
7
 70
0
 10
6.1982484801
 20
-30.1333047521
 10
6.0958161048
 20
-30.0508345112
 10
6.0092958564
 20
-29.9597046057
 10
5.9401354514
 20
-29.8614398838
 10
5.8894921293
 20
-29.7576845787
 10
5.8582132891
 20
-29.6501747956
 10
5.8467766176
 20
-29.5333047521
  0
LWPOLYLINE
  5
26B
100
AcDbEntity
  8
RACCORDO
100
AcDbPolyline
 62
250
  6
CONTINUOUS
 90
19
 70
0
 10
-10.986856517
 20
-34.2853746224
 10
-11.0523448541
 20
-33.3134351741
 10
-11.1140941648
 20
-32.3387565124
 10
-11.1721044492
 20
-31.3613386373
 10
-11.2263759342
 20
-30.3811770158
 10
-11.2769083928
 20
-29.3982761809
 10
-11.3237011443
 20
-28.4126497311
 10
-11.3667544163
 20
-27.4242980866
 10
-11.4060679812
 20
-26.4332208271
 10
-11.4416404753
 20
-25.4394302906
 10
-11.4734721452
 20
-24.4429266076
 10
-11.5015627443
 20
-23.4437096475
 10
-11.5259101683
 20
-22.4417913559
 10
-11.5465146575
 20
-21.4371718546
 10
-11.5633759717
 20
-20.4298510219
 10
-11.5764912865
 20
-19.4198404381
 10
-11.5858596604
 20
-18.4071439631
 10
-11.5914820348
 20
-17.391757737
 10
-11.5933584099
 20
-16.3736817597
  0
LINE
  5
26C
100
AcDbEntity
  8
RACCORDO
100
AcDbLine
 62
250
  6
CONTINUOUS
 10
-13.2754765919
 20
-16.3633016987
 11
-13.2754765919
 21
23.9417848289
  0
LWPOLYLINE
  5
26D
100
AcDbEntity
  8
RACCORDO
100
AcDbPolyline
 62
250
  6
CONTINUOUS
 90
19
 70
0
 10
-13.2754765919
 20
23.9417848289
 10
-13.273149597
 20
25.0808276972
 10
-13.2661697008
 20
26.2229186068
 10
-13.2545383557
 20
27.3680381488
 10
-13.2382572664
 20
28.5161542561
 10
-13.2173279537
 20
29.6672599878
 10
-13.1917512524
 20
30.8213738754
 10
-13.161528458
 20
31.9784769108
 10
-13.1266609384
 20
33.1385495364
 10
-13.0871488552
 20
34.3016100046
 10
-13.04299329
 20
35.4676392156
 10
-12.9941953845
 20
36.6366180337
 10
-12.9407546172
 20
37.8085651822
 10
-12.8826718484
 20
38.9834617246
 10
-12.819947999
 20
40.1612886667
 10
-12.7525818659
 20
41.3420651551
 10
-12.6805740882
 20
42.5257724058
 10
-12.6039253673
 20
43.7123915492
 10
-12.5226338223
 20
44.9019420977
  0
LINE
  5
26E
100
AcDbEntity
  8
RACCORDO
100
AcDbLine
 62
250
  6
CONTINUOUS
 10
-12.5226338223
 20
44.9019420977
 11
-12.4328236285
 21
46.1455612988
  0
LINE
  5
26F
100
AcDbEntity
  8
RACCORDO
100
AcDbLine
 62
250
  6
CONTINUOUS
 10
-12.4328236285
 20
46.1455612988
 11
-12.3461245898
 21
47.2897551282
  0
LWPOLYLINE
  5
270
100
AcDbEntity
  8
RACCORDO
100
AcDbPolyline
 62
250
  6
CONTINUOUS
 90
18
 70
0
 10
-8.7274896634
 20
9.7621454694
 10
-8.7708046263
 20
9.7083904246
 10
-8.8104622028
 20
9.6470659046
 10
-8.846190685
 20
9.5783352692
 10
-8.8777583309
 20
9.5028174845
 10
-8.9048727496
 20
9.4199930551
 10
-8.9270934438
 20
9.3306351159
 10
-8.9441003116
 20
9.2375873202
 10
-8.9553789783
 20
9.1403534371
 10
-8.9609882585
 20
9.0401873284
 10
-8.9620192439
 20
8.942893235
 10
-8.9587269639
 20
8.8509412442
 10
-8.9515001516
 20
8.7626678535
 10
-8.9419270684
 20
8.6776910754
 10
-8.9302855616
 20
8.5962273588
 10
-8.9167139398
 20
8.5183846194
 10
-8.9023576504
 20
8.4435577505
 10
-8.8871999176
 20
8.3717041405
  0
LWPOLYLINE
  5
271
100
AcDbEntity
  8
RACCORDO
100
AcDbPolyline
 62
250
  6
CONTINUOUS
 90
3
 70
0
 10
-8.6309955974
 20
9.847738246
 10
-8.6808099656
 20
9.8085666591
 10
-8.7274896634
 20
9.7621454694
  0
LINE
  5
272
100
AcDbEntity
  8
RACCORDO
100
AcDbLine
 62
250
  6
CONTINUOUS
 10
-8.7004935585
 20
10.1383020818
 11
-8.7699272715
 21
10.0908896124
  0
LINE
  5
273
100
AcDbEntity
  8
RACCORDO
100
AcDbLine
 62
250
  6
CONTINUOUS
 10
-8.5590506598
 20
9.8968654927
 11
-8.6309955974
 21
9.847738246
  0
LINE
  5
274
100
AcDbEntity
  8
RACCORDO
100
AcDbLine
 62
250
  6
CONTINUOUS
 10
-8.8140347693
 20
10.0611605404
 11
-8.7699272715
 21
10.0908896124
  0
LINE
  5
275
100
AcDbEntity
  8
RACCORDO
100
AcDbLine
 62
250
  6
CONTINUOUS
 10
-9.0431304142
 20
9.9092766021
 11
-8.9859193532
 21
9.9476450543
  0
LWPOLYLINE
  5
276
100
AcDbEntity
  8
RACCORDO
100
AcDbPolyline
 62
250
  6
CONTINUOUS
 90
3
 70
0
 10
-8.9859193532
 20
9.9476450543
 10
-8.8599612489
 20
10.0306505132
 10
-8.8140347693
 20
10.0611605404
  0
LWPOLYLINE
  5
277
100
AcDbEntity
  8
RACCORDO
100
AcDbPolyline
 62
250
  6
CONTINUOUS
 90
16
 70
0
 10
-10.4840496509
 20
7.9304600834
 10
-10.3903532217
 20
7.9881210849
 10
-10.2887293525
 20
8.038624476
 10
-10.1802668699
 20
8.0814291483
 10
-10.0661278763
 20
8.1160764737
 10
-9.9475352857
 20
8.1421952361
 10
-9.8257597192
 20
8.1595056057
 10
-9.7021059122
 20
8.1678221092
 10
-9.5778987311
 20
8.1670556363
 10
-9.4544689644
 20
8.1572144088
 10
-9.3331390725
 20
8.1384038618
 10
-9.2152090288
 20
8.1108255316
 10
-9.1019423852
 20
8.0747749142
 10
-8.9945527215
 20
8.0306382706
 10
-8.8941906445
 20
7.9788884861
 10
-8.801931469
 20
7.9200800224
  0
LINE
  5
278
100
AcDbEntity
  8
RACCORDO
100
AcDbLine
 62
250
  6
CONTINUOUS
 10
-8.9738848582
 20
-31.9739712645
 11
-8.9970611139
 21
-31.8560776847
  0
LWPOLYLINE
  5
279
100
AcDbEntity
  8
RACCORDO
100
AcDbPolyline
 62
250
  6
CONTINUOUS
 90
21
 70
0
 10
-8.9970611139
 20
-31.8560776847
 10
-9.0206203936
 20
-31.7313918994
 10
-9.0316568637
 20
-31.6661704899
 10
-9.0417882294
 20
-31.599069554
 10
-9.0509644348
 20
-31.5301128396
 10
-9.0581641549
 20
-31.458838666
 10
-9.0633298968
 20
-31.3846447605
 10
-9.0662583121
 20
-31.3084749321
 10
-9.0657053556
 20
-31.2322236682
 10
-9.0613615718
 20
-31.1554863172
 10
-9.0534675265
 20
-31.0791592361
 10
-9.041844265
 20
-31.0069438845
 10
-9.0266168449
 20
-30.9399866629
 10
-9.0080186279
 20
-30.8772878914
 10
-8.9861946977
 20
-30.819134422
 10
-8.9612711831
 20
-30.7655197877
 10
-8.9334120915
 20
-30.7165184972
 10
-8.9028205983
 20
-30.6724725269
 10
-8.8696468204
 20
-30.6334546997
 10
-8.8339791803
 20
-30.5993045774
 10
-8.7959165131
 20
-30.5699637177
  0
LWPOLYLINE
  5
27A
100
AcDbEntity
  8
RACCORDO
100
AcDbPolyline
 62
250
  6
CONTINUOUS
 90
10
 70
0
 10
-8.9348481872
 20
-30.3268123513
 10
-8.9327375016
 20
-30.3529154279
 10
-8.9264695776
 20
-30.38131639
 10
-8.9162348638
 20
-30.4111522877
 10
-8.9023443376
 20
-30.4415165722
 10
-8.8852200566
 20
-30.4714866396
 10
-8.8653823344
 20
-30.5001518644
 10
-8.8434339307
 20
-30.5266412685
 10
-8.820041737
 20
-30.5501499861
 10
-8.7959165131
 20
-30.5699637177
  0
LWPOLYLINE
  5
27B
100
AcDbEntity
  8
RACCORDO
100
AcDbPolyline
 62
250
  6
CONTINUOUS
 90
4
 70
0
 10
-8.7699272715
 20
10.0908896124
 10
-8.7678165816
 20
10.0647865076
 10
-8.7615486451
 20
10.0363855144
 10
-8.7513139118
 20
10.0065495853
  0
LINE
  5
27C
100
AcDbEntity
  8
RACCORDO
100
AcDbLine
 62
250
  6
CONTINUOUS
 10
-11.3091557031
 20
47.3303525095
 11
-11.2227078228
 21
46.1654584923
  0
LINE
  5
27D
100
AcDbEntity
  8
RACCORDO
100
AcDbLine
 62
250
  6
CONTINUOUS
 10
-11.2227078228
 20
46.1654584923
 11
-11.1398202621
 21
45.0012922498
  0
LINE
  5
27E
100
AcDbEntity
  8
RACCORDO
100
AcDbLine
 62
250
  6
CONTINUOUS
 10
-11.1398202621
 20
45.0012922498
 11
-11.0651510973
 21
43.9054591256
  0
LWPOLYLINE
  5
27F
100
AcDbEntity
  8
RACCORDO
100
AcDbPolyline
 62
250
  6
CONTINUOUS
 90
3
 70
0
 10
-11.0651510973
 20
43.9054591256
 10
-11.0024750753
 20
42.9298446259
 10
-10.9868565454
 20
42.6713914312
  0
LINE
  5
280
100
AcDbEntity
  8
RACCORDO
100
AcDbLine
 62
250
  6
CONTINUOUS
 10
-11.5933584099
 20
-16.3736817597
 11
-11.5933584099
 21
23.931404768
  0
LINE
  5
281
100
AcDbEntity
  8
RACCORDO
100
AcDbLine
 62
250
  6
CONTINUOUS
 10
-10.4840496509
 20
7.9304600834
 11
-10.4840496509
 21
1.142234984
  0
LINE
  5
282
100
AcDbEntity
  8
RACCORDO
100
AcDbLine
 62
250
  6
CONTINUOUS
 10
-8.801931469
 20
7.9200800225
 11
-8.801931469
 21
1.1318549231
  0
LINE
  5
283
100
AcDbEntity
  8
RACCORDO
100
AcDbLine
 62
7
  6
CONTINUOUS
 10
-8.7004935585
 20
40.8662880368
 11
-8.7004935585
 21
10.1383020818
  0
LINE
  5
284
100
AcDbEntity
  8
RACCORDO
100
AcDbLine
 62
7
  6
CONTINUOUS
 10
-8.7004935585
 20
0.7904336431
 11
-8.7004935585
 21
-30.1667844459
  0
LWPOLYLINE
  5
285
100
AcDbEntity
  8
RACCORDO
100
AcDbPolyline
 62
250
  6
CONTINUOUS
 90
19
 70
0
 10
-11.5933584099
 20
23.931404768
 10
-11.5914820417
 20
24.9520422088
 10
-11.5858596777
 20
25.9751059167
 10
-11.5764913177
 20
27.0005958919
 10
-11.5633760218
 20
28.0285172882
 10
-11.5465147299
 20
29.0588649517
 10
-11.5259102628
 20
30.0916234203
 10
-11.5015628606
 20
31.1267924797
 10
-11.4734722832
 20
32.1643723442
 10
-11.4416406307
 20
33.2043481953
 10
-11.4060681498
 20
34.2467198259
 10
-11.3667545939
 20
35.2914874431
 10
-11.3237013229
 20
36.338636849
 10
-11.2769085634
 20
37.3881681691
 10
-11.2263760888
 20
38.4400812781
 10
-11.1721045787
 20
39.4943616021
 10
-11.1140942597
 20
40.5510042832
 10
-11.0523449052
 20
41.6100141795
 10
-10.9868565152
 20
42.6713912908
  0
LWPOLYLINE
  5
286
100
AcDbEntity
  8
RACCORDO
100
AcDbPolyline
 62
250
  6
CONTINUOUS
 90
56
 70
0
 10
-10.4840496509
 20
7.9304600834
 10
-10.4836402321
 20
7.9543337848
 10
-10.4823518657
 20
7.9788963079
 10
-10.4801845517
 20
8.0041476528
 10
-10.4771571782
 20
8.0300564263
 10
-10.4732508571
 20
8.0566540216
 10
-10.4684089243
 20
8.0840346181
 10
-10.4626405825
 20
8.1122000118
 10
-10.4559366289
 20
8.1411484067
 10
-10.4482127914
 20
8.170968595
 10
-10.4394829708
 20
8.2016474942
 10
-10.4297332663
 20
8.2331981868
 10
-10.4188377025
 20
8.2657487117
 10
-10.4068010723
 20
8.2993149595
 10
-10.3936185828
 20
8.3338810396
 10
-10.3791498794
 20
8.3695273196
 10
-10.3633717127
 20
8.4063138867
 10
-10.3463073321
 20
8.4441806537
 10
-10.3278861303
 20
8.4830277275
 10
-10.3080869646
 20
8.5228848953
 10
-10.2869309778
 20
8.5637223699
 10
-10.2644109902
 20
8.6053508956
 10
-10.2405228205
 20
8.6477667116
 10
-10.2152706502
 20
8.6909735788
 10
-10.1886598444
 20
8.7347935234
 10
-10.1606638438
 20
8.7792581832
 10
-10.1313092078
 20
8.8243359205
 10
-10.1006809798
 20
8.8697538475
 10
-10.0687655235
 20
8.915516524
 10
-10.035576475
 20
8.9616193902
 10
-10.0012397864
 20
9.0077758791
 10
-9.9657618004
 20
9.0539660374
 10
-9.9291361742
 20
9.1002098183
 10
-9.8914698314
 20
9.146280515
 10
-9.8527546729
 20
9.192178431
 10
-9.8129987979
 20
9.2379032628
 10
-9.7723334272
 20
9.2832273924
 10
-9.730615503
 20
9.3282697724
 10
-9.6879880831
 20
9.3729114502
 10
-9.645011562
 20
9.4165679501
 10
-9.6015436917
 20
9.4592978631
 10
-9.5577267202
 20
9.5010425981
 10
-9.5145477864
 20
9.5410419067
 10
-9.4722027262
 20
9.5790571561
 10
-9.4304957038
 20
9.6153269789
 10
-9.3898263505
 20
9.6498070242
 10
-9.35028644
 20
9.6824137515
 10
-9.3117841986
 20
9.7132307014
 10
-9.2744439372
 20
9.7424641445
 10
-9.2383738258
 20
9.7700470728
 10
-9.2034656943
 20
9.7960464944
 10
-9.1695193435
 20
9.8208697048
 10
-9.1364576283
 20
9.8445886941
 10
-9.1043576937
 20
9.8671314722
 10
-9.0732507753
 20
9.8886893647
 10
-9.0431304142
 20
9.9092766021
  0
LINE
  5
287
100
AcDbEntity
  8
RACCORDO
100
AcDbLine
 62
250
  6
CONTINUOUS
 10
-10.9868565455
 20
-34.2853747938
 11
-11.0173101626
 21
-34.8167887294
  0
LINE
  5
288
100
AcDbEntity
  8
RACCORDO
100
AcDbLine
 62
250
  6
CONTINUOUS
 10
-11.0173101626
 20
-34.8167887294
 11
-11.0626584322
 21
-35.5506235994
  0
LINE
  5
289
100
AcDbEntity
  8
RACCORDO
100
AcDbLine
 62
250
  6
CONTINUOUS
 10
-11.0626584322
 20
-35.5506235994
 11
-11.1205449988
 21
-36.4228215073
  0
LINE
  5
28A
100
AcDbEntity
  8
RACCORDO
100
AcDbLine
 62
250
  6
CONTINUOUS
 10
-11.1205449988
 20
-36.4228215073
 11
-11.1749081742
 21
-37.1924745919
  0
LWPOLYLINE
  5
28B
100
AcDbEntity
  8
RACCORDO
100
AcDbPolyline
 62
250
  6
CONTINUOUS
 90
14
 70
0
 10
-8.801931469
 20
1.1318549231
 10
-8.8045892583
 20
1.095900153
 10
-8.8099437869
 20
1.0642428131
 10
-8.817962349
 20
1.0369934449
 10
-8.8292291326
 20
1.0147113801
 10
-8.8431088799
 20
0.997057431
 10
-8.8577374737
 20
0.9828024336
 10
-8.872920981
 20
0.9720486219
 10
-8.8888307939
 20
0.9649099152
 10
-8.9040542173
 20
0.9602852248
 10
-8.918346009
 20
0.9583079486
 10
-8.9317580955
 20
0.9593053092
 10
-8.9431321972
 20
0.9627176781
 10
-8.9484673321
 20
0.9657775799
  0
LINE
  5
28C
100
AcDbEntity
  8
RACCORDO
100
AcDbLine
 62
250
  6
CONTINUOUS
 10
-11.1749081742
 20
-37.1924745919
 11
-11.2377430726
 21
-38.0340320075
  0
LINE
  5
28D
100
AcDbEntity
  8
RACCORDO
100
AcDbLine
 62
250
  6
CONTINUOUS
 10
-11.2377430726
 20
-38.0340320075
 11
-11.2941496993
 21
-38.7485119817
  0
LINE
  5
28E
100
AcDbEntity
  8
RACCORDO
100
AcDbLine
 62
250
  6
CONTINUOUS
 10
-11.2941496993
 20
-38.7485119817
 11
-11.3442422324
 21
-39.3494985818
  0
LWPOLYLINE
  5
28F
100
AcDbEntity
  8
RACCORDO
100
AcDbPolyline
 62
250
  6
CONTINUOUS
 90
3
 70
0
 10
-11.3442422324
 20
-39.3494985818
 10
-11.3885939912
 20
-39.8526196308
 10
-11.3968405077
 20
-39.9429086848
  0
LINE
  5
290
100
AcDbEntity
  8
RACCORDO
100
AcDbLine
 62
250
  6
CONTINUOUS
 10
-11.5771311355
 20
50.4026424442
 11
-11.5551576085
 21
50.197945829
  0
LINE
  5
291
100
AcDbEntity
  8
RACCORDO
100
AcDbLine
 62
250
  6
CONTINUOUS
 10
-11.5551576085
 20
50.197945829
 11
-11.5325258663
 21
49.9760443048
  0
LINE
  5
292
100
AcDbEntity
  8
RACCORDO
100
AcDbLine
 62
250
  6
CONTINUOUS
 10
-11.5325258663
 20
49.9760443048
 11
-11.5010482901
 21
49.6499377534
  0
LINE
  5
293
100
AcDbEntity
  8
RACCORDO
100
AcDbLine
 62
250
  6
CONTINUOUS
 10
-11.5010482901
 20
49.6499377534
 11
-11.4677539428
 21
49.2847118127
  0
LINE
  5
294
100
AcDbEntity
  8
RACCORDO
100
AcDbLine
 62
250
  6
CONTINUOUS
 10
-11.4677539428
 20
49.2847118127
 11
-11.4230627785
 21
48.7658561017
  0
LINE
  5
295
100
AcDbEntity
  8
RACCORDO
100
AcDbLine
 62
250
  6
CONTINUOUS
 10
-11.4230627785
 20
48.7658561017
 11
-11.3639447378
 21
48.0379424582
  0
LINE
  5
296
100
AcDbEntity
  8
RACCORDO
100
AcDbLine
 62
250
  6
CONTINUOUS
 10
-11.3639447378
 20
48.0379424582
 11
-11.3091557031
 21
47.3303525095
  0
LINE
  5
297
100
AcDbEntity
  8
RACCORDO
100
AcDbLine
 62
250
  6
CONTINUOUS
 10
-11.3968405077
 20
-39.9429086848
 11
-11.4279287782
 21
-40.2732608889
  0
LINE
  5
298
100
AcDbEntity
  8
RACCORDO
100
AcDbLine
 62
250
  6
CONTINUOUS
 10
-11.4279287782
 20
-40.2732608889
 11
-11.4563192401
 21
-40.560343132
  0
LINE
  5
299
100
AcDbEntity
  8
RACCORDO
100
AcDbLine
 62
250
  6
CONTINUOUS
 10
-11.4563192401
 20
-40.560343132
 11
-11.4824553206
 21
-40.8112925499
  0
LINE
  5
29A
100
AcDbEntity
  8
RACCORDO
100
AcDbLine
 62
250
  6
CONTINUOUS
 10
-11.4824553206
 20
-40.8112925499
 11
-11.5008766021
 21
-40.9799856043
  0
LINE
  5
29B
100
AcDbEntity
  8
RACCORDO
100
AcDbLine
 62
250
  6
CONTINUOUS
 10
-11.5008766021
 20
-40.9799856043
 11
-11.5185486456
 21
-41.1351603016
  0
LWPOLYLINE
  5
29C
100
AcDbEntity
  8
RACCORDO
100
AcDbPolyline
 62
250
  6
CONTINUOUS
 90
8
 70
0
 10
-8.9484698626
 20
-32.312791631
 10
-8.9439126772
 20
-32.2740704638
 10
-8.9421865484
 20
-32.23191822
 10
-8.9433024372
 20
-32.1863892777
 10
-8.9477759711
 20
-32.1371462373
 10
-8.9551169735
 20
-32.0846372169
 10
-8.9638386877
 20
-32.0300986401
 10
-8.9738848582
 20
-31.9739712645
  0
LINE
  5
29D
100
AcDbEntity
  8
RACCORDO
100
AcDbLine
 62
250
  6
CONTINUOUS
 10
-11.5185486456
 20
-41.1351603016
 11
-11.5357377926
 21
-41.2796069965
  0
LINE
  5
29E
100
AcDbEntity
  8
RACCORDO
100
AcDbLine
 62
250
  6
CONTINUOUS
 10
-11.5357377926
 20
-41.2796069965
 11
-11.5527466732
 21
-41.4160383836
  0
LINE
  5
29F
100
AcDbEntity
  8
RACCORDO
100
AcDbLine
 62
250
  6
CONTINUOUS
 10
-11.5527466732
 20
-41.4160383836
 11
-11.5641525441
 21
-41.5038095418
  0
LINE
  5
2A0
100
AcDbEntity
  8
RACCORDO
100
AcDbLine
 62
250
  6
CONTINUOUS
 10
-11.5641525441
 20
-41.5038095418
 11
-11.5757452326
 21
-41.5899505807
  0
LINE
  5
2A1
100
AcDbEntity
  8
RACCORDO
100
AcDbLine
 62
250
  6
CONTINUOUS
 10
-11.5757452326
 20
-41.5899505807
 11
-11.5876902696
 21
-41.6753074618
  0
LINE
  5
2A2
100
AcDbEntity
  8
RACCORDO
100
AcDbLine
 62
250
  6
CONTINUOUS
 10
-11.5876902696
 20
-41.6753074618
 11
-11.6000845465
 21
-41.7603038686
  0
LINE
  5
2A3
100
AcDbEntity
  8
RACCORDO
100
AcDbLine
 62
250
  6
CONTINUOUS
 10
-11.6000845465
 20
-41.7603038686
 11
-11.6131096105
 21
-41.8456467959
  0
LWPOLYLINE
  5
2A4
100
AcDbEntity
  8
RACCORDO
100
AcDbPolyline
 62
250
  6
CONTINUOUS
 90
37
 70
0
 10
-11.6131096105
 20
-41.8456467959
 10
-11.6267362959
 20
-41.9303916093
 10
-11.6337706058
 20
-41.9724486848
 10
-11.6409253351
 20
-42.0139014922
 10
-11.6482012877
 20
-42.0547410532
 10
-11.6555920953
 20
-42.0949709607
 10
-11.6630662445
 20
-42.1342368262
 10
-11.6706279949
 20
-42.1725301813
 10
-11.6782693203
 20
-42.2098577017
 10
-11.6859428147
 20
-42.2458917519
 10
-11.6936465822
 20
-42.2805848778
 10
-11.7013816904
 20
-42.3139874081
 10
-11.7091077713
 20
-42.3459221983
 10
-11.7168010369
 20
-42.3762870656
 10
-11.7244871742
 20
-42.4051906603
 10
-11.7322002429
 20
-42.432772358
 10
-11.7399265969
 20
-42.4590258822
 10
-11.7476797259
 20
-42.483960857
 10
-11.7555316124
 20
-42.5077368555
 10
-11.7634692333
 20
-42.5303828997
 10
-11.7715015567
 20
-42.5518684845
 10
-11.7797291851
 20
-42.5722586027
 10
-11.7881567129
 20
-42.5916304493
 10
-11.7967694811
 20
-42.6098989664
 10
-11.8056351832
 20
-42.6268813015
 10
-11.8147377606
 20
-42.6426063336
 10
-11.8240795193
 20
-42.6570346271
 10
-11.8337520295
 20
-42.6698772559
 10
-11.8437590548
 20
-42.6811882085
 10
-11.854076341
 20
-42.6908979675
 10
-11.8647505979
 20
-42.6985299871
 10
-11.8757255787
 20
-42.7041063018
 10
-11.8870349505
 20
-42.7075899788
 10
-11.8988542354
 20
-42.7084111538
 10
-11.9112267982
 20
-42.7063692415
 10
-11.924069396
 20
-42.701638086
 10
-11.9373609363
 20
-42.6942046447
  0
LINE
  5
2A5
100
AcDbEntity
  8
RACCORDO
100
AcDbLine
 62
250
  6
CONTINUOUS
 10
-9.2601609983
 20
-34.0978142199
 11
-9.3649846874
 21
-34.7405534719
  0
LINE
  5
2A6
100
AcDbEntity
  8
RACCORDO
100
AcDbLine
 62
250
  6
CONTINUOUS
 10
-10.8686569677
 20
-33.5655274127
 11
-10.986856517
 21
-34.2853746224
  0
LINE
  5
2A7
100
AcDbEntity
  8
RACCORDO
100
AcDbLine
 62
250
  6
CONTINUOUS
 10
-10.7439770088
 20
-32.8427820379
 11
-10.8686569677
 21
-33.5655274127
  0
LINE
  5
2A8
100
AcDbEntity
  8
RACCORDO
100
AcDbLine
 62
250
  6
CONTINUOUS
 10
-10.6128166404
 20
-32.1171384978
 11
-10.7439770088
 21
-32.8427820379
  0
LWPOLYLINE
  5
2A9
100
AcDbEntity
  8
RACCORDO
100
AcDbPolyline
 62
250
  6
CONTINUOUS
 90
50
 70
0
 10
-10.6128166404
 20
-32.1171384978
 10
-10.6078738225
 20
-32.0924213327
 10
-10.6021193514
 20
-32.0673450782
 10
-10.595553227
 20
-32.0419097345
 10
-10.5881830642
 20
-32.0161279591
 10
-10.5800012482
 20
-31.9899870945
 10
-10.5709849341
 20
-31.9634491674
 10
-10.5611477606
 20
-31.9365293539
 10
-10.550476089
 20
-31.909212478
 10
-10.5389061593
 20
-31.8814150385
 10
-10.5264609588
 20
-31.8531604142
 10
-10.5131175002
 20
-31.8244252263
 10
-10.4987430604
 20
-31.795055838
 10
-10.4833474653
 20
-31.7650423056
 10
-10.466920889
 20
-31.7343945726
 10
-10.4493011309
 20
-31.7029888331
 10
-10.4304847867
 20
-31.6707998144
 10
-10.4104752607
 20
-31.6378527891
 10
-10.3891205657
 20
-31.6040997682
 10
-10.3664112512
 20
-31.5695157343
 10
-10.3423567675
 20
-31.534125705
 10
-10.3168334783
 20
-31.4979567441
 10
-10.2898036129
 20
-31.4609571566
 10
-10.2613049418
 20
-31.4231786377
 10
-10.2313271409
 20
-31.3848033372
 10
-10.1998648474
 20
-31.345830135
 10
-10.166923424
 20
-31.3062601513
 10
-10.1325086348
 20
-31.2662788966
 10
-10.0966073185
 20
-31.2258745066
 10
-10.0592326363
 20
-31.1850588457
 10
-10.0204298365
 20
-31.1440530178
 10
-9.9800499445
 20
-31.1027317435
 10
-9.9382419347
 20
-31.0612203021
 10
-9.8954979791
 20
-31.0201156363
 10
-9.851679991
 20
-30.9793613264
 10
-9.8069260569
 20
-30.9390137921
 10
-9.7621426084
 20
-30.8998392344
 10
-9.7172718695
 20
-30.8618804602
 10
-9.6723716161
 20
-30.8250946626
 10
-9.6285216075
 20
-30.7901196226
 10
-9.585945043
 20
-30.7571805423
 10
-9.5444187233
 20
-30.7260522196
 10
-9.5043528093
 20
-30.6966968285
 10
-9.4659224944
 20
-30.6692318663
 10
-9.4289525851
 20
-30.6435398357
 10
-9.3933276615
 20
-30.619230419
 10
-9.3590503022
 20
-30.5962807744
 10
-9.3261179286
 20
-30.5747137438
 10
-9.2944073843
 20
-30.5542075345
 10
-9.2638982308
 20
-30.5347292183
  0
LWPOLYLINE
  5
2AA
100
AcDbEntity
  8
RACCORDO
100
AcDbPolyline
 62
250
  6
CONTINUOUS
 90
5
 70
0
 10
-9.1454051894
 20
1.0626976114
 10
-9.1695069589
 20
1.0470745415
 10
-9.2034604699
 20
1.0255338277
 10
-9.2384086428
 20
1.0038343865
 10
-9.2745254297
 20
0.9821293086
  0
LWPOLYLINE
  5
2AB
100
AcDbEntity
  8
RACCORDO
100
AcDbPolyline
 62
250
  6
CONTINUOUS
 90
16
 70
0
 10
-10.4840496509
 20
1.142234984
 10
-10.3903539318
 20
1.1998955207
 10
-10.2887308335
 20
1.2503985884
 10
-10.18026915
 20
1.2932030791
 10
-10.0661309943
 20
1.327850347
 10
-9.9475392109
 20
1.3539691903
 10
-9.825764259
 20
1.3712797942
 10
-9.7021108162
 20
1.3795966571
 10
-9.57790376
 20
1.3788306067
 10
-9.4544738253
 20
1.3689897865
 10
-9.3331434371
 20
1.3501795605
 10
-9.2152126483
 20
1.32260142
 10
-9.1019451429
 20
1.2865508343
 10
-8.994554571
 20
1.2424140506
 10
-8.8941915569
 20
1.1906639305
 10
-8.801931469
 20
1.1318549234
  0
LWPOLYLINE
  5
2AC
100
AcDbEntity
  8
RACCORDO
100
AcDbPolyline
 62
250
  6
CONTINUOUS
 90
49
 70
0
 10
-9.2745254297
 20
0.9821293086
 10
-9.3119116391
 20
0.9603430045
 10
-9.3504664626
 20
0.9385510637
 10
-9.3900614261
 20
0.9171333451
 10
-9.4307958124
 20
0.8960456332
 10
-9.4725703388
 20
0.8753321434
 10
-9.5149586839
 20
0.8555053812
 10
-9.5581490068
 20
0.8365421145
 10
-9.6019531484
 20
0.8184655754
 10
-9.6453803095
 20
0.8018579655
 10
-9.6882672076
 20
0.786859298
 10
-9.7307771253
 20
0.7733295597
 10
-9.7724091104
 20
0.7614309139
 10
-9.8130496847
 20
0.7512297387
 10
-9.8528123264
 20
0.7426596559
 10
-9.8915365182
 20
0.7356836938
 10
-9.9292083281
 20
0.7303164916
 10
-9.965841688
 20
0.7265434101
 10
-10.0013178761
 20
0.7242835605
 10
-10.0356355636
 20
0.7235487023
 10
-10.0687960794
 20
0.724327076
 10
-10.100684688
 20
0.7265025149
 10
-10.1312900468
 20
0.7300878365
 10
-10.1606234985
 20
0.7350702233
 10
-10.188604336
 20
0.7412950561
 10
-10.215211439
 20
0.7487693108
 10
-10.2404659278
 20
0.7574860115
 10
-10.2643504562
 20
0.7672696109
 10
-10.2868529286
 20
0.7781259665
 10
-10.3079854406
 20
0.7900492207
 10
-10.327766932
 20
0.8028462535
 10
-10.3461805465
 20
0.8165168865
 10
-10.3632431404
 20
0.831061298
 10
-10.3790242227
 20
0.8462869029
 10
-10.3935033583
 20
0.8621710237
 10
-10.4067009822
 20
0.8787363379
 10
-10.4187479089
 20
0.8958582922
 10
-10.4296431294
 20
0.9135062983
 10
-10.4393876526
 20
0.9317109445
 10
-10.4481153187
 20
0.9504394427
 10
-10.4558423929
 20
0.9696828358
 10
-10.4625526099
 20
0.9894500809
 10
-10.4683310151
 20
1.0097352606
 10
-10.4731894322
 20
1.0305392228
 10
-10.4771160374
 20
1.0518611197
 10
-10.4801604045
 20
1.0736924903
 10
-10.4823390581
 20
1.0960305145
 10
-10.4836354736
 20
1.1188780124
 10
-10.4840496509
 20
1.142234984
  0
LINE
  5
2AD
100
AcDbEntity
  8
RACCORDO
100
AcDbLine
 62
7
  6
CONTINUOUS
 10
-8.9484673321
 20
0.9657775799
 11
5.8467766176
 21
-9.4960397462
  0
LINE
  5
2AE
100
AcDbEntity
  8
RACCORDO
100
AcDbLine
 62
250
  6
CONTINUOUS
 10
-8.801931469
 20
1.1318549231
 11
5.8467766176
 21
-9.2263459005
  0
LWPOLYLINE
  5
2AF
100
AcDbEntity
  8
RACCORDO
100
AcDbPolyline
 62
250
  6
CONTINUOUS
 90
6
 70
0
 10
-8.7513139118
 20
10.0065495853
 10
-8.7374233558
 20
9.9761852629
 10
-8.7202990395
 20
9.9462151632
 10
-8.7004612983
 20
9.9175499404
 10
-8.6785129065
 20
9.8910605755
 10
-8.6551207532
 20
9.8675519156
  0
LWPOLYLINE
  5
2B0
100
AcDbEntity
  8
RACCORDO
100
AcDbPolyline
 62
250
  6
CONTINUOUS
 90
6
 70
0
 10
-8.8871999176
 20
8.3717041405
 10
-8.8285811079
 20
8.1144256858
 10
-8.8175717319
 20
8.0588768422
 10
-8.8097369451
 20
8.0081067554
 10
-8.8045143845
 20
7.9618196302
 10
-8.801931469
 20
7.9200800225
  0
LINE
  5
2B1
100
AcDbEntity
  8
RACCORDO
100
AcDbLine
 62
250
  6
CONTINUOUS
 10
7.1992458828
 20
-55.5819722972
 11
7.1826997275
 21
-55.4981353488
  0
LINE
  5
2B2
100
AcDbEntity
  8
RACCORDO
100
AcDbLine
 62
250
  6
CONTINUOUS
 10
-11.6893621388
 20
51.2676562294
 11
-11.6755193295
 21
51.1779557447
  0
LINE
  5
2B3
100
AcDbEntity
  8
RACCORDO
100
AcDbLine
 62
250
  6
CONTINUOUS
 10
-11.6755193295
 20
51.1779557447
 11
-11.661679711
 21
51.0834138721
  0
LINE
  5
2B4
100
AcDbEntity
  8
RACCORDO
100
AcDbLine
 62
250
  6
CONTINUOUS
 10
-11.661679711
 20
51.0834138721
 11
-11.6478110941
 21
50.9838281158
  0
LINE
  5
2B5
100
AcDbEntity
  8
RACCORDO
100
AcDbLine
 62
250
  6
CONTINUOUS
 10
-11.6478110941
 20
50.9838281158
 11
-11.6338720267
 21
50.8788843852
  0
LINE
  5
2B6
100
AcDbEntity
  8
RACCORDO
100
AcDbLine
 62
250
  6
CONTINUOUS
 10
-11.6338720267
 20
50.8788843852
 11
-11.619850656
 21
50.768441891
  0
LINE
  5
2B7
100
AcDbEntity
  8
RACCORDO
100
AcDbLine
 62
250
  6
CONTINUOUS
 10
-11.619850656
 20
50.768441891
 11
-11.6057340927
 21
50.6523946401
  0
LINE
  5
2B8
100
AcDbEntity
  8
RACCORDO
100
AcDbLine
 62
250
  6
CONTINUOUS
 10
-11.6057340927
 20
50.6523946401
 11
-11.5915127338
 21
50.5306412739
  0
LINE
  5
2B9
100
AcDbEntity
  8
RACCORDO
100
AcDbLine
 62
250
  6
CONTINUOUS
 10
-11.5915127338
 20
50.5306412739
 11
-11.5771311355
 21
50.4026424442
  0
LINE
  5
2BA
100
AcDbEntity
  8
RACCORDO
100
AcDbLine
 62
7
  6
CONTINUOUS
 10
0.156034908
 20
49.8607762603
 11
0.156034908
 21
51.6285432132
  0
LWPOLYLINE
  5
2BB
100
AcDbEntity
  8
0
100
AcDbPolyline
 62
7
  6
CONTINUOUS
 90
7
 70
0
 10
-4.5429163192
 20
-46.5312931267
 10
-4.5226965882
 20
-46.1866801233
 10
-4.5007637072
 20
-45.8409828688
 10
-4.477117676
 20
-45.4942013632
 10
-4.4517584946
 20
-45.1463356065
 10
-4.4246861631
 20
-44.7973855987
 10
-4.3959006815
 20
-44.4473513398
  0
LWPOLYLINE
  5
2BC
100
AcDbEntity
  8
0
100
AcDbPolyline
 62
7
  6
CONTINUOUS
 90
7
 70
0
 10
-4.1469213824
 20
-46.8112984718
 10
-4.1267016784
 20
-46.4666863138
 10
-4.1047688328
 20
-46.1209899103
 10
-4.0811228457
 20
-45.7742092611
 10
-4.055763717
 20
-45.4263443663
 10
-4.0286914467
 20
-45.0773952258
 10
-3.9999060348
 20
-44.7273618398
  0
LWPOLYLINE
  5
2BD
100
AcDbEntity
  8
0
100
AcDbPolyline
 62
7
  6
CONTINUOUS
 90
7
 70
0
 10
-3.7509366352
 20
-47.0913019718
 10
-3.7307177569
 20
-46.7466892299
 10
-3.7087857368
 20
-46.4009922427
 10
-3.6851405748
 20
-46.0542110101
 10
-3.6597822709
 20
-45.706345532
 10
-3.6327108251
 20
-45.3573958086
 10
-3.6039262373
 20
-45.0073618398
  0
LWPOLYLINE
  5
2BE
100
AcDbEntity
  8
0
100
AcDbPolyline
 62
7
  6
CONTINUOUS
 90
7
 70
0
 10
-4.0406730708
 20
-46.7361695702
 10
-4.0204194734
 20
-46.3915323802
 10
-3.998449863
 20
-46.0458093405
 10
-3.9747642396
 20
-45.6990004511
 10
-3.9493626032
 20
-45.351105712
 10
-3.9222449539
 20
-45.0021251232
 10
-3.8934112915
 20
-44.6520586847
  0
LINE
  5
2BF
100
AcDbEntity
  8
0
100
AcDbLine
 62
7
  6
CONTINUOUS
 10
-3.3549419885
 20
-47.3713124718
 11
-3.3279281377
 21
-46.9167826377
  0
LINE
  5
2C0
100
AcDbEntity
  8
0
100
AcDbLine
 62
7
  6
CONTINUOUS
 10
-3.2486936769
 20
-47.2961835702
 11
-3.2216345837
 21
-46.8416210577
  0
LINE
  5
2C1
100
AcDbEntity
  8
0
100
AcDbLine
 62
7
  6
CONTINUOUS
 10
-3.3279281377
 20
-46.9167826377
 11
-3.297935669
 21
-46.4603517143
  0
LINE
  5
2C2
100
AcDbEntity
  8
0
100
AcDbLine
 62
7
  6
CONTINUOUS
 10
-3.2216345837
 20
-46.8416210577
 11
-3.1942358329
 21
-46.4243942149
  0
LINE
  5
2C3
100
AcDbEntity
  8
0
100
AcDbLine
 62
7
  6
CONTINUOUS
 10
-3.297935669
 20
-46.4603517143
 11
-3.2649645823
 21
-46.0020197018
  0
LINE
  5
2C4
100
AcDbEntity
  8
RACCORDO
100
AcDbLine
 62
250
  6
CONTINUOUS
 10
-9.1403148247
 20
-33.3861623245
 11
-9.2601609983
 21
-34.0978142199
  0
LWPOLYLINE
  5
2C5
100
AcDbEntity
  8
RACCORDO
100
AcDbPolyline
 62
250
  6
CONTINUOUS
 90
3
 70
0
 10
-9.3649846874
 20
-34.7405534719
 10
-9.4578693963
 20
-35.2877827487
 10
-9.5037357779
 20
-35.5466003252
  0
LWPOLYLINE
  5
2C6
100
AcDbEntity
  8
RACCORDO
100
AcDbPolyline
 62
250
  6
CONTINUOUS
 90
39
 70
0
 10
7.0731072693
 20
37.2746923588
 10
7.0895885701
 20
37.3662666647
 10
7.0981041237
 20
37.4119166829
 10
7.106839782
 20
37.4576109996
 10
7.1157811899
 20
37.5032371509
 10
7.1248994183
 20
37.5485096295
 10
7.1342091991
 20
37.5934723337
 10
7.1437061177
 20
37.6380854221
 10
7.1533294677
 20
37.6819370492
 10
7.1630816699
 20
37.7250138729
 10
7.172965907
 20
37.7673324665
 10
7.1829179321
 20
37.8085246311
 10
7.1929385247
 20
37.8485736042
 10
7.2030276099
 20
37.887498268
 10
7.2131144549
 20
37.9249823969
 10
7.2231777452
 20
37.9609427293
 10
7.2332334419
 20
37.9954628781
 10
7.2432634253
 20
38.0284758983
 10
7.2532320645
 20
38.0598921527
 10
7.2631682282
 20
38.0898010594
 10
7.273153497
 20
38.1184052541
 10
7.2831738506
 20
38.1457200812
 10
7.2932439442
 20
38.1717325643
 10
7.3034976266
 20
38.1966062483
 10
7.3139548397
 20
38.2204581227
 10
7.3246085598
 20
38.2431787008
 10
7.3355633989
 20
38.2645963295
 10
7.3468837624
 20
38.2848661105
 10
7.3585306734
 20
38.3038468968
 10
7.3704590041
 20
38.3209252136
 10
7.3826847526
 20
38.3361382882
 10
7.3952163294
 20
38.3494645902
 10
7.4079966217
 20
38.3602027684
 10
7.4210120785
 20
38.3683918607
 10
7.4342990918
 20
38.3740103764
 10
7.4478787743
 20
38.3762686007
 10
7.4617703347
 20
38.374912712
 10
7.4759868606
 20
38.3702226607
 10
7.490544073
 20
38.3622124793
  0
LWPOLYLINE
  5
2C7
100
AcDbEntity
  8
RACCORDO
100
AcDbPolyline
 62
250
  6
CONTINUOUS
 90
3
 70
0
 10
-8.9484680685
 20
-32.3127928996
 10
-9.0140251119
 20
-32.6713560919
 10
-9.1403148247
 20
-33.3861623245
  0
LWPOLYLINE
  5
2C8
100
AcDbEntity
  8
RACCORDO
100
AcDbPolyline
 62
250
  6
CONTINUOUS
 90
3
 70
0
 10
-9.5037357779
 20
-35.5466003252
 10
-9.5940383981
 20
-36.0367159676
 10
-9.6381495387
 20
-36.2692296982
  0
LINE
  5
2C9
100
AcDbEntity
  8
RACCORDO
100
AcDbLine
 62
250
  6
CONTINUOUS
 10
-9.6381495387
 20
-36.2692296982
 11
-9.7245000032
 21
-36.7103594493
  0
LINE
  5
2CA
100
AcDbEntity
  8
RACCORDO
100
AcDbLine
 62
250
  6
CONTINUOUS
 10
-9.7245000032
 20
-36.7103594493
 11
-9.8080245677
 21
-37.1227158049
  0
LINE
  5
2CB
100
AcDbEntity
  8
RACCORDO
100
AcDbLine
 62
250
  6
CONTINUOUS
 10
-9.8080245677
 20
-37.1227158049
 11
-9.8888311225
 21
-37.509511889
  0
LINE
  5
2CC
100
AcDbEntity
  8
RACCORDO
100
AcDbLine
 62
250
  6
CONTINUOUS
 10
-9.8888311225
 20
-37.509511889
 11
-9.9669907356
 21
-37.87235472
  0
LINE
  5
2CD
100
AcDbEntity
  8
RACCORDO
100
AcDbLine
 62
250
  6
CONTINUOUS
 10
-9.9669907356
 20
-37.87235472
 11
-10.0423989073
 21
-38.2129201704
  0
LINE
  5
2CE
100
AcDbEntity
  8
RACCORDO
100
AcDbLine
 62
250
  6
CONTINUOUS
 10
-10.0423989073
 20
-38.2129201704
 11
-10.1146339104
 21
-38.5309264816
  0
LINE
  5
2CF
100
AcDbEntity
  8
RACCORDO
100
AcDbLine
 62
250
  6
CONTINUOUS
 10
-10.1146339104
 20
-38.5309264816
 11
-10.1836727361
 21
-38.8269108244
  0
LINE
  5
2D0
100
AcDbEntity
  8
RACCORDO
100
AcDbLine
 62
250
  6
CONTINUOUS
 10
-10.1836727361
 20
-38.8269108244
 11
-10.2494913112
 21
-39.1022647677
  0
LINE
  5
2D1
100
AcDbEntity
  8
RACCORDO
100
AcDbLine
 62
250
  6
CONTINUOUS
 10
-10.2494913112
 20
-39.1022647677
 11
-10.3121661035
 21
-39.3583768793
  0
LINE
  5
2D2
100
AcDbEntity
  8
RACCORDO
100
AcDbLine
 62
250
  6
CONTINUOUS
 10
-10.3121661035
 20
-39.3583768793
 11
-10.3718122906
 21
-39.5961731847
  0
LINE
  5
2D3
100
AcDbEntity
  8
RACCORDO
100
AcDbLine
 62
250
  6
CONTINUOUS
 10
-10.3718122906
 20
-39.5961731847
 11
-10.4285026481
 21
-39.8169483561
  0
LINE
  5
2D4
100
AcDbEntity
  8
RACCORDO
100
AcDbLine
 62
250
  6
CONTINUOUS
 10
-10.4285026481
 20
-39.8169483561
 11
-10.48236294
 21
-40.0219479295
  0
LWPOLYLINE
  5
2D5
100
AcDbEntity
  8
RACCORDO
100
AcDbPolyline
 62
250
  6
CONTINUOUS
 90
3
 70
0
 10
-10.48236294
 20
-40.0219479295
 10
-10.5335236038
 20
-40.2120150052
 10
-10.5581293448
 20
-40.301894032
  0
LWPOLYLINE
  5
2D6
100
AcDbEntity
  8
RACCORDO
100
AcDbPolyline
 62
250
  6
CONTINUOUS
 90
13
 70
0
 10
11.1199680212
 20
7.8287973655
 10
11.0010074087
 20
7.7621861142
 10
10.8711096295
 20
7.7067230099
 10
10.7323517621
 20
7.6632949133
 10
10.5869525588
 20
7.6325962438
 10
10.4372369675
 20
7.6151178765
 10
10.2855989556
 20
7.6111392921
 10
10.1344632301
 20
7.6207241085
 10
9.9862464666
 20
7.6437190636
 10
9.8433186659
 20
7.6797564659
 10
9.707965258
 20
7.7282600734
 10
9.5823505575
 20
7.7884543088
 10
9.4684831561
 20
7.8593766601
  0
LINE
  5
2D7
100
AcDbEntity
  8
RACCORDO
100
AcDbLine
 62
250
  6
CONTINUOUS
 10
-10.1506335201
 20
46.579880663
 11
-9.9529565737
 21
45.7143918639
  0
LINE
  5
2D8
100
AcDbEntity
  8
RACCORDO
100
AcDbLine
 62
250
  6
CONTINUOUS
 10
-9.9529565737
 20
45.7143918639
 11
-9.7831826997
 21
44.9594138242
  0
LINE
  5
2D9
100
AcDbEntity
  8
RACCORDO
100
AcDbLine
 62
250
  6
CONTINUOUS
 10
-9.7831826997
 20
44.9594138242
 11
-9.6035298772
 21
44.1454923539
  0
LWPOLYLINE
  5
2DA
100
AcDbEntity
  8
RACCORDO
100
AcDbPolyline
 62
250
  6
CONTINUOUS
 90
6
 70
0
 10
-9.2601610094
 20
42.5232863867
 10
-9.2010441803
 20
42.2485570664
 10
-9.1403148459
 20
41.9752306986
 10
-9.077974612
 20
41.7033141078
 10
-9.0140251243
 20
41.4328140817
 10
-8.9484680684
 20
41.163737371
  0
LINE
  5
2DB
100
AcDbEntity
  8
RACCORDO
100
AcDbLine
 62
250
  6
CONTINUOUS
 10
-9.6035298772
 20
44.1454923539
 11
-9.462480547
 21
43.4917990304
  0
LWPOLYLINE
  5
2DC
100
AcDbEntity
  8
RACCORDO
100
AcDbPolyline
 62
250
  6
CONTINUOUS
 90
7
 70
0
 10
-10.9868565152
 20
42.6713912908
 10
-10.9285669174
 20
42.3914364371
 10
-10.868657176
 20
42.1129692812
 10
-10.807127291
 20
41.8359898231
 10
-10.7439772623
 20
41.5604980629
 10
-10.6792070901
 20
41.2864940004
 10
-10.6128167742
 20
41.0139776357
  0
LINE
  5
2DD
100
AcDbEntity
  8
RACCORDO
100
AcDbLine
 62
250
  6
CONTINUOUS
 10
-9.462480547
 20
43.4917990304
 11
-9.2601610094
 21
42.5232863867
  0
LINE
  5
2DE
100
AcDbEntity
  8
RACCORDO
100
AcDbLine
 62
250
  6
CONTINUOUS
 10
7.1826997275
 20
-55.4981353488
 11
7.1660510906
 21
-55.409973005
  0
LINE
  5
2DF
100
AcDbEntity
  8
RACCORDO
100
AcDbLine
 62
250
  6
CONTINUOUS
 10
7.1660510906
 20
-55.409973005
 11
7.1492912174
 21
-55.3173201266
  0
LINE
  5
2E0
100
AcDbEntity
  8
RACCORDO
100
AcDbLine
 62
250
  6
CONTINUOUS
 10
7.1492912174
 20
-55.3173201266
 11
7.1324040401
 21
-55.219938397
  0
LINE
  5
2E1
100
AcDbEntity
  8
RACCORDO
100
AcDbLine
 62
250
  6
CONTINUOUS
 10
7.1324040401
 20
-55.219938397
 11
7.1153994326
 21
-55.117710228
  0
LINE
  5
2E2
100
AcDbEntity
  8
RACCORDO
100
AcDbLine
 62
250
  6
CONTINUOUS
 10
7.1153994326
 20
-55.117710228
 11
7.0982888616
 21
-55.0105209565
  0
LINE
  5
2E3
100
AcDbEntity
  8
RACCORDO
100
AcDbLine
 62
250
  6
CONTINUOUS
 10
7.0982888616
 20
-55.0105209565
 11
7.0810809998
 21
-54.8982188274
  0
LINE
  5
2E4
100
AcDbEntity
  8
RACCORDO
100
AcDbLine
 62
250
  6
CONTINUOUS
 10
7.0810809998
 20
-54.8982188274
 11
7.0637419834
 21
-54.7803312366
  0
LINE
  5
2E5
100
AcDbEntity
  8
RACCORDO
100
AcDbLine
 62
250
  6
CONTINUOUS
 10
7.0637419834
 20
-54.7803312366
 11
7.0462648219
 21
-54.6565150805
  0
LINE
  5
2E6
100
AcDbEntity
  8
RACCORDO
100
AcDbLine
 62
250
  6
CONTINUOUS
 10
7.0462648219
 20
-54.6565150805
 11
7.0286159507
 21
-54.5261675149
  0
LINE
  5
2E7
100
AcDbEntity
  8
RACCORDO
100
AcDbLine
 62
250
  6
CONTINUOUS
 10
7.0286159507
 20
-54.5261675149
 11
7.0107759938
 21
-54.3886913327
  0
LWPOLYLINE
  5
2E8
100
AcDbEntity
  8
RACCORDO
100
AcDbPolyline
 62
250
  6
CONTINUOUS
 90
3
 70
0
 10
7.0107759938
 20
-54.3886913327
 10
6.9927597659
 20
-54.2436858607
 10
6.9836814807
 20
-54.1681371716
  0
LINE
  5
2E9
100
AcDbEntity
  8
RACCORDO
100
AcDbLine
 62
250
  6
CONTINUOUS
 10
6.9562161529
 20
-53.9286919544
 11
6.9377461485
 21
-53.7576795576
  0
LINE
  5
2EA
100
AcDbEntity
  8
RACCORDO
100
AcDbLine
 62
250
  6
CONTINUOUS
 10
6.9377461485
 20
-53.7576795576
 11
6.9191932881
 21
-53.576895269
  0
LWPOLYLINE
  5
2EB
100
AcDbEntity
  8
RACCORDO
100
AcDbPolyline
 62
250
  6
CONTINUOUS
 90
30
 70
0
 10
6.5521007451
 20
-52.9656478997
 10
6.541138757
 20
-52.8514931927
 10
6.5304180957
 20
-52.7341367032
 10
6.5199551382
 20
-52.6135650718
 10
6.509804864
 20
-52.4895118345
 10
6.4999793814
 20
-52.3619826443
 10
6.4904978217
 20
-52.2309529617
 10
6.4814292094
 20
-52.0961089239
 10
6.4727868792
 20
-51.9574500963
 10
6.4645949272
 20
-51.8149545455
 10
6.4569428882
 20
-51.668273563
 10
6.4498455699
 20
-51.5173884777
 10
6.4433331723
 20
-51.3622914064
 10
6.4375233956
 20
-51.2026468495
 10
6.4324338344
 20
-51.038427957
 10
6.4281005095
 20
-50.869630404
 10
6.4246743
 20
-50.695949299
 10
6.4221758917
 20
-50.5173483164
 10
6.4206477826
 20
-50.3338276497
 10
6.42027939
 20
-50.1451339272
 10
6.4210990057
 20
-49.9510709923
 10
6.4231525282
 20
-49.7517933579
 10
6.4266584039
 20
-49.5475723853
 10
6.431640677
 20
-49.3385216492
 10
6.4381517226
 20
-49.1244858718
 10
6.4464547744
 20
-48.9053321455
 10
6.4565594772
 20
-48.6812158278
 10
6.4685422285
 20
-48.4519357467
 10
6.482776933
 20
-48.2168185744
 10
6.4849033086
 20
-48.1857573443
  0
LINE
  5
2EC
100
AcDbEntity
  8
RACCORDO
100
AcDbLine
 62
250
  6
CONTINUOUS
 10
6.9191932881
 20
-53.576895269
 11
6.9006024321
 21
-53.385678959
  0
LINE
  5
2ED
100
AcDbEntity
  8
RACCORDO
100
AcDbLine
 62
250
  6
CONTINUOUS
 10
6.9006024321
 20
-53.385678959
 11
6.8882288493
 21
-53.2522142229
  0
LINE
  5
2EE
100
AcDbEntity
  8
RACCORDO
100
AcDbLine
 62
7
  6
CONTINUOUS
 10
6.8882288493
 20
-53.2522142229
 11
6.8875918747
 21
-53.2451996272
  0
LWPOLYLINE
  5
2EF
100
AcDbEntity
  8
RACCORDO
100
AcDbPolyline
 62
7
  6
CONTINUOUS
 90
5
 70
0
 10
6.1015512498
 20
-41.4631136892
 10
6.247057306
 20
-44.4256430525
 10
6.4252754609
 20
-47.3627122248
 10
6.6361906286
 20
-50.2739811394
 10
6.8882291782
 20
-53.2522178401
  0
LWPOLYLINE
  5
2F0
100
AcDbEntity
  8
0
100
AcDbPolyline
 62
7
  6
CONTINUOUS
 90
7
 70
0
 10
-1.8141796468
 20
-48.4607959718
 10
-1.7939607685
 20
-48.1161832299
 10
-1.7720287484
 20
-47.7704862427
 10
-1.7483835864
 20
-47.4237050101
 10
-1.7230252825
 20
-47.075839532
 10
-1.6959538367
 20
-46.7268898086
 10
-1.667169249
 20
-46.3768558398
  0
LWPOLYLINE
  5
2F1
100
AcDbEntity
  8
0
100
AcDbPolyline
 62
7
  6
CONTINUOUS
 90
7
 70
0
 10
0.3812365851
 20
-50.0131843169
 10
0.4014554892
 20
-49.6685715565
 10
0.4233875351
 20
-49.3228745508
 10
0.447032723
 20
-48.9760932998
 10
0.4723910528
 20
-48.6282278036
 10
0.4994625244
 20
-48.2792780621
 10
0.528247138
 20
-47.9292440753
  0
LWPOLYLINE
  5
2F2
100
AcDbEntity
  8
0
100
AcDbPolyline
 62
7
  6
CONTINUOUS
 90
7
 70
0
 10
-1.7079313352
 20
-48.3856670702
 10
-1.6876785635
 20
-48.0410292963
 10
-1.6657097786
 20
-47.6953056729
 10
-1.6420249803
 20
-47.3484962
 10
-1.6166241687
 20
-47.0006008777
 10
-1.5895073439
 20
-46.6516197059
 10
-1.5606745057
 20
-46.3015526847
  0
LINE
  5
2F3
100
AcDbEntity
  8
0
100
AcDbLine
 62
7
  6
CONTINUOUS
 10
-2.2101742935
 20
-48.1807854718
 11
-2.1831620934
 21
-47.7262544704
  0
LINE
  5
2F4
100
AcDbEntity
  8
0
100
AcDbLine
 62
7
  6
CONTINUOUS
 10
0.7772361816
 20
-50.2931983169
 11
0.8008524183
 21
-49.8936674939
  0
LINE
  5
2F5
100
AcDbEntity
  8
0
100
AcDbLine
 62
7
  6
CONTINUOUS
 10
0.8834844937
 20
-50.218069415
 11
0.9071402199
 21
-49.8185104195
  0
LINE
  5
2F6
100
AcDbEntity
  8
0
100
AcDbLine
 62
7
  6
CONTINUOUS
 10
0.9071402199
 20
-49.8185104195
 11
0.9235592087
 21
-49.5610970475
  0
LINE
  5
2F7
100
AcDbEntity
  8
0
100
AcDbLine
 62
7
  6
CONTINUOUS
 10
0.8008524183
 20
-49.8936674939
 11
0.8267720931
 21
-49.492656697
  0
LINE
  5
2F8
100
AcDbEntity
  8
0
100
AcDbLine
 62
7
  6
CONTINUOUS
 10
-2.1831620934
 20
-47.7262544704
 11
-2.1531712746
 21
-47.2698223805
  0
LINE
  5
2F9
100
AcDbEntity
  8
0
100
AcDbLine
 62
7
  6
CONTINUOUS
 10
-2.1531712746
 20
-47.2698223805
 11
-2.1202018371
 21
-46.8114892018
  0
LWPOLYLINE
  5
2FA
100
AcDbEntity
  8
RACCORDO
100
AcDbPolyline
 62
7
  6
CONTINUOUS
 90
9
 70
0
 10
6.8181945633
 20
35.1225272824
 10
6.6364291598
 20
32.6670856749
 10
6.4256355342
 20
29.4507787637
 10
6.2474699187
 20
26.2559902869
 10
6.1019575428
 20
23.083091666
 10
5.9891197545
 20
19.9324440574
 10
5.9089747308
 20
16.8044136028
 10
5.8615371444
 20
13.6993671591
 10
5.8467766202
 20
10.7717813334
  0
LINE
  5
2FB
100
AcDbEntity
  8
0
100
AcDbLine
 62
7
  6
CONTINUOUS
 10
0.9545988323
 20
-49.0281893811
 11
0.9735160037
 21
-48.7738634863
  0
LWPOLYLINE
  5
2FC
100
AcDbEntity
  8
0
100
AcDbPolyline
 62
7
  6
CONTINUOUS
 90
4
 70
0
 10
0.8482225175
 20
-49.1034087946
 10
0.8736061425
 20
-48.7642104025
 10
0.8802057674
 20
-48.6792517608
 10
0.8869068798
 20
-48.5942295016
  0
LINE
  5
2FD
100
AcDbEntity
  8
RACCORDO
100
AcDbLine
 62
250
  6
CONTINUOUS
 10
6.8181946872
 20
35.1225288779
 11
6.8344131191
 21
35.3234122063
  0
LWPOLYLINE
  5
2FE
100
AcDbEntity
  8
RACCORDO
100
AcDbPolyline
 62
250
  6
CONTINUOUS
 90
25
 70
0
 10
7.4905832043
 20
38.3626525249
 10
7.3851578907
 20
37.1530333253
 10
7.2842192955
 20
35.9464013592
 10
7.1877675769
 20
34.7427751914
 10
7.0958041975
 20
33.5421916787
 10
7.0083276481
 20
32.3446508312
 10
6.9253341456
 20
31.1501162502
 10
6.8468238387
 20
29.958601227
 10
6.772797523
 20
28.770129901
 10
6.7032533433
 20
27.5846827418
 10
6.638192014
 20
26.4022786098
 10
6.5776141613
 20
25.2229362979
 10
6.5215185699
 20
24.0466366683
 10
6.4699061736
 20
22.8733987059
 10
6.4227778198
 20
21.7032413564
 10
6.3801329363
 20
20.5361459323
 10
6.3419726777
 20
19.37213156
 10
6.3082981128
 20
18.2112173486
 10
6.279109314
 20
17.0533851086
 10
6.2544076621
 20
15.8986543884
 10
6.2341944396
 20
14.7470442052
 10
6.2184703539
 20
13.5985361179
 10
6.2072368829
 20
12.4531370971
 10
6.2004957743
 20
11.3108791802
 10
6.1982484801
 20
10.1717817756
  0
LINE
  5
2FF
100
AcDbEntity
  8
RACCORDO
100
AcDbLine
 62
250
  6
CONTINUOUS
 10
6.8344131191
 20
35.3234122063
 11
6.8505218365
 21
35.5089755067
  0
LINE
  5
300
100
AcDbEntity
  8
RACCORDO
100
AcDbLine
 62
250
  6
CONTINUOUS
 10
6.8505218365
 20
35.5089755067
 11
6.8666144024
 21
35.682589283
  0
LINE
  5
301
100
AcDbEntity
  8
RACCORDO
100
AcDbLine
 62
250
  6
CONTINUOUS
 10
6.8666144024
 20
35.682589283
 11
6.8826199804
 21
35.8451754216
  0
LINE
  5
302
100
AcDbEntity
  8
RACCORDO
100
AcDbLine
 62
250
  6
CONTINUOUS
 10
6.8826199804
 20
35.8451754216
 11
6.898491037
 21
35.9976511609
  0
LINE
  5
303
100
AcDbEntity
  8
RACCORDO
100
AcDbLine
 62
250
  6
CONTINUOUS
 10
6.898491037
 20
35.9976511609
 11
6.9141697241
 21
36.1406244671
  0
LINE
  5
304
100
AcDbEntity
  8
RACCORDO
100
AcDbLine
 62
250
  6
CONTINUOUS
 10
6.9141697241
 20
36.1406244671
 11
6.929646845
 21
36.2750070318
  0
LINE
  5
305
100
AcDbEntity
  8
RACCORDO
100
AcDbLine
 62
250
  6
CONTINUOUS
 10
6.929646845
 20
36.2750070318
 11
6.9449327168
 21
36.4017014337
  0
LINE
  5
306
100
AcDbEntity
  8
RACCORDO
100
AcDbLine
 62
250
  6
CONTINUOUS
 10
6.9449327168
 20
36.4017014337
 11
6.9600201736
 21
36.5213053758
  0
LINE
  5
307
100
AcDbEntity
  8
RACCORDO
100
AcDbLine
 62
250
  6
CONTINUOUS
 10
6.9600201736
 20
36.5213053758
 11
6.9749517899
 21
36.6347150505
  0
LINE
  5
308
100
AcDbEntity
  8
RACCORDO
100
AcDbLine
 62
250
  6
CONTINUOUS
 10
6.9749517899
 20
36.6347150505
 11
6.9897887795
 21
36.7428129511
  0
LINE
  5
309
100
AcDbEntity
  8
RACCORDO
100
AcDbLine
 62
250
  6
CONTINUOUS
 10
6.9897887795
 20
36.7428129511
 11
7.0045688551
 21
36.8461830885
  0
LINE
  5
30A
100
AcDbEntity
  8
RACCORDO
100
AcDbLine
 62
250
  6
CONTINUOUS
 10
7.0045688551
 20
36.8461830885
 11
7.019383556
 21
36.9456993273
  0
LINE
  5
30B
100
AcDbEntity
  8
RACCORDO
100
AcDbLine
 62
250
  6
CONTINUOUS
 10
7.019383556
 20
36.9456993273
 11
7.0343454572
 21
37.0422119885
  0
LINE
  5
30C
100
AcDbEntity
  8
RACCORDO
100
AcDbLine
 62
250
  6
CONTINUOUS
 10
7.0343454572
 20
37.0422119885
 11
7.0495395607
 21
37.1362873694
  0
LWPOLYLINE
  5
30D
100
AcDbEntity
  8
RACCORDO
100
AcDbPolyline
 62
250
  6
CONTINUOUS
 90
3
 70
0
 10
7.0495395607
 20
37.1362873694
 10
7.0651160886
 20
37.2287784888
 10
7.0731072693
 20
37.2746923588
  0
LINE
  5
30E
100
AcDbEntity
  8
RACCORDO
100
AcDbLine
 62
250
  6
CONTINUOUS
 10
-10.5581293448
 20
-40.301894032
 11
-10.6054893723
 21
-40.4717411071
  0
LINE
  5
30F
100
AcDbEntity
  8
RACCORDO
100
AcDbLine
 62
250
  6
CONTINUOUS
 10
-10.6054893723
 20
-40.4717411071
 11
-10.6504943303
 21
-40.6293940034
  0
LINE
  5
310
100
AcDbEntity
  8
RACCORDO
100
AcDbLine
 62
250
  6
CONTINUOUS
 10
-10.6504943303
 20
-40.6293940034
 11
-10.6933194402
 21
-40.7759526149
  0
LINE
  5
311
100
AcDbEntity
  8
RACCORDO
100
AcDbLine
 62
250
  6
CONTINUOUS
 10
-10.6933194402
 20
-40.7759526149
 11
-10.7341073929
 21
-40.9121525692
  0
LINE
  5
312
100
AcDbEntity
  8
RACCORDO
100
AcDbLine
 62
250
  6
CONTINUOUS
 10
-10.7341073929
 20
-40.9121525692
 11
-10.7730345085
 21
-41.0390527293
  0
LINE
  5
313
100
AcDbEntity
  8
RACCORDO
100
AcDbLine
 62
250
  6
CONTINUOUS
 10
-10.7730345085
 20
-41.0390527293
 11
-10.8103073498
 21
-41.1576660529
  0
LINE
  5
314
100
AcDbEntity
  8
RACCORDO
100
AcDbLine
 62
250
  6
CONTINUOUS
 10
-10.8103073498
 20
-41.1576660529
 11
-10.846081783
 21
-41.2686656433
  0
LINE
  5
315
100
AcDbEntity
  8
RACCORDO
100
AcDbLine
 62
250
  6
CONTINUOUS
 10
-10.846081783
 20
-41.2686656433
 11
-10.8805708459
 21
-41.3730279362
  0
LINE
  5
316
100
AcDbEntity
  8
RACCORDO
100
AcDbLine
 62
250
  6
CONTINUOUS
 10
-10.8805708459
 20
-41.3730279362
 11
-10.9140205616
 21
-41.4716845638
  0
LWPOLYLINE
  5
317
100
AcDbEntity
  8
RACCORDO
100
AcDbPolyline
 62
250
  6
CONTINUOUS
 90
47
 70
0
 10
-10.9140205616
 20
-41.4716845638
 10
-10.9466089518
 20
-41.5652502894
 10
-10.9626750794
 20
-41.6104605649
 10
-10.9785954579
 20
-41.6546217545
 10
-10.9944654143
 20
-41.6980147713
 10
-11.0102812365
 20
-41.7406453032
 10
-11.0260498845
 20
-41.7825097003
 10
-11.0418811649
 20
-41.8238738834
 10
-11.0577691023
 20
-41.8647441185
 10
-11.0737213762
 20
-41.9051151892
 10
-11.0898668293
 20
-41.9452348556
 10
-11.1062076565
 20
-41.985135744
 10
-11.1227418881
 20
-42.0247853209
 10
-11.1395909212
 20
-42.0643328266
 10
-11.156800309
 20
-42.1039007554
 10
-11.1743235655
 20
-42.1433659487
 10
-11.1921440252
 20
-42.1825091661
 10
-11.2102876589
 20
-42.2213797027
 10
-11.2287286598
 20
-42.2599283154
 10
-11.2473741024
 20
-42.2977888799
 10
-11.2662316397
 20
-42.3349547333
 10
-11.2852956886
 20
-42.3714338476
 10
-11.3044552457
 20
-42.4068832217
 10
-11.3237220418
 20
-42.4412920618
 10
-11.3430880365
 20
-42.4746735515
 10
-11.3624141888
 20
-42.5067217294
 10
-11.3816957659
 20
-42.5373928571
 10
-11.4009425193
 20
-42.5667339592
 10
-11.4200382791
 20
-42.5945759819
 10
-11.4389272485
 20
-42.6208295942
 10
-11.4576707063
 20
-42.6455877409
 10
-11.4763281702
 20
-42.6689548352
 10
-11.4948725443
 20
-42.6909254765
 10
-11.51333525
 20
-42.7115079268
 10
-11.5318629036
 20
-42.7308266449
 10
-11.5504409512
 20
-42.7489177033
 10
-11.5690871448
 20
-42.7657471506
 10
-11.5879959514
 20
-42.7813340061
 10
-11.6072002624
 20
-42.7957536778
 10
-11.6266696211
 20
-42.8089323762
 10
-11.6465033626
 20
-42.8206652525
 10
-11.6667040738
 20
-42.8309955071
 10
-11.6872716551
 20
-42.8398815992
 10
-11.7083017458
 20
-42.8469917938
 10
-11.7298272099
 20
-42.8522161719
 10
-11.7518178422
 20
-42.8556664325
 10
-11.7742748103
 20
-42.8573433582
  0
LWPOLYLINE
  5
318
100
AcDbEntity
  8
RACCORDO
100
AcDbPolyline
 62
7
  6
CONTINUOUS
 90
3
 70
0
 10
-9.283770803
 20
1.0867285177
 10
-9.2902640228
 20
1.0851740024
 10
-9.2974619752
 20
1.083717644
  0
LWPOLYLINE
  5
319
100
AcDbEntity
  8
RACCORDO
100
AcDbPolyline
 62
7
  6
CONTINUOUS
 90
11
 70
0
 10
-9.2974619752
 20
1.083717644
 10
-9.288145574
 20
1.084402339
 10
-9.2709308139
 20
1.0845977736
 10
-9.2451150689
 20
1.0831230837
 10
-9.2114708106
 20
1.0787203485
 10
-9.1714183681
 20
1.0703319857
 10
-9.1258837865
 20
1.0569684502
 10
-9.0763015284
 20
1.0379075333
 10
-9.0253730444
 20
1.0133280418
 10
-8.9745192405
 20
0.9833882689
 10
-8.9485926427
 20
0.9658661243
  0
LINE
  5
31A
100
AcDbEntity
  8
RACCORDO
100
AcDbLine
 62
250
  6
CONTINUOUS
 10
-8.801931469
 20
7.9200800225
 11
5.8467766176
 21
-2.4381208011
  0
LINE
  5
31B
100
AcDbEntity
  8
RACCORDO
100
AcDbLine
 62
250
  6
CONTINUOUS
 10
-8.6309955974
 20
9.847738246
 11
5.8467766176
 21
-0.3895926637
  0
LINE
  5
31C
100
AcDbEntity
  8
0
100
AcDbLine
 62
7
  6
CONTINUOUS
 10
5.8467766176
 20
0.4604073363
 11
-8.7004935585
 21
10.7468807255
  0
LINE
  5
31D
100
AcDbEntity
  8
RACCORDO
100
AcDbLine
 62
250
  6
CONTINUOUS
 10
-8.6551207532
 20
9.8675519156
 11
-8.6309955974
 21
9.847738246
  0
LINE
  5
31E
100
AcDbEntity
  8
RACCORDO
100
AcDbLine
 62
250
  6
CONTINUOUS
 10
-11.2126339057
 20
50.7402036334
 11
-11.1752197647
 21
50.6208013077
  0
LINE
  5
31F
100
AcDbEntity
  8
RACCORDO
100
AcDbLine
 62
250
  6
CONTINUOUS
 10
-11.1752197647
 20
50.6208013077
 11
-11.1371229583
 21
50.4959899212
  0
LINE
  5
320
100
AcDbEntity
  8
RACCORDO
100
AcDbLine
 62
250
  6
CONTINUOUS
 10
-11.1371229583
 20
50.4959899212
 11
-11.0982742147
 21
50.3655551324
  0
LINE
  5
321
100
AcDbEntity
  8
RACCORDO
100
AcDbLine
 62
250
  6
CONTINUOUS
 10
-11.0982742147
 20
50.3655551324
 11
-11.0585345348
 21
50.229011128
  0
LINE
  5
322
100
AcDbEntity
  8
RACCORDO
100
AcDbLine
 62
250
  6
CONTINUOUS
 10
-11.0585345348
 20
50.229011128
 11
-11.0177223341
 21
50.085640496
  0
LINE
  5
323
100
AcDbEntity
  8
RACCORDO
100
AcDbLine
 62
250
  6
CONTINUOUS
 10
-11.0177223341
 20
50.085640496
 11
-10.9757145436
 21
49.9350115899
  0
LINE
  5
324
100
AcDbEntity
  8
RACCORDO
100
AcDbLine
 62
250
  6
CONTINUOUS
 10
-10.9757145436
 20
49.9350115899
 11
-10.9323526205
 21
49.7764701317
  0
LINE
  5
325
100
AcDbEntity
  8
RACCORDO
100
AcDbLine
 62
250
  6
CONTINUOUS
 10
-10.9323526205
 20
49.7764701317
 11
-10.8644908799
 21
49.5225688318
  0
LINE
  5
326
100
AcDbEntity
  8
RACCORDO
100
AcDbLine
 62
250
  6
CONTINUOUS
 10
-10.8644908799
 20
49.5225688318
 11
-10.7928753122
 21
49.24775813
  0
LINE
  5
327
100
AcDbEntity
  8
RACCORDO
100
AcDbLine
 62
250
  6
CONTINUOUS
 10
-10.7928753122
 20
49.24775813
 11
-10.7170924183
 21
48.9501958434
  0
LINE
  5
328
100
AcDbEntity
  8
RACCORDO
100
AcDbLine
 62
250
  6
CONTINUOUS
 10
-10.7170924183
 20
48.9501958434
 11
-10.6367234809
 21
48.6280172477
  0
LINE
  5
329
100
AcDbEntity
  8
RACCORDO
100
AcDbLine
 62
250
  6
CONTINUOUS
 10
-10.6367234809
 20
48.6280172477
 11
-10.52166968
 21
48.1567532362
  0
LINE
  5
32A
100
AcDbEntity
  8
RACCORDO
100
AcDbLine
 62
250
  6
CONTINUOUS
 10
-10.52166968
 20
48.1567532362
 11
-10.3635990054
 21
47.4940031275
  0
LWPOLYLINE
  5
32B
100
AcDbEntity
  8
RACCORDO
100
AcDbPolyline
 62
250
  6
CONTINUOUS
 90
3
 70
0
 10
-10.3635990054
 20
47.4940031275
 10
-10.1879965066
 20
46.7415982543
 10
-10.1506335201
 20
46.579880663
  0
LWPOLYLINE
  5
32C
100
AcDbEntity
  8
RACCORDO
100
AcDbPolyline
 62
250
  6
CONTINUOUS
 90
3
 70
0
 10
6.9836814807
 20
-54.1681371716
 10
6.9654101199
 20
-54.0107402757
 10
6.9562161529
 20
-53.9286919544
  0
LWPOLYLINE
  5
32D
100
AcDbEntity
  8
RACCORDO
100
AcDbPolyline
 62
250
  6
CONTINUOUS
 90
4
 70
0
 10
10.0871661753
 20
-50.2795575805
 10
10.3101018768
 20
-53.1656021028
 10
10.5670959919
 20
-56.0261245339
 10
10.8580757737
 20
-58.8608319304
  0
LINE
  5
32E
100
AcDbEntity
  8
RACCORDO
100
AcDbLine
 62
250
  6
CONTINUOUS
 10
9.8983517105
 20
-47.3682342423
 11
10.0871661753
 21
-50.2795575805
  0
LWPOLYLINE
  5
32F
100
AcDbEntity
  8
RACCORDO
100
AcDbPolyline
 62
250
  6
CONTINUOUS
 90
5
 70
0
 10
11.5486041853
 20
-47.353686778
 10
11.7368267926
 20
-50.2557394484
 10
11.9590347366
 20
-53.1327807595
 10
12.2152842011
 20
-55.9849781305
 10
12.505575186
 20
-58.8123315614
  0
LWPOLYLINE
  5
330
100
AcDbEntity
  8
RACCORDO
100
AcDbPolyline
 62
7
  6
CONTINUOUS
 90
5
 70
0
 10
5.8467766199
 20
-29.5333042353
 10
5.8614028334
 20
-32.426161222
 10
5.9087174718
 20
-35.4630232791
 10
5.9887685492
 20
-38.4754584236
 10
6.1015512498
 20
-41.4631136892
  0
LWPOLYLINE
  5
331
100
AcDbEntity
  8
RACCORDO
100
AcDbPolyline
 62
250
  6
CONTINUOUS
 90
25
 70
0
 10
6.1982484801
 20
-30.1333047521
 10
6.2004958009
 20
-31.2691180299
 10
6.2072369889
 20
-32.4015115222
 10
6.2184705909
 20
-33.5304678746
 10
6.2341948586
 20
-34.6559574817
 10
6.254408313
 20
-35.7779755032
 10
6.2791102441
 20
-36.8965415016
 10
6.3082993672
 20
-38.0116382727
 10
6.3419743001
 20
-39.1232482237
 10
6.3801349688
 20
-40.231389774
 10
6.4227803026
 20
-41.3360453453
 10
6.4699091453
 20
-42.4371974268
 10
6.5215220675
 20
-43.53486397
 10
6.57761822
 20
-44.6290272468
 10
6.638196667
 20
-45.7196695759
 10
6.7032586226
 20
-46.8068083954
 10
6.7728034585
 20
-47.8904258171
 10
6.8468304588
 20
-48.9705039739
 10
6.925341477
 20
-50.0470597374
 10
7.0083360684
 20
-51.1200745819
 10
7.0958137677
 20
-52.1895309103
 10
7.1877771848
 20
-53.2554463621
 10
7.2842272476
 20
-54.3178144743
 10
7.3851626932
 20
-55.3766050806
 10
7.4905831917
 20
-56.4317999791
  0
LINE
  5
332
100
AcDbEntity
  8
RACCORDO
100
AcDbLine
 62
7
  6
CONTINUOUS
 10
5.8467766176
 20
10.7717817756
 11
5.8467766176
 21
-29.5333047521
  0
LINE
  5
333
100
AcDbEntity
  8
RACCORDO
100
AcDbLine
 62
250
  6
CONTINUOUS
 10
6.1982484801
 20
10.1717817756
 11
6.1982484801
 21
-30.1333047521
  0
LWPOLYLINE
  5
334
100
AcDbEntity
  8
RACCORDO
100
AcDbPolyline
 62
250
  6
CONTINUOUS
 90
8
 70
0
 10
10.3101010747
 20
29.6512969169
 10
10.0871652995
 20
26.4812667217
 10
9.8983509529
 20
23.3294330507
 10
9.7437308008
 20
20.1962420164
 10
9.6233819011
 20
17.0822399201
 10
9.537361692
 20
13.9878645948
 10
9.4857136408
 20
10.9134490856
 10
9.4684831561
 20
7.8593766601
  0
LINE
  5
335
100
AcDbEntity
  8
0
100
AcDbLine
 62
7
  6
CONTINUOUS
 10
0.9735160037
 20
-48.7738634863
 11
0.9821553401
 21
-48.6615803338
  0
LWPOLYLINE
  5
336
100
AcDbEntity
  8
RACCORDO
100
AcDbPolyline
 62
250
  6
CONTINUOUS
 90
3
 70
0
 10
10.8580758501
 20
36.0445246713
 10
10.567095488
 20
32.8391814965
 10
10.3101010747
 20
29.6512969169
  0
LWPOLYLINE
  5
337
100
AcDbEntity
  8
RACCORDO
100
AcDbPolyline
 62
250
  6
CONTINUOUS
 90
13
 70
0
 10
10.8580799826
 20
36.0445217492
 10
10.8736818112
 20
36.1548103909
 10
10.9009067199
 20
36.2707777539
 10
10.9393729829
 20
36.3907978361
 10
10.9885412568
 20
36.5131878116
 10
11.0477221433
 20
36.6362316257
 10
11.1160858551
 20
36.758204056
 10
11.1926738507
 20
36.8773949022
 10
11.2764122742
 20
36.9921329652
 10
11.3661270122
 20
37.1008094794
 10
11.4605601561
 20
37.2019006692
 10
11.5583876396
 20
37.2939891144
 10
11.6582378036
 20
37.3757836243
  0
LWPOLYLINE
  5
338
100
AcDbEntity
  8
RACCORDO
100
AcDbPolyline
 62
250
  6
CONTINUOUS
 90
3
 70
0
 10
-11.267555334
 20
50.9094787284
 10
-11.2310971317
 20
50.7979319695
 10
-11.2126339057
 20
50.7402036334
  0
LWPOLYLINE
  5
339
100
AcDbEntity
  8
RACCORDO
100
AcDbPolyline
 62
250
  6
CONTINUOUS
 90
6
 70
0
 10
11.1199680212
 20
-32.4762891622
 10
11.1372526367
 20
-35.5003850818
 10
11.1887473241
 20
-38.5001393193
 10
11.2744520834
 20
-41.4755518747
 10
11.3944230984
 20
-44.4267901674
 10
11.5486041853
 20
-47.353686778
  0
LWPOLYLINE
  5
33A
100
AcDbEntity
  8
RACCORDO
100
AcDbPolyline
 62
250
  6
CONTINUOUS
 90
6
 70
0
 10
9.4684831561
 20
-32.4457098676
 10
9.4857136878
 20
-35.4778500214
 10
9.5373618562
 20
-38.4864790781
 10
9.6233822297
 20
-41.4712780036
 10
9.7437313393
 20
-44.4319852635
 10
9.8983517105
 20
-47.3682342423
  0
LINE
  5
33B
100
AcDbEntity
  8
RACCORDO
100
AcDbLine
 62
250
  6
CONTINUOUS
 10
9.4684831561
 20
7.8593766601
 11
9.4684831561
 21
-32.4457098676
  0
LINE
  5
33C
100
AcDbEntity
  8
RACCORDO
100
AcDbLine
 62
250
  6
CONTINUOUS
 10
11.1199680212
 20
7.8287973655
 11
11.1199680212
 21
-32.4762891622
  0
LWPOLYLINE
  5
33D
100
AcDbEntity
  8
RACCORDO
100
AcDbPolyline
 62
250
  6
CONTINUOUS
 90
10
 70
0
 10
12.5055757921
 20
35.9292219237
 10
12.2152836795
 20
32.7322094573
 10
11.9590334713
 20
29.5537047006
 10
11.7368251676
 20
26.3937076534
 10
11.5486027429
 20
23.2519809049
 10
11.3944222227
 20
20.1287618659
 10
11.2744516828
 20
17.0247627693
 10
11.1887471486
 20
13.9402210258
 10
11.1372525947
 20
10.8748992245
 10
11.1199680212
 20
7.8287973655
  0
LINE
  5
33E
100
AcDbEntity
  8
RACCORDO
100
AcDbLine
 62
250
  6
CONTINUOUS
 10
9.4684831561
 20
7.8593766601
 11
6.1982484801
 21
10.1717817756
  0
LINE
  5
33F
100
AcDbEntity
  8
RACCORDO
100
AcDbLine
 62
250
  6
CONTINUOUS
 10
-13.2754765919
 20
23.9417848289
 11
-16.5457112679
 21
26.2541899444
  0
LWPOLYLINE
  5
340
100
AcDbEntity
  8
RACCORDO
100
AcDbPolyline
 62
250
  6
CONTINUOUS
 90
7
 70
0
 10
6.1982484801
 20
10.1717817756
 10
6.0958161049
 20
10.2542520163
 10
6.0092958566
 20
10.3453819218
 10
5.9401354516
 20
10.4436466436
 10
5.8894921294
 20
10.5474019486
 10
5.8582132892
 20
10.6549117315
 10
5.8467766176
 20
10.7717813334
  0
LWPOLYLINE
  5
341
100
AcDbEntity
  8
RACCORDO
100
AcDbPolyline
 62
250
  6
CONTINUOUS
 90
94
 70
0
 10
6.6069914745
 20
32.2179229907
 10
6.5951653285
 20
32.2957017977
 10
6.5678800302
 20
32.4922319774
 10
6.5435111016
 20
32.6830644703
 10
6.5219407422
 20
32.8681596106
 10
6.5031555931
 20
33.0474387719
 10
6.4866509407
 20
33.2217233593
 10
6.4723345033
 20
33.3909866708
 10
6.4601914411
 20
33.5551601283
 10
6.4498491461
 20
33.7150164082
 10
6.4412324517
 20
33.8706569426
 10
6.4343312731
 20
34.0219053252
 10
6.4288814936
 20
34.1691270211
 10
6.4248305027
 20
34.3124336987
 10
6.4221568811
 20
34.451649487
 10
6.4206457844
 20
34.5867109406
 10
6.4202537594
 20
34.7174651263
 10
6.4209517091
 20
34.8440031733
 10
6.4225483145
 20
34.9666296325
 10
6.4250019508
 20
35.0853045892
 10
6.4282922194
 20
35.2000157725
 10
6.4322651592
 20
35.3111139214
 10
6.4368859484
 20
35.4185842613
 10
6.4421372351
 20
35.5223981505
 10
6.4478966605
 20
35.6228900663
 10
6.4541351689
 20
35.7200469836
 10
6.4608381362
 20
35.8138459436
 10
6.4679096446
 20
35.9046105048
 10
6.4753254518
 20
35.9923301325
 10
6.4830735339
 20
36.0769857548
 10
6.4910805653
 20
36.1588916245
 10
6.499326322
 20
36.2380395696
 10
6.5078011837
 20
36.3144135954
 10
6.5164515096
 20
36.3883192917
 10
6.5252604003
 20
36.4597505035
 10
6.5342204294
 20
36.5286938294
 10
6.5432955062
 20
36.5954466789
 10
6.5524714586
 20
36.6600046377
 10
6.5617428415
 20
36.7223564489
 10
6.5710896052
 20
36.782791613
 10
6.5804997852
 20
36.841307231
 10
6.5899697213
 20
36.8978937884
 10
6.5994944286
 20
36.9528329283
 10
6.6090636888
 20
37.0061230974
 10
6.6186754649
 20
37.0577561569
 10
6.6283393556
 20
37.1080056915
 10
6.6380464633
 20
37.1568713921
 10
6.6477962679
 20
37.2043461464
 10
6.6576129983
 20
37.2506949478
 10
6.6674886541
 20
37.2959187236
 10
6.6774242132
 20
37.3400110255
 10
6.6874592308
 20
37.3832272289
 10
6.6975861393
 20
37.4255696375
 10
6.707807525
 20
37.4670320324
 10
6.7181798709
 20
37.5078583175
 10
6.7286950562
 20
37.5480512299
 10
6.7393579897
 20
37.5876054974
 10
6.750246287
 20
37.6267542324
 10
6.761351596
 20
37.6655055125
 10
6.7726806717
 20
37.7038499734
 10
6.7843352916
 20
37.7419957149
 10
6.7963267576
 20
37.7800121557
 10
6.8086437641
 20
37.8178298107
 10
6.821355029
 20
37.8554490741
 10
6.8344902546
 20
37.8929657395
 10
6.8480200543
 20
37.9302841893
 10
6.8619238651
 20
37.967117209
 10
6.8762154021
 20
38.0034853921
 10
6.8908795801
 20
38.0393670446
 10
6.9058508679
 20
38.0744101851
 10
6.921133699
 20
38.1085985176
 10
6.9367202866
 20
38.1419457488
 10
6.9525249312
 20
38.1741435167
 10
6.968553104
 20
38.2051691227
 10
6.9847944695
 20
38.2350415554
 10
7.0011381145
 20
38.2635138561
 10
7.0175471404
 20
38.2905045713
 10
7.0340525181
 20
38.3160906674
 10
7.0506445512
 20
38.3402623802
 10
7.0672634808
 20
38.3629678607
 10
7.0839637449
 20
38.3842549467
 10
7.1009075259
 20
38.4042638452
 10
7.1180559063
 20
38.4230269681
 10
7.135444031
 20
38.4405090658
 10
7.1533461041
 20
38.4567495498
 10
7.171770393
 20
38.4718669901
 10
7.1907060449
 20
38.4857408749
 10
7.2103988141
 20
38.4980521673
 10
7.2311336842
 20
38.5089068538
 10
7.2526231064
 20
38.5181970283
 10
7.2742525495
 20
38.5252817106
 10
7.2958150085
 20
38.5299456325
 10
7.3175125243
 20
38.5324003673
 10
7.3393431206
 20
38.5326444456
  0
LWPOLYLINE
  5
342
100
AcDbEntity
  8
RACCORDO
100
AcDbPolyline
 62
250
  6
CONTINUOUS
 90
16
 70
0
 10
12.5056030627
 20
35.9292406443
 10
12.4965077687
 20
36.0169803493
 10
12.4788671387
 20
36.1108258726
 10
12.4527893369
 20
36.2098202656
 10
12.4184359546
 20
36.3130467486
 10
12.3761287073
 20
36.4193065297
 10
12.3264297244
 20
36.5271069842
 10
12.2699546413
 20
36.6351387642
 10
12.2072683605
 20
36.7423441122
 10
12.1390363194
 20
36.8475803903
 10
12.0659867568
 20
36.9497123054
 10
11.9889300907
 20
37.0475954778
 10
11.9087329124
 20
37.1401252722
 10
11.8262835058
 20
37.2262784259
 10
11.742478675
 20
37.3051194247
 10
11.6582378036
 20
37.3757836243
  0
LINE
  5
343
100
AcDbEntity
  8
RACCORDO
100
AcDbLine
 62
7
  6
CONTINUOUS
 10
16.8967719204
 20
38.9436892906
 11
16.8967719204
 21
-56.2352092138
  0
LWPOLYLINE
  5
344
100
AcDbEntity
  8
RACCORDO
100
AcDbPolyline
 62
250
  6
CONTINUOUS
 90
13
 70
0
 10
-13.2754765919
 20
23.9417848289
 10
-13.1588460587
 20
23.8693542017
 10
-13.0299689103
 20
23.8081751474
 10
-12.8910016079
 20
23.759271356
 10
-12.7442694483
 20
23.7234611195
 10
-12.592227655
 20
23.7013436395
 10
-12.4374202962
 20
23.6932890008
 10
-12.2824377155
 20
23.6994319794
 10
-12.129873188
 20
23.7196697865
 10
-11.9822795288
 20
23.7536637892
 10
-11.8421263766
 20
23.8008451764
 10
-11.7117588707
 20
23.8604244767
 10
-11.5933584099
 20
23.931404768
  0
LWPOLYLINE
  5
345
100
AcDbEntity
  8
RACCORDO
100
AcDbPolyline
 62
250
  6
CONTINUOUS
 90
8
 70
0
 10
12.5056030627
 20
-58.812315201
 10
12.4963562914
 20
-58.9003895217
 10
12.478443741
 20
-58.9806175336
 10
12.4520609819
 20
-59.0521233016
 10
12.4174960627
 20
-59.1141261209
 10
12.3751263658
 20
-59.1659490407
 10
12.3254144863
 20
-59.2070262546
 10
12.310031061
 20
-59.216667689
  0
LINE
  5
346
100
AcDbEntity
  8
RACCORDO
100
AcDbLine
 62
250
  6
CONTINUOUS
 10
-8.7004935585
 20
-30.1667844459
 11
-8.9348481872
 21
-30.3268123513
  0
LINE
  5
347
100
AcDbEntity
  8
RACCORDO
100
AcDbLine
 62
250
  6
CONTINUOUS
 10
-8.5590506598
 20
-30.4082210349
 11
-8.7959165131
 21
-30.5699637177
  0
LWPOLYLINE
  5
348
100
AcDbEntity
  8
RACCORDO
100
AcDbPolyline
 62
250
  6
CONTINUOUS
 90
5
 70
0
 10
-9.0169940562
 20
-30.3808818327
 10
-8.9961060063
 20
-30.3674543769
 10
-8.9754023507
 20
-30.3539215841
 10
-8.9549830777
 20
-30.3403742423
 10
-8.9348481872
 20
-30.3268123513
  0
LINE
  5
349
100
AcDbEntity
  8
RACCORDO
100
AcDbLine
 62
250
  6
CONTINUOUS
 10
-9.0599232688
 20
-30.4079654608
 11
-9.0169940562
 21
-30.3808818327
  0
LINE
  5
34A
100
AcDbEntity
  8
RACCORDO
100
AcDbLine
 62
250
  6
CONTINUOUS
 10
-9.2638982308
 20
-30.5347292183
 11
-9.2064835712
 21
-30.4987320425
  0
LINE
  5
34B
100
AcDbEntity
  8
RACCORDO
100
AcDbLine
 62
250
  6
CONTINUOUS
 10
-9.2064835712
 20
-30.4987320425
 11
-9.0599232688
 21
-30.4079654608
  0
LWPOLYLINE
  5
34C
100
AcDbEntity
  8
RACCORDO
100
AcDbPolyline
 62
250
  6
CONTINUOUS
 90
28
 70
0
 10
-11.7743233923
 20
52.0480476502
 10
-11.7503439415
 20
52.0139681732
 10
-11.7270949129
 20
51.9792182212
 10
-11.7045751625
 20
51.9437986456
 10
-11.6828146524
 20
51.9075869767
 10
-11.6617807967
 20
51.8707076392
 10
-11.6413790191
 20
51.8335315372
 10
-11.6216619558
 20
51.7962265698
 10
-11.6025752433
 20
51.7586261308
 10
-11.5838643222
 20
51.7205989826
 10
-11.565503404
 20
51.6821648988
 10
-11.5475164353
 20
51.6433054881
 10
-11.5297233938
 20
51.6038323165
 10
-11.5121030004
 20
51.5637407438
 10
-11.4946743243
 20
51.5230370724
 10
-11.4773175983
 20
51.4815494829
 10
-11.460017645
 20
51.4392703175
 10
-11.442786947
 20
51.3962092658
 10
-11.4255468839
 20
51.3522207893
 10
-11.4082891661
 20
51.307304551
 10
-11.3910188281
 20
51.2614633486
 10
-11.373676829
 20
51.2145566532
 10
-11.3562544383
 20
51.1665782068
 10
-11.3387564401
 20
51.1175372592
 10
-11.3211436122
 20
51.0673168872
 10
-11.3034089779
 20
51.0159123731
 10
-11.2855548186
 20
50.9633320061
 10
-11.267555334
 20
50.9094787284
  0
LWPOLYLINE
  5
34D
100
AcDbEntity
  8
RACCORDO
100
AcDbPolyline
 62
250
  6
CONTINUOUS
 90
13
 70
0
 10
-10.9868558165
 20
-34.2853753276
 10
-10.870132149
 20
-34.2345945081
 10
-10.741409292
 20
-34.1948804547
 10
-10.6028418566
 20
-34.1668979161
 10
-10.4567492363
 20
-34.1511152745
 10
-10.3055767839
 20
-34.1477967056
 10
-10.1518548803
 20
-34.1569977567
 10
-9.9981565801
 20
-34.1785644174
 10
-9.8470545427
 20
-34.2121356967
 10
-9.7010779705
 20
-34.257149666
 10
-9.5626702737
 20
-34.3128528647
 10
-9.4341481722
 20
-34.3783129119
 10
-9.3176629166
 20
-34.4524341128
  0
LWPOLYLINE
  5
34E
100
AcDbEntity
  8
RACCORDO
100
AcDbPolyline
 62
250
  6
CONTINUOUS
 90
16
 70
0
 10
-10.6128291498
 20
-32.1171444111
 10
-10.520984488
 20
-32.078637295
 10
-10.4211867199
 20
-32.0470739758
 10
-10.3145056651
 20
-32.0227930219
 10
-10.2020839264
 20
-32.0060491263
 10
-10.0851275565
 20
-31.9970273632
 10
-9.9648931002
 20
-31.9958412487
 10
-9.8426705151
 20
-32.0025101033
 10
-9.719768726
 20
-32.0169555875
 10
-9.5975044811
 20
-32.0390195273
 10
-9.4771882992
 20
-32.0684651759
 10
-9.3601099966
 20
-32.1049772238
 10
-9.2475241898
 20
-32.1481618488
 10
-9.1406376251
 20
-32.1975553562
 10
-9.0405962444
 20
-32.2526291417
 10
-8.948472478
 20
-32.3127928636
  0
LWPOLYLINE
  5
34F
100
AcDbEntity
  8
RACCORDO
100
AcDbPolyline
 62
250
  6
CONTINUOUS
 90
12
 70
0
 10
-9.0167379573
 20
41.0899065957
 10
-9.0123961468
 20
41.0869908143
 10
-9.0001575157
 20
41.080450116
 10
-8.9879407566
 20
41.076267577
 10
-8.9759252777
 20
41.0743915916
 10
-8.9653903303
 20
41.0757911778
 10
-8.9561865168
 20
41.0804403237
 10
-8.9484041487
 20
41.0883209273
 10
-8.9436001874
 20
41.1005167668
 10
-8.9422821384
 20
41.11736456
 10
-8.9439097776
 20
41.1384521377
 10
-8.9484698631
 20
41.16373864
  0
LINE
  5
350
100
AcDbEntity
  8
RACCORDO
100
AcDbLine
 62
7
  6
CONTINUOUS
 10
6.4707161609
 20
30.1386227654
 11
-9.0167379573
 21
41.0899065957
  0
LINE
  5
351
100
AcDbEntity
  8
RACCORDO
100
AcDbLine
 62
250
  6
CONTINUOUS
 10
6.4783643547
 20
30.2553195523
 11
-8.9484680684
 21
41.163737371
  0
LINE
  5
352
100
AcDbEntity
  8
0
100
AcDbLine
 62
7
  6
CONTINUOUS
 10
-6.3273218421
 20
-43.0816303398
 11
-6.2208270989
 21
-43.0063271847
  0
LINE
  5
353
100
AcDbEntity
  8
0
100
AcDbLine
 62
7
  6
CONTINUOUS
 10
-5.9313222457
 20
-43.3616443398
 11
-5.8248275024
 21
-43.2863411847
  0
LINE
  5
354
100
AcDbEntity
  8
0
100
AcDbLine
 62
7
  6
CONTINUOUS
 10
-5.0558950592
 20
-43.9806648398
 11
-4.9494003159
 21
-43.9053616847
  0
LINE
  5
355
100
AcDbEntity
  8
0
100
AcDbLine
 62
7
  6
CONTINUOUS
 10
-4.6598954627
 20
-44.2606788398
 11
-4.5534007195
 21
-44.1853756847
  0
LINE
  5
356
100
AcDbEntity
  8
RACCORDO
100
AcDbLine
 62
250
  6
CONTINUOUS
 10
-9.1407130437
 20
41.2705978839
 11
-9.0406347561
 21
41.2215587412
  0
LINE
  5
357
100
AcDbEntity
  8
RACCORDO
100
AcDbLine
 62
250
  6
CONTINUOUS
 10
-9.0406347561
 20
41.2215587412
 11
-8.9484724587
 21
41.1637363618
  0
LWPOLYLINE
  5
358
100
AcDbEntity
  8
RACCORDO
100
AcDbPolyline
 62
250
  6
CONTINUOUS
 90
28
 70
0
 10
-11.9373913832
 20
52.1000005937
 10
-11.9244000811
 20
52.089194386
 10
-11.9116461534
 20
52.0756729059
 10
-11.8991394726
 20
52.0594338521
 10
-11.8868546988
 20
52.0401872274
 10
-11.8748343684
 20
52.0182193148
 10
-11.863196441
 20
51.9943873514
 10
-11.8520028361
 20
51.9687113448
 10
-11.8412217291
 20
51.9411559205
 10
-11.8308375414
 20
51.9124893555
 10
-11.8208815623
 20
51.8827766482
 10
-11.811350064
 20
51.8519359763
 10
-11.8021745641
 20
51.8205149786
 10
-11.7933919451
 20
51.7886937469
 10
-11.7849875736
 20
51.7562768609
 10
-11.7768106972
 20
51.7232525553
 10
-11.7688488341
 20
51.6896544202
 10
-11.7611262838
 20
51.6554410385
 10
-11.7535413983
 20
51.6204935022
 10
-11.7460837085
 20
51.5848170544
 10
-11.7387699767
 20
51.5484030116
 10
-11.731535622
 20
51.5111152127
 10
-11.724373305
 20
51.4729499368
 10
-11.7172935034
 20
51.4339102785
 10
-11.7102560534
 20
51.3938727091
 10
-11.7032572908
 20
51.3528408952
 10
-11.6963022151
 20
51.3108123898
 10
-11.6893621388
 20
51.2676562294
  0
LINE
  5
359
100
AcDbEntity
  8
0
100
AcDbLine
 62
7
  6
CONTINUOUS
 10
-4.3959006815
 20
-44.4473513398
 11
-4.2894059382
 21
-44.3720481847
  0
LINE
  5
35A
100
AcDbEntity
  8
0
100
AcDbLine
 62
7
  6
CONTINUOUS
 10
-3.9999060348
 20
-44.7273618398
 11
-3.8934112915
 21
-44.6520586847
  0
LINE
  5
35B
100
AcDbEntity
  8
0
100
AcDbLine
 62
7
  6
CONTINUOUS
 10
-5.4426167772
 20
-45.8951034718
 11
-5.3363684656
 21
-45.8199745702
  0
LINE
  5
35C
100
AcDbEntity
  8
0
100
AcDbLine
 62
7
  6
CONTINUOUS
 10
-3.6039262373
 20
-45.0073618398
 11
-3.4974314941
 21
-44.9320586847
  0
LINE
  5
35D
100
AcDbEntity
  8
0
100
AcDbLine
 62
7
  6
CONTINUOUS
 10
-3.0052889293
 20
-45.4306623398
 11
-2.898794186
 21
-45.3553591847
  0
LINE
  5
35E
100
AcDbEntity
  8
0
100
AcDbLine
 62
7
  6
CONTINUOUS
 10
-4.1469213824
 20
-46.8112984718
 11
-4.0406730708
 21
-46.7361695702
  0
LINE
  5
35F
100
AcDbEntity
  8
0
100
AcDbLine
 62
7
  6
CONTINUOUS
 10
-2.265806557
 20
-45.9535553398
 11
-2.1593118137
 21
-45.8782521847
  0
LINE
  5
360
100
AcDbEntity
  8
0
100
AcDbLine
 62
7
  6
CONTINUOUS
 10
-3.3549419885
 20
-47.3713124718
 11
-3.2486936769
 21
-47.2961835702
  0
LINE
  5
361
100
AcDbEntity
  8
0
100
AcDbLine
 62
7
  6
CONTINUOUS
 10
-1.667169249
 20
-46.3768558398
 11
-1.5606745057
 21
-46.3015526847
  0
LWPOLYLINE
  5
362
100
AcDbEntity
  8
RACCORDO
100
AcDbPolyline
 62
250
  6
CONTINUOUS
 90
13
 70
0
 10
11.1199680212
 20
-32.4762891622
 10
11.001007409
 20
-32.5429004133
 10
10.8711096301
 20
-32.5983635175
 10
10.7323517629
 20
-32.6417916141
 10
10.5869525598
 20
-32.6724902836
 10
10.4372369686
 20
-32.6899686511
 10
10.2855989567
 20
-32.6939472356
 10
10.1344632312
 20
-32.6843624192
 10
9.9862464675
 20
-32.6613674642
 10
9.8433186666
 20
-32.625330062
 10
9.7079652585
 20
-32.5768264544
 10
9.5823505578
 20
-32.516632219
 10
9.4684831561
 20
-32.4457098676
  0
LINE
  5
363
100
AcDbEntity
  8
RACCORDO
100
AcDbLine
 62
250
  6
CONTINUOUS
 10
-9.2476345477
 20
41.3103291081
 11
-9.1407130437
 21
41.2705978839
  0
LINE
  5
364
100
AcDbEntity
  8
RACCORDO
100
AcDbLine
 62
7
  6
CONTINUOUS
 10
-11.7743233923
 20
52.0480476502
 11
7.3393431206
 21
38.5326444456
  0
LINE
  5
365
100
AcDbEntity
  8
RACCORDO
100
AcDbLine
 62
250
  6
CONTINUOUS
 10
7.3476355672
 20
38.5267808003
 11
10.8580758501
 21
36.0445246713
  0
LINE
  5
366
100
AcDbEntity
  8
RACCORDO
100
AcDbLine
 62
250
  6
CONTINUOUS
 10
-15.2941139551
 20
54.5369154254
 11
-11.773943545
 21
52.047847642
  0
LINE
  5
367
100
AcDbEntity
  8
RACCORDO
100
AcDbLine
 62
250
  6
CONTINUOUS
 10
11.6582378036
 20
37.3757836243
 11
-14.4939602666
 21
55.8681802227
  0
LWPOLYLINE
  5
368
100
AcDbEntity
  8
RACCORDO
100
AcDbPolyline
 62
7
  6
CONTINUOUS
 90
10
 70
0
 10
7.3476355672
 20
38.5267808003
 10
7.3686034321
 20
38.510315679
 10
7.3883829851
 20
38.4932604646
 10
7.4069742621
 20
38.4756151793
 10
7.4244880069
 20
38.4571836227
 10
7.4408136035
 20
38.4381620732
 10
7.4556190527
 20
38.4191392724
 10
7.4687937315
 20
38.4003114944
 10
7.4804484174
 20
38.3814825594
 10
7.4905832043
 20
38.3626525249
  0
LWPOLYLINE
  5
369
100
AcDbEntity
  8
0
100
AcDbPolyline
 62
7
  6
CONTINUOUS
 90
16
 70
0
 10
1.5345615269
 20
-49.4757965031
 10
1.5479755781
 20
-49.4645463013
 10
1.5662409782
 20
-49.4412186639
 10
1.5795453988
 20
-49.4123340024
 10
1.5876833075
 20
-49.3786058977
 10
1.5905976149
 20
-49.3407172671
 10
1.5881098088
 20
-49.2994196553
 10
1.5802729242
 20
-49.2554557987
 10
1.5672888469
 20
-49.2098492441
 10
1.5493428878
 20
-49.1638305316
 10
1.5268783352
 20
-49.1184119292
 10
1.5004717096
 20
-49.074567427
 10
1.4707133198
 20
-49.0334495155
 10
1.4383111384
 20
-48.9959939247
 10
1.4040441074
 20
-48.9629177655
 10
1.3686940852
 20
-48.9349045016
  0
LWPOLYLINE
  5
36A
100
AcDbEntity
  8
0
100
AcDbPolyline
 62
7
  6
CONTINUOUS
 90
21
 70
0
 10
1.9786817201
 20
-49.8736199946
 10
1.9835060932
 20
-49.8701597549
 10
2.0239892083
 20
-49.8335026586
 10
2.0576139455
 20
-49.7875397561
 10
2.0846759636
 20
-49.7326691016
 10
2.1040836915
 20
-49.6710532287
 10
2.115506799
 20
-49.6024361473
 10
2.1192828452
 20
-49.5270694672
 10
2.1153049762
 20
-49.4478878835
 10
2.1032942557
 20
-49.3648138737
 10
2.0835192472
 20
-49.2779315959
 10
2.0566782903
 20
-49.1904282844
 10
2.0224521425
 20
-49.1021893589
 10
1.9811375879
 20
-49.0133434678
 10
1.9343454439
 20
-48.9274498496
 10
1.8818278325
 20
-48.8446633451
 10
1.8238068686
 20
-48.7648451116
 10
1.7625935571
 20
-48.691116814
 10
1.6989519261
 20
-48.6245229037
 10
1.6321013833
 20
-48.5640291678
 10
1.5620378028
 20
-48.5096381534
  0
LINE
  5
36B
100
AcDbEntity
  8
0
100
AcDbLine
 62
7
  6
CONTINUOUS
 10
-2.5845679522
 20
-47.9160438169
 11
-2.4783196401
 21
-47.840914915
  0
LINE
  5
36C
100
AcDbEntity
  8
0
100
AcDbLine
 62
7
  6
CONTINUOUS
 10
-0.7674730055
 20
-47.0130315753
 11
-0.6609782615
 21
-46.9377284197
  0
LINE
  5
36D
100
AcDbEntity
  8
0
100
AcDbLine
 62
7
  6
CONTINUOUS
 10
-0.3714585598
 20
-47.2930560753
 11
-0.2649638158
 21
-47.2177529197
  0
LINE
  5
36E
100
AcDbEntity
  8
0
100
AcDbLine
 62
7
  6
CONTINUOUS
 10
-1.8141796468
 20
-48.4607959718
 11
-1.7079313352
 21
-48.3856670702
  0
LINE
  5
36F
100
AcDbEntity
  8
0
100
AcDbLine
 62
7
  6
CONTINUOUS
 10
-0.8588944556
 20
-48.3007158942
 11
-0.7525633099
 21
-48.22552842
  0
LINE
  5
370
100
AcDbEntity
  8
0
100
AcDbLine
 62
7
  6
CONTINUOUS
 10
-1.1541899288
 20
-48.9274738169
 11
-1.0479416167
 21
-48.852344915
  0
LINE
  5
371
100
AcDbEntity
  8
0
100
AcDbLine
 62
7
  6
CONTINUOUS
 10
0.528247138
 20
-47.9292440753
 11
0.634741882
 21
-47.8539409197
  0
LINE
  5
372
100
AcDbEntity
  8
0
100
AcDbLine
 62
7
  6
CONTINUOUS
 10
1.4555329876
 20
-48.5849339629
 11
1.5620275727
 21
-48.5096309197
  0
LINE
  5
373
100
AcDbEntity
  8
0
100
AcDbLine
 62
7
  6
CONTINUOUS
 10
0.8482225175
 20
-49.1034087946
 11
0.9545988323
 21
-49.0281893811
  0
LINE
  5
374
100
AcDbEntity
  8
0
100
AcDbLine
 62
7
  6
CONTINUOUS
 10
0.1172415138
 20
-49.8265169718
 11
0.2234898254
 21
-49.7513880702
  0
LINE
  5
375
100
AcDbEntity
  8
0
100
AcDbLine
 62
7
  6
CONTINUOUS
 10
1.330004665
 20
-49.4440803711
 11
1.4363810879
 21
-49.3688608811
  0
LINE
  5
376
100
AcDbEntity
  8
0
100
AcDbLine
 62
7
  6
CONTINUOUS
 10
0.7772361816
 20
-50.2931983169
 11
0.8834844937
 21
-50.218069415
  0
LINE
  5
377
100
AcDbEntity
  8
0
100
AcDbLine
 62
7
  6
CONTINUOUS
 10
-1.1344509998
 20
50.4669387575
 11
3.8152964685
 21
46.9669387575
  0
LINE
  5
378
100
AcDbEntity
  8
ASSI
100
AcDbLine
 62
7
  6
CONTINUOUS
 10
1.978821373
 20
-49.8738339775
 11
1.9635176371
 21
-49.8846553529
  0
LINE
  5
379
100
AcDbEntity
  8
0
100
AcDbLine
 62
7
  6
CONTINUOUS
 10
1.9657599343
 20
-51.1336061621
 11
2.0720082468
 21
-51.0584772598
  0
LWPOLYLINE
  5
37A
100
AcDbEntity
  8
0
100
AcDbPolyline
 62
7
  6
CONTINUOUS
 90
6
 70
0
 10
1.872479878
 20
-49.9490287697
 10
1.8313241392
 20
-49.9728503722
 10
1.7792483203
 20
-49.9908447682
 10
1.7223911049
 20
-49.9988568551
 10
1.6614243932
 20
-49.9968715614
 10
1.5971187019
 20
-49.9849699565
  0
LINE
  5
37B
100
AcDbEntity
  8
RACCORDO
100
AcDbLine
 62
7
  6
CONTINUOUS
 10
16.0494066613
 20
40.3902322706
 11
5.3532376854
 21
47.9535658862
  0
LINE
  5
37C
100
AcDbEntity
  8
RACCORDO
100
AcDbLine
 62
7
  6
CONTINUOUS
 10
0.156034908
 20
51.6285432132
 11
-10.5401340679
 21
59.1918768289
  0
LWPOLYLINE
  5
37D
100
AcDbEntity
  8
RACCORDO
100
AcDbPolyline
 62
7
  6
CONTINUOUS
 90
13
 70
0
 10
-11.9373650233
 20
52.1002864648
 10
-11.9254863342
 20
52.1029034998
 10
-11.9131821182
 20
52.1040886978
 10
-11.9004524673
 20
52.1038420025
 10
-11.887230035
 20
52.1020645268
 10
-11.8735823224
 20
52.0988550635
 10
-11.8597116693
 20
52.0945100908
 10
-11.84562143
 20
52.089029858
 10
-11.8313083305
 20
52.0824140669
 10
-11.8169647426
 20
52.0749583901
 10
-11.8026547988
 20
52.0667613799
 10
-11.7883143971
 20
52.0577244654
 10
-11.773943545
 20
52.047847642
  0
LWPOLYLINE
  5
37E
100
AcDbEntity
  8
RACCORDO
100
AcDbPolyline
 62
250
  6
CONTINUOUS
 90
16
 70
0
 10
12.5056030627
 20
-58.8123152005
 10
12.4122873138
 20
-58.8751889838
 10
12.3127746801
 20
-58.9292687966
 10
12.2073911105
 20
-58.9752665118
 10
12.096215996
 20
-59.0144504149
 10
11.9797811053
 20
-59.0461693711
 10
11.8598973679
 20
-59.0681725752
 10
11.7385960689
 20
-59.0809729009
 10
11.6167809543
 20
-59.0853049044
 10
11.4955523146
 20
-59.0795184494
 10
11.3769256684
 20
-59.0644418524
 10
11.2621727105
 20
-59.0412174797
 10
11.1515478897
 20
-59.0084109697
 10
11.0461980078
 20
-58.9661537127
 10
10.9479582793
 20
-58.9165084993
 10
10.8580799827
 20
-58.8608349069
  0
LINE
  5
37F
100
AcDbEntity
  8
RACCORDO
100
AcDbLine
 62
250
  6
CONTINUOUS
 10
12.505575186
 20
-58.8123315614
 11
16.8967719204
 21
-56.2352092138
  0
LINE
  5
380
100
AcDbEntity
  8
RACCORDO
100
AcDbLine
 62
7
  6
CONTINUOUS
 10
12.310031061
 20
-59.216667689
 11
16.7199356675
 21
-56.6285659938
  0
ARC
  5
381
100
AcDbEntity
  8
RACCORDO
100
AcDbCircle
 62
7
  6
CONTINUOUS
 10
11.7026463351
 20
-58.1817359064
 40
1.2
100
AcDbArc
 50
234.7411120113
 51
300.4079833576
  0
ARC
  5
382
100
AcDbEntity
  8
RACCORDO
100
AcDbCircle
 62
7
  6
CONTINUOUS
 10
-14.4495517352
 20
55.0522165373
 40
1.2
100
AcDbArc
 50
130.0513455627
 51
175.163492807
  0
ARC
  5
383
100
AcDbEntity
  8
RACCORDO
100
AcDbCircle
 62
7
  6
CONTINUOUS
 10
-14.4495517352
 20
-39.689339308
 40
1.2
100
AcDbArc
 50
185.6422795886
 51
234.8406971328
  0
ELLIPSE
  5
384
100
AcDbEntity
  8
RACCORDO
100
AcDbEllipse
 62
7
  6
CONTINUOUS
 10
-10.5378067154
 20
58.3405385305
 30
0.0
 11
-0.6940708947
 21
0.9828275207
 31
0.0
 40
0.4987101158
 41
-0.9531889164
 42
0.0420428318
  0
ELLIPSE
  5
385
100
AcDbEntity
  8
RACCORDO
100
AcDbEllipse
 62
7
  6
CONTINUOUS
 10
16.0470793088
 20
-55.6320584536
 30
0.0
 11
-0.6940708947
 21
0.9828275207
 31
0.0
 40
0.4987101158
 41
-3.1836358335
 42
-2.5267242989
  0
ELLIPSE
  5
386
100
AcDbEntity
  8
RACCORDO
100
AcDbEllipse
 62
7
  6
CONTINUOUS
 10
16.0470793088
 20
39.5421853457
 30
0.0
 11
-0.6934737074
 21
0.9794492403
 31
0.0
 40
0.501292524
 41
-2.5255069615
 42
-0.9574496904
  0
ELLIPSE
  5
387
100
AcDbEntity
  8
0
100
AcDbEllipse
 62
7
  6
CONTINUOUS
 10
67.0893847555
 20
-10.9168279779
 30
0.0
 11
-0.1104303473
 21
98.0814475176
 31
0.0
 40
0.7320502981
 41
-4.3062791306
 42
-4.2942441945
  0
ELLIPSE
  5
388
100
AcDbEntity
  8
0
100
AcDbEllipse
 62
7
  6
CONTINUOUS
 10
60.8889208653
 20
-6.5324379146
 30
0.0
 11
64.7196749139
 21
64.5305560353
 31
0.0
 40
0.2655952353
 41
-3.8008215661
 42
-3.769673988
  0
ELLIPSE
  5
389
100
AcDbEntity
  8
0
100
AcDbEllipse
 62
7
  6
CONTINUOUS
 10
64.5550804061
 20
-9.1248041869
 30
0.0
 11
27.6176440696
 21
88.2341388722
 31
0.0
 40
0.6912146399
 41
-4.0411825189
 42
-4.0350626163
  0
ELLIPSE
  5
38A
100
AcDbEntity
  8
0
100
AcDbEllipse
 62
7
  6
CONTINUOUS
 10
64.5551136266
 20
-9.1248276773
 30
0.0
 11
27.6164114876
 21
88.2347231096
 31
0.0
 40
0.6912189722
 41
-4.056513298
 42
-4.0471095063
  0
ELLIPSE
  5
38B
100
AcDbEntity
  8
0
100
AcDbEllipse
 62
7
  6
CONTINUOUS
 10
61.7253176702
 20
-7.1238597671
 30
0.0
 11
31.4058005976
 21
86.3657582792
 31
0.0
 40
0.6762663434
 41
-4.0188491919
 42
-3.9983177798
  0
ELLIPSE
  5
38C
100
AcDbEntity
  8
0
100
AcDbEllipse
 62
7
  6
CONTINUOUS
 10
59.5865166123
 20
-5.6114990355
 30
0.0
 11
63.5334482733
 21
65.3711027307
 31
0.0
 40
0.2906993817
 41
-3.8011695016
 42
-3.7808771332
  0
ELLIPSE
  5
38D
100
AcDbEntity
  8
0
100
AcDbEllipse
 62
7
  6
CONTINUOUS
 10
58.9952507368
 20
-5.1934109255
 30
0.0
 11
27.6163507624
 21
88.2347518926
 31
0.0
 40
0.6912191856
 41
-4.0662225815
 42
-4.0350750035
  0
ELLIPSE
  5
38E
100
AcDbEntity
  8
0
100
AcDbEllipse
 62
7
  6
CONTINUOUS
 10
56.6005103737
 20
-3.5000737755
 30
0.0
 11
64.7196176156
 21
64.5305965318
 31
0.0
 40
0.265596453
 41
-3.8008214843
 42
-3.7793672313
  0
ELLIPSE
  5
38F
100
AcDbEntity
  8
RACCORDO
100
AcDbEllipse
 62
7
  6
CONTINUOUS
 10
-8.5590506598
 20
10.038286849
 30
0.0
 11
-0.1154974143
 21
0.1633048449
 31
0.0
 40
0.499974606
 41
0.6153600459
 42
2.1861563727
  0
ELLIPSE
  5
390
100
AcDbEntity
  8
RACCORDO
100
AcDbEllipse
 62
7
  6
CONTINUOUS
 10
-8.5590506598
 20
-30.2667996787
 30
0.0
 11
-0.1154974143
 21
0.1633048449
 31
0.0
 40
0.499974606
 41
0.6153600459
 42
2.1861563727
  0
ELLIPSE
  5
391
100
AcDbEntity
  8
RACCORDO
100
AcDbEllipse
 62
7
  6
CONTINUOUS
 10
-0.3601594551
 20
49.4257807949
 30
0.0
 11
0.4106541939
 21
0.6888051431
 31
0.0
 40
0.4540638227
 41
-1.077812606
 42
-0.6508950592
  0
ELLIPSE
  5
392
100
AcDbEntity
  8
0
100
AcDbEllipse
 62
7
  6
CONTINUOUS
 10
61.2849875217
 20
-6.8124993332
 30
0.0
 11
64.6114882728
 21
64.4235374417
 31
0.0
 40
0.2656058792
 41
-3.7878257269
 42
-3.781826787
  0
ELLIPSE
  5
393
100
AcDbEntity
  8
0
100
AcDbEllipse
 62
7
  6
CONTINUOUS
 10
64.9511294361
 20
-9.4048531417
 30
0.0
 11
27.5701114144
 21
88.0880754925
 31
0.0
 40
0.6912202019
 41
-4.0663753435
 42
-4.0351755615
  0
ELLIPSE
  5
394
100
AcDbEntity
  8
0
100
AcDbEllipse
 62
7
  6
CONTINUOUS
 10
61.2848988906
 20
-6.8124366616
 30
0.0
 11
64.6121264311
 21
64.4230864119
 31
0.0
 40
0.265592294
 41
-3.7737308367
 42
-3.769771751
  0
ELLIPSE
  5
395
100
AcDbEntity
  8
0
100
AcDbEllipse
 62
7
  6
CONTINUOUS
 10
67.5354015949
 20
-11.2322095096
 30
0.0
 11
-0.1097323749
 21
97.9181176401
 31
0.0
 40
0.7320503028
 41
-4.3061657601
 42
-4.2943374016
  0
ELLIPSE
  5
396
100
AcDbEntity
  8
0
100
AcDbEllipse
 62
7
  6
CONTINUOUS
 10
67.5354015949
 20
-11.2322095096
 30
0.0
 11
-0.1099152622
 21
98.0813145029
 31
0.0
 40
0.7320503028
 41
-4.3070235489
 42
-4.2942397255
  0
ELLIPSE
  5
397
100
AcDbEntity
  8
0
100
AcDbEllipse
 62
7
  6
CONTINUOUS
 10
61.2848988906
 20
-6.8124366616
 30
0.0
 11
64.7198133084
 21
64.5304582225
 31
0.0
 40
0.265592294
 41
-3.7757939776
 42
-3.769674075
  0
ELLIPSE
  5
398
100
AcDbEntity
  8
0
100
AcDbEllipse
 62
7
  6
CONTINUOUS
 10
64.9511294361
 20
-9.4048531417
 30
0.0
 11
27.6160616001
 21
88.2348889516
 31
0.0
 40
0.6912202019
 41
-4.0662254639
 42
-4.0350778857
  0
ELLIPSE
  5
399
100
AcDbEntity
  8
0
100
AcDbEllipse
 62
7
  6
CONTINUOUS
 10
61.2849875217
 20
-6.8124993332
 30
0.0
 11
64.7191740866
 21
64.5309100041
 31
0.0
 40
0.2656058792
 41
-3.7911127601
 42
-3.7817089685
  0
ELLIPSE
  5
39A
100
AcDbEntity
  8
0
100
AcDbEllipse
 62
7
  6
CONTINUOUS
 10
62.1213421126
 20
-7.4038913359
 30
0.0
 11
31.4053063674
 21
86.3660116688
 31
0.0
 40
0.6762685217
 41
-4.0294700696
 42
-4.0091777012
  0
ELLIPSE
  5
39B
100
AcDbEntity
  8
0
100
AcDbEllipse
 62
7
  6
CONTINUOUS
 10
59.9825306316
 20
-5.891523234
 30
0.0
 11
63.5333224863
 21
65.3711920906
 31
0.0
 40
0.2907020299
 41
-3.790553496
 42
-3.7700221617
  0
ELLIPSE
  5
39C
100
AcDbEntity
  8
0
100
AcDbEllipse
 62
7
  6
CONTINUOUS
 10
59.3912472614
 20
-5.4734227533
 30
0.0
 11
27.6164129968
 21
88.2347223942
 31
0.0
 40
0.6912189668
 41
-4.066221978
 42
-4.044767725
  0
ELLIPSE
  5
39D
100
AcDbEntity
  8
0
100
AcDbEllipse
 62
7
  6
CONTINUOUS
 10
56.996467314
 20
-3.7800576131
 30
0.0
 11
64.7198741407
 21
64.5304152283
 31
0.0
 40
0.2655910011
 41
-3.8008215015
 42
-3.7696740013
  0
ELLIPSE
  5
39E
100
AcDbEntity
  8
0
100
AcDbEllipse
 62
7
  6
CONTINUOUS
 10
56.996467314
 20
-3.7800576131
 30
0.0
 11
64.6121871621
 21
64.4230434892
 31
0.0
 40
0.2655910011
 41
-3.800971381
 42
-3.7697716772
  0
ELLIPSE
  5
39F
100
AcDbEntity
  8
0
100
AcDbEllipse
 62
7
  6
CONTINUOUS
 10
59.3912472614
 20
-5.4734227533
 30
0.0
 11
27.5704622264
 21
88.0879092122
 31
0.0
 40
0.6912189668
 41
-4.0663718575
 42
-4.0461771039
  0
ELLIPSE
  5
3A0
100
AcDbEntity
  8
0
100
AcDbEllipse
 62
7
  6
CONTINUOUS
 10
59.9825306316
 20
-5.891523234
 30
0.0
 11
63.4276098033
 21
65.2624213883
 31
0.0
 40
0.2907020299
 41
-3.7853976044
 42
-3.7701198377
  0
ELLIPSE
  5
3A1
100
AcDbEntity
  8
0
100
AcDbEllipse
 62
7
  6
CONTINUOUS
 10
62.1213421126
 20
-7.4038913359
 30
0.0
 11
31.3530512819
 21
86.2223078225
 31
0.0
 40
0.6762685217
 41
-4.0296199491
 42
-4.0108700227
  0
ENDSEC
  0
SECTION
  2
OBJECTS
  0
DICTIONARY
  5
C
100
AcDbDictionary
280
0
281
1
  3
ACAD_GROUP
350
D
  3
ACAD_MLINESTYLE
350
17
  3
ACAD_LAYOUT
350
1A
  3
ACAD_PLOTSETTINGS
350
19
  3
ACAD_PLOTSTYLENAME
350
E
  0
DICTIONARY
  5
D
102
{ACAD_REACTORS
330
C
102
}
100
AcDbDictionary
280
0
281
1
  0
ACDBDICTIONARYWDFLT
  5
E
102
{ACAD_REACTORS
330
C
102
}
100
AcDbDictionary
281
1
  3
Normal
350
F
100
AcDbDictionaryWithDefault
340
F
  0
DICTIONARY
  5
17
102
{ACAD_REACTORS
330
C
102
}
100
AcDbDictionary
280
0
281
1
  3
Standard
350
18
  0
DICTIONARY
  5
19
102
{ACAD_REACTORS
330
C
102
}
100
AcDbDictionary
281
1
  0
DICTIONARY
  5
1A
102
{ACAD_REACTORS
330
C
102
}
100
AcDbDictionary
281
1
  3
Model
350
3A2
  3
Layout1
350
3A3
  0
ACDBPLACEHOLDER
  5
F
102
{ACAD_REACTORS
330
E
102
}
  0
MLINESTYLE
  5
18
102
{ACAD_REACTORS
330
17
102
}
100
AcDbMlineStyle
  2
STANDARD
 70
0
  3

 62
256
 51
90.0
 52
90.0
 71
2
 49
0.5
 62
256
  6
BYLAYER
 49
-0.5
 62
256
  6
BYLAYER
  0
LAYOUT
  5
3A2
102
{ACAD_REACTORS
330
1A
102
}
100
AcDbPlotSettings
  1

  2
none_device
  4
ISO_A4_(297.00_x_210.00_MM)
  6

 40
0.0
 41
0.0
 42
0.0
 43
0.0
 44
297.0
 45
210.0
 46
0.0
 47
0.0
 48
0.0
 49
0.0
140
0.0
141
0.0
142
1.0
143
1.0
 70
1024
 72
1
 73
0
 74
0
  7

 75
0
147
1.0
148
0.0
149
0.0
100
AcDbLayout
  1
Model
 70
0
 71
0
 10
0.0
 20
0.0
 11
297.0
 21
210.0
 12
0.0
 22
0.0
 32
0.0
 14
0.0
 24
0.0
 34
0.0
 15
0.0
 25
0.0
 35
0.0
146
0.0
 13
0.0
 23
0.0
 33
0.0
 16
1.0
 26
0.0
 36
0.0
 17
0.0
 27
1.0
 37
0.0
 76
0
330
211
345
0
346
0
  0
LAYOUT
  5
3A3
102
{ACAD_REACTORS
330
1A
102
}
100
AcDbPlotSettings
  1

  2
none_device
  4
ISO_A4_(297.00_x_210.00_MM)
  6

 40
0.0
 41
0.0
 42
0.0
 43
0.0
 44
297.0
 45
210.0
 46
0.0
 47
0.0
 48
0.0
 49
0.0
140
0.0
141
0.0
142
1.0
143
1.0
 70
0
 72
1
 73
0
 74
0
  7

 75
0
147
1.0
148
0.0
149
0.0
100
AcDbLayout
  1
Layout1
 70
0
 71
1
 10
0.0
 20
0.0
 11
297.0
 21
210.0
 12
0.0
 22
0.0
 32
0.0
 14
0.0
 24
0.0
 34
0.0
 15
0.0
 25
0.0
 35
0.0
146
0.0
 13
0.0
 23
0.0
 33
0.0
 16
1.0
 26
0.0
 36
0.0
 17
0.0
 27
1.0
 37
0.0
 76
0
330
212
345
0
346
0
  0
ENDSEC
  0
EOF
