  0
SECTION
  2
HEADER
  9
$ACADVER
  1
AC1015
  9
$DWGCODEPAGE
  3
ANSI_1252
  9
$EXTMAX
 10
297.0
 20
210.0
 30
0.0
  9
$EXTMIN
 10
0.0
 20
0.0
 30
0.0
  9
$LIMMIN
 10
0.0
 20
0.0
  9
$LIMMAX
 10
297.0
 20
210.0
  9
$VIEWCTR
 10
148.5
 20
105.0
  9
$VIEWSIZE
 40
210.0
  9
$CLAYER
  8
0
  9
$LTSCALE
 40
16.335
  9
$CELTYPE
  6
BYLAYER
  9
$DIMSCALE
 40
1.0
  9
$DIMASZ
 40
3.0
  9
$DIMEXO
 40
1.85625
  9
$DIMDLI
 40
11.286
  9
$DIMEXE
 40
5.346
  9
$DIMCEN
 40
2.673
  9
$DIMLFAC
 40
1.0
  9
$DIMBLK
  1
_FILLED
  9
$DIMTXT
 40
3.0
  9
$DIMTOL
 70
1
  9
$DIMLIM
 70
0
  9
$DIMTFAC
 40
1.0
  9
$DIMTP
 40
0.01
  9
$DIMTM
 40
0.01
  9
$PDMODE
 70
3
  9
$PDSIZE
 40
3.0
  9
$HANDSEED
  5
261
  9
$TILEMODE
 70
1
  9
$MEASUREMENT
 70
1
  9
$INSUNITS
 70
4
  0
ENDSEC
  0
SECTION
  2
CLASSES
  0
CLASS
  1
ACDBDICTIONARYWDFLT
  2
AcDbDictionaryWithDefault
  3
AutoCAD 2000
 90
0
280
0
281
0
  0
CLASS
  1
ACDBPLACEHOLDER
  2
AcDbPlaceHolder
  3
AutoCAD 2000
 90
0
280
0
281
0
  0
CLASS
  1
LAYOUT
  2
AcDbLayout
  3
AutoCAD 2000
 90
0
280
0
281
0
  0
ENDSEC
  0
SECTION
  2
TABLES
  0
TABLE
  2
VPORT
  5
8
100
AcDbSymbolTable
 70
2
  0
VPORT
  5
1F4
100
AcDbSymbolTableRecord
100
AcDbViewportTableRecord
  2
*ACTIVE
 70
0
 10
0.0
 20
0.0
 11
1.0
 21
1.0
 12
148.5
 22
105.0
 13
0.0
 23
0.0
 14
1.0
 24
1.0
 15
0.0
 25
0.0
 16
0.0
 26
0.0
 36
1.0
 17
0.0
 27
0.0
 37
0.0
 40
210.0
 41
1.4142857143
 42
50.0
 43
0.0
 44
0.0
 50
0.0
 51
0.0
 71
0
 72
100
 73
1
 74
1
 75
0
 76
0
 77
0
 78
0
  0
ENDTAB
  0
TABLE
  2
LTYPE
  5
5
100
AcDbSymbolTable
 70
6
  0
LTYPE
  5
14
100
AcDbSymbolTableRecord
100
AcDbLinetypeTableRecord
  2
BYBLOCK
 70
0
  3

 72
65
 73
0
 40
0.0
  0
LTYPE
  5
15
100
AcDbSymbolTableRecord
100
AcDbLinetypeTableRecord
  2
BYLAYER
 70
0
  3

 72
65
 73
0
 40
0.0
  0
LTYPE
  5
16
100
AcDbSymbolTableRecord
100
AcDbLinetypeTableRecord
  2
CONTINUOUS
 70
64
  3
Solid line
 72
65
 73
0
 40
0.0
  0
LTYPE
  5
1F5
100
AcDbSymbolTableRecord
100
AcDbLinetypeTableRecord
  2
CENTER
 70
64
  3
____ _ ____ _ ____ _ ____ _ ____ _ ____ _ ____
 72
65
 73
4
 40
0.6
 49
0.375
 74
0
 49
-0.075
 74
0
 49
0.075
 74
0
 49
-0.075
 74
0
  0
LTYPE
  5
1F6
100
AcDbSymbolTableRecord
100
AcDbLinetypeTableRecord
  2
HIDDEN
 70
64
  3
- - - - - - - - - - - - - - - - - - - -
 72
65
 73
2
 40
0.2
 49
0.1
 74
0
 49
-0.1
 74
0
  0
LTYPE
  5
1F7
100
AcDbSymbolTableRecord
100
AcDbLinetypeTableRecord
  2
PHANTOM
 70
64
  3
_____ _ _ _____ _ _ _____ _ _ _____
 72
65
 73
6
 40
0.8
 49
0.45
 74
0
 49
-0.05
 74
0
 49
0.1
 74
0
 49
-0.05
 74
0
 49
0.1
 74
0
 49
-0.05
 74
0
  0
LTYPE
  5
1F8
100
AcDbSymbolTableRecord
100
AcDbLinetypeTableRecord
  2
DOT
 70
64
  3
. . . . . . . . . . . . . . . . . . . .
 72
65
 73
2
 40
0.2
 49
0.1
 74
0
 49
-0.1
 74
0
  0
LTYPE
  5
1F9
100
AcDbSymbolTableRecord
100
AcDbLinetypeTableRecord
  2
DASHED
 70
64
  3
- - - - - - - - - - - - - - - - - - - -
 72
65
 73
2
 40
0.2
 49
0.1
 74
0
 49
-0.1
 74
0
  0
ENDTAB
  0
TABLE
  2
LAYER
  5
2
100
AcDbSymbolTable
 70
36
  0
LAYER
  5
10
100
AcDbSymbolTableRecord
100
AcDbLayerTableRecord
  2
0
 70
0
 62
7
  6
CONTINUOUS
370
-3
390
F
  0
LAYER
  5
1FA
100
AcDbSymbolTableRecord
100
AcDbLayerTableRecord
  2
DEFAULT_1
 70
0
 62
7
  6
CENTER
370
-3
390
F
  0
LAYER
  5
1FB
100
AcDbSymbolTableRecord
100
AcDbLayerTableRecord
  2
DEFAULT_2
 70
0
 62
7
  6
HIDDEN
370
-3
390
F
  0
LAYER
  5
1FC
100
AcDbSymbolTableRecord
100
AcDbLayerTableRecord
  2
DEFAULT_3
 70
0
 62
7
  6
PHANTOM
370
-3
390
F
  0
LAYER
  5
1FD
100
AcDbSymbolTableRecord
100
AcDbLayerTableRecord
  2
ASSI
 70
0
 62
7
  6
CONTINUOUS
370
-3
390
F
  0
LAYER
  5
1FE
100
AcDbSymbolTableRecord
100
AcDbLayerTableRecord
  2
COORDINATE
 70
0
 62
7
  6
CONTINUOUS
370
-3
390
F
  0
LAYER
  5
1FF
100
AcDbSymbolTableRecord
100
AcDbLayerTableRecord
  2
COORD_ORIGINE
 70
0
 62
7
  6
CONTINUOUS
370
-3
390
F
  0
LAYER
  5
200
100
AcDbSymbolTableRecord
100
AcDbLayerTableRecord
  2
COPY_PUBLISH
 70
0
 62
7
  6
CONTINUOUS
370
-3
390
F
  0
LAYER
  5
201
100
AcDbSymbolTableRecord
100
AcDbLayerTableRecord
  2
COSMETIC
 70
0
 62
7
  6
CONTINUOUS
370
-3
390
F
  0
LAYER
  5
202
100
AcDbSymbolTableRecord
100
AcDbLayerTableRecord
  2
CURVE
 70
0
 62
7
  6
CONTINUOUS
370
-3
390
F
  0
LAYER
  5
203
100
AcDbSymbolTableRecord
100
AcDbLayerTableRecord
  2
DRAFT
 70
0
 62
7
  6
CONTINUOUS
370
-3
390
F
  0
LAYER
  5
204
100
AcDbSymbolTableRecord
100
AcDbLayerTableRecord
  2
IGES
 70
0
 62
7
  6
CONTINUOUS
370
-3
390
F
  0
LAYER
  5
205
100
AcDbSymbolTableRecord
100
AcDbLayerTableRecord
  2
IMPORT_IGES
 70
0
 62
7
  6
CONTINUOUS
370
-3
390
F
  0
LAYER
  5
206
100
AcDbSymbolTableRecord
100
AcDbLayerTableRecord
  2
NOTE
 70
0
 62
7
  6
CONTINUOUS
370
-3
390
F
  0
LAYER
  5
207
100
AcDbSymbolTableRecord
100
AcDbLayerTableRecord
  2
PIANI
 70
0
 62
7
  6
CONTINUOUS
370
-3
390
F
  0
LAYER
  5
208
100
AcDbSymbolTableRecord
100
AcDbLayerTableRecord
  2
PIANI_ORIGINE
 70
0
 62
7
  6
CONTINUOUS
370
-3
390
F
  0
LAYER
  5
209
100
AcDbSymbolTableRecord
100
AcDbLayerTableRecord
  2
RACCORDO
 70
0
 62
7
  6
CONTINUOUS
370
-3
390
F
  0
LAYER
  5
20A
100
AcDbSymbolTableRecord
100
AcDbLayerTableRecord
  2
SMUSSO
 70
0
 62
7
  6
CONTINUOUS
370
-3
390
F
  0
LAYER
  5
20B
100
AcDbSymbolTableRecord
100
AcDbLayerTableRecord
  2
SUPERFICI
 70
0
 62
7
  6
CONTINUOUS
370
-3
390
F
  0
LAYER
  5
20C
100
AcDbSymbolTableRecord
100
AcDbLayerTableRecord
  2
TRASH
 70
0
 62
7
  6
CONTINUOUS
370
-3
390
F
  0
ENDTAB
  0
TABLE
  2
STYLE
  5
3
100
AcDbSymbolTable
 70
1
  0
STYLE
  5
11
100
AcDbSymbolTableRecord
100
AcDbTextStyleTableRecord
  2
STANDARD
 70
0
 40
0.0
 41
0.8
 50
0.0
 71
0
 42
0.2
  3
txt
  4

  0
STYLE
  5
20D
100
AcDbSymbolTableRecord
100
AcDbTextStyleTableRecord
  2
TEXTSTYLE_1
 70
0
 40
0.0
 41
0.8
 50
0.0
 71
0
 42
0.2
  3
gdt
  4

  0
ENDTAB
  0
TABLE
  2
VIEW
  5
6
100
AcDbSymbolTable
 70
0
  0
ENDTAB
  0
TABLE
  2
UCS
  5
7
100
AcDbSymbolTable
 70
0
  0
ENDTAB
  0
TABLE
  2
APPID
  5
9
100
AcDbSymbolTable
 70
1
  0
APPID
  5
20E
100
AcDbSymbolTableRecord
100
AcDbRegAppTableRecord
  2
ACAD
 70
0
  0
ENDTAB
  0
TABLE
  2
BLOCK_RECORD
  5
1
100
AcDbSymbolTable
 70
0
  0
BLOCK_RECORD
  5
20F
100
AcDbSymbolTableRecord
100
AcDbBlockTableRecord
  2
*Model_Space
  0
BLOCK_RECORD
  5
210
100
AcDbSymbolTableRecord
100
AcDbBlockTableRecord
  2
*Paper_Space
  0
ENDTAB
  0
TABLE
  2
DIMSTYLE
  5
A
100
AcDbSymbolTable
 70
1
100
AcDbDimStyleTable
 71
0
  0
DIMSTYLE
105
211
100
AcDbSymbolTableRecord
100
AcDbDimStyleTableRecord
  2
STANDARD
 70
0
  3

  4

 40
1.0
 41
3.0
 42
0.0625
 43
0.38
 44
0.18
 45
0.0
 46
0.0
 47
0.01
 48
0.01
140
3.0
141
0.09
142
0.0
143
25.4
144
1.0
145
0.0
146
1.0
147
0.09
 71
1.0
 72
0.0
 73
0
 74
0
 75
0
 76
0
 77
1
 78
8
170
0
171
2
172
0
173
0
174
0
175
0
176
0
177
0
178
0
270
2
271
2
272
2
273
2
274
2
275
0
280
0
281
0
282
0
283
1
284
8
285
0
286
0
287
3
288
0
340
11
  0
ENDTAB
  0
ENDSEC
  0
SECTION
  2
BLOCKS
  0
BLOCK
  5
20
100
AcDbEntity
  8
0
100
AcDbBlockBegin
  2
*Model_Space
 70
0
 10
0.0
 20
0.0
 30
0.0
  3
*Model_Space
  1

  0
ENDBLK
  5
21
100
AcDbEntity
  8
0
100
AcDbBlockEnd
  0
BLOCK
  5
1C
100
AcDbEntity
  8
0
100
AcDbBlockBegin
  2
*Paper_Space
 70
0
 10
0.0
 20
0.0
 30
0.0
  3
*Paper_Space
  1

  0
ENDBLK
  5
1D
100
AcDbEntity
  8
0
100
AcDbBlockEnd
  0
ENDSEC
  0
SECTION
  2
ENTITIES
  0
LINE
  5
212
100
AcDbEntity
  8
RACCORDO
100
AcDbLine
 62
7
  6
CONTINUOUS
 10
-10.8412971849
 20
10.5599933017
 11
-7.1202899968
 21
12.5675620458
  0
LINE
  5
213
100
AcDbEntity
  8
RACCORDO
100
AcDbLine
 62
253
  6
CONTINUOUS
 10
-10.7256764085
 20
10.5549038705
 11
-7.005871749
 21
12.561823823
  0
LINE
  5
214
100
AcDbEntity
  8
RACCORDO
100
AcDbLine
 62
7
  6
CONTINUOUS
 10
6.9279281426
 20
-12.7548010402
 11
9.3273458172
 21
-12.1055338007
  0
LINE
  5
215
100
AcDbEntity
  8
RACCORDO
100
AcDbLine
 62
253
  6
CONTINUOUS
 10
7.0362927487
 20
-12.6033973356
 11
9.4109369074
 21
-11.9608336527
  0
LINE
  5
216
100
AcDbEntity
  8
DRAFT
100
AcDbLine
 62
7
  6
CONTINUOUS
 10
-4.5093675762
 20
11.3135717366
 11
-6.445096438
 21
10.1147662349
  0
LINE
  5
217
100
AcDbEntity
  8
DRAFT
100
AcDbLine
 62
7
  6
CONTINUOUS
 10
-4.5093675762
 20
10.3257374528
 11
-5.5625534605
 21
9.6734947462
  0
LWPOLYLINE
  5
218
100
AcDbEntity
  8
RACCORDO
100
AcDbPolyline
 62
7
  6
CONTINUOUS
 90
13
 70
0
 10
-10.7389518948
 20
-3.6967330386
 10
-10.7324722374
 20
-3.7643850789
 10
-10.7213881973
 20
-3.8293209539
 10
-10.7057300864
 20
-3.8913808148
 10
-10.6855916055
 20
-3.9502807391
 10
-10.6611795512
 20
-4.0055616407
 10
-10.6326864911
 20
-4.0569500267
 10
-10.6002659838
 20
-4.1043275765
 10
-10.5641956377
 20
-4.1474268165
 10
-10.5247848345
 20
-4.1860020127
 10
-10.4823493695
 20
-4.2198635746
 10
-10.4373136644
 20
-4.2488372916
 10
-10.4104554433
 20
-4.2632176533
  0
LINE
  5
219
100
AcDbEntity
  8
RACCORDO
100
AcDbLine
 62
7
  6
CONTINUOUS
 10
-10.7402374136
 20
-3.6689928362
 11
-10.7389518948
 21
-3.6967330386
  0
LWPOLYLINE
  5
21A
100
AcDbEntity
  8
RACCORDO
100
AcDbPolyline
 62
7
  6
CONTINUOUS
 90
10
 70
0
 10
-10.9725910917
 20
10.3397130511
 10
-10.9684077201
 20
8.8024184968
 10
-10.958745491
 20
7.2278321351
 10
-10.9436445548
 20
5.6561242342
 10
-10.9231051356
 20
4.0873271961
 10
-10.8971276165
 20
2.5214680124
 10
-10.8657123861
 20
0.9585719415
 10
-10.8288599281
 20
-0.601333606
 10
-10.7865710614
 20
-2.1582160309
 10
-10.7402425601
 20
-3.6690198467
  0
LWPOLYLINE
  5
21B
100
AcDbEntity
  8
RACCORDO
100
AcDbPolyline
 62
7
  6
CONTINUOUS
 90
11
 70
0
 10
6.5033833111
 20
-12.7201375431
 10
6.510532614
 20
-12.7236454321
 10
6.5556558824
 20
-12.7429135226
 10
6.6030309439
 20
-12.7582351244
 10
6.6521943298
 20
-12.7693413375
 10
6.7028647268
 20
-12.7761012897
 10
6.7547801093
 20
-12.7784124943
 10
6.8075171526
 20
-12.7762062448
 10
6.8607832944
 20
-12.7694932233
 10
6.9143841131
 20
-12.7583108535
 10
6.9278307199
 20
-12.7548156449
  0
LINE
  5
21C
100
AcDbEntity
  8
RACCORDO
100
AcDbLine
 62
7
  6
CONTINUOUS
 10
6.5032587425
 20
-12.7200868906
 11
6.503333823
 21
-12.7201244209
  0
LINE
  5
21D
100
AcDbEntity
  8
RACCORDO
100
AcDbLine
 62
7
  6
CONTINUOUS
 10
-10.4110726486
 20
-4.262921195
 11
6.5032881043
 21
-12.7201015714
  0
LINE
  5
21E
100
AcDbEntity
  8
RACCORDO
100
AcDbLine
 62
253
  6
CONTINUOUS
 10
-10.6670110876
 20
-3.7578357083
 11
6.2405270478
 21
-12.211604776
  0
LINE
  5
21F
100
AcDbEntity
  8
RACCORDO
100
AcDbLine
 62
7
  6
CONTINUOUS
 10
9.2341602111
 20
-12.3400964408
 11
8.9624901828
 21
-12.2042614266
  0
LINE
  5
220
100
AcDbEntity
  8
DRAFT
100
AcDbLine
 62
7
  6
CONTINUOUS
 10
-2.3628569281
 20
3.9249225782
 11
-2.8144738503
 21
3.6865096961
  0
LINE
  5
221
100
AcDbEntity
  8
DRAFT
100
AcDbLine
 62
7
  6
CONTINUOUS
 10
-4.5093675762
 20
11.3135717366
 11
-4.5093675762
 21
10.3257374528
  0
LINE
  5
222
100
AcDbEntity
  8
DRAFT
100
AcDbLine
 62
7
  6
CONTINUOUS
 10
-1.2622034078
 20
1.7513766226
 11
-1.7351309007
 21
1.5278237951
  0
LINE
  5
223
100
AcDbEntity
  8
DRAFT
100
AcDbLine
 62
7
  6
CONTINUOUS
 10
7.5290772769
 20
5.29434931
 11
5.2221654515
 21
4.2811352902
  0
LINE
  5
224
100
AcDbEntity
  8
RACCORDO
100
AcDbLine
 62
253
  6
CONTINUOUS
 10
10.0255814497
 20
4.0460972236
 11
6.1736109633
 21
2.1052601846
  0
LINE
  5
225
100
AcDbEntity
  8
RACCORDO
100
AcDbLine
 62
253
  6
CONTINUOUS
 10
10.202331221
 20
3.741248962
 11
6.3503607362
 21
1.8004119237
  0
LINE
  5
226
100
AcDbEntity
  8
RACCORDO
100
AcDbLine
 62
7
  6
CONTINUOUS
 10
10.4901109714
 20
3.0120951017
 11
10.4143991969
 21
2.9771288953
  0
LINE
  5
227
100
AcDbEntity
  8
RACCORDO
100
AcDbLine
 62
253
  6
CONTINUOUS
 10
5.9999195954
 20
1.8016605713
 11
-10.8993677767
 21
10.2513042574
  0
LINE
  5
228
100
AcDbEntity
  8
RACCORDO
100
AcDbLine
 62
253
  6
CONTINUOUS
 10
6.1736109633
 20
2.1052601846
 11
-10.7256764085
 21
10.5549038705
  0
LINE
  5
229
100
AcDbEntity
  8
DRAFT
100
AcDbLine
 62
7
  6
CONTINUOUS
 10
5.2221654515
 20
4.2811352902
 11
-6.445096438
 21
10.1147662349
  0
LINE
  5
22A
100
AcDbEntity
  8
RACCORDO
100
AcDbLine
 62
253
  6
CONTINUOUS
 10
10.4143991969
 20
2.9771288953
 11
10.2076403092
 21
3.0805083391
  0
LINE
  5
22B
100
AcDbEntity
  8
DRAFT
100
AcDbLine
 62
7
  6
CONTINUOUS
 10
10.4901109714
 20
3.0120951017
 11
10.202331221
 21
3.1559849769
  0
LINE
  5
22C
100
AcDbEntity
  8
RACCORDO
100
AcDbLine
 62
7
  6
CONTINUOUS
 10
10.0255814497
 20
4.0460972236
 11
7.5290772769
 21
5.29434931
  0
LINE
  5
22D
100
AcDbEntity
  8
RACCORDO
100
AcDbLine
 62
7
  6
CONTINUOUS
 10
-4.5093675762
 20
11.3135717366
 11
-7.005871749
 21
12.561823823
  0
LINE
  5
22E
100
AcDbEntity
  8
RACCORDO
100
AcDbLine
 62
7
  6
CONTINUOUS
 10
9.4109369074
 20
-11.9608336527
 11
9.4109369074
 21
-12.2120031687
  0
LINE
  5
22F
100
AcDbEntity
  8
RACCORDO
100
AcDbLine
 62
7
  6
CONTINUOUS
 10
10.202331221
 20
3.1345011145
 11
10.202331221
 21
3.741248962
  0
LINE
  5
230
100
AcDbEntity
  8
DRAFT
100
AcDbLine
 62
7
  6
CONTINUOUS
 10
10.4901109714
 20
3.0120951017
 11
10.4901109714
 21
-5.3270031283
  0
LINE
  5
231
100
AcDbEntity
  8
RACCORDO
100
AcDbLine
 62
7
  6
CONTINUOUS
 10
9.9339637207
 20
-11.9649569122
 11
10.4901109714
 21
-5.3270031283
  0
LINE
  5
232
100
AcDbEntity
  8
RACCORDO
100
AcDbLine
 62
253
  6
CONTINUOUS
 10
9.4109369074
 20
-12.2120031687
 11
9.9339637207
 21
-11.9649569122
  0
LINE
  5
233
100
AcDbEntity
  8
RACCORDO
100
AcDbLine
 62
7
  6
CONTINUOUS
 10
9.3440687287
 20
-12.3481266781
 11
9.8523857349
 21
-12.1080284455
  0
ARC
  5
234
100
AcDbEntity
  8
RACCORDO
100
AcDbCircle
 62
253
  6
CONTINUOUS
 10
437.4129488683
 20
10.6774877642
 40
448.3125442877
100
AcDbArc
 50
180.0544676289
 51
181.8335679039
  0
ARC
  5
235
100
AcDbEntity
  8
RACCORDO
100
AcDbCircle
 62
253
  6
CONTINUOUS
 10
436.9769253224
 20
2.1903877512
 40
430.9770748538
100
AcDbArc
 50
180.0516789074
 51
181.915013677
  0
ARC
  5
236
100
AcDbEntity
  8
RACCORDO
100
AcDbCircle
 62
253
  6
CONTINUOUS
 10
437.0696454048
 20
2.1889116115
 40
430.7193537598
100
AcDbArc
 50
180.0516795677
 51
181.9150326979
  0
ARC
  5
237
100
AcDbEntity
  8
RACCORDO
100
AcDbCircle
 62
7
  6
CONTINUOUS
 10
-1.8140729225
 20
2.5471349444
 40
1.1007054639
100
AcDbArc
 50
237.1726665364
 51
240.9484598453
  0
ARC
  5
238
100
AcDbEntity
  8
RACCORDO
100
AcDbCircle
 62
7
  6
CONTINUOUS
 10
-1.847480114
 20
2.4875883063
 40
1.0324284262
100
AcDbArc
 50
240.9644641986
 51
243.4252663163
  0
ARC
  5
239
100
AcDbEntity
  8
DRAFT
100
AcDbCircle
 62
7
  6
CONTINUOUS
 10
-1.7099026837
 20
2.182806005
 40
0.7026651541
100
AcDbArc
 50
259.551408176
 51
262.8975864568
  0
ARC
  5
23A
100
AcDbEntity
  8
DRAFT
100
AcDbCircle
 62
7
  6
CONTINUOUS
 10
-2.3636355213
 20
3.3550754914
 40
0.6136749686
100
AcDbArc
 50
142.6964001419
 51
148.683328854
  0
ARC
  5
23B
100
AcDbEntity
  8
RACCORDO
100
AcDbCircle
 62
253
  6
CONTINUOUS
 10
-10.2449633647
 20
-3.9321766176
 40
0.370060773
100
AcDbArc
 50
241.2820056394
 51
243.3329022663
  0
ARC
  5
23C
100
AcDbEntity
  8
RACCORDO
100
AcDbCircle
 62
7
  6
CONTINUOUS
 10
-10.722590937
 20
10.3399728061
 40
0.2500003835
100
AcDbArc
 50
118.347908431
 51
180.0756621174
  0
SPLINE
  5
23D
100
AcDbEntity
  8
RACCORDO
100
AcDbSpline
 62
7
  6
CONTINUOUS
 70
0
 71
3
 72
10
 73
6
 74
4
 42
0.0000001
 43
0.0000001
 44
0.0000000001
 12
0.5309507646
 22
-0.2654753776
 32
0.0
 13
0.5366819963
 23
0.2536896016
 33
0.0
 40
0.0
 40
0.0
 40
0.0
 40
0.0
 40
0.3683960887
 40
0.69741576
 40
1.0
 40
1.0
 40
1.0
 40
1.0
 10
-2.3093521882
 20
1.5642342885
 30
0.0
 10
-2.2441521265
 20
1.5316342583
 30
0.0
 10
-2.1130668736
 20
1.4830546317
 30
0.0
 10
-1.9127192039
 20
1.4688522207
 30
0.0
 10
-1.7892612833
 20
1.502236361
 30
0.0
 10
-1.7351307786
 20
1.5278238528
 30
0.0
 11
-2.3093521882
 21
1.5642342885
 31
0.0
 11
-2.1032548415
 21
1.4911030795
 31
0.0
 11
-1.9082593968
 21
1.4799702934
 31
0.0
 11
-1.7351307786
 21
1.5278238528
 31
0.0
  0
SPLINE
  5
23E
100
AcDbEntity
  8
RACCORDO
100
AcDbSpline
 62
7
  6
CONTINUOUS
 70
0
 71
3
 72
14
 73
10
 74
8
 42
0.0000001
 43
0.0000001
 44
0.0000000001
 12
-2.1334127319
 22
-1.1262489471
 32
0.0
 13
2.0328953942
 23
-1.3102034695
 33
0.0
 40
0.0
 40
0.0
 40
0.0
 40
0.0
 40
0.1126354234
 40
0.2431064815
 40
0.3946442942
 40
0.5607875776
 40
0.7319683022
 40
0.897607205
 40
1.0
 40
1.0
 40
1.0
 40
1.0
 10
-2.8144736915
 20
3.68650978
 30
0.0
 10
-2.8945729736
 20
3.6442246043
 30
0.0
 10
-3.043356091
 20
3.5027852016
 30
0.0
 10
-3.1511464791
 20
3.1953749336
 30
0.0
 10
-3.1524501596
 20
2.8301797594
 30
0.0
 10
-3.0551973415
 20
2.4457567779
 30
0.0
 10
-2.8729729177
 20
2.08117434
 30
0.0
 10
-2.6497994367
 20
1.8040053969
 30
0.0
 10
-2.480160038
 20
1.6669217132
 30
0.0
 10
-2.4107754242
 20
1.6222032481
 30
0.0
 11
-2.8144736915
 21
3.68650978
 31
0.0
 11
-3.0147560311
 21
3.502873255
 31
0.0
 11
-3.129081117
 21
3.2096158314
 31
0.0
 11
-3.1378171331
 21
2.8441437678
 31
0.0
 11
-3.0428311668
 21
2.4547501449
 31
0.0
 11
-2.8582789622
 21
2.0853186218
 31
0.0
 11
-2.6048893616
 21
1.7763372113
 31
0.0
 11
-2.4107754242
 21
1.6222032481
 31
0.0
  0
SPLINE
  5
23F
100
AcDbEntity
  8
RACCORDO
100
AcDbSpline
 62
253
  6
CONTINUOUS
 70
0
 71
3
 72
20
 73
16
 74
14
 42
0.0000001
 43
0.0000001
 44
0.0000000001
 12
2.3096192904
 22
1.1011434821
 32
0.0
 13
-2.2752317028
 23
1.13761587
 33
0.0
 40
0.0
 40
0.0
 40
0.0
 40
0.0
 40
0.0913253166
 40
0.1944753298
 40
0.300071473
 40
0.4040895859
 40
0.5028558466
 40
0.5939847407
 40
0.6762969559
 40
0.7496288086
 40
0.81425267
 40
0.8708004493
 40
0.9200563031
 40
0.9628161743
 40
1.0
 40
1.0
 40
1.0
 40
1.0
 10
-1.7351386244
 20
1.5278540961
 30
0.0
 10
-1.66482972
 20
1.5613748551
 30
0.0
 10
-1.5338766344
 20
1.673793594
 30
0.0
 10
-1.4317764522
 20
1.9136232028
 30
0.0
 10
-1.4033094685
 20
2.1796739919
 30
0.0
 10
-1.4293407512
 20
2.4412649965
 30
0.0
 10
-1.4923932192
 20
2.6831943044
 30
0.0
 10
-1.5788208938
 20
2.897800205
 30
0.0
 10
-1.6782937334
 20
3.082333654
 30
0.0
 10
-1.7833413644
 20
3.2371294603
 30
0.0
 10
-1.888787704
 20
3.364260094
 30
0.0
 10
-1.9911271522
 20
3.4665771421
 30
0.0
 10
-2.088118436
 20
3.5472372154
 30
0.0
 10
-2.1784776985
 20
3.6094312839
 30
0.0
 10
-2.2376643001
 20
3.6427000321
 30
0.0
 10
-2.2658649065
 20
3.6568003356
 30
0.0
 11
-1.7351386244
 21
1.5278540961
 31
0.0
 11
-1.5561249515
 21
1.6764437625
 31
0.0
 11
-1.445312448
 21
1.914288124
 31
0.0
 11
-1.4124979484
 21
2.1808902741
 31
0.0
 11
-1.4367264728
 21
2.444378536
 31
0.0
 11
-1.4993216136
 21
2.687696273
 31
0.0
 11
-1.5857182506
 21
2.9028070084
 31
0.0
 11
-1.6851268404
 21
3.0870890795
 31
0.0
 11
-1.7900366702
 21
3.2413334026
 31
0.0
 11
-1.8951772634
 21
3.3677030872
 31
0.0
 11
-1.9970887318
 21
3.4692194514
 31
0.0
 11
-2.0935858957
 21
3.549141149
 31
0.0
 11
-2.1833146298
 21
3.6106236463
 31
0.0
 11
-2.2658649065
 21
3.6568003356
 31
0.0
  0
SPLINE
  5
240
100
AcDbEntity
  8
RACCORDO
100
AcDbSpline
 62
253
  6
CONTINUOUS
 70
0
 71
3
 72
8
 73
4
 74
2
 42
0.0000001
 43
0.0000001
 44
0.0000000001
 12
0.0835988337
 22
-0.0417994168
 32
0.0
 13
0.0882735387
 23
-0.032464483
 33
0.0
 40
0.0
 40
0.0
 40
0.0
 40
0.0
 40
1.0
 40
1.0
 40
1.0
 40
1.0
 10
-2.3348981703
 20
1.6088607622
 30
0.0
 10
-2.3070318925
 20
1.5949276233
 30
0.0
 10
-2.2783005851
 20
1.5823024191
 30
0.0
 10
-2.2488760722
 20
1.5714809248
 30
0.0
 11
-2.3348981703
 21
1.6088607622
 31
0.0
 11
-2.2488760722
 21
1.5714809248
 31
0.0
  0
SPLINE
  5
241
100
AcDbEntity
  8
RACCORDO
100
AcDbSpline
 62
253
  6
CONTINUOUS
 70
0
 71
3
 72
10
 73
6
 74
4
 42
0.0000001
 43
0.0000001
 44
0.0000000001
 12
0.4497329471
 22
-0.165398916
 32
0.0
 13
0.3975809252
 23
0.2706053485
 33
0.0
 40
0.0
 40
0.0
 40
0.0
 40
0.0
 40
0.3604798126
 40
0.8430695357
 40
1.0
 40
1.0
 40
1.0
 40
1.0
 10
-2.2488760722
 20
1.5714809248
 30
0.0
 10
-2.1948361894
 20
1.5516066014
 30
0.0
 10
-2.0629824772
 20
1.51935418
 30
0.0
 10
-1.8983212781
 20
1.5404944071
 30
0.0
 10
-1.8088237538
 20
1.5907190701
 30
0.0
 10
-1.7880262341
 20
1.6048744777
 30
0.0
 11
-2.2488760722
 21
1.5714809248
 31
0.0
 11
-2.0808063611
 21
1.5331805806
 31
0.0
 11
-1.853698758
 21
1.5682802309
 31
0.0
 11
-1.7880262341
 21
1.6048744777
 31
0.0
  0
SPLINE
  5
242
100
AcDbEntity
  8
RACCORDO
100
AcDbSpline
 62
253
  6
CONTINUOUS
 70
0
 71
3
 72
20
 73
16
 74
14
 42
0.0000001
 43
0.0000001
 44
0.0000000001
 12
1.9147547356
 22
1.3032387614
 32
0.0
 13
-2.0512188492
 23
1.0256094246
 33
0.0
 40
0.0
 40
0.0
 40
0.0
 40
0.0
 40
0.0662565476
 40
0.172252553
 40
0.2807617212
 40
0.3876493116
 40
0.4891401078
 40
0.5827829581
 40
0.667365994
 40
0.7427209878
 40
0.8091277958
 40
0.8672357412
 40
0.9178505631
 40
0.9617902467
 40
1.0
 40
1.0
 40
1.0
 40
1.0
 10
-1.7880262341
 20
1.6048744777
 30
0.0
 10
-1.745737888
 20
1.6336571781
 30
0.0
 10
-1.6483097766
 20
1.7281655346
 30
0.0
 10
-1.5621888362
 20
1.9304713822
 30
0.0
 10
-1.535815575
 20
2.1769438327
 30
0.0
 10
-1.5599319965
 20
2.4192852824
 30
0.0
 10
-1.6183437277
 20
2.643411877
 30
0.0
 10
-1.6984111864
 20
2.8422258274
 30
0.0
 10
-1.7905637249
 20
3.0131805443
 30
0.0
 10
-1.8878811378
 20
3.1565859638
 30
0.0
 10
-1.9855680617
 20
3.2743620017
 30
0.0
 10
-2.080376698
 20
3.3691505072
 30
0.0
 10
-2.1702311276
 20
3.4438752662
 30
0.0
 10
-2.2539411536
 20
3.5014933902
 30
0.0
 10
-2.3087726483
 20
3.5323141731
 30
0.0
 10
-2.3348981703
 20
3.5453769341
 30
0.0
 11
-1.7880262341
 21
1.6048744777
 31
0.0
 11
-1.6773843466
 21
1.7107429428
 31
0.0
 11
-1.5747278595
 21
1.9310870192
 31
0.0
 11
-1.544328196
 21
2.1780707911
 31
0.0
 11
-1.5667739596
 21
2.4221697531
 31
0.0
 11
-1.624762333
 21
2.6475824917
 31
0.0
 11
-1.7048009039
 21
2.8468641664
 31
0.0
 11
-1.7968940002
 21
3.0175859995
 31
0.0
 11
-1.8940837437
 21
3.1604805375
 31
0.0
 11
-1.9914874072
 21
3.2775516646
 31
0.0
 11
-2.0858996648
 21
3.3715983302
 31
0.0
 11
-2.1752961535
 21
3.4456391795
 31
0.0
 11
-2.2584222372
 21
3.5025979753
 31
0.0
 11
-2.3348981703
 21
3.5453769341
 31
0.0
  0
SPLINE
  5
243
100
AcDbEntity
  8
RACCORDO
100
AcDbSpline
 62
253
  6
CONTINUOUS
 70
0
 71
3
 72
22
 73
18
 74
16
 42
0.0000001
 43
0.0000001
 44
0.0000000001
 12
-2.5607350466
 22
1.2803675233
 32
0.0
 13
2.5607350466
 23
-1.2803675233
 33
0.0
 40
0.0
 40
0.0
 40
0.0
 40
0.0
 40
0.0926031929
 40
0.1728708975
 40
0.252045775
 40
0.3369516027
 40
0.4238704212
 40
0.5094903106
 40
0.590787205
 40
0.6657976871
 40
0.733551015
 40
0.7939124321
 40
0.8471061098
 40
0.8936521728
 40
0.9341960337
 40
0.9693929376
 40
1.0
 40
1.0
 40
1.0
 40
1.0
 10
-2.3348981703
 20
3.5453769341
 30
0.0
 10
-2.4139422508
 20
3.5848989743
 30
0.0
 10
-2.574493766
 20
3.6390341519
 30
0.0
 10
-2.824017066
 20
3.6069974636
 30
0.0
 10
-3.011491662
 20
3.4495515545
 30
0.0
 10
-3.1076082536
 20
3.2237661025
 30
0.0
 10
-3.1339814296
 20
2.9772935149
 30
0.0
 10
-3.1098651391
 20
2.7349520508
 30
0.0
 10
-3.0514531978
 20
2.5108255112
 30
0.0
 10
-2.9713856566
 20
2.312011611
 30
0.0
 10
-2.879232975
 20
2.1410569658
 30
0.0
 10
-2.7819154727
 20
1.9976515941
 30
0.0
 10
-2.6842284728
 20
1.8798755907
 30
0.0
 10
-2.5894197548
 20
1.7850871458
 30
0.0
 10
-2.4995653185
 20
1.7103623519
 30
0.0
 10
-2.4158552065
 20
1.652744313
 30
0.0
 10
-2.3610236962
 20
1.6219235251
 30
0.0
 10
-2.3348981703
 20
1.6088607622
 30
0.0
 11
-2.3348981703
 21
3.5453769341
 31
0.0
 11
-2.5889887946
 21
3.6210577083
 31
0.0
 11
-2.8160979053
 21
3.5859573041
 31
0.0
 11
-2.9924122577
 21
3.4434946218
 31
0.0
 11
-3.0950691589
 21
3.2231503383
 31
0.0
 11
-3.1254688471
 21
2.976166554
 31
0.0
 11
-3.1030231146
 21
2.7320675764
 31
0.0
 11
-3.0450346103
 21
2.5066549033
 31
0.0
 11
-2.9649959263
 21
2.3073732852
 31
0.0
 11
-2.8729027049
 21
2.1366515147
 31
0.0
 11
-2.7757128664
 21
1.9937570241
 31
0.0
 11
-2.6783091227
 21
1.8766859371
 31
0.0
 11
-2.5838967961
 21
1.782639306
 31
0.0
 11
-2.4945002854
 21
1.7085984678
 31
0.0
 11
-2.4113741234
 21
1.6516397111
 31
0.0
 11
-2.3348981703
 21
1.6088607622
 31
0.0
  0
SPLINE
  5
244
100
AcDbEntity
  8
RACCORDO
100
AcDbSpline
 62
253
  6
CONTINUOUS
 70
0
 71
3
 72
10
 73
6
 74
4
 42
0.0000001
 43
0.0000001
 44
0.0000000001
 12
-0.5066545929
 22
0.2533273006
 32
0.0
 13
-0.5030012107
 23
-0.268775241
 33
0.0
 40
0.0
 40
0.0
 40
0.0
 40
0.0
 40
0.5052042006
 40
0.9431177079
 40
1.0
 40
1.0
 40
1.0
 40
1.0
 10
-2.2658649065
 20
3.6568003356
 30
0.0
 10
-2.3511862493
 20
3.6994610077
 30
0.0
 10
-2.5244911671
 20
3.7578815722
 30
0.0
 10
-2.7203677374
 20
3.7327484064
 30
0.0
 10
-2.8048817874
 20
3.6915035946
 30
0.0
 10
-2.8144190747
 20
3.6864074107
 30
0.0
 11
-2.2658649065
 21
3.6568003356
 31
0.0
 11
-2.5401360682
 21
3.7384845463
 31
0.0
 11
-2.78528618
 21
3.7006059543
 31
0.0
 11
-2.8144190747
 21
3.6864074107
 31
0.0
  0
SPLINE
  5
245
100
AcDbEntity
  8
DRAFT
100
AcDbSpline
 62
7
  6
CONTINUOUS
 70
0
 71
3
 72
18
 73
14
 74
12
 42
0.0000001
 43
0.0000001
 44
0.0000000001
 12
2.4354104948
 22
1.2891825476
 32
0.0
 13
-2.4531275979
 23
1.226563799
 33
0.0
 40
0.0
 40
0.0
 40
0.0
 40
0.0
 40
0.0586239422
 40
0.1287369961
 40
0.2076364478
 40
0.2955840785
 40
0.3921028696
 40
0.4955278479
 40
0.6017212965
 40
0.7091477205
 40
0.8125165559
 40
0.9106444314
 40
1.0
 40
1.0
 40
1.0
 40
1.0
 10
-1.4753425651
 20
1.5386552614
 30
0.0
 10
-1.4277514438
 20
1.5638475825
 30
0.0
 10
-1.332479552
 20
1.6369202759
 30
0.0
 10
-1.2262513055
 20
1.7980659369
 30
0.0
 10
-1.161604617
 20
2.0071947423
 30
0.0
 10
-1.1428034687
 20
2.2488066061
 30
0.0
 10
-1.1697441323
 20
2.5118197743
 30
0.0
 10
-1.2408636961
 20
2.7835400703
 30
0.0
 10
-1.3528268596
 20
3.0518530771
 30
0.0
 10
-1.4997451844
 20
3.3026854639
 30
0.0
 10
-1.6753138395
 20
3.525165462
 30
0.0
 10
-1.8702360412
 20
3.7075652396
 30
0.0
 10
-2.0150250104
 20
3.8017374148
 30
0.0
 10
-2.0880918808
 20
3.8382708501
 30
0.0
 11
-1.4753425651
 21
1.5386552614
 31
0.0
 11
-1.3470806149
 21
1.6359645844
 31
0.0
 11
-1.2386240447
 21
1.7947586883
 31
0.0
 11
-1.1715884904
 21
2.0005096102
 31
0.0
 11
-1.1503325182
 21
2.240783442
 31
0.0
 11
-1.1755617922
 21
2.5042986172
 31
0.0
 11
-1.2463866165
 21
2.7789761746
 31
0.0
 11
-1.3582160588
 21
3.0479063655
 31
0.0
 11
-1.5073656801
 21
3.302002695
 31
0.0
 11
-1.6836934483
 21
3.5240051736
 31
0.0
 11
-1.8813588525
 21
3.7066555395
 31
0.0
 11
-2.0880918808
 21
3.8382708501
 31
0.0
  0
SPLINE
  5
246
100
AcDbEntity
  8
DRAFT
100
AcDbSpline
 62
7
  6
CONTINUOUS
 70
0
 71
3
 72
10
 73
6
 74
4
 42
0.0000001
 43
0.0000001
 44
0.0000000001
 12
-0.5326592145
 22
0.2663296072
 32
0.0
 13
-0.5408030121
 23
-0.2556892649
 33
0.0
 40
0.0
 40
0.0
 40
0.0
 40
0.0
 40
0.3685097703
 40
0.699068691
 40
1.0
 40
1.0
 40
1.0
 40
1.0
 10
-2.0880918808
 20
3.8382708501
 30
0.0
 10
-2.1535219224
 20
3.8709858708
 30
0.0
 10
-2.2847020864
 20
3.9207916451
 30
0.0
 10
-2.4854927443
 20
3.93885446
 30
0.0
 10
-2.6096222221
 20
3.9069206248
 30
0.0
 10
-2.6638704083
 20
3.881272323
 30
0.0
 11
-2.0880918808
 21
3.8382708501
 31
0.0
 11
-2.2943762538
 21
3.9131642665
 31
0.0
 11
-2.4907106746
 21
3.9275139878
 31
0.0
 11
-2.6638704083
 21
3.881272323
 31
0.0
  0
SPLINE
  5
247
100
AcDbEntity
  8
DRAFT
100
AcDbSpline
 62
7
  6
CONTINUOUS
 70
0
 71
3
 72
9
 73
5
 74
3
 42
0.0000001
 43
0.0000001
 44
0.0000000001
 12
-0.2217832588
 22
-0.1048581408
 32
0.0
 13
-0.1487435052
 23
-0.1948431773
 33
0.0
 40
0.0
 40
0.0
 40
0.0
 40
0.0
 40
0.7453588767
 40
1.0
 40
1.0
 40
1.0
 40
1.0
 10
-2.6638704083
 20
3.881272323
 30
0.0
 10
-2.7189731152
 20
3.8552200077
 30
0.0
 10
-2.7860969182
 20
3.8057932294
 30
0.0
 10
-2.8391489143
 20
3.743524436
 30
0.0
 10
-2.8517743187
 20
3.7269860741
 30
0.0
 11
-2.6638704083
 21
3.881272323
 31
0.0
 11
-2.811218029
 21
3.7744041237
 31
0.0
 11
-2.8517743187
 21
3.7269860741
 31
0.0
  0
SPLINE
  5
248
100
AcDbEntity
  8
DRAFT
100
AcDbSpline
 62
7
  6
CONTINUOUS
 70
0
 71
3
 72
9
 73
5
 74
3
 42
0.0000001
 43
0.0000001
 44
0.0000000001
 12
-0.0393157115
 22
-0.0644858863
 32
0.0
 13
-0.0319772713
 23
-0.0683203875
 33
0.0
 40
0.0
 40
0.0
 40
0.0
 40
0.0
 40
0.8810900114
 40
1.0
 40
1.0
 40
1.0
 40
1.0
 10
-2.8879027301
 20
3.6740439237
 30
0.0
 10
-2.8994496237
 20
3.6551046336
 30
0.0
 10
-2.9114546179
 20
3.6329299283
 30
0.0
 10
-2.9222554376
 20
3.6102184298
 30
0.0
 10
-2.9235229099
 20
3.6075104376
 30
0.0
 11
-2.8879027301
 21
3.6740439237
 31
0.0
 11
-2.9196697604
 21
3.6156120878
 31
0.0
 11
-2.9235229099
 21
3.6075104376
 31
0.0
  0
SPLINE
  5
249
100
AcDbEntity
  8
DRAFT
100
AcDbSpline
 62
7
  6
CONTINUOUS
 70
0
 71
3
 72
10
 73
6
 74
4
 42
0.0000001
 43
0.0000001
 44
0.0000000001
 12
0.3283788021
 22
-0.0408010067
 32
0.0
 13
0.2925471435
 23
0.1548595904
 33
0.0
 40
0.0
 40
0.0
 40
0.0
 40
0.0
 40
0.3914917532
 40
0.9389715821
 40
1.0
 40
1.0
 40
1.0
 40
1.0
 10
-1.7967825066
 20
1.4855325902
 30
0.0
 10
-1.7539299756
 20
1.4802081709
 30
0.0
 10
-1.6500245865
 20
1.477261546
 30
0.0
 10
-1.5412887702
 20
1.5053542083
 30
0.0
 10
-1.4812937949
 20
1.5355049828
 30
0.0
 10
-1.4753425651
 20
1.5386552614
 30
0.0
 11
-1.7967825066
 21
1.4855325902
 31
0.0
 11
-1.6675998962
 21
1.4828487781
 31
0.0
 11
-1.4933898865
 21
1.5295885537
 31
0.0
 11
-1.4753425651
 21
1.5386552614
 31
0.0
  0
SPLINE
  5
24A
100
AcDbEntity
  8
ASSI
100
AcDbSpline
 62
7
  6
CONTINUOUS
 70
0
 71
3
 72
26
 73
22
 74
20
 42
0.0000001
 43
0.0000001
 44
0.0000000001
 12
-5.4924188562
 22
2.7462094281
 32
0.0
 13
5.4924188562
 23
-2.7462094281
 33
0.0
 40
0.0
 40
0.0
 40
0.0
 40
0.0
 40
0.05293166
 40
0.1097804637
 40
0.1699669753
 40
0.2325120521
 40
0.2966483843
 40
0.3610410885
 40
0.4249025715
 40
0.4868204967
 40
0.5461736132
 40
0.601803194
 40
0.6535433549
 40
0.7009654854
 40
0.7447108065
 40
0.785457976
 40
0.8248708045
 40
0.8645297783
 40
0.9062455542
 40
0.9511611582
 40
1.0
 40
1.0
 40
1.0
 40
1.0
 10
-2.409299862
 20
0.4680668183
 30
0.0
 10
-2.5062074778
 20
0.5165206262
 30
0.0
 10
-2.6991534039
 20
0.6335659523
 30
0.0
 10
-2.9703219699
 20
0.8528708215
 30
0.0
 10
-3.2272576511
 20
1.1168698806
 30
0.0
 10
-3.4632147866
 20
1.4188021582
 30
0.0
 10
-3.6716550849
 20
1.7505268286
 30
0.0
 10
-3.8471623623
 20
2.1037911017
 30
0.0
 10
-3.9845909355
 20
2.4687252204
 30
0.0
 10
-4.080255414
 20
2.8361743665
 30
0.0
 10
-4.1311970667
 20
3.1955504058
 30
0.0
 10
-4.1359284239
 20
3.5378208805
 30
0.0
 10
-4.0940916765
 20
3.8532153399
 30
0.0
 10
-4.0062465528
 20
4.1339969618
 30
0.0
 10
-3.8740951448
 20
4.3719994025
 30
0.0
 10
-3.7000063756
 20
4.5602090218
 30
0.0
 10
-3.4890495477
 20
4.6912979391
 30
0.0
 10
-3.2485979165
 20
4.7605160128
 30
0.0
 10
-2.9876515334
 20
4.7666196787
 30
0.0
 10
-2.7140252564
 20
4.7112588782
 30
0.0
 10
-2.5353370323
 20
4.6382913145
 30
0.0
 10
-2.4459225737
 20
4.5935840852
 30
0.0
 11
-2.409299862
 21
0.4680668183
 31
0.0
 11
-2.6881306662
 21
0.6351090287
 31
0.0
 11
-2.96044995
 21
0.853529455
 31
0.0
 11
-3.2189228074
 21
1.1177018427
 31
0.0
 11
-3.4559001476
 21
1.419947532
 31
0.0
 11
-3.6656581102
 21
1.7532846775
 31
0.0
 11
-3.8415175356
 21
2.1074429102
 31
0.0
 11
-3.9793187235
 21
2.4745890735
 31
0.0
 11
-4.0743485479
 21
2.8427420897
 31
0.0
 11
-4.1243161421
 21
3.2037709846
 31
0.0
 11
-4.127430827
 21
3.5453619614
 31
0.0
 11
-4.0836264084
 21
3.8600491775
 31
0.0
 11
-3.9944377871
 21
4.1372604495
 31
0.0
 11
-3.8619591757
 21
4.3709484532
 31
0.0
 11
-3.6907658501
 21
4.5534345826
 31
0.0
 11
-3.4849632019
 21
4.6807935237
 31
0.0
 11
-3.2512322675
 21
4.7491953005
 31
0.0
 11
-2.9951955235
 21
4.7572853127
 31
0.0
 11
-2.724400605
 21
4.7049084848
 31
0.0
 11
-2.4459225737
 21
4.5935840852
 31
0.0
  0
SPLINE
  5
24B
100
AcDbEntity
  8
RACCORDO
100
AcDbSpline
 62
253
  6
CONTINUOUS
 70
0
 71
3
 72
13
 73
9
 74
7
 42
0.0000001
 43
0.0000001
 44
0.0000000001
 12
0.0237005162
 22
-0.7022873817
 32
0.0
 13
0.6783415113
 23
0.1833632327
 33
0.0
 40
0.0
 40
0.0
 40
0.0
 40
0.0
 40
0.1946677134
 40
0.3699588267
 40
0.5285926496
 40
0.6790968263
 40
0.8330968665
 40
1.0
 40
1.0
 40
1.0
 40
1.0
 10
6.5908290802
 20
-12.2046115406
 30
0.0
 10
6.5923669886
 20
-12.2501824335
 30
0.0
 10
6.6031492541
 20
-12.3369108049
 30
0.0
 10
6.6471852032
 20
-12.4541248902
 30
0.0
 10
6.7177432984
 20
-12.5456344908
 30
0.0
 10
6.8121303387
 20
-12.604080988
 30
0.0
 10
6.922944553
 20
-12.6244702655
 30
0.0
 10
6.9985536408
 20
-12.613598635
 30
0.0
 10
7.0362927487
 20
-12.6033973356
 30
0.0
 11
6.5908290802
 21
-12.2046115406
 31
0.0
 11
6.6092620266
 21
-12.3401544101
 31
0.0
 11
6.6543096463
 21
-12.454796235
 31
0.0
 11
6.7236607155
 21
-12.5420658171
 31
0.0
 11
6.8137441592
 21
-12.5974697122
 31
0.0
 11
6.9199514923
 21
-12.6182119586
 31
0.0
 11
7.0362927487
 21
-12.6033973356
 31
0.0
  0
LINE
  5
24C
100
AcDbEntity
  8
RACCORDO
100
AcDbLine
 62
253
  6
CONTINUOUS
 10
-10.6670110876
 20
-3.7578357083
 11
-10.6699486655
 21
-3.6668672443
  0
SPLINE
  5
24D
100
AcDbEntity
  8
RACCORDO
100
AcDbSpline
 62
253
  6
CONTINUOUS
 70
0
 71
3
 72
12
 73
8
 74
6
 42
0.0000001
 43
0.0000001
 44
0.0000000001
 12
-0.0053497267
 22
0.3664563861
 32
0.0
 13
-0.3254083925
 23
0.1686068818
 33
0.0
 40
0.0
 40
0.0
 40
0.0
 40
0.0
 40
0.1955839747
 40
0.4065111841
 40
0.6196376798
 40
0.8218553915
 40
1.0
 40
1.0
 40
1.0
 40
1.0
 10
6.3503607347
 20
1.8004119229
 30
0.0
 10
6.3500119611
 20
1.8243029218
 30
0.0
 10
6.3427752794
 20
1.8739373793
 30
0.0
 10
6.3171883936
 20
1.9455985226
 30
0.0
 10
6.2786103931
 20
2.0121985478
 30
0.0
 10
6.2308497289
 20
2.0673188719
 30
0.0
 10
6.1929342136
 20
2.0952480489
 30
0.0
 10
6.1736109633
 20
2.1052601846
 30
0.0
 11
6.3503607347
 21
1.8004119229
 31
0.0
 11
6.3408378575
 21
1.8714571764
 31
0.0
 11
6.3151487524
 21
1.9443677825
 31
0.0
 11
6.2758742169
 21
2.0118856717
 31
0.0
 11
6.2268474228
 21
2.0674639266
 31
0.0
 11
6.1736109633
 21
2.1052601846
 31
0.0
  0
SPLINE
  5
24E
100
AcDbEntity
  8
RACCORDO
100
AcDbSpline
 62
253
  6
CONTINUOUS
 70
0
 71
3
 72
12
 73
8
 74
6
 42
0.0000001
 43
0.0000001
 44
0.0000000001
 12
-0.0003856599
 22
0.3643136515
 32
0.0
 13
0.3230429735
 23
0.1684274998
 33
0.0
 40
0.0
 40
0.0
 40
0.0
 40
0.0
 40
0.1954109409
 40
0.4054784998
 40
0.6178639365
 40
0.8202454909
 40
1.0
 40
1.0
 40
1.0
 40
1.0
 10
-10.8993677767
 20
10.2513042573
 30
0.0
 10
-10.8993928974
 20
10.2750345485
 30
0.0
 10
-10.8929320411
 20
10.3243627159
 30
0.0
 10
-10.868274537
 20
10.3956643982
 30
0.0
 10
-10.8303727361
 20
10.4619438896
 30
0.0
 10
-10.7828976978
 20
10.5169296934
 30
0.0
 10
-10.7450325522
 20
10.544812003
 30
0.0
 10
-10.7256764085
 20
10.5549038705
 30
0.0
 11
-10.8993677767
 21
10.2513042573
 31
0.0
 11
-10.8909078796
 21
10.321990722
 31
0.0
 11
-10.8661994116
 21
10.3944228451
 31
0.0
 11
-10.8276783497
 21
10.4615273293
 31
0.0
 11
-10.7790292933
 21
10.516929873
 31
0.0
 11
-10.7256764085
 21
10.5549038705
 31
0.0
  0
SPLINE
  5
24F
100
AcDbEntity
  8
RACCORDO
100
AcDbSpline
 62
253
  6
CONTINUOUS
 70
0
 71
3
 72
12
 73
8
 74
6
 42
0.0000001
 43
0.0000001
 44
0.0000000001
 12
-0.0003856587
 22
0.3643125473
 32
0.0
 13
0.3230419943
 23
0.1684269893
 33
0.0
 40
0.0
 40
0.0
 40
0.0
 40
0.0
 40
0.1947631165
 40
0.4040949088
 40
0.6160496428
 40
0.8181238454
 40
1.0
 40
1.0
 40
1.0
 40
1.0
 10
5.9999195952
 20
1.8016605714
 30
0.0
 10
5.9998945578
 20
1.8253121204
 30
0.0
 10
6.0063125025
 20
1.8744717164
 30
0.0
 10
6.0308288598
 20
1.9455846771
 30
0.0
 10
6.0685477661
 20
2.0117600641
 30
0.0
 10
6.1160191792
 20
2.0669612823
 30
0.0
 10
6.1540264181
 20
2.0950492335
 30
0.0
 10
6.1736109633
 20
2.1052601846
 30
0.0
 11
5.9999195952
 21
1.8016605714
 31
0.0
 11
6.0083259243
 21
1.8721155302
 31
0.0
 11
6.0328789116
 21
1.9443171939
 31
0.0
 11
6.0712239324
 21
2.0113414427
 31
0.0
 11
6.1196837095
 21
2.0667606692
 31
0.0
 11
6.1736109633
 21
2.1052601846
 31
0.0
  0
SPLINE
  5
250
100
AcDbEntity
  8
RACCORDO
100
AcDbSpline
 62
253
  6
CONTINUOUS
 70
0
 71
3
 72
10
 73
6
 74
4
 42
0.0000001
 43
0.0000001
 44
0.0000000001
 12
-0.106624233
 22
0.0533150671
 32
0.0
 13
0.0002963801
 23
0.1185053347
 33
0.0
 40
0.0
 40
0.0
 40
0.0
 40
0.0
 40
0.5625436167
 40
0.9915901696
 40
1.0
 40
1.0
 40
1.0
 40
1.0
 10
-10.8993677767
 20
10.2513042573
 30
0.0
 10
-10.9193613706
 20
10.2613016076
 30
0.0
 10
-10.9534525636
 20
10.282936051
 30
0.0
 10
-10.9724762676
 20
10.3220686342
 30
0.0
 10
-10.9725889728
 20
10.3393472173
 30
0.0
 10
-10.972588142
 20
10.3396794205
 30
0.0
 11
-10.8993677767
 21
10.2513042573
 31
0.0
 11
-10.9531413357
 21
10.2913744659
 31
0.0
 11
-10.9725816055
 21
10.338682936
 31
0.0
 11
-10.972588142
 21
10.3396794205
 31
0.0
  0
SPLINE
  5
251
100
AcDbEntity
  8
RACCORDO
100
AcDbSpline
 62
253
  6
CONTINUOUS
 70
0
 71
3
 72
10
 73
6
 74
4
 42
0.0000001
 43
0.0000001
 44
0.0000000001
 12
-0.0264958835
 22
-0.1937282823
 32
0.0
 13
-0.191317782
 23
-0.0524592148
 33
0.0
 40
0.0
 40
0.0
 40
0.0
 40
0.0
 40
0.430683799
 40
0.8010691498
 40
1.0
 40
1.0
 40
1.0
 40
1.0
 10
7.0362927487
 20
-12.6033973356
 30
0.0
 10
7.0324889661
 20
-12.6312092131
 30
0.0
 10
7.0179728306
 20
-12.682539573
 30
0.0
 10
6.9753071644
 20
-12.7353021205
 30
0.0
 10
6.9405663499
 20
-12.7511469276
 30
0.0
 10
6.9278800135
 20
-12.754625513
 30
0.0
 11
7.0362927487
 21
-12.6033973356
 31
0.0
 11
7.0111968069
 21
-12.6837833876
 31
0.0
 11
6.9635687084
 21
-12.7383409361
 31
0.0
 11
6.9278800135
 21
-12.754625513
 31
0.0
  0
SPLINE
  5
252
100
AcDbEntity
  8
RACCORDO
100
AcDbSpline
 62
253
  6
CONTINUOUS
 70
0
 71
3
 72
11
 73
7
 74
5
 42
0.0000001
 43
0.0000001
 44
0.0000000001
 12
-0.3186082903
 22
-0.1690650599
 32
0.0
 13
-0.3227128788
 23
0.1610920079
 33
0.0
 40
0.0
 40
0.0
 40
0.0
 40
0.0
 40
0.2388435752
 40
0.503579771
 40
0.7663858709
 40
1.0
 40
1.0
 40
1.0
 40
1.0
 10
6.5908290801
 20
-12.2046115405
 30
0.0
 10
6.5654632324
 20
-12.218071575
 30
0.0
 10
6.5074215869
 20
-12.237897773
 30
0.0
 10
6.4153773338
 20
-12.2487434377
 30
0.0
 10
6.3236014599
 20
-12.2417002288
 30
0.0
 10
6.2656634545
 20
-12.2241457683
 30
0.0
 10
6.2405333584
 20
-12.2116013119
 30
0.0
 11
6.5908290801
 21
-12.2046115405
 31
0.0
 11
6.5098572294
 21
-12.2340215423
 31
0.0
 11
6.4150827463
 21
-12.2456613414
 31
0.0
 11
6.3206190707
 21
-12.2377975845
 31
0.0
 11
6.2405333584
 21
-12.2116013119
 31
0.0
  0
SPLINE
  5
253
100
AcDbEntity
  8
RACCORDO
100
AcDbSpline
 62
253
  6
CONTINUOUS
 70
0
 71
3
 72
11
 73
7
 74
5
 42
0.0000001
 43
0.0000001
 44
0.0000000001
 12
-0.32390209
 22
-0.1568996968
 32
0.0
 13
-0.3219104798
 23
0.1609463318
 33
0.0
 40
0.0
 40
0.0
 40
0.0
 40
0.0
 40
0.2366865908
 40
0.5013293953
 40
0.7652575898
 40
1.0
 40
1.0
 40
1.0
 40
1.0
 10
6.3503607347
 20
1.8004119229
 30
0.0
 10
6.3248063076
 20
1.7880332382
 30
0.0
 10
6.2665152504
 20
1.7704100933
 30
0.0
 10
6.174590049
 20
1.7621854571
 30
0.0
 10
6.0829583488
 20
1.7710168081
 30
0.0
 10
6.0251082758
 20
1.7890669281
 30
0.0
 10
5.9999195952
 20
1.8016605714
 30
0.0
 11
6.3503607347
 21
1.8004119229
 31
0.0
 11
6.2693355606
 21
1.774119977
 31
0.0
 11
6.174514616
 21
1.7651348253
 31
0.0
 11
6.0800185405
 21
1.7747945277
 31
0.0
 11
5.9999195952
 21
1.8016605714
 31
0.0
  0
SPLINE
  5
254
100
AcDbEntity
  8
RACCORDO
100
AcDbSpline
 62
253
  6
CONTINUOUS
 70
0
 71
3
 72
11
 73
7
 74
5
 42
0.0000001
 43
0.0000001
 44
0.0000000001
 12
0.0200459472
 22
-0.5985134096
 32
0.0
 13
0.5380190625
 23
-0.2700631156
 33
0.0
 40
0.0
 40
0.0
 40
0.0
 40
0.0
 40
0.3052473617
 40
0.5786387071
 40
0.8256884635
 40
1.0
 40
1.0
 40
1.0
 40
1.0
 10
6.2405270478
 20
-12.211604776
 30
0.0
 10
6.2425667053
 20
-12.2725029891
 30
0.0
 10
6.2569129646
 20
-12.3881104316
 30
0.0
 10
6.3154061143
 20
-12.5441812978
 30
0.0
 10
6.4014853173
 20
-12.656143477
 30
0.0
 10
6.4720202768
 20
-12.7043503391
 30
0.0
 10
6.5032812533
 20
-12.7200420447
 30
0.0
 11
6.2405270478
 21
-12.211604776
 31
0.0
 11
6.2651177944
 21
-12.3927402728
 31
0.0
 11
6.3248920016
 21
-12.5451585381
 31
0.0
 11
6.4167982464
 21
-12.6610943566
 31
0.0
 11
6.5032812533
 21
-12.7200420447
 31
0.0
  0
SPLINE
  5
255
100
AcDbEntity
  8
ASSI
100
AcDbSpline
 62
7
  6
CONTINUOUS
 70
0
 71
3
 72
26
 73
22
 74
20
 42
0.0000001
 43
0.0000001
 44
0.0000000001
 12
5.483496821
 22
-2.7417484105
 32
0.0
 13
-5.483496821
 23
2.7417484105
 33
0.0
 40
0.0
 40
0.0
 40
0.0
 40
0.0
 40
0.0529930204
 40
0.1098790089
 40
0.1701015286
 40
0.2326992153
 40
0.2969155191
 40
0.3614173052
 40
0.4254109429
 40
0.4874688636
 40
0.5469497834
 40
0.6026699529
 40
0.6544403029
 40
0.7018143712
 40
0.7454287372
 40
0.7859796708
 40
0.8251709347
 40
0.8646370244
 40
0.9062305836
 40
0.9511124952
 40
1.0
 40
1.0
 40
1.0
 40
1.0
 10
-2.4459225737
 20
4.5935840852
 30
0.0
 10
-2.3490602206
 20
4.5451529086
 30
0.0
 10
-2.1563268764
 20
4.4280357552
 30
0.0
 10
-1.8858612639
 20
4.2082961382
 30
0.0
 10
-1.6300555813
 20
3.9436562733
 30
0.0
 10
-1.3955322104
 20
3.6409504104
 30
0.0
 10
-1.1886699401
 20
3.3084046891
 30
0.0
 10
-1.0147139582
 20
2.954360424
 30
0.0
 10
-0.8786370799
 20
2.5887743804
 30
0.0
 10
-0.7839754412
 20
2.2208731928
 30
0.0
 10
-0.7335702892
 20
1.8612966428
 30
0.0
 10
-0.7288422617
 20
1.5190968498
 30
0.0
 10
-0.7701387847
 20
1.2040267592
 30
0.0
 10
-0.8569554424
 20
0.9237646915
 30
0.0
 10
-0.9877277175
 20
0.6863877903
 30
0.0
 10
-1.1602998468
 20
0.498846702
 30
0.0
 10
-1.3698026665
 20
0.3684826606
 30
0.0
 10
-1.6089356961
 20
0.3000350529
 30
0.0
 10
-1.8687571066
 20
0.2946043199
 30
0.0
 10
-2.1415907829
 20
0.3503925909
 30
0.0
 10
-2.3199417029
 20
0.4233877387
 30
0.0
 10
-2.409299862
 20
0.4680668183
 30
0.0
 11
-2.4459225737
 21
4.5935840852
 31
0.0
 11
-2.1673474759
 21
4.4264106317
 31
0.0
 11
-1.8957688781
 21
4.2076100432
 31
0.0
 11
-1.6384439311
 21
3.9428484827
 31
0.0
 11
-1.4028959336
 21
3.6398691734
 31
0.0
 11
-1.1946999797
 21
3.3057303163
 31
0.0
 11
-1.0203605508
 21
2.950791935
 31
0.0
 11
-0.883879043
 21
2.5829684368
 31
0.0
 11
-0.7898173233
 21
2.2143185344
 31
0.0
 11
-0.7403642913
 21
1.8530255368
 31
0.0
 11
-0.7372505251
 21
1.5114340885
 31
0.0
 11
-0.7805421442
 21
1.1970100703
 31
0.0
 11
-0.8687636629
 21
0.9202951703
 31
0.0
 11
-0.9999221731
 21
0.6872847175
 31
0.0
 11
-1.1695943023
 21
0.5055793527
 31
0.0
 11
-1.3738336776
 21
0.379022772
 31
0.0
 11
-1.6061348559
 21
0.3113548272
 31
0.0
 11
-1.8610236371
 21
0.3038540148
 31
0.0
 11
-2.1310777986
 21
0.3566110414
 31
0.0
 11
-2.409299862
 21
0.4680668183
 31
0.0
  0
SPLINE
  5
256
100
AcDbEntity
  8
RACCORDO
100
AcDbSpline
 62
253
  6
CONTINUOUS
 70
0
 71
3
 72
11
 73
7
 74
5
 42
0.0000001
 43
0.0000001
 44
0.0000000001
 12
-0.5108213004
 22
0.2798532065
 32
0.0
 13
-0.0188900147
 23
0.5787986326
 33
0.0
 40
0.0
 40
0.0
 40
0.0
 40
0.0
 40
0.1532091295
 40
0.4045332697
 40
0.6850361907
 40
1.0
 40
1.0
 40
1.0
 40
1.0
 10
-10.4227771779
 20
-4.2567181766
 30
0.0
 10
-10.4488646735
 20
-4.2424261546
 30
0.0
 10
-10.5132976269
 20
-4.1963875382
 30
0.0
 10
-10.5943741827
 20
-4.088837561
 30
0.0
 10
-10.6511435547
 20
-3.9336523802
 30
0.0
 10
-10.6650278639
 20
-3.8186025823
 30
0.0
 10
-10.6670110876
 20
-3.7578357083
 30
0.0
 11
-10.4227771779
 21
-4.2567181766
 31
0.0
 11
-10.4952955458
 21
-4.2050474605
 31
0.0
 11
-10.5848264355
 21
-4.0902993196
 31
0.0
 11
-10.6430558235
 21
-3.9386534639
 31
0.0
 11
-10.6670110876
 21
-3.7578357083
 31
0.0
  0
SPLINE
  5
257
100
AcDbEntity
  8
RACCORDO
100
AcDbSpline
 62
253
  6
CONTINUOUS
 70
0
 71
3
 72
10
 73
6
 74
4
 42
0.0000001
 43
0.0000001
 44
0.0000000001
 12
0.1056673508
 22
0.0577633496
 32
0.0
 13
0.1075013196
 23
-0.0518675463
 33
0.0
 40
0.0
 40
0.0
 40
0.0
 40
0.0
 40
0.0964758944
 40
0.516119714
 40
1.0
 40
1.0
 40
1.0
 40
1.0
 10
-10.8412696295
 20
10.5599428942
 30
0.0
 10
-10.8378715122
 20
10.5618004845
 30
0.0
 10
-10.8191179056
 20
10.5706171733
 30
0.0
 10
-10.7779584096
 20
10.5747372578
 30
0.0
 10
-10.743015665
 20
10.5632697649
 30
0.0
 10
-10.7256764085
 20
10.5549038705
 30
0.0
 11
-10.8412696295
 21
10.5599428942
 31
0.0
 11
-10.8307734705
 21
10.5648628469
 31
0.0
 11
-10.7810868162
 21
10.5711958544
 31
0.0
 11
-10.7256764085
 21
10.5549038705
 31
0.0
  0
SPLINE
  5
258
100
AcDbEntity
  8
RACCORDO
100
AcDbSpline
 62
253
  6
CONTINUOUS
 70
0
 71
3
 72
9
 73
5
 74
3
 42
0.0000001
 43
0.0000001
 44
0.0000000001
 12
0.0042467378
 22
-0.1188405274
 32
0.0
 13
0.1066391998
 23
-0.0534070673
 33
0.0
 40
0.0
 40
0.0
 40
0.0
 40
0.0
 40
0.4342551378
 40
1.0
 40
1.0
 40
1.0
 40
1.0
 10
-10.7402401282
 20
-3.6690197598
 30
0.0
 10
-10.7396254057
 20
-3.6862221296
 30
0.0
 10
-10.7214569875
 20
-3.7254358603
 30
0.0
 10
-10.6871212805
 20
-3.7477641169
 30
0.0
 10
-10.6670110874
 20
-3.7578357082
 30
0.0
 11
-10.7402401282
 21
-3.6690197598
 31
0.0
 11
-10.7207971605
 21
-3.7170954367
 31
0.0
 11
-10.6670110874
 21
-3.7578357082
 31
0.0
  0
ELLIPSE
  5
259
100
AcDbEntity
  8
RACCORDO
100
AcDbEllipse
 62
7
  6
CONTINUOUS
 10
-7.005817897
 20
12.345257566
 30
0.0
 11
-0.1118504554
 21
0.2236675568
 31
0.0
 40
0.6121897086
 41
-0.6846338794
 42
0.0186659329
  0
ELLIPSE
  5
25A
100
AcDbEntity
  8
RACCORDO
100
AcDbEllipse
 62
7
  6
CONTINUOUS
 10
9.757162974
 20
-11.8765207668
 30
0.0
 11
-0.0859020599
 21
0.2354039488
 31
0.0
 40
0.6613288813
 41
-3.0814036799
 42
-2.1814380601
  0
ELLIPSE
  5
25B
100
AcDbEntity
  8
RACCORDO
100
AcDbEllipse
 62
7
  6
CONTINUOUS
 10
10.0255275977
 20
3.8295848187
 30
0.0
 11
-0.1117903878
 21
0.2236141634
 31
0.0
 40
0.6125552124
 41
-2.255296188
 42
-0.6848044477
  0
ELLIPSE
  5
25C
100
AcDbEntity
  8
RACCORDO
100
AcDbEllipse
 62
7
  6
CONTINUOUS
 10
10.4181660338
 20
3.2387157425
 30
0.0
 11
0.1379861541
 21
0.2664038768
 31
0.0
 40
0.6229838795
 41
2.2644017489
 42
3.8177447832
  0
ELLIPSE
  5
25D
100
AcDbEntity
  8
RACCORDO
100
AcDbEllipse
 62
7
  6
CONTINUOUS
 10
9.2341332841
 20
-11.8717655795
 30
0.0
 11
-0.1098985543
 21
0.2275784384
 31
0.0
 40
0.6085747011
 41
-3.2548100557
 42
-2.2415613143
  0
ELLIPSE
  5
25E
100
AcDbEntity
  8
RACCORDO
100
AcDbEllipse
 62
7
  6
CONTINUOUS
 10
9.2341332841
 20
-12.1235683821
 30
0.0
 11
-0.1118523001
 21
0.2236266191
 31
0.0
 40
0.6122950388
 41
2.456793014
 42
4.0274370417
  0
ENDSEC
  0
SECTION
  2
OBJECTS
  0
DICTIONARY
  5
C
100
AcDbDictionary
280
0
281
1
  3
ACAD_GROUP
350
D
  3
ACAD_MLINESTYLE
350
17
  3
ACAD_LAYOUT
350
1A
  3
ACAD_PLOTSETTINGS
350
19
  3
ACAD_PLOTSTYLENAME
350
E
  0
DICTIONARY
  5
D
102
{ACAD_REACTORS
330
C
102
}
100
AcDbDictionary
280
0
281
1
  0
ACDBDICTIONARYWDFLT
  5
E
102
{ACAD_REACTORS
330
C
102
}
100
AcDbDictionary
281
1
  3
Normal
350
F
100
AcDbDictionaryWithDefault
340
F
  0
DICTIONARY
  5
17
102
{ACAD_REACTORS
330
C
102
}
100
AcDbDictionary
280
0
281
1
  3
Standard
350
18
  0
DICTIONARY
  5
19
102
{ACAD_REACTORS
330
C
102
}
100
AcDbDictionary
281
1
  0
DICTIONARY
  5
1A
102
{ACAD_REACTORS
330
C
102
}
100
AcDbDictionary
281
1
  3
Model
350
25F
  3
Layout1
350
260
  0
ACDBPLACEHOLDER
  5
F
102
{ACAD_REACTORS
330
E
102
}
  0
MLINESTYLE
  5
18
102
{ACAD_REACTORS
330
17
102
}
100
AcDbMlineStyle
  2
STANDARD
 70
0
  3

 62
256
 51
90.0
 52
90.0
 71
2
 49
0.5
 62
256
  6
BYLAYER
 49
-0.5
 62
256
  6
BYLAYER
  0
LAYOUT
  5
25F
102
{ACAD_REACTORS
330
1A
102
}
100
AcDbPlotSettings
  1

  2
none_device
  4
ISO_A4_(297.00_x_210.00_MM)
  6

 40
0.0
 41
0.0
 42
0.0
 43
0.0
 44
297.0
 45
210.0
 46
0.0
 47
0.0
 48
0.0
 49
0.0
140
0.0
141
0.0
142
1.0
143
1.0
 70
1024
 72
1
 73
0
 74
0
  7

 75
0
147
1.0
148
0.0
149
0.0
100
AcDbLayout
  1
Model
 70
0
 71
0
 10
0.0
 20
0.0
 11
297.0
 21
210.0
 12
0.0
 22
0.0
 32
0.0
 14
0.0
 24
0.0
 34
0.0
 15
0.0
 25
0.0
 35
0.0
146
0.0
 13
0.0
 23
0.0
 33
0.0
 16
1.0
 26
0.0
 36
0.0
 17
0.0
 27
1.0
 37
0.0
 76
0
330
20F
345
0
346
0
  0
LAYOUT
  5
260
102
{ACAD_REACTORS
330
1A
102
}
100
AcDbPlotSettings
  1

  2
none_device
  4
ISO_A4_(297.00_x_210.00_MM)
  6

 40
0.0
 41
0.0
 42
0.0
 43
0.0
 44
297.0
 45
210.0
 46
0.0
 47
0.0
 48
0.0
 49
0.0
140
0.0
141
0.0
142
1.0
143
1.0
 70
0
 72
1
 73
0
 74
0
  7

 75
0
147
1.0
148
0.0
149
0.0
100
AcDbLayout
  1
Layout1
 70
0
 71
1
 10
0.0
 20
0.0
 11
297.0
 21
210.0
 12
0.0
 22
0.0
 32
0.0
 14
0.0
 24
0.0
 34
0.0
 15
0.0
 25
0.0
 35
0.0
146
0.0
 13
0.0
 23
0.0
 33
0.0
 16
1.0
 26
0.0
 36
0.0
 17
0.0
 27
1.0
 37
0.0
 76
0
330
210
345
0
346
0
  0
ENDSEC
  0
EOF
