  0
SECTION
  2
HEADER
  9
$ACADVER
  1
AC1015
  9
$DWGCODEPAGE
  3
ANSI_1252
  9
$EXTMAX
 10
297.0
 20
210.0
 30
0.0
  9
$EXTMIN
 10
0.0
 20
0.0
 30
0.0
  9
$LIMMIN
 10
0.0
 20
0.0
  9
$LIMMAX
 10
297.0
 20
210.0
  9
$VIEWCTR
 10
148.5
 20
105.0
  9
$VIEWSIZE
 40
210.0
  9
$CLAYER
  8
0
  9
$LTSCALE
 40
16.335
  9
$CELTYPE
  6
BYLAYER
  9
$DIMSCALE
 40
1.0
  9
$DIMASZ
 40
3.0
  9
$DIMEXO
 40
1.85625
  9
$DIMDLI
 40
11.286
  9
$DIMEXE
 40
5.346
  9
$DIMCEN
 40
2.673
  9
$DIMLFAC
 40
1.0
  9
$DIMBLK
  1
_FILLED
  9
$DIMTXT
 40
3.0
  9
$DIMTOL
 70
1
  9
$DIMLIM
 70
0
  9
$DIMTFAC
 40
1.0
  9
$DIMTP
 40
0.01
  9
$DIMTM
 40
0.01
  9
$PDMODE
 70
3
  9
$PDSIZE
 40
3.0
  9
$HANDSEED
  5
2B8
  9
$TILEMODE
 70
1
  9
$MEASUREMENT
 70
1
  9
$INSUNITS
 70
4
  0
ENDSEC
  0
SECTION
  2
CLASSES
  0
CLASS
  1
ACDBDICTIONARYWDFLT
  2
AcDbDictionaryWithDefault
  3
AutoCAD 2000
 90
0
280
0
281
0
  0
CLASS
  1
ACDBPLACEHOLDER
  2
AcDbPlaceHolder
  3
AutoCAD 2000
 90
0
280
0
281
0
  0
CLASS
  1
LAYOUT
  2
AcDbLayout
  3
AutoCAD 2000
 90
0
280
0
281
0
  0
ENDSEC
  0
SECTION
  2
TABLES
  0
TABLE
  2
VPORT
  5
8
100
AcDbSymbolTable
 70
2
  0
VPORT
  5
1F4
100
AcDbSymbolTableRecord
100
AcDbViewportTableRecord
  2
*ACTIVE
 70
0
 10
0.0
 20
0.0
 11
1.0
 21
1.0
 12
148.5
 22
105.0
 13
0.0
 23
0.0
 14
1.0
 24
1.0
 15
0.0
 25
0.0
 16
0.0
 26
0.0
 36
1.0
 17
0.0
 27
0.0
 37
0.0
 40
210.0
 41
1.4142857143
 42
50.0
 43
0.0
 44
0.0
 50
0.0
 51
0.0
 71
0
 72
100
 73
1
 74
1
 75
0
 76
0
 77
0
 78
0
  0
ENDTAB
  0
TABLE
  2
LTYPE
  5
5
100
AcDbSymbolTable
 70
6
  0
LTYPE
  5
14
100
AcDbSymbolTableRecord
100
AcDbLinetypeTableRecord
  2
BYBLOCK
 70
0
  3

 72
65
 73
0
 40
0.0
  0
LTYPE
  5
15
100
AcDbSymbolTableRecord
100
AcDbLinetypeTableRecord
  2
BYLAYER
 70
0
  3

 72
65
 73
0
 40
0.0
  0
LTYPE
  5
16
100
AcDbSymbolTableRecord
100
AcDbLinetypeTableRecord
  2
CONTINUOUS
 70
64
  3
Solid line
 72
65
 73
0
 40
0.0
  0
LTYPE
  5
1F5
100
AcDbSymbolTableRecord
100
AcDbLinetypeTableRecord
  2
CENTER
 70
64
  3
____ _ ____ _ ____ _ ____ _ ____ _ ____ _ ____
 72
65
 73
4
 40
0.6
 49
0.375
 74
0
 49
-0.075
 74
0
 49
0.075
 74
0
 49
-0.075
 74
0
  0
LTYPE
  5
1F6
100
AcDbSymbolTableRecord
100
AcDbLinetypeTableRecord
  2
HIDDEN
 70
64
  3
- - - - - - - - - - - - - - - - - - - -
 72
65
 73
2
 40
0.2
 49
0.1
 74
0
 49
-0.1
 74
0
  0
LTYPE
  5
1F7
100
AcDbSymbolTableRecord
100
AcDbLinetypeTableRecord
  2
PHANTOM
 70
64
  3
_____ _ _ _____ _ _ _____ _ _ _____
 72
65
 73
6
 40
0.8
 49
0.45
 74
0
 49
-0.05
 74
0
 49
0.1
 74
0
 49
-0.05
 74
0
 49
0.1
 74
0
 49
-0.05
 74
0
  0
LTYPE
  5
1F8
100
AcDbSymbolTableRecord
100
AcDbLinetypeTableRecord
  2
DOT
 70
64
  3
. . . . . . . . . . . . . . . . . . . .
 72
65
 73
2
 40
0.2
 49
0.1
 74
0
 49
-0.1
 74
0
  0
LTYPE
  5
1F9
100
AcDbSymbolTableRecord
100
AcDbLinetypeTableRecord
  2
DASHED
 70
64
  3
- - - - - - - - - - - - - - - - - - - -
 72
65
 73
2
 40
0.2
 49
0.1
 74
0
 49
-0.1
 74
0
  0
ENDTAB
  0
TABLE
  2
LAYER
  5
2
100
AcDbSymbolTable
 70
36
  0
LAYER
  5
10
100
AcDbSymbolTableRecord
100
AcDbLayerTableRecord
  2
0
 70
0
 62
7
  6
CONTINUOUS
370
-3
390
F
  0
LAYER
  5
1FA
100
AcDbSymbolTableRecord
100
AcDbLayerTableRecord
  2
DEFAULT_1
 70
0
 62
7
  6
CENTER
370
-3
390
F
  0
LAYER
  5
1FB
100
AcDbSymbolTableRecord
100
AcDbLayerTableRecord
  2
DEFAULT_2
 70
0
 62
7
  6
HIDDEN
370
-3
390
F
  0
LAYER
  5
1FC
100
AcDbSymbolTableRecord
100
AcDbLayerTableRecord
  2
DEFAULT_3
 70
0
 62
7
  6
PHANTOM
370
-3
390
F
  0
LAYER
  5
1FD
100
AcDbSymbolTableRecord
100
AcDbLayerTableRecord
  2
ASSI
 70
0
 62
7
  6
CONTINUOUS
370
-3
390
F
  0
LAYER
  5
1FE
100
AcDbSymbolTableRecord
100
AcDbLayerTableRecord
  2
COORDINATE
 70
0
 62
7
  6
CONTINUOUS
370
-3
390
F
  0
LAYER
  5
1FF
100
AcDbSymbolTableRecord
100
AcDbLayerTableRecord
  2
COORD_ORIGINE
 70
0
 62
7
  6
CONTINUOUS
370
-3
390
F
  0
LAYER
  5
200
100
AcDbSymbolTableRecord
100
AcDbLayerTableRecord
  2
COPY_PUBLISH
 70
0
 62
7
  6
CONTINUOUS
370
-3
390
F
  0
LAYER
  5
201
100
AcDbSymbolTableRecord
100
AcDbLayerTableRecord
  2
COSMETIC
 70
0
 62
7
  6
CONTINUOUS
370
-3
390
F
  0
LAYER
  5
202
100
AcDbSymbolTableRecord
100
AcDbLayerTableRecord
  2
CURVE
 70
0
 62
7
  6
CONTINUOUS
370
-3
390
F
  0
LAYER
  5
203
100
AcDbSymbolTableRecord
100
AcDbLayerTableRecord
  2
DRAFT
 70
0
 62
7
  6
CONTINUOUS
370
-3
390
F
  0
LAYER
  5
204
100
AcDbSymbolTableRecord
100
AcDbLayerTableRecord
  2
IGES
 70
0
 62
7
  6
CONTINUOUS
370
-3
390
F
  0
LAYER
  5
205
100
AcDbSymbolTableRecord
100
AcDbLayerTableRecord
  2
IMPORT_IGES
 70
0
 62
7
  6
CONTINUOUS
370
-3
390
F
  0
LAYER
  5
206
100
AcDbSymbolTableRecord
100
AcDbLayerTableRecord
  2
INTF_12
 70
0
 62
7
  6
CONTINUOUS
370
-3
390
F
  0
LAYER
  5
207
100
AcDbSymbolTableRecord
100
AcDbLayerTableRecord
  2
INTF_9
 70
0
 62
7
  6
CONTINUOUS
370
-3
390
F
  0
LAYER
  5
208
100
AcDbSymbolTableRecord
100
AcDbLayerTableRecord
  2
NOTE
 70
0
 62
7
  6
CONTINUOUS
370
-3
390
F
  0
LAYER
  5
209
100
AcDbSymbolTableRecord
100
AcDbLayerTableRecord
  2
PIANI
 70
0
 62
7
  6
CONTINUOUS
370
-3
390
F
  0
LAYER
  5
20A
100
AcDbSymbolTableRecord
100
AcDbLayerTableRecord
  2
PIANI_ORIGINE
 70
0
 62
7
  6
CONTINUOUS
370
-3
390
F
  0
LAYER
  5
20B
100
AcDbSymbolTableRecord
100
AcDbLayerTableRecord
  2
RACCORDO
 70
0
 62
7
  6
CONTINUOUS
370
-3
390
F
  0
LAYER
  5
20C
100
AcDbSymbolTableRecord
100
AcDbLayerTableRecord
  2
SMUSSO
 70
0
 62
7
  6
CONTINUOUS
370
-3
390
F
  0
LAYER
  5
20D
100
AcDbSymbolTableRecord
100
AcDbLayerTableRecord
  2
SUPERFICI
 70
0
 62
7
  6
CONTINUOUS
370
-3
390
F
  0
LAYER
  5
20E
100
AcDbSymbolTableRecord
100
AcDbLayerTableRecord
  2
TRASH
 70
0
 62
7
  6
CONTINUOUS
370
-3
390
F
  0
ENDTAB
  0
TABLE
  2
STYLE
  5
3
100
AcDbSymbolTable
 70
1
  0
STYLE
  5
11
100
AcDbSymbolTableRecord
100
AcDbTextStyleTableRecord
  2
STANDARD
 70
0
 40
0.0
 41
0.8
 50
0.0
 71
0
 42
0.2
  3
txt
  4

  0
STYLE
  5
20F
100
AcDbSymbolTableRecord
100
AcDbTextStyleTableRecord
  2
TEXTSTYLE_1
 70
0
 40
0.0
 41
0.8
 50
0.0
 71
0
 42
0.2
  3
gdt
  4

  0
ENDTAB
  0
TABLE
  2
VIEW
  5
6
100
AcDbSymbolTable
 70
0
  0
ENDTAB
  0
TABLE
  2
UCS
  5
7
100
AcDbSymbolTable
 70
0
  0
ENDTAB
  0
TABLE
  2
APPID
  5
9
100
AcDbSymbolTable
 70
1
  0
APPID
  5
210
100
AcDbSymbolTableRecord
100
AcDbRegAppTableRecord
  2
ACAD
 70
0
  0
ENDTAB
  0
TABLE
  2
BLOCK_RECORD
  5
1
100
AcDbSymbolTable
 70
0
  0
BLOCK_RECORD
  5
211
100
AcDbSymbolTableRecord
100
AcDbBlockTableRecord
  2
*Model_Space
  0
BLOCK_RECORD
  5
212
100
AcDbSymbolTableRecord
100
AcDbBlockTableRecord
  2
*Paper_Space
  0
ENDTAB
  0
TABLE
  2
DIMSTYLE
  5
A
100
AcDbSymbolTable
 70
1
100
AcDbDimStyleTable
 71
0
  0
DIMSTYLE
105
213
100
AcDbSymbolTableRecord
100
AcDbDimStyleTableRecord
  2
STANDARD
 70
0
  3

  4

 40
1.0
 41
3.0
 42
0.0625
 43
0.38
 44
0.18
 45
0.0
 46
0.0
 47
0.01
 48
0.01
140
3.0
141
0.09
142
0.0
143
25.4
144
1.0
145
0.0
146
1.0
147
0.09
 71
1.0
 72
0.0
 73
0
 74
0
 75
0
 76
0
 77
1
 78
8
170
0
171
2
172
0
173
0
174
0
175
0
176
0
177
0
178
0
270
2
271
2
272
2
273
2
274
2
275
0
280
0
281
0
282
0
283
1
284
8
285
0
286
0
287
3
288
0
340
11
  0
ENDTAB
  0
ENDSEC
  0
SECTION
  2
BLOCKS
  0
BLOCK
  5
20
100
AcDbEntity
  8
0
100
AcDbBlockBegin
  2
*Model_Space
 70
0
 10
0.0
 20
0.0
 30
0.0
  3
*Model_Space
  1

  0
ENDBLK
  5
21
100
AcDbEntity
  8
0
100
AcDbBlockEnd
  0
BLOCK
  5
1C
100
AcDbEntity
  8
0
100
AcDbBlockBegin
  2
*Paper_Space
 70
0
 10
0.0
 20
0.0
 30
0.0
  3
*Paper_Space
  1

  0
ENDBLK
  5
1D
100
AcDbEntity
  8
0
100
AcDbBlockEnd
  0
ENDSEC
  0
SECTION
  2
ENTITIES
  0
LINE
  5
214
100
AcDbEntity
  8
RACCORDO
100
AcDbLine
 62
7
  6
CONTINUOUS
 10
-10.7831274812
 20
10.7180979482
 11
-7.0621202931
 21
12.7256666924
  0
LINE
  5
215
100
AcDbEntity
  8
ASSI
100
AcDbLine
 62
7
  6
CONTINUOUS
 10
-10.7831274812
 20
10.7180979482
 11
-7.0621202931
 21
12.7256666924
  0
LINE
  5
216
100
AcDbEntity
  8
RACCORDO
100
AcDbLine
 62
253
  6
CONTINUOUS
 10
-10.6675067048
 20
10.7130085171
 11
-6.9477020453
 21
12.7199284695
  0
LINE
  5
217
100
AcDbEntity
  8
ASSI
100
AcDbLine
 62
253
  6
CONTINUOUS
 10
-10.6675067048
 20
10.7130085171
 11
-6.9477020453
 21
12.7199284695
  0
LINE
  5
218
100
AcDbEntity
  8
RACCORDO
100
AcDbLine
 62
7
  6
CONTINUOUS
 10
6.9860978464
 20
-12.5966963936
 11
9.3855155209
 21
-11.9474291542
  0
LINE
  5
219
100
AcDbEntity
  8
ASSI
100
AcDbLine
 62
7
  6
CONTINUOUS
 10
6.9860978464
 20
-12.5966963936
 11
9.3855155209
 21
-11.9474291542
  0
LINE
  5
21A
100
AcDbEntity
  8
RACCORDO
100
AcDbLine
 62
253
  6
CONTINUOUS
 10
7.0944624524
 20
-12.445292689
 11
9.4691066112
 21
-11.8027290062
  0
LINE
  5
21B
100
AcDbEntity
  8
ASSI
100
AcDbLine
 62
253
  6
CONTINUOUS
 10
7.0944624524
 20
-12.445292689
 11
9.4691066112
 21
-11.8027290062
  0
LINE
  5
21C
100
AcDbEntity
  8
ASSI
100
AcDbLine
 62
7
  6
CONTINUOUS
 10
6.9786926271
 20
-12.5986445579
 11
6.9858233243
 21
-12.596758599
  0
LINE
  5
21D
100
AcDbEntity
  8
RACCORDO
100
AcDbLine
 62
7
  6
CONTINUOUS
 10
6.9725538169
 20
-12.600206207
 11
6.9860004237
 21
-12.5967109983
  0
LINE
  5
21E
100
AcDbEntity
  8
DRAFT
100
AcDbLine
 62
7
  6
CONTINUOUS
 10
-4.4511978725
 20
11.4716763831
 11
-6.3869267343
 21
10.2728708815
  0
LINE
  5
21F
100
AcDbEntity
  8
ASSI
100
AcDbLine
 62
7
  6
CONTINUOUS
 10
-4.4511978725
 20
11.4716763831
 11
-6.3869267343
 21
10.2728708815
  0
LINE
  5
220
100
AcDbEntity
  8
DRAFT
100
AcDbLine
 62
7
  6
CONTINUOUS
 10
-4.4511978725
 20
10.4838420994
 11
-5.5043837567
 21
9.8315993927
  0
LINE
  5
221
100
AcDbEntity
  8
ASSI
100
AcDbLine
 62
7
  6
CONTINUOUS
 10
-4.4511978725
 20
10.4838420994
 11
-5.5043837567
 21
9.8315993927
  0
LWPOLYLINE
  5
222
100
AcDbEntity
  8
ASSI
100
AcDbPolyline
 62
7
  6
CONTINUOUS
 90
10
 70
0
 10
-10.6753477151
 20
-3.5981117781
 10
-10.6632863478
 20
-3.6708937356
 10
-10.6454582627
 20
-3.7402549687
 10
-10.6219726857
 20
-3.8057195151
 10
-10.5931816175
 20
-3.866473903
 10
-10.5594674076
 20
-3.9220474107
 10
-10.5210495172
 20
-3.9724051339
 10
-10.4782378744
 20
-4.0173125073
 10
-10.4314807331
 20
-4.056424106
 10
-10.3812833479
 20
-4.0894989974
  0
LWPOLYLINE
  5
223
100
AcDbEntity
  8
RACCORDO
100
AcDbPolyline
 62
7
  6
CONTINUOUS
 90
12
 70
0
 10
-10.6807821911
 20
-3.5386283921
 10
-10.6743025337
 20
-3.6062804324
 10
-10.6632184935
 20
-3.6712163073
 10
-10.6475603826
 20
-3.7332761682
 10
-10.6274219018
 20
-3.7921760926
 10
-10.6030098475
 20
-3.8474569941
 10
-10.5745167874
 20
-3.8988453801
 10
-10.5420962801
 20
-3.9462229299
 10
-10.506025934
 20
-3.9893221699
 10
-10.4666151308
 20
-4.0278973661
 10
-10.4241796658
 20
-4.061758928
 10
-10.3791439606
 20
-4.090732645
  0
LINE
  5
224
100
AcDbEntity
  8
RACCORDO
100
AcDbLine
 62
7
  6
CONTINUOUS
 10
-10.6820677099
 20
-3.5108881896
 11
-10.6807821911
 21
-3.5386283921
  0
LWPOLYLINE
  5
225
100
AcDbEntity
  8
ASSI
100
AcDbPolyline
 62
7
  6
CONTINUOUS
 90
3
 70
0
 10
-10.6820688081
 20
-3.5108536604
 10
-10.681640903
 20
-3.5220921742
 10
-10.6753477151
 20
-3.5981117781
  0
LINE
  5
226
100
AcDbEntity
  8
ASSI
100
AcDbLine
 62
7
  6
CONTINUOUS
 10
-10.728087507
 20
-2.0103462672
 11
-10.6820728563
 21
-3.5109152008
  0
LWPOLYLINE
  5
227
100
AcDbEntity
  8
ASSI
100
AcDbPolyline
 62
7
  6
CONTINUOUS
 90
8
 70
0
 10
-10.9103182074
 20
8.9788097419
 10
-10.9006758146
 20
7.3986685436
 10
-10.8855564686
 20
5.8214257995
 10
-10.8649603954
 20
4.2471142847
 10
-10.8388879819
 20
2.675761279
 10
-10.8073396204
 20
1.107392276
 10
-10.7703158007
 20
-0.4579650138
 10
-10.728087507
 20
-2.0103462672
  0
LINE
  5
228
100
AcDbEntity
  8
ASSI
100
AcDbLine
 62
7
  6
CONTINUOUS
 10
-10.914421388
 20
10.4978176983
 11
-10.9103182074
 21
8.9788097419
  0
LWPOLYLINE
  5
229
100
AcDbEntity
  8
RACCORDO
100
AcDbPolyline
 62
7
  6
CONTINUOUS
 90
10
 70
0
 10
-10.914421388
 20
10.4978176977
 10
-10.9102380164
 20
8.9605231434
 10
-10.9005757873
 20
7.3859367817
 10
-10.885474851
 20
5.8142288807
 10
-10.8649354318
 20
4.2454318426
 10
-10.8389579128
 20
2.679572659
 10
-10.8075426824
 20
1.1166765881
 10
-10.7706902244
 20
-0.4432289594
 10
-10.7284013577
 20
-2.0001113843
 10
-10.6820728564
 20
-3.5109152001
  0
LWPOLYLINE
  5
22A
100
AcDbEntity
  8
RACCORDO
100
AcDbPolyline
 62
7
  6
CONTINUOUS
 90
9
 70
0
 10
6.5687023178
 20
-12.5655407855
 10
6.6138255862
 20
-12.584808876
 10
6.6612006477
 20
-12.6001304778
 10
6.7103640336
 20
-12.611236691
 10
6.7610344305
 20
-12.6179966432
 10
6.8129498131
 20
-12.6203078478
 10
6.8656868563
 20
-12.6181015983
 10
6.9189529981
 20
-12.6113885767
 10
6.9725538169
 20
-12.600206207
  0
LWPOLYLINE
  5
22B
100
AcDbEntity
  8
ASSI
100
AcDbPolyline
 62
7
  6
CONTINUOUS
 90
8
 70
0
 10
6.5601081235
 20
-12.56130683
 10
6.5776101818
 20
-12.5697305655
 10
6.6378950896
 20
-12.5931882515
 10
6.7018826924
 20
-12.6096500917
 10
6.7688285219
 20
-12.6186351842
 10
6.8376953513
 20
-12.619833221
 10
6.9077989412
 20
-12.6131599586
 10
6.9780760195
 20
-12.5987708077
  0
LINE
  5
22C
100
AcDbEntity
  8
RACCORDO
100
AcDbLine
 62
7
  6
CONTINUOUS
 10
6.5615530148
 20
-12.5620328965
 11
6.5687023178
 21
-12.5655407855
  0
LINE
  5
22D
100
AcDbEntity
  8
RACCORDO
100
AcDbLine
 62
7
  6
CONTINUOUS
 10
6.5614284462
 20
-12.561982244
 11
6.5615035267
 21
-12.5620197743
  0
LINE
  5
22E
100
AcDbEntity
  8
RACCORDO
100
AcDbLine
 62
7
  6
CONTINUOUS
 10
-10.3529029449
 20
-4.1048165484
 11
6.561457808
 21
-12.5619969249
  0
LINE
  5
22F
100
AcDbEntity
  8
ASSI
100
AcDbLine
 62
7
  6
CONTINUOUS
 10
-10.3529301131
 20
-4.1048029643
 11
6.561457808
 21
-12.5619969249
  0
LINE
  5
230
100
AcDbEntity
  8
RACCORDO
100
AcDbLine
 62
253
  6
CONTINUOUS
 10
-10.6088413839
 20
-3.5997310617
 11
6.2986967516
 21
-12.0535001294
  0
LINE
  5
231
100
AcDbEntity
  8
ASSI
100
AcDbLine
 62
253
  6
CONTINUOUS
 10
-10.6088413839
 20
-3.5997310617
 11
6.2986967516
 21
-12.0535001294
  0
LINE
  5
232
100
AcDbEntity
  8
RACCORDO
100
AcDbLine
 62
7
  6
CONTINUOUS
 10
-10.3791439606
 20
-4.090732645
 11
-10.3522857395
 21
-4.1051130067
  0
LINE
  5
233
100
AcDbEntity
  8
ASSI
100
AcDbLine
 62
7
  6
CONTINUOUS
 10
-10.3812833479
 20
-4.0894989974
 11
-10.3529878301
 21
-4.1047624142
  0
LINE
  5
234
100
AcDbEntity
  8
RACCORDO
100
AcDbLine
 62
7
  6
CONTINUOUS
 10
9.2923299149
 20
-12.1819917942
 11
9.0206598866
 21
-12.0461567801
  0
LINE
  5
235
100
AcDbEntity
  8
ASSI
100
AcDbLine
 62
7
  6
CONTINUOUS
 10
9.2923299149
 20
-12.1819917942
 11
9.0206598866
 21
-12.0461567801
  0
LINE
  5
236
100
AcDbEntity
  8
DRAFT
100
AcDbLine
 62
7
  6
CONTINUOUS
 10
-2.3046872243
 20
4.0830272248
 11
-2.7563041466
 21
3.8446143427
  0
LINE
  5
237
100
AcDbEntity
  8
DRAFT
100
AcDbLine
 62
7
  6
CONTINUOUS
 10
-4.4511978725
 20
11.4716763831
 11
-4.4511978725
 21
10.4838420994
  0
LINE
  5
238
100
AcDbEntity
  8
ASSI
100
AcDbLine
 62
7
  6
CONTINUOUS
 10
-4.4511978725
 20
11.4716763831
 11
-4.4511978725
 21
10.4838420994
  0
LINE
  5
239
100
AcDbEntity
  8
DRAFT
100
AcDbLine
 62
7
  6
CONTINUOUS
 10
-1.204033704
 20
1.9094812691
 11
-1.6769611969
 21
1.6859284416
  0
LINE
  5
23A
100
AcDbEntity
  8
DRAFT
100
AcDbLine
 62
7
  6
CONTINUOUS
 10
7.5872469806
 20
5.4524539566
 11
5.2803351553
 21
4.4392399367
  0
LINE
  5
23B
100
AcDbEntity
  8
ASSI
100
AcDbLine
 62
7
  6
CONTINUOUS
 10
7.5872469806
 20
5.4524539566
 11
5.2803351553
 21
4.4392399367
  0
LINE
  5
23C
100
AcDbEntity
  8
RACCORDO
100
AcDbLine
 62
253
  6
CONTINUOUS
 10
10.0837511534
 20
4.2042018702
 11
6.2317806671
 21
2.2633648312
  0
LINE
  5
23D
100
AcDbEntity
  8
ASSI
100
AcDbLine
 62
253
  6
CONTINUOUS
 10
10.0837511534
 20
4.2042018702
 11
6.2317806671
 21
2.2633648312
  0
LINE
  5
23E
100
AcDbEntity
  8
RACCORDO
100
AcDbLine
 62
253
  6
CONTINUOUS
 10
10.2605009247
 20
3.8993536085
 11
6.4085304399
 21
1.9585165702
  0
LINE
  5
23F
100
AcDbEntity
  8
ASSI
100
AcDbLine
 62
253
  6
CONTINUOUS
 10
10.2605009247
 20
3.8993536085
 11
6.4085304399
 21
1.9585165702
  0
LINE
  5
240
100
AcDbEntity
  8
RACCORDO
100
AcDbLine
 62
7
  6
CONTINUOUS
 10
10.5482806751
 20
3.1701997483
 11
10.4725689007
 21
3.1352335418
  0
LINE
  5
241
100
AcDbEntity
  8
ASSI
100
AcDbLine
 62
7
  6
CONTINUOUS
 10
10.5482806751
 20
3.1701997483
 11
10.4725689007
 21
3.1352335418
  0
LINE
  5
242
100
AcDbEntity
  8
RACCORDO
100
AcDbLine
 62
253
  6
CONTINUOUS
 10
6.0580892991
 20
1.9597652179
 11
-10.841198073
 21
10.4094089039
  0
LINE
  5
243
100
AcDbEntity
  8
ASSI
100
AcDbLine
 62
253
  6
CONTINUOUS
 10
6.0580892991
 20
1.9597652179
 11
-10.841198073
 21
10.4094089039
  0
LINE
  5
244
100
AcDbEntity
  8
RACCORDO
100
AcDbLine
 62
253
  6
CONTINUOUS
 10
6.2317806671
 20
2.2633648312
 11
-10.6675067048
 21
10.7130085171
  0
LINE
  5
245
100
AcDbEntity
  8
ASSI
100
AcDbLine
 62
253
  6
CONTINUOUS
 10
6.2317806671
 20
2.2633648312
 11
-10.6675067048
 21
10.7130085171
  0
LINE
  5
246
100
AcDbEntity
  8
DRAFT
100
AcDbLine
 62
7
  6
CONTINUOUS
 10
5.2803351553
 20
4.4392399367
 11
-6.3869267343
 21
10.2728708815
  0
LINE
  5
247
100
AcDbEntity
  8
ASSI
100
AcDbLine
 62
7
  6
CONTINUOUS
 10
5.2803351553
 20
4.4392399367
 11
-6.3869267343
 21
10.2728708815
  0
LINE
  5
248
100
AcDbEntity
  8
RACCORDO
100
AcDbLine
 62
253
  6
CONTINUOUS
 10
10.4725689007
 20
3.1352335418
 11
10.265810013
 21
3.2386129857
  0
LINE
  5
249
100
AcDbEntity
  8
ASSI
100
AcDbLine
 62
253
  6
CONTINUOUS
 10
10.4725689007
 20
3.1352335418
 11
10.265810013
 21
3.2386129857
  0
LINE
  5
24A
100
AcDbEntity
  8
DRAFT
100
AcDbLine
 62
7
  6
CONTINUOUS
 10
10.5482806751
 20
3.1701997483
 11
10.2605009247
 21
3.3140896235
  0
LINE
  5
24B
100
AcDbEntity
  8
ASSI
100
AcDbLine
 62
7
  6
CONTINUOUS
 10
10.5482806751
 20
3.1701997483
 11
10.2605009247
 21
3.3140896235
  0
LINE
  5
24C
100
AcDbEntity
  8
RACCORDO
100
AcDbLine
 62
7
  6
CONTINUOUS
 10
10.0837511534
 20
4.2042018702
 11
7.5872469806
 21
5.4524539566
  0
LINE
  5
24D
100
AcDbEntity
  8
ASSI
100
AcDbLine
 62
7
  6
CONTINUOUS
 10
10.0837511534
 20
4.2042018702
 11
7.5872469806
 21
5.4524539566
  0
LINE
  5
24E
100
AcDbEntity
  8
RACCORDO
100
AcDbLine
 62
7
  6
CONTINUOUS
 10
-4.4511978725
 20
11.4716763831
 11
-6.9477020453
 21
12.7199284695
  0
LINE
  5
24F
100
AcDbEntity
  8
ASSI
100
AcDbLine
 62
7
  6
CONTINUOUS
 10
-4.4511978725
 20
11.4716763831
 11
-6.9477020453
 21
12.7199284695
  0
LINE
  5
250
100
AcDbEntity
  8
RACCORDO
100
AcDbLine
 62
7
  6
CONTINUOUS
 10
9.4691066112
 20
-11.8027290062
 11
9.4691066112
 21
-12.0538985222
  0
LINE
  5
251
100
AcDbEntity
  8
ASSI
100
AcDbLine
 62
7
  6
CONTINUOUS
 10
9.4691066112
 20
-11.8027290062
 11
9.4691066112
 21
-12.0538985222
  0
LINE
  5
252
100
AcDbEntity
  8
RACCORDO
100
AcDbLine
 62
7
  6
CONTINUOUS
 10
10.2605009247
 20
3.2926057611
 11
10.2605009247
 21
3.8993536085
  0
LINE
  5
253
100
AcDbEntity
  8
ASSI
100
AcDbLine
 62
7
  6
CONTINUOUS
 10
10.2605009247
 20
3.2926057611
 11
10.2605009247
 21
3.8993536085
  0
LINE
  5
254
100
AcDbEntity
  8
DRAFT
100
AcDbLine
 62
7
  6
CONTINUOUS
 10
10.5482806751
 20
3.1701997483
 11
10.5482806751
 21
-5.1688984818
  0
LINE
  5
255
100
AcDbEntity
  8
ASSI
100
AcDbLine
 62
7
  6
CONTINUOUS
 10
10.5482806751
 20
3.1701997483
 11
10.5482806751
 21
-5.1688984818
  0
LINE
  5
256
100
AcDbEntity
  8
RACCORDO
100
AcDbLine
 62
7
  6
CONTINUOUS
 10
9.9921334245
 20
-11.8068522656
 11
10.5482806751
 21
-5.1688984818
  0
LINE
  5
257
100
AcDbEntity
  8
ASSI
100
AcDbLine
 62
7
  6
CONTINUOUS
 10
9.9921334245
 20
-11.8068522656
 11
10.5482806751
 21
-5.1688984818
  0
LINE
  5
258
100
AcDbEntity
  8
RACCORDO
100
AcDbLine
 62
253
  6
CONTINUOUS
 10
9.4691066112
 20
-12.0538985222
 11
9.9921334245
 21
-11.8068522656
  0
LINE
  5
259
100
AcDbEntity
  8
ASSI
100
AcDbLine
 62
253
  6
CONTINUOUS
 10
9.4691066112
 20
-12.0538985222
 11
9.9921334245
 21
-11.8068522656
  0
LINE
  5
25A
100
AcDbEntity
  8
RACCORDO
100
AcDbLine
 62
7
  6
CONTINUOUS
 10
9.4022384325
 20
-12.1900220315
 11
9.9105554386
 21
-11.9499237989
  0
LINE
  5
25B
100
AcDbEntity
  8
ASSI
100
AcDbLine
 62
7
  6
CONTINUOUS
 10
9.4022384325
 20
-12.1900220315
 11
9.9105554386
 21
-11.9499237989
  0
ARC
  5
25C
100
AcDbEntity
  8
RACCORDO
100
AcDbCircle
 62
253
  6
CONTINUOUS
 10
437.4711185724
 20
10.8355924108
 40
448.3125442873
100
AcDbArc
 50
180.0544676289
 51
181.833567904
  0
ARC
  5
25D
100
AcDbEntity
  8
ASSI
100
AcDbCircle
 62
253
  6
CONTINUOUS
 10
437.4711185724
 20
10.8355924108
 40
448.3125442873
100
AcDbArc
 50
180.0544676289
 51
181.833567904
  0
ARC
  5
25E
100
AcDbEntity
  8
RACCORDO
100
AcDbCircle
 62
253
  6
CONTINUOUS
 10
437.0350950261
 20
2.3484923978
 40
430.9770748538
100
AcDbArc
 50
180.0516789074
 51
181.915013677
  0
ARC
  5
25F
100
AcDbEntity
  8
ASSI
100
AcDbCircle
 62
253
  6
CONTINUOUS
 10
437.0350950261
 20
2.3484923978
 40
430.9770748538
100
AcDbArc
 50
180.0516789074
 51
181.915013677
  0
ARC
  5
260
100
AcDbEntity
  8
RACCORDO
100
AcDbCircle
 62
253
  6
CONTINUOUS
 10
437.1278151085
 20
2.3470162581
 40
430.7193537598
100
AcDbArc
 50
180.0516795677
 51
181.9150326979
  0
ARC
  5
261
100
AcDbEntity
  8
ASSI
100
AcDbCircle
 62
253
  6
CONTINUOUS
 10
437.1278151085
 20
2.3470162581
 40
430.7193537598
100
AcDbArc
 50
180.0516795677
 51
181.9150326979
  0
ARC
  5
262
100
AcDbEntity
  8
CURVE
100
AcDbCircle
 62
253
  6
CONTINUOUS
 10
-5.0070770189
 20
-5.2048431718
 40
4.8340645051
100
AcDbArc
 50
23.6190923791
 51
32.6423050717
  0
ARC
  5
263
100
AcDbEntity
  8
CURVE
100
AcDbCircle
 62
253
  6
CONTINUOUS
 10
-4.9487828309
 20
-5.1797346127
 40
4.7705938227
100
AcDbArc
 50
21.1361259999
 51
23.6233034435
  0
ARC
  5
264
100
AcDbEntity
  8
CURVE
100
AcDbCircle
 62
253
  6
CONTINUOUS
 10
-4.8853918811
 20
-5.1291246236
 40
4.6907573497
100
AcDbArc
 50
32.6652311447
 51
37.068424209
  0
ARC
  5
265
100
AcDbEntity
  8
CURVE
100
AcDbCircle
 62
253
  6
CONTINUOUS
 10
-4.8397496446
 20
-5.1373381269
 40
4.6536081648
100
AcDbArc
 50
19.6568491588
 51
21.1333115633
  0
ARC
  5
266
100
AcDbEntity
  8
CURVE
100
AcDbCircle
 62
253
  6
CONTINUOUS
 10
-4.2008735264
 20
-4.538230277
 40
3.7854050236
100
AcDbArc
 50
44.9640626544
 51
46.6131189946
  0
ARC
  5
267
100
AcDbEntity
  8
CURVE
100
AcDbCircle
 62
253
  6
CONTINUOUS
 10
-3.1577950043
 20
-2.8039552996
 40
1.7409628042
100
AcDbArc
 50
74.9124630918
 51
77.7560354944
  0
ARC
  5
268
100
AcDbEntity
  8
CURVE
100
AcDbCircle
 62
253
  6
CONTINUOUS
 10
-3.1334889355
 20
-2.691749676
 40
1.6261547688
100
AcDbArc
 50
77.7545279151
 51
80.7320519982
  0
ARC
  5
269
100
AcDbEntity
  8
RACCORDO
100
AcDbCircle
 62
7
  6
CONTINUOUS
 10
-1.7559032187
 20
2.7052395909
 40
1.1007054639
100
AcDbArc
 50
237.1726665365
 51
240.9484598453
  0
ARC
  5
26A
100
AcDbEntity
  8
CURVE
100
AcDbCircle
 62
253
  6
CONTINUOUS
 10
-1.3909684449
 20
-5.3881481199
 40
1.0474880907
100
AcDbArc
 50
289.1697623916
 51
297.1285607713
  0
ARC
  5
26B
100
AcDbEntity
  8
RACCORDO
100
AcDbCircle
 62
7
  6
CONTINUOUS
 10
-1.7893104102
 20
2.6456929529
 40
1.0324284262
100
AcDbArc
 50
240.9644641986
 51
243.4252663163
  0
ARC
  5
26C
100
AcDbEntity
  8
DRAFT
100
AcDbCircle
 62
7
  6
CONTINUOUS
 10
-1.65173298
 20
2.3409106516
 40
0.7026651541
100
AcDbArc
 50
259.551408176
 51
262.8975864568
  0
ARC
  5
26D
100
AcDbEntity
  8
ASSI
100
AcDbCircle
 62
7
  6
CONTINUOUS
 10
-1.65173298
 20
2.3409106516
 40
0.7026651541
100
AcDbArc
 50
259.551408176
 51
262.8975864568
  0
ARC
  5
26E
100
AcDbEntity
  8
DRAFT
100
AcDbCircle
 62
7
  6
CONTINUOUS
 10
-2.3054658175
 20
3.513180138
 40
0.6136749686
100
AcDbArc
 50
142.6964001419
 51
148.683328854
  0
ARC
  5
26F
100
AcDbEntity
  8
RACCORDO
100
AcDbCircle
 62
253
  6
CONTINUOUS
 10
-10.1867715923
 20
-3.7740293248
 40
0.3701087874
100
AcDbArc
 50
241.2341444111
 51
243.3328122744
  0
ARC
  5
270
100
AcDbEntity
  8
ASSI
100
AcDbCircle
 62
253
  6
CONTINUOUS
 10
-10.1867823813
 20
-3.7740507928
 40
0.370084766
100
AcDbArc
 50
241.2820495873
 51
243.309370668
  0
ARC
  5
271
100
AcDbEntity
  8
ASSI
100
AcDbCircle
 62
7
  6
CONTINUOUS
 10
-10.6644441245
 20
10.4980953013
 40
0.2499729098
100
AcDbArc
 50
118.3452333313
 51
180.0617871985
  0
ARC
  5
272
100
AcDbEntity
  8
RACCORDO
100
AcDbCircle
 62
7
  6
CONTINUOUS
 10
-10.6646813667
 20
10.4986918436
 40
0.2493361602
100
AcDbArc
 50
118.3623369933
 51
180.0790761876
  0
SPLINE
  5
273
100
AcDbEntity
  8
RACCORDO
100
AcDbSpline
 62
7
  6
CONTINUOUS
 70
0
 71
3
 72
10
 73
6
 74
4
 42
0.0000001
 43
0.0000001
 44
0.0000000001
 12
0.5309507646
 22
-0.2654753776
 32
0.0
 13
0.5366819963
 23
0.2536896016
 33
0.0
 40
0.0
 40
0.0
 40
0.0
 40
0.0
 40
0.3683960887
 40
0.69741576
 40
1.0
 40
1.0
 40
1.0
 40
1.0
 10
-2.2511824845
 20
1.7223389351
 30
0.0
 10
-2.1859824228
 20
1.6897389048
 30
0.0
 10
-2.0548971698
 20
1.6411592783
 30
0.0
 10
-1.8545495002
 20
1.6269568673
 30
0.0
 10
-1.7310915795
 20
1.6603410076
 30
0.0
 10
-1.6769610749
 20
1.6859284993
 30
0.0
 11
-2.2511824845
 21
1.7223389351
 31
0.0
 11
-2.0450851377
 21
1.649207726
 31
0.0
 11
-1.850089693
 21
1.6380749399
 31
0.0
 11
-1.6769610749
 21
1.6859284993
 31
0.0
  0
SPLINE
  5
274
100
AcDbEntity
  8
RACCORDO
100
AcDbSpline
 62
7
  6
CONTINUOUS
 70
0
 71
3
 72
14
 73
10
 74
8
 42
0.0000001
 43
0.0000001
 44
0.0000000001
 12
-2.1334127319
 22
-1.1262489471
 32
0.0
 13
2.0328953942
 23
-1.3102034695
 33
0.0
 40
0.0
 40
0.0
 40
0.0
 40
0.0
 40
0.1126354234
 40
0.2431064815
 40
0.3946442942
 40
0.5607875776
 40
0.7319683022
 40
0.897607205
 40
1.0
 40
1.0
 40
1.0
 40
1.0
 10
-2.7563039877
 20
3.8446144266
 30
0.0
 10
-2.8364032698
 20
3.8023292509
 30
0.0
 10
-2.9851863873
 20
3.6608898481
 30
0.0
 10
-3.0929767754
 20
3.3534795801
 30
0.0
 10
-3.0942804558
 20
2.988284406
 30
0.0
 10
-2.9970276377
 20
2.6038614245
 30
0.0
 10
-2.814803214
 20
2.2392789865
 30
0.0
 10
-2.5916297329
 20
1.9621100435
 30
0.0
 10
-2.4219903342
 20
1.8250263598
 30
0.0
 10
-2.3526057204
 20
1.7803078947
 30
0.0
 11
-2.7563039877
 21
3.8446144266
 31
0.0
 11
-2.9565863274
 21
3.6609779016
 31
0.0
 11
-3.0709114132
 21
3.367720478
 31
0.0
 11
-3.0796474294
 21
3.0022484143
 31
0.0
 11
-2.984661463
 21
2.6128547915
 31
0.0
 11
-2.8001092585
 21
2.2434232683
 31
0.0
 11
-2.5467196579
 21
1.9344418579
 31
0.0
 11
-2.3526057204
 21
1.7803078947
 31
0.0
  0
SPLINE
  5
275
100
AcDbEntity
  8
RACCORDO
100
AcDbSpline
 62
253
  6
CONTINUOUS
 70
0
 71
3
 72
20
 73
16
 74
14
 42
0.0000001
 43
0.0000001
 44
0.0000000001
 12
2.3096192904
 22
1.1011434821
 32
0.0
 13
-2.2752317028
 23
1.13761587
 33
0.0
 40
0.0
 40
0.0
 40
0.0
 40
0.0
 40
0.0913253166
 40
0.1944753298
 40
0.300071473
 40
0.4040895859
 40
0.5028558466
 40
0.5939847407
 40
0.6762969559
 40
0.7496288086
 40
0.81425267
 40
0.8708004493
 40
0.9200563031
 40
0.9628161743
 40
1.0
 40
1.0
 40
1.0
 40
1.0
 10
-1.6769689206
 20
1.6859587427
 30
0.0
 10
-1.6066600163
 20
1.7194795017
 30
0.0
 10
-1.4757069306
 20
1.8318982405
 30
0.0
 10
-1.3736067485
 20
2.0717278494
 30
0.0
 10
-1.3451397648
 20
2.3377786385
 30
0.0
 10
-1.3711710475
 20
2.5993696431
 30
0.0
 10
-1.4342235155
 20
2.841298951
 30
0.0
 10
-1.5206511901
 20
3.0559048516
 30
0.0
 10
-1.6201240297
 20
3.2404383006
 30
0.0
 10
-1.7251716606
 20
3.3952341069
 30
0.0
 10
-1.8306180003
 20
3.5223647405
 30
0.0
 10
-1.9329574484
 20
3.6246817886
 30
0.0
 10
-2.0299487323
 20
3.705341862
 30
0.0
 10
-2.1203079947
 20
3.7675359305
 30
0.0
 10
-2.1794945964
 20
3.8008046787
 30
0.0
 10
-2.2076952027
 20
3.8149049821
 30
0.0
 11
-1.6769689206
 21
1.6859587427
 31
0.0
 11
-1.4979552478
 21
1.8345484091
 31
0.0
 11
-1.3871427442
 21
2.0723927705
 31
0.0
 11
-1.3543282447
 21
2.3389949207
 31
0.0
 11
-1.378556769
 21
2.6024831826
 31
0.0
 11
-1.4411519099
 21
2.8458009196
 31
0.0
 11
-1.5275485468
 21
3.060911655
 31
0.0
 11
-1.6269571366
 21
3.245193726
 31
0.0
 11
-1.7318669664
 21
3.3994380492
 31
0.0
 11
-1.8370075596
 21
3.5258077338
 31
0.0
 11
-1.938919028
 21
3.627324098
 31
0.0
 11
-2.0354161919
 21
3.7072457956
 31
0.0
 11
-2.125144926
 21
3.7687282929
 31
0.0
 11
-2.2076952027
 21
3.8149049821
 31
0.0
  0
SPLINE
  5
276
100
AcDbEntity
  8
RACCORDO
100
AcDbSpline
 62
253
  6
CONTINUOUS
 70
0
 71
3
 72
8
 73
4
 74
2
 42
0.0000001
 43
0.0000001
 44
0.0000000001
 12
0.0835988337
 22
-0.0417994168
 32
0.0
 13
0.0882735387
 23
-0.032464483
 33
0.0
 40
0.0
 40
0.0
 40
0.0
 40
0.0
 40
1.0
 40
1.0
 40
1.0
 40
1.0
 10
-2.2767284666
 20
1.7669654088
 30
0.0
 10
-2.2488621887
 20
1.7530322699
 30
0.0
 10
-2.2201308814
 20
1.7404070657
 30
0.0
 10
-2.1907063685
 20
1.7295855714
 30
0.0
 11
-2.2767284666
 21
1.7669654088
 31
0.0
 11
-2.1907063685
 21
1.7295855714
 31
0.0
  0
SPLINE
  5
277
100
AcDbEntity
  8
RACCORDO
100
AcDbSpline
 62
253
  6
CONTINUOUS
 70
0
 71
3
 72
10
 73
6
 74
4
 42
0.0000001
 43
0.0000001
 44
0.0000000001
 12
0.4497329471
 22
-0.165398916
 32
0.0
 13
0.3975809252
 23
0.2706053485
 33
0.0
 40
0.0
 40
0.0
 40
0.0
 40
0.0
 40
0.3604798126
 40
0.8430695357
 40
1.0
 40
1.0
 40
1.0
 40
1.0
 10
-2.1907063685
 20
1.7295855714
 30
0.0
 10
-2.1366664857
 20
1.709711248
 30
0.0
 10
-2.0048127735
 20
1.6774588266
 30
0.0
 10
-1.8401515743
 20
1.6985990537
 30
0.0
 10
-1.7506540501
 20
1.7488237166
 30
0.0
 10
-1.7298565303
 20
1.7629791243
 30
0.0
 11
-2.1907063685
 21
1.7295855714
 31
0.0
 11
-2.0226366573
 21
1.6912852272
 31
0.0
 11
-1.7955290542
 21
1.7263848775
 31
0.0
 11
-1.7298565303
 21
1.7629791243
 31
0.0
  0
SPLINE
  5
278
100
AcDbEntity
  8
RACCORDO
100
AcDbSpline
 62
253
  6
CONTINUOUS
 70
0
 71
3
 72
20
 73
16
 74
14
 42
0.0000001
 43
0.0000001
 44
0.0000000001
 12
1.9147547356
 22
1.3032387614
 32
0.0
 13
-2.0512188492
 23
1.0256094246
 33
0.0
 40
0.0
 40
0.0
 40
0.0
 40
0.0
 40
0.0662565476
 40
0.172252553
 40
0.2807617212
 40
0.3876493116
 40
0.4891401078
 40
0.5827829581
 40
0.667365994
 40
0.7427209878
 40
0.8091277958
 40
0.8672357412
 40
0.9178505631
 40
0.9617902467
 40
1.0
 40
1.0
 40
1.0
 40
1.0
 10
-1.7298565303
 20
1.7629791243
 30
0.0
 10
-1.6875681842
 20
1.7917618246
 30
0.0
 10
-1.5901400729
 20
1.8862701811
 30
0.0
 10
-1.5040191324
 20
2.0885760288
 30
0.0
 10
-1.4776458713
 20
2.3350484793
 30
0.0
 10
-1.5017622927
 20
2.5773899289
 30
0.0
 10
-1.5601740239
 20
2.8015165236
 30
0.0
 10
-1.6402414826
 20
3.000330474
 30
0.0
 10
-1.7323940211
 20
3.1712851908
 30
0.0
 10
-1.829711434
 20
3.3146906104
 30
0.0
 10
-1.927398358
 20
3.4324666482
 30
0.0
 10
-2.0222069942
 20
3.5272551538
 30
0.0
 10
-2.1120614239
 20
3.6019799127
 30
0.0
 10
-2.1957714499
 20
3.6595980367
 30
0.0
 10
-2.2506029445
 20
3.6904188196
 30
0.0
 10
-2.2767284666
 20
3.7034815807
 30
0.0
 11
-1.7298565303
 21
1.7629791243
 31
0.0
 11
-1.6192146428
 21
1.8688475893
 31
0.0
 11
-1.5165581557
 21
2.0891916657
 31
0.0
 11
-1.4861584923
 21
2.3361754377
 31
0.0
 11
-1.5086042559
 21
2.5802743997
 31
0.0
 11
-1.5665926292
 21
2.8056871383
 31
0.0
 11
-1.6466312001
 21
3.0049688129
 31
0.0
 11
-1.7387242964
 21
3.175690646
 31
0.0
 11
-1.8359140399
 21
3.3185851841
 31
0.0
 11
-1.9333177034
 21
3.4356563112
 31
0.0
 11
-2.0277299611
 21
3.5297029768
 31
0.0
 11
-2.1171264497
 21
3.603743826
 31
0.0
 11
-2.2002525335
 21
3.6607026219
 31
0.0
 11
-2.2767284666
 21
3.7034815807
 31
0.0
  0
SPLINE
  5
279
100
AcDbEntity
  8
RACCORDO
100
AcDbSpline
 62
253
  6
CONTINUOUS
 70
0
 71
3
 72
22
 73
18
 74
16
 42
0.0000001
 43
0.0000001
 44
0.0000000001
 12
-2.5607350466
 22
1.2803675233
 32
0.0
 13
2.5607350466
 23
-1.2803675233
 33
0.0
 40
0.0
 40
0.0
 40
0.0
 40
0.0
 40
0.0926031929
 40
0.1728708975
 40
0.252045775
 40
0.3369516027
 40
0.4238704212
 40
0.5094903106
 40
0.590787205
 40
0.6657976871
 40
0.733551015
 40
0.7939124321
 40
0.8471061098
 40
0.8936521728
 40
0.9341960337
 40
0.9693929376
 40
1.0
 40
1.0
 40
1.0
 40
1.0
 10
-2.2767284666
 20
3.7034815807
 30
0.0
 10
-2.3557725471
 20
3.7430036209
 30
0.0
 10
-2.5163240623
 20
3.7971387985
 30
0.0
 10
-2.7658473623
 20
3.7651021102
 30
0.0
 10
-2.9533219583
 20
3.6076562011
 30
0.0
 10
-3.0494385498
 20
3.3818707491
 30
0.0
 10
-3.0758117259
 20
3.1353981614
 30
0.0
 10
-3.0516954354
 20
2.8930566974
 30
0.0
 10
-2.9932834941
 20
2.6689301578
 30
0.0
 10
-2.9132159529
 20
2.4701162575
 30
0.0
 10
-2.8210632712
 20
2.2991616124
 30
0.0
 10
-2.7237457689
 20
2.1557562406
 30
0.0
 10
-2.626058769
 20
2.0379802373
 30
0.0
 10
-2.531250051
 20
1.9431917923
 30
0.0
 10
-2.4413956148
 20
1.8684669984
 30
0.0
 10
-2.3576855028
 20
1.8108489595
 30
0.0
 10
-2.3028539924
 20
1.7800281717
 30
0.0
 10
-2.2767284666
 20
1.7669654088
 30
0.0
 11
-2.2767284666
 21
3.7034815807
 31
0.0
 11
-2.5308190909
 21
3.7791623548
 31
0.0
 11
-2.7579282015
 21
3.7440619507
 31
0.0
 11
-2.9342425539
 21
3.6015992683
 31
0.0
 11
-3.0368994552
 21
3.3812549849
 31
0.0
 11
-3.0672991434
 21
3.1342712006
 31
0.0
 11
-3.0448534109
 21
2.890172223
 31
0.0
 11
-2.9868649065
 21
2.6647595499
 31
0.0
 11
-2.9068262225
 21
2.4654779318
 31
0.0
 11
-2.8147330011
 21
2.2947561613
 31
0.0
 11
-2.7175431627
 21
2.1518616707
 31
0.0
 11
-2.6201394189
 21
2.0347905837
 31
0.0
 11
-2.5257270923
 21
1.9407439526
 31
0.0
 11
-2.4363305817
 21
1.8667031143
 31
0.0
 11
-2.3532044197
 21
1.8097443576
 31
0.0
 11
-2.2767284666
 21
1.7669654088
 31
0.0
  0
SPLINE
  5
27A
100
AcDbEntity
  8
RACCORDO
100
AcDbSpline
 62
253
  6
CONTINUOUS
 70
0
 71
3
 72
10
 73
6
 74
4
 42
0.0000001
 43
0.0000001
 44
0.0000000001
 12
-0.5066545929
 22
0.2533273006
 32
0.0
 13
-0.5030012107
 23
-0.268775241
 33
0.0
 40
0.0
 40
0.0
 40
0.0
 40
0.0
 40
0.5052042006
 40
0.9431177079
 40
1.0
 40
1.0
 40
1.0
 40
1.0
 10
-2.2076952027
 20
3.8149049821
 30
0.0
 10
-2.2930165456
 20
3.8575656543
 30
0.0
 10
-2.4663214633
 20
3.9159862188
 30
0.0
 10
-2.6621980337
 20
3.8908530529
 30
0.0
 10
-2.7467120837
 20
3.8496082412
 30
0.0
 10
-2.756249371
 20
3.8445120572
 30
0.0
 11
-2.2076952027
 21
3.8149049821
 31
0.0
 11
-2.4819663644
 21
3.8965891929
 31
0.0
 11
-2.7271164763
 21
3.8587106008
 31
0.0
 11
-2.756249371
 21
3.8445120572
 31
0.0
  0
SPLINE
  5
27B
100
AcDbEntity
  8
DRAFT
100
AcDbSpline
 62
7
  6
CONTINUOUS
 70
0
 71
3
 72
18
 73
14
 74
12
 42
0.0000001
 43
0.0000001
 44
0.0000000001
 12
2.4354104948
 22
1.2891825476
 32
0.0
 13
-2.4531275979
 23
1.226563799
 33
0.0
 40
0.0
 40
0.0
 40
0.0
 40
0.0
 40
0.0586239422
 40
0.1287369961
 40
0.2076364478
 40
0.2955840785
 40
0.3921028696
 40
0.4955278479
 40
0.6017212965
 40
0.7091477205
 40
0.8125165559
 40
0.9106444314
 40
1.0
 40
1.0
 40
1.0
 40
1.0
 10
-1.4171728614
 20
1.696759908
 30
0.0
 10
-1.36958174
 20
1.7219522291
 30
0.0
 10
-1.2743098483
 20
1.7950249224
 30
0.0
 10
-1.1680816017
 20
1.9561705834
 30
0.0
 10
-1.1034349133
 20
2.1652993889
 30
0.0
 10
-1.0846337649
 20
2.4069112526
 30
0.0
 10
-1.1115744285
 20
2.6699244209
 30
0.0
 10
-1.1826939924
 20
2.9416447168
 30
0.0
 10
-1.2946571558
 20
3.2099577237
 30
0.0
 10
-1.4415754806
 20
3.4607901105
 30
0.0
 10
-1.6171441358
 20
3.6832701086
 30
0.0
 10
-1.8120663375
 20
3.8656698862
 30
0.0
 10
-1.9568553067
 20
3.9598420614
 30
0.0
 10
-2.0299221771
 20
3.9963754966
 30
0.0
 11
-1.4171728614
 21
1.696759908
 31
0.0
 11
-1.2889109112
 21
1.794069231
 31
0.0
 11
-1.1804543409
 21
1.9528633348
 31
0.0
 11
-1.1134187867
 21
2.1586142568
 31
0.0
 11
-1.0921628144
 21
2.3988880886
 31
0.0
 11
-1.1173920885
 21
2.6624032638
 31
0.0
 11
-1.1882169128
 21
2.9370808212
 31
0.0
 11
-1.3000463551
 21
3.2060110121
 31
0.0
 11
-1.4491959764
 21
3.4601073415
 31
0.0
 11
-1.6255237446
 21
3.6821098202
 31
0.0
 11
-1.8231891487
 21
3.8647601861
 31
0.0
 11
-2.0299221771
 21
3.9963754966
 31
0.0
  0
SPLINE
  5
27C
100
AcDbEntity
  8
DRAFT
100
AcDbSpline
 62
7
  6
CONTINUOUS
 70
0
 71
3
 72
10
 73
6
 74
4
 42
0.0000001
 43
0.0000001
 44
0.0000000001
 12
-0.5326592145
 22
0.2663296072
 32
0.0
 13
-0.5408030121
 23
-0.2556892649
 33
0.0
 40
0.0
 40
0.0
 40
0.0
 40
0.0
 40
0.3685097703
 40
0.699068691
 40
1.0
 40
1.0
 40
1.0
 40
1.0
 10
-2.0299221771
 20
3.9963754966
 30
0.0
 10
-2.0953522187
 20
4.0290905174
 30
0.0
 10
-2.2265323827
 20
4.0788962916
 30
0.0
 10
-2.4273230405
 20
4.0969591066
 30
0.0
 10
-2.5514525184
 20
4.0650252713
 30
0.0
 10
-2.6057007045
 20
4.0393769696
 30
0.0
 11
-2.0299221771
 21
3.9963754966
 31
0.0
 11
-2.2362065501
 21
4.0712689131
 31
0.0
 11
-2.4325409709
 21
4.0856186343
 31
0.0
 11
-2.6057007045
 21
4.0393769696
 31
0.0
  0
SPLINE
  5
27D
100
AcDbEntity
  8
DRAFT
100
AcDbSpline
 62
7
  6
CONTINUOUS
 70
0
 71
3
 72
9
 73
5
 74
3
 42
0.0000001
 43
0.0000001
 44
0.0000000001
 12
-0.2217832588
 22
-0.1048581408
 32
0.0
 13
-0.1487435052
 23
-0.1948431773
 33
0.0
 40
0.0
 40
0.0
 40
0.0
 40
0.0
 40
0.7453588767
 40
1.0
 40
1.0
 40
1.0
 40
1.0
 10
-2.6057007045
 20
4.0393769696
 30
0.0
 10
-2.6608034114
 20
4.0133246542
 30
0.0
 10
-2.7279272145
 20
3.963897876
 30
0.0
 10
-2.7809792105
 20
3.9016290825
 30
0.0
 10
-2.7936046149
 20
3.8850907207
 30
0.0
 11
-2.6057007045
 21
4.0393769696
 31
0.0
 11
-2.7530483253
 21
3.9325087703
 31
0.0
 11
-2.7936046149
 21
3.8850907207
 31
0.0
  0
SPLINE
  5
27E
100
AcDbEntity
  8
DRAFT
100
AcDbSpline
 62
7
  6
CONTINUOUS
 70
0
 71
3
 72
9
 73
5
 74
3
 42
0.0000001
 43
0.0000001
 44
0.0000000001
 12
-0.0393157115
 22
-0.0644858863
 32
0.0
 13
-0.0319772713
 23
-0.0683203875
 33
0.0
 40
0.0
 40
0.0
 40
0.0
 40
0.0
 40
0.8810900114
 40
1.0
 40
1.0
 40
1.0
 40
1.0
 10
-2.8297330264
 20
3.8321485703
 30
0.0
 10
-2.8412799199
 20
3.8132092802
 30
0.0
 10
-2.8532849142
 20
3.7910345749
 30
0.0
 10
-2.8640857338
 20
3.7683230764
 30
0.0
 10
-2.8653532062
 20
3.7656150842
 30
0.0
 11
-2.8297330264
 21
3.8321485703
 31
0.0
 11
-2.8615000566
 21
3.7737167344
 31
0.0
 11
-2.8653532062
 21
3.7656150842
 31
0.0
  0
SPLINE
  5
27F
100
AcDbEntity
  8
DRAFT
100
AcDbSpline
 62
7
  6
CONTINUOUS
 70
0
 71
3
 72
10
 73
6
 74
4
 42
0.0000001
 43
0.0000001
 44
0.0000000001
 12
0.3283788021
 22
-0.0408010067
 32
0.0
 13
0.2925471435
 23
0.1548595904
 33
0.0
 40
0.0
 40
0.0
 40
0.0
 40
0.0
 40
0.3914917532
 40
0.9389715821
 40
1.0
 40
1.0
 40
1.0
 40
1.0
 10
-1.7386128029
 20
1.6436372367
 30
0.0
 10
-1.6957602719
 20
1.6383128175
 30
0.0
 10
-1.5918548827
 20
1.6353661925
 30
0.0
 10
-1.4831190665
 20
1.6634588548
 30
0.0
 10
-1.4231240912
 20
1.6936096294
 30
0.0
 10
-1.4171728614
 20
1.696759908
 30
0.0
 11
-1.7386128029
 21
1.6436372367
 31
0.0
 11
-1.6094301924
 21
1.6409534246
 31
0.0
 11
-1.4352201827
 21
1.6876932002
 31
0.0
 11
-1.4171728614
 21
1.696759908
 31
0.0
  0
SPLINE
  5
280
100
AcDbEntity
  8
ASSI
100
AcDbSpline
 62
7
  6
CONTINUOUS
 70
0
 71
3
 72
26
 73
22
 74
20
 42
0.0000001
 43
0.0000001
 44
0.0000000001
 12
-5.4924188562
 22
2.7462094281
 32
0.0
 13
5.4924188562
 23
-2.7462094281
 33
0.0
 40
0.0
 40
0.0
 40
0.0
 40
0.0
 40
0.05293166
 40
0.1097804637
 40
0.1699669753
 40
0.2325120521
 40
0.2966483843
 40
0.3610410885
 40
0.4249025715
 40
0.4868204967
 40
0.5461736132
 40
0.601803194
 40
0.6535433549
 40
0.7009654854
 40
0.7447108065
 40
0.785457976
 40
0.8248708045
 40
0.8645297783
 40
0.9062455542
 40
0.9511611582
 40
1.0
 40
1.0
 40
1.0
 40
1.0
 10
-2.3511301582
 20
0.6261714648
 30
0.0
 10
-2.448037774
 20
0.6746252727
 30
0.0
 10
-2.6409837001
 20
0.7916705988
 30
0.0
 10
-2.9121522662
 20
1.0109754681
 30
0.0
 10
-3.1690879473
 20
1.2749745272
 30
0.0
 10
-3.4050450829
 20
1.5769068048
 30
0.0
 10
-3.6134853811
 20
1.9086314752
 30
0.0
 10
-3.7889926586
 20
2.2618957482
 30
0.0
 10
-3.9264212318
 20
2.626829867
 30
0.0
 10
-4.0220857103
 20
2.9942790131
 30
0.0
 10
-4.0730273629
 20
3.3536550523
 30
0.0
 10
-4.0777587201
 20
3.695925527
 30
0.0
 10
-4.0359219728
 20
4.0113199864
 30
0.0
 10
-3.9480768491
 20
4.2921016084
 30
0.0
 10
-3.815925441
 20
4.5301040491
 30
0.0
 10
-3.6418366719
 20
4.7183136683
 30
0.0
 10
-3.4308798439
 20
4.8494025856
 30
0.0
 10
-3.1904282128
 20
4.9186206593
 30
0.0
 10
-2.9294818296
 20
4.9247243252
 30
0.0
 10
-2.6558555526
 20
4.8693635248
 30
0.0
 10
-2.4771673286
 20
4.7963959611
 30
0.0
 10
-2.3877528699
 20
4.7516887317
 30
0.0
 11
-2.3511301582
 21
0.6261714648
 31
0.0
 11
-2.6299609625
 21
0.7932136753
 31
0.0
 11
-2.9022802463
 21
1.0116341016
 31
0.0
 11
-3.1607531036
 21
1.2758064892
 31
0.0
 11
-3.3977304439
 21
1.5780521786
 31
0.0
 11
-3.6074884065
 21
1.911389324
 31
0.0
 11
-3.7833478318
 21
2.2655475568
 31
0.0
 11
-3.9211490198
 21
2.6326937201
 31
0.0
 11
-4.0161788441
 21
3.0008467362
 31
0.0
 11
-4.0661464384
 21
3.3618756312
 31
0.0
 11
-4.0692611233
 21
3.7034666079
 31
0.0
 11
-4.0254567046
 21
4.018153824
 31
0.0
 11
-3.9362680833
 21
4.2953650961
 31
0.0
 11
-3.803789472
 21
4.5290530998
 31
0.0
 11
-3.6325961463
 21
4.7115392291
 31
0.0
 11
-3.4267934981
 21
4.8388981703
 31
0.0
 11
-3.1930625638
 21
4.9072999471
 31
0.0
 11
-2.9370258198
 21
4.9153899593
 31
0.0
 11
-2.6662309012
 21
4.8630131313
 31
0.0
 11
-2.3877528699
 21
4.7516887317
 31
0.0
  0
SPLINE
  5
281
100
AcDbEntity
  8
RACCORDO
100
AcDbSpline
 62
253
  6
CONTINUOUS
 70
0
 71
3
 72
13
 73
9
 74
7
 42
0.0000001
 43
0.0000001
 44
0.0000000001
 12
0.0237005162
 22
-0.7022873817
 32
0.0
 13
0.6783415113
 23
0.1833632327
 33
0.0
 40
0.0
 40
0.0
 40
0.0
 40
0.0
 40
0.1946677134
 40
0.3699588267
 40
0.5285926496
 40
0.6790968263
 40
0.8330968665
 40
1.0
 40
1.0
 40
1.0
 40
1.0
 10
6.648998784
 20
-12.046506894
 30
0.0
 10
6.6505366924
 20
-12.0920777869
 30
0.0
 10
6.6613189579
 20
-12.1788061584
 30
0.0
 10
6.7053549069
 20
-12.2960202437
 30
0.0
 10
6.7759130022
 20
-12.3875298443
 30
0.0
 10
6.8703000425
 20
-12.4459763414
 30
0.0
 10
6.9811142567
 20
-12.466365619
 30
0.0
 10
7.0567233445
 20
-12.4554939884
 30
0.0
 10
7.0944624524
 20
-12.445292689
 30
0.0
 11
6.648998784
 21
-12.046506894
 31
0.0
 11
6.6674317303
 21
-12.1820497635
 31
0.0
 11
6.71247935
 21
-12.2966915884
 31
0.0
 11
6.7818304193
 21
-12.3839611706
 31
0.0
 11
6.871913863
 21
-12.4393650657
 31
0.0
 11
6.978121196
 21
-12.460107312
 31
0.0
 11
7.0944624524
 21
-12.445292689
 31
0.0
  0
LINE
  5
282
100
AcDbEntity
  8
RACCORDO
100
AcDbLine
 62
253
  6
CONTINUOUS
 10
-10.6088413839
 20
-3.5997310617
 11
-10.6117789617
 21
-3.5087625985
  0
SPLINE
  5
283
100
AcDbEntity
  8
RACCORDO
100
AcDbSpline
 62
253
  6
CONTINUOUS
 70
0
 71
3
 72
12
 73
8
 74
6
 42
0.0000001
 43
0.0000001
 44
0.0000000001
 12
-0.0053497267
 22
0.3664563861
 32
0.0
 13
-0.3254083925
 23
0.1686068818
 33
0.0
 40
0.0
 40
0.0
 40
0.0
 40
0.0
 40
0.1955839747
 40
0.4065111841
 40
0.6196376798
 40
0.8218553915
 40
1.0
 40
1.0
 40
1.0
 40
1.0
 10
6.4085304384
 20
1.9585165695
 30
0.0
 10
6.4081816648
 20
1.9824075684
 30
0.0
 10
6.4009449832
 20
2.0320420259
 30
0.0
 10
6.3753580974
 20
2.1037031692
 30
0.0
 10
6.3367800968
 20
2.1703031944
 30
0.0
 10
6.2890194326
 20
2.2254235185
 30
0.0
 10
6.2511039173
 20
2.2533526955
 30
0.0
 10
6.2317806671
 20
2.2633648312
 30
0.0
 11
6.4085304384
 21
1.9585165695
 31
0.0
 11
6.3990075613
 21
2.0295618229
 31
0.0
 11
6.3733184561
 21
2.1024724291
 31
0.0
 11
6.3340439207
 21
2.1699903183
 31
0.0
 11
6.2850171266
 21
2.2255685732
 31
0.0
 11
6.2317806671
 21
2.2633648312
 31
0.0
  0
SPLINE
  5
284
100
AcDbEntity
  8
RACCORDO
100
AcDbSpline
 62
253
  6
CONTINUOUS
 70
0
 71
3
 72
12
 73
8
 74
6
 42
0.0000001
 43
0.0000001
 44
0.0000000001
 12
-0.0003856599
 22
0.3643136515
 32
0.0
 13
0.3230429735
 23
0.1684274998
 33
0.0
 40
0.0
 40
0.0
 40
0.0
 40
0.0
 40
0.1954109409
 40
0.4054784998
 40
0.6178639365
 40
0.8202454909
 40
1.0
 40
1.0
 40
1.0
 40
1.0
 10
-10.8411980729
 20
10.4094089039
 30
0.0
 10
-10.8412231937
 20
10.4331391951
 30
0.0
 10
-10.8347623374
 20
10.4824673625
 30
0.0
 10
-10.8101048333
 20
10.5537690448
 30
0.0
 10
-10.7722030324
 20
10.6200485361
 30
0.0
 10
-10.724727994
 20
10.67503434
 30
0.0
 10
-10.6868628485
 20
10.7029166496
 30
0.0
 10
-10.6675067048
 20
10.7130085171
 30
0.0
 11
-10.8411980729
 21
10.4094089039
 31
0.0
 11
-10.8327381759
 21
10.4800953685
 31
0.0
 11
-10.8080297079
 21
10.5525274916
 31
0.0
 11
-10.769508646
 21
10.6196319759
 31
0.0
 11
-10.7208595896
 21
10.6750345196
 31
0.0
 11
-10.6675067048
 21
10.7130085171
 31
0.0
  0
SPLINE
  5
285
100
AcDbEntity
  8
RACCORDO
100
AcDbSpline
 62
253
  6
CONTINUOUS
 70
0
 71
3
 72
12
 73
8
 74
6
 42
0.0000001
 43
0.0000001
 44
0.0000000001
 12
-0.0003856587
 22
0.3643125473
 32
0.0
 13
0.3230419943
 23
0.1684269893
 33
0.0
 40
0.0
 40
0.0
 40
0.0
 40
0.0
 40
0.1947631165
 40
0.4040949088
 40
0.6160496428
 40
0.8181238454
 40
1.0
 40
1.0
 40
1.0
 40
1.0
 10
6.0580892989
 20
1.959765218
 30
0.0
 10
6.0580642616
 20
1.983416767
 30
0.0
 10
6.0644822062
 20
2.0325763629
 30
0.0
 10
6.0889985636
 20
2.1036893237
 30
0.0
 10
6.1267174698
 20
2.1698647106
 30
0.0
 10
6.174188883
 20
2.2250659289
 30
0.0
 10
6.2121961219
 20
2.2531538801
 30
0.0
 10
6.2317806671
 20
2.2633648312
 30
0.0
 11
6.0580892989
 21
1.959765218
 31
0.0
 11
6.0664956281
 21
2.0302201767
 31
0.0
 11
6.0910486154
 21
2.1024218405
 31
0.0
 11
6.1293936361
 21
2.1694460893
 31
0.0
 11
6.1778534132
 21
2.2248653158
 31
0.0
 11
6.2317806671
 21
2.2633648312
 31
0.0
  0
SPLINE
  5
286
100
AcDbEntity
  8
RACCORDO
100
AcDbSpline
 62
253
  6
CONTINUOUS
 70
0
 71
3
 72
10
 73
6
 74
4
 42
0.0000001
 43
0.0000001
 44
0.0000000001
 12
-0.106624233
 22
0.0533150671
 32
0.0
 13
0.0002963801
 23
0.1185053347
 33
0.0
 40
0.0
 40
0.0
 40
0.0
 40
0.0
 40
0.5625436167
 40
0.9915901696
 40
1.0
 40
1.0
 40
1.0
 40
1.0
 10
-10.8411980729
 20
10.4094089039
 30
0.0
 10
-10.8611916668
 20
10.4194062541
 30
0.0
 10
-10.8952828599
 20
10.4410406975
 30
0.0
 10
-10.9143065639
 20
10.4801732808
 30
0.0
 10
-10.9144192691
 20
10.4974518638
 30
0.0
 10
-10.9144184383
 20
10.4977840671
 30
0.0
 11
-10.8411980729
 21
10.4094089039
 31
0.0
 11
-10.894971632
 21
10.4494791125
 31
0.0
 11
-10.9144119017
 21
10.4967875826
 31
0.0
 11
-10.9144184383
 21
10.4977840671
 31
0.0
  0
SPLINE
  5
287
100
AcDbEntity
  8
RACCORDO
100
AcDbSpline
 62
253
  6
CONTINUOUS
 70
0
 71
3
 72
10
 73
6
 74
4
 42
0.0000001
 43
0.0000001
 44
0.0000000001
 12
-0.0264958835
 22
-0.1937282823
 32
0.0
 13
-0.191317782
 23
-0.0524592148
 33
0.0
 40
0.0
 40
0.0
 40
0.0
 40
0.0
 40
0.430683799
 40
0.8010691498
 40
1.0
 40
1.0
 40
1.0
 40
1.0
 10
7.0944624524
 20
-12.445292689
 30
0.0
 10
7.0906586699
 20
-12.4731045666
 30
0.0
 10
7.0761425344
 20
-12.5244349264
 30
0.0
 10
7.0334768681
 20
-12.5771974739
 30
0.0
 10
6.9987360536
 20
-12.5930422811
 30
0.0
 10
6.9860497173
 20
-12.5965208665
 30
0.0
 11
7.0944624524
 21
-12.445292689
 31
0.0
 11
7.0693665107
 21
-12.525678741
 31
0.0
 11
7.0217384121
 21
-12.5802362896
 31
0.0
 11
6.9860497173
 21
-12.5965208665
 31
0.0
  0
SPLINE
  5
288
100
AcDbEntity
  8
RACCORDO
100
AcDbSpline
 62
253
  6
CONTINUOUS
 70
0
 71
3
 72
11
 73
7
 74
5
 42
0.0000001
 43
0.0000001
 44
0.0000000001
 12
-0.3186082903
 22
-0.1690650599
 32
0.0
 13
-0.3227128788
 23
0.1610920079
 33
0.0
 40
0.0
 40
0.0
 40
0.0
 40
0.0
 40
0.2388435752
 40
0.503579771
 40
0.7663858709
 40
1.0
 40
1.0
 40
1.0
 40
1.0
 10
6.6489987839
 20
-12.0465068939
 30
0.0
 10
6.6236329362
 20
-12.0599669284
 30
0.0
 10
6.5655912906
 20
-12.0797931265
 30
0.0
 10
6.4735470376
 20
-12.0906387911
 30
0.0
 10
6.3817711636
 20
-12.0835955822
 30
0.0
 10
6.3238331582
 20
-12.0660411217
 30
0.0
 10
6.2987030622
 20
-12.0534966653
 30
0.0
 11
6.6489987839
 21
-12.0465068939
 31
0.0
 11
6.5680269332
 21
-12.0759168958
 31
0.0
 11
6.4732524501
 21
-12.0875566948
 31
0.0
 11
6.3787887745
 21
-12.0796929379
 31
0.0
 11
6.2987030622
 21
-12.0534966653
 31
0.0
  0
SPLINE
  5
289
100
AcDbEntity
  8
RACCORDO
100
AcDbSpline
 62
253
  6
CONTINUOUS
 70
0
 71
3
 72
11
 73
7
 74
5
 42
0.0000001
 43
0.0000001
 44
0.0000000001
 12
-0.32390209
 22
-0.1568996968
 32
0.0
 13
-0.3219104798
 23
0.1609463318
 33
0.0
 40
0.0
 40
0.0
 40
0.0
 40
0.0
 40
0.2366865908
 40
0.5013293953
 40
0.7652575898
 40
1.0
 40
1.0
 40
1.0
 40
1.0
 10
6.4085304384
 20
1.9585165695
 30
0.0
 10
6.3829760113
 20
1.9461378847
 30
0.0
 10
6.3246849542
 20
1.9285147398
 30
0.0
 10
6.2327597528
 20
1.9202901037
 30
0.0
 10
6.1411280525
 20
1.9291214546
 30
0.0
 10
6.0832779796
 20
1.9471715747
 30
0.0
 10
6.0580892989
 20
1.959765218
 30
0.0
 11
6.4085304384
 21
1.9585165695
 31
0.0
 11
6.3275052644
 21
1.9322246236
 31
0.0
 11
6.2326843197
 21
1.9232394718
 31
0.0
 11
6.1381882443
 21
1.9328991743
 31
0.0
 11
6.0580892989
 21
1.959765218
 31
0.0
  0
SPLINE
  5
28A
100
AcDbEntity
  8
RACCORDO
100
AcDbSpline
 62
253
  6
CONTINUOUS
 70
0
 71
3
 72
11
 73
7
 74
5
 42
0.0000001
 43
0.0000001
 44
0.0000000001
 12
0.0200459472
 22
-0.5985134096
 32
0.0
 13
0.5380190625
 23
-0.2700631156
 33
0.0
 40
0.0
 40
0.0
 40
0.0
 40
0.0
 40
0.3052473617
 40
0.5786387071
 40
0.8256884635
 40
1.0
 40
1.0
 40
1.0
 40
1.0
 10
6.2986967516
 20
-12.0535001294
 30
0.0
 10
6.3007364091
 20
-12.1143983425
 30
0.0
 10
6.3150826684
 20
-12.2300057851
 30
0.0
 10
6.373575818
 20
-12.3860766512
 30
0.0
 10
6.459655021
 20
-12.4980388305
 30
0.0
 10
6.5301899805
 20
-12.5462456925
 30
0.0
 10
6.561450957
 20
-12.5619373981
 30
0.0
 11
6.2986967516
 21
-12.0535001294
 31
0.0
 11
6.3232874981
 21
-12.2346356262
 31
0.0
 11
6.3830617054
 21
-12.3870538916
 31
0.0
 11
6.4749679502
 21
-12.5029897101
 31
0.0
 11
6.561450957
 21
-12.5619373981
 31
0.0
  0
SPLINE
  5
28B
100
AcDbEntity
  8
ASSI
100
AcDbSpline
 62
7
  6
CONTINUOUS
 70
0
 71
3
 72
26
 73
22
 74
20
 42
0.0000001
 43
0.0000001
 44
0.0000000001
 12
5.483496821
 22
-2.7417484105
 32
0.0
 13
-5.483496821
 23
2.7417484105
 33
0.0
 40
0.0
 40
0.0
 40
0.0
 40
0.0
 40
0.0529930204
 40
0.1098790089
 40
0.1701015286
 40
0.2326992153
 40
0.2969155191
 40
0.3614173052
 40
0.4254109429
 40
0.4874688636
 40
0.5469497834
 40
0.6026699529
 40
0.6544403029
 40
0.7018143712
 40
0.7454287372
 40
0.7859796708
 40
0.8251709347
 40
0.8646370244
 40
0.9062305836
 40
0.9511124952
 40
1.0
 40
1.0
 40
1.0
 40
1.0
 10
-2.3877528699
 20
4.7516887317
 30
0.0
 10
-2.2908905169
 20
4.7032575552
 30
0.0
 10
-2.0981571726
 20
4.5861404017
 30
0.0
 10
-1.8276915602
 20
4.3664007847
 30
0.0
 10
-1.5718858776
 20
4.1017609199
 30
0.0
 10
-1.3373625067
 20
3.799055057
 30
0.0
 10
-1.1305002363
 20
3.4665093357
 30
0.0
 10
-0.9565442544
 20
3.1124650706
 30
0.0
 10
-0.8204673761
 20
2.746879027
 30
0.0
 10
-0.7258057374
 20
2.3789778394
 30
0.0
 10
-0.6754005855
 20
2.0194012894
 30
0.0
 10
-0.6706725579
 20
1.6772014964
 30
0.0
 10
-0.711969081
 20
1.3621314058
 30
0.0
 10
-0.7987857386
 20
1.0818693381
 30
0.0
 10
-0.9295580137
 20
0.8444924368
 30
0.0
 10
-1.102130143
 20
0.6569513485
 30
0.0
 10
-1.3116329628
 20
0.5265873071
 30
0.0
 10
-1.5507659923
 20
0.4581396994
 30
0.0
 10
-1.8105874029
 20
0.4527089664
 30
0.0
 10
-2.0834210791
 20
0.5084972374
 30
0.0
 10
-2.2617719991
 20
0.5814923853
 30
0.0
 10
-2.3511301582
 20
0.6261714648
 30
0.0
 11
-2.3877528699
 21
4.7516887317
 31
0.0
 11
-2.1091777721
 21
4.5845152782
 31
0.0
 11
-1.8375991743
 21
4.3657146898
 31
0.0
 11
-1.5802742273
 21
4.1009531293
 31
0.0
 11
-1.3447262299
 21
3.7979738199
 31
0.0
 11
-1.1365302759
 21
3.4638349629
 31
0.0
 11
-0.9621908471
 21
3.1088965816
 31
0.0
 11
-0.8257093392
 21
2.7410730834
 31
0.0
 11
-0.7316476195
 21
2.3724231809
 31
0.0
 11
-0.6821945876
 21
2.0111301834
 31
0.0
 11
-0.6790808214
 21
1.6695387351
 31
0.0
 11
-0.7223724404
 21
1.3551147169
 31
0.0
 11
-0.8105939591
 21
1.0783998169
 31
0.0
 11
-0.9417524693
 21
0.8453893641
 31
0.0
 11
-1.1114245985
 21
0.6636839993
 31
0.0
 11
-1.3156639738
 21
0.5371274186
 31
0.0
 11
-1.5479651522
 21
0.4694594738
 31
0.0
 11
-1.8028539333
 21
0.4619586614
 31
0.0
 11
-2.0729080949
 21
0.5147156879
 31
0.0
 11
-2.3511301582
 21
0.6261714648
 31
0.0
  0
SPLINE
  5
28C
100
AcDbEntity
  8
RACCORDO
100
AcDbSpline
 62
253
  6
CONTINUOUS
 70
0
 71
3
 72
11
 73
7
 74
5
 42
0.0000001
 43
0.0000001
 44
0.0000000001
 12
-0.5103196966
 22
0.2801319041
 32
0.0
 13
-0.0188799511
 23
0.5784902802
 33
0.0
 40
0.0
 40
0.0
 40
0.0
 40
0.0
 40
0.152757765
 40
0.4042158684
 40
0.6848683057
 40
1.0
 40
1.0
 40
1.0
 40
1.0
 10
-10.3648795508
 20
-4.0984643255
 30
0.0
 10
-10.3908646495
 20
-4.0842002176
 30
0.0
 10
-10.4551909756
 20
-4.0381992511
 30
0.0
 10
-10.5362044789
 20
-3.9307329144
 30
0.0
 10
-10.592973851
 20
-3.7755477336
 30
0.0
 10
-10.6068581602
 20
-3.6604979358
 30
0.0
 10
-10.6088413839
 20
-3.5997310617
 30
0.0
 11
-10.3648795508
 21
-4.0984643255
 31
0.0
 11
-10.437125842
 21
-4.046942814
 31
0.0
 11
-10.5266567317
 21
-3.932194673
 31
0.0
 11
-10.5848861197
 21
-3.7805488173
 31
0.0
 11
-10.6088413839
 21
-3.5997310617
 31
0.0
  0
SPLINE
  5
28D
100
AcDbEntity
  8
RACCORDO
100
AcDbSpline
 62
253
  6
CONTINUOUS
 70
0
 71
3
 72
10
 73
6
 74
4
 42
0.0000001
 43
0.0000001
 44
0.0000000001
 12
0.1056673508
 22
0.0577633496
 32
0.0
 13
0.1075013196
 23
-0.0518675463
 33
0.0
 40
0.0
 40
0.0
 40
0.0
 40
0.0
 40
0.0964758944
 40
0.516119714
 40
1.0
 40
1.0
 40
1.0
 40
1.0
 10
-10.7830999258
 20
10.7180475408
 30
0.0
 10
-10.7797018084
 20
10.7199051311
 30
0.0
 10
-10.7609482018
 20
10.7287218199
 30
0.0
 10
-10.7197887059
 20
10.7328419043
 30
0.0
 10
-10.6848459612
 20
10.7213744115
 30
0.0
 10
-10.6675067048
 20
10.7130085171
 30
0.0
 11
-10.7830999258
 21
10.7180475408
 31
0.0
 11
-10.7726037667
 21
10.7229674935
 31
0.0
 11
-10.7229171125
 21
10.7293005009
 31
0.0
 11
-10.6675067048
 21
10.7130085171
 31
0.0
  0
SPLINE
  5
28E
100
AcDbEntity
  8
RACCORDO
100
AcDbSpline
 62
253
  6
CONTINUOUS
 70
0
 71
3
 72
9
 73
5
 74
3
 42
0.0000001
 43
0.0000001
 44
0.0000000001
 12
0.0042467378
 22
-0.1188405274
 32
0.0
 13
0.1066391998
 23
-0.0534070673
 33
0.0
 40
0.0
 40
0.0
 40
0.0
 40
0.0
 40
0.4342551378
 40
1.0
 40
1.0
 40
1.0
 40
1.0
 10
-10.6820704245
 20
-3.5109151132
 30
0.0
 10
-10.6814557019
 20
-3.528117483
 30
0.0
 10
-10.6632872837
 20
-3.5673312137
 30
0.0
 10
-10.6289515768
 20
-3.5896594703
 30
0.0
 10
-10.6088413837
 20
-3.5997310616
 30
0.0
 11
-10.6820704245
 21
-3.5109151132
 31
0.0
 11
-10.6626274567
 21
-3.5589907902
 31
0.0
 11
-10.6088413837
 21
-3.5997310616
 31
0.0
  0
SPLINE
  5
28F
100
AcDbEntity
  8
ASSI
100
AcDbSpline
 62
7
  6
CONTINUOUS
 70
0
 71
3
 72
18
 73
14
 74
12
 42
0.0000001
 43
0.0000001
 44
0.0000000001
 12
2.4354104948
 22
1.2891825476
 32
0.0
 13
-2.4531275979
 23
1.226563799
 33
0.0
 40
0.0
 40
0.0
 40
0.0
 40
0.0
 40
0.0586239422
 40
0.1287369961
 40
0.2076364478
 40
0.2955840785
 40
0.3921028696
 40
0.4955278479
 40
0.6017212965
 40
0.7091477205
 40
0.8125165559
 40
0.9106444314
 40
1.0
 40
1.0
 40
1.0
 40
1.0
 10
-1.4171728614
 20
1.696759908
 30
0.0
 10
-1.36958174
 20
1.7219522291
 30
0.0
 10
-1.2743098483
 20
1.7950249224
 30
0.0
 10
-1.1680816017
 20
1.9561705834
 30
0.0
 10
-1.1034349133
 20
2.1652993889
 30
0.0
 10
-1.0846337649
 20
2.4069112526
 30
0.0
 10
-1.1115744285
 20
2.6699244209
 30
0.0
 10
-1.1826939924
 20
2.9416447168
 30
0.0
 10
-1.2946571558
 20
3.2099577237
 30
0.0
 10
-1.4415754806
 20
3.4607901105
 30
0.0
 10
-1.6171441358
 20
3.6832701086
 30
0.0
 10
-1.8120663375
 20
3.8656698862
 30
0.0
 10
-1.9568553067
 20
3.9598420614
 30
0.0
 10
-2.0299221771
 20
3.9963754966
 30
0.0
 11
-1.4171728614
 21
1.696759908
 31
0.0
 11
-1.2889109112
 21
1.794069231
 31
0.0
 11
-1.1804543409
 21
1.9528633348
 31
0.0
 11
-1.1134187867
 21
2.1586142568
 31
0.0
 11
-1.0921628144
 21
2.3988880886
 31
0.0
 11
-1.1173920885
 21
2.6624032638
 31
0.0
 11
-1.1882169128
 21
2.9370808212
 31
0.0
 11
-1.3000463551
 21
3.2060110121
 31
0.0
 11
-1.4491959764
 21
3.4601073415
 31
0.0
 11
-1.6255237446
 21
3.6821098202
 31
0.0
 11
-1.8231891487
 21
3.8647601861
 31
0.0
 11
-2.0299221771
 21
3.9963754966
 31
0.0
  0
SPLINE
  5
290
100
AcDbEntity
  8
ASSI
100
AcDbSpline
 62
7
  6
CONTINUOUS
 70
0
 71
3
 72
10
 73
6
 74
4
 42
0.0000001
 43
0.0000001
 44
0.0000000001
 12
-0.5326592145
 22
0.2663296072
 32
0.0
 13
-0.5408030121
 23
-0.2556892649
 33
0.0
 40
0.0
 40
0.0
 40
0.0
 40
0.0
 40
0.3685097703
 40
0.699068691
 40
1.0
 40
1.0
 40
1.0
 40
1.0
 10
-2.0299221771
 20
3.9963754966
 30
0.0
 10
-2.0953522187
 20
4.0290905174
 30
0.0
 10
-2.2265323827
 20
4.0788962916
 30
0.0
 10
-2.4273230405
 20
4.0969591066
 30
0.0
 10
-2.5514525184
 20
4.0650252713
 30
0.0
 10
-2.6057007045
 20
4.0393769696
 30
0.0
 11
-2.0299221771
 21
3.9963754966
 31
0.0
 11
-2.2362065501
 21
4.0712689131
 31
0.0
 11
-2.4325409709
 21
4.0856186343
 31
0.0
 11
-2.6057007045
 21
4.0393769696
 31
0.0
  0
SPLINE
  5
291
100
AcDbEntity
  8
ASSI
100
AcDbSpline
 62
253
  6
CONTINUOUS
 70
0
 71
3
 72
11
 73
7
 74
5
 42
0.0000001
 43
0.0000001
 44
0.0000000001
 12
-0.5108213004
 22
0.2798532065
 32
0.0
 13
-0.0188900147
 23
0.5787986326
 33
0.0
 40
0.0
 40
0.0
 40
0.0
 40
0.0
 40
0.1532091295
 40
0.4045332697
 40
0.6850361907
 40
1.0
 40
1.0
 40
1.0
 40
1.0
 10
-10.3646074742
 20
-4.09861353
 30
0.0
 10
-10.3906949698
 20
-4.084321508
 30
0.0
 10
-10.4551279232
 20
-4.0382828916
 30
0.0
 10
-10.5362044789
 20
-3.9307329144
 30
0.0
 10
-10.592973851
 20
-3.7755477336
 30
0.0
 10
-10.6068581602
 20
-3.6604979358
 30
0.0
 10
-10.6088413839
 20
-3.5997310617
 30
0.0
 11
-10.3646074742
 21
-4.09861353
 31
0.0
 11
-10.437125842
 21
-4.046942814
 31
0.0
 11
-10.5266567317
 21
-3.932194673
 31
0.0
 11
-10.5848861197
 21
-3.7805488173
 31
0.0
 11
-10.6088413839
 21
-3.5997310617
 31
0.0
  0
SPLINE
  5
292
100
AcDbEntity
  8
ASSI
100
AcDbSpline
 62
7
  6
CONTINUOUS
 70
0
 71
3
 72
8
 73
4
 74
2
 42
0.0000001
 43
0.0000001
 44
0.0000000001
 12
-0.1653081207
 22
-0.0781569461
 32
0.0
 13
-0.1266407475
 23
-0.1319256529
 33
0.0
 40
0.0
 40
0.0
 40
0.0
 40
0.0
 40
1.0
 40
1.0
 40
1.0
 40
1.0
 10
-2.6057007045
 20
4.0393769696
 30
0.0
 10
-2.6608034114
 20
4.0133246542
 30
0.0
 10
-2.7108347427
 20
3.9764839879
 30
0.0
 10
-2.7530483253
 20
3.9325087703
 30
0.0
 11
-2.6057007045
 21
4.0393769696
 31
0.0
 11
-2.7530483253
 21
3.9325087703
 31
0.0
  0
SPLINE
  5
293
100
AcDbEntity
  8
ASSI
100
AcDbSpline
 62
7
  6
CONTINUOUS
 70
0
 71
3
 72
8
 73
4
 74
2
 42
0.0000001
 43
0.0000001
 44
0.0000000001
 12
-0.0876916167
 22
-0.0913511174
 32
0.0
 13
-0.0659160991
 23
-0.1081160153
 33
0.0
 40
0.0
 40
0.0
 40
0.0
 40
0.0
 40
1.0
 40
1.0
 40
1.0
 40
1.0
 10
-2.7530483253
 20
3.9325087703
 30
0.0
 10
-2.7822788642
 20
3.9020583979
 30
0.0
 10
-2.8077609933
 20
3.8681872421
 30
0.0
 10
-2.8297330264
 20
3.8321485703
 30
0.0
 11
-2.7530483253
 21
3.9325087703
 31
0.0
 11
-2.8297330264
 21
3.8321485703
 31
0.0
  0
SPLINE
  5
294
100
AcDbEntity
  8
ASSI
100
AcDbSpline
 62
7
  6
CONTINUOUS
 70
0
 71
3
 72
9
 73
5
 74
3
 42
0.0000001
 43
0.0000001
 44
0.0000000001
 12
-0.0393157115
 22
-0.0644858863
 32
0.0
 13
-0.0319772713
 23
-0.0683203875
 33
0.0
 40
0.0
 40
0.0
 40
0.0
 40
0.0
 40
0.8810900114
 40
1.0
 40
1.0
 40
1.0
 40
1.0
 10
-2.8297330264
 20
3.8321485703
 30
0.0
 10
-2.8412799199
 20
3.8132092802
 30
0.0
 10
-2.8532849142
 20
3.7910345749
 30
0.0
 10
-2.8640857338
 20
3.7683230764
 30
0.0
 10
-2.8653532062
 20
3.7656150842
 30
0.0
 11
-2.8297330264
 21
3.8321485703
 31
0.0
 11
-2.8615000566
 21
3.7737167344
 31
0.0
 11
-2.8653532062
 21
3.7656150842
 31
0.0
  0
SPLINE
  5
295
100
AcDbEntity
  8
ASSI
100
AcDbSpline
 62
7
  6
CONTINUOUS
 70
0
 71
3
 72
10
 73
6
 74
4
 42
0.0000001
 43
0.0000001
 44
0.0000000001
 12
0.3283788021
 22
-0.0408010067
 32
0.0
 13
0.2925471435
 23
0.1548595904
 33
0.0
 40
0.0
 40
0.0
 40
0.0
 40
0.0
 40
0.3914917532
 40
0.9389715821
 40
1.0
 40
1.0
 40
1.0
 40
1.0
 10
-1.7386128029
 20
1.6436372367
 30
0.0
 10
-1.6957602719
 20
1.6383128175
 30
0.0
 10
-1.5918548827
 20
1.6353661925
 30
0.0
 10
-1.4831190665
 20
1.6634588548
 30
0.0
 10
-1.4231240912
 20
1.6936096294
 30
0.0
 10
-1.4171728614
 20
1.696759908
 30
0.0
 11
-1.7386128029
 21
1.6436372367
 31
0.0
 11
-1.6094301924
 21
1.6409534246
 31
0.0
 11
-1.4352201827
 21
1.6876932002
 31
0.0
 11
-1.4171728614
 21
1.696759908
 31
0.0
  0
SPLINE
  5
296
100
AcDbEntity
  8
ASSI
100
AcDbSpline
 62
253
  6
CONTINUOUS
 70
0
 71
3
 72
13
 73
9
 74
7
 42
0.0000001
 43
0.0000001
 44
0.0000000001
 12
0.0237005162
 22
-0.7022873817
 32
0.0
 13
0.6783415113
 23
0.1833632327
 33
0.0
 40
0.0
 40
0.0
 40
0.0
 40
0.0
 40
0.1946677134
 40
0.3699588267
 40
0.5285926496
 40
0.6790968263
 40
0.8330968665
 40
1.0
 40
1.0
 40
1.0
 40
1.0
 10
6.648998784
 20
-12.046506894
 30
0.0
 10
6.6505366924
 20
-12.0920777869
 30
0.0
 10
6.6613189579
 20
-12.1788061584
 30
0.0
 10
6.7053549069
 20
-12.2960202437
 30
0.0
 10
6.7759130022
 20
-12.3875298443
 30
0.0
 10
6.8703000425
 20
-12.4459763414
 30
0.0
 10
6.9811142567
 20
-12.466365619
 30
0.0
 10
7.0567233445
 20
-12.4554939884
 30
0.0
 10
7.0944624524
 20
-12.445292689
 30
0.0
 11
6.648998784
 21
-12.046506894
 31
0.0
 11
6.6674317303
 21
-12.1820497635
 31
0.0
 11
6.71247935
 21
-12.2966915884
 31
0.0
 11
6.7818304193
 21
-12.3839611706
 31
0.0
 11
6.871913863
 21
-12.4393650657
 31
0.0
 11
6.978121196
 21
-12.460107312
 31
0.0
 11
7.0944624524
 21
-12.445292689
 31
0.0
  0
SPLINE
  5
297
100
AcDbEntity
  8
ASSI
100
AcDbSpline
 62
7
  6
CONTINUOUS
 70
0
 71
3
 72
26
 73
22
 74
20
 42
0.0000001
 43
0.0000001
 44
0.0000000001
 12
-5.4924188562
 22
2.7462094281
 32
0.0
 13
5.4924188562
 23
-2.7462094281
 33
0.0
 40
0.0
 40
0.0
 40
0.0
 40
0.0
 40
0.05293166
 40
0.1097804637
 40
0.1699669753
 40
0.2325120521
 40
0.2966483843
 40
0.3610410885
 40
0.4249025715
 40
0.4868204967
 40
0.5461736132
 40
0.601803194
 40
0.6535433549
 40
0.7009654854
 40
0.7447108065
 40
0.785457976
 40
0.8248708045
 40
0.8645297783
 40
0.9062455542
 40
0.9511611582
 40
1.0
 40
1.0
 40
1.0
 40
1.0
 10
-2.3511301582
 20
0.6261714648
 30
0.0
 10
-2.448037774
 20
0.6746252727
 30
0.0
 10
-2.6409837001
 20
0.7916705988
 30
0.0
 10
-2.9121522662
 20
1.0109754681
 30
0.0
 10
-3.1690879473
 20
1.2749745272
 30
0.0
 10
-3.4050450829
 20
1.5769068048
 30
0.0
 10
-3.6134853811
 20
1.9086314752
 30
0.0
 10
-3.7889926586
 20
2.2618957482
 30
0.0
 10
-3.9264212318
 20
2.626829867
 30
0.0
 10
-4.0220857103
 20
2.9942790131
 30
0.0
 10
-4.0730273629
 20
3.3536550523
 30
0.0
 10
-4.0777587201
 20
3.695925527
 30
0.0
 10
-4.0359219728
 20
4.0113199864
 30
0.0
 10
-3.9480768491
 20
4.2921016084
 30
0.0
 10
-3.815925441
 20
4.5301040491
 30
0.0
 10
-3.6418366719
 20
4.7183136683
 30
0.0
 10
-3.4308798439
 20
4.8494025856
 30
0.0
 10
-3.1904282128
 20
4.9186206593
 30
0.0
 10
-2.9294818296
 20
4.9247243252
 30
0.0
 10
-2.6558555526
 20
4.8693635248
 30
0.0
 10
-2.4771673286
 20
4.7963959611
 30
0.0
 10
-2.3877528699
 20
4.7516887317
 30
0.0
 11
-2.3511301582
 21
0.6261714648
 31
0.0
 11
-2.6299609625
 21
0.7932136753
 31
0.0
 11
-2.9022802463
 21
1.0116341016
 31
0.0
 11
-3.1607531036
 21
1.2758064892
 31
0.0
 11
-3.3977304439
 21
1.5780521786
 31
0.0
 11
-3.6074884065
 21
1.911389324
 31
0.0
 11
-3.7833478318
 21
2.2655475568
 31
0.0
 11
-3.9211490198
 21
2.6326937201
 31
0.0
 11
-4.0161788441
 21
3.0008467362
 31
0.0
 11
-4.0661464384
 21
3.3618756312
 31
0.0
 11
-4.0692611233
 21
3.7034666079
 31
0.0
 11
-4.0254567046
 21
4.018153824
 31
0.0
 11
-3.9362680833
 21
4.2953650961
 31
0.0
 11
-3.803789472
 21
4.5290530998
 31
0.0
 11
-3.6325961463
 21
4.7115392291
 31
0.0
 11
-3.4267934981
 21
4.8388981703
 31
0.0
 11
-3.1930625638
 21
4.9072999471
 31
0.0
 11
-2.9370258198
 21
4.9153899593
 31
0.0
 11
-2.6662309012
 21
4.8630131313
 31
0.0
 11
-2.3877528699
 21
4.7516887317
 31
0.0
  0
SPLINE
  5
298
100
AcDbEntity
  8
ASSI
100
AcDbSpline
 62
253
  6
CONTINUOUS
 70
0
 71
3
 72
9
 73
5
 74
3
 42
0.0000001
 43
0.0000001
 44
0.0000000001
 12
0.0042467392
 22
-0.1188405266
 32
0.0
 13
0.1066391991
 23
-0.053407067
 33
0.0
 40
0.0
 40
0.0
 40
0.0
 40
0.0
 40
0.4342551344
 40
1.0
 40
1.0
 40
1.0
 40
1.0
 10
-10.6820704245
 20
-3.5109151139
 30
0.0
 10
-10.6814557017
 20
-3.5281174835
 30
0.0
 10
-10.6632872835
 20
-3.5673312139
 30
0.0
 10
-10.6289515768
 20
-3.5896594703
 30
0.0
 10
-10.6088413837
 20
-3.5997310616
 30
0.0
 11
-10.6820704245
 21
-3.5109151139
 31
0.0
 11
-10.6626274567
 21
-3.5589907902
 31
0.0
 11
-10.6088413837
 21
-3.5997310616
 31
0.0
  0
SPLINE
  5
299
100
AcDbEntity
  8
ASSI
100
AcDbSpline
 62
253
  6
CONTINUOUS
 70
0
 71
3
 72
12
 73
8
 74
6
 42
0.0000001
 43
0.0000001
 44
0.0000000001
 12
-0.0053497267
 22
0.3664563861
 32
0.0
 13
-0.3254083925
 23
0.1686068818
 33
0.0
 40
0.0
 40
0.0
 40
0.0
 40
0.0
 40
0.1955839747
 40
0.4065111841
 40
0.6196376798
 40
0.8218553915
 40
1.0
 40
1.0
 40
1.0
 40
1.0
 10
6.4085304384
 20
1.9585165695
 30
0.0
 10
6.4081816648
 20
1.9824075684
 30
0.0
 10
6.4009449832
 20
2.0320420259
 30
0.0
 10
6.3753580974
 20
2.1037031692
 30
0.0
 10
6.3367800968
 20
2.1703031944
 30
0.0
 10
6.2890194326
 20
2.2254235185
 30
0.0
 10
6.2511039173
 20
2.2533526955
 30
0.0
 10
6.2317806671
 20
2.2633648312
 30
0.0
 11
6.4085304384
 21
1.9585165695
 31
0.0
 11
6.3990075613
 21
2.0295618229
 31
0.0
 11
6.3733184561
 21
2.1024724291
 31
0.0
 11
6.3340439207
 21
2.1699903183
 31
0.0
 11
6.2850171266
 21
2.2255685732
 31
0.0
 11
6.2317806671
 21
2.2633648312
 31
0.0
  0
SPLINE
  5
29A
100
AcDbEntity
  8
ASSI
100
AcDbSpline
 62
253
  6
CONTINUOUS
 70
0
 71
3
 72
12
 73
8
 74
6
 42
0.0000001
 43
0.0000001
 44
0.0000000001
 12
-0.0003856599
 22
0.3643136515
 32
0.0
 13
0.3230429735
 23
0.1684274998
 33
0.0
 40
0.0
 40
0.0
 40
0.0
 40
0.0
 40
0.1954109409
 40
0.4054784998
 40
0.6178639365
 40
0.8202454909
 40
1.0
 40
1.0
 40
1.0
 40
1.0
 10
-10.8411980729
 20
10.4094089039
 30
0.0
 10
-10.8412231937
 20
10.4331391951
 30
0.0
 10
-10.8347623374
 20
10.4824673625
 30
0.0
 10
-10.8101048333
 20
10.5537690448
 30
0.0
 10
-10.7722030324
 20
10.6200485361
 30
0.0
 10
-10.724727994
 20
10.67503434
 30
0.0
 10
-10.6868628485
 20
10.7029166496
 30
0.0
 10
-10.6675067048
 20
10.7130085171
 30
0.0
 11
-10.8411980729
 21
10.4094089039
 31
0.0
 11
-10.8327381759
 21
10.4800953685
 31
0.0
 11
-10.8080297079
 21
10.5525274916
 31
0.0
 11
-10.769508646
 21
10.6196319759
 31
0.0
 11
-10.7208595896
 21
10.6750345196
 31
0.0
 11
-10.6675067048
 21
10.7130085171
 31
0.0
  0
SPLINE
  5
29B
100
AcDbEntity
  8
ASSI
100
AcDbSpline
 62
253
  6
CONTINUOUS
 70
0
 71
3
 72
12
 73
8
 74
6
 42
0.0000001
 43
0.0000001
 44
0.0000000001
 12
-0.0003856587
 22
0.3643125473
 32
0.0
 13
0.3230419943
 23
0.1684269893
 33
0.0
 40
0.0
 40
0.0
 40
0.0
 40
0.0
 40
0.1947631165
 40
0.4040949088
 40
0.6160496428
 40
0.8181238454
 40
1.0
 40
1.0
 40
1.0
 40
1.0
 10
6.0580892989
 20
1.959765218
 30
0.0
 10
6.0580642616
 20
1.983416767
 30
0.0
 10
6.0644822062
 20
2.0325763629
 30
0.0
 10
6.0889985636
 20
2.1036893237
 30
0.0
 10
6.1267174698
 20
2.1698647106
 30
0.0
 10
6.174188883
 20
2.2250659289
 30
0.0
 10
6.2121961219
 20
2.2531538801
 30
0.0
 10
6.2317806671
 20
2.2633648312
 30
0.0
 11
6.0580892989
 21
1.959765218
 31
0.0
 11
6.0664956281
 21
2.0302201767
 31
0.0
 11
6.0910486154
 21
2.1024218405
 31
0.0
 11
6.1293936361
 21
2.1694460893
 31
0.0
 11
6.1778534132
 21
2.2248653158
 31
0.0
 11
6.2317806671
 21
2.2633648312
 31
0.0
  0
SPLINE
  5
29C
100
AcDbEntity
  8
ASSI
100
AcDbSpline
 62
253
  6
CONTINUOUS
 70
0
 71
3
 72
10
 73
6
 74
4
 42
0.0000001
 43
0.0000001
 44
0.0000000001
 12
-0.1066900264
 22
0.0533479656
 32
0.0
 13
0.0004535054
 23
0.1185801436
 33
0.0
 40
0.0
 40
0.0
 40
0.0
 40
0.0
 40
0.5621967081
 40
0.9909786772
 40
1.0
 40
1.0
 40
1.0
 40
1.0
 10
-10.8411980729
 20
10.4094089039
 30
0.0
 10
-10.8611916668
 20
10.4194062541
 30
0.0
 10
-10.8952828599
 20
10.4410406975
 30
0.0
 10
-10.9143183026
 20
10.4801974279
 30
0.0
 10
-10.9144195707
 20
10.4975006091
 30
0.0
 10
-10.914418207
 20
10.4978571924
 30
0.0
 11
-10.8411980729
 21
10.4094089039
 31
0.0
 11
-10.894971632
 21
10.4494791125
 31
0.0
 11
-10.9144119017
 21
10.4967875826
 31
0.0
 11
-10.914418207
 21
10.4978571924
 31
0.0
  0
SPLINE
  5
29D
100
AcDbEntity
  8
ASSI
100
AcDbSpline
 62
253
  6
CONTINUOUS
 70
0
 71
3
 72
10
 73
6
 74
4
 42
0.0000001
 43
0.0000001
 44
0.0000000001
 12
-0.0264958835
 22
-0.1937282823
 32
0.0
 13
-0.191317782
 23
-0.0524592148
 33
0.0
 40
0.0
 40
0.0
 40
0.0
 40
0.0
 40
0.430683799
 40
0.8010691498
 40
1.0
 40
1.0
 40
1.0
 40
1.0
 10
7.0944624524
 20
-12.445292689
 30
0.0
 10
7.0906586699
 20
-12.4731045666
 30
0.0
 10
7.0761425344
 20
-12.5244349264
 30
0.0
 10
7.0334768681
 20
-12.5771974739
 30
0.0
 10
6.9987360536
 20
-12.5930422811
 30
0.0
 10
6.9860497173
 20
-12.5965208665
 30
0.0
 11
7.0944624524
 21
-12.445292689
 31
0.0
 11
7.0693665107
 21
-12.525678741
 31
0.0
 11
7.0217384121
 21
-12.5802362896
 31
0.0
 11
6.9860497173
 21
-12.5965208665
 31
0.0
  0
SPLINE
  5
29E
100
AcDbEntity
  8
ASSI
100
AcDbSpline
 62
253
  6
CONTINUOUS
 70
0
 71
3
 72
11
 73
7
 74
5
 42
0.0000001
 43
0.0000001
 44
0.0000000001
 12
-0.3186082903
 22
-0.1690650599
 32
0.0
 13
-0.3227128788
 23
0.1610920079
 33
0.0
 40
0.0
 40
0.0
 40
0.0
 40
0.0
 40
0.2388435752
 40
0.503579771
 40
0.7663858709
 40
1.0
 40
1.0
 40
1.0
 40
1.0
 10
6.6489987839
 20
-12.0465068939
 30
0.0
 10
6.6236329362
 20
-12.0599669284
 30
0.0
 10
6.5655912906
 20
-12.0797931265
 30
0.0
 10
6.4735470376
 20
-12.0906387911
 30
0.0
 10
6.3817711636
 20
-12.0835955822
 30
0.0
 10
6.3238331582
 20
-12.0660411217
 30
0.0
 10
6.2987030622
 20
-12.0534966653
 30
0.0
 11
6.6489987839
 21
-12.0465068939
 31
0.0
 11
6.5680269332
 21
-12.0759168958
 31
0.0
 11
6.4732524501
 21
-12.0875566948
 31
0.0
 11
6.3787887745
 21
-12.0796929379
 31
0.0
 11
6.2987030622
 21
-12.0534966653
 31
0.0
  0
SPLINE
  5
29F
100
AcDbEntity
  8
ASSI
100
AcDbSpline
 62
253
  6
CONTINUOUS
 70
0
 71
3
 72
11
 73
7
 74
5
 42
0.0000001
 43
0.0000001
 44
0.0000000001
 12
-0.32390209
 22
-0.1568996968
 32
0.0
 13
-0.3219104798
 23
0.1609463318
 33
0.0
 40
0.0
 40
0.0
 40
0.0
 40
0.0
 40
0.2366865908
 40
0.5013293953
 40
0.7652575898
 40
1.0
 40
1.0
 40
1.0
 40
1.0
 10
6.4085304384
 20
1.9585165695
 30
0.0
 10
6.3829760113
 20
1.9461378847
 30
0.0
 10
6.3246849542
 20
1.9285147398
 30
0.0
 10
6.2327597528
 20
1.9202901037
 30
0.0
 10
6.1411280525
 20
1.9291214546
 30
0.0
 10
6.0832779796
 20
1.9471715747
 30
0.0
 10
6.0580892989
 20
1.959765218
 30
0.0
 11
6.4085304384
 21
1.9585165695
 31
0.0
 11
6.3275052644
 21
1.9322246236
 31
0.0
 11
6.2326843197
 21
1.9232394718
 31
0.0
 11
6.1381882443
 21
1.9328991743
 31
0.0
 11
6.0580892989
 21
1.959765218
 31
0.0
  0
SPLINE
  5
2A0
100
AcDbEntity
  8
ASSI
100
AcDbSpline
 62
253
  6
CONTINUOUS
 70
0
 71
3
 72
11
 73
7
 74
5
 42
0.0000001
 43
0.0000001
 44
0.0000000001
 12
0.019995042
 22
-0.5969935292
 32
0.0
 13
0.5356077716
 23
-0.2715003034
 33
0.0
 40
0.0
 40
0.0
 40
0.0
 40
0.0
 40
0.3060244882
 40
0.5801118581
 40
0.8277905762
 40
1.0
 40
1.0
 40
1.0
 40
1.0
 10
6.2986967516
 20
-12.0535001294
 30
0.0
 10
6.3007364091
 20
-12.1143983425
 30
0.0
 10
6.3150826684
 20
-12.2300057851
 30
0.0
 10
6.373575818
 20
-12.3860766512
 30
0.0
 10
6.4593403886
 20
-12.4976295918
 30
0.0
 10
6.5293404576
 20
-12.5456639188
 30
0.0
 10
6.5600860262
 20
-12.561248889
 30
0.0
 11
6.2986967516
 21
-12.0535001294
 31
0.0
 11
6.3232874981
 21
-12.2346356262
 31
0.0
 11
6.3830617054
 21
-12.3870538916
 31
0.0
 11
6.4749679502
 21
-12.5029897101
 31
0.0
 11
6.5600860262
 21
-12.561248889
 31
0.0
  0
LINE
  5
2A1
100
AcDbEntity
  8
ASSI
100
AcDbLine
 62
253
  6
CONTINUOUS
 10
-10.6088413839
 20
-3.5997310617
 11
-10.6117789617
 21
-3.5087625985
  0
SPLINE
  5
2A2
100
AcDbEntity
  8
ASSI
100
AcDbSpline
 62
7
  6
CONTINUOUS
 70
0
 71
3
 72
26
 73
22
 74
20
 42
0.0000001
 43
0.0000001
 44
0.0000000001
 12
5.483496821
 22
-2.7417484105
 32
0.0
 13
-5.483496821
 23
2.7417484105
 33
0.0
 40
0.0
 40
0.0
 40
0.0
 40
0.0
 40
0.0529930204
 40
0.1098790089
 40
0.1701015286
 40
0.2326992153
 40
0.2969155191
 40
0.3614173052
 40
0.4254109429
 40
0.4874688636
 40
0.5469497834
 40
0.6026699529
 40
0.6544403029
 40
0.7018143712
 40
0.7454287372
 40
0.7859796708
 40
0.8251709347
 40
0.8646370244
 40
0.9062305836
 40
0.9511124952
 40
1.0
 40
1.0
 40
1.0
 40
1.0
 10
-2.3877528699
 20
4.7516887317
 30
0.0
 10
-2.2908905169
 20
4.7032575552
 30
0.0
 10
-2.0981571726
 20
4.5861404017
 30
0.0
 10
-1.8276915602
 20
4.3664007847
 30
0.0
 10
-1.5718858776
 20
4.1017609199
 30
0.0
 10
-1.3373625067
 20
3.799055057
 30
0.0
 10
-1.1305002363
 20
3.4665093357
 30
0.0
 10
-0.9565442544
 20
3.1124650706
 30
0.0
 10
-0.8204673761
 20
2.746879027
 30
0.0
 10
-0.7258057374
 20
2.3789778394
 30
0.0
 10
-0.6754005855
 20
2.0194012894
 30
0.0
 10
-0.6706725579
 20
1.6772014964
 30
0.0
 10
-0.711969081
 20
1.3621314058
 30
0.0
 10
-0.7987857386
 20
1.0818693381
 30
0.0
 10
-0.9295580137
 20
0.8444924368
 30
0.0
 10
-1.102130143
 20
0.6569513485
 30
0.0
 10
-1.3116329628
 20
0.5265873071
 30
0.0
 10
-1.5507659923
 20
0.4581396994
 30
0.0
 10
-1.8105874029
 20
0.4527089664
 30
0.0
 10
-2.0834210791
 20
0.5084972374
 30
0.0
 10
-2.2617719991
 20
0.5814923853
 30
0.0
 10
-2.3511301582
 20
0.6261714648
 30
0.0
 11
-2.3877528699
 21
4.7516887317
 31
0.0
 11
-2.1091777721
 21
4.5845152782
 31
0.0
 11
-1.8375991743
 21
4.3657146898
 31
0.0
 11
-1.5802742273
 21
4.1009531293
 31
0.0
 11
-1.3447262299
 21
3.7979738199
 31
0.0
 11
-1.1365302759
 21
3.4638349629
 31
0.0
 11
-0.9621908471
 21
3.1088965816
 31
0.0
 11
-0.8257093392
 21
2.7410730834
 31
0.0
 11
-0.7316476195
 21
2.3724231809
 31
0.0
 11
-0.6821945876
 21
2.0111301834
 31
0.0
 11
-0.6790808214
 21
1.6695387351
 31
0.0
 11
-0.7223724404
 21
1.3551147169
 31
0.0
 11
-0.8105939591
 21
1.0783998169
 31
0.0
 11
-0.9417524693
 21
0.8453893641
 31
0.0
 11
-1.1114245985
 21
0.6636839993
 31
0.0
 11
-1.3156639738
 21
0.5371274186
 31
0.0
 11
-1.5479651522
 21
0.4694594738
 31
0.0
 11
-1.8028539333
 21
0.4619586614
 31
0.0
 11
-2.0729080949
 21
0.5147156879
 31
0.0
 11
-2.3511301582
 21
0.6261714648
 31
0.0
  0
SPLINE
  5
2A3
100
AcDbEntity
  8
ASSI
100
AcDbSpline
 62
253
  6
CONTINUOUS
 70
0
 71
3
 72
10
 73
6
 74
4
 42
0.0000001
 43
0.0000001
 44
0.0000000001
 12
0.1056673508
 22
0.0577633496
 32
0.0
 13
0.1075013196
 23
-0.0518675463
 33
0.0
 40
0.0
 40
0.0
 40
0.0
 40
0.0
 40
0.0964758944
 40
0.516119714
 40
1.0
 40
1.0
 40
1.0
 40
1.0
 10
-10.7830999258
 20
10.7180475408
 30
0.0
 10
-10.7797018084
 20
10.7199051311
 30
0.0
 10
-10.7609482018
 20
10.7287218199
 30
0.0
 10
-10.7197887059
 20
10.7328419043
 30
0.0
 10
-10.6848459612
 20
10.7213744115
 30
0.0
 10
-10.6675067048
 20
10.7130085171
 30
0.0
 11
-10.7830999258
 21
10.7180475408
 31
0.0
 11
-10.7726037667
 21
10.7229674935
 31
0.0
 11
-10.7229171125
 21
10.7293005009
 31
0.0
 11
-10.6675067048
 21
10.7130085171
 31
0.0
  0
SPLINE
  5
2A4
100
AcDbEntity
  8
CURVE
100
AcDbSpline
 62
253
  6
CONTINUOUS
 70
0
 71
3
 72
14
 73
10
 74
8
 42
0.0000001
 43
0.0000001
 44
0.0000000001
 12
-0.0767543223
 22
3.262094022
 32
0.0
 13
2.5564487656
 23
-0.416350114
 33
0.0
 40
0.0
 40
0.0
 40
0.0
 40
0.0
 40
0.1612903226
 40
0.3225806452
 40
0.4838709677
 40
0.6451612903
 40
0.8064516129
 40
0.9677419355
 40
1.0
 40
1.0
 40
1.0
 40
1.0
 10
-4.3205946069
 20
-2.7312904384
 30
0.0
 10
-4.3247211834
 20
-2.5559090393
 30
0.0
 10
-4.3025664109
 20
-2.2283881919
 30
0.0
 10
-4.1804821621
 20
-1.7962589146
 30
0.0
 10
-3.9730935365
 20
-1.4499775312
 30
0.0
 10
-3.6931912974
 20
-1.2059337041
 30
0.0
 10
-3.3475493623
 20
-1.0718943581
 30
0.0
 10
-3.0628415857
 20
-1.0601840885
 30
0.0
 10
-2.8990825833
 20
-1.0823459051
 30
0.0
 10
-2.8715938869
 20
-1.086822788
 30
0.0
 11
-4.3205946069
 21
-2.7312904384
 31
0.0
 11
-4.2877577292
 21
-2.2382468575
 31
0.0
 11
-4.1662647659
 21
-1.8105668969
 31
0.0
 11
-3.9610079342
 21
-1.4670171239
 31
0.0
 11
-3.6822346814
 21
-1.2242677843
 31
0.0
 11
-3.3404500386
 21
-1.0915728242
 31
0.0
 11
-2.9534338105
 21
-1.0757516672
 31
0.0
 11
-2.8715938869
 21
-1.086822788
 31
0.0
  0
SPLINE
  5
2A5
100
AcDbEntity
  8
CURVE
100
AcDbSpline
 62
253
  6
CONTINUOUS
 70
0
 71
3
 72
11
 73
7
 74
5
 42
0.0000001
 43
0.0000001
 44
0.0000000001
 12
1.098775501
 22
-0.2959011526
 32
0.0
 13
1.0554670303
 23
-0.9974681159
 33
0.0
 40
0.0
 40
0.0
 40
0.0
 40
0.0
 40
0.1535118133
 40
0.5372913467
 40
0.9210708801
 40
1.0
 40
1.0
 40
1.0
 40
1.0
 10
-2.7046319774
 20
-1.123004748
 30
0.0
 10
-2.6484069708
 20
-1.1381461889
 30
0.0
 10
-2.4499902108
 20
-1.2018326381
 30
0.0
 10
-2.106720813
 20
-1.3735135484
 30
0.0
 10
-1.7925186695
 20
-1.6106358762
 30
0.0
 10
-1.6283678609
 20
-1.7610123179
 30
0.0
 10
-1.6005988329
 20
-1.7872554114
 30
0.0
 11
-2.7046319774
 21
-1.123004748
 31
0.0
 11
-2.5348770898
 21
-1.1775148332
 31
0.0
 11
-2.1070090247
 21
-1.3914997732
 31
0.0
 11
-1.684590857
 21
-1.7103137876
 31
0.0
 11
-1.6005988329
 21
-1.7872554114
 31
0.0
  0
SPLINE
  5
2A6
100
AcDbEntity
  8
CURVE
100
AcDbSpline
 62
253
  6
CONTINUOUS
 70
0
 71
3
 72
9
 73
5
 74
3
 42
0.0000001
 43
0.0000001
 44
0.0000000001
 12
0.3985325728
 22
-0.3989619452
 32
0.0
 13
0.3592003957
 23
-0.4752306509
 33
0.0
 40
0.0
 40
0.0
 40
0.0
 40
0.0
 40
0.6
 40
1.0
 40
1.0
 40
1.0
 40
1.0
 10
-1.5225096072
 20
-1.8632241258
 30
0.0
 10
-1.4428030926
 20
-1.9430165148
 30
0.0
 10
-1.3133935591
 20
-2.084233879
 30
0.0
 10
-1.1904538162
 20
-2.2383204855
 30
0.0
 10
-1.1425604301
 20
-2.3016845723
 30
0.0
 11
-1.5225096072
 21
-1.8632241258
 31
0.0
 11
-1.289840777
 21
-2.1171102791
 31
0.0
 11
-1.1425604301
 21
-2.3016845723
 31
0.0
  0
SPLINE
  5
2A7
100
AcDbEntity
  8
CURVE
100
AcDbSpline
 62
253
  6
CONTINUOUS
 70
0
 71
3
 72
10
 73
6
 74
4
 42
0.0000001
 43
0.0000001
 44
0.0000000001
 12
0.4423608689
 22
-1.2386030324
 32
0.0
 13
0.0272047728
 23
-1.156215364
 33
0.0
 40
0.0
 40
0.0
 40
0.0
 40
0.0
 40
0.0909090909
 40
0.5454545455
 40
1.0
 40
1.0
 40
1.0
 40
1.0
 10
-0.45733444
 20
-3.5719289389
 30
0.0
 10
-0.4439295652
 20
-3.6094623641
 30
0.0
 10
-0.3666854851
 20
-3.8349893547
 30
0.0
 10
-0.2612601153
 20
-4.2495217814
 30
0.0
 10
-0.2234972113
 20
-4.6067159577
 30
0.0
 10
-0.219375276
 20
-4.7819001038
 30
0.0
 11
-0.45733444
 21
-3.5719289389
 31
0.0
 11
-0.4187298533
 21
-3.6846541834
 31
0.0
 11
-0.2757797006
 21
-4.2446084103
 31
0.0
 11
-0.219375276
 21
-4.7819001038
 31
0.0
  0
SPLINE
  5
2A8
100
AcDbEntity
  8
CURVE
100
AcDbSpline
 62
253
  6
CONTINUOUS
 70
0
 71
3
 72
12
 73
8
 74
6
 42
0.0000001
 43
0.0000001
 44
0.0000000001
 12
0.0520033531
 22
-2.2101664415
 32
0.0
 13
-1.3546916599
 23
-0.6946597531
 33
0.0
 40
0.0
 40
0.0
 40
0.0
 40
0.0
 40
0.2380952381
 40
0.4761904762
 40
0.7142857143
 40
0.9523809524
 40
1.0
 40
1.0
 40
1.0
 40
1.0
 10
-0.219375276
 20
-4.7819001038
 30
0.0
 10
-0.2152480258
 20
-4.9573101388
 30
0.0
 10
-0.2369965243
 20
-5.2846646176
 30
0.0
 10
-0.3573558786
 20
-5.7159482245
 30
0.0
 10
-0.562169859
 20
-6.0609104428
 30
0.0
 10
-0.7652561165
 20
-6.2387530763
 30
0.0
 10
-0.8918227711
 20
-6.3093711064
 30
0.0
 10
-0.9133258133
 20
-6.3203974517
 30
0.0
 11
-0.219375276
 21
-4.7819001038
 31
0.0
 11
-0.251619292
 21
-5.2747065991
 31
0.0
 11
-0.3714316496
 21
-5.7015613264
 31
0.0
 11
-0.5741901632
 21
-6.0438355201
 31
0.0
 11
-0.8500725622
 21
-6.2850987896
 31
0.0
 11
-0.9133258133
 21
-6.3203974517
 31
0.0
  0
SPLINE
  5
2A9
100
AcDbEntity
  8
CURVE
100
AcDbSpline
 62
253
  6
CONTINUOUS
 70
0
 71
3
 72
18
 73
14
 74
12
 42
0.0000001
 43
0.0000001
 44
0.0000000001
 12
-3.5906733664
 22
-1.2498139467
 32
0.0
 13
-0.1286253905
 23
5.466638295
 33
0.0
 40
0.0
 40
0.0
 40
0.0
 40
0.0
 40
0.0384615385
 40
0.1346153846
 40
0.2307692308
 40
0.3269230769
 40
0.4230769231
 40
0.5192307692
 40
0.6153846154
 40
0.7115384615
 40
0.8076923077
 40
0.9038461538
 40
1.0
 40
1.0
 40
1.0
 40
1.0
 10
-1.0470066553
 20
-6.377552783
 30
0.0
 10
-1.0930409292
 20
-6.3935760387
 30
0.0
 10
-1.2590391541
 20
-6.4389609812
 30
0.0
 10
-1.5678243506
 20
-6.4508457248
 30
0.0
 10
-1.9900979401
 20
-6.3472482762
 30
0.0
 10
-2.4191885765
 20
-6.1326461344
 30
0.0
 10
-2.8477749394
 20
-5.8107395053
 30
0.0
 10
-3.2459488218
 20
-5.4036791118
 30
0.0
 10
-3.6059508191
 20
-4.9197627565
 30
0.0
 10
-3.9040878777
 20
-4.3895562924
 30
0.0
 10
-4.1327326857
 20
-3.8279978018
 30
0.0
 10
-4.2782857148
 20
-3.2635403853
 30
0.0
 10
-4.3164719982
 20
-2.9065032042
 30
0.0
 10
-4.3205946069
 20
-2.7312904384
 30
0.0
 11
-1.0470066553
 21
-6.377552783
 31
0.0
 11
-1.1890502392
 21
-6.4163713385
 31
0.0
 11
-1.5738730329
 21
-6.4311034951
 31
0.0
 11
-1.9912341146
 21
-6.328747494
 31
0.0
 11
-2.4191045309
 21
-6.1147620532
 31
0.0
 11
-2.8427061927
 21
-5.7965472113
 31
0.0
 11
-3.2395868409
 21
-5.3908697848
 31
0.0
 11
-3.595639996
 21
-4.9120477383
 31
0.0
 11
-3.892505836
 21
-4.3843309547
 31
0.0
 11
-4.1188840559
 21
-3.8275146475
 31
0.0
 11
-4.2635734475
 21
-3.2683573261
 31
0.0
 11
-4.3205946069
 21
-2.7312904384
 31
0.0
  0
ELLIPSE
  5
2AA
100
AcDbEntity
  8
RACCORDO
100
AcDbEllipse
 62
7
  6
CONTINUOUS
 10
-6.9476481933
 20
12.5033622126
 30
0.0
 11
-0.1118504554
 21
0.2236675568
 31
0.0
 40
0.6121897086
 41
-0.6846338794
 42
0.0186659329
  0
ELLIPSE
  5
2AB
100
AcDbEntity
  8
RACCORDO
100
AcDbEllipse
 62
7
  6
CONTINUOUS
 10
9.8153326777
 20
-11.7184161203
 30
0.0
 11
-0.0859020599
 21
0.2354039488
 31
0.0
 40
0.6613288813
 41
-3.0814036799
 42
-2.1814380601
  0
ELLIPSE
  5
2AC
100
AcDbEntity
  8
RACCORDO
100
AcDbEllipse
 62
7
  6
CONTINUOUS
 10
10.0836973014
 20
3.9876894653
 30
0.0
 11
-0.1117903878
 21
0.2236141634
 31
0.0
 40
0.6125552124
 41
-2.255296188
 42
-0.6848044477
  0
ELLIPSE
  5
2AD
100
AcDbEntity
  8
RACCORDO
100
AcDbEllipse
 62
7
  6
CONTINUOUS
 10
10.4763357375
 20
3.3968203891
 30
0.0
 11
0.1379861541
 21
0.2664038768
 31
0.0
 40
0.6229838795
 41
2.2644017489
 42
3.8177447832
  0
ELLIPSE
  5
2AE
100
AcDbEntity
  8
RACCORDO
100
AcDbEllipse
 62
7
  6
CONTINUOUS
 10
9.2923029878
 20
-11.713660933
 30
0.0
 11
-0.1098985543
 21
0.2275784384
 31
0.0
 40
0.6085747011
 41
-3.2548100557
 42
-2.2415613143
  0
ELLIPSE
  5
2AF
100
AcDbEntity
  8
RACCORDO
100
AcDbEllipse
 62
7
  6
CONTINUOUS
 10
9.2923029878
 20
-11.9654637355
 30
0.0
 11
-0.1118523001
 21
0.2236266191
 31
0.0
 40
0.6122950388
 41
2.456793014
 42
4.0274370417
  0
ELLIPSE
  5
2B0
100
AcDbEntity
  8
ASSI
100
AcDbEllipse
 62
7
  6
CONTINUOUS
 10
-6.9476481933
 20
12.5033622126
 30
0.0
 11
-0.1118504554
 21
0.2236675568
 31
0.0
 40
0.6121897086
 41
-0.6846338794
 42
0.0186659329
  0
ELLIPSE
  5
2B1
100
AcDbEntity
  8
ASSI
100
AcDbEllipse
 62
7
  6
CONTINUOUS
 10
9.8153326777
 20
-11.7184161203
 30
0.0
 11
-0.0859020599
 21
0.2354039488
 31
0.0
 40
0.6613288813
 41
-3.0814036799
 42
-2.1814380601
  0
ELLIPSE
  5
2B2
100
AcDbEntity
  8
ASSI
100
AcDbEllipse
 62
7
  6
CONTINUOUS
 10
10.0836973014
 20
3.9876894653
 30
0.0
 11
-0.1117903878
 21
0.2236141634
 31
0.0
 40
0.6125552124
 41
-2.255296188
 42
-0.6848044477
  0
ELLIPSE
  5
2B3
100
AcDbEntity
  8
ASSI
100
AcDbEllipse
 62
7
  6
CONTINUOUS
 10
10.4763357375
 20
3.3968203891
 30
0.0
 11
0.1379861541
 21
0.2664038768
 31
0.0
 40
0.6229838795
 41
2.2644017489
 42
3.8177447832
  0
ELLIPSE
  5
2B4
100
AcDbEntity
  8
ASSI
100
AcDbEllipse
 62
7
  6
CONTINUOUS
 10
9.2923029878
 20
-11.713660933
 30
0.0
 11
-0.1098985543
 21
0.2275784384
 31
0.0
 40
0.6085747011
 41
-3.2548100557
 42
-2.2415613143
  0
ELLIPSE
  5
2B5
100
AcDbEntity
  8
ASSI
100
AcDbEllipse
 62
7
  6
CONTINUOUS
 10
9.2923029878
 20
-11.9654637355
 30
0.0
 11
-0.1118523001
 21
0.2236266191
 31
0.0
 40
0.6122950388
 41
2.456793014
 42
4.0274370417
  0
ENDSEC
  0
SECTION
  2
OBJECTS
  0
DICTIONARY
  5
C
100
AcDbDictionary
280
0
281
1
  3
ACAD_GROUP
350
D
  3
ACAD_MLINESTYLE
350
17
  3
ACAD_LAYOUT
350
1A
  3
ACAD_PLOTSETTINGS
350
19
  3
ACAD_PLOTSTYLENAME
350
E
  0
DICTIONARY
  5
D
102
{ACAD_REACTORS
330
C
102
}
100
AcDbDictionary
280
0
281
1
  0
ACDBDICTIONARYWDFLT
  5
E
102
{ACAD_REACTORS
330
C
102
}
100
AcDbDictionary
281
1
  3
Normal
350
F
100
AcDbDictionaryWithDefault
340
F
  0
DICTIONARY
  5
17
102
{ACAD_REACTORS
330
C
102
}
100
AcDbDictionary
280
0
281
1
  3
Standard
350
18
  0
DICTIONARY
  5
19
102
{ACAD_REACTORS
330
C
102
}
100
AcDbDictionary
281
1
  0
DICTIONARY
  5
1A
102
{ACAD_REACTORS
330
C
102
}
100
AcDbDictionary
281
1
  3
Model
350
2B6
  3
Layout1
350
2B7
  0
ACDBPLACEHOLDER
  5
F
102
{ACAD_REACTORS
330
E
102
}
  0
MLINESTYLE
  5
18
102
{ACAD_REACTORS
330
17
102
}
100
AcDbMlineStyle
  2
STANDARD
 70
0
  3

 62
256
 51
90.0
 52
90.0
 71
2
 49
0.5
 62
256
  6
BYLAYER
 49
-0.5
 62
256
  6
BYLAYER
  0
LAYOUT
  5
2B6
102
{ACAD_REACTORS
330
1A
102
}
100
AcDbPlotSettings
  1

  2
none_device
  4
ISO_A4_(297.00_x_210.00_MM)
  6

 40
0.0
 41
0.0
 42
0.0
 43
0.0
 44
297.0
 45
210.0
 46
0.0
 47
0.0
 48
0.0
 49
0.0
140
0.0
141
0.0
142
1.0
143
1.0
 70
1024
 72
1
 73
0
 74
0
  7

 75
0
147
1.0
148
0.0
149
0.0
100
AcDbLayout
  1
Model
 70
0
 71
0
 10
0.0
 20
0.0
 11
297.0
 21
210.0
 12
0.0
 22
0.0
 32
0.0
 14
0.0
 24
0.0
 34
0.0
 15
0.0
 25
0.0
 35
0.0
146
0.0
 13
0.0
 23
0.0
 33
0.0
 16
1.0
 26
0.0
 36
0.0
 17
0.0
 27
1.0
 37
0.0
 76
0
330
211
345
0
346
0
  0
LAYOUT
  5
2B7
102
{ACAD_REACTORS
330
1A
102
}
100
AcDbPlotSettings
  1

  2
none_device
  4
ISO_A4_(297.00_x_210.00_MM)
  6

 40
0.0
 41
0.0
 42
0.0
 43
0.0
 44
297.0
 45
210.0
 46
0.0
 47
0.0
 48
0.0
 49
0.0
140
0.0
141
0.0
142
1.0
143
1.0
 70
0
 72
1
 73
0
 74
0
  7

 75
0
147
1.0
148
0.0
149
0.0
100
AcDbLayout
  1
Layout1
 70
0
 71
1
 10
0.0
 20
0.0
 11
297.0
 21
210.0
 12
0.0
 22
0.0
 32
0.0
 14
0.0
 24
0.0
 34
0.0
 15
0.0
 25
0.0
 35
0.0
146
0.0
 13
0.0
 23
0.0
 33
0.0
 16
1.0
 26
0.0
 36
0.0
 17
0.0
 27
1.0
 37
0.0
 76
0
330
212
345
0
346
0
  0
ENDSEC
  0
EOF
