  0
SECTION
  2
HEADER
  9
$ACADVER
  1
AC1015
  9
$DWGCODEPAGE
  3
ANSI_1252
  9
$EXTMAX
 10
297.0
 20
210.0
 30
0.0
  9
$EXTMIN
 10
0.0
 20
0.0
 30
0.0
  9
$LIMMIN
 10
0.0
 20
0.0
  9
$LIMMAX
 10
297.0
 20
210.0
  9
$VIEWCTR
 10
148.5
 20
105.0
  9
$VIEWSIZE
 40
210.0
  9
$CLAYER
  8
0
  9
$LTSCALE
 40
16.335
  9
$CELTYPE
  6
BYLAYER
  9
$DIMSCALE
 40
1.0
  9
$DIMASZ
 40
3.0
  9
$DIMEXO
 40
1.85625
  9
$DIMDLI
 40
11.286
  9
$DIMEXE
 40
5.346
  9
$DIMCEN
 40
2.673
  9
$DIMLFAC
 40
1.0
  9
$DIMBLK
  1
_FILLED
  9
$DIMTXT
 40
3.0
  9
$DIMTOL
 70
1
  9
$DIMLIM
 70
0
  9
$DIMTFAC
 40
1.0
  9
$DIMTP
 40
0.01
  9
$DIMTM
 40
0.01
  9
$PDMODE
 70
3
  9
$PDSIZE
 40
3.0
  9
$HANDSEED
  5
2BD
  9
$TILEMODE
 70
1
  9
$MEASUREMENT
 70
1
  9
$INSUNITS
 70
4
  0
ENDSEC
  0
SECTION
  2
CLASSES
  0
CLASS
  1
ACDBDICTIONARYWDFLT
  2
AcDbDictionaryWithDefault
  3
AutoCAD 2000
 90
0
280
0
281
0
  0
CLASS
  1
ACDBPLACEHOLDER
  2
AcDbPlaceHolder
  3
AutoCAD 2000
 90
0
280
0
281
0
  0
CLASS
  1
LAYOUT
  2
AcDbLayout
  3
AutoCAD 2000
 90
0
280
0
281
0
  0
ENDSEC
  0
SECTION
  2
TABLES
  0
TABLE
  2
VPORT
  5
8
100
AcDbSymbolTable
 70
2
  0
VPORT
  5
1F4
100
AcDbSymbolTableRecord
100
AcDbViewportTableRecord
  2
*ACTIVE
 70
0
 10
0.0
 20
0.0
 11
1.0
 21
1.0
 12
148.5
 22
105.0
 13
0.0
 23
0.0
 14
1.0
 24
1.0
 15
0.0
 25
0.0
 16
0.0
 26
0.0
 36
1.0
 17
0.0
 27
0.0
 37
0.0
 40
210.0
 41
1.4142857143
 42
50.0
 43
0.0
 44
0.0
 50
0.0
 51
0.0
 71
0
 72
100
 73
1
 74
1
 75
0
 76
0
 77
0
 78
0
  0
ENDTAB
  0
TABLE
  2
LTYPE
  5
5
100
AcDbSymbolTable
 70
6
  0
LTYPE
  5
14
100
AcDbSymbolTableRecord
100
AcDbLinetypeTableRecord
  2
BYBLOCK
 70
0
  3

 72
65
 73
0
 40
0.0
  0
LTYPE
  5
15
100
AcDbSymbolTableRecord
100
AcDbLinetypeTableRecord
  2
BYLAYER
 70
0
  3

 72
65
 73
0
 40
0.0
  0
LTYPE
  5
16
100
AcDbSymbolTableRecord
100
AcDbLinetypeTableRecord
  2
CONTINUOUS
 70
64
  3
Solid line
 72
65
 73
0
 40
0.0
  0
LTYPE
  5
1F5
100
AcDbSymbolTableRecord
100
AcDbLinetypeTableRecord
  2
CENTER
 70
64
  3
____ _ ____ _ ____ _ ____ _ ____ _ ____ _ ____
 72
65
 73
4
 40
0.6
 49
0.375
 74
0
 49
-0.075
 74
0
 49
0.075
 74
0
 49
-0.075
 74
0
  0
LTYPE
  5
1F6
100
AcDbSymbolTableRecord
100
AcDbLinetypeTableRecord
  2
HIDDEN
 70
64
  3
- - - - - - - - - - - - - - - - - - - -
 72
65
 73
2
 40
0.2
 49
0.1
 74
0
 49
-0.1
 74
0
  0
LTYPE
  5
1F7
100
AcDbSymbolTableRecord
100
AcDbLinetypeTableRecord
  2
PHANTOM
 70
64
  3
_____ _ _ _____ _ _ _____ _ _ _____
 72
65
 73
6
 40
0.8
 49
0.45
 74
0
 49
-0.05
 74
0
 49
0.1
 74
0
 49
-0.05
 74
0
 49
0.1
 74
0
 49
-0.05
 74
0
  0
LTYPE
  5
1F8
100
AcDbSymbolTableRecord
100
AcDbLinetypeTableRecord
  2
DOT
 70
64
  3
. . . . . . . . . . . . . . . . . . . .
 72
65
 73
2
 40
0.2
 49
0.1
 74
0
 49
-0.1
 74
0
  0
LTYPE
  5
1F9
100
AcDbSymbolTableRecord
100
AcDbLinetypeTableRecord
  2
DASHED
 70
64
  3
- - - - - - - - - - - - - - - - - - - -
 72
65
 73
2
 40
0.2
 49
0.1
 74
0
 49
-0.1
 74
0
  0
ENDTAB
  0
TABLE
  2
LAYER
  5
2
100
AcDbSymbolTable
 70
36
  0
LAYER
  5
10
100
AcDbSymbolTableRecord
100
AcDbLayerTableRecord
  2
0
 70
0
 62
7
  6
CONTINUOUS
370
-3
390
F
  0
LAYER
  5
1FA
100
AcDbSymbolTableRecord
100
AcDbLayerTableRecord
  2
DEFAULT_1
 70
0
 62
7
  6
CENTER
370
-3
390
F
  0
LAYER
  5
1FB
100
AcDbSymbolTableRecord
100
AcDbLayerTableRecord
  2
DEFAULT_2
 70
0
 62
7
  6
HIDDEN
370
-3
390
F
  0
LAYER
  5
1FC
100
AcDbSymbolTableRecord
100
AcDbLayerTableRecord
  2
DEFAULT_3
 70
0
 62
7
  6
PHANTOM
370
-3
390
F
  0
LAYER
  5
1FD
100
AcDbSymbolTableRecord
100
AcDbLayerTableRecord
  2
ASSI
 70
0
 62
7
  6
CONTINUOUS
370
-3
390
F
  0
LAYER
  5
1FE
100
AcDbSymbolTableRecord
100
AcDbLayerTableRecord
  2
COORDINATE
 70
0
 62
7
  6
CONTINUOUS
370
-3
390
F
  0
LAYER
  5
1FF
100
AcDbSymbolTableRecord
100
AcDbLayerTableRecord
  2
COORD_ORIGINE
 70
0
 62
7
  6
CONTINUOUS
370
-3
390
F
  0
LAYER
  5
200
100
AcDbSymbolTableRecord
100
AcDbLayerTableRecord
  2
COPY_PUBLISH
 70
0
 62
7
  6
CONTINUOUS
370
-3
390
F
  0
LAYER
  5
201
100
AcDbSymbolTableRecord
100
AcDbLayerTableRecord
  2
COSMETIC
 70
0
 62
7
  6
CONTINUOUS
370
-3
390
F
  0
LAYER
  5
202
100
AcDbSymbolTableRecord
100
AcDbLayerTableRecord
  2
CURVE
 70
0
 62
7
  6
CONTINUOUS
370
-3
390
F
  0
LAYER
  5
203
100
AcDbSymbolTableRecord
100
AcDbLayerTableRecord
  2
DRAFT
 70
0
 62
7
  6
CONTINUOUS
370
-3
390
F
  0
LAYER
  5
204
100
AcDbSymbolTableRecord
100
AcDbLayerTableRecord
  2
IGES
 70
0
 62
7
  6
CONTINUOUS
370
-3
390
F
  0
LAYER
  5
205
100
AcDbSymbolTableRecord
100
AcDbLayerTableRecord
  2
IMPORT_IGES
 70
0
 62
7
  6
CONTINUOUS
370
-3
390
F
  0
LAYER
  5
206
100
AcDbSymbolTableRecord
100
AcDbLayerTableRecord
  2
INTF_12
 70
0
 62
7
  6
CONTINUOUS
370
-3
390
F
  0
LAYER
  5
207
100
AcDbSymbolTableRecord
100
AcDbLayerTableRecord
  2
INTF_9
 70
0
 62
7
  6
CONTINUOUS
370
-3
390
F
  0
LAYER
  5
208
100
AcDbSymbolTableRecord
100
AcDbLayerTableRecord
  2
NOTE
 70
0
 62
7
  6
CONTINUOUS
370
-3
390
F
  0
LAYER
  5
209
100
AcDbSymbolTableRecord
100
AcDbLayerTableRecord
  2
PIANI
 70
0
 62
7
  6
CONTINUOUS
370
-3
390
F
  0
LAYER
  5
20A
100
AcDbSymbolTableRecord
100
AcDbLayerTableRecord
  2
PIANI_ORIGINE
 70
0
 62
7
  6
CONTINUOUS
370
-3
390
F
  0
LAYER
  5
20B
100
AcDbSymbolTableRecord
100
AcDbLayerTableRecord
  2
RACCORDO
 70
0
 62
7
  6
CONTINUOUS
370
-3
390
F
  0
LAYER
  5
20C
100
AcDbSymbolTableRecord
100
AcDbLayerTableRecord
  2
SMUSSO
 70
0
 62
7
  6
CONTINUOUS
370
-3
390
F
  0
LAYER
  5
20D
100
AcDbSymbolTableRecord
100
AcDbLayerTableRecord
  2
SUPERFICI
 70
0
 62
7
  6
CONTINUOUS
370
-3
390
F
  0
LAYER
  5
20E
100
AcDbSymbolTableRecord
100
AcDbLayerTableRecord
  2
TRASH
 70
0
 62
7
  6
CONTINUOUS
370
-3
390
F
  0
ENDTAB
  0
TABLE
  2
STYLE
  5
3
100
AcDbSymbolTable
 70
1
  0
STYLE
  5
11
100
AcDbSymbolTableRecord
100
AcDbTextStyleTableRecord
  2
STANDARD
 70
0
 40
0.0
 41
0.8
 50
0.0
 71
0
 42
0.2
  3
txt
  4

  0
STYLE
  5
20F
100
AcDbSymbolTableRecord
100
AcDbTextStyleTableRecord
  2
TEXTSTYLE_1
 70
0
 40
0.0
 41
0.8
 50
0.0
 71
0
 42
0.2
  3
gdt
  4

  0
ENDTAB
  0
TABLE
  2
VIEW
  5
6
100
AcDbSymbolTable
 70
0
  0
ENDTAB
  0
TABLE
  2
UCS
  5
7
100
AcDbSymbolTable
 70
0
  0
ENDTAB
  0
TABLE
  2
APPID
  5
9
100
AcDbSymbolTable
 70
1
  0
APPID
  5
210
100
AcDbSymbolTableRecord
100
AcDbRegAppTableRecord
  2
ACAD
 70
0
  0
ENDTAB
  0
TABLE
  2
BLOCK_RECORD
  5
1
100
AcDbSymbolTable
 70
0
  0
BLOCK_RECORD
  5
211
100
AcDbSymbolTableRecord
100
AcDbBlockTableRecord
  2
*Model_Space
  0
BLOCK_RECORD
  5
212
100
AcDbSymbolTableRecord
100
AcDbBlockTableRecord
  2
*Paper_Space
  0
ENDTAB
  0
TABLE
  2
DIMSTYLE
  5
A
100
AcDbSymbolTable
 70
1
100
AcDbDimStyleTable
 71
0
  0
DIMSTYLE
105
213
100
AcDbSymbolTableRecord
100
AcDbDimStyleTableRecord
  2
STANDARD
 70
0
  3

  4

 40
1.0
 41
3.0
 42
0.0625
 43
0.38
 44
0.18
 45
0.0
 46
0.0
 47
0.01
 48
0.01
140
3.0
141
0.09
142
0.0
143
25.4
144
1.0
145
0.0
146
1.0
147
0.09
 71
1.0
 72
0.0
 73
0
 74
0
 75
0
 76
0
 77
1
 78
8
170
0
171
2
172
0
173
0
174
0
175
0
176
0
177
0
178
0
270
2
271
2
272
2
273
2
274
2
275
0
280
0
281
0
282
0
283
1
284
8
285
0
286
0
287
3
288
0
340
11
  0
ENDTAB
  0
ENDSEC
  0
SECTION
  2
BLOCKS
  0
BLOCK
  5
20
100
AcDbEntity
  8
0
100
AcDbBlockBegin
  2
*Model_Space
 70
0
 10
0.0
 20
0.0
 30
0.0
  3
*Model_Space
  1

  0
ENDBLK
  5
21
100
AcDbEntity
  8
0
100
AcDbBlockEnd
  0
BLOCK
  5
1C
100
AcDbEntity
  8
0
100
AcDbBlockBegin
  2
*Paper_Space
 70
0
 10
0.0
 20
0.0
 30
0.0
  3
*Paper_Space
  1

  0
ENDBLK
  5
1D
100
AcDbEntity
  8
0
100
AcDbBlockEnd
  0
ENDSEC
  0
SECTION
  2
ENTITIES
  0
LINE
  5
214
100
AcDbEntity
  8
RACCORDO
100
AcDbLine
 62
7
  6
CONTINUOUS
 10
-10.6677499486
 20
10.7068467929
 11
-6.9467427606
 21
12.7144155371
  0
LINE
  5
215
100
AcDbEntity
  8
ASSI
100
AcDbLine
 62
7
  6
CONTINUOUS
 10
-10.6677499486
 20
10.7068467929
 11
-6.9467427606
 21
12.7144155371
  0
LINE
  5
216
100
AcDbEntity
  8
RACCORDO
100
AcDbLine
 62
253
  6
CONTINUOUS
 10
-10.5521291722
 20
10.7017573618
 11
-6.8323245127
 21
12.7086773142
  0
LINE
  5
217
100
AcDbEntity
  8
ASSI
100
AcDbLine
 62
253
  6
CONTINUOUS
 10
-10.5521291722
 20
10.7017573618
 11
-6.8323245127
 21
12.7086773142
  0
LINE
  5
218
100
AcDbEntity
  8
RACCORDO
100
AcDbLine
 62
7
  6
CONTINUOUS
 10
7.1014753789
 20
-12.6079475489
 11
9.5008930534
 21
-11.9586803095
  0
LINE
  5
219
100
AcDbEntity
  8
ASSI
100
AcDbLine
 62
7
  6
CONTINUOUS
 10
7.1014753789
 20
-12.6079475489
 11
9.5008930534
 21
-11.9586803095
  0
LINE
  5
21A
100
AcDbEntity
  8
RACCORDO
100
AcDbLine
 62
253
  6
CONTINUOUS
 10
7.209839985
 20
-12.4565438443
 11
9.5844841437
 21
-11.8139801614
  0
LINE
  5
21B
100
AcDbEntity
  8
ASSI
100
AcDbLine
 62
253
  6
CONTINUOUS
 10
7.209839985
 20
-12.4565438443
 11
9.5844841437
 21
-11.8139801614
  0
LINE
  5
21C
100
AcDbEntity
  8
ASSI
100
AcDbLine
 62
7
  6
CONTINUOUS
 10
7.0940701597
 20
-12.6098957132
 11
7.1012008568
 21
-12.6080097543
  0
LINE
  5
21D
100
AcDbEntity
  8
RACCORDO
100
AcDbLine
 62
7
  6
CONTINUOUS
 10
7.0879313494
 20
-12.6114573623
 11
7.1013779562
 21
-12.6079621536
  0
LINE
  5
21E
100
AcDbEntity
  8
DRAFT
100
AcDbLine
 62
7
  6
CONTINUOUS
 10
-4.33582034
 20
11.4604252278
 11
-6.2715492017
 21
10.2616197262
  0
LINE
  5
21F
100
AcDbEntity
  8
ASSI
100
AcDbLine
 62
7
  6
CONTINUOUS
 10
-4.33582034
 20
11.4604252278
 11
-6.2715492017
 21
10.2616197262
  0
LINE
  5
220
100
AcDbEntity
  8
DRAFT
100
AcDbLine
 62
7
  6
CONTINUOUS
 10
-4.33582034
 20
10.4725909441
 11
-5.3890062242
 21
9.8203482374
  0
LINE
  5
221
100
AcDbEntity
  8
ASSI
100
AcDbLine
 62
7
  6
CONTINUOUS
 10
-4.33582034
 20
10.4725909441
 11
-5.3890062242
 21
9.8203482374
  0
LWPOLYLINE
  5
222
100
AcDbEntity
  8
ASSI
100
AcDbPolyline
 62
7
  6
CONTINUOUS
 90
10
 70
0
 10
-10.5599701826
 20
-3.6093629334
 10
-10.5479088153
 20
-3.6821448909
 10
-10.5300807301
 20
-3.751506124
 10
-10.5065951531
 20
-3.8169706704
 10
-10.477804085
 20
-3.8777250583
 10
-10.4440898751
 20
-3.933298566
 10
-10.4056719847
 20
-3.9836562892
 10
-10.3628603419
 20
-4.0285636626
 10
-10.3161032006
 20
-4.0676752613
 10
-10.2659058154
 20
-4.1007501527
  0
LWPOLYLINE
  5
223
100
AcDbEntity
  8
RACCORDO
100
AcDbPolyline
 62
7
  6
CONTINUOUS
 90
12
 70
0
 10
-10.5654046586
 20
-3.5498795474
 10
-10.5589250011
 20
-3.6175315877
 10
-10.547840961
 20
-3.6824674626
 10
-10.5321828501
 20
-3.7445273235
 10
-10.5120443692
 20
-3.8034272478
 10
-10.4876323149
 20
-3.8587081494
 10
-10.4591392548
 20
-3.9100965354
 10
-10.4267187475
 20
-3.9574740852
 10
-10.3906484014
 20
-4.0005733252
 10
-10.3512375983
 20
-4.0391485214
 10
-10.3088021333
 20
-4.0730100833
 10
-10.2637664281
 20
-4.1019838003
  0
LINE
  5
224
100
AcDbEntity
  8
RACCORDO
100
AcDbLine
 62
7
  6
CONTINUOUS
 10
-10.5666901773
 20
-3.5221393449
 11
-10.5654046586
 21
-3.5498795474
  0
LWPOLYLINE
  5
225
100
AcDbEntity
  8
ASSI
100
AcDbPolyline
 62
7
  6
CONTINUOUS
 90
3
 70
0
 10
-10.5666912756
 20
-3.5221048157
 10
-10.5662633705
 20
-3.5333433295
 10
-10.5599701826
 20
-3.6093629334
  0
LINE
  5
226
100
AcDbEntity
  8
ASSI
100
AcDbLine
 62
7
  6
CONTINUOUS
 10
-10.6127099745
 20
-2.0215974225
 11
-10.5666953238
 21
-3.5221663561
  0
LWPOLYLINE
  5
227
100
AcDbEntity
  8
ASSI
100
AcDbPolyline
 62
7
  6
CONTINUOUS
 90
8
 70
0
 10
-10.7949406749
 20
8.9675585866
 10
-10.7852982821
 20
7.3874173883
 10
-10.770178936
 20
5.8101746442
 10
-10.7495828628
 20
4.2358631294
 10
-10.7235104494
 20
2.6645101237
 10
-10.6919620878
 20
1.0961411207
 10
-10.6549382681
 20
-0.4692161691
 10
-10.6127099745
 20
-2.0215974225
  0
LINE
  5
228
100
AcDbEntity
  8
ASSI
100
AcDbLine
 62
7
  6
CONTINUOUS
 10
-10.7990438554
 20
10.486566543
 11
-10.7949406749
 21
8.9675585866
  0
LWPOLYLINE
  5
229
100
AcDbEntity
  8
RACCORDO
100
AcDbPolyline
 62
7
  6
CONTINUOUS
 90
10
 70
0
 10
-10.7990438554
 20
10.4865665424
 10
-10.7948604838
 20
8.9492719881
 10
-10.7851982547
 20
7.3746856264
 10
-10.7700973185
 20
5.8029777254
 10
-10.7495578993
 20
4.2341806873
 10
-10.7235803802
 20
2.6683215037
 10
-10.6921651498
 20
1.1054254328
 10
-10.6553126918
 20
-0.4544801147
 10
-10.6130238251
 20
-2.0113625396
 10
-10.5666953238
 20
-3.5221663554
  0
LWPOLYLINE
  5
22A
100
AcDbEntity
  8
RACCORDO
100
AcDbPolyline
 62
7
  6
CONTINUOUS
 90
9
 70
0
 10
6.6840798503
 20
-12.5767919408
 10
6.7292031187
 20
-12.5960600313
 10
6.7765781802
 20
-12.6113816331
 10
6.8257415661
 20
-12.6224878463
 10
6.8764119631
 20
-12.6292477985
 10
6.9283273456
 20
-12.631559003
 10
6.9810643888
 20
-12.6293527536
 10
7.0343305307
 20
-12.622639732
 10
7.0879313494
 20
-12.6114573623
  0
LWPOLYLINE
  5
22B
100
AcDbEntity
  8
ASSI
100
AcDbPolyline
 62
7
  6
CONTINUOUS
 90
8
 70
0
 10
6.6754856561
 20
-12.5725579853
 10
6.6929877144
 20
-12.5809817208
 10
6.7532726221
 20
-12.6044394068
 10
6.8172602249
 20
-12.6209012469
 10
6.8842060544
 20
-12.6298863395
 10
6.9530728839
 20
-12.6310843763
 10
7.0231764738
 20
-12.6244111139
 10
7.093453552
 20
-12.610021963
  0
LINE
  5
22C
100
AcDbEntity
  8
RACCORDO
100
AcDbLine
 62
7
  6
CONTINUOUS
 10
6.6769305473
 20
-12.5732840518
 11
6.6840798503
 21
-12.5767919408
  0
LINE
  5
22D
100
AcDbEntity
  8
RACCORDO
100
AcDbLine
 62
7
  6
CONTINUOUS
 10
6.6768059788
 20
-12.5732333993
 11
6.6768810593
 21
-12.5732709296
  0
LINE
  5
22E
100
AcDbEntity
  8
RACCORDO
100
AcDbLine
 62
7
  6
CONTINUOUS
 10
-10.2375254123
 20
-4.1160677037
 11
6.6768353405
 21
-12.5732480802
  0
LINE
  5
22F
100
AcDbEntity
  8
ASSI
100
AcDbLine
 62
7
  6
CONTINUOUS
 10
-10.2375525805
 20
-4.1160541196
 11
6.6768353405
 21
-12.5732480802
  0
LINE
  5
230
100
AcDbEntity
  8
RACCORDO
100
AcDbLine
 62
253
  6
CONTINUOUS
 10
-10.4934638513
 20
-3.610982217
 11
6.4140742841
 21
-12.0647512847
  0
LINE
  5
231
100
AcDbEntity
  8
ASSI
100
AcDbLine
 62
253
  6
CONTINUOUS
 10
-10.4934638513
 20
-3.610982217
 11
6.4140742841
 21
-12.0647512847
  0
LINE
  5
232
100
AcDbEntity
  8
RACCORDO
100
AcDbLine
 62
7
  6
CONTINUOUS
 10
-10.2637664281
 20
-4.1019838003
 11
-10.236908207
 21
-4.116364162
  0
LINE
  5
233
100
AcDbEntity
  8
ASSI
100
AcDbLine
 62
7
  6
CONTINUOUS
 10
-10.2659058154
 20
-4.1007501527
 11
-10.2376102975
 21
-4.1160135695
  0
LINE
  5
234
100
AcDbEntity
  8
RACCORDO
100
AcDbLine
 62
7
  6
CONTINUOUS
 10
9.4077074474
 20
-12.1932429495
 11
9.1360374191
 21
-12.0574079353
  0
LINE
  5
235
100
AcDbEntity
  8
ASSI
100
AcDbLine
 62
7
  6
CONTINUOUS
 10
9.4077074474
 20
-12.1932429495
 11
9.1360374191
 21
-12.0574079353
  0
LINE
  5
236
100
AcDbEntity
  8
DRAFT
100
AcDbLine
 62
7
  6
CONTINUOUS
 10
-2.1893096918
 20
4.0717760695
 11
-2.640926614
 21
3.8333631874
  0
LINE
  5
237
100
AcDbEntity
  8
DRAFT
100
AcDbLine
 62
7
  6
CONTINUOUS
 10
-4.33582034
 20
11.4604252278
 11
-4.33582034
 21
10.4725909441
  0
LINE
  5
238
100
AcDbEntity
  8
ASSI
100
AcDbLine
 62
7
  6
CONTINUOUS
 10
-4.33582034
 20
11.4604252278
 11
-4.33582034
 21
10.4725909441
  0
LINE
  5
239
100
AcDbEntity
  8
DRAFT
100
AcDbLine
 62
7
  6
CONTINUOUS
 10
-1.0886561715
 20
1.8982301138
 11
-1.5615836644
 21
1.6746772863
  0
LINE
  5
23A
100
AcDbEntity
  8
DRAFT
100
AcDbLine
 62
7
  6
CONTINUOUS
 10
7.7026245132
 20
5.4412028013
 11
5.3957126878
 21
4.4279887814
  0
LINE
  5
23B
100
AcDbEntity
  8
ASSI
100
AcDbLine
 62
7
  6
CONTINUOUS
 10
7.7026245132
 20
5.4412028013
 11
5.3957126878
 21
4.4279887814
  0
LINE
  5
23C
100
AcDbEntity
  8
RACCORDO
100
AcDbLine
 62
253
  6
CONTINUOUS
 10
10.1991286859
 20
4.1929507149
 11
6.3471581996
 21
2.2521136759
  0
LINE
  5
23D
100
AcDbEntity
  8
ASSI
100
AcDbLine
 62
253
  6
CONTINUOUS
 10
10.1991286859
 20
4.1929507149
 11
6.3471581996
 21
2.2521136759
  0
LINE
  5
23E
100
AcDbEntity
  8
RACCORDO
100
AcDbLine
 62
253
  6
CONTINUOUS
 10
10.3758784573
 20
3.8881024532
 11
6.5239079725
 21
1.947265415
  0
LINE
  5
23F
100
AcDbEntity
  8
ASSI
100
AcDbLine
 62
253
  6
CONTINUOUS
 10
10.3758784573
 20
3.8881024532
 11
6.5239079725
 21
1.947265415
  0
LINE
  5
240
100
AcDbEntity
  8
RACCORDO
100
AcDbLine
 62
7
  6
CONTINUOUS
 10
10.6636582077
 20
3.158948593
 11
10.5879464332
 21
3.1239823865
  0
LINE
  5
241
100
AcDbEntity
  8
ASSI
100
AcDbLine
 62
7
  6
CONTINUOUS
 10
10.6636582077
 20
3.158948593
 11
10.5879464332
 21
3.1239823865
  0
LINE
  5
242
100
AcDbEntity
  8
RACCORDO
100
AcDbLine
 62
253
  6
CONTINUOUS
 10
6.1734668317
 20
1.9485140626
 11
-10.7258205404
 21
10.3981577486
  0
LINE
  5
243
100
AcDbEntity
  8
ASSI
100
AcDbLine
 62
253
  6
CONTINUOUS
 10
6.1734668317
 20
1.9485140626
 11
-10.7258205404
 21
10.3981577486
  0
LINE
  5
244
100
AcDbEntity
  8
RACCORDO
100
AcDbLine
 62
253
  6
CONTINUOUS
 10
6.3471581996
 20
2.2521136759
 11
-10.5521291722
 21
10.7017573618
  0
LINE
  5
245
100
AcDbEntity
  8
ASSI
100
AcDbLine
 62
253
  6
CONTINUOUS
 10
6.3471581996
 20
2.2521136759
 11
-10.5521291722
 21
10.7017573618
  0
LINE
  5
246
100
AcDbEntity
  8
DRAFT
100
AcDbLine
 62
7
  6
CONTINUOUS
 10
5.3957126878
 20
4.4279887814
 11
-6.2715492017
 21
10.2616197262
  0
LINE
  5
247
100
AcDbEntity
  8
ASSI
100
AcDbLine
 62
7
  6
CONTINUOUS
 10
5.3957126878
 20
4.4279887814
 11
-6.2715492017
 21
10.2616197262
  0
LINE
  5
248
100
AcDbEntity
  8
RACCORDO
100
AcDbLine
 62
253
  6
CONTINUOUS
 10
10.5879464332
 20
3.1239823865
 11
10.3811875455
 21
3.2273618304
  0
LINE
  5
249
100
AcDbEntity
  8
ASSI
100
AcDbLine
 62
253
  6
CONTINUOUS
 10
10.5879464332
 20
3.1239823865
 11
10.3811875455
 21
3.2273618304
  0
LINE
  5
24A
100
AcDbEntity
  8
DRAFT
100
AcDbLine
 62
7
  6
CONTINUOUS
 10
10.6636582077
 20
3.158948593
 11
10.3758784573
 21
3.3028384682
  0
LINE
  5
24B
100
AcDbEntity
  8
ASSI
100
AcDbLine
 62
7
  6
CONTINUOUS
 10
10.6636582077
 20
3.158948593
 11
10.3758784573
 21
3.3028384682
  0
LINE
  5
24C
100
AcDbEntity
  8
RACCORDO
100
AcDbLine
 62
7
  6
CONTINUOUS
 10
10.1991286859
 20
4.1929507149
 11
7.7026245132
 21
5.4412028013
  0
LINE
  5
24D
100
AcDbEntity
  8
ASSI
100
AcDbLine
 62
7
  6
CONTINUOUS
 10
10.1991286859
 20
4.1929507149
 11
7.7026245132
 21
5.4412028013
  0
LINE
  5
24E
100
AcDbEntity
  8
RACCORDO
100
AcDbLine
 62
7
  6
CONTINUOUS
 10
-4.33582034
 20
11.4604252278
 11
-6.8323245127
 21
12.7086773142
  0
LINE
  5
24F
100
AcDbEntity
  8
ASSI
100
AcDbLine
 62
7
  6
CONTINUOUS
 10
-4.33582034
 20
11.4604252278
 11
-6.8323245127
 21
12.7086773142
  0
LINE
  5
250
100
AcDbEntity
  8
RACCORDO
100
AcDbLine
 62
7
  6
CONTINUOUS
 10
9.5844841437
 20
-11.8139801614
 11
9.5844841437
 21
-12.0651496775
  0
LINE
  5
251
100
AcDbEntity
  8
ASSI
100
AcDbLine
 62
7
  6
CONTINUOUS
 10
9.5844841437
 20
-11.8139801614
 11
9.5844841437
 21
-12.0651496775
  0
LINE
  5
252
100
AcDbEntity
  8
RACCORDO
100
AcDbLine
 62
7
  6
CONTINUOUS
 10
10.3758784573
 20
3.2813546058
 11
10.3758784573
 21
3.8881024532
  0
LINE
  5
253
100
AcDbEntity
  8
ASSI
100
AcDbLine
 62
7
  6
CONTINUOUS
 10
10.3758784573
 20
3.2813546058
 11
10.3758784573
 21
3.8881024532
  0
LINE
  5
254
100
AcDbEntity
  8
DRAFT
100
AcDbLine
 62
7
  6
CONTINUOUS
 10
10.6636582077
 20
3.158948593
 11
10.6636582077
 21
-5.1801496371
  0
LINE
  5
255
100
AcDbEntity
  8
ASSI
100
AcDbLine
 62
7
  6
CONTINUOUS
 10
10.6636582077
 20
3.158948593
 11
10.6636582077
 21
-5.1801496371
  0
LINE
  5
256
100
AcDbEntity
  8
RACCORDO
100
AcDbLine
 62
7
  6
CONTINUOUS
 10
10.107510957
 20
-11.8181034209
 11
10.6636582077
 21
-5.1801496371
  0
LINE
  5
257
100
AcDbEntity
  8
ASSI
100
AcDbLine
 62
7
  6
CONTINUOUS
 10
10.107510957
 20
-11.8181034209
 11
10.6636582077
 21
-5.1801496371
  0
LINE
  5
258
100
AcDbEntity
  8
RACCORDO
100
AcDbLine
 62
253
  6
CONTINUOUS
 10
9.5844841437
 20
-12.0651496775
 11
10.107510957
 21
-11.8181034209
  0
LINE
  5
259
100
AcDbEntity
  8
ASSI
100
AcDbLine
 62
253
  6
CONTINUOUS
 10
9.5844841437
 20
-12.0651496775
 11
10.107510957
 21
-11.8181034209
  0
LINE
  5
25A
100
AcDbEntity
  8
RACCORDO
100
AcDbLine
 62
7
  6
CONTINUOUS
 10
9.517615965
 20
-12.2012731868
 11
10.0259329711
 21
-11.9611749542
  0
LINE
  5
25B
100
AcDbEntity
  8
ASSI
100
AcDbLine
 62
7
  6
CONTINUOUS
 10
9.517615965
 20
-12.2012731868
 11
10.0259329711
 21
-11.9611749542
  0
ARC
  5
25C
100
AcDbEntity
  8
RACCORDO
100
AcDbCircle
 62
253
  6
CONTINUOUS
 10
437.5864961049
 20
10.8243412555
 40
448.3125442873
100
AcDbArc
 50
180.0544676289
 51
181.833567904
  0
ARC
  5
25D
100
AcDbEntity
  8
ASSI
100
AcDbCircle
 62
253
  6
CONTINUOUS
 10
437.5864961049
 20
10.8243412555
 40
448.3125442873
100
AcDbArc
 50
180.0544676289
 51
181.833567904
  0
ARC
  5
25E
100
AcDbEntity
  8
RACCORDO
100
AcDbCircle
 62
253
  6
CONTINUOUS
 10
437.1504725587
 20
2.3372412425
 40
430.9770748538
100
AcDbArc
 50
180.0516789074
 51
181.915013677
  0
ARC
  5
25F
100
AcDbEntity
  8
ASSI
100
AcDbCircle
 62
253
  6
CONTINUOUS
 10
437.1504725587
 20
2.3372412425
 40
430.9770748538
100
AcDbArc
 50
180.0516789074
 51
181.915013677
  0
ARC
  5
260
100
AcDbEntity
  8
RACCORDO
100
AcDbCircle
 62
253
  6
CONTINUOUS
 10
437.243192641
 20
2.3357651028
 40
430.7193537598
100
AcDbArc
 50
180.0516795677
 51
181.9150326979
  0
ARC
  5
261
100
AcDbEntity
  8
ASSI
100
AcDbCircle
 62
253
  6
CONTINUOUS
 10
437.243192641
 20
2.3357651028
 40
430.7193537598
100
AcDbArc
 50
180.0516795677
 51
181.9150326979
  0
ARC
  5
262
100
AcDbEntity
  8
CURVE
100
AcDbCircle
 62
253
  6
CONTINUOUS
 10
-4.9863034727
 20
-5.2656379157
 40
5.0008825425
100
AcDbArc
 50
24.0214364652
 51
32.6371882005
  0
ARC
  5
263
100
AcDbEntity
  8
CURVE
100
AcDbCircle
 62
253
  6
CONTINUOUS
 10
-4.9630208448
 20
-5.2554240581
 40
4.9754585094
100
AcDbArc
 50
22.5825362193
 51
24.0231475431
  0
ARC
  5
264
100
AcDbEntity
  8
CURVE
100
AcDbCircle
 62
253
  6
CONTINUOUS
 10
-4.9030243938
 20
-5.2305268175
 40
4.9105012614
100
AcDbArc
 50
21.128502152
 51
22.5831332665
  0
ARC
  5
265
100
AcDbEntity
  8
CURVE
100
AcDbCircle
 62
253
  6
CONTINUOUS
 10
-4.8934532576
 20
-5.2093426757
 40
4.8923328636
100
AcDbArc
 50
32.6684502143
 51
32.9863035367
  0
ARC
  5
266
100
AcDbEntity
  8
CURVE
100
AcDbCircle
 62
253
  6
CONTINUOUS
 10
-4.8561732168
 20
-5.1843228511
 40
4.8474406302
100
AcDbArc
 50
32.9781483881
 51
37.0650652827
  0
ARC
  5
267
100
AcDbEntity
  8
CURVE
100
AcDbCircle
 62
253
  6
CONTINUOUS
 10
-4.8426347636
 20
-5.2070436543
 40
4.8457066047
100
AcDbArc
 50
20.4906437729
 51
21.1268894307
  0
ARC
  5
268
100
AcDbEntity
  8
CURVE
100
AcDbCircle
 62
253
  6
CONTINUOUS
 10
-4.2258878215
 20
-4.6502827497
 40
4.0205712099
100
AcDbArc
 50
44.2540723276
 51
44.9645668521
  0
ARC
  5
269
100
AcDbEntity
  8
CURVE
100
AcDbCircle
 62
253
  6
CONTINUOUS
 10
-4.1499647047
 20
-4.5740246855
 40
3.9129630436
100
AcDbArc
 50
44.9601244293
 51
46.6581742049
  0
ARC
  5
26A
100
AcDbEntity
  8
CURVE
100
AcDbCircle
 62
253
  6
CONTINUOUS
 10
-3.4196538986
 20
-4.9102048717
 40
3.3873522015
100
AcDbArc
 50
1.3820293644
 51
6.0395727888
  0
ARC
  5
26B
100
AcDbEntity
  8
RACCORDO
100
AcDbCircle
 62
7
  6
CONTINUOUS
 10
-1.6405256862
 20
2.6939884356
 40
1.1007054639
100
AcDbArc
 50
237.1726665364
 51
240.9484598453
  0
ARC
  5
26C
100
AcDbEntity
  8
CURVE
100
AcDbCircle
 62
253
  6
CONTINUOUS
 10
-1.241534499
 20
-5.4632288576
 40
1.0751658001
100
AcDbArc
 50
293.141623366
 51
297.1430483264
  0
ARC
  5
26D
100
AcDbEntity
  8
CURVE
100
AcDbCircle
 62
253
  6
CONTINUOUS
 10
-1.236014508
 20
-5.4740396699
 40
1.0630272846
100
AcDbArc
 50
297.144124353
 51
301.1831057376
  0
ARC
  5
26E
100
AcDbEntity
  8
RACCORDO
100
AcDbCircle
 62
7
  6
CONTINUOUS
 10
-1.6739328777
 20
2.6344417976
 40
1.0324284262
100
AcDbArc
 50
240.9644641986
 51
243.4252663163
  0
ARC
  5
26F
100
AcDbEntity
  8
DRAFT
100
AcDbCircle
 62
7
  6
CONTINUOUS
 10
-1.5363554474
 20
2.3296594963
 40
0.7026651541
100
AcDbArc
 50
259.551408176
 51
262.8975864568
  0
ARC
  5
270
100
AcDbEntity
  8
ASSI
100
AcDbCircle
 62
7
  6
CONTINUOUS
 10
-1.5363554474
 20
2.3296594963
 40
0.7026651541
100
AcDbArc
 50
259.551408176
 51
262.8975864568
  0
ARC
  5
271
100
AcDbEntity
  8
DRAFT
100
AcDbCircle
 62
7
  6
CONTINUOUS
 10
-2.190088285
 20
3.5019289827
 40
0.6136749686
100
AcDbArc
 50
142.6964001419
 51
148.683328854
  0
ARC
  5
272
100
AcDbEntity
  8
RACCORDO
100
AcDbCircle
 62
253
  6
CONTINUOUS
 10
-10.0713940598
 20
-3.7852804801
 40
0.3701087874
100
AcDbArc
 50
241.2341444111
 51
243.3328122744
  0
ARC
  5
273
100
AcDbEntity
  8
ASSI
100
AcDbCircle
 62
253
  6
CONTINUOUS
 10
-10.0714048487
 20
-3.7853019481
 40
0.370084766
100
AcDbArc
 50
241.2820495873
 51
243.309370668
  0
ARC
  5
274
100
AcDbEntity
  8
ASSI
100
AcDbCircle
 62
7
  6
CONTINUOUS
 10
-10.5490665919
 20
10.486844146
 40
0.2499729098
100
AcDbArc
 50
118.3452333313
 51
180.0617871985
  0
ARC
  5
275
100
AcDbEntity
  8
RACCORDO
100
AcDbCircle
 62
7
  6
CONTINUOUS
 10
-10.5493038342
 20
10.4874406883
 40
0.2493361602
100
AcDbArc
 50
118.3623369933
 51
180.0790761875
  0
SPLINE
  5
276
100
AcDbEntity
  8
RACCORDO
100
AcDbSpline
 62
7
  6
CONTINUOUS
 70
0
 71
3
 72
10
 73
6
 74
4
 42
0.0000001
 43
0.0000001
 44
0.0000000001
 12
0.5309507646
 22
-0.2654753776
 32
0.0
 13
0.5366819963
 23
0.2536896016
 33
0.0
 40
0.0
 40
0.0
 40
0.0
 40
0.0
 40
0.3683960887
 40
0.69741576
 40
1.0
 40
1.0
 40
1.0
 40
1.0
 10
-2.1358049519
 20
1.7110877798
 30
0.0
 10
-2.0706048903
 20
1.6784877495
 30
0.0
 10
-1.9395196373
 20
1.629908123
 30
0.0
 10
-1.7391719677
 20
1.615705712
 30
0.0
 10
-1.615714047
 20
1.6490898523
 30
0.0
 10
-1.5615835423
 20
1.674677344
 30
0.0
 11
-2.1358049519
 21
1.7110877798
 31
0.0
 11
-1.9297076052
 21
1.6379565707
 31
0.0
 11
-1.7347121605
 21
1.6268237846
 31
0.0
 11
-1.5615835423
 21
1.674677344
 31
0.0
  0
SPLINE
  5
277
100
AcDbEntity
  8
RACCORDO
100
AcDbSpline
 62
7
  6
CONTINUOUS
 70
0
 71
3
 72
14
 73
10
 74
8
 42
0.0000001
 43
0.0000001
 44
0.0000000001
 12
-2.1334127319
 22
-1.1262489471
 32
0.0
 13
2.0328953942
 23
-1.3102034695
 33
0.0
 40
0.0
 40
0.0
 40
0.0
 40
0.0
 40
0.1126354234
 40
0.2431064815
 40
0.3946442942
 40
0.5607875776
 40
0.7319683022
 40
0.897607205
 40
1.0
 40
1.0
 40
1.0
 40
1.0
 10
-2.6409264552
 20
3.8333632713
 30
0.0
 10
-2.7210257373
 20
3.7910780956
 30
0.0
 10
-2.8698088547
 20
3.6496386928
 30
0.0
 10
-2.9775992428
 20
3.3422284248
 30
0.0
 10
-2.9789029233
 20
2.9770332507
 30
0.0
 10
-2.8816501052
 20
2.5926102692
 30
0.0
 10
-2.6994256814
 20
2.2280278312
 30
0.0
 10
-2.4762522004
 20
1.9508588882
 30
0.0
 10
-2.3066128017
 20
1.8137752045
 30
0.0
 10
-2.2372281879
 20
1.7690567394
 30
0.0
 11
-2.6409264552
 21
3.8333632713
 31
0.0
 11
-2.8412087948
 21
3.6497267463
 31
0.0
 11
-2.9555338807
 21
3.3564693227
 31
0.0
 11
-2.9642698969
 21
2.9909972591
 31
0.0
 11
-2.8692839305
 21
2.6016036362
 31
0.0
 11
-2.684731726
 21
2.232172113
 31
0.0
 11
-2.4313421253
 21
1.9231907026
 31
0.0
 11
-2.2372281879
 21
1.7690567394
 31
0.0
  0
SPLINE
  5
278
100
AcDbEntity
  8
RACCORDO
100
AcDbSpline
 62
253
  6
CONTINUOUS
 70
0
 71
3
 72
20
 73
16
 74
14
 42
0.0000001
 43
0.0000001
 44
0.0000000001
 12
2.3096192904
 22
1.1011434821
 32
0.0
 13
-2.2752317028
 23
1.13761587
 33
0.0
 40
0.0
 40
0.0
 40
0.0
 40
0.0
 40
0.0913253166
 40
0.1944753298
 40
0.300071473
 40
0.4040895859
 40
0.5028558466
 40
0.5939847407
 40
0.6762969559
 40
0.7496288086
 40
0.81425267
 40
0.8708004493
 40
0.9200563031
 40
0.9628161743
 40
1.0
 40
1.0
 40
1.0
 40
1.0
 10
-1.5615913881
 20
1.6747075874
 30
0.0
 10
-1.4912824837
 20
1.7082283464
 30
0.0
 10
-1.3603293981
 20
1.8206470853
 30
0.0
 10
-1.2582292159
 20
2.0604766941
 30
0.0
 10
-1.2297622323
 20
2.3265274832
 30
0.0
 10
-1.2557935149
 20
2.5881184878
 30
0.0
 10
-1.3188459829
 20
2.8300477957
 30
0.0
 10
-1.4052736576
 20
3.0446536963
 30
0.0
 10
-1.5047464971
 20
3.2291871453
 30
0.0
 10
-1.6097941281
 20
3.3839829516
 30
0.0
 10
-1.7152404677
 20
3.5111135852
 30
0.0
 10
-1.8175799159
 20
3.6134306333
 30
0.0
 10
-1.9145711997
 20
3.6940907067
 30
0.0
 10
-2.0049304622
 20
3.7562847752
 30
0.0
 10
-2.0641170638
 20
3.7895535234
 30
0.0
 10
-2.0923176702
 20
3.8036538268
 30
0.0
 11
-1.5615913881
 21
1.6747075874
 31
0.0
 11
-1.3825777153
 21
1.8232972538
 31
0.0
 11
-1.2717652117
 21
2.0611416152
 31
0.0
 11
-1.2389507121
 21
2.3277437654
 31
0.0
 11
-1.2631792365
 21
2.5912320273
 31
0.0
 11
-1.3257743773
 21
2.8345497643
 31
0.0
 11
-1.4121710143
 21
3.0496604997
 31
0.0
 11
-1.5115796041
 21
3.2339425707
 31
0.0
 11
-1.6164894339
 21
3.3881868939
 31
0.0
 11
-1.7216300271
 21
3.5145565785
 31
0.0
 11
-1.8235414955
 21
3.6160729427
 31
0.0
 11
-1.9200386594
 21
3.6959946403
 31
0.0
 11
-2.0097673935
 21
3.7574771376
 31
0.0
 11
-2.0923176702
 21
3.8036538268
 31
0.0
  0
SPLINE
  5
279
100
AcDbEntity
  8
RACCORDO
100
AcDbSpline
 62
253
  6
CONTINUOUS
 70
0
 71
3
 72
8
 73
4
 74
2
 42
0.0000001
 43
0.0000001
 44
0.0000000001
 12
0.0835988337
 22
-0.0417994168
 32
0.0
 13
0.0882735387
 23
-0.032464483
 33
0.0
 40
0.0
 40
0.0
 40
0.0
 40
0.0
 40
1.0
 40
1.0
 40
1.0
 40
1.0
 10
-2.1613509341
 20
1.7557142535
 30
0.0
 10
-2.1334846562
 20
1.7417811146
 30
0.0
 10
-2.1047533488
 20
1.7291559104
 30
0.0
 10
-2.0753288359
 20
1.7183344161
 30
0.0
 11
-2.1613509341
 21
1.7557142535
 31
0.0
 11
-2.0753288359
 21
1.7183344161
 31
0.0
  0
SPLINE
  5
27A
100
AcDbEntity
  8
RACCORDO
100
AcDbSpline
 62
253
  6
CONTINUOUS
 70
0
 71
3
 72
10
 73
6
 74
4
 42
0.0000001
 43
0.0000001
 44
0.0000000001
 12
0.4497329471
 22
-0.165398916
 32
0.0
 13
0.3975809252
 23
0.2706053485
 33
0.0
 40
0.0
 40
0.0
 40
0.0
 40
0.0
 40
0.3604798126
 40
0.8430695357
 40
1.0
 40
1.0
 40
1.0
 40
1.0
 10
-2.0753288359
 20
1.7183344161
 30
0.0
 10
-2.0212889531
 20
1.6984600927
 30
0.0
 10
-1.8894352409
 20
1.6662076713
 30
0.0
 10
-1.7247740418
 20
1.6873478984
 30
0.0
 10
-1.6352765175
 20
1.7375725613
 30
0.0
 10
-1.6144789978
 20
1.751727969
 30
0.0
 11
-2.0753288359
 21
1.7183344161
 31
0.0
 11
-1.9072591248
 21
1.6800340719
 31
0.0
 11
-1.6801515217
 21
1.7151337222
 31
0.0
 11
-1.6144789978
 21
1.751727969
 31
0.0
  0
SPLINE
  5
27B
100
AcDbEntity
  8
RACCORDO
100
AcDbSpline
 62
253
  6
CONTINUOUS
 70
0
 71
3
 72
20
 73
16
 74
14
 42
0.0000001
 43
0.0000001
 44
0.0000000001
 12
1.9147547356
 22
1.3032387614
 32
0.0
 13
-2.0512188492
 23
1.0256094246
 33
0.0
 40
0.0
 40
0.0
 40
0.0
 40
0.0
 40
0.0662565476
 40
0.172252553
 40
0.2807617212
 40
0.3876493116
 40
0.4891401078
 40
0.5827829581
 40
0.667365994
 40
0.7427209878
 40
0.8091277958
 40
0.8672357412
 40
0.9178505631
 40
0.9617902467
 40
1.0
 40
1.0
 40
1.0
 40
1.0
 10
-1.6144789978
 20
1.751727969
 30
0.0
 10
-1.5721906517
 20
1.7805106693
 30
0.0
 10
-1.4747625403
 20
1.8750190259
 30
0.0
 10
-1.3886415999
 20
2.0773248735
 30
0.0
 10
-1.3622683388
 20
2.323797324
 30
0.0
 10
-1.3863847602
 20
2.5661387736
 30
0.0
 10
-1.4447964914
 20
2.7902653683
 30
0.0
 10
-1.5248639501
 20
2.9890793187
 30
0.0
 10
-1.6170164886
 20
3.1600340355
 30
0.0
 10
-1.7143339015
 20
3.3034394551
 30
0.0
 10
-1.8120208255
 20
3.421215493
 30
0.0
 10
-1.9068294617
 20
3.5160039985
 30
0.0
 10
-1.9966838914
 20
3.5907287574
 30
0.0
 10
-2.0803939173
 20
3.6483468814
 30
0.0
 10
-2.135225412
 20
3.6791676643
 30
0.0
 10
-2.1613509341
 20
3.6922304254
 30
0.0
 11
-1.6144789978
 21
1.751727969
 31
0.0
 11
-1.5038371103
 21
1.857596434
 31
0.0
 11
-1.4011806232
 21
2.0779405105
 31
0.0
 11
-1.3707809597
 21
2.3249242824
 31
0.0
 11
-1.3932267233
 21
2.5690232444
 31
0.0
 11
-1.4512150967
 21
2.794435983
 31
0.0
 11
-1.5312536676
 21
2.9937176576
 31
0.0
 11
-1.6233467639
 21
3.1644394907
 31
0.0
 11
-1.7205365074
 21
3.3073340288
 31
0.0
 11
-1.8179401709
 21
3.4244051559
 31
0.0
 11
-1.9123524285
 21
3.5184518215
 31
0.0
 11
-2.0017489172
 21
3.5924926707
 31
0.0
 11
-2.0848750009
 21
3.6494514666
 31
0.0
 11
-2.1613509341
 21
3.6922304254
 31
0.0
  0
SPLINE
  5
27C
100
AcDbEntity
  8
RACCORDO
100
AcDbSpline
 62
253
  6
CONTINUOUS
 70
0
 71
3
 72
22
 73
18
 74
16
 42
0.0000001
 43
0.0000001
 44
0.0000000001
 12
-2.5607350466
 22
1.2803675233
 32
0.0
 13
2.5607350466
 23
-1.2803675233
 33
0.0
 40
0.0
 40
0.0
 40
0.0
 40
0.0
 40
0.0926031929
 40
0.1728708975
 40
0.252045775
 40
0.3369516027
 40
0.4238704212
 40
0.5094903106
 40
0.590787205
 40
0.6657976871
 40
0.733551015
 40
0.7939124321
 40
0.8471061098
 40
0.8936521728
 40
0.9341960337
 40
0.9693929376
 40
1.0
 40
1.0
 40
1.0
 40
1.0
 10
-2.1613509341
 20
3.6922304254
 30
0.0
 10
-2.2403950145
 20
3.7317524656
 30
0.0
 10
-2.4009465298
 20
3.7858876432
 30
0.0
 10
-2.6504698298
 20
3.7538509549
 30
0.0
 10
-2.8379444257
 20
3.5964050458
 30
0.0
 10
-2.9340610173
 20
3.3706195938
 30
0.0
 10
-2.9604341933
 20
3.1241470061
 30
0.0
 10
-2.9363179028
 20
2.8818055421
 30
0.0
 10
-2.8779059615
 20
2.6576790025
 30
0.0
 10
-2.7978384204
 20
2.4588651022
 30
0.0
 10
-2.7056857387
 20
2.2879104571
 30
0.0
 10
-2.6083682364
 20
2.1445050853
 30
0.0
 10
-2.5106812365
 20
2.026729082
 30
0.0
 10
-2.4158725185
 20
1.931940637
 30
0.0
 10
-2.3260180822
 20
1.8572158431
 30
0.0
 10
-2.2423079702
 20
1.7995978042
 30
0.0
 10
-2.1874764599
 20
1.7687770164
 30
0.0
 10
-2.1613509341
 20
1.7557142535
 30
0.0
 11
-2.1613509341
 21
3.6922304254
 31
0.0
 11
-2.4154415583
 21
3.7679111995
 31
0.0
 11
-2.642550669
 21
3.7328107954
 31
0.0
 11
-2.8188650214
 21
3.5903481131
 31
0.0
 11
-2.9215219226
 21
3.3700038296
 31
0.0
 11
-2.9519216108
 21
3.1230200453
 31
0.0
 11
-2.9294758783
 21
2.8789210677
 31
0.0
 11
-2.871487374
 21
2.6535083946
 31
0.0
 11
-2.79144869
 21
2.4542267765
 31
0.0
 11
-2.6993554686
 21
2.283505006
 31
0.0
 11
-2.6021656301
 21
2.1406105154
 31
0.0
 11
-2.5047618864
 21
2.0235394284
 31
0.0
 11
-2.4103495598
 21
1.9294927973
 31
0.0
 11
-2.3209530492
 21
1.855451959
 31
0.0
 11
-2.2378268872
 21
1.7984932023
 31
0.0
 11
-2.1613509341
 21
1.7557142535
 31
0.0
  0
SPLINE
  5
27D
100
AcDbEntity
  8
RACCORDO
100
AcDbSpline
 62
253
  6
CONTINUOUS
 70
0
 71
3
 72
10
 73
6
 74
4
 42
0.0000001
 43
0.0000001
 44
0.0000000001
 12
-0.5066545929
 22
0.2533273006
 32
0.0
 13
-0.5030012107
 23
-0.268775241
 33
0.0
 40
0.0
 40
0.0
 40
0.0
 40
0.0
 40
0.5052042006
 40
0.9431177079
 40
1.0
 40
1.0
 40
1.0
 40
1.0
 10
-2.0923176702
 20
3.8036538268
 30
0.0
 10
-2.177639013
 20
3.846314499
 30
0.0
 10
-2.3509439308
 20
3.9047350635
 30
0.0
 10
-2.5468205012
 20
3.8796018976
 30
0.0
 10
-2.6313345512
 20
3.8383570859
 30
0.0
 10
-2.6408718384
 20
3.8332609019
 30
0.0
 11
-2.0923176702
 21
3.8036538268
 31
0.0
 11
-2.3665888319
 21
3.8853380376
 31
0.0
 11
-2.6117389437
 21
3.8474594455
 31
0.0
 11
-2.6408718384
 21
3.8332609019
 31
0.0
  0
SPLINE
  5
27E
100
AcDbEntity
  8
DRAFT
100
AcDbSpline
 62
7
  6
CONTINUOUS
 70
0
 71
3
 72
18
 73
14
 74
12
 42
0.0000001
 43
0.0000001
 44
0.0000000001
 12
2.4354104948
 22
1.2891825476
 32
0.0
 13
-2.4531275979
 23
1.226563799
 33
0.0
 40
0.0
 40
0.0
 40
0.0
 40
0.0
 40
0.0586239422
 40
0.1287369961
 40
0.2076364478
 40
0.2955840785
 40
0.3921028696
 40
0.4955278479
 40
0.6017212965
 40
0.7091477205
 40
0.8125165559
 40
0.9106444314
 40
1.0
 40
1.0
 40
1.0
 40
1.0
 10
-1.3017953289
 20
1.6855087527
 30
0.0
 10
-1.2542042075
 20
1.7107010738
 30
0.0
 10
-1.1589323157
 20
1.7837737671
 30
0.0
 10
-1.0527040692
 20
1.9449194282
 30
0.0
 10
-0.9880573807
 20
2.1540482336
 30
0.0
 10
-0.9692562324
 20
2.3956600973
 30
0.0
 10
-0.996196896
 20
2.6586732656
 30
0.0
 10
-1.0673164598
 20
2.9303935615
 30
0.0
 10
-1.1792796233
 20
3.1987065684
 30
0.0
 10
-1.3261979481
 20
3.4495389552
 30
0.0
 10
-1.5017666032
 20
3.6720189533
 30
0.0
 10
-1.6966888049
 20
3.8544187309
 30
0.0
 10
-1.8414777741
 20
3.9485909061
 30
0.0
 10
-1.9145446445
 20
3.9851243413
 30
0.0
 11
-1.3017953289
 21
1.6855087527
 31
0.0
 11
-1.1735333786
 21
1.7828180757
 31
0.0
 11
-1.0650768084
 21
1.9416121795
 31
0.0
 11
-0.9980412542
 21
2.1473631015
 31
0.0
 11
-0.9767852819
 21
2.3876369333
 31
0.0
 11
-1.002014556
 21
2.6511521085
 31
0.0
 11
-1.0728393802
 21
2.9258296659
 31
0.0
 11
-1.1846688225
 21
3.1947598568
 31
0.0
 11
-1.3338184438
 21
3.4488561862
 31
0.0
 11
-1.510146212
 21
3.6708586649
 31
0.0
 11
-1.7078116162
 21
3.8535090308
 31
0.0
 11
-1.9145446445
 21
3.9851243413
 31
0.0
  0
SPLINE
  5
27F
100
AcDbEntity
  8
DRAFT
100
AcDbSpline
 62
7
  6
CONTINUOUS
 70
0
 71
3
 72
10
 73
6
 74
4
 42
0.0000001
 43
0.0000001
 44
0.0000000001
 12
-0.5326592145
 22
0.2663296072
 32
0.0
 13
-0.5408030121
 23
-0.2556892649
 33
0.0
 40
0.0
 40
0.0
 40
0.0
 40
0.0
 40
0.3685097703
 40
0.699068691
 40
1.0
 40
1.0
 40
1.0
 40
1.0
 10
-1.9145446445
 20
3.9851243413
 30
0.0
 10
-1.9799746861
 20
4.0178393621
 30
0.0
 10
-2.1111548501
 20
4.0676451363
 30
0.0
 10
-2.311945508
 20
4.0857079513
 30
0.0
 10
-2.4360749859
 20
4.053774116
 30
0.0
 10
-2.490323172
 20
4.0281258143
 30
0.0
 11
-1.9145446445
 21
3.9851243413
 31
0.0
 11
-2.1208290175
 21
4.0600177578
 31
0.0
 11
-2.3171634383
 21
4.074367479
 31
0.0
 11
-2.490323172
 21
4.0281258143
 31
0.0
  0
SPLINE
  5
280
100
AcDbEntity
  8
DRAFT
100
AcDbSpline
 62
7
  6
CONTINUOUS
 70
0
 71
3
 72
9
 73
5
 74
3
 42
0.0000001
 43
0.0000001
 44
0.0000000001
 12
-0.2217832588
 22
-0.1048581408
 32
0.0
 13
-0.1487435052
 23
-0.1948431773
 33
0.0
 40
0.0
 40
0.0
 40
0.0
 40
0.0
 40
0.7453588767
 40
1.0
 40
1.0
 40
1.0
 40
1.0
 10
-2.490323172
 20
4.0281258143
 30
0.0
 10
-2.5454258789
 20
4.002073499
 30
0.0
 10
-2.6125496819
 20
3.9526467207
 30
0.0
 10
-2.665601678
 20
3.8903779272
 30
0.0
 10
-2.6782270824
 20
3.8738395654
 30
0.0
 11
-2.490323172
 21
4.0281258143
 31
0.0
 11
-2.6376707927
 21
3.921257615
 31
0.0
 11
-2.6782270824
 21
3.8738395654
 31
0.0
  0
SPLINE
  5
281
100
AcDbEntity
  8
DRAFT
100
AcDbSpline
 62
7
  6
CONTINUOUS
 70
0
 71
3
 72
9
 73
5
 74
3
 42
0.0000001
 43
0.0000001
 44
0.0000000001
 12
-0.0393157115
 22
-0.0644858863
 32
0.0
 13
-0.0319772713
 23
-0.0683203875
 33
0.0
 40
0.0
 40
0.0
 40
0.0
 40
0.0
 40
0.8810900114
 40
1.0
 40
1.0
 40
1.0
 40
1.0
 10
-2.7143554938
 20
3.820897415
 30
0.0
 10
-2.7259023874
 20
3.8019581249
 30
0.0
 10
-2.7379073817
 20
3.7797834196
 30
0.0
 10
-2.7487082013
 20
3.7570719211
 30
0.0
 10
-2.7499756736
 20
3.7543639289
 30
0.0
 11
-2.7143554938
 21
3.820897415
 31
0.0
 11
-2.7461225241
 21
3.7624655791
 31
0.0
 11
-2.7499756736
 21
3.7543639289
 31
0.0
  0
SPLINE
  5
282
100
AcDbEntity
  8
DRAFT
100
AcDbSpline
 62
7
  6
CONTINUOUS
 70
0
 71
3
 72
10
 73
6
 74
4
 42
0.0000001
 43
0.0000001
 44
0.0000000001
 12
0.3283788021
 22
-0.0408010067
 32
0.0
 13
0.2925471435
 23
0.1548595904
 33
0.0
 40
0.0
 40
0.0
 40
0.0
 40
0.0
 40
0.3914917532
 40
0.9389715821
 40
1.0
 40
1.0
 40
1.0
 40
1.0
 10
-1.6232352703
 20
1.6323860814
 30
0.0
 10
-1.5803827393
 20
1.6270616622
 30
0.0
 10
-1.4764773502
 20
1.6241150372
 30
0.0
 10
-1.3677415339
 20
1.6522076995
 30
0.0
 10
-1.3077465586
 20
1.6823584741
 30
0.0
 10
-1.3017953289
 20
1.6855087527
 30
0.0
 11
-1.6232352703
 21
1.6323860814
 31
0.0
 11
-1.4940526599
 21
1.6297022693
 31
0.0
 11
-1.3198426502
 21
1.676442045
 31
0.0
 11
-1.3017953289
 21
1.6855087527
 31
0.0
  0
SPLINE
  5
283
100
AcDbEntity
  8
ASSI
100
AcDbSpline
 62
7
  6
CONTINUOUS
 70
0
 71
3
 72
26
 73
22
 74
20
 42
0.0000001
 43
0.0000001
 44
0.0000000001
 12
-5.4924188562
 22
2.7462094281
 32
0.0
 13
5.4924188562
 23
-2.7462094281
 33
0.0
 40
0.0
 40
0.0
 40
0.0
 40
0.0
 40
0.05293166
 40
0.1097804637
 40
0.1699669753
 40
0.2325120521
 40
0.2966483843
 40
0.3610410885
 40
0.4249025715
 40
0.4868204967
 40
0.5461736132
 40
0.601803194
 40
0.6535433549
 40
0.7009654854
 40
0.7447108065
 40
0.785457976
 40
0.8248708045
 40
0.8645297783
 40
0.9062455542
 40
0.9511611582
 40
1.0
 40
1.0
 40
1.0
 40
1.0
 10
-2.2357526257
 20
0.6149203096
 30
0.0
 10
-2.3326602415
 20
0.6633741174
 30
0.0
 10
-2.5256061676
 20
0.7804194435
 30
0.0
 10
-2.7967747336
 20
0.9997243128
 30
0.0
 10
-3.0537104148
 20
1.2637233719
 30
0.0
 10
-3.2896675503
 20
1.5656556495
 30
0.0
 10
-3.4981078486
 20
1.8973803199
 30
0.0
 10
-3.6736151261
 20
2.2506445929
 30
0.0
 10
-3.8110436992
 20
2.6155787117
 30
0.0
 10
-3.9067081778
 20
2.9830278578
 30
0.0
 10
-3.9576498304
 20
3.342403897
 30
0.0
 10
-3.9623811876
 20
3.6846743717
 30
0.0
 10
-3.9205444402
 20
4.0000688312
 30
0.0
 10
-3.8326993165
 20
4.2808504531
 30
0.0
 10
-3.7005479085
 20
4.5188528938
 30
0.0
 10
-3.5264591393
 20
4.707062513
 30
0.0
 10
-3.3155023114
 20
4.8381514303
 30
0.0
 10
-3.0750506802
 20
4.907369504
 30
0.0
 10
-2.8141042971
 20
4.9134731699
 30
0.0
 10
-2.5404780201
 20
4.8581123695
 30
0.0
 10
-2.361789796
 20
4.7851448058
 30
0.0
 10
-2.2723753374
 20
4.7404375764
 30
0.0
 11
-2.2357526257
 21
0.6149203096
 31
0.0
 11
-2.5145834299
 21
0.78196252
 31
0.0
 11
-2.7869027137
 21
1.0003829463
 31
0.0
 11
-3.0453755711
 21
1.2645553339
 31
0.0
 11
-3.2823529113
 21
1.5668010233
 31
0.0
 11
-3.492110874
 21
1.9001381687
 31
0.0
 11
-3.6679702993
 21
2.2542964015
 31
0.0
 11
-3.8057714872
 21
2.6214425648
 31
0.0
 11
-3.9008013116
 21
2.989595581
 31
0.0
 11
-3.9507689058
 21
3.3506244759
 31
0.0
 11
-3.9538835907
 21
3.6922154527
 31
0.0
 11
-3.9100791721
 21
4.0069026687
 31
0.0
 11
-3.8208905508
 21
4.2841139408
 31
0.0
 11
-3.6884119395
 21
4.5178019445
 31
0.0
 11
-3.5172186138
 21
4.7002880738
 31
0.0
 11
-3.3114159656
 21
4.827647015
 31
0.0
 11
-3.0776850312
 21
4.8960487918
 31
0.0
 11
-2.8216482873
 21
4.904138804
 31
0.0
 11
-2.5508533687
 21
4.8517619761
 31
0.0
 11
-2.2723753374
 21
4.7404375764
 31
0.0
  0
SPLINE
  5
284
100
AcDbEntity
  8
RACCORDO
100
AcDbSpline
 62
253
  6
CONTINUOUS
 70
0
 71
3
 72
13
 73
9
 74
7
 42
0.0000001
 43
0.0000001
 44
0.0000000001
 12
0.0237005162
 22
-0.7022873817
 32
0.0
 13
0.6783415113
 23
0.1833632327
 33
0.0
 40
0.0
 40
0.0
 40
0.0
 40
0.0
 40
0.1946677134
 40
0.3699588267
 40
0.5285926496
 40
0.6790968263
 40
0.8330968665
 40
1.0
 40
1.0
 40
1.0
 40
1.0
 10
6.7643763165
 20
-12.0577580493
 30
0.0
 10
6.7659142249
 20
-12.1033289422
 30
0.0
 10
6.7766964904
 20
-12.1900573137
 30
0.0
 10
6.8207324395
 20
-12.307271399
 30
0.0
 10
6.8912905347
 20
-12.3987809996
 30
0.0
 10
6.985677575
 20
-12.4572274967
 30
0.0
 10
7.0964917893
 20
-12.4776167743
 30
0.0
 10
7.172100877
 20
-12.4667451437
 30
0.0
 10
7.209839985
 20
-12.4565438443
 30
0.0
 11
6.7643763165
 21
-12.0577580493
 31
0.0
 11
6.7828092629
 21
-12.1933009188
 31
0.0
 11
6.8278568826
 21
-12.3079427437
 31
0.0
 11
6.8972079518
 21
-12.3952123259
 31
0.0
 11
6.9872913955
 21
-12.450616221
 31
0.0
 11
7.0934987286
 21
-12.4713584673
 31
0.0
 11
7.209839985
 21
-12.4565438443
 31
0.0
  0
LINE
  5
285
100
AcDbEntity
  8
RACCORDO
100
AcDbLine
 62
253
  6
CONTINUOUS
 10
-10.4934638513
 20
-3.610982217
 11
-10.4964014292
 21
-3.5200137538
  0
SPLINE
  5
286
100
AcDbEntity
  8
RACCORDO
100
AcDbSpline
 62
253
  6
CONTINUOUS
 70
0
 71
3
 72
12
 73
8
 74
6
 42
0.0000001
 43
0.0000001
 44
0.0000000001
 12
-0.0053497267
 22
0.3664563861
 32
0.0
 13
-0.3254083925
 23
0.1686068818
 33
0.0
 40
0.0
 40
0.0
 40
0.0
 40
0.0
 40
0.1955839747
 40
0.4065111841
 40
0.6196376798
 40
0.8218553915
 40
1.0
 40
1.0
 40
1.0
 40
1.0
 10
6.523907971
 20
1.9472654142
 30
0.0
 10
6.5235591974
 20
1.9711564131
 30
0.0
 10
6.5163225157
 20
2.0207908706
 30
0.0
 10
6.4907356299
 20
2.0924520139
 30
0.0
 10
6.4521576294
 20
2.1590520391
 30
0.0
 10
6.4043969652
 20
2.2141723632
 30
0.0
 10
6.3664814499
 20
2.2421015402
 30
0.0
 10
6.3471581996
 20
2.2521136759
 30
0.0
 11
6.523907971
 21
1.9472654142
 31
0.0
 11
6.5143850938
 21
2.0183106676
 31
0.0
 11
6.4886959887
 21
2.0912212738
 31
0.0
 11
6.4494214532
 21
2.158739163
 31
0.0
 11
6.4003946591
 21
2.2143174179
 31
0.0
 11
6.3471581996
 21
2.2521136759
 31
0.0
  0
SPLINE
  5
287
100
AcDbEntity
  8
RACCORDO
100
AcDbSpline
 62
253
  6
CONTINUOUS
 70
0
 71
3
 72
12
 73
8
 74
6
 42
0.0000001
 43
0.0000001
 44
0.0000000001
 12
-0.0003856599
 22
0.3643136515
 32
0.0
 13
0.3230429735
 23
0.1684274998
 33
0.0
 40
0.0
 40
0.0
 40
0.0
 40
0.0
 40
0.1954109409
 40
0.4054784998
 40
0.6178639365
 40
0.8202454909
 40
1.0
 40
1.0
 40
1.0
 40
1.0
 10
-10.7258205404
 20
10.3981577486
 30
0.0
 10
-10.7258456611
 20
10.4218880398
 30
0.0
 10
-10.7193848048
 20
10.4712162072
 30
0.0
 10
-10.6947273008
 20
10.5425178895
 30
0.0
 10
-10.6568254998
 20
10.6087973809
 30
0.0
 10
-10.6093504615
 20
10.6637831847
 30
0.0
 10
-10.571485316
 20
10.6916654943
 30
0.0
 10
-10.5521291722
 20
10.7017573618
 30
0.0
 11
-10.7258205404
 21
10.3981577486
 31
0.0
 11
-10.7173606434
 21
10.4688442132
 31
0.0
 11
-10.6926521754
 21
10.5412763363
 31
0.0
 11
-10.6541311134
 21
10.6083808206
 31
0.0
 11
-10.6054820571
 21
10.6637833643
 31
0.0
 11
-10.5521291722
 21
10.7017573618
 31
0.0
  0
SPLINE
  5
288
100
AcDbEntity
  8
RACCORDO
100
AcDbSpline
 62
253
  6
CONTINUOUS
 70
0
 71
3
 72
12
 73
8
 74
6
 42
0.0000001
 43
0.0000001
 44
0.0000000001
 12
-0.0003856587
 22
0.3643125473
 32
0.0
 13
0.3230419943
 23
0.1684269893
 33
0.0
 40
0.0
 40
0.0
 40
0.0
 40
0.0
 40
0.1947631165
 40
0.4040949088
 40
0.6160496428
 40
0.8181238454
 40
1.0
 40
1.0
 40
1.0
 40
1.0
 10
6.1734668315
 20
1.9485140627
 30
0.0
 10
6.1734417941
 20
1.9721656117
 30
0.0
 10
6.1798597388
 20
2.0213252077
 30
0.0
 10
6.2043760961
 20
2.0924381684
 30
0.0
 10
6.2420950024
 20
2.1586135553
 30
0.0
 10
6.2895664155
 20
2.2138147736
 30
0.0
 10
6.3275736544
 20
2.2419027248
 30
0.0
 10
6.3471581996
 20
2.2521136759
 30
0.0
 11
6.1734668315
 21
1.9485140627
 31
0.0
 11
6.1818731606
 21
2.0189690215
 31
0.0
 11
6.2064261479
 21
2.0911706852
 31
0.0
 11
6.2447711687
 21
2.158194934
 31
0.0
 11
6.2932309457
 21
2.2136141605
 31
0.0
 11
6.3471581996
 21
2.2521136759
 31
0.0
  0
SPLINE
  5
289
100
AcDbEntity
  8
RACCORDO
100
AcDbSpline
 62
253
  6
CONTINUOUS
 70
0
 71
3
 72
10
 73
6
 74
4
 42
0.0000001
 43
0.0000001
 44
0.0000000001
 12
-0.106624233
 22
0.0533150671
 32
0.0
 13
0.0002963801
 23
0.1185053347
 33
0.0
 40
0.0
 40
0.0
 40
0.0
 40
0.0
 40
0.5625436167
 40
0.9915901696
 40
1.0
 40
1.0
 40
1.0
 40
1.0
 10
-10.7258205404
 20
10.3981577486
 30
0.0
 10
-10.7458141343
 20
10.4081550988
 30
0.0
 10
-10.7799053273
 20
10.4297895422
 30
0.0
 10
-10.7989290313
 20
10.4689221255
 30
0.0
 10
-10.7990417366
 20
10.4862007085
 30
0.0
 10
-10.7990409057
 20
10.4865329118
 30
0.0
 11
-10.7258205404
 21
10.3981577486
 31
0.0
 11
-10.7795940995
 21
10.4382279572
 31
0.0
 11
-10.7990343692
 21
10.4855364273
 31
0.0
 11
-10.7990409057
 21
10.4865329118
 31
0.0
  0
SPLINE
  5
28A
100
AcDbEntity
  8
RACCORDO
100
AcDbSpline
 62
253
  6
CONTINUOUS
 70
0
 71
3
 72
10
 73
6
 74
4
 42
0.0000001
 43
0.0000001
 44
0.0000000001
 12
-0.0264958835
 22
-0.1937282823
 32
0.0
 13
-0.191317782
 23
-0.0524592148
 33
0.0
 40
0.0
 40
0.0
 40
0.0
 40
0.0
 40
0.430683799
 40
0.8010691498
 40
1.0
 40
1.0
 40
1.0
 40
1.0
 10
7.209839985
 20
-12.4565438443
 30
0.0
 10
7.2060362024
 20
-12.4843557219
 30
0.0
 10
7.1915200669
 20
-12.5356860817
 30
0.0
 10
7.1488544006
 20
-12.5884486292
 30
0.0
 10
7.1141135861
 20
-12.6042934364
 30
0.0
 10
7.1014272498
 20
-12.6077720218
 30
0.0
 11
7.209839985
 21
-12.4565438443
 31
0.0
 11
7.1847440432
 21
-12.5369298963
 31
0.0
 11
7.1371159447
 21
-12.5914874449
 31
0.0
 11
7.1014272498
 21
-12.6077720218
 31
0.0
  0
SPLINE
  5
28B
100
AcDbEntity
  8
RACCORDO
100
AcDbSpline
 62
253
  6
CONTINUOUS
 70
0
 71
3
 72
11
 73
7
 74
5
 42
0.0000001
 43
0.0000001
 44
0.0000000001
 12
-0.3186082903
 22
-0.1690650599
 32
0.0
 13
-0.3227128788
 23
0.1610920079
 33
0.0
 40
0.0
 40
0.0
 40
0.0
 40
0.0
 40
0.2388435752
 40
0.503579771
 40
0.7663858709
 40
1.0
 40
1.0
 40
1.0
 40
1.0
 10
6.7643763164
 20
-12.0577580492
 30
0.0
 10
6.7390104687
 20
-12.0712180837
 30
0.0
 10
6.6809688231
 20
-12.0910442818
 30
0.0
 10
6.5889245701
 20
-12.1018899464
 30
0.0
 10
6.4971486962
 20
-12.0948467375
 30
0.0
 10
6.4392106907
 20
-12.077292277
 30
0.0
 10
6.4140805947
 20
-12.0647478206
 30
0.0
 11
6.7643763164
 21
-12.0577580492
 31
0.0
 11
6.6834044657
 21
-12.0871680511
 31
0.0
 11
6.5886299826
 21
-12.0988078501
 31
0.0
 11
6.494166307
 21
-12.0909440932
 31
0.0
 11
6.4140805947
 21
-12.0647478206
 31
0.0
  0
SPLINE
  5
28C
100
AcDbEntity
  8
RACCORDO
100
AcDbSpline
 62
253
  6
CONTINUOUS
 70
0
 71
3
 72
11
 73
7
 74
5
 42
0.0000001
 43
0.0000001
 44
0.0000000001
 12
-0.32390209
 22
-0.1568996968
 32
0.0
 13
-0.3219104798
 23
0.1609463318
 33
0.0
 40
0.0
 40
0.0
 40
0.0
 40
0.0
 40
0.2366865908
 40
0.5013293953
 40
0.7652575898
 40
1.0
 40
1.0
 40
1.0
 40
1.0
 10
6.523907971
 20
1.9472654142
 30
0.0
 10
6.4983535438
 20
1.9348867294
 30
0.0
 10
6.4400624867
 20
1.9172635845
 30
0.0
 10
6.3481372853
 20
1.9090389484
 30
0.0
 10
6.2565055851
 20
1.9178702993
 30
0.0
 10
6.1986555121
 20
1.9359204194
 30
0.0
 10
6.1734668315
 20
1.9485140627
 30
0.0
 11
6.523907971
 21
1.9472654142
 31
0.0
 11
6.4428827969
 21
1.9209734683
 31
0.0
 11
6.3480618523
 21
1.9119883166
 31
0.0
 11
6.2535657768
 21
1.921648019
 31
0.0
 11
6.1734668315
 21
1.9485140627
 31
0.0
  0
SPLINE
  5
28D
100
AcDbEntity
  8
RACCORDO
100
AcDbSpline
 62
253
  6
CONTINUOUS
 70
0
 71
3
 72
11
 73
7
 74
5
 42
0.0000001
 43
0.0000001
 44
0.0000000001
 12
0.0200459472
 22
-0.5985134096
 32
0.0
 13
0.5380190625
 23
-0.2700631156
 33
0.0
 40
0.0
 40
0.0
 40
0.0
 40
0.0
 40
0.3052473617
 40
0.5786387071
 40
0.8256884635
 40
1.0
 40
1.0
 40
1.0
 40
1.0
 10
6.4140742841
 20
-12.0647512847
 30
0.0
 10
6.4161139416
 20
-12.1256494978
 30
0.0
 10
6.4304602009
 20
-12.2412569404
 30
0.0
 10
6.4889533506
 20
-12.3973278065
 30
0.0
 10
6.5750325536
 20
-12.5092899858
 30
0.0
 10
6.6455675131
 20
-12.5574968478
 30
0.0
 10
6.6768284896
 20
-12.5731885534
 30
0.0
 11
6.4140742841
 21
-12.0647512847
 31
0.0
 11
6.4386650307
 21
-12.2458867815
 31
0.0
 11
6.4984392379
 21
-12.3983050468
 31
0.0
 11
6.5903454827
 21
-12.5142408654
 31
0.0
 11
6.6768284896
 21
-12.5731885534
 31
0.0
  0
SPLINE
  5
28E
100
AcDbEntity
  8
ASSI
100
AcDbSpline
 62
7
  6
CONTINUOUS
 70
0
 71
3
 72
26
 73
22
 74
20
 42
0.0000001
 43
0.0000001
 44
0.0000000001
 12
5.483496821
 22
-2.7417484105
 32
0.0
 13
-5.483496821
 23
2.7417484105
 33
0.0
 40
0.0
 40
0.0
 40
0.0
 40
0.0
 40
0.0529930204
 40
0.1098790089
 40
0.1701015286
 40
0.2326992153
 40
0.2969155191
 40
0.3614173052
 40
0.4254109429
 40
0.4874688636
 40
0.5469497834
 40
0.6026699529
 40
0.6544403029
 40
0.7018143712
 40
0.7454287372
 40
0.7859796708
 40
0.8251709347
 40
0.8646370244
 40
0.9062305836
 40
0.9511124952
 40
1.0
 40
1.0
 40
1.0
 40
1.0
 10
-2.2723753374
 20
4.7404375764
 30
0.0
 10
-2.1755129843
 20
4.6920063999
 30
0.0
 10
-1.9827796401
 20
4.5748892464
 30
0.0
 10
-1.7123140277
 20
4.3551496294
 30
0.0
 10
-1.4565083451
 20
4.0905097646
 30
0.0
 10
-1.2219849741
 20
3.7878039017
 30
0.0
 10
-1.0151227038
 20
3.4552581804
 30
0.0
 10
-0.8411667219
 20
3.1012139153
 30
0.0
 10
-0.7050898436
 20
2.7356278717
 30
0.0
 10
-0.6104282049
 20
2.3677266841
 30
0.0
 10
-0.5600230529
 20
2.0081501341
 30
0.0
 10
-0.5552950254
 20
1.6659503411
 30
0.0
 10
-0.5965915485
 20
1.3508802505
 30
0.0
 10
-0.6834082061
 20
1.0706181828
 30
0.0
 10
-0.8141804812
 20
0.8332412815
 30
0.0
 10
-0.9867526105
 20
0.6457001933
 30
0.0
 10
-1.1962554302
 20
0.5153361519
 30
0.0
 10
-1.4353884598
 20
0.4468885441
 30
0.0
 10
-1.6952098703
 20
0.4414578112
 30
0.0
 10
-1.9680435466
 20
0.4972460821
 30
0.0
 10
-2.1463944666
 20
0.57024123
 30
0.0
 10
-2.2357526257
 20
0.6149203096
 30
0.0
 11
-2.2723753374
 21
4.7404375764
 31
0.0
 11
-1.9938002396
 21
4.5732641229
 31
0.0
 11
-1.7222216418
 21
4.3544635345
 31
0.0
 11
-1.4648966948
 21
4.089701974
 31
0.0
 11
-1.2293486973
 21
3.7867226647
 31
0.0
 11
-1.0211527434
 21
3.4525838076
 31
0.0
 11
-0.8468133145
 21
3.0976454263
 31
0.0
 11
-0.7103318067
 21
2.7298219281
 31
0.0
 11
-0.616270087
 21
2.3611720256
 31
0.0
 11
-0.566817055
 21
1.9998790281
 31
0.0
 11
-0.5637032888
 21
1.6582875798
 31
0.0
 11
-0.6069949079
 21
1.3438635616
 31
0.0
 11
-0.6952164266
 21
1.0671486616
 31
0.0
 11
-0.8263749368
 21
0.8341382088
 31
0.0
 11
-0.996047066
 21
0.652432844
 31
0.0
 11
-1.2002864413
 21
0.5258762633
 31
0.0
 11
-1.4325876196
 21
0.4582083185
 31
0.0
 11
-1.6874764008
 21
0.4507075061
 31
0.0
 11
-1.9575305623
 21
0.5034645327
 31
0.0
 11
-2.2357526257
 21
0.6149203096
 31
0.0
  0
SPLINE
  5
28F
100
AcDbEntity
  8
RACCORDO
100
AcDbSpline
 62
253
  6
CONTINUOUS
 70
0
 71
3
 72
11
 73
7
 74
5
 42
0.0000001
 43
0.0000001
 44
0.0000000001
 12
-0.5103196966
 22
0.2801319041
 32
0.0
 13
-0.0188799511
 23
0.5784902802
 33
0.0
 40
0.0
 40
0.0
 40
0.0
 40
0.0
 40
0.152757765
 40
0.4042158684
 40
0.6848683057
 40
1.0
 40
1.0
 40
1.0
 40
1.0
 10
-10.2495020182
 20
-4.1097154808
 30
0.0
 10
-10.275487117
 20
-4.0954513729
 30
0.0
 10
-10.339813443
 20
-4.0494504064
 30
0.0
 10
-10.4208269464
 20
-3.9419840697
 30
0.0
 10
-10.4775963184
 20
-3.7867988889
 30
0.0
 10
-10.4914806277
 20
-3.671749091
 30
0.0
 10
-10.4934638513
 20
-3.610982217
 30
0.0
 11
-10.2495020182
 21
-4.1097154808
 31
0.0
 11
-10.3217483095
 21
-4.0581939693
 31
0.0
 11
-10.4112791992
 21
-3.9434458283
 31
0.0
 11
-10.4695085872
 21
-3.7917999726
 31
0.0
 11
-10.4934638513
 21
-3.610982217
 31
0.0
  0
SPLINE
  5
290
100
AcDbEntity
  8
RACCORDO
100
AcDbSpline
 62
253
  6
CONTINUOUS
 70
0
 71
3
 72
10
 73
6
 74
4
 42
0.0000001
 43
0.0000001
 44
0.0000000001
 12
0.1056673508
 22
0.0577633496
 32
0.0
 13
0.1075013196
 23
-0.0518675463
 33
0.0
 40
0.0
 40
0.0
 40
0.0
 40
0.0
 40
0.0964758944
 40
0.516119714
 40
1.0
 40
1.0
 40
1.0
 40
1.0
 10
-10.6677223933
 20
10.7067963855
 30
0.0
 10
-10.6643242759
 20
10.7086539758
 30
0.0
 10
-10.6455706693
 20
10.7174706646
 30
0.0
 10
-10.6044111733
 20
10.721590749
 30
0.0
 10
-10.5694684287
 20
10.7101232562
 30
0.0
 10
-10.5521291722
 20
10.7017573618
 30
0.0
 11
-10.6677223933
 21
10.7067963855
 31
0.0
 11
-10.6572262342
 21
10.7117163382
 31
0.0
 11
-10.6075395799
 21
10.7180493456
 31
0.0
 11
-10.5521291722
 21
10.7017573618
 31
0.0
  0
SPLINE
  5
291
100
AcDbEntity
  8
RACCORDO
100
AcDbSpline
 62
253
  6
CONTINUOUS
 70
0
 71
3
 72
9
 73
5
 74
3
 42
0.0000001
 43
0.0000001
 44
0.0000000001
 12
0.0042467378
 22
-0.1188405274
 32
0.0
 13
0.1066391998
 23
-0.0534070673
 33
0.0
 40
0.0
 40
0.0
 40
0.0
 40
0.0
 40
0.4342551378
 40
1.0
 40
1.0
 40
1.0
 40
1.0
 10
-10.5666928919
 20
-3.5221662685
 30
0.0
 10
-10.5660781694
 20
-3.5393686383
 30
0.0
 10
-10.5479097512
 20
-3.578582369
 30
0.0
 10
-10.5135740443
 20
-3.6009106256
 30
0.0
 10
-10.4934638511
 20
-3.6109822169
 30
0.0
 11
-10.5666928919
 21
-3.5221662685
 31
0.0
 11
-10.5472499242
 21
-3.5702419455
 31
0.0
 11
-10.4934638511
 21
-3.6109822169
 31
0.0
  0
SPLINE
  5
292
100
AcDbEntity
  8
ASSI
100
AcDbSpline
 62
7
  6
CONTINUOUS
 70
0
 71
3
 72
18
 73
14
 74
12
 42
0.0000001
 43
0.0000001
 44
0.0000000001
 12
2.4354104948
 22
1.2891825476
 32
0.0
 13
-2.4531275979
 23
1.226563799
 33
0.0
 40
0.0
 40
0.0
 40
0.0
 40
0.0
 40
0.0586239422
 40
0.1287369961
 40
0.2076364478
 40
0.2955840785
 40
0.3921028696
 40
0.4955278479
 40
0.6017212965
 40
0.7091477205
 40
0.8125165559
 40
0.9106444314
 40
1.0
 40
1.0
 40
1.0
 40
1.0
 10
-1.3017953289
 20
1.6855087527
 30
0.0
 10
-1.2542042075
 20
1.7107010738
 30
0.0
 10
-1.1589323157
 20
1.7837737671
 30
0.0
 10
-1.0527040692
 20
1.9449194282
 30
0.0
 10
-0.9880573807
 20
2.1540482336
 30
0.0
 10
-0.9692562324
 20
2.3956600973
 30
0.0
 10
-0.996196896
 20
2.6586732656
 30
0.0
 10
-1.0673164598
 20
2.9303935615
 30
0.0
 10
-1.1792796233
 20
3.1987065684
 30
0.0
 10
-1.3261979481
 20
3.4495389552
 30
0.0
 10
-1.5017666032
 20
3.6720189533
 30
0.0
 10
-1.6966888049
 20
3.8544187309
 30
0.0
 10
-1.8414777741
 20
3.9485909061
 30
0.0
 10
-1.9145446445
 20
3.9851243413
 30
0.0
 11
-1.3017953289
 21
1.6855087527
 31
0.0
 11
-1.1735333786
 21
1.7828180757
 31
0.0
 11
-1.0650768084
 21
1.9416121795
 31
0.0
 11
-0.9980412542
 21
2.1473631015
 31
0.0
 11
-0.9767852819
 21
2.3876369333
 31
0.0
 11
-1.002014556
 21
2.6511521085
 31
0.0
 11
-1.0728393802
 21
2.9258296659
 31
0.0
 11
-1.1846688225
 21
3.1947598568
 31
0.0
 11
-1.3338184438
 21
3.4488561862
 31
0.0
 11
-1.510146212
 21
3.6708586649
 31
0.0
 11
-1.7078116162
 21
3.8535090308
 31
0.0
 11
-1.9145446445
 21
3.9851243413
 31
0.0
  0
SPLINE
  5
293
100
AcDbEntity
  8
ASSI
100
AcDbSpline
 62
7
  6
CONTINUOUS
 70
0
 71
3
 72
10
 73
6
 74
4
 42
0.0000001
 43
0.0000001
 44
0.0000000001
 12
-0.5326592145
 22
0.2663296072
 32
0.0
 13
-0.5408030121
 23
-0.2556892649
 33
0.0
 40
0.0
 40
0.0
 40
0.0
 40
0.0
 40
0.3685097703
 40
0.699068691
 40
1.0
 40
1.0
 40
1.0
 40
1.0
 10
-1.9145446445
 20
3.9851243413
 30
0.0
 10
-1.9799746861
 20
4.0178393621
 30
0.0
 10
-2.1111548501
 20
4.0676451363
 30
0.0
 10
-2.311945508
 20
4.0857079513
 30
0.0
 10
-2.4360749859
 20
4.053774116
 30
0.0
 10
-2.490323172
 20
4.0281258143
 30
0.0
 11
-1.9145446445
 21
3.9851243413
 31
0.0
 11
-2.1208290175
 21
4.0600177578
 31
0.0
 11
-2.3171634383
 21
4.074367479
 31
0.0
 11
-2.490323172
 21
4.0281258143
 31
0.0
  0
SPLINE
  5
294
100
AcDbEntity
  8
ASSI
100
AcDbSpline
 62
7
  6
CONTINUOUS
 70
0
 71
3
 72
26
 73
22
 74
20
 42
0.0000001
 43
0.0000001
 44
0.0000000001
 12
5.483496821
 22
-2.7417484105
 32
0.0
 13
-5.483496821
 23
2.7417484105
 33
0.0
 40
0.0
 40
0.0
 40
0.0
 40
0.0
 40
0.0529930204
 40
0.1098790089
 40
0.1701015286
 40
0.2326992153
 40
0.2969155191
 40
0.3614173052
 40
0.4254109429
 40
0.4874688636
 40
0.5469497834
 40
0.6026699529
 40
0.6544403029
 40
0.7018143712
 40
0.7454287372
 40
0.7859796708
 40
0.8251709347
 40
0.8646370244
 40
0.9062305836
 40
0.9511124952
 40
1.0
 40
1.0
 40
1.0
 40
1.0
 10
-2.2723753374
 20
4.7404375764
 30
0.0
 10
-2.1755129843
 20
4.6920063999
 30
0.0
 10
-1.9827796401
 20
4.5748892464
 30
0.0
 10
-1.7123140277
 20
4.3551496294
 30
0.0
 10
-1.4565083451
 20
4.0905097646
 30
0.0
 10
-1.2219849741
 20
3.7878039017
 30
0.0
 10
-1.0151227038
 20
3.4552581804
 30
0.0
 10
-0.8411667219
 20
3.1012139153
 30
0.0
 10
-0.7050898436
 20
2.7356278717
 30
0.0
 10
-0.6104282049
 20
2.3677266841
 30
0.0
 10
-0.5600230529
 20
2.0081501341
 30
0.0
 10
-0.5552950254
 20
1.6659503411
 30
0.0
 10
-0.5965915485
 20
1.3508802505
 30
0.0
 10
-0.6834082061
 20
1.0706181828
 30
0.0
 10
-0.8141804812
 20
0.8332412815
 30
0.0
 10
-0.9867526105
 20
0.6457001933
 30
0.0
 10
-1.1962554302
 20
0.5153361519
 30
0.0
 10
-1.4353884598
 20
0.4468885441
 30
0.0
 10
-1.6952098703
 20
0.4414578112
 30
0.0
 10
-1.9680435466
 20
0.4972460821
 30
0.0
 10
-2.1463944666
 20
0.57024123
 30
0.0
 10
-2.2357526257
 20
0.6149203096
 30
0.0
 11
-2.2723753374
 21
4.7404375764
 31
0.0
 11
-1.9938002396
 21
4.5732641229
 31
0.0
 11
-1.7222216418
 21
4.3544635345
 31
0.0
 11
-1.4648966948
 21
4.089701974
 31
0.0
 11
-1.2293486973
 21
3.7867226647
 31
0.0
 11
-1.0211527434
 21
3.4525838076
 31
0.0
 11
-0.8468133145
 21
3.0976454263
 31
0.0
 11
-0.7103318067
 21
2.7298219281
 31
0.0
 11
-0.616270087
 21
2.3611720256
 31
0.0
 11
-0.566817055
 21
1.9998790281
 31
0.0
 11
-0.5637032888
 21
1.6582875798
 31
0.0
 11
-0.6069949079
 21
1.3438635616
 31
0.0
 11
-0.6952164266
 21
1.0671486616
 31
0.0
 11
-0.8263749368
 21
0.8341382088
 31
0.0
 11
-0.996047066
 21
0.652432844
 31
0.0
 11
-1.2002864413
 21
0.5258762633
 31
0.0
 11
-1.4325876196
 21
0.4582083185
 31
0.0
 11
-1.6874764008
 21
0.4507075061
 31
0.0
 11
-1.9575305623
 21
0.5034645327
 31
0.0
 11
-2.2357526257
 21
0.6149203096
 31
0.0
  0
SPLINE
  5
295
100
AcDbEntity
  8
ASSI
100
AcDbSpline
 62
253
  6
CONTINUOUS
 70
0
 71
3
 72
9
 73
5
 74
3
 42
0.0000001
 43
0.0000001
 44
0.0000000001
 12
0.0042467392
 22
-0.1188405266
 32
0.0
 13
0.1066391991
 23
-0.053407067
 33
0.0
 40
0.0
 40
0.0
 40
0.0
 40
0.0
 40
0.4342551344
 40
1.0
 40
1.0
 40
1.0
 40
1.0
 10
-10.5666928919
 20
-3.5221662692
 30
0.0
 10
-10.5660781692
 20
-3.5393686388
 30
0.0
 10
-10.547909751
 20
-3.5785823692
 30
0.0
 10
-10.5135740443
 20
-3.6009106256
 30
0.0
 10
-10.4934638511
 20
-3.6109822169
 30
0.0
 11
-10.5666928919
 21
-3.5221662692
 31
0.0
 11
-10.5472499242
 21
-3.5702419455
 31
0.0
 11
-10.4934638511
 21
-3.6109822169
 31
0.0
  0
SPLINE
  5
296
100
AcDbEntity
  8
ASSI
100
AcDbSpline
 62
253
  6
CONTINUOUS
 70
0
 71
3
 72
11
 73
7
 74
5
 42
0.0000001
 43
0.0000001
 44
0.0000000001
 12
-0.5108213004
 22
0.2798532065
 32
0.0
 13
-0.0188900147
 23
0.5787986326
 33
0.0
 40
0.0
 40
0.0
 40
0.0
 40
0.0
 40
0.1532091295
 40
0.4045332697
 40
0.6850361907
 40
1.0
 40
1.0
 40
1.0
 40
1.0
 10
-10.2492299416
 20
-4.1098646853
 30
0.0
 10
-10.2753174372
 20
-4.0955726633
 30
0.0
 10
-10.3397503906
 20
-4.0495340469
 30
0.0
 10
-10.4208269464
 20
-3.9419840697
 30
0.0
 10
-10.4775963184
 20
-3.7867988889
 30
0.0
 10
-10.4914806277
 20
-3.671749091
 30
0.0
 10
-10.4934638513
 20
-3.610982217
 30
0.0
 11
-10.2492299416
 21
-4.1098646853
 31
0.0
 11
-10.3217483095
 21
-4.0581939693
 31
0.0
 11
-10.4112791992
 21
-3.9434458283
 31
0.0
 11
-10.4695085872
 21
-3.7917999726
 31
0.0
 11
-10.4934638513
 21
-3.610982217
 31
0.0
  0
SPLINE
  5
297
100
AcDbEntity
  8
ASSI
100
AcDbSpline
 62
7
  6
CONTINUOUS
 70
0
 71
3
 72
8
 73
4
 74
2
 42
0.0000001
 43
0.0000001
 44
0.0000000001
 12
-0.1653081207
 22
-0.0781569461
 32
0.0
 13
-0.1266407475
 23
-0.1319256529
 33
0.0
 40
0.0
 40
0.0
 40
0.0
 40
0.0
 40
1.0
 40
1.0
 40
1.0
 40
1.0
 10
-2.490323172
 20
4.0281258143
 30
0.0
 10
-2.5454258789
 20
4.002073499
 30
0.0
 10
-2.5954572102
 20
3.9652328326
 30
0.0
 10
-2.6376707927
 20
3.921257615
 30
0.0
 11
-2.490323172
 21
4.0281258143
 31
0.0
 11
-2.6376707927
 21
3.921257615
 31
0.0
  0
SPLINE
  5
298
100
AcDbEntity
  8
ASSI
100
AcDbSpline
 62
7
  6
CONTINUOUS
 70
0
 71
3
 72
8
 73
4
 74
2
 42
0.0000001
 43
0.0000001
 44
0.0000000001
 12
-0.0876916167
 22
-0.0913511174
 32
0.0
 13
-0.0659160991
 23
-0.1081160153
 33
0.0
 40
0.0
 40
0.0
 40
0.0
 40
0.0
 40
1.0
 40
1.0
 40
1.0
 40
1.0
 10
-2.6376707927
 20
3.921257615
 30
0.0
 10
-2.6669013316
 20
3.8908072426
 30
0.0
 10
-2.6923834608
 20
3.8569360868
 30
0.0
 10
-2.7143554938
 20
3.820897415
 30
0.0
 11
-2.6376707927
 21
3.921257615
 31
0.0
 11
-2.7143554938
 21
3.820897415
 31
0.0
  0
SPLINE
  5
299
100
AcDbEntity
  8
ASSI
100
AcDbSpline
 62
7
  6
CONTINUOUS
 70
0
 71
3
 72
9
 73
5
 74
3
 42
0.0000001
 43
0.0000001
 44
0.0000000001
 12
-0.0393157115
 22
-0.0644858863
 32
0.0
 13
-0.0319772713
 23
-0.0683203875
 33
0.0
 40
0.0
 40
0.0
 40
0.0
 40
0.0
 40
0.8810900114
 40
1.0
 40
1.0
 40
1.0
 40
1.0
 10
-2.7143554938
 20
3.820897415
 30
0.0
 10
-2.7259023874
 20
3.8019581249
 30
0.0
 10
-2.7379073817
 20
3.7797834196
 30
0.0
 10
-2.7487082013
 20
3.7570719211
 30
0.0
 10
-2.7499756736
 20
3.7543639289
 30
0.0
 11
-2.7143554938
 21
3.820897415
 31
0.0
 11
-2.7461225241
 21
3.7624655791
 31
0.0
 11
-2.7499756736
 21
3.7543639289
 31
0.0
  0
SPLINE
  5
29A
100
AcDbEntity
  8
ASSI
100
AcDbSpline
 62
7
  6
CONTINUOUS
 70
0
 71
3
 72
10
 73
6
 74
4
 42
0.0000001
 43
0.0000001
 44
0.0000000001
 12
0.3283788021
 22
-0.0408010067
 32
0.0
 13
0.2925471435
 23
0.1548595904
 33
0.0
 40
0.0
 40
0.0
 40
0.0
 40
0.0
 40
0.3914917532
 40
0.9389715821
 40
1.0
 40
1.0
 40
1.0
 40
1.0
 10
-1.6232352703
 20
1.6323860814
 30
0.0
 10
-1.5803827393
 20
1.6270616622
 30
0.0
 10
-1.4764773502
 20
1.6241150372
 30
0.0
 10
-1.3677415339
 20
1.6522076995
 30
0.0
 10
-1.3077465586
 20
1.6823584741
 30
0.0
 10
-1.3017953289
 20
1.6855087527
 30
0.0
 11
-1.6232352703
 21
1.6323860814
 31
0.0
 11
-1.4940526599
 21
1.6297022693
 31
0.0
 11
-1.3198426502
 21
1.676442045
 31
0.0
 11
-1.3017953289
 21
1.6855087527
 31
0.0
  0
SPLINE
  5
29B
100
AcDbEntity
  8
ASSI
100
AcDbSpline
 62
253
  6
CONTINUOUS
 70
0
 71
3
 72
13
 73
9
 74
7
 42
0.0000001
 43
0.0000001
 44
0.0000000001
 12
0.0237005162
 22
-0.7022873817
 32
0.0
 13
0.6783415113
 23
0.1833632327
 33
0.0
 40
0.0
 40
0.0
 40
0.0
 40
0.0
 40
0.1946677134
 40
0.3699588267
 40
0.5285926496
 40
0.6790968263
 40
0.8330968665
 40
1.0
 40
1.0
 40
1.0
 40
1.0
 10
6.7643763165
 20
-12.0577580493
 30
0.0
 10
6.7659142249
 20
-12.1033289422
 30
0.0
 10
6.7766964904
 20
-12.1900573137
 30
0.0
 10
6.8207324395
 20
-12.307271399
 30
0.0
 10
6.8912905347
 20
-12.3987809996
 30
0.0
 10
6.985677575
 20
-12.4572274967
 30
0.0
 10
7.0964917893
 20
-12.4776167743
 30
0.0
 10
7.172100877
 20
-12.4667451437
 30
0.0
 10
7.209839985
 20
-12.4565438443
 30
0.0
 11
6.7643763165
 21
-12.0577580493
 31
0.0
 11
6.7828092629
 21
-12.1933009188
 31
0.0
 11
6.8278568826
 21
-12.3079427437
 31
0.0
 11
6.8972079518
 21
-12.3952123259
 31
0.0
 11
6.9872913955
 21
-12.450616221
 31
0.0
 11
7.0934987286
 21
-12.4713584673
 31
0.0
 11
7.209839985
 21
-12.4565438443
 31
0.0
  0
SPLINE
  5
29C
100
AcDbEntity
  8
ASSI
100
AcDbSpline
 62
7
  6
CONTINUOUS
 70
0
 71
3
 72
26
 73
22
 74
20
 42
0.0000001
 43
0.0000001
 44
0.0000000001
 12
-5.4924188562
 22
2.7462094281
 32
0.0
 13
5.4924188562
 23
-2.7462094281
 33
0.0
 40
0.0
 40
0.0
 40
0.0
 40
0.0
 40
0.05293166
 40
0.1097804637
 40
0.1699669753
 40
0.2325120521
 40
0.2966483843
 40
0.3610410885
 40
0.4249025715
 40
0.4868204967
 40
0.5461736132
 40
0.601803194
 40
0.6535433549
 40
0.7009654854
 40
0.7447108065
 40
0.785457976
 40
0.8248708045
 40
0.8645297783
 40
0.9062455542
 40
0.9511611582
 40
1.0
 40
1.0
 40
1.0
 40
1.0
 10
-2.2357526257
 20
0.6149203096
 30
0.0
 10
-2.3326602415
 20
0.6633741174
 30
0.0
 10
-2.5256061676
 20
0.7804194435
 30
0.0
 10
-2.7967747336
 20
0.9997243128
 30
0.0
 10
-3.0537104148
 20
1.2637233719
 30
0.0
 10
-3.2896675503
 20
1.5656556495
 30
0.0
 10
-3.4981078486
 20
1.8973803199
 30
0.0
 10
-3.6736151261
 20
2.2506445929
 30
0.0
 10
-3.8110436992
 20
2.6155787117
 30
0.0
 10
-3.9067081778
 20
2.9830278578
 30
0.0
 10
-3.9576498304
 20
3.342403897
 30
0.0
 10
-3.9623811876
 20
3.6846743717
 30
0.0
 10
-3.9205444402
 20
4.0000688312
 30
0.0
 10
-3.8326993165
 20
4.2808504531
 30
0.0
 10
-3.7005479085
 20
4.5188528938
 30
0.0
 10
-3.5264591393
 20
4.707062513
 30
0.0
 10
-3.3155023114
 20
4.8381514303
 30
0.0
 10
-3.0750506802
 20
4.907369504
 30
0.0
 10
-2.8141042971
 20
4.9134731699
 30
0.0
 10
-2.5404780201
 20
4.8581123695
 30
0.0
 10
-2.361789796
 20
4.7851448058
 30
0.0
 10
-2.2723753374
 20
4.7404375764
 30
0.0
 11
-2.2357526257
 21
0.6149203096
 31
0.0
 11
-2.5145834299
 21
0.78196252
 31
0.0
 11
-2.7869027137
 21
1.0003829463
 31
0.0
 11
-3.0453755711
 21
1.2645553339
 31
0.0
 11
-3.2823529113
 21
1.5668010233
 31
0.0
 11
-3.492110874
 21
1.9001381687
 31
0.0
 11
-3.6679702993
 21
2.2542964015
 31
0.0
 11
-3.8057714872
 21
2.6214425648
 31
0.0
 11
-3.9008013116
 21
2.989595581
 31
0.0
 11
-3.9507689058
 21
3.3506244759
 31
0.0
 11
-3.9538835907
 21
3.6922154527
 31
0.0
 11
-3.9100791721
 21
4.0069026687
 31
0.0
 11
-3.8208905508
 21
4.2841139408
 31
0.0
 11
-3.6884119395
 21
4.5178019445
 31
0.0
 11
-3.5172186138
 21
4.7002880738
 31
0.0
 11
-3.3114159656
 21
4.827647015
 31
0.0
 11
-3.0776850312
 21
4.8960487918
 31
0.0
 11
-2.8216482873
 21
4.904138804
 31
0.0
 11
-2.5508533687
 21
4.8517619761
 31
0.0
 11
-2.2723753374
 21
4.7404375764
 31
0.0
  0
SPLINE
  5
29D
100
AcDbEntity
  8
ASSI
100
AcDbSpline
 62
253
  6
CONTINUOUS
 70
0
 71
3
 72
12
 73
8
 74
6
 42
0.0000001
 43
0.0000001
 44
0.0000000001
 12
-0.0053497267
 22
0.3664563861
 32
0.0
 13
-0.3254083925
 23
0.1686068818
 33
0.0
 40
0.0
 40
0.0
 40
0.0
 40
0.0
 40
0.1955839747
 40
0.4065111841
 40
0.6196376798
 40
0.8218553915
 40
1.0
 40
1.0
 40
1.0
 40
1.0
 10
6.523907971
 20
1.9472654142
 30
0.0
 10
6.5235591974
 20
1.9711564131
 30
0.0
 10
6.5163225157
 20
2.0207908706
 30
0.0
 10
6.4907356299
 20
2.0924520139
 30
0.0
 10
6.4521576294
 20
2.1590520391
 30
0.0
 10
6.4043969652
 20
2.2141723632
 30
0.0
 10
6.3664814499
 20
2.2421015402
 30
0.0
 10
6.3471581996
 20
2.2521136759
 30
0.0
 11
6.523907971
 21
1.9472654142
 31
0.0
 11
6.5143850938
 21
2.0183106676
 31
0.0
 11
6.4886959887
 21
2.0912212738
 31
0.0
 11
6.4494214532
 21
2.158739163
 31
0.0
 11
6.4003946591
 21
2.2143174179
 31
0.0
 11
6.3471581996
 21
2.2521136759
 31
0.0
  0
SPLINE
  5
29E
100
AcDbEntity
  8
ASSI
100
AcDbSpline
 62
253
  6
CONTINUOUS
 70
0
 71
3
 72
12
 73
8
 74
6
 42
0.0000001
 43
0.0000001
 44
0.0000000001
 12
-0.0003856599
 22
0.3643136515
 32
0.0
 13
0.3230429735
 23
0.1684274998
 33
0.0
 40
0.0
 40
0.0
 40
0.0
 40
0.0
 40
0.1954109409
 40
0.4054784998
 40
0.6178639365
 40
0.8202454909
 40
1.0
 40
1.0
 40
1.0
 40
1.0
 10
-10.7258205404
 20
10.3981577486
 30
0.0
 10
-10.7258456611
 20
10.4218880398
 30
0.0
 10
-10.7193848048
 20
10.4712162072
 30
0.0
 10
-10.6947273008
 20
10.5425178895
 30
0.0
 10
-10.6568254998
 20
10.6087973809
 30
0.0
 10
-10.6093504615
 20
10.6637831847
 30
0.0
 10
-10.571485316
 20
10.6916654943
 30
0.0
 10
-10.5521291722
 20
10.7017573618
 30
0.0
 11
-10.7258205404
 21
10.3981577486
 31
0.0
 11
-10.7173606434
 21
10.4688442132
 31
0.0
 11
-10.6926521754
 21
10.5412763363
 31
0.0
 11
-10.6541311134
 21
10.6083808206
 31
0.0
 11
-10.6054820571
 21
10.6637833643
 31
0.0
 11
-10.5521291722
 21
10.7017573618
 31
0.0
  0
SPLINE
  5
29F
100
AcDbEntity
  8
ASSI
100
AcDbSpline
 62
253
  6
CONTINUOUS
 70
0
 71
3
 72
12
 73
8
 74
6
 42
0.0000001
 43
0.0000001
 44
0.0000000001
 12
-0.0003856587
 22
0.3643125473
 32
0.0
 13
0.3230419943
 23
0.1684269893
 33
0.0
 40
0.0
 40
0.0
 40
0.0
 40
0.0
 40
0.1947631165
 40
0.4040949088
 40
0.6160496428
 40
0.8181238454
 40
1.0
 40
1.0
 40
1.0
 40
1.0
 10
6.1734668315
 20
1.9485140627
 30
0.0
 10
6.1734417941
 20
1.9721656117
 30
0.0
 10
6.1798597388
 20
2.0213252077
 30
0.0
 10
6.2043760961
 20
2.0924381684
 30
0.0
 10
6.2420950024
 20
2.1586135553
 30
0.0
 10
6.2895664155
 20
2.2138147736
 30
0.0
 10
6.3275736544
 20
2.2419027248
 30
0.0
 10
6.3471581996
 20
2.2521136759
 30
0.0
 11
6.1734668315
 21
1.9485140627
 31
0.0
 11
6.1818731606
 21
2.0189690215
 31
0.0
 11
6.2064261479
 21
2.0911706852
 31
0.0
 11
6.2447711687
 21
2.158194934
 31
0.0
 11
6.2932309457
 21
2.2136141605
 31
0.0
 11
6.3471581996
 21
2.2521136759
 31
0.0
  0
SPLINE
  5
2A0
100
AcDbEntity
  8
ASSI
100
AcDbSpline
 62
253
  6
CONTINUOUS
 70
0
 71
3
 72
10
 73
6
 74
4
 42
0.0000001
 43
0.0000001
 44
0.0000000001
 12
-0.1066900264
 22
0.0533479656
 32
0.0
 13
0.0004535054
 23
0.1185801436
 33
0.0
 40
0.0
 40
0.0
 40
0.0
 40
0.0
 40
0.5621967081
 40
0.9909786772
 40
1.0
 40
1.0
 40
1.0
 40
1.0
 10
-10.7258205404
 20
10.3981577486
 30
0.0
 10
-10.7458141343
 20
10.4081550988
 30
0.0
 10
-10.7799053273
 20
10.4297895422
 30
0.0
 10
-10.7989407701
 20
10.4689462726
 30
0.0
 10
-10.7990420382
 20
10.4862494539
 30
0.0
 10
-10.7990406744
 20
10.4866060371
 30
0.0
 11
-10.7258205404
 21
10.3981577486
 31
0.0
 11
-10.7795940995
 21
10.4382279572
 31
0.0
 11
-10.7990343692
 21
10.4855364273
 31
0.0
 11
-10.7990406744
 21
10.4866060371
 31
0.0
  0
SPLINE
  5
2A1
100
AcDbEntity
  8
ASSI
100
AcDbSpline
 62
253
  6
CONTINUOUS
 70
0
 71
3
 72
10
 73
6
 74
4
 42
0.0000001
 43
0.0000001
 44
0.0000000001
 12
-0.0264958835
 22
-0.1937282823
 32
0.0
 13
-0.191317782
 23
-0.0524592148
 33
0.0
 40
0.0
 40
0.0
 40
0.0
 40
0.0
 40
0.430683799
 40
0.8010691498
 40
1.0
 40
1.0
 40
1.0
 40
1.0
 10
7.209839985
 20
-12.4565438443
 30
0.0
 10
7.2060362024
 20
-12.4843557219
 30
0.0
 10
7.1915200669
 20
-12.5356860817
 30
0.0
 10
7.1488544006
 20
-12.5884486292
 30
0.0
 10
7.1141135861
 20
-12.6042934364
 30
0.0
 10
7.1014272498
 20
-12.6077720218
 30
0.0
 11
7.209839985
 21
-12.4565438443
 31
0.0
 11
7.1847440432
 21
-12.5369298963
 31
0.0
 11
7.1371159447
 21
-12.5914874449
 31
0.0
 11
7.1014272498
 21
-12.6077720218
 31
0.0
  0
SPLINE
  5
2A2
100
AcDbEntity
  8
ASSI
100
AcDbSpline
 62
253
  6
CONTINUOUS
 70
0
 71
3
 72
11
 73
7
 74
5
 42
0.0000001
 43
0.0000001
 44
0.0000000001
 12
-0.3186082903
 22
-0.1690650599
 32
0.0
 13
-0.3227128788
 23
0.1610920079
 33
0.0
 40
0.0
 40
0.0
 40
0.0
 40
0.0
 40
0.2388435752
 40
0.503579771
 40
0.7663858709
 40
1.0
 40
1.0
 40
1.0
 40
1.0
 10
6.7643763164
 20
-12.0577580492
 30
0.0
 10
6.7390104687
 20
-12.0712180837
 30
0.0
 10
6.6809688231
 20
-12.0910442818
 30
0.0
 10
6.5889245701
 20
-12.1018899464
 30
0.0
 10
6.4971486962
 20
-12.0948467375
 30
0.0
 10
6.4392106907
 20
-12.077292277
 30
0.0
 10
6.4140805947
 20
-12.0647478206
 30
0.0
 11
6.7643763164
 21
-12.0577580492
 31
0.0
 11
6.6834044657
 21
-12.0871680511
 31
0.0
 11
6.5886299826
 21
-12.0988078501
 31
0.0
 11
6.494166307
 21
-12.0909440932
 31
0.0
 11
6.4140805947
 21
-12.0647478206
 31
0.0
  0
SPLINE
  5
2A3
100
AcDbEntity
  8
ASSI
100
AcDbSpline
 62
253
  6
CONTINUOUS
 70
0
 71
3
 72
11
 73
7
 74
5
 42
0.0000001
 43
0.0000001
 44
0.0000000001
 12
-0.32390209
 22
-0.1568996968
 32
0.0
 13
-0.3219104798
 23
0.1609463318
 33
0.0
 40
0.0
 40
0.0
 40
0.0
 40
0.0
 40
0.2366865908
 40
0.5013293953
 40
0.7652575898
 40
1.0
 40
1.0
 40
1.0
 40
1.0
 10
6.523907971
 20
1.9472654142
 30
0.0
 10
6.4983535438
 20
1.9348867294
 30
0.0
 10
6.4400624867
 20
1.9172635845
 30
0.0
 10
6.3481372853
 20
1.9090389484
 30
0.0
 10
6.2565055851
 20
1.9178702993
 30
0.0
 10
6.1986555121
 20
1.9359204194
 30
0.0
 10
6.1734668315
 20
1.9485140627
 30
0.0
 11
6.523907971
 21
1.9472654142
 31
0.0
 11
6.4428827969
 21
1.9209734683
 31
0.0
 11
6.3480618523
 21
1.9119883166
 31
0.0
 11
6.2535657768
 21
1.921648019
 31
0.0
 11
6.1734668315
 21
1.9485140627
 31
0.0
  0
SPLINE
  5
2A4
100
AcDbEntity
  8
ASSI
100
AcDbSpline
 62
253
  6
CONTINUOUS
 70
0
 71
3
 72
11
 73
7
 74
5
 42
0.0000001
 43
0.0000001
 44
0.0000000001
 12
0.019995042
 22
-0.5969935292
 32
0.0
 13
0.5356077716
 23
-0.2715003034
 33
0.0
 40
0.0
 40
0.0
 40
0.0
 40
0.0
 40
0.3060244882
 40
0.5801118581
 40
0.8277905762
 40
1.0
 40
1.0
 40
1.0
 40
1.0
 10
6.4140742841
 20
-12.0647512847
 30
0.0
 10
6.4161139416
 20
-12.1256494978
 30
0.0
 10
6.4304602009
 20
-12.2412569404
 30
0.0
 10
6.4889533506
 20
-12.3973278065
 30
0.0
 10
6.5747179211
 20
-12.5088807471
 30
0.0
 10
6.6447179901
 20
-12.5569150741
 30
0.0
 10
6.6754635587
 20
-12.5725000443
 30
0.0
 11
6.4140742841
 21
-12.0647512847
 31
0.0
 11
6.4386650307
 21
-12.2458867815
 31
0.0
 11
6.4984392379
 21
-12.3983050468
 31
0.0
 11
6.5903454827
 21
-12.5142408654
 31
0.0
 11
6.6754635587
 21
-12.5725000443
 31
0.0
  0
LINE
  5
2A5
100
AcDbEntity
  8
ASSI
100
AcDbLine
 62
253
  6
CONTINUOUS
 10
-10.4934638513
 20
-3.610982217
 11
-10.4964014292
 21
-3.5200137538
  0
SPLINE
  5
2A6
100
AcDbEntity
  8
ASSI
100
AcDbSpline
 62
253
  6
CONTINUOUS
 70
0
 71
3
 72
10
 73
6
 74
4
 42
0.0000001
 43
0.0000001
 44
0.0000000001
 12
0.1056673508
 22
0.0577633496
 32
0.0
 13
0.1075013196
 23
-0.0518675463
 33
0.0
 40
0.0
 40
0.0
 40
0.0
 40
0.0
 40
0.0964758944
 40
0.516119714
 40
1.0
 40
1.0
 40
1.0
 40
1.0
 10
-10.6677223933
 20
10.7067963855
 30
0.0
 10
-10.6643242759
 20
10.7086539758
 30
0.0
 10
-10.6455706693
 20
10.7174706646
 30
0.0
 10
-10.6044111733
 20
10.721590749
 30
0.0
 10
-10.5694684287
 20
10.7101232562
 30
0.0
 10
-10.5521291722
 20
10.7017573618
 30
0.0
 11
-10.6677223933
 21
10.7067963855
 31
0.0
 11
-10.6572262342
 21
10.7117163382
 31
0.0
 11
-10.6075395799
 21
10.7180493456
 31
0.0
 11
-10.5521291722
 21
10.7017573618
 31
0.0
  0
SPLINE
  5
2A7
100
AcDbEntity
  8
CURVE
100
AcDbSpline
 62
253
  6
CONTINUOUS
 70
0
 71
3
 72
15
 73
11
 74
9
 42
0.0000001
 43
0.0000001
 44
0.0000000001
 12
0.0559877886
 22
-2.5406388005
 32
0.0
 13
0.0648524254
 23
-2.5950934954
 33
0.0
 40
0.0
 40
0.0
 40
0.0
 40
0.0
 40
0.25
 40
0.375
 40
0.4375
 40
0.5
 40
0.5625
 40
0.625
 40
0.75
 40
1.0
 40
1.0
 40
1.0
 40
1.0
 10
-2.1829434253
 20
-2.4829763289
 30
0.0
 10
-2.1782777763
 20
-2.694696229
 30
0.0
 10
-2.1712614305
 20
-3.0123858667
 30
0.0
 10
-2.1631382465
 20
-3.3826395205
 30
0.0
 10
-2.1584070659
 20
-3.5947619754
 30
0.0
 10
-2.155108892
 20
-3.7523167889
 30
0.0
 10
-2.1508545525
 20
-3.9157452439
 30
0.0
 10
-2.1455157153
 20
-4.1316004803
 30
0.0
 10
-2.136016368
 20
-4.5103077863
 30
0.0
 10
-2.1279276871
 20
-4.8345846856
 30
0.0
 10
-2.1225233183
 20
-5.0508424769
 30
0.0
 11
-2.1829434253
 21
-2.4829763289
 31
0.0
 11
-2.1689464782
 21
-3.118136029
 31
0.0
 11
-2.1619480046
 21
-3.4357158791
 31
0.0
 11
-2.1584487678
 21
-3.5945058041
 31
0.0
 11
-2.154949531
 21
-3.7532957292
 31
0.0
 11
-2.1508962545
 21
-3.9154890726
 31
0.0
 11
-2.1468429779
 21
-4.0776824161
 31
0.0
 11
-2.1387364247
 21
-4.402069103
 31
0.0
 11
-2.1225233183
 21
-5.0508424769
 31
0.0
  0
SPLINE
  5
2A8
100
AcDbEntity
  8
CURVE
100
AcDbSpline
 62
253
  6
CONTINUOUS
 70
0
 71
3
 72
14
 73
10
 74
8
 42
0.0000001
 43
0.0000001
 44
0.0000000001
 12
-0.0870920092
 22
3.7014504737
 32
0.0
 13
2.9867936219
 23
-0.9589037911
 33
0.0
 40
0.0
 40
0.0
 40
0.0
 40
0.0
 40
0.1470588235
 40
0.2941176471
 40
0.4411764706
 40
0.5882352941
 40
0.7352941176
 40
0.8823529412
 40
1.0
 40
1.0
 40
1.0
 40
1.0
 10
-4.2759277525
 20
-2.7071862546
 30
0.0
 10
-4.2801969686
 20
-2.5257426039
 30
0.0
 10
-4.2572652594
 20
-2.1869069516
 30
0.0
 10
-4.1309383207
 20
-1.7398793986
 30
0.0
 10
-3.9163503588
 20
-1.3816371763
 30
0.0
 10
-3.6267423956
 20
-1.1291571409
 30
0.0
 10
-3.2691354858
 20
-0.9904742554
 30
0.0
 10
-2.8942473788
 20
-0.9750395646
 30
0.0
 10
-2.6335631583
 20
-1.0315705547
 30
0.0
 10
-2.5164339967
 20
-1.0691746249
 30
0.0
 11
-4.2759277525
 21
-2.7071862546
 31
0.0
 11
-4.2419436969
 21
-2.1971112725
 31
0.0
 11
-4.1162281502
 21
-1.7546769537
 31
0.0
 11
-3.9038470252
 21
-1.3992642075
 31
0.0
 11
-3.6154092378
 21
-1.1481233326
 31
0.0
 11
-3.2617923326
 21
-1.0108318749
 31
0.0
 11
-2.861394125
 21
-0.9944473618
 31
0.0
 11
-2.5164339967
 21
-1.0691746249
 31
0.0
  0
SPLINE
  5
2A9
100
AcDbEntity
  8
CURVE
100
AcDbSpline
 62
253
  6
CONTINUOUS
 70
0
 71
3
 72
11
 73
7
 74
5
 42
0.0000001
 43
0.0000001
 44
0.0000000001
 12
1.0541624548
 22
-0.3384366322
 32
0.0
 13
1.0060554249
 23
-0.9492647962
 33
0.0
 40
0.0
 40
0.0
 40
0.0
 40
0.0
 40
0.0833333333
 40
0.5
 40
0.9166666667
 40
1.0
 40
1.0
 40
1.0
 40
1.0
 10
-2.5164339967
 20
-1.0691746249
 30
0.0
 10
-2.4871517062
 20
-1.0785756425
 30
0.0
 10
-2.3109818982
 20
-1.1396614425
 30
0.0
 10
-1.9854678667
 20
-1.302461096
 30
0.0
 10
-1.6612866074
 20
-1.5471333467
 30
0.0
 10
-1.4922506845
 20
-1.7018680816
 30
0.0
 10
-1.4643047005
 20
-1.7282365482
 30
0.0
 11
-2.5164339967
 21
-1.0691746249
 31
0.0
 11
-2.4283900119
 21
-1.0997074094
 31
0.0
 11
-1.9857707695
 21
-1.3210685045
 31
0.0
 11
-1.5488123871
 21
-1.6508808684
 31
0.0
 11
-1.4643047005
 21
-1.7282365482
 31
0.0
  0
SPLINE
  5
2AA
100
AcDbEntity
  8
CURVE
100
AcDbSpline
 62
253
  6
CONTINUOUS
 70
0
 71
3
 72
9
 73
5
 74
3
 42
0.0000001
 43
0.0000001
 44
0.0000000001
 12
0.3742956127
 22
-0.3841578524
 32
0.0
 13
0.3398650404
 23
-0.4497277395
 33
0.0
 40
0.0
 40
0.0
 40
0.0
 40
0.0
 40
0.5627224783
 40
1.0
 40
1.0
 40
1.0
 40
1.0
 10
-1.346144261
 20
-1.8445618299
 30
0.0
 10
-1.2759360761
 20
-1.9166199162
 30
0.0
 10
-1.154011673
 20
-2.0512961816
 30
0.0
 10
-1.0376887931
 20
-2.1971138893
 30
0.0
 10
-0.9881503456
 20
-2.2626658331
 30
0.0
 11
-1.346144261
 21
-1.8445618299
 31
0.0
 11
-1.1404906308
 21
-2.0717186509
 31
0.0
 11
-0.9881503456
 21
-2.2626658331
 31
0.0
  0
SPLINE
  5
2AB
100
AcDbEntity
  8
CURVE
100
AcDbSpline
 62
253
  6
CONTINUOUS
 70
0
 71
3
 72
10
 73
6
 74
4
 42
0.0000001
 43
0.0000001
 44
0.0000000001
 12
0.3939062894
 22
-1.0541024622
 32
0.0
 13
0.1059167316
 23
-1.0072866005
 33
0.0
 40
0.0
 40
0.0
 40
0.0
 40
0.0
 40
0.1728189165
 40
0.7242729722
 40
1.0
 40
1.0
 40
1.0
 40
1.0
 10
-0.3035190949
 20
-3.5107826351
 30
0.0
 10
-0.2808276089
 20
-3.5715055836
 30
0.0
 10
-0.1912739491
 20
-3.8268000233
 30
0.0
 10
-0.101398282
 20
-4.180262583
 30
0.0
 10
-0.0608380229
 20
-4.4612247779
 30
0.0
 10
-0.0511033211
 20
-4.5538034914
 30
0.0
 11
-0.3035190949
 21
-3.5107826351
 31
0.0
 11
-0.2394833532
 21
-3.6933776599
 31
0.0
 11
-0.0916318837
 21
-4.272648276
 31
0.0
 11
-0.0511033211
 21
-4.5538034914
 31
0.0
  0
SPLINE
  5
2AC
100
AcDbEntity
  8
CURVE
100
AcDbSpline
 62
253
  6
CONTINUOUS
 70
0
 71
3
 72
8
 73
4
 74
2
 42
0.0000001
 43
0.0000001
 44
0.0000000001
 12
0.0106748415
 22
-0.4536856768
 32
0.0
 13
-0.053297969
 23
-0.4062650903
 33
0.0
 40
0.0
 40
0.0
 40
0.0
 40
0.0
 40
1.0
 40
1.0
 40
1.0
 40
1.0
 10
-0.0332870654
 20
-4.8285065982
 30
0.0
 10
-0.0297287849
 20
-4.9797351571
 30
0.0
 10
-0.0369471385
 20
-5.1225293579
 30
0.0
 10
-0.0547131282
 20
-5.2579510546
 30
0.0
 11
-0.0332870654
 21
-4.8285065982
 31
0.0
 11
-0.0547131282
 21
-5.2579510546
 31
0.0
  0
SPLINE
  5
2AD
100
AcDbEntity
  8
CURVE
100
AcDbSpline
 62
253
  6
CONTINUOUS
 70
0
 71
3
 72
11
 73
7
 74
5
 42
0.0000001
 43
0.0000001
 44
0.0000000001
 12
-0.2025322824
 22
-1.5438073431
 32
0.0
 13
-1.0148090379
 23
-0.6142510142
 33
0.0
 40
0.0
 40
0.0
 40
0.0
 40
0.0
 40
0.0526315789
 40
0.3684210526
 40
0.6842105263
 40
1.0
 40
1.0
 40
1.0
 40
1.0
 10
-0.0547131282
 20
-5.2579510546
 30
0.0
 10
-0.0582663262
 20
-5.285035394
 30
0.0
 10
-0.0860920498
 20
-5.4725614683
 30
0.0
 10
-0.175995078
 20
-5.7947612932
 30
0.0
 10
-0.387828022
 20
-6.1515919808
 30
0.0
 10
-0.5787837923
 20
-6.3188195485
 30
0.0
 10
-0.6856057963
 20
-6.38347755
 30
0.0
 11
-0.0547131282
 21
-5.2579510546
 31
0.0
 11
-0.0666366064
 21
-5.338327867
 31
0.0
 11
-0.190553716
 21
-5.7798792687
 31
0.0
 11
-0.4002614739
 21
-6.1339270914
 31
0.0
 11
-0.6856057963
 21
-6.38347755
 31
0.0
  0
SPLINE
  5
2AE
100
AcDbEntity
  8
CURVE
100
AcDbSpline
 62
253
  6
CONTINUOUS
 70
0
 71
3
 72
18
 73
14
 74
12
 42
0.0000001
 43
0.0000001
 44
0.0000000001
 12
-3.6657654296
 22
-1.567083649
 32
0.0
 13
-0.1356331434
 23
5.7644710174
 33
0.0
 40
0.0
 40
0.0
 40
0.0
 40
0.0
 40
0.0566037736
 40
0.1509433962
 40
0.2452830189
 40
0.3396226415
 40
0.4339622642
 40
0.5283018868
 40
0.6226415094
 40
0.7169811321
 40
0.8113207547
 40
0.9056603774
 40
1.0
 40
1.0
 40
1.0
 40
1.0
 10
-0.8189887154
 20
-6.4518827701
 30
0.0
 10
-0.8881541009
 20
-6.4814503861
 30
0.0
 10
-1.081993507
 20
-6.5415861737
 30
0.0
 10
-1.4280110036
 20
-6.5548863695
 30
0.0
 10
-1.8648132316
 20
-6.4477081959
 30
0.0
 10
-2.3086999531
 20
-6.2257076726
 30
0.0
 10
-2.7520801106
 20
-5.8927186932
 30
0.0
 10
-3.1640204227
 20
-5.471649581
 30
0.0
 10
-3.5364878514
 20
-4.9710761849
 30
0.0
 10
-3.8449560575
 20
-4.4226276558
 30
0.0
 10
-4.0815399212
 20
-3.8417180556
 30
0.0
 10
-4.2321437885
 20
-3.257833672
 30
0.0
 10
-4.2716625593
 20
-2.8884589281
 30
0.0
 10
-4.2759277525
 20
-2.7071862546
 30
0.0
 11
-0.8189887154
 21
-6.4518827701
 31
0.0
 11
-1.0362188108
 21
-6.5192466102
 31
0.0
 11
-1.4342695487
 21
-6.5344656106
 31
0.0
 11
-1.8659939805
 21
-6.4285711376
 31
0.0
 11
-2.3086155257
 21
-6.2072095966
 31
0.0
 11
-2.7468401364
 21
-5.878038671
 31
0.0
 11
-3.1574416088
 21
-5.458398867
 31
0.0
 11
-3.5258213143
 21
-4.9630969961
 31
0.0
 11
-3.8329753338
 21
-4.4172174773
 31
0.0
 11
-4.0672099218
 21
-3.8412222584
 31
0.0
 11
-4.2169228367
 21
-3.26280405
 31
0.0
 11
-4.2759277525
 21
-2.7071862546
 31
0.0
  0
ELLIPSE
  5
2AF
100
AcDbEntity
  8
RACCORDO
100
AcDbEllipse
 62
7
  6
CONTINUOUS
 10
-6.8322706607
 20
12.4921110573
 30
0.0
 11
-0.1118504554
 21
0.2236675568
 31
0.0
 40
0.6121897086
 41
-0.6846338794
 42
0.0186659329
  0
ELLIPSE
  5
2B0
100
AcDbEntity
  8
RACCORDO
100
AcDbEllipse
 62
7
  6
CONTINUOUS
 10
9.9307102103
 20
-11.7296672756
 30
0.0
 11
-0.0859020599
 21
0.2354039488
 31
0.0
 40
0.6613288813
 41
-3.0814036799
 42
-2.1814380601
  0
ELLIPSE
  5
2B1
100
AcDbEntity
  8
RACCORDO
100
AcDbEllipse
 62
7
  6
CONTINUOUS
 10
10.1990748339
 20
3.97643831
 30
0.0
 11
-0.1117903878
 21
0.2236141634
 31
0.0
 40
0.6125552124
 41
-2.255296188
 42
-0.6848044477
  0
ELLIPSE
  5
2B2
100
AcDbEntity
  8
RACCORDO
100
AcDbEllipse
 62
7
  6
CONTINUOUS
 10
10.5917132701
 20
3.3855692338
 30
0.0
 11
0.1379861541
 21
0.2664038768
 31
0.0
 40
0.6229838795
 41
2.2644017489
 42
3.8177447832
  0
ELLIPSE
  5
2B3
100
AcDbEntity
  8
RACCORDO
100
AcDbEllipse
 62
7
  6
CONTINUOUS
 10
9.4076805204
 20
-11.7249120883
 30
0.0
 11
-0.1098985543
 21
0.2275784384
 31
0.0
 40
0.6085747011
 41
-3.2548100557
 42
-2.2415613143
  0
ELLIPSE
  5
2B4
100
AcDbEntity
  8
RACCORDO
100
AcDbEllipse
 62
7
  6
CONTINUOUS
 10
9.4076805204
 20
-11.9767148908
 30
0.0
 11
-0.1118523001
 21
0.2236266191
 31
0.0
 40
0.6122950388
 41
2.456793014
 42
4.0274370417
  0
ELLIPSE
  5
2B5
100
AcDbEntity
  8
ASSI
100
AcDbEllipse
 62
7
  6
CONTINUOUS
 10
-6.8322706607
 20
12.4921110573
 30
0.0
 11
-0.1118504554
 21
0.2236675568
 31
0.0
 40
0.6121897086
 41
-0.6846338794
 42
0.0186659329
  0
ELLIPSE
  5
2B6
100
AcDbEntity
  8
ASSI
100
AcDbEllipse
 62
7
  6
CONTINUOUS
 10
9.9307102103
 20
-11.7296672756
 30
0.0
 11
-0.0859020599
 21
0.2354039488
 31
0.0
 40
0.6613288813
 41
-3.0814036799
 42
-2.1814380601
  0
ELLIPSE
  5
2B7
100
AcDbEntity
  8
ASSI
100
AcDbEllipse
 62
7
  6
CONTINUOUS
 10
10.1990748339
 20
3.97643831
 30
0.0
 11
-0.1117903878
 21
0.2236141634
 31
0.0
 40
0.6125552124
 41
-2.255296188
 42
-0.6848044477
  0
ELLIPSE
  5
2B8
100
AcDbEntity
  8
ASSI
100
AcDbEllipse
 62
7
  6
CONTINUOUS
 10
10.5917132701
 20
3.3855692338
 30
0.0
 11
0.1379861541
 21
0.2664038768
 31
0.0
 40
0.6229838795
 41
2.2644017489
 42
3.8177447832
  0
ELLIPSE
  5
2B9
100
AcDbEntity
  8
ASSI
100
AcDbEllipse
 62
7
  6
CONTINUOUS
 10
9.4076805204
 20
-11.7249120883
 30
0.0
 11
-0.1098985543
 21
0.2275784384
 31
0.0
 40
0.6085747011
 41
-3.2548100557
 42
-2.2415613143
  0
ELLIPSE
  5
2BA
100
AcDbEntity
  8
ASSI
100
AcDbEllipse
 62
7
  6
CONTINUOUS
 10
9.4076805204
 20
-11.9767148908
 30
0.0
 11
-0.1118523001
 21
0.2236266191
 31
0.0
 40
0.6122950388
 41
2.456793014
 42
4.0274370417
  0
ENDSEC
  0
SECTION
  2
OBJECTS
  0
DICTIONARY
  5
C
100
AcDbDictionary
280
0
281
1
  3
ACAD_GROUP
350
D
  3
ACAD_MLINESTYLE
350
17
  3
ACAD_LAYOUT
350
1A
  3
ACAD_PLOTSETTINGS
350
19
  3
ACAD_PLOTSTYLENAME
350
E
  0
DICTIONARY
  5
D
102
{ACAD_REACTORS
330
C
102
}
100
AcDbDictionary
280
0
281
1
  0
ACDBDICTIONARYWDFLT
  5
E
102
{ACAD_REACTORS
330
C
102
}
100
AcDbDictionary
281
1
  3
Normal
350
F
100
AcDbDictionaryWithDefault
340
F
  0
DICTIONARY
  5
17
102
{ACAD_REACTORS
330
C
102
}
100
AcDbDictionary
280
0
281
1
  3
Standard
350
18
  0
DICTIONARY
  5
19
102
{ACAD_REACTORS
330
C
102
}
100
AcDbDictionary
281
1
  0
DICTIONARY
  5
1A
102
{ACAD_REACTORS
330
C
102
}
100
AcDbDictionary
281
1
  3
Model
350
2BB
  3
Layout1
350
2BC
  0
ACDBPLACEHOLDER
  5
F
102
{ACAD_REACTORS
330
E
102
}
  0
MLINESTYLE
  5
18
102
{ACAD_REACTORS
330
17
102
}
100
AcDbMlineStyle
  2
STANDARD
 70
0
  3

 62
256
 51
90.0
 52
90.0
 71
2
 49
0.5
 62
256
  6
BYLAYER
 49
-0.5
 62
256
  6
BYLAYER
  0
LAYOUT
  5
2BB
102
{ACAD_REACTORS
330
1A
102
}
100
AcDbPlotSettings
  1

  2
none_device
  4
ISO_A4_(297.00_x_210.00_MM)
  6

 40
0.0
 41
0.0
 42
0.0
 43
0.0
 44
297.0
 45
210.0
 46
0.0
 47
0.0
 48
0.0
 49
0.0
140
0.0
141
0.0
142
1.0
143
1.0
 70
1024
 72
1
 73
0
 74
0
  7

 75
0
147
1.0
148
0.0
149
0.0
100
AcDbLayout
  1
Model
 70
0
 71
0
 10
0.0
 20
0.0
 11
297.0
 21
210.0
 12
0.0
 22
0.0
 32
0.0
 14
0.0
 24
0.0
 34
0.0
 15
0.0
 25
0.0
 35
0.0
146
0.0
 13
0.0
 23
0.0
 33
0.0
 16
1.0
 26
0.0
 36
0.0
 17
0.0
 27
1.0
 37
0.0
 76
0
330
211
345
0
346
0
  0
LAYOUT
  5
2BC
102
{ACAD_REACTORS
330
1A
102
}
100
AcDbPlotSettings
  1

  2
none_device
  4
ISO_A4_(297.00_x_210.00_MM)
  6

 40
0.0
 41
0.0
 42
0.0
 43
0.0
 44
297.0
 45
210.0
 46
0.0
 47
0.0
 48
0.0
 49
0.0
140
0.0
141
0.0
142
1.0
143
1.0
 70
0
 72
1
 73
0
 74
0
  7

 75
0
147
1.0
148
0.0
149
0.0
100
AcDbLayout
  1
Layout1
 70
0
 71
1
 10
0.0
 20
0.0
 11
297.0
 21
210.0
 12
0.0
 22
0.0
 32
0.0
 14
0.0
 24
0.0
 34
0.0
 15
0.0
 25
0.0
 35
0.0
146
0.0
 13
0.0
 23
0.0
 33
0.0
 16
1.0
 26
0.0
 36
0.0
 17
0.0
 27
1.0
 37
0.0
 76
0
330
212
345
0
346
0
  0
ENDSEC
  0
EOF
