  0
SECTION
  2
HEADER
  9
$ACADVER
  1
AC1015
  9
$DWGCODEPAGE
  3
ANSI_1252
  9
$EXTMAX
 10
297.0
 20
210.0
 30
0.0
  9
$EXTMIN
 10
0.0
 20
0.0
 30
0.0
  9
$LIMMIN
 10
0.0
 20
0.0
  9
$LIMMAX
 10
297.0
 20
210.0
  9
$VIEWCTR
 10
148.5
 20
105.0
  9
$VIEWSIZE
 40
210.0
  9
$CLAYER
  8
0
  9
$LTSCALE
 40
16.335
  9
$CELTYPE
  6
BYLAYER
  9
$DIMSCALE
 40
1.0
  9
$DIMASZ
 40
3.0
  9
$DIMEXO
 40
1.85625
  9
$DIMDLI
 40
11.286
  9
$DIMEXE
 40
5.346
  9
$DIMCEN
 40
2.673
  9
$DIMLFAC
 40
1.0
  9
$DIMBLK
  1
_FILLED
  9
$DIMTXT
 40
3.0
  9
$DIMTOL
 70
1
  9
$DIMLIM
 70
0
  9
$DIMTFAC
 40
1.0
  9
$DIMTP
 40
0.01
  9
$DIMTM
 40
0.01
  9
$PDMODE
 70
3
  9
$PDSIZE
 40
3.0
  9
$HANDSEED
  5
2AD
  9
$TILEMODE
 70
1
  9
$MEASUREMENT
 70
1
  9
$INSUNITS
 70
4
  0
ENDSEC
  0
SECTION
  2
CLASSES
  0
CLASS
  1
ACDBDICTIONARYWDFLT
  2
AcDbDictionaryWithDefault
  3
AutoCAD 2000
 90
0
280
0
281
0
  0
CLASS
  1
ACDBPLACEHOLDER
  2
AcDbPlaceHolder
  3
AutoCAD 2000
 90
0
280
0
281
0
  0
CLASS
  1
LAYOUT
  2
AcDbLayout
  3
AutoCAD 2000
 90
0
280
0
281
0
  0
ENDSEC
  0
SECTION
  2
TABLES
  0
TABLE
  2
VPORT
  5
8
100
AcDbSymbolTable
 70
2
  0
VPORT
  5
1F4
100
AcDbSymbolTableRecord
100
AcDbViewportTableRecord
  2
*ACTIVE
 70
0
 10
0.0
 20
0.0
 11
1.0
 21
1.0
 12
148.5
 22
105.0
 13
0.0
 23
0.0
 14
1.0
 24
1.0
 15
0.0
 25
0.0
 16
0.0
 26
0.0
 36
1.0
 17
0.0
 27
0.0
 37
0.0
 40
210.0
 41
1.4142857143
 42
50.0
 43
0.0
 44
0.0
 50
0.0
 51
0.0
 71
0
 72
100
 73
1
 74
1
 75
0
 76
0
 77
0
 78
0
  0
ENDTAB
  0
TABLE
  2
LTYPE
  5
5
100
AcDbSymbolTable
 70
6
  0
LTYPE
  5
14
100
AcDbSymbolTableRecord
100
AcDbLinetypeTableRecord
  2
BYBLOCK
 70
0
  3

 72
65
 73
0
 40
0.0
  0
LTYPE
  5
15
100
AcDbSymbolTableRecord
100
AcDbLinetypeTableRecord
  2
BYLAYER
 70
0
  3

 72
65
 73
0
 40
0.0
  0
LTYPE
  5
16
100
AcDbSymbolTableRecord
100
AcDbLinetypeTableRecord
  2
CONTINUOUS
 70
64
  3
Solid line
 72
65
 73
0
 40
0.0
  0
LTYPE
  5
1F5
100
AcDbSymbolTableRecord
100
AcDbLinetypeTableRecord
  2
CENTER
 70
64
  3
____ _ ____ _ ____ _ ____ _ ____ _ ____ _ ____
 72
65
 73
4
 40
0.6
 49
0.375
 74
0
 49
-0.075
 74
0
 49
0.075
 74
0
 49
-0.075
 74
0
  0
LTYPE
  5
1F6
100
AcDbSymbolTableRecord
100
AcDbLinetypeTableRecord
  2
HIDDEN
 70
64
  3
- - - - - - - - - - - - - - - - - - - -
 72
65
 73
2
 40
0.2
 49
0.1
 74
0
 49
-0.1
 74
0
  0
LTYPE
  5
1F7
100
AcDbSymbolTableRecord
100
AcDbLinetypeTableRecord
  2
PHANTOM
 70
64
  3
_____ _ _ _____ _ _ _____ _ _ _____
 72
65
 73
6
 40
0.8
 49
0.45
 74
0
 49
-0.05
 74
0
 49
0.1
 74
0
 49
-0.05
 74
0
 49
0.1
 74
0
 49
-0.05
 74
0
  0
LTYPE
  5
1F8
100
AcDbSymbolTableRecord
100
AcDbLinetypeTableRecord
  2
DOT
 70
64
  3
. . . . . . . . . . . . . . . . . . . .
 72
65
 73
2
 40
0.2
 49
0.1
 74
0
 49
-0.1
 74
0
  0
LTYPE
  5
1F9
100
AcDbSymbolTableRecord
100
AcDbLinetypeTableRecord
  2
DASHED
 70
64
  3
- - - - - - - - - - - - - - - - - - - -
 72
65
 73
2
 40
0.2
 49
0.1
 74
0
 49
-0.1
 74
0
  0
ENDTAB
  0
TABLE
  2
LAYER
  5
2
100
AcDbSymbolTable
 70
36
  0
LAYER
  5
10
100
AcDbSymbolTableRecord
100
AcDbLayerTableRecord
  2
0
 70
0
 62
7
  6
CONTINUOUS
370
-3
390
F
  0
LAYER
  5
1FA
100
AcDbSymbolTableRecord
100
AcDbLayerTableRecord
  2
DEFAULT_1
 70
0
 62
7
  6
CENTER
370
-3
390
F
  0
LAYER
  5
1FB
100
AcDbSymbolTableRecord
100
AcDbLayerTableRecord
  2
DEFAULT_2
 70
0
 62
7
  6
HIDDEN
370
-3
390
F
  0
LAYER
  5
1FC
100
AcDbSymbolTableRecord
100
AcDbLayerTableRecord
  2
DEFAULT_3
 70
0
 62
7
  6
PHANTOM
370
-3
390
F
  0
LAYER
  5
1FD
100
AcDbSymbolTableRecord
100
AcDbLayerTableRecord
  2
ASSI
 70
0
 62
7
  6
CONTINUOUS
370
-3
390
F
  0
LAYER
  5
1FE
100
AcDbSymbolTableRecord
100
AcDbLayerTableRecord
  2
COORDINATE
 70
0
 62
7
  6
CONTINUOUS
370
-3
390
F
  0
LAYER
  5
1FF
100
AcDbSymbolTableRecord
100
AcDbLayerTableRecord
  2
COORD_ORIGINE
 70
0
 62
7
  6
CONTINUOUS
370
-3
390
F
  0
LAYER
  5
200
100
AcDbSymbolTableRecord
100
AcDbLayerTableRecord
  2
COPY_PUBLISH
 70
0
 62
7
  6
CONTINUOUS
370
-3
390
F
  0
LAYER
  5
201
100
AcDbSymbolTableRecord
100
AcDbLayerTableRecord
  2
COSMETIC
 70
0
 62
7
  6
CONTINUOUS
370
-3
390
F
  0
LAYER
  5
202
100
AcDbSymbolTableRecord
100
AcDbLayerTableRecord
  2
CURVE
 70
0
 62
7
  6
CONTINUOUS
370
-3
390
F
  0
LAYER
  5
203
100
AcDbSymbolTableRecord
100
AcDbLayerTableRecord
  2
DRAFT
 70
0
 62
7
  6
CONTINUOUS
370
-3
390
F
  0
LAYER
  5
204
100
AcDbSymbolTableRecord
100
AcDbLayerTableRecord
  2
IGES
 70
0
 62
7
  6
CONTINUOUS
370
-3
390
F
  0
LAYER
  5
205
100
AcDbSymbolTableRecord
100
AcDbLayerTableRecord
  2
IMPORT_IGES
 70
0
 62
7
  6
CONTINUOUS
370
-3
390
F
  0
LAYER
  5
206
100
AcDbSymbolTableRecord
100
AcDbLayerTableRecord
  2
INTF_12
 70
0
 62
7
  6
CONTINUOUS
370
-3
390
F
  0
LAYER
  5
207
100
AcDbSymbolTableRecord
100
AcDbLayerTableRecord
  2
INTF_9
 70
0
 62
7
  6
CONTINUOUS
370
-3
390
F
  0
LAYER
  5
208
100
AcDbSymbolTableRecord
100
AcDbLayerTableRecord
  2
NOTE
 70
0
 62
7
  6
CONTINUOUS
370
-3
390
F
  0
LAYER
  5
209
100
AcDbSymbolTableRecord
100
AcDbLayerTableRecord
  2
PIANI
 70
0
 62
7
  6
CONTINUOUS
370
-3
390
F
  0
LAYER
  5
20A
100
AcDbSymbolTableRecord
100
AcDbLayerTableRecord
  2
PIANI_ORIGINE
 70
0
 62
7
  6
CONTINUOUS
370
-3
390
F
  0
LAYER
  5
20B
100
AcDbSymbolTableRecord
100
AcDbLayerTableRecord
  2
RACCORDO
 70
0
 62
7
  6
CONTINUOUS
370
-3
390
F
  0
LAYER
  5
20C
100
AcDbSymbolTableRecord
100
AcDbLayerTableRecord
  2
SMUSSO
 70
0
 62
7
  6
CONTINUOUS
370
-3
390
F
  0
LAYER
  5
20D
100
AcDbSymbolTableRecord
100
AcDbLayerTableRecord
  2
SUPERFICI
 70
0
 62
7
  6
CONTINUOUS
370
-3
390
F
  0
LAYER
  5
20E
100
AcDbSymbolTableRecord
100
AcDbLayerTableRecord
  2
TRASH
 70
0
 62
7
  6
CONTINUOUS
370
-3
390
F
  0
ENDTAB
  0
TABLE
  2
STYLE
  5
3
100
AcDbSymbolTable
 70
1
  0
STYLE
  5
11
100
AcDbSymbolTableRecord
100
AcDbTextStyleTableRecord
  2
STANDARD
 70
0
 40
0.0
 41
0.8
 50
0.0
 71
0
 42
0.2
  3
txt
  4

  0
STYLE
  5
20F
100
AcDbSymbolTableRecord
100
AcDbTextStyleTableRecord
  2
TEXTSTYLE_1
 70
0
 40
0.0
 41
0.8
 50
0.0
 71
0
 42
0.2
  3
gdt
  4

  0
ENDTAB
  0
TABLE
  2
VIEW
  5
6
100
AcDbSymbolTable
 70
0
  0
ENDTAB
  0
TABLE
  2
UCS
  5
7
100
AcDbSymbolTable
 70
0
  0
ENDTAB
  0
TABLE
  2
APPID
  5
9
100
AcDbSymbolTable
 70
1
  0
APPID
  5
210
100
AcDbSymbolTableRecord
100
AcDbRegAppTableRecord
  2
ACAD
 70
0
  0
ENDTAB
  0
TABLE
  2
BLOCK_RECORD
  5
1
100
AcDbSymbolTable
 70
0
  0
BLOCK_RECORD
  5
211
100
AcDbSymbolTableRecord
100
AcDbBlockTableRecord
  2
*Model_Space
  0
BLOCK_RECORD
  5
212
100
AcDbSymbolTableRecord
100
AcDbBlockTableRecord
  2
*Paper_Space
  0
ENDTAB
  0
TABLE
  2
DIMSTYLE
  5
A
100
AcDbSymbolTable
 70
1
100
AcDbDimStyleTable
 71
0
  0
DIMSTYLE
105
213
100
AcDbSymbolTableRecord
100
AcDbDimStyleTableRecord
  2
STANDARD
 70
0
  3

  4

 40
1.0
 41
3.0
 42
0.0625
 43
0.38
 44
0.18
 45
0.0
 46
0.0
 47
0.01
 48
0.01
140
3.0
141
0.09
142
0.0
143
25.4
144
1.0
145
0.0
146
1.0
147
0.09
 71
1.0
 72
0.0
 73
0
 74
0
 75
0
 76
0
 77
1
 78
8
170
0
171
2
172
0
173
0
174
0
175
0
176
0
177
0
178
0
270
2
271
2
272
2
273
2
274
2
275
0
280
0
281
0
282
0
283
1
284
8
285
0
286
0
287
3
288
0
340
11
  0
ENDTAB
  0
ENDSEC
  0
SECTION
  2
BLOCKS
  0
BLOCK
  5
20
100
AcDbEntity
  8
0
100
AcDbBlockBegin
  2
*Model_Space
 70
0
 10
0.0
 20
0.0
 30
0.0
  3
*Model_Space
  1

  0
ENDBLK
  5
21
100
AcDbEntity
  8
0
100
AcDbBlockEnd
  0
BLOCK
  5
1C
100
AcDbEntity
  8
0
100
AcDbBlockBegin
  2
*Paper_Space
 70
0
 10
0.0
 20
0.0
 30
0.0
  3
*Paper_Space
  1

  0
ENDBLK
  5
1D
100
AcDbEntity
  8
0
100
AcDbBlockEnd
  0
ENDSEC
  0
SECTION
  2
ENTITIES
  0
LINE
  5
214
100
AcDbEntity
  8
RACCORDO
100
AcDbLine
 62
7
  6
CONTINUOUS
 10
-10.8026516808
 20
10.7214754742
 11
-7.0816444927
 21
12.7290442184
  0
LINE
  5
215
100
AcDbEntity
  8
ASSI
100
AcDbLine
 62
7
  6
CONTINUOUS
 10
-10.8026516808
 20
10.7214754742
 11
-7.0816444927
 21
12.7290442184
  0
LINE
  5
216
100
AcDbEntity
  8
RACCORDO
100
AcDbLine
 62
253
  6
CONTINUOUS
 10
-10.6870309044
 20
10.7163860431
 11
-6.9672262449
 21
12.7233059955
  0
LINE
  5
217
100
AcDbEntity
  8
ASSI
100
AcDbLine
 62
253
  6
CONTINUOUS
 10
-10.6870309044
 20
10.7163860431
 11
-6.9672262449
 21
12.7233059955
  0
LINE
  5
218
100
AcDbEntity
  8
RACCORDO
100
AcDbLine
 62
7
  6
CONTINUOUS
 10
6.9665736468
 20
-12.5933188677
 11
9.3659913213
 21
-11.9440516282
  0
LINE
  5
219
100
AcDbEntity
  8
ASSI
100
AcDbLine
 62
7
  6
CONTINUOUS
 10
6.9665736468
 20
-12.5933188677
 11
9.3659913213
 21
-11.9440516282
  0
LINE
  5
21A
100
AcDbEntity
  8
RACCORDO
100
AcDbLine
 62
253
  6
CONTINUOUS
 10
7.0749382529
 20
-12.441915163
 11
9.4495824116
 21
-11.7993514802
  0
LINE
  5
21B
100
AcDbEntity
  8
ASSI
100
AcDbLine
 62
253
  6
CONTINUOUS
 10
7.0749382529
 20
-12.441915163
 11
9.4495824116
 21
-11.7993514802
  0
LINE
  5
21C
100
AcDbEntity
  8
ASSI
100
AcDbLine
 62
7
  6
CONTINUOUS
 10
6.9591684275
 20
-12.595267032
 11
6.9662991247
 21
-12.593381073
  0
LINE
  5
21D
100
AcDbEntity
  8
RACCORDO
100
AcDbLine
 62
7
  6
CONTINUOUS
 10
6.9530296173
 20
-12.596828681
 11
6.9664762241
 21
-12.5933334724
  0
LINE
  5
21E
100
AcDbEntity
  8
DRAFT
100
AcDbLine
 62
7
  6
CONTINUOUS
 10
-4.4707220721
 20
11.4750539091
 11
-6.4064509339
 21
10.2762484075
  0
LINE
  5
21F
100
AcDbEntity
  8
ASSI
100
AcDbLine
 62
7
  6
CONTINUOUS
 10
-4.4707220721
 20
11.4750539091
 11
-6.4064509339
 21
10.2762484075
  0
LINE
  5
220
100
AcDbEntity
  8
DRAFT
100
AcDbLine
 62
7
  6
CONTINUOUS
 10
-4.4707220721
 20
10.4872196254
 11
-5.5239079563
 21
9.8349769187
  0
LINE
  5
221
100
AcDbEntity
  8
ASSI
100
AcDbLine
 62
7
  6
CONTINUOUS
 10
-4.4707220721
 20
10.4872196254
 11
-5.5239079563
 21
9.8349769187
  0
LWPOLYLINE
  5
222
100
AcDbEntity
  8
ASSI
100
AcDbPolyline
 62
7
  6
CONTINUOUS
 90
10
 70
0
 10
-10.6948719147
 20
-3.5947342521
 10
-10.6828105474
 20
-3.6675162096
 10
-10.6649824623
 20
-3.7368774427
 10
-10.6414968852
 20
-3.8023419891
 10
-10.6127058171
 20
-3.863096377
 10
-10.5789916072
 20
-3.9186698847
 10
-10.5405737168
 20
-3.9690276079
 10
-10.497762074
 20
-4.0139349813
 10
-10.4510049327
 20
-4.0530465801
 10
-10.4008075475
 20
-4.0861214714
  0
LWPOLYLINE
  5
223
100
AcDbEntity
  8
RACCORDO
100
AcDbPolyline
 62
7
  6
CONTINUOUS
 90
12
 70
0
 10
-10.7003063907
 20
-3.5352508661
 10
-10.6938267333
 20
-3.6029029064
 10
-10.6827426931
 20
-3.6678387813
 10
-10.6670845822
 20
-3.7298986423
 10
-10.6469461014
 20
-3.7887985666
 10
-10.6225340471
 20
-3.8440794682
 10
-10.594040987
 20
-3.8954678541
 10
-10.5616204796
 20
-3.9428454039
 10
-10.5255501336
 20
-3.9859446439
 10
-10.4861393304
 20
-4.0245198401
 10
-10.4437038654
 20
-4.058381402
 10
-10.3986681602
 20
-4.087355119
  0
LINE
  5
224
100
AcDbEntity
  8
RACCORDO
100
AcDbLine
 62
7
  6
CONTINUOUS
 10
-10.7015919095
 20
-3.5075106636
 11
-10.7003063907
 21
-3.5352508661
  0
LWPOLYLINE
  5
225
100
AcDbEntity
  8
ASSI
100
AcDbPolyline
 62
7
  6
CONTINUOUS
 90
3
 70
0
 10
-10.7015930077
 20
-3.5074761344
 10
-10.7011651026
 20
-3.5187146483
 10
-10.6948719147
 20
-3.5947342521
  0
LINE
  5
226
100
AcDbEntity
  8
ASSI
100
AcDbLine
 62
7
  6
CONTINUOUS
 10
-10.7476117066
 20
-2.0069687412
 11
-10.7015970559
 21
-3.5075376748
  0
LWPOLYLINE
  5
227
100
AcDbEntity
  8
ASSI
100
AcDbPolyline
 62
7
  6
CONTINUOUS
 90
8
 70
0
 10
-10.929842407
 20
8.9821872679
 10
-10.9202000142
 20
7.4020460696
 10
-10.9050806682
 20
5.8248033255
 10
-10.884484595
 20
4.2504918107
 10
-10.8584121815
 20
2.679138805
 10
-10.82686382
 20
1.110769802
 10
-10.7898400003
 20
-0.4545874878
 10
-10.7476117066
 20
-2.0069687412
  0
LINE
  5
228
100
AcDbEntity
  8
ASSI
100
AcDbLine
 62
7
  6
CONTINUOUS
 10
-10.9339455876
 20
10.5011952243
 11
-10.929842407
 21
8.9821872679
  0
LWPOLYLINE
  5
229
100
AcDbEntity
  8
RACCORDO
100
AcDbPolyline
 62
7
  6
CONTINUOUS
 90
10
 70
0
 10
-10.9339455876
 20
10.5011952237
 10
-10.929762216
 20
8.9639006694
 10
-10.9200999869
 20
7.3893143077
 10
-10.9049990506
 20
5.8176064067
 10
-10.8844596314
 20
4.2488093686
 10
-10.8584821124
 20
2.682950185
 10
-10.827066882
 20
1.1200541141
 10
-10.790214424
 20
-0.4398514334
 10
-10.7479255572
 20
-1.9967338583
 10
-10.701597056
 20
-3.5075376741
  0
LWPOLYLINE
  5
22A
100
AcDbEntity
  8
RACCORDO
100
AcDbPolyline
 62
7
  6
CONTINUOUS
 90
9
 70
0
 10
6.5491781182
 20
-12.5621632595
 10
6.5943013866
 20
-12.58143135
 10
6.6416764481
 20
-12.5967529518
 10
6.690839834
 20
-12.607859165
 10
6.7415102309
 20
-12.6146191172
 10
6.7934256135
 20
-12.6169303218
 10
6.8461626567
 20
-12.6147240723
 10
6.8994287986
 20
-12.6080110507
 10
6.9530296173
 20
-12.596828681
  0
LWPOLYLINE
  5
22B
100
AcDbEntity
  8
ASSI
100
AcDbPolyline
 62
7
  6
CONTINUOUS
 90
8
 70
0
 10
6.5405839239
 20
-12.557929304
 10
6.5580859822
 20
-12.5663530395
 10
6.61837089
 20
-12.5898107255
 10
6.6823584928
 20
-12.6062725657
 10
6.7493043223
 20
-12.6152576582
 10
6.8181711518
 20
-12.6164556951
 10
6.8882747417
 20
-12.6097824326
 10
6.9585518199
 20
-12.5953932817
  0
LINE
  5
22C
100
AcDbEntity
  8
RACCORDO
100
AcDbLine
 62
7
  6
CONTINUOUS
 10
6.5420288152
 20
-12.5586553705
 11
6.5491781182
 21
-12.5621632595
  0
LINE
  5
22D
100
AcDbEntity
  8
RACCORDO
100
AcDbLine
 62
7
  6
CONTINUOUS
 10
6.5419042467
 20
-12.558604718
 11
6.5419793272
 21
-12.5586422483
  0
LINE
  5
22E
100
AcDbEntity
  8
RACCORDO
100
AcDbLine
 62
7
  6
CONTINUOUS
 10
-10.3724271444
 20
-4.1014390225
 11
6.5419336084
 21
-12.5586193989
  0
LINE
  5
22F
100
AcDbEntity
  8
ASSI
100
AcDbLine
 62
7
  6
CONTINUOUS
 10
-10.3724543127
 20
-4.1014254383
 11
6.5419336084
 21
-12.5586193989
  0
LINE
  5
230
100
AcDbEntity
  8
RACCORDO
100
AcDbLine
 62
253
  6
CONTINUOUS
 10
-10.6283655835
 20
-3.5963535357
 11
6.279172552
 21
-12.0501226034
  0
LINE
  5
231
100
AcDbEntity
  8
ASSI
100
AcDbLine
 62
253
  6
CONTINUOUS
 10
-10.6283655835
 20
-3.5963535357
 11
6.279172552
 21
-12.0501226034
  0
LINE
  5
232
100
AcDbEntity
  8
RACCORDO
100
AcDbLine
 62
7
  6
CONTINUOUS
 10
-10.3986681602
 20
-4.087355119
 11
-10.3718099391
 21
-4.1017354807
  0
LINE
  5
233
100
AcDbEntity
  8
ASSI
100
AcDbLine
 62
7
  6
CONTINUOUS
 10
-10.4008075475
 20
-4.0861214714
 11
-10.3725120297
 21
-4.1013848882
  0
LINE
  5
234
100
AcDbEntity
  8
RACCORDO
100
AcDbLine
 62
7
  6
CONTINUOUS
 10
9.2728057153
 20
-12.1786142682
 11
9.001135687
 21
-12.0427792541
  0
LINE
  5
235
100
AcDbEntity
  8
ASSI
100
AcDbLine
 62
7
  6
CONTINUOUS
 10
9.2728057153
 20
-12.1786142682
 11
9.001135687
 21
-12.0427792541
  0
LINE
  5
236
100
AcDbEntity
  8
DRAFT
100
AcDbLine
 62
7
  6
CONTINUOUS
 10
-2.3242114239
 20
4.0864047508
 11
-2.7758283462
 21
3.8479918687
  0
LINE
  5
237
100
AcDbEntity
  8
DRAFT
100
AcDbLine
 62
7
  6
CONTINUOUS
 10
-4.4707220721
 20
11.4750539091
 11
-4.4707220721
 21
10.4872196254
  0
LINE
  5
238
100
AcDbEntity
  8
ASSI
100
AcDbLine
 62
7
  6
CONTINUOUS
 10
-4.4707220721
 20
11.4750539091
 11
-4.4707220721
 21
10.4872196254
  0
LINE
  5
239
100
AcDbEntity
  8
DRAFT
100
AcDbLine
 62
7
  6
CONTINUOUS
 10
-1.2235579036
 20
1.9128587951
 11
-1.6964853965
 21
1.6893059676
  0
LINE
  5
23A
100
AcDbEntity
  8
CURVE
100
AcDbLine
 62
253
  6
CONTINUOUS
 10
0.5415789565
 20
-3.6859117035
 11
-5.1859859711
 21
-0.8221292397
  0
LINE
  5
23B
100
AcDbEntity
  8
DRAFT
100
AcDbLine
 62
7
  6
CONTINUOUS
 10
7.567722781
 20
5.4558314826
 11
5.2608109557
 21
4.4426174627
  0
LINE
  5
23C
100
AcDbEntity
  8
ASSI
100
AcDbLine
 62
7
  6
CONTINUOUS
 10
7.567722781
 20
5.4558314826
 11
5.2608109557
 21
4.4426174627
  0
LINE
  5
23D
100
AcDbEntity
  8
RACCORDO
100
AcDbLine
 62
253
  6
CONTINUOUS
 10
10.0642269538
 20
4.2075793962
 11
6.2122564675
 21
2.2667423571
  0
LINE
  5
23E
100
AcDbEntity
  8
ASSI
100
AcDbLine
 62
253
  6
CONTINUOUS
 10
10.0642269538
 20
4.2075793962
 11
6.2122564675
 21
2.2667423571
  0
LINE
  5
23F
100
AcDbEntity
  8
RACCORDO
100
AcDbLine
 62
253
  6
CONTINUOUS
 10
10.2409767252
 20
3.9027311345
 11
6.3890062403
 21
1.9618940962
  0
LINE
  5
240
100
AcDbEntity
  8
ASSI
100
AcDbLine
 62
253
  6
CONTINUOUS
 10
10.2409767252
 20
3.9027311345
 11
6.3890062403
 21
1.9618940962
  0
LINE
  5
241
100
AcDbEntity
  8
RACCORDO
100
AcDbLine
 62
7
  6
CONTINUOUS
 10
10.5287564755
 20
3.1735772743
 11
10.4530447011
 21
3.1386110678
  0
LINE
  5
242
100
AcDbEntity
  8
ASSI
100
AcDbLine
 62
7
  6
CONTINUOUS
 10
10.5287564755
 20
3.1735772743
 11
10.4530447011
 21
3.1386110678
  0
LINE
  5
243
100
AcDbEntity
  8
RACCORDO
100
AcDbLine
 62
253
  6
CONTINUOUS
 10
6.0385650995
 20
1.9631427439
 11
-10.8607222726
 21
10.4127864299
  0
LINE
  5
244
100
AcDbEntity
  8
ASSI
100
AcDbLine
 62
253
  6
CONTINUOUS
 10
6.0385650995
 20
1.9631427439
 11
-10.8607222726
 21
10.4127864299
  0
LINE
  5
245
100
AcDbEntity
  8
RACCORDO
100
AcDbLine
 62
253
  6
CONTINUOUS
 10
6.2122564675
 20
2.2667423571
 11
-10.6870309044
 21
10.7163860431
  0
LINE
  5
246
100
AcDbEntity
  8
ASSI
100
AcDbLine
 62
253
  6
CONTINUOUS
 10
6.2122564675
 20
2.2667423571
 11
-10.6870309044
 21
10.7163860431
  0
LINE
  5
247
100
AcDbEntity
  8
DRAFT
100
AcDbLine
 62
7
  6
CONTINUOUS
 10
5.2608109557
 20
4.4426174627
 11
-6.4064509339
 21
10.2762484075
  0
LINE
  5
248
100
AcDbEntity
  8
ASSI
100
AcDbLine
 62
7
  6
CONTINUOUS
 10
5.2608109557
 20
4.4426174627
 11
-6.4064509339
 21
10.2762484075
  0
LINE
  5
249
100
AcDbEntity
  8
RACCORDO
100
AcDbLine
 62
253
  6
CONTINUOUS
 10
10.4530447011
 20
3.1386110678
 11
10.2462858134
 21
3.2419905117
  0
LINE
  5
24A
100
AcDbEntity
  8
ASSI
100
AcDbLine
 62
253
  6
CONTINUOUS
 10
10.4530447011
 20
3.1386110678
 11
10.2462858134
 21
3.2419905117
  0
LINE
  5
24B
100
AcDbEntity
  8
DRAFT
100
AcDbLine
 62
7
  6
CONTINUOUS
 10
10.5287564755
 20
3.1735772743
 11
10.2409767252
 21
3.3174671495
  0
LINE
  5
24C
100
AcDbEntity
  8
ASSI
100
AcDbLine
 62
7
  6
CONTINUOUS
 10
10.5287564755
 20
3.1735772743
 11
10.2409767252
 21
3.3174671495
  0
LINE
  5
24D
100
AcDbEntity
  8
RACCORDO
100
AcDbLine
 62
7
  6
CONTINUOUS
 10
10.0642269538
 20
4.2075793962
 11
7.567722781
 21
5.4558314826
  0
LINE
  5
24E
100
AcDbEntity
  8
ASSI
100
AcDbLine
 62
7
  6
CONTINUOUS
 10
10.0642269538
 20
4.2075793962
 11
7.567722781
 21
5.4558314826
  0
LINE
  5
24F
100
AcDbEntity
  8
RACCORDO
100
AcDbLine
 62
7
  6
CONTINUOUS
 10
-4.4707220721
 20
11.4750539091
 11
-6.9672262449
 21
12.7233059955
  0
LINE
  5
250
100
AcDbEntity
  8
ASSI
100
AcDbLine
 62
7
  6
CONTINUOUS
 10
-4.4707220721
 20
11.4750539091
 11
-6.9672262449
 21
12.7233059955
  0
LINE
  5
251
100
AcDbEntity
  8
RACCORDO
100
AcDbLine
 62
7
  6
CONTINUOUS
 10
9.4495824116
 20
-11.7993514802
 11
9.4495824116
 21
-12.0505209962
  0
LINE
  5
252
100
AcDbEntity
  8
ASSI
100
AcDbLine
 62
7
  6
CONTINUOUS
 10
9.4495824116
 20
-11.7993514802
 11
9.4495824116
 21
-12.0505209962
  0
LINE
  5
253
100
AcDbEntity
  8
RACCORDO
100
AcDbLine
 62
7
  6
CONTINUOUS
 10
10.2409767252
 20
3.2959832871
 11
10.2409767252
 21
3.9027311345
  0
LINE
  5
254
100
AcDbEntity
  8
ASSI
100
AcDbLine
 62
7
  6
CONTINUOUS
 10
10.2409767252
 20
3.2959832871
 11
10.2409767252
 21
3.9027311345
  0
LINE
  5
255
100
AcDbEntity
  8
DRAFT
100
AcDbLine
 62
7
  6
CONTINUOUS
 10
10.5287564755
 20
3.1735772743
 11
10.5287564755
 21
-5.1655209558
  0
LINE
  5
256
100
AcDbEntity
  8
ASSI
100
AcDbLine
 62
7
  6
CONTINUOUS
 10
10.5287564755
 20
3.1735772743
 11
10.5287564755
 21
-5.1655209558
  0
LINE
  5
257
100
AcDbEntity
  8
RACCORDO
100
AcDbLine
 62
7
  6
CONTINUOUS
 10
9.9726092249
 20
-11.8034747396
 11
10.5287564755
 21
-5.1655209558
  0
LINE
  5
258
100
AcDbEntity
  8
ASSI
100
AcDbLine
 62
7
  6
CONTINUOUS
 10
9.9726092249
 20
-11.8034747396
 11
10.5287564755
 21
-5.1655209558
  0
LINE
  5
259
100
AcDbEntity
  8
RACCORDO
100
AcDbLine
 62
253
  6
CONTINUOUS
 10
9.4495824116
 20
-12.0505209962
 11
9.9726092249
 21
-11.8034747396
  0
LINE
  5
25A
100
AcDbEntity
  8
ASSI
100
AcDbLine
 62
253
  6
CONTINUOUS
 10
9.4495824116
 20
-12.0505209962
 11
9.9726092249
 21
-11.8034747396
  0
LINE
  5
25B
100
AcDbEntity
  8
RACCORDO
100
AcDbLine
 62
7
  6
CONTINUOUS
 10
9.3827142329
 20
-12.1866445056
 11
9.891031239
 21
-11.9465462729
  0
LINE
  5
25C
100
AcDbEntity
  8
ASSI
100
AcDbLine
 62
7
  6
CONTINUOUS
 10
9.3827142329
 20
-12.1866445056
 11
9.891031239
 21
-11.9465462729
  0
ARC
  5
25D
100
AcDbEntity
  8
RACCORDO
100
AcDbCircle
 62
253
  6
CONTINUOUS
 10
437.4515943735
 20
10.8389699368
 40
448.3125442873
100
AcDbArc
 50
180.0544676289
 51
181.833567904
  0
ARC
  5
25E
100
AcDbEntity
  8
ASSI
100
AcDbCircle
 62
253
  6
CONTINUOUS
 10
437.4515943735
 20
10.8389699368
 40
448.3125442873
100
AcDbArc
 50
180.0544676289
 51
181.833567904
  0
ARC
  5
25F
100
AcDbEntity
  8
RACCORDO
100
AcDbCircle
 62
253
  6
CONTINUOUS
 10
437.0155708266
 20
2.3518699238
 40
430.9770748538
100
AcDbArc
 50
180.0516789074
 51
181.915013677
  0
ARC
  5
260
100
AcDbEntity
  8
ASSI
100
AcDbCircle
 62
253
  6
CONTINUOUS
 10
437.0155708266
 20
2.3518699238
 40
430.9770748538
100
AcDbArc
 50
180.0516789074
 51
181.915013677
  0
ARC
  5
261
100
AcDbEntity
  8
RACCORDO
100
AcDbCircle
 62
253
  6
CONTINUOUS
 10
437.1082909089
 20
2.350393784
 40
430.7193537598
100
AcDbArc
 50
180.0516795677
 51
181.9150326979
  0
ARC
  5
262
100
AcDbEntity
  8
ASSI
100
AcDbCircle
 62
253
  6
CONTINUOUS
 10
437.1082909089
 20
2.350393784
 40
430.7193537598
100
AcDbArc
 50
180.0516795677
 51
181.9150326979
  0
ARC
  5
263
100
AcDbEntity
  8
RACCORDO
100
AcDbCircle
 62
7
  6
CONTINUOUS
 10
-1.7754274183
 20
2.7086171169
 40
1.1007054639
100
AcDbArc
 50
237.1726665365
 51
240.9484598453
  0
ARC
  5
264
100
AcDbEntity
  8
RACCORDO
100
AcDbCircle
 62
7
  6
CONTINUOUS
 10
-1.8088346098
 20
2.6490704789
 40
1.0324284262
100
AcDbArc
 50
240.9644641986
 51
243.4252663163
  0
ARC
  5
265
100
AcDbEntity
  8
DRAFT
100
AcDbCircle
 62
7
  6
CONTINUOUS
 10
-1.6712571795
 20
2.3442881776
 40
0.7026651541
100
AcDbArc
 50
259.551408176
 51
262.8975864568
  0
ARC
  5
266
100
AcDbEntity
  8
ASSI
100
AcDbCircle
 62
7
  6
CONTINUOUS
 10
-1.6712571795
 20
2.3442881776
 40
0.7026651541
100
AcDbArc
 50
259.551408176
 51
262.8975864568
  0
ARC
  5
267
100
AcDbEntity
  8
DRAFT
100
AcDbCircle
 62
7
  6
CONTINUOUS
 10
-2.3249900171
 20
3.516557664
 40
0.6136749686
100
AcDbArc
 50
142.6964001419
 51
148.683328854
  0
ARC
  5
268
100
AcDbEntity
  8
RACCORDO
100
AcDbCircle
 62
253
  6
CONTINUOUS
 10
-10.2062957919
 20
-3.7706517988
 40
0.3701087874
100
AcDbArc
 50
241.2341444112
 51
243.3328122743
  0
ARC
  5
269
100
AcDbEntity
  8
ASSI
100
AcDbCircle
 62
253
  6
CONTINUOUS
 10
-10.2063065808
 20
-3.7706732668
 40
0.370084766
100
AcDbArc
 50
241.2820495873
 51
243.309370668
  0
ARC
  5
26A
100
AcDbEntity
  8
ASSI
100
AcDbCircle
 62
7
  6
CONTINUOUS
 10
-10.6839683241
 20
10.5014728273
 40
0.2499729098
100
AcDbArc
 50
118.3452333313
 51
180.0617871985
  0
ARC
  5
26B
100
AcDbEntity
  8
RACCORDO
100
AcDbCircle
 62
7
  6
CONTINUOUS
 10
-10.6842055663
 20
10.5020693695
 40
0.2493361602
100
AcDbArc
 50
118.3623369933
 51
180.0790761874
  0
SPLINE
  5
26C
100
AcDbEntity
  8
RACCORDO
100
AcDbSpline
 62
7
  6
CONTINUOUS
 70
0
 71
3
 72
10
 73
6
 74
4
 42
0.0000001
 43
0.0000001
 44
0.0000000001
 12
0.5309507646
 22
-0.2654753776
 32
0.0
 13
0.5366819963
 23
0.2536896016
 33
0.0
 40
0.0
 40
0.0
 40
0.0
 40
0.0
 40
0.3683960887
 40
0.69741576
 40
1.0
 40
1.0
 40
1.0
 40
1.0
 10
-2.270706684
 20
1.7257164611
 30
0.0
 10
-2.2055066224
 20
1.6931164308
 30
0.0
 10
-2.0744213694
 20
1.6445368043
 30
0.0
 10
-1.8740736998
 20
1.6303343933
 30
0.0
 10
-1.7506157791
 20
1.6637185335
 30
0.0
 10
-1.6964852745
 20
1.6893060253
 30
0.0
 11
-2.270706684
 21
1.7257164611
 31
0.0
 11
-2.0646093373
 21
1.652585252
 31
0.0
 11
-1.8696138926
 21
1.6414524659
 31
0.0
 11
-1.6964852745
 21
1.6893060253
 31
0.0
  0
SPLINE
  5
26D
100
AcDbEntity
  8
RACCORDO
100
AcDbSpline
 62
7
  6
CONTINUOUS
 70
0
 71
3
 72
14
 73
10
 74
8
 42
0.0000001
 43
0.0000001
 44
0.0000000001
 12
-2.1334127319
 22
-1.1262489471
 32
0.0
 13
2.0328953942
 23
-1.3102034695
 33
0.0
 40
0.0
 40
0.0
 40
0.0
 40
0.0
 40
0.1126354234
 40
0.2431064815
 40
0.3946442942
 40
0.5607875776
 40
0.7319683022
 40
0.897607205
 40
1.0
 40
1.0
 40
1.0
 40
1.0
 10
-2.7758281873
 20
3.8479919525
 30
0.0
 10
-2.8559274694
 20
3.8057067769
 30
0.0
 10
-3.0047105869
 20
3.6642673741
 30
0.0
 10
-3.112500975
 20
3.3568571061
 30
0.0
 10
-3.1138046554
 20
2.9916619319
 30
0.0
 10
-3.0165518373
 20
2.6072389505
 30
0.0
 10
-2.8343274136
 20
2.2426565125
 30
0.0
 10
-2.6111539325
 20
1.9654875694
 30
0.0
 10
-2.4415145338
 20
1.8284038858
 30
0.0
 10
-2.37212992
 20
1.7836854207
 30
0.0
 11
-2.7758281873
 21
3.8479919525
 31
0.0
 11
-2.976110527
 21
3.6643554276
 31
0.0
 11
-3.0904356128
 21
3.371098004
 31
0.0
 11
-3.099171629
 21
3.0056259403
 31
0.0
 11
-3.0041856626
 21
2.6162323175
 31
0.0
 11
-2.8196334581
 21
2.2468007943
 31
0.0
 11
-2.5662438574
 21
1.9378193839
 31
0.0
 11
-2.37212992
 21
1.7836854207
 31
0.0
  0
SPLINE
  5
26E
100
AcDbEntity
  8
RACCORDO
100
AcDbSpline
 62
253
  6
CONTINUOUS
 70
0
 71
3
 72
20
 73
16
 74
14
 42
0.0000001
 43
0.0000001
 44
0.0000000001
 12
2.3096192904
 22
1.1011434821
 32
0.0
 13
-2.2752317028
 23
1.13761587
 33
0.0
 40
0.0
 40
0.0
 40
0.0
 40
0.0
 40
0.0913253166
 40
0.1944753298
 40
0.300071473
 40
0.4040895859
 40
0.5028558466
 40
0.5939847407
 40
0.6762969559
 40
0.7496288086
 40
0.81425267
 40
0.8708004493
 40
0.9200563031
 40
0.9628161743
 40
1.0
 40
1.0
 40
1.0
 40
1.0
 10
-1.6964931202
 20
1.6893362686
 30
0.0
 10
-1.6261842159
 20
1.7228570277
 30
0.0
 10
-1.4952311302
 20
1.8352757665
 30
0.0
 10
-1.3931309481
 20
2.0751053754
 30
0.0
 10
-1.3646639644
 20
2.3411561645
 30
0.0
 10
-1.3906952471
 20
2.6027471691
 30
0.0
 10
-1.453747715
 20
2.844676477
 30
0.0
 10
-1.5401753897
 20
3.0592823776
 30
0.0
 10
-1.6396482292
 20
3.2438158265
 30
0.0
 10
-1.7446958602
 20
3.3986116329
 30
0.0
 10
-1.8501421999
 20
3.5257422665
 30
0.0
 10
-1.952481648
 20
3.6280593146
 30
0.0
 10
-2.0494729319
 20
3.708719388
 30
0.0
 10
-2.1398321943
 20
3.7709134565
 30
0.0
 10
-2.1990187959
 20
3.8041822047
 30
0.0
 10
-2.2272194023
 20
3.8182825081
 30
0.0
 11
-1.6964931202
 21
1.6893362686
 31
0.0
 11
-1.5174794474
 21
1.837925935
 31
0.0
 11
-1.4066669438
 21
2.0757702965
 31
0.0
 11
-1.3738524443
 21
2.3423724466
 31
0.0
 11
-1.3980809686
 21
2.6058607086
 31
0.0
 11
-1.4606761095
 21
2.8491784455
 31
0.0
 11
-1.5470727464
 21
3.0642891809
 31
0.0
 11
-1.6464813362
 21
3.248571252
 31
0.0
 11
-1.751391166
 21
3.4028155752
 31
0.0
 11
-1.8565317592
 21
3.5291852598
 31
0.0
 11
-1.9584432276
 21
3.6307016239
 31
0.0
 11
-2.0549403915
 21
3.7106233216
 31
0.0
 11
-2.1446691256
 21
3.7721058189
 31
0.0
 11
-2.2272194023
 21
3.8182825081
 31
0.0
  0
SPLINE
  5
26F
100
AcDbEntity
  8
RACCORDO
100
AcDbSpline
 62
253
  6
CONTINUOUS
 70
0
 71
3
 72
8
 73
4
 74
2
 42
0.0000001
 43
0.0000001
 44
0.0000000001
 12
0.0835988337
 22
-0.0417994168
 32
0.0
 13
0.0882735387
 23
-0.032464483
 33
0.0
 40
0.0
 40
0.0
 40
0.0
 40
0.0
 40
1.0
 40
1.0
 40
1.0
 40
1.0
 10
-2.2962526662
 20
1.7703429348
 30
0.0
 10
-2.2683863883
 20
1.7564097959
 30
0.0
 10
-2.239655081
 20
1.7437845917
 30
0.0
 10
-2.2102305681
 20
1.7329630974
 30
0.0
 11
-2.2962526662
 21
1.7703429348
 31
0.0
 11
-2.2102305681
 21
1.7329630974
 31
0.0
  0
SPLINE
  5
270
100
AcDbEntity
  8
RACCORDO
100
AcDbSpline
 62
253
  6
CONTINUOUS
 70
0
 71
3
 72
10
 73
6
 74
4
 42
0.0000001
 43
0.0000001
 44
0.0000000001
 12
0.4497329471
 22
-0.165398916
 32
0.0
 13
0.3975809252
 23
0.2706053485
 33
0.0
 40
0.0
 40
0.0
 40
0.0
 40
0.0
 40
0.3604798126
 40
0.8430695357
 40
1.0
 40
1.0
 40
1.0
 40
1.0
 10
-2.2102305681
 20
1.7329630974
 30
0.0
 10
-2.1561906852
 20
1.7130887739
 30
0.0
 10
-2.024336973
 20
1.6808363526
 30
0.0
 10
-1.8596757739
 20
1.7019765797
 30
0.0
 10
-1.7701782497
 20
1.7522012426
 30
0.0
 10
-1.7493807299
 20
1.7663566503
 30
0.0
 11
-2.2102305681
 21
1.7329630974
 31
0.0
 11
-2.0421608569
 21
1.6946627531
 31
0.0
 11
-1.8150532538
 21
1.7297624035
 31
0.0
 11
-1.7493807299
 21
1.7663566503
 31
0.0
  0
SPLINE
  5
271
100
AcDbEntity
  8
RACCORDO
100
AcDbSpline
 62
253
  6
CONTINUOUS
 70
0
 71
3
 72
20
 73
16
 74
14
 42
0.0000001
 43
0.0000001
 44
0.0000000001
 12
1.9147547356
 22
1.3032387614
 32
0.0
 13
-2.0512188492
 23
1.0256094246
 33
0.0
 40
0.0
 40
0.0
 40
0.0
 40
0.0
 40
0.0662565476
 40
0.172252553
 40
0.2807617212
 40
0.3876493116
 40
0.4891401078
 40
0.5827829581
 40
0.667365994
 40
0.7427209878
 40
0.8091277958
 40
0.8672357412
 40
0.9178505631
 40
0.9617902467
 40
1.0
 40
1.0
 40
1.0
 40
1.0
 10
-1.7493807299
 20
1.7663566503
 30
0.0
 10
-1.7070923838
 20
1.7951393506
 30
0.0
 10
-1.6096642725
 20
1.8896477071
 30
0.0
 10
-1.523543332
 20
2.0919535548
 30
0.0
 10
-1.4971700709
 20
2.3384260052
 30
0.0
 10
-1.5212864923
 20
2.5807674549
 30
0.0
 10
-1.5796982235
 20
2.8048940496
 30
0.0
 10
-1.6597656822
 20
3.003708
 30
0.0
 10
-1.7519182207
 20
3.1746627168
 30
0.0
 10
-1.8492356336
 20
3.3180681364
 30
0.0
 10
-1.9469225576
 20
3.4358441742
 30
0.0
 10
-2.0417311938
 20
3.5306326797
 30
0.0
 10
-2.1315856235
 20
3.6053574387
 30
0.0
 10
-2.2152956494
 20
3.6629755627
 30
0.0
 10
-2.2701271441
 20
3.6937963456
 30
0.0
 10
-2.2962526662
 20
3.7068591066
 30
0.0
 11
-1.7493807299
 21
1.7663566503
 31
0.0
 11
-1.6387388424
 21
1.8722251153
 31
0.0
 11
-1.5360823553
 21
2.0925691917
 31
0.0
 11
-1.5056826918
 21
2.3395529637
 31
0.0
 11
-1.5281284555
 21
2.5836519257
 31
0.0
 11
-1.5861168288
 21
2.8090646643
 31
0.0
 11
-1.6661553997
 21
3.0083463389
 31
0.0
 11
-1.758248496
 21
3.179068172
 31
0.0
 11
-1.8554382395
 21
3.3219627101
 31
0.0
 11
-1.952841903
 21
3.4390338372
 31
0.0
 11
-2.0472541607
 21
3.5330805028
 31
0.0
 11
-2.1366506493
 21
3.607121352
 31
0.0
 11
-2.219776733
 21
3.6640801478
 31
0.0
 11
-2.2962526662
 21
3.7068591066
 31
0.0
  0
SPLINE
  5
272
100
AcDbEntity
  8
RACCORDO
100
AcDbSpline
 62
253
  6
CONTINUOUS
 70
0
 71
3
 72
22
 73
18
 74
16
 42
0.0000001
 43
0.0000001
 44
0.0000000001
 12
-2.5607350466
 22
1.2803675233
 32
0.0
 13
2.5607350466
 23
-1.2803675233
 33
0.0
 40
0.0
 40
0.0
 40
0.0
 40
0.0
 40
0.0926031929
 40
0.1728708975
 40
0.252045775
 40
0.3369516027
 40
0.4238704212
 40
0.5094903106
 40
0.590787205
 40
0.6657976871
 40
0.733551015
 40
0.7939124321
 40
0.8471061098
 40
0.8936521728
 40
0.9341960337
 40
0.9693929376
 40
1.0
 40
1.0
 40
1.0
 40
1.0
 10
-2.2962526662
 20
3.7068591066
 30
0.0
 10
-2.3752967467
 20
3.7463811469
 30
0.0
 10
-2.5358482619
 20
3.8005163245
 30
0.0
 10
-2.7853715619
 20
3.7684796362
 30
0.0
 10
-2.9728461579
 20
3.6110337271
 30
0.0
 10
-3.0689627494
 20
3.3852482751
 30
0.0
 10
-3.0953359255
 20
3.1387756874
 30
0.0
 10
-3.0712196349
 20
2.8964342233
 30
0.0
 10
-3.0128076937
 20
2.6723076838
 30
0.0
 10
-2.9327401525
 20
2.4734937835
 30
0.0
 10
-2.8405874708
 20
2.3025391384
 30
0.0
 10
-2.7432699685
 20
2.1591337666
 30
0.0
 10
-2.6455829686
 20
2.0413577633
 30
0.0
 10
-2.5507742506
 20
1.9465693183
 30
0.0
 10
-2.4609198143
 20
1.8718445244
 30
0.0
 10
-2.3772097024
 20
1.8142264855
 30
0.0
 10
-2.322378192
 20
1.7834056977
 30
0.0
 10
-2.2962526662
 20
1.7703429348
 30
0.0
 11
-2.2962526662
 21
3.7068591066
 31
0.0
 11
-2.5503432904
 21
3.7825398808
 31
0.0
 11
-2.7774524011
 21
3.7474394767
 31
0.0
 11
-2.9537667535
 21
3.6049767943
 31
0.0
 11
-3.0564236548
 21
3.3846325109
 31
0.0
 11
-3.0868233429
 21
3.1376487266
 31
0.0
 11
-3.0643776104
 21
2.893549749
 31
0.0
 11
-3.0063891061
 21
2.6681370759
 31
0.0
 11
-2.9263504221
 21
2.4688554578
 31
0.0
 11
-2.8342572007
 21
2.2981336872
 31
0.0
 11
-2.7370673622
 21
2.1552391967
 31
0.0
 11
-2.6396636185
 21
2.0381681097
 31
0.0
 11
-2.5452512919
 21
1.9441214786
 31
0.0
 11
-2.4558547813
 21
1.8700806403
 31
0.0
 11
-2.3727286193
 21
1.8131218836
 31
0.0
 11
-2.2962526662
 21
1.7703429348
 31
0.0
  0
SPLINE
  5
273
100
AcDbEntity
  8
RACCORDO
100
AcDbSpline
 62
253
  6
CONTINUOUS
 70
0
 71
3
 72
10
 73
6
 74
4
 42
0.0000001
 43
0.0000001
 44
0.0000000001
 12
-0.5066545929
 22
0.2533273006
 32
0.0
 13
-0.5030012107
 23
-0.268775241
 33
0.0
 40
0.0
 40
0.0
 40
0.0
 40
0.0
 40
0.5052042006
 40
0.9431177079
 40
1.0
 40
1.0
 40
1.0
 40
1.0
 10
-2.2272194023
 20
3.8182825081
 30
0.0
 10
-2.3125407452
 20
3.8609431802
 30
0.0
 10
-2.4858456629
 20
3.9193637447
 30
0.0
 10
-2.6817222333
 20
3.8942305789
 30
0.0
 10
-2.7662362833
 20
3.8529857671
 30
0.0
 10
-2.7757735705
 20
3.8478895832
 30
0.0
 11
-2.2272194023
 21
3.8182825081
 31
0.0
 11
-2.501490564
 21
3.8999667189
 31
0.0
 11
-2.7466406759
 21
3.8620881268
 31
0.0
 11
-2.7757735705
 21
3.8478895832
 31
0.0
  0
SPLINE
  5
274
100
AcDbEntity
  8
DRAFT
100
AcDbSpline
 62
7
  6
CONTINUOUS
 70
0
 71
3
 72
18
 73
14
 74
12
 42
0.0000001
 43
0.0000001
 44
0.0000000001
 12
2.4354104948
 22
1.2891825476
 32
0.0
 13
-2.4531275979
 23
1.226563799
 33
0.0
 40
0.0
 40
0.0
 40
0.0
 40
0.0
 40
0.0586239422
 40
0.1287369961
 40
0.2076364478
 40
0.2955840785
 40
0.3921028696
 40
0.4955278479
 40
0.6017212965
 40
0.7091477205
 40
0.8125165559
 40
0.9106444314
 40
1.0
 40
1.0
 40
1.0
 40
1.0
 10
-1.436697061
 20
1.700137434
 30
0.0
 10
-1.3891059396
 20
1.725329755
 30
0.0
 10
-1.2938340479
 20
1.7984024484
 30
0.0
 10
-1.1876058013
 20
1.9595481094
 30
0.0
 10
-1.1229591129
 20
2.1686769149
 30
0.0
 10
-1.1041579645
 20
2.4102887786
 30
0.0
 10
-1.1310986281
 20
2.6733019469
 30
0.0
 10
-1.202218192
 20
2.9450222428
 30
0.0
 10
-1.3141813554
 20
3.2133352497
 30
0.0
 10
-1.4610996802
 20
3.4641676365
 30
0.0
 10
-1.6366683354
 20
3.6866476346
 30
0.0
 10
-1.8315905371
 20
3.8690474122
 30
0.0
 10
-1.9763795062
 20
3.9632195874
 30
0.0
 10
-2.0494463767
 20
3.9997530226
 30
0.0
 11
-1.436697061
 21
1.700137434
 31
0.0
 11
-1.3084351107
 21
1.797446757
 31
0.0
 11
-1.1999785405
 21
1.9562408608
 31
0.0
 11
-1.1329429863
 21
2.1619917828
 31
0.0
 11
-1.111687014
 21
2.4022656146
 31
0.0
 11
-1.1369162881
 21
2.6657807898
 31
0.0
 11
-1.2077411124
 21
2.9404583472
 31
0.0
 11
-1.3195705547
 21
3.2093885381
 31
0.0
 11
-1.4687201759
 21
3.4634848675
 31
0.0
 11
-1.6450479441
 21
3.6854873462
 31
0.0
 11
-1.8427133483
 21
3.8681377121
 31
0.0
 11
-2.0494463767
 21
3.9997530226
 31
0.0
  0
SPLINE
  5
275
100
AcDbEntity
  8
DRAFT
100
AcDbSpline
 62
7
  6
CONTINUOUS
 70
0
 71
3
 72
10
 73
6
 74
4
 42
0.0000001
 43
0.0000001
 44
0.0000000001
 12
-0.5326592145
 22
0.2663296072
 32
0.0
 13
-0.5408030121
 23
-0.2556892649
 33
0.0
 40
0.0
 40
0.0
 40
0.0
 40
0.0
 40
0.3685097703
 40
0.699068691
 40
1.0
 40
1.0
 40
1.0
 40
1.0
 10
-2.0494463767
 20
3.9997530226
 30
0.0
 10
-2.1148764183
 20
4.0324680434
 30
0.0
 10
-2.2460565822
 20
4.0822738176
 30
0.0
 10
-2.4468472401
 20
4.1003366326
 30
0.0
 10
-2.570976718
 20
4.0684027973
 30
0.0
 10
-2.6252249041
 20
4.0427544956
 30
0.0
 11
-2.0494463767
 21
3.9997530226
 31
0.0
 11
-2.2557307496
 21
4.0746464391
 31
0.0
 11
-2.4520651704
 21
4.0889961603
 31
0.0
 11
-2.6252249041
 21
4.0427544956
 31
0.0
  0
SPLINE
  5
276
100
AcDbEntity
  8
DRAFT
100
AcDbSpline
 62
7
  6
CONTINUOUS
 70
0
 71
3
 72
9
 73
5
 74
3
 42
0.0000001
 43
0.0000001
 44
0.0000000001
 12
-0.2217832588
 22
-0.1048581408
 32
0.0
 13
-0.1487435052
 23
-0.1948431773
 33
0.0
 40
0.0
 40
0.0
 40
0.0
 40
0.0
 40
0.7453588767
 40
1.0
 40
1.0
 40
1.0
 40
1.0
 10
-2.6252249041
 20
4.0427544956
 30
0.0
 10
-2.680327611
 20
4.0167021802
 30
0.0
 10
-2.747451414
 20
3.967275402
 30
0.0
 10
-2.8005034101
 20
3.9050066085
 30
0.0
 10
-2.8131288145
 20
3.8884682467
 30
0.0
 11
-2.6252249041
 21
4.0427544956
 31
0.0
 11
-2.7725725248
 21
3.9358862963
 31
0.0
 11
-2.8131288145
 21
3.8884682467
 31
0.0
  0
SPLINE
  5
277
100
AcDbEntity
  8
DRAFT
100
AcDbSpline
 62
7
  6
CONTINUOUS
 70
0
 71
3
 72
9
 73
5
 74
3
 42
0.0000001
 43
0.0000001
 44
0.0000000001
 12
-0.0393157115
 22
-0.0644858863
 32
0.0
 13
-0.0319772713
 23
-0.0683203875
 33
0.0
 40
0.0
 40
0.0
 40
0.0
 40
0.0
 40
0.8810900114
 40
1.0
 40
1.0
 40
1.0
 40
1.0
 10
-2.8492572259
 20
3.8355260963
 30
0.0
 10
-2.8608041195
 20
3.8165868062
 30
0.0
 10
-2.8728091138
 20
3.7944121008
 30
0.0
 10
-2.8836099334
 20
3.7717006024
 30
0.0
 10
-2.8848774057
 20
3.7689926102
 30
0.0
 11
-2.8492572259
 21
3.8355260963
 31
0.0
 11
-2.8810242562
 21
3.7770942604
 31
0.0
 11
-2.8848774057
 21
3.7689926102
 31
0.0
  0
SPLINE
  5
278
100
AcDbEntity
  8
DRAFT
100
AcDbSpline
 62
7
  6
CONTINUOUS
 70
0
 71
3
 72
10
 73
6
 74
4
 42
0.0000001
 43
0.0000001
 44
0.0000000001
 12
0.3283788021
 22
-0.0408010067
 32
0.0
 13
0.2925471435
 23
0.1548595904
 33
0.0
 40
0.0
 40
0.0
 40
0.0
 40
0.0
 40
0.3914917532
 40
0.9389715821
 40
1.0
 40
1.0
 40
1.0
 40
1.0
 10
-1.7581370024
 20
1.6470147627
 30
0.0
 10
-1.7152844715
 20
1.6416903435
 30
0.0
 10
-1.6113790823
 20
1.6387437185
 30
0.0
 10
-1.502643266
 20
1.6668363808
 30
0.0
 10
-1.4426482908
 20
1.6969871554
 30
0.0
 10
-1.436697061
 20
1.700137434
 30
0.0
 11
-1.7581370024
 21
1.6470147627
 31
0.0
 11
-1.628954392
 21
1.6443309506
 31
0.0
 11
-1.4547443823
 21
1.6910707262
 31
0.0
 11
-1.436697061
 21
1.700137434
 31
0.0
  0
SPLINE
  5
279
100
AcDbEntity
  8
ASSI
100
AcDbSpline
 62
7
  6
CONTINUOUS
 70
0
 71
3
 72
26
 73
22
 74
20
 42
0.0000001
 43
0.0000001
 44
0.0000000001
 12
-5.4924188562
 22
2.7462094281
 32
0.0
 13
5.4924188562
 23
-2.7462094281
 33
0.0
 40
0.0
 40
0.0
 40
0.0
 40
0.0
 40
0.05293166
 40
0.1097804637
 40
0.1699669753
 40
0.2325120521
 40
0.2966483843
 40
0.3610410885
 40
0.4249025715
 40
0.4868204967
 40
0.5461736132
 40
0.601803194
 40
0.6535433549
 40
0.7009654854
 40
0.7447108065
 40
0.785457976
 40
0.8248708045
 40
0.8645297783
 40
0.9062455542
 40
0.9511611582
 40
1.0
 40
1.0
 40
1.0
 40
1.0
 10
-2.3706543578
 20
0.6295489908
 30
0.0
 10
-2.4675619736
 20
0.6780027987
 30
0.0
 10
-2.6605078997
 20
0.7950481248
 30
0.0
 10
-2.9316764657
 20
1.014352994
 30
0.0
 10
-3.1886121469
 20
1.2783520532
 30
0.0
 10
-3.4245692824
 20
1.5802843307
 30
0.0
 10
-3.6330095807
 20
1.9120090012
 30
0.0
 10
-3.8085168582
 20
2.2652732742
 30
0.0
 10
-3.9459454314
 20
2.630207393
 30
0.0
 10
-4.0416099099
 20
2.9976565391
 30
0.0
 10
-4.0925515625
 20
3.3570325783
 30
0.0
 10
-4.0972829197
 20
3.699303053
 30
0.0
 10
-4.0554461723
 20
4.0146975124
 30
0.0
 10
-3.9676010486
 20
4.2954791344
 30
0.0
 10
-3.8354496406
 20
4.5334815751
 30
0.0
 10
-3.6613608715
 20
4.7216911943
 30
0.0
 10
-3.4504040435
 20
4.8527801116
 30
0.0
 10
-3.2099524124
 20
4.9219981853
 30
0.0
 10
-2.9490060292
 20
4.9281018512
 30
0.0
 10
-2.6753797522
 20
4.8727410508
 30
0.0
 10
-2.4966915281
 20
4.799773487
 30
0.0
 10
-2.4072770695
 20
4.7550662577
 30
0.0
 11
-2.3706543578
 21
0.6295489908
 31
0.0
 11
-2.6494851621
 21
0.7965912013
 31
0.0
 11
-2.9218044459
 21
1.0150116276
 31
0.0
 11
-3.1802773032
 21
1.2791840152
 31
0.0
 11
-3.4172546435
 21
1.5814297046
 31
0.0
 11
-3.6270126061
 21
1.91476685
 31
0.0
 11
-3.8028720314
 21
2.2689250828
 31
0.0
 11
-3.9406732194
 21
2.6360712461
 31
0.0
 11
-4.0357030437
 21
3.0042242622
 31
0.0
 11
-4.085670638
 21
3.3652531572
 31
0.0
 11
-4.0887853229
 21
3.7068441339
 31
0.0
 11
-4.0449809042
 21
4.02153135
 31
0.0
 11
-3.9557922829
 21
4.298742622
 31
0.0
 11
-3.8233136716
 21
4.5324306258
 31
0.0
 11
-3.6521203459
 21
4.7149167551
 31
0.0
 11
-3.4463176977
 21
4.8422756963
 31
0.0
 11
-3.2125867634
 21
4.9106774731
 31
0.0
 11
-2.9565500194
 21
4.9187674853
 31
0.0
 11
-2.6857551008
 21
4.8663906573
 31
0.0
 11
-2.4072770695
 21
4.7550662577
 31
0.0
  0
SPLINE
  5
27A
100
AcDbEntity
  8
RACCORDO
100
AcDbSpline
 62
253
  6
CONTINUOUS
 70
0
 71
3
 72
13
 73
9
 74
7
 42
0.0000001
 43
0.0000001
 44
0.0000000001
 12
0.0237005162
 22
-0.7022873817
 32
0.0
 13
0.6783415113
 23
0.1833632327
 33
0.0
 40
0.0
 40
0.0
 40
0.0
 40
0.0
 40
0.1946677134
 40
0.3699588267
 40
0.5285926496
 40
0.6790968263
 40
0.8330968665
 40
1.0
 40
1.0
 40
1.0
 40
1.0
 10
6.6294745844
 20
-12.043129368
 30
0.0
 10
6.6310124928
 20
-12.0887002609
 30
0.0
 10
6.6417947583
 20
-12.1754286324
 30
0.0
 10
6.6858307073
 20
-12.2926427177
 30
0.0
 10
6.7563888026
 20
-12.3841523183
 30
0.0
 10
6.8507758429
 20
-12.4425988155
 30
0.0
 10
6.9615900571
 20
-12.462988093
 30
0.0
 10
7.0371991449
 20
-12.4521164624
 30
0.0
 10
7.0749382529
 20
-12.441915163
 30
0.0
 11
6.6294745844
 21
-12.043129368
 31
0.0
 11
6.6479075307
 21
-12.1786722375
 31
0.0
 11
6.6929551505
 21
-12.2933140624
 31
0.0
 11
6.7623062197
 21
-12.3805836446
 31
0.0
 11
6.8523896634
 21
-12.4359875397
 31
0.0
 11
6.9585969964
 21
-12.456729786
 31
0.0
 11
7.0749382529
 21
-12.441915163
 31
0.0
  0
LINE
  5
27B
100
AcDbEntity
  8
RACCORDO
100
AcDbLine
 62
253
  6
CONTINUOUS
 10
-10.6283655835
 20
-3.5963535357
 11
-10.6313031613
 21
-3.5053850725
  0
SPLINE
  5
27C
100
AcDbEntity
  8
RACCORDO
100
AcDbSpline
 62
253
  6
CONTINUOUS
 70
0
 71
3
 72
12
 73
8
 74
6
 42
0.0000001
 43
0.0000001
 44
0.0000000001
 12
-0.0053497267
 22
0.3664563861
 32
0.0
 13
-0.3254083925
 23
0.1686068818
 33
0.0
 40
0.0
 40
0.0
 40
0.0
 40
0.0
 40
0.1955839747
 40
0.4065111841
 40
0.6196376798
 40
0.8218553915
 40
1.0
 40
1.0
 40
1.0
 40
1.0
 10
6.3890062389
 20
1.9618940955
 30
0.0
 10
6.3886574653
 20
1.9857850944
 30
0.0
 10
6.3814207836
 20
2.0354195519
 30
0.0
 10
6.3558338978
 20
2.1070806951
 30
0.0
 10
6.3172558972
 20
2.1736807204
 30
0.0
 10
6.2694952331
 20
2.2288010445
 30
0.0
 10
6.2315797177
 20
2.2567302215
 30
0.0
 10
6.2122564675
 20
2.2667423571
 30
0.0
 11
6.3890062389
 21
1.9618940955
 31
0.0
 11
6.3794833617
 21
2.0329393489
 31
0.0
 11
6.3537942566
 21
2.105849955
 31
0.0
 11
6.3145197211
 21
2.1733678443
 31
0.0
 11
6.265492927
 21
2.2289460992
 31
0.0
 11
6.2122564675
 21
2.2667423571
 31
0.0
  0
SPLINE
  5
27D
100
AcDbEntity
  8
RACCORDO
100
AcDbSpline
 62
253
  6
CONTINUOUS
 70
0
 71
3
 72
12
 73
8
 74
6
 42
0.0000001
 43
0.0000001
 44
0.0000000001
 12
-0.0003856599
 22
0.3643136515
 32
0.0
 13
0.3230429735
 23
0.1684274998
 33
0.0
 40
0.0
 40
0.0
 40
0.0
 40
0.0
 40
0.1954109409
 40
0.4054784998
 40
0.6178639365
 40
0.8202454909
 40
1.0
 40
1.0
 40
1.0
 40
1.0
 10
-10.8607222725
 20
10.4127864299
 30
0.0
 10
-10.8607473932
 20
10.436516721
 30
0.0
 10
-10.8542865369
 20
10.4858448885
 30
0.0
 10
-10.8296290329
 20
10.5571465708
 30
0.0
 10
-10.791727232
 20
10.6234260621
 30
0.0
 10
-10.7442521936
 20
10.678411866
 30
0.0
 10
-10.7063870481
 20
10.7062941756
 30
0.0
 10
-10.6870309044
 20
10.7163860431
 30
0.0
 11
-10.8607222725
 21
10.4127864299
 31
0.0
 11
-10.8522623755
 21
10.4834728945
 31
0.0
 11
-10.8275539075
 21
10.5559050176
 31
0.0
 11
-10.7890328456
 21
10.6230095019
 31
0.0
 11
-10.7403837892
 21
10.6784120456
 31
0.0
 11
-10.6870309044
 21
10.7163860431
 31
0.0
  0
SPLINE
  5
27E
100
AcDbEntity
  8
RACCORDO
100
AcDbSpline
 62
253
  6
CONTINUOUS
 70
0
 71
3
 72
12
 73
8
 74
6
 42
0.0000001
 43
0.0000001
 44
0.0000000001
 12
-0.0003856587
 22
0.3643125473
 32
0.0
 13
0.3230419943
 23
0.1684269893
 33
0.0
 40
0.0
 40
0.0
 40
0.0
 40
0.0
 40
0.1947631165
 40
0.4040949088
 40
0.6160496428
 40
0.8181238454
 40
1.0
 40
1.0
 40
1.0
 40
1.0
 10
6.0385650994
 20
1.963142744
 30
0.0
 10
6.038540062
 20
1.986794293
 30
0.0
 10
6.0449580066
 20
2.0359538889
 30
0.0
 10
6.069474364
 20
2.1070668497
 30
0.0
 10
6.1071932702
 20
2.1732422366
 30
0.0
 10
6.1546646834
 20
2.2284434549
 30
0.0
 10
6.1926719223
 20
2.2565314061
 30
0.0
 10
6.2122564675
 20
2.2667423571
 30
0.0
 11
6.0385650994
 21
1.963142744
 31
0.0
 11
6.0469714285
 21
2.0335977027
 31
0.0
 11
6.0715244158
 21
2.1057993665
 31
0.0
 11
6.1098694366
 21
2.1728236153
 31
0.0
 11
6.1583292136
 21
2.2282428417
 31
0.0
 11
6.2122564675
 21
2.2667423571
 31
0.0
  0
SPLINE
  5
27F
100
AcDbEntity
  8
RACCORDO
100
AcDbSpline
 62
253
  6
CONTINUOUS
 70
0
 71
3
 72
10
 73
6
 74
4
 42
0.0000001
 43
0.0000001
 44
0.0000000001
 12
-0.106624233
 22
0.0533150671
 32
0.0
 13
0.0002963801
 23
0.1185053347
 33
0.0
 40
0.0
 40
0.0
 40
0.0
 40
0.0
 40
0.5625436167
 40
0.9915901696
 40
1.0
 40
1.0
 40
1.0
 40
1.0
 10
-10.8607222725
 20
10.4127864299
 30
0.0
 10
-10.8807158664
 20
10.4227837801
 30
0.0
 10
-10.9148070595
 20
10.4444182235
 30
0.0
 10
-10.9338307634
 20
10.4835508067
 30
0.0
 10
-10.9339434687
 20
10.5008293898
 30
0.0
 10
-10.9339426379
 20
10.5011615931
 30
0.0
 11
-10.8607222725
 21
10.4127864299
 31
0.0
 11
-10.9144958316
 21
10.4528566384
 31
0.0
 11
-10.9339361013
 21
10.5001651086
 31
0.0
 11
-10.9339426379
 21
10.5011615931
 31
0.0
  0
SPLINE
  5
280
100
AcDbEntity
  8
RACCORDO
100
AcDbSpline
 62
253
  6
CONTINUOUS
 70
0
 71
3
 72
10
 73
6
 74
4
 42
0.0000001
 43
0.0000001
 44
0.0000000001
 12
-0.0264958835
 22
-0.1937282823
 32
0.0
 13
-0.191317782
 23
-0.0524592148
 33
0.0
 40
0.0
 40
0.0
 40
0.0
 40
0.0
 40
0.430683799
 40
0.8010691498
 40
1.0
 40
1.0
 40
1.0
 40
1.0
 10
7.0749382529
 20
-12.441915163
 30
0.0
 10
7.0711344703
 20
-12.4697270406
 30
0.0
 10
7.0566183348
 20
-12.5210574004
 30
0.0
 10
7.0139526685
 20
-12.5738199479
 30
0.0
 10
6.979211854
 20
-12.5896647551
 30
0.0
 10
6.9665255177
 20
-12.5931433405
 30
0.0
 11
7.0749382529
 21
-12.441915163
 31
0.0
 11
7.0498423111
 21
-12.522301215
 31
0.0
 11
7.0022142126
 21
-12.5768587636
 31
0.0
 11
6.9665255177
 21
-12.5931433405
 31
0.0
  0
SPLINE
  5
281
100
AcDbEntity
  8
RACCORDO
100
AcDbSpline
 62
253
  6
CONTINUOUS
 70
0
 71
3
 72
11
 73
7
 74
5
 42
0.0000001
 43
0.0000001
 44
0.0000000001
 12
-0.3186082903
 22
-0.1690650599
 32
0.0
 13
-0.3227128788
 23
0.1610920079
 33
0.0
 40
0.0
 40
0.0
 40
0.0
 40
0.0
 40
0.2388435752
 40
0.503579771
 40
0.7663858709
 40
1.0
 40
1.0
 40
1.0
 40
1.0
 10
6.6294745843
 20
-12.043129368
 30
0.0
 10
6.6041087366
 20
-12.0565894024
 30
0.0
 10
6.546067091
 20
-12.0764156005
 30
0.0
 10
6.454022838
 20
-12.0872612651
 30
0.0
 10
6.3622469641
 20
-12.0802180562
 30
0.0
 10
6.3043089586
 20
-12.0626635957
 30
0.0
 10
6.2791788626
 20
-12.0501191393
 30
0.0
 11
6.6294745843
 21
-12.043129368
 31
0.0
 11
6.5485027336
 21
-12.0725393698
 31
0.0
 11
6.4537282505
 21
-12.0841791688
 31
0.0
 11
6.3592645749
 21
-12.076315412
 31
0.0
 11
6.2791788626
 21
-12.0501191393
 31
0.0
  0
SPLINE
  5
282
100
AcDbEntity
  8
RACCORDO
100
AcDbSpline
 62
253
  6
CONTINUOUS
 70
0
 71
3
 72
11
 73
7
 74
5
 42
0.0000001
 43
0.0000001
 44
0.0000000001
 12
-0.32390209
 22
-0.1568996968
 32
0.0
 13
-0.3219104798
 23
0.1609463318
 33
0.0
 40
0.0
 40
0.0
 40
0.0
 40
0.0
 40
0.2366865908
 40
0.5013293953
 40
0.7652575898
 40
1.0
 40
1.0
 40
1.0
 40
1.0
 10
6.3890062389
 20
1.9618940955
 30
0.0
 10
6.3634518117
 20
1.9495154107
 30
0.0
 10
6.3051607546
 20
1.9318922658
 30
0.0
 10
6.2132355532
 20
1.9236676297
 30
0.0
 10
6.121603853
 20
1.9324989806
 30
0.0
 10
6.06375378
 20
1.9505491007
 30
0.0
 10
6.0385650994
 20
1.963142744
 30
0.0
 11
6.3890062389
 21
1.9618940955
 31
0.0
 11
6.3079810648
 21
1.9356021496
 31
0.0
 11
6.2131601202
 21
1.9266169978
 31
0.0
 11
6.1186640447
 21
1.9362767003
 31
0.0
 11
6.0385650994
 21
1.963142744
 31
0.0
  0
SPLINE
  5
283
100
AcDbEntity
  8
RACCORDO
100
AcDbSpline
 62
253
  6
CONTINUOUS
 70
0
 71
3
 72
11
 73
7
 74
5
 42
0.0000001
 43
0.0000001
 44
0.0000000001
 12
0.0200459472
 22
-0.5985134096
 32
0.0
 13
0.5380190625
 23
-0.2700631156
 33
0.0
 40
0.0
 40
0.0
 40
0.0
 40
0.0
 40
0.3052473617
 40
0.5786387071
 40
0.8256884635
 40
1.0
 40
1.0
 40
1.0
 40
1.0
 10
6.279172552
 20
-12.0501226034
 30
0.0
 10
6.2812122095
 20
-12.1110208165
 30
0.0
 10
6.2955584688
 20
-12.2266282591
 30
0.0
 10
6.3540516184
 20
-12.3826991252
 30
0.0
 10
6.4401308215
 20
-12.4946613045
 30
0.0
 10
6.5106657809
 20
-12.5428681666
 30
0.0
 10
6.5419267574
 20
-12.5585598721
 30
0.0
 11
6.279172552
 21
-12.0501226034
 31
0.0
 11
6.3037632985
 21
-12.2312581002
 31
0.0
 11
6.3635375058
 21
-12.3836763656
 31
0.0
 11
6.4554437506
 21
-12.4996121841
 31
0.0
 11
6.5419267574
 21
-12.5585598721
 31
0.0
  0
SPLINE
  5
284
100
AcDbEntity
  8
ASSI
100
AcDbSpline
 62
7
  6
CONTINUOUS
 70
0
 71
3
 72
26
 73
22
 74
20
 42
0.0000001
 43
0.0000001
 44
0.0000000001
 12
5.483496821
 22
-2.7417484105
 32
0.0
 13
-5.483496821
 23
2.7417484105
 33
0.0
 40
0.0
 40
0.0
 40
0.0
 40
0.0
 40
0.0529930204
 40
0.1098790089
 40
0.1701015286
 40
0.2326992153
 40
0.2969155191
 40
0.3614173052
 40
0.4254109429
 40
0.4874688636
 40
0.5469497834
 40
0.6026699529
 40
0.6544403029
 40
0.7018143712
 40
0.7454287372
 40
0.7859796708
 40
0.8251709347
 40
0.8646370244
 40
0.9062305836
 40
0.9511124952
 40
1.0
 40
1.0
 40
1.0
 40
1.0
 10
-2.4072770695
 20
4.7550662577
 30
0.0
 10
-2.3104147165
 20
4.7066350812
 30
0.0
 10
-2.1176813722
 20
4.5895179277
 30
0.0
 10
-1.8472157598
 20
4.3697783107
 30
0.0
 10
-1.5914100772
 20
4.1051384459
 30
0.0
 10
-1.3568867062
 20
3.802432583
 30
0.0
 10
-1.1500244359
 20
3.4698868617
 30
0.0
 10
-0.976068454
 20
3.1158425966
 30
0.0
 10
-0.8399915757
 20
2.7502565529
 30
0.0
 10
-0.745329937
 20
2.3823553654
 30
0.0
 10
-0.6949247851
 20
2.0227788154
 30
0.0
 10
-0.6901967575
 20
1.6805790224
 30
0.0
 10
-0.7314932806
 20
1.3655089317
 30
0.0
 10
-0.8183099382
 20
1.0852468641
 30
0.0
 10
-0.9490822133
 20
0.8478699628
 30
0.0
 10
-1.1216543426
 20
0.6603288745
 30
0.0
 10
-1.3311571624
 20
0.5299648331
 30
0.0
 10
-1.5702901919
 20
0.4615172254
 30
0.0
 10
-1.8301116024
 20
0.4560864924
 30
0.0
 10
-2.1029452787
 20
0.5118747634
 30
0.0
 10
-2.2812961987
 20
0.5848699113
 30
0.0
 10
-2.3706543578
 20
0.6295489908
 30
0.0
 11
-2.4072770695
 21
4.7550662577
 31
0.0
 11
-2.1287019717
 21
4.5878928042
 31
0.0
 11
-1.8571233739
 21
4.3690922158
 31
0.0
 11
-1.5997984269
 21
4.1043306553
 31
0.0
 11
-1.3642504295
 21
3.8013513459
 31
0.0
 11
-1.1560544755
 21
3.4672124889
 31
0.0
 11
-0.9817150466
 21
3.1122741076
 31
0.0
 11
-0.8452335388
 21
2.7444506094
 31
0.0
 11
-0.7511718191
 21
2.3758007069
 31
0.0
 11
-0.7017187872
 21
2.0145077094
 31
0.0
 11
-0.6986050209
 21
1.6729162611
 31
0.0
 11
-0.74189664
 21
1.3584922429
 31
0.0
 11
-0.8301181587
 21
1.0817773429
 31
0.0
 11
-0.9612766689
 21
0.8487668901
 31
0.0
 11
-1.1309487981
 21
0.6670615252
 31
0.0
 11
-1.3351881734
 21
0.5405049446
 31
0.0
 11
-1.5674893518
 21
0.4728369998
 31
0.0
 11
-1.8223781329
 21
0.4653361874
 31
0.0
 11
-2.0924322944
 21
0.5180932139
 31
0.0
 11
-2.3706543578
 21
0.6295489908
 31
0.0
  0
SPLINE
  5
285
100
AcDbEntity
  8
RACCORDO
100
AcDbSpline
 62
253
  6
CONTINUOUS
 70
0
 71
3
 72
11
 73
7
 74
5
 42
0.0000001
 43
0.0000001
 44
0.0000000001
 12
-0.5103196966
 22
0.2801319041
 32
0.0
 13
-0.0188799511
 23
0.5784902802
 33
0.0
 40
0.0
 40
0.0
 40
0.0
 40
0.0
 40
0.152757765
 40
0.4042158684
 40
0.6848683057
 40
1.0
 40
1.0
 40
1.0
 40
1.0
 10
-10.3844037504
 20
-4.0950867995
 30
0.0
 10
-10.4103888491
 20
-4.0808226916
 30
0.0
 10
-10.4747151751
 20
-4.0348217252
 30
0.0
 10
-10.5557286785
 20
-3.9273553884
 30
0.0
 10
-10.6124980506
 20
-3.7721702076
 30
0.0
 10
-10.6263823598
 20
-3.6571204098
 30
0.0
 10
-10.6283655835
 20
-3.5963535357
 30
0.0
 11
-10.3844037504
 21
-4.0950867995
 31
0.0
 11
-10.4566500416
 21
-4.043565288
 31
0.0
 11
-10.5461809313
 21
-3.928817147
 31
0.0
 11
-10.6044103193
 21
-3.7771712913
 31
0.0
 11
-10.6283655835
 21
-3.5963535357
 31
0.0
  0
SPLINE
  5
286
100
AcDbEntity
  8
RACCORDO
100
AcDbSpline
 62
253
  6
CONTINUOUS
 70
0
 71
3
 72
10
 73
6
 74
4
 42
0.0000001
 43
0.0000001
 44
0.0000000001
 12
0.1056673508
 22
0.0577633496
 32
0.0
 13
0.1075013196
 23
-0.0518675463
 33
0.0
 40
0.0
 40
0.0
 40
0.0
 40
0.0
 40
0.0964758944
 40
0.516119714
 40
1.0
 40
1.0
 40
1.0
 40
1.0
 10
-10.8026241254
 20
10.7214250668
 30
0.0
 10
-10.799226008
 20
10.7232826571
 30
0.0
 10
-10.7804724014
 20
10.7320993459
 30
0.0
 10
-10.7393129055
 20
10.7362194303
 30
0.0
 10
-10.7043701608
 20
10.7247519375
 30
0.0
 10
-10.6870309044
 20
10.7163860431
 30
0.0
 11
-10.8026241254
 21
10.7214250668
 31
0.0
 11
-10.7921279663
 21
10.7263450194
 31
0.0
 11
-10.7424413121
 21
10.7326780269
 31
0.0
 11
-10.6870309044
 21
10.7163860431
 31
0.0
  0
SPLINE
  5
287
100
AcDbEntity
  8
RACCORDO
100
AcDbSpline
 62
253
  6
CONTINUOUS
 70
0
 71
3
 72
9
 73
5
 74
3
 42
0.0000001
 43
0.0000001
 44
0.0000000001
 12
0.0042467378
 22
-0.1188405274
 32
0.0
 13
0.1066391998
 23
-0.0534070673
 33
0.0
 40
0.0
 40
0.0
 40
0.0
 40
0.0
 40
0.4342551378
 40
1.0
 40
1.0
 40
1.0
 40
1.0
 10
-10.7015946241
 20
-3.5075375872
 30
0.0
 10
-10.7009799015
 20
-3.5247399571
 30
0.0
 10
-10.6828114833
 20
-3.5639536877
 30
0.0
 10
-10.6484757764
 20
-3.5862819443
 30
0.0
 10
-10.6283655833
 20
-3.5963535356
 30
0.0
 11
-10.7015946241
 21
-3.5075375872
 31
0.0
 11
-10.6821516563
 21
-3.5556132642
 31
0.0
 11
-10.6283655833
 21
-3.5963535356
 31
0.0
  0
SPLINE
  5
288
100
AcDbEntity
  8
ASSI
100
AcDbSpline
 62
7
  6
CONTINUOUS
 70
0
 71
3
 72
18
 73
14
 74
12
 42
0.0000001
 43
0.0000001
 44
0.0000000001
 12
2.4354104948
 22
1.2891825476
 32
0.0
 13
-2.4531275979
 23
1.226563799
 33
0.0
 40
0.0
 40
0.0
 40
0.0
 40
0.0
 40
0.0586239422
 40
0.1287369961
 40
0.2076364478
 40
0.2955840785
 40
0.3921028696
 40
0.4955278479
 40
0.6017212965
 40
0.7091477205
 40
0.8125165559
 40
0.9106444314
 40
1.0
 40
1.0
 40
1.0
 40
1.0
 10
-1.436697061
 20
1.700137434
 30
0.0
 10
-1.3891059396
 20
1.725329755
 30
0.0
 10
-1.2938340479
 20
1.7984024484
 30
0.0
 10
-1.1876058013
 20
1.9595481094
 30
0.0
 10
-1.1229591129
 20
2.1686769149
 30
0.0
 10
-1.1041579645
 20
2.4102887786
 30
0.0
 10
-1.1310986281
 20
2.6733019469
 30
0.0
 10
-1.202218192
 20
2.9450222428
 30
0.0
 10
-1.3141813554
 20
3.2133352497
 30
0.0
 10
-1.4610996802
 20
3.4641676365
 30
0.0
 10
-1.6366683354
 20
3.6866476346
 30
0.0
 10
-1.8315905371
 20
3.8690474122
 30
0.0
 10
-1.9763795062
 20
3.9632195874
 30
0.0
 10
-2.0494463767
 20
3.9997530226
 30
0.0
 11
-1.436697061
 21
1.700137434
 31
0.0
 11
-1.3084351107
 21
1.797446757
 31
0.0
 11
-1.1999785405
 21
1.9562408608
 31
0.0
 11
-1.1329429863
 21
2.1619917828
 31
0.0
 11
-1.111687014
 21
2.4022656146
 31
0.0
 11
-1.1369162881
 21
2.6657807898
 31
0.0
 11
-1.2077411124
 21
2.9404583472
 31
0.0
 11
-1.3195705547
 21
3.2093885381
 31
0.0
 11
-1.4687201759
 21
3.4634848675
 31
0.0
 11
-1.6450479441
 21
3.6854873462
 31
0.0
 11
-1.8427133483
 21
3.8681377121
 31
0.0
 11
-2.0494463767
 21
3.9997530226
 31
0.0
  0
SPLINE
  5
289
100
AcDbEntity
  8
ASSI
100
AcDbSpline
 62
7
  6
CONTINUOUS
 70
0
 71
3
 72
10
 73
6
 74
4
 42
0.0000001
 43
0.0000001
 44
0.0000000001
 12
-0.5326592145
 22
0.2663296072
 32
0.0
 13
-0.5408030121
 23
-0.2556892649
 33
0.0
 40
0.0
 40
0.0
 40
0.0
 40
0.0
 40
0.3685097703
 40
0.699068691
 40
1.0
 40
1.0
 40
1.0
 40
1.0
 10
-2.0494463767
 20
3.9997530226
 30
0.0
 10
-2.1148764183
 20
4.0324680434
 30
0.0
 10
-2.2460565822
 20
4.0822738176
 30
0.0
 10
-2.4468472401
 20
4.1003366326
 30
0.0
 10
-2.570976718
 20
4.0684027973
 30
0.0
 10
-2.6252249041
 20
4.0427544956
 30
0.0
 11
-2.0494463767
 21
3.9997530226
 31
0.0
 11
-2.2557307496
 21
4.0746464391
 31
0.0
 11
-2.4520651704
 21
4.0889961603
 31
0.0
 11
-2.6252249041
 21
4.0427544956
 31
0.0
  0
SPLINE
  5
28A
100
AcDbEntity
  8
ASSI
100
AcDbSpline
 62
7
  6
CONTINUOUS
 70
0
 71
3
 72
26
 73
22
 74
20
 42
0.0000001
 43
0.0000001
 44
0.0000000001
 12
5.483496821
 22
-2.7417484105
 32
0.0
 13
-5.483496821
 23
2.7417484105
 33
0.0
 40
0.0
 40
0.0
 40
0.0
 40
0.0
 40
0.0529930204
 40
0.1098790089
 40
0.1701015286
 40
0.2326992153
 40
0.2969155191
 40
0.3614173052
 40
0.4254109429
 40
0.4874688636
 40
0.5469497834
 40
0.6026699529
 40
0.6544403029
 40
0.7018143712
 40
0.7454287372
 40
0.7859796708
 40
0.8251709347
 40
0.8646370244
 40
0.9062305836
 40
0.9511124952
 40
1.0
 40
1.0
 40
1.0
 40
1.0
 10
-2.4072770695
 20
4.7550662577
 30
0.0
 10
-2.3104147165
 20
4.7066350812
 30
0.0
 10
-2.1176813722
 20
4.5895179277
 30
0.0
 10
-1.8472157598
 20
4.3697783107
 30
0.0
 10
-1.5914100772
 20
4.1051384459
 30
0.0
 10
-1.3568867062
 20
3.802432583
 30
0.0
 10
-1.1500244359
 20
3.4698868617
 30
0.0
 10
-0.976068454
 20
3.1158425966
 30
0.0
 10
-0.8399915757
 20
2.7502565529
 30
0.0
 10
-0.745329937
 20
2.3823553654
 30
0.0
 10
-0.6949247851
 20
2.0227788154
 30
0.0
 10
-0.6901967575
 20
1.6805790224
 30
0.0
 10
-0.7314932806
 20
1.3655089317
 30
0.0
 10
-0.8183099382
 20
1.0852468641
 30
0.0
 10
-0.9490822133
 20
0.8478699628
 30
0.0
 10
-1.1216543426
 20
0.6603288745
 30
0.0
 10
-1.3311571624
 20
0.5299648331
 30
0.0
 10
-1.5702901919
 20
0.4615172254
 30
0.0
 10
-1.8301116024
 20
0.4560864924
 30
0.0
 10
-2.1029452787
 20
0.5118747634
 30
0.0
 10
-2.2812961987
 20
0.5848699113
 30
0.0
 10
-2.3706543578
 20
0.6295489908
 30
0.0
 11
-2.4072770695
 21
4.7550662577
 31
0.0
 11
-2.1287019717
 21
4.5878928042
 31
0.0
 11
-1.8571233739
 21
4.3690922158
 31
0.0
 11
-1.5997984269
 21
4.1043306553
 31
0.0
 11
-1.3642504295
 21
3.8013513459
 31
0.0
 11
-1.1560544755
 21
3.4672124889
 31
0.0
 11
-0.9817150466
 21
3.1122741076
 31
0.0
 11
-0.8452335388
 21
2.7444506094
 31
0.0
 11
-0.7511718191
 21
2.3758007069
 31
0.0
 11
-0.7017187872
 21
2.0145077094
 31
0.0
 11
-0.6986050209
 21
1.6729162611
 31
0.0
 11
-0.74189664
 21
1.3584922429
 31
0.0
 11
-0.8301181587
 21
1.0817773429
 31
0.0
 11
-0.9612766689
 21
0.8487668901
 31
0.0
 11
-1.1309487981
 21
0.6670615252
 31
0.0
 11
-1.3351881734
 21
0.5405049446
 31
0.0
 11
-1.5674893518
 21
0.4728369998
 31
0.0
 11
-1.8223781329
 21
0.4653361874
 31
0.0
 11
-2.0924322944
 21
0.5180932139
 31
0.0
 11
-2.3706543578
 21
0.6295489908
 31
0.0
  0
SPLINE
  5
28B
100
AcDbEntity
  8
ASSI
100
AcDbSpline
 62
253
  6
CONTINUOUS
 70
0
 71
3
 72
9
 73
5
 74
3
 42
0.0000001
 43
0.0000001
 44
0.0000000001
 12
0.0042467392
 22
-0.1188405266
 32
0.0
 13
0.1066391991
 23
-0.053407067
 33
0.0
 40
0.0
 40
0.0
 40
0.0
 40
0.0
 40
0.4342551344
 40
1.0
 40
1.0
 40
1.0
 40
1.0
 10
-10.701594624
 20
-3.5075375879
 30
0.0
 10
-10.7009799013
 20
-3.5247399575
 30
0.0
 10
-10.6828114831
 20
-3.5639536879
 30
0.0
 10
-10.6484757764
 20
-3.5862819443
 30
0.0
 10
-10.6283655833
 20
-3.5963535356
 30
0.0
 11
-10.701594624
 21
-3.5075375879
 31
0.0
 11
-10.6821516563
 21
-3.5556132642
 31
0.0
 11
-10.6283655833
 21
-3.5963535356
 31
0.0
  0
SPLINE
  5
28C
100
AcDbEntity
  8
ASSI
100
AcDbSpline
 62
253
  6
CONTINUOUS
 70
0
 71
3
 72
11
 73
7
 74
5
 42
0.0000001
 43
0.0000001
 44
0.0000000001
 12
-0.5108213004
 22
0.2798532065
 32
0.0
 13
-0.0188900147
 23
0.5787986326
 33
0.0
 40
0.0
 40
0.0
 40
0.0
 40
0.0
 40
0.1532091295
 40
0.4045332697
 40
0.6850361907
 40
1.0
 40
1.0
 40
1.0
 40
1.0
 10
-10.3841316738
 20
-4.095236004
 30
0.0
 10
-10.4102191693
 20
-4.080943982
 30
0.0
 10
-10.4746521227
 20
-4.0349053656
 30
0.0
 10
-10.5557286785
 20
-3.9273553884
 30
0.0
 10
-10.6124980506
 20
-3.7721702076
 30
0.0
 10
-10.6263823598
 20
-3.6571204098
 30
0.0
 10
-10.6283655835
 20
-3.5963535357
 30
0.0
 11
-10.3841316738
 21
-4.095236004
 31
0.0
 11
-10.4566500416
 21
-4.043565288
 31
0.0
 11
-10.5461809313
 21
-3.928817147
 31
0.0
 11
-10.6044103193
 21
-3.7771712913
 31
0.0
 11
-10.6283655835
 21
-3.5963535357
 31
0.0
  0
SPLINE
  5
28D
100
AcDbEntity
  8
ASSI
100
AcDbSpline
 62
7
  6
CONTINUOUS
 70
0
 71
3
 72
8
 73
4
 74
2
 42
0.0000001
 43
0.0000001
 44
0.0000000001
 12
-0.1653081207
 22
-0.0781569461
 32
0.0
 13
-0.1266407475
 23
-0.1319256529
 33
0.0
 40
0.0
 40
0.0
 40
0.0
 40
0.0
 40
1.0
 40
1.0
 40
1.0
 40
1.0
 10
-2.6252249041
 20
4.0427544956
 30
0.0
 10
-2.680327611
 20
4.0167021802
 30
0.0
 10
-2.7303589423
 20
3.9798615139
 30
0.0
 10
-2.7725725248
 20
3.9358862963
 30
0.0
 11
-2.6252249041
 21
4.0427544956
 31
0.0
 11
-2.7725725248
 21
3.9358862963
 31
0.0
  0
SPLINE
  5
28E
100
AcDbEntity
  8
ASSI
100
AcDbSpline
 62
7
  6
CONTINUOUS
 70
0
 71
3
 72
8
 73
4
 74
2
 42
0.0000001
 43
0.0000001
 44
0.0000000001
 12
-0.0876916167
 22
-0.0913511174
 32
0.0
 13
-0.0659160991
 23
-0.1081160153
 33
0.0
 40
0.0
 40
0.0
 40
0.0
 40
0.0
 40
1.0
 40
1.0
 40
1.0
 40
1.0
 10
-2.7725725248
 20
3.9358862963
 30
0.0
 10
-2.8018030637
 20
3.9054359238
 30
0.0
 10
-2.8272851929
 20
3.8715647681
 30
0.0
 10
-2.8492572259
 20
3.8355260963
 30
0.0
 11
-2.7725725248
 21
3.9358862963
 31
0.0
 11
-2.8492572259
 21
3.8355260963
 31
0.0
  0
SPLINE
  5
28F
100
AcDbEntity
  8
ASSI
100
AcDbSpline
 62
7
  6
CONTINUOUS
 70
0
 71
3
 72
9
 73
5
 74
3
 42
0.0000001
 43
0.0000001
 44
0.0000000001
 12
-0.0393157115
 22
-0.0644858863
 32
0.0
 13
-0.0319772713
 23
-0.0683203875
 33
0.0
 40
0.0
 40
0.0
 40
0.0
 40
0.0
 40
0.8810900114
 40
1.0
 40
1.0
 40
1.0
 40
1.0
 10
-2.8492572259
 20
3.8355260963
 30
0.0
 10
-2.8608041195
 20
3.8165868062
 30
0.0
 10
-2.8728091138
 20
3.7944121008
 30
0.0
 10
-2.8836099334
 20
3.7717006024
 30
0.0
 10
-2.8848774057
 20
3.7689926102
 30
0.0
 11
-2.8492572259
 21
3.8355260963
 31
0.0
 11
-2.8810242562
 21
3.7770942604
 31
0.0
 11
-2.8848774057
 21
3.7689926102
 31
0.0
  0
SPLINE
  5
290
100
AcDbEntity
  8
ASSI
100
AcDbSpline
 62
7
  6
CONTINUOUS
 70
0
 71
3
 72
10
 73
6
 74
4
 42
0.0000001
 43
0.0000001
 44
0.0000000001
 12
0.3283788021
 22
-0.0408010067
 32
0.0
 13
0.2925471435
 23
0.1548595904
 33
0.0
 40
0.0
 40
0.0
 40
0.0
 40
0.0
 40
0.3914917532
 40
0.9389715821
 40
1.0
 40
1.0
 40
1.0
 40
1.0
 10
-1.7581370024
 20
1.6470147627
 30
0.0
 10
-1.7152844715
 20
1.6416903435
 30
0.0
 10
-1.6113790823
 20
1.6387437185
 30
0.0
 10
-1.502643266
 20
1.6668363808
 30
0.0
 10
-1.4426482908
 20
1.6969871554
 30
0.0
 10
-1.436697061
 20
1.700137434
 30
0.0
 11
-1.7581370024
 21
1.6470147627
 31
0.0
 11
-1.628954392
 21
1.6443309506
 31
0.0
 11
-1.4547443823
 21
1.6910707262
 31
0.0
 11
-1.436697061
 21
1.700137434
 31
0.0
  0
SPLINE
  5
291
100
AcDbEntity
  8
ASSI
100
AcDbSpline
 62
253
  6
CONTINUOUS
 70
0
 71
3
 72
13
 73
9
 74
7
 42
0.0000001
 43
0.0000001
 44
0.0000000001
 12
0.0237005162
 22
-0.7022873817
 32
0.0
 13
0.6783415113
 23
0.1833632327
 33
0.0
 40
0.0
 40
0.0
 40
0.0
 40
0.0
 40
0.1946677134
 40
0.3699588267
 40
0.5285926496
 40
0.6790968263
 40
0.8330968665
 40
1.0
 40
1.0
 40
1.0
 40
1.0
 10
6.6294745844
 20
-12.043129368
 30
0.0
 10
6.6310124928
 20
-12.0887002609
 30
0.0
 10
6.6417947583
 20
-12.1754286324
 30
0.0
 10
6.6858307073
 20
-12.2926427177
 30
0.0
 10
6.7563888026
 20
-12.3841523183
 30
0.0
 10
6.8507758429
 20
-12.4425988155
 30
0.0
 10
6.9615900571
 20
-12.462988093
 30
0.0
 10
7.0371991449
 20
-12.4521164624
 30
0.0
 10
7.0749382529
 20
-12.441915163
 30
0.0
 11
6.6294745844
 21
-12.043129368
 31
0.0
 11
6.6479075307
 21
-12.1786722375
 31
0.0
 11
6.6929551505
 21
-12.2933140624
 31
0.0
 11
6.7623062197
 21
-12.3805836446
 31
0.0
 11
6.8523896634
 21
-12.4359875397
 31
0.0
 11
6.9585969964
 21
-12.456729786
 31
0.0
 11
7.0749382529
 21
-12.441915163
 31
0.0
  0
SPLINE
  5
292
100
AcDbEntity
  8
ASSI
100
AcDbSpline
 62
7
  6
CONTINUOUS
 70
0
 71
3
 72
26
 73
22
 74
20
 42
0.0000001
 43
0.0000001
 44
0.0000000001
 12
-5.4924188562
 22
2.7462094281
 32
0.0
 13
5.4924188562
 23
-2.7462094281
 33
0.0
 40
0.0
 40
0.0
 40
0.0
 40
0.0
 40
0.05293166
 40
0.1097804637
 40
0.1699669753
 40
0.2325120521
 40
0.2966483843
 40
0.3610410885
 40
0.4249025715
 40
0.4868204967
 40
0.5461736132
 40
0.601803194
 40
0.6535433549
 40
0.7009654854
 40
0.7447108065
 40
0.785457976
 40
0.8248708045
 40
0.8645297783
 40
0.9062455542
 40
0.9511611582
 40
1.0
 40
1.0
 40
1.0
 40
1.0
 10
-2.3706543578
 20
0.6295489908
 30
0.0
 10
-2.4675619736
 20
0.6780027987
 30
0.0
 10
-2.6605078997
 20
0.7950481248
 30
0.0
 10
-2.9316764657
 20
1.014352994
 30
0.0
 10
-3.1886121469
 20
1.2783520532
 30
0.0
 10
-3.4245692824
 20
1.5802843307
 30
0.0
 10
-3.6330095807
 20
1.9120090012
 30
0.0
 10
-3.8085168582
 20
2.2652732742
 30
0.0
 10
-3.9459454314
 20
2.630207393
 30
0.0
 10
-4.0416099099
 20
2.9976565391
 30
0.0
 10
-4.0925515625
 20
3.3570325783
 30
0.0
 10
-4.0972829197
 20
3.699303053
 30
0.0
 10
-4.0554461723
 20
4.0146975124
 30
0.0
 10
-3.9676010486
 20
4.2954791344
 30
0.0
 10
-3.8354496406
 20
4.5334815751
 30
0.0
 10
-3.6613608715
 20
4.7216911943
 30
0.0
 10
-3.4504040435
 20
4.8527801116
 30
0.0
 10
-3.2099524124
 20
4.9219981853
 30
0.0
 10
-2.9490060292
 20
4.9281018512
 30
0.0
 10
-2.6753797522
 20
4.8727410508
 30
0.0
 10
-2.4966915281
 20
4.799773487
 30
0.0
 10
-2.4072770695
 20
4.7550662577
 30
0.0
 11
-2.3706543578
 21
0.6295489908
 31
0.0
 11
-2.6494851621
 21
0.7965912013
 31
0.0
 11
-2.9218044459
 21
1.0150116276
 31
0.0
 11
-3.1802773032
 21
1.2791840152
 31
0.0
 11
-3.4172546435
 21
1.5814297046
 31
0.0
 11
-3.6270126061
 21
1.91476685
 31
0.0
 11
-3.8028720314
 21
2.2689250828
 31
0.0
 11
-3.9406732194
 21
2.6360712461
 31
0.0
 11
-4.0357030437
 21
3.0042242622
 31
0.0
 11
-4.085670638
 21
3.3652531572
 31
0.0
 11
-4.0887853229
 21
3.7068441339
 31
0.0
 11
-4.0449809042
 21
4.02153135
 31
0.0
 11
-3.9557922829
 21
4.298742622
 31
0.0
 11
-3.8233136716
 21
4.5324306258
 31
0.0
 11
-3.6521203459
 21
4.7149167551
 31
0.0
 11
-3.4463176977
 21
4.8422756963
 31
0.0
 11
-3.2125867634
 21
4.9106774731
 31
0.0
 11
-2.9565500194
 21
4.9187674853
 31
0.0
 11
-2.6857551008
 21
4.8663906573
 31
0.0
 11
-2.4072770695
 21
4.7550662577
 31
0.0
  0
SPLINE
  5
293
100
AcDbEntity
  8
ASSI
100
AcDbSpline
 62
253
  6
CONTINUOUS
 70
0
 71
3
 72
12
 73
8
 74
6
 42
0.0000001
 43
0.0000001
 44
0.0000000001
 12
-0.0053497267
 22
0.3664563861
 32
0.0
 13
-0.3254083925
 23
0.1686068818
 33
0.0
 40
0.0
 40
0.0
 40
0.0
 40
0.0
 40
0.1955839747
 40
0.4065111841
 40
0.6196376798
 40
0.8218553915
 40
1.0
 40
1.0
 40
1.0
 40
1.0
 10
6.3890062389
 20
1.9618940955
 30
0.0
 10
6.3886574653
 20
1.9857850944
 30
0.0
 10
6.3814207836
 20
2.0354195519
 30
0.0
 10
6.3558338978
 20
2.1070806951
 30
0.0
 10
6.3172558972
 20
2.1736807204
 30
0.0
 10
6.2694952331
 20
2.2288010445
 30
0.0
 10
6.2315797177
 20
2.2567302215
 30
0.0
 10
6.2122564675
 20
2.2667423571
 30
0.0
 11
6.3890062389
 21
1.9618940955
 31
0.0
 11
6.3794833617
 21
2.0329393489
 31
0.0
 11
6.3537942566
 21
2.105849955
 31
0.0
 11
6.3145197211
 21
2.1733678443
 31
0.0
 11
6.265492927
 21
2.2289460992
 31
0.0
 11
6.2122564675
 21
2.2667423571
 31
0.0
  0
SPLINE
  5
294
100
AcDbEntity
  8
ASSI
100
AcDbSpline
 62
253
  6
CONTINUOUS
 70
0
 71
3
 72
12
 73
8
 74
6
 42
0.0000001
 43
0.0000001
 44
0.0000000001
 12
-0.0003856599
 22
0.3643136515
 32
0.0
 13
0.3230429735
 23
0.1684274998
 33
0.0
 40
0.0
 40
0.0
 40
0.0
 40
0.0
 40
0.1954109409
 40
0.4054784998
 40
0.6178639365
 40
0.8202454909
 40
1.0
 40
1.0
 40
1.0
 40
1.0
 10
-10.8607222725
 20
10.4127864299
 30
0.0
 10
-10.8607473932
 20
10.436516721
 30
0.0
 10
-10.8542865369
 20
10.4858448885
 30
0.0
 10
-10.8296290329
 20
10.5571465708
 30
0.0
 10
-10.791727232
 20
10.6234260621
 30
0.0
 10
-10.7442521936
 20
10.678411866
 30
0.0
 10
-10.7063870481
 20
10.7062941756
 30
0.0
 10
-10.6870309044
 20
10.7163860431
 30
0.0
 11
-10.8607222725
 21
10.4127864299
 31
0.0
 11
-10.8522623755
 21
10.4834728945
 31
0.0
 11
-10.8275539075
 21
10.5559050176
 31
0.0
 11
-10.7890328456
 21
10.6230095019
 31
0.0
 11
-10.7403837892
 21
10.6784120456
 31
0.0
 11
-10.6870309044
 21
10.7163860431
 31
0.0
  0
SPLINE
  5
295
100
AcDbEntity
  8
ASSI
100
AcDbSpline
 62
253
  6
CONTINUOUS
 70
0
 71
3
 72
12
 73
8
 74
6
 42
0.0000001
 43
0.0000001
 44
0.0000000001
 12
-0.0003856587
 22
0.3643125473
 32
0.0
 13
0.3230419943
 23
0.1684269893
 33
0.0
 40
0.0
 40
0.0
 40
0.0
 40
0.0
 40
0.1947631165
 40
0.4040949088
 40
0.6160496428
 40
0.8181238454
 40
1.0
 40
1.0
 40
1.0
 40
1.0
 10
6.0385650994
 20
1.963142744
 30
0.0
 10
6.038540062
 20
1.986794293
 30
0.0
 10
6.0449580066
 20
2.0359538889
 30
0.0
 10
6.069474364
 20
2.1070668497
 30
0.0
 10
6.1071932702
 20
2.1732422366
 30
0.0
 10
6.1546646834
 20
2.2284434549
 30
0.0
 10
6.1926719223
 20
2.2565314061
 30
0.0
 10
6.2122564675
 20
2.2667423571
 30
0.0
 11
6.0385650994
 21
1.963142744
 31
0.0
 11
6.0469714285
 21
2.0335977027
 31
0.0
 11
6.0715244158
 21
2.1057993665
 31
0.0
 11
6.1098694366
 21
2.1728236153
 31
0.0
 11
6.1583292136
 21
2.2282428417
 31
0.0
 11
6.2122564675
 21
2.2667423571
 31
0.0
  0
SPLINE
  5
296
100
AcDbEntity
  8
ASSI
100
AcDbSpline
 62
253
  6
CONTINUOUS
 70
0
 71
3
 72
10
 73
6
 74
4
 42
0.0000001
 43
0.0000001
 44
0.0000000001
 12
-0.1066900264
 22
0.0533479656
 32
0.0
 13
0.0004535054
 23
0.1185801436
 33
0.0
 40
0.0
 40
0.0
 40
0.0
 40
0.0
 40
0.5621967081
 40
0.9909786772
 40
1.0
 40
1.0
 40
1.0
 40
1.0
 10
-10.8607222725
 20
10.4127864299
 30
0.0
 10
-10.8807158664
 20
10.4227837801
 30
0.0
 10
-10.9148070595
 20
10.4444182235
 30
0.0
 10
-10.9338425022
 20
10.4835749539
 30
0.0
 10
-10.9339437703
 20
10.5008781351
 30
0.0
 10
-10.9339424066
 20
10.5012347184
 30
0.0
 11
-10.8607222725
 21
10.4127864299
 31
0.0
 11
-10.9144958316
 21
10.4528566384
 31
0.0
 11
-10.9339361013
 21
10.5001651086
 31
0.0
 11
-10.9339424066
 21
10.5012347184
 31
0.0
  0
SPLINE
  5
297
100
AcDbEntity
  8
ASSI
100
AcDbSpline
 62
253
  6
CONTINUOUS
 70
0
 71
3
 72
10
 73
6
 74
4
 42
0.0000001
 43
0.0000001
 44
0.0000000001
 12
-0.0264958835
 22
-0.1937282823
 32
0.0
 13
-0.191317782
 23
-0.0524592148
 33
0.0
 40
0.0
 40
0.0
 40
0.0
 40
0.0
 40
0.430683799
 40
0.8010691498
 40
1.0
 40
1.0
 40
1.0
 40
1.0
 10
7.0749382529
 20
-12.441915163
 30
0.0
 10
7.0711344703
 20
-12.4697270406
 30
0.0
 10
7.0566183348
 20
-12.5210574004
 30
0.0
 10
7.0139526685
 20
-12.5738199479
 30
0.0
 10
6.979211854
 20
-12.5896647551
 30
0.0
 10
6.9665255177
 20
-12.5931433405
 30
0.0
 11
7.0749382529
 21
-12.441915163
 31
0.0
 11
7.0498423111
 21
-12.522301215
 31
0.0
 11
7.0022142126
 21
-12.5768587636
 31
0.0
 11
6.9665255177
 21
-12.5931433405
 31
0.0
  0
SPLINE
  5
298
100
AcDbEntity
  8
ASSI
100
AcDbSpline
 62
253
  6
CONTINUOUS
 70
0
 71
3
 72
11
 73
7
 74
5
 42
0.0000001
 43
0.0000001
 44
0.0000000001
 12
-0.3186082903
 22
-0.1690650599
 32
0.0
 13
-0.3227128788
 23
0.1610920079
 33
0.0
 40
0.0
 40
0.0
 40
0.0
 40
0.0
 40
0.2388435752
 40
0.503579771
 40
0.7663858709
 40
1.0
 40
1.0
 40
1.0
 40
1.0
 10
6.6294745843
 20
-12.043129368
 30
0.0
 10
6.6041087366
 20
-12.0565894024
 30
0.0
 10
6.546067091
 20
-12.0764156005
 30
0.0
 10
6.454022838
 20
-12.0872612651
 30
0.0
 10
6.3622469641
 20
-12.0802180562
 30
0.0
 10
6.3043089586
 20
-12.0626635957
 30
0.0
 10
6.2791788626
 20
-12.0501191393
 30
0.0
 11
6.6294745843
 21
-12.043129368
 31
0.0
 11
6.5485027336
 21
-12.0725393698
 31
0.0
 11
6.4537282505
 21
-12.0841791688
 31
0.0
 11
6.3592645749
 21
-12.076315412
 31
0.0
 11
6.2791788626
 21
-12.0501191393
 31
0.0
  0
SPLINE
  5
299
100
AcDbEntity
  8
ASSI
100
AcDbSpline
 62
253
  6
CONTINUOUS
 70
0
 71
3
 72
11
 73
7
 74
5
 42
0.0000001
 43
0.0000001
 44
0.0000000001
 12
-0.32390209
 22
-0.1568996968
 32
0.0
 13
-0.3219104798
 23
0.1609463318
 33
0.0
 40
0.0
 40
0.0
 40
0.0
 40
0.0
 40
0.2366865908
 40
0.5013293953
 40
0.7652575898
 40
1.0
 40
1.0
 40
1.0
 40
1.0
 10
6.3890062389
 20
1.9618940955
 30
0.0
 10
6.3634518117
 20
1.9495154107
 30
0.0
 10
6.3051607546
 20
1.9318922658
 30
0.0
 10
6.2132355532
 20
1.9236676297
 30
0.0
 10
6.121603853
 20
1.9324989806
 30
0.0
 10
6.06375378
 20
1.9505491007
 30
0.0
 10
6.0385650994
 20
1.963142744
 30
0.0
 11
6.3890062389
 21
1.9618940955
 31
0.0
 11
6.3079810648
 21
1.9356021496
 31
0.0
 11
6.2131601202
 21
1.9266169978
 31
0.0
 11
6.1186640447
 21
1.9362767003
 31
0.0
 11
6.0385650994
 21
1.963142744
 31
0.0
  0
SPLINE
  5
29A
100
AcDbEntity
  8
ASSI
100
AcDbSpline
 62
253
  6
CONTINUOUS
 70
0
 71
3
 72
11
 73
7
 74
5
 42
0.0000001
 43
0.0000001
 44
0.0000000001
 12
0.019995042
 22
-0.5969935292
 32
0.0
 13
0.5356077716
 23
-0.2715003034
 33
0.0
 40
0.0
 40
0.0
 40
0.0
 40
0.0
 40
0.3060244882
 40
0.5801118581
 40
0.8277905762
 40
1.0
 40
1.0
 40
1.0
 40
1.0
 10
6.279172552
 20
-12.0501226034
 30
0.0
 10
6.2812122095
 20
-12.1110208165
 30
0.0
 10
6.2955584688
 20
-12.2266282591
 30
0.0
 10
6.3540516184
 20
-12.3826991252
 30
0.0
 10
6.439816189
 20
-12.4942520658
 30
0.0
 10
6.509816258
 20
-12.5422863928
 30
0.0
 10
6.5405618266
 20
-12.5578713631
 30
0.0
 11
6.279172552
 21
-12.0501226034
 31
0.0
 11
6.3037632985
 21
-12.2312581002
 31
0.0
 11
6.3635375058
 21
-12.3836763656
 31
0.0
 11
6.4554437506
 21
-12.4996121841
 31
0.0
 11
6.5405618266
 21
-12.5578713631
 31
0.0
  0
LINE
  5
29B
100
AcDbEntity
  8
ASSI
100
AcDbLine
 62
253
  6
CONTINUOUS
 10
-10.6283655835
 20
-3.5963535357
 11
-10.6313031613
 21
-3.5053850725
  0
SPLINE
  5
29C
100
AcDbEntity
  8
ASSI
100
AcDbSpline
 62
253
  6
CONTINUOUS
 70
0
 71
3
 72
10
 73
6
 74
4
 42
0.0000001
 43
0.0000001
 44
0.0000000001
 12
0.1056673508
 22
0.0577633496
 32
0.0
 13
0.1075013196
 23
-0.0518675463
 33
0.0
 40
0.0
 40
0.0
 40
0.0
 40
0.0
 40
0.0964758944
 40
0.516119714
 40
1.0
 40
1.0
 40
1.0
 40
1.0
 10
-10.8026241254
 20
10.7214250668
 30
0.0
 10
-10.799226008
 20
10.7232826571
 30
0.0
 10
-10.7804724014
 20
10.7320993459
 30
0.0
 10
-10.7393129055
 20
10.7362194303
 30
0.0
 10
-10.7043701608
 20
10.7247519375
 30
0.0
 10
-10.6870309044
 20
10.7163860431
 30
0.0
 11
-10.8026241254
 21
10.7214250668
 31
0.0
 11
-10.7921279663
 21
10.7263450194
 31
0.0
 11
-10.7424413121
 21
10.7326780269
 31
0.0
 11
-10.6870309044
 21
10.7163860431
 31
0.0
  0
ELLIPSE
  5
29D
100
AcDbEntity
  8
RACCORDO
100
AcDbEllipse
 62
7
  6
CONTINUOUS
 10
-6.9671723929
 20
12.5067397386
 30
0.0
 11
-0.1118504554
 21
0.2236675568
 31
0.0
 40
0.6121897086
 41
-0.6846338794
 42
0.0186659329
  0
ELLIPSE
  5
29E
100
AcDbEntity
  8
RACCORDO
100
AcDbEllipse
 62
7
  6
CONTINUOUS
 10
9.7958084781
 20
-11.7150385943
 30
0.0
 11
-0.0859020599
 21
0.2354039488
 31
0.0
 40
0.6613288813
 41
-3.0814036799
 42
-2.1814380601
  0
ELLIPSE
  5
29F
100
AcDbEntity
  8
RACCORDO
100
AcDbEllipse
 62
7
  6
CONTINUOUS
 10
10.0641731018
 20
3.9910669912
 30
0.0
 11
-0.1117903878
 21
0.2236141634
 31
0.0
 40
0.6125552124
 41
-2.255296188
 42
-0.6848044477
  0
ELLIPSE
  5
2A0
100
AcDbEntity
  8
RACCORDO
100
AcDbEllipse
 62
7
  6
CONTINUOUS
 10
10.456811538
 20
3.4001979151
 30
0.0
 11
0.1379861541
 21
0.2664038768
 31
0.0
 40
0.6229838795
 41
2.2644017489
 42
3.8177447832
  0
ELLIPSE
  5
2A1
100
AcDbEntity
  8
RACCORDO
100
AcDbEllipse
 62
7
  6
CONTINUOUS
 10
9.2727787883
 20
-11.710283407
 30
0.0
 11
-0.1098985543
 21
0.2275784384
 31
0.0
 40
0.6085747011
 41
-3.2548100557
 42
-2.2415613143
  0
ELLIPSE
  5
2A2
100
AcDbEntity
  8
RACCORDO
100
AcDbEllipse
 62
7
  6
CONTINUOUS
 10
9.2727787883
 20
-11.9620862095
 30
0.0
 11
-0.1118523001
 21
0.2236266191
 31
0.0
 40
0.6122950388
 41
2.456793014
 42
4.0274370417
  0
ELLIPSE
  5
2A3
100
AcDbEntity
  8
ASSI
100
AcDbEllipse
 62
7
  6
CONTINUOUS
 10
-6.9671723929
 20
12.5067397386
 30
0.0
 11
-0.1118504554
 21
0.2236675568
 31
0.0
 40
0.6121897086
 41
-0.6846338794
 42
0.0186659329
  0
ELLIPSE
  5
2A4
100
AcDbEntity
  8
ASSI
100
AcDbEllipse
 62
7
  6
CONTINUOUS
 10
9.7958084781
 20
-11.7150385943
 30
0.0
 11
-0.0859020599
 21
0.2354039488
 31
0.0
 40
0.6613288813
 41
-3.0814036799
 42
-2.1814380601
  0
ELLIPSE
  5
2A5
100
AcDbEntity
  8
ASSI
100
AcDbEllipse
 62
7
  6
CONTINUOUS
 10
10.0641731018
 20
3.9910669912
 30
0.0
 11
-0.1117903878
 21
0.2236141634
 31
0.0
 40
0.6125552124
 41
-2.255296188
 42
-0.6848044477
  0
ELLIPSE
  5
2A6
100
AcDbEntity
  8
ASSI
100
AcDbEllipse
 62
7
  6
CONTINUOUS
 10
10.456811538
 20
3.4001979151
 30
0.0
 11
0.1379861541
 21
0.2664038768
 31
0.0
 40
0.6229838795
 41
2.2644017489
 42
3.8177447832
  0
ELLIPSE
  5
2A7
100
AcDbEntity
  8
ASSI
100
AcDbEllipse
 62
7
  6
CONTINUOUS
 10
9.2727787883
 20
-11.710283407
 30
0.0
 11
-0.1098985543
 21
0.2275784384
 31
0.0
 40
0.6085747011
 41
-3.2548100557
 42
-2.2415613143
  0
ELLIPSE
  5
2A8
100
AcDbEntity
  8
ASSI
100
AcDbEllipse
 62
7
  6
CONTINUOUS
 10
9.2727787883
 20
-11.9620862095
 30
0.0
 11
-0.1118523001
 21
0.2236266191
 31
0.0
 40
0.6122950388
 41
2.456793014
 42
4.0274370417
  0
ELLIPSE
  5
2A9
100
AcDbEntity
  8
CURVE
100
AcDbEllipse
 62
253
  6
CONTINUOUS
 10
287.9267134594
 20
162.01613859
 30
0.0
 11
-315.2613449681
 21
510.1035714974
 31
0.0
 40
0.5587454355
 41
1.5448121956
 42
1.5543456858
  0
ELLIPSE
  5
2AA
100
AcDbEntity
  8
CURVE
100
AcDbEllipse
 62
253
  6
CONTINUOUS
 10
308.2913887576
 20
151.8338009409
 30
0.0
 11
424.4616252599
 21
262.3317113306
 31
0.0
 40
0.0815198604
 41
2.330210359
 42
2.3397438492
  0
ENDSEC
  0
SECTION
  2
OBJECTS
  0
DICTIONARY
  5
C
100
AcDbDictionary
280
0
281
1
  3
ACAD_GROUP
350
D
  3
ACAD_MLINESTYLE
350
17
  3
ACAD_LAYOUT
350
1A
  3
ACAD_PLOTSETTINGS
350
19
  3
ACAD_PLOTSTYLENAME
350
E
  0
DICTIONARY
  5
D
102
{ACAD_REACTORS
330
C
102
}
100
AcDbDictionary
280
0
281
1
  0
ACDBDICTIONARYWDFLT
  5
E
102
{ACAD_REACTORS
330
C
102
}
100
AcDbDictionary
281
1
  3
Normal
350
F
100
AcDbDictionaryWithDefault
340
F
  0
DICTIONARY
  5
17
102
{ACAD_REACTORS
330
C
102
}
100
AcDbDictionary
280
0
281
1
  3
Standard
350
18
  0
DICTIONARY
  5
19
102
{ACAD_REACTORS
330
C
102
}
100
AcDbDictionary
281
1
  0
DICTIONARY
  5
1A
102
{ACAD_REACTORS
330
C
102
}
100
AcDbDictionary
281
1
  3
Model
350
2AB
  3
Layout1
350
2AC
  0
ACDBPLACEHOLDER
  5
F
102
{ACAD_REACTORS
330
E
102
}
  0
MLINESTYLE
  5
18
102
{ACAD_REACTORS
330
17
102
}
100
AcDbMlineStyle
  2
STANDARD
 70
0
  3

 62
256
 51
90.0
 52
90.0
 71
2
 49
0.5
 62
256
  6
BYLAYER
 49
-0.5
 62
256
  6
BYLAYER
  0
LAYOUT
  5
2AB
102
{ACAD_REACTORS
330
1A
102
}
100
AcDbPlotSettings
  1

  2
none_device
  4
ISO_A4_(297.00_x_210.00_MM)
  6

 40
0.0
 41
0.0
 42
0.0
 43
0.0
 44
297.0
 45
210.0
 46
0.0
 47
0.0
 48
0.0
 49
0.0
140
0.0
141
0.0
142
1.0
143
1.0
 70
1024
 72
1
 73
0
 74
0
  7

 75
0
147
1.0
148
0.0
149
0.0
100
AcDbLayout
  1
Model
 70
0
 71
0
 10
0.0
 20
0.0
 11
297.0
 21
210.0
 12
0.0
 22
0.0
 32
0.0
 14
0.0
 24
0.0
 34
0.0
 15
0.0
 25
0.0
 35
0.0
146
0.0
 13
0.0
 23
0.0
 33
0.0
 16
1.0
 26
0.0
 36
0.0
 17
0.0
 27
1.0
 37
0.0
 76
0
330
211
345
0
346
0
  0
LAYOUT
  5
2AC
102
{ACAD_REACTORS
330
1A
102
}
100
AcDbPlotSettings
  1

  2
none_device
  4
ISO_A4_(297.00_x_210.00_MM)
  6

 40
0.0
 41
0.0
 42
0.0
 43
0.0
 44
297.0
 45
210.0
 46
0.0
 47
0.0
 48
0.0
 49
0.0
140
0.0
141
0.0
142
1.0
143
1.0
 70
0
 72
1
 73
0
 74
0
  7

 75
0
147
1.0
148
0.0
149
0.0
100
AcDbLayout
  1
Layout1
 70
0
 71
1
 10
0.0
 20
0.0
 11
297.0
 21
210.0
 12
0.0
 22
0.0
 32
0.0
 14
0.0
 24
0.0
 34
0.0
 15
0.0
 25
0.0
 35
0.0
146
0.0
 13
0.0
 23
0.0
 33
0.0
 16
1.0
 26
0.0
 36
0.0
 17
0.0
 27
1.0
 37
0.0
 76
0
330
212
345
0
346
0
  0
ENDSEC
  0
EOF
