  0
SECTION
  2
HEADER
  9
$ACADVER
  1
AC1015
  9
$DWGCODEPAGE
  3
ANSI_1252
  9
$EXTMAX
 10
297.0
 20
210.0
 30
0.0
  9
$EXTMIN
 10
0.0
 20
0.0
 30
0.0
  9
$LIMMIN
 10
0.0
 20
0.0
  9
$LIMMAX
 10
297.0
 20
210.0
  9
$VIEWCTR
 10
148.5
 20
105.0
  9
$VIEWSIZE
 40
210.0
  9
$CLAYER
  8
0
  9
$LTSCALE
 40
16.335
  9
$CELTYPE
  6
BYLAYER
  9
$DIMSCALE
 40
1.0
  9
$DIMASZ
 40
3.0
  9
$DIMEXO
 40
1.85625
  9
$DIMDLI
 40
11.286
  9
$DIMEXE
 40
5.346
  9
$DIMCEN
 40
2.673
  9
$DIMLFAC
 40
1.0
  9
$DIMBLK
  1
_FILLED
  9
$DIMTXT
 40
3.0
  9
$DIMTOL
 70
1
  9
$DIMLIM
 70
0
  9
$DIMTFAC
 40
1.0
  9
$DIMTP
 40
0.01
  9
$DIMTM
 40
0.01
  9
$PDMODE
 70
3
  9
$PDSIZE
 40
3.0
  9
$HANDSEED
  5
2AF
  9
$TILEMODE
 70
1
  9
$MEASUREMENT
 70
1
  9
$INSUNITS
 70
4
  0
ENDSEC
  0
SECTION
  2
CLASSES
  0
CLASS
  1
ACDBDICTIONARYWDFLT
  2
AcDbDictionaryWithDefault
  3
AutoCAD 2000
 90
0
280
0
281
0
  0
CLASS
  1
ACDBPLACEHOLDER
  2
AcDbPlaceHolder
  3
AutoCAD 2000
 90
0
280
0
281
0
  0
CLASS
  1
LAYOUT
  2
AcDbLayout
  3
AutoCAD 2000
 90
0
280
0
281
0
  0
ENDSEC
  0
SECTION
  2
TABLES
  0
TABLE
  2
VPORT
  5
8
100
AcDbSymbolTable
 70
2
  0
VPORT
  5
1F4
100
AcDbSymbolTableRecord
100
AcDbViewportTableRecord
  2
*ACTIVE
 70
0
 10
0.0
 20
0.0
 11
1.0
 21
1.0
 12
148.5
 22
105.0
 13
0.0
 23
0.0
 14
1.0
 24
1.0
 15
0.0
 25
0.0
 16
0.0
 26
0.0
 36
1.0
 17
0.0
 27
0.0
 37
0.0
 40
210.0
 41
1.4142857143
 42
50.0
 43
0.0
 44
0.0
 50
0.0
 51
0.0
 71
0
 72
100
 73
1
 74
1
 75
0
 76
0
 77
0
 78
0
  0
ENDTAB
  0
TABLE
  2
LTYPE
  5
5
100
AcDbSymbolTable
 70
6
  0
LTYPE
  5
14
100
AcDbSymbolTableRecord
100
AcDbLinetypeTableRecord
  2
BYBLOCK
 70
0
  3

 72
65
 73
0
 40
0.0
  0
LTYPE
  5
15
100
AcDbSymbolTableRecord
100
AcDbLinetypeTableRecord
  2
BYLAYER
 70
0
  3

 72
65
 73
0
 40
0.0
  0
LTYPE
  5
16
100
AcDbSymbolTableRecord
100
AcDbLinetypeTableRecord
  2
CONTINUOUS
 70
64
  3
Solid line
 72
65
 73
0
 40
0.0
  0
LTYPE
  5
1F5
100
AcDbSymbolTableRecord
100
AcDbLinetypeTableRecord
  2
CENTER
 70
64
  3
____ _ ____ _ ____ _ ____ _ ____ _ ____ _ ____
 72
65
 73
4
 40
0.6
 49
0.375
 74
0
 49
-0.075
 74
0
 49
0.075
 74
0
 49
-0.075
 74
0
  0
LTYPE
  5
1F6
100
AcDbSymbolTableRecord
100
AcDbLinetypeTableRecord
  2
HIDDEN
 70
64
  3
- - - - - - - - - - - - - - - - - - - -
 72
65
 73
2
 40
0.2
 49
0.1
 74
0
 49
-0.1
 74
0
  0
LTYPE
  5
1F7
100
AcDbSymbolTableRecord
100
AcDbLinetypeTableRecord
  2
PHANTOM
 70
64
  3
_____ _ _ _____ _ _ _____ _ _ _____
 72
65
 73
6
 40
0.8
 49
0.45
 74
0
 49
-0.05
 74
0
 49
0.1
 74
0
 49
-0.05
 74
0
 49
0.1
 74
0
 49
-0.05
 74
0
  0
LTYPE
  5
1F8
100
AcDbSymbolTableRecord
100
AcDbLinetypeTableRecord
  2
DOT
 70
64
  3
. . . . . . . . . . . . . . . . . . . .
 72
65
 73
2
 40
0.2
 49
0.1
 74
0
 49
-0.1
 74
0
  0
LTYPE
  5
1F9
100
AcDbSymbolTableRecord
100
AcDbLinetypeTableRecord
  2
DASHED
 70
64
  3
- - - - - - - - - - - - - - - - - - - -
 72
65
 73
2
 40
0.2
 49
0.1
 74
0
 49
-0.1
 74
0
  0
ENDTAB
  0
TABLE
  2
LAYER
  5
2
100
AcDbSymbolTable
 70
36
  0
LAYER
  5
10
100
AcDbSymbolTableRecord
100
AcDbLayerTableRecord
  2
0
 70
0
 62
7
  6
CONTINUOUS
370
-3
390
F
  0
LAYER
  5
1FA
100
AcDbSymbolTableRecord
100
AcDbLayerTableRecord
  2
DEFAULT_1
 70
0
 62
7
  6
CENTER
370
-3
390
F
  0
LAYER
  5
1FB
100
AcDbSymbolTableRecord
100
AcDbLayerTableRecord
  2
DEFAULT_2
 70
0
 62
7
  6
HIDDEN
370
-3
390
F
  0
LAYER
  5
1FC
100
AcDbSymbolTableRecord
100
AcDbLayerTableRecord
  2
DEFAULT_3
 70
0
 62
7
  6
PHANTOM
370
-3
390
F
  0
LAYER
  5
1FD
100
AcDbSymbolTableRecord
100
AcDbLayerTableRecord
  2
ASSI
 70
0
 62
7
  6
CONTINUOUS
370
-3
390
F
  0
LAYER
  5
1FE
100
AcDbSymbolTableRecord
100
AcDbLayerTableRecord
  2
COORDINATE
 70
0
 62
7
  6
CONTINUOUS
370
-3
390
F
  0
LAYER
  5
1FF
100
AcDbSymbolTableRecord
100
AcDbLayerTableRecord
  2
COORD_ORIGINE
 70
0
 62
7
  6
CONTINUOUS
370
-3
390
F
  0
LAYER
  5
200
100
AcDbSymbolTableRecord
100
AcDbLayerTableRecord
  2
COPY_PUBLISH
 70
0
 62
7
  6
CONTINUOUS
370
-3
390
F
  0
LAYER
  5
201
100
AcDbSymbolTableRecord
100
AcDbLayerTableRecord
  2
COSMETIC
 70
0
 62
7
  6
CONTINUOUS
370
-3
390
F
  0
LAYER
  5
202
100
AcDbSymbolTableRecord
100
AcDbLayerTableRecord
  2
CURVE
 70
0
 62
7
  6
CONTINUOUS
370
-3
390
F
  0
LAYER
  5
203
100
AcDbSymbolTableRecord
100
AcDbLayerTableRecord
  2
DRAFT
 70
0
 62
7
  6
CONTINUOUS
370
-3
390
F
  0
LAYER
  5
204
100
AcDbSymbolTableRecord
100
AcDbLayerTableRecord
  2
IGES
 70
0
 62
7
  6
CONTINUOUS
370
-3
390
F
  0
LAYER
  5
205
100
AcDbSymbolTableRecord
100
AcDbLayerTableRecord
  2
IMPORT_IGES
 70
0
 62
7
  6
CONTINUOUS
370
-3
390
F
  0
LAYER
  5
206
100
AcDbSymbolTableRecord
100
AcDbLayerTableRecord
  2
INTF_12
 70
0
 62
7
  6
CONTINUOUS
370
-3
390
F
  0
LAYER
  5
207
100
AcDbSymbolTableRecord
100
AcDbLayerTableRecord
  2
INTF_9
 70
0
 62
7
  6
CONTINUOUS
370
-3
390
F
  0
LAYER
  5
208
100
AcDbSymbolTableRecord
100
AcDbLayerTableRecord
  2
NOTE
 70
0
 62
7
  6
CONTINUOUS
370
-3
390
F
  0
LAYER
  5
209
100
AcDbSymbolTableRecord
100
AcDbLayerTableRecord
  2
PIANI
 70
0
 62
7
  6
CONTINUOUS
370
-3
390
F
  0
LAYER
  5
20A
100
AcDbSymbolTableRecord
100
AcDbLayerTableRecord
  2
PIANI_ORIGINE
 70
0
 62
7
  6
CONTINUOUS
370
-3
390
F
  0
LAYER
  5
20B
100
AcDbSymbolTableRecord
100
AcDbLayerTableRecord
  2
RACCORDO
 70
0
 62
7
  6
CONTINUOUS
370
-3
390
F
  0
LAYER
  5
20C
100
AcDbSymbolTableRecord
100
AcDbLayerTableRecord
  2
SMUSSO
 70
0
 62
7
  6
CONTINUOUS
370
-3
390
F
  0
LAYER
  5
20D
100
AcDbSymbolTableRecord
100
AcDbLayerTableRecord
  2
SUPERFICI
 70
0
 62
7
  6
CONTINUOUS
370
-3
390
F
  0
LAYER
  5
20E
100
AcDbSymbolTableRecord
100
AcDbLayerTableRecord
  2
TRASH
 70
0
 62
7
  6
CONTINUOUS
370
-3
390
F
  0
ENDTAB
  0
TABLE
  2
STYLE
  5
3
100
AcDbSymbolTable
 70
1
  0
STYLE
  5
11
100
AcDbSymbolTableRecord
100
AcDbTextStyleTableRecord
  2
STANDARD
 70
0
 40
0.0
 41
0.8
 50
0.0
 71
0
 42
0.2
  3
txt
  4

  0
STYLE
  5
20F
100
AcDbSymbolTableRecord
100
AcDbTextStyleTableRecord
  2
TEXTSTYLE_1
 70
0
 40
0.0
 41
0.8
 50
0.0
 71
0
 42
0.2
  3
gdt
  4

  0
ENDTAB
  0
TABLE
  2
VIEW
  5
6
100
AcDbSymbolTable
 70
0
  0
ENDTAB
  0
TABLE
  2
UCS
  5
7
100
AcDbSymbolTable
 70
0
  0
ENDTAB
  0
TABLE
  2
APPID
  5
9
100
AcDbSymbolTable
 70
1
  0
APPID
  5
210
100
AcDbSymbolTableRecord
100
AcDbRegAppTableRecord
  2
ACAD
 70
0
  0
ENDTAB
  0
TABLE
  2
BLOCK_RECORD
  5
1
100
AcDbSymbolTable
 70
0
  0
BLOCK_RECORD
  5
211
100
AcDbSymbolTableRecord
100
AcDbBlockTableRecord
  2
*Model_Space
  0
BLOCK_RECORD
  5
212
100
AcDbSymbolTableRecord
100
AcDbBlockTableRecord
  2
*Paper_Space
  0
ENDTAB
  0
TABLE
  2
DIMSTYLE
  5
A
100
AcDbSymbolTable
 70
1
100
AcDbDimStyleTable
 71
0
  0
DIMSTYLE
105
213
100
AcDbSymbolTableRecord
100
AcDbDimStyleTableRecord
  2
STANDARD
 70
0
  3

  4

 40
1.0
 41
3.0
 42
0.0625
 43
0.38
 44
0.18
 45
0.0
 46
0.0
 47
0.01
 48
0.01
140
3.0
141
0.09
142
0.0
143
25.4
144
1.0
145
0.0
146
1.0
147
0.09
 71
1.0
 72
0.0
 73
0
 74
0
 75
0
 76
0
 77
1
 78
8
170
0
171
2
172
0
173
0
174
0
175
0
176
0
177
0
178
0
270
2
271
2
272
2
273
2
274
2
275
0
280
0
281
0
282
0
283
1
284
8
285
0
286
0
287
3
288
0
340
11
  0
ENDTAB
  0
ENDSEC
  0
SECTION
  2
BLOCKS
  0
BLOCK
  5
20
100
AcDbEntity
  8
0
100
AcDbBlockBegin
  2
*Model_Space
 70
0
 10
0.0
 20
0.0
 30
0.0
  3
*Model_Space
  1

  0
ENDBLK
  5
21
100
AcDbEntity
  8
0
100
AcDbBlockEnd
  0
BLOCK
  5
1C
100
AcDbEntity
  8
0
100
AcDbBlockBegin
  2
*Paper_Space
 70
0
 10
0.0
 20
0.0
 30
0.0
  3
*Paper_Space
  1

  0
ENDBLK
  5
1D
100
AcDbEntity
  8
0
100
AcDbBlockEnd
  0
ENDSEC
  0
SECTION
  2
ENTITIES
  0
LINE
  5
214
100
AcDbEntity
  8
RACCORDO
100
AcDbLine
 62
7
  6
CONTINUOUS
 10
-10.6902685603
 20
10.6709982918
 11
-6.9692613722
 21
12.6785670359
  0
LINE
  5
215
100
AcDbEntity
  8
ASSI
100
AcDbLine
 62
7
  6
CONTINUOUS
 10
-10.6902685603
 20
10.6709982918
 11
-6.9692613722
 21
12.6785670359
  0
LINE
  5
216
100
AcDbEntity
  8
RACCORDO
100
AcDbLine
 62
253
  6
CONTINUOUS
 10
-10.5746477839
 20
10.6659088606
 11
-6.8548431244
 21
12.6728288131
  0
LINE
  5
217
100
AcDbEntity
  8
ASSI
100
AcDbLine
 62
253
  6
CONTINUOUS
 10
-10.5746477839
 20
10.6659088606
 11
-6.8548431244
 21
12.6728288131
  0
LINE
  5
218
100
AcDbEntity
  8
RACCORDO
100
AcDbLine
 62
7
  6
CONTINUOUS
 10
7.0789567673
 20
-12.6437960501
 11
9.4783744418
 21
-11.9945288106
  0
LINE
  5
219
100
AcDbEntity
  8
ASSI
100
AcDbLine
 62
7
  6
CONTINUOUS
 10
7.0789567673
 20
-12.6437960501
 11
9.4783744418
 21
-11.9945288106
  0
LINE
  5
21A
100
AcDbEntity
  8
RACCORDO
100
AcDbLine
 62
253
  6
CONTINUOUS
 10
7.1873213734
 20
-12.4923923455
 11
9.5619655321
 21
-11.8498286626
  0
LINE
  5
21B
100
AcDbEntity
  8
ASSI
100
AcDbLine
 62
253
  6
CONTINUOUS
 10
7.1873213734
 20
-12.4923923455
 11
9.5619655321
 21
-11.8498286626
  0
LINE
  5
21C
100
AcDbEntity
  8
ASSI
100
AcDbLine
 62
7
  6
CONTINUOUS
 10
7.071551548
 20
-12.6457442144
 11
7.0786822452
 21
-12.6438582555
  0
LINE
  5
21D
100
AcDbEntity
  8
RACCORDO
100
AcDbLine
 62
7
  6
CONTINUOUS
 10
7.0654127378
 20
-12.6473058634
 11
7.0788593446
 21
-12.6438106548
  0
LINE
  5
21E
100
AcDbEntity
  8
DRAFT
100
AcDbLine
 62
7
  6
CONTINUOUS
 10
-4.3583389516
 20
11.4245767267
 11
-6.2940678134
 21
10.2257712251
  0
LINE
  5
21F
100
AcDbEntity
  8
ASSI
100
AcDbLine
 62
7
  6
CONTINUOUS
 10
-4.3583389516
 20
11.4245767267
 11
-6.2940678134
 21
10.2257712251
  0
LINE
  5
220
100
AcDbEntity
  8
DRAFT
100
AcDbLine
 62
7
  6
CONTINUOUS
 10
-4.3583389516
 20
10.436742443
 11
-5.4115248358
 21
9.7844997363
  0
LINE
  5
221
100
AcDbEntity
  8
ASSI
100
AcDbLine
 62
7
  6
CONTINUOUS
 10
-4.3583389516
 20
10.436742443
 11
-5.4115248358
 21
9.7844997363
  0
LWPOLYLINE
  5
222
100
AcDbEntity
  8
ASSI
100
AcDbPolyline
 62
7
  6
CONTINUOUS
 90
10
 70
0
 10
-10.5824887942
 20
-3.6452114346
 10
-10.5704274269
 20
-3.7179933921
 10
-10.5525993418
 20
-3.7873546251
 10
-10.5291137647
 20
-3.8528191715
 10
-10.5003226966
 20
-3.9135735594
 10
-10.4666084867
 20
-3.9691470672
 10
-10.4281905963
 20
-4.0195047903
 10
-10.3853789535
 20
-4.0644121638
 10
-10.3386218122
 20
-4.1035237625
 10
-10.288424427
 20
-4.1365986539
  0
LWPOLYLINE
  5
223
100
AcDbEntity
  8
RACCORDO
100
AcDbPolyline
 62
7
  6
CONTINUOUS
 90
12
 70
0
 10
-10.5879232702
 20
-3.5857280485
 10
-10.5814436128
 20
-3.6533800888
 10
-10.5703595726
 20
-3.7183159638
 10
-10.5547014617
 20
-3.7803758247
 10
-10.5345629809
 20
-3.839275749
 10
-10.5101509266
 20
-3.8945566506
 10
-10.4816578665
 20
-3.9459450366
 10
-10.4492373591
 20
-3.9933225864
 10
-10.4131670131
 20
-4.0364218263
 10
-10.3737562099
 20
-4.0749970226
 10
-10.3313207449
 20
-4.1088585845
 10
-10.2862850397
 20
-4.1378323015
  0
LINE
  5
224
100
AcDbEntity
  8
RACCORDO
100
AcDbLine
 62
7
  6
CONTINUOUS
 10
-10.589208789
 20
-3.5579878461
 11
-10.5879232702
 21
-3.5857280485
  0
LWPOLYLINE
  5
225
100
AcDbEntity
  8
ASSI
100
AcDbPolyline
 62
7
  6
CONTINUOUS
 90
3
 70
0
 10
-10.5892098872
 20
-3.5579533168
 10
-10.5887819821
 20
-3.5691918307
 10
-10.5824887942
 20
-3.6452114346
  0
LINE
  5
226
100
AcDbEntity
  8
ASSI
100
AcDbLine
 62
7
  6
CONTINUOUS
 10
-10.6352285861
 20
-2.0574459236
 11
-10.5892139354
 21
-3.5580148572
  0
LWPOLYLINE
  5
227
100
AcDbEntity
  8
ASSI
100
AcDbPolyline
 62
7
  6
CONTINUOUS
 90
8
 70
0
 10
-10.8174592865
 20
8.9317100854
 10
-10.8078168937
 20
7.3515688871
 10
-10.7926975477
 20
5.7743261431
 10
-10.7721014745
 20
4.2000146282
 10
-10.746029061
 20
2.6286616226
 10
-10.7144806995
 20
1.0602926196
 10
-10.6774568798
 20
-0.5050646703
 10
-10.6352285861
 20
-2.0574459236
  0
LINE
  5
228
100
AcDbEntity
  8
ASSI
100
AcDbLine
 62
7
  6
CONTINUOUS
 10
-10.8215624671
 20
10.4507180418
 11
-10.8174592865
 21
8.9317100854
  0
LWPOLYLINE
  5
229
100
AcDbEntity
  8
RACCORDO
100
AcDbPolyline
 62
7
  6
CONTINUOUS
 90
10
 70
0
 10
-10.8215624671
 20
10.4507180412
 10
-10.8173790955
 20
8.9134234869
 10
-10.8077168664
 20
7.3388371253
 10
-10.7926159301
 20
5.7671292243
 10
-10.7720765109
 20
4.1983321862
 10
-10.7460989919
 20
2.6324730025
 10
-10.7146837615
 20
1.0695769316
 10
-10.6778313035
 20
-0.4903286158
 10
-10.6355424367
 20
-2.0472110407
 10
-10.5892139355
 20
-3.5580148565
  0
LWPOLYLINE
  5
22A
100
AcDbEntity
  8
RACCORDO
100
AcDbPolyline
 62
7
  6
CONTINUOUS
 90
9
 70
0
 10
6.6615612387
 20
-12.612640442
 10
6.7066845071
 20
-12.6319085325
 10
6.7540595686
 20
-12.6472301342
 10
6.8032229545
 20
-12.6583363474
 10
6.8538933514
 20
-12.6650962996
 10
6.905808734
 20
-12.6674075042
 10
6.9585457772
 20
-12.6652012547
 10
7.0118119191
 20
-12.6584882332
 10
7.0654127378
 20
-12.6473058634
  0
LWPOLYLINE
  5
22B
100
AcDbEntity
  8
ASSI
100
AcDbPolyline
 62
7
  6
CONTINUOUS
 90
8
 70
0
 10
6.6529670444
 20
-12.6084064865
 10
6.6704691027
 20
-12.616830222
 10
6.7307540105
 20
-12.640287908
 10
6.7947416133
 20
-12.6567497481
 10
6.8616874428
 20
-12.6657348407
 10
6.9305542723
 20
-12.6669328775
 10
7.0006578622
 20
-12.6602596151
 10
7.0709349404
 20
-12.6458704641
  0
LINE
  5
22C
100
AcDbEntity
  8
RACCORDO
100
AcDbLine
 62
7
  6
CONTINUOUS
 10
6.6544119357
 20
-12.6091325529
 11
6.6615612387
 21
-12.612640442
  0
LINE
  5
22D
100
AcDbEntity
  8
RACCORDO
100
AcDbLine
 62
7
  6
CONTINUOUS
 10
6.6542873672
 20
-12.6090819005
 11
6.6543624477
 21
-12.6091194308
  0
LINE
  5
22E
100
AcDbEntity
  8
RACCORDO
100
AcDbLine
 62
7
  6
CONTINUOUS
 10
-10.2600440239
 20
-4.1519162049
 11
6.6543167289
 21
-12.6090965813
  0
LINE
  5
22F
100
AcDbEntity
  8
ASSI
100
AcDbLine
 62
7
  6
CONTINUOUS
 10
-10.2600711922
 20
-4.1519026208
 11
6.6543167289
 21
-12.6090965813
  0
LINE
  5
230
100
AcDbEntity
  8
RACCORDO
100
AcDbLine
 62
253
  6
CONTINUOUS
 10
-10.515982463
 20
-3.6468307182
 11
6.3915556725
 21
-12.1005997859
  0
LINE
  5
231
100
AcDbEntity
  8
ASSI
100
AcDbLine
 62
253
  6
CONTINUOUS
 10
-10.515982463
 20
-3.6468307182
 11
6.3915556725
 21
-12.1005997859
  0
LINE
  5
232
100
AcDbEntity
  8
RACCORDO
100
AcDbLine
 62
7
  6
CONTINUOUS
 10
-10.2862850397
 20
-4.1378323015
 11
-10.2594268186
 21
-4.1522126631
  0
LINE
  5
233
100
AcDbEntity
  8
ASSI
100
AcDbLine
 62
7
  6
CONTINUOUS
 10
-10.288424427
 20
-4.1365986539
 11
-10.2601289092
 21
-4.1518620707
  0
LINE
  5
234
100
AcDbEntity
  8
RACCORDO
100
AcDbLine
 62
7
  6
CONTINUOUS
 10
9.3851888358
 20
-12.2290914507
 11
9.1135188075
 21
-12.0932564365
  0
LINE
  5
235
100
AcDbEntity
  8
ASSI
100
AcDbLine
 62
7
  6
CONTINUOUS
 10
9.3851888358
 20
-12.2290914507
 11
9.1135188075
 21
-12.0932564365
  0
LINE
  5
236
100
AcDbEntity
  8
DRAFT
100
AcDbLine
 62
7
  6
CONTINUOUS
 10
-2.2118283034
 20
4.0359275683
 11
-2.6634452257
 21
3.7975146862
  0
LINE
  5
237
100
AcDbEntity
  8
DRAFT
100
AcDbLine
 62
7
  6
CONTINUOUS
 10
-4.3583389516
 20
11.4245767267
 11
-4.3583389516
 21
10.436742443
  0
LINE
  5
238
100
AcDbEntity
  8
ASSI
100
AcDbLine
 62
7
  6
CONTINUOUS
 10
-4.3583389516
 20
11.4245767267
 11
-4.3583389516
 21
10.436742443
  0
LINE
  5
239
100
AcDbEntity
  8
DRAFT
100
AcDbLine
 62
7
  6
CONTINUOUS
 10
-1.1111747831
 20
1.8623816127
 11
-1.584102276
 21
1.6388287852
  0
LINE
  5
23A
100
AcDbEntity
  8
CURVE
100
AcDbLine
 62
253
  6
CONTINUOUS
 10
0.6497078061
 20
-3.5220096704
 11
-5.0778571215
 21
-0.6582272066
  0
LINE
  5
23B
100
AcDbEntity
  8
DRAFT
100
AcDbLine
 62
7
  6
CONTINUOUS
 10
7.6801059015
 20
5.4053543001
 11
5.3731940762
 21
4.3921402803
  0
LINE
  5
23C
100
AcDbEntity
  8
ASSI
100
AcDbLine
 62
7
  6
CONTINUOUS
 10
7.6801059015
 20
5.4053543001
 11
5.3731940762
 21
4.3921402803
  0
LINE
  5
23D
100
AcDbEntity
  8
RACCORDO
100
AcDbLine
 62
253
  6
CONTINUOUS
 10
10.1766100743
 20
4.1571022137
 11
6.324639588
 21
2.2162651747
  0
LINE
  5
23E
100
AcDbEntity
  8
ASSI
100
AcDbLine
 62
253
  6
CONTINUOUS
 10
10.1766100743
 20
4.1571022137
 11
6.324639588
 21
2.2162651747
  0
LINE
  5
23F
100
AcDbEntity
  8
RACCORDO
100
AcDbLine
 62
253
  6
CONTINUOUS
 10
10.3533598457
 20
3.8522539521
 11
6.5013893608
 21
1.9114169138
  0
LINE
  5
240
100
AcDbEntity
  8
ASSI
100
AcDbLine
 62
253
  6
CONTINUOUS
 10
10.3533598457
 20
3.8522539521
 11
6.5013893608
 21
1.9114169138
  0
LINE
  5
241
100
AcDbEntity
  8
RACCORDO
100
AcDbLine
 62
7
  6
CONTINUOUS
 10
10.641139596
 20
3.1231000918
 11
10.5654278216
 21
3.0881338854
  0
LINE
  5
242
100
AcDbEntity
  8
ASSI
100
AcDbLine
 62
7
  6
CONTINUOUS
 10
10.641139596
 20
3.1231000918
 11
10.5654278216
 21
3.0881338854
  0
LINE
  5
243
100
AcDbEntity
  8
RACCORDO
100
AcDbLine
 62
253
  6
CONTINUOUS
 10
6.15094822
 20
1.9126655614
 11
-10.7483391521
 21
10.3623092475
  0
LINE
  5
244
100
AcDbEntity
  8
ASSI
100
AcDbLine
 62
253
  6
CONTINUOUS
 10
6.15094822
 20
1.9126655614
 11
-10.7483391521
 21
10.3623092475
  0
LINE
  5
245
100
AcDbEntity
  8
RACCORDO
100
AcDbLine
 62
253
  6
CONTINUOUS
 10
6.324639588
 20
2.2162651747
 11
-10.5746477839
 21
10.6659088606
  0
LINE
  5
246
100
AcDbEntity
  8
ASSI
100
AcDbLine
 62
253
  6
CONTINUOUS
 10
6.324639588
 20
2.2162651747
 11
-10.5746477839
 21
10.6659088606
  0
LINE
  5
247
100
AcDbEntity
  8
DRAFT
100
AcDbLine
 62
7
  6
CONTINUOUS
 10
5.3731940762
 20
4.3921402803
 11
-6.2940678134
 21
10.2257712251
  0
LINE
  5
248
100
AcDbEntity
  8
ASSI
100
AcDbLine
 62
7
  6
CONTINUOUS
 10
5.3731940762
 20
4.3921402803
 11
-6.2940678134
 21
10.2257712251
  0
LINE
  5
249
100
AcDbEntity
  8
RACCORDO
100
AcDbLine
 62
253
  6
CONTINUOUS
 10
10.5654278216
 20
3.0881338854
 11
10.3586689339
 21
3.1915133292
  0
LINE
  5
24A
100
AcDbEntity
  8
ASSI
100
AcDbLine
 62
253
  6
CONTINUOUS
 10
10.5654278216
 20
3.0881338854
 11
10.3586689339
 21
3.1915133292
  0
LINE
  5
24B
100
AcDbEntity
  8
DRAFT
100
AcDbLine
 62
7
  6
CONTINUOUS
 10
10.641139596
 20
3.1231000918
 11
10.3533598457
 21
3.266989967
  0
LINE
  5
24C
100
AcDbEntity
  8
ASSI
100
AcDbLine
 62
7
  6
CONTINUOUS
 10
10.641139596
 20
3.1231000918
 11
10.3533598457
 21
3.266989967
  0
LINE
  5
24D
100
AcDbEntity
  8
RACCORDO
100
AcDbLine
 62
7
  6
CONTINUOUS
 10
10.1766100743
 20
4.1571022137
 11
7.6801059015
 21
5.4053543001
  0
LINE
  5
24E
100
AcDbEntity
  8
ASSI
100
AcDbLine
 62
7
  6
CONTINUOUS
 10
10.1766100743
 20
4.1571022137
 11
7.6801059015
 21
5.4053543001
  0
LINE
  5
24F
100
AcDbEntity
  8
RACCORDO
100
AcDbLine
 62
7
  6
CONTINUOUS
 10
-4.3583389516
 20
11.4245767267
 11
-6.8548431244
 21
12.6728288131
  0
LINE
  5
250
100
AcDbEntity
  8
ASSI
100
AcDbLine
 62
7
  6
CONTINUOUS
 10
-4.3583389516
 20
11.4245767267
 11
-6.8548431244
 21
12.6728288131
  0
LINE
  5
251
100
AcDbEntity
  8
RACCORDO
100
AcDbLine
 62
7
  6
CONTINUOUS
 10
9.5619655321
 20
-11.8498286626
 11
9.5619655321
 21
-12.1009981786
  0
LINE
  5
252
100
AcDbEntity
  8
ASSI
100
AcDbLine
 62
7
  6
CONTINUOUS
 10
9.5619655321
 20
-11.8498286626
 11
9.5619655321
 21
-12.1009981786
  0
LINE
  5
253
100
AcDbEntity
  8
RACCORDO
100
AcDbLine
 62
7
  6
CONTINUOUS
 10
10.3533598457
 20
3.2455061046
 11
10.3533598457
 21
3.8522539521
  0
LINE
  5
254
100
AcDbEntity
  8
ASSI
100
AcDbLine
 62
7
  6
CONTINUOUS
 10
10.3533598457
 20
3.2455061046
 11
10.3533598457
 21
3.8522539521
  0
LINE
  5
255
100
AcDbEntity
  8
DRAFT
100
AcDbLine
 62
7
  6
CONTINUOUS
 10
10.641139596
 20
3.1231000918
 11
10.641139596
 21
-5.2159981382
  0
LINE
  5
256
100
AcDbEntity
  8
ASSI
100
AcDbLine
 62
7
  6
CONTINUOUS
 10
10.641139596
 20
3.1231000918
 11
10.641139596
 21
-5.2159981382
  0
LINE
  5
257
100
AcDbEntity
  8
RACCORDO
100
AcDbLine
 62
7
  6
CONTINUOUS
 10
10.0849923454
 20
-11.8539519221
 11
10.641139596
 21
-5.2159981382
  0
LINE
  5
258
100
AcDbEntity
  8
ASSI
100
AcDbLine
 62
7
  6
CONTINUOUS
 10
10.0849923454
 20
-11.8539519221
 11
10.641139596
 21
-5.2159981382
  0
LINE
  5
259
100
AcDbEntity
  8
RACCORDO
100
AcDbLine
 62
253
  6
CONTINUOUS
 10
9.5619655321
 20
-12.1009981786
 11
10.0849923454
 21
-11.8539519221
  0
LINE
  5
25A
100
AcDbEntity
  8
ASSI
100
AcDbLine
 62
253
  6
CONTINUOUS
 10
9.5619655321
 20
-12.1009981786
 11
10.0849923454
 21
-11.8539519221
  0
LINE
  5
25B
100
AcDbEntity
  8
RACCORDO
100
AcDbLine
 62
7
  6
CONTINUOUS
 10
9.4950973534
 20
-12.237121688
 11
10.0034143595
 21
-11.9970234553
  0
LINE
  5
25C
100
AcDbEntity
  8
ASSI
100
AcDbLine
 62
7
  6
CONTINUOUS
 10
9.4950973534
 20
-12.237121688
 11
10.0034143595
 21
-11.9970234553
  0
ARC
  5
25D
100
AcDbEntity
  8
RACCORDO
100
AcDbCircle
 62
253
  6
CONTINUOUS
 10
437.5639774933
 20
10.7884927543
 40
448.3125442873
100
AcDbArc
 50
180.0544676289
 51
181.833567904
  0
ARC
  5
25E
100
AcDbEntity
  8
ASSI
100
AcDbCircle
 62
253
  6
CONTINUOUS
 10
437.5639774933
 20
10.7884927543
 40
448.3125442873
100
AcDbArc
 50
180.0544676289
 51
181.833567904
  0
ARC
  5
25F
100
AcDbEntity
  8
RACCORDO
100
AcDbCircle
 62
253
  6
CONTINUOUS
 10
437.1279539471
 20
2.3013927414
 40
430.9770748538
100
AcDbArc
 50
180.0516789074
 51
181.915013677
  0
ARC
  5
260
100
AcDbEntity
  8
ASSI
100
AcDbCircle
 62
253
  6
CONTINUOUS
 10
437.1279539471
 20
2.3013927414
 40
430.9770748538
100
AcDbArc
 50
180.0516789074
 51
181.915013677
  0
ARC
  5
261
100
AcDbEntity
  8
RACCORDO
100
AcDbCircle
 62
253
  6
CONTINUOUS
 10
437.2206740294
 20
2.2999166016
 40
430.7193537598
100
AcDbArc
 50
180.0516795677
 51
181.9150326979
  0
ARC
  5
262
100
AcDbEntity
  8
ASSI
100
AcDbCircle
 62
253
  6
CONTINUOUS
 10
437.2206740294
 20
2.2999166016
 40
430.7193537598
100
AcDbArc
 50
180.0516795677
 51
181.9150326979
  0
ARC
  5
263
100
AcDbEntity
  8
RACCORDO
100
AcDbCircle
 62
7
  6
CONTINUOUS
 10
-1.6630442978
 20
2.6581399345
 40
1.1007054639
100
AcDbArc
 50
237.1726665365
 51
240.9484598453
  0
ARC
  5
264
100
AcDbEntity
  8
RACCORDO
100
AcDbCircle
 62
7
  6
CONTINUOUS
 10
-1.6964514893
 20
2.5985932964
 40
1.0324284262
100
AcDbArc
 50
240.9644641986
 51
243.4252663163
  0
ARC
  5
265
100
AcDbEntity
  8
DRAFT
100
AcDbCircle
 62
7
  6
CONTINUOUS
 10
-1.558874059
 20
2.2938109952
 40
0.7026651541
100
AcDbArc
 50
259.551408176
 51
262.8975864568
  0
ARC
  5
266
100
AcDbEntity
  8
ASSI
100
AcDbCircle
 62
7
  6
CONTINUOUS
 10
-1.558874059
 20
2.2938109952
 40
0.7026651541
100
AcDbArc
 50
259.551408176
 51
262.8975864568
  0
ARC
  5
267
100
AcDbEntity
  8
DRAFT
100
AcDbCircle
 62
7
  6
CONTINUOUS
 10
-2.2126068966
 20
3.4660804816
 40
0.6136749686
100
AcDbArc
 50
142.6964001419
 51
148.683328854
  0
ARC
  5
268
100
AcDbEntity
  8
RACCORDO
100
AcDbCircle
 62
253
  6
CONTINUOUS
 10
-10.0939126714
 20
-3.8211289813
 40
0.3701087874
100
AcDbArc
 50
241.2341444111
 51
243.3328122744
  0
ARC
  5
269
100
AcDbEntity
  8
ASSI
100
AcDbCircle
 62
253
  6
CONTINUOUS
 10
-10.0939234603
 20
-3.8211504493
 40
0.370084766
100
AcDbArc
 50
241.2820495873
 51
243.309370668
  0
ARC
  5
26A
100
AcDbEntity
  8
ASSI
100
AcDbCircle
 62
7
  6
CONTINUOUS
 10
-10.5715852036
 20
10.4509956449
 40
0.2499729098
100
AcDbArc
 50
118.3452333313
 51
180.0617871985
  0
ARC
  5
26B
100
AcDbEntity
  8
RACCORDO
100
AcDbCircle
 62
7
  6
CONTINUOUS
 10
-10.5718224458
 20
10.4515921871
 40
0.2493361602
100
AcDbArc
 50
118.3623369933
 51
180.0790761877
  0
SPLINE
  5
26C
100
AcDbEntity
  8
RACCORDO
100
AcDbSpline
 62
7
  6
CONTINUOUS
 70
0
 71
3
 72
10
 73
6
 74
4
 42
0.0000001
 43
0.0000001
 44
0.0000000001
 12
0.5309507646
 22
-0.2654753776
 32
0.0
 13
0.5366819963
 23
0.2536896016
 33
0.0
 40
0.0
 40
0.0
 40
0.0
 40
0.0
 40
0.3683960887
 40
0.69741576
 40
1.0
 40
1.0
 40
1.0
 40
1.0
 10
-2.1583235635
 20
1.6752392786
 30
0.0
 10
-2.0931235019
 20
1.6426392484
 30
0.0
 10
-1.9620382489
 20
1.5940596218
 30
0.0
 10
-1.7616905793
 20
1.5798572109
 30
0.0
 10
-1.6382326586
 20
1.6132413511
 30
0.0
 10
-1.584102154
 20
1.6388288429
 30
0.0
 11
-2.1583235635
 21
1.6752392786
 31
0.0
 11
-1.9522262168
 21
1.6021080696
 31
0.0
 11
-1.7572307721
 21
1.5909752835
 31
0.0
 11
-1.584102154
 21
1.6388288429
 31
0.0
  0
SPLINE
  5
26D
100
AcDbEntity
  8
RACCORDO
100
AcDbSpline
 62
7
  6
CONTINUOUS
 70
0
 71
3
 72
14
 73
10
 74
8
 42
0.0000001
 43
0.0000001
 44
0.0000000001
 12
-2.1334127319
 22
-1.1262489471
 32
0.0
 13
2.0328953942
 23
-1.3102034695
 33
0.0
 40
0.0
 40
0.0
 40
0.0
 40
0.0
 40
0.1126354234
 40
0.2431064815
 40
0.3946442942
 40
0.5607875776
 40
0.7319683022
 40
0.897607205
 40
1.0
 40
1.0
 40
1.0
 40
1.0
 10
-2.6634450668
 20
3.7975147701
 30
0.0
 10
-2.7435443489
 20
3.7552295944
 30
0.0
 10
-2.8923274664
 20
3.6137901917
 30
0.0
 10
-3.0001178545
 20
3.3063799237
 30
0.0
 10
-3.0014215349
 20
2.9411847495
 30
0.0
 10
-2.9041687168
 20
2.556761768
 30
0.0
 10
-2.7219442931
 20
2.1921793301
 30
0.0
 10
-2.498770812
 20
1.915010387
 30
0.0
 10
-2.3291314133
 20
1.7779267033
 30
0.0
 10
-2.2597467995
 20
1.7332082383
 30
0.0
 11
-2.6634450668
 21
3.7975147701
 31
0.0
 11
-2.8637274065
 21
3.6138782451
 31
0.0
 11
-2.9780524923
 21
3.3206208216
 31
0.0
 11
-2.9867885085
 21
2.9551487579
 31
0.0
 11
-2.8918025421
 21
2.565755135
 31
0.0
 11
-2.7072503376
 21
2.1963236119
 31
0.0
 11
-2.4538607369
 21
1.8873422015
 31
0.0
 11
-2.2597467995
 21
1.7332082383
 31
0.0
  0
SPLINE
  5
26E
100
AcDbEntity
  8
RACCORDO
100
AcDbSpline
 62
253
  6
CONTINUOUS
 70
0
 71
3
 72
20
 73
16
 74
14
 42
0.0000001
 43
0.0000001
 44
0.0000000001
 12
2.3096192904
 22
1.1011434821
 32
0.0
 13
-2.2752317028
 23
1.13761587
 33
0.0
 40
0.0
 40
0.0
 40
0.0
 40
0.0
 40
0.0913253166
 40
0.1944753298
 40
0.300071473
 40
0.4040895859
 40
0.5028558466
 40
0.5939847407
 40
0.6762969559
 40
0.7496288086
 40
0.81425267
 40
0.8708004493
 40
0.9200563031
 40
0.9628161743
 40
1.0
 40
1.0
 40
1.0
 40
1.0
 10
-1.5841099997
 20
1.6388590862
 30
0.0
 10
-1.5138010954
 20
1.6723798453
 30
0.0
 10
-1.3828480097
 20
1.7847985841
 30
0.0
 10
-1.2807478276
 20
2.0246281929
 30
0.0
 10
-1.2522808439
 20
2.2906789821
 30
0.0
 10
-1.2783121266
 20
2.5522699866
 30
0.0
 10
-1.3413645945
 20
2.7941992945
 30
0.0
 10
-1.4277922692
 20
3.0088051951
 30
0.0
 10
-1.5272651087
 20
3.1933386441
 30
0.0
 10
-1.6323127397
 20
3.3481344504
 30
0.0
 10
-1.7377590794
 20
3.4752650841
 30
0.0
 10
-1.8400985275
 20
3.5775821322
 30
0.0
 10
-1.9370898114
 20
3.6582422055
 30
0.0
 10
-2.0274490738
 20
3.7204362741
 30
0.0
 10
-2.0866356754
 20
3.7537050222
 30
0.0
 10
-2.1148362818
 20
3.7678053257
 30
0.0
 11
-1.5841099997
 21
1.6388590862
 31
0.0
 11
-1.4050963269
 21
1.7874487526
 31
0.0
 11
-1.2942838233
 21
2.0252931141
 31
0.0
 11
-1.2614693238
 21
2.2918952642
 31
0.0
 11
-1.2856978481
 21
2.5553835261
 31
0.0
 11
-1.348292989
 21
2.7987012631
 31
0.0
 11
-1.4346896259
 21
3.0138119985
 31
0.0
 11
-1.5340982157
 21
3.1980940696
 31
0.0
 11
-1.6390080455
 21
3.3523383927
 31
0.0
 11
-1.7441486387
 21
3.4787080774
 31
0.0
 11
-1.8460601071
 21
3.5802244415
 31
0.0
 11
-1.942557271
 21
3.6601461391
 31
0.0
 11
-2.0322860051
 21
3.7216286364
 31
0.0
 11
-2.1148362818
 21
3.7678053257
 31
0.0
  0
SPLINE
  5
26F
100
AcDbEntity
  8
RACCORDO
100
AcDbSpline
 62
253
  6
CONTINUOUS
 70
0
 71
3
 72
8
 73
4
 74
2
 42
0.0000001
 43
0.0000001
 44
0.0000000001
 12
0.0835988337
 22
-0.0417994168
 32
0.0
 13
0.0882735387
 23
-0.032464483
 33
0.0
 40
0.0
 40
0.0
 40
0.0
 40
0.0
 40
1.0
 40
1.0
 40
1.0
 40
1.0
 10
-2.1838695457
 20
1.7198657523
 30
0.0
 10
-2.1560032678
 20
1.7059326134
 30
0.0
 10
-2.1272719605
 20
1.6933074092
 30
0.0
 10
-2.0978474476
 20
1.6824859149
 30
0.0
 11
-2.1838695457
 21
1.7198657523
 31
0.0
 11
-2.0978474476
 21
1.6824859149
 31
0.0
  0
SPLINE
  5
270
100
AcDbEntity
  8
RACCORDO
100
AcDbSpline
 62
253
  6
CONTINUOUS
 70
0
 71
3
 72
10
 73
6
 74
4
 42
0.0000001
 43
0.0000001
 44
0.0000000001
 12
0.4497329471
 22
-0.165398916
 32
0.0
 13
0.3975809252
 23
0.2706053485
 33
0.0
 40
0.0
 40
0.0
 40
0.0
 40
0.0
 40
0.3604798126
 40
0.8430695357
 40
1.0
 40
1.0
 40
1.0
 40
1.0
 10
-2.0978474476
 20
1.6824859149
 30
0.0
 10
-2.0438075647
 20
1.6626115915
 30
0.0
 10
-1.9119538525
 20
1.6303591701
 30
0.0
 10
-1.7472926534
 20
1.6514993972
 30
0.0
 10
-1.6577951292
 20
1.7017240602
 30
0.0
 10
-1.6369976094
 20
1.7158794678
 30
0.0
 11
-2.0978474476
 21
1.6824859149
 31
0.0
 11
-1.9297777364
 21
1.6441855707
 31
0.0
 11
-1.7026701333
 21
1.6792852211
 31
0.0
 11
-1.6369976094
 21
1.7158794678
 31
0.0
  0
SPLINE
  5
271
100
AcDbEntity
  8
RACCORDO
100
AcDbSpline
 62
253
  6
CONTINUOUS
 70
0
 71
3
 72
20
 73
16
 74
14
 42
0.0000001
 43
0.0000001
 44
0.0000000001
 12
1.9147547356
 22
1.3032387614
 32
0.0
 13
-2.0512188492
 23
1.0256094246
 33
0.0
 40
0.0
 40
0.0
 40
0.0
 40
0.0
 40
0.0662565476
 40
0.172252553
 40
0.2807617212
 40
0.3876493116
 40
0.4891401078
 40
0.5827829581
 40
0.667365994
 40
0.7427209878
 40
0.8091277958
 40
0.8672357412
 40
0.9178505631
 40
0.9617902467
 40
1.0
 40
1.0
 40
1.0
 40
1.0
 10
-1.6369976094
 20
1.7158794678
 30
0.0
 10
-1.5947092633
 20
1.7446621682
 30
0.0
 10
-1.497281152
 20
1.8391705247
 30
0.0
 10
-1.4111602115
 20
2.0414763723
 30
0.0
 10
-1.3847869504
 20
2.2879488228
 30
0.0
 10
-1.4089033718
 20
2.5302902725
 30
0.0
 10
-1.467315103
 20
2.7544168671
 30
0.0
 10
-1.5473825617
 20
2.9532308176
 30
0.0
 10
-1.6395351002
 20
3.1241855344
 30
0.0
 10
-1.7368525131
 20
3.2675909539
 30
0.0
 10
-1.8345394371
 20
3.3853669918
 30
0.0
 10
-1.9293480733
 20
3.4801554973
 30
0.0
 10
-2.019202503
 20
3.5548802563
 30
0.0
 10
-2.1029125289
 20
3.6124983803
 30
0.0
 10
-2.1577440236
 20
3.6433191632
 30
0.0
 10
-2.1838695457
 20
3.6563819242
 30
0.0
 11
-1.6369976094
 21
1.7158794678
 31
0.0
 11
-1.5263557219
 21
1.8217479329
 31
0.0
 11
-1.4236992348
 21
2.0420920093
 31
0.0
 11
-1.3932995713
 21
2.2890757812
 31
0.0
 11
-1.415745335
 21
2.5331747432
 31
0.0
 11
-1.4737337083
 21
2.7585874818
 31
0.0
 11
-1.5537722792
 21
2.9578691565
 31
0.0
 11
-1.6458653755
 21
3.1285909896
 31
0.0
 11
-1.743055119
 21
3.2714855276
 31
0.0
 11
-1.8404587825
 21
3.3885566548
 31
0.0
 11
-1.9348710402
 21
3.4826033203
 31
0.0
 11
-2.0242675288
 21
3.5566441696
 31
0.0
 11
-2.1073936125
 21
3.6136029654
 31
0.0
 11
-2.1838695457
 21
3.6563819242
 31
0.0
  0
SPLINE
  5
272
100
AcDbEntity
  8
RACCORDO
100
AcDbSpline
 62
253
  6
CONTINUOUS
 70
0
 71
3
 72
22
 73
18
 74
16
 42
0.0000001
 43
0.0000001
 44
0.0000000001
 12
-2.5607350466
 22
1.2803675233
 32
0.0
 13
2.5607350466
 23
-1.2803675233
 33
0.0
 40
0.0
 40
0.0
 40
0.0
 40
0.0
 40
0.0926031929
 40
0.1728708975
 40
0.252045775
 40
0.3369516027
 40
0.4238704212
 40
0.5094903106
 40
0.590787205
 40
0.6657976871
 40
0.733551015
 40
0.7939124321
 40
0.8471061098
 40
0.8936521728
 40
0.9341960337
 40
0.9693929376
 40
1.0
 40
1.0
 40
1.0
 40
1.0
 10
-2.1838695457
 20
3.6563819242
 30
0.0
 10
-2.2629136262
 20
3.6959039644
 30
0.0
 10
-2.4234651414
 20
3.750039142
 30
0.0
 10
-2.6729884414
 20
3.7180024537
 30
0.0
 10
-2.8604630374
 20
3.5605565447
 30
0.0
 10
-2.9565796289
 20
3.3347710926
 30
0.0
 10
-2.982952805
 20
3.088298505
 30
0.0
 10
-2.9588365144
 20
2.8459570409
 30
0.0
 10
-2.9004245732
 20
2.6218305013
 30
0.0
 10
-2.820357032
 20
2.4230166011
 30
0.0
 10
-2.7282043503
 20
2.2520619559
 30
0.0
 10
-2.630886848
 20
2.1086565842
 30
0.0
 10
-2.5331998481
 20
1.9908805808
 30
0.0
 10
-2.4383911301
 20
1.8960921359
 30
0.0
 10
-2.3485366938
 20
1.821367342
 30
0.0
 10
-2.2648265819
 20
1.7637493031
 30
0.0
 10
-2.2099950715
 20
1.7329285153
 30
0.0
 10
-2.1838695457
 20
1.7198657523
 30
0.0
 11
-2.1838695457
 21
3.6563819242
 31
0.0
 11
-2.4379601699
 21
3.7320626984
 31
0.0
 11
-2.6650692806
 21
3.6969622942
 31
0.0
 11
-2.841383633
 21
3.5544996119
 31
0.0
 11
-2.9440405343
 21
3.3341553284
 31
0.0
 11
-2.9744402224
 21
3.0871715441
 31
0.0
 11
-2.9519944899
 21
2.8430725665
 31
0.0
 11
-2.8940059856
 21
2.6176598934
 31
0.0
 11
-2.8139673016
 21
2.4183782754
 31
0.0
 11
-2.7218740802
 21
2.2476565048
 31
0.0
 11
-2.6246842417
 21
2.1047620142
 31
0.0
 11
-2.527280498
 21
1.9876909272
 31
0.0
 11
-2.4328681714
 21
1.8936442961
 31
0.0
 11
-2.3434716608
 21
1.8196034579
 31
0.0
 11
-2.2603454988
 21
1.7626447012
 31
0.0
 11
-2.1838695457
 21
1.7198657523
 31
0.0
  0
SPLINE
  5
273
100
AcDbEntity
  8
RACCORDO
100
AcDbSpline
 62
253
  6
CONTINUOUS
 70
0
 71
3
 72
10
 73
6
 74
4
 42
0.0000001
 43
0.0000001
 44
0.0000000001
 12
-0.5066545929
 22
0.2533273006
 32
0.0
 13
-0.5030012107
 23
-0.268775241
 33
0.0
 40
0.0
 40
0.0
 40
0.0
 40
0.0
 40
0.5052042006
 40
0.9431177079
 40
1.0
 40
1.0
 40
1.0
 40
1.0
 10
-2.1148362818
 20
3.7678053257
 30
0.0
 10
-2.2001576247
 20
3.8104659978
 30
0.0
 10
-2.3734625424
 20
3.8688865623
 30
0.0
 10
-2.5693391128
 20
3.8437533965
 30
0.0
 10
-2.6538531628
 20
3.8025085847
 30
0.0
 10
-2.66339045
 20
3.7974124008
 30
0.0
 11
-2.1148362818
 21
3.7678053257
 31
0.0
 11
-2.3891074435
 21
3.8494895365
 31
0.0
 11
-2.6342575554
 21
3.8116109444
 31
0.0
 11
-2.66339045
 21
3.7974124008
 31
0.0
  0
SPLINE
  5
274
100
AcDbEntity
  8
DRAFT
100
AcDbSpline
 62
7
  6
CONTINUOUS
 70
0
 71
3
 72
18
 73
14
 74
12
 42
0.0000001
 43
0.0000001
 44
0.0000000001
 12
2.4354104948
 22
1.2891825476
 32
0.0
 13
-2.4531275979
 23
1.226563799
 33
0.0
 40
0.0
 40
0.0
 40
0.0
 40
0.0
 40
0.0586239422
 40
0.1287369961
 40
0.2076364478
 40
0.2955840785
 40
0.3921028696
 40
0.4955278479
 40
0.6017212965
 40
0.7091477205
 40
0.8125165559
 40
0.9106444314
 40
1.0
 40
1.0
 40
1.0
 40
1.0
 10
-1.3243139405
 20
1.6496602515
 30
0.0
 10
-1.2767228191
 20
1.6748525726
 30
0.0
 10
-1.1814509274
 20
1.747925266
 30
0.0
 10
-1.0752226808
 20
1.909070927
 30
0.0
 10
-1.0105759924
 20
2.1181997324
 30
0.0
 10
-0.991774844
 20
2.3598115962
 30
0.0
 10
-1.0187155076
 20
2.6228247645
 30
0.0
 10
-1.0898350715
 20
2.8945450604
 30
0.0
 10
-1.2017982349
 20
3.1628580672
 30
0.0
 10
-1.3487165597
 20
3.413690454
 30
0.0
 10
-1.5242852149
 20
3.6361704521
 30
0.0
 10
-1.7192074166
 20
3.8185702297
 30
0.0
 10
-1.8639963857
 20
3.912742405
 30
0.0
 10
-1.9370632562
 20
3.9492758402
 30
0.0
 11
-1.3243139405
 21
1.6496602515
 31
0.0
 11
-1.1960519903
 21
1.7469695745
 31
0.0
 11
-1.08759542
 21
1.9057636784
 31
0.0
 11
-1.0205598658
 21
2.1115146003
 31
0.0
 11
-0.9993038935
 21
2.3517884321
 31
0.0
 11
-1.0245331676
 21
2.6153036073
 31
0.0
 11
-1.0953579919
 21
2.8899811647
 31
0.0
 11
-1.2071874342
 21
3.1589113557
 31
0.0
 11
-1.3563370554
 21
3.4130076851
 31
0.0
 11
-1.5326648236
 21
3.6350101638
 31
0.0
 11
-1.7303302278
 21
3.8176605296
 31
0.0
 11
-1.9370632562
 21
3.9492758402
 31
0.0
  0
SPLINE
  5
275
100
AcDbEntity
  8
DRAFT
100
AcDbSpline
 62
7
  6
CONTINUOUS
 70
0
 71
3
 72
10
 73
6
 74
4
 42
0.0000001
 43
0.0000001
 44
0.0000000001
 12
-0.5326592145
 22
0.2663296072
 32
0.0
 13
-0.5408030121
 23
-0.2556892649
 33
0.0
 40
0.0
 40
0.0
 40
0.0
 40
0.0
 40
0.3685097703
 40
0.699068691
 40
1.0
 40
1.0
 40
1.0
 40
1.0
 10
-1.9370632562
 20
3.9492758402
 30
0.0
 10
-2.0024932978
 20
3.981990861
 30
0.0
 10
-2.1336734617
 20
4.0317966352
 30
0.0
 10
-2.3344641196
 20
4.0498594501
 30
0.0
 10
-2.4585935975
 20
4.0179256149
 30
0.0
 10
-2.5128417836
 20
3.9922773131
 30
0.0
 11
-1.9370632562
 21
3.9492758402
 31
0.0
 11
-2.1433476291
 21
4.0241692566
 31
0.0
 11
-2.3396820499
 21
4.0385189779
 31
0.0
 11
-2.5128417836
 21
3.9922773131
 31
0.0
  0
SPLINE
  5
276
100
AcDbEntity
  8
DRAFT
100
AcDbSpline
 62
7
  6
CONTINUOUS
 70
0
 71
3
 72
9
 73
5
 74
3
 42
0.0000001
 43
0.0000001
 44
0.0000000001
 12
-0.2217832588
 22
-0.1048581408
 32
0.0
 13
-0.1487435052
 23
-0.1948431773
 33
0.0
 40
0.0
 40
0.0
 40
0.0
 40
0.0
 40
0.7453588767
 40
1.0
 40
1.0
 40
1.0
 40
1.0
 10
-2.5128417836
 20
3.9922773131
 30
0.0
 10
-2.5679444905
 20
3.9662249978
 30
0.0
 10
-2.6350682935
 20
3.9167982196
 30
0.0
 10
-2.6881202896
 20
3.8545294261
 30
0.0
 10
-2.700745694
 20
3.8379910642
 30
0.0
 11
-2.5128417836
 21
3.9922773131
 31
0.0
 11
-2.6601894043
 21
3.8854091138
 31
0.0
 11
-2.700745694
 21
3.8379910642
 31
0.0
  0
SPLINE
  5
277
100
AcDbEntity
  8
DRAFT
100
AcDbSpline
 62
7
  6
CONTINUOUS
 70
0
 71
3
 72
9
 73
5
 74
3
 42
0.0000001
 43
0.0000001
 44
0.0000000001
 12
-0.0393157115
 22
-0.0644858863
 32
0.0
 13
-0.0319772713
 23
-0.0683203875
 33
0.0
 40
0.0
 40
0.0
 40
0.0
 40
0.0
 40
0.8810900114
 40
1.0
 40
1.0
 40
1.0
 40
1.0
 10
-2.7368741054
 20
3.7850489138
 30
0.0
 10
-2.748420999
 20
3.7661096237
 30
0.0
 10
-2.7604259933
 20
3.7439349184
 30
0.0
 10
-2.7712268129
 20
3.7212234199
 30
0.0
 10
-2.7724942852
 20
3.7185154278
 30
0.0
 11
-2.7368741054
 21
3.7850489138
 31
0.0
 11
-2.7686411357
 21
3.7266170779
 31
0.0
 11
-2.7724942852
 21
3.7185154278
 31
0.0
  0
SPLINE
  5
278
100
AcDbEntity
  8
DRAFT
100
AcDbSpline
 62
7
  6
CONTINUOUS
 70
0
 71
3
 72
10
 73
6
 74
4
 42
0.0000001
 43
0.0000001
 44
0.0000000001
 12
0.3283788021
 22
-0.0408010067
 32
0.0
 13
0.2925471435
 23
0.1548595904
 33
0.0
 40
0.0
 40
0.0
 40
0.0
 40
0.0
 40
0.3914917532
 40
0.9389715821
 40
1.0
 40
1.0
 40
1.0
 40
1.0
 10
-1.645753882
 20
1.5965375803
 30
0.0
 10
-1.602901351
 20
1.5912131611
 30
0.0
 10
-1.4989959618
 20
1.5882665361
 30
0.0
 10
-1.3902601455
 20
1.6163591984
 30
0.0
 10
-1.3302651703
 20
1.6465099729
 30
0.0
 10
-1.3243139405
 20
1.6496602515
 30
0.0
 11
-1.645753882
 21
1.5965375803
 31
0.0
 11
-1.5165712715
 21
1.5938537682
 31
0.0
 11
-1.3423612618
 21
1.6405935438
 31
0.0
 11
-1.3243139405
 21
1.6496602515
 31
0.0
  0
SPLINE
  5
279
100
AcDbEntity
  8
ASSI
100
AcDbSpline
 62
7
  6
CONTINUOUS
 70
0
 71
3
 72
26
 73
22
 74
20
 42
0.0000001
 43
0.0000001
 44
0.0000000001
 12
-5.4924188562
 22
2.7462094281
 32
0.0
 13
5.4924188562
 23
-2.7462094281
 33
0.0
 40
0.0
 40
0.0
 40
0.0
 40
0.0
 40
0.05293166
 40
0.1097804637
 40
0.1699669753
 40
0.2325120521
 40
0.2966483843
 40
0.3610410885
 40
0.4249025715
 40
0.4868204967
 40
0.5461736132
 40
0.601803194
 40
0.6535433549
 40
0.7009654854
 40
0.7447108065
 40
0.785457976
 40
0.8248708045
 40
0.8645297783
 40
0.9062455542
 40
0.9511611582
 40
1.0
 40
1.0
 40
1.0
 40
1.0
 10
-2.2582712373
 20
0.5790718084
 30
0.0
 10
-2.3551788531
 20
0.6275256163
 30
0.0
 10
-2.5481247792
 20
0.7445709424
 30
0.0
 10
-2.8192933452
 20
0.9638758116
 30
0.0
 10
-3.0762290264
 20
1.2278748707
 30
0.0
 10
-3.3121861619
 20
1.5298071483
 30
0.0
 10
-3.5206264602
 20
1.8615318188
 30
0.0
 10
-3.6961337377
 20
2.2147960918
 30
0.0
 10
-3.8335623109
 20
2.5797302105
 30
0.0
 10
-3.9292267894
 20
2.9471793566
 30
0.0
 10
-3.980168442
 20
3.3065553959
 30
0.0
 10
-3.9848997992
 20
3.6488258706
 30
0.0
 10
-3.9430630518
 20
3.96422033
 30
0.0
 10
-3.8552179281
 20
4.2450019519
 30
0.0
 10
-3.7230665201
 20
4.4830043927
 30
0.0
 10
-3.548977751
 20
4.6712140119
 30
0.0
 10
-3.338020923
 20
4.8023029292
 30
0.0
 10
-3.0975692919
 20
4.8715210029
 30
0.0
 10
-2.8366229087
 20
4.8776246688
 30
0.0
 10
-2.5629966317
 20
4.8222638684
 30
0.0
 10
-2.3843084076
 20
4.7492963046
 30
0.0
 10
-2.294893949
 20
4.7045890753
 30
0.0
 11
-2.2582712373
 21
0.5790718084
 31
0.0
 11
-2.5371020416
 21
0.7461140188
 31
0.0
 11
-2.8094213254
 21
0.9645344451
 31
0.0
 11
-3.0678941827
 21
1.2287068328
 31
0.0
 11
-3.304871523
 21
1.5309525221
 31
0.0
 11
-3.5146294856
 21
1.8642896676
 31
0.0
 11
-3.6904889109
 21
2.2184479003
 31
0.0
 11
-3.8282900989
 21
2.5855940637
 31
0.0
 11
-3.9233199232
 21
2.9537470798
 31
0.0
 11
-3.9732875175
 21
3.3147759747
 31
0.0
 11
-3.9764022024
 21
3.6563669515
 31
0.0
 11
-3.9325977837
 21
3.9710541676
 31
0.0
 11
-3.8434091624
 21
4.2482654396
 31
0.0
 11
-3.7109305511
 21
4.4819534433
 31
0.0
 11
-3.5397372254
 21
4.6644395727
 31
0.0
 11
-3.3339345772
 21
4.7917985138
 31
0.0
 11
-3.1002036429
 21
4.8602002907
 31
0.0
 11
-2.8441668989
 21
4.8682903029
 31
0.0
 11
-2.5733719803
 21
4.8159134749
 31
0.0
 11
-2.294893949
 21
4.7045890753
 31
0.0
  0
SPLINE
  5
27A
100
AcDbEntity
  8
RACCORDO
100
AcDbSpline
 62
253
  6
CONTINUOUS
 70
0
 71
3
 72
13
 73
9
 74
7
 42
0.0000001
 43
0.0000001
 44
0.0000000001
 12
0.0237005162
 22
-0.7022873817
 32
0.0
 13
0.6783415113
 23
0.1833632327
 33
0.0
 40
0.0
 40
0.0
 40
0.0
 40
0.0
 40
0.1946677134
 40
0.3699588267
 40
0.5285926496
 40
0.6790968263
 40
0.8330968665
 40
1.0
 40
1.0
 40
1.0
 40
1.0
 10
6.7418577049
 20
-12.0936065504
 30
0.0
 10
6.7433956133
 20
-12.1391774433
 30
0.0
 10
6.7541778788
 20
-12.2259058148
 30
0.0
 10
6.7982138278
 20
-12.3431199001
 30
0.0
 10
6.8687719231
 20
-12.4346295007
 30
0.0
 10
6.9631589634
 20
-12.4930759979
 30
0.0
 10
7.0739731776
 20
-12.5134652754
 30
0.0
 10
7.1495822654
 20
-12.5025936448
 30
0.0
 10
7.1873213734
 20
-12.4923923455
 30
0.0
 11
6.7418577049
 21
-12.0936065504
 31
0.0
 11
6.7602906512
 21
-12.22914942
 31
0.0
 11
6.805338271
 21
-12.3437912449
 31
0.0
 11
6.8746893402
 21
-12.431060827
 31
0.0
 11
6.9647727839
 21
-12.4864647221
 31
0.0
 11
7.0709801169
 21
-12.5072069684
 31
0.0
 11
7.1873213734
 21
-12.4923923455
 31
0.0
  0
LINE
  5
27B
100
AcDbEntity
  8
RACCORDO
100
AcDbLine
 62
253
  6
CONTINUOUS
 10
-10.515982463
 20
-3.6468307182
 11
-10.5189200408
 21
-3.5558622549
  0
SPLINE
  5
27C
100
AcDbEntity
  8
RACCORDO
100
AcDbSpline
 62
253
  6
CONTINUOUS
 70
0
 71
3
 72
12
 73
8
 74
6
 42
0.0000001
 43
0.0000001
 44
0.0000000001
 12
-0.0053497267
 22
0.3664563861
 32
0.0
 13
-0.3254083925
 23
0.1686068818
 33
0.0
 40
0.0
 40
0.0
 40
0.0
 40
0.0
 40
0.1955839747
 40
0.4065111841
 40
0.6196376798
 40
0.8218553915
 40
1.0
 40
1.0
 40
1.0
 40
1.0
 10
6.5013893594
 20
1.9114169131
 30
0.0
 10
6.5010405857
 20
1.9353079119
 30
0.0
 10
6.4938039041
 20
1.9849423694
 30
0.0
 10
6.4682170183
 20
2.0566035127
 30
0.0
 10
6.4296390177
 20
2.123203538
 30
0.0
 10
6.3818783536
 20
2.178323862
 30
0.0
 10
6.3439628382
 20
2.2062530391
 30
0.0
 10
6.324639588
 20
2.2162651747
 30
0.0
 11
6.5013893594
 21
1.9114169131
 31
0.0
 11
6.4918664822
 21
1.9824621665
 31
0.0
 11
6.4661773771
 21
2.0553727726
 31
0.0
 11
6.4269028416
 21
2.1228906618
 31
0.0
 11
6.3778760475
 21
2.1784689167
 31
0.0
 11
6.324639588
 21
2.2162651747
 31
0.0
  0
SPLINE
  5
27D
100
AcDbEntity
  8
RACCORDO
100
AcDbSpline
 62
253
  6
CONTINUOUS
 70
0
 71
3
 72
12
 73
8
 74
6
 42
0.0000001
 43
0.0000001
 44
0.0000000001
 12
-0.0003856599
 22
0.3643136515
 32
0.0
 13
0.3230429735
 23
0.1684274998
 33
0.0
 40
0.0
 40
0.0
 40
0.0
 40
0.0
 40
0.1954109409
 40
0.4054784998
 40
0.6178639365
 40
0.8202454909
 40
1.0
 40
1.0
 40
1.0
 40
1.0
 10
-10.748339152
 20
10.3623092475
 30
0.0
 10
-10.7483642727
 20
10.3860395386
 30
0.0
 10
-10.7419034164
 20
10.435367706
 30
0.0
 10
-10.7172459124
 20
10.5066693883
 30
0.0
 10
-10.6793441115
 20
10.5729488797
 30
0.0
 10
-10.6318690731
 20
10.6279346836
 30
0.0
 10
-10.5940039276
 20
10.6558169931
 30
0.0
 10
-10.5746477839
 20
10.6659088606
 30
0.0
 11
-10.748339152
 21
10.3623092475
 31
0.0
 11
-10.739879255
 21
10.4329957121
 31
0.0
 11
-10.715170787
 21
10.5054278352
 31
0.0
 11
-10.6766497251
 21
10.5725323195
 31
0.0
 11
-10.6280006687
 21
10.6279348631
 31
0.0
 11
-10.5746477839
 21
10.6659088606
 31
0.0
  0
SPLINE
  5
27E
100
AcDbEntity
  8
RACCORDO
100
AcDbSpline
 62
253
  6
CONTINUOUS
 70
0
 71
3
 72
12
 73
8
 74
6
 42
0.0000001
 43
0.0000001
 44
0.0000000001
 12
-0.0003856587
 22
0.3643125473
 32
0.0
 13
0.3230419943
 23
0.1684269893
 33
0.0
 40
0.0
 40
0.0
 40
0.0
 40
0.0
 40
0.1947631165
 40
0.4040949088
 40
0.6160496428
 40
0.8181238454
 40
1.0
 40
1.0
 40
1.0
 40
1.0
 10
6.1509482199
 20
1.9126655615
 30
0.0
 10
6.1509231825
 20
1.9363171105
 30
0.0
 10
6.1573411271
 20
1.9854767065
 30
0.0
 10
6.1818574845
 20
2.0565896672
 30
0.0
 10
6.2195763907
 20
2.1227650542
 30
0.0
 10
6.2670478039
 20
2.1779662725
 30
0.0
 10
6.3050550428
 20
2.2060542237
 30
0.0
 10
6.324639588
 20
2.2162651747
 30
0.0
 11
6.1509482199
 21
1.9126655615
 31
0.0
 11
6.159354549
 21
1.9831205203
 31
0.0
 11
6.1839075363
 21
2.055322184
 31
0.0
 11
6.2222525571
 21
2.1223464328
 31
0.0
 11
6.2707123341
 21
2.1777656593
 31
0.0
 11
6.324639588
 21
2.2162651747
 31
0.0
  0
SPLINE
  5
27F
100
AcDbEntity
  8
RACCORDO
100
AcDbSpline
 62
253
  6
CONTINUOUS
 70
0
 71
3
 72
10
 73
6
 74
4
 42
0.0000001
 43
0.0000001
 44
0.0000000001
 12
-0.106624233
 22
0.0533150671
 32
0.0
 13
0.0002963801
 23
0.1185053347
 33
0.0
 40
0.0
 40
0.0
 40
0.0
 40
0.0
 40
0.5625436167
 40
0.9915901696
 40
1.0
 40
1.0
 40
1.0
 40
1.0
 10
-10.748339152
 20
10.3623092475
 30
0.0
 10
-10.7683327459
 20
10.3723065977
 30
0.0
 10
-10.802423939
 20
10.3939410411
 30
0.0
 10
-10.8214476429
 20
10.4330736243
 30
0.0
 10
-10.8215603482
 20
10.4503522074
 30
0.0
 10
-10.8215595174
 20
10.4506844106
 30
0.0
 11
-10.748339152
 21
10.3623092475
 31
0.0
 11
-10.8021127111
 21
10.402379456
 31
0.0
 11
-10.8215529808
 21
10.4496879261
 31
0.0
 11
-10.8215595174
 21
10.4506844106
 31
0.0
  0
SPLINE
  5
280
100
AcDbEntity
  8
RACCORDO
100
AcDbSpline
 62
253
  6
CONTINUOUS
 70
0
 71
3
 72
10
 73
6
 74
4
 42
0.0000001
 43
0.0000001
 44
0.0000000001
 12
-0.0264958835
 22
-0.1937282823
 32
0.0
 13
-0.191317782
 23
-0.0524592148
 33
0.0
 40
0.0
 40
0.0
 40
0.0
 40
0.0
 40
0.430683799
 40
0.8010691498
 40
1.0
 40
1.0
 40
1.0
 40
1.0
 10
7.1873213734
 20
-12.4923923455
 30
0.0
 10
7.1835175908
 20
-12.520204223
 30
0.0
 10
7.1690014553
 20
-12.5715345829
 30
0.0
 10
7.126335789
 20
-12.6242971303
 30
0.0
 10
7.0915949745
 20
-12.6401419375
 30
0.0
 10
7.0789086382
 20
-12.6436205229
 30
0.0
 11
7.1873213734
 21
-12.4923923455
 31
0.0
 11
7.1622254316
 21
-12.5727783975
 31
0.0
 11
7.1145973331
 21
-12.627335946
 31
0.0
 11
7.0789086382
 21
-12.6436205229
 31
0.0
  0
SPLINE
  5
281
100
AcDbEntity
  8
RACCORDO
100
AcDbSpline
 62
253
  6
CONTINUOUS
 70
0
 71
3
 72
11
 73
7
 74
5
 42
0.0000001
 43
0.0000001
 44
0.0000000001
 12
-0.3186082903
 22
-0.1690650599
 32
0.0
 13
-0.3227128788
 23
0.1610920079
 33
0.0
 40
0.0
 40
0.0
 40
0.0
 40
0.0
 40
0.2388435752
 40
0.503579771
 40
0.7663858709
 40
1.0
 40
1.0
 40
1.0
 40
1.0
 10
6.7418577048
 20
-12.0936065504
 30
0.0
 10
6.7164918571
 20
-12.1070665848
 30
0.0
 10
6.6584502115
 20
-12.1268927829
 30
0.0
 10
6.5664059585
 20
-12.1377384476
 30
0.0
 10
6.4746300846
 20
-12.1306952387
 30
0.0
 10
6.4166920791
 20
-12.1131407781
 30
0.0
 10
6.3915619831
 20
-12.1005963218
 30
0.0
 11
6.7418577048
 21
-12.0936065504
 31
0.0
 11
6.6608858541
 21
-12.1230165522
 31
0.0
 11
6.566111371
 21
-12.1346563513
 31
0.0
 11
6.4716476954
 21
-12.1267925944
 31
0.0
 11
6.3915619831
 21
-12.1005963218
 31
0.0
  0
SPLINE
  5
282
100
AcDbEntity
  8
RACCORDO
100
AcDbSpline
 62
253
  6
CONTINUOUS
 70
0
 71
3
 72
11
 73
7
 74
5
 42
0.0000001
 43
0.0000001
 44
0.0000000001
 12
-0.32390209
 22
-0.1568996968
 32
0.0
 13
-0.3219104798
 23
0.1609463318
 33
0.0
 40
0.0
 40
0.0
 40
0.0
 40
0.0
 40
0.2366865908
 40
0.5013293953
 40
0.7652575898
 40
1.0
 40
1.0
 40
1.0
 40
1.0
 10
6.5013893594
 20
1.9114169131
 30
0.0
 10
6.4758349322
 20
1.8990382283
 30
0.0
 10
6.4175438751
 20
1.8814150834
 30
0.0
 10
6.3256186737
 20
1.8731904473
 30
0.0
 10
6.2339869735
 20
1.8820217982
 30
0.0
 10
6.1761369005
 20
1.9000719182
 30
0.0
 10
6.1509482199
 20
1.9126655615
 30
0.0
 11
6.5013893594
 21
1.9114169131
 31
0.0
 11
6.4203641853
 21
1.8851249671
 31
0.0
 11
6.3255432407
 21
1.8761398154
 31
0.0
 11
6.2310471652
 21
1.8857995179
 31
0.0
 11
6.1509482199
 21
1.9126655615
 31
0.0
  0
SPLINE
  5
283
100
AcDbEntity
  8
RACCORDO
100
AcDbSpline
 62
253
  6
CONTINUOUS
 70
0
 71
3
 72
11
 73
7
 74
5
 42
0.0000001
 43
0.0000001
 44
0.0000000001
 12
0.0200459472
 22
-0.5985134096
 32
0.0
 13
0.5380190625
 23
-0.2700631156
 33
0.0
 40
0.0
 40
0.0
 40
0.0
 40
0.0
 40
0.3052473617
 40
0.5786387071
 40
0.8256884635
 40
1.0
 40
1.0
 40
1.0
 40
1.0
 10
6.3915556725
 20
-12.1005997859
 30
0.0
 10
6.39359533
 20
-12.161497999
 30
0.0
 10
6.4079415893
 20
-12.2771054415
 30
0.0
 10
6.4664347389
 20
-12.4331763077
 30
0.0
 10
6.552513942
 20
-12.5451384869
 30
0.0
 10
6.6230489014
 20
-12.593345349
 30
0.0
 10
6.6543098779
 20
-12.6090370545
 30
0.0
 11
6.3915556725
 21
-12.1005997859
 31
0.0
 11
6.416146419
 21
-12.2817352827
 31
0.0
 11
6.4759206263
 21
-12.434153548
 31
0.0
 11
6.5678268711
 21
-12.5500893665
 31
0.0
 11
6.6543098779
 21
-12.6090370545
 31
0.0
  0
SPLINE
  5
284
100
AcDbEntity
  8
ASSI
100
AcDbSpline
 62
7
  6
CONTINUOUS
 70
0
 71
3
 72
26
 73
22
 74
20
 42
0.0000001
 43
0.0000001
 44
0.0000000001
 12
5.483496821
 22
-2.7417484105
 32
0.0
 13
-5.483496821
 23
2.7417484105
 33
0.0
 40
0.0
 40
0.0
 40
0.0
 40
0.0
 40
0.0529930204
 40
0.1098790089
 40
0.1701015286
 40
0.2326992153
 40
0.2969155191
 40
0.3614173052
 40
0.4254109429
 40
0.4874688636
 40
0.5469497834
 40
0.6026699529
 40
0.6544403029
 40
0.7018143712
 40
0.7454287372
 40
0.7859796708
 40
0.8251709347
 40
0.8646370244
 40
0.9062305836
 40
0.9511124952
 40
1.0
 40
1.0
 40
1.0
 40
1.0
 10
-2.294893949
 20
4.7045890753
 30
0.0
 10
-2.198031596
 20
4.6561578988
 30
0.0
 10
-2.0052982517
 20
4.5390407453
 30
0.0
 10
-1.7348326393
 20
4.3193011283
 30
0.0
 10
-1.4790269567
 20
4.0546612634
 30
0.0
 10
-1.2445035857
 20
3.7519554005
 30
0.0
 10
-1.0376413154
 20
3.4194096792
 30
0.0
 10
-0.8636853335
 20
3.0653654141
 30
0.0
 10
-0.7276084552
 20
2.6997793705
 30
0.0
 10
-0.6329468165
 20
2.3318781829
 30
0.0
 10
-0.5825416646
 20
1.9723016329
 30
0.0
 10
-0.577813637
 20
1.6301018399
 30
0.0
 10
-0.6191101601
 20
1.3150317493
 30
0.0
 10
-0.7059268177
 20
1.0347696816
 30
0.0
 10
-0.8366990928
 20
0.7973927804
 30
0.0
 10
-1.0092712221
 20
0.6098516921
 30
0.0
 10
-1.2187740419
 20
0.4794876507
 30
0.0
 10
-1.4579070714
 20
0.411040043
 30
0.0
 10
-1.7177284819
 20
0.40560931
 30
0.0
 10
-1.9905621582
 20
0.461397581
 30
0.0
 10
-2.1689130782
 20
0.5343927288
 30
0.0
 10
-2.2582712373
 20
0.5790718084
 30
0.0
 11
-2.294893949
 21
4.7045890753
 31
0.0
 11
-2.0163188512
 21
4.5374156218
 31
0.0
 11
-1.7447402534
 21
4.3186150333
 31
0.0
 11
-1.4874153064
 21
4.0538534728
 31
0.0
 11
-1.251867309
 21
3.7508741635
 31
0.0
 11
-1.043671355
 21
3.4167353065
 31
0.0
 11
-0.8693319261
 21
3.0617969251
 31
0.0
 11
-0.7328504183
 21
2.6939734269
 31
0.0
 11
-0.6387886986
 21
2.3253235245
 31
0.0
 11
-0.5893356667
 21
1.9640305269
 31
0.0
 11
-0.5862219004
 21
1.6224390786
 31
0.0
 11
-0.6295135195
 21
1.3080150604
 31
0.0
 11
-0.7177350382
 21
1.0313001604
 31
0.0
 11
-0.8488935484
 21
0.7982897076
 31
0.0
 11
-1.0185656776
 21
0.6165843428
 31
0.0
 11
-1.2228050529
 21
0.4900277621
 31
0.0
 11
-1.4551062313
 21
0.4223598173
 31
0.0
 11
-1.7099950124
 21
0.4148590049
 31
0.0
 11
-1.980049174
 21
0.4676160315
 31
0.0
 11
-2.2582712373
 21
0.5790718084
 31
0.0
  0
SPLINE
  5
285
100
AcDbEntity
  8
RACCORDO
100
AcDbSpline
 62
253
  6
CONTINUOUS
 70
0
 71
3
 72
11
 73
7
 74
5
 42
0.0000001
 43
0.0000001
 44
0.0000000001
 12
-0.5103196966
 22
0.2801319041
 32
0.0
 13
-0.0188799511
 23
0.5784902802
 33
0.0
 40
0.0
 40
0.0
 40
0.0
 40
0.0
 40
0.152757765
 40
0.4042158684
 40
0.6848683057
 40
1.0
 40
1.0
 40
1.0
 40
1.0
 10
-10.2720206299
 20
-4.1455639819
 30
0.0
 10
-10.2980057286
 20
-4.1312998741
 30
0.0
 10
-10.3623320546
 20
-4.0852989076
 30
0.0
 10
-10.443345558
 20
-3.9778325708
 30
0.0
 10
-10.5001149301
 20
-3.8226473901
 30
0.0
 10
-10.5139992393
 20
-3.7075975922
 30
0.0
 10
-10.515982463
 20
-3.6468307182
 30
0.0
 11
-10.2720206299
 21
-4.1455639819
 31
0.0
 11
-10.3442669211
 21
-4.0940424704
 31
0.0
 11
-10.4337978108
 21
-3.9792943295
 31
0.0
 11
-10.4920271988
 21
-3.8276484737
 31
0.0
 11
-10.515982463
 21
-3.6468307182
 31
0.0
  0
SPLINE
  5
286
100
AcDbEntity
  8
RACCORDO
100
AcDbSpline
 62
253
  6
CONTINUOUS
 70
0
 71
3
 72
10
 73
6
 74
4
 42
0.0000001
 43
0.0000001
 44
0.0000000001
 12
0.1056673508
 22
0.0577633496
 32
0.0
 13
0.1075013196
 23
-0.0518675463
 33
0.0
 40
0.0
 40
0.0
 40
0.0
 40
0.0
 40
0.0964758944
 40
0.516119714
 40
1.0
 40
1.0
 40
1.0
 40
1.0
 10
-10.6902410049
 20
10.6709478844
 30
0.0
 10
-10.6868428875
 20
10.6728054746
 30
0.0
 10
-10.6680892809
 20
10.6816221635
 30
0.0
 10
-10.626929785
 20
10.6857422479
 30
0.0
 10
-10.5919870403
 20
10.674274755
 30
0.0
 10
-10.5746477839
 20
10.6659088606
 30
0.0
 11
-10.6902410049
 21
10.6709478844
 31
0.0
 11
-10.6797448458
 21
10.675867837
 31
0.0
 11
-10.6300581916
 21
10.6822008445
 31
0.0
 11
-10.5746477839
 21
10.6659088606
 31
0.0
  0
SPLINE
  5
287
100
AcDbEntity
  8
RACCORDO
100
AcDbSpline
 62
253
  6
CONTINUOUS
 70
0
 71
3
 72
9
 73
5
 74
3
 42
0.0000001
 43
0.0000001
 44
0.0000000001
 12
0.0042467378
 22
-0.1188405274
 32
0.0
 13
0.1066391998
 23
-0.0534070673
 33
0.0
 40
0.0
 40
0.0
 40
0.0
 40
0.0
 40
0.4342551378
 40
1.0
 40
1.0
 40
1.0
 40
1.0
 10
-10.5892115036
 20
-3.5580147696
 30
0.0
 10
-10.588596781
 20
-3.5752171395
 30
0.0
 10
-10.5704283628
 20
-3.6144308702
 30
0.0
 10
-10.5360926559
 20
-3.6367591268
 30
0.0
 10
-10.5159824628
 20
-3.6468307181
 30
0.0
 11
-10.5892115036
 21
-3.5580147696
 31
0.0
 11
-10.5697685358
 21
-3.6060904466
 31
0.0
 11
-10.5159824628
 21
-3.6468307181
 31
0.0
  0
SPLINE
  5
288
100
AcDbEntity
  8
ASSI
100
AcDbSpline
 62
7
  6
CONTINUOUS
 70
0
 71
3
 72
18
 73
14
 74
12
 42
0.0000001
 43
0.0000001
 44
0.0000000001
 12
2.4354104948
 22
1.2891825476
 32
0.0
 13
-2.4531275979
 23
1.226563799
 33
0.0
 40
0.0
 40
0.0
 40
0.0
 40
0.0
 40
0.0586239422
 40
0.1287369961
 40
0.2076364478
 40
0.2955840785
 40
0.3921028696
 40
0.4955278479
 40
0.6017212965
 40
0.7091477205
 40
0.8125165559
 40
0.9106444314
 40
1.0
 40
1.0
 40
1.0
 40
1.0
 10
-1.3243139405
 20
1.6496602515
 30
0.0
 10
-1.2767228191
 20
1.6748525726
 30
0.0
 10
-1.1814509274
 20
1.747925266
 30
0.0
 10
-1.0752226808
 20
1.909070927
 30
0.0
 10
-1.0105759924
 20
2.1181997324
 30
0.0
 10
-0.991774844
 20
2.3598115962
 30
0.0
 10
-1.0187155076
 20
2.6228247645
 30
0.0
 10
-1.0898350715
 20
2.8945450604
 30
0.0
 10
-1.2017982349
 20
3.1628580672
 30
0.0
 10
-1.3487165597
 20
3.413690454
 30
0.0
 10
-1.5242852149
 20
3.6361704521
 30
0.0
 10
-1.7192074166
 20
3.8185702297
 30
0.0
 10
-1.8639963857
 20
3.912742405
 30
0.0
 10
-1.9370632562
 20
3.9492758402
 30
0.0
 11
-1.3243139405
 21
1.6496602515
 31
0.0
 11
-1.1960519903
 21
1.7469695745
 31
0.0
 11
-1.08759542
 21
1.9057636784
 31
0.0
 11
-1.0205598658
 21
2.1115146003
 31
0.0
 11
-0.9993038935
 21
2.3517884321
 31
0.0
 11
-1.0245331676
 21
2.6153036073
 31
0.0
 11
-1.0953579919
 21
2.8899811647
 31
0.0
 11
-1.2071874342
 21
3.1589113557
 31
0.0
 11
-1.3563370554
 21
3.4130076851
 31
0.0
 11
-1.5326648236
 21
3.6350101638
 31
0.0
 11
-1.7303302278
 21
3.8176605296
 31
0.0
 11
-1.9370632562
 21
3.9492758402
 31
0.0
  0
SPLINE
  5
289
100
AcDbEntity
  8
ASSI
100
AcDbSpline
 62
7
  6
CONTINUOUS
 70
0
 71
3
 72
10
 73
6
 74
4
 42
0.0000001
 43
0.0000001
 44
0.0000000001
 12
-0.5326592145
 22
0.2663296072
 32
0.0
 13
-0.5408030121
 23
-0.2556892649
 33
0.0
 40
0.0
 40
0.0
 40
0.0
 40
0.0
 40
0.3685097703
 40
0.699068691
 40
1.0
 40
1.0
 40
1.0
 40
1.0
 10
-1.9370632562
 20
3.9492758402
 30
0.0
 10
-2.0024932978
 20
3.981990861
 30
0.0
 10
-2.1336734617
 20
4.0317966352
 30
0.0
 10
-2.3344641196
 20
4.0498594501
 30
0.0
 10
-2.4585935975
 20
4.0179256149
 30
0.0
 10
-2.5128417836
 20
3.9922773131
 30
0.0
 11
-1.9370632562
 21
3.9492758402
 31
0.0
 11
-2.1433476291
 21
4.0241692566
 31
0.0
 11
-2.3396820499
 21
4.0385189779
 31
0.0
 11
-2.5128417836
 21
3.9922773131
 31
0.0
  0
LINE
  5
28A
100
AcDbEntity
  8
ASSI
100
AcDbLine
 62
253
  6
CONTINUOUS
 10
-10.515982463
 20
-3.6468307182
 11
-10.5189200408
 21
-3.5558622549
  0
SPLINE
  5
28B
100
AcDbEntity
  8
ASSI
100
AcDbSpline
 62
7
  6
CONTINUOUS
 70
0
 71
3
 72
26
 73
22
 74
20
 42
0.0000001
 43
0.0000001
 44
0.0000000001
 12
5.483496821
 22
-2.7417484105
 32
0.0
 13
-5.483496821
 23
2.7417484105
 33
0.0
 40
0.0
 40
0.0
 40
0.0
 40
0.0
 40
0.0529930204
 40
0.1098790089
 40
0.1701015286
 40
0.2326992153
 40
0.2969155191
 40
0.3614173052
 40
0.4254109429
 40
0.4874688636
 40
0.5469497834
 40
0.6026699529
 40
0.6544403029
 40
0.7018143712
 40
0.7454287372
 40
0.7859796708
 40
0.8251709347
 40
0.8646370244
 40
0.9062305836
 40
0.9511124952
 40
1.0
 40
1.0
 40
1.0
 40
1.0
 10
-2.294893949
 20
4.7045890753
 30
0.0
 10
-2.198031596
 20
4.6561578988
 30
0.0
 10
-2.0052982517
 20
4.5390407453
 30
0.0
 10
-1.7348326393
 20
4.3193011283
 30
0.0
 10
-1.4790269567
 20
4.0546612634
 30
0.0
 10
-1.2445035857
 20
3.7519554005
 30
0.0
 10
-1.0376413154
 20
3.4194096792
 30
0.0
 10
-0.8636853335
 20
3.0653654141
 30
0.0
 10
-0.7276084552
 20
2.6997793705
 30
0.0
 10
-0.6329468165
 20
2.3318781829
 30
0.0
 10
-0.5825416646
 20
1.9723016329
 30
0.0
 10
-0.577813637
 20
1.6301018399
 30
0.0
 10
-0.6191101601
 20
1.3150317493
 30
0.0
 10
-0.7059268177
 20
1.0347696816
 30
0.0
 10
-0.8366990928
 20
0.7973927804
 30
0.0
 10
-1.0092712221
 20
0.6098516921
 30
0.0
 10
-1.2187740419
 20
0.4794876507
 30
0.0
 10
-1.4579070714
 20
0.411040043
 30
0.0
 10
-1.7177284819
 20
0.40560931
 30
0.0
 10
-1.9905621582
 20
0.461397581
 30
0.0
 10
-2.1689130782
 20
0.5343927288
 30
0.0
 10
-2.2582712373
 20
0.5790718084
 30
0.0
 11
-2.294893949
 21
4.7045890753
 31
0.0
 11
-2.0163188512
 21
4.5374156218
 31
0.0
 11
-1.7447402534
 21
4.3186150333
 31
0.0
 11
-1.4874153064
 21
4.0538534728
 31
0.0
 11
-1.251867309
 21
3.7508741635
 31
0.0
 11
-1.043671355
 21
3.4167353065
 31
0.0
 11
-0.8693319261
 21
3.0617969251
 31
0.0
 11
-0.7328504183
 21
2.6939734269
 31
0.0
 11
-0.6387886986
 21
2.3253235245
 31
0.0
 11
-0.5893356667
 21
1.9640305269
 31
0.0
 11
-0.5862219004
 21
1.6224390786
 31
0.0
 11
-0.6295135195
 21
1.3080150604
 31
0.0
 11
-0.7177350382
 21
1.0313001604
 31
0.0
 11
-0.8488935484
 21
0.7982897076
 31
0.0
 11
-1.0185656776
 21
0.6165843428
 31
0.0
 11
-1.2228050529
 21
0.4900277621
 31
0.0
 11
-1.4551062313
 21
0.4223598173
 31
0.0
 11
-1.7099950124
 21
0.4148590049
 31
0.0
 11
-1.980049174
 21
0.4676160315
 31
0.0
 11
-2.2582712373
 21
0.5790718084
 31
0.0
  0
SPLINE
  5
28C
100
AcDbEntity
  8
ASSI
100
AcDbSpline
 62
7
  6
CONTINUOUS
 70
0
 71
3
 72
8
 73
4
 74
2
 42
0.0000001
 43
0.0000001
 44
0.0000000001
 12
-0.1653081207
 22
-0.0781569461
 32
0.0
 13
-0.1266407475
 23
-0.1319256529
 33
0.0
 40
0.0
 40
0.0
 40
0.0
 40
0.0
 40
1.0
 40
1.0
 40
1.0
 40
1.0
 10
-2.5128417836
 20
3.9922773131
 30
0.0
 10
-2.5679444905
 20
3.9662249978
 30
0.0
 10
-2.6179758218
 20
3.9293843315
 30
0.0
 10
-2.6601894043
 20
3.8854091138
 30
0.0
 11
-2.5128417836
 21
3.9922773131
 31
0.0
 11
-2.6601894043
 21
3.8854091138
 31
0.0
  0
SPLINE
  5
28D
100
AcDbEntity
  8
ASSI
100
AcDbSpline
 62
7
  6
CONTINUOUS
 70
0
 71
3
 72
8
 73
4
 74
2
 42
0.0000001
 43
0.0000001
 44
0.0000000001
 12
-0.0876916167
 22
-0.0913511174
 32
0.0
 13
-0.0659160991
 23
-0.1081160153
 33
0.0
 40
0.0
 40
0.0
 40
0.0
 40
0.0
 40
1.0
 40
1.0
 40
1.0
 40
1.0
 10
-2.6601894043
 20
3.8854091138
 30
0.0
 10
-2.6894199432
 20
3.8549587414
 30
0.0
 10
-2.7149020724
 20
3.8210875856
 30
0.0
 10
-2.7368741054
 20
3.7850489138
 30
0.0
 11
-2.6601894043
 21
3.8854091138
 31
0.0
 11
-2.7368741054
 21
3.7850489138
 31
0.0
  0
SPLINE
  5
28E
100
AcDbEntity
  8
ASSI
100
AcDbSpline
 62
7
  6
CONTINUOUS
 70
0
 71
3
 72
9
 73
5
 74
3
 42
0.0000001
 43
0.0000001
 44
0.0000000001
 12
-0.0393157115
 22
-0.0644858863
 32
0.0
 13
-0.0319772713
 23
-0.0683203875
 33
0.0
 40
0.0
 40
0.0
 40
0.0
 40
0.0
 40
0.8810900114
 40
1.0
 40
1.0
 40
1.0
 40
1.0
 10
-2.7368741054
 20
3.7850489138
 30
0.0
 10
-2.748420999
 20
3.7661096237
 30
0.0
 10
-2.7604259933
 20
3.7439349184
 30
0.0
 10
-2.7712268129
 20
3.7212234199
 30
0.0
 10
-2.7724942852
 20
3.7185154278
 30
0.0
 11
-2.7368741054
 21
3.7850489138
 31
0.0
 11
-2.7686411357
 21
3.7266170779
 31
0.0
 11
-2.7724942852
 21
3.7185154278
 31
0.0
  0
SPLINE
  5
28F
100
AcDbEntity
  8
ASSI
100
AcDbSpline
 62
7
  6
CONTINUOUS
 70
0
 71
3
 72
10
 73
6
 74
4
 42
0.0000001
 43
0.0000001
 44
0.0000000001
 12
0.3283788021
 22
-0.0408010067
 32
0.0
 13
0.2925471435
 23
0.1548595904
 33
0.0
 40
0.0
 40
0.0
 40
0.0
 40
0.0
 40
0.3914917532
 40
0.9389715821
 40
1.0
 40
1.0
 40
1.0
 40
1.0
 10
-1.645753882
 20
1.5965375803
 30
0.0
 10
-1.602901351
 20
1.5912131611
 30
0.0
 10
-1.4989959618
 20
1.5882665361
 30
0.0
 10
-1.3902601455
 20
1.6163591984
 30
0.0
 10
-1.3302651703
 20
1.6465099729
 30
0.0
 10
-1.3243139405
 20
1.6496602515
 30
0.0
 11
-1.645753882
 21
1.5965375803
 31
0.0
 11
-1.5165712715
 21
1.5938537682
 31
0.0
 11
-1.3423612618
 21
1.6405935438
 31
0.0
 11
-1.3243139405
 21
1.6496602515
 31
0.0
  0
SPLINE
  5
290
100
AcDbEntity
  8
ASSI
100
AcDbSpline
 62
253
  6
CONTINUOUS
 70
0
 71
3
 72
9
 73
5
 74
3
 42
0.0000001
 43
0.0000001
 44
0.0000000001
 12
0.0042467392
 22
-0.1188405266
 32
0.0
 13
0.1066391991
 23
-0.053407067
 33
0.0
 40
0.0
 40
0.0
 40
0.0
 40
0.0
 40
0.4342551344
 40
1.0
 40
1.0
 40
1.0
 40
1.0
 10
-10.5892115035
 20
-3.5580147703
 30
0.0
 10
-10.5885967808
 20
-3.57521714
 30
0.0
 10
-10.5704283626
 20
-3.6144308703
 30
0.0
 10
-10.5360926559
 20
-3.6367591268
 30
0.0
 10
-10.5159824628
 20
-3.6468307181
 30
0.0
 11
-10.5892115035
 21
-3.5580147703
 31
0.0
 11
-10.5697685358
 21
-3.6060904466
 31
0.0
 11
-10.5159824628
 21
-3.6468307181
 31
0.0
  0
SPLINE
  5
291
100
AcDbEntity
  8
ASSI
100
AcDbSpline
 62
253
  6
CONTINUOUS
 70
0
 71
3
 72
13
 73
9
 74
7
 42
0.0000001
 43
0.0000001
 44
0.0000000001
 12
0.0237005162
 22
-0.7022873817
 32
0.0
 13
0.6783415113
 23
0.1833632327
 33
0.0
 40
0.0
 40
0.0
 40
0.0
 40
0.0
 40
0.1946677134
 40
0.3699588267
 40
0.5285926496
 40
0.6790968263
 40
0.8330968665
 40
1.0
 40
1.0
 40
1.0
 40
1.0
 10
6.7418577049
 20
-12.0936065504
 30
0.0
 10
6.7433956133
 20
-12.1391774433
 30
0.0
 10
6.7541778788
 20
-12.2259058148
 30
0.0
 10
6.7982138278
 20
-12.3431199001
 30
0.0
 10
6.8687719231
 20
-12.4346295007
 30
0.0
 10
6.9631589634
 20
-12.4930759979
 30
0.0
 10
7.0739731776
 20
-12.5134652754
 30
0.0
 10
7.1495822654
 20
-12.5025936448
 30
0.0
 10
7.1873213734
 20
-12.4923923455
 30
0.0
 11
6.7418577049
 21
-12.0936065504
 31
0.0
 11
6.7602906512
 21
-12.22914942
 31
0.0
 11
6.805338271
 21
-12.3437912449
 31
0.0
 11
6.8746893402
 21
-12.431060827
 31
0.0
 11
6.9647727839
 21
-12.4864647221
 31
0.0
 11
7.0709801169
 21
-12.5072069684
 31
0.0
 11
7.1873213734
 21
-12.4923923455
 31
0.0
  0
SPLINE
  5
292
100
AcDbEntity
  8
ASSI
100
AcDbSpline
 62
253
  6
CONTINUOUS
 70
0
 71
3
 72
10
 73
6
 74
4
 42
0.0000001
 43
0.0000001
 44
0.0000000001
 12
0.1056673508
 22
0.0577633496
 32
0.0
 13
0.1075013196
 23
-0.0518675463
 33
0.0
 40
0.0
 40
0.0
 40
0.0
 40
0.0
 40
0.0964758944
 40
0.516119714
 40
1.0
 40
1.0
 40
1.0
 40
1.0
 10
-10.6902410049
 20
10.6709478844
 30
0.0
 10
-10.6868428875
 20
10.6728054746
 30
0.0
 10
-10.6680892809
 20
10.6816221635
 30
0.0
 10
-10.626929785
 20
10.6857422479
 30
0.0
 10
-10.5919870403
 20
10.674274755
 30
0.0
 10
-10.5746477839
 20
10.6659088606
 30
0.0
 11
-10.6902410049
 21
10.6709478844
 31
0.0
 11
-10.6797448458
 21
10.675867837
 31
0.0
 11
-10.6300581916
 21
10.6822008445
 31
0.0
 11
-10.5746477839
 21
10.6659088606
 31
0.0
  0
SPLINE
  5
293
100
AcDbEntity
  8
ASSI
100
AcDbSpline
 62
7
  6
CONTINUOUS
 70
0
 71
3
 72
26
 73
22
 74
20
 42
0.0000001
 43
0.0000001
 44
0.0000000001
 12
-5.4924188562
 22
2.7462094281
 32
0.0
 13
5.4924188562
 23
-2.7462094281
 33
0.0
 40
0.0
 40
0.0
 40
0.0
 40
0.0
 40
0.05293166
 40
0.1097804637
 40
0.1699669753
 40
0.2325120521
 40
0.2966483843
 40
0.3610410885
 40
0.4249025715
 40
0.4868204967
 40
0.5461736132
 40
0.601803194
 40
0.6535433549
 40
0.7009654854
 40
0.7447108065
 40
0.785457976
 40
0.8248708045
 40
0.8645297783
 40
0.9062455542
 40
0.9511611582
 40
1.0
 40
1.0
 40
1.0
 40
1.0
 10
-2.2582712373
 20
0.5790718084
 30
0.0
 10
-2.3551788531
 20
0.6275256163
 30
0.0
 10
-2.5481247792
 20
0.7445709424
 30
0.0
 10
-2.8192933452
 20
0.9638758116
 30
0.0
 10
-3.0762290264
 20
1.2278748707
 30
0.0
 10
-3.3121861619
 20
1.5298071483
 30
0.0
 10
-3.5206264602
 20
1.8615318188
 30
0.0
 10
-3.6961337377
 20
2.2147960918
 30
0.0
 10
-3.8335623109
 20
2.5797302105
 30
0.0
 10
-3.9292267894
 20
2.9471793566
 30
0.0
 10
-3.980168442
 20
3.3065553959
 30
0.0
 10
-3.9848997992
 20
3.6488258706
 30
0.0
 10
-3.9430630518
 20
3.96422033
 30
0.0
 10
-3.8552179281
 20
4.2450019519
 30
0.0
 10
-3.7230665201
 20
4.4830043927
 30
0.0
 10
-3.548977751
 20
4.6712140119
 30
0.0
 10
-3.338020923
 20
4.8023029292
 30
0.0
 10
-3.0975692919
 20
4.8715210029
 30
0.0
 10
-2.8366229087
 20
4.8776246688
 30
0.0
 10
-2.5629966317
 20
4.8222638684
 30
0.0
 10
-2.3843084076
 20
4.7492963046
 30
0.0
 10
-2.294893949
 20
4.7045890753
 30
0.0
 11
-2.2582712373
 21
0.5790718084
 31
0.0
 11
-2.5371020416
 21
0.7461140188
 31
0.0
 11
-2.8094213254
 21
0.9645344451
 31
0.0
 11
-3.0678941827
 21
1.2287068328
 31
0.0
 11
-3.304871523
 21
1.5309525221
 31
0.0
 11
-3.5146294856
 21
1.8642896676
 31
0.0
 11
-3.6904889109
 21
2.2184479003
 31
0.0
 11
-3.8282900989
 21
2.5855940637
 31
0.0
 11
-3.9233199232
 21
2.9537470798
 31
0.0
 11
-3.9732875175
 21
3.3147759747
 31
0.0
 11
-3.9764022024
 21
3.6563669515
 31
0.0
 11
-3.9325977837
 21
3.9710541676
 31
0.0
 11
-3.8434091624
 21
4.2482654396
 31
0.0
 11
-3.7109305511
 21
4.4819534433
 31
0.0
 11
-3.5397372254
 21
4.6644395727
 31
0.0
 11
-3.3339345772
 21
4.7917985138
 31
0.0
 11
-3.1002036429
 21
4.8602002907
 31
0.0
 11
-2.8441668989
 21
4.8682903029
 31
0.0
 11
-2.5733719803
 21
4.8159134749
 31
0.0
 11
-2.294893949
 21
4.7045890753
 31
0.0
  0
SPLINE
  5
294
100
AcDbEntity
  8
ASSI
100
AcDbSpline
 62
253
  6
CONTINUOUS
 70
0
 71
3
 72
12
 73
8
 74
6
 42
0.0000001
 43
0.0000001
 44
0.0000000001
 12
-0.0053497267
 22
0.3664563861
 32
0.0
 13
-0.3254083925
 23
0.1686068818
 33
0.0
 40
0.0
 40
0.0
 40
0.0
 40
0.0
 40
0.1955839747
 40
0.4065111841
 40
0.6196376798
 40
0.8218553915
 40
1.0
 40
1.0
 40
1.0
 40
1.0
 10
6.5013893594
 20
1.9114169131
 30
0.0
 10
6.5010405857
 20
1.9353079119
 30
0.0
 10
6.4938039041
 20
1.9849423694
 30
0.0
 10
6.4682170183
 20
2.0566035127
 30
0.0
 10
6.4296390177
 20
2.123203538
 30
0.0
 10
6.3818783536
 20
2.178323862
 30
0.0
 10
6.3439628382
 20
2.2062530391
 30
0.0
 10
6.324639588
 20
2.2162651747
 30
0.0
 11
6.5013893594
 21
1.9114169131
 31
0.0
 11
6.4918664822
 21
1.9824621665
 31
0.0
 11
6.4661773771
 21
2.0553727726
 31
0.0
 11
6.4269028416
 21
2.1228906618
 31
0.0
 11
6.3778760475
 21
2.1784689167
 31
0.0
 11
6.324639588
 21
2.2162651747
 31
0.0
  0
SPLINE
  5
295
100
AcDbEntity
  8
ASSI
100
AcDbSpline
 62
253
  6
CONTINUOUS
 70
0
 71
3
 72
12
 73
8
 74
6
 42
0.0000001
 43
0.0000001
 44
0.0000000001
 12
-0.0003856599
 22
0.3643136515
 32
0.0
 13
0.3230429735
 23
0.1684274998
 33
0.0
 40
0.0
 40
0.0
 40
0.0
 40
0.0
 40
0.1954109409
 40
0.4054784998
 40
0.6178639365
 40
0.8202454909
 40
1.0
 40
1.0
 40
1.0
 40
1.0
 10
-10.748339152
 20
10.3623092475
 30
0.0
 10
-10.7483642727
 20
10.3860395386
 30
0.0
 10
-10.7419034164
 20
10.435367706
 30
0.0
 10
-10.7172459124
 20
10.5066693883
 30
0.0
 10
-10.6793441115
 20
10.5729488797
 30
0.0
 10
-10.6318690731
 20
10.6279346836
 30
0.0
 10
-10.5940039276
 20
10.6558169931
 30
0.0
 10
-10.5746477839
 20
10.6659088606
 30
0.0
 11
-10.748339152
 21
10.3623092475
 31
0.0
 11
-10.739879255
 21
10.4329957121
 31
0.0
 11
-10.715170787
 21
10.5054278352
 31
0.0
 11
-10.6766497251
 21
10.5725323195
 31
0.0
 11
-10.6280006687
 21
10.6279348631
 31
0.0
 11
-10.5746477839
 21
10.6659088606
 31
0.0
  0
SPLINE
  5
296
100
AcDbEntity
  8
ASSI
100
AcDbSpline
 62
253
  6
CONTINUOUS
 70
0
 71
3
 72
12
 73
8
 74
6
 42
0.0000001
 43
0.0000001
 44
0.0000000001
 12
-0.0003856587
 22
0.3643125473
 32
0.0
 13
0.3230419943
 23
0.1684269893
 33
0.0
 40
0.0
 40
0.0
 40
0.0
 40
0.0
 40
0.1947631165
 40
0.4040949088
 40
0.6160496428
 40
0.8181238454
 40
1.0
 40
1.0
 40
1.0
 40
1.0
 10
6.1509482199
 20
1.9126655615
 30
0.0
 10
6.1509231825
 20
1.9363171105
 30
0.0
 10
6.1573411271
 20
1.9854767065
 30
0.0
 10
6.1818574845
 20
2.0565896672
 30
0.0
 10
6.2195763907
 20
2.1227650542
 30
0.0
 10
6.2670478039
 20
2.1779662725
 30
0.0
 10
6.3050550428
 20
2.2060542237
 30
0.0
 10
6.324639588
 20
2.2162651747
 30
0.0
 11
6.1509482199
 21
1.9126655615
 31
0.0
 11
6.159354549
 21
1.9831205203
 31
0.0
 11
6.1839075363
 21
2.055322184
 31
0.0
 11
6.2222525571
 21
2.1223464328
 31
0.0
 11
6.2707123341
 21
2.1777656593
 31
0.0
 11
6.324639588
 21
2.2162651747
 31
0.0
  0
SPLINE
  5
297
100
AcDbEntity
  8
ASSI
100
AcDbSpline
 62
253
  6
CONTINUOUS
 70
0
 71
3
 72
10
 73
6
 74
4
 42
0.0000001
 43
0.0000001
 44
0.0000000001
 12
-0.1066900264
 22
0.0533479656
 32
0.0
 13
0.0004535054
 23
0.1185801436
 33
0.0
 40
0.0
 40
0.0
 40
0.0
 40
0.0
 40
0.5621967081
 40
0.9909786772
 40
1.0
 40
1.0
 40
1.0
 40
1.0
 10
-10.748339152
 20
10.3623092475
 30
0.0
 10
-10.7683327459
 20
10.3723065977
 30
0.0
 10
-10.802423939
 20
10.3939410411
 30
0.0
 10
-10.8214593817
 20
10.4330977714
 30
0.0
 10
-10.8215606498
 20
10.4504009527
 30
0.0
 10
-10.8215592861
 20
10.4507575359
 30
0.0
 11
-10.748339152
 21
10.3623092475
 31
0.0
 11
-10.8021127111
 21
10.402379456
 31
0.0
 11
-10.8215529808
 21
10.4496879261
 31
0.0
 11
-10.8215592861
 21
10.4507575359
 31
0.0
  0
SPLINE
  5
298
100
AcDbEntity
  8
ASSI
100
AcDbSpline
 62
253
  6
CONTINUOUS
 70
0
 71
3
 72
10
 73
6
 74
4
 42
0.0000001
 43
0.0000001
 44
0.0000000001
 12
-0.0264958835
 22
-0.1937282823
 32
0.0
 13
-0.191317782
 23
-0.0524592148
 33
0.0
 40
0.0
 40
0.0
 40
0.0
 40
0.0
 40
0.430683799
 40
0.8010691498
 40
1.0
 40
1.0
 40
1.0
 40
1.0
 10
7.1873213734
 20
-12.4923923455
 30
0.0
 10
7.1835175908
 20
-12.520204223
 30
0.0
 10
7.1690014553
 20
-12.5715345829
 30
0.0
 10
7.126335789
 20
-12.6242971303
 30
0.0
 10
7.0915949745
 20
-12.6401419375
 30
0.0
 10
7.0789086382
 20
-12.6436205229
 30
0.0
 11
7.1873213734
 21
-12.4923923455
 31
0.0
 11
7.1622254316
 21
-12.5727783975
 31
0.0
 11
7.1145973331
 21
-12.627335946
 31
0.0
 11
7.0789086382
 21
-12.6436205229
 31
0.0
  0
SPLINE
  5
299
100
AcDbEntity
  8
ASSI
100
AcDbSpline
 62
253
  6
CONTINUOUS
 70
0
 71
3
 72
11
 73
7
 74
5
 42
0.0000001
 43
0.0000001
 44
0.0000000001
 12
-0.3186082903
 22
-0.1690650599
 32
0.0
 13
-0.3227128788
 23
0.1610920079
 33
0.0
 40
0.0
 40
0.0
 40
0.0
 40
0.0
 40
0.2388435752
 40
0.503579771
 40
0.7663858709
 40
1.0
 40
1.0
 40
1.0
 40
1.0
 10
6.7418577048
 20
-12.0936065504
 30
0.0
 10
6.7164918571
 20
-12.1070665848
 30
0.0
 10
6.6584502115
 20
-12.1268927829
 30
0.0
 10
6.5664059585
 20
-12.1377384476
 30
0.0
 10
6.4746300846
 20
-12.1306952387
 30
0.0
 10
6.4166920791
 20
-12.1131407781
 30
0.0
 10
6.3915619831
 20
-12.1005963218
 30
0.0
 11
6.7418577048
 21
-12.0936065504
 31
0.0
 11
6.6608858541
 21
-12.1230165522
 31
0.0
 11
6.566111371
 21
-12.1346563513
 31
0.0
 11
6.4716476954
 21
-12.1267925944
 31
0.0
 11
6.3915619831
 21
-12.1005963218
 31
0.0
  0
SPLINE
  5
29A
100
AcDbEntity
  8
ASSI
100
AcDbSpline
 62
253
  6
CONTINUOUS
 70
0
 71
3
 72
11
 73
7
 74
5
 42
0.0000001
 43
0.0000001
 44
0.0000000001
 12
-0.32390209
 22
-0.1568996968
 32
0.0
 13
-0.3219104798
 23
0.1609463318
 33
0.0
 40
0.0
 40
0.0
 40
0.0
 40
0.0
 40
0.2366865908
 40
0.5013293953
 40
0.7652575898
 40
1.0
 40
1.0
 40
1.0
 40
1.0
 10
6.5013893594
 20
1.9114169131
 30
0.0
 10
6.4758349322
 20
1.8990382283
 30
0.0
 10
6.4175438751
 20
1.8814150834
 30
0.0
 10
6.3256186737
 20
1.8731904473
 30
0.0
 10
6.2339869735
 20
1.8820217982
 30
0.0
 10
6.1761369005
 20
1.9000719182
 30
0.0
 10
6.1509482199
 20
1.9126655615
 30
0.0
 11
6.5013893594
 21
1.9114169131
 31
0.0
 11
6.4203641853
 21
1.8851249671
 31
0.0
 11
6.3255432407
 21
1.8761398154
 31
0.0
 11
6.2310471652
 21
1.8857995179
 31
0.0
 11
6.1509482199
 21
1.9126655615
 31
0.0
  0
SPLINE
  5
29B
100
AcDbEntity
  8
ASSI
100
AcDbSpline
 62
253
  6
CONTINUOUS
 70
0
 71
3
 72
11
 73
7
 74
5
 42
0.0000001
 43
0.0000001
 44
0.0000000001
 12
0.019995042
 22
-0.5969935292
 32
0.0
 13
0.5356077716
 23
-0.2715003034
 33
0.0
 40
0.0
 40
0.0
 40
0.0
 40
0.0
 40
0.3060244882
 40
0.5801118581
 40
0.8277905762
 40
1.0
 40
1.0
 40
1.0
 40
1.0
 10
6.3915556725
 20
-12.1005997859
 30
0.0
 10
6.39359533
 20
-12.161497999
 30
0.0
 10
6.4079415893
 20
-12.2771054415
 30
0.0
 10
6.4664347389
 20
-12.4331763077
 30
0.0
 10
6.5521993095
 20
-12.5447292483
 30
0.0
 10
6.6221993785
 20
-12.5927635752
 30
0.0
 10
6.6529449471
 20
-12.6083485455
 30
0.0
 11
6.3915556725
 21
-12.1005997859
 31
0.0
 11
6.416146419
 21
-12.2817352827
 31
0.0
 11
6.4759206263
 21
-12.434153548
 31
0.0
 11
6.5678268711
 21
-12.5500893665
 31
0.0
 11
6.6529449471
 21
-12.6083485455
 31
0.0
  0
SPLINE
  5
29C
100
AcDbEntity
  8
ASSI
100
AcDbSpline
 62
253
  6
CONTINUOUS
 70
0
 71
3
 72
11
 73
7
 74
5
 42
0.0000001
 43
0.0000001
 44
0.0000000001
 12
-0.5108213004
 22
0.2798532065
 32
0.0
 13
-0.0188900147
 23
0.5787986326
 33
0.0
 40
0.0
 40
0.0
 40
0.0
 40
0.0
 40
0.1532091295
 40
0.4045332697
 40
0.6850361907
 40
1.0
 40
1.0
 40
1.0
 40
1.0
 10
-10.2717485533
 20
-4.1457131865
 30
0.0
 10
-10.2978360488
 20
-4.1314211644
 30
0.0
 10
-10.3622690023
 20
-4.0853825481
 30
0.0
 10
-10.443345558
 20
-3.9778325708
 30
0.0
 10
-10.5001149301
 20
-3.8226473901
 30
0.0
 10
-10.5139992393
 20
-3.7075975922
 30
0.0
 10
-10.515982463
 20
-3.6468307182
 30
0.0
 11
-10.2717485533
 21
-4.1457131865
 31
0.0
 11
-10.3442669211
 21
-4.0940424704
 31
0.0
 11
-10.4337978108
 21
-3.9792943295
 31
0.0
 11
-10.4920271988
 21
-3.8276484737
 31
0.0
 11
-10.515982463
 21
-3.6468307182
 31
0.0
  0
ELLIPSE
  5
29D
100
AcDbEntity
  8
RACCORDO
100
AcDbEllipse
 62
7
  6
CONTINUOUS
 10
-6.8547892724
 20
12.4562625561
 30
0.0
 11
-0.1118504554
 21
0.2236675568
 31
0.0
 40
0.6121897086
 41
-0.6846338794
 42
0.0186659329
  0
ELLIPSE
  5
29E
100
AcDbEntity
  8
RACCORDO
100
AcDbEllipse
 62
7
  6
CONTINUOUS
 10
9.9081915986
 20
-11.7655157767
 30
0.0
 11
-0.0859020599
 21
0.2354039488
 31
0.0
 40
0.6613288813
 41
-3.0814036799
 42
-2.1814380601
  0
ELLIPSE
  5
29F
100
AcDbEntity
  8
RACCORDO
100
AcDbEllipse
 62
7
  6
CONTINUOUS
 10
10.1765562223
 20
3.9405898088
 30
0.0
 11
-0.1117903878
 21
0.2236141634
 31
0.0
 40
0.6125552124
 41
-2.255296188
 42
-0.6848044477
  0
ELLIPSE
  5
2A0
100
AcDbEntity
  8
RACCORDO
100
AcDbEllipse
 62
7
  6
CONTINUOUS
 10
10.5691946585
 20
3.3497207326
 30
0.0
 11
0.1379861541
 21
0.2664038768
 31
0.0
 40
0.6229838795
 41
2.2644017489
 42
3.8177447832
  0
ELLIPSE
  5
2A1
100
AcDbEntity
  8
RACCORDO
100
AcDbEllipse
 62
7
  6
CONTINUOUS
 10
9.3851619088
 20
-11.7607605894
 30
0.0
 11
-0.1098985543
 21
0.2275784384
 31
0.0
 40
0.6085747011
 41
-3.2548100557
 42
-2.2415613143
  0
ELLIPSE
  5
2A2
100
AcDbEntity
  8
RACCORDO
100
AcDbEllipse
 62
7
  6
CONTINUOUS
 10
9.3851619088
 20
-12.012563392
 30
0.0
 11
-0.1118523001
 21
0.2236266191
 31
0.0
 40
0.6122950388
 41
2.456793014
 42
4.0274370417
  0
ELLIPSE
  5
2A3
100
AcDbEntity
  8
ASSI
100
AcDbEllipse
 62
7
  6
CONTINUOUS
 10
-6.8547892724
 20
12.4562625561
 30
0.0
 11
-0.1118504554
 21
0.2236675568
 31
0.0
 40
0.6121897086
 41
-0.6846338794
 42
0.0186659329
  0
ELLIPSE
  5
2A4
100
AcDbEntity
  8
ASSI
100
AcDbEllipse
 62
7
  6
CONTINUOUS
 10
9.9081915986
 20
-11.7655157767
 30
0.0
 11
-0.0859020599
 21
0.2354039488
 31
0.0
 40
0.6613288813
 41
-3.0814036799
 42
-2.1814380601
  0
ELLIPSE
  5
2A5
100
AcDbEntity
  8
ASSI
100
AcDbEllipse
 62
7
  6
CONTINUOUS
 10
10.1765562223
 20
3.9405898088
 30
0.0
 11
-0.1117903878
 21
0.2236141634
 31
0.0
 40
0.6125552124
 41
-2.255296188
 42
-0.6848044477
  0
ELLIPSE
  5
2A6
100
AcDbEntity
  8
ASSI
100
AcDbEllipse
 62
7
  6
CONTINUOUS
 10
10.5691946585
 20
3.3497207326
 30
0.0
 11
0.1379861541
 21
0.2664038768
 31
0.0
 40
0.6229838795
 41
2.2644017489
 42
3.8177447832
  0
ELLIPSE
  5
2A7
100
AcDbEntity
  8
ASSI
100
AcDbEllipse
 62
7
  6
CONTINUOUS
 10
9.3851619088
 20
-11.7607605894
 30
0.0
 11
-0.1098985543
 21
0.2275784384
 31
0.0
 40
0.6085747011
 41
-3.2548100557
 42
-2.2415613143
  0
ELLIPSE
  5
2A8
100
AcDbEntity
  8
ASSI
100
AcDbEllipse
 62
7
  6
CONTINUOUS
 10
9.3851619088
 20
-12.012563392
 30
0.0
 11
-0.1118523001
 21
0.2236266191
 31
0.0
 40
0.6122950388
 41
2.456793014
 42
4.0274370417
  0
ELLIPSE
  5
2A9
100
AcDbEntity
  8
CURVE
100
AcDbEllipse
 62
253
  6
CONTINUOUS
 10
287.2158732752
 20
162.3772730599
 30
0.0
 11
-315.2613449681
 21
510.1035714974
 31
0.0
 40
0.5587454355
 41
1.5475524291
 42
1.5570867164
  0
ELLIPSE
  5
2AA
100
AcDbEntity
  8
CURVE
100
AcDbEllipse
 62
253
  6
CONTINUOUS
 10
308.2269951828
 20
151.8717121061
 30
0.0
 11
424.4616252599
 21
262.3317113306
 31
0.0
 40
0.0815198604
 41
2.3296219533
 42
2.3391552818
  0
ELLIPSE
  5
2AB
100
AcDbEntity
  8
CURVE
100
AcDbEllipse
 62
253
  6
CONTINUOUS
 10
288.2158732752
 20
161.8772730599
 30
0.0
 11
-315.2613449681
 21
510.1035714974
 31
0.0
 40
0.5587454355
 41
1.5442237899
 42
1.5537571184
  0
ELLIPSE
  5
2AC
100
AcDbEntity
  8
CURVE
100
AcDbEllipse
 62
253
  6
CONTINUOUS
 10
309.2269951828
 20
151.3717121061
 30
0.0
 11
424.4616252599
 21
262.3317113306
 31
0.0
 40
0.0815198604
 41
2.3329505925
 42
2.3424848798
  0
ENDSEC
  0
SECTION
  2
OBJECTS
  0
DICTIONARY
  5
C
100
AcDbDictionary
280
0
281
1
  3
ACAD_GROUP
350
D
  3
ACAD_MLINESTYLE
350
17
  3
ACAD_LAYOUT
350
1A
  3
ACAD_PLOTSETTINGS
350
19
  3
ACAD_PLOTSTYLENAME
350
E
  0
DICTIONARY
  5
D
102
{ACAD_REACTORS
330
C
102
}
100
AcDbDictionary
280
0
281
1
  0
ACDBDICTIONARYWDFLT
  5
E
102
{ACAD_REACTORS
330
C
102
}
100
AcDbDictionary
281
1
  3
Normal
350
F
100
AcDbDictionaryWithDefault
340
F
  0
DICTIONARY
  5
17
102
{ACAD_REACTORS
330
C
102
}
100
AcDbDictionary
280
0
281
1
  3
Standard
350
18
  0
DICTIONARY
  5
19
102
{ACAD_REACTORS
330
C
102
}
100
AcDbDictionary
281
1
  0
DICTIONARY
  5
1A
102
{ACAD_REACTORS
330
C
102
}
100
AcDbDictionary
281
1
  3
Model
350
2AD
  3
Layout1
350
2AE
  0
ACDBPLACEHOLDER
  5
F
102
{ACAD_REACTORS
330
E
102
}
  0
MLINESTYLE
  5
18
102
{ACAD_REACTORS
330
17
102
}
100
AcDbMlineStyle
  2
STANDARD
 70
0
  3

 62
256
 51
90.0
 52
90.0
 71
2
 49
0.5
 62
256
  6
BYLAYER
 49
-0.5
 62
256
  6
BYLAYER
  0
LAYOUT
  5
2AD
102
{ACAD_REACTORS
330
1A
102
}
100
AcDbPlotSettings
  1

  2
none_device
  4
ISO_A4_(297.00_x_210.00_MM)
  6

 40
0.0
 41
0.0
 42
0.0
 43
0.0
 44
297.0
 45
210.0
 46
0.0
 47
0.0
 48
0.0
 49
0.0
140
0.0
141
0.0
142
1.0
143
1.0
 70
1024
 72
1
 73
0
 74
0
  7

 75
0
147
1.0
148
0.0
149
0.0
100
AcDbLayout
  1
Model
 70
0
 71
0
 10
0.0
 20
0.0
 11
297.0
 21
210.0
 12
0.0
 22
0.0
 32
0.0
 14
0.0
 24
0.0
 34
0.0
 15
0.0
 25
0.0
 35
0.0
146
0.0
 13
0.0
 23
0.0
 33
0.0
 16
1.0
 26
0.0
 36
0.0
 17
0.0
 27
1.0
 37
0.0
 76
0
330
211
345
0
346
0
  0
LAYOUT
  5
2AE
102
{ACAD_REACTORS
330
1A
102
}
100
AcDbPlotSettings
  1

  2
none_device
  4
ISO_A4_(297.00_x_210.00_MM)
  6

 40
0.0
 41
0.0
 42
0.0
 43
0.0
 44
297.0
 45
210.0
 46
0.0
 47
0.0
 48
0.0
 49
0.0
140
0.0
141
0.0
142
1.0
143
1.0
 70
0
 72
1
 73
0
 74
0
  7

 75
0
147
1.0
148
0.0
149
0.0
100
AcDbLayout
  1
Layout1
 70
0
 71
1
 10
0.0
 20
0.0
 11
297.0
 21
210.0
 12
0.0
 22
0.0
 32
0.0
 14
0.0
 24
0.0
 34
0.0
 15
0.0
 25
0.0
 35
0.0
146
0.0
 13
0.0
 23
0.0
 33
0.0
 16
1.0
 26
0.0
 36
0.0
 17
0.0
 27
1.0
 37
0.0
 76
0
330
212
345
0
346
0
  0
ENDSEC
  0
EOF
