  0
SECTION
  2
HEADER
  9
$ACADVER
  1
AC1015
  9
$DWGCODEPAGE
  3
ANSI_1252
  9
$EXTMAX
 10
297.0
 20
210.0
 30
0.0
  9
$EXTMIN
 10
0.0
 20
0.0
 30
0.0
  9
$LIMMIN
 10
0.0
 20
0.0
  9
$LIMMAX
 10
297.0
 20
210.0
  9
$VIEWCTR
 10
148.5
 20
105.0
  9
$VIEWSIZE
 40
210.0
  9
$CLAYER
  8
0
  9
$LTSCALE
 40
16.335
  9
$CELTYPE
  6
BYLAYER
  9
$DIMSCALE
 40
1.0
  9
$DIMASZ
 40
3.0
  9
$DIMEXO
 40
1.85625
  9
$DIMDLI
 40
11.286
  9
$DIMEXE
 40
5.346
  9
$DIMCEN
 40
2.673
  9
$DIMLFAC
 40
1.0
  9
$DIMBLK
  1
_FILLED
  9
$DIMTXT
 40
3.0
  9
$DIMTOL
 70
1
  9
$DIMLIM
 70
0
  9
$DIMTFAC
 40
1.0
  9
$DIMTP
 40
0.01
  9
$DIMTM
 40
0.01
  9
$PDMODE
 70
3
  9
$PDSIZE
 40
3.0
  9
$HANDSEED
  5
2A0
  9
$TILEMODE
 70
1
  9
$MEASUREMENT
 70
1
  9
$INSUNITS
 70
4
  0
ENDSEC
  0
SECTION
  2
CLASSES
  0
CLASS
  1
ACDBDICTIONARYWDFLT
  2
AcDbDictionaryWithDefault
  3
AutoCAD 2000
 90
0
280
0
281
0
  0
CLASS
  1
ACDBPLACEHOLDER
  2
AcDbPlaceHolder
  3
AutoCAD 2000
 90
0
280
0
281
0
  0
CLASS
  1
LAYOUT
  2
AcDbLayout
  3
AutoCAD 2000
 90
0
280
0
281
0
  0
ENDSEC
  0
SECTION
  2
TABLES
  0
TABLE
  2
VPORT
  5
8
100
AcDbSymbolTable
 70
2
  0
VPORT
  5
1F4
100
AcDbSymbolTableRecord
100
AcDbViewportTableRecord
  2
*ACTIVE
 70
0
 10
0.0
 20
0.0
 11
1.0
 21
1.0
 12
148.5
 22
105.0
 13
0.0
 23
0.0
 14
1.0
 24
1.0
 15
0.0
 25
0.0
 16
0.0
 26
0.0
 36
1.0
 17
0.0
 27
0.0
 37
0.0
 40
210.0
 41
1.4142857143
 42
50.0
 43
0.0
 44
0.0
 50
0.0
 51
0.0
 71
0
 72
100
 73
1
 74
1
 75
0
 76
0
 77
0
 78
0
  0
ENDTAB
  0
TABLE
  2
LTYPE
  5
5
100
AcDbSymbolTable
 70
6
  0
LTYPE
  5
14
100
AcDbSymbolTableRecord
100
AcDbLinetypeTableRecord
  2
BYBLOCK
 70
0
  3

 72
65
 73
0
 40
0.0
  0
LTYPE
  5
15
100
AcDbSymbolTableRecord
100
AcDbLinetypeTableRecord
  2
BYLAYER
 70
0
  3

 72
65
 73
0
 40
0.0
  0
LTYPE
  5
16
100
AcDbSymbolTableRecord
100
AcDbLinetypeTableRecord
  2
CONTINUOUS
 70
64
  3
Solid line
 72
65
 73
0
 40
0.0
  0
LTYPE
  5
1F5
100
AcDbSymbolTableRecord
100
AcDbLinetypeTableRecord
  2
CENTER
 70
64
  3
____ _ ____ _ ____ _ ____ _ ____ _ ____ _ ____
 72
65
 73
4
 40
0.6
 49
0.375
 74
0
 49
-0.075
 74
0
 49
0.075
 74
0
 49
-0.075
 74
0
  0
LTYPE
  5
1F6
100
AcDbSymbolTableRecord
100
AcDbLinetypeTableRecord
  2
HIDDEN
 70
64
  3
- - - - - - - - - - - - - - - - - - - -
 72
65
 73
2
 40
0.2
 49
0.1
 74
0
 49
-0.1
 74
0
  0
LTYPE
  5
1F7
100
AcDbSymbolTableRecord
100
AcDbLinetypeTableRecord
  2
PHANTOM
 70
64
  3
_____ _ _ _____ _ _ _____ _ _ _____
 72
65
 73
6
 40
0.8
 49
0.45
 74
0
 49
-0.05
 74
0
 49
0.1
 74
0
 49
-0.05
 74
0
 49
0.1
 74
0
 49
-0.05
 74
0
  0
LTYPE
  5
1F8
100
AcDbSymbolTableRecord
100
AcDbLinetypeTableRecord
  2
DOT
 70
64
  3
. . . . . . . . . . . . . . . . . . . .
 72
65
 73
2
 40
0.2
 49
0.1
 74
0
 49
-0.1
 74
0
  0
LTYPE
  5
1F9
100
AcDbSymbolTableRecord
100
AcDbLinetypeTableRecord
  2
DASHED
 70
64
  3
- - - - - - - - - - - - - - - - - - - -
 72
65
 73
2
 40
0.2
 49
0.1
 74
0
 49
-0.1
 74
0
  0
ENDTAB
  0
TABLE
  2
LAYER
  5
2
100
AcDbSymbolTable
 70
36
  0
LAYER
  5
10
100
AcDbSymbolTableRecord
100
AcDbLayerTableRecord
  2
0
 70
0
 62
7
  6
CONTINUOUS
370
-3
390
F
  0
LAYER
  5
1FA
100
AcDbSymbolTableRecord
100
AcDbLayerTableRecord
  2
DEFAULT_1
 70
0
 62
7
  6
CENTER
370
-3
390
F
  0
LAYER
  5
1FB
100
AcDbSymbolTableRecord
100
AcDbLayerTableRecord
  2
DEFAULT_2
 70
0
 62
7
  6
HIDDEN
370
-3
390
F
  0
LAYER
  5
1FC
100
AcDbSymbolTableRecord
100
AcDbLayerTableRecord
  2
DEFAULT_3
 70
0
 62
7
  6
PHANTOM
370
-3
390
F
  0
LAYER
  5
1FD
100
AcDbSymbolTableRecord
100
AcDbLayerTableRecord
  2
ASSI
 70
0
 62
7
  6
CONTINUOUS
370
-3
390
F
  0
LAYER
  5
1FE
100
AcDbSymbolTableRecord
100
AcDbLayerTableRecord
  2
COORDINATE
 70
0
 62
7
  6
CONTINUOUS
370
-3
390
F
  0
LAYER
  5
1FF
100
AcDbSymbolTableRecord
100
AcDbLayerTableRecord
  2
COORD_ORIGINE
 70
0
 62
7
  6
CONTINUOUS
370
-3
390
F
  0
LAYER
  5
200
100
AcDbSymbolTableRecord
100
AcDbLayerTableRecord
  2
COPY_PUBLISH
 70
0
 62
7
  6
CONTINUOUS
370
-3
390
F
  0
LAYER
  5
201
100
AcDbSymbolTableRecord
100
AcDbLayerTableRecord
  2
COSMETIC
 70
0
 62
7
  6
CONTINUOUS
370
-3
390
F
  0
LAYER
  5
202
100
AcDbSymbolTableRecord
100
AcDbLayerTableRecord
  2
CURVE
 70
0
 62
7
  6
CONTINUOUS
370
-3
390
F
  0
LAYER
  5
203
100
AcDbSymbolTableRecord
100
AcDbLayerTableRecord
  2
DRAFT
 70
0
 62
7
  6
CONTINUOUS
370
-3
390
F
  0
LAYER
  5
204
100
AcDbSymbolTableRecord
100
AcDbLayerTableRecord
  2
IGES
 70
0
 62
7
  6
CONTINUOUS
370
-3
390
F
  0
LAYER
  5
205
100
AcDbSymbolTableRecord
100
AcDbLayerTableRecord
  2
IMPORT_IGES
 70
0
 62
7
  6
CONTINUOUS
370
-3
390
F
  0
LAYER
  5
206
100
AcDbSymbolTableRecord
100
AcDbLayerTableRecord
  2
INTF_12
 70
0
 62
7
  6
CONTINUOUS
370
-3
390
F
  0
LAYER
  5
207
100
AcDbSymbolTableRecord
100
AcDbLayerTableRecord
  2
NOTE
 70
0
 62
7
  6
CONTINUOUS
370
-3
390
F
  0
LAYER
  5
208
100
AcDbSymbolTableRecord
100
AcDbLayerTableRecord
  2
PIANI
 70
0
 62
7
  6
CONTINUOUS
370
-3
390
F
  0
LAYER
  5
209
100
AcDbSymbolTableRecord
100
AcDbLayerTableRecord
  2
PIANI_ORIGINE
 70
0
 62
7
  6
CONTINUOUS
370
-3
390
F
  0
LAYER
  5
20A
100
AcDbSymbolTableRecord
100
AcDbLayerTableRecord
  2
RACCORDO
 70
0
 62
7
  6
CONTINUOUS
370
-3
390
F
  0
LAYER
  5
20B
100
AcDbSymbolTableRecord
100
AcDbLayerTableRecord
  2
SMUSSO
 70
0
 62
7
  6
CONTINUOUS
370
-3
390
F
  0
LAYER
  5
20C
100
AcDbSymbolTableRecord
100
AcDbLayerTableRecord
  2
SUPERFICI
 70
0
 62
7
  6
CONTINUOUS
370
-3
390
F
  0
LAYER
  5
20D
100
AcDbSymbolTableRecord
100
AcDbLayerTableRecord
  2
TRASH
 70
0
 62
7
  6
CONTINUOUS
370
-3
390
F
  0
ENDTAB
  0
TABLE
  2
STYLE
  5
3
100
AcDbSymbolTable
 70
1
  0
STYLE
  5
11
100
AcDbSymbolTableRecord
100
AcDbTextStyleTableRecord
  2
STANDARD
 70
0
 40
0.0
 41
0.8
 50
0.0
 71
0
 42
0.2
  3
txt
  4

  0
STYLE
  5
20E
100
AcDbSymbolTableRecord
100
AcDbTextStyleTableRecord
  2
TEXTSTYLE_1
 70
0
 40
0.0
 41
0.8
 50
0.0
 71
0
 42
0.2
  3
gdt
  4

  0
ENDTAB
  0
TABLE
  2
VIEW
  5
6
100
AcDbSymbolTable
 70
0
  0
ENDTAB
  0
TABLE
  2
UCS
  5
7
100
AcDbSymbolTable
 70
0
  0
ENDTAB
  0
TABLE
  2
APPID
  5
9
100
AcDbSymbolTable
 70
1
  0
APPID
  5
20F
100
AcDbSymbolTableRecord
100
AcDbRegAppTableRecord
  2
ACAD
 70
0
  0
ENDTAB
  0
TABLE
  2
BLOCK_RECORD
  5
1
100
AcDbSymbolTable
 70
0
  0
BLOCK_RECORD
  5
210
100
AcDbSymbolTableRecord
100
AcDbBlockTableRecord
  2
*Model_Space
  0
BLOCK_RECORD
  5
211
100
AcDbSymbolTableRecord
100
AcDbBlockTableRecord
  2
*Paper_Space
  0
ENDTAB
  0
TABLE
  2
DIMSTYLE
  5
A
100
AcDbSymbolTable
 70
1
100
AcDbDimStyleTable
 71
0
  0
DIMSTYLE
105
212
100
AcDbSymbolTableRecord
100
AcDbDimStyleTableRecord
  2
STANDARD
 70
0
  3

  4

 40
1.0
 41
3.0
 42
0.0625
 43
0.38
 44
0.18
 45
0.0
 46
0.0
 47
0.01
 48
0.01
140
3.0
141
0.09
142
0.0
143
25.4
144
1.0
145
0.0
146
1.0
147
0.09
 71
1.0
 72
0.0
 73
0
 74
0
 75
0
 76
0
 77
1
 78
8
170
0
171
2
172
0
173
0
174
0
175
0
176
0
177
0
178
0
270
2
271
2
272
2
273
2
274
2
275
0
280
0
281
0
282
0
283
1
284
8
285
0
286
0
287
3
288
0
340
11
  0
ENDTAB
  0
ENDSEC
  0
SECTION
  2
BLOCKS
  0
BLOCK
  5
20
100
AcDbEntity
  8
0
100
AcDbBlockBegin
  2
*Model_Space
 70
0
 10
0.0
 20
0.0
 30
0.0
  3
*Model_Space
  1

  0
ENDBLK
  5
21
100
AcDbEntity
  8
0
100
AcDbBlockEnd
  0
BLOCK
  5
1C
100
AcDbEntity
  8
0
100
AcDbBlockBegin
  2
*Paper_Space
 70
0
 10
0.0
 20
0.0
 30
0.0
  3
*Paper_Space
  1

  0
ENDBLK
  5
1D
100
AcDbEntity
  8
0
100
AcDbBlockEnd
  0
ENDSEC
  0
SECTION
  2
ENTITIES
  0
LINE
  5
213
100
AcDbEntity
  8
RACCORDO
100
AcDbLine
 62
7
  6
CONTINUOUS
 10
-19.5887476431
 20
14.9570040641
 11
-15.8677403925
 21
16.964572842
  0
LINE
  5
214
100
AcDbEntity
  8
ASSI
100
AcDbLine
 62
7
  6
CONTINUOUS
 10
-19.5887476431
 20
14.9570040641
 11
-15.8677403925
 21
16.964572842
  0
LINE
  5
215
100
AcDbEntity
  8
RACCORDO
100
AcDbLine
 62
253
  6
CONTINUOUS
 10
-19.4731268667
 20
14.951914633
 11
-15.7533222072
 21
16.9588345854
  0
LINE
  5
216
100
AcDbEntity
  8
ASSI
100
AcDbLine
 62
253
  6
CONTINUOUS
 10
-19.4731268667
 20
14.951914633
 11
-15.7533222072
 21
16.9588345854
  0
LINE
  5
217
100
AcDbEntity
  8
DRAFT
100
AcDbLine
 62
7
  6
CONTINUOUS
 10
-13.4689500688
 20
15.8166485162
 11
-15.4046789306
 21
14.6178430146
  0
LINE
  5
218
100
AcDbEntity
  8
ASSI
100
AcDbLine
 62
7
  6
CONTINUOUS
 10
-13.4689500688
 20
15.8166485162
 11
-15.4046789306
 21
14.6178430146
  0
LINE
  5
219
100
AcDbEntity
  8
RACCORDO
100
AcDbLine
 62
7
  6
CONTINUOUS
 10
15.8581472139
 20
-17.1966250427
 11
18.2575659624
 21
-16.5473575126
  0
LINE
  5
21A
100
AcDbEntity
  8
ASSI
100
AcDbLine
 62
7
  6
CONTINUOUS
 10
15.8581472139
 20
-17.1966250427
 11
18.2575659624
 21
-16.5473575126
  0
LWPOLYLINE
  5
21B
100
AcDbEntity
  8
RACCORDO
100
AcDbPolyline
 62
7
  6
CONTINUOUS
 90
3
 70
0
 10
-19.4876826854
 20
0.7280389527
 10
-19.4872451842
 20
0.716581305
 10
-19.4809185361
 20
0.640394656
  0
LWPOLYLINE
  5
21C
100
AcDbEntity
  8
ASSI
100
AcDbPolyline
 62
7
  6
CONTINUOUS
 90
3
 70
0
 10
-19.4876826854
 20
0.7280389527
 10
-19.4872451842
 20
0.716581305
 10
-19.4809185361
 20
0.640394656
  0
LWPOLYLINE
  5
21D
100
AcDbEntity
  8
RACCORDO
100
AcDbPolyline
 62
7
  6
CONTINUOUS
 90
10
 70
0
 10
-19.7200415492
 20
14.7367238141
 10
-19.7159383674
 20
13.2177157248
 10
-19.7062959747
 20
11.6375744481
 10
-19.6911766283
 20
10.0603316875
 10
-19.6705805541
 20
8.486020167
 10
-19.6445081396
 20
6.9146671524
 10
-19.6129597776
 20
5.3462981738
 10
-19.5759359579
 20
3.7809409429
 10
-19.5334375099
 20
2.218628409
 10
-19.4876930181
 20
0.7279909157
  0
LWPOLYLINE
  5
21E
100
AcDbEntity
  8
ASSI
100
AcDbPolyline
 62
7
  6
CONTINUOUS
 90
10
 70
0
 10
-19.7200415492
 20
14.7367238141
 10
-19.7159383674
 20
13.2177157248
 10
-19.7062959747
 20
11.6375744481
 10
-19.6911766283
 20
10.0603316875
 10
-19.6705805541
 20
8.486020167
 10
-19.6445081396
 20
6.9146671524
 10
-19.6129597776
 20
5.3462981738
 10
-19.5759359579
 20
3.7809409429
 10
-19.5334375099
 20
2.218628409
 10
-19.4876930181
 20
0.7279909157
  0
LINE
  5
21F
100
AcDbEntity
  8
DRAFT
100
AcDbLine
 62
7
  6
CONTINUOUS
 10
-13.4689500688
 20
14.8288142325
 11
-14.522135953
 21
14.1765715258
  0
LINE
  5
220
100
AcDbEntity
  8
ASSI
100
AcDbLine
 62
7
  6
CONTINUOUS
 10
-13.4689500688
 20
14.8288142325
 11
-14.522135953
 21
14.1765715258
  0
LINE
  5
221
100
AcDbEntity
  8
RACCORDO
100
AcDbLine
 62
253
  6
CONTINUOUS
 10
15.9665118202
 20
-17.045221338
 11
18.3411559789
 21
-16.4026576551
  0
LINE
  5
222
100
AcDbEntity
  8
ASSI
100
AcDbLine
 62
253
  6
CONTINUOUS
 10
15.9665118202
 20
-17.045221338
 11
18.3411559789
 21
-16.4026576551
  0
LWPOLYLINE
  5
223
100
AcDbEntity
  8
RACCORDO
100
AcDbPolyline
 62
7
  6
CONTINUOUS
 90
11
 70
0
 10
-19.4809185361
 20
0.640394656
 10
-19.4688081075
 20
0.5675372998
 10
-19.4509353994
 20
0.4981876726
 10
-19.4274269514
 20
0.4327866922
 10
-19.3986258389
 20
0.3721062206
 10
-19.3649147921
 20
0.3166087103
 10
-19.3265211484
 20
0.2663300801
 10
-19.2837431516
 20
0.2214869133
 10
-19.2370231922
 20
0.1824237747
 10
-19.186864843
 20
0.1493868474
 10
-19.1586527019
 20
0.1341695538
  0
LWPOLYLINE
  5
224
100
AcDbEntity
  8
ASSI
100
AcDbPolyline
 62
7
  6
CONTINUOUS
 90
11
 70
0
 10
-19.4809185361
 20
0.640394656
 10
-19.4688081075
 20
0.5675372998
 10
-19.4509353994
 20
0.4981876726
 10
-19.4274269514
 20
0.4327866922
 10
-19.3986258389
 20
0.3721062206
 10
-19.3649147921
 20
0.3166087103
 10
-19.3265211484
 20
0.2663300801
 10
-19.2837431516
 20
0.2214869133
 10
-19.2370231922
 20
0.1824237747
 10
-19.186864843
 20
0.1493868474
 10
-19.1586527019
 20
0.1341695538
  0
LINE
  5
225
100
AcDbEntity
  8
DRAFT
100
AcDbLine
 62
7
  6
CONTINUOUS
 10
-13.4689500688
 20
15.8166485162
 11
-13.4689500688
 21
14.8288142325
  0
LINE
  5
226
100
AcDbEntity
  8
ASSI
100
AcDbLine
 62
7
  6
CONTINUOUS
 10
-13.4689500688
 20
15.8166485162
 11
-13.4689500688
 21
14.8288142325
  0
LWPOLYLINE
  5
227
100
AcDbEntity
  8
RACCORDO
100
AcDbPolyline
 62
7
  6
CONTINUOUS
 90
9
 70
0
 10
15.4321377991
 20
-17.1612221953
 10
15.4492700229
 20
-17.1694762708
 10
15.5094230685
 20
-17.1929473522
 10
15.5733443725
 20
-17.2094644031
 10
15.6402929573
 20
-17.2185179612
 10
15.709213916
 20
-17.2197841951
 10
15.7794248786
 20
-17.2131558918
 10
15.8505032815
 20
-17.1986273263
 10
15.8578426217
 20
-17.1966868143
  0
LWPOLYLINE
  5
228
100
AcDbEntity
  8
ASSI
100
AcDbPolyline
 62
7
  6
CONTINUOUS
 90
9
 70
0
 10
15.4321377991
 20
-17.1612221953
 10
15.4492700229
 20
-17.1694762708
 10
15.5094230685
 20
-17.1929473522
 10
15.5733443725
 20
-17.2094644031
 10
15.6402929573
 20
-17.2185179612
 10
15.709213916
 20
-17.2197841951
 10
15.7794248786
 20
-17.2131558918
 10
15.8505032815
 20
-17.1986273263
 10
15.8578426217
 20
-17.1966868143
  0
LINE
  5
229
100
AcDbEntity
  8
RACCORDO
100
AcDbLine
 62
7
  6
CONTINUOUS
 10
-19.1585503143
 20
0.1341031712
 11
15.4335072151
 21
-17.1619255935
  0
LINE
  5
22A
100
AcDbEntity
  8
ASSI
100
AcDbLine
 62
7
  6
CONTINUOUS
 10
-19.1585503143
 20
0.1341031712
 11
15.4335072151
 21
-17.1619255935
  0
LINE
  5
22B
100
AcDbEntity
  8
RACCORDO
100
AcDbLine
 62
253
  6
CONTINUOUS
 10
-19.4144615458
 20
0.6391750542
 11
15.1707461193
 21
-16.6534287784
  0
LINE
  5
22C
100
AcDbEntity
  8
ASSI
100
AcDbLine
 62
253
  6
CONTINUOUS
 10
-19.4144615458
 20
0.6391750542
 11
15.1707461193
 21
-16.6534287784
  0
LINE
  5
22D
100
AcDbEntity
  8
RACCORDO
100
AcDbLine
 62
7
  6
CONTINUOUS
 10
18.1643792826
 20
-16.7819204431
 11
17.8927092543
 21
-16.646085429
  0
LINE
  5
22E
100
AcDbEntity
  8
ASSI
100
AcDbLine
 62
7
  6
CONTINUOUS
 10
18.1643792826
 20
-16.7819204431
 11
17.8927092543
 21
-16.646085429
  0
LINE
  5
22F
100
AcDbEntity
  8
DRAFT
100
AcDbLine
 62
7
  6
CONTINUOUS
 10
-2.273105785
 20
3.9016537956
 11
-2.7230895437
 21
3.6641030762
  0
LINE
  5
230
100
AcDbEntity
  8
DRAFT
100
AcDbLine
 62
7
  6
CONTINUOUS
 10
-1.171031992
 20
1.728869369
 11
-1.643746594
 21
1.5054171751
  0
LINE
  5
231
100
AcDbEntity
  8
RACCORDO
100
AcDbLine
 62
253
  6
CONTINUOUS
 10
14.9301386669
 20
-2.6401634311
 11
-19.6468182329
 21
14.6483150188
  0
LINE
  5
232
100
AcDbEntity
  8
ASSI
100
AcDbLine
 62
253
  6
CONTINUOUS
 10
14.9301386669
 20
-2.6401634311
 11
-19.6468182329
 21
14.6483150188
  0
LINE
  5
233
100
AcDbEntity
  8
RACCORDO
100
AcDbLine
 62
253
  6
CONTINUOUS
 10
15.1038300348
 20
-2.3365638178
 11
-19.4731268667
 21
14.951914633
  0
LINE
  5
234
100
AcDbEntity
  8
ASSI
100
AcDbLine
 62
253
  6
CONTINUOUS
 10
15.1038300348
 20
-2.3365638178
 11
-19.4731268667
 21
14.951914633
  0
LINE
  5
235
100
AcDbEntity
  8
DRAFT
100
AcDbLine
 62
7
  6
CONTINUOUS
 10
16.6714283827
 20
0.7464592904
 11
14.3645165574
 21
-0.2667547294
  0
LINE
  5
236
100
AcDbEntity
  8
ASSI
100
AcDbLine
 62
7
  6
CONTINUOUS
 10
16.6714283827
 20
0.7464592904
 11
14.3645165574
 21
-0.2667547294
  0
LINE
  5
237
100
AcDbEntity
  8
DRAFT
100
AcDbLine
 62
7
  6
CONTINUOUS
 10
14.3645165574
 20
-0.2667547294
 11
-15.4046789306
 21
14.6178430146
  0
LINE
  5
238
100
AcDbEntity
  8
ASSI
100
AcDbLine
 62
7
  6
CONTINUOUS
 10
14.3645165574
 20
-0.2667547294
 11
-15.4046789306
 21
14.6178430146
  0
LINE
  5
239
100
AcDbEntity
  8
RACCORDO
100
AcDbLine
 62
253
  6
CONTINUOUS
 10
18.9558005211
 20
-0.3957267788
 11
15.1038300348
 21
-2.3365638178
  0
LINE
  5
23A
100
AcDbEntity
  8
ASSI
100
AcDbLine
 62
253
  6
CONTINUOUS
 10
18.9558005211
 20
-0.3957267788
 11
15.1038300348
 21
-2.3365638178
  0
LINE
  5
23B
100
AcDbEntity
  8
RACCORDO
100
AcDbLine
 62
253
  6
CONTINUOUS
 10
19.3446182684
 20
-1.4646951071
 11
19.1378593807
 21
-1.3613156633
  0
LINE
  5
23C
100
AcDbEntity
  8
ASSI
100
AcDbLine
 62
253
  6
CONTINUOUS
 10
19.3446182684
 20
-1.4646951071
 11
19.1378593807
 21
-1.3613156633
  0
LINE
  5
23D
100
AcDbEntity
  8
DRAFT
100
AcDbLine
 62
7
  6
CONTINUOUS
 10
19.4203300429
 20
-1.4297289007
 11
19.1325502925
 21
-1.2858390255
  0
LINE
  5
23E
100
AcDbEntity
  8
ASSI
100
AcDbLine
 62
7
  6
CONTINUOUS
 10
19.4203300429
 20
-1.4297289007
 11
19.1325502925
 21
-1.2858390255
  0
LINE
  5
23F
100
AcDbEntity
  8
RACCORDO
100
AcDbLine
 62
7
  6
CONTINUOUS
 10
18.9558005211
 20
-0.3957267788
 11
16.6714283827
 21
0.7464592904
  0
LINE
  5
240
100
AcDbEntity
  8
ASSI
100
AcDbLine
 62
7
  6
CONTINUOUS
 10
18.9558005211
 20
-0.3957267788
 11
16.6714283827
 21
0.7464592904
  0
LINE
  5
241
100
AcDbEntity
  8
RACCORDO
100
AcDbLine
 62
7
  6
CONTINUOUS
 10
-13.4689500688
 20
15.8166485162
 11
-15.7533222072
 21
16.9588345854
  0
LINE
  5
242
100
AcDbEntity
  8
ASSI
100
AcDbLine
 62
7
  6
CONTINUOUS
 10
-13.4689500688
 20
15.8166485162
 11
-15.7533222072
 21
16.9588345854
  0
LINE
  5
243
100
AcDbEntity
  8
RACCORDO
100
AcDbLine
 62
253
  6
CONTINUOUS
 10
19.1325502925
 20
-0.7005750404
 11
15.280579808
 21
-2.6414120785
  0
LINE
  5
244
100
AcDbEntity
  8
ASSI
100
AcDbLine
 62
253
  6
CONTINUOUS
 10
19.1325502925
 20
-0.7005750404
 11
15.280579808
 21
-2.6414120785
  0
LINE
  5
245
100
AcDbEntity
  8
RACCORDO
100
AcDbLine
 62
7
  6
CONTINUOUS
 10
19.4203300429
 20
-1.4297289007
 11
19.3446182684
 21
-1.4646951071
  0
LINE
  5
246
100
AcDbEntity
  8
ASSI
100
AcDbLine
 62
7
  6
CONTINUOUS
 10
19.4203300429
 20
-1.4297289007
 11
19.3446182684
 21
-1.4646951071
  0
LINE
  5
247
100
AcDbEntity
  8
RACCORDO
100
AcDbLine
 62
7
  6
CONTINUOUS
 10
18.3411559789
 20
-16.4026576551
 11
18.3411559789
 21
-16.6538271711
  0
LINE
  5
248
100
AcDbEntity
  8
ASSI
100
AcDbLine
 62
7
  6
CONTINUOUS
 10
18.3411559789
 20
-16.4026576551
 11
18.3411559789
 21
-16.6538271711
  0
LINE
  5
249
100
AcDbEntity
  8
RACCORDO
100
AcDbLine
 62
7
  6
CONTINUOUS
 10
19.1325502925
 20
-1.3073228878
 11
19.1325502925
 21
-0.7005750404
  0
LINE
  5
24A
100
AcDbEntity
  8
ASSI
100
AcDbLine
 62
7
  6
CONTINUOUS
 10
19.1325502925
 20
-1.3073228878
 11
19.1325502925
 21
-0.7005750404
  0
LINE
  5
24B
100
AcDbEntity
  8
DRAFT
100
AcDbLine
 62
7
  6
CONTINUOUS
 10
19.4203300429
 20
-1.4297289007
 11
19.4203300429
 21
-9.7688271307
  0
LINE
  5
24C
100
AcDbEntity
  8
ASSI
100
AcDbLine
 62
7
  6
CONTINUOUS
 10
19.4203300429
 20
-1.4297289007
 11
19.4203300429
 21
-9.7688271307
  0
LINE
  5
24D
100
AcDbEntity
  8
RACCORDO
100
AcDbLine
 62
7
  6
CONTINUOUS
 10
18.8641827922
 20
-16.4067809146
 11
19.4203300429
 21
-9.7688271307
  0
LINE
  5
24E
100
AcDbEntity
  8
ASSI
100
AcDbLine
 62
7
  6
CONTINUOUS
 10
18.8641827922
 20
-16.4067809146
 11
19.4203300429
 21
-9.7688271307
  0
LINE
  5
24F
100
AcDbEntity
  8
RACCORDO
100
AcDbLine
 62
253
  6
CONTINUOUS
 10
18.3411559789
 20
-16.6538271711
 11
18.8641827922
 21
-16.4067809146
  0
LINE
  5
250
100
AcDbEntity
  8
ASSI
100
AcDbLine
 62
253
  6
CONTINUOUS
 10
18.3411559789
 20
-16.6538271711
 11
18.8641827922
 21
-16.4067809146
  0
LINE
  5
251
100
AcDbEntity
  8
RACCORDO
100
AcDbLine
 62
7
  6
CONTINUOUS
 10
18.2742878569
 20
-16.7899506537
 11
18.7826045877
 21
-16.5498525511
  0
LINE
  5
252
100
AcDbEntity
  8
ASSI
100
AcDbLine
 62
7
  6
CONTINUOUS
 10
18.2742878569
 20
-16.7899506537
 11
18.7826045877
 21
-16.5498525511
  0
ARC
  5
253
100
AcDbEntity
  8
RACCORDO
100
AcDbCircle
 62
253
  6
CONTINUOUS
 10
428.6654857296
 20
15.0744982617
 40
448.3125316039
100
AcDbArc
 50
180.0544675967
 51
181.8335679219
  0
ARC
  5
254
100
AcDbEntity
  8
ASSI
100
AcDbCircle
 62
253
  6
CONTINUOUS
 10
428.6654857296
 20
15.0744982617
 40
448.3125316039
100
AcDbArc
 50
180.0544675967
 51
181.8335679219
  0
ARC
  5
255
100
AcDbEntity
  8
RACCORDO
100
AcDbCircle
 62
253
  6
CONTINUOUS
 10
445.907144735
 20
-2.2514362457
 40
430.9770751949
100
AcDbArc
 50
180.051678908
 51
181.9150136762
  0
ARC
  5
256
100
AcDbEntity
  8
ASSI
100
AcDbCircle
 62
253
  6
CONTINUOUS
 10
445.907144735
 20
-2.2514362457
 40
430.9770751949
100
AcDbArc
 50
180.051678908
 51
181.9150136762
  0
ARC
  5
257
100
AcDbEntity
  8
RACCORDO
100
AcDbCircle
 62
253
  6
CONTINUOUS
 10
445.9998627797
 20
-2.2529124277
 40
430.719352063
100
AcDbArc
 50
180.051679563
 51
181.9150327006
  0
ARC
  5
258
100
AcDbEntity
  8
ASSI
100
AcDbCircle
 62
253
  6
CONTINUOUS
 10
445.9998627797
 20
-2.2529124277
 40
430.719352063
100
AcDbArc
 50
180.051679563
 51
181.9150327006
  0
ARC
  5
259
100
AcDbEntity
  8
RACCORDO
100
AcDbCircle
 62
7
  6
CONTINUOUS
 10
-1.7226886158
 20
2.5247283244
 40
1.1007054639
100
AcDbArc
 50
237.1726665365
 51
240.9484598453
  0
ARC
  5
25A
100
AcDbEntity
  8
RACCORDO
100
AcDbCircle
 62
7
  6
CONTINUOUS
 10
-1.7560958073
 20
2.4651816864
 40
1.0324284262
100
AcDbArc
 50
240.9644641986
 51
243.4252663163
  0
ARC
  5
25B
100
AcDbEntity
  8
DRAFT
100
AcDbCircle
 62
7
  6
CONTINUOUS
 10
-2.2187908943
 20
3.2989142236
 40
0.6769002748
100
AcDbArc
 50
148.6010993284
 51
155.0362118193
  0
ARC
  5
25C
100
AcDbEntity
  8
ASSI
100
AcDbCircle
 62
7
  6
CONTINUOUS
 10
-2.2187908943
 20
3.2989142236
 40
0.6769002748
100
AcDbArc
 50
148.6010993284
 51
155.0362118193
  0
ARC
  5
25D
100
AcDbEntity
  8
DRAFT
100
AcDbCircle
 62
7
  6
CONTINUOUS
 10
-2.2722102263
 20
3.331360263
 40
0.6143994749
100
AcDbArc
 50
141.5864900658
 51
148.5883752015
  0
ARC
  5
25E
100
AcDbEntity
  8
ASSI
100
AcDbCircle
 62
7
  6
CONTINUOUS
 10
-2.2722102263
 20
3.331360263
 40
0.6143994749
100
AcDbArc
 50
141.5864900658
 51
148.5883752015
  0
ARC
  5
25F
100
AcDbEntity
  8
RACCORDO
100
AcDbCircle
 62
253
  6
CONTINUOUS
 10
-18.9923801099
 20
0.4648989744
 40
0.3701339165
100
AcDbArc
 50
241.2312847575
 51
243.3038033339
  0
ARC
  5
260
100
AcDbEntity
  8
ASSI
100
AcDbCircle
 62
253
  6
CONTINUOUS
 10
-18.9923801098
 20
0.4648989745
 40
0.3701339165
100
AcDbArc
 50
241.2312847575
 51
243.3038033338
  0
ARC
  5
261
100
AcDbEntity
  8
RACCORDO
100
AcDbCircle
 62
7
  6
CONTINUOUS
 10
-19.4700642864
 20
14.7370014172
 40
0.2499729098
100
AcDbArc
 50
118.3452333315
 51
180.0617873869
  0
ARC
  5
262
100
AcDbEntity
  8
ASSI
100
AcDbCircle
 62
7
  6
CONTINUOUS
 10
-19.4700642864
 20
14.7370014172
 40
0.2499729098
100
AcDbArc
 50
118.3452333315
 51
180.0617873869
  0
SPLINE
  5
263
100
AcDbEntity
  8
RACCORDO
100
AcDbSpline
 62
7
  6
CONTINUOUS
 70
0
 71
3
 72
10
 73
6
 74
4
 42
0.0000001
 43
0.0000001
 44
0.0000000001
 12
0.5309507646
 22
-0.2654753776
 32
0.0
 13
0.5366819963
 23
0.2536896016
 33
0.0
 40
0.0
 40
0.0
 40
0.0
 40
0.0
 40
0.3683960887
 40
0.69741576
 40
1.0
 40
1.0
 40
1.0
 40
1.0
 10
-2.2179678815
 20
1.5418276685
 30
0.0
 10
-2.1527678199
 20
1.5092276383
 30
0.0
 10
-2.0216825669
 20
1.4606480117
 30
0.0
 10
-1.8213348973
 20
1.4464456008
 30
0.0
 10
-1.6978769766
 20
1.479829741
 30
0.0
 10
-1.643746472
 20
1.5054172328
 30
0.0
 11
-2.2179678815
 21
1.5418276685
 31
0.0
 11
-2.0118705348
 21
1.4686964595
 31
0.0
 11
-1.8168750901
 21
1.4575636734
 31
0.0
 11
-1.643746472
 21
1.5054172328
 31
0.0
  0
SPLINE
  5
264
100
AcDbEntity
  8
RACCORDO
100
AcDbSpline
 62
7
  6
CONTINUOUS
 70
0
 71
3
 72
14
 73
10
 74
8
 42
0.0000001
 43
0.0000001
 44
0.0000000001
 12
-2.1334127319
 22
-1.1262489471
 32
0.0
 13
2.0328953942
 23
-1.3102034695
 33
0.0
 40
0.0
 40
0.0
 40
0.0
 40
0.0
 40
0.1126354234
 40
0.2431064815
 40
0.3946442942
 40
0.5607875776
 40
0.7319683022
 40
0.897607205
 40
1.0
 40
1.0
 40
1.0
 40
1.0
 10
-2.7230893848
 20
3.66410316
 30
0.0
 10
-2.8031886669
 20
3.6218179844
 30
0.0
 10
-2.9519717844
 20
3.4803785816
 30
0.0
 10
-3.0597621725
 20
3.1729683136
 30
0.0
 10
-3.0610658529
 20
2.8077731394
 30
0.0
 10
-2.9638130348
 20
2.423350158
 30
0.0
 10
-2.7815886111
 20
2.05876772
 30
0.0
 10
-2.55841513
 20
1.7815987769
 30
0.0
 10
-2.3887757313
 20
1.6445150933
 30
0.0
 10
-2.3193911175
 20
1.5997966282
 30
0.0
 11
-2.7230893848
 21
3.66410316
 31
0.0
 11
-2.9233717245
 21
3.480466635
 31
0.0
 11
-3.0376968103
 21
3.1872092115
 31
0.0
 11
-3.0464328265
 21
2.8217371478
 31
0.0
 11
-2.9514468601
 21
2.432343525
 31
0.0
 11
-2.7668946556
 21
2.0629120018
 31
0.0
 11
-2.5135050549
 21
1.7539305914
 31
0.0
 11
-2.3193911175
 21
1.5997966282
 31
0.0
  0
SPLINE
  5
265
100
AcDbEntity
  8
RACCORDO
100
AcDbSpline
 62
253
  6
CONTINUOUS
 70
0
 71
3
 72
20
 73
16
 74
14
 42
0.0000001
 43
0.0000001
 44
0.0000000001
 12
2.3096192904
 22
1.1011434821
 32
0.0
 13
-2.2752317028
 23
1.13761587
 33
0.0
 40
0.0
 40
0.0
 40
0.0
 40
0.0
 40
0.0913253166
 40
0.1944753298
 40
0.300071473
 40
0.4040895859
 40
0.5028558466
 40
0.5939847407
 40
0.6762969559
 40
0.7496288086
 40
0.81425267
 40
0.8708004493
 40
0.9200563031
 40
0.9628161743
 40
1.0
 40
1.0
 40
1.0
 40
1.0
 10
-1.6437543177
 20
1.5054474761
 30
0.0
 10
-1.5734454134
 20
1.5389682352
 30
0.0
 10
-1.4424923277
 20
1.651386974
 30
0.0
 10
-1.3403921456
 20
1.8912165829
 30
0.0
 10
-1.3119251619
 20
2.157267372
 30
0.0
 10
-1.3379564446
 20
2.4188583765
 30
0.0
 10
-1.4010089125
 20
2.6607876844
 30
0.0
 10
-1.4874365872
 20
2.875393585
 30
0.0
 10
-1.5869094267
 20
3.059927034
 30
0.0
 10
-1.6919570577
 20
3.2147228403
 30
0.0
 10
-1.7974033974
 20
3.341853474
 30
0.0
 10
-1.8997428455
 20
3.4441705221
 30
0.0
 10
-1.9967341294
 20
3.5248305954
 30
0.0
 10
-2.0870933918
 20
3.587024664
 30
0.0
 10
-2.1462799934
 20
3.6202934122
 30
0.0
 10
-2.1744805998
 20
3.6343937156
 30
0.0
 11
-1.6437543177
 21
1.5054474761
 31
0.0
 11
-1.4647406449
 21
1.6540371425
 31
0.0
 11
-1.3539281413
 21
1.891881504
 31
0.0
 11
-1.3211136418
 21
2.1584836541
 31
0.0
 11
-1.3453421661
 21
2.421971916
 31
0.0
 11
-1.407937307
 21
2.665289653
 31
0.0
 11
-1.4943339439
 21
2.8804003884
 31
0.0
 11
-1.5937425337
 21
3.0646824595
 31
0.0
 11
-1.6986523635
 21
3.2189267826
 31
0.0
 11
-1.8037929567
 21
3.3452964673
 31
0.0
 11
-1.9057044251
 21
3.4468128314
 31
0.0
 11
-2.002201589
 21
3.526734529
 31
0.0
 11
-2.0919303231
 21
3.5882170264
 31
0.0
 11
-2.1744805998
 21
3.6343937156
 31
0.0
  0
SPLINE
  5
266
100
AcDbEntity
  8
RACCORDO
100
AcDbSpline
 62
253
  6
CONTINUOUS
 70
0
 71
3
 72
8
 73
4
 74
2
 42
0.0000001
 43
0.0000001
 44
0.0000000001
 12
0.0835988337
 22
-0.0417994168
 32
0.0
 13
0.0882735387
 23
-0.032464483
 33
0.0
 40
0.0
 40
0.0
 40
0.0
 40
0.0
 40
1.0
 40
1.0
 40
1.0
 40
1.0
 10
-2.2435138637
 20
1.5864541423
 30
0.0
 10
-2.2156475858
 20
1.5725210033
 30
0.0
 10
-2.1869162785
 20
1.5598957992
 30
0.0
 10
-2.1574917656
 20
1.5490743048
 30
0.0
 11
-2.2435138637
 21
1.5864541423
 31
0.0
 11
-2.1574917656
 21
1.5490743048
 31
0.0
  0
SPLINE
  5
267
100
AcDbEntity
  8
RACCORDO
100
AcDbSpline
 62
253
  6
CONTINUOUS
 70
0
 71
3
 72
10
 73
6
 74
4
 42
0.0000001
 43
0.0000001
 44
0.0000000001
 12
0.4497329471
 22
-0.165398916
 32
0.0
 13
0.3975809252
 23
0.2706053485
 33
0.0
 40
0.0
 40
0.0
 40
0.0
 40
0.0
 40
0.3604798126
 40
0.8430695357
 40
1.0
 40
1.0
 40
1.0
 40
1.0
 10
-2.1574917656
 20
1.5490743048
 30
0.0
 10
-2.1034518827
 20
1.5291999814
 30
0.0
 10
-1.9715981705
 20
1.4969475601
 30
0.0
 10
-1.8069369714
 20
1.5180877872
 30
0.0
 10
-1.7174394472
 20
1.5683124501
 30
0.0
 10
-1.6966419274
 20
1.5824678578
 30
0.0
 11
-2.1574917656
 21
1.5490743048
 31
0.0
 11
-1.9894220544
 21
1.5107739606
 31
0.0
 11
-1.7623144513
 21
1.545873611
 31
0.0
 11
-1.6966419274
 21
1.5824678578
 31
0.0
  0
SPLINE
  5
268
100
AcDbEntity
  8
RACCORDO
100
AcDbSpline
 62
253
  6
CONTINUOUS
 70
0
 71
3
 72
20
 73
16
 74
14
 42
0.0000001
 43
0.0000001
 44
0.0000000001
 12
1.9147547356
 22
1.3032387614
 32
0.0
 13
-2.0512188492
 23
1.0256094246
 33
0.0
 40
0.0
 40
0.0
 40
0.0
 40
0.0
 40
0.0662565476
 40
0.172252553
 40
0.2807617212
 40
0.3876493116
 40
0.4891401078
 40
0.5827829581
 40
0.667365994
 40
0.7427209878
 40
0.8091277958
 40
0.8672357412
 40
0.9178505631
 40
0.9617902467
 40
1.0
 40
1.0
 40
1.0
 40
1.0
 10
-1.6966419274
 20
1.5824678578
 30
0.0
 10
-1.6543535813
 20
1.6112505581
 30
0.0
 10
-1.55692547
 20
1.7057589146
 30
0.0
 10
-1.4708045295
 20
1.9080647623
 30
0.0
 10
-1.4444312684
 20
2.1545372127
 30
0.0
 10
-1.4685476898
 20
2.3968786624
 30
0.0
 10
-1.526959421
 20
2.6210052571
 30
0.0
 10
-1.6070268797
 20
2.8198192075
 30
0.0
 10
-1.6991794182
 20
2.9907739243
 30
0.0
 10
-1.7964968311
 20
3.1341793438
 30
0.0
 10
-1.8941837551
 20
3.2519553817
 30
0.0
 10
-1.9889923913
 20
3.3467438872
 30
0.0
 10
-2.078846821
 20
3.4214686462
 30
0.0
 10
-2.1625568469
 20
3.4790867702
 30
0.0
 10
-2.2173883416
 20
3.5099075531
 30
0.0
 10
-2.2435138637
 20
3.5229703141
 30
0.0
 11
-1.6966419274
 21
1.5824678578
 31
0.0
 11
-1.5860000399
 21
1.6883363228
 31
0.0
 11
-1.4833435528
 21
1.9086803992
 31
0.0
 11
-1.4529438894
 21
2.1556641711
 31
0.0
 11
-1.475389653
 21
2.3997631332
 31
0.0
 11
-1.5333780263
 21
2.6251758718
 31
0.0
 11
-1.6134165972
 21
2.8244575464
 31
0.0
 11
-1.7055096935
 21
2.9951793795
 31
0.0
 11
-1.802699437
 21
3.1380739176
 31
0.0
 11
-1.9001031005
 21
3.2551450447
 31
0.0
 11
-1.9945153582
 21
3.3491917102
 31
0.0
 11
-2.0839118468
 21
3.4232325595
 31
0.0
 11
-2.1670379305
 21
3.4801913553
 31
0.0
 11
-2.2435138637
 21
3.5229703141
 31
0.0
  0
SPLINE
  5
269
100
AcDbEntity
  8
RACCORDO
100
AcDbSpline
 62
253
  6
CONTINUOUS
 70
0
 71
3
 72
22
 73
18
 74
16
 42
0.0000001
 43
0.0000001
 44
0.0000000001
 12
-2.5607350466
 22
1.2803675233
 32
0.0
 13
2.5607350466
 23
-1.2803675233
 33
0.0
 40
0.0
 40
0.0
 40
0.0
 40
0.0
 40
0.0926031929
 40
0.1728708975
 40
0.252045775
 40
0.3369516027
 40
0.4238704212
 40
0.5094903106
 40
0.590787205
 40
0.6657976871
 40
0.733551015
 40
0.7939124321
 40
0.8471061098
 40
0.8936521728
 40
0.9341960337
 40
0.9693929376
 40
1.0
 40
1.0
 40
1.0
 40
1.0
 10
-2.2435138637
 20
3.5229703141
 30
0.0
 10
-2.3225579442
 20
3.5624923544
 30
0.0
 10
-2.4831094594
 20
3.6166275319
 30
0.0
 10
-2.7326327594
 20
3.5845908436
 30
0.0
 10
-2.9201073554
 20
3.4271449346
 30
0.0
 10
-3.0162239469
 20
3.2013594826
 30
0.0
 10
-3.042597123
 20
2.9548868949
 30
0.0
 10
-3.0184808324
 20
2.7125454308
 30
0.0
 10
-2.9600688912
 20
2.4884188912
 30
0.0
 10
-2.88000135
 20
2.289604991
 30
0.0
 10
-2.7878486683
 20
2.1186503458
 30
0.0
 10
-2.690531166
 20
1.9752449741
 30
0.0
 10
-2.5928441661
 20
1.8574689708
 30
0.0
 10
-2.4980354481
 20
1.7626805258
 30
0.0
 10
-2.4081810119
 20
1.6879557319
 30
0.0
 10
-2.3244708999
 20
1.630337693
 30
0.0
 10
-2.2696393895
 20
1.5995169052
 30
0.0
 10
-2.2435138637
 20
1.5864541423
 30
0.0
 11
-2.2435138637
 21
3.5229703141
 31
0.0
 11
-2.4976044879
 21
3.5986510883
 31
0.0
 11
-2.7247135986
 21
3.5635506841
 31
0.0
 11
-2.901027951
 21
3.4210880018
 31
0.0
 11
-3.0036848523
 21
3.2007437183
 31
0.0
 11
-3.0340845404
 21
2.9537599341
 31
0.0
 11
-3.0116388079
 21
2.7096609565
 31
0.0
 11
-2.9536503036
 21
2.4842482834
 31
0.0
 11
-2.8736116196
 21
2.2849666653
 31
0.0
 11
-2.7815183982
 21
2.1142448947
 31
0.0
 11
-2.6843285597
 21
1.9713504042
 31
0.0
 11
-2.586924816
 21
1.8542793171
 31
0.0
 11
-2.4925124894
 21
1.7602326861
 31
0.0
 11
-2.4031159788
 21
1.6861918478
 31
0.0
 11
-2.3199898168
 21
1.6292330911
 31
0.0
 11
-2.2435138637
 21
1.5864541423
 31
0.0
  0
SPLINE
  5
26A
100
AcDbEntity
  8
RACCORDO
100
AcDbSpline
 62
253
  6
CONTINUOUS
 70
0
 71
3
 72
10
 73
6
 74
4
 42
0.0000001
 43
0.0000001
 44
0.0000000001
 12
-0.5066545929
 22
0.2533273006
 32
0.0
 13
-0.5030012107
 23
-0.268775241
 33
0.0
 40
0.0
 40
0.0
 40
0.0
 40
0.0
 40
0.5052042006
 40
0.9431177079
 40
1.0
 40
1.0
 40
1.0
 40
1.0
 10
-2.1744805998
 20
3.6343937156
 30
0.0
 10
-2.2598019427
 20
3.6770543877
 30
0.0
 10
-2.4331068604
 20
3.7354749522
 30
0.0
 10
-2.6289834308
 20
3.7103417864
 30
0.0
 10
-2.7134974808
 20
3.6690969746
 30
0.0
 10
-2.723034768
 20
3.6640007907
 30
0.0
 11
-2.1744805998
 21
3.6343937156
 31
0.0
 11
-2.4487517615
 21
3.7160779264
 31
0.0
 11
-2.6939018734
 21
3.6781993343
 31
0.0
 11
-2.723034768
 21
3.6640007907
 31
0.0
  0
SPLINE
  5
26B
100
AcDbEntity
  8
DRAFT
100
AcDbSpline
 62
7
  6
CONTINUOUS
 70
0
 71
3
 72
17
 73
13
 74
11
 42
0.0000001
 43
0.0000001
 44
0.0000000001
 12
2.4459831326
 22
1.2838515585
 32
0.0
 13
-2.4516470572
 23
1.2258235286
 33
0.0
 40
0.0
 40
0.0
 40
0.0
 40
0.0
 40
0.0252960356
 40
0.1044689495
 40
0.1936208561
 40
0.2953999763
 40
0.4088600251
 40
0.5305328986
 40
0.6555712688
 40
0.7786495306
 40
0.8947903949
 40
1.0
 40
1.0
 40
1.0
 40
1.0
 10
-1.3839830827
 20
1.5164381276
 30
0.0
 10
-1.3633585239
 20
1.5272635792
 30
0.0
 10
-1.2813993922
 20
1.577927727
 30
0.0
 10
-1.1619408193
 20
1.7150376101
 30
0.0
 10
-1.0741240073
 20
1.9498401686
 30
0.0
 10
-1.0487530579
 20
2.2293129469
 30
0.0
 10
-1.0852229509
 20
2.5368184268
 30
0.0
 10
-1.1806301389
 20
2.8533285119
 30
0.0
 10
-1.3286837748
 20
3.1585550566
 30
0.0
 10
-1.5198654891
 20
3.432804099
 30
0.0
 10
-1.7416484948
 20
3.6582058486
 30
0.0
 10
-1.9107286346
 20
3.7728747603
 30
0.0
 10
-1.9967075742
 20
3.8158642301
 30
0.0
 11
-1.3839830827
 21
1.5164381276
 31
0.0
 11
-1.3246938034
 21
1.5531660762
 31
0.0
 11
-1.1789659291
 21
1.71397298
 31
0.0
 11
-1.0882938811
 21
1.9408960827
 31
0.0
 11
-1.0589478227
 21
2.2183274064
 31
0.0
 11
-1.0929100941
 21
2.5274642276
 31
0.0
 11
-1.1878682539
 21
2.8471684215
 31
0.0
 11
-1.3373124469
 21
3.1556040301
 31
0.0
 11
-1.5310460799
 21
3.4317913347
 31
0.0
 11
-1.7559963303
 21
3.6570487709
 31
0.0
 11
-1.9967075742
 21
3.8158642301
 31
0.0
  0
SPLINE
  5
26C
100
AcDbEntity
  8
DRAFT
100
AcDbSpline
 62
7
  6
CONTINUOUS
 70
0
 71
3
 72
10
 73
6
 74
4
 42
0.0000001
 43
0.0000001
 44
0.0000000001
 12
-0.5318836887
 22
0.2659418443
 32
0.0
 13
-0.5423349644
 23
-0.2556202157
 33
0.0
 40
0.0
 40
0.0
 40
0.0
 40
0.0
 40
0.4264225282
 40
0.8016701045
 40
1.0
 40
1.0
 40
1.0
 40
1.0
 10
-1.9967075742
 20
3.8158642301
 30
0.0
 10
-2.0723099699
 20
3.853665428
 30
0.0
 10
-2.2240004084
 20
3.9087482498
 30
0.0
 10
-2.4269640775
 20
3.9121604517
 30
0.0
 10
-2.5365397174
 20
3.8755503842
 30
0.0
 10
-2.572393463
 20
3.8586513406
 30
0.0
 11
-1.9967075742
 21
3.8158642301
 31
0.0
 11
-2.236801441
 21
3.8974535084
 31
0.0
 11
-2.459944474
 21
3.8962570578
 31
0.0
 11
-2.572393463
 21
3.8586513406
 31
0.0
  0
SPLINE
  5
26D
100
AcDbEntity
  8
RACCORDO
100
AcDbSpline
 62
253
  6
CONTINUOUS
 70
0
 71
3
 72
9
 73
5
 74
3
 42
0.0000001
 43
0.0000001
 44
0.0000000001
 12
0.0042467391
 22
-0.1188405267
 32
0.0
 13
0.1066391986
 23
-0.0534070687
 33
0.0
 40
0.0
 40
0.0
 40
0.0
 40
0.0
 40
0.434255131
 40
1.0
 40
1.0
 40
1.0
 40
1.0
 10
-19.4876905862
 20
0.7279910026
 30
0.0
 10
-19.4870758635
 20
0.7107886331
 30
0.0
 10
-19.4689074451
 20
0.6715749028
 30
0.0
 10
-19.4345717386
 20
0.6492466461
 30
0.0
 10
-19.4144615454
 20
0.6391750544
 30
0.0
 11
-19.4876905862
 21
0.7279910026
 31
0.0
 11
-19.4682476186
 21
0.6799153266
 31
0.0
 11
-19.4144615454
 21
0.6391750544
 31
0.0
  0
SPLINE
  5
26E
100
AcDbEntity
  8
RACCORDO
100
AcDbSpline
 62
253
  6
CONTINUOUS
 70
0
 71
3
 72
13
 73
9
 74
7
 42
0.0000001
 43
0.0000001
 44
0.0000000001
 12
0.0236954385
 22
-0.7022854852
 32
0.0
 13
0.6783151378
 23
0.1834528559
 33
0.0
 40
0.0
 40
0.0
 40
0.0
 40
0.0
 40
0.1944363683
 40
0.3698341619
 40
0.5286102363
 40
0.6791816637
 40
0.8332005048
 40
1.0
 40
1.0
 40
1.0
 40
1.0
 10
15.5210481517
 20
-16.6464355429
 30
0.0
 10
15.5225839034
 20
-16.691952156
 30
0.0
 10
15.5333532677
 20
-16.7786497171
 30
0.0
 10
15.5773586682
 20
-16.8958798315
 30
0.0
 10
15.6479516715
 20
-16.9874622357
 30
0.0
 10
15.7423967638
 20
-17.0459237457
 30
0.0
 10
15.8532093604
 20
-17.0662877791
 30
0.0
 10
15.9287976127
 20
-17.0554212859
 30
0.0
 10
15.9665118202
 20
-17.045221338
 30
0.0
 11
15.5210481517
 21
-16.6464355429
 31
0.0
 11
15.5394407691
 21
-16.7818194305
 31
0.0
 11
15.5844853064
 21
-16.896542615
 31
0.0
 11
15.6538890058
 21
-16.9838976306
 31
0.0
 11
15.7440203403
 21
-17.0393132667
 31
0.0
 11
15.850244444
 21
-17.0600368941
 31
0.0
 11
15.9665118202
 21
-17.045221338
 31
0.0
  0
SPLINE
  5
26F
100
AcDbEntity
  8
RACCORDO
100
AcDbSpline
 62
253
  6
CONTINUOUS
 70
0
 71
3
 72
9
 73
5
 74
3
 42
0.0000001
 43
0.0000001
 44
0.0000000001
 12
0.1060851227
 22
0.0557215843
 32
0.0
 13
0.1068996515
 23
-0.0515772518
 33
0.0
 40
0.0
 40
0.0
 40
0.0
 40
0.0
 40
0.4050937236
 40
1.0
 40
1.0
 40
1.0
 40
1.0
 10
-19.588691224
 20
14.9568966511
 30
0.0
 10
-19.5743664182
 20
14.9644208058
 30
0.0
 10
-19.5338410663
 20
14.9741958995
 30
0.0
 10
-19.4943252912
 20
14.9621425099
 30
0.0
 10
-19.4731268667
 20
14.951914633
 30
0.0
 11
-19.588691224
 21
14.9568966511
 31
0.0
 11
-19.5416989593
 21
14.9687583897
 31
0.0
 11
-19.4731268667
 21
14.951914633
 31
0.0
  0
SPLINE
  5
270
100
AcDbEntity
  8
DRAFT
100
AcDbSpline
 62
7
  6
CONTINUOUS
 70
0
 71
3
 72
9
 73
5
 74
3
 42
0.0000001
 43
0.0000001
 44
0.0000000001
 12
-0.2125403382
 22
-0.1001772164
 32
0.0
 13
-0.1460926054
 23
-0.1838715999
 33
0.0
 40
0.0
 40
0.0
 40
0.0
 40
0.0
 40
0.3886269166
 40
1.0
 40
1.0
 40
1.0
 40
1.0
 10
-2.572393463
 20
3.8586513406
 30
0.0
 10
-2.5999264285
 20
3.845674153
 30
0.0
 10
-2.6676852858
 20
3.8058477242
 30
0.0
 10
-2.7238487131
 20
3.7505780392
 30
0.0
 10
-2.7536210753
 20
3.7131066568
 30
0.0
 11
-2.572393463
 21
3.8586513406
 31
0.0
 11
-2.6508409921
 21
3.8123865
 31
0.0
 11
-2.7536210753
 21
3.7131066568
 31
0.0
  0
LINE
  5
271
100
AcDbEntity
  8
RACCORDO
100
AcDbLine
 62
253
  6
CONTINUOUS
 10
-19.4144615458
 20
0.6391750542
 11
-19.4173991236
 21
0.730143518
  0
SPLINE
  5
272
100
AcDbEntity
  8
DRAFT
100
AcDbSpline
 62
7
  6
CONTINUOUS
 70
0
 71
3
 72
9
 73
5
 74
3
 42
0.0000001
 43
0.0000001
 44
0.0000000001
 12
0.0841981654
 22
-0.0155320525
 32
0.0
 13
0.0855789643
 23
-0.004836101
 33
0.0
 40
0.0
 40
0.0
 40
0.0
 40
0.0
 40
0.0946475083
 40
1.0
 40
1.0
 40
1.0
 40
1.0
 10
-1.7467220065
 20
1.4695200743
 30
0.0
 10
-1.7440656243
 20
1.4690300509
 30
0.0
 10
-1.7159656498
 20
1.4640085416
 30
0.0
 10
-1.6875143425
 20
1.4606561682
 30
0.0
 10
-1.6616879663
 20
1.4591967095
 30
0.0
 11
-1.7467220065
 21
1.4695200743
 31
0.0
 11
-1.7387432919
 21
1.4680944566
 31
0.0
 11
-1.6616879663
 21
1.4591967095
 31
0.0
  0
SPLINE
  5
273
100
AcDbEntity
  8
DRAFT
100
AcDbSpline
 62
7
  6
CONTINUOUS
 70
0
 71
3
 72
9
 73
5
 74
3
 42
0.0000001
 43
0.0000001
 44
0.0000000001
 12
0.286776432
 22
-0.0162058492
 32
0.0
 13
0.2545538317
 23
0.1336106244
 33
0.0
 40
0.0
 40
0.0
 40
0.0
 40
0.0
 40
0.5120959347
 40
1.0
 40
1.0
 40
1.0
 40
1.0
 10
-1.6616879663
 20
1.4591967095
 30
0.0
 10
-1.612735618
 20
1.456430393
 30
0.0
 10
-1.5166670106
 20
1.4620824701
 30
0.0
 10
-1.4253823658
 20
1.4947084054
 30
0.0
 10
-1.3839830827
 20
1.5164381276
 30
0.0
 11
-1.6616879663
 21
1.4591967095
 31
0.0
 11
-1.5155974885
 21
1.4692928896
 31
0.0
 11
-1.3839830827
 21
1.5164381276
 31
0.0
  0
SPLINE
  5
274
100
AcDbEntity
  8
RACCORDO
100
AcDbSpline
 62
253
  6
CONTINUOUS
 70
0
 71
3
 72
12
 73
8
 74
6
 42
0.0000001
 43
0.0000001
 44
0.0000000001
 12
-0.0053497267
 22
0.3664563861
 32
0.0
 13
-0.3254083925
 23
0.1686068818
 33
0.0
 40
0.0
 40
0.0
 40
0.0
 40
0.0
 40
0.1955839747
 40
0.4065111841
 40
0.6196376798
 40
0.8218553915
 40
1.0
 40
1.0
 40
1.0
 40
1.0
 10
15.2805798062
 20
-2.6414120794
 30
0.0
 10
15.2802310326
 20
-2.6175210806
 30
0.0
 10
15.2729943509
 20
-2.5678866231
 30
0.0
 10
15.2474074651
 20
-2.4962254798
 30
0.0
 10
15.2088294646
 20
-2.4296254545
 30
0.0
 10
15.1610688004
 20
-2.3745051305
 30
0.0
 10
15.1231532851
 20
-2.3465759534
 30
0.0
 10
15.1038300348
 20
-2.3365638178
 30
0.0
 11
15.2805798062
 21
-2.6414120794
 31
0.0
 11
15.271056929
 21
-2.570366826
 31
0.0
 11
15.2453678239
 21
-2.4974562199
 31
0.0
 11
15.2060932884
 21
-2.4299383307
 31
0.0
 11
15.1570664943
 21
-2.3743600758
 31
0.0
 11
15.1038300348
 21
-2.3365638178
 31
0.0
  0
SPLINE
  5
275
100
AcDbEntity
  8
RACCORDO
100
AcDbSpline
 62
253
  6
CONTINUOUS
 70
0
 71
3
 72
11
 73
7
 74
5
 42
0.0000001
 43
0.0000001
 44
0.0000000001
 12
-0.0003852387
 22
0.3639158128
 32
0.0
 13
0.3226902033
 23
0.1682435732
 33
0.0
 40
0.0
 40
0.0
 40
0.0
 40
0.0
 40
0.24723321
 40
0.513083496
 40
0.7728623516
 40
1.0
 40
1.0
 40
1.0
 40
1.0
 10
-19.6468182349
 20
14.6483150198
 30
0.0
 10
-19.6468499828
 20
14.6783057113
 30
0.0
 10
-19.6366090013
 20
14.7406635453
 30
0.0
 10
-19.599322988
 20
14.8275327344
 30
0.0
 10
-19.5446603471
 20
14.90167343
 30
0.0
 10
-19.4975585647
 20
14.9391764831
 30
0.0
 10
-19.4731268667
 20
14.951914633
 30
0.0
 11
-19.6468182349
 21
14.6483150198
 31
0.0
 11
-19.6336110401
 21
14.7373125101
 31
0.0
 11
-19.5957530615
 21
14.8263450308
 31
0.0
 11
-19.5389472438
 21
14.9019127039
 31
0.0
 11
-19.4731268667
 21
14.951914633
 31
0.0
  0
SPLINE
  5
276
100
AcDbEntity
  8
RACCORDO
100
AcDbSpline
 62
253
  6
CONTINUOUS
 70
0
 71
3
 72
11
 73
7
 74
5
 42
0.0000001
 43
0.0000001
 44
0.0000000001
 12
-0.0003852361
 22
0.3639133035
 32
0.0
 13
0.3226879782
 23
0.1682424131
 33
0.0
 40
0.0
 40
0.0
 40
0.0
 40
0.0
 40
0.2461494134
 40
0.510593734
 40
0.7692500461
 40
1.0
 40
1.0
 40
1.0
 40
1.0
 10
14.9301386667
 20
-2.640163431
 30
0.0
 10
14.9301070581
 20
-2.6103044156
 30
0.0
 10
14.9402548035
 20
-2.5482501746
 30
0.0
 10
14.9772275736
 20
-2.4617320182
 30
0.0
 10
15.0317482509
 20
-2.3873526241
 30
0.0
 10
15.0790099561
 20
-2.3495044608
 30
0.0
 10
15.1038300348
 20
-2.3365638178
 30
0.0
 11
14.9301386667
 21
-2.640163431
 31
0.0
 11
14.9432362462
 21
-2.5515490439
 31
0.0
 11
14.9807489038
 21
-2.4629265363
 31
0.0
 11
15.0370810858
 21
-2.3875152332
 31
0.0
 11
15.1038300348
 21
-2.3365638178
 31
0.0
  0
SPLINE
  5
277
100
AcDbEntity
  8
RACCORDO
100
AcDbSpline
 62
253
  6
CONTINUOUS
 70
0
 71
3
 72
10
 73
6
 74
4
 42
0.0000001
 43
0.0000001
 44
0.0000000001
 12
-0.1066900285
 22
0.053347966
 32
0.0
 13
0.0004535062
 23
0.1185801457
 33
0.0
 40
0.0
 40
0.0
 40
0.0
 40
0.0
 40
0.5621967092
 40
0.9909786765
 40
1.0
 40
1.0
 40
1.0
 40
1.0
 10
-19.6468182349
 20
14.6483150198
 30
0.0
 10
-19.6668118292
 20
14.6583123701
 30
0.0
 10
-19.7009030215
 20
14.6799468157
 30
0.0
 10
-19.7199384646
 20
14.7191035464
 30
0.0
 10
-19.7200397326
 20
14.7364067279
 30
0.0
 10
-19.7200383689
 20
14.7367633112
 30
0.0
 11
-19.6468182349
 21
14.6483150198
 31
0.0
 11
-19.700591794
 21
14.6883852304
 31
0.0
 11
-19.7200320637
 21
14.7356937013
 31
0.0
 11
-19.7200383689
 21
14.7367633112
 31
0.0
  0
SPLINE
  5
278
100
AcDbEntity
  8
RACCORDO
100
AcDbSpline
 62
253
  6
CONTINUOUS
 70
0
 71
3
 72
10
 73
6
 74
4
 42
0.0000001
 43
0.0000001
 44
0.0000000001
 12
-0.0264958836
 22
-0.1937282825
 32
0.0
 13
-0.1913177821
 23
-0.052459215
 33
0.0
 40
0.0
 40
0.0
 40
0.0
 40
0.0
 40
0.4306837962
 40
0.8010691458
 40
1.0
 40
1.0
 40
1.0
 40
1.0
 10
15.9665118202
 20
-17.045221338
 30
0.0
 10
15.9627080376
 20
-17.0730332153
 30
0.0
 10
15.9481919022
 20
-17.124363575
 30
0.0
 10
15.9055262361
 20
-17.1771261226
 30
0.0
 10
15.8707854214
 20
-17.19297093
 30
0.0
 10
15.8580990848
 20
-17.1964495155
 30
0.0
 11
15.9665118202
 21
-17.045221338
 31
0.0
 11
15.9414158786
 21
-17.1256073895
 31
0.0
 11
15.8937877804
 21
-17.1801649381
 31
0.0
 11
15.8580990848
 21
-17.1964495155
 31
0.0
  0
SPLINE
  5
279
100
AcDbEntity
  8
RACCORDO
100
AcDbSpline
 62
253
  6
CONTINUOUS
 70
0
 71
3
 72
11
 73
7
 74
5
 42
0.0000001
 43
0.0000001
 44
0.0000000001
 12
-0.3186059469
 22
-0.1690547765
 32
0.0
 13
-0.3227066243
 23
0.1610891104
 33
0.0
 40
0.0
 40
0.0
 40
0.0
 40
0.0
 40
0.2388448156
 40
0.503580789
 40
0.7663861237
 40
1.0
 40
1.0
 40
1.0
 40
1.0
 10
15.5210481514
 20
-16.6464355428
 30
0.0
 10
15.4956823585
 20
-16.6598948284
 30
0.0
 10
15.4376414463
 20
-16.6797197705
 30
0.0
 10
15.3455988182
 20
-16.6905642369
 30
0.0
 10
15.2538249162
 20
-16.6835204547
 30
0.0
 10
15.1958882503
 20
-16.6659661069
 30
0.0
 10
15.1707586685
 20
-16.6534218897
 30
0.0
 11
15.5210481514
 21
-16.6464355428
 31
0.0
 11
15.4400769252
 21
-16.6758437541
 31
0.0
 11
15.3453042008
 21
-16.6874822509
 31
0.0
 11
15.2508426657
 21
-16.6796179348
 31
0.0
 11
15.1707586685
 21
-16.6534218897
 31
0.0
  0
SPLINE
  5
27A
100
AcDbEntity
  8
RACCORDO
100
AcDbSpline
 62
253
  6
CONTINUOUS
 70
0
 71
3
 72
11
 73
7
 74
5
 42
0.0000001
 43
0.0000001
 44
0.0000000001
 12
-0.3239020885
 22
-0.1568996966
 32
0.0
 13
-0.3219104786
 23
0.1609463312
 33
0.0
 40
0.0
 40
0.0
 40
0.0
 40
0.0
 40
0.2366865896
 40
0.5013293948
 40
0.7652575904
 40
1.0
 40
1.0
 40
1.0
 40
1.0
 10
15.2805798062
 20
-2.6414120794
 30
0.0
 10
15.2550253793
 20
-2.6537907641
 30
0.0
 10
15.1967343216
 20
-2.6714139064
 30
0.0
 10
15.1048091207
 20
-2.6796385425
 30
0.0
 10
15.0131774209
 20
-2.6708071916
 30
0.0
 10
14.9553273472
 20
-2.6527570742
 30
0.0
 10
14.9301386667
 20
-2.640163431
 30
0.0
 11
15.2805798062
 21
-2.6414120794
 31
0.0
 11
15.1995546323
 21
-2.6677040233
 31
0.0
 11
15.1047336877
 21
-2.6766891744
 31
0.0
 11
15.0102376121
 21
-2.6670294726
 31
0.0
 11
14.9301386667
 21
-2.640163431
 31
0.0
  0
SPLINE
  5
27B
100
AcDbEntity
  8
RACCORDO
100
AcDbSpline
 62
253
  6
CONTINUOUS
 70
0
 71
3
 72
11
 73
7
 74
5
 42
0.0000001
 43
0.0000001
 44
0.0000000001
 12
0.0199946315
 22
-0.5969871297
 32
0.0
 13
0.5355973488
 23
-0.2715057779
 33
0.0
 40
0.0
 40
0.0
 40
0.0
 40
0.0
 40
0.3060317019
 40
0.580122921
 40
0.8278011484
 40
1.0
 40
1.0
 40
1.0
 40
1.0
 10
15.1707461193
 20
-16.6534287784
 30
0.0
 10
15.172785783
 20
-16.7143277742
 30
0.0
 10
15.1871323071
 20
-16.8299361862
 30
0.0
 10
15.2456262462
 20
-16.9860072074
 30
0.0
 10
15.3313894761
 20
-17.0975572367
 30
0.0
 10
15.4013865677
 20
-17.1455903793
 30
0.0
 10
15.4321296505
 20
-17.161174707
 30
0.0
 11
15.1707461193
 21
-16.6534287784
 31
0.0
 11
15.1953374385
 21
-16.8345665664
 31
0.0
 11
15.255112506
 21
-16.986985077
 31
0.0
 11
15.3470180761
 21
-17.1029190305
 31
0.0
 11
15.4321296505
 21
-17.161174707
 31
0.0
  0
SPLINE
  5
27C
100
AcDbEntity
  8
RACCORDO
100
AcDbSpline
 62
253
  6
CONTINUOUS
 70
0
 71
3
 72
11
 73
7
 74
5
 42
0.0000001
 43
0.0000001
 44
0.0000000001
 12
-0.5102888932
 22
0.2801487103
 32
0.0
 13
-0.0188789663
 23
0.5784714166
 33
0.0
 40
0.0
 40
0.0
 40
0.0
 40
0.0
 40
0.1527284925
 40
0.4041914949
 40
0.6848539677
 40
1.0
 40
1.0
 40
1.0
 40
1.0
 10
-19.1705163548
 20
0.1404508363
 30
0.0
 10
-19.1964949059
 20
0.1547130663
 30
0.0
 10
-19.2608140104
 20
0.2007112548
 30
0.0
 10
-19.341823611
 20
0.3081713148
 30
0.0
 10
-19.3985937231
 20
0.4633566463
 30
0.0
 10
-19.4124783353
 20
0.5784073969
 30
0.0
 10
-19.4144615458
 20
0.6391750542
 30
0.0
 11
-19.1705163548
 21
0.1404508363
 31
0.0
 11
-19.2427453083
 21
0.1919626618
 31
0.0
 11
-19.3322754955
 21
0.3067089238
 31
0.0
 11
-19.3905057083
 21
0.458355007
 31
0.0
 11
-19.4144615458
 21
0.6391750542
 31
0.0
  0
SPLINE
  5
27D
100
AcDbEntity
  8
ASSI
100
AcDbSpline
 62
7
  6
CONTINUOUS
 70
0
 71
3
 72
17
 73
13
 74
11
 42
0.0000001
 43
0.0000001
 44
0.0000000001
 12
2.4459831326
 22
1.2838515585
 32
0.0
 13
-2.4516470572
 23
1.2258235286
 33
0.0
 40
0.0
 40
0.0
 40
0.0
 40
0.0
 40
0.0252960356
 40
0.1044689495
 40
0.1936208561
 40
0.2953999763
 40
0.4088600251
 40
0.5305328986
 40
0.6555712688
 40
0.7786495306
 40
0.8947903949
 40
1.0
 40
1.0
 40
1.0
 40
1.0
 10
-1.3839830827
 20
1.5164381276
 30
0.0
 10
-1.3633585239
 20
1.5272635792
 30
0.0
 10
-1.2813993922
 20
1.577927727
 30
0.0
 10
-1.1619408193
 20
1.7150376101
 30
0.0
 10
-1.0741240073
 20
1.9498401686
 30
0.0
 10
-1.0487530579
 20
2.2293129469
 30
0.0
 10
-1.0852229509
 20
2.5368184268
 30
0.0
 10
-1.1806301389
 20
2.8533285119
 30
0.0
 10
-1.3286837748
 20
3.1585550566
 30
0.0
 10
-1.5198654891
 20
3.432804099
 30
0.0
 10
-1.7416484948
 20
3.6582058486
 30
0.0
 10
-1.9107286346
 20
3.7728747603
 30
0.0
 10
-1.9967075742
 20
3.8158642301
 30
0.0
 11
-1.3839830827
 21
1.5164381276
 31
0.0
 11
-1.3246938034
 21
1.5531660762
 31
0.0
 11
-1.1789659291
 21
1.71397298
 31
0.0
 11
-1.0882938811
 21
1.9408960827
 31
0.0
 11
-1.0589478227
 21
2.2183274064
 31
0.0
 11
-1.0929100941
 21
2.5274642276
 31
0.0
 11
-1.1878682539
 21
2.8471684215
 31
0.0
 11
-1.3373124469
 21
3.1556040301
 31
0.0
 11
-1.5310460799
 21
3.4317913347
 31
0.0
 11
-1.7559963303
 21
3.6570487709
 31
0.0
 11
-1.9967075742
 21
3.8158642301
 31
0.0
  0
SPLINE
  5
27E
100
AcDbEntity
  8
ASSI
100
AcDbSpline
 62
7
  6
CONTINUOUS
 70
0
 71
3
 72
10
 73
6
 74
4
 42
0.0000001
 43
0.0000001
 44
0.0000000001
 12
-0.5318836887
 22
0.2659418443
 32
0.0
 13
-0.5423349644
 23
-0.2556202157
 33
0.0
 40
0.0
 40
0.0
 40
0.0
 40
0.0
 40
0.4264225282
 40
0.8016701045
 40
1.0
 40
1.0
 40
1.0
 40
1.0
 10
-1.9967075742
 20
3.8158642301
 30
0.0
 10
-2.0723099699
 20
3.853665428
 30
0.0
 10
-2.2240004084
 20
3.9087482498
 30
0.0
 10
-2.4269640775
 20
3.9121604517
 30
0.0
 10
-2.5365397174
 20
3.8755503842
 30
0.0
 10
-2.572393463
 20
3.8586513406
 30
0.0
 11
-1.9967075742
 21
3.8158642301
 31
0.0
 11
-2.236801441
 21
3.8974535084
 31
0.0
 11
-2.459944474
 21
3.8962570578
 31
0.0
 11
-2.572393463
 21
3.8586513406
 31
0.0
  0
SPLINE
  5
27F
100
AcDbEntity
  8
ASSI
100
AcDbSpline
 62
253
  6
CONTINUOUS
 70
0
 71
3
 72
11
 73
7
 74
5
 42
0.0000001
 43
0.0000001
 44
0.0000000001
 12
-0.5102888932
 22
0.2801487103
 32
0.0
 13
-0.0188789663
 23
0.5784714166
 33
0.0
 40
0.0
 40
0.0
 40
0.0
 40
0.0
 40
0.1527284925
 40
0.4041914949
 40
0.6848539677
 40
1.0
 40
1.0
 40
1.0
 40
1.0
 10
-19.1705163548
 20
0.1404508363
 30
0.0
 10
-19.1964949059
 20
0.1547130663
 30
0.0
 10
-19.2608140104
 20
0.2007112548
 30
0.0
 10
-19.341823611
 20
0.3081713148
 30
0.0
 10
-19.3985937231
 20
0.4633566463
 30
0.0
 10
-19.4124783353
 20
0.5784073969
 30
0.0
 10
-19.4144615458
 20
0.6391750542
 30
0.0
 11
-19.1705163548
 21
0.1404508363
 31
0.0
 11
-19.2427453083
 21
0.1919626618
 31
0.0
 11
-19.3322754955
 21
0.3067089238
 31
0.0
 11
-19.3905057083
 21
0.458355007
 31
0.0
 11
-19.4144615458
 21
0.6391750542
 31
0.0
  0
SPLINE
  5
280
100
AcDbEntity
  8
ASSI
100
AcDbSpline
 62
253
  6
CONTINUOUS
 70
0
 71
3
 72
9
 73
5
 74
3
 42
0.0000001
 43
0.0000001
 44
0.0000000001
 12
0.0042467391
 22
-0.1188405267
 32
0.0
 13
0.1066391986
 23
-0.0534070687
 33
0.0
 40
0.0
 40
0.0
 40
0.0
 40
0.0
 40
0.434255131
 40
1.0
 40
1.0
 40
1.0
 40
1.0
 10
-19.4876905862
 20
0.7279910026
 30
0.0
 10
-19.4870758635
 20
0.7107886331
 30
0.0
 10
-19.4689074451
 20
0.6715749028
 30
0.0
 10
-19.4345717386
 20
0.6492466461
 30
0.0
 10
-19.4144615454
 20
0.6391750544
 30
0.0
 11
-19.4876905862
 21
0.7279910026
 31
0.0
 11
-19.4682476186
 21
0.6799153266
 31
0.0
 11
-19.4144615454
 21
0.6391750544
 31
0.0
  0
SPLINE
  5
281
100
AcDbEntity
  8
ASSI
100
AcDbSpline
 62
253
  6
CONTINUOUS
 70
0
 71
3
 72
13
 73
9
 74
7
 42
0.0000001
 43
0.0000001
 44
0.0000000001
 12
0.0236954385
 22
-0.7022854852
 32
0.0
 13
0.6783151378
 23
0.1834528559
 33
0.0
 40
0.0
 40
0.0
 40
0.0
 40
0.0
 40
0.1944363683
 40
0.3698341619
 40
0.5286102363
 40
0.6791816637
 40
0.8332005048
 40
1.0
 40
1.0
 40
1.0
 40
1.0
 10
15.5210481517
 20
-16.6464355429
 30
0.0
 10
15.5225839034
 20
-16.691952156
 30
0.0
 10
15.5333532677
 20
-16.7786497171
 30
0.0
 10
15.5773586682
 20
-16.8958798315
 30
0.0
 10
15.6479516715
 20
-16.9874622357
 30
0.0
 10
15.7423967638
 20
-17.0459237457
 30
0.0
 10
15.8532093604
 20
-17.0662877791
 30
0.0
 10
15.9287976127
 20
-17.0554212859
 30
0.0
 10
15.9665118202
 20
-17.045221338
 30
0.0
 11
15.5210481517
 21
-16.6464355429
 31
0.0
 11
15.5394407691
 21
-16.7818194305
 31
0.0
 11
15.5844853064
 21
-16.896542615
 31
0.0
 11
15.6538890058
 21
-16.9838976306
 31
0.0
 11
15.7440203403
 21
-17.0393132667
 31
0.0
 11
15.850244444
 21
-17.0600368941
 31
0.0
 11
15.9665118202
 21
-17.045221338
 31
0.0
  0
SPLINE
  5
282
100
AcDbEntity
  8
ASSI
100
AcDbSpline
 62
253
  6
CONTINUOUS
 70
0
 71
3
 72
9
 73
5
 74
3
 42
0.0000001
 43
0.0000001
 44
0.0000000001
 12
0.1060851227
 22
0.0557215843
 32
0.0
 13
0.1068996515
 23
-0.0515772518
 33
0.0
 40
0.0
 40
0.0
 40
0.0
 40
0.0
 40
0.4050937236
 40
1.0
 40
1.0
 40
1.0
 40
1.0
 10
-19.588691224
 20
14.9568966511
 30
0.0
 10
-19.5743664182
 20
14.9644208058
 30
0.0
 10
-19.5338410663
 20
14.9741958995
 30
0.0
 10
-19.4943252912
 20
14.9621425099
 30
0.0
 10
-19.4731268667
 20
14.951914633
 30
0.0
 11
-19.588691224
 21
14.9568966511
 31
0.0
 11
-19.5416989593
 21
14.9687583897
 31
0.0
 11
-19.4731268667
 21
14.951914633
 31
0.0
  0
SPLINE
  5
283
100
AcDbEntity
  8
ASSI
100
AcDbSpline
 62
7
  6
CONTINUOUS
 70
0
 71
3
 72
9
 73
5
 74
3
 42
0.0000001
 43
0.0000001
 44
0.0000000001
 12
-0.2125403382
 22
-0.1001772164
 32
0.0
 13
-0.1460926054
 23
-0.1838715999
 33
0.0
 40
0.0
 40
0.0
 40
0.0
 40
0.0
 40
0.3886269166
 40
1.0
 40
1.0
 40
1.0
 40
1.0
 10
-2.572393463
 20
3.8586513406
 30
0.0
 10
-2.5999264285
 20
3.845674153
 30
0.0
 10
-2.6676852858
 20
3.8058477242
 30
0.0
 10
-2.7238487131
 20
3.7505780392
 30
0.0
 10
-2.7536210753
 20
3.7131066568
 30
0.0
 11
-2.572393463
 21
3.8586513406
 31
0.0
 11
-2.6508409921
 21
3.8123865
 31
0.0
 11
-2.7536210753
 21
3.7131066568
 31
0.0
  0
LINE
  5
284
100
AcDbEntity
  8
ASSI
100
AcDbLine
 62
253
  6
CONTINUOUS
 10
-19.4144615458
 20
0.6391750542
 11
-19.4173991236
 21
0.730143518
  0
SPLINE
  5
285
100
AcDbEntity
  8
ASSI
100
AcDbSpline
 62
7
  6
CONTINUOUS
 70
0
 71
3
 72
9
 73
5
 74
3
 42
0.0000001
 43
0.0000001
 44
0.0000000001
 12
0.0841981654
 22
-0.0155320525
 32
0.0
 13
0.0855789643
 23
-0.004836101
 33
0.0
 40
0.0
 40
0.0
 40
0.0
 40
0.0
 40
0.0946475083
 40
1.0
 40
1.0
 40
1.0
 40
1.0
 10
-1.7467220065
 20
1.4695200743
 30
0.0
 10
-1.7440656243
 20
1.4690300509
 30
0.0
 10
-1.7159656498
 20
1.4640085416
 30
0.0
 10
-1.6875143425
 20
1.4606561682
 30
0.0
 10
-1.6616879663
 20
1.4591967095
 30
0.0
 11
-1.7467220065
 21
1.4695200743
 31
0.0
 11
-1.7387432919
 21
1.4680944566
 31
0.0
 11
-1.6616879663
 21
1.4591967095
 31
0.0
  0
SPLINE
  5
286
100
AcDbEntity
  8
ASSI
100
AcDbSpline
 62
7
  6
CONTINUOUS
 70
0
 71
3
 72
9
 73
5
 74
3
 42
0.0000001
 43
0.0000001
 44
0.0000000001
 12
0.286776432
 22
-0.0162058492
 32
0.0
 13
0.2545538317
 23
0.1336106244
 33
0.0
 40
0.0
 40
0.0
 40
0.0
 40
0.0
 40
0.5120959347
 40
1.0
 40
1.0
 40
1.0
 40
1.0
 10
-1.6616879663
 20
1.4591967095
 30
0.0
 10
-1.612735618
 20
1.456430393
 30
0.0
 10
-1.5166670106
 20
1.4620824701
 30
0.0
 10
-1.4253823658
 20
1.4947084054
 30
0.0
 10
-1.3839830827
 20
1.5164381276
 30
0.0
 11
-1.6616879663
 21
1.4591967095
 31
0.0
 11
-1.5155974885
 21
1.4692928896
 31
0.0
 11
-1.3839830827
 21
1.5164381276
 31
0.0
  0
SPLINE
  5
287
100
AcDbEntity
  8
ASSI
100
AcDbSpline
 62
253
  6
CONTINUOUS
 70
0
 71
3
 72
12
 73
8
 74
6
 42
0.0000001
 43
0.0000001
 44
0.0000000001
 12
-0.0053497267
 22
0.3664563861
 32
0.0
 13
-0.3254083925
 23
0.1686068818
 33
0.0
 40
0.0
 40
0.0
 40
0.0
 40
0.0
 40
0.1955839747
 40
0.4065111841
 40
0.6196376798
 40
0.8218553915
 40
1.0
 40
1.0
 40
1.0
 40
1.0
 10
15.2805798062
 20
-2.6414120794
 30
0.0
 10
15.2802310326
 20
-2.6175210806
 30
0.0
 10
15.2729943509
 20
-2.5678866231
 30
0.0
 10
15.2474074651
 20
-2.4962254798
 30
0.0
 10
15.2088294646
 20
-2.4296254545
 30
0.0
 10
15.1610688004
 20
-2.3745051305
 30
0.0
 10
15.1231532851
 20
-2.3465759534
 30
0.0
 10
15.1038300348
 20
-2.3365638178
 30
0.0
 11
15.2805798062
 21
-2.6414120794
 31
0.0
 11
15.271056929
 21
-2.570366826
 31
0.0
 11
15.2453678239
 21
-2.4974562199
 31
0.0
 11
15.2060932884
 21
-2.4299383307
 31
0.0
 11
15.1570664943
 21
-2.3743600758
 31
0.0
 11
15.1038300348
 21
-2.3365638178
 31
0.0
  0
SPLINE
  5
288
100
AcDbEntity
  8
ASSI
100
AcDbSpline
 62
253
  6
CONTINUOUS
 70
0
 71
3
 72
11
 73
7
 74
5
 42
0.0000001
 43
0.0000001
 44
0.0000000001
 12
-0.0003852387
 22
0.3639158128
 32
0.0
 13
0.3226902033
 23
0.1682435732
 33
0.0
 40
0.0
 40
0.0
 40
0.0
 40
0.0
 40
0.24723321
 40
0.513083496
 40
0.7728623516
 40
1.0
 40
1.0
 40
1.0
 40
1.0
 10
-19.6468182349
 20
14.6483150198
 30
0.0
 10
-19.6468499828
 20
14.6783057113
 30
0.0
 10
-19.6366090013
 20
14.7406635453
 30
0.0
 10
-19.599322988
 20
14.8275327344
 30
0.0
 10
-19.5446603471
 20
14.90167343
 30
0.0
 10
-19.4975585647
 20
14.9391764831
 30
0.0
 10
-19.4731268667
 20
14.951914633
 30
0.0
 11
-19.6468182349
 21
14.6483150198
 31
0.0
 11
-19.6336110401
 21
14.7373125101
 31
0.0
 11
-19.5957530615
 21
14.8263450308
 31
0.0
 11
-19.5389472438
 21
14.9019127039
 31
0.0
 11
-19.4731268667
 21
14.951914633
 31
0.0
  0
SPLINE
  5
289
100
AcDbEntity
  8
ASSI
100
AcDbSpline
 62
253
  6
CONTINUOUS
 70
0
 71
3
 72
11
 73
7
 74
5
 42
0.0000001
 43
0.0000001
 44
0.0000000001
 12
-0.0003852361
 22
0.3639133035
 32
0.0
 13
0.3226879782
 23
0.1682424131
 33
0.0
 40
0.0
 40
0.0
 40
0.0
 40
0.0
 40
0.2461494134
 40
0.510593734
 40
0.7692500461
 40
1.0
 40
1.0
 40
1.0
 40
1.0
 10
14.9301386667
 20
-2.640163431
 30
0.0
 10
14.9301070581
 20
-2.6103044156
 30
0.0
 10
14.9402548035
 20
-2.5482501746
 30
0.0
 10
14.9772275736
 20
-2.4617320182
 30
0.0
 10
15.0317482509
 20
-2.3873526241
 30
0.0
 10
15.0790099561
 20
-2.3495044608
 30
0.0
 10
15.1038300348
 20
-2.3365638178
 30
0.0
 11
14.9301386667
 21
-2.640163431
 31
0.0
 11
14.9432362462
 21
-2.5515490439
 31
0.0
 11
14.9807489038
 21
-2.4629265363
 31
0.0
 11
15.0370810858
 21
-2.3875152332
 31
0.0
 11
15.1038300348
 21
-2.3365638178
 31
0.0
  0
SPLINE
  5
28A
100
AcDbEntity
  8
ASSI
100
AcDbSpline
 62
253
  6
CONTINUOUS
 70
0
 71
3
 72
10
 73
6
 74
4
 42
0.0000001
 43
0.0000001
 44
0.0000000001
 12
-0.1066900285
 22
0.053347966
 32
0.0
 13
0.0004535062
 23
0.1185801457
 33
0.0
 40
0.0
 40
0.0
 40
0.0
 40
0.0
 40
0.5621967092
 40
0.9909786765
 40
1.0
 40
1.0
 40
1.0
 40
1.0
 10
-19.6468182349
 20
14.6483150198
 30
0.0
 10
-19.6668118292
 20
14.6583123701
 30
0.0
 10
-19.7009030215
 20
14.6799468157
 30
0.0
 10
-19.7199384646
 20
14.7191035464
 30
0.0
 10
-19.7200397326
 20
14.7364067279
 30
0.0
 10
-19.7200383689
 20
14.7367633112
 30
0.0
 11
-19.6468182349
 21
14.6483150198
 31
0.0
 11
-19.700591794
 21
14.6883852304
 31
0.0
 11
-19.7200320637
 21
14.7356937013
 31
0.0
 11
-19.7200383689
 21
14.7367633112
 31
0.0
  0
SPLINE
  5
28B
100
AcDbEntity
  8
ASSI
100
AcDbSpline
 62
253
  6
CONTINUOUS
 70
0
 71
3
 72
10
 73
6
 74
4
 42
0.0000001
 43
0.0000001
 44
0.0000000001
 12
-0.0264958836
 22
-0.1937282825
 32
0.0
 13
-0.1913177821
 23
-0.052459215
 33
0.0
 40
0.0
 40
0.0
 40
0.0
 40
0.0
 40
0.4306837962
 40
0.8010691458
 40
1.0
 40
1.0
 40
1.0
 40
1.0
 10
15.9665118202
 20
-17.045221338
 30
0.0
 10
15.9627080376
 20
-17.0730332153
 30
0.0
 10
15.9481919022
 20
-17.124363575
 30
0.0
 10
15.9055262361
 20
-17.1771261226
 30
0.0
 10
15.8707854214
 20
-17.19297093
 30
0.0
 10
15.8580990848
 20
-17.1964495155
 30
0.0
 11
15.9665118202
 21
-17.045221338
 31
0.0
 11
15.9414158786
 21
-17.1256073895
 31
0.0
 11
15.8937877804
 21
-17.1801649381
 31
0.0
 11
15.8580990848
 21
-17.1964495155
 31
0.0
  0
SPLINE
  5
28C
100
AcDbEntity
  8
ASSI
100
AcDbSpline
 62
253
  6
CONTINUOUS
 70
0
 71
3
 72
11
 73
7
 74
5
 42
0.0000001
 43
0.0000001
 44
0.0000000001
 12
-0.3186059469
 22
-0.1690547765
 32
0.0
 13
-0.3227066243
 23
0.1610891104
 33
0.0
 40
0.0
 40
0.0
 40
0.0
 40
0.0
 40
0.2388448156
 40
0.503580789
 40
0.7663861237
 40
1.0
 40
1.0
 40
1.0
 40
1.0
 10
15.5210481514
 20
-16.6464355428
 30
0.0
 10
15.4956823585
 20
-16.6598948284
 30
0.0
 10
15.4376414463
 20
-16.6797197705
 30
0.0
 10
15.3455988182
 20
-16.6905642369
 30
0.0
 10
15.2538249162
 20
-16.6835204547
 30
0.0
 10
15.1958882503
 20
-16.6659661069
 30
0.0
 10
15.1707586685
 20
-16.6534218897
 30
0.0
 11
15.5210481514
 21
-16.6464355428
 31
0.0
 11
15.4400769252
 21
-16.6758437541
 31
0.0
 11
15.3453042008
 21
-16.6874822509
 31
0.0
 11
15.2508426657
 21
-16.6796179348
 31
0.0
 11
15.1707586685
 21
-16.6534218897
 31
0.0
  0
SPLINE
  5
28D
100
AcDbEntity
  8
ASSI
100
AcDbSpline
 62
253
  6
CONTINUOUS
 70
0
 71
3
 72
11
 73
7
 74
5
 42
0.0000001
 43
0.0000001
 44
0.0000000001
 12
-0.3239020885
 22
-0.1568996966
 32
0.0
 13
-0.3219104786
 23
0.1609463312
 33
0.0
 40
0.0
 40
0.0
 40
0.0
 40
0.0
 40
0.2366865896
 40
0.5013293948
 40
0.7652575904
 40
1.0
 40
1.0
 40
1.0
 40
1.0
 10
15.2805798062
 20
-2.6414120794
 30
0.0
 10
15.2550253793
 20
-2.6537907641
 30
0.0
 10
15.1967343216
 20
-2.6714139064
 30
0.0
 10
15.1048091207
 20
-2.6796385425
 30
0.0
 10
15.0131774209
 20
-2.6708071916
 30
0.0
 10
14.9553273472
 20
-2.6527570742
 30
0.0
 10
14.9301386667
 20
-2.640163431
 30
0.0
 11
15.2805798062
 21
-2.6414120794
 31
0.0
 11
15.1995546323
 21
-2.6677040233
 31
0.0
 11
15.1047336877
 21
-2.6766891744
 31
0.0
 11
15.0102376121
 21
-2.6670294726
 31
0.0
 11
14.9301386667
 21
-2.640163431
 31
0.0
  0
SPLINE
  5
28E
100
AcDbEntity
  8
ASSI
100
AcDbSpline
 62
253
  6
CONTINUOUS
 70
0
 71
3
 72
11
 73
7
 74
5
 42
0.0000001
 43
0.0000001
 44
0.0000000001
 12
0.0199946315
 22
-0.5969871297
 32
0.0
 13
0.5355973488
 23
-0.2715057779
 33
0.0
 40
0.0
 40
0.0
 40
0.0
 40
0.0
 40
0.3060317019
 40
0.580122921
 40
0.8278011484
 40
1.0
 40
1.0
 40
1.0
 40
1.0
 10
15.1707461193
 20
-16.6534287784
 30
0.0
 10
15.172785783
 20
-16.7143277742
 30
0.0
 10
15.1871323071
 20
-16.8299361862
 30
0.0
 10
15.2456262462
 20
-16.9860072074
 30
0.0
 10
15.3313894761
 20
-17.0975572367
 30
0.0
 10
15.4013865677
 20
-17.1455903793
 30
0.0
 10
15.4321296505
 20
-17.161174707
 30
0.0
 11
15.1707461193
 21
-16.6534287784
 31
0.0
 11
15.1953374385
 21
-16.8345665664
 31
0.0
 11
15.255112506
 21
-16.986985077
 31
0.0
 11
15.3470180761
 21
-17.1029190305
 31
0.0
 11
15.4321296505
 21
-17.161174707
 31
0.0
  0
SPLINE
  5
28F
100
AcDbEntity
  8
ASSI
100
AcDbSpline
 62
7
  6
CONTINUOUS
 70
0
 71
3
 72
23
 73
19
 74
17
 42
0.0000001
 43
0.0000001
 44
0.0000000001
 12
5.4809337654
 22
-2.7404668827
 32
0.0
 13
-5.4809337654
 23
2.7404668827
 33
0.0
 40
0.0
 40
0.0
 40
0.0
 40
0.0
 40
0.0634449407
 40
0.1324477445
 40
0.2056827505
 40
0.2814987184
 40
0.3581052134
 40
0.4337406299
 40
0.5067520141
 40
0.5755133631
 40
0.638814125
 40
0.6961125467
 40
0.7478089476
 40
0.7955473522
 40
0.841969734
 40
0.8900926282
 40
0.9423554061
 40
1.0
 40
1.0
 40
1.0
 40
1.0
 10
-2.354538267
 20
4.5711774652
 30
0.0
 10
-2.2386257612
 20
4.5132212123
 30
0.0
 10
-2.0083107012
 20
4.3682072818
 30
0.0
 10
-1.6912654775
 20
4.0904671439
 30
0.0
 10
-1.3985862573
 20
3.7530147872
 30
0.0
 10
-1.1415839854
 20
3.3690379075
 30
0.0
 10
-0.9296000522
 20
2.9530132122
 30
0.0
 10
-0.7702424176
 20
2.5201929152
 30
0.0
 10
-0.6693959398
 20
2.0864306254
 30
0.0
 10
-0.631035563
 20
1.6678024234
 30
0.0
 10
-0.656986013
 20
1.2799645437
 30
0.0
 10
-0.7470876901
 20
0.9370821472
 30
0.0
 10
-0.8999039852
 20
0.6516572265
 30
0.0
 10
-1.1126614649
 20
0.4362574208
 30
0.0
 10
-1.3775029908
 20
0.3040294292
 30
0.0
 10
-1.6793012344
 20
0.2625378318
 30
0.0
 10
-2.0020310431
 20
0.3100080722
 30
0.0
 10
-2.2126001549
 20
0.3930024981
 30
0.0
 10
-2.3179155553
 20
0.4456601983
 30
0.0
 11
-2.354538267
 21
4.5711774652
 31
0.0
 11
-2.0239771468
 21
4.3665288099
 31
0.0
 11
-1.7044571077
 21
4.0895797113
 31
0.0
 11
-1.4093670162
 21
3.7514665764
 31
0.0
 11
-1.1503805628
 21
3.3657590847
 31
0.0
 11
-0.937257228
 21
2.9474920108
 31
0.0
 11
-0.7777611108
 21
2.5123156982
 31
0.0
 11
-0.6778322646
 21
2.0762138489
 31
0.0
 11
-0.6416176126
 21
1.6564123781
 31
0.0
 11
-0.6706305579
 21
1.2696000583
 31
0.0
 11
-0.7636340918
 21
0.9310240756
 31
0.0
 11
-0.9167624631
 21
0.6537031987
 31
0.0
 11
-1.1243274033
 21
0.4475639863
 31
0.0
 11
-1.3787681551
 21
0.3203504903
 31
0.0
 11
-1.670478587
 21
0.2771574575
 31
0.0
 11
-1.9879008899
 21
0.3196926505
 31
0.0
 11
-2.3179155553
 21
0.4456601983
 31
0.0
  0
SPLINE
  5
290
100
AcDbEntity
  8
ASSI
100
AcDbSpline
 62
7
  6
CONTINUOUS
 70
0
 71
3
 72
23
 73
19
 74
17
 42
0.0000001
 43
0.0000001
 44
0.0000000001
 12
-5.4898497957
 22
2.7449248978
 32
0.0
 13
5.4898497957
 23
-2.7449248978
 33
0.0
 40
0.0
 40
0.0
 40
0.0
 40
0.0
 40
0.0633759472
 40
0.1323373498
 40
0.2055221246
 40
0.2812546768
 40
0.3577364998
 40
0.4332149166
 40
0.5060612433
 40
0.5746856975
 40
0.6379184498
 40
0.6952520823
 40
0.7470994914
 40
0.7950782834
 40
0.841759
 40
0.8900718639
 40
0.9424049049
 40
1.0
 40
1.0
 40
1.0
 40
1.0
 10
-2.3179155553
 20
0.4456601983
 30
0.0
 10
-2.4338903656
 20
0.5036476035
 30
0.0
 10
-2.664492057
 20
0.6485479975
 30
0.0
 10
-2.9825149769
 20
0.9256665147
 30
0.0
 10
-3.2767267124
 20
1.2622472628
 30
0.0
 10
-3.5355739518
 20
1.6452440351
 30
0.0
 10
-3.7494256524
 20
2.0603309724
 30
0.0
 10
-3.9103864227
 20
2.4923993214
 30
0.0
 10
-4.0123206891
 20
2.9257131823
 30
0.0
 10
-4.0510724503
 20
3.3442668934
 30
0.0
 10
-4.0247345185
 20
3.7324049291
 30
0.0
 10
-3.9335094845
 20
4.0758757511
 30
0.0
 10
-3.7790406246
 20
4.3620146223
 30
0.0
 10
-3.5644965854
 20
4.5781538759
 30
0.0
 10
-3.2980423756
 20
4.7112497422
 30
0.0
 10
-2.994819197
 20
4.7536642539
 30
0.0
 10
-2.6709959804
 20
4.7068293776
 30
0.0
 10
-2.4599344074
 20
4.6238755354
 30
0.0
 10
-2.354538267
 20
4.5711774652
 30
0.0
 11
-2.3179155553
 21
0.4456601983
 31
0.0
 11
-2.648836664
 21
0.6501240871
 31
0.0
 11
-2.9693874265
 21
0.9265441598
 31
0.0
 11
-3.2660228789
 21
1.2638641277
 31
0.0
 11
-3.5268314885
 21
1.6486363853
 31
0.0
 11
-3.741775762
 21
2.0659688499
 31
0.0
 11
-3.9028168844
 21
2.500352178
 31
0.0
 11
-4.0037810171
 21
2.9359226595
 31
0.0
 11
-4.040359944
 21
3.3555371637
 31
0.0
 11
-4.0109831823
 21
3.7425362147
 31
0.0
 11
-3.9169448411
 21
4.0816433193
 31
0.0
 11
-3.7622717729
 21
4.3597570226
 31
0.0
 11
-3.5528858304
 21
4.5668308768
 31
0.0
 11
-3.2966226207
 21
4.6949797618
 31
0.0
 11
-3.0033665302
 21
4.7389661144
 31
0.0
 11
-2.684913254
 21
4.6969600755
 31
0.0
 11
-2.354538267
 21
4.5711774652
 31
0.0
  0
SPLINE
  5
291
100
AcDbEntity
  8
CURVE
100
AcDbSpline
 62
253
  6
CONTINUOUS
 70
0
 71
3
 72
35
 73
31
 74
29
 42
0.0000001
 43
0.0000001
 44
0.0000000001
 12
0.0765772003
 22
-3.8148918531
 32
0.0
 13
0.1379679935
 23
-5.2153873398
 33
0.0
 40
0.0
 40
0.0
 40
0.0
 40
0.0
 40
0.125
 40
0.25
 40
0.3125
 40
0.375
 40
0.4375
 40
0.5
 40
0.5625
 40
0.59375
 40
0.609375
 40
0.625
 40
0.640625
 40
0.6484375
 40
0.65625
 40
0.66015625
 40
0.6640625
 40
0.666015625
 40
0.66796875
 40
0.671875
 40
0.6796875
 40
0.6875
 40
0.703125
 40
0.71875
 40
0.75
 40
0.78125
 40
0.8125
 40
0.875
 40
0.9375
 40
1.0
 40
1.0
 40
1.0
 40
1.0
 10
-2.2819152985
 20
-1.7946155081
 30
0.0
 10
-2.2787245818
 20
-1.9535693353
 30
0.0
 10
-2.272366662
 20
-2.2714894983
 30
0.0
 10
-2.2643016944
 20
-2.6688271593
 30
0.0
 10
-2.258096613
 20
-2.9868286277
 30
0.0
 10
-2.2527726645
 20
-3.224973236
 30
0.0
 10
-2.2472604437
 20
-3.4630177452
 30
0.0
 10
-2.2417987622
 20
-3.7010889428
 30
0.0
 10
-2.23723579
 20
-3.8994760623
 30
0.0
 10
-2.2340438975
 20
-4.0383470145
 30
0.0
 10
-2.2322196793
 20
-4.1177035619
 30
0.0
 10
-2.2308517293
 20
-4.1772158287
 30
0.0
 10
-2.2297111754
 20
-4.2268258144
 30
0.0
 10
-2.2288000549
 20
-4.2664769428
 30
0.0
 10
-2.2282275958
 20
-4.2913428334
 30
0.0
 10
-2.2277765189
 20
-4.3110433161
 30
0.0
 10
-2.2274788742
 20
-4.3237947247
 30
0.0
 10
-2.2272767678
 20
-4.3329912524
 30
0.0
 10
-2.2269432016
 20
-4.345855291
 30
0.0
 10
-2.2262983922
 20
-4.3700710731
 30
0.0
 10
-2.2254090985
 20
-4.4037761353
 30
0.0
 10
-2.2239684222
 20
-4.4582010004
 30
0.0
 10
-2.2221736738
 20
-4.5260619886
 30
0.0
 10
-2.2192986687
 20
-4.634734635
 30
0.0
 10
-2.2157060815
 20
-4.7705428265
 30
0.0
 10
-2.2113944765
 20
-4.9335266173
 30
0.0
 10
-2.2056458446
 20
-5.1508334615
 30
0.0
 10
-2.1984599946
 20
-5.422468691
 30
0.0
 10
-2.1898370006
 20
-5.7484302452
 30
0.0
 10
-2.184088333
 20
-5.9657380854
 30
0.0
 10
-2.1812139998
 20
-6.0743919883
 30
0.0
 11
-2.2819152985
 21
-1.7946155081
 31
0.0
 11
-2.2723431484
 21
-2.2714769898
 31
0.0
 11
-2.2627709984
 21
-2.7483384714
 31
0.0
 11
-2.2579849234
 21
-2.9867692122
 31
0.0
 11
-2.2527412858
 21
-3.2249565528
 31
0.0
 11
-2.2472688669
 21
-3.4630221933
 31
0.0
 11
-2.241796448
 21
-3.7010878338
 31
0.0
 11
-2.2363240291
 21
-3.9391534742
 31
0.0
 11
-2.2335878197
 21
-4.0581862945
 31
0.0
 11
-2.2322197149
 21
-4.1177027046
 31
0.0
 11
-2.2308516102
 21
-4.1772191147
 31
0.0
 11
-2.2294835055
 21
-4.2367355248
 31
0.0
 11
-2.2287994531
 21
-4.2664937299
 31
0.0
 11
-2.2281154008
 21
-4.2962519349
 31
0.0
 11
-2.2277733746
 21
-4.3111310375
 31
0.0
 11
-2.2274313484
 21
-4.32601014
 31
0.0
 11
-2.2272603353
 21
-4.3334496913
 31
0.0
 11
-2.2270236851
 21
-4.3427204106
 31
0.0
 11
-2.2264847476
 21
-4.3630930174
 31
0.0
 11
-2.2254068727
 21
-4.403838231
 31
0.0
 11
-2.2243289977
 21
-4.4445834446
 31
0.0
 11
-2.2221732478
 21
-4.5260738718
 31
0.0
 11
-2.2200174979
 21
-4.607564299
 31
0.0
 11
-2.2157059981
 21
-4.7705451533
 31
0.0
 11
-2.2113944983
 21
-4.9335260077
 31
0.0
 11
-2.2070829985
 21
-5.0965068621
 31
0.0
 11
-2.1984599989
 21
-5.4224685708
 31
0.0
 11
-2.1898369994
 21
-5.7484302796
 31
0.0
 11
-2.1812139998
 21
-6.0743919883
 31
0.0
  0
ELLIPSE
  5
292
100
AcDbEntity
  8
RACCORDO
100
AcDbEllipse
 62
7
  6
CONTINUOUS
 10
-15.7532683552
 20
16.7422683285
 30
0.0
 11
-0.1118504554
 21
0.2236675568
 31
0.0
 40
0.6121897086
 41
-0.6846338794
 42
0.01860359
  0
ELLIPSE
  5
293
100
AcDbEntity
  8
RACCORDO
100
AcDbEllipse
 62
7
  6
CONTINUOUS
 10
18.6873820455
 20
-16.3183447692
 30
0.0
 11
-0.0859020599
 21
0.2354039488
 31
0.0
 40
0.6613288813
 41
-3.0814589183
 42
-2.1814380601
  0
ELLIPSE
  5
294
100
AcDbEntity
  8
RACCORDO
100
AcDbEllipse
 62
7
  6
CONTINUOUS
 10
18.9557466691
 20
-0.6122391837
 30
0.0
 11
-0.1117903878
 21
0.2236141634
 31
0.0
 40
0.6125552124
 41
-2.255296188
 42
-0.6848044477
  0
ELLIPSE
  5
295
100
AcDbEntity
  8
RACCORDO
100
AcDbEllipse
 62
7
  6
CONTINUOUS
 10
18.1643523556
 20
-16.5653923845
 30
0.0
 11
-0.1118523001
 21
0.2236266191
 31
0.0
 40
0.6122950388
 41
2.456793014
 42
4.0274370417
  0
ELLIPSE
  5
296
100
AcDbEntity
  8
RACCORDO
100
AcDbEllipse
 62
7
  6
CONTINUOUS
 10
19.3483851053
 20
-1.2031082599
 30
0.0
 11
0.1379861541
 21
0.2664038768
 31
0.0
 40
0.6229838795
 41
2.2644017489
 42
3.8177447832
  0
ELLIPSE
  5
297
100
AcDbEntity
  8
RACCORDO
100
AcDbEllipse
 62
7
  6
CONTINUOUS
 10
18.1643523556
 20
-16.3135895819
 30
0.0
 11
-0.1098985543
 21
0.2275784384
 31
0.0
 40
0.6085747011
 41
-3.254853034
 42
-2.2415613143
  0
ELLIPSE
  5
298
100
AcDbEntity
  8
ASSI
100
AcDbEllipse
 62
7
  6
CONTINUOUS
 10
-15.7532683552
 20
16.7422683285
 30
0.0
 11
-0.1118504554
 21
0.2236675568
 31
0.0
 40
0.6121897086
 41
-0.6846338794
 42
0.01860359
  0
ELLIPSE
  5
299
100
AcDbEntity
  8
ASSI
100
AcDbEllipse
 62
7
  6
CONTINUOUS
 10
18.6873820455
 20
-16.3183447692
 30
0.0
 11
-0.0859020599
 21
0.2354039488
 31
0.0
 40
0.6613288813
 41
-3.0814589183
 42
-2.1814380601
  0
ELLIPSE
  5
29A
100
AcDbEntity
  8
ASSI
100
AcDbEllipse
 62
7
  6
CONTINUOUS
 10
18.9557466691
 20
-0.6122391837
 30
0.0
 11
-0.1117903878
 21
0.2236141634
 31
0.0
 40
0.6125552124
 41
-2.255296188
 42
-0.6848044477
  0
ELLIPSE
  5
29B
100
AcDbEntity
  8
ASSI
100
AcDbEllipse
 62
7
  6
CONTINUOUS
 10
18.1643523556
 20
-16.5653923845
 30
0.0
 11
-0.1118523001
 21
0.2236266191
 31
0.0
 40
0.6122950388
 41
2.456793014
 42
4.0274370417
  0
ELLIPSE
  5
29C
100
AcDbEntity
  8
ASSI
100
AcDbEllipse
 62
7
  6
CONTINUOUS
 10
19.3483851053
 20
-1.2031082599
 30
0.0
 11
0.1379861541
 21
0.2664038768
 31
0.0
 40
0.6229838795
 41
2.2644017489
 42
3.8177447832
  0
ELLIPSE
  5
29D
100
AcDbEntity
  8
ASSI
100
AcDbEllipse
 62
7
  6
CONTINUOUS
 10
18.1643523556
 20
-16.3135895819
 30
0.0
 11
-0.1098985543
 21
0.2275784384
 31
0.0
 40
0.6085747011
 41
-3.254853034
 42
-2.2415613143
  0
ENDSEC
  0
SECTION
  2
OBJECTS
  0
DICTIONARY
  5
C
100
AcDbDictionary
280
0
281
1
  3
ACAD_GROUP
350
D
  3
ACAD_MLINESTYLE
350
17
  3
ACAD_LAYOUT
350
1A
  3
ACAD_PLOTSETTINGS
350
19
  3
ACAD_PLOTSTYLENAME
350
E
  0
DICTIONARY
  5
D
102
{ACAD_REACTORS
330
C
102
}
100
AcDbDictionary
280
0
281
1
  0
ACDBDICTIONARYWDFLT
  5
E
102
{ACAD_REACTORS
330
C
102
}
100
AcDbDictionary
281
1
  3
Normal
350
F
100
AcDbDictionaryWithDefault
340
F
  0
DICTIONARY
  5
17
102
{ACAD_REACTORS
330
C
102
}
100
AcDbDictionary
280
0
281
1
  3
Standard
350
18
  0
DICTIONARY
  5
19
102
{ACAD_REACTORS
330
C
102
}
100
AcDbDictionary
281
1
  0
DICTIONARY
  5
1A
102
{ACAD_REACTORS
330
C
102
}
100
AcDbDictionary
281
1
  3
Model
350
29E
  3
Layout1
350
29F
  0
ACDBPLACEHOLDER
  5
F
102
{ACAD_REACTORS
330
E
102
}
  0
MLINESTYLE
  5
18
102
{ACAD_REACTORS
330
17
102
}
100
AcDbMlineStyle
  2
STANDARD
 70
0
  3

 62
256
 51
90.0
 52
90.0
 71
2
 49
0.5
 62
256
  6
BYLAYER
 49
-0.5
 62
256
  6
BYLAYER
  0
LAYOUT
  5
29E
102
{ACAD_REACTORS
330
1A
102
}
100
AcDbPlotSettings
  1

  2
none_device
  4
ISO_A4_(297.00_x_210.00_MM)
  6

 40
0.0
 41
0.0
 42
0.0
 43
0.0
 44
297.0
 45
210.0
 46
0.0
 47
0.0
 48
0.0
 49
0.0
140
0.0
141
0.0
142
1.0
143
1.0
 70
1024
 72
1
 73
0
 74
0
  7

 75
0
147
1.0
148
0.0
149
0.0
100
AcDbLayout
  1
Model
 70
0
 71
0
 10
0.0
 20
0.0
 11
297.0
 21
210.0
 12
0.0
 22
0.0
 32
0.0
 14
0.0
 24
0.0
 34
0.0
 15
0.0
 25
0.0
 35
0.0
146
0.0
 13
0.0
 23
0.0
 33
0.0
 16
1.0
 26
0.0
 36
0.0
 17
0.0
 27
1.0
 37
0.0
 76
0
330
210
345
0
346
0
  0
LAYOUT
  5
29F
102
{ACAD_REACTORS
330
1A
102
}
100
AcDbPlotSettings
  1

  2
none_device
  4
ISO_A4_(297.00_x_210.00_MM)
  6

 40
0.0
 41
0.0
 42
0.0
 43
0.0
 44
297.0
 45
210.0
 46
0.0
 47
0.0
 48
0.0
 49
0.0
140
0.0
141
0.0
142
1.0
143
1.0
 70
0
 72
1
 73
0
 74
0
  7

 75
0
147
1.0
148
0.0
149
0.0
100
AcDbLayout
  1
Layout1
 70
0
 71
1
 10
0.0
 20
0.0
 11
297.0
 21
210.0
 12
0.0
 22
0.0
 32
0.0
 14
0.0
 24
0.0
 34
0.0
 15
0.0
 25
0.0
 35
0.0
146
0.0
 13
0.0
 23
0.0
 33
0.0
 16
1.0
 26
0.0
 36
0.0
 17
0.0
 27
1.0
 37
0.0
 76
0
330
211
345
0
346
0
  0
ENDSEC
  0
EOF
