  0
SECTION
  2
HEADER
  9
$ACADVER
  1
AC1015
  9
$DWGCODEPAGE
  3
ANSI_1252
  9
$EXTMAX
 10
297.0
 20
210.0
 30
0.0
  9
$EXTMIN
 10
0.0
 20
0.0
 30
0.0
  9
$LIMMIN
 10
0.0
 20
0.0
  9
$LIMMAX
 10
297.0
 20
210.0
  9
$VIEWCTR
 10
148.5
 20
105.0
  9
$VIEWSIZE
 40
210.0
  9
$CLAYER
  8
0
  9
$LTSCALE
 40
16.335
  9
$CELTYPE
  6
BYLAYER
  9
$DIMSCALE
 40
1.0
  9
$DIMASZ
 40
3.0
  9
$DIMEXO
 40
1.85625
  9
$DIMDLI
 40
11.286
  9
$DIMEXE
 40
5.346
  9
$DIMCEN
 40
2.673
  9
$DIMLFAC
 40
1.0
  9
$DIMBLK
  1
_FILLED
  9
$DIMTXT
 40
3.0
  9
$DIMTOL
 70
1
  9
$DIMLIM
 70
0
  9
$DIMTFAC
 40
1.0
  9
$DIMTP
 40
0.01
  9
$DIMTM
 40
0.01
  9
$PDMODE
 70
3
  9
$PDSIZE
 40
3.0
  9
$HANDSEED
  5
2A2
  9
$TILEMODE
 70
1
  9
$MEASUREMENT
 70
1
  9
$INSUNITS
 70
4
  0
ENDSEC
  0
SECTION
  2
CLASSES
  0
CLASS
  1
ACDBDICTIONARYWDFLT
  2
AcDbDictionaryWithDefault
  3
AutoCAD 2000
 90
0
280
0
281
0
  0
CLASS
  1
ACDBPLACEHOLDER
  2
AcDbPlaceHolder
  3
AutoCAD 2000
 90
0
280
0
281
0
  0
CLASS
  1
LAYOUT
  2
AcDbLayout
  3
AutoCAD 2000
 90
0
280
0
281
0
  0
ENDSEC
  0
SECTION
  2
TABLES
  0
TABLE
  2
VPORT
  5
8
100
AcDbSymbolTable
 70
2
  0
VPORT
  5
1F4
100
AcDbSymbolTableRecord
100
AcDbViewportTableRecord
  2
*ACTIVE
 70
0
 10
0.0
 20
0.0
 11
1.0
 21
1.0
 12
148.5
 22
105.0
 13
0.0
 23
0.0
 14
1.0
 24
1.0
 15
0.0
 25
0.0
 16
0.0
 26
0.0
 36
1.0
 17
0.0
 27
0.0
 37
0.0
 40
210.0
 41
1.4142857143
 42
50.0
 43
0.0
 44
0.0
 50
0.0
 51
0.0
 71
0
 72
100
 73
1
 74
1
 75
0
 76
0
 77
0
 78
0
  0
ENDTAB
  0
TABLE
  2
LTYPE
  5
5
100
AcDbSymbolTable
 70
6
  0
LTYPE
  5
14
100
AcDbSymbolTableRecord
100
AcDbLinetypeTableRecord
  2
BYBLOCK
 70
0
  3

 72
65
 73
0
 40
0.0
  0
LTYPE
  5
15
100
AcDbSymbolTableRecord
100
AcDbLinetypeTableRecord
  2
BYLAYER
 70
0
  3

 72
65
 73
0
 40
0.0
  0
LTYPE
  5
16
100
AcDbSymbolTableRecord
100
AcDbLinetypeTableRecord
  2
CONTINUOUS
 70
64
  3
Solid line
 72
65
 73
0
 40
0.0
  0
LTYPE
  5
1F5
100
AcDbSymbolTableRecord
100
AcDbLinetypeTableRecord
  2
CENTER
 70
64
  3
____ _ ____ _ ____ _ ____ _ ____ _ ____ _ ____
 72
65
 73
4
 40
0.6
 49
0.375
 74
0
 49
-0.075
 74
0
 49
0.075
 74
0
 49
-0.075
 74
0
  0
LTYPE
  5
1F6
100
AcDbSymbolTableRecord
100
AcDbLinetypeTableRecord
  2
HIDDEN
 70
64
  3
- - - - - - - - - - - - - - - - - - - -
 72
65
 73
2
 40
0.2
 49
0.1
 74
0
 49
-0.1
 74
0
  0
LTYPE
  5
1F7
100
AcDbSymbolTableRecord
100
AcDbLinetypeTableRecord
  2
PHANTOM
 70
64
  3
_____ _ _ _____ _ _ _____ _ _ _____
 72
65
 73
6
 40
0.8
 49
0.45
 74
0
 49
-0.05
 74
0
 49
0.1
 74
0
 49
-0.05
 74
0
 49
0.1
 74
0
 49
-0.05
 74
0
  0
LTYPE
  5
1F8
100
AcDbSymbolTableRecord
100
AcDbLinetypeTableRecord
  2
DOT
 70
64
  3
. . . . . . . . . . . . . . . . . . . .
 72
65
 73
2
 40
0.2
 49
0.1
 74
0
 49
-0.1
 74
0
  0
LTYPE
  5
1F9
100
AcDbSymbolTableRecord
100
AcDbLinetypeTableRecord
  2
DASHED
 70
64
  3
- - - - - - - - - - - - - - - - - - - -
 72
65
 73
2
 40
0.2
 49
0.1
 74
0
 49
-0.1
 74
0
  0
ENDTAB
  0
TABLE
  2
LAYER
  5
2
100
AcDbSymbolTable
 70
36
  0
LAYER
  5
10
100
AcDbSymbolTableRecord
100
AcDbLayerTableRecord
  2
0
 70
0
 62
7
  6
CONTINUOUS
370
-3
390
F
  0
LAYER
  5
1FA
100
AcDbSymbolTableRecord
100
AcDbLayerTableRecord
  2
DEFAULT_1
 70
0
 62
7
  6
CENTER
370
-3
390
F
  0
LAYER
  5
1FB
100
AcDbSymbolTableRecord
100
AcDbLayerTableRecord
  2
DEFAULT_2
 70
0
 62
7
  6
HIDDEN
370
-3
390
F
  0
LAYER
  5
1FC
100
AcDbSymbolTableRecord
100
AcDbLayerTableRecord
  2
DEFAULT_3
 70
0
 62
7
  6
PHANTOM
370
-3
390
F
  0
LAYER
  5
1FD
100
AcDbSymbolTableRecord
100
AcDbLayerTableRecord
  2
ASSI
 70
0
 62
7
  6
CONTINUOUS
370
-3
390
F
  0
LAYER
  5
1FE
100
AcDbSymbolTableRecord
100
AcDbLayerTableRecord
  2
COORDINATE
 70
0
 62
7
  6
CONTINUOUS
370
-3
390
F
  0
LAYER
  5
1FF
100
AcDbSymbolTableRecord
100
AcDbLayerTableRecord
  2
COORD_ORIGINE
 70
0
 62
7
  6
CONTINUOUS
370
-3
390
F
  0
LAYER
  5
200
100
AcDbSymbolTableRecord
100
AcDbLayerTableRecord
  2
COPY_PUBLISH
 70
0
 62
7
  6
CONTINUOUS
370
-3
390
F
  0
LAYER
  5
201
100
AcDbSymbolTableRecord
100
AcDbLayerTableRecord
  2
COSMETIC
 70
0
 62
7
  6
CONTINUOUS
370
-3
390
F
  0
LAYER
  5
202
100
AcDbSymbolTableRecord
100
AcDbLayerTableRecord
  2
CURVE
 70
0
 62
7
  6
CONTINUOUS
370
-3
390
F
  0
LAYER
  5
203
100
AcDbSymbolTableRecord
100
AcDbLayerTableRecord
  2
DRAFT
 70
0
 62
7
  6
CONTINUOUS
370
-3
390
F
  0
LAYER
  5
204
100
AcDbSymbolTableRecord
100
AcDbLayerTableRecord
  2
IGES
 70
0
 62
7
  6
CONTINUOUS
370
-3
390
F
  0
LAYER
  5
205
100
AcDbSymbolTableRecord
100
AcDbLayerTableRecord
  2
IMPORT_IGES
 70
0
 62
7
  6
CONTINUOUS
370
-3
390
F
  0
LAYER
  5
206
100
AcDbSymbolTableRecord
100
AcDbLayerTableRecord
  2
INTF_12
 70
0
 62
7
  6
CONTINUOUS
370
-3
390
F
  0
LAYER
  5
207
100
AcDbSymbolTableRecord
100
AcDbLayerTableRecord
  2
NOTE
 70
0
 62
7
  6
CONTINUOUS
370
-3
390
F
  0
LAYER
  5
208
100
AcDbSymbolTableRecord
100
AcDbLayerTableRecord
  2
PIANI
 70
0
 62
7
  6
CONTINUOUS
370
-3
390
F
  0
LAYER
  5
209
100
AcDbSymbolTableRecord
100
AcDbLayerTableRecord
  2
PIANI_ORIGINE
 70
0
 62
7
  6
CONTINUOUS
370
-3
390
F
  0
LAYER
  5
20A
100
AcDbSymbolTableRecord
100
AcDbLayerTableRecord
  2
RACCORDO
 70
0
 62
7
  6
CONTINUOUS
370
-3
390
F
  0
LAYER
  5
20B
100
AcDbSymbolTableRecord
100
AcDbLayerTableRecord
  2
SMUSSO
 70
0
 62
7
  6
CONTINUOUS
370
-3
390
F
  0
LAYER
  5
20C
100
AcDbSymbolTableRecord
100
AcDbLayerTableRecord
  2
SUPERFICI
 70
0
 62
7
  6
CONTINUOUS
370
-3
390
F
  0
LAYER
  5
20D
100
AcDbSymbolTableRecord
100
AcDbLayerTableRecord
  2
TRASH
 70
0
 62
7
  6
CONTINUOUS
370
-3
390
F
  0
ENDTAB
  0
TABLE
  2
STYLE
  5
3
100
AcDbSymbolTable
 70
1
  0
STYLE
  5
11
100
AcDbSymbolTableRecord
100
AcDbTextStyleTableRecord
  2
STANDARD
 70
0
 40
0.0
 41
0.8
 50
0.0
 71
0
 42
0.2
  3
txt
  4

  0
STYLE
  5
20E
100
AcDbSymbolTableRecord
100
AcDbTextStyleTableRecord
  2
TEXTSTYLE_1
 70
0
 40
0.0
 41
0.8
 50
0.0
 71
0
 42
0.2
  3
gdt
  4

  0
ENDTAB
  0
TABLE
  2
VIEW
  5
6
100
AcDbSymbolTable
 70
0
  0
ENDTAB
  0
TABLE
  2
UCS
  5
7
100
AcDbSymbolTable
 70
0
  0
ENDTAB
  0
TABLE
  2
APPID
  5
9
100
AcDbSymbolTable
 70
1
  0
APPID
  5
20F
100
AcDbSymbolTableRecord
100
AcDbRegAppTableRecord
  2
ACAD
 70
0
  0
ENDTAB
  0
TABLE
  2
BLOCK_RECORD
  5
1
100
AcDbSymbolTable
 70
0
  0
BLOCK_RECORD
  5
210
100
AcDbSymbolTableRecord
100
AcDbBlockTableRecord
  2
*Model_Space
  0
BLOCK_RECORD
  5
211
100
AcDbSymbolTableRecord
100
AcDbBlockTableRecord
  2
*Paper_Space
  0
ENDTAB
  0
TABLE
  2
DIMSTYLE
  5
A
100
AcDbSymbolTable
 70
1
100
AcDbDimStyleTable
 71
0
  0
DIMSTYLE
105
212
100
AcDbSymbolTableRecord
100
AcDbDimStyleTableRecord
  2
STANDARD
 70
0
  3

  4

 40
1.0
 41
3.0
 42
0.0625
 43
0.38
 44
0.18
 45
0.0
 46
0.0
 47
0.01
 48
0.01
140
3.0
141
0.09
142
0.0
143
25.4
144
1.0
145
0.0
146
1.0
147
0.09
 71
1.0
 72
0.0
 73
0
 74
0
 75
0
 76
0
 77
1
 78
8
170
0
171
2
172
0
173
0
174
0
175
0
176
0
177
0
178
0
270
2
271
2
272
2
273
2
274
2
275
0
280
0
281
0
282
0
283
1
284
8
285
0
286
0
287
3
288
0
340
11
  0
ENDTAB
  0
ENDSEC
  0
SECTION
  2
BLOCKS
  0
BLOCK
  5
20
100
AcDbEntity
  8
0
100
AcDbBlockBegin
  2
*Model_Space
 70
0
 10
0.0
 20
0.0
 30
0.0
  3
*Model_Space
  1

  0
ENDBLK
  5
21
100
AcDbEntity
  8
0
100
AcDbBlockEnd
  0
BLOCK
  5
1C
100
AcDbEntity
  8
0
100
AcDbBlockBegin
  2
*Paper_Space
 70
0
 10
0.0
 20
0.0
 30
0.0
  3
*Paper_Space
  1

  0
ENDBLK
  5
1D
100
AcDbEntity
  8
0
100
AcDbBlockEnd
  0
ENDSEC
  0
SECTION
  2
ENTITIES
  0
LINE
  5
213
100
AcDbEntity
  8
RACCORDO
100
AcDbLine
 62
7
  6
CONTINUOUS
 10
-19.5130594468
 20
15.0862426571
 11
-15.7920521962
 21
17.093811435
  0
LINE
  5
214
100
AcDbEntity
  8
ASSI
100
AcDbLine
 62
7
  6
CONTINUOUS
 10
-19.5130594468
 20
15.0862426571
 11
-15.7920521962
 21
17.093811435
  0
LINE
  5
215
100
AcDbEntity
  8
RACCORDO
100
AcDbLine
 62
253
  6
CONTINUOUS
 10
-19.3974386704
 20
15.0811532259
 11
-15.6776340109
 21
17.0880731783
  0
LINE
  5
216
100
AcDbEntity
  8
ASSI
100
AcDbLine
 62
253
  6
CONTINUOUS
 10
-19.3974386704
 20
15.0811532259
 11
-15.6776340109
 21
17.0880731783
  0
LINE
  5
217
100
AcDbEntity
  8
DRAFT
100
AcDbLine
 62
7
  6
CONTINUOUS
 10
-13.3932618725
 20
15.9458871091
 11
-15.3289907343
 21
14.7470816075
  0
LINE
  5
218
100
AcDbEntity
  8
ASSI
100
AcDbLine
 62
7
  6
CONTINUOUS
 10
-13.3932618725
 20
15.9458871091
 11
-15.3289907343
 21
14.7470816075
  0
LINE
  5
219
100
AcDbEntity
  8
RACCORDO
100
AcDbLine
 62
7
  6
CONTINUOUS
 10
15.9338354101
 20
-17.0673864497
 11
18.3332541586
 21
-16.4181189197
  0
LINE
  5
21A
100
AcDbEntity
  8
ASSI
100
AcDbLine
 62
7
  6
CONTINUOUS
 10
15.9338354101
 20
-17.0673864497
 11
18.3332541586
 21
-16.4181189197
  0
LWPOLYLINE
  5
21B
100
AcDbEntity
  8
RACCORDO
100
AcDbPolyline
 62
7
  6
CONTINUOUS
 90
3
 70
0
 10
-19.4119944892
 20
0.8572775457
 10
-19.411556988
 20
0.8458198979
 10
-19.4052303398
 20
0.7696332489
  0
LWPOLYLINE
  5
21C
100
AcDbEntity
  8
ASSI
100
AcDbPolyline
 62
7
  6
CONTINUOUS
 90
3
 70
0
 10
-19.4119944892
 20
0.8572775457
 10
-19.411556988
 20
0.8458198979
 10
-19.4052303398
 20
0.7696332489
  0
LWPOLYLINE
  5
21D
100
AcDbEntity
  8
RACCORDO
100
AcDbPolyline
 62
7
  6
CONTINUOUS
 90
10
 70
0
 10
-19.644353353
 20
14.865962407
 10
-19.6402501711
 20
13.3469543177
 10
-19.6306077784
 20
11.7668130411
 10
-19.615488432
 20
10.1895702804
 10
-19.5948923578
 20
8.61525876
 10
-19.5688199434
 20
7.0439057453
 10
-19.5372715814
 20
5.4755367667
 10
-19.5002477617
 20
3.9101795359
 10
-19.4577493136
 20
2.3478670019
 10
-19.4120048219
 20
0.8572295086
  0
LWPOLYLINE
  5
21E
100
AcDbEntity
  8
ASSI
100
AcDbPolyline
 62
7
  6
CONTINUOUS
 90
10
 70
0
 10
-19.644353353
 20
14.865962407
 10
-19.6402501711
 20
13.3469543177
 10
-19.6306077784
 20
11.7668130411
 10
-19.615488432
 20
10.1895702804
 10
-19.5948923578
 20
8.61525876
 10
-19.5688199434
 20
7.0439057453
 10
-19.5372715814
 20
5.4755367667
 10
-19.5002477617
 20
3.9101795359
 10
-19.4577493136
 20
2.3478670019
 10
-19.4120048219
 20
0.8572295086
  0
LINE
  5
21F
100
AcDbEntity
  8
DRAFT
100
AcDbLine
 62
7
  6
CONTINUOUS
 10
-13.3932618725
 20
14.9580528254
 11
-14.4464477567
 21
14.3058101187
  0
LINE
  5
220
100
AcDbEntity
  8
ASSI
100
AcDbLine
 62
7
  6
CONTINUOUS
 10
-13.3932618725
 20
14.9580528254
 11
-14.4464477567
 21
14.3058101187
  0
LINE
  5
221
100
AcDbEntity
  8
RACCORDO
100
AcDbLine
 62
253
  6
CONTINUOUS
 10
16.0422000164
 20
-16.915982745
 11
18.4168441752
 21
-16.2734190622
  0
LINE
  5
222
100
AcDbEntity
  8
ASSI
100
AcDbLine
 62
253
  6
CONTINUOUS
 10
16.0422000164
 20
-16.915982745
 11
18.4168441752
 21
-16.2734190622
  0
LWPOLYLINE
  5
223
100
AcDbEntity
  8
RACCORDO
100
AcDbPolyline
 62
7
  6
CONTINUOUS
 90
11
 70
0
 10
-19.4052303398
 20
0.7696332489
 10
-19.3931199113
 20
0.6967758927
 10
-19.3752472031
 20
0.6274262656
 10
-19.3517387551
 20
0.5620252851
 10
-19.3229376427
 20
0.5013448135
 10
-19.2892265959
 20
0.4458473032
 10
-19.2508329521
 20
0.395568673
 10
-19.2080549554
 20
0.3507255062
 10
-19.1613349959
 20
0.3116623677
 10
-19.1111766468
 20
0.2786254403
 10
-19.0829645056
 20
0.2634081468
  0
LWPOLYLINE
  5
224
100
AcDbEntity
  8
ASSI
100
AcDbPolyline
 62
7
  6
CONTINUOUS
 90
11
 70
0
 10
-19.4052303398
 20
0.7696332489
 10
-19.3931199113
 20
0.6967758927
 10
-19.3752472031
 20
0.6274262656
 10
-19.3517387551
 20
0.5620252851
 10
-19.3229376427
 20
0.5013448135
 10
-19.2892265959
 20
0.4458473032
 10
-19.2508329521
 20
0.395568673
 10
-19.2080549554
 20
0.3507255062
 10
-19.1613349959
 20
0.3116623677
 10
-19.1111766468
 20
0.2786254403
 10
-19.0829645056
 20
0.2634081468
  0
LINE
  5
225
100
AcDbEntity
  8
DRAFT
100
AcDbLine
 62
7
  6
CONTINUOUS
 10
-13.3932618725
 20
15.9458871091
 11
-13.3932618725
 21
14.9580528254
  0
LINE
  5
226
100
AcDbEntity
  8
ASSI
100
AcDbLine
 62
7
  6
CONTINUOUS
 10
-13.3932618725
 20
15.9458871091
 11
-13.3932618725
 21
14.9580528254
  0
LWPOLYLINE
  5
227
100
AcDbEntity
  8
RACCORDO
100
AcDbPolyline
 62
7
  6
CONTINUOUS
 90
9
 70
0
 10
15.5078259953
 20
-17.0319836024
 10
15.5249582192
 20
-17.0402376779
 10
15.5851112647
 20
-17.0637087593
 10
15.6490325687
 20
-17.0802258102
 10
15.7159811535
 20
-17.0892793683
 10
15.7849021123
 20
-17.0905456021
 10
15.8551130748
 20
-17.0839172989
 10
15.9261914777
 20
-17.0693887334
 10
15.9335308179
 20
-17.0674482213
  0
LWPOLYLINE
  5
228
100
AcDbEntity
  8
ASSI
100
AcDbPolyline
 62
7
  6
CONTINUOUS
 90
9
 70
0
 10
15.5078259953
 20
-17.0319836024
 10
15.5249582192
 20
-17.0402376779
 10
15.5851112647
 20
-17.0637087593
 10
15.6490325687
 20
-17.0802258102
 10
15.7159811535
 20
-17.0892793683
 10
15.7849021123
 20
-17.0905456021
 10
15.8551130748
 20
-17.0839172989
 10
15.9261914777
 20
-17.0693887334
 10
15.9335308179
 20
-17.0674482213
  0
LINE
  5
229
100
AcDbEntity
  8
RACCORDO
100
AcDbLine
 62
7
  6
CONTINUOUS
 10
-19.082862118
 20
0.2633417641
 11
15.5091954113
 21
-17.0326870006
  0
LINE
  5
22A
100
AcDbEntity
  8
ASSI
100
AcDbLine
 62
7
  6
CONTINUOUS
 10
-19.082862118
 20
0.2633417641
 11
15.5091954113
 21
-17.0326870006
  0
LINE
  5
22B
100
AcDbEntity
  8
RACCORDO
100
AcDbLine
 62
253
  6
CONTINUOUS
 10
-19.3387733495
 20
0.7684136471
 11
15.2464343156
 21
-16.5241901854
  0
LINE
  5
22C
100
AcDbEntity
  8
ASSI
100
AcDbLine
 62
253
  6
CONTINUOUS
 10
-19.3387733495
 20
0.7684136471
 11
15.2464343156
 21
-16.5241901854
  0
LINE
  5
22D
100
AcDbEntity
  8
RACCORDO
100
AcDbLine
 62
7
  6
CONTINUOUS
 10
18.2400674789
 20
-16.6526818502
 11
17.9683974506
 21
-16.5168468361
  0
LINE
  5
22E
100
AcDbEntity
  8
ASSI
100
AcDbLine
 62
7
  6
CONTINUOUS
 10
18.2400674789
 20
-16.6526818502
 11
17.9683974506
 21
-16.5168468361
  0
LINE
  5
22F
100
AcDbEntity
  8
DRAFT
100
AcDbLine
 62
7
  6
CONTINUOUS
 10
-2.1974175887
 20
4.0308923886
 11
-2.6474013474
 21
3.7933416691
  0
LINE
  5
230
100
AcDbEntity
  8
DRAFT
100
AcDbLine
 62
7
  6
CONTINUOUS
 10
-1.0953437958
 20
1.858107962
 11
-1.5680583978
 21
1.634655768
  0
LINE
  5
231
100
AcDbEntity
  8
RACCORDO
100
AcDbLine
 62
253
  6
CONTINUOUS
 10
15.0058268632
 20
-2.5109248382
 11
-19.5711300366
 21
14.7775536117
  0
LINE
  5
232
100
AcDbEntity
  8
ASSI
100
AcDbLine
 62
253
  6
CONTINUOUS
 10
15.0058268632
 20
-2.5109248382
 11
-19.5711300366
 21
14.7775536117
  0
LINE
  5
233
100
AcDbEntity
  8
RACCORDO
100
AcDbLine
 62
253
  6
CONTINUOUS
 10
15.1795182311
 20
-2.2073252249
 11
-19.3974386704
 21
15.0811532259
  0
LINE
  5
234
100
AcDbEntity
  8
ASSI
100
AcDbLine
 62
253
  6
CONTINUOUS
 10
15.1795182311
 20
-2.2073252249
 11
-19.3974386704
 21
15.0811532259
  0
LINE
  5
235
100
AcDbEntity
  8
DRAFT
100
AcDbLine
 62
7
  6
CONTINUOUS
 10
16.747116579
 20
0.8756978834
 11
14.4402047537
 21
-0.1375161365
  0
LINE
  5
236
100
AcDbEntity
  8
ASSI
100
AcDbLine
 62
7
  6
CONTINUOUS
 10
16.747116579
 20
0.8756978834
 11
14.4402047537
 21
-0.1375161365
  0
LINE
  5
237
100
AcDbEntity
  8
DRAFT
100
AcDbLine
 62
7
  6
CONTINUOUS
 10
14.4402047537
 20
-0.1375161365
 11
-15.3289907343
 21
14.7470816075
  0
LINE
  5
238
100
AcDbEntity
  8
ASSI
100
AcDbLine
 62
7
  6
CONTINUOUS
 10
14.4402047537
 20
-0.1375161365
 11
-15.3289907343
 21
14.7470816075
  0
LINE
  5
239
100
AcDbEntity
  8
RACCORDO
100
AcDbLine
 62
253
  6
CONTINUOUS
 10
19.0314887174
 20
-0.2664881858
 11
15.1795182311
 21
-2.2073252249
  0
LINE
  5
23A
100
AcDbEntity
  8
ASSI
100
AcDbLine
 62
253
  6
CONTINUOUS
 10
19.0314887174
 20
-0.2664881858
 11
15.1795182311
 21
-2.2073252249
  0
LINE
  5
23B
100
AcDbEntity
  8
RACCORDO
100
AcDbLine
 62
253
  6
CONTINUOUS
 10
19.4203064647
 20
-1.3354565142
 11
19.213547577
 21
-1.2320770703
  0
LINE
  5
23C
100
AcDbEntity
  8
ASSI
100
AcDbLine
 62
253
  6
CONTINUOUS
 10
19.4203064647
 20
-1.3354565142
 11
19.213547577
 21
-1.2320770703
  0
LINE
  5
23D
100
AcDbEntity
  8
DRAFT
100
AcDbLine
 62
7
  6
CONTINUOUS
 10
19.4960182391
 20
-1.3004903077
 11
19.2082384887
 21
-1.1566004325
  0
LINE
  5
23E
100
AcDbEntity
  8
ASSI
100
AcDbLine
 62
7
  6
CONTINUOUS
 10
19.4960182391
 20
-1.3004903077
 11
19.2082384887
 21
-1.1566004325
  0
LINE
  5
23F
100
AcDbEntity
  8
RACCORDO
100
AcDbLine
 62
7
  6
CONTINUOUS
 10
19.0314887174
 20
-0.2664881858
 11
16.747116579
 21
0.8756978834
  0
LINE
  5
240
100
AcDbEntity
  8
ASSI
100
AcDbLine
 62
7
  6
CONTINUOUS
 10
19.0314887174
 20
-0.2664881858
 11
16.747116579
 21
0.8756978834
  0
LINE
  5
241
100
AcDbEntity
  8
RACCORDO
100
AcDbLine
 62
7
  6
CONTINUOUS
 10
-13.3932618725
 20
15.9458871091
 11
-15.6776340109
 21
17.0880731783
  0
LINE
  5
242
100
AcDbEntity
  8
ASSI
100
AcDbLine
 62
7
  6
CONTINUOUS
 10
-13.3932618725
 20
15.9458871091
 11
-15.6776340109
 21
17.0880731783
  0
LINE
  5
243
100
AcDbEntity
  8
RACCORDO
100
AcDbLine
 62
253
  6
CONTINUOUS
 10
19.2082384887
 20
-0.5713364475
 11
15.3562680043
 21
-2.5121734856
  0
LINE
  5
244
100
AcDbEntity
  8
ASSI
100
AcDbLine
 62
253
  6
CONTINUOUS
 10
19.2082384887
 20
-0.5713364475
 11
15.3562680043
 21
-2.5121734856
  0
LINE
  5
245
100
AcDbEntity
  8
RACCORDO
100
AcDbLine
 62
7
  6
CONTINUOUS
 10
19.4960182391
 20
-1.3004903077
 11
19.4203064647
 21
-1.3354565142
  0
LINE
  5
246
100
AcDbEntity
  8
ASSI
100
AcDbLine
 62
7
  6
CONTINUOUS
 10
19.4960182391
 20
-1.3004903077
 11
19.4203064647
 21
-1.3354565142
  0
LINE
  5
247
100
AcDbEntity
  8
RACCORDO
100
AcDbLine
 62
7
  6
CONTINUOUS
 10
18.4168441752
 20
-16.2734190622
 11
18.4168441752
 21
-16.5245885782
  0
LINE
  5
248
100
AcDbEntity
  8
ASSI
100
AcDbLine
 62
7
  6
CONTINUOUS
 10
18.4168441752
 20
-16.2734190622
 11
18.4168441752
 21
-16.5245885782
  0
LINE
  5
249
100
AcDbEntity
  8
RACCORDO
100
AcDbLine
 62
7
  6
CONTINUOUS
 10
19.2082384887
 20
-1.1780842949
 11
19.2082384887
 21
-0.5713364475
  0
LINE
  5
24A
100
AcDbEntity
  8
ASSI
100
AcDbLine
 62
7
  6
CONTINUOUS
 10
19.2082384887
 20
-1.1780842949
 11
19.2082384887
 21
-0.5713364475
  0
LINE
  5
24B
100
AcDbEntity
  8
DRAFT
100
AcDbLine
 62
7
  6
CONTINUOUS
 10
19.4960182391
 20
-1.3004903077
 11
19.4960182391
 21
-9.6395885378
  0
LINE
  5
24C
100
AcDbEntity
  8
ASSI
100
AcDbLine
 62
7
  6
CONTINUOUS
 10
19.4960182391
 20
-1.3004903077
 11
19.4960182391
 21
-9.6395885378
  0
LINE
  5
24D
100
AcDbEntity
  8
RACCORDO
100
AcDbLine
 62
7
  6
CONTINUOUS
 10
18.9398709885
 20
-16.2775423216
 11
19.4960182391
 21
-9.6395885378
  0
LINE
  5
24E
100
AcDbEntity
  8
ASSI
100
AcDbLine
 62
7
  6
CONTINUOUS
 10
18.9398709885
 20
-16.2775423216
 11
19.4960182391
 21
-9.6395885378
  0
LINE
  5
24F
100
AcDbEntity
  8
RACCORDO
100
AcDbLine
 62
253
  6
CONTINUOUS
 10
18.4168441752
 20
-16.5245885782
 11
18.9398709885
 21
-16.2775423216
  0
LINE
  5
250
100
AcDbEntity
  8
ASSI
100
AcDbLine
 62
253
  6
CONTINUOUS
 10
18.4168441752
 20
-16.5245885782
 11
18.9398709885
 21
-16.2775423216
  0
LINE
  5
251
100
AcDbEntity
  8
RACCORDO
100
AcDbLine
 62
7
  6
CONTINUOUS
 10
18.3499760531
 20
-16.6607120608
 11
18.8582927839
 21
-16.4206139582
  0
LINE
  5
252
100
AcDbEntity
  8
ASSI
100
AcDbLine
 62
7
  6
CONTINUOUS
 10
18.3499760531
 20
-16.6607120608
 11
18.8582927839
 21
-16.4206139582
  0
ARC
  5
253
100
AcDbEntity
  8
RACCORDO
100
AcDbCircle
 62
253
  6
CONTINUOUS
 10
428.7411739258
 20
15.2037368546
 40
448.3125316039
100
AcDbArc
 50
180.0544675967
 51
181.8335679219
  0
ARC
  5
254
100
AcDbEntity
  8
ASSI
100
AcDbCircle
 62
253
  6
CONTINUOUS
 10
428.7411739258
 20
15.2037368546
 40
448.3125316039
100
AcDbArc
 50
180.0544675967
 51
181.8335679219
  0
ARC
  5
255
100
AcDbEntity
  8
RACCORDO
100
AcDbCircle
 62
253
  6
CONTINUOUS
 10
445.9828329312
 20
-2.1221976528
 40
430.9770751949
100
AcDbArc
 50
180.051678908
 51
181.9150136762
  0
ARC
  5
256
100
AcDbEntity
  8
ASSI
100
AcDbCircle
 62
253
  6
CONTINUOUS
 10
445.9828329312
 20
-2.1221976528
 40
430.9770751949
100
AcDbArc
 50
180.051678908
 51
181.9150136762
  0
ARC
  5
257
100
AcDbEntity
  8
RACCORDO
100
AcDbCircle
 62
253
  6
CONTINUOUS
 10
446.075550976
 20
-2.1236738347
 40
430.719352063
100
AcDbArc
 50
180.051679563
 51
181.9150327006
  0
ARC
  5
258
100
AcDbEntity
  8
ASSI
100
AcDbCircle
 62
253
  6
CONTINUOUS
 10
446.075550976
 20
-2.1236738347
 40
430.719352063
100
AcDbArc
 50
180.051679563
 51
181.9150327006
  0
ARC
  5
259
100
AcDbEntity
  8
RACCORDO
100
AcDbCircle
 62
7
  6
CONTINUOUS
 10
-1.6470004196
 20
2.6539669173
 40
1.1007054639
100
AcDbArc
 50
237.1726665365
 51
240.9484598453
  0
ARC
  5
25A
100
AcDbEntity
  8
RACCORDO
100
AcDbCircle
 62
7
  6
CONTINUOUS
 10
-1.6804076111
 20
2.5944202793
 40
1.0324284262
100
AcDbArc
 50
240.9644641986
 51
243.4252663163
  0
ARC
  5
25B
100
AcDbEntity
  8
DRAFT
100
AcDbCircle
 62
7
  6
CONTINUOUS
 10
-2.143102698
 20
3.4281528165
 40
0.6769002748
100
AcDbArc
 50
148.6010993284
 51
155.0362118193
  0
ARC
  5
25C
100
AcDbEntity
  8
ASSI
100
AcDbCircle
 62
7
  6
CONTINUOUS
 10
-2.143102698
 20
3.4281528165
 40
0.6769002748
100
AcDbArc
 50
148.6010993284
 51
155.0362118193
  0
ARC
  5
25D
100
AcDbEntity
  8
DRAFT
100
AcDbCircle
 62
7
  6
CONTINUOUS
 10
-2.1965220301
 20
3.4605988559
 40
0.6143994749
100
AcDbArc
 50
141.5864900658
 51
148.5883752015
  0
ARC
  5
25E
100
AcDbEntity
  8
ASSI
100
AcDbCircle
 62
7
  6
CONTINUOUS
 10
-2.1965220301
 20
3.4605988559
 40
0.6143994749
100
AcDbArc
 50
141.5864900658
 51
148.5883752015
  0
ARC
  5
25F
100
AcDbEntity
  8
RACCORDO
100
AcDbCircle
 62
253
  6
CONTINUOUS
 10
-18.9166919136
 20
0.5941375674
 40
0.3701339165
100
AcDbArc
 50
241.2312847576
 51
243.3038033338
  0
ARC
  5
260
100
AcDbEntity
  8
ASSI
100
AcDbCircle
 62
253
  6
CONTINUOUS
 10
-18.9166919136
 20
0.5941375674
 40
0.3701339165
100
AcDbArc
 50
241.2312847576
 51
243.3038033338
  0
ARC
  5
261
100
AcDbEntity
  8
RACCORDO
100
AcDbCircle
 62
7
  6
CONTINUOUS
 10
-19.3943760901
 20
14.8662400102
 40
0.2499729098
100
AcDbArc
 50
118.3452333315
 51
180.0617873869
  0
ARC
  5
262
100
AcDbEntity
  8
ASSI
100
AcDbCircle
 62
7
  6
CONTINUOUS
 10
-19.3943760901
 20
14.8662400102
 40
0.2499729098
100
AcDbArc
 50
118.3452333315
 51
180.0617873869
  0
SPLINE
  5
263
100
AcDbEntity
  8
RACCORDO
100
AcDbSpline
 62
7
  6
CONTINUOUS
 70
0
 71
3
 72
10
 73
6
 74
4
 42
0.0000001
 43
0.0000001
 44
0.0000000001
 12
0.5309507646
 22
-0.2654753776
 32
0.0
 13
0.5366819963
 23
0.2536896016
 33
0.0
 40
0.0
 40
0.0
 40
0.0
 40
0.0
 40
0.3683960887
 40
0.69741576
 40
1.0
 40
1.0
 40
1.0
 40
1.0
 10
-2.1422796853
 20
1.6710662615
 30
0.0
 10
-2.0770796236
 20
1.6384662312
 30
0.0
 10
-1.9459943706
 20
1.5898866047
 30
0.0
 10
-1.745646701
 20
1.5756841937
 30
0.0
 10
-1.6221887804
 20
1.609068334
 30
0.0
 10
-1.5680582757
 20
1.6346558257
 30
0.0
 11
-2.1422796853
 21
1.6710662615
 31
0.0
 11
-1.9361823386
 21
1.5979350524
 31
0.0
 11
-1.7411868938
 21
1.5868022663
 31
0.0
 11
-1.5680582757
 21
1.6346558257
 31
0.0
  0
SPLINE
  5
264
100
AcDbEntity
  8
RACCORDO
100
AcDbSpline
 62
7
  6
CONTINUOUS
 70
0
 71
3
 72
14
 73
10
 74
8
 42
0.0000001
 43
0.0000001
 44
0.0000000001
 12
-2.1334127319
 22
-1.1262489471
 32
0.0
 13
2.0328953942
 23
-1.3102034695
 33
0.0
 40
0.0
 40
0.0
 40
0.0
 40
0.0
 40
0.1126354234
 40
0.2431064815
 40
0.3946442942
 40
0.5607875776
 40
0.7319683022
 40
0.897607205
 40
1.0
 40
1.0
 40
1.0
 40
1.0
 10
-2.6474011886
 20
3.7933417529
 30
0.0
 10
-2.7275004707
 20
3.7510565773
 30
0.0
 10
-2.8762835881
 20
3.6096171745
 30
0.0
 10
-2.9840739762
 20
3.3022069065
 30
0.0
 10
-2.9853776567
 20
2.9370117323
 30
0.0
 10
-2.8881248385
 20
2.5525887509
 30
0.0
 10
-2.7059004148
 20
2.1880063129
 30
0.0
 10
-2.4827269338
 20
1.9108373698
 30
0.0
 10
-2.313087535
 20
1.7737536862
 30
0.0
 10
-2.2437029213
 20
1.7290352211
 30
0.0
 11
-2.6474011886
 21
3.7933417529
 31
0.0
 11
-2.8476835282
 21
3.609705228
 31
0.0
 11
-2.9620086141
 21
3.3164478044
 31
0.0
 11
-2.9707446302
 21
2.9509757407
 31
0.0
 11
-2.8757586639
 21
2.5615821179
 31
0.0
 11
-2.6912064593
 21
2.1921505947
 31
0.0
 11
-2.4378168587
 21
1.8831691843
 31
0.0
 11
-2.2437029213
 21
1.7290352211
 31
0.0
  0
SPLINE
  5
265
100
AcDbEntity
  8
RACCORDO
100
AcDbSpline
 62
253
  6
CONTINUOUS
 70
0
 71
3
 72
20
 73
16
 74
14
 42
0.0000001
 43
0.0000001
 44
0.0000000001
 12
2.3096192904
 22
1.1011434821
 32
0.0
 13
-2.2752317028
 23
1.13761587
 33
0.0
 40
0.0
 40
0.0
 40
0.0
 40
0.0
 40
0.0913253166
 40
0.1944753298
 40
0.300071473
 40
0.4040895859
 40
0.5028558466
 40
0.5939847407
 40
0.6762969559
 40
0.7496288086
 40
0.81425267
 40
0.8708004493
 40
0.9200563031
 40
0.9628161743
 40
1.0
 40
1.0
 40
1.0
 40
1.0
 10
-1.5680661215
 20
1.634686069
 30
0.0
 10
-1.4977572171
 20
1.6682068281
 30
0.0
 10
-1.3668041315
 20
1.7806255669
 30
0.0
 10
-1.2647039493
 20
2.0204551758
 30
0.0
 10
-1.2362369656
 20
2.2865059649
 30
0.0
 10
-1.2622682483
 20
2.5480969695
 30
0.0
 10
-1.3253207163
 20
2.7900262774
 30
0.0
 10
-1.4117483909
 20
3.004632178
 30
0.0
 10
-1.5112212305
 20
3.189165627
 30
0.0
 10
-1.6162688614
 20
3.3439614333
 30
0.0
 10
-1.7217152011
 20
3.4710920669
 30
0.0
 10
-1.8240546493
 20
3.573409115
 30
0.0
 10
-1.9210459331
 20
3.6540691884
 30
0.0
 10
-2.0114051956
 20
3.7162632569
 30
0.0
 10
-2.0705917972
 20
3.7495320051
 30
0.0
 10
-2.0987924036
 20
3.7636323085
 30
0.0
 11
-1.5680661215
 21
1.634686069
 31
0.0
 11
-1.3890524486
 21
1.7832757355
 31
0.0
 11
-1.2782399451
 21
2.0211200969
 31
0.0
 11
-1.2454254455
 21
2.2877222471
 31
0.0
 11
-1.2696539699
 21
2.551210509
 31
0.0
 11
-1.3322491107
 21
2.794528246
 31
0.0
 11
-1.4186457477
 21
3.0096389813
 31
0.0
 11
-1.5180543375
 21
3.1939210524
 31
0.0
 11
-1.6229641672
 21
3.3481653756
 31
0.0
 11
-1.7281047605
 21
3.4745350602
 31
0.0
 11
-1.8300162288
 21
3.5760514244
 31
0.0
 11
-1.9265133928
 21
3.655973122
 31
0.0
 11
-2.0162421269
 21
3.7174556193
 31
0.0
 11
-2.0987924036
 21
3.7636323085
 31
0.0
  0
SPLINE
  5
266
100
AcDbEntity
  8
RACCORDO
100
AcDbSpline
 62
253
  6
CONTINUOUS
 70
0
 71
3
 72
8
 73
4
 74
2
 42
0.0000001
 43
0.0000001
 44
0.0000000001
 12
0.0835988337
 22
-0.0417994168
 32
0.0
 13
0.0882735387
 23
-0.032464483
 33
0.0
 40
0.0
 40
0.0
 40
0.0
 40
0.0
 40
1.0
 40
1.0
 40
1.0
 40
1.0
 10
-2.1678256674
 20
1.7156927352
 30
0.0
 10
-2.1399593895
 20
1.7017595963
 30
0.0
 10
-2.1112280822
 20
1.6891343921
 30
0.0
 10
-2.0818035693
 20
1.6783128978
 30
0.0
 11
-2.1678256674
 21
1.7156927352
 31
0.0
 11
-2.0818035693
 21
1.6783128978
 31
0.0
  0
SPLINE
  5
267
100
AcDbEntity
  8
RACCORDO
100
AcDbSpline
 62
253
  6
CONTINUOUS
 70
0
 71
3
 72
10
 73
6
 74
4
 42
0.0000001
 43
0.0000001
 44
0.0000000001
 12
0.4497329471
 22
-0.165398916
 32
0.0
 13
0.3975809252
 23
0.2706053485
 33
0.0
 40
0.0
 40
0.0
 40
0.0
 40
0.0
 40
0.3604798126
 40
0.8430695357
 40
1.0
 40
1.0
 40
1.0
 40
1.0
 10
-2.0818035693
 20
1.6783128978
 30
0.0
 10
-2.0277636865
 20
1.6584385744
 30
0.0
 10
-1.8959099743
 20
1.626186153
 30
0.0
 10
-1.7312487752
 20
1.6473263801
 30
0.0
 10
-1.6417512509
 20
1.697551043
 30
0.0
 10
-1.6209537312
 20
1.7117064507
 30
0.0
 11
-2.0818035693
 21
1.6783128978
 31
0.0
 11
-1.9137338581
 21
1.6400125536
 31
0.0
 11
-1.6866262551
 21
1.6751122039
 31
0.0
 11
-1.6209537312
 21
1.7117064507
 31
0.0
  0
SPLINE
  5
268
100
AcDbEntity
  8
RACCORDO
100
AcDbSpline
 62
253
  6
CONTINUOUS
 70
0
 71
3
 72
20
 73
16
 74
14
 42
0.0000001
 43
0.0000001
 44
0.0000000001
 12
1.9147547356
 22
1.3032387614
 32
0.0
 13
-2.0512188492
 23
1.0256094246
 33
0.0
 40
0.0
 40
0.0
 40
0.0
 40
0.0
 40
0.0662565476
 40
0.172252553
 40
0.2807617212
 40
0.3876493116
 40
0.4891401078
 40
0.5827829581
 40
0.667365994
 40
0.7427209878
 40
0.8091277958
 40
0.8672357412
 40
0.9178505631
 40
0.9617902467
 40
1.0
 40
1.0
 40
1.0
 40
1.0
 10
-1.6209537312
 20
1.7117064507
 30
0.0
 10
-1.5786653851
 20
1.740489151
 30
0.0
 10
-1.4812372737
 20
1.8349975075
 30
0.0
 10
-1.3951163333
 20
2.0373033552
 30
0.0
 10
-1.3687430721
 20
2.2837758057
 30
0.0
 10
-1.3928594935
 20
2.5261172553
 30
0.0
 10
-1.4512712247
 20
2.75024385
 30
0.0
 10
-1.5313386835
 20
2.9490578004
 30
0.0
 10
-1.6234912219
 20
3.1200125172
 30
0.0
 10
-1.7208086349
 20
3.2634179368
 30
0.0
 10
-1.8184955588
 20
3.3811939746
 30
0.0
 10
-1.9133041951
 20
3.4759824802
 30
0.0
 10
-2.0031586247
 20
3.5507072391
 30
0.0
 10
-2.0868686507
 20
3.6083253631
 30
0.0
 10
-2.1417001454
 20
3.639146146
 30
0.0
 10
-2.1678256674
 20
3.6522089071
 30
0.0
 11
-1.6209537312
 21
1.7117064507
 31
0.0
 11
-1.5103118437
 21
1.8175749157
 31
0.0
 11
-1.4076553565
 21
2.0379189921
 31
0.0
 11
-1.3772556931
 21
2.2849027641
 31
0.0
 11
-1.3997014567
 21
2.5290017261
 31
0.0
 11
-1.4576898301
 21
2.7544144647
 31
0.0
 11
-1.537728401
 21
2.9536961393
 31
0.0
 11
-1.6298214973
 21
3.1244179724
 31
0.0
 11
-1.7270112408
 21
3.2673125105
 31
0.0
 11
-1.8244149043
 21
3.3843836376
 31
0.0
 11
-1.9188271619
 21
3.4784303032
 31
0.0
 11
-2.0082236506
 21
3.5524711524
 31
0.0
 11
-2.0913497343
 21
3.6094299483
 31
0.0
 11
-2.1678256674
 21
3.6522089071
 31
0.0
  0
SPLINE
  5
269
100
AcDbEntity
  8
RACCORDO
100
AcDbSpline
 62
253
  6
CONTINUOUS
 70
0
 71
3
 72
22
 73
18
 74
16
 42
0.0000001
 43
0.0000001
 44
0.0000000001
 12
-2.5607350466
 22
1.2803675233
 32
0.0
 13
2.5607350466
 23
-1.2803675233
 33
0.0
 40
0.0
 40
0.0
 40
0.0
 40
0.0
 40
0.0926031929
 40
0.1728708975
 40
0.252045775
 40
0.3369516027
 40
0.4238704212
 40
0.5094903106
 40
0.590787205
 40
0.6657976871
 40
0.733551015
 40
0.7939124321
 40
0.8471061098
 40
0.8936521728
 40
0.9341960337
 40
0.9693929376
 40
1.0
 40
1.0
 40
1.0
 40
1.0
 10
-2.1678256674
 20
3.6522089071
 30
0.0
 10
-2.2468697479
 20
3.6917309473
 30
0.0
 10
-2.4074212631
 20
3.7458661249
 30
0.0
 10
-2.6569445631
 20
3.7138294366
 30
0.0
 10
-2.8444191591
 20
3.5563835275
 30
0.0
 10
-2.9405357507
 20
3.3305980755
 30
0.0
 10
-2.9669089267
 20
3.0841254878
 30
0.0
 10
-2.9427926362
 20
2.8417840238
 30
0.0
 10
-2.8843806949
 20
2.6176574842
 30
0.0
 10
-2.8043131537
 20
2.4188435839
 30
0.0
 10
-2.7121604721
 20
2.2478889388
 30
0.0
 10
-2.6148429697
 20
2.104483567
 30
0.0
 10
-2.5171559699
 20
1.9867075637
 30
0.0
 10
-2.4223472519
 20
1.8919191187
 30
0.0
 10
-2.3324928156
 20
1.8171943248
 30
0.0
 10
-2.2487827036
 20
1.7595762859
 30
0.0
 10
-2.1939511932
 20
1.7287554981
 30
0.0
 10
-2.1678256674
 20
1.7156927352
 30
0.0
 11
-2.1678256674
 21
3.6522089071
 31
0.0
 11
-2.4219162917
 21
3.7278896812
 31
0.0
 11
-2.6490254024
 21
3.6927892771
 31
0.0
 11
-2.8253397547
 21
3.5503265947
 31
0.0
 11
-2.927996656
 21
3.3299823113
 31
0.0
 11
-2.9583963442
 21
3.082998527
 31
0.0
 11
-2.9359506117
 21
2.8388995494
 31
0.0
 11
-2.8779621074
 21
2.6134868763
 31
0.0
 11
-2.7979234233
 21
2.4142052582
 31
0.0
 11
-2.705830202
 21
2.2434834877
 31
0.0
 11
-2.6086403635
 21
2.1005889971
 31
0.0
 11
-2.5112366197
 21
1.9835179101
 31
0.0
 11
-2.4168242932
 21
1.889471279
 31
0.0
 11
-2.3274277825
 21
1.8154304407
 31
0.0
 11
-2.2443016205
 21
1.758471684
 31
0.0
 11
-2.1678256674
 21
1.7156927352
 31
0.0
  0
SPLINE
  5
26A
100
AcDbEntity
  8
RACCORDO
100
AcDbSpline
 62
253
  6
CONTINUOUS
 70
0
 71
3
 72
10
 73
6
 74
4
 42
0.0000001
 43
0.0000001
 44
0.0000000001
 12
-0.5066545929
 22
0.2533273006
 32
0.0
 13
-0.5030012107
 23
-0.268775241
 33
0.0
 40
0.0
 40
0.0
 40
0.0
 40
0.0
 40
0.5052042006
 40
0.9431177079
 40
1.0
 40
1.0
 40
1.0
 40
1.0
 10
-2.0987924036
 20
3.7636323085
 30
0.0
 10
-2.1841137464
 20
3.8062929807
 30
0.0
 10
-2.3574186642
 20
3.8647135452
 30
0.0
 10
-2.5532952345
 20
3.8395803793
 30
0.0
 10
-2.6378092845
 20
3.7983355676
 30
0.0
 10
-2.6473465718
 20
3.7932393836
 30
0.0
 11
-2.0987924036
 21
3.7636323085
 31
0.0
 11
-2.3730635653
 21
3.8453165193
 31
0.0
 11
-2.6182136771
 21
3.8074379272
 31
0.0
 11
-2.6473465718
 21
3.7932393836
 31
0.0
  0
SPLINE
  5
26B
100
AcDbEntity
  8
DRAFT
100
AcDbSpline
 62
7
  6
CONTINUOUS
 70
0
 71
3
 72
17
 73
13
 74
11
 42
0.0000001
 43
0.0000001
 44
0.0000000001
 12
2.4459831326
 22
1.2838515585
 32
0.0
 13
-2.4516470572
 23
1.2258235286
 33
0.0
 40
0.0
 40
0.0
 40
0.0
 40
0.0
 40
0.0252960356
 40
0.1044689495
 40
0.1936208561
 40
0.2953999763
 40
0.4088600251
 40
0.5305328986
 40
0.6555712688
 40
0.7786495306
 40
0.8947903949
 40
1.0
 40
1.0
 40
1.0
 40
1.0
 10
-1.3082948864
 20
1.6456767206
 30
0.0
 10
-1.2876703277
 20
1.6565021721
 30
0.0
 10
-1.205711196
 20
1.7071663199
 30
0.0
 10
-1.0862526231
 20
1.8442762031
 30
0.0
 10
-0.998435811
 20
2.0790787616
 30
0.0
 10
-0.9730648616
 20
2.3585515398
 30
0.0
 10
-1.0095347546
 20
2.6660570197
 30
0.0
 10
-1.1049419427
 20
2.9825671048
 30
0.0
 10
-1.2529955785
 20
3.2877936496
 30
0.0
 10
-1.4441772929
 20
3.5620426919
 30
0.0
 10
-1.6659602985
 20
3.7874444415
 30
0.0
 10
-1.8350404384
 20
3.9021133532
 30
0.0
 10
-1.9210193779
 20
3.945102823
 30
0.0
 11
-1.3082948864
 21
1.6456767206
 31
0.0
 11
-1.2490056072
 21
1.6824046691
 31
0.0
 11
-1.1032777328
 21
1.8432115729
 31
0.0
 11
-1.0126056848
 21
2.0701346757
 31
0.0
 11
-0.9832596264
 21
2.3475659993
 31
0.0
 11
-1.0172218978
 21
2.6567028205
 31
0.0
 11
-1.1121800576
 21
2.9764070144
 31
0.0
 11
-1.2616242506
 21
3.2848426231
 31
0.0
 11
-1.4553578837
 21
3.5610299276
 31
0.0
 11
-1.680308134
 21
3.7862873639
 31
0.0
 11
-1.9210193779
 21
3.945102823
 31
0.0
  0
SPLINE
  5
26C
100
AcDbEntity
  8
DRAFT
100
AcDbSpline
 62
7
  6
CONTINUOUS
 70
0
 71
3
 72
10
 73
6
 74
4
 42
0.0000001
 43
0.0000001
 44
0.0000000001
 12
-0.5318836887
 22
0.2659418443
 32
0.0
 13
-0.5423349644
 23
-0.2556202157
 33
0.0
 40
0.0
 40
0.0
 40
0.0
 40
0.0
 40
0.4264225282
 40
0.8016701045
 40
1.0
 40
1.0
 40
1.0
 40
1.0
 10
-1.9210193779
 20
3.945102823
 30
0.0
 10
-1.9966217737
 20
3.9829040209
 30
0.0
 10
-2.1483122121
 20
4.0379868428
 30
0.0
 10
-2.3512758813
 20
4.0413990447
 30
0.0
 10
-2.4608515212
 20
4.0047889771
 30
0.0
 10
-2.4967052668
 20
3.9878899335
 30
0.0
 11
-1.9210193779
 21
3.945102823
 31
0.0
 11
-2.1611132448
 21
4.0266921013
 31
0.0
 11
-2.3842562777
 21
4.0254956508
 31
0.0
 11
-2.4967052668
 21
3.9878899335
 31
0.0
  0
SPLINE
  5
26D
100
AcDbEntity
  8
RACCORDO
100
AcDbSpline
 62
253
  6
CONTINUOUS
 70
0
 71
3
 72
9
 73
5
 74
3
 42
0.0000001
 43
0.0000001
 44
0.0000000001
 12
0.0042467391
 22
-0.1188405267
 32
0.0
 13
0.1066391986
 23
-0.0534070687
 33
0.0
 40
0.0
 40
0.0
 40
0.0
 40
0.0
 40
0.434255131
 40
1.0
 40
1.0
 40
1.0
 40
1.0
 10
-19.41200239
 20
0.8572295955
 30
0.0
 10
-19.4113876672
 20
0.840027226
 30
0.0
 10
-19.3932192488
 20
0.8008134957
 30
0.0
 10
-19.3588835423
 20
0.778485239
 30
0.0
 10
-19.3387733492
 20
0.7684136473
 30
0.0
 11
-19.41200239
 21
0.8572295955
 31
0.0
 11
-19.3925594223
 21
0.8091539195
 31
0.0
 11
-19.3387733492
 21
0.7684136473
 31
0.0
  0
SPLINE
  5
26E
100
AcDbEntity
  8
RACCORDO
100
AcDbSpline
 62
253
  6
CONTINUOUS
 70
0
 71
3
 72
13
 73
9
 74
7
 42
0.0000001
 43
0.0000001
 44
0.0000000001
 12
0.0236954385
 22
-0.7022854852
 32
0.0
 13
0.6783151378
 23
0.1834528559
 33
0.0
 40
0.0
 40
0.0
 40
0.0
 40
0.0
 40
0.1944363683
 40
0.3698341619
 40
0.5286102363
 40
0.6791816637
 40
0.8332005048
 40
1.0
 40
1.0
 40
1.0
 40
1.0
 10
15.596736348
 20
-16.51719695
 30
0.0
 10
15.5982720996
 20
-16.5627135631
 30
0.0
 10
15.6090414639
 20
-16.6494111242
 30
0.0
 10
15.6530468645
 20
-16.7666412385
 30
0.0
 10
15.7236398678
 20
-16.8582236428
 30
0.0
 10
15.8180849601
 20
-16.9166851527
 30
0.0
 10
15.9288975567
 20
-16.9370491862
 30
0.0
 10
16.0044858089
 20
-16.926182693
 30
0.0
 10
16.0422000164
 20
-16.915982745
 30
0.0
 11
15.596736348
 21
-16.51719695
 31
0.0
 11
15.6151289654
 21
-16.6525808376
 31
0.0
 11
15.6601735026
 21
-16.7673040221
 31
0.0
 11
15.7295772021
 21
-16.8546590376
 31
0.0
 11
15.8197085366
 21
-16.9100746738
 31
0.0
 11
15.9259326402
 21
-16.9307983012
 31
0.0
 11
16.0422000164
 21
-16.915982745
 31
0.0
  0
SPLINE
  5
26F
100
AcDbEntity
  8
RACCORDO
100
AcDbSpline
 62
253
  6
CONTINUOUS
 70
0
 71
3
 72
9
 73
5
 74
3
 42
0.0000001
 43
0.0000001
 44
0.0000000001
 12
0.1060851227
 22
0.0557215843
 32
0.0
 13
0.1068996515
 23
-0.0515772518
 33
0.0
 40
0.0
 40
0.0
 40
0.0
 40
0.0
 40
0.4050937236
 40
1.0
 40
1.0
 40
1.0
 40
1.0
 10
-19.5130030278
 20
15.0861352441
 30
0.0
 10
-19.498678222
 20
15.0936593988
 30
0.0
 10
-19.45815287
 20
15.1034344924
 30
0.0
 10
-19.418637095
 20
15.0913811028
 30
0.0
 10
-19.3974386704
 20
15.0811532259
 30
0.0
 11
-19.5130030278
 21
15.0861352441
 31
0.0
 11
-19.4660107631
 21
15.0979969827
 31
0.0
 11
-19.3974386704
 21
15.0811532259
 31
0.0
  0
SPLINE
  5
270
100
AcDbEntity
  8
DRAFT
100
AcDbSpline
 62
7
  6
CONTINUOUS
 70
0
 71
3
 72
9
 73
5
 74
3
 42
0.0000001
 43
0.0000001
 44
0.0000000001
 12
-0.2125403382
 22
-0.1001772164
 32
0.0
 13
-0.1460926054
 23
-0.1838715999
 33
0.0
 40
0.0
 40
0.0
 40
0.0
 40
0.0
 40
0.3886269166
 40
1.0
 40
1.0
 40
1.0
 40
1.0
 10
-2.4967052668
 20
3.9878899335
 30
0.0
 10
-2.5242382322
 20
3.974912746
 30
0.0
 10
-2.5919970896
 20
3.9350863172
 30
0.0
 10
-2.6481605168
 20
3.8798166321
 30
0.0
 10
-2.677932879
 20
3.8423452497
 30
0.0
 11
-2.4967052668
 21
3.9878899335
 31
0.0
 11
-2.5751527958
 21
3.9416250929
 31
0.0
 11
-2.677932879
 21
3.8423452497
 31
0.0
  0
LINE
  5
271
100
AcDbEntity
  8
RACCORDO
100
AcDbLine
 62
253
  6
CONTINUOUS
 10
-19.3387733495
 20
0.7684136471
 11
-19.3417109273
 21
0.8593821109
  0
SPLINE
  5
272
100
AcDbEntity
  8
DRAFT
100
AcDbSpline
 62
7
  6
CONTINUOUS
 70
0
 71
3
 72
9
 73
5
 74
3
 42
0.0000001
 43
0.0000001
 44
0.0000000001
 12
0.0841981654
 22
-0.0155320525
 32
0.0
 13
0.0855789643
 23
-0.004836101
 33
0.0
 40
0.0
 40
0.0
 40
0.0
 40
0.0
 40
0.0946475083
 40
1.0
 40
1.0
 40
1.0
 40
1.0
 10
-1.6710338103
 20
1.5987586672
 30
0.0
 10
-1.6683774281
 20
1.5982686439
 30
0.0
 10
-1.6402774535
 20
1.5932471345
 30
0.0
 10
-1.6118261462
 20
1.5898947611
 30
0.0
 10
-1.58599977
 20
1.5884353024
 30
0.0
 11
-1.6710338103
 21
1.5987586672
 31
0.0
 11
-1.6630550956
 21
1.5973330495
 31
0.0
 11
-1.58599977
 21
1.5884353024
 31
0.0
  0
SPLINE
  5
273
100
AcDbEntity
  8
DRAFT
100
AcDbSpline
 62
7
  6
CONTINUOUS
 70
0
 71
3
 72
9
 73
5
 74
3
 42
0.0000001
 43
0.0000001
 44
0.0000000001
 12
0.286776432
 22
-0.0162058492
 32
0.0
 13
0.2545538317
 23
0.1336106244
 33
0.0
 40
0.0
 40
0.0
 40
0.0
 40
0.0
 40
0.5120959347
 40
1.0
 40
1.0
 40
1.0
 40
1.0
 10
-1.58599977
 20
1.5884353024
 30
0.0
 10
-1.5370474217
 20
1.5856689859
 30
0.0
 10
-1.4409788144
 20
1.5913210631
 30
0.0
 10
-1.3496941696
 20
1.6239469983
 30
0.0
 10
-1.3082948864
 20
1.6456767206
 30
0.0
 11
-1.58599977
 21
1.5884353024
 31
0.0
 11
-1.4399092922
 21
1.5985314825
 31
0.0
 11
-1.3082948864
 21
1.6456767206
 31
0.0
  0
SPLINE
  5
274
100
AcDbEntity
  8
RACCORDO
100
AcDbSpline
 62
253
  6
CONTINUOUS
 70
0
 71
3
 72
12
 73
8
 74
6
 42
0.0000001
 43
0.0000001
 44
0.0000000001
 12
-0.0053497267
 22
0.3664563861
 32
0.0
 13
-0.3254083925
 23
0.1686068818
 33
0.0
 40
0.0
 40
0.0
 40
0.0
 40
0.0
 40
0.1955839747
 40
0.4065111841
 40
0.6196376798
 40
0.8218553915
 40
1.0
 40
1.0
 40
1.0
 40
1.0
 10
15.3562680024
 20
-2.5121734865
 30
0.0
 10
15.3559192288
 20
-2.4882824877
 30
0.0
 10
15.3486825472
 20
-2.4386480302
 30
0.0
 10
15.3230956614
 20
-2.3669868869
 30
0.0
 10
15.2845176608
 20
-2.3003868616
 30
0.0
 10
15.2367569966
 20
-2.2452665376
 30
0.0
 10
15.1988414813
 20
-2.2173373605
 30
0.0
 10
15.1795182311
 20
-2.2073252249
 30
0.0
 11
15.3562680024
 21
-2.5121734865
 31
0.0
 11
15.3467451253
 21
-2.4411282331
 31
0.0
 11
15.3210560201
 21
-2.368217627
 31
0.0
 11
15.2817814847
 21
-2.3006997377
 31
0.0
 11
15.2327546906
 21
-2.2451214828
 31
0.0
 11
15.1795182311
 21
-2.2073252249
 31
0.0
  0
SPLINE
  5
275
100
AcDbEntity
  8
RACCORDO
100
AcDbSpline
 62
253
  6
CONTINUOUS
 70
0
 71
3
 72
11
 73
7
 74
5
 42
0.0000001
 43
0.0000001
 44
0.0000000001
 12
-0.0003852387
 22
0.3639158128
 32
0.0
 13
0.3226902033
 23
0.1682435732
 33
0.0
 40
0.0
 40
0.0
 40
0.0
 40
0.0
 40
0.24723321
 40
0.513083496
 40
0.7728623516
 40
1.0
 40
1.0
 40
1.0
 40
1.0
 10
-19.5711300386
 20
14.7775536127
 30
0.0
 10
-19.5711617865
 20
14.8075443043
 30
0.0
 10
-19.5609208051
 20
14.8699021382
 30
0.0
 10
-19.5236347918
 20
14.9567713273
 30
0.0
 10
-19.4689721509
 20
15.0309120229
 30
0.0
 10
-19.4218703684
 20
15.068415076
 30
0.0
 10
-19.3974386704
 20
15.0811532259
 30
0.0
 11
-19.5711300386
 21
14.7775536127
 31
0.0
 11
-19.5579228438
 21
14.866551103
 31
0.0
 11
-19.5200648652
 21
14.9555836237
 31
0.0
 11
-19.4632590476
 21
15.0311512968
 31
0.0
 11
-19.3974386704
 21
15.0811532259
 31
0.0
  0
SPLINE
  5
276
100
AcDbEntity
  8
RACCORDO
100
AcDbSpline
 62
253
  6
CONTINUOUS
 70
0
 71
3
 72
11
 73
7
 74
5
 42
0.0000001
 43
0.0000001
 44
0.0000000001
 12
-0.0003852361
 22
0.3639133035
 32
0.0
 13
0.3226879782
 23
0.1682424131
 33
0.0
 40
0.0
 40
0.0
 40
0.0
 40
0.0
 40
0.2461494134
 40
0.510593734
 40
0.7692500461
 40
1.0
 40
1.0
 40
1.0
 40
1.0
 10
15.0058268629
 20
-2.510924838
 30
0.0
 10
15.0057952544
 20
-2.4810658227
 30
0.0
 10
15.0159429998
 20
-2.4190115817
 30
0.0
 10
15.0529157699
 20
-2.3324934252
 30
0.0
 10
15.1074364471
 20
-2.2581140312
 30
0.0
 10
15.1546981524
 20
-2.2202658679
 30
0.0
 10
15.1795182311
 20
-2.2073252249
 30
0.0
 11
15.0058268629
 21
-2.510924838
 31
0.0
 11
15.0189244425
 21
-2.4223104509
 31
0.0
 11
15.0564371001
 21
-2.3336879434
 31
0.0
 11
15.112769282
 21
-2.2582766403
 31
0.0
 11
15.1795182311
 21
-2.2073252249
 31
0.0
  0
SPLINE
  5
277
100
AcDbEntity
  8
RACCORDO
100
AcDbSpline
 62
253
  6
CONTINUOUS
 70
0
 71
3
 72
10
 73
6
 74
4
 42
0.0000001
 43
0.0000001
 44
0.0000000001
 12
-0.1066900285
 22
0.053347966
 32
0.0
 13
0.0004535062
 23
0.1185801457
 33
0.0
 40
0.0
 40
0.0
 40
0.0
 40
0.0
 40
0.5621967092
 40
0.9909786765
 40
1.0
 40
1.0
 40
1.0
 40
1.0
 10
-19.5711300386
 20
14.7775536127
 30
0.0
 10
-19.5911236329
 20
14.787550963
 30
0.0
 10
-19.6252148253
 20
14.8091854086
 30
0.0
 10
-19.6442502684
 20
14.8483421393
 30
0.0
 10
-19.6443515364
 20
14.8656453208
 30
0.0
 10
-19.6443501726
 20
14.8660019041
 30
0.0
 11
-19.5711300386
 21
14.7775536127
 31
0.0
 11
-19.6249035977
 21
14.8176238233
 31
0.0
 11
-19.6443438674
 21
14.8649322942
 31
0.0
 11
-19.6443501726
 21
14.8660019041
 31
0.0
  0
SPLINE
  5
278
100
AcDbEntity
  8
RACCORDO
100
AcDbSpline
 62
253
  6
CONTINUOUS
 70
0
 71
3
 72
10
 73
6
 74
4
 42
0.0000001
 43
0.0000001
 44
0.0000000001
 12
-0.0264958836
 22
-0.1937282825
 32
0.0
 13
-0.1913177821
 23
-0.052459215
 33
0.0
 40
0.0
 40
0.0
 40
0.0
 40
0.0
 40
0.4306837962
 40
0.8010691458
 40
1.0
 40
1.0
 40
1.0
 40
1.0
 10
16.0422000164
 20
-16.915982745
 30
0.0
 10
16.0383962339
 20
-16.9437946224
 30
0.0
 10
16.0238800985
 20
-16.9951249821
 30
0.0
 10
15.9812144323
 20
-17.0478875296
 30
0.0
 10
15.9464736177
 20
-17.0637323371
 30
0.0
 10
15.9337872811
 20
-17.0672109226
 30
0.0
 11
16.0422000164
 21
-16.915982745
 31
0.0
 11
16.0171040749
 21
-16.9963687966
 31
0.0
 11
15.9694759766
 21
-17.0509263452
 31
0.0
 11
15.9337872811
 21
-17.0672109226
 31
0.0
  0
SPLINE
  5
279
100
AcDbEntity
  8
RACCORDO
100
AcDbSpline
 62
253
  6
CONTINUOUS
 70
0
 71
3
 72
11
 73
7
 74
5
 42
0.0000001
 43
0.0000001
 44
0.0000000001
 12
-0.3186059469
 22
-0.1690547765
 32
0.0
 13
-0.3227066243
 23
0.1610891104
 33
0.0
 40
0.0
 40
0.0
 40
0.0
 40
0.0
 40
0.2388448156
 40
0.503580789
 40
0.7663861237
 40
1.0
 40
1.0
 40
1.0
 40
1.0
 10
15.5967363477
 20
-16.5171969498
 30
0.0
 10
15.5713705548
 20
-16.5306562355
 30
0.0
 10
15.5133296425
 20
-16.5504811776
 30
0.0
 10
15.4212870145
 20
-16.561325644
 30
0.0
 10
15.3295131125
 20
-16.5542818618
 30
0.0
 10
15.2715764465
 20
-16.5367275139
 30
0.0
 10
15.2464468647
 20
-16.5241832968
 30
0.0
 11
15.5967363477
 21
-16.5171969498
 31
0.0
 11
15.5157651215
 21
-16.5466051611
 31
0.0
 11
15.420992397
 21
-16.558243658
 31
0.0
 11
15.326530862
 21
-16.5503793419
 31
0.0
 11
15.2464468647
 21
-16.5241832968
 31
0.0
  0
SPLINE
  5
27A
100
AcDbEntity
  8
RACCORDO
100
AcDbSpline
 62
253
  6
CONTINUOUS
 70
0
 71
3
 72
11
 73
7
 74
5
 42
0.0000001
 43
0.0000001
 44
0.0000000001
 12
-0.3239020885
 22
-0.1568996966
 32
0.0
 13
-0.3219104786
 23
0.1609463312
 33
0.0
 40
0.0
 40
0.0
 40
0.0
 40
0.0
 40
0.2366865896
 40
0.5013293948
 40
0.7652575904
 40
1.0
 40
1.0
 40
1.0
 40
1.0
 10
15.3562680024
 20
-2.5121734865
 30
0.0
 10
15.3307135755
 20
-2.5245521712
 30
0.0
 10
15.2724225178
 20
-2.5421753134
 30
0.0
 10
15.1804973169
 20
-2.5503999496
 30
0.0
 10
15.0888656171
 20
-2.5415685987
 30
0.0
 10
15.0310155434
 20
-2.5235184812
 30
0.0
 10
15.0058268629
 20
-2.510924838
 30
0.0
 11
15.3562680024
 21
-2.5121734865
 31
0.0
 11
15.2752428285
 21
-2.5384654304
 31
0.0
 11
15.1804218839
 21
-2.5474505815
 31
0.0
 11
15.0859258084
 21
-2.5377908797
 31
0.0
 11
15.0058268629
 21
-2.510924838
 31
0.0
  0
SPLINE
  5
27B
100
AcDbEntity
  8
RACCORDO
100
AcDbSpline
 62
253
  6
CONTINUOUS
 70
0
 71
3
 72
11
 73
7
 74
5
 42
0.0000001
 43
0.0000001
 44
0.0000000001
 12
0.0199946315
 22
-0.5969871297
 32
0.0
 13
0.5355973488
 23
-0.2715057779
 33
0.0
 40
0.0
 40
0.0
 40
0.0
 40
0.0
 40
0.3060317019
 40
0.580122921
 40
0.8278011484
 40
1.0
 40
1.0
 40
1.0
 40
1.0
 10
15.2464343156
 20
-16.5241901854
 30
0.0
 10
15.2484739793
 20
-16.5850891812
 30
0.0
 10
15.2628205034
 20
-16.7006975933
 30
0.0
 10
15.3213144425
 20
-16.8567686145
 30
0.0
 10
15.4070776723
 20
-16.9683186438
 30
0.0
 10
15.477074764
 20
-17.0163517863
 30
0.0
 10
15.5078178468
 20
-17.031936114
 30
0.0
 11
15.2464343156
 21
-16.5241901854
 31
0.0
 11
15.2710256348
 21
-16.7053279735
 31
0.0
 11
15.3308007023
 21
-16.857746484
 31
0.0
 11
15.4227062724
 21
-16.9736804375
 31
0.0
 11
15.5078178468
 21
-17.031936114
 31
0.0
  0
SPLINE
  5
27C
100
AcDbEntity
  8
RACCORDO
100
AcDbSpline
 62
253
  6
CONTINUOUS
 70
0
 71
3
 72
11
 73
7
 74
5
 42
0.0000001
 43
0.0000001
 44
0.0000000001
 12
-0.5102888932
 22
0.2801487103
 32
0.0
 13
-0.0188789663
 23
0.5784714166
 33
0.0
 40
0.0
 40
0.0
 40
0.0
 40
0.0
 40
0.1527284925
 40
0.4041914949
 40
0.6848539677
 40
1.0
 40
1.0
 40
1.0
 40
1.0
 10
-19.0948281585
 20
0.2696894292
 30
0.0
 10
-19.1208067096
 20
0.2839516593
 30
0.0
 10
-19.1851258142
 20
0.3299498478
 30
0.0
 10
-19.2661354147
 20
0.4374099078
 30
0.0
 10
-19.3229055269
 20
0.5925952392
 30
0.0
 10
-19.3367901391
 20
0.7076459899
 30
0.0
 10
-19.3387733495
 20
0.7684136471
 30
0.0
 11
-19.0948281585
 21
0.2696894292
 31
0.0
 11
-19.1670571121
 21
0.3212012547
 31
0.0
 11
-19.2565872992
 21
0.4359475167
 31
0.0
 11
-19.314817512
 21
0.5875935999
 31
0.0
 11
-19.3387733495
 21
0.7684136471
 31
0.0
  0
SPLINE
  5
27D
100
AcDbEntity
  8
ASSI
100
AcDbSpline
 62
7
  6
CONTINUOUS
 70
0
 71
3
 72
17
 73
13
 74
11
 42
0.0000001
 43
0.0000001
 44
0.0000000001
 12
2.4459831326
 22
1.2838515585
 32
0.0
 13
-2.4516470572
 23
1.2258235286
 33
0.0
 40
0.0
 40
0.0
 40
0.0
 40
0.0
 40
0.0252960356
 40
0.1044689495
 40
0.1936208561
 40
0.2953999763
 40
0.4088600251
 40
0.5305328986
 40
0.6555712688
 40
0.7786495306
 40
0.8947903949
 40
1.0
 40
1.0
 40
1.0
 40
1.0
 10
-1.3082948864
 20
1.6456767206
 30
0.0
 10
-1.2876703277
 20
1.6565021721
 30
0.0
 10
-1.205711196
 20
1.7071663199
 30
0.0
 10
-1.0862526231
 20
1.8442762031
 30
0.0
 10
-0.998435811
 20
2.0790787616
 30
0.0
 10
-0.9730648616
 20
2.3585515398
 30
0.0
 10
-1.0095347546
 20
2.6660570197
 30
0.0
 10
-1.1049419427
 20
2.9825671048
 30
0.0
 10
-1.2529955785
 20
3.2877936496
 30
0.0
 10
-1.4441772929
 20
3.5620426919
 30
0.0
 10
-1.6659602985
 20
3.7874444415
 30
0.0
 10
-1.8350404384
 20
3.9021133532
 30
0.0
 10
-1.9210193779
 20
3.945102823
 30
0.0
 11
-1.3082948864
 21
1.6456767206
 31
0.0
 11
-1.2490056072
 21
1.6824046691
 31
0.0
 11
-1.1032777328
 21
1.8432115729
 31
0.0
 11
-1.0126056848
 21
2.0701346757
 31
0.0
 11
-0.9832596264
 21
2.3475659993
 31
0.0
 11
-1.0172218978
 21
2.6567028205
 31
0.0
 11
-1.1121800576
 21
2.9764070144
 31
0.0
 11
-1.2616242506
 21
3.2848426231
 31
0.0
 11
-1.4553578837
 21
3.5610299276
 31
0.0
 11
-1.680308134
 21
3.7862873639
 31
0.0
 11
-1.9210193779
 21
3.945102823
 31
0.0
  0
SPLINE
  5
27E
100
AcDbEntity
  8
ASSI
100
AcDbSpline
 62
7
  6
CONTINUOUS
 70
0
 71
3
 72
10
 73
6
 74
4
 42
0.0000001
 43
0.0000001
 44
0.0000000001
 12
-0.5318836887
 22
0.2659418443
 32
0.0
 13
-0.5423349644
 23
-0.2556202157
 33
0.0
 40
0.0
 40
0.0
 40
0.0
 40
0.0
 40
0.4264225282
 40
0.8016701045
 40
1.0
 40
1.0
 40
1.0
 40
1.0
 10
-1.9210193779
 20
3.945102823
 30
0.0
 10
-1.9966217737
 20
3.9829040209
 30
0.0
 10
-2.1483122121
 20
4.0379868428
 30
0.0
 10
-2.3512758813
 20
4.0413990447
 30
0.0
 10
-2.4608515212
 20
4.0047889771
 30
0.0
 10
-2.4967052668
 20
3.9878899335
 30
0.0
 11
-1.9210193779
 21
3.945102823
 31
0.0
 11
-2.1611132448
 21
4.0266921013
 31
0.0
 11
-2.3842562777
 21
4.0254956508
 31
0.0
 11
-2.4967052668
 21
3.9878899335
 31
0.0
  0
SPLINE
  5
27F
100
AcDbEntity
  8
ASSI
100
AcDbSpline
 62
7
  6
CONTINUOUS
 70
0
 71
3
 72
23
 73
19
 74
17
 42
0.0000001
 43
0.0000001
 44
0.0000000001
 12
-5.4898497957
 22
2.7449248978
 32
0.0
 13
5.4898497957
 23
-2.7449248978
 33
0.0
 40
0.0
 40
0.0
 40
0.0
 40
0.0
 40
0.0633759472
 40
0.1323373498
 40
0.2055221246
 40
0.2812546768
 40
0.3577364998
 40
0.4332149166
 40
0.5060612433
 40
0.5746856975
 40
0.6379184498
 40
0.6952520823
 40
0.7470994914
 40
0.7950782834
 40
0.841759
 40
0.8900718639
 40
0.9424049049
 40
1.0
 40
1.0
 40
1.0
 40
1.0
 10
-2.2422273591
 20
0.5748987912
 30
0.0
 10
-2.3582021693
 20
0.6328861964
 30
0.0
 10
-2.5888038607
 20
0.7777865904
 30
0.0
 10
-2.9068267807
 20
1.0549051076
 30
0.0
 10
-3.2010385162
 20
1.3914858558
 30
0.0
 10
-3.4598857555
 20
1.774482628
 30
0.0
 10
-3.6737374561
 20
2.1895695653
 30
0.0
 10
-3.8346982265
 20
2.6216379144
 30
0.0
 10
-3.9366324928
 20
3.0549517752
 30
0.0
 10
-3.9753842541
 20
3.4735054863
 30
0.0
 10
-3.9490463222
 20
3.861643522
 30
0.0
 10
-3.8578212883
 20
4.205114344
 30
0.0
 10
-3.7033524284
 20
4.4912532152
 30
0.0
 10
-3.4888083892
 20
4.7073924688
 30
0.0
 10
-3.2223541794
 20
4.8404883351
 30
0.0
 10
-2.9191310008
 20
4.8829028469
 30
0.0
 10
-2.5953077841
 20
4.8360679705
 30
0.0
 10
-2.3842462112
 20
4.7531141283
 30
0.0
 10
-2.2788500708
 20
4.7004160581
 30
0.0
 11
-2.2422273591
 21
0.5748987912
 31
0.0
 11
-2.5731484677
 21
0.77936268
 31
0.0
 11
-2.8936992302
 21
1.0557827528
 31
0.0
 11
-3.1903346827
 21
1.3931027206
 31
0.0
 11
-3.4511432922
 21
1.7778749783
 31
0.0
 11
-3.6660875657
 21
2.1952074429
 31
0.0
 11
-3.8271286882
 21
2.629590771
 31
0.0
 11
-3.9280928209
 21
3.0651612524
 31
0.0
 11
-3.9646717477
 21
3.4847757566
 31
0.0
 11
-3.935294986
 21
3.8717748076
 31
0.0
 11
-3.8412566449
 21
4.2108819123
 31
0.0
 11
-3.6865835766
 21
4.4889956155
 31
0.0
 11
-3.4771976342
 21
4.6960694697
 31
0.0
 11
-3.2209344244
 21
4.8242183547
 31
0.0
 11
-2.9276783339
 21
4.8682047073
 31
0.0
 11
-2.6092250578
 21
4.8261986684
 31
0.0
 11
-2.2788500708
 21
4.7004160581
 31
0.0
  0
SPLINE
  5
280
100
AcDbEntity
  8
ASSI
100
AcDbSpline
 62
253
  6
CONTINUOUS
 70
0
 71
3
 72
11
 73
7
 74
5
 42
0.0000001
 43
0.0000001
 44
0.0000000001
 12
-0.5102888932
 22
0.2801487103
 32
0.0
 13
-0.0188789663
 23
0.5784714166
 33
0.0
 40
0.0
 40
0.0
 40
0.0
 40
0.0
 40
0.1527284925
 40
0.4041914949
 40
0.6848539677
 40
1.0
 40
1.0
 40
1.0
 40
1.0
 10
-19.0948281585
 20
0.2696894292
 30
0.0
 10
-19.1208067096
 20
0.2839516593
 30
0.0
 10
-19.1851258142
 20
0.3299498478
 30
0.0
 10
-19.2661354147
 20
0.4374099078
 30
0.0
 10
-19.3229055269
 20
0.5925952392
 30
0.0
 10
-19.3367901391
 20
0.7076459899
 30
0.0
 10
-19.3387733495
 20
0.7684136471
 30
0.0
 11
-19.0948281585
 21
0.2696894292
 31
0.0
 11
-19.1670571121
 21
0.3212012547
 31
0.0
 11
-19.2565872992
 21
0.4359475167
 31
0.0
 11
-19.314817512
 21
0.5875935999
 31
0.0
 11
-19.3387733495
 21
0.7684136471
 31
0.0
  0
SPLINE
  5
281
100
AcDbEntity
  8
ASSI
100
AcDbSpline
 62
253
  6
CONTINUOUS
 70
0
 71
3
 72
9
 73
5
 74
3
 42
0.0000001
 43
0.0000001
 44
0.0000000001
 12
0.0042467391
 22
-0.1188405267
 32
0.0
 13
0.1066391986
 23
-0.0534070687
 33
0.0
 40
0.0
 40
0.0
 40
0.0
 40
0.0
 40
0.434255131
 40
1.0
 40
1.0
 40
1.0
 40
1.0
 10
-19.41200239
 20
0.8572295955
 30
0.0
 10
-19.4113876672
 20
0.840027226
 30
0.0
 10
-19.3932192488
 20
0.8008134957
 30
0.0
 10
-19.3588835423
 20
0.778485239
 30
0.0
 10
-19.3387733492
 20
0.7684136473
 30
0.0
 11
-19.41200239
 21
0.8572295955
 31
0.0
 11
-19.3925594223
 21
0.8091539195
 31
0.0
 11
-19.3387733492
 21
0.7684136473
 31
0.0
  0
SPLINE
  5
282
100
AcDbEntity
  8
ASSI
100
AcDbSpline
 62
253
  6
CONTINUOUS
 70
0
 71
3
 72
13
 73
9
 74
7
 42
0.0000001
 43
0.0000001
 44
0.0000000001
 12
0.0236954385
 22
-0.7022854852
 32
0.0
 13
0.6783151378
 23
0.1834528559
 33
0.0
 40
0.0
 40
0.0
 40
0.0
 40
0.0
 40
0.1944363683
 40
0.3698341619
 40
0.5286102363
 40
0.6791816637
 40
0.8332005048
 40
1.0
 40
1.0
 40
1.0
 40
1.0
 10
15.596736348
 20
-16.51719695
 30
0.0
 10
15.5982720996
 20
-16.5627135631
 30
0.0
 10
15.6090414639
 20
-16.6494111242
 30
0.0
 10
15.6530468645
 20
-16.7666412385
 30
0.0
 10
15.7236398678
 20
-16.8582236428
 30
0.0
 10
15.8180849601
 20
-16.9166851527
 30
0.0
 10
15.9288975567
 20
-16.9370491862
 30
0.0
 10
16.0044858089
 20
-16.926182693
 30
0.0
 10
16.0422000164
 20
-16.915982745
 30
0.0
 11
15.596736348
 21
-16.51719695
 31
0.0
 11
15.6151289654
 21
-16.6525808376
 31
0.0
 11
15.6601735026
 21
-16.7673040221
 31
0.0
 11
15.7295772021
 21
-16.8546590376
 31
0.0
 11
15.8197085366
 21
-16.9100746738
 31
0.0
 11
15.9259326402
 21
-16.9307983012
 31
0.0
 11
16.0422000164
 21
-16.915982745
 31
0.0
  0
SPLINE
  5
283
100
AcDbEntity
  8
ASSI
100
AcDbSpline
 62
7
  6
CONTINUOUS
 70
0
 71
3
 72
9
 73
5
 74
3
 42
0.0000001
 43
0.0000001
 44
0.0000000001
 12
-0.2125403382
 22
-0.1001772164
 32
0.0
 13
-0.1460926054
 23
-0.1838715999
 33
0.0
 40
0.0
 40
0.0
 40
0.0
 40
0.0
 40
0.3886269166
 40
1.0
 40
1.0
 40
1.0
 40
1.0
 10
-2.4967052668
 20
3.9878899335
 30
0.0
 10
-2.5242382322
 20
3.974912746
 30
0.0
 10
-2.5919970896
 20
3.9350863172
 30
0.0
 10
-2.6481605168
 20
3.8798166321
 30
0.0
 10
-2.677932879
 20
3.8423452497
 30
0.0
 11
-2.4967052668
 21
3.9878899335
 31
0.0
 11
-2.5751527958
 21
3.9416250929
 31
0.0
 11
-2.677932879
 21
3.8423452497
 31
0.0
  0
SPLINE
  5
284
100
AcDbEntity
  8
ASSI
100
AcDbSpline
 62
253
  6
CONTINUOUS
 70
0
 71
3
 72
9
 73
5
 74
3
 42
0.0000001
 43
0.0000001
 44
0.0000000001
 12
0.1060851227
 22
0.0557215843
 32
0.0
 13
0.1068996515
 23
-0.0515772518
 33
0.0
 40
0.0
 40
0.0
 40
0.0
 40
0.0
 40
0.4050937236
 40
1.0
 40
1.0
 40
1.0
 40
1.0
 10
-19.5130030278
 20
15.0861352441
 30
0.0
 10
-19.498678222
 20
15.0936593988
 30
0.0
 10
-19.45815287
 20
15.1034344924
 30
0.0
 10
-19.418637095
 20
15.0913811028
 30
0.0
 10
-19.3974386704
 20
15.0811532259
 30
0.0
 11
-19.5130030278
 21
15.0861352441
 31
0.0
 11
-19.4660107631
 21
15.0979969827
 31
0.0
 11
-19.3974386704
 21
15.0811532259
 31
0.0
  0
SPLINE
  5
285
100
AcDbEntity
  8
ASSI
100
AcDbSpline
 62
7
  6
CONTINUOUS
 70
0
 71
3
 72
9
 73
5
 74
3
 42
0.0000001
 43
0.0000001
 44
0.0000000001
 12
0.0841981654
 22
-0.0155320525
 32
0.0
 13
0.0855789643
 23
-0.004836101
 33
0.0
 40
0.0
 40
0.0
 40
0.0
 40
0.0
 40
0.0946475083
 40
1.0
 40
1.0
 40
1.0
 40
1.0
 10
-1.6710338103
 20
1.5987586672
 30
0.0
 10
-1.6683774281
 20
1.5982686439
 30
0.0
 10
-1.6402774535
 20
1.5932471345
 30
0.0
 10
-1.6118261462
 20
1.5898947611
 30
0.0
 10
-1.58599977
 20
1.5884353024
 30
0.0
 11
-1.6710338103
 21
1.5987586672
 31
0.0
 11
-1.6630550956
 21
1.5973330495
 31
0.0
 11
-1.58599977
 21
1.5884353024
 31
0.0
  0
SPLINE
  5
286
100
AcDbEntity
  8
ASSI
100
AcDbSpline
 62
7
  6
CONTINUOUS
 70
0
 71
3
 72
9
 73
5
 74
3
 42
0.0000001
 43
0.0000001
 44
0.0000000001
 12
0.286776432
 22
-0.0162058492
 32
0.0
 13
0.2545538317
 23
0.1336106244
 33
0.0
 40
0.0
 40
0.0
 40
0.0
 40
0.0
 40
0.5120959347
 40
1.0
 40
1.0
 40
1.0
 40
1.0
 10
-1.58599977
 20
1.5884353024
 30
0.0
 10
-1.5370474217
 20
1.5856689859
 30
0.0
 10
-1.4409788144
 20
1.5913210631
 30
0.0
 10
-1.3496941696
 20
1.6239469983
 30
0.0
 10
-1.3082948864
 20
1.6456767206
 30
0.0
 11
-1.58599977
 21
1.5884353024
 31
0.0
 11
-1.4399092922
 21
1.5985314825
 31
0.0
 11
-1.3082948864
 21
1.6456767206
 31
0.0
  0
SPLINE
  5
287
100
AcDbEntity
  8
ASSI
100
AcDbSpline
 62
253
  6
CONTINUOUS
 70
0
 71
3
 72
12
 73
8
 74
6
 42
0.0000001
 43
0.0000001
 44
0.0000000001
 12
-0.0053497267
 22
0.3664563861
 32
0.0
 13
-0.3254083925
 23
0.1686068818
 33
0.0
 40
0.0
 40
0.0
 40
0.0
 40
0.0
 40
0.1955839747
 40
0.4065111841
 40
0.6196376798
 40
0.8218553915
 40
1.0
 40
1.0
 40
1.0
 40
1.0
 10
15.3562680024
 20
-2.5121734865
 30
0.0
 10
15.3559192288
 20
-2.4882824877
 30
0.0
 10
15.3486825472
 20
-2.4386480302
 30
0.0
 10
15.3230956614
 20
-2.3669868869
 30
0.0
 10
15.2845176608
 20
-2.3003868616
 30
0.0
 10
15.2367569966
 20
-2.2452665376
 30
0.0
 10
15.1988414813
 20
-2.2173373605
 30
0.0
 10
15.1795182311
 20
-2.2073252249
 30
0.0
 11
15.3562680024
 21
-2.5121734865
 31
0.0
 11
15.3467451253
 21
-2.4411282331
 31
0.0
 11
15.3210560201
 21
-2.368217627
 31
0.0
 11
15.2817814847
 21
-2.3006997377
 31
0.0
 11
15.2327546906
 21
-2.2451214828
 31
0.0
 11
15.1795182311
 21
-2.2073252249
 31
0.0
  0
SPLINE
  5
288
100
AcDbEntity
  8
ASSI
100
AcDbSpline
 62
253
  6
CONTINUOUS
 70
0
 71
3
 72
11
 73
7
 74
5
 42
0.0000001
 43
0.0000001
 44
0.0000000001
 12
-0.0003852387
 22
0.3639158128
 32
0.0
 13
0.3226902033
 23
0.1682435732
 33
0.0
 40
0.0
 40
0.0
 40
0.0
 40
0.0
 40
0.24723321
 40
0.513083496
 40
0.7728623516
 40
1.0
 40
1.0
 40
1.0
 40
1.0
 10
-19.5711300386
 20
14.7775536127
 30
0.0
 10
-19.5711617865
 20
14.8075443043
 30
0.0
 10
-19.5609208051
 20
14.8699021382
 30
0.0
 10
-19.5236347918
 20
14.9567713273
 30
0.0
 10
-19.4689721509
 20
15.0309120229
 30
0.0
 10
-19.4218703684
 20
15.068415076
 30
0.0
 10
-19.3974386704
 20
15.0811532259
 30
0.0
 11
-19.5711300386
 21
14.7775536127
 31
0.0
 11
-19.5579228438
 21
14.866551103
 31
0.0
 11
-19.5200648652
 21
14.9555836237
 31
0.0
 11
-19.4632590476
 21
15.0311512968
 31
0.0
 11
-19.3974386704
 21
15.0811532259
 31
0.0
  0
SPLINE
  5
289
100
AcDbEntity
  8
ASSI
100
AcDbSpline
 62
253
  6
CONTINUOUS
 70
0
 71
3
 72
11
 73
7
 74
5
 42
0.0000001
 43
0.0000001
 44
0.0000000001
 12
-0.0003852361
 22
0.3639133035
 32
0.0
 13
0.3226879782
 23
0.1682424131
 33
0.0
 40
0.0
 40
0.0
 40
0.0
 40
0.0
 40
0.2461494134
 40
0.510593734
 40
0.7692500461
 40
1.0
 40
1.0
 40
1.0
 40
1.0
 10
15.0058268629
 20
-2.510924838
 30
0.0
 10
15.0057952544
 20
-2.4810658227
 30
0.0
 10
15.0159429998
 20
-2.4190115817
 30
0.0
 10
15.0529157699
 20
-2.3324934252
 30
0.0
 10
15.1074364471
 20
-2.2581140312
 30
0.0
 10
15.1546981524
 20
-2.2202658679
 30
0.0
 10
15.1795182311
 20
-2.2073252249
 30
0.0
 11
15.0058268629
 21
-2.510924838
 31
0.0
 11
15.0189244425
 21
-2.4223104509
 31
0.0
 11
15.0564371001
 21
-2.3336879434
 31
0.0
 11
15.112769282
 21
-2.2582766403
 31
0.0
 11
15.1795182311
 21
-2.2073252249
 31
0.0
  0
SPLINE
  5
28A
100
AcDbEntity
  8
ASSI
100
AcDbSpline
 62
253
  6
CONTINUOUS
 70
0
 71
3
 72
10
 73
6
 74
4
 42
0.0000001
 43
0.0000001
 44
0.0000000001
 12
-0.1066900285
 22
0.053347966
 32
0.0
 13
0.0004535062
 23
0.1185801457
 33
0.0
 40
0.0
 40
0.0
 40
0.0
 40
0.0
 40
0.5621967092
 40
0.9909786765
 40
1.0
 40
1.0
 40
1.0
 40
1.0
 10
-19.5711300386
 20
14.7775536127
 30
0.0
 10
-19.5911236329
 20
14.787550963
 30
0.0
 10
-19.6252148253
 20
14.8091854086
 30
0.0
 10
-19.6442502684
 20
14.8483421393
 30
0.0
 10
-19.6443515364
 20
14.8656453208
 30
0.0
 10
-19.6443501726
 20
14.8660019041
 30
0.0
 11
-19.5711300386
 21
14.7775536127
 31
0.0
 11
-19.6249035977
 21
14.8176238233
 31
0.0
 11
-19.6443438674
 21
14.8649322942
 31
0.0
 11
-19.6443501726
 21
14.8660019041
 31
0.0
  0
SPLINE
  5
28B
100
AcDbEntity
  8
ASSI
100
AcDbSpline
 62
253
  6
CONTINUOUS
 70
0
 71
3
 72
10
 73
6
 74
4
 42
0.0000001
 43
0.0000001
 44
0.0000000001
 12
-0.0264958836
 22
-0.1937282825
 32
0.0
 13
-0.1913177821
 23
-0.052459215
 33
0.0
 40
0.0
 40
0.0
 40
0.0
 40
0.0
 40
0.4306837962
 40
0.8010691458
 40
1.0
 40
1.0
 40
1.0
 40
1.0
 10
16.0422000164
 20
-16.915982745
 30
0.0
 10
16.0383962339
 20
-16.9437946224
 30
0.0
 10
16.0238800985
 20
-16.9951249821
 30
0.0
 10
15.9812144323
 20
-17.0478875296
 30
0.0
 10
15.9464736177
 20
-17.0637323371
 30
0.0
 10
15.9337872811
 20
-17.0672109226
 30
0.0
 11
16.0422000164
 21
-16.915982745
 31
0.0
 11
16.0171040749
 21
-16.9963687966
 31
0.0
 11
15.9694759766
 21
-17.0509263452
 31
0.0
 11
15.9337872811
 21
-17.0672109226
 31
0.0
  0
SPLINE
  5
28C
100
AcDbEntity
  8
ASSI
100
AcDbSpline
 62
253
  6
CONTINUOUS
 70
0
 71
3
 72
11
 73
7
 74
5
 42
0.0000001
 43
0.0000001
 44
0.0000000001
 12
-0.3186059469
 22
-0.1690547765
 32
0.0
 13
-0.3227066243
 23
0.1610891104
 33
0.0
 40
0.0
 40
0.0
 40
0.0
 40
0.0
 40
0.2388448156
 40
0.503580789
 40
0.7663861237
 40
1.0
 40
1.0
 40
1.0
 40
1.0
 10
15.5967363477
 20
-16.5171969498
 30
0.0
 10
15.5713705548
 20
-16.5306562355
 30
0.0
 10
15.5133296425
 20
-16.5504811776
 30
0.0
 10
15.4212870145
 20
-16.561325644
 30
0.0
 10
15.3295131125
 20
-16.5542818618
 30
0.0
 10
15.2715764465
 20
-16.5367275139
 30
0.0
 10
15.2464468647
 20
-16.5241832968
 30
0.0
 11
15.5967363477
 21
-16.5171969498
 31
0.0
 11
15.5157651215
 21
-16.5466051611
 31
0.0
 11
15.420992397
 21
-16.558243658
 31
0.0
 11
15.326530862
 21
-16.5503793419
 31
0.0
 11
15.2464468647
 21
-16.5241832968
 31
0.0
  0
SPLINE
  5
28D
100
AcDbEntity
  8
ASSI
100
AcDbSpline
 62
253
  6
CONTINUOUS
 70
0
 71
3
 72
11
 73
7
 74
5
 42
0.0000001
 43
0.0000001
 44
0.0000000001
 12
-0.3239020885
 22
-0.1568996966
 32
0.0
 13
-0.3219104786
 23
0.1609463312
 33
0.0
 40
0.0
 40
0.0
 40
0.0
 40
0.0
 40
0.2366865896
 40
0.5013293948
 40
0.7652575904
 40
1.0
 40
1.0
 40
1.0
 40
1.0
 10
15.3562680024
 20
-2.5121734865
 30
0.0
 10
15.3307135755
 20
-2.5245521712
 30
0.0
 10
15.2724225178
 20
-2.5421753134
 30
0.0
 10
15.1804973169
 20
-2.5503999496
 30
0.0
 10
15.0888656171
 20
-2.5415685987
 30
0.0
 10
15.0310155434
 20
-2.5235184812
 30
0.0
 10
15.0058268629
 20
-2.510924838
 30
0.0
 11
15.3562680024
 21
-2.5121734865
 31
0.0
 11
15.2752428285
 21
-2.5384654304
 31
0.0
 11
15.1804218839
 21
-2.5474505815
 31
0.0
 11
15.0859258084
 21
-2.5377908797
 31
0.0
 11
15.0058268629
 21
-2.510924838
 31
0.0
  0
SPLINE
  5
28E
100
AcDbEntity
  8
ASSI
100
AcDbSpline
 62
253
  6
CONTINUOUS
 70
0
 71
3
 72
11
 73
7
 74
5
 42
0.0000001
 43
0.0000001
 44
0.0000000001
 12
0.0199946315
 22
-0.5969871297
 32
0.0
 13
0.5355973488
 23
-0.2715057779
 33
0.0
 40
0.0
 40
0.0
 40
0.0
 40
0.0
 40
0.3060317019
 40
0.580122921
 40
0.8278011484
 40
1.0
 40
1.0
 40
1.0
 40
1.0
 10
15.2464343156
 20
-16.5241901854
 30
0.0
 10
15.2484739793
 20
-16.5850891812
 30
0.0
 10
15.2628205034
 20
-16.7006975933
 30
0.0
 10
15.3213144425
 20
-16.8567686145
 30
0.0
 10
15.4070776723
 20
-16.9683186438
 30
0.0
 10
15.477074764
 20
-17.0163517863
 30
0.0
 10
15.5078178468
 20
-17.031936114
 30
0.0
 11
15.2464343156
 21
-16.5241901854
 31
0.0
 11
15.2710256348
 21
-16.7053279735
 31
0.0
 11
15.3308007023
 21
-16.857746484
 31
0.0
 11
15.4227062724
 21
-16.9736804375
 31
0.0
 11
15.5078178468
 21
-17.031936114
 31
0.0
  0
LINE
  5
28F
100
AcDbEntity
  8
ASSI
100
AcDbLine
 62
253
  6
CONTINUOUS
 10
-19.3387733495
 20
0.7684136471
 11
-19.3417109273
 21
0.8593821109
  0
SPLINE
  5
290
100
AcDbEntity
  8
ASSI
100
AcDbSpline
 62
7
  6
CONTINUOUS
 70
0
 71
3
 72
23
 73
19
 74
17
 42
0.0000001
 43
0.0000001
 44
0.0000000001
 12
5.4809337654
 22
-2.7404668827
 32
0.0
 13
-5.4809337654
 23
2.7404668827
 33
0.0
 40
0.0
 40
0.0
 40
0.0
 40
0.0
 40
0.0634449407
 40
0.1324477445
 40
0.2056827505
 40
0.2814987184
 40
0.3581052134
 40
0.4337406299
 40
0.5067520141
 40
0.5755133631
 40
0.638814125
 40
0.6961125467
 40
0.7478089476
 40
0.7955473522
 40
0.841969734
 40
0.8900926282
 40
0.9423554061
 40
1.0
 40
1.0
 40
1.0
 40
1.0
 10
-2.2788500708
 20
4.7004160581
 30
0.0
 10
-2.1629375649
 20
4.6424598052
 30
0.0
 10
-1.932622505
 20
4.4974458748
 30
0.0
 10
-1.6155772812
 20
4.2197057368
 30
0.0
 10
-1.322898061
 20
3.8822533802
 30
0.0
 10
-1.0658957892
 20
3.4982765005
 30
0.0
 10
-0.8539118559
 20
3.0822518051
 30
0.0
 10
-0.6945542214
 20
2.6494315081
 30
0.0
 10
-0.5937077436
 20
2.2156692183
 30
0.0
 10
-0.5553473667
 20
1.7970410163
 30
0.0
 10
-0.5812978167
 20
1.4092031366
 30
0.0
 10
-0.6713994939
 20
1.0663207401
 30
0.0
 10
-0.8242157889
 20
0.7808958194
 30
0.0
 10
-1.0369732686
 20
0.5654960138
 30
0.0
 10
-1.3018147946
 20
0.4332680222
 30
0.0
 10
-1.6036130381
 20
0.3917764247
 30
0.0
 10
-1.9263428468
 20
0.4392466652
 30
0.0
 10
-2.1369119587
 20
0.5222410911
 30
0.0
 10
-2.2422273591
 20
0.5748987912
 30
0.0
 11
-2.2788500708
 21
4.7004160581
 31
0.0
 11
-1.9482889505
 21
4.4957674029
 31
0.0
 11
-1.6287689115
 21
4.2188183042
 31
0.0
 11
-1.3336788199
 21
3.8807051693
 31
0.0
 11
-1.0746923665
 21
3.4949976776
 31
0.0
 11
-0.8615690317
 21
3.0767306038
 31
0.0
 11
-0.7020729145
 21
2.6415542912
 31
0.0
 11
-0.6021440683
 21
2.2054524418
 31
0.0
 11
-0.5659294164
 21
1.785650971
 31
0.0
 11
-0.5949423617
 21
1.3988386513
 31
0.0
 11
-0.6879458955
 21
1.0602626686
 31
0.0
 11
-0.8410742668
 21
0.7829417916
 31
0.0
 11
-1.048639207
 21
0.5768025792
 31
0.0
 11
-1.3030799588
 21
0.4495890833
 31
0.0
 11
-1.5947903907
 21
0.4063960505
 31
0.0
 11
-1.9122126936
 21
0.4489312434
 31
0.0
 11
-2.2422273591
 21
0.5748987912
 31
0.0
  0
SPLINE
  5
291
100
AcDbEntity
  8
CURVE
100
AcDbSpline
 62
253
  6
CONTINUOUS
 70
0
 71
3
 72
15
 73
11
 74
9
 42
0.0000001
 43
0.0000001
 44
0.0000000001
 12
-0.0634768907
 22
2.5366330029
 32
0.0
 13
-0.0573633234
 23
2.5990992929
 33
0.0
 40
0.0
 40
0.0
 40
0.0
 40
0.0
 40
0.25
 40
0.375
 40
0.4375
 40
0.5
 40
0.5625
 40
0.625
 40
0.75
 40
1.0
 40
1.0
 40
1.0
 40
1.0
 10
-2.1289980515
 20
-5.0908640049
 30
0.0
 10
-2.1342877923
 20
-4.8794779214
 30
0.0
 10
-2.1422100779
 20
-4.5622728559
 30
0.0
 10
-2.1514958846
 20
-4.1926410699
 30
0.0
 10
-2.1567404311
 20
-3.9807932059
 30
0.0
 10
-2.1608464013
 20
-3.8236704694
 30
0.0
 10
-2.1642929444
 20
-3.6598099374
 30
0.0
 10
-2.1691184158
 20
-3.4436801101
 30
0.0
 10
-2.1774551404
 20
-3.0643509363
 30
0.0
 10
-2.1846378816
 20
-2.7395894648
 30
0.0
 10
-2.1894181585
 20
-2.522997857
 30
0.0
 11
-2.1289980515
 21
-5.0908640049
 31
0.0
 11
-2.1448672741
 21
-4.4567057542
 31
0.0
 11
-2.1528018855
 21
-4.1396266288
 31
0.0
 11
-2.1567691911
 21
-3.9810870662
 31
0.0
 11
-2.1607364968
 21
-3.8225475035
 31
0.0
 11
-2.1643217045
 21
-3.6601037977
 31
0.0
 11
-2.1679069122
 21
-3.4976600919
 31
0.0
 11
-2.1750773276
 21
-3.1727726803
 31
0.0
 11
-2.1894181585
 21
-2.522997857
 31
0.0
  0
SPLINE
  5
292
100
AcDbEntity
  8
CURVE
100
AcDbSpline
 62
253
  6
CONTINUOUS
 70
0
 71
3
 72
23
 73
19
 74
17
 42
0.0000001
 43
0.0000001
 44
0.0000000001
 12
0.1917556429
 22
-8.1497030749
 32
0.0
 13
-0.1915936828
 23
8.1428196962
 33
0.0
 40
0.0
 40
0.0
 40
0.0
 40
0.0
 40
0.0625
 40
0.125
 40
0.1875
 40
0.25
 40
0.3125
 40
0.375
 40
0.4375
 40
0.5
 40
0.5625
 40
0.625
 40
0.6875
 40
0.75
 40
0.8125
 40
0.875
 40
0.9375
 40
1.0
 40
1.0
 40
1.0
 40
1.0
 10
-0.0397617987
 20
-4.8685281165
 30
0.0
 10
-0.0357668895
 20
-5.0383135972
 30
0.0
 10
-0.0549408254
 20
-5.3570675152
 30
0.0
 10
-0.1641316443
 20
-5.7825192864
 30
0.0
 10
-0.3496792115
 20
-6.1298630205
 30
0.0
 10
-0.6045400542
 20
-6.3882282453
 30
0.0
 10
-0.9190515904
 20
-6.5471552434
 30
0.0
 10
-1.2813151204
 20
-6.6008474727
 30
0.0
 10
-1.6776431223
 20
-6.5472411022
 30
0.0
 10
-2.0928471511
 20
-6.3884164229
 30
0.0
 10
-2.5109657375
 20
-6.1305010457
 30
0.0
 10
-2.9158563867
 20
-5.7834286084
 30
0.0
 10
-3.2918185568
 20
-5.3605649693
 30
0.0
 10
-3.6243502669
 20
-4.8780762312
 30
0.0
 10
-3.9005425449
 20
-4.3541546214
 30
0.0
 10
-4.1095463344
 20
-3.8095462682
 30
0.0
 10
-4.2432632428
 20
-3.2625583696
 30
0.0
 10
-4.2784109508
 20
-2.9168498499
 30
0.0
 10
-4.2824024858
 20
-2.7472077729
 30
0.0
 11
-0.0397617987
 21
-4.8685281165
 31
0.0
 11
-0.0683458112
 21
-5.3482876642
 31
0.0
 11
-0.176857769
 21
-5.7695012802
 31
0.0
 11
-0.3612314241
 21
-6.115033269
 31
0.0
 11
-0.6144818364
 21
-6.3716552075
 31
0.0
 11
-0.927010256
 21
-6.5296161153
 31
0.0
 11
-1.2869925324
 21
-6.5829643727
 31
0.0
 11
-1.6807891268
 21
-6.5297047174
 31
0.0
 11
-2.0933329107
 21
-6.3719013066
 31
0.0
 11
-2.5087610813
 21
-6.1156415357
 31
0.0
 11
-2.9110349735
 21
-5.7707967414
 31
0.0
 11
-3.2845801468
 21
-5.3506274528
 31
0.0
 11
-3.6149603616
 21
-4.8711707526
 31
0.0
 11
-3.8893444635
 21
-4.3507068308
 31
0.0
 11
-4.0969985209
 21
-3.8091496773
 31
0.0
 11
-4.2297640184
 21
-3.2672958895
 31
0.0
 11
-4.2824024858
 21
-2.7472077729
 31
0.0
  0
SPLINE
  5
293
100
AcDbEntity
  8
CURVE
100
AcDbSpline
 62
253
  6
CONTINUOUS
 70
0
 71
3
 72
23
 73
19
 74
17
 42
0.0000001
 43
0.0000001
 44
0.0000000001
 12
-0.1917238195
 22
8.1483505667
 32
0.0
 13
0.1915617125
 23
-8.1414609436
 33
0.0
 40
0.0
 40
0.0
 40
0.0
 40
0.0
 40
0.0625
 40
0.125
 40
0.1875
 40
0.25
 40
0.3125
 40
0.375
 40
0.4375
 40
0.5
 40
0.5625
 40
0.625
 40
0.6875
 40
0.75
 40
0.8125
 40
0.875
 40
0.9375
 40
1.0
 40
1.0
 40
1.0
 40
1.0
 10
-4.2824024858
 20
-2.7472077729
 30
0.0
 10
-4.2863967321
 20
-2.5774504694
 30
0.0
 10
-4.2668421484
 20
-2.2585450506
 30
0.0
 10
-4.1560166298
 20
-1.8323004952
 30
0.0
 10
-3.9680111266
 20
-1.4837033889
 30
0.0
 10
-3.7102202405
 20
-1.2238225558
 30
0.0
 10
-3.3927399364
 20
-1.0633758443
 30
0.0
 10
-3.027930662
 20
-1.0084176939
 30
0.0
 10
-2.6299180157
 20
-1.0611936168
 30
0.0
 10
-2.214128524
 20
-1.219726172
 30
0.0
 10
-1.7965975922
 20
-1.4779338319
 30
0.0
 10
-1.393362242
 20
-1.8258506115
 30
0.0
 10
-1.0198469489
 20
-2.2500270596
 30
0.0
 10
-0.690230738
 20
-2.7340608152
 30
0.0
 10
-0.4169921469
 20
-3.2594872633
 30
0.0
 10
-0.2105194971
 20
-3.8053145655
 30
0.0
 10
-0.07850353
 20
-4.3530630492
 30
0.0
 10
-0.0437526677
 20
-4.6989143468
 30
0.0
 10
-0.0397617987
 20
-4.8685281165
 30
0.0
 11
-4.2824024858
 21
-2.7472077729
 31
0.0
 11
-4.2532598746
 21
-2.2672306461
 31
0.0
 11
-4.1431532991
 21
-1.8452417367
 31
0.0
 11
-3.9563802295
 21
-1.4984894344
 31
0.0
 11
-3.7002720042
 21
-1.2403949094
 31
0.0
 11
-3.3848517747
 21
-1.0809572711
 31
0.0
 11
-3.0223967667
 21
-1.0263733728
 31
0.0
 11
-2.6269552081
 21
-1.0788197222
 31
0.0
 11
-2.213838284
 21
-1.2363386894
 31
0.0
 11
-1.7989801891
 21
-1.4928853518
 31
0.0
 11
-1.3983155848
 21
-1.8385605563
 31
0.0
 11
-1.0271634626
 21
-2.2600032775
 31
0.0
 11
-0.699627008
 21
-2.7409595973
 31
0.0
 11
-0.4281198038
 21
-3.2628874057
 31
0.0
 11
-0.2229289442
 21
-3.8056347624
 31
0.0
 11
-0.0918184756
 21
-4.3482344597
 31
0.0
 11
-0.0397617987
 21
-4.8685281165
 31
0.0
  0
ELLIPSE
  5
294
100
AcDbEntity
  8
RACCORDO
100
AcDbEllipse
 62
7
  6
CONTINUOUS
 10
-15.6775801589
 20
16.8715069214
 30
0.0
 11
-0.1118504554
 21
0.2236675568
 31
0.0
 40
0.6121897086
 41
-0.6846338794
 42
0.01860359
  0
ELLIPSE
  5
295
100
AcDbEntity
  8
RACCORDO
100
AcDbEllipse
 62
7
  6
CONTINUOUS
 10
18.7630702417
 20
-16.1891061763
 30
0.0
 11
-0.0859020599
 21
0.2354039488
 31
0.0
 40
0.6613288813
 41
-3.0814589183
 42
-2.1814380601
  0
ELLIPSE
  5
296
100
AcDbEntity
  8
RACCORDO
100
AcDbEllipse
 62
7
  6
CONTINUOUS
 10
19.0314348654
 20
-0.4830005908
 30
0.0
 11
-0.1117903878
 21
0.2236141634
 31
0.0
 40
0.6125552124
 41
-2.255296188
 42
-0.6848044477
  0
ELLIPSE
  5
297
100
AcDbEntity
  8
RACCORDO
100
AcDbEllipse
 62
7
  6
CONTINUOUS
 10
18.2400405518
 20
-16.4361537915
 30
0.0
 11
-0.1118523001
 21
0.2236266191
 31
0.0
 40
0.6122950388
 41
2.456793014
 42
4.0274370417
  0
ELLIPSE
  5
298
100
AcDbEntity
  8
RACCORDO
100
AcDbEllipse
 62
7
  6
CONTINUOUS
 10
19.4240733015
 20
-1.073869667
 30
0.0
 11
0.1379861541
 21
0.2664038768
 31
0.0
 40
0.6229838795
 41
2.2644017489
 42
3.8177447832
  0
ELLIPSE
  5
299
100
AcDbEntity
  8
RACCORDO
100
AcDbEllipse
 62
7
  6
CONTINUOUS
 10
18.2400405518
 20
-16.184350989
 30
0.0
 11
-0.1098985543
 21
0.2275784384
 31
0.0
 40
0.6085747011
 41
-3.254853034
 42
-2.2415613143
  0
ELLIPSE
  5
29A
100
AcDbEntity
  8
ASSI
100
AcDbEllipse
 62
7
  6
CONTINUOUS
 10
-15.6775801589
 20
16.8715069214
 30
0.0
 11
-0.1118504554
 21
0.2236675568
 31
0.0
 40
0.6121897086
 41
-0.6846338794
 42
0.01860359
  0
ELLIPSE
  5
29B
100
AcDbEntity
  8
ASSI
100
AcDbEllipse
 62
7
  6
CONTINUOUS
 10
18.7630702417
 20
-16.1891061763
 30
0.0
 11
-0.0859020599
 21
0.2354039488
 31
0.0
 40
0.6613288813
 41
-3.0814589183
 42
-2.1814380601
  0
ELLIPSE
  5
29C
100
AcDbEntity
  8
ASSI
100
AcDbEllipse
 62
7
  6
CONTINUOUS
 10
19.0314348654
 20
-0.4830005908
 30
0.0
 11
-0.1117903878
 21
0.2236141634
 31
0.0
 40
0.6125552124
 41
-2.255296188
 42
-0.6848044477
  0
ELLIPSE
  5
29D
100
AcDbEntity
  8
ASSI
100
AcDbEllipse
 62
7
  6
CONTINUOUS
 10
18.2400405518
 20
-16.4361537915
 30
0.0
 11
-0.1118523001
 21
0.2236266191
 31
0.0
 40
0.6122950388
 41
2.456793014
 42
4.0274370417
  0
ELLIPSE
  5
29E
100
AcDbEntity
  8
ASSI
100
AcDbEllipse
 62
7
  6
CONTINUOUS
 10
19.4240733015
 20
-1.073869667
 30
0.0
 11
0.1379861541
 21
0.2664038768
 31
0.0
 40
0.6229838795
 41
2.2644017489
 42
3.8177447832
  0
ELLIPSE
  5
29F
100
AcDbEntity
  8
ASSI
100
AcDbEllipse
 62
7
  6
CONTINUOUS
 10
18.2400405518
 20
-16.184350989
 30
0.0
 11
-0.1098985543
 21
0.2275784384
 31
0.0
 40
0.6085747011
 41
-3.254853034
 42
-2.2415613143
  0
ENDSEC
  0
SECTION
  2
OBJECTS
  0
DICTIONARY
  5
C
100
AcDbDictionary
280
0
281
1
  3
ACAD_GROUP
350
D
  3
ACAD_MLINESTYLE
350
17
  3
ACAD_LAYOUT
350
1A
  3
ACAD_PLOTSETTINGS
350
19
  3
ACAD_PLOTSTYLENAME
350
E
  0
DICTIONARY
  5
D
102
{ACAD_REACTORS
330
C
102
}
100
AcDbDictionary
280
0
281
1
  0
ACDBDICTIONARYWDFLT
  5
E
102
{ACAD_REACTORS
330
C
102
}
100
AcDbDictionary
281
1
  3
Normal
350
F
100
AcDbDictionaryWithDefault
340
F
  0
DICTIONARY
  5
17
102
{ACAD_REACTORS
330
C
102
}
100
AcDbDictionary
280
0
281
1
  3
Standard
350
18
  0
DICTIONARY
  5
19
102
{ACAD_REACTORS
330
C
102
}
100
AcDbDictionary
281
1
  0
DICTIONARY
  5
1A
102
{ACAD_REACTORS
330
C
102
}
100
AcDbDictionary
281
1
  3
Model
350
2A0
  3
Layout1
350
2A1
  0
ACDBPLACEHOLDER
  5
F
102
{ACAD_REACTORS
330
E
102
}
  0
MLINESTYLE
  5
18
102
{ACAD_REACTORS
330
17
102
}
100
AcDbMlineStyle
  2
STANDARD
 70
0
  3

 62
256
 51
90.0
 52
90.0
 71
2
 49
0.5
 62
256
  6
BYLAYER
 49
-0.5
 62
256
  6
BYLAYER
  0
LAYOUT
  5
2A0
102
{ACAD_REACTORS
330
1A
102
}
100
AcDbPlotSettings
  1

  2
none_device
  4
ISO_A4_(297.00_x_210.00_MM)
  6

 40
0.0
 41
0.0
 42
0.0
 43
0.0
 44
297.0
 45
210.0
 46
0.0
 47
0.0
 48
0.0
 49
0.0
140
0.0
141
0.0
142
1.0
143
1.0
 70
1024
 72
1
 73
0
 74
0
  7

 75
0
147
1.0
148
0.0
149
0.0
100
AcDbLayout
  1
Model
 70
0
 71
0
 10
0.0
 20
0.0
 11
297.0
 21
210.0
 12
0.0
 22
0.0
 32
0.0
 14
0.0
 24
0.0
 34
0.0
 15
0.0
 25
0.0
 35
0.0
146
0.0
 13
0.0
 23
0.0
 33
0.0
 16
1.0
 26
0.0
 36
0.0
 17
0.0
 27
1.0
 37
0.0
 76
0
330
210
345
0
346
0
  0
LAYOUT
  5
2A1
102
{ACAD_REACTORS
330
1A
102
}
100
AcDbPlotSettings
  1

  2
none_device
  4
ISO_A4_(297.00_x_210.00_MM)
  6

 40
0.0
 41
0.0
 42
0.0
 43
0.0
 44
297.0
 45
210.0
 46
0.0
 47
0.0
 48
0.0
 49
0.0
140
0.0
141
0.0
142
1.0
143
1.0
 70
0
 72
1
 73
0
 74
0
  7

 75
0
147
1.0
148
0.0
149
0.0
100
AcDbLayout
  1
Layout1
 70
0
 71
1
 10
0.0
 20
0.0
 11
297.0
 21
210.0
 12
0.0
 22
0.0
 32
0.0
 14
0.0
 24
0.0
 34
0.0
 15
0.0
 25
0.0
 35
0.0
146
0.0
 13
0.0
 23
0.0
 33
0.0
 16
1.0
 26
0.0
 36
0.0
 17
0.0
 27
1.0
 37
0.0
 76
0
330
211
345
0
346
0
  0
ENDSEC
  0
EOF
