  0
SECTION
  2
HEADER
  9
$ACADVER
  1
AC1015
  9
$DWGCODEPAGE
  3
ANSI_1252
  9
$EXTMAX
 10
297.0
 20
210.0
 30
0.0
  9
$EXTMIN
 10
0.0
 20
0.0
 30
0.0
  9
$LIMMIN
 10
0.0
 20
0.0
  9
$LIMMAX
 10
297.0
 20
210.0
  9
$VIEWCTR
 10
148.5
 20
105.0
  9
$VIEWSIZE
 40
210.0
  9
$CLAYER
  8
0
  9
$LTSCALE
 40
16.335
  9
$CELTYPE
  6
BYLAYER
  9
$DIMSCALE
 40
1.0
  9
$DIMASZ
 40
3.0
  9
$DIMEXO
 40
1.85625
  9
$DIMDLI
 40
11.286
  9
$DIMEXE
 40
5.346
  9
$DIMCEN
 40
2.673
  9
$DIMLFAC
 40
1.0
  9
$DIMBLK
  1
_FILLED
  9
$DIMTXT
 40
3.0
  9
$DIMTOL
 70
1
  9
$DIMLIM
 70
0
  9
$DIMTFAC
 40
1.0
  9
$DIMTP
 40
0.01
  9
$DIMTM
 40
0.01
  9
$PDMODE
 70
3
  9
$PDSIZE
 40
3.0
  9
$HANDSEED
  5
2A2
  9
$TILEMODE
 70
1
  9
$MEASUREMENT
 70
1
  9
$INSUNITS
 70
4
  0
ENDSEC
  0
SECTION
  2
CLASSES
  0
CLASS
  1
ACDBDICTIONARYWDFLT
  2
AcDbDictionaryWithDefault
  3
AutoCAD 2000
 90
0
280
0
281
0
  0
CLASS
  1
ACDBPLACEHOLDER
  2
AcDbPlaceHolder
  3
AutoCAD 2000
 90
0
280
0
281
0
  0
CLASS
  1
LAYOUT
  2
AcDbLayout
  3
AutoCAD 2000
 90
0
280
0
281
0
  0
ENDSEC
  0
SECTION
  2
TABLES
  0
TABLE
  2
VPORT
  5
8
100
AcDbSymbolTable
 70
2
  0
VPORT
  5
1F4
100
AcDbSymbolTableRecord
100
AcDbViewportTableRecord
  2
*ACTIVE
 70
0
 10
0.0
 20
0.0
 11
1.0
 21
1.0
 12
148.5
 22
105.0
 13
0.0
 23
0.0
 14
1.0
 24
1.0
 15
0.0
 25
0.0
 16
0.0
 26
0.0
 36
1.0
 17
0.0
 27
0.0
 37
0.0
 40
210.0
 41
1.4142857143
 42
50.0
 43
0.0
 44
0.0
 50
0.0
 51
0.0
 71
0
 72
100
 73
1
 74
1
 75
0
 76
0
 77
0
 78
0
  0
ENDTAB
  0
TABLE
  2
LTYPE
  5
5
100
AcDbSymbolTable
 70
6
  0
LTYPE
  5
14
100
AcDbSymbolTableRecord
100
AcDbLinetypeTableRecord
  2
BYBLOCK
 70
0
  3

 72
65
 73
0
 40
0.0
  0
LTYPE
  5
15
100
AcDbSymbolTableRecord
100
AcDbLinetypeTableRecord
  2
BYLAYER
 70
0
  3

 72
65
 73
0
 40
0.0
  0
LTYPE
  5
16
100
AcDbSymbolTableRecord
100
AcDbLinetypeTableRecord
  2
CONTINUOUS
 70
64
  3
Solid line
 72
65
 73
0
 40
0.0
  0
LTYPE
  5
1F5
100
AcDbSymbolTableRecord
100
AcDbLinetypeTableRecord
  2
CENTER
 70
64
  3
____ _ ____ _ ____ _ ____ _ ____ _ ____ _ ____
 72
65
 73
4
 40
0.6
 49
0.375
 74
0
 49
-0.075
 74
0
 49
0.075
 74
0
 49
-0.075
 74
0
  0
LTYPE
  5
1F6
100
AcDbSymbolTableRecord
100
AcDbLinetypeTableRecord
  2
HIDDEN
 70
64
  3
- - - - - - - - - - - - - - - - - - - -
 72
65
 73
2
 40
0.2
 49
0.1
 74
0
 49
-0.1
 74
0
  0
LTYPE
  5
1F7
100
AcDbSymbolTableRecord
100
AcDbLinetypeTableRecord
  2
PHANTOM
 70
64
  3
_____ _ _ _____ _ _ _____ _ _ _____
 72
65
 73
6
 40
0.8
 49
0.45
 74
0
 49
-0.05
 74
0
 49
0.1
 74
0
 49
-0.05
 74
0
 49
0.1
 74
0
 49
-0.05
 74
0
  0
LTYPE
  5
1F8
100
AcDbSymbolTableRecord
100
AcDbLinetypeTableRecord
  2
DOT
 70
64
  3
. . . . . . . . . . . . . . . . . . . .
 72
65
 73
2
 40
0.2
 49
0.1
 74
0
 49
-0.1
 74
0
  0
LTYPE
  5
1F9
100
AcDbSymbolTableRecord
100
AcDbLinetypeTableRecord
  2
DASHED
 70
64
  3
- - - - - - - - - - - - - - - - - - - -
 72
65
 73
2
 40
0.2
 49
0.1
 74
0
 49
-0.1
 74
0
  0
ENDTAB
  0
TABLE
  2
LAYER
  5
2
100
AcDbSymbolTable
 70
36
  0
LAYER
  5
10
100
AcDbSymbolTableRecord
100
AcDbLayerTableRecord
  2
0
 70
0
 62
7
  6
CONTINUOUS
370
-3
390
F
  0
LAYER
  5
1FA
100
AcDbSymbolTableRecord
100
AcDbLayerTableRecord
  2
DEFAULT_1
 70
0
 62
7
  6
CENTER
370
-3
390
F
  0
LAYER
  5
1FB
100
AcDbSymbolTableRecord
100
AcDbLayerTableRecord
  2
DEFAULT_2
 70
0
 62
7
  6
HIDDEN
370
-3
390
F
  0
LAYER
  5
1FC
100
AcDbSymbolTableRecord
100
AcDbLayerTableRecord
  2
DEFAULT_3
 70
0
 62
7
  6
PHANTOM
370
-3
390
F
  0
LAYER
  5
1FD
100
AcDbSymbolTableRecord
100
AcDbLayerTableRecord
  2
ASSI
 70
0
 62
7
  6
CONTINUOUS
370
-3
390
F
  0
LAYER
  5
1FE
100
AcDbSymbolTableRecord
100
AcDbLayerTableRecord
  2
COORDINATE
 70
0
 62
7
  6
CONTINUOUS
370
-3
390
F
  0
LAYER
  5
1FF
100
AcDbSymbolTableRecord
100
AcDbLayerTableRecord
  2
COORD_ORIGINE
 70
0
 62
7
  6
CONTINUOUS
370
-3
390
F
  0
LAYER
  5
200
100
AcDbSymbolTableRecord
100
AcDbLayerTableRecord
  2
COPY_PUBLISH
 70
0
 62
7
  6
CONTINUOUS
370
-3
390
F
  0
LAYER
  5
201
100
AcDbSymbolTableRecord
100
AcDbLayerTableRecord
  2
COSMETIC
 70
0
 62
7
  6
CONTINUOUS
370
-3
390
F
  0
LAYER
  5
202
100
AcDbSymbolTableRecord
100
AcDbLayerTableRecord
  2
CURVE
 70
0
 62
7
  6
CONTINUOUS
370
-3
390
F
  0
LAYER
  5
203
100
AcDbSymbolTableRecord
100
AcDbLayerTableRecord
  2
DRAFT
 70
0
 62
7
  6
CONTINUOUS
370
-3
390
F
  0
LAYER
  5
204
100
AcDbSymbolTableRecord
100
AcDbLayerTableRecord
  2
IGES
 70
0
 62
7
  6
CONTINUOUS
370
-3
390
F
  0
LAYER
  5
205
100
AcDbSymbolTableRecord
100
AcDbLayerTableRecord
  2
IMPORT_IGES
 70
0
 62
7
  6
CONTINUOUS
370
-3
390
F
  0
LAYER
  5
206
100
AcDbSymbolTableRecord
100
AcDbLayerTableRecord
  2
INTF_12
 70
0
 62
7
  6
CONTINUOUS
370
-3
390
F
  0
LAYER
  5
207
100
AcDbSymbolTableRecord
100
AcDbLayerTableRecord
  2
NOTE
 70
0
 62
7
  6
CONTINUOUS
370
-3
390
F
  0
LAYER
  5
208
100
AcDbSymbolTableRecord
100
AcDbLayerTableRecord
  2
PIANI
 70
0
 62
7
  6
CONTINUOUS
370
-3
390
F
  0
LAYER
  5
209
100
AcDbSymbolTableRecord
100
AcDbLayerTableRecord
  2
PIANI_ORIGINE
 70
0
 62
7
  6
CONTINUOUS
370
-3
390
F
  0
LAYER
  5
20A
100
AcDbSymbolTableRecord
100
AcDbLayerTableRecord
  2
RACCORDO
 70
0
 62
7
  6
CONTINUOUS
370
-3
390
F
  0
LAYER
  5
20B
100
AcDbSymbolTableRecord
100
AcDbLayerTableRecord
  2
SMUSSO
 70
0
 62
7
  6
CONTINUOUS
370
-3
390
F
  0
LAYER
  5
20C
100
AcDbSymbolTableRecord
100
AcDbLayerTableRecord
  2
SUPERFICI
 70
0
 62
7
  6
CONTINUOUS
370
-3
390
F
  0
LAYER
  5
20D
100
AcDbSymbolTableRecord
100
AcDbLayerTableRecord
  2
TRASH
 70
0
 62
7
  6
CONTINUOUS
370
-3
390
F
  0
ENDTAB
  0
TABLE
  2
STYLE
  5
3
100
AcDbSymbolTable
 70
1
  0
STYLE
  5
11
100
AcDbSymbolTableRecord
100
AcDbTextStyleTableRecord
  2
STANDARD
 70
0
 40
0.0
 41
0.8
 50
0.0
 71
0
 42
0.2
  3
txt
  4

  0
STYLE
  5
20E
100
AcDbSymbolTableRecord
100
AcDbTextStyleTableRecord
  2
TEXTSTYLE_1
 70
0
 40
0.0
 41
0.8
 50
0.0
 71
0
 42
0.2
  3
gdt
  4

  0
ENDTAB
  0
TABLE
  2
VIEW
  5
6
100
AcDbSymbolTable
 70
0
  0
ENDTAB
  0
TABLE
  2
UCS
  5
7
100
AcDbSymbolTable
 70
0
  0
ENDTAB
  0
TABLE
  2
APPID
  5
9
100
AcDbSymbolTable
 70
1
  0
APPID
  5
20F
100
AcDbSymbolTableRecord
100
AcDbRegAppTableRecord
  2
ACAD
 70
0
  0
ENDTAB
  0
TABLE
  2
BLOCK_RECORD
  5
1
100
AcDbSymbolTable
 70
0
  0
BLOCK_RECORD
  5
210
100
AcDbSymbolTableRecord
100
AcDbBlockTableRecord
  2
*Model_Space
  0
BLOCK_RECORD
  5
211
100
AcDbSymbolTableRecord
100
AcDbBlockTableRecord
  2
*Paper_Space
  0
ENDTAB
  0
TABLE
  2
DIMSTYLE
  5
A
100
AcDbSymbolTable
 70
1
100
AcDbDimStyleTable
 71
0
  0
DIMSTYLE
105
212
100
AcDbSymbolTableRecord
100
AcDbDimStyleTableRecord
  2
STANDARD
 70
0
  3

  4

 40
1.0
 41
3.0
 42
0.0625
 43
0.38
 44
0.18
 45
0.0
 46
0.0
 47
0.01
 48
0.01
140
3.0
141
0.09
142
0.0
143
25.4
144
1.0
145
0.0
146
1.0
147
0.09
 71
1.0
 72
0.0
 73
0
 74
0
 75
0
 76
0
 77
1
 78
8
170
0
171
2
172
0
173
0
174
0
175
0
176
0
177
0
178
0
270
2
271
2
272
2
273
2
274
2
275
0
280
0
281
0
282
0
283
1
284
8
285
0
286
0
287
3
288
0
340
11
  0
ENDTAB
  0
ENDSEC
  0
SECTION
  2
BLOCKS
  0
BLOCK
  5
20
100
AcDbEntity
  8
0
100
AcDbBlockBegin
  2
*Model_Space
 70
0
 10
0.0
 20
0.0
 30
0.0
  3
*Model_Space
  1

  0
ENDBLK
  5
21
100
AcDbEntity
  8
0
100
AcDbBlockEnd
  0
BLOCK
  5
1C
100
AcDbEntity
  8
0
100
AcDbBlockBegin
  2
*Paper_Space
 70
0
 10
0.0
 20
0.0
 30
0.0
  3
*Paper_Space
  1

  0
ENDBLK
  5
1D
100
AcDbEntity
  8
0
100
AcDbBlockEnd
  0
ENDSEC
  0
SECTION
  2
ENTITIES
  0
LINE
  5
213
100
AcDbEntity
  8
RACCORDO
100
AcDbLine
 62
7
  6
CONTINUOUS
 10
-19.5494868364
 20
15.1346557564
 11
-15.8284795858
 21
17.1422245343
  0
LINE
  5
214
100
AcDbEntity
  8
ASSI
100
AcDbLine
 62
7
  6
CONTINUOUS
 10
-19.5494868364
 20
15.1346557564
 11
-15.8284795858
 21
17.1422245343
  0
LINE
  5
215
100
AcDbEntity
  8
RACCORDO
100
AcDbLine
 62
253
  6
CONTINUOUS
 10
-19.4338660601
 20
15.1295663253
 11
-15.7140614005
 21
17.1364862777
  0
LINE
  5
216
100
AcDbEntity
  8
ASSI
100
AcDbLine
 62
253
  6
CONTINUOUS
 10
-19.4338660601
 20
15.1295663253
 11
-15.7140614005
 21
17.1364862777
  0
LINE
  5
217
100
AcDbEntity
  8
DRAFT
100
AcDbLine
 62
7
  6
CONTINUOUS
 10
-13.4296892621
 20
15.9943002085
 11
-15.3654181239
 21
14.7954947069
  0
LINE
  5
218
100
AcDbEntity
  8
ASSI
100
AcDbLine
 62
7
  6
CONTINUOUS
 10
-13.4296892621
 20
15.9943002085
 11
-15.3654181239
 21
14.7954947069
  0
LINE
  5
219
100
AcDbEntity
  8
RACCORDO
100
AcDbLine
 62
7
  6
CONTINUOUS
 10
15.8974080205
 20
-17.0189733504
 11
18.296826769
 21
-16.3697058203
  0
LINE
  5
21A
100
AcDbEntity
  8
ASSI
100
AcDbLine
 62
7
  6
CONTINUOUS
 10
15.8974080205
 20
-17.0189733504
 11
18.296826769
 21
-16.3697058203
  0
LWPOLYLINE
  5
21B
100
AcDbEntity
  8
RACCORDO
100
AcDbPolyline
 62
7
  6
CONTINUOUS
 90
3
 70
0
 10
-19.4484218788
 20
0.905690645
 10
-19.4479843776
 20
0.8942329973
 10
-19.4416577294
 20
0.8180463483
  0
LWPOLYLINE
  5
21C
100
AcDbEntity
  8
ASSI
100
AcDbPolyline
 62
7
  6
CONTINUOUS
 90
3
 70
0
 10
-19.4484218788
 20
0.905690645
 10
-19.4479843776
 20
0.8942329973
 10
-19.4416577294
 20
0.8180463483
  0
LWPOLYLINE
  5
21D
100
AcDbEntity
  8
RACCORDO
100
AcDbPolyline
 62
7
  6
CONTINUOUS
 90
10
 70
0
 10
-19.6807807426
 20
14.9143755064
 10
-19.6766775608
 20
13.3953674171
 10
-19.667035168
 20
11.8152261404
 10
-19.6519158216
 20
10.2379833798
 10
-19.6313197474
 20
8.6636718594
 10
-19.605247333
 20
7.0923188447
 10
-19.573698971
 20
5.5239498661
 10
-19.5366751513
 20
3.9585926352
 10
-19.4941767032
 20
2.3962801013
 10
-19.4484322115
 20
0.905642608
  0
LWPOLYLINE
  5
21E
100
AcDbEntity
  8
ASSI
100
AcDbPolyline
 62
7
  6
CONTINUOUS
 90
10
 70
0
 10
-19.6807807426
 20
14.9143755064
 10
-19.6766775608
 20
13.3953674171
 10
-19.667035168
 20
11.8152261404
 10
-19.6519158216
 20
10.2379833798
 10
-19.6313197474
 20
8.6636718594
 10
-19.605247333
 20
7.0923188447
 10
-19.573698971
 20
5.5239498661
 10
-19.5366751513
 20
3.9585926352
 10
-19.4941767032
 20
2.3962801013
 10
-19.4484322115
 20
0.905642608
  0
LINE
  5
21F
100
AcDbEntity
  8
DRAFT
100
AcDbLine
 62
7
  6
CONTINUOUS
 10
-13.4296892621
 20
15.0064659248
 11
-14.4828751463
 21
14.3542232181
  0
LINE
  5
220
100
AcDbEntity
  8
ASSI
100
AcDbLine
 62
7
  6
CONTINUOUS
 10
-13.4296892621
 20
15.0064659248
 11
-14.4828751463
 21
14.3542232181
  0
LINE
  5
221
100
AcDbEntity
  8
RACCORDO
100
AcDbLine
 62
253
  6
CONTINUOUS
 10
16.0057726268
 20
-16.8675696457
 11
18.3804167856
 21
-16.2250059628
  0
LINE
  5
222
100
AcDbEntity
  8
ASSI
100
AcDbLine
 62
253
  6
CONTINUOUS
 10
16.0057726268
 20
-16.8675696457
 11
18.3804167856
 21
-16.2250059628
  0
LWPOLYLINE
  5
223
100
AcDbEntity
  8
RACCORDO
100
AcDbPolyline
 62
7
  6
CONTINUOUS
 90
11
 70
0
 10
-19.4416577294
 20
0.8180463483
 10
-19.4295473009
 20
0.7451889921
 10
-19.4116745927
 20
0.6758393649
 10
-19.3881661447
 20
0.6104383845
 10
-19.3593650323
 20
0.5497579129
 10
-19.3256539855
 20
0.4942604026
 10
-19.2872603417
 20
0.4439817724
 10
-19.244482345
 20
0.3991386056
 10
-19.1977623855
 20
0.360075467
 10
-19.1476040364
 20
0.3270385397
 10
-19.1193918952
 20
0.3118212461
  0
LWPOLYLINE
  5
224
100
AcDbEntity
  8
ASSI
100
AcDbPolyline
 62
7
  6
CONTINUOUS
 90
11
 70
0
 10
-19.4416577294
 20
0.8180463483
 10
-19.4295473009
 20
0.7451889921
 10
-19.4116745927
 20
0.6758393649
 10
-19.3881661447
 20
0.6104383845
 10
-19.3593650323
 20
0.5497579129
 10
-19.3256539855
 20
0.4942604026
 10
-19.2872603417
 20
0.4439817724
 10
-19.244482345
 20
0.3991386056
 10
-19.1977623855
 20
0.360075467
 10
-19.1476040364
 20
0.3270385397
 10
-19.1193918952
 20
0.3118212461
  0
LINE
  5
225
100
AcDbEntity
  8
DRAFT
100
AcDbLine
 62
7
  6
CONTINUOUS
 10
-13.4296892621
 20
15.9943002085
 11
-13.4296892621
 21
15.0064659248
  0
LINE
  5
226
100
AcDbEntity
  8
ASSI
100
AcDbLine
 62
7
  6
CONTINUOUS
 10
-13.4296892621
 20
15.9943002085
 11
-13.4296892621
 21
15.0064659248
  0
LWPOLYLINE
  5
227
100
AcDbEntity
  8
RACCORDO
100
AcDbPolyline
 62
7
  6
CONTINUOUS
 90
9
 70
0
 10
15.4713986057
 20
-16.983570503
 10
15.4885308296
 20
-16.9918245785
 10
15.5486838751
 20
-17.0152956599
 10
15.6126051791
 20
-17.0318127108
 10
15.6795537639
 20
-17.0408662689
 10
15.7484747227
 20
-17.0421325028
 10
15.8186856852
 20
-17.0355041995
 10
15.8897640881
 20
-17.020975634
 10
15.8971034283
 20
-17.019035122
  0
LWPOLYLINE
  5
228
100
AcDbEntity
  8
ASSI
100
AcDbPolyline
 62
7
  6
CONTINUOUS
 90
9
 70
0
 10
15.4713986057
 20
-16.983570503
 10
15.4885308296
 20
-16.9918245785
 10
15.5486838751
 20
-17.0152956599
 10
15.6126051791
 20
-17.0318127108
 10
15.6795537639
 20
-17.0408662689
 10
15.7484747227
 20
-17.0421325028
 10
15.8186856852
 20
-17.0355041995
 10
15.8897640881
 20
-17.020975634
 10
15.8971034283
 20
-17.019035122
  0
LINE
  5
229
100
AcDbEntity
  8
RACCORDO
100
AcDbLine
 62
7
  6
CONTINUOUS
 10
-19.1192895076
 20
0.3117548635
 11
15.4727680217
 21
-16.9842739012
  0
LINE
  5
22A
100
AcDbEntity
  8
ASSI
100
AcDbLine
 62
7
  6
CONTINUOUS
 10
-19.1192895076
 20
0.3117548635
 11
15.4727680217
 21
-16.9842739012
  0
LINE
  5
22B
100
AcDbEntity
  8
RACCORDO
100
AcDbLine
 62
253
  6
CONTINUOUS
 10
-19.3752007391
 20
0.8168267465
 11
15.210006926
 21
-16.4757770861
  0
LINE
  5
22C
100
AcDbEntity
  8
ASSI
100
AcDbLine
 62
253
  6
CONTINUOUS
 10
-19.3752007391
 20
0.8168267465
 11
15.210006926
 21
-16.4757770861
  0
LINE
  5
22D
100
AcDbEntity
  8
RACCORDO
100
AcDbLine
 62
7
  6
CONTINUOUS
 10
18.2036400893
 20
-16.6042687508
 11
17.931970061
 21
-16.4684337367
  0
LINE
  5
22E
100
AcDbEntity
  8
ASSI
100
AcDbLine
 62
7
  6
CONTINUOUS
 10
18.2036400893
 20
-16.6042687508
 11
17.931970061
 21
-16.4684337367
  0
LINE
  5
22F
100
AcDbEntity
  8
DRAFT
100
AcDbLine
 62
7
  6
CONTINUOUS
 10
-2.2338449783
 20
4.0793054879
 11
-2.683828737
 21
3.8417547685
  0
LINE
  5
230
100
AcDbEntity
  8
DRAFT
100
AcDbLine
 62
7
  6
CONTINUOUS
 10
-1.1317711854
 20
1.9065210614
 11
-1.6044857874
 21
1.6830688674
  0
LINE
  5
231
100
AcDbEntity
  8
CURVE
100
AcDbLine
 62
253
  6
CONTINUOUS
 10
0.6335785657
 20
-3.6921488037
 11
-5.0939863619
 21
-0.8283663399
  0
LINE
  5
232
100
AcDbEntity
  8
RACCORDO
100
AcDbLine
 62
253
  6
CONTINUOUS
 10
14.9693994736
 20
-2.4625117388
 11
-19.6075574262
 21
14.8259667111
  0
LINE
  5
233
100
AcDbEntity
  8
ASSI
100
AcDbLine
 62
253
  6
CONTINUOUS
 10
14.9693994736
 20
-2.4625117388
 11
-19.6075574262
 21
14.8259667111
  0
LINE
  5
234
100
AcDbEntity
  8
RACCORDO
100
AcDbLine
 62
253
  6
CONTINUOUS
 10
15.1430908415
 20
-2.1589121255
 11
-19.4338660601
 21
15.1295663253
  0
LINE
  5
235
100
AcDbEntity
  8
ASSI
100
AcDbLine
 62
253
  6
CONTINUOUS
 10
15.1430908415
 20
-2.1589121255
 11
-19.4338660601
 21
15.1295663253
  0
LINE
  5
236
100
AcDbEntity
  8
DRAFT
100
AcDbLine
 62
7
  6
CONTINUOUS
 10
16.7106891894
 20
0.9241109828
 11
14.403777364
 21
-0.0891030371
  0
LINE
  5
237
100
AcDbEntity
  8
ASSI
100
AcDbLine
 62
7
  6
CONTINUOUS
 10
16.7106891894
 20
0.9241109828
 11
14.403777364
 21
-0.0891030371
  0
LINE
  5
238
100
AcDbEntity
  8
DRAFT
100
AcDbLine
 62
7
  6
CONTINUOUS
 10
14.403777364
 20
-0.0891030371
 11
-15.3654181239
 21
14.7954947069
  0
LINE
  5
239
100
AcDbEntity
  8
ASSI
100
AcDbLine
 62
7
  6
CONTINUOUS
 10
14.403777364
 20
-0.0891030371
 11
-15.3654181239
 21
14.7954947069
  0
LINE
  5
23A
100
AcDbEntity
  8
RACCORDO
100
AcDbLine
 62
253
  6
CONTINUOUS
 10
18.9950613278
 20
-0.2180750865
 11
15.1430908415
 21
-2.1589121255
  0
LINE
  5
23B
100
AcDbEntity
  8
ASSI
100
AcDbLine
 62
253
  6
CONTINUOUS
 10
18.9950613278
 20
-0.2180750865
 11
15.1430908415
 21
-2.1589121255
  0
LINE
  5
23C
100
AcDbEntity
  8
RACCORDO
100
AcDbLine
 62
253
  6
CONTINUOUS
 10
19.3838790751
 20
-1.2870434148
 11
19.1771201874
 21
-1.183663971
  0
LINE
  5
23D
100
AcDbEntity
  8
ASSI
100
AcDbLine
 62
253
  6
CONTINUOUS
 10
19.3838790751
 20
-1.2870434148
 11
19.1771201874
 21
-1.183663971
  0
LINE
  5
23E
100
AcDbEntity
  8
DRAFT
100
AcDbLine
 62
7
  6
CONTINUOUS
 10
19.4595908495
 20
-1.2520772083
 11
19.1718110991
 21
-1.1081873332
  0
LINE
  5
23F
100
AcDbEntity
  8
ASSI
100
AcDbLine
 62
7
  6
CONTINUOUS
 10
19.4595908495
 20
-1.2520772083
 11
19.1718110991
 21
-1.1081873332
  0
LINE
  5
240
100
AcDbEntity
  8
RACCORDO
100
AcDbLine
 62
7
  6
CONTINUOUS
 10
18.9950613278
 20
-0.2180750865
 11
16.7106891894
 21
0.9241109828
  0
LINE
  5
241
100
AcDbEntity
  8
ASSI
100
AcDbLine
 62
7
  6
CONTINUOUS
 10
18.9950613278
 20
-0.2180750865
 11
16.7106891894
 21
0.9241109828
  0
LINE
  5
242
100
AcDbEntity
  8
RACCORDO
100
AcDbLine
 62
7
  6
CONTINUOUS
 10
-13.4296892621
 20
15.9943002085
 11
-15.7140614005
 21
17.1364862777
  0
LINE
  5
243
100
AcDbEntity
  8
ASSI
100
AcDbLine
 62
7
  6
CONTINUOUS
 10
-13.4296892621
 20
15.9943002085
 11
-15.7140614005
 21
17.1364862777
  0
LINE
  5
244
100
AcDbEntity
  8
RACCORDO
100
AcDbLine
 62
253
  6
CONTINUOUS
 10
19.1718110991
 20
-0.5229233481
 11
15.3198406146
 21
-2.4637603862
  0
LINE
  5
245
100
AcDbEntity
  8
ASSI
100
AcDbLine
 62
253
  6
CONTINUOUS
 10
19.1718110991
 20
-0.5229233481
 11
15.3198406146
 21
-2.4637603862
  0
LINE
  5
246
100
AcDbEntity
  8
RACCORDO
100
AcDbLine
 62
7
  6
CONTINUOUS
 10
19.4595908495
 20
-1.2520772083
 11
19.3838790751
 21
-1.2870434148
  0
LINE
  5
247
100
AcDbEntity
  8
ASSI
100
AcDbLine
 62
7
  6
CONTINUOUS
 10
19.4595908495
 20
-1.2520772083
 11
19.3838790751
 21
-1.2870434148
  0
LINE
  5
248
100
AcDbEntity
  8
RACCORDO
100
AcDbLine
 62
7
  6
CONTINUOUS
 10
18.3804167856
 20
-16.2250059628
 11
18.3804167856
 21
-16.4761754788
  0
LINE
  5
249
100
AcDbEntity
  8
ASSI
100
AcDbLine
 62
7
  6
CONTINUOUS
 10
18.3804167856
 20
-16.2250059628
 11
18.3804167856
 21
-16.4761754788
  0
LINE
  5
24A
100
AcDbEntity
  8
RACCORDO
100
AcDbLine
 62
7
  6
CONTINUOUS
 10
19.1718110991
 20
-1.1296711955
 11
19.1718110991
 21
-0.5229233481
  0
LINE
  5
24B
100
AcDbEntity
  8
ASSI
100
AcDbLine
 62
7
  6
CONTINUOUS
 10
19.1718110991
 20
-1.1296711955
 11
19.1718110991
 21
-0.5229233481
  0
LINE
  5
24C
100
AcDbEntity
  8
DRAFT
100
AcDbLine
 62
7
  6
CONTINUOUS
 10
19.4595908495
 20
-1.2520772083
 11
19.4595908495
 21
-9.5911754384
  0
LINE
  5
24D
100
AcDbEntity
  8
ASSI
100
AcDbLine
 62
7
  6
CONTINUOUS
 10
19.4595908495
 20
-1.2520772083
 11
19.4595908495
 21
-9.5911754384
  0
LINE
  5
24E
100
AcDbEntity
  8
RACCORDO
100
AcDbLine
 62
7
  6
CONTINUOUS
 10
18.9034435989
 20
-16.2291292223
 11
19.4595908495
 21
-9.5911754384
  0
LINE
  5
24F
100
AcDbEntity
  8
ASSI
100
AcDbLine
 62
7
  6
CONTINUOUS
 10
18.9034435989
 20
-16.2291292223
 11
19.4595908495
 21
-9.5911754384
  0
LINE
  5
250
100
AcDbEntity
  8
RACCORDO
100
AcDbLine
 62
253
  6
CONTINUOUS
 10
18.3804167856
 20
-16.4761754788
 11
18.9034435989
 21
-16.2291292223
  0
LINE
  5
251
100
AcDbEntity
  8
ASSI
100
AcDbLine
 62
253
  6
CONTINUOUS
 10
18.3804167856
 20
-16.4761754788
 11
18.9034435989
 21
-16.2291292223
  0
LINE
  5
252
100
AcDbEntity
  8
RACCORDO
100
AcDbLine
 62
7
  6
CONTINUOUS
 10
18.3135486635
 20
-16.6122989614
 11
18.8218653943
 21
-16.3722008588
  0
LINE
  5
253
100
AcDbEntity
  8
ASSI
100
AcDbLine
 62
7
  6
CONTINUOUS
 10
18.3135486635
 20
-16.6122989614
 11
18.8218653943
 21
-16.3722008588
  0
ARC
  5
254
100
AcDbEntity
  8
RACCORDO
100
AcDbCircle
 62
253
  6
CONTINUOUS
 10
428.7047465363
 20
15.252149954
 40
448.3125316039
100
AcDbArc
 50
180.0544675967
 51
181.8335679219
  0
ARC
  5
255
100
AcDbEntity
  8
ASSI
100
AcDbCircle
 62
253
  6
CONTINUOUS
 10
428.7047465363
 20
15.252149954
 40
448.3125316039
100
AcDbArc
 50
180.0544675967
 51
181.8335679219
  0
ARC
  5
256
100
AcDbEntity
  8
RACCORDO
100
AcDbCircle
 62
253
  6
CONTINUOUS
 10
445.9464055416
 20
-2.0737845534
 40
430.9770751949
100
AcDbArc
 50
180.051678908
 51
181.9150136762
  0
ARC
  5
257
100
AcDbEntity
  8
ASSI
100
AcDbCircle
 62
253
  6
CONTINUOUS
 10
445.9464055416
 20
-2.0737845534
 40
430.9770751949
100
AcDbArc
 50
180.051678908
 51
181.9150136762
  0
ARC
  5
258
100
AcDbEntity
  8
RACCORDO
100
AcDbCircle
 62
253
  6
CONTINUOUS
 10
446.0391235864
 20
-2.0752607354
 40
430.719352063
100
AcDbArc
 50
180.051679563
 51
181.9150327006
  0
ARC
  5
259
100
AcDbEntity
  8
ASSI
100
AcDbCircle
 62
253
  6
CONTINUOUS
 10
446.0391235864
 20
-2.0752607354
 40
430.719352063
100
AcDbArc
 50
180.051679563
 51
181.9150327006
  0
ARC
  5
25A
100
AcDbEntity
  8
RACCORDO
100
AcDbCircle
 62
7
  6
CONTINUOUS
 10
-1.6834278092
 20
2.7023800167
 40
1.1007054639
100
AcDbArc
 50
237.1726665365
 51
240.9484598453
  0
ARC
  5
25B
100
AcDbEntity
  8
RACCORDO
100
AcDbCircle
 62
7
  6
CONTINUOUS
 10
-1.7168350007
 20
2.6428333787
 40
1.0324284262
100
AcDbArc
 50
240.9644641986
 51
243.4252663163
  0
ARC
  5
25C
100
AcDbEntity
  8
DRAFT
100
AcDbCircle
 62
7
  6
CONTINUOUS
 10
-2.1795300876
 20
3.4765659159
 40
0.6769002748
100
AcDbArc
 50
148.6010993284
 51
155.0362118193
  0
ARC
  5
25D
100
AcDbEntity
  8
ASSI
100
AcDbCircle
 62
7
  6
CONTINUOUS
 10
-2.1795300876
 20
3.4765659159
 40
0.6769002748
100
AcDbArc
 50
148.6010993284
 51
155.0362118193
  0
ARC
  5
25E
100
AcDbEntity
  8
DRAFT
100
AcDbCircle
 62
7
  6
CONTINUOUS
 10
-2.2329494197
 20
3.5090119553
 40
0.6143994749
100
AcDbArc
 50
141.5864900659
 51
148.5883752015
  0
ARC
  5
25F
100
AcDbEntity
  8
ASSI
100
AcDbCircle
 62
7
  6
CONTINUOUS
 10
-2.2329494197
 20
3.5090119553
 40
0.6143994749
100
AcDbArc
 50
141.5864900659
 51
148.5883752015
  0
ARC
  5
260
100
AcDbEntity
  8
RACCORDO
100
AcDbCircle
 62
253
  6
CONTINUOUS
 10
-18.9531193032
 20
0.6425506668
 40
0.3701339165
100
AcDbArc
 50
241.2312847575
 51
243.3038033339
  0
ARC
  5
261
100
AcDbEntity
  8
ASSI
100
AcDbCircle
 62
253
  6
CONTINUOUS
 10
-18.9531193032
 20
0.6425506668
 40
0.3701339165
100
AcDbArc
 50
241.2312847576
 51
243.3038033338
  0
ARC
  5
262
100
AcDbEntity
  8
RACCORDO
100
AcDbCircle
 62
7
  6
CONTINUOUS
 10
-19.4308034798
 20
14.9146531095
 40
0.2499729098
100
AcDbArc
 50
118.3452333315
 51
180.0617873869
  0
ARC
  5
263
100
AcDbEntity
  8
ASSI
100
AcDbCircle
 62
7
  6
CONTINUOUS
 10
-19.4308034798
 20
14.9146531095
 40
0.2499729098
100
AcDbArc
 50
118.3452333315
 51
180.0617873869
  0
SPLINE
  5
264
100
AcDbEntity
  8
RACCORDO
100
AcDbSpline
 62
7
  6
CONTINUOUS
 70
0
 71
3
 72
10
 73
6
 74
4
 42
0.0000001
 43
0.0000001
 44
0.0000000001
 12
0.5309507646
 22
-0.2654753776
 32
0.0
 13
0.5366819963
 23
0.2536896016
 33
0.0
 40
0.0
 40
0.0
 40
0.0
 40
0.0
 40
0.3683960887
 40
0.69741576
 40
1.0
 40
1.0
 40
1.0
 40
1.0
 10
-2.1787070749
 20
1.7194793608
 30
0.0
 10
-2.1135070132
 20
1.6868793306
 30
0.0
 10
-1.9824217602
 20
1.638299704
 30
0.0
 10
-1.7820740906
 20
1.6240972931
 30
0.0
 10
-1.65861617
 20
1.6574814333
 30
0.0
 10
-1.6044856653
 20
1.6830689251
 30
0.0
 11
-2.1787070749
 21
1.7194793608
 31
0.0
 11
-1.9726097282
 21
1.6463481518
 31
0.0
 11
-1.7776142834
 21
1.6352153657
 31
0.0
 11
-1.6044856653
 21
1.6830689251
 31
0.0
  0
SPLINE
  5
265
100
AcDbEntity
  8
RACCORDO
100
AcDbSpline
 62
7
  6
CONTINUOUS
 70
0
 71
3
 72
14
 73
10
 74
8
 42
0.0000001
 43
0.0000001
 44
0.0000000001
 12
-2.1334127319
 22
-1.1262489471
 32
0.0
 13
2.0328953942
 23
-1.3102034695
 33
0.0
 40
0.0
 40
0.0
 40
0.0
 40
0.0
 40
0.1126354234
 40
0.2431064815
 40
0.3946442942
 40
0.5607875776
 40
0.7319683022
 40
0.897607205
 40
1.0
 40
1.0
 40
1.0
 40
1.0
 10
-2.6838285782
 20
3.8417548523
 30
0.0
 10
-2.7639278603
 20
3.7994696767
 30
0.0
 10
-2.9127109777
 20
3.6580302739
 30
0.0
 10
-3.0205013658
 20
3.3506200059
 30
0.0
 10
-3.0218050463
 20
2.9854248317
 30
0.0
 10
-2.9245522282
 20
2.6010018503
 30
0.0
 10
-2.7423278044
 20
2.2364194123
 30
0.0
 10
-2.5191543234
 20
1.9592504692
 30
0.0
 10
-2.3495149246
 20
1.8221667856
 30
0.0
 10
-2.2801303109
 20
1.7774483205
 30
0.0
 11
-2.6838285782
 21
3.8417548523
 31
0.0
 11
-2.8841109178
 21
3.6581183274
 31
0.0
 11
-2.9984360037
 21
3.3648609038
 31
0.0
 11
-3.0071720198
 21
2.9993888401
 31
0.0
 11
-2.9121860535
 21
2.6099952173
 31
0.0
 11
-2.7276338489
 21
2.2405636941
 31
0.0
 11
-2.4742442483
 21
1.9315822837
 31
0.0
 11
-2.2801303109
 21
1.7774483205
 31
0.0
  0
SPLINE
  5
266
100
AcDbEntity
  8
RACCORDO
100
AcDbSpline
 62
253
  6
CONTINUOUS
 70
0
 71
3
 72
20
 73
16
 74
14
 42
0.0000001
 43
0.0000001
 44
0.0000000001
 12
2.3096192904
 22
1.1011434821
 32
0.0
 13
-2.2752317028
 23
1.13761587
 33
0.0
 40
0.0
 40
0.0
 40
0.0
 40
0.0
 40
0.0913253166
 40
0.1944753298
 40
0.300071473
 40
0.4040895859
 40
0.5028558466
 40
0.5939847407
 40
0.6762969559
 40
0.7496288086
 40
0.81425267
 40
0.8708004493
 40
0.9200563031
 40
0.9628161743
 40
1.0
 40
1.0
 40
1.0
 40
1.0
 10
-1.6044935111
 20
1.6830991684
 30
0.0
 10
-1.5341846067
 20
1.7166199275
 30
0.0
 10
-1.4032315211
 20
1.8290386663
 30
0.0
 10
-1.3011313389
 20
2.0688682752
 30
0.0
 10
-1.2726643552
 20
2.3349190643
 30
0.0
 10
-1.2986956379
 20
2.5965100689
 30
0.0
 10
-1.3617481059
 20
2.8384393768
 30
0.0
 10
-1.4481757805
 20
3.0530452774
 30
0.0
 10
-1.5476486201
 20
3.2375787263
 30
0.0
 10
-1.6526962511
 20
3.3923745326
 30
0.0
 10
-1.7581425907
 20
3.5195051663
 30
0.0
 10
-1.8604820389
 20
3.6218222144
 30
0.0
 10
-1.9574733227
 20
3.7024822877
 30
0.0
 10
-2.0478325852
 20
3.7646763563
 30
0.0
 10
-2.1070191868
 20
3.7979451045
 30
0.0
 10
-2.1352197932
 20
3.8120454079
 30
0.0
 11
-1.6044935111
 21
1.6830991684
 31
0.0
 11
-1.4254798382
 21
1.8316888348
 31
0.0
 11
-1.3146673347
 21
2.0695331963
 31
0.0
 11
-1.2818528351
 21
2.3361353464
 31
0.0
 11
-1.3060813595
 21
2.5996236084
 31
0.0
 11
-1.3686765003
 21
2.8429413453
 31
0.0
 11
-1.4550731373
 21
3.0580520807
 31
0.0
 11
-1.5544817271
 21
3.2423341518
 31
0.0
 11
-1.6593915568
 21
3.396578475
 31
0.0
 11
-1.7645321501
 21
3.5229481596
 31
0.0
 11
-1.8664436185
 21
3.6244645237
 31
0.0
 11
-1.9629407824
 21
3.7043862214
 31
0.0
 11
-2.0526695165
 21
3.7658687187
 31
0.0
 11
-2.1352197932
 21
3.8120454079
 31
0.0
  0
SPLINE
  5
267
100
AcDbEntity
  8
RACCORDO
100
AcDbSpline
 62
253
  6
CONTINUOUS
 70
0
 71
3
 72
8
 73
4
 74
2
 42
0.0000001
 43
0.0000001
 44
0.0000000001
 12
0.0835988337
 22
-0.0417994168
 32
0.0
 13
0.0882735387
 23
-0.032464483
 33
0.0
 40
0.0
 40
0.0
 40
0.0
 40
0.0
 40
1.0
 40
1.0
 40
1.0
 40
1.0
 10
-2.204253057
 20
1.7641058346
 30
0.0
 10
-2.1763867792
 20
1.7501726956
 30
0.0
 10
-2.1476554718
 20
1.7375474915
 30
0.0
 10
-2.1182309589
 20
1.7267259971
 30
0.0
 11
-2.204253057
 21
1.7641058346
 31
0.0
 11
-2.1182309589
 21
1.7267259971
 31
0.0
  0
SPLINE
  5
268
100
AcDbEntity
  8
RACCORDO
100
AcDbSpline
 62
253
  6
CONTINUOUS
 70
0
 71
3
 72
10
 73
6
 74
4
 42
0.0000001
 43
0.0000001
 44
0.0000000001
 12
0.4497329471
 22
-0.165398916
 32
0.0
 13
0.3975809252
 23
0.2706053485
 33
0.0
 40
0.0
 40
0.0
 40
0.0
 40
0.0
 40
0.3604798126
 40
0.8430695357
 40
1.0
 40
1.0
 40
1.0
 40
1.0
 10
-2.1182309589
 20
1.7267259971
 30
0.0
 10
-2.0641910761
 20
1.7068516737
 30
0.0
 10
-1.9323373639
 20
1.6745992524
 30
0.0
 10
-1.7676761648
 20
1.6957394795
 30
0.0
 10
-1.6781786405
 20
1.7459641424
 30
0.0
 10
-1.6573811208
 20
1.7601195501
 30
0.0
 11
-2.1182309589
 21
1.7267259971
 31
0.0
 11
-1.9501612477
 21
1.6884256529
 31
0.0
 11
-1.7230536447
 21
1.7235253033
 31
0.0
 11
-1.6573811208
 21
1.7601195501
 31
0.0
  0
SPLINE
  5
269
100
AcDbEntity
  8
RACCORDO
100
AcDbSpline
 62
253
  6
CONTINUOUS
 70
0
 71
3
 72
20
 73
16
 74
14
 42
0.0000001
 43
0.0000001
 44
0.0000000001
 12
1.9147547356
 22
1.3032387614
 32
0.0
 13
-2.0512188492
 23
1.0256094246
 33
0.0
 40
0.0
 40
0.0
 40
0.0
 40
0.0
 40
0.0662565476
 40
0.172252553
 40
0.2807617212
 40
0.3876493116
 40
0.4891401078
 40
0.5827829581
 40
0.667365994
 40
0.7427209878
 40
0.8091277958
 40
0.8672357412
 40
0.9178505631
 40
0.9617902467
 40
1.0
 40
1.0
 40
1.0
 40
1.0
 10
-1.6573811208
 20
1.7601195501
 30
0.0
 10
-1.6150927747
 20
1.7889022504
 30
0.0
 10
-1.5176646633
 20
1.8834106069
 30
0.0
 10
-1.4315437229
 20
2.0857164546
 30
0.0
 10
-1.4051704617
 20
2.332188905
 30
0.0
 10
-1.4292868831
 20
2.5745303547
 30
0.0
 10
-1.4876986144
 20
2.7986569494
 30
0.0
 10
-1.5677660731
 20
2.9974708998
 30
0.0
 10
-1.6599186116
 20
3.1684256166
 30
0.0
 10
-1.7572360245
 20
3.3118310361
 30
0.0
 10
-1.8549229484
 20
3.429607074
 30
0.0
 10
-1.9497315847
 20
3.5243955795
 30
0.0
 10
-2.0395860143
 20
3.5991203385
 30
0.0
 10
-2.1232960403
 20
3.6567384625
 30
0.0
 10
-2.178127535
 20
3.6875592454
 30
0.0
 10
-2.204253057
 20
3.7006220064
 30
0.0
 11
-1.6573811208
 21
1.7601195501
 31
0.0
 11
-1.5467392333
 21
1.8659880151
 31
0.0
 11
-1.4440827461
 21
2.0863320915
 31
0.0
 11
-1.4136830827
 21
2.3333158634
 31
0.0
 11
-1.4361288463
 21
2.5774148255
 31
0.0
 11
-1.4941172197
 21
2.8028275641
 31
0.0
 11
-1.5741557906
 21
3.0021092387
 31
0.0
 11
-1.6662488869
 21
3.1728310718
 31
0.0
 11
-1.7634386304
 21
3.3157256099
 31
0.0
 11
-1.8608422939
 21
3.432796737
 31
0.0
 11
-1.9552545515
 21
3.5268434025
 31
0.0
 11
-2.0446510402
 21
3.6008842518
 31
0.0
 11
-2.1277771239
 21
3.6578430476
 31
0.0
 11
-2.204253057
 21
3.7006220064
 31
0.0
  0
SPLINE
  5
26A
100
AcDbEntity
  8
RACCORDO
100
AcDbSpline
 62
253
  6
CONTINUOUS
 70
0
 71
3
 72
22
 73
18
 74
16
 42
0.0000001
 43
0.0000001
 44
0.0000000001
 12
-2.5607350466
 22
1.2803675233
 32
0.0
 13
2.5607350466
 23
-1.2803675233
 33
0.0
 40
0.0
 40
0.0
 40
0.0
 40
0.0
 40
0.0926031929
 40
0.1728708975
 40
0.252045775
 40
0.3369516027
 40
0.4238704212
 40
0.5094903106
 40
0.590787205
 40
0.6657976871
 40
0.733551015
 40
0.7939124321
 40
0.8471061098
 40
0.8936521728
 40
0.9341960337
 40
0.9693929376
 40
1.0
 40
1.0
 40
1.0
 40
1.0
 10
-2.204253057
 20
3.7006220064
 30
0.0
 10
-2.2832971375
 20
3.7401440467
 30
0.0
 10
-2.4438486527
 20
3.7942792242
 30
0.0
 10
-2.6933719527
 20
3.762242536
 30
0.0
 10
-2.8808465487
 20
3.6047966269
 30
0.0
 10
-2.9769631403
 20
3.3790111749
 30
0.0
 10
-3.0033363163
 20
3.1325385872
 30
0.0
 10
-2.9792200258
 20
2.8901971231
 30
0.0
 10
-2.9208080845
 20
2.6660705835
 30
0.0
 10
-2.8407405433
 20
2.4672566833
 30
0.0
 10
-2.7485878617
 20
2.2963020382
 30
0.0
 10
-2.6512703593
 20
2.1528966664
 30
0.0
 10
-2.5535833595
 20
2.0351206631
 30
0.0
 10
-2.4587746415
 20
1.9403322181
 30
0.0
 10
-2.3689202052
 20
1.8656074242
 30
0.0
 10
-2.2852100932
 20
1.8079893853
 30
0.0
 10
-2.2303785829
 20
1.7771685975
 30
0.0
 10
-2.204253057
 20
1.7641058346
 30
0.0
 11
-2.204253057
 21
3.7006220064
 31
0.0
 11
-2.4583436813
 21
3.7763027806
 31
0.0
 11
-2.685452792
 21
3.7412023764
 31
0.0
 11
-2.8617671444
 21
3.5987396941
 31
0.0
 11
-2.9644240456
 21
3.3783954106
 31
0.0
 11
-2.9948237338
 21
3.1314116264
 31
0.0
 11
-2.9723780013
 21
2.8873126488
 31
0.0
 11
-2.914389497
 21
2.6618999757
 31
0.0
 11
-2.8343508129
 21
2.4626183576
 31
0.0
 11
-2.7422575916
 21
2.291896587
 31
0.0
 11
-2.6450677531
 21
2.1490020965
 31
0.0
 11
-2.5476640094
 21
2.0319310095
 31
0.0
 11
-2.4532516828
 21
1.9378843784
 31
0.0
 11
-2.3638551721
 21
1.8638435401
 31
0.0
 11
-2.2807290101
 21
1.8068847834
 31
0.0
 11
-2.204253057
 21
1.7641058346
 31
0.0
  0
SPLINE
  5
26B
100
AcDbEntity
  8
RACCORDO
100
AcDbSpline
 62
253
  6
CONTINUOUS
 70
0
 71
3
 72
10
 73
6
 74
4
 42
0.0000001
 43
0.0000001
 44
0.0000000001
 12
-0.5066545929
 22
0.2533273006
 32
0.0
 13
-0.5030012107
 23
-0.268775241
 33
0.0
 40
0.0
 40
0.0
 40
0.0
 40
0.0
 40
0.5052042006
 40
0.9431177079
 40
1.0
 40
1.0
 40
1.0
 40
1.0
 10
-2.1352197932
 20
3.8120454079
 30
0.0
 10
-2.220541136
 20
3.85470608
 30
0.0
 10
-2.3938460538
 20
3.9131266445
 30
0.0
 10
-2.5897226241
 20
3.8879934787
 30
0.0
 10
-2.6742366741
 20
3.8467486669
 30
0.0
 10
-2.6837739614
 20
3.841652483
 30
0.0
 11
-2.1352197932
 21
3.8120454079
 31
0.0
 11
-2.4094909549
 21
3.8937296187
 31
0.0
 11
-2.6546410667
 21
3.8558510266
 31
0.0
 11
-2.6837739614
 21
3.841652483
 31
0.0
  0
SPLINE
  5
26C
100
AcDbEntity
  8
DRAFT
100
AcDbSpline
 62
7
  6
CONTINUOUS
 70
0
 71
3
 72
17
 73
13
 74
11
 42
0.0000001
 43
0.0000001
 44
0.0000000001
 12
2.4459831326
 22
1.2838515585
 32
0.0
 13
-2.4516470572
 23
1.2258235286
 33
0.0
 40
0.0
 40
0.0
 40
0.0
 40
0.0
 40
0.0252960356
 40
0.1044689495
 40
0.1936208561
 40
0.2953999763
 40
0.4088600251
 40
0.5305328986
 40
0.6555712688
 40
0.7786495306
 40
0.8947903949
 40
1.0
 40
1.0
 40
1.0
 40
1.0
 10
-1.3447222761
 20
1.6940898199
 30
0.0
 10
-1.3240977173
 20
1.7049152715
 30
0.0
 10
-1.2421385856
 20
1.7555794193
 30
0.0
 10
-1.1226800127
 20
1.8926893024
 30
0.0
 10
-1.0348632006
 20
2.1274918609
 30
0.0
 10
-1.0094922512
 20
2.4069646392
 30
0.0
 10
-1.0459621442
 20
2.7144701191
 30
0.0
 10
-1.1413693323
 20
3.0309802042
 30
0.0
 10
-1.2894229681
 20
3.336206749
 30
0.0
 10
-1.4806046825
 20
3.6104557913
 30
0.0
 10
-1.7023876881
 20
3.8358575409
 30
0.0
 10
-1.871467828
 20
3.9505264526
 30
0.0
 10
-1.9574467675
 20
3.9935159224
 30
0.0
 11
-1.3447222761
 21
1.6940898199
 31
0.0
 11
-1.2854329968
 21
1.7308177685
 31
0.0
 11
-1.1397051224
 21
1.8916246723
 31
0.0
 11
-1.0490330744
 21
2.118547775
 31
0.0
 11
-1.019687016
 21
2.3959790987
 31
0.0
 11
-1.0536492874
 21
2.7051159199
 31
0.0
 11
-1.1486074472
 21
3.0248201138
 31
0.0
 11
-1.2980516402
 21
3.3332557224
 31
0.0
 11
-1.4917852733
 21
3.609443027
 31
0.0
 11
-1.7167355236
 21
3.8347004632
 31
0.0
 11
-1.9574467675
 21
3.9935159224
 31
0.0
  0
SPLINE
  5
26D
100
AcDbEntity
  8
DRAFT
100
AcDbSpline
 62
7
  6
CONTINUOUS
 70
0
 71
3
 72
10
 73
6
 74
4
 42
0.0000001
 43
0.0000001
 44
0.0000000001
 12
-0.5318836887
 22
0.2659418443
 32
0.0
 13
-0.5423349644
 23
-0.2556202157
 33
0.0
 40
0.0
 40
0.0
 40
0.0
 40
0.0
 40
0.4264225282
 40
0.8016701045
 40
1.0
 40
1.0
 40
1.0
 40
1.0
 10
-1.9574467675
 20
3.9935159224
 30
0.0
 10
-2.0330491633
 20
4.0313171203
 30
0.0
 10
-2.1847396017
 20
4.0863999421
 30
0.0
 10
-2.3877032709
 20
4.089812144
 30
0.0
 10
-2.4972789108
 20
4.0532020765
 30
0.0
 10
-2.5331326564
 20
4.0363030329
 30
0.0
 11
-1.9574467675
 21
3.9935159224
 31
0.0
 11
-2.1975406344
 21
4.0751052007
 31
0.0
 11
-2.4206836673
 21
4.0739087501
 31
0.0
 11
-2.5331326564
 21
4.0363030329
 31
0.0
  0
SPLINE
  5
26E
100
AcDbEntity
  8
RACCORDO
100
AcDbSpline
 62
253
  6
CONTINUOUS
 70
0
 71
3
 72
9
 73
5
 74
3
 42
0.0000001
 43
0.0000001
 44
0.0000000001
 12
0.0042467391
 22
-0.1188405267
 32
0.0
 13
0.1066391986
 23
-0.0534070687
 33
0.0
 40
0.0
 40
0.0
 40
0.0
 40
0.0
 40
0.434255131
 40
1.0
 40
1.0
 40
1.0
 40
1.0
 10
-19.4484297796
 20
0.9056426949
 30
0.0
 10
-19.4478150568
 20
0.8884403254
 30
0.0
 10
-19.4296466384
 20
0.8492265951
 30
0.0
 10
-19.3953109319
 20
0.8268983384
 30
0.0
 10
-19.3752007388
 20
0.8168267467
 30
0.0
 11
-19.4484297796
 21
0.9056426949
 31
0.0
 11
-19.4289868119
 21
0.8575670189
 31
0.0
 11
-19.3752007388
 21
0.8168267467
 31
0.0
  0
SPLINE
  5
26F
100
AcDbEntity
  8
RACCORDO
100
AcDbSpline
 62
253
  6
CONTINUOUS
 70
0
 71
3
 72
13
 73
9
 74
7
 42
0.0000001
 43
0.0000001
 44
0.0000000001
 12
0.0236954385
 22
-0.7022854852
 32
0.0
 13
0.6783151378
 23
0.1834528559
 33
0.0
 40
0.0
 40
0.0
 40
0.0
 40
0.0
 40
0.1944363683
 40
0.3698341619
 40
0.5286102363
 40
0.6791816637
 40
0.8332005048
 40
1.0
 40
1.0
 40
1.0
 40
1.0
 10
15.5603089584
 20
-16.4687838506
 30
0.0
 10
15.56184471
 20
-16.5143004637
 30
0.0
 10
15.5726140743
 20
-16.6009980248
 30
0.0
 10
15.6166194749
 20
-16.7182281392
 30
0.0
 10
15.6872124782
 20
-16.8098105434
 30
0.0
 10
15.7816575705
 20
-16.8682720534
 30
0.0
 10
15.8924701671
 20
-16.8886360868
 30
0.0
 10
15.9680584193
 20
-16.8777695936
 30
0.0
 10
16.0057726268
 20
-16.8675696457
 30
0.0
 11
15.5603089584
 21
-16.4687838506
 31
0.0
 11
15.5787015758
 21
-16.6041677382
 31
0.0
 11
15.623746113
 21
-16.7188909227
 31
0.0
 11
15.6931498125
 21
-16.8062459383
 31
0.0
 11
15.783281147
 21
-16.8616615744
 31
0.0
 11
15.8895052506
 21
-16.8823852018
 31
0.0
 11
16.0057726268
 21
-16.8675696457
 31
0.0
  0
SPLINE
  5
270
100
AcDbEntity
  8
RACCORDO
100
AcDbSpline
 62
253
  6
CONTINUOUS
 70
0
 71
3
 72
9
 73
5
 74
3
 42
0.0000001
 43
0.0000001
 44
0.0000000001
 12
0.1060851227
 22
0.0557215843
 32
0.0
 13
0.1068996515
 23
-0.0515772518
 33
0.0
 40
0.0
 40
0.0
 40
0.0
 40
0.0
 40
0.4050937236
 40
1.0
 40
1.0
 40
1.0
 40
1.0
 10
-19.5494304174
 20
15.1345483434
 30
0.0
 10
-19.5351056116
 20
15.1420724981
 30
0.0
 10
-19.4945802597
 20
15.1518475918
 30
0.0
 10
-19.4550644846
 20
15.1397942022
 30
0.0
 10
-19.4338660601
 20
15.1295663253
 30
0.0
 11
-19.5494304174
 21
15.1345483434
 31
0.0
 11
-19.5024381527
 21
15.146410082
 31
0.0
 11
-19.4338660601
 21
15.1295663253
 31
0.0
  0
SPLINE
  5
271
100
AcDbEntity
  8
DRAFT
100
AcDbSpline
 62
7
  6
CONTINUOUS
 70
0
 71
3
 72
9
 73
5
 74
3
 42
0.0000001
 43
0.0000001
 44
0.0000000001
 12
-0.2125403382
 22
-0.1001772164
 32
0.0
 13
-0.1460926054
 23
-0.1838715999
 33
0.0
 40
0.0
 40
0.0
 40
0.0
 40
0.0
 40
0.3886269166
 40
1.0
 40
1.0
 40
1.0
 40
1.0
 10
-2.5331326564
 20
4.0363030329
 30
0.0
 10
-2.5606656218
 20
4.0233258453
 30
0.0
 10
-2.6284244792
 20
3.9834994166
 30
0.0
 10
-2.6845879064
 20
3.9282297315
 30
0.0
 10
-2.7143602686
 20
3.8907583491
 30
0.0
 11
-2.5331326564
 21
4.0363030329
 31
0.0
 11
-2.6115801854
 21
3.9900381923
 31
0.0
 11
-2.7143602686
 21
3.8907583491
 31
0.0
  0
LINE
  5
272
100
AcDbEntity
  8
RACCORDO
100
AcDbLine
 62
253
  6
CONTINUOUS
 10
-19.3752007391
 20
0.8168267465
 11
-19.378138317
 21
0.9077952103
  0
SPLINE
  5
273
100
AcDbEntity
  8
DRAFT
100
AcDbSpline
 62
7
  6
CONTINUOUS
 70
0
 71
3
 72
9
 73
5
 74
3
 42
0.0000001
 43
0.0000001
 44
0.0000000001
 12
0.0841981654
 22
-0.0155320525
 32
0.0
 13
0.0855789643
 23
-0.004836101
 33
0.0
 40
0.0
 40
0.0
 40
0.0
 40
0.0
 40
0.0946475083
 40
1.0
 40
1.0
 40
1.0
 40
1.0
 10
-1.7074611999
 20
1.6471717666
 30
0.0
 10
-1.7048048177
 20
1.6466817432
 30
0.0
 10
-1.6767048431
 20
1.6416602339
 30
0.0
 10
-1.6482535358
 20
1.6383078605
 30
0.0
 10
-1.6224271596
 20
1.6368484018
 30
0.0
 11
-1.7074611999
 21
1.6471717666
 31
0.0
 11
-1.6994824852
 21
1.6457461489
 31
0.0
 11
-1.6224271596
 21
1.6368484018
 31
0.0
  0
SPLINE
  5
274
100
AcDbEntity
  8
DRAFT
100
AcDbSpline
 62
7
  6
CONTINUOUS
 70
0
 71
3
 72
9
 73
5
 74
3
 42
0.0000001
 43
0.0000001
 44
0.0000000001
 12
0.286776432
 22
-0.0162058492
 32
0.0
 13
0.2545538317
 23
0.1336106244
 33
0.0
 40
0.0
 40
0.0
 40
0.0
 40
0.0
 40
0.5120959347
 40
1.0
 40
1.0
 40
1.0
 40
1.0
 10
-1.6224271596
 20
1.6368484018
 30
0.0
 10
-1.5734748113
 20
1.6340820853
 30
0.0
 10
-1.477406204
 20
1.6397341624
 30
0.0
 10
-1.3861215592
 20
1.6723600977
 30
0.0
 10
-1.3447222761
 20
1.6940898199
 30
0.0
 11
-1.6224271596
 21
1.6368484018
 31
0.0
 11
-1.4763366819
 21
1.6469445819
 31
0.0
 11
-1.3447222761
 21
1.6940898199
 31
0.0
  0
SPLINE
  5
275
100
AcDbEntity
  8
RACCORDO
100
AcDbSpline
 62
253
  6
CONTINUOUS
 70
0
 71
3
 72
12
 73
8
 74
6
 42
0.0000001
 43
0.0000001
 44
0.0000000001
 12
-0.0053497267
 22
0.3664563861
 32
0.0
 13
-0.3254083925
 23
0.1686068818
 33
0.0
 40
0.0
 40
0.0
 40
0.0
 40
0.0
 40
0.1955839747
 40
0.4065111841
 40
0.6196376798
 40
0.8218553915
 40
1.0
 40
1.0
 40
1.0
 40
1.0
 10
15.3198406128
 20
-2.4637603871
 30
0.0
 10
15.3194918392
 20
-2.4398693883
 30
0.0
 10
15.3122551576
 20
-2.3902349308
 30
0.0
 10
15.2866682718
 20
-2.3185737875
 30
0.0
 10
15.2480902712
 20
-2.2519737622
 30
0.0
 10
15.200329607
 20
-2.1968534382
 30
0.0
 10
15.1624140917
 20
-2.1689242611
 30
0.0
 10
15.1430908415
 20
-2.1589121255
 30
0.0
 11
15.3198406128
 21
-2.4637603871
 31
0.0
 11
15.3103177357
 21
-2.3927151337
 31
0.0
 11
15.2846286305
 21
-2.3198045276
 31
0.0
 11
15.2453540951
 21
-2.2522866383
 31
0.0
 11
15.196327301
 21
-2.1967083834
 31
0.0
 11
15.1430908415
 21
-2.1589121255
 31
0.0
  0
SPLINE
  5
276
100
AcDbEntity
  8
RACCORDO
100
AcDbSpline
 62
253
  6
CONTINUOUS
 70
0
 71
3
 72
11
 73
7
 74
5
 42
0.0000001
 43
0.0000001
 44
0.0000000001
 12
-0.0003852387
 22
0.3639158128
 32
0.0
 13
0.3226902033
 23
0.1682435732
 33
0.0
 40
0.0
 40
0.0
 40
0.0
 40
0.0
 40
0.24723321
 40
0.513083496
 40
0.7728623516
 40
1.0
 40
1.0
 40
1.0
 40
1.0
 10
-19.6075574282
 20
14.8259667121
 30
0.0
 10
-19.6075891761
 20
14.8559574036
 30
0.0
 10
-19.5973481947
 20
14.9183152376
 30
0.0
 10
-19.5600621814
 20
15.0051844267
 30
0.0
 10
-19.5053995405
 20
15.0793251223
 30
0.0
 10
-19.458297758
 20
15.1168281754
 30
0.0
 10
-19.4338660601
 20
15.1295663253
 30
0.0
 11
-19.6075574282
 21
14.8259667121
 31
0.0
 11
-19.5943502334
 21
14.9149642024
 31
0.0
 11
-19.5564922548
 21
15.0039967231
 31
0.0
 11
-19.4996864372
 21
15.0795643962
 31
0.0
 11
-19.4338660601
 21
15.1295663253
 31
0.0
  0
SPLINE
  5
277
100
AcDbEntity
  8
RACCORDO
100
AcDbSpline
 62
253
  6
CONTINUOUS
 70
0
 71
3
 72
11
 73
7
 74
5
 42
0.0000001
 43
0.0000001
 44
0.0000000001
 12
-0.0003852361
 22
0.3639133035
 32
0.0
 13
0.3226879782
 23
0.1682424131
 33
0.0
 40
0.0
 40
0.0
 40
0.0
 40
0.0
 40
0.2461494134
 40
0.510593734
 40
0.7692500461
 40
1.0
 40
1.0
 40
1.0
 40
1.0
 10
14.9693994733
 20
-2.4625117387
 30
0.0
 10
14.9693678648
 20
-2.4326527233
 30
0.0
 10
14.9795156102
 20
-2.3705984823
 30
0.0
 10
15.0164883802
 20
-2.2840803259
 30
0.0
 10
15.0710090575
 20
-2.2097009318
 30
0.0
 10
15.1182707628
 20
-2.1718527685
 30
0.0
 10
15.1430908415
 20
-2.1589121255
 30
0.0
 11
14.9693994733
 21
-2.4625117387
 31
0.0
 11
14.9824970528
 21
-2.3738973516
 31
0.0
 11
15.0200097105
 21
-2.285274844
 31
0.0
 11
15.0763418924
 21
-2.2098635409
 31
0.0
 11
15.1430908415
 21
-2.1589121255
 31
0.0
  0
SPLINE
  5
278
100
AcDbEntity
  8
RACCORDO
100
AcDbSpline
 62
253
  6
CONTINUOUS
 70
0
 71
3
 72
10
 73
6
 74
4
 42
0.0000001
 43
0.0000001
 44
0.0000000001
 12
-0.1066900285
 22
0.053347966
 32
0.0
 13
0.0004535062
 23
0.1185801457
 33
0.0
 40
0.0
 40
0.0
 40
0.0
 40
0.0
 40
0.5621967092
 40
0.9909786765
 40
1.0
 40
1.0
 40
1.0
 40
1.0
 10
-19.6075574282
 20
14.8259667121
 30
0.0
 10
-19.6275510225
 20
14.8359640624
 30
0.0
 10
-19.6616422149
 20
14.857598508
 30
0.0
 10
-19.680677658
 20
14.8967552387
 30
0.0
 10
-19.680778926
 20
14.9140584202
 30
0.0
 10
-19.6807775623
 20
14.9144150035
 30
0.0
 11
-19.6075574282
 21
14.8259667121
 31
0.0
 11
-19.6613309873
 21
14.8660369227
 31
0.0
 11
-19.680771257
 21
14.9133453936
 31
0.0
 11
-19.6807775623
 21
14.9144150035
 31
0.0
  0
SPLINE
  5
279
100
AcDbEntity
  8
RACCORDO
100
AcDbSpline
 62
253
  6
CONTINUOUS
 70
0
 71
3
 72
10
 73
6
 74
4
 42
0.0000001
 43
0.0000001
 44
0.0000000001
 12
-0.0264958836
 22
-0.1937282825
 32
0.0
 13
-0.1913177821
 23
-0.052459215
 33
0.0
 40
0.0
 40
0.0
 40
0.0
 40
0.0
 40
0.4306837962
 40
0.8010691458
 40
1.0
 40
1.0
 40
1.0
 40
1.0
 10
16.0057726268
 20
-16.8675696457
 30
0.0
 10
16.0019688443
 20
-16.895381523
 30
0.0
 10
15.9874527089
 20
-16.9467118827
 30
0.0
 10
15.9447870427
 20
-16.9994744303
 30
0.0
 10
15.9100462281
 20
-17.0153192377
 30
0.0
 10
15.8973598915
 20
-17.0187978232
 30
0.0
 11
16.0057726268
 21
-16.8675696457
 31
0.0
 11
15.9806766852
 21
-16.9479556972
 31
0.0
 11
15.933048587
 21
-17.0025132458
 31
0.0
 11
15.8973598915
 21
-17.0187978232
 31
0.0
  0
SPLINE
  5
27A
100
AcDbEntity
  8
RACCORDO
100
AcDbSpline
 62
253
  6
CONTINUOUS
 70
0
 71
3
 72
11
 73
7
 74
5
 42
0.0000001
 43
0.0000001
 44
0.0000000001
 12
-0.3186059469
 22
-0.1690547765
 32
0.0
 13
-0.3227066243
 23
0.1610891104
 33
0.0
 40
0.0
 40
0.0
 40
0.0
 40
0.0
 40
0.2388448156
 40
0.503580789
 40
0.7663861237
 40
1.0
 40
1.0
 40
1.0
 40
1.0
 10
15.5603089581
 20
-16.4687838505
 30
0.0
 10
15.5349431652
 20
-16.4822431361
 30
0.0
 10
15.4769022529
 20
-16.5020680782
 30
0.0
 10
15.3848596249
 20
-16.5129125446
 30
0.0
 10
15.2930857229
 20
-16.5058687624
 30
0.0
 10
15.2351490569
 20
-16.4883144145
 30
0.0
 10
15.2100194751
 20
-16.4757701974
 30
0.0
 11
15.5603089581
 21
-16.4687838505
 31
0.0
 11
15.4793377319
 21
-16.4981920618
 31
0.0
 11
15.3845650074
 21
-16.5098305586
 31
0.0
 11
15.2901034724
 21
-16.5019662425
 31
0.0
 11
15.2100194751
 21
-16.4757701974
 31
0.0
  0
SPLINE
  5
27B
100
AcDbEntity
  8
RACCORDO
100
AcDbSpline
 62
253
  6
CONTINUOUS
 70
0
 71
3
 72
11
 73
7
 74
5
 42
0.0000001
 43
0.0000001
 44
0.0000000001
 12
-0.3239020885
 22
-0.1568996966
 32
0.0
 13
-0.3219104786
 23
0.1609463312
 33
0.0
 40
0.0
 40
0.0
 40
0.0
 40
0.0
 40
0.2366865896
 40
0.5013293948
 40
0.7652575904
 40
1.0
 40
1.0
 40
1.0
 40
1.0
 10
15.3198406128
 20
-2.4637603871
 30
0.0
 10
15.2942861859
 20
-2.4761390718
 30
0.0
 10
15.2359951282
 20
-2.4937622141
 30
0.0
 10
15.1440699273
 20
-2.5019868502
 30
0.0
 10
15.0524382275
 20
-2.4931554993
 30
0.0
 10
14.9945881538
 20
-2.4751053819
 30
0.0
 10
14.9693994733
 20
-2.4625117387
 30
0.0
 11
15.3198406128
 21
-2.4637603871
 31
0.0
 11
15.2388154389
 21
-2.490052331
 31
0.0
 11
15.1439944943
 21
-2.4990374821
 31
0.0
 11
15.0494984188
 21
-2.4893777803
 31
0.0
 11
14.9693994733
 21
-2.4625117387
 31
0.0
  0
SPLINE
  5
27C
100
AcDbEntity
  8
RACCORDO
100
AcDbSpline
 62
253
  6
CONTINUOUS
 70
0
 71
3
 72
11
 73
7
 74
5
 42
0.0000001
 43
0.0000001
 44
0.0000000001
 12
0.0199946315
 22
-0.5969871297
 32
0.0
 13
0.5355973488
 23
-0.2715057779
 33
0.0
 40
0.0
 40
0.0
 40
0.0
 40
0.0
 40
0.3060317019
 40
0.580122921
 40
0.8278011484
 40
1.0
 40
1.0
 40
1.0
 40
1.0
 10
15.210006926
 20
-16.4757770861
 30
0.0
 10
15.2120465897
 20
-16.5366760818
 30
0.0
 10
15.2263931138
 20
-16.6522844939
 30
0.0
 10
15.2848870529
 20
-16.8083555151
 30
0.0
 10
15.3706502827
 20
-16.9199055444
 30
0.0
 10
15.4406473744
 20
-16.9679386869
 30
0.0
 10
15.4713904571
 20
-16.9835230147
 30
0.0
 11
15.210006926
 21
-16.4757770861
 31
0.0
 11
15.2345982451
 21
-16.6569148741
 31
0.0
 11
15.2943733127
 21
-16.8093333847
 31
0.0
 11
15.3862788828
 21
-16.9252673381
 31
0.0
 11
15.4713904571
 21
-16.9835230147
 31
0.0
  0
SPLINE
  5
27D
100
AcDbEntity
  8
RACCORDO
100
AcDbSpline
 62
253
  6
CONTINUOUS
 70
0
 71
3
 72
11
 73
7
 74
5
 42
0.0000001
 43
0.0000001
 44
0.0000000001
 12
-0.5102888932
 22
0.2801487103
 32
0.0
 13
-0.0188789663
 23
0.5784714166
 33
0.0
 40
0.0
 40
0.0
 40
0.0
 40
0.0
 40
0.1527284925
 40
0.4041914949
 40
0.6848539677
 40
1.0
 40
1.0
 40
1.0
 40
1.0
 10
-19.1312555481
 20
0.3181025286
 30
0.0
 10
-19.1572340992
 20
0.3323647586
 30
0.0
 10
-19.2215532038
 20
0.3783629472
 30
0.0
 10
-19.3025628044
 20
0.4858230072
 30
0.0
 10
-19.3593329165
 20
0.6410083386
 30
0.0
 10
-19.3732175287
 20
0.7560590892
 30
0.0
 10
-19.3752007391
 20
0.8168267465
 30
0.0
 11
-19.1312555481
 21
0.3181025286
 31
0.0
 11
-19.2034845017
 21
0.3696143541
 31
0.0
 11
-19.2930146888
 21
0.4843606161
 31
0.0
 11
-19.3512449016
 21
0.6360066993
 31
0.0
 11
-19.3752007391
 21
0.8168267465
 31
0.0
  0
SPLINE
  5
27E
100
AcDbEntity
  8
ASSI
100
AcDbSpline
 62
7
  6
CONTINUOUS
 70
0
 71
3
 72
17
 73
13
 74
11
 42
0.0000001
 43
0.0000001
 44
0.0000000001
 12
2.4459831326
 22
1.2838515585
 32
0.0
 13
-2.4516470572
 23
1.2258235286
 33
0.0
 40
0.0
 40
0.0
 40
0.0
 40
0.0
 40
0.0252960356
 40
0.1044689495
 40
0.1936208561
 40
0.2953999763
 40
0.4088600251
 40
0.5305328986
 40
0.6555712688
 40
0.7786495306
 40
0.8947903949
 40
1.0
 40
1.0
 40
1.0
 40
1.0
 10
-1.3447222761
 20
1.6940898199
 30
0.0
 10
-1.3240977173
 20
1.7049152715
 30
0.0
 10
-1.2421385856
 20
1.7555794193
 30
0.0
 10
-1.1226800127
 20
1.8926893024
 30
0.0
 10
-1.0348632006
 20
2.1274918609
 30
0.0
 10
-1.0094922512
 20
2.4069646392
 30
0.0
 10
-1.0459621442
 20
2.7144701191
 30
0.0
 10
-1.1413693323
 20
3.0309802042
 30
0.0
 10
-1.2894229681
 20
3.336206749
 30
0.0
 10
-1.4806046825
 20
3.6104557913
 30
0.0
 10
-1.7023876881
 20
3.8358575409
 30
0.0
 10
-1.871467828
 20
3.9505264526
 30
0.0
 10
-1.9574467675
 20
3.9935159224
 30
0.0
 11
-1.3447222761
 21
1.6940898199
 31
0.0
 11
-1.2854329968
 21
1.7308177685
 31
0.0
 11
-1.1397051224
 21
1.8916246723
 31
0.0
 11
-1.0490330744
 21
2.118547775
 31
0.0
 11
-1.019687016
 21
2.3959790987
 31
0.0
 11
-1.0536492874
 21
2.7051159199
 31
0.0
 11
-1.1486074472
 21
3.0248201138
 31
0.0
 11
-1.2980516402
 21
3.3332557224
 31
0.0
 11
-1.4917852733
 21
3.609443027
 31
0.0
 11
-1.7167355236
 21
3.8347004632
 31
0.0
 11
-1.9574467675
 21
3.9935159224
 31
0.0
  0
SPLINE
  5
27F
100
AcDbEntity
  8
ASSI
100
AcDbSpline
 62
7
  6
CONTINUOUS
 70
0
 71
3
 72
10
 73
6
 74
4
 42
0.0000001
 43
0.0000001
 44
0.0000000001
 12
-0.5318836887
 22
0.2659418443
 32
0.0
 13
-0.5423349644
 23
-0.2556202157
 33
0.0
 40
0.0
 40
0.0
 40
0.0
 40
0.0
 40
0.4264225282
 40
0.8016701045
 40
1.0
 40
1.0
 40
1.0
 40
1.0
 10
-1.9574467675
 20
3.9935159224
 30
0.0
 10
-2.0330491633
 20
4.0313171203
 30
0.0
 10
-2.1847396017
 20
4.0863999421
 30
0.0
 10
-2.3877032709
 20
4.089812144
 30
0.0
 10
-2.4972789108
 20
4.0532020765
 30
0.0
 10
-2.5331326564
 20
4.0363030329
 30
0.0
 11
-1.9574467675
 21
3.9935159224
 31
0.0
 11
-2.1975406344
 21
4.0751052007
 31
0.0
 11
-2.4206836673
 21
4.0739087501
 31
0.0
 11
-2.5331326564
 21
4.0363030329
 31
0.0
  0
SPLINE
  5
280
100
AcDbEntity
  8
ASSI
100
AcDbSpline
 62
7
  6
CONTINUOUS
 70
0
 71
3
 72
23
 73
19
 74
17
 42
0.0000001
 43
0.0000001
 44
0.0000000001
 12
-5.4898497957
 22
2.7449248978
 32
0.0
 13
5.4898497957
 23
-2.7449248978
 33
0.0
 40
0.0
 40
0.0
 40
0.0
 40
0.0
 40
0.0633759472
 40
0.1323373498
 40
0.2055221246
 40
0.2812546768
 40
0.3577364998
 40
0.4332149166
 40
0.5060612433
 40
0.5746856975
 40
0.6379184498
 40
0.6952520823
 40
0.7470994914
 40
0.7950782834
 40
0.841759
 40
0.8900718639
 40
0.9424049049
 40
1.0
 40
1.0
 40
1.0
 40
1.0
 10
-2.2786547487
 20
0.6233118906
 30
0.0
 10
-2.3946295589
 20
0.6812992958
 30
0.0
 10
-2.6252312503
 20
0.8261996898
 30
0.0
 10
-2.9432541703
 20
1.103318207
 30
0.0
 10
-3.2374659058
 20
1.4398989551
 30
0.0
 10
-3.4963131451
 20
1.8228957274
 30
0.0
 10
-3.7101648457
 20
2.2379826647
 30
0.0
 10
-3.8711256161
 20
2.6700510138
 30
0.0
 10
-3.9730598824
 20
3.1033648746
 30
0.0
 10
-4.0118116437
 20
3.5219185857
 30
0.0
 10
-3.9854737118
 20
3.9100566214
 30
0.0
 10
-3.8942486779
 20
4.2535274434
 30
0.0
 10
-3.739779818
 20
4.5396663146
 30
0.0
 10
-3.5252357788
 20
4.7558055682
 30
0.0
 10
-3.258781569
 20
4.8889014345
 30
0.0
 10
-2.9555583904
 20
4.9313159462
 30
0.0
 10
-2.6317351737
 20
4.8844810699
 30
0.0
 10
-2.4206736008
 20
4.8015272277
 30
0.0
 10
-2.3152774604
 20
4.7488291575
 30
0.0
 11
-2.2786547487
 21
0.6233118906
 31
0.0
 11
-2.6095758573
 21
0.8277757794
 31
0.0
 11
-2.9301266198
 21
1.1041958521
 31
0.0
 11
-3.2267620723
 21
1.44151582
 31
0.0
 11
-3.4875706818
 21
1.8262880777
 31
0.0
 11
-3.7025149553
 21
2.2436205422
 31
0.0
 11
-3.8635560778
 21
2.6780038703
 31
0.0
 11
-3.9645202105
 21
3.1135743518
 31
0.0
 11
-4.0010991373
 21
3.533188856
 31
0.0
 11
-3.9717223757
 21
3.920187907
 31
0.0
 11
-3.8776840345
 21
4.2592950116
 31
0.0
 11
-3.7230109662
 21
4.5374087149
 31
0.0
 11
-3.5136250238
 21
4.7444825691
 31
0.0
 11
-3.257361814
 21
4.8726314541
 31
0.0
 11
-2.9641057235
 21
4.9166178067
 31
0.0
 11
-2.6456524474
 21
4.8746117678
 31
0.0
 11
-2.3152774604
 21
4.7488291575
 31
0.0
  0
SPLINE
  5
281
100
AcDbEntity
  8
ASSI
100
AcDbSpline
 62
253
  6
CONTINUOUS
 70
0
 71
3
 72
11
 73
7
 74
5
 42
0.0000001
 43
0.0000001
 44
0.0000000001
 12
-0.5102888932
 22
0.2801487103
 32
0.0
 13
-0.0188789663
 23
0.5784714166
 33
0.0
 40
0.0
 40
0.0
 40
0.0
 40
0.0
 40
0.1527284925
 40
0.4041914949
 40
0.6848539677
 40
1.0
 40
1.0
 40
1.0
 40
1.0
 10
-19.1312555481
 20
0.3181025286
 30
0.0
 10
-19.1572340992
 20
0.3323647586
 30
0.0
 10
-19.2215532038
 20
0.3783629472
 30
0.0
 10
-19.3025628044
 20
0.4858230072
 30
0.0
 10
-19.3593329165
 20
0.6410083386
 30
0.0
 10
-19.3732175287
 20
0.7560590892
 30
0.0
 10
-19.3752007391
 20
0.8168267465
 30
0.0
 11
-19.1312555481
 21
0.3181025286
 31
0.0
 11
-19.2034845017
 21
0.3696143541
 31
0.0
 11
-19.2930146888
 21
0.4843606161
 31
0.0
 11
-19.3512449016
 21
0.6360066993
 31
0.0
 11
-19.3752007391
 21
0.8168267465
 31
0.0
  0
SPLINE
  5
282
100
AcDbEntity
  8
ASSI
100
AcDbSpline
 62
253
  6
CONTINUOUS
 70
0
 71
3
 72
9
 73
5
 74
3
 42
0.0000001
 43
0.0000001
 44
0.0000000001
 12
0.0042467391
 22
-0.1188405267
 32
0.0
 13
0.1066391986
 23
-0.0534070687
 33
0.0
 40
0.0
 40
0.0
 40
0.0
 40
0.0
 40
0.434255131
 40
1.0
 40
1.0
 40
1.0
 40
1.0
 10
-19.4484297796
 20
0.9056426949
 30
0.0
 10
-19.4478150568
 20
0.8884403254
 30
0.0
 10
-19.4296466384
 20
0.8492265951
 30
0.0
 10
-19.3953109319
 20
0.8268983384
 30
0.0
 10
-19.3752007388
 20
0.8168267467
 30
0.0
 11
-19.4484297796
 21
0.9056426949
 31
0.0
 11
-19.4289868119
 21
0.8575670189
 31
0.0
 11
-19.3752007388
 21
0.8168267467
 31
0.0
  0
SPLINE
  5
283
100
AcDbEntity
  8
ASSI
100
AcDbSpline
 62
253
  6
CONTINUOUS
 70
0
 71
3
 72
13
 73
9
 74
7
 42
0.0000001
 43
0.0000001
 44
0.0000000001
 12
0.0236954385
 22
-0.7022854852
 32
0.0
 13
0.6783151378
 23
0.1834528559
 33
0.0
 40
0.0
 40
0.0
 40
0.0
 40
0.0
 40
0.1944363683
 40
0.3698341619
 40
0.5286102363
 40
0.6791816637
 40
0.8332005048
 40
1.0
 40
1.0
 40
1.0
 40
1.0
 10
15.5603089584
 20
-16.4687838506
 30
0.0
 10
15.56184471
 20
-16.5143004637
 30
0.0
 10
15.5726140743
 20
-16.6009980248
 30
0.0
 10
15.6166194749
 20
-16.7182281392
 30
0.0
 10
15.6872124782
 20
-16.8098105434
 30
0.0
 10
15.7816575705
 20
-16.8682720534
 30
0.0
 10
15.8924701671
 20
-16.8886360868
 30
0.0
 10
15.9680584193
 20
-16.8777695936
 30
0.0
 10
16.0057726268
 20
-16.8675696457
 30
0.0
 11
15.5603089584
 21
-16.4687838506
 31
0.0
 11
15.5787015758
 21
-16.6041677382
 31
0.0
 11
15.623746113
 21
-16.7188909227
 31
0.0
 11
15.6931498125
 21
-16.8062459383
 31
0.0
 11
15.783281147
 21
-16.8616615744
 31
0.0
 11
15.8895052506
 21
-16.8823852018
 31
0.0
 11
16.0057726268
 21
-16.8675696457
 31
0.0
  0
SPLINE
  5
284
100
AcDbEntity
  8
ASSI
100
AcDbSpline
 62
7
  6
CONTINUOUS
 70
0
 71
3
 72
9
 73
5
 74
3
 42
0.0000001
 43
0.0000001
 44
0.0000000001
 12
-0.2125403382
 22
-0.1001772164
 32
0.0
 13
-0.1460926054
 23
-0.1838715999
 33
0.0
 40
0.0
 40
0.0
 40
0.0
 40
0.0
 40
0.3886269166
 40
1.0
 40
1.0
 40
1.0
 40
1.0
 10
-2.5331326564
 20
4.0363030329
 30
0.0
 10
-2.5606656218
 20
4.0233258453
 30
0.0
 10
-2.6284244792
 20
3.9834994166
 30
0.0
 10
-2.6845879064
 20
3.9282297315
 30
0.0
 10
-2.7143602686
 20
3.8907583491
 30
0.0
 11
-2.5331326564
 21
4.0363030329
 31
0.0
 11
-2.6115801854
 21
3.9900381923
 31
0.0
 11
-2.7143602686
 21
3.8907583491
 31
0.0
  0
SPLINE
  5
285
100
AcDbEntity
  8
ASSI
100
AcDbSpline
 62
253
  6
CONTINUOUS
 70
0
 71
3
 72
9
 73
5
 74
3
 42
0.0000001
 43
0.0000001
 44
0.0000000001
 12
0.1060851227
 22
0.0557215843
 32
0.0
 13
0.1068996515
 23
-0.0515772518
 33
0.0
 40
0.0
 40
0.0
 40
0.0
 40
0.0
 40
0.4050937236
 40
1.0
 40
1.0
 40
1.0
 40
1.0
 10
-19.5494304174
 20
15.1345483434
 30
0.0
 10
-19.5351056116
 20
15.1420724981
 30
0.0
 10
-19.4945802597
 20
15.1518475918
 30
0.0
 10
-19.4550644846
 20
15.1397942022
 30
0.0
 10
-19.4338660601
 20
15.1295663253
 30
0.0
 11
-19.5494304174
 21
15.1345483434
 31
0.0
 11
-19.5024381527
 21
15.146410082
 31
0.0
 11
-19.4338660601
 21
15.1295663253
 31
0.0
  0
SPLINE
  5
286
100
AcDbEntity
  8
ASSI
100
AcDbSpline
 62
7
  6
CONTINUOUS
 70
0
 71
3
 72
9
 73
5
 74
3
 42
0.0000001
 43
0.0000001
 44
0.0000000001
 12
0.0841981654
 22
-0.0155320525
 32
0.0
 13
0.0855789643
 23
-0.004836101
 33
0.0
 40
0.0
 40
0.0
 40
0.0
 40
0.0
 40
0.0946475083
 40
1.0
 40
1.0
 40
1.0
 40
1.0
 10
-1.7074611999
 20
1.6471717666
 30
0.0
 10
-1.7048048177
 20
1.6466817432
 30
0.0
 10
-1.6767048431
 20
1.6416602339
 30
0.0
 10
-1.6482535358
 20
1.6383078605
 30
0.0
 10
-1.6224271596
 20
1.6368484018
 30
0.0
 11
-1.7074611999
 21
1.6471717666
 31
0.0
 11
-1.6994824852
 21
1.6457461489
 31
0.0
 11
-1.6224271596
 21
1.6368484018
 31
0.0
  0
SPLINE
  5
287
100
AcDbEntity
  8
ASSI
100
AcDbSpline
 62
7
  6
CONTINUOUS
 70
0
 71
3
 72
9
 73
5
 74
3
 42
0.0000001
 43
0.0000001
 44
0.0000000001
 12
0.286776432
 22
-0.0162058492
 32
0.0
 13
0.2545538317
 23
0.1336106244
 33
0.0
 40
0.0
 40
0.0
 40
0.0
 40
0.0
 40
0.5120959347
 40
1.0
 40
1.0
 40
1.0
 40
1.0
 10
-1.6224271596
 20
1.6368484018
 30
0.0
 10
-1.5734748113
 20
1.6340820853
 30
0.0
 10
-1.477406204
 20
1.6397341624
 30
0.0
 10
-1.3861215592
 20
1.6723600977
 30
0.0
 10
-1.3447222761
 20
1.6940898199
 30
0.0
 11
-1.6224271596
 21
1.6368484018
 31
0.0
 11
-1.4763366819
 21
1.6469445819
 31
0.0
 11
-1.3447222761
 21
1.6940898199
 31
0.0
  0
SPLINE
  5
288
100
AcDbEntity
  8
ASSI
100
AcDbSpline
 62
253
  6
CONTINUOUS
 70
0
 71
3
 72
12
 73
8
 74
6
 42
0.0000001
 43
0.0000001
 44
0.0000000001
 12
-0.0053497267
 22
0.3664563861
 32
0.0
 13
-0.3254083925
 23
0.1686068818
 33
0.0
 40
0.0
 40
0.0
 40
0.0
 40
0.0
 40
0.1955839747
 40
0.4065111841
 40
0.6196376798
 40
0.8218553915
 40
1.0
 40
1.0
 40
1.0
 40
1.0
 10
15.3198406128
 20
-2.4637603871
 30
0.0
 10
15.3194918392
 20
-2.4398693883
 30
0.0
 10
15.3122551576
 20
-2.3902349308
 30
0.0
 10
15.2866682718
 20
-2.3185737875
 30
0.0
 10
15.2480902712
 20
-2.2519737622
 30
0.0
 10
15.200329607
 20
-2.1968534382
 30
0.0
 10
15.1624140917
 20
-2.1689242611
 30
0.0
 10
15.1430908415
 20
-2.1589121255
 30
0.0
 11
15.3198406128
 21
-2.4637603871
 31
0.0
 11
15.3103177357
 21
-2.3927151337
 31
0.0
 11
15.2846286305
 21
-2.3198045276
 31
0.0
 11
15.2453540951
 21
-2.2522866383
 31
0.0
 11
15.196327301
 21
-2.1967083834
 31
0.0
 11
15.1430908415
 21
-2.1589121255
 31
0.0
  0
SPLINE
  5
289
100
AcDbEntity
  8
ASSI
100
AcDbSpline
 62
253
  6
CONTINUOUS
 70
0
 71
3
 72
11
 73
7
 74
5
 42
0.0000001
 43
0.0000001
 44
0.0000000001
 12
-0.0003852387
 22
0.3639158128
 32
0.0
 13
0.3226902033
 23
0.1682435732
 33
0.0
 40
0.0
 40
0.0
 40
0.0
 40
0.0
 40
0.24723321
 40
0.513083496
 40
0.7728623516
 40
1.0
 40
1.0
 40
1.0
 40
1.0
 10
-19.6075574282
 20
14.8259667121
 30
0.0
 10
-19.6075891761
 20
14.8559574036
 30
0.0
 10
-19.5973481947
 20
14.9183152376
 30
0.0
 10
-19.5600621814
 20
15.0051844267
 30
0.0
 10
-19.5053995405
 20
15.0793251223
 30
0.0
 10
-19.458297758
 20
15.1168281754
 30
0.0
 10
-19.4338660601
 20
15.1295663253
 30
0.0
 11
-19.6075574282
 21
14.8259667121
 31
0.0
 11
-19.5943502334
 21
14.9149642024
 31
0.0
 11
-19.5564922548
 21
15.0039967231
 31
0.0
 11
-19.4996864372
 21
15.0795643962
 31
0.0
 11
-19.4338660601
 21
15.1295663253
 31
0.0
  0
SPLINE
  5
28A
100
AcDbEntity
  8
ASSI
100
AcDbSpline
 62
253
  6
CONTINUOUS
 70
0
 71
3
 72
11
 73
7
 74
5
 42
0.0000001
 43
0.0000001
 44
0.0000000001
 12
-0.0003852361
 22
0.3639133035
 32
0.0
 13
0.3226879782
 23
0.1682424131
 33
0.0
 40
0.0
 40
0.0
 40
0.0
 40
0.0
 40
0.2461494134
 40
0.510593734
 40
0.7692500461
 40
1.0
 40
1.0
 40
1.0
 40
1.0
 10
14.9693994733
 20
-2.4625117387
 30
0.0
 10
14.9693678648
 20
-2.4326527233
 30
0.0
 10
14.9795156102
 20
-2.3705984823
 30
0.0
 10
15.0164883802
 20
-2.2840803259
 30
0.0
 10
15.0710090575
 20
-2.2097009318
 30
0.0
 10
15.1182707628
 20
-2.1718527685
 30
0.0
 10
15.1430908415
 20
-2.1589121255
 30
0.0
 11
14.9693994733
 21
-2.4625117387
 31
0.0
 11
14.9824970528
 21
-2.3738973516
 31
0.0
 11
15.0200097105
 21
-2.285274844
 31
0.0
 11
15.0763418924
 21
-2.2098635409
 31
0.0
 11
15.1430908415
 21
-2.1589121255
 31
0.0
  0
SPLINE
  5
28B
100
AcDbEntity
  8
ASSI
100
AcDbSpline
 62
253
  6
CONTINUOUS
 70
0
 71
3
 72
10
 73
6
 74
4
 42
0.0000001
 43
0.0000001
 44
0.0000000001
 12
-0.1066900285
 22
0.053347966
 32
0.0
 13
0.0004535062
 23
0.1185801457
 33
0.0
 40
0.0
 40
0.0
 40
0.0
 40
0.0
 40
0.5621967092
 40
0.9909786765
 40
1.0
 40
1.0
 40
1.0
 40
1.0
 10
-19.6075574282
 20
14.8259667121
 30
0.0
 10
-19.6275510225
 20
14.8359640624
 30
0.0
 10
-19.6616422149
 20
14.857598508
 30
0.0
 10
-19.680677658
 20
14.8967552387
 30
0.0
 10
-19.680778926
 20
14.9140584202
 30
0.0
 10
-19.6807775623
 20
14.9144150035
 30
0.0
 11
-19.6075574282
 21
14.8259667121
 31
0.0
 11
-19.6613309873
 21
14.8660369227
 31
0.0
 11
-19.680771257
 21
14.9133453936
 31
0.0
 11
-19.6807775623
 21
14.9144150035
 31
0.0
  0
SPLINE
  5
28C
100
AcDbEntity
  8
ASSI
100
AcDbSpline
 62
253
  6
CONTINUOUS
 70
0
 71
3
 72
10
 73
6
 74
4
 42
0.0000001
 43
0.0000001
 44
0.0000000001
 12
-0.0264958836
 22
-0.1937282825
 32
0.0
 13
-0.1913177821
 23
-0.052459215
 33
0.0
 40
0.0
 40
0.0
 40
0.0
 40
0.0
 40
0.4306837962
 40
0.8010691458
 40
1.0
 40
1.0
 40
1.0
 40
1.0
 10
16.0057726268
 20
-16.8675696457
 30
0.0
 10
16.0019688443
 20
-16.895381523
 30
0.0
 10
15.9874527089
 20
-16.9467118827
 30
0.0
 10
15.9447870427
 20
-16.9994744303
 30
0.0
 10
15.9100462281
 20
-17.0153192377
 30
0.0
 10
15.8973598915
 20
-17.0187978232
 30
0.0
 11
16.0057726268
 21
-16.8675696457
 31
0.0
 11
15.9806766852
 21
-16.9479556972
 31
0.0
 11
15.933048587
 21
-17.0025132458
 31
0.0
 11
15.8973598915
 21
-17.0187978232
 31
0.0
  0
SPLINE
  5
28D
100
AcDbEntity
  8
ASSI
100
AcDbSpline
 62
253
  6
CONTINUOUS
 70
0
 71
3
 72
11
 73
7
 74
5
 42
0.0000001
 43
0.0000001
 44
0.0000000001
 12
-0.3186059469
 22
-0.1690547765
 32
0.0
 13
-0.3227066243
 23
0.1610891104
 33
0.0
 40
0.0
 40
0.0
 40
0.0
 40
0.0
 40
0.2388448156
 40
0.503580789
 40
0.7663861237
 40
1.0
 40
1.0
 40
1.0
 40
1.0
 10
15.5603089581
 20
-16.4687838505
 30
0.0
 10
15.5349431652
 20
-16.4822431361
 30
0.0
 10
15.4769022529
 20
-16.5020680782
 30
0.0
 10
15.3848596249
 20
-16.5129125446
 30
0.0
 10
15.2930857229
 20
-16.5058687624
 30
0.0
 10
15.2351490569
 20
-16.4883144145
 30
0.0
 10
15.2100194751
 20
-16.4757701974
 30
0.0
 11
15.5603089581
 21
-16.4687838505
 31
0.0
 11
15.4793377319
 21
-16.4981920618
 31
0.0
 11
15.3845650074
 21
-16.5098305586
 31
0.0
 11
15.2901034724
 21
-16.5019662425
 31
0.0
 11
15.2100194751
 21
-16.4757701974
 31
0.0
  0
SPLINE
  5
28E
100
AcDbEntity
  8
ASSI
100
AcDbSpline
 62
253
  6
CONTINUOUS
 70
0
 71
3
 72
11
 73
7
 74
5
 42
0.0000001
 43
0.0000001
 44
0.0000000001
 12
-0.3239020885
 22
-0.1568996966
 32
0.0
 13
-0.3219104786
 23
0.1609463312
 33
0.0
 40
0.0
 40
0.0
 40
0.0
 40
0.0
 40
0.2366865896
 40
0.5013293948
 40
0.7652575904
 40
1.0
 40
1.0
 40
1.0
 40
1.0
 10
15.3198406128
 20
-2.4637603871
 30
0.0
 10
15.2942861859
 20
-2.4761390718
 30
0.0
 10
15.2359951282
 20
-2.4937622141
 30
0.0
 10
15.1440699273
 20
-2.5019868502
 30
0.0
 10
15.0524382275
 20
-2.4931554993
 30
0.0
 10
14.9945881538
 20
-2.4751053819
 30
0.0
 10
14.9693994733
 20
-2.4625117387
 30
0.0
 11
15.3198406128
 21
-2.4637603871
 31
0.0
 11
15.2388154389
 21
-2.490052331
 31
0.0
 11
15.1439944943
 21
-2.4990374821
 31
0.0
 11
15.0494984188
 21
-2.4893777803
 31
0.0
 11
14.9693994733
 21
-2.4625117387
 31
0.0
  0
SPLINE
  5
28F
100
AcDbEntity
  8
ASSI
100
AcDbSpline
 62
253
  6
CONTINUOUS
 70
0
 71
3
 72
11
 73
7
 74
5
 42
0.0000001
 43
0.0000001
 44
0.0000000001
 12
0.0199946315
 22
-0.5969871297
 32
0.0
 13
0.5355973488
 23
-0.2715057779
 33
0.0
 40
0.0
 40
0.0
 40
0.0
 40
0.0
 40
0.3060317019
 40
0.580122921
 40
0.8278011484
 40
1.0
 40
1.0
 40
1.0
 40
1.0
 10
15.210006926
 20
-16.4757770861
 30
0.0
 10
15.2120465897
 20
-16.5366760818
 30
0.0
 10
15.2263931138
 20
-16.6522844939
 30
0.0
 10
15.2848870529
 20
-16.8083555151
 30
0.0
 10
15.3706502827
 20
-16.9199055444
 30
0.0
 10
15.4406473744
 20
-16.9679386869
 30
0.0
 10
15.4713904571
 20
-16.9835230147
 30
0.0
 11
15.210006926
 21
-16.4757770861
 31
0.0
 11
15.2345982451
 21
-16.6569148741
 31
0.0
 11
15.2943733127
 21
-16.8093333847
 31
0.0
 11
15.3862788828
 21
-16.9252673381
 31
0.0
 11
15.4713904571
 21
-16.9835230147
 31
0.0
  0
LINE
  5
290
100
AcDbEntity
  8
ASSI
100
AcDbLine
 62
253
  6
CONTINUOUS
 10
-19.3752007391
 20
0.8168267465
 11
-19.378138317
 21
0.9077952103
  0
SPLINE
  5
291
100
AcDbEntity
  8
ASSI
100
AcDbSpline
 62
7
  6
CONTINUOUS
 70
0
 71
3
 72
23
 73
19
 74
17
 42
0.0000001
 43
0.0000001
 44
0.0000000001
 12
5.4809337654
 22
-2.7404668827
 32
0.0
 13
-5.4809337654
 23
2.7404668827
 33
0.0
 40
0.0
 40
0.0
 40
0.0
 40
0.0
 40
0.0634449407
 40
0.1324477445
 40
0.2056827505
 40
0.2814987184
 40
0.3581052134
 40
0.4337406299
 40
0.5067520141
 40
0.5755133631
 40
0.638814125
 40
0.6961125467
 40
0.7478089476
 40
0.7955473522
 40
0.841969734
 40
0.8900926282
 40
0.9423554061
 40
1.0
 40
1.0
 40
1.0
 40
1.0
 10
-2.3152774604
 20
4.7488291575
 30
0.0
 10
-2.1993649545
 20
4.6908729046
 30
0.0
 10
-1.9690498946
 20
4.5458589742
 30
0.0
 10
-1.6520046708
 20
4.2681188362
 30
0.0
 10
-1.3593254506
 20
3.9306664795
 30
0.0
 10
-1.1023231788
 20
3.5466895998
 30
0.0
 10
-0.8903392455
 20
3.1306649045
 30
0.0
 10
-0.730981611
 20
2.6978446075
 30
0.0
 10
-0.6301351332
 20
2.2640823177
 30
0.0
 10
-0.5917747563
 20
1.8454541157
 30
0.0
 10
-0.6177252064
 20
1.457616236
 30
0.0
 10
-0.7078268835
 20
1.1147338395
 30
0.0
 10
-0.8606431785
 20
0.8293089188
 30
0.0
 10
-1.0734006582
 20
0.6139091131
 30
0.0
 10
-1.3382421842
 20
0.4816811215
 30
0.0
 10
-1.6400404277
 20
0.4401895241
 30
0.0
 10
-1.9627702364
 20
0.4876597645
 30
0.0
 10
-2.1733393483
 20
0.5706541904
 30
0.0
 10
-2.2786547487
 20
0.6233118906
 30
0.0
 11
-2.3152774604
 21
4.7488291575
 31
0.0
 11
-1.9847163401
 21
4.5441805022
 31
0.0
 11
-1.6651963011
 21
4.2672314036
 31
0.0
 11
-1.3701062095
 21
3.9291182687
 31
0.0
 11
-1.1111197561
 21
3.543410777
 31
0.0
 11
-0.8979964213
 21
3.1251437031
 31
0.0
 11
-0.7385003041
 21
2.6899673905
 31
0.0
 11
-0.6385714579
 21
2.2538655412
 31
0.0
 11
-0.602356806
 21
1.8340640704
 31
0.0
 11
-0.6313697513
 21
1.4472517506
 31
0.0
 11
-0.7243732851
 21
1.108675768
 31
0.0
 11
-0.8775016564
 21
0.831354891
 31
0.0
 11
-1.0850665966
 21
0.6252156786
 31
0.0
 11
-1.3395073484
 21
0.4980021826
 31
0.0
 11
-1.6312177803
 21
0.4548091499
 31
0.0
 11
-1.9486400832
 21
0.4973443428
 31
0.0
 11
-2.2786547487
 21
0.6233118906
 31
0.0
  0
ELLIPSE
  5
292
100
AcDbEntity
  8
RACCORDO
100
AcDbEllipse
 62
7
  6
CONTINUOUS
 10
-15.7140075485
 20
16.9199200208
 30
0.0
 11
-0.1118504554
 21
0.2236675568
 31
0.0
 40
0.6121897086
 41
-0.6846338794
 42
0.01860359
  0
ELLIPSE
  5
293
100
AcDbEntity
  8
RACCORDO
100
AcDbEllipse
 62
7
  6
CONTINUOUS
 10
18.7266428521
 20
-16.1406930769
 30
0.0
 11
-0.0859020599
 21
0.2354039488
 31
0.0
 40
0.6613288813
 41
-3.0814589183
 42
-2.1814380601
  0
ELLIPSE
  5
294
100
AcDbEntity
  8
RACCORDO
100
AcDbEllipse
 62
7
  6
CONTINUOUS
 10
18.9950074758
 20
-0.4345874914
 30
0.0
 11
-0.1117903878
 21
0.2236141634
 31
0.0
 40
0.6125552124
 41
-2.255296188
 42
-0.6848044477
  0
ELLIPSE
  5
295
100
AcDbEntity
  8
RACCORDO
100
AcDbEllipse
 62
7
  6
CONTINUOUS
 10
18.2036131622
 20
-16.3877406922
 30
0.0
 11
-0.1118523001
 21
0.2236266191
 31
0.0
 40
0.6122950388
 41
2.456793014
 42
4.0274370417
  0
ELLIPSE
  5
296
100
AcDbEntity
  8
RACCORDO
100
AcDbEllipse
 62
7
  6
CONTINUOUS
 10
19.3876459119
 20
-1.0254565676
 30
0.0
 11
0.1379861541
 21
0.2664038768
 31
0.0
 40
0.6229838795
 41
2.2644017489
 42
3.8177447832
  0
ELLIPSE
  5
297
100
AcDbEntity
  8
RACCORDO
100
AcDbEllipse
 62
7
  6
CONTINUOUS
 10
18.2036131622
 20
-16.1359378896
 30
0.0
 11
-0.1098985543
 21
0.2275784384
 31
0.0
 40
0.6085747011
 41
-3.254853034
 42
-2.2415613143
  0
ELLIPSE
  5
298
100
AcDbEntity
  8
ASSI
100
AcDbEllipse
 62
7
  6
CONTINUOUS
 10
-15.7140075485
 20
16.9199200208
 30
0.0
 11
-0.1118504554
 21
0.2236675568
 31
0.0
 40
0.6121897086
 41
-0.6846338794
 42
0.01860359
  0
ELLIPSE
  5
299
100
AcDbEntity
  8
ASSI
100
AcDbEllipse
 62
7
  6
CONTINUOUS
 10
18.7266428521
 20
-16.1406930769
 30
0.0
 11
-0.0859020599
 21
0.2354039488
 31
0.0
 40
0.6613288813
 41
-3.0814589183
 42
-2.1814380601
  0
ELLIPSE
  5
29A
100
AcDbEntity
  8
ASSI
100
AcDbEllipse
 62
7
  6
CONTINUOUS
 10
18.9950074758
 20
-0.4345874914
 30
0.0
 11
-0.1117903878
 21
0.2236141634
 31
0.0
 40
0.6125552124
 41
-2.255296188
 42
-0.6848044477
  0
ELLIPSE
  5
29B
100
AcDbEntity
  8
ASSI
100
AcDbEllipse
 62
7
  6
CONTINUOUS
 10
18.2036131622
 20
-16.3877406922
 30
0.0
 11
-0.1118523001
 21
0.2236266191
 31
0.0
 40
0.6122950388
 41
2.456793014
 42
4.0274370417
  0
ELLIPSE
  5
29C
100
AcDbEntity
  8
ASSI
100
AcDbEllipse
 62
7
  6
CONTINUOUS
 10
19.3876459119
 20
-1.0254565676
 30
0.0
 11
0.1379861541
 21
0.2664038768
 31
0.0
 40
0.6229838795
 41
2.2644017489
 42
3.8177447832
  0
ELLIPSE
  5
29D
100
AcDbEntity
  8
ASSI
100
AcDbEllipse
 62
7
  6
CONTINUOUS
 10
18.2036131622
 20
-16.1359378896
 30
0.0
 11
-0.1098985543
 21
0.2275784384
 31
0.0
 40
0.6085747011
 41
-3.254853034
 42
-2.2415613143
  0
ELLIPSE
  5
29E
100
AcDbEntity
  8
CURVE
100
AcDbEllipse
 62
253
  6
CONTINUOUS
 10
288.0187130686
 20
162.0099014898
 30
0.0
 11
-315.2613449681
 21
510.1035714974
 31
0.0
 40
0.5587454355
 41
1.5448121956
 42
1.5543456858
  0
ELLIPSE
  5
29F
100
AcDbEntity
  8
CURVE
100
AcDbEllipse
 62
253
  6
CONTINUOUS
 10
308.3833883667
 20
151.8275638407
 30
0.0
 11
424.4616252599
 21
262.3317113306
 31
0.0
 40
0.0815198604
 41
2.330210359
 42
2.3397438492
  0
ENDSEC
  0
SECTION
  2
OBJECTS
  0
DICTIONARY
  5
C
100
AcDbDictionary
280
0
281
1
  3
ACAD_GROUP
350
D
  3
ACAD_MLINESTYLE
350
17
  3
ACAD_LAYOUT
350
1A
  3
ACAD_PLOTSETTINGS
350
19
  3
ACAD_PLOTSTYLENAME
350
E
  0
DICTIONARY
  5
D
102
{ACAD_REACTORS
330
C
102
}
100
AcDbDictionary
280
0
281
1
  0
ACDBDICTIONARYWDFLT
  5
E
102
{ACAD_REACTORS
330
C
102
}
100
AcDbDictionary
281
1
  3
Normal
350
F
100
AcDbDictionaryWithDefault
340
F
  0
DICTIONARY
  5
17
102
{ACAD_REACTORS
330
C
102
}
100
AcDbDictionary
280
0
281
1
  3
Standard
350
18
  0
DICTIONARY
  5
19
102
{ACAD_REACTORS
330
C
102
}
100
AcDbDictionary
281
1
  0
DICTIONARY
  5
1A
102
{ACAD_REACTORS
330
C
102
}
100
AcDbDictionary
281
1
  3
Model
350
2A0
  3
Layout1
350
2A1
  0
ACDBPLACEHOLDER
  5
F
102
{ACAD_REACTORS
330
E
102
}
  0
MLINESTYLE
  5
18
102
{ACAD_REACTORS
330
17
102
}
100
AcDbMlineStyle
  2
STANDARD
 70
0
  3

 62
256
 51
90.0
 52
90.0
 71
2
 49
0.5
 62
256
  6
BYLAYER
 49
-0.5
 62
256
  6
BYLAYER
  0
LAYOUT
  5
2A0
102
{ACAD_REACTORS
330
1A
102
}
100
AcDbPlotSettings
  1

  2
none_device
  4
ISO_A4_(297.00_x_210.00_MM)
  6

 40
0.0
 41
0.0
 42
0.0
 43
0.0
 44
297.0
 45
210.0
 46
0.0
 47
0.0
 48
0.0
 49
0.0
140
0.0
141
0.0
142
1.0
143
1.0
 70
1024
 72
1
 73
0
 74
0
  7

 75
0
147
1.0
148
0.0
149
0.0
100
AcDbLayout
  1
Model
 70
0
 71
0
 10
0.0
 20
0.0
 11
297.0
 21
210.0
 12
0.0
 22
0.0
 32
0.0
 14
0.0
 24
0.0
 34
0.0
 15
0.0
 25
0.0
 35
0.0
146
0.0
 13
0.0
 23
0.0
 33
0.0
 16
1.0
 26
0.0
 36
0.0
 17
0.0
 27
1.0
 37
0.0
 76
0
330
210
345
0
346
0
  0
LAYOUT
  5
2A1
102
{ACAD_REACTORS
330
1A
102
}
100
AcDbPlotSettings
  1

  2
none_device
  4
ISO_A4_(297.00_x_210.00_MM)
  6

 40
0.0
 41
0.0
 42
0.0
 43
0.0
 44
297.0
 45
210.0
 46
0.0
 47
0.0
 48
0.0
 49
0.0
140
0.0
141
0.0
142
1.0
143
1.0
 70
0
 72
1
 73
0
 74
0
  7

 75
0
147
1.0
148
0.0
149
0.0
100
AcDbLayout
  1
Layout1
 70
0
 71
1
 10
0.0
 20
0.0
 11
297.0
 21
210.0
 12
0.0
 22
0.0
 32
0.0
 14
0.0
 24
0.0
 34
0.0
 15
0.0
 25
0.0
 35
0.0
146
0.0
 13
0.0
 23
0.0
 33
0.0
 16
1.0
 26
0.0
 36
0.0
 17
0.0
 27
1.0
 37
0.0
 76
0
330
211
345
0
346
0
  0
ENDSEC
  0
EOF
