  0
SECTION
  2
HEADER
  9
$ACADVER
  1
AC1015
  9
$DWGCODEPAGE
  3
ANSI_1252
  9
$EXTMAX
 10
297.0
 20
210.0
 30
0.0
  9
$EXTMIN
 10
0.0
 20
0.0
 30
0.0
  9
$LIMMIN
 10
0.0
 20
0.0
  9
$LIMMAX
 10
297.0
 20
210.0
  9
$VIEWCTR
 10
148.5
 20
105.0
  9
$VIEWSIZE
 40
210.0
  9
$CLAYER
  8
0
  9
$LTSCALE
 40
16.335
  9
$CELTYPE
  6
BYLAYER
  9
$DIMSCALE
 40
1.0
  9
$DIMASZ
 40
3.0
  9
$DIMEXO
 40
1.85625
  9
$DIMDLI
 40
11.286
  9
$DIMEXE
 40
5.346
  9
$DIMCEN
 40
2.673
  9
$DIMLFAC
 40
1.0
  9
$DIMBLK
  1
_FILLED
  9
$DIMTXT
 40
3.0
  9
$DIMTOL
 70
1
  9
$DIMLIM
 70
0
  9
$DIMTFAC
 40
1.0
  9
$DIMTP
 40
0.01
  9
$DIMTM
 40
0.01
  9
$PDMODE
 70
3
  9
$PDSIZE
 40
3.0
  9
$HANDSEED
  5
2A4
  9
$TILEMODE
 70
1
  9
$MEASUREMENT
 70
1
  9
$INSUNITS
 70
4
  0
ENDSEC
  0
SECTION
  2
CLASSES
  0
CLASS
  1
ACDBDICTIONARYWDFLT
  2
AcDbDictionaryWithDefault
  3
AutoCAD 2000
 90
0
280
0
281
0
  0
CLASS
  1
ACDBPLACEHOLDER
  2
AcDbPlaceHolder
  3
AutoCAD 2000
 90
0
280
0
281
0
  0
CLASS
  1
LAYOUT
  2
AcDbLayout
  3
AutoCAD 2000
 90
0
280
0
281
0
  0
ENDSEC
  0
SECTION
  2
TABLES
  0
TABLE
  2
VPORT
  5
8
100
AcDbSymbolTable
 70
2
  0
VPORT
  5
1F4
100
AcDbSymbolTableRecord
100
AcDbViewportTableRecord
  2
*ACTIVE
 70
0
 10
0.0
 20
0.0
 11
1.0
 21
1.0
 12
148.5
 22
105.0
 13
0.0
 23
0.0
 14
1.0
 24
1.0
 15
0.0
 25
0.0
 16
0.0
 26
0.0
 36
1.0
 17
0.0
 27
0.0
 37
0.0
 40
210.0
 41
1.4142857143
 42
50.0
 43
0.0
 44
0.0
 50
0.0
 51
0.0
 71
0
 72
100
 73
1
 74
1
 75
0
 76
0
 77
0
 78
0
  0
ENDTAB
  0
TABLE
  2
LTYPE
  5
5
100
AcDbSymbolTable
 70
6
  0
LTYPE
  5
14
100
AcDbSymbolTableRecord
100
AcDbLinetypeTableRecord
  2
BYBLOCK
 70
0
  3

 72
65
 73
0
 40
0.0
  0
LTYPE
  5
15
100
AcDbSymbolTableRecord
100
AcDbLinetypeTableRecord
  2
BYLAYER
 70
0
  3

 72
65
 73
0
 40
0.0
  0
LTYPE
  5
16
100
AcDbSymbolTableRecord
100
AcDbLinetypeTableRecord
  2
CONTINUOUS
 70
64
  3
Solid line
 72
65
 73
0
 40
0.0
  0
LTYPE
  5
1F5
100
AcDbSymbolTableRecord
100
AcDbLinetypeTableRecord
  2
CENTER
 70
64
  3
____ _ ____ _ ____ _ ____ _ ____ _ ____ _ ____
 72
65
 73
4
 40
0.6
 49
0.375
 74
0
 49
-0.075
 74
0
 49
0.075
 74
0
 49
-0.075
 74
0
  0
LTYPE
  5
1F6
100
AcDbSymbolTableRecord
100
AcDbLinetypeTableRecord
  2
HIDDEN
 70
64
  3
- - - - - - - - - - - - - - - - - - - -
 72
65
 73
2
 40
0.2
 49
0.1
 74
0
 49
-0.1
 74
0
  0
LTYPE
  5
1F7
100
AcDbSymbolTableRecord
100
AcDbLinetypeTableRecord
  2
PHANTOM
 70
64
  3
_____ _ _ _____ _ _ _____ _ _ _____
 72
65
 73
6
 40
0.8
 49
0.45
 74
0
 49
-0.05
 74
0
 49
0.1
 74
0
 49
-0.05
 74
0
 49
0.1
 74
0
 49
-0.05
 74
0
  0
LTYPE
  5
1F8
100
AcDbSymbolTableRecord
100
AcDbLinetypeTableRecord
  2
DOT
 70
64
  3
. . . . . . . . . . . . . . . . . . . .
 72
65
 73
2
 40
0.2
 49
0.1
 74
0
 49
-0.1
 74
0
  0
LTYPE
  5
1F9
100
AcDbSymbolTableRecord
100
AcDbLinetypeTableRecord
  2
DASHED
 70
64
  3
- - - - - - - - - - - - - - - - - - - -
 72
65
 73
2
 40
0.2
 49
0.1
 74
0
 49
-0.1
 74
0
  0
ENDTAB
  0
TABLE
  2
LAYER
  5
2
100
AcDbSymbolTable
 70
36
  0
LAYER
  5
10
100
AcDbSymbolTableRecord
100
AcDbLayerTableRecord
  2
0
 70
0
 62
7
  6
CONTINUOUS
370
-3
390
F
  0
LAYER
  5
1FA
100
AcDbSymbolTableRecord
100
AcDbLayerTableRecord
  2
DEFAULT_1
 70
0
 62
7
  6
CENTER
370
-3
390
F
  0
LAYER
  5
1FB
100
AcDbSymbolTableRecord
100
AcDbLayerTableRecord
  2
DEFAULT_2
 70
0
 62
7
  6
HIDDEN
370
-3
390
F
  0
LAYER
  5
1FC
100
AcDbSymbolTableRecord
100
AcDbLayerTableRecord
  2
DEFAULT_3
 70
0
 62
7
  6
PHANTOM
370
-3
390
F
  0
LAYER
  5
1FD
100
AcDbSymbolTableRecord
100
AcDbLayerTableRecord
  2
ASSI
 70
0
 62
7
  6
CONTINUOUS
370
-3
390
F
  0
LAYER
  5
1FE
100
AcDbSymbolTableRecord
100
AcDbLayerTableRecord
  2
COORDINATE
 70
0
 62
7
  6
CONTINUOUS
370
-3
390
F
  0
LAYER
  5
1FF
100
AcDbSymbolTableRecord
100
AcDbLayerTableRecord
  2
COORD_ORIGINE
 70
0
 62
7
  6
CONTINUOUS
370
-3
390
F
  0
LAYER
  5
200
100
AcDbSymbolTableRecord
100
AcDbLayerTableRecord
  2
COPY_PUBLISH
 70
0
 62
7
  6
CONTINUOUS
370
-3
390
F
  0
LAYER
  5
201
100
AcDbSymbolTableRecord
100
AcDbLayerTableRecord
  2
COSMETIC
 70
0
 62
7
  6
CONTINUOUS
370
-3
390
F
  0
LAYER
  5
202
100
AcDbSymbolTableRecord
100
AcDbLayerTableRecord
  2
CURVE
 70
0
 62
7
  6
CONTINUOUS
370
-3
390
F
  0
LAYER
  5
203
100
AcDbSymbolTableRecord
100
AcDbLayerTableRecord
  2
DRAFT
 70
0
 62
7
  6
CONTINUOUS
370
-3
390
F
  0
LAYER
  5
204
100
AcDbSymbolTableRecord
100
AcDbLayerTableRecord
  2
IGES
 70
0
 62
7
  6
CONTINUOUS
370
-3
390
F
  0
LAYER
  5
205
100
AcDbSymbolTableRecord
100
AcDbLayerTableRecord
  2
IMPORT_IGES
 70
0
 62
7
  6
CONTINUOUS
370
-3
390
F
  0
LAYER
  5
206
100
AcDbSymbolTableRecord
100
AcDbLayerTableRecord
  2
INTF_12
 70
0
 62
7
  6
CONTINUOUS
370
-3
390
F
  0
LAYER
  5
207
100
AcDbSymbolTableRecord
100
AcDbLayerTableRecord
  2
NOTE
 70
0
 62
7
  6
CONTINUOUS
370
-3
390
F
  0
LAYER
  5
208
100
AcDbSymbolTableRecord
100
AcDbLayerTableRecord
  2
PIANI
 70
0
 62
7
  6
CONTINUOUS
370
-3
390
F
  0
LAYER
  5
209
100
AcDbSymbolTableRecord
100
AcDbLayerTableRecord
  2
PIANI_ORIGINE
 70
0
 62
7
  6
CONTINUOUS
370
-3
390
F
  0
LAYER
  5
20A
100
AcDbSymbolTableRecord
100
AcDbLayerTableRecord
  2
RACCORDO
 70
0
 62
7
  6
CONTINUOUS
370
-3
390
F
  0
LAYER
  5
20B
100
AcDbSymbolTableRecord
100
AcDbLayerTableRecord
  2
SMUSSO
 70
0
 62
7
  6
CONTINUOUS
370
-3
390
F
  0
LAYER
  5
20C
100
AcDbSymbolTableRecord
100
AcDbLayerTableRecord
  2
SUPERFICI
 70
0
 62
7
  6
CONTINUOUS
370
-3
390
F
  0
LAYER
  5
20D
100
AcDbSymbolTableRecord
100
AcDbLayerTableRecord
  2
TRASH
 70
0
 62
7
  6
CONTINUOUS
370
-3
390
F
  0
ENDTAB
  0
TABLE
  2
STYLE
  5
3
100
AcDbSymbolTable
 70
1
  0
STYLE
  5
11
100
AcDbSymbolTableRecord
100
AcDbTextStyleTableRecord
  2
STANDARD
 70
0
 40
0.0
 41
0.8
 50
0.0
 71
0
 42
0.2
  3
txt
  4

  0
STYLE
  5
20E
100
AcDbSymbolTableRecord
100
AcDbTextStyleTableRecord
  2
TEXTSTYLE_1
 70
0
 40
0.0
 41
0.8
 50
0.0
 71
0
 42
0.2
  3
gdt
  4

  0
ENDTAB
  0
TABLE
  2
VIEW
  5
6
100
AcDbSymbolTable
 70
0
  0
ENDTAB
  0
TABLE
  2
UCS
  5
7
100
AcDbSymbolTable
 70
0
  0
ENDTAB
  0
TABLE
  2
APPID
  5
9
100
AcDbSymbolTable
 70
1
  0
APPID
  5
20F
100
AcDbSymbolTableRecord
100
AcDbRegAppTableRecord
  2
ACAD
 70
0
  0
ENDTAB
  0
TABLE
  2
BLOCK_RECORD
  5
1
100
AcDbSymbolTable
 70
0
  0
BLOCK_RECORD
  5
210
100
AcDbSymbolTableRecord
100
AcDbBlockTableRecord
  2
*Model_Space
  0
BLOCK_RECORD
  5
211
100
AcDbSymbolTableRecord
100
AcDbBlockTableRecord
  2
*Paper_Space
  0
ENDTAB
  0
TABLE
  2
DIMSTYLE
  5
A
100
AcDbSymbolTable
 70
1
100
AcDbDimStyleTable
 71
0
  0
DIMSTYLE
105
212
100
AcDbSymbolTableRecord
100
AcDbDimStyleTableRecord
  2
STANDARD
 70
0
  3

  4

 40
1.0
 41
3.0
 42
0.0625
 43
0.38
 44
0.18
 45
0.0
 46
0.0
 47
0.01
 48
0.01
140
3.0
141
0.09
142
0.0
143
25.4
144
1.0
145
0.0
146
1.0
147
0.09
 71
1.0
 72
0.0
 73
0
 74
0
 75
0
 76
0
 77
1
 78
8
170
0
171
2
172
0
173
0
174
0
175
0
176
0
177
0
178
0
270
2
271
2
272
2
273
2
274
2
275
0
280
0
281
0
282
0
283
1
284
8
285
0
286
0
287
3
288
0
340
11
  0
ENDTAB
  0
ENDSEC
  0
SECTION
  2
BLOCKS
  0
BLOCK
  5
20
100
AcDbEntity
  8
0
100
AcDbBlockBegin
  2
*Model_Space
 70
0
 10
0.0
 20
0.0
 30
0.0
  3
*Model_Space
  1

  0
ENDBLK
  5
21
100
AcDbEntity
  8
0
100
AcDbBlockEnd
  0
BLOCK
  5
1C
100
AcDbEntity
  8
0
100
AcDbBlockBegin
  2
*Paper_Space
 70
0
 10
0.0
 20
0.0
 30
0.0
  3
*Paper_Space
  1

  0
ENDBLK
  5
1D
100
AcDbEntity
  8
0
100
AcDbBlockEnd
  0
ENDSEC
  0
SECTION
  2
ENTITIES
  0
LINE
  5
213
100
AcDbEntity
  8
RACCORDO
100
AcDbLine
 62
7
  6
CONTINUOUS
 10
-19.565278098
 20
15.0602558363
 11
-15.8442708473
 21
17.0678246142
  0
LINE
  5
214
100
AcDbEntity
  8
ASSI
100
AcDbLine
 62
7
  6
CONTINUOUS
 10
-19.565278098
 20
15.0602558363
 11
-15.8442708473
 21
17.0678246142
  0
LINE
  5
215
100
AcDbEntity
  8
RACCORDO
100
AcDbLine
 62
253
  6
CONTINUOUS
 10
-19.4496573216
 20
15.0551664051
 11
-15.7298526621
 21
17.0620863575
  0
LINE
  5
216
100
AcDbEntity
  8
ASSI
100
AcDbLine
 62
253
  6
CONTINUOUS
 10
-19.4496573216
 20
15.0551664051
 11
-15.7298526621
 21
17.0620863575
  0
LINE
  5
217
100
AcDbEntity
  8
DRAFT
100
AcDbLine
 62
7
  6
CONTINUOUS
 10
-13.4454805237
 20
15.9199002883
 11
-15.3812093854
 21
14.7210947867
  0
LINE
  5
218
100
AcDbEntity
  8
ASSI
100
AcDbLine
 62
7
  6
CONTINUOUS
 10
-13.4454805237
 20
15.9199002883
 11
-15.3812093854
 21
14.7210947867
  0
LINE
  5
219
100
AcDbEntity
  8
RACCORDO
100
AcDbLine
 62
7
  6
CONTINUOUS
 10
15.881616759
 20
-17.0933732705
 11
18.2810355075
 21
-16.4441057404
  0
LINE
  5
21A
100
AcDbEntity
  8
ASSI
100
AcDbLine
 62
7
  6
CONTINUOUS
 10
15.881616759
 20
-17.0933732705
 11
18.2810355075
 21
-16.4441057404
  0
LWPOLYLINE
  5
21B
100
AcDbEntity
  8
RACCORDO
100
AcDbPolyline
 62
7
  6
CONTINUOUS
 90
3
 70
0
 10
-19.4642131403
 20
0.8312907249
 10
-19.4637756391
 20
0.8198330771
 10
-19.457448991
 20
0.7436464281
  0
LWPOLYLINE
  5
21C
100
AcDbEntity
  8
ASSI
100
AcDbPolyline
 62
7
  6
CONTINUOUS
 90
3
 70
0
 10
-19.4642131403
 20
0.8312907249
 10
-19.4637756391
 20
0.8198330771
 10
-19.457448991
 20
0.7436464281
  0
LWPOLYLINE
  5
21D
100
AcDbEntity
  8
RACCORDO
100
AcDbPolyline
 62
7
  6
CONTINUOUS
 90
10
 70
0
 10
-19.6965720041
 20
14.8399755862
 10
-19.6924688223
 20
13.3209674969
 10
-19.6828264296
 20
11.7408262203
 10
-19.6677070831
 20
10.1635834596
 10
-19.6471110089
 20
8.5892719392
 10
-19.6210385945
 20
7.0179189245
 10
-19.5894902325
 20
5.4495499459
 10
-19.5524664128
 20
3.8841927151
 10
-19.5099679648
 20
2.3218801811
 10
-19.464223473
 20
0.8312426878
  0
LWPOLYLINE
  5
21E
100
AcDbEntity
  8
ASSI
100
AcDbPolyline
 62
7
  6
CONTINUOUS
 90
10
 70
0
 10
-19.6965720041
 20
14.8399755862
 10
-19.6924688223
 20
13.3209674969
 10
-19.6828264296
 20
11.7408262203
 10
-19.6677070831
 20
10.1635834596
 10
-19.6471110089
 20
8.5892719392
 10
-19.6210385945
 20
7.0179189245
 10
-19.5894902325
 20
5.4495499459
 10
-19.5524664128
 20
3.8841927151
 10
-19.5099679648
 20
2.3218801811
 10
-19.464223473
 20
0.8312426878
  0
LINE
  5
21F
100
AcDbEntity
  8
DRAFT
100
AcDbLine
 62
7
  6
CONTINUOUS
 10
-13.4454805237
 20
14.9320660046
 11
-14.4986664079
 21
14.2798232979
  0
LINE
  5
220
100
AcDbEntity
  8
ASSI
100
AcDbLine
 62
7
  6
CONTINUOUS
 10
-13.4454805237
 20
14.9320660046
 11
-14.4986664079
 21
14.2798232979
  0
LINE
  5
221
100
AcDbEntity
  8
RACCORDO
100
AcDbLine
 62
253
  6
CONTINUOUS
 10
15.9899813653
 20
-16.9419695658
 11
18.364625524
 21
-16.299405883
  0
LINE
  5
222
100
AcDbEntity
  8
ASSI
100
AcDbLine
 62
253
  6
CONTINUOUS
 10
15.9899813653
 20
-16.9419695658
 11
18.364625524
 21
-16.299405883
  0
LWPOLYLINE
  5
223
100
AcDbEntity
  8
RACCORDO
100
AcDbPolyline
 62
7
  6
CONTINUOUS
 90
11
 70
0
 10
-19.457448991
 20
0.7436464281
 10
-19.4453385624
 20
0.6707890719
 10
-19.4274658542
 20
0.6014394448
 10
-19.4039574063
 20
0.5360384644
 10
-19.3751562938
 20
0.4753579927
 10
-19.341445247
 20
0.4198604824
 10
-19.3030516033
 20
0.3695818522
 10
-19.2602736065
 20
0.3247386854
 10
-19.2135536471
 20
0.2856755469
 10
-19.1633952979
 20
0.2526386195
 10
-19.1351831568
 20
0.237421326
  0
LWPOLYLINE
  5
224
100
AcDbEntity
  8
ASSI
100
AcDbPolyline
 62
7
  6
CONTINUOUS
 90
11
 70
0
 10
-19.457448991
 20
0.7436464281
 10
-19.4453385624
 20
0.6707890719
 10
-19.4274658542
 20
0.6014394448
 10
-19.4039574063
 20
0.5360384644
 10
-19.3751562938
 20
0.4753579927
 10
-19.341445247
 20
0.4198604824
 10
-19.3030516033
 20
0.3695818522
 10
-19.2602736065
 20
0.3247386854
 10
-19.2135536471
 20
0.2856755469
 10
-19.1633952979
 20
0.2526386195
 10
-19.1351831568
 20
0.237421326
  0
LINE
  5
225
100
AcDbEntity
  8
DRAFT
100
AcDbLine
 62
7
  6
CONTINUOUS
 10
-13.4454805237
 20
15.9199002883
 11
-13.4454805237
 21
14.9320660046
  0
LINE
  5
226
100
AcDbEntity
  8
ASSI
100
AcDbLine
 62
7
  6
CONTINUOUS
 10
-13.4454805237
 20
15.9199002883
 11
-13.4454805237
 21
14.9320660046
  0
LWPOLYLINE
  5
227
100
AcDbEntity
  8
RACCORDO
100
AcDbPolyline
 62
7
  6
CONTINUOUS
 90
9
 70
0
 10
15.4556073442
 20
-17.0579704232
 10
15.472739568
 20
-17.0662244987
 10
15.5328926136
 20
-17.0896955801
 10
15.5968139176
 20
-17.1062126309
 10
15.6637625024
 20
-17.1152661891
 10
15.7326834611
 20
-17.1165324229
 10
15.8028944237
 20
-17.1099041197
 10
15.8739728266
 20
-17.0953755542
 10
15.8813121668
 20
-17.0934350421
  0
LWPOLYLINE
  5
228
100
AcDbEntity
  8
ASSI
100
AcDbPolyline
 62
7
  6
CONTINUOUS
 90
9
 70
0
 10
15.4556073442
 20
-17.0579704232
 10
15.472739568
 20
-17.0662244987
 10
15.5328926136
 20
-17.0896955801
 10
15.5968139176
 20
-17.1062126309
 10
15.6637625024
 20
-17.1152661891
 10
15.7326834611
 20
-17.1165324229
 10
15.8028944237
 20
-17.1099041197
 10
15.8739728266
 20
-17.0953755542
 10
15.8813121668
 20
-17.0934350421
  0
LINE
  5
229
100
AcDbEntity
  8
RACCORDO
100
AcDbLine
 62
7
  6
CONTINUOUS
 10
-19.1350807692
 20
0.2373549433
 11
15.4569767602
 21
-17.0586738213
  0
LINE
  5
22A
100
AcDbEntity
  8
ASSI
100
AcDbLine
 62
7
  6
CONTINUOUS
 10
-19.1350807692
 20
0.2373549433
 11
15.4569767602
 21
-17.0586738213
  0
LINE
  5
22B
100
AcDbEntity
  8
RACCORDO
100
AcDbLine
 62
253
  6
CONTINUOUS
 10
-19.3909920007
 20
0.7424268263
 11
15.1942156644
 21
-16.5501770062
  0
LINE
  5
22C
100
AcDbEntity
  8
ASSI
100
AcDbLine
 62
253
  6
CONTINUOUS
 10
-19.3909920007
 20
0.7424268263
 11
15.1942156644
 21
-16.5501770062
  0
LINE
  5
22D
100
AcDbEntity
  8
RACCORDO
100
AcDbLine
 62
7
  6
CONTINUOUS
 10
18.1878488277
 20
-16.678668671
 11
17.9161787994
 21
-16.5428336569
  0
LINE
  5
22E
100
AcDbEntity
  8
ASSI
100
AcDbLine
 62
7
  6
CONTINUOUS
 10
18.1878488277
 20
-16.678668671
 11
17.9161787994
 21
-16.5428336569
  0
LINE
  5
22F
100
AcDbEntity
  8
DRAFT
100
AcDbLine
 62
7
  6
CONTINUOUS
 10
-2.2496362399
 20
4.0049055678
 11
-2.6996199986
 21
3.7673548483
  0
LINE
  5
230
100
AcDbEntity
  8
DRAFT
100
AcDbLine
 62
7
  6
CONTINUOUS
 10
-1.1475624469
 20
1.8321211412
 11
-1.6202770489
 21
1.6086689472
  0
LINE
  5
231
100
AcDbEntity
  8
CURVE
100
AcDbLine
 62
253
  6
CONTINUOUS
 10
-5.1140318944
 20
-0.6883870446
 11
0.6135330332
 21
-3.5521695084
  0
LINE
  5
232
100
AcDbEntity
  8
RACCORDO
100
AcDbLine
 62
253
  6
CONTINUOUS
 10
14.953608212
 20
-2.5369116589
 11
-19.6233486878
 21
14.7515667909
  0
LINE
  5
233
100
AcDbEntity
  8
ASSI
100
AcDbLine
 62
253
  6
CONTINUOUS
 10
14.953608212
 20
-2.5369116589
 11
-19.6233486878
 21
14.7515667909
  0
LINE
  5
234
100
AcDbEntity
  8
RACCORDO
100
AcDbLine
 62
253
  6
CONTINUOUS
 10
15.1272995799
 20
-2.2333120456
 11
-19.4496573216
 21
15.0551664051
  0
LINE
  5
235
100
AcDbEntity
  8
ASSI
100
AcDbLine
 62
253
  6
CONTINUOUS
 10
15.1272995799
 20
-2.2333120456
 11
-19.4496573216
 21
15.0551664051
  0
LINE
  5
236
100
AcDbEntity
  8
DRAFT
100
AcDbLine
 62
7
  6
CONTINUOUS
 10
16.6948979278
 20
0.8497110626
 11
14.3879861025
 21
-0.1635029573
  0
LINE
  5
237
100
AcDbEntity
  8
ASSI
100
AcDbLine
 62
7
  6
CONTINUOUS
 10
16.6948979278
 20
0.8497110626
 11
14.3879861025
 21
-0.1635029573
  0
LINE
  5
238
100
AcDbEntity
  8
DRAFT
100
AcDbLine
 62
7
  6
CONTINUOUS
 10
14.3879861025
 20
-0.1635029573
 11
-15.3812093854
 21
14.7210947867
  0
LINE
  5
239
100
AcDbEntity
  8
ASSI
100
AcDbLine
 62
7
  6
CONTINUOUS
 10
14.3879861025
 20
-0.1635029573
 11
-15.3812093854
 21
14.7210947867
  0
LINE
  5
23A
100
AcDbEntity
  8
RACCORDO
100
AcDbLine
 62
253
  6
CONTINUOUS
 10
18.9792700663
 20
-0.2924750066
 11
15.1272995799
 21
-2.2333120456
  0
LINE
  5
23B
100
AcDbEntity
  8
ASSI
100
AcDbLine
 62
253
  6
CONTINUOUS
 10
18.9792700663
 20
-0.2924750066
 11
15.1272995799
 21
-2.2333120456
  0
LINE
  5
23C
100
AcDbEntity
  8
RACCORDO
100
AcDbLine
 62
253
  6
CONTINUOUS
 10
19.3680878135
 20
-1.361443335
 11
19.1613289258
 21
-1.2580638911
  0
LINE
  5
23D
100
AcDbEntity
  8
ASSI
100
AcDbLine
 62
253
  6
CONTINUOUS
 10
19.3680878135
 20
-1.361443335
 11
19.1613289258
 21
-1.2580638911
  0
LINE
  5
23E
100
AcDbEntity
  8
DRAFT
100
AcDbLine
 62
7
  6
CONTINUOUS
 10
19.443799588
 20
-1.3264771285
 11
19.1560198376
 21
-1.1825872533
  0
LINE
  5
23F
100
AcDbEntity
  8
ASSI
100
AcDbLine
 62
7
  6
CONTINUOUS
 10
19.443799588
 20
-1.3264771285
 11
19.1560198376
 21
-1.1825872533
  0
LINE
  5
240
100
AcDbEntity
  8
RACCORDO
100
AcDbLine
 62
7
  6
CONTINUOUS
 10
18.9792700663
 20
-0.2924750066
 11
16.6948979278
 21
0.8497110626
  0
LINE
  5
241
100
AcDbEntity
  8
ASSI
100
AcDbLine
 62
7
  6
CONTINUOUS
 10
18.9792700663
 20
-0.2924750066
 11
16.6948979278
 21
0.8497110626
  0
LINE
  5
242
100
AcDbEntity
  8
RACCORDO
100
AcDbLine
 62
7
  6
CONTINUOUS
 10
-13.4454805237
 20
15.9199002883
 11
-15.7298526621
 21
17.0620863575
  0
LINE
  5
243
100
AcDbEntity
  8
ASSI
100
AcDbLine
 62
7
  6
CONTINUOUS
 10
-13.4454805237
 20
15.9199002883
 11
-15.7298526621
 21
17.0620863575
  0
LINE
  5
244
100
AcDbEntity
  8
RACCORDO
100
AcDbLine
 62
253
  6
CONTINUOUS
 10
19.1560198376
 20
-0.5973232683
 11
15.3040493531
 21
-2.5381603064
  0
LINE
  5
245
100
AcDbEntity
  8
ASSI
100
AcDbLine
 62
253
  6
CONTINUOUS
 10
19.1560198376
 20
-0.5973232683
 11
15.3040493531
 21
-2.5381603064
  0
LINE
  5
246
100
AcDbEntity
  8
RACCORDO
100
AcDbLine
 62
7
  6
CONTINUOUS
 10
19.443799588
 20
-1.3264771285
 11
19.3680878135
 21
-1.361443335
  0
LINE
  5
247
100
AcDbEntity
  8
ASSI
100
AcDbLine
 62
7
  6
CONTINUOUS
 10
19.443799588
 20
-1.3264771285
 11
19.3680878135
 21
-1.361443335
  0
LINE
  5
248
100
AcDbEntity
  8
RACCORDO
100
AcDbLine
 62
7
  6
CONTINUOUS
 10
18.364625524
 20
-16.299405883
 11
18.364625524
 21
-16.550575399
  0
LINE
  5
249
100
AcDbEntity
  8
ASSI
100
AcDbLine
 62
7
  6
CONTINUOUS
 10
18.364625524
 20
-16.299405883
 11
18.364625524
 21
-16.550575399
  0
LINE
  5
24A
100
AcDbEntity
  8
RACCORDO
100
AcDbLine
 62
7
  6
CONTINUOUS
 10
19.1560198376
 20
-1.2040711157
 11
19.1560198376
 21
-0.5973232683
  0
LINE
  5
24B
100
AcDbEntity
  8
ASSI
100
AcDbLine
 62
7
  6
CONTINUOUS
 10
19.1560198376
 20
-1.2040711157
 11
19.1560198376
 21
-0.5973232683
  0
LINE
  5
24C
100
AcDbEntity
  8
DRAFT
100
AcDbLine
 62
7
  6
CONTINUOUS
 10
19.443799588
 20
-1.3264771285
 11
19.443799588
 21
-9.6655753586
  0
LINE
  5
24D
100
AcDbEntity
  8
ASSI
100
AcDbLine
 62
7
  6
CONTINUOUS
 10
19.443799588
 20
-1.3264771285
 11
19.443799588
 21
-9.6655753586
  0
LINE
  5
24E
100
AcDbEntity
  8
RACCORDO
100
AcDbLine
 62
7
  6
CONTINUOUS
 10
18.8876523373
 20
-16.3035291424
 11
19.443799588
 21
-9.6655753586
  0
LINE
  5
24F
100
AcDbEntity
  8
ASSI
100
AcDbLine
 62
7
  6
CONTINUOUS
 10
18.8876523373
 20
-16.3035291424
 11
19.443799588
 21
-9.6655753586
  0
LINE
  5
250
100
AcDbEntity
  8
RACCORDO
100
AcDbLine
 62
253
  6
CONTINUOUS
 10
18.364625524
 20
-16.550575399
 11
18.8876523373
 21
-16.3035291424
  0
LINE
  5
251
100
AcDbEntity
  8
ASSI
100
AcDbLine
 62
253
  6
CONTINUOUS
 10
18.364625524
 20
-16.550575399
 11
18.8876523373
 21
-16.3035291424
  0
LINE
  5
252
100
AcDbEntity
  8
RACCORDO
100
AcDbLine
 62
7
  6
CONTINUOUS
 10
18.297757402
 20
-16.6866988816
 11
18.8060741328
 21
-16.446600779
  0
LINE
  5
253
100
AcDbEntity
  8
ASSI
100
AcDbLine
 62
7
  6
CONTINUOUS
 10
18.297757402
 20
-16.6866988816
 11
18.8060741328
 21
-16.446600779
  0
ARC
  5
254
100
AcDbEntity
  8
RACCORDO
100
AcDbCircle
 62
253
  6
CONTINUOUS
 10
428.6889552747
 20
15.1777500339
 40
448.3125316038
100
AcDbArc
 50
180.0544675967
 51
181.8335679219
  0
ARC
  5
255
100
AcDbEntity
  8
ASSI
100
AcDbCircle
 62
253
  6
CONTINUOUS
 10
428.6889552747
 20
15.1777500339
 40
448.3125316038
100
AcDbArc
 50
180.0544675967
 51
181.8335679219
  0
ARC
  5
256
100
AcDbEntity
  8
RACCORDO
100
AcDbCircle
 62
253
  6
CONTINUOUS
 10
445.9306142801
 20
-2.1481844736
 40
430.9770751949
100
AcDbArc
 50
180.051678908
 51
181.9150136762
  0
ARC
  5
257
100
AcDbEntity
  8
ASSI
100
AcDbCircle
 62
253
  6
CONTINUOUS
 10
445.9306142801
 20
-2.1481844736
 40
430.9770751949
100
AcDbArc
 50
180.051678908
 51
181.9150136762
  0
ARC
  5
258
100
AcDbEntity
  8
RACCORDO
100
AcDbCircle
 62
253
  6
CONTINUOUS
 10
446.0233323248
 20
-2.1496606555
 40
430.719352063
100
AcDbArc
 50
180.051679563
 51
181.9150327006
  0
ARC
  5
259
100
AcDbEntity
  8
ASSI
100
AcDbCircle
 62
253
  6
CONTINUOUS
 10
446.0233323248
 20
-2.1496606555
 40
430.719352063
100
AcDbArc
 50
180.051679563
 51
181.9150327006
  0
ARC
  5
25A
100
AcDbEntity
  8
RACCORDO
100
AcDbCircle
 62
7
  6
CONTINUOUS
 10
-1.6992190707
 20
2.6279800965
 40
1.1007054639
100
AcDbArc
 50
237.1726665365
 51
240.9484598453
  0
ARC
  5
25B
100
AcDbEntity
  8
RACCORDO
100
AcDbCircle
 62
7
  6
CONTINUOUS
 10
-1.7326262622
 20
2.5684334585
 40
1.0324284262
100
AcDbArc
 50
240.9644641986
 51
243.4252663163
  0
ARC
  5
25C
100
AcDbEntity
  8
DRAFT
100
AcDbCircle
 62
7
  6
CONTINUOUS
 10
-2.1953213492
 20
3.4021659957
 40
0.6769002748
100
AcDbArc
 50
148.6010993284
 51
155.0362118193
  0
ARC
  5
25D
100
AcDbEntity
  8
ASSI
100
AcDbCircle
 62
7
  6
CONTINUOUS
 10
-2.1953213492
 20
3.4021659957
 40
0.6769002748
100
AcDbArc
 50
148.6010993284
 51
155.0362118193
  0
ARC
  5
25E
100
AcDbEntity
  8
DRAFT
100
AcDbCircle
 62
7
  6
CONTINUOUS
 10
-2.2487406812
 20
3.4346120351
 40
0.6143994749
100
AcDbArc
 50
141.5864900659
 51
148.5883752015
  0
ARC
  5
25F
100
AcDbEntity
  8
ASSI
100
AcDbCircle
 62
7
  6
CONTINUOUS
 10
-2.2487406812
 20
3.4346120351
 40
0.6143994749
100
AcDbArc
 50
141.5864900659
 51
148.5883752015
  0
ARC
  5
260
100
AcDbEntity
  8
RACCORDO
100
AcDbCircle
 62
253
  6
CONTINUOUS
 10
-18.9689105647
 20
0.5681507466
 40
0.3701339165
100
AcDbArc
 50
241.2312847575
 51
243.3038033338
  0
ARC
  5
261
100
AcDbEntity
  8
ASSI
100
AcDbCircle
 62
253
  6
CONTINUOUS
 10
-18.9689105647
 20
0.5681507466
 40
0.3701339165
100
AcDbArc
 50
241.2312847576
 51
243.3038033338
  0
ARC
  5
262
100
AcDbEntity
  8
RACCORDO
100
AcDbCircle
 62
7
  6
CONTINUOUS
 10
-19.4465947413
 20
14.8402531894
 40
0.2499729098
100
AcDbArc
 50
118.3452333315
 51
180.0617873869
  0
ARC
  5
263
100
AcDbEntity
  8
ASSI
100
AcDbCircle
 62
7
  6
CONTINUOUS
 10
-19.4465947413
 20
14.8402531894
 40
0.2499729098
100
AcDbArc
 50
118.3452333315
 51
180.0617873869
  0
SPLINE
  5
264
100
AcDbEntity
  8
RACCORDO
100
AcDbSpline
 62
7
  6
CONTINUOUS
 70
0
 71
3
 72
10
 73
6
 74
4
 42
0.0000001
 43
0.0000001
 44
0.0000000001
 12
0.5309507646
 22
-0.2654753776
 32
0.0
 13
0.5366819963
 23
0.2536896016
 33
0.0
 40
0.0
 40
0.0
 40
0.0
 40
0.0
 40
0.3683960887
 40
0.69741576
 40
1.0
 40
1.0
 40
1.0
 40
1.0
 10
-2.1944983364
 20
1.6450794407
 30
0.0
 10
-2.1292982748
 20
1.6124794104
 30
0.0
 10
-1.9982130218
 20
1.5638997839
 30
0.0
 10
-1.7978653522
 20
1.5496973729
 30
0.0
 10
-1.6744074315
 20
1.5830815132
 30
0.0
 10
-1.6202769268
 20
1.6086690049
 30
0.0
 11
-2.1944983364
 21
1.6450794407
 31
0.0
 11
-1.9884009897
 21
1.5719482316
 31
0.0
 11
-1.793405545
 21
1.5608154455
 31
0.0
 11
-1.6202769268
 21
1.6086690049
 31
0.0
  0
SPLINE
  5
265
100
AcDbEntity
  8
RACCORDO
100
AcDbSpline
 62
7
  6
CONTINUOUS
 70
0
 71
3
 72
14
 73
10
 74
8
 42
0.0000001
 43
0.0000001
 44
0.0000000001
 12
-2.1334127319
 22
-1.1262489471
 32
0.0
 13
2.0328953942
 23
-1.3102034695
 33
0.0
 40
0.0
 40
0.0
 40
0.0
 40
0.0
 40
0.1126354234
 40
0.2431064815
 40
0.3946442942
 40
0.5607875776
 40
0.7319683022
 40
0.897607205
 40
1.0
 40
1.0
 40
1.0
 40
1.0
 10
-2.6996198397
 20
3.7673549322
 30
0.0
 10
-2.7797191218
 20
3.7250697565
 30
0.0
 10
-2.9285022393
 20
3.5836303537
 30
0.0
 10
-3.0362926273
 20
3.2762200857
 30
0.0
 10
-3.0375963078
 20
2.9110249116
 30
0.0
 10
-2.9403434897
 20
2.5266019301
 30
0.0
 10
-2.758119066
 20
2.1620194921
 30
0.0
 10
-2.5349455849
 20
1.8848505491
 30
0.0
 10
-2.3653061862
 20
1.7477668654
 30
0.0
 10
-2.2959215724
 20
1.7030484003
 30
0.0
 11
-2.6996198397
 21
3.7673549322
 31
0.0
 11
-2.8999021794
 21
3.5837184072
 31
0.0
 11
-3.0142272652
 21
3.2904609836
 31
0.0
 11
-3.0229632814
 21
2.92498892
 31
0.0
 11
-2.927977315
 21
2.5355952971
 31
0.0
 11
-2.7434251105
 21
2.1661637739
 31
0.0
 11
-2.4900355098
 21
1.8571823635
 31
0.0
 11
-2.2959215724
 21
1.7030484003
 31
0.0
  0
SPLINE
  5
266
100
AcDbEntity
  8
RACCORDO
100
AcDbSpline
 62
253
  6
CONTINUOUS
 70
0
 71
3
 72
20
 73
16
 74
14
 42
0.0000001
 43
0.0000001
 44
0.0000000001
 12
2.3096192904
 22
1.1011434821
 32
0.0
 13
-2.2752317028
 23
1.13761587
 33
0.0
 40
0.0
 40
0.0
 40
0.0
 40
0.0
 40
0.0913253166
 40
0.1944753298
 40
0.300071473
 40
0.4040895859
 40
0.5028558466
 40
0.5939847407
 40
0.6762969559
 40
0.7496288086
 40
0.81425267
 40
0.8708004493
 40
0.9200563031
 40
0.9628161743
 40
1.0
 40
1.0
 40
1.0
 40
1.0
 10
-1.6202847726
 20
1.6086992483
 30
0.0
 10
-1.5499758683
 20
1.6422200073
 30
0.0
 10
-1.4190227826
 20
1.7546387462
 30
0.0
 10
-1.3169226004
 20
1.994468355
 30
0.0
 10
-1.2884556168
 20
2.2605191441
 30
0.0
 10
-1.3144868995
 20
2.5221101487
 30
0.0
 10
-1.3775393674
 20
2.7640394566
 30
0.0
 10
-1.4639670421
 20
2.9786453572
 30
0.0
 10
-1.5634398816
 20
3.1631788062
 30
0.0
 10
-1.6684875126
 20
3.3179746125
 30
0.0
 10
-1.7739338522
 20
3.4451052461
 30
0.0
 10
-1.8762733004
 20
3.5474222942
 30
0.0
 10
-1.9732645842
 20
3.6280823676
 30
0.0
 10
-2.0636238467
 20
3.6902764361
 30
0.0
 10
-2.1228104483
 20
3.7235451843
 30
0.0
 10
-2.1510110547
 20
3.7376454877
 30
0.0
 11
-1.6202847726
 21
1.6086992483
 31
0.0
 11
-1.4412710998
 21
1.7572889147
 31
0.0
 11
-1.3304585962
 21
1.9951332761
 31
0.0
 11
-1.2976440966
 21
2.2617354263
 31
0.0
 11
-1.321872621
 21
2.5252236882
 31
0.0
 11
-1.3844677619
 21
2.7685414252
 31
0.0
 11
-1.4708643988
 21
2.9836521606
 31
0.0
 11
-1.5702729886
 21
3.1679342316
 31
0.0
 11
-1.6751828184
 21
3.3221785548
 31
0.0
 11
-1.7803234116
 21
3.4485482394
 31
0.0
 11
-1.88223488
 21
3.5500646036
 31
0.0
 11
-1.9787320439
 21
3.6299863012
 31
0.0
 11
-2.068460778
 21
3.6914687985
 31
0.0
 11
-2.1510110547
 21
3.7376454877
 31
0.0
  0
SPLINE
  5
267
100
AcDbEntity
  8
RACCORDO
100
AcDbSpline
 62
253
  6
CONTINUOUS
 70
0
 71
3
 72
8
 73
4
 74
2
 42
0.0000001
 43
0.0000001
 44
0.0000000001
 12
0.0835988337
 22
-0.0417994168
 32
0.0
 13
0.0882735387
 23
-0.032464483
 33
0.0
 40
0.0
 40
0.0
 40
0.0
 40
0.0
 40
1.0
 40
1.0
 40
1.0
 40
1.0
 10
-2.2200443186
 20
1.6897059144
 30
0.0
 10
-2.1921780407
 20
1.6757727755
 30
0.0
 10
-2.1634467333
 20
1.6631475713
 30
0.0
 10
-2.1340222205
 20
1.652326077
 30
0.0
 11
-2.2200443186
 21
1.6897059144
 31
0.0
 11
-2.1340222205
 21
1.652326077
 31
0.0
  0
SPLINE
  5
268
100
AcDbEntity
  8
RACCORDO
100
AcDbSpline
 62
253
  6
CONTINUOUS
 70
0
 71
3
 72
10
 73
6
 74
4
 42
0.0000001
 43
0.0000001
 44
0.0000000001
 12
0.4497329471
 22
-0.165398916
 32
0.0
 13
0.3975809252
 23
0.2706053485
 33
0.0
 40
0.0
 40
0.0
 40
0.0
 40
0.0
 40
0.3604798126
 40
0.8430695357
 40
1.0
 40
1.0
 40
1.0
 40
1.0
 10
-2.1340222205
 20
1.652326077
 30
0.0
 10
-2.0799823376
 20
1.6324517536
 30
0.0
 10
-1.9481286254
 20
1.6001993322
 30
0.0
 10
-1.7834674263
 20
1.6213395593
 30
0.0
 10
-1.693969902
 20
1.6715642222
 30
0.0
 10
-1.6731723823
 20
1.6857196299
 30
0.0
 11
-2.1340222205
 21
1.652326077
 31
0.0
 11
-1.9659525093
 21
1.6140257328
 31
0.0
 11
-1.7388449062
 21
1.6491253831
 31
0.0
 11
-1.6731723823
 21
1.6857196299
 31
0.0
  0
SPLINE
  5
269
100
AcDbEntity
  8
RACCORDO
100
AcDbSpline
 62
253
  6
CONTINUOUS
 70
0
 71
3
 72
20
 73
16
 74
14
 42
0.0000001
 43
0.0000001
 44
0.0000000001
 12
1.9147547356
 22
1.3032387614
 32
0.0
 13
-2.0512188492
 23
1.0256094246
 33
0.0
 40
0.0
 40
0.0
 40
0.0
 40
0.0
 40
0.0662565476
 40
0.172252553
 40
0.2807617212
 40
0.3876493116
 40
0.4891401078
 40
0.5827829581
 40
0.667365994
 40
0.7427209878
 40
0.8091277958
 40
0.8672357412
 40
0.9178505631
 40
0.9617902467
 40
1.0
 40
1.0
 40
1.0
 40
1.0
 10
-1.6731723823
 20
1.6857196299
 30
0.0
 10
-1.6308840362
 20
1.7145023302
 30
0.0
 10
-1.5334559248
 20
1.8090106868
 30
0.0
 10
-1.4473349844
 20
2.0113165344
 30
0.0
 10
-1.4209617233
 20
2.2577889849
 30
0.0
 10
-1.4450781447
 20
2.5001304345
 30
0.0
 10
-1.5034898759
 20
2.7242570292
 30
0.0
 10
-1.5835573346
 20
2.9230709796
 30
0.0
 10
-1.6757098731
 20
3.0940256964
 30
0.0
 10
-1.773027286
 20
3.237431116
 30
0.0
 10
-1.87071421
 20
3.3552071538
 30
0.0
 10
-1.9655228462
 20
3.4499956594
 30
0.0
 10
-2.0553772759
 20
3.5247204183
 30
0.0
 10
-2.1390873018
 20
3.5823385423
 30
0.0
 10
-2.1939187965
 20
3.6131593252
 30
0.0
 10
-2.2200443186
 20
3.6262220863
 30
0.0
 11
-1.6731723823
 21
1.6857196299
 31
0.0
 11
-1.5625304948
 21
1.7915880949
 31
0.0
 11
-1.4598740077
 21
2.0119321714
 31
0.0
 11
-1.4294743442
 21
2.2589159433
 31
0.0
 11
-1.4519201079
 21
2.5030149053
 31
0.0
 11
-1.5099084812
 21
2.7284276439
 31
0.0
 11
-1.5899470521
 21
2.9277093185
 31
0.0
 11
-1.6820401484
 21
3.0984311516
 31
0.0
 11
-1.7792298919
 21
3.2413256897
 31
0.0
 11
-1.8766335554
 21
3.3583968168
 31
0.0
 11
-1.9710458131
 21
3.4524434824
 31
0.0
 11
-2.0604423017
 21
3.5264843316
 31
0.0
 11
-2.1435683854
 21
3.5834431275
 31
0.0
 11
-2.2200443186
 21
3.6262220863
 31
0.0
  0
SPLINE
  5
26A
100
AcDbEntity
  8
RACCORDO
100
AcDbSpline
 62
253
  6
CONTINUOUS
 70
0
 71
3
 72
22
 73
18
 74
16
 42
0.0000001
 43
0.0000001
 44
0.0000000001
 12
-2.5607350466
 22
1.2803675233
 32
0.0
 13
2.5607350466
 23
-1.2803675233
 33
0.0
 40
0.0
 40
0.0
 40
0.0
 40
0.0
 40
0.0926031929
 40
0.1728708975
 40
0.252045775
 40
0.3369516027
 40
0.4238704212
 40
0.5094903106
 40
0.590787205
 40
0.6657976871
 40
0.733551015
 40
0.7939124321
 40
0.8471061098
 40
0.8936521728
 40
0.9341960337
 40
0.9693929376
 40
1.0
 40
1.0
 40
1.0
 40
1.0
 10
-2.2200443186
 20
3.6262220863
 30
0.0
 10
-2.2990883991
 20
3.6657441265
 30
0.0
 10
-2.4596399143
 20
3.7198793041
 30
0.0
 10
-2.7091632143
 20
3.6878426158
 30
0.0
 10
-2.8966378103
 20
3.5303967067
 30
0.0
 10
-2.9927544018
 20
3.3046112547
 30
0.0
 10
-3.0191275779
 20
3.058138667
 30
0.0
 10
-2.9950112873
 20
2.815797203
 30
0.0
 10
-2.9365993461
 20
2.5916706634
 30
0.0
 10
-2.8565318049
 20
2.3928567631
 30
0.0
 10
-2.7643791232
 20
2.221902118
 30
0.0
 10
-2.6670616209
 20
2.0784967462
 30
0.0
 10
-2.569374621
 20
1.9607207429
 30
0.0
 10
-2.474565903
 20
1.8659322979
 30
0.0
 10
-2.3847114667
 20
1.791207504
 30
0.0
 10
-2.3010013548
 20
1.7335894651
 30
0.0
 10
-2.2461698444
 20
1.7027686773
 30
0.0
 10
-2.2200443186
 20
1.6897059144
 30
0.0
 11
-2.2200443186
 21
3.6262220863
 31
0.0
 11
-2.4741349428
 21
3.7019028604
 31
0.0
 11
-2.7012440535
 21
3.6668024563
 31
0.0
 11
-2.8775584059
 21
3.5243397739
 31
0.0
 11
-2.9802153072
 21
3.3039954905
 31
0.0
 11
-3.0106149953
 21
3.0570117062
 31
0.0
 11
-2.9881692628
 21
2.8129127286
 31
0.0
 11
-2.9301807585
 21
2.5875000555
 31
0.0
 11
-2.8501420745
 21
2.3882184374
 31
0.0
 11
-2.7580488531
 21
2.2174966669
 31
0.0
 11
-2.6608590146
 21
2.0746021763
 31
0.0
 11
-2.5634552709
 21
1.9575310893
 31
0.0
 11
-2.4690429443
 21
1.8634844582
 31
0.0
 11
-2.3796464337
 21
1.7894436199
 31
0.0
 11
-2.2965202717
 21
1.7324848632
 31
0.0
 11
-2.2200443186
 21
1.6897059144
 31
0.0
  0
SPLINE
  5
26B
100
AcDbEntity
  8
RACCORDO
100
AcDbSpline
 62
253
  6
CONTINUOUS
 70
0
 71
3
 72
10
 73
6
 74
4
 42
0.0000001
 43
0.0000001
 44
0.0000000001
 12
-0.5066545929
 22
0.2533273006
 32
0.0
 13
-0.5030012107
 23
-0.268775241
 33
0.0
 40
0.0
 40
0.0
 40
0.0
 40
0.0
 40
0.5052042006
 40
0.9431177079
 40
1.0
 40
1.0
 40
1.0
 40
1.0
 10
-2.1510110547
 20
3.7376454877
 30
0.0
 10
-2.2363323976
 20
3.7803061599
 30
0.0
 10
-2.4096373153
 20
3.8387267244
 30
0.0
 10
-2.6055138857
 20
3.8135935585
 30
0.0
 10
-2.6900279357
 20
3.7723487468
 30
0.0
 10
-2.6995652229
 20
3.7672525628
 30
0.0
 11
-2.1510110547
 21
3.7376454877
 31
0.0
 11
-2.4252822164
 21
3.8193296985
 31
0.0
 11
-2.6704323282
 21
3.7814511064
 31
0.0
 11
-2.6995652229
 21
3.7672525628
 31
0.0
  0
SPLINE
  5
26C
100
AcDbEntity
  8
DRAFT
100
AcDbSpline
 62
7
  6
CONTINUOUS
 70
0
 71
3
 72
17
 73
13
 74
11
 42
0.0000001
 43
0.0000001
 44
0.0000000001
 12
2.4459831326
 22
1.2838515585
 32
0.0
 13
-2.4516470572
 23
1.2258235286
 33
0.0
 40
0.0
 40
0.0
 40
0.0
 40
0.0
 40
0.0252960356
 40
0.1044689495
 40
0.1936208561
 40
0.2953999763
 40
0.4088600251
 40
0.5305328986
 40
0.6555712688
 40
0.7786495306
 40
0.8947903949
 40
1.0
 40
1.0
 40
1.0
 40
1.0
 10
-1.3605135376
 20
1.6196898998
 30
0.0
 10
-1.3398889788
 20
1.6305153514
 30
0.0
 10
-1.2579298471
 20
1.6811794991
 30
0.0
 10
-1.1384712742
 20
1.8182893823
 30
0.0
 10
-1.0506544622
 20
2.0530919408
 30
0.0
 10
-1.0252835128
 20
2.332564719
 30
0.0
 10
-1.0617534058
 20
2.6400701989
 30
0.0
 10
-1.1571605938
 20
2.956580284
 30
0.0
 10
-1.3052142297
 20
3.2618068288
 30
0.0
 10
-1.496395944
 20
3.5360558711
 30
0.0
 10
-1.7181789497
 20
3.7614576207
 30
0.0
 10
-1.8872590895
 20
3.8761265325
 30
0.0
 10
-1.9732380291
 20
3.9191160022
 30
0.0
 11
-1.3605135376
 21
1.6196898998
 31
0.0
 11
-1.3012242583
 21
1.6564178484
 31
0.0
 11
-1.1554963839
 21
1.8172247521
 31
0.0
 11
-1.064824336
 21
2.0441478549
 31
0.0
 11
-1.0354782776
 21
2.3215791785
 31
0.0
 11
-1.069440549
 21
2.6307159998
 31
0.0
 11
-1.1643987088
 21
2.9504201936
 31
0.0
 11
-1.3138429018
 21
3.2588558023
 31
0.0
 11
-1.5075765348
 21
3.5350431068
 31
0.0
 11
-1.7325267851
 21
3.7603005431
 31
0.0
 11
-1.9732380291
 21
3.9191160022
 31
0.0
  0
SPLINE
  5
26D
100
AcDbEntity
  8
DRAFT
100
AcDbSpline
 62
7
  6
CONTINUOUS
 70
0
 71
3
 72
10
 73
6
 74
4
 42
0.0000001
 43
0.0000001
 44
0.0000000001
 12
-0.5318836887
 22
0.2659418443
 32
0.0
 13
-0.5423349644
 23
-0.2556202157
 33
0.0
 40
0.0
 40
0.0
 40
0.0
 40
0.0
 40
0.4264225282
 40
0.8016701045
 40
1.0
 40
1.0
 40
1.0
 40
1.0
 10
-1.9732380291
 20
3.9191160022
 30
0.0
 10
-2.0488404248
 20
3.9569172001
 30
0.0
 10
-2.2005308633
 20
4.012000022
 30
0.0
 10
-2.4034945324
 20
4.0154122239
 30
0.0
 10
-2.5130701723
 20
3.9788021563
 30
0.0
 10
-2.5489239179
 20
3.9619031127
 30
0.0
 11
-1.9732380291
 21
3.9191160022
 31
0.0
 11
-2.2133318959
 21
4.0007052805
 31
0.0
 11
-2.4364749289
 21
3.99950883
 31
0.0
 11
-2.5489239179
 21
3.9619031127
 31
0.0
  0
SPLINE
  5
26E
100
AcDbEntity
  8
RACCORDO
100
AcDbSpline
 62
253
  6
CONTINUOUS
 70
0
 71
3
 72
9
 73
5
 74
3
 42
0.0000001
 43
0.0000001
 44
0.0000000001
 12
0.0042467391
 22
-0.1188405267
 32
0.0
 13
0.1066391986
 23
-0.0534070687
 33
0.0
 40
0.0
 40
0.0
 40
0.0
 40
0.0
 40
0.434255131
 40
1.0
 40
1.0
 40
1.0
 40
1.0
 10
-19.4642210411
 20
0.8312427748
 30
0.0
 10
-19.4636063184
 20
0.8140404053
 30
0.0
 10
-19.4454378999
 20
0.7748266749
 30
0.0
 10
-19.4111021934
 20
0.7524984182
 30
0.0
 10
-19.3909920003
 20
0.7424268265
 30
0.0
 11
-19.4642210411
 21
0.8312427748
 31
0.0
 11
-19.4447780734
 21
0.7831670988
 31
0.0
 11
-19.3909920003
 21
0.7424268265
 31
0.0
  0
SPLINE
  5
26F
100
AcDbEntity
  8
RACCORDO
100
AcDbSpline
 62
253
  6
CONTINUOUS
 70
0
 71
3
 72
13
 73
9
 74
7
 42
0.0000001
 43
0.0000001
 44
0.0000000001
 12
0.0236954385
 22
-0.7022854852
 32
0.0
 13
0.6783151378
 23
0.1834528559
 33
0.0
 40
0.0
 40
0.0
 40
0.0
 40
0.0
 40
0.1944363683
 40
0.3698341619
 40
0.5286102363
 40
0.6791816637
 40
0.8332005048
 40
1.0
 40
1.0
 40
1.0
 40
1.0
 10
15.5445176968
 20
-16.5431837708
 30
0.0
 10
15.5460534485
 20
-16.5887003839
 30
0.0
 10
15.5568228128
 20
-16.6753979449
 30
0.0
 10
15.6008282133
 20
-16.7926280593
 30
0.0
 10
15.6714212166
 20
-16.8842104635
 30
0.0
 10
15.7658663089
 20
-16.9426719735
 30
0.0
 10
15.8766789056
 20
-16.963036007
 30
0.0
 10
15.9522671578
 20
-16.9521695138
 30
0.0
 10
15.9899813653
 20
-16.9419695658
 30
0.0
 11
15.5445176968
 21
-16.5431837708
 31
0.0
 11
15.5629103142
 21
-16.6785676584
 31
0.0
 11
15.6079548515
 21
-16.7932908429
 31
0.0
 11
15.677358551
 21
-16.8806458584
 31
0.0
 11
15.7674898855
 21
-16.9360614946
 31
0.0
 11
15.8737139891
 21
-16.956785122
 31
0.0
 11
15.9899813653
 21
-16.9419695658
 31
0.0
  0
SPLINE
  5
270
100
AcDbEntity
  8
RACCORDO
100
AcDbSpline
 62
253
  6
CONTINUOUS
 70
0
 71
3
 72
9
 73
5
 74
3
 42
0.0000001
 43
0.0000001
 44
0.0000000001
 12
0.1060851227
 22
0.0557215843
 32
0.0
 13
0.1068996515
 23
-0.0515772518
 33
0.0
 40
0.0
 40
0.0
 40
0.0
 40
0.0
 40
0.4050937236
 40
1.0
 40
1.0
 40
1.0
 40
1.0
 10
-19.5652216789
 20
15.0601484233
 30
0.0
 10
-19.5508968731
 20
15.067672578
 30
0.0
 10
-19.5103715212
 20
15.0774476717
 30
0.0
 10
-19.4708557461
 20
15.0653942821
 30
0.0
 10
-19.4496573216
 20
15.0551664051
 30
0.0
 11
-19.5652216789
 21
15.0601484233
 31
0.0
 11
-19.5182294142
 21
15.0720101619
 31
0.0
 11
-19.4496573216
 21
15.0551664051
 31
0.0
  0
SPLINE
  5
271
100
AcDbEntity
  8
DRAFT
100
AcDbSpline
 62
7
  6
CONTINUOUS
 70
0
 71
3
 72
9
 73
5
 74
3
 42
0.0000001
 43
0.0000001
 44
0.0000000001
 12
-0.2125403382
 22
-0.1001772164
 32
0.0
 13
-0.1460926054
 23
-0.1838715999
 33
0.0
 40
0.0
 40
0.0
 40
0.0
 40
0.0
 40
0.3886269166
 40
1.0
 40
1.0
 40
1.0
 40
1.0
 10
-2.5489239179
 20
3.9619031127
 30
0.0
 10
-2.5764568833
 20
3.9489259252
 30
0.0
 10
-2.6442157407
 20
3.9090994964
 30
0.0
 10
-2.700379168
 20
3.8538298113
 30
0.0
 10
-2.7301515302
 20
3.816358429
 30
0.0
 11
-2.5489239179
 21
3.9619031127
 31
0.0
 11
-2.627371447
 21
3.9156382721
 31
0.0
 11
-2.7301515302
 21
3.816358429
 31
0.0
  0
LINE
  5
272
100
AcDbEntity
  8
RACCORDO
100
AcDbLine
 62
253
  6
CONTINUOUS
 10
-19.3909920007
 20
0.7424268263
 11
-19.3939295785
 21
0.8333952901
  0
SPLINE
  5
273
100
AcDbEntity
  8
DRAFT
100
AcDbSpline
 62
7
  6
CONTINUOUS
 70
0
 71
3
 72
9
 73
5
 74
3
 42
0.0000001
 43
0.0000001
 44
0.0000000001
 12
0.0841981654
 22
-0.0155320525
 32
0.0
 13
0.0855789643
 23
-0.004836101
 33
0.0
 40
0.0
 40
0.0
 40
0.0
 40
0.0
 40
0.0946475083
 40
1.0
 40
1.0
 40
1.0
 40
1.0
 10
-1.7232524614
 20
1.5727718464
 30
0.0
 10
-1.7205960792
 20
1.5722818231
 30
0.0
 10
-1.6924961047
 20
1.5672603137
 30
0.0
 10
-1.6640447974
 20
1.5639079403
 30
0.0
 10
-1.6382184212
 20
1.5624484816
 30
0.0
 11
-1.7232524614
 21
1.5727718464
 31
0.0
 11
-1.7152737468
 21
1.5713462288
 31
0.0
 11
-1.6382184212
 21
1.5624484816
 31
0.0
  0
SPLINE
  5
274
100
AcDbEntity
  8
DRAFT
100
AcDbSpline
 62
7
  6
CONTINUOUS
 70
0
 71
3
 72
9
 73
5
 74
3
 42
0.0000001
 43
0.0000001
 44
0.0000000001
 12
0.286776432
 22
-0.0162058492
 32
0.0
 13
0.2545538317
 23
0.1336106244
 33
0.0
 40
0.0
 40
0.0
 40
0.0
 40
0.0
 40
0.5120959347
 40
1.0
 40
1.0
 40
1.0
 40
1.0
 10
-1.6382184212
 20
1.5624484816
 30
0.0
 10
-1.5892660729
 20
1.5596821651
 30
0.0
 10
-1.4931974655
 20
1.5653342423
 30
0.0
 10
-1.4019128207
 20
1.5979601775
 30
0.0
 10
-1.3605135376
 20
1.6196898998
 30
0.0
 11
-1.6382184212
 21
1.5624484816
 31
0.0
 11
-1.4921279434
 21
1.5725446617
 31
0.0
 11
-1.3605135376
 21
1.6196898998
 31
0.0
  0
SPLINE
  5
275
100
AcDbEntity
  8
RACCORDO
100
AcDbSpline
 62
253
  6
CONTINUOUS
 70
0
 71
3
 72
12
 73
8
 74
6
 42
0.0000001
 43
0.0000001
 44
0.0000000001
 12
-0.0053497267
 22
0.3664563861
 32
0.0
 13
-0.3254083925
 23
0.1686068818
 33
0.0
 40
0.0
 40
0.0
 40
0.0
 40
0.0
 40
0.1955839747
 40
0.4065111841
 40
0.6196376798
 40
0.8218553915
 40
1.0
 40
1.0
 40
1.0
 40
1.0
 10
15.3040493513
 20
-2.5381603073
 30
0.0
 10
15.3037005777
 20
-2.5142693084
 30
0.0
 10
15.296463896
 20
-2.4646348509
 30
0.0
 10
15.2708770102
 20
-2.3929737077
 30
0.0
 10
15.2322990097
 20
-2.3263736824
 30
0.0
 10
15.1845383455
 20
-2.2712533583
 30
0.0
 10
15.1466228302
 20
-2.2433241813
 30
0.0
 10
15.1272995799
 20
-2.2333120456
 30
0.0
 11
15.3040493513
 21
-2.5381603073
 31
0.0
 11
15.2945264741
 21
-2.4671150539
 31
0.0
 11
15.268837369
 21
-2.3942044477
 31
0.0
 11
15.2295628335
 21
-2.3266865585
 31
0.0
 11
15.1805360394
 21
-2.2711083036
 31
0.0
 11
15.1272995799
 21
-2.2333120456
 31
0.0
  0
SPLINE
  5
276
100
AcDbEntity
  8
RACCORDO
100
AcDbSpline
 62
253
  6
CONTINUOUS
 70
0
 71
3
 72
11
 73
7
 74
5
 42
0.0000001
 43
0.0000001
 44
0.0000000001
 12
-0.0003852387
 22
0.3639158128
 32
0.0
 13
0.3226902033
 23
0.1682435732
 33
0.0
 40
0.0
 40
0.0
 40
0.0
 40
0.0
 40
0.24723321
 40
0.513083496
 40
0.7728623516
 40
1.0
 40
1.0
 40
1.0
 40
1.0
 10
-19.6233486897
 20
14.7515667919
 30
0.0
 10
-19.6233804377
 20
14.7815574835
 30
0.0
 10
-19.6131394562
 20
14.8439153174
 30
0.0
 10
-19.5758534429
 20
14.9307845065
 30
0.0
 10
-19.521190802
 20
15.0049252022
 30
0.0
 10
-19.4740890196
 20
15.0424282553
 30
0.0
 10
-19.4496573216
 20
15.0551664051
 30
0.0
 11
-19.6233486897
 21
14.7515667919
 31
0.0
 11
-19.610141495
 21
14.8405642823
 31
0.0
 11
-19.5722835164
 21
14.9295968029
 31
0.0
 11
-19.5154776987
 21
15.005164476
 31
0.0
 11
-19.4496573216
 21
15.0551664051
 31
0.0
  0
SPLINE
  5
277
100
AcDbEntity
  8
RACCORDO
100
AcDbSpline
 62
253
  6
CONTINUOUS
 70
0
 71
3
 72
11
 73
7
 74
5
 42
0.0000001
 43
0.0000001
 44
0.0000000001
 12
-0.0003852361
 22
0.3639133035
 32
0.0
 13
0.3226879782
 23
0.1682424131
 33
0.0
 40
0.0
 40
0.0
 40
0.0
 40
0.0
 40
0.2461494134
 40
0.510593734
 40
0.7692500461
 40
1.0
 40
1.0
 40
1.0
 40
1.0
 10
14.9536082118
 20
-2.5369116588
 30
0.0
 10
14.9535766033
 20
-2.5070526434
 30
0.0
 10
14.9637243486
 20
-2.4449984025
 30
0.0
 10
15.0006971187
 20
-2.358480246
 30
0.0
 10
15.055217796
 20
-2.284100852
 30
0.0
 10
15.1024795013
 20
-2.2462526887
 30
0.0
 10
15.1272995799
 20
-2.2333120456
 30
0.0
 11
14.9536082118
 21
-2.5369116588
 31
0.0
 11
14.9667057913
 21
-2.4482972717
 31
0.0
 11
15.0042184489
 21
-2.3596747642
 31
0.0
 11
15.0605506309
 21
-2.2842634611
 31
0.0
 11
15.1272995799
 21
-2.2333120456
 31
0.0
  0
SPLINE
  5
278
100
AcDbEntity
  8
RACCORDO
100
AcDbSpline
 62
253
  6
CONTINUOUS
 70
0
 71
3
 72
10
 73
6
 74
4
 42
0.0000001
 43
0.0000001
 44
0.0000000001
 12
-0.1066900285
 22
0.053347966
 32
0.0
 13
0.0004535062
 23
0.1185801457
 33
0.0
 40
0.0
 40
0.0
 40
0.0
 40
0.0
 40
0.5621967092
 40
0.9909786765
 40
1.0
 40
1.0
 40
1.0
 40
1.0
 10
-19.6233486897
 20
14.7515667919
 30
0.0
 10
-19.643342284
 20
14.7615641422
 30
0.0
 10
-19.6774334764
 20
14.7831985878
 30
0.0
 10
-19.6964689195
 20
14.8223553185
 30
0.0
 10
-19.6965701875
 20
14.8396585001
 30
0.0
 10
-19.6965688238
 20
14.8400150833
 30
0.0
 11
-19.6233486897
 21
14.7515667919
 31
0.0
 11
-19.6771222489
 21
14.7916370025
 31
0.0
 11
-19.6965625186
 21
14.8389454734
 31
0.0
 11
-19.6965688238
 21
14.8400150833
 31
0.0
  0
SPLINE
  5
279
100
AcDbEntity
  8
RACCORDO
100
AcDbSpline
 62
253
  6
CONTINUOUS
 70
0
 71
3
 72
10
 73
6
 74
4
 42
0.0000001
 43
0.0000001
 44
0.0000000001
 12
-0.0264958836
 22
-0.1937282825
 32
0.0
 13
-0.1913177821
 23
-0.052459215
 33
0.0
 40
0.0
 40
0.0
 40
0.0
 40
0.0
 40
0.4306837962
 40
0.8010691458
 40
1.0
 40
1.0
 40
1.0
 40
1.0
 10
15.9899813653
 20
-16.9419695658
 30
0.0
 10
15.9861775827
 20
-16.9697814432
 30
0.0
 10
15.9716614473
 20
-17.0211118028
 30
0.0
 10
15.9289957812
 20
-17.0738743504
 30
0.0
 10
15.8942549665
 20
-17.0897191579
 30
0.0
 10
15.8815686299
 20
-17.0931977433
 30
0.0
 11
15.9899813653
 21
-16.9419695658
 31
0.0
 11
15.9648854237
 21
-17.0223556174
 31
0.0
 11
15.9172573255
 21
-17.076913166
 31
0.0
 11
15.8815686299
 21
-17.0931977433
 31
0.0
  0
SPLINE
  5
27A
100
AcDbEntity
  8
RACCORDO
100
AcDbSpline
 62
253
  6
CONTINUOUS
 70
0
 71
3
 72
11
 73
7
 74
5
 42
0.0000001
 43
0.0000001
 44
0.0000000001
 12
-0.3186059469
 22
-0.1690547765
 32
0.0
 13
-0.3227066243
 23
0.1610891104
 33
0.0
 40
0.0
 40
0.0
 40
0.0
 40
0.0
 40
0.2388448156
 40
0.503580789
 40
0.7663861237
 40
1.0
 40
1.0
 40
1.0
 40
1.0
 10
15.5445176965
 20
-16.5431837706
 30
0.0
 10
15.5191519037
 20
-16.5566430563
 30
0.0
 10
15.4611109914
 20
-16.5764679984
 30
0.0
 10
15.3690683633
 20
-16.5873124648
 30
0.0
 10
15.2772944614
 20
-16.5802686826
 30
0.0
 10
15.2193577954
 20
-16.5627143347
 30
0.0
 10
15.1942282136
 20
-16.5501701175
 30
0.0
 11
15.5445176965
 21
-16.5431837706
 31
0.0
 11
15.4635464703
 21
-16.5725919819
 31
0.0
 11
15.3687737459
 21
-16.5842304788
 31
0.0
 11
15.2743122108
 21
-16.5763661627
 31
0.0
 11
15.1942282136
 21
-16.5501701175
 31
0.0
  0
SPLINE
  5
27B
100
AcDbEntity
  8
RACCORDO
100
AcDbSpline
 62
253
  6
CONTINUOUS
 70
0
 71
3
 72
11
 73
7
 74
5
 42
0.0000001
 43
0.0000001
 44
0.0000000001
 12
-0.3239020885
 22
-0.1568996966
 32
0.0
 13
-0.3219104786
 23
0.1609463312
 33
0.0
 40
0.0
 40
0.0
 40
0.0
 40
0.0
 40
0.2366865896
 40
0.5013293948
 40
0.7652575904
 40
1.0
 40
1.0
 40
1.0
 40
1.0
 10
15.3040493513
 20
-2.5381603073
 30
0.0
 10
15.2784949244
 20
-2.550538992
 30
0.0
 10
15.2202038667
 20
-2.5681621342
 30
0.0
 10
15.1282786658
 20
-2.5763867704
 30
0.0
 10
15.036646966
 20
-2.5675554195
 30
0.0
 10
14.9787968923
 20
-2.549505302
 30
0.0
 10
14.9536082118
 20
-2.5369116588
 30
0.0
 11
15.3040493513
 21
-2.5381603073
 31
0.0
 11
15.2230241774
 21
-2.5644522512
 31
0.0
 11
15.1282032328
 21
-2.5734374022
 31
0.0
 11
15.0337071573
 21
-2.5637777005
 31
0.0
 11
14.9536082118
 21
-2.5369116588
 31
0.0
  0
SPLINE
  5
27C
100
AcDbEntity
  8
RACCORDO
100
AcDbSpline
 62
253
  6
CONTINUOUS
 70
0
 71
3
 72
11
 73
7
 74
5
 42
0.0000001
 43
0.0000001
 44
0.0000000001
 12
0.0199946315
 22
-0.5969871297
 32
0.0
 13
0.5355973488
 23
-0.2715057779
 33
0.0
 40
0.0
 40
0.0
 40
0.0
 40
0.0
 40
0.3060317019
 40
0.580122921
 40
0.8278011484
 40
1.0
 40
1.0
 40
1.0
 40
1.0
 10
15.1942156644
 20
-16.5501770062
 30
0.0
 10
15.1962553281
 20
-16.611076002
 30
0.0
 10
15.2106018523
 20
-16.7266844141
 30
0.0
 10
15.2690957913
 20
-16.8827554353
 30
0.0
 10
15.3548590212
 20
-16.9943054645
 30
0.0
 10
15.4248561128
 20
-17.0423386071
 30
0.0
 10
15.4555991956
 20
-17.0579229348
 30
0.0
 11
15.1942156644
 21
-16.5501770062
 31
0.0
 11
15.2188069836
 21
-16.7313147943
 31
0.0
 11
15.2785820511
 21
-16.8837333048
 31
0.0
 11
15.3704876212
 21
-16.9996672583
 31
0.0
 11
15.4555991956
 21
-17.0579229348
 31
0.0
  0
SPLINE
  5
27D
100
AcDbEntity
  8
RACCORDO
100
AcDbSpline
 62
253
  6
CONTINUOUS
 70
0
 71
3
 72
11
 73
7
 74
5
 42
0.0000001
 43
0.0000001
 44
0.0000000001
 12
-0.5102888932
 22
0.2801487103
 32
0.0
 13
-0.0188789663
 23
0.5784714166
 33
0.0
 40
0.0
 40
0.0
 40
0.0
 40
0.0
 40
0.1527284925
 40
0.4041914949
 40
0.6848539677
 40
1.0
 40
1.0
 40
1.0
 40
1.0
 10
-19.1470468096
 20
0.2437026084
 30
0.0
 10
-19.1730253608
 20
0.2579648385
 30
0.0
 10
-19.2373444653
 20
0.303963027
 30
0.0
 10
-19.3183540659
 20
0.411423087
 30
0.0
 10
-19.375124178
 20
0.5666084184
 30
0.0
 10
-19.3890087902
 20
0.6816591691
 30
0.0
 10
-19.3909920007
 20
0.7424268263
 30
0.0
 11
-19.1470468096
 21
0.2437026084
 31
0.0
 11
-19.2192757632
 21
0.2952144339
 31
0.0
 11
-19.3088059503
 21
0.4099606959
 31
0.0
 11
-19.3670361632
 21
0.5616067791
 31
0.0
 11
-19.3909920007
 21
0.7424268263
 31
0.0
  0
SPLINE
  5
27E
100
AcDbEntity
  8
ASSI
100
AcDbSpline
 62
7
  6
CONTINUOUS
 70
0
 71
3
 72
17
 73
13
 74
11
 42
0.0000001
 43
0.0000001
 44
0.0000000001
 12
2.4459831326
 22
1.2838515585
 32
0.0
 13
-2.4516470572
 23
1.2258235286
 33
0.0
 40
0.0
 40
0.0
 40
0.0
 40
0.0
 40
0.0252960356
 40
0.1044689495
 40
0.1936208561
 40
0.2953999763
 40
0.4088600251
 40
0.5305328986
 40
0.6555712688
 40
0.7786495306
 40
0.8947903949
 40
1.0
 40
1.0
 40
1.0
 40
1.0
 10
-1.3605135376
 20
1.6196898998
 30
0.0
 10
-1.3398889788
 20
1.6305153514
 30
0.0
 10
-1.2579298471
 20
1.6811794991
 30
0.0
 10
-1.1384712742
 20
1.8182893823
 30
0.0
 10
-1.0506544622
 20
2.0530919408
 30
0.0
 10
-1.0252835128
 20
2.332564719
 30
0.0
 10
-1.0617534058
 20
2.6400701989
 30
0.0
 10
-1.1571605938
 20
2.956580284
 30
0.0
 10
-1.3052142297
 20
3.2618068288
 30
0.0
 10
-1.496395944
 20
3.5360558711
 30
0.0
 10
-1.7181789497
 20
3.7614576207
 30
0.0
 10
-1.8872590895
 20
3.8761265325
 30
0.0
 10
-1.9732380291
 20
3.9191160022
 30
0.0
 11
-1.3605135376
 21
1.6196898998
 31
0.0
 11
-1.3012242583
 21
1.6564178484
 31
0.0
 11
-1.1554963839
 21
1.8172247521
 31
0.0
 11
-1.064824336
 21
2.0441478549
 31
0.0
 11
-1.0354782776
 21
2.3215791785
 31
0.0
 11
-1.069440549
 21
2.6307159998
 31
0.0
 11
-1.1643987088
 21
2.9504201936
 31
0.0
 11
-1.3138429018
 21
3.2588558023
 31
0.0
 11
-1.5075765348
 21
3.5350431068
 31
0.0
 11
-1.7325267851
 21
3.7603005431
 31
0.0
 11
-1.9732380291
 21
3.9191160022
 31
0.0
  0
SPLINE
  5
27F
100
AcDbEntity
  8
ASSI
100
AcDbSpline
 62
7
  6
CONTINUOUS
 70
0
 71
3
 72
10
 73
6
 74
4
 42
0.0000001
 43
0.0000001
 44
0.0000000001
 12
-0.5318836887
 22
0.2659418443
 32
0.0
 13
-0.5423349644
 23
-0.2556202157
 33
0.0
 40
0.0
 40
0.0
 40
0.0
 40
0.0
 40
0.4264225282
 40
0.8016701045
 40
1.0
 40
1.0
 40
1.0
 40
1.0
 10
-1.9732380291
 20
3.9191160022
 30
0.0
 10
-2.0488404248
 20
3.9569172001
 30
0.0
 10
-2.2005308633
 20
4.012000022
 30
0.0
 10
-2.4034945324
 20
4.0154122239
 30
0.0
 10
-2.5130701723
 20
3.9788021563
 30
0.0
 10
-2.5489239179
 20
3.9619031127
 30
0.0
 11
-1.9732380291
 21
3.9191160022
 31
0.0
 11
-2.2133318959
 21
4.0007052805
 31
0.0
 11
-2.4364749289
 21
3.99950883
 31
0.0
 11
-2.5489239179
 21
3.9619031127
 31
0.0
  0
LINE
  5
280
100
AcDbEntity
  8
ASSI
100
AcDbLine
 62
253
  6
CONTINUOUS
 10
-19.3909920007
 20
0.7424268263
 11
-19.3939295785
 21
0.8333952901
  0
SPLINE
  5
281
100
AcDbEntity
  8
ASSI
100
AcDbSpline
 62
7
  6
CONTINUOUS
 70
0
 71
3
 72
23
 73
19
 74
17
 42
0.0000001
 43
0.0000001
 44
0.0000000001
 12
5.4809337654
 22
-2.7404668827
 32
0.0
 13
-5.4809337654
 23
2.7404668827
 33
0.0
 40
0.0
 40
0.0
 40
0.0
 40
0.0
 40
0.0634449407
 40
0.1324477445
 40
0.2056827505
 40
0.2814987184
 40
0.3581052134
 40
0.4337406299
 40
0.5067520141
 40
0.5755133631
 40
0.638814125
 40
0.6961125467
 40
0.7478089476
 40
0.7955473522
 40
0.841969734
 40
0.8900926282
 40
0.9423554061
 40
1.0
 40
1.0
 40
1.0
 40
1.0
 10
-2.3310687219
 20
4.6744292373
 30
0.0
 10
-2.2151562161
 20
4.6164729844
 30
0.0
 10
-1.9848411561
 20
4.471459054
 30
0.0
 10
-1.6677959324
 20
4.193718916
 30
0.0
 10
-1.3751167122
 20
3.8562665594
 30
0.0
 10
-1.1181144403
 20
3.4722896797
 30
0.0
 10
-0.9061305071
 20
3.0562649843
 30
0.0
 10
-0.7467728725
 20
2.6234446873
 30
0.0
 10
-0.6459263947
 20
2.1896823975
 30
0.0
 10
-0.6075660178
 20
1.7710541955
 30
0.0
 10
-0.6335164679
 20
1.3832163159
 30
0.0
 10
-0.723618145
 20
1.0403339193
 30
0.0
 10
-0.8764344401
 20
0.7549089986
 30
0.0
 10
-1.0891919198
 20
0.539509193
 30
0.0
 10
-1.3540334457
 20
0.4072812014
 30
0.0
 10
-1.6558316893
 20
0.3657896039
 30
0.0
 10
-1.978561498
 20
0.4132598444
 30
0.0
 10
-2.1891306098
 20
0.4962542703
 30
0.0
 10
-2.2944460102
 20
0.5489119705
 30
0.0
 11
-2.3310687219
 21
4.6744292373
 31
0.0
 11
-2.0005076017
 21
4.4697805821
 31
0.0
 11
-1.6809875626
 21
4.1928314835
 31
0.0
 11
-1.3858974711
 21
3.8547183485
 31
0.0
 11
-1.1269110177
 21
3.4690108568
 31
0.0
 11
-0.9137876828
 21
3.050743783
 31
0.0
 11
-0.7542915656
 21
2.6155674704
 31
0.0
 11
-0.6543627195
 21
2.179465621
 31
0.0
 11
-0.6181480675
 21
1.7596641502
 31
0.0
 11
-0.6471610128
 21
1.3728518305
 31
0.0
 11
-0.7401645466
 21
1.0342758478
 31
0.0
 11
-0.893292918
 21
0.7569549708
 31
0.0
 11
-1.1008578582
 21
0.5508157584
 31
0.0
 11
-1.35529861
 21
0.4236022625
 31
0.0
 11
-1.6470090419
 21
0.3804092297
 31
0.0
 11
-1.9644313447
 21
0.4229444227
 31
0.0
 11
-2.2944460102
 21
0.5489119705
 31
0.0
  0
SPLINE
  5
282
100
AcDbEntity
  8
ASSI
100
AcDbSpline
 62
7
  6
CONTINUOUS
 70
0
 71
3
 72
23
 73
19
 74
17
 42
0.0000001
 43
0.0000001
 44
0.0000000001
 12
-5.4898497957
 22
2.7449248978
 32
0.0
 13
5.4898497957
 23
-2.7449248978
 33
0.0
 40
0.0
 40
0.0
 40
0.0
 40
0.0
 40
0.0633759472
 40
0.1323373498
 40
0.2055221246
 40
0.2812546768
 40
0.3577364998
 40
0.4332149166
 40
0.5060612433
 40
0.5746856975
 40
0.6379184498
 40
0.6952520823
 40
0.7470994914
 40
0.7950782834
 40
0.841759
 40
0.8900718639
 40
0.9424049049
 40
1.0
 40
1.0
 40
1.0
 40
1.0
 10
-2.2944460102
 20
0.5489119705
 30
0.0
 10
-2.4104208205
 20
0.6068993756
 30
0.0
 10
-2.6410225119
 20
0.7517997697
 30
0.0
 10
-2.9590454318
 20
1.0289182868
 30
0.0
 10
-3.2532571673
 20
1.365499035
 30
0.0
 10
-3.5121044067
 20
1.7484958073
 30
0.0
 10
-3.7259561073
 20
2.1635827445
 30
0.0
 10
-3.8869168776
 20
2.5956510936
 30
0.0
 10
-3.988851144
 20
3.0289649544
 30
0.0
 10
-4.0276029052
 20
3.4475186655
 30
0.0
 10
-4.0012649734
 20
3.8356567012
 30
0.0
 10
-3.9100399394
 20
4.1791275232
 30
0.0
 10
-3.7555710795
 20
4.4652663944
 30
0.0
 10
-3.5410270403
 20
4.681405648
 30
0.0
 10
-3.2745728305
 20
4.8145015143
 30
0.0
 10
-2.9713496519
 20
4.8569160261
 30
0.0
 10
-2.6475264352
 20
4.8100811497
 30
0.0
 10
-2.4364648623
 20
4.7271273075
 30
0.0
 10
-2.3310687219
 20
4.6744292373
 30
0.0
 11
-2.2944460102
 21
0.5489119705
 31
0.0
 11
-2.6253671189
 21
0.7533758592
 31
0.0
 11
-2.9459178814
 21
1.029795932
 31
0.0
 11
-3.2425533338
 21
1.3671158999
 31
0.0
 11
-3.5033619434
 21
1.7518881575
 31
0.0
 11
-3.7183062169
 21
2.1692206221
 31
0.0
 11
-3.8793473393
 21
2.6036039502
 31
0.0
 11
-3.980311472
 21
3.0391744316
 31
0.0
 11
-4.0168903989
 21
3.4587889358
 31
0.0
 11
-3.9875136372
 21
3.8457879868
 31
0.0
 11
-3.893475296
 21
4.1848950915
 31
0.0
 11
-3.7388022278
 21
4.4630087947
 31
0.0
 11
-3.5294162853
 21
4.6700826489
 31
0.0
 11
-3.2731530756
 21
4.7982315339
 31
0.0
 11
-2.9798969851
 21
4.8422178865
 31
0.0
 11
-2.6614437089
 21
4.8002118476
 31
0.0
 11
-2.3310687219
 21
4.6744292373
 31
0.0
  0
SPLINE
  5
283
100
AcDbEntity
  8
ASSI
100
AcDbSpline
 62
253
  6
CONTINUOUS
 70
0
 71
3
 72
9
 73
5
 74
3
 42
0.0000001
 43
0.0000001
 44
0.0000000001
 12
0.1060851227
 22
0.0557215843
 32
0.0
 13
0.1068996515
 23
-0.0515772518
 33
0.0
 40
0.0
 40
0.0
 40
0.0
 40
0.0
 40
0.4050937236
 40
1.0
 40
1.0
 40
1.0
 40
1.0
 10
-19.5652216789
 20
15.0601484233
 30
0.0
 10
-19.5508968731
 20
15.067672578
 30
0.0
 10
-19.5103715212
 20
15.0774476717
 30
0.0
 10
-19.4708557461
 20
15.0653942821
 30
0.0
 10
-19.4496573216
 20
15.0551664051
 30
0.0
 11
-19.5652216789
 21
15.0601484233
 31
0.0
 11
-19.5182294142
 21
15.0720101619
 31
0.0
 11
-19.4496573216
 21
15.0551664051
 31
0.0
  0
SPLINE
  5
284
100
AcDbEntity
  8
ASSI
100
AcDbSpline
 62
253
  6
CONTINUOUS
 70
0
 71
3
 72
11
 73
7
 74
5
 42
0.0000001
 43
0.0000001
 44
0.0000000001
 12
-0.5102888932
 22
0.2801487103
 32
0.0
 13
-0.0188789663
 23
0.5784714166
 33
0.0
 40
0.0
 40
0.0
 40
0.0
 40
0.0
 40
0.1527284925
 40
0.4041914949
 40
0.6848539677
 40
1.0
 40
1.0
 40
1.0
 40
1.0
 10
-19.1470468096
 20
0.2437026084
 30
0.0
 10
-19.1730253608
 20
0.2579648385
 30
0.0
 10
-19.2373444653
 20
0.303963027
 30
0.0
 10
-19.3183540659
 20
0.411423087
 30
0.0
 10
-19.375124178
 20
0.5666084184
 30
0.0
 10
-19.3890087902
 20
0.6816591691
 30
0.0
 10
-19.3909920007
 20
0.7424268263
 30
0.0
 11
-19.1470468096
 21
0.2437026084
 31
0.0
 11
-19.2192757632
 21
0.2952144339
 31
0.0
 11
-19.3088059503
 21
0.4099606959
 31
0.0
 11
-19.3670361632
 21
0.5616067791
 31
0.0
 11
-19.3909920007
 21
0.7424268263
 31
0.0
  0
SPLINE
  5
285
100
AcDbEntity
  8
ASSI
100
AcDbSpline
 62
253
  6
CONTINUOUS
 70
0
 71
3
 72
9
 73
5
 74
3
 42
0.0000001
 43
0.0000001
 44
0.0000000001
 12
0.0042467391
 22
-0.1188405267
 32
0.0
 13
0.1066391986
 23
-0.0534070687
 33
0.0
 40
0.0
 40
0.0
 40
0.0
 40
0.0
 40
0.434255131
 40
1.0
 40
1.0
 40
1.0
 40
1.0
 10
-19.4642210411
 20
0.8312427748
 30
0.0
 10
-19.4636063184
 20
0.8140404053
 30
0.0
 10
-19.4454378999
 20
0.7748266749
 30
0.0
 10
-19.4111021934
 20
0.7524984182
 30
0.0
 10
-19.3909920003
 20
0.7424268265
 30
0.0
 11
-19.4642210411
 21
0.8312427748
 31
0.0
 11
-19.4447780734
 21
0.7831670988
 31
0.0
 11
-19.3909920003
 21
0.7424268265
 31
0.0
  0
SPLINE
  5
286
100
AcDbEntity
  8
ASSI
100
AcDbSpline
 62
253
  6
CONTINUOUS
 70
0
 71
3
 72
13
 73
9
 74
7
 42
0.0000001
 43
0.0000001
 44
0.0000000001
 12
0.0236954385
 22
-0.7022854852
 32
0.0
 13
0.6783151378
 23
0.1834528559
 33
0.0
 40
0.0
 40
0.0
 40
0.0
 40
0.0
 40
0.1944363683
 40
0.3698341619
 40
0.5286102363
 40
0.6791816637
 40
0.8332005048
 40
1.0
 40
1.0
 40
1.0
 40
1.0
 10
15.5445176968
 20
-16.5431837708
 30
0.0
 10
15.5460534485
 20
-16.5887003839
 30
0.0
 10
15.5568228128
 20
-16.6753979449
 30
0.0
 10
15.6008282133
 20
-16.7926280593
 30
0.0
 10
15.6714212166
 20
-16.8842104635
 30
0.0
 10
15.7658663089
 20
-16.9426719735
 30
0.0
 10
15.8766789056
 20
-16.963036007
 30
0.0
 10
15.9522671578
 20
-16.9521695138
 30
0.0
 10
15.9899813653
 20
-16.9419695658
 30
0.0
 11
15.5445176968
 21
-16.5431837708
 31
0.0
 11
15.5629103142
 21
-16.6785676584
 31
0.0
 11
15.6079548515
 21
-16.7932908429
 31
0.0
 11
15.677358551
 21
-16.8806458584
 31
0.0
 11
15.7674898855
 21
-16.9360614946
 31
0.0
 11
15.8737139891
 21
-16.956785122
 31
0.0
 11
15.9899813653
 21
-16.9419695658
 31
0.0
  0
SPLINE
  5
287
100
AcDbEntity
  8
ASSI
100
AcDbSpline
 62
7
  6
CONTINUOUS
 70
0
 71
3
 72
9
 73
5
 74
3
 42
0.0000001
 43
0.0000001
 44
0.0000000001
 12
-0.2125403382
 22
-0.1001772164
 32
0.0
 13
-0.1460926054
 23
-0.1838715999
 33
0.0
 40
0.0
 40
0.0
 40
0.0
 40
0.0
 40
0.3886269166
 40
1.0
 40
1.0
 40
1.0
 40
1.0
 10
-2.5489239179
 20
3.9619031127
 30
0.0
 10
-2.5764568833
 20
3.9489259252
 30
0.0
 10
-2.6442157407
 20
3.9090994964
 30
0.0
 10
-2.700379168
 20
3.8538298113
 30
0.0
 10
-2.7301515302
 20
3.816358429
 30
0.0
 11
-2.5489239179
 21
3.9619031127
 31
0.0
 11
-2.627371447
 21
3.9156382721
 31
0.0
 11
-2.7301515302
 21
3.816358429
 31
0.0
  0
SPLINE
  5
288
100
AcDbEntity
  8
ASSI
100
AcDbSpline
 62
7
  6
CONTINUOUS
 70
0
 71
3
 72
9
 73
5
 74
3
 42
0.0000001
 43
0.0000001
 44
0.0000000001
 12
0.0841981654
 22
-0.0155320525
 32
0.0
 13
0.0855789643
 23
-0.004836101
 33
0.0
 40
0.0
 40
0.0
 40
0.0
 40
0.0
 40
0.0946475083
 40
1.0
 40
1.0
 40
1.0
 40
1.0
 10
-1.7232524614
 20
1.5727718464
 30
0.0
 10
-1.7205960792
 20
1.5722818231
 30
0.0
 10
-1.6924961047
 20
1.5672603137
 30
0.0
 10
-1.6640447974
 20
1.5639079403
 30
0.0
 10
-1.6382184212
 20
1.5624484816
 30
0.0
 11
-1.7232524614
 21
1.5727718464
 31
0.0
 11
-1.7152737468
 21
1.5713462288
 31
0.0
 11
-1.6382184212
 21
1.5624484816
 31
0.0
  0
SPLINE
  5
289
100
AcDbEntity
  8
ASSI
100
AcDbSpline
 62
7
  6
CONTINUOUS
 70
0
 71
3
 72
9
 73
5
 74
3
 42
0.0000001
 43
0.0000001
 44
0.0000000001
 12
0.286776432
 22
-0.0162058492
 32
0.0
 13
0.2545538317
 23
0.1336106244
 33
0.0
 40
0.0
 40
0.0
 40
0.0
 40
0.0
 40
0.5120959347
 40
1.0
 40
1.0
 40
1.0
 40
1.0
 10
-1.6382184212
 20
1.5624484816
 30
0.0
 10
-1.5892660729
 20
1.5596821651
 30
0.0
 10
-1.4931974655
 20
1.5653342423
 30
0.0
 10
-1.4019128207
 20
1.5979601775
 30
0.0
 10
-1.3605135376
 20
1.6196898998
 30
0.0
 11
-1.6382184212
 21
1.5624484816
 31
0.0
 11
-1.4921279434
 21
1.5725446617
 31
0.0
 11
-1.3605135376
 21
1.6196898998
 31
0.0
  0
SPLINE
  5
28A
100
AcDbEntity
  8
ASSI
100
AcDbSpline
 62
253
  6
CONTINUOUS
 70
0
 71
3
 72
12
 73
8
 74
6
 42
0.0000001
 43
0.0000001
 44
0.0000000001
 12
-0.0053497267
 22
0.3664563861
 32
0.0
 13
-0.3254083925
 23
0.1686068818
 33
0.0
 40
0.0
 40
0.0
 40
0.0
 40
0.0
 40
0.1955839747
 40
0.4065111841
 40
0.6196376798
 40
0.8218553915
 40
1.0
 40
1.0
 40
1.0
 40
1.0
 10
15.3040493513
 20
-2.5381603073
 30
0.0
 10
15.3037005777
 20
-2.5142693084
 30
0.0
 10
15.296463896
 20
-2.4646348509
 30
0.0
 10
15.2708770102
 20
-2.3929737077
 30
0.0
 10
15.2322990097
 20
-2.3263736824
 30
0.0
 10
15.1845383455
 20
-2.2712533583
 30
0.0
 10
15.1466228302
 20
-2.2433241813
 30
0.0
 10
15.1272995799
 20
-2.2333120456
 30
0.0
 11
15.3040493513
 21
-2.5381603073
 31
0.0
 11
15.2945264741
 21
-2.4671150539
 31
0.0
 11
15.268837369
 21
-2.3942044477
 31
0.0
 11
15.2295628335
 21
-2.3266865585
 31
0.0
 11
15.1805360394
 21
-2.2711083036
 31
0.0
 11
15.1272995799
 21
-2.2333120456
 31
0.0
  0
SPLINE
  5
28B
100
AcDbEntity
  8
ASSI
100
AcDbSpline
 62
253
  6
CONTINUOUS
 70
0
 71
3
 72
11
 73
7
 74
5
 42
0.0000001
 43
0.0000001
 44
0.0000000001
 12
-0.0003852387
 22
0.3639158128
 32
0.0
 13
0.3226902033
 23
0.1682435732
 33
0.0
 40
0.0
 40
0.0
 40
0.0
 40
0.0
 40
0.24723321
 40
0.513083496
 40
0.7728623516
 40
1.0
 40
1.0
 40
1.0
 40
1.0
 10
-19.6233486897
 20
14.7515667919
 30
0.0
 10
-19.6233804377
 20
14.7815574835
 30
0.0
 10
-19.6131394562
 20
14.8439153174
 30
0.0
 10
-19.5758534429
 20
14.9307845065
 30
0.0
 10
-19.521190802
 20
15.0049252022
 30
0.0
 10
-19.4740890196
 20
15.0424282553
 30
0.0
 10
-19.4496573216
 20
15.0551664051
 30
0.0
 11
-19.6233486897
 21
14.7515667919
 31
0.0
 11
-19.610141495
 21
14.8405642823
 31
0.0
 11
-19.5722835164
 21
14.9295968029
 31
0.0
 11
-19.5154776987
 21
15.005164476
 31
0.0
 11
-19.4496573216
 21
15.0551664051
 31
0.0
  0
SPLINE
  5
28C
100
AcDbEntity
  8
ASSI
100
AcDbSpline
 62
253
  6
CONTINUOUS
 70
0
 71
3
 72
11
 73
7
 74
5
 42
0.0000001
 43
0.0000001
 44
0.0000000001
 12
-0.0003852361
 22
0.3639133035
 32
0.0
 13
0.3226879782
 23
0.1682424131
 33
0.0
 40
0.0
 40
0.0
 40
0.0
 40
0.0
 40
0.2461494134
 40
0.510593734
 40
0.7692500461
 40
1.0
 40
1.0
 40
1.0
 40
1.0
 10
14.9536082118
 20
-2.5369116588
 30
0.0
 10
14.9535766033
 20
-2.5070526434
 30
0.0
 10
14.9637243486
 20
-2.4449984025
 30
0.0
 10
15.0006971187
 20
-2.358480246
 30
0.0
 10
15.055217796
 20
-2.284100852
 30
0.0
 10
15.1024795013
 20
-2.2462526887
 30
0.0
 10
15.1272995799
 20
-2.2333120456
 30
0.0
 11
14.9536082118
 21
-2.5369116588
 31
0.0
 11
14.9667057913
 21
-2.4482972717
 31
0.0
 11
15.0042184489
 21
-2.3596747642
 31
0.0
 11
15.0605506309
 21
-2.2842634611
 31
0.0
 11
15.1272995799
 21
-2.2333120456
 31
0.0
  0
SPLINE
  5
28D
100
AcDbEntity
  8
ASSI
100
AcDbSpline
 62
253
  6
CONTINUOUS
 70
0
 71
3
 72
10
 73
6
 74
4
 42
0.0000001
 43
0.0000001
 44
0.0000000001
 12
-0.1066900285
 22
0.053347966
 32
0.0
 13
0.0004535062
 23
0.1185801457
 33
0.0
 40
0.0
 40
0.0
 40
0.0
 40
0.0
 40
0.5621967092
 40
0.9909786765
 40
1.0
 40
1.0
 40
1.0
 40
1.0
 10
-19.6233486897
 20
14.7515667919
 30
0.0
 10
-19.643342284
 20
14.7615641422
 30
0.0
 10
-19.6774334764
 20
14.7831985878
 30
0.0
 10
-19.6964689195
 20
14.8223553185
 30
0.0
 10
-19.6965701875
 20
14.8396585001
 30
0.0
 10
-19.6965688238
 20
14.8400150833
 30
0.0
 11
-19.6233486897
 21
14.7515667919
 31
0.0
 11
-19.6771222489
 21
14.7916370025
 31
0.0
 11
-19.6965625186
 21
14.8389454734
 31
0.0
 11
-19.6965688238
 21
14.8400150833
 31
0.0
  0
SPLINE
  5
28E
100
AcDbEntity
  8
ASSI
100
AcDbSpline
 62
253
  6
CONTINUOUS
 70
0
 71
3
 72
10
 73
6
 74
4
 42
0.0000001
 43
0.0000001
 44
0.0000000001
 12
-0.0264958836
 22
-0.1937282825
 32
0.0
 13
-0.1913177821
 23
-0.052459215
 33
0.0
 40
0.0
 40
0.0
 40
0.0
 40
0.0
 40
0.4306837962
 40
0.8010691458
 40
1.0
 40
1.0
 40
1.0
 40
1.0
 10
15.9899813653
 20
-16.9419695658
 30
0.0
 10
15.9861775827
 20
-16.9697814432
 30
0.0
 10
15.9716614473
 20
-17.0211118028
 30
0.0
 10
15.9289957812
 20
-17.0738743504
 30
0.0
 10
15.8942549665
 20
-17.0897191579
 30
0.0
 10
15.8815686299
 20
-17.0931977433
 30
0.0
 11
15.9899813653
 21
-16.9419695658
 31
0.0
 11
15.9648854237
 21
-17.0223556174
 31
0.0
 11
15.9172573255
 21
-17.076913166
 31
0.0
 11
15.8815686299
 21
-17.0931977433
 31
0.0
  0
SPLINE
  5
28F
100
AcDbEntity
  8
ASSI
100
AcDbSpline
 62
253
  6
CONTINUOUS
 70
0
 71
3
 72
11
 73
7
 74
5
 42
0.0000001
 43
0.0000001
 44
0.0000000001
 12
-0.3186059469
 22
-0.1690547765
 32
0.0
 13
-0.3227066243
 23
0.1610891104
 33
0.0
 40
0.0
 40
0.0
 40
0.0
 40
0.0
 40
0.2388448156
 40
0.503580789
 40
0.7663861237
 40
1.0
 40
1.0
 40
1.0
 40
1.0
 10
15.5445176965
 20
-16.5431837706
 30
0.0
 10
15.5191519037
 20
-16.5566430563
 30
0.0
 10
15.4611109914
 20
-16.5764679984
 30
0.0
 10
15.3690683633
 20
-16.5873124648
 30
0.0
 10
15.2772944614
 20
-16.5802686826
 30
0.0
 10
15.2193577954
 20
-16.5627143347
 30
0.0
 10
15.1942282136
 20
-16.5501701175
 30
0.0
 11
15.5445176965
 21
-16.5431837706
 31
0.0
 11
15.4635464703
 21
-16.5725919819
 31
0.0
 11
15.3687737459
 21
-16.5842304788
 31
0.0
 11
15.2743122108
 21
-16.5763661627
 31
0.0
 11
15.1942282136
 21
-16.5501701175
 31
0.0
  0
SPLINE
  5
290
100
AcDbEntity
  8
ASSI
100
AcDbSpline
 62
253
  6
CONTINUOUS
 70
0
 71
3
 72
11
 73
7
 74
5
 42
0.0000001
 43
0.0000001
 44
0.0000000001
 12
-0.3239020885
 22
-0.1568996966
 32
0.0
 13
-0.3219104786
 23
0.1609463312
 33
0.0
 40
0.0
 40
0.0
 40
0.0
 40
0.0
 40
0.2366865896
 40
0.5013293948
 40
0.7652575904
 40
1.0
 40
1.0
 40
1.0
 40
1.0
 10
15.3040493513
 20
-2.5381603073
 30
0.0
 10
15.2784949244
 20
-2.550538992
 30
0.0
 10
15.2202038667
 20
-2.5681621342
 30
0.0
 10
15.1282786658
 20
-2.5763867704
 30
0.0
 10
15.036646966
 20
-2.5675554195
 30
0.0
 10
14.9787968923
 20
-2.549505302
 30
0.0
 10
14.9536082118
 20
-2.5369116588
 30
0.0
 11
15.3040493513
 21
-2.5381603073
 31
0.0
 11
15.2230241774
 21
-2.5644522512
 31
0.0
 11
15.1282032328
 21
-2.5734374022
 31
0.0
 11
15.0337071573
 21
-2.5637777005
 31
0.0
 11
14.9536082118
 21
-2.5369116588
 31
0.0
  0
SPLINE
  5
291
100
AcDbEntity
  8
ASSI
100
AcDbSpline
 62
253
  6
CONTINUOUS
 70
0
 71
3
 72
11
 73
7
 74
5
 42
0.0000001
 43
0.0000001
 44
0.0000000001
 12
0.0199946315
 22
-0.5969871297
 32
0.0
 13
0.5355973488
 23
-0.2715057779
 33
0.0
 40
0.0
 40
0.0
 40
0.0
 40
0.0
 40
0.3060317019
 40
0.580122921
 40
0.8278011484
 40
1.0
 40
1.0
 40
1.0
 40
1.0
 10
15.1942156644
 20
-16.5501770062
 30
0.0
 10
15.1962553281
 20
-16.611076002
 30
0.0
 10
15.2106018523
 20
-16.7266844141
 30
0.0
 10
15.2690957913
 20
-16.8827554353
 30
0.0
 10
15.3548590212
 20
-16.9943054645
 30
0.0
 10
15.4248561128
 20
-17.0423386071
 30
0.0
 10
15.4555991956
 20
-17.0579229348
 30
0.0
 11
15.1942156644
 21
-16.5501770062
 31
0.0
 11
15.2188069836
 21
-16.7313147943
 31
0.0
 11
15.2785820511
 21
-16.8837333048
 31
0.0
 11
15.3704876212
 21
-16.9996672583
 31
0.0
 11
15.4555991956
 21
-17.0579229348
 31
0.0
  0
ELLIPSE
  5
292
100
AcDbEntity
  8
RACCORDO
100
AcDbEllipse
 62
7
  6
CONTINUOUS
 10
-15.7297988101
 20
16.8455201006
 30
0.0
 11
-0.1118504554
 21
0.2236675568
 31
0.0
 40
0.6121897086
 41
-0.6846338794
 42
0.01860359
  0
ELLIPSE
  5
293
100
AcDbEntity
  8
RACCORDO
100
AcDbEllipse
 62
7
  6
CONTINUOUS
 10
18.7108515906
 20
-16.2150929971
 30
0.0
 11
-0.0859020599
 21
0.2354039488
 31
0.0
 40
0.6613288813
 41
-3.0814589183
 42
-2.1814380601
  0
ELLIPSE
  5
294
100
AcDbEntity
  8
RACCORDO
100
AcDbEllipse
 62
7
  6
CONTINUOUS
 10
18.9792162143
 20
-0.5089874116
 30
0.0
 11
-0.1117903878
 21
0.2236141634
 31
0.0
 40
0.6125552124
 41
-2.255296188
 42
-0.6848044477
  0
ELLIPSE
  5
295
100
AcDbEntity
  8
RACCORDO
100
AcDbEllipse
 62
7
  6
CONTINUOUS
 10
18.1878219007
 20
-16.4621406123
 30
0.0
 11
-0.1118523001
 21
0.2236266191
 31
0.0
 40
0.6122950388
 41
2.456793014
 42
4.0274370417
  0
ELLIPSE
  5
296
100
AcDbEntity
  8
RACCORDO
100
AcDbEllipse
 62
7
  6
CONTINUOUS
 10
19.3718546504
 20
-1.0998564877
 30
0.0
 11
0.1379861541
 21
0.2664038768
 31
0.0
 40
0.6229838795
 41
2.2644017489
 42
3.8177447832
  0
ELLIPSE
  5
297
100
AcDbEntity
  8
RACCORDO
100
AcDbEllipse
 62
7
  6
CONTINUOUS
 10
18.1878219007
 20
-16.2103378098
 30
0.0
 11
-0.1098985543
 21
0.2275784384
 31
0.0
 40
0.6085747011
 41
-3.254853034
 42
-2.2415613143
  0
ELLIPSE
  5
298
100
AcDbEntity
  8
ASSI
100
AcDbEllipse
 62
7
  6
CONTINUOUS
 10
-15.7297988101
 20
16.8455201006
 30
0.0
 11
-0.1118504554
 21
0.2236675568
 31
0.0
 40
0.6121897086
 41
-0.6846338794
 42
0.01860359
  0
ELLIPSE
  5
299
100
AcDbEntity
  8
ASSI
100
AcDbEllipse
 62
7
  6
CONTINUOUS
 10
18.7108515906
 20
-16.2150929971
 30
0.0
 11
-0.0859020599
 21
0.2354039488
 31
0.0
 40
0.6613288813
 41
-3.0814589183
 42
-2.1814380601
  0
ELLIPSE
  5
29A
100
AcDbEntity
  8
ASSI
100
AcDbEllipse
 62
7
  6
CONTINUOUS
 10
18.9792162143
 20
-0.5089874116
 30
0.0
 11
-0.1117903878
 21
0.2236141634
 31
0.0
 40
0.6125552124
 41
-2.255296188
 42
-0.6848044477
  0
ELLIPSE
  5
29B
100
AcDbEntity
  8
ASSI
100
AcDbEllipse
 62
7
  6
CONTINUOUS
 10
18.1878219007
 20
-16.4621406123
 30
0.0
 11
-0.1118523001
 21
0.2236266191
 31
0.0
 40
0.6122950388
 41
2.456793014
 42
4.0274370417
  0
ELLIPSE
  5
29C
100
AcDbEntity
  8
ASSI
100
AcDbEllipse
 62
7
  6
CONTINUOUS
 10
19.3718546504
 20
-1.0998564877
 30
0.0
 11
0.1379861541
 21
0.2664038768
 31
0.0
 40
0.6229838795
 41
2.2644017489
 42
3.8177447832
  0
ELLIPSE
  5
29D
100
AcDbEntity
  8
ASSI
100
AcDbEllipse
 62
7
  6
CONTINUOUS
 10
18.1878219007
 20
-16.2103378098
 30
0.0
 11
-0.1098985543
 21
0.2275784384
 31
0.0
 40
0.6085747011
 41
-3.254853034
 42
-2.2415613143
  0
ELLIPSE
  5
29E
100
AcDbEntity
  8
CURVE
100
AcDbEllipse
 62
253
  6
CONTINUOUS
 10
309.1908204099
 20
151.3415522682
 30
0.0
 11
424.4616252599
 21
262.3317113306
 31
0.0
 40
0.0815198604
 41
2.3329505925
 42
2.3424848798
  0
ELLIPSE
  5
29F
100
AcDbEntity
  8
CURVE
100
AcDbEllipse
 62
253
  6
CONTINUOUS
 10
287.1796985023
 20
162.347113222
 30
0.0
 11
-315.2613449681
 21
510.1035714974
 31
0.0
 40
0.5587454355
 41
1.5475524291
 42
1.5570867164
  0
ELLIPSE
  5
2A0
100
AcDbEntity
  8
CURVE
100
AcDbEllipse
 62
253
  6
CONTINUOUS
 10
308.1908204099
 20
151.8415522682
 30
0.0
 11
424.4616252599
 21
262.3317113306
 31
0.0
 40
0.0815198604
 41
2.3296219533
 42
2.3391552818
  0
ELLIPSE
  5
2A1
100
AcDbEntity
  8
CURVE
100
AcDbEllipse
 62
253
  6
CONTINUOUS
 10
288.1796985023
 20
161.847113222
 30
0.0
 11
-315.2613449681
 21
510.1035714974
 31
0.0
 40
0.5587454355
 41
1.5442237899
 42
1.5537571184
  0
ENDSEC
  0
SECTION
  2
OBJECTS
  0
DICTIONARY
  5
C
100
AcDbDictionary
280
0
281
1
  3
ACAD_GROUP
350
D
  3
ACAD_MLINESTYLE
350
17
  3
ACAD_LAYOUT
350
1A
  3
ACAD_PLOTSETTINGS
350
19
  3
ACAD_PLOTSTYLENAME
350
E
  0
DICTIONARY
  5
D
102
{ACAD_REACTORS
330
C
102
}
100
AcDbDictionary
280
0
281
1
  0
ACDBDICTIONARYWDFLT
  5
E
102
{ACAD_REACTORS
330
C
102
}
100
AcDbDictionary
281
1
  3
Normal
350
F
100
AcDbDictionaryWithDefault
340
F
  0
DICTIONARY
  5
17
102
{ACAD_REACTORS
330
C
102
}
100
AcDbDictionary
280
0
281
1
  3
Standard
350
18
  0
DICTIONARY
  5
19
102
{ACAD_REACTORS
330
C
102
}
100
AcDbDictionary
281
1
  0
DICTIONARY
  5
1A
102
{ACAD_REACTORS
330
C
102
}
100
AcDbDictionary
281
1
  3
Model
350
2A2
  3
Layout1
350
2A3
  0
ACDBPLACEHOLDER
  5
F
102
{ACAD_REACTORS
330
E
102
}
  0
MLINESTYLE
  5
18
102
{ACAD_REACTORS
330
17
102
}
100
AcDbMlineStyle
  2
STANDARD
 70
0
  3

 62
256
 51
90.0
 52
90.0
 71
2
 49
0.5
 62
256
  6
BYLAYER
 49
-0.5
 62
256
  6
BYLAYER
  0
LAYOUT
  5
2A2
102
{ACAD_REACTORS
330
1A
102
}
100
AcDbPlotSettings
  1

  2
none_device
  4
ISO_A4_(297.00_x_210.00_MM)
  6

 40
0.0
 41
0.0
 42
0.0
 43
0.0
 44
297.0
 45
210.0
 46
0.0
 47
0.0
 48
0.0
 49
0.0
140
0.0
141
0.0
142
1.0
143
1.0
 70
1024
 72
1
 73
0
 74
0
  7

 75
0
147
1.0
148
0.0
149
0.0
100
AcDbLayout
  1
Model
 70
0
 71
0
 10
0.0
 20
0.0
 11
297.0
 21
210.0
 12
0.0
 22
0.0
 32
0.0
 14
0.0
 24
0.0
 34
0.0
 15
0.0
 25
0.0
 35
0.0
146
0.0
 13
0.0
 23
0.0
 33
0.0
 16
1.0
 26
0.0
 36
0.0
 17
0.0
 27
1.0
 37
0.0
 76
0
330
210
345
0
346
0
  0
LAYOUT
  5
2A3
102
{ACAD_REACTORS
330
1A
102
}
100
AcDbPlotSettings
  1

  2
none_device
  4
ISO_A4_(297.00_x_210.00_MM)
  6

 40
0.0
 41
0.0
 42
0.0
 43
0.0
 44
297.0
 45
210.0
 46
0.0
 47
0.0
 48
0.0
 49
0.0
140
0.0
141
0.0
142
1.0
143
1.0
 70
0
 72
1
 73
0
 74
0
  7

 75
0
147
1.0
148
0.0
149
0.0
100
AcDbLayout
  1
Layout1
 70
0
 71
1
 10
0.0
 20
0.0
 11
297.0
 21
210.0
 12
0.0
 22
0.0
 32
0.0
 14
0.0
 24
0.0
 34
0.0
 15
0.0
 25
0.0
 35
0.0
146
0.0
 13
0.0
 23
0.0
 33
0.0
 16
1.0
 26
0.0
 36
0.0
 17
0.0
 27
1.0
 37
0.0
 76
0
330
211
345
0
346
0
  0
ENDSEC
  0
EOF
