  0
SECTION
  2
HEADER
  9
$ACADVER
  1
AC1015
  9
$DWGCODEPAGE
  3
ANSI_1252
  9
$EXTMAX
 10
297.0
 20
210.0
 30
0.0
  9
$EXTMIN
 10
0.0
 20
0.0
 30
0.0
  9
$LIMMIN
 10
0.0
 20
0.0
  9
$LIMMAX
 10
297.0
 20
210.0
  9
$VIEWCTR
 10
148.5
 20
105.0
  9
$VIEWSIZE
 40
210.0
  9
$CLAYER
  8
0
  9
$LTSCALE
 40
16.335
  9
$CELTYPE
  6
BYLAYER
  9
$DIMSCALE
 40
1.0
  9
$DIMASZ
 40
3.0
  9
$DIMEXO
 40
1.85625
  9
$DIMDLI
 40
11.286
  9
$DIMEXE
 40
5.346
  9
$DIMCEN
 40
2.673
  9
$DIMLFAC
 40
1.0
  9
$DIMBLK
  1
_FILLED
  9
$DIMTXT
 40
3.0
  9
$DIMTOL
 70
1
  9
$DIMLIM
 70
0
  9
$DIMTFAC
 40
1.0
  9
$DIMTP
 40
0.01
  9
$DIMTM
 40
0.01
  9
$PDMODE
 70
3
  9
$PDSIZE
 40
3.0
  9
$HANDSEED
  5
253
  9
$TILEMODE
 70
1
  9
$MEASUREMENT
 70
1
  9
$INSUNITS
 70
4
  0
ENDSEC
  0
SECTION
  2
CLASSES
  0
CLASS
  1
ACDBDICTIONARYWDFLT
  2
AcDbDictionaryWithDefault
  3
AutoCAD 2000
 90
0
280
0
281
0
  0
CLASS
  1
ACDBPLACEHOLDER
  2
AcDbPlaceHolder
  3
AutoCAD 2000
 90
0
280
0
281
0
  0
CLASS
  1
LAYOUT
  2
AcDbLayout
  3
AutoCAD 2000
 90
0
280
0
281
0
  0
ENDSEC
  0
SECTION
  2
TABLES
  0
TABLE
  2
VPORT
  5
8
100
AcDbSymbolTable
 70
2
  0
VPORT
  5
1F4
100
AcDbSymbolTableRecord
100
AcDbViewportTableRecord
  2
*ACTIVE
 70
0
 10
0.0
 20
0.0
 11
1.0
 21
1.0
 12
148.5
 22
105.0
 13
0.0
 23
0.0
 14
1.0
 24
1.0
 15
0.0
 25
0.0
 16
0.0
 26
0.0
 36
1.0
 17
0.0
 27
0.0
 37
0.0
 40
210.0
 41
1.4142857143
 42
50.0
 43
0.0
 44
0.0
 50
0.0
 51
0.0
 71
0
 72
100
 73
1
 74
1
 75
0
 76
0
 77
0
 78
0
  0
ENDTAB
  0
TABLE
  2
LTYPE
  5
5
100
AcDbSymbolTable
 70
6
  0
LTYPE
  5
14
100
AcDbSymbolTableRecord
100
AcDbLinetypeTableRecord
  2
BYBLOCK
 70
0
  3

 72
65
 73
0
 40
0.0
  0
LTYPE
  5
15
100
AcDbSymbolTableRecord
100
AcDbLinetypeTableRecord
  2
BYLAYER
 70
0
  3

 72
65
 73
0
 40
0.0
  0
LTYPE
  5
16
100
AcDbSymbolTableRecord
100
AcDbLinetypeTableRecord
  2
CONTINUOUS
 70
64
  3
Solid line
 72
65
 73
0
 40
0.0
  0
LTYPE
  5
1F5
100
AcDbSymbolTableRecord
100
AcDbLinetypeTableRecord
  2
CENTER
 70
64
  3
____ _ ____ _ ____ _ ____ _ ____ _ ____ _ ____
 72
65
 73
4
 40
0.6
 49
0.375
 74
0
 49
-0.075
 74
0
 49
0.075
 74
0
 49
-0.075
 74
0
  0
LTYPE
  5
1F6
100
AcDbSymbolTableRecord
100
AcDbLinetypeTableRecord
  2
HIDDEN
 70
64
  3
- - - - - - - - - - - - - - - - - - - -
 72
65
 73
2
 40
0.2
 49
0.1
 74
0
 49
-0.1
 74
0
  0
LTYPE
  5
1F7
100
AcDbSymbolTableRecord
100
AcDbLinetypeTableRecord
  2
PHANTOM
 70
64
  3
_____ _ _ _____ _ _ _____ _ _ _____
 72
65
 73
6
 40
0.8
 49
0.45
 74
0
 49
-0.05
 74
0
 49
0.1
 74
0
 49
-0.05
 74
0
 49
0.1
 74
0
 49
-0.05
 74
0
  0
LTYPE
  5
1F8
100
AcDbSymbolTableRecord
100
AcDbLinetypeTableRecord
  2
DOT
 70
64
  3
. . . . . . . . . . . . . . . . . . . .
 72
65
 73
2
 40
0.2
 49
0.1
 74
0
 49
-0.1
 74
0
  0
LTYPE
  5
1F9
100
AcDbSymbolTableRecord
100
AcDbLinetypeTableRecord
  2
DASHED
 70
64
  3
- - - - - - - - - - - - - - - - - - - -
 72
65
 73
2
 40
0.2
 49
0.1
 74
0
 49
-0.1
 74
0
  0
ENDTAB
  0
TABLE
  2
LAYER
  5
2
100
AcDbSymbolTable
 70
36
  0
LAYER
  5
10
100
AcDbSymbolTableRecord
100
AcDbLayerTableRecord
  2
0
 70
0
 62
7
  6
CONTINUOUS
370
-3
390
F
  0
LAYER
  5
1FA
100
AcDbSymbolTableRecord
100
AcDbLayerTableRecord
  2
DEFAULT_1
 70
0
 62
7
  6
CENTER
370
-3
390
F
  0
LAYER
  5
1FB
100
AcDbSymbolTableRecord
100
AcDbLayerTableRecord
  2
DEFAULT_2
 70
0
 62
7
  6
HIDDEN
370
-3
390
F
  0
LAYER
  5
1FC
100
AcDbSymbolTableRecord
100
AcDbLayerTableRecord
  2
DEFAULT_3
 70
0
 62
7
  6
PHANTOM
370
-3
390
F
  0
LAYER
  5
1FD
100
AcDbSymbolTableRecord
100
AcDbLayerTableRecord
  2
ASSI
 70
0
 62
7
  6
CONTINUOUS
370
-3
390
F
  0
LAYER
  5
1FE
100
AcDbSymbolTableRecord
100
AcDbLayerTableRecord
  2
COORDINATE
 70
0
 62
7
  6
CONTINUOUS
370
-3
390
F
  0
LAYER
  5
1FF
100
AcDbSymbolTableRecord
100
AcDbLayerTableRecord
  2
COORD_ORIGINE
 70
0
 62
7
  6
CONTINUOUS
370
-3
390
F
  0
LAYER
  5
200
100
AcDbSymbolTableRecord
100
AcDbLayerTableRecord
  2
CURVE
 70
0
 62
7
  6
CONTINUOUS
370
-3
390
F
  0
LAYER
  5
201
100
AcDbSymbolTableRecord
100
AcDbLayerTableRecord
  2
DRAFT
 70
0
 62
7
  6
CONTINUOUS
370
-3
390
F
  0
LAYER
  5
202
100
AcDbSymbolTableRecord
100
AcDbLayerTableRecord
  2
IGES
 70
0
 62
7
  6
CONTINUOUS
370
-3
390
F
  0
LAYER
  5
203
100
AcDbSymbolTableRecord
100
AcDbLayerTableRecord
  2
NOTE
 70
0
 62
7
  6
CONTINUOUS
370
-3
390
F
  0
LAYER
  5
204
100
AcDbSymbolTableRecord
100
AcDbLayerTableRecord
  2
PIANI
 70
0
 62
7
  6
CONTINUOUS
370
-3
390
F
  0
LAYER
  5
205
100
AcDbSymbolTableRecord
100
AcDbLayerTableRecord
  2
PIANI_ORIGINE
 70
0
 62
7
  6
CONTINUOUS
370
-3
390
F
  0
LAYER
  5
206
100
AcDbSymbolTableRecord
100
AcDbLayerTableRecord
  2
RACCORDO
 70
0
 62
7
  6
CONTINUOUS
370
-3
390
F
  0
LAYER
  5
207
100
AcDbSymbolTableRecord
100
AcDbLayerTableRecord
  2
SUPERFICI
 70
0
 62
7
  6
CONTINUOUS
370
-3
390
F
  0
LAYER
  5
208
100
AcDbSymbolTableRecord
100
AcDbLayerTableRecord
  2
TRASH
 70
0
 62
7
  6
CONTINUOUS
370
-3
390
F
  0
ENDTAB
  0
TABLE
  2
STYLE
  5
3
100
AcDbSymbolTable
 70
1
  0
STYLE
  5
11
100
AcDbSymbolTableRecord
100
AcDbTextStyleTableRecord
  2
STANDARD
 70
0
 40
0.0
 41
0.8
 50
0.0
 71
0
 42
0.2
  3
txt
  4

  0
STYLE
  5
209
100
AcDbSymbolTableRecord
100
AcDbTextStyleTableRecord
  2
TEXTSTYLE_1
 70
0
 40
0.0
 41
0.8
 50
0.0
 71
0
 42
0.2
  3
gdt
  4

  0
ENDTAB
  0
TABLE
  2
VIEW
  5
6
100
AcDbSymbolTable
 70
0
  0
ENDTAB
  0
TABLE
  2
UCS
  5
7
100
AcDbSymbolTable
 70
0
  0
ENDTAB
  0
TABLE
  2
APPID
  5
9
100
AcDbSymbolTable
 70
1
  0
APPID
  5
20A
100
AcDbSymbolTableRecord
100
AcDbRegAppTableRecord
  2
ACAD
 70
0
  0
ENDTAB
  0
TABLE
  2
BLOCK_RECORD
  5
1
100
AcDbSymbolTable
 70
0
  0
BLOCK_RECORD
  5
20B
100
AcDbSymbolTableRecord
100
AcDbBlockTableRecord
  2
*Model_Space
  0
BLOCK_RECORD
  5
20C
100
AcDbSymbolTableRecord
100
AcDbBlockTableRecord
  2
*Paper_Space
  0
ENDTAB
  0
TABLE
  2
DIMSTYLE
  5
A
100
AcDbSymbolTable
 70
1
100
AcDbDimStyleTable
 71
0
  0
DIMSTYLE
105
20D
100
AcDbSymbolTableRecord
100
AcDbDimStyleTableRecord
  2
STANDARD
 70
0
  3

  4

 40
1.0
 41
3.0
 42
0.0625
 43
0.38
 44
0.18
 45
0.0
 46
0.0
 47
0.01
 48
0.01
140
3.0
141
0.09
142
0.0
143
25.4
144
1.0
145
0.0
146
1.0
147
0.09
 71
1.0
 72
0.0
 73
0
 74
0
 75
0
 76
0
 77
1
 78
8
170
0
171
2
172
0
173
0
174
0
175
0
176
0
177
0
178
0
270
2
271
2
272
2
273
2
274
2
275
0
280
0
281
0
282
0
283
1
284
8
285
0
286
0
287
3
288
0
340
11
  0
ENDTAB
  0
ENDSEC
  0
SECTION
  2
BLOCKS
  0
BLOCK
  5
20
100
AcDbEntity
  8
0
100
AcDbBlockBegin
  2
*Model_Space
 70
0
 10
0.0
 20
0.0
 30
0.0
  3
*Model_Space
  1

  0
ENDBLK
  5
21
100
AcDbEntity
  8
0
100
AcDbBlockEnd
  0
BLOCK
  5
1C
100
AcDbEntity
  8
0
100
AcDbBlockBegin
  2
*Paper_Space
 70
0
 10
0.0
 20
0.0
 30
0.0
  3
*Paper_Space
  1

  0
ENDBLK
  5
1D
100
AcDbEntity
  8
0
100
AcDbBlockEnd
  0
ENDSEC
  0
SECTION
  2
ENTITIES
  0
LINE
  5
20E
100
AcDbEntity
  8
RACCORDO
100
AcDbLine
 62
7
  6
CONTINUOUS
 10
-11.7971565526
 20
10.7486819361
 11
-8.7014374439
 21
12.4188934162
  0
LINE
  5
20F
100
AcDbEntity
  8
RACCORDO
100
AcDbLine
 62
253
  6
CONTINUOUS
 10
-11.6815357775
 20
10.7435925043
 11
-8.587018887
 21
12.4131553601
  0
LINE
  5
210
100
AcDbEntity
  8
DRAFT
100
AcDbLine
 62
7
  6
CONTINUOUS
 10
-6.0582881997
 20
11.1487900165
 11
-7.413298403
 21
10.3096261654
  0
LINE
  5
211
100
AcDbEntity
  8
RACCORDO
100
AcDbLine
 62
7
  6
CONTINUOUS
 10
8.3468102772
 20
-11.9045001322
 11
5.9473835771
 21
-12.5537698139
  0
LINE
  5
212
100
AcDbEntity
  8
RACCORDO
100
AcDbLine
 62
253
  6
CONTINUOUS
 10
8.4303923477
 20
-11.7598024249
 11
6.0557481889
 21
-12.4023661077
  0
LWPOLYLINE
  5
213
100
AcDbEntity
  8
RACCORDO
100
AcDbPolyline
 62
7
  6
CONTINUOUS
 90
13
 70
0
 10
-11.6949861851
 20
-3.5050658346
 10
-11.6884451405
 20
-3.5748459723
 10
-11.6770109286
 20
-3.6417554282
 10
-11.6606982755
 20
-3.7056791577
 10
-11.6396154059
 20
-3.7662462824
 10
-11.6140640945
 20
-3.8227926218
 10
-11.5843486176
 20
-3.8749653142
 10
-11.5506454605
 20
-3.9227615306
 10
-11.5132202495
 20
-3.966001711
 10
-11.4724225753
 20
-4.0044374188
 10
-11.4286168384
 20
-4.037897839
 10
-11.3821861988
 20
-4.0662766136
 10
-11.3664006685
 20
-4.0744883045
  0
LINE
  5
214
100
AcDbEntity
  8
RACCORDO
100
AcDbLine
 62
7
  6
CONTINUOUS
 10
-11.6960965045
 20
-3.4803001001
 11
-11.6949861851
 21
-3.5050658346
  0
LWPOLYLINE
  5
215
100
AcDbEntity
  8
RACCORDO
100
AcDbPolyline
 62
7
  6
CONTINUOUS
 90
10
 70
0
 10
-11.9284504622
 20
10.5284016844
 10
-11.9242875385
 20
8.9957541205
 10
-11.9146391515
 20
7.4208802318
 10
-11.8995501265
 20
5.8488856313
 10
-11.8790206865
 20
4.2798027849
 10
-11.8530512138
 20
2.7136587262
 10
-11.8216420968
 20
1.1504787178
 10
-11.7847938175
 20
-0.4097098435
 10
-11.7425071934
 20
-1.9668743592
 10
-11.6961019301
 20
-3.4803312187
  0
LINE
  5
216
100
AcDbEntity
  8
DRAFT
100
AcDbLine
 62
7
  6
CONTINUOUS
 10
-6.0582881997
 20
10.1609557328
 11
-6.5307554254
 21
9.8683546766
  0
LWPOLYLINE
  5
217
100
AcDbEntity
  8
RACCORDO
100
AcDbPolyline
 62
7
  6
CONTINUOUS
 90
9
 70
0
 10
5.521652681
 20
-12.5185127489
 10
5.5577039449
 20
-12.5350199655
 10
5.6138097152
 20
-12.5547496496
 10
5.6729248549
 20
-12.5685370256
 10
5.7344755046
 20
-12.5760213289
 10
5.7976710444
 20
-12.5769541881
 10
5.8619790427
 20
-12.5712596945
 10
5.9270471694
 20
-12.5589436259
 10
5.9471940388
 20
-12.5538135985
  0
LINE
  5
218
100
AcDbEntity
  8
RACCORDO
100
AcDbLine
 62
7
  6
CONTINUOUS
 10
-11.3669319923
 20
-4.0742325752
 11
5.5227435476
 21
-12.5190703451
  0
LINE
  5
219
100
AcDbEntity
  8
RACCORDO
100
AcDbLine
 62
253
  6
CONTINUOUS
 10
-11.6228704579
 20
-3.569147072
 11
5.259982488
 21
-12.010573545
  0
LINE
  5
21A
100
AcDbEntity
  8
RACCORDO
100
AcDbLine
 62
7
  6
CONTINUOUS
 10
5.5227141364
 20
-12.5190556395
 11
5.5215920047
 21
-12.5184922793
  0
LINE
  5
21B
100
AcDbEntity
  8
RACCORDO
100
AcDbLine
 62
7
  6
CONTINUOUS
 10
8.2536156514
 20
-12.1315075237
 11
7.9917532422
 21
-12.0005763191
  0
LINE
  5
21C
100
AcDbEntity
  8
DRAFT
100
AcDbLine
 62
7
  6
CONTINUOUS
 10
-6.0582881997
 20
11.1487900165
 11
-6.0582881997
 21
10.1609557328
  0
LINE
  5
21D
100
AcDbEntity
  8
DRAFT
100
AcDbLine
 62
7
  6
CONTINUOUS
 10
5.8688017643
 20
5.1852450345
 11
4.2539634866
 21
4.4759952206
  0
LINE
  5
21E
100
AcDbEntity
  8
DRAFT
100
AcDbLine
 62
7
  6
CONTINUOUS
 10
11.4310973156
 20
-1.762311128
 11
10.7010397208
 21
-1.7238405886
  0
LINE
  5
21F
100
AcDbEntity
  8
RACCORDO
100
AcDbLine
 62
253
  6
CONTINUOUS
 10
8.3975324515
 20
3.9208796909
 11
5.1930664049
 21
2.3062914131
  0
LINE
  5
220
100
AcDbEntity
  8
RACCORDO
100
AcDbLine
 62
253
  6
CONTINUOUS
 10
8.5742822229
 20
3.6160314292
 11
5.3698161776
 21
2.0014431521
  0
LINE
  5
221
100
AcDbEntity
  8
DRAFT
100
AcDbLine
 62
7
  6
CONTINUOUS
 10
9.4511983283
 20
1.5411742044
 11
8.5742822229
 21
1.136185287
  0
LINE
  5
222
100
AcDbEntity
  8
DRAFT
100
AcDbLine
 62
7
  6
CONTINUOUS
 10
10.2290157876
 20
1.1522654748
 11
8.5742822229
 21
0.3880546786
  0
LINE
  5
223
100
AcDbEntity
  8
RACCORDO
100
AcDbLine
 62
7
  6
CONTINUOUS
 10
11.5551417421
 20
-1.8243333413
 11
11.4310973156
 21
-1.762311128
  0
LINE
  5
224
100
AcDbEntity
  8
RACCORDO
100
AcDbLine
 62
253
  6
CONTINUOUS
 10
5.0193750355
 20
2.0026917978
 11
-11.8552271469
 21
10.439992889
  0
LINE
  5
225
100
AcDbEntity
  8
RACCORDO
100
AcDbLine
 62
253
  6
CONTINUOUS
 10
5.1930664049
 20
2.3062914131
 11
-11.6815357775
 21
10.7435925043
  0
LINE
  5
226
100
AcDbEntity
  8
DRAFT
100
AcDbLine
 62
7
  6
CONTINUOUS
 10
10.2290157876
 20
1.1522654748
 11
9.4511983283
 21
1.5411742044
  0
LINE
  5
227
100
AcDbEntity
  8
DRAFT
100
AcDbLine
 62
7
  6
CONTINUOUS
 10
10.7010397208
 20
-1.7238405886
 11
10.241420313
 21
-1.9339928147
  0
LINE
  5
228
100
AcDbEntity
  8
DRAFT
100
AcDbLine
 62
7
  6
CONTINUOUS
 10
10.4057924829
 20
-2.2311122478
 11
10.2290157876
 21
-2.3119400271
  0
LINE
  5
229
100
AcDbEntity
  8
DRAFT
100
AcDbLine
 62
7
  6
CONTINUOUS
 10
-7.413298403
 20
10.3096261654
 11
4.2539634866
 21
4.4759952206
  0
LINE
  5
22A
100
AcDbEntity
  8
RACCORDO
100
AcDbLine
 62
7
  6
CONTINUOUS
 10
11.6041691683
 20
-2.273126085
 11
10.2290157876
 21
-3.0564909855
  0
LINE
  5
22B
100
AcDbEntity
  8
RACCORDO
100
AcDbLine
 62
7
  6
CONTINUOUS
 10
8.3975324515
 20
3.9208796909
 11
5.8688017643
 21
5.1852450345
  0
LINE
  5
22C
100
AcDbEntity
  8
RACCORDO
100
AcDbLine
 62
7
  6
CONTINUOUS
 10
-6.0582881997
 20
11.1487900165
 11
-8.587018887
 21
12.4131553601
  0
LINE
  5
22D
100
AcDbEntity
  8
DRAFT
100
AcDbLine
 62
7
  6
CONTINUOUS
 10
10.241420313
 20
-1.9339928147
 11
10.4057924829
 21
-2.2311122478
  0
LINE
  5
22E
100
AcDbEntity
  8
RACCORDO
100
AcDbLine
 62
7
  6
CONTINUOUS
 10
8.4303923477
 20
-11.7598024249
 11
8.4303923477
 21
-12.0034142517
  0
LINE
  5
22F
100
AcDbEntity
  8
RACCORDO
100
AcDbLine
 62
7
  6
CONTINUOUS
 10
8.5742822229
 20
0.3880546786
 11
8.5742822229
 21
3.6160314292
  0
LINE
  5
230
100
AcDbEntity
  8
RACCORDO
100
AcDbLine
 62
7
  6
CONTINUOUS
 10
10.2290157876
 20
-11.1538532417
 11
10.2290157876
 21
-6.6937976814
  0
LINE
  5
231
100
AcDbEntity
  8
DRAFT
100
AcDbLine
 62
7
  6
CONTINUOUS
 10
10.2290157876
 20
-6.6937976814
 11
10.2290157876
 21
1.1522654748
  0
LINE
  5
232
100
AcDbEntity
  8
DRAFT
100
AcDbLine
 62
7
  6
CONTINUOUS
 10
10.241420313
 20
-2.306268294
 11
10.241420313
 21
-1.9339928147
  0
LINE
  5
233
100
AcDbEntity
  8
RACCORDO
100
AcDbLine
 62
7
  6
CONTINUOUS
 10
11.6041691683
 20
-5.7789895824
 11
10.2290157876
 21
-6.6937976814
  0
LINE
  5
234
100
AcDbEntity
  8
RACCORDO
100
AcDbLine
 62
253
  6
CONTINUOUS
 10
11.6041691683
 20
-2.273126085
 11
11.6041691683
 21
-5.7789895824
  0
LINE
  5
235
100
AcDbEntity
  8
RACCORDO
100
AcDbLine
 62
7
  6
CONTINUOUS
 10
11.7601669953
 20
-2.0655485502
 11
11.7601669953
 21
-5.5460428435
  0
LINE
  5
236
100
AcDbEntity
  8
RACCORDO
100
AcDbLine
 62
253
  6
CONTINUOUS
 10
10.2290157876
 20
-11.1538532417
 11
8.4303923477
 21
-12.0034142517
  0
LINE
  5
237
100
AcDbEntity
  8
RACCORDO
100
AcDbLine
 62
7
  6
CONTINUOUS
 10
10.1621473521
 20
-11.2899768724
 11
8.3635239122
 21
-12.1395378824
  0
ARC
  5
238
100
AcDbEntity
  8
RACCORDO
100
AcDbCircle
 62
253
  6
CONTINUOUS
 10
434.0194346673
 20
10.82604739
 40
445.8747235289
100
AcDbArc
 50
180.0496087577
 51
181.8384365303
  0
ARC
  5
239
100
AcDbEntity
  8
RACCORDO
100
AcDbCircle
 62
253
  6
CONTINUOUS
 10
438.2670094316
 20
2.4303798094
 40
433.2478718446
100
AcDbArc
 50
180.0565605167
 51
181.9101286404
  0
ARC
  5
23A
100
AcDbEntity
  8
RACCORDO
100
AcDbCircle
 62
253
  6
CONTINUOUS
 10
438.3582958406
 20
2.4288794243
 40
432.9887169732
100
AcDbArc
 50
180.0565610579
 51
181.9101477714
  0
ARC
  5
23B
100
AcDbEntity
  8
RACCORDO
100
AcDbCircle
 62
253
  6
CONTINUOUS
 10
-11.2009749838
 20
-3.7437845212
 40
0.3697272076
100
AcDbArc
 50
241.6345678639
 51
243.3333666271
  0
ARC
  5
23C
100
AcDbEntity
  8
RACCORDO
100
AcDbCircle
 62
7
  6
CONTINUOUS
 10
-11.6784463433
 20
10.5286603537
 40
0.2500042528
100
AcDbArc
 50
118.3432164772
 51
180.0592818732
  0
SPLINE
  5
23D
100
AcDbEntity
  8
RACCORDO
100
AcDbSpline
 62
253
  6
CONTINUOUS
 70
0
 71
3
 72
11
 73
7
 74
5
 42
0.0000001
 43
0.0000001
 44
0.0000000001
 12
-0.5360408638
 22
0.2712468348
 32
0.0
 13
-0.0200017885
 23
0.5972646205
 33
0.0
 40
0.0
 40
0.0
 40
0.0
 40
0.0
 40
0.1725869508
 40
0.4202424423
 40
0.6943145196
 40
1.0
 40
1.0
 40
1.0
 40
1.0
 10
5.5216156419
 20
-12.5184455671
 30
0.0
 10
5.4907777559
 20
-12.5028410124
 30
0.0
 10
5.4206667884
 20
-12.4547656541
 30
0.0
 10
5.3348281777
 20
-12.3431001026
 30
0.0
 10
5.2763581069
 20
-12.1870200291
 30
0.0
 10
5.2620205734
 20
-12.0714319191
 30
0.0
 10
5.259982488
 20
-12.010573545
 30
0.0
 11
5.5216156419
 21
-12.5184455671
 31
0.0
 11
5.43625305
 21
-12.4600625716
 31
0.0
 11
5.3443204922
 21
-12.34407962
 31
0.0
 11
5.284543726
 21
-12.1915923425
 31
0.0
 11
5.259982488
 21
-12.010573545
 31
0.0
  0
SPLINE
  5
23E
100
AcDbEntity
  8
RACCORDO
100
AcDbSpline
 62
253
  6
CONTINUOUS
 70
0
 71
3
 72
10
 73
6
 74
4
 42
0.0000001
 43
0.0000001
 44
0.0000000001
 12
0.1913176646
 22
0.0524594485
 32
0.0
 13
0.0264958853
 23
0.1937282195
 33
0.0
 40
0.0
 40
0.0
 40
0.0
 40
0.0
 40
0.1989381026
 40
0.5693230012
 40
1.0
 40
1.0
 40
1.0
 40
1.0
 10
5.9473355181
 20
-12.5535942668
 30
0.0
 10
5.9600223091
 20
-12.5501155391
 30
0.0
 10
5.9947634652
 20
-12.5342702762
 30
0.0
 10
6.0374285762
 20
-12.4815073868
 30
0.0
 10
6.0519444662
 20
-12.4301775371
 30
0.0
 10
6.0557481889
 20
-12.4023661077
 30
0.0
 11
5.9473355181
 21
-12.5535942668
 31
0.0
 11
5.983025394
 21
-12.5373088608
 31
0.0
 11
6.0306528997
 21
-12.4827509425
 31
0.0
 11
6.0557481889
 21
-12.4023661077
 31
0.0
  0
SPLINE
  5
23F
100
AcDbEntity
  8
RACCORDO
100
AcDbSpline
 62
253
  6
CONTINUOUS
 70
0
 71
3
 72
13
 73
9
 74
7
 42
0.0000001
 43
0.0000001
 44
0.0000000001
 12
-0.6783466631
 22
-0.1833487961
 32
0.0
 13
-0.0236939993
 23
0.7022888087
 33
0.0
 40
0.0
 40
0.0
 40
0.0
 40
0.0
 40
0.1672294386
 40
0.3211225646
 40
0.4715331712
 40
0.6300155862
 40
0.8051221764
 40
1.0
 40
1.0
 40
1.0
 40
1.0
 10
6.0557481889
 20
-12.4023661077
 30
0.0
 10
6.0179350117
 20
-12.4125865465
 30
0.0
 10
5.9422650175
 20
-12.4234490813
 30
0.0
 10
5.8314358035
 20
-12.4029852035
 30
0.0
 10
5.7371492561
 20
-12.3445424264
 30
0.0
 10
5.6666649203
 20
-12.253111266
 30
0.0
 10
5.6226155419
 20
-12.1359367148
 30
0.0
 10
5.6118236655
 20
-12.0492004842
 30
0.0
 10
5.6102845205
 20
-12.0035803127
 30
0.0
 11
6.0557481889
 21
-12.4023661077
 31
0.0
 11
5.9391748451
 21
-12.4171748609
 31
0.0
 11
5.8330535238
 21
-12.3963832828
 31
0.0
 11
5.7430496034
 21
-12.3409752669
 31
0.0
 11
5.6737747641
 21
-12.2537807591
 31
0.0
 11
5.6287540726
 21
-12.139267441
 31
0.0
 11
5.6102845205
 21
-12.0035803127
 31
0.0
  0
LINE
  5
240
100
AcDbEntity
  8
RACCORDO
100
AcDbLine
 62
253
  6
CONTINUOUS
 10
-11.6258080355
 20
-3.4781786164
 11
-11.6228704579
 21
-3.569147072
  0
SPLINE
  5
241
100
AcDbEntity
  8
RACCORDO
100
AcDbSpline
 62
253
  6
CONTINUOUS
 70
0
 71
3
 72
11
 73
7
 74
5
 42
0.0000001
 43
0.0000001
 44
0.0000000001
 12
0.0189619265
 22
-0.5810678276
 32
0.0
 13
0.5145129962
 23
-0.2777799237
 33
0.0
 40
0.0
 40
0.0
 40
0.0
 40
0.0
 40
0.3135290174
 40
0.5930488317
 40
0.8434822428
 40
1.0
 40
1.0
 40
1.0
 40
1.0
 10
-11.6228704579
 20
-3.5691470721
 30
0.0
 10
-11.6208887532
 20
-3.6298742804
 30
0.0
 10
-11.6070127958
 20
-3.744904976
 30
0.0
 10
-11.5502661899
 20
-3.9000989854
 30
0.0
 10
-11.4687080378
 20
-4.0083039542
 30
0.0
 10
-11.4034734172
 20
-4.0546280707
 30
0.0
 10
-11.3766299438
 20
-4.0691205676
 30
0.0
 11
-11.6228704579
 21
-3.5691470721
 31
0.0
 11
-11.5989439361
 21
-3.7498485121
 31
0.0
 11
-11.5407120682
 21
-3.9015633403
 31
0.0
 11
-11.4511554666
 21
-4.0163583136
 31
0.0
 11
-11.3766299438
 21
-4.0691205676
 31
0.0
  0
SPLINE
  5
242
100
AcDbEntity
  8
RACCORDO
100
AcDbSpline
 62
253
  6
CONTINUOUS
 70
0
 71
3
 72
9
 73
5
 74
3
 42
0.0000001
 43
0.0000001
 44
0.0000000001
 12
-0.1066364361
 22
0.0534055867
 32
0.0
 13
-0.0042529904
 23
0.1188372829
 33
0.0
 40
0.0
 40
0.0
 40
0.0
 40
0.0
 40
0.5657505602
 40
1.0
 40
1.0
 40
1.0
 40
1.0
 10
-11.6228637048
 20
-3.5691433683
 30
0.0
 10
-11.6429735793
 20
-3.5590719548
 30
0.0
 10
-11.6773082643
 20
-3.5367444011
 30
0.0
 10
-11.6954774568
 20
-3.4975325982
 30
0.0
 10
-11.6960930764
 20
-3.4803309237
 30
0.0
 11
-11.6228637048
 21
-3.5691433683
 31
0.0
 11
-11.6766491649
 21
-3.5284040987
 31
0.0
 11
-11.6960930764
 21
-3.4803309237
 31
0.0
  0
SPLINE
  5
243
100
AcDbEntity
  8
RACCORDO
100
AcDbSpline
 62
253
  6
CONTINUOUS
 70
0
 71
3
 72
10
 73
6
 74
4
 42
0.0000001
 43
0.0000001
 44
0.0000000001
 12
-0.1070974335
 22
0.0535516807
 32
0.0
 13
-0.0003510446
 23
0.1218289549
 33
0.0
 40
0.0
 40
0.0
 40
0.0
 40
0.0
 40
0.4619626212
 40
0.8296857731
 40
1.0
 40
1.0
 40
1.0
 40
1.0
 10
-11.8552271465
 20
10.43999289
 30
0.0
 10
-11.8717188169
 20
10.4482391816
 30
0.0
 10
-11.8999816211
 20
10.4662406006
 30
0.0
 10
-11.9248905193
 20
10.4996209415
 30
0.0
 10
-11.9282096385
 20
10.521486181
 30
0.0
 10
-11.9282295678
 20
10.5284025825
 30
0.0
 11
-11.8552271465
 21
10.43999289
 31
0.0
 11
-11.9008368684
 21
10.4712905244
 31
0.0
 11
-11.9250980047
 21
10.5080347464
 31
0.0
 11
-11.9282295678
 21
10.5284025825
 31
0.0
  0
SPLINE
  5
244
100
AcDbEntity
  8
RACCORDO
100
AcDbSpline
 62
253
  6
CONTINUOUS
 70
0
 71
3
 72
11
 73
7
 74
5
 42
0.0000001
 43
0.0000001
 44
0.0000000001
 12
0.3227192436
 22
-0.1610949069
 32
0.0
 13
0.3186104635
 23
0.1690758758
 33
0.0
 40
0.0
 40
0.0
 40
0.0
 40
0.0
 40
0.2336145898
 40
0.4964215871
 40
0.7611579537
 40
1.0
 40
1.0
 40
1.0
 40
1.0
 10
5.2599824883
 20
-12.010573548
 30
0.0
 10
5.2851131295
 20
-12.0231182549
 30
0.0
 10
5.3430525296
 20
-12.0406728437
 30
0.0
 10
5.4348304363
 20
-12.0477154866
 30
0.0
 10
5.5268763138
 20
-12.0368686096
 30
0.0
 10
5.5849186621
 20
-12.0170411221
 30
0.0
 10
5.6102845205
 20
-12.0035803127
 30
0.0
 11
5.2599824883
 21
-12.010573548
 31
0.0
 11
5.3400700105
 21
-12.0367700742
 31
0.0
 11
5.4345359004
 21
-12.0446332753
 31
0.0
 11
5.529312147
 21
-12.0329921499
 31
0.0
 11
5.6102845205
 21
-12.0035803127
 31
0.0
  0
SPLINE
  5
245
100
AcDbEntity
  8
RACCORDO
100
AcDbSpline
 62
253
  6
CONTINUOUS
 70
0
 71
3
 72
12
 73
8
 74
6
 42
0.0000001
 43
0.0000001
 44
0.0000000001
 12
-0.3241483427
 22
-0.1570189826
 32
0.0
 13
-0.3221552187
 23
0.1610686936
 33
0.0
 40
0.0
 40
0.0
 40
0.0
 40
0.0
 40
0.1864412466
 40
0.3938869679
 40
0.6085735146
 40
0.8151280394
 40
1.0
 40
1.0
 40
1.0
 40
1.0
 10
5.3698161763
 20
2.0014431515
 30
0.0
 10
5.3496713026
 20
1.9916848799
 30
0.0
 10
5.3044627821
 20
1.9764757385
 30
0.0
 10
5.2319532286
 20
1.9655335375
 30
0.0
 10
5.1561587125
 20
1.9657903211
 30
0.0
 10
5.0840218296
 20
1.9772191818
 30
0.0
 10
5.0392275293
 20
1.9927661015
 30
0.0
 10
5.0193750403
 20
2.0026917966
 30
0.0
 11
5.3698161763
 21
2.0014431515
 31
0.0
 11
5.3064878061
 21
1.9791076252
 31
0.0
 11
5.2326718711
 21
1.9675383225
 31
0.0
 11
5.1553473074
 21
1.9678120904
 31
0.0
 11
5.0819401471
 21
1.9799020166
 31
0.0
 11
5.0193750403
 21
2.0026917966
 31
0.0
  0
SPLINE
  5
246
100
AcDbEntity
  8
RACCORDO
100
AcDbSpline
 62
253
  6
CONTINUOUS
 70
0
 71
3
 72
12
 73
8
 74
6
 42
0.0000001
 43
0.0000001
 44
0.0000000001
 12
-0.0003856628
 22
0.3643127213
 32
0.0
 13
0.3230421492
 23
0.1684270686
 33
0.0
 40
0.0
 40
0.0
 40
0.0
 40
0.0
 40
0.1914446341
 40
0.4004205389
 40
0.6142310993
 40
0.8172067377
 40
1.0
 40
1.0
 40
1.0
 40
1.0
 10
-11.8552271469
 20
10.439992889
 30
0.0
 10
-11.8552517579
 20
10.4632414609
 30
0.0
 10
-11.8489980072
 20
10.5119520281
 30
0.0
 10
-11.8247806579
 20
10.5829362979
 30
0.0
 10
-11.7870748982
 20
10.6494657878
 30
0.0
 10
-11.7393896751
 20
10.7050773227
 30
0.0
 10
-11.7012190869
 20
10.7333300598
 30
0.0
 10
-11.6815357775
 20
10.7435925043
 30
0.0
 11
-11.8552271469
 21
10.439992889
 31
0.0
 11
-11.8470925261
 21
10.5092626389
 31
0.0
 11
-11.8228198189
 21
10.5814222675
 31
0.0
 11
-11.7843078236
 21
10.6491296805
 31
0.0
 11
-11.7357110066
 21
10.7048652726
 31
0.0
 11
-11.6815357775
 21
10.7435925043
 31
0.0
  0
SPLINE
  5
247
100
AcDbEntity
  8
RACCORDO
100
AcDbSpline
 62
253
  6
CONTINUOUS
 70
0
 71
3
 72
12
 73
8
 74
6
 42
0.0000001
 43
0.0000001
 44
0.0000000001
 12
-0.0003856609
 22
0.3643127211
 32
0.0
 13
0.3230421491
 23
0.1684270686
 33
0.0
 40
0.0
 40
0.0
 40
0.0
 40
0.0
 40
0.1914456176
 40
0.4004201679
 40
0.6142302627
 40
0.8172071272
 40
1.0
 40
1.0
 40
1.0
 40
1.0
 10
5.0193750355
 20
2.0026917978
 30
0.0
 10
5.0193504245
 20
2.0259404891
 30
0.0
 10
5.0256042006
 20
2.0746510124
 30
0.0
 10
5.0498215313
 20
2.1456351721
 30
0.0
 10
5.0875272191
 20
2.2121646162
 30
0.0
 10
5.1352124602
 20
2.2677762057
 30
0.0
 10
5.1733831374
 20
2.2960289905
 30
0.0
 10
5.1930664049
 20
2.3062914131
 30
0.0
 11
5.0193750355
 21
2.0026917978
 31
0.0
 11
5.0275097362
 21
2.071961899
 31
0.0
 11
5.0517823081
 21
2.1441210525
 31
0.0
 11
5.0902941822
 21
2.2118283393
 31
0.0
 11
5.1388912811
 21
2.2675642781
 31
0.0
 11
5.1930664049
 21
2.3062914131
 31
0.0
  0
SPLINE
  5
248
100
AcDbEntity
  8
RACCORDO
100
AcDbSpline
 62
253
  6
CONTINUOUS
 70
0
 71
3
 72
12
 73
8
 74
6
 42
0.0000001
 43
0.0000001
 44
0.0000000001
 12
-0.0053497111
 22
0.3664553197
 32
0.0
 13
-0.3254074456
 23
0.1686063911
 33
0.0
 40
0.0
 40
0.0
 40
0.0
 40
0.0
 40
0.1916127725
 40
0.4014560376
 40
0.61602271
 40
0.8188528713
 40
1.0
 40
1.0
 40
1.0
 40
1.0
 10
5.3698161776
 20
2.0014431521
 30
0.0
 10
5.3694744866
 20
2.024848992
 30
0.0
 10
5.3624537727
 20
2.0738662326
 30
0.0
 10
5.3373043676
 20
2.1452121645
 30
0.0
 10
5.2989132659
 20
2.2120651088
 30
0.0
 10
5.2509358402
 20
2.2678098337
 30
0.0
 10
5.212715281
 20
2.2961105592
 30
0.0
 10
5.1930664062
 20
2.3062914138
 30
0.0
 11
5.3698161776
 21
2.0014431521
 31
0.0
 11
5.3606382578
 21
2.0710658255
 31
0.0
 11
5.3353826006
 21
2.1437070137
 31
0.0
 11
5.2961046762
 21
2.2118326139
 31
0.0
 11
5.2471212028
 21
2.2677475207
 31
0.0
 11
5.1930664062
 21
2.3062914138
 31
0.0
  0
SPLINE
  5
249
100
AcDbEntity
  8
RACCORDO
100
AcDbSpline
 62
253
  6
CONTINUOUS
 70
0
 71
3
 72
10
 73
6
 74
4
 42
0.0000001
 43
0.0000001
 44
0.0000000001
 12
0.10563113
 22
0.0577365041
 32
0.0
 13
0.1074740273
 23
-0.0518543782
 33
0.0
 40
0.0
 40
0.0
 40
0.0
 40
0.0
 40
0.0928079963
 40
0.51389738
 40
1.0
 40
1.0
 40
1.0
 40
1.0
 10
-11.7971090819
 20
10.7486439649
 30
0.0
 10
-11.7938412774
 20
10.7504301013
 30
0.0
 10
-11.775196034
 20
10.759243893
 30
0.0
 10
-11.7340410541
 20
10.7634918747
 30
0.0
 10
-11.6989502449
 20
10.751994688
 30
0.0
 10
-11.6815357762
 20
10.743592505
 30
0.0
 11
-11.7971090819
 21
10.7486439649
 31
0.0
 11
-11.7870250769
 21
10.753397316
 31
0.0
 11
-11.7372002885
 21
10.7599083157
 31
0.0
 11
-11.6815357762
 21
10.743592505
 31
0.0
  0
ELLIPSE
  5
24A
100
AcDbEntity
  8
RACCORDO
100
AcDbEllipse
 62
7
  6
CONTINUOUS
 10
10.0522121643
 20
-11.065418455
 30
0.0
 11
-0.1118523001
 21
0.2236266191
 31
0.0
 40
0.6122950388
 41
-3.1558198016
 42
-2.2557482655
  0
ELLIPSE
  5
24B
100
AcDbEntity
  8
RACCORDO
100
AcDbEllipse
 62
7
  6
CONTINUOUS
 10
11.0601669953
 20
-5.5609402704
 30
0.0
 11
0.6999180957
 21
0.020550349
 31
0.0
 40
0.5210573591
 41
-0.69597602
 42
-0.0150596017
  0
ELLIPSE
  5
24C
100
AcDbEntity
  8
RACCORDO
100
AcDbEllipse
 62
7
  6
CONTINUOUS
 10
-8.586965035
 20
12.1965891032
 30
0.0
 11
-0.1118504554
 21
0.2236675568
 31
0.0
 40
0.6121897086
 41
-0.6846338794
 42
0.0185242472
  0
ELLIPSE
  5
24D
100
AcDbEntity
  8
RACCORDO
100
AcDbEllipse
 62
7
  6
CONTINUOUS
 10
8.3974785995
 20
3.704367286
 30
0.0
 11
-0.1117903878
 21
0.2236141634
 31
0.0
 40
0.6125552124
 41
-2.255296188
 42
-0.6848044477
  0
ELLIPSE
  5
24E
100
AcDbEntity
  8
RACCORDO
100
AcDbEllipse
 62
7
  6
CONTINUOUS
 10
8.2535887243
 20
-11.9149794651
 30
0.0
 11
-0.1118523001
 21
0.2236266191
 31
0.0
 40
0.6122950388
 41
2.456793014
 42
4.0274370417
  0
ELLIPSE
  5
24F
100
AcDbEntity
  8
RACCORDO
100
AcDbEllipse
 62
7
  6
CONTINUOUS
 10
11.0601669953
 20
-2.0506511232
 30
0.0
 11
0.6999384131
 21
-0.0194119608
 31
0.0
 40
0.4783317971
 41
-0.667413222
 42
0.7986633497
  0
ELLIPSE
  5
250
100
AcDbEntity
  8
RACCORDO
100
AcDbEllipse
 62
7
  6
CONTINUOUS
 10
8.2535887243
 20
-11.6707343517
 30
0.0
 11
-0.1098985543
 21
0.2275784384
 31
0.0
 40
0.6085747011
 41
-3.2549886845
 42
-2.2415613143
  0
ENDSEC
  0
SECTION
  2
OBJECTS
  0
DICTIONARY
  5
C
100
AcDbDictionary
280
0
281
1
  3
ACAD_GROUP
350
D
  3
ACAD_MLINESTYLE
350
17
  3
ACAD_LAYOUT
350
1A
  3
ACAD_PLOTSETTINGS
350
19
  3
ACAD_PLOTSTYLENAME
350
E
  0
DICTIONARY
  5
D
102
{ACAD_REACTORS
330
C
102
}
100
AcDbDictionary
280
0
281
1
  0
ACDBDICTIONARYWDFLT
  5
E
102
{ACAD_REACTORS
330
C
102
}
100
AcDbDictionary
281
1
  3
Normal
350
F
100
AcDbDictionaryWithDefault
340
F
  0
DICTIONARY
  5
17
102
{ACAD_REACTORS
330
C
102
}
100
AcDbDictionary
280
0
281
1
  3
Standard
350
18
  0
DICTIONARY
  5
19
102
{ACAD_REACTORS
330
C
102
}
100
AcDbDictionary
281
1
  0
DICTIONARY
  5
1A
102
{ACAD_REACTORS
330
C
102
}
100
AcDbDictionary
281
1
  3
Model
350
251
  3
Layout1
350
252
  0
ACDBPLACEHOLDER
  5
F
102
{ACAD_REACTORS
330
E
102
}
  0
MLINESTYLE
  5
18
102
{ACAD_REACTORS
330
17
102
}
100
AcDbMlineStyle
  2
STANDARD
 70
0
  3

 62
256
 51
90.0
 52
90.0
 71
2
 49
0.5
 62
256
  6
BYLAYER
 49
-0.5
 62
256
  6
BYLAYER
  0
LAYOUT
  5
251
102
{ACAD_REACTORS
330
1A
102
}
100
AcDbPlotSettings
  1

  2
none_device
  4
ISO_A4_(297.00_x_210.00_MM)
  6

 40
0.0
 41
0.0
 42
0.0
 43
0.0
 44
297.0
 45
210.0
 46
0.0
 47
0.0
 48
0.0
 49
0.0
140
0.0
141
0.0
142
1.0
143
1.0
 70
1024
 72
1
 73
0
 74
0
  7

 75
0
147
1.0
148
0.0
149
0.0
100
AcDbLayout
  1
Model
 70
0
 71
0
 10
0.0
 20
0.0
 11
297.0
 21
210.0
 12
0.0
 22
0.0
 32
0.0
 14
0.0
 24
0.0
 34
0.0
 15
0.0
 25
0.0
 35
0.0
146
0.0
 13
0.0
 23
0.0
 33
0.0
 16
1.0
 26
0.0
 36
0.0
 17
0.0
 27
1.0
 37
0.0
 76
0
330
20B
345
0
346
0
  0
LAYOUT
  5
252
102
{ACAD_REACTORS
330
1A
102
}
100
AcDbPlotSettings
  1

  2
none_device
  4
ISO_A4_(297.00_x_210.00_MM)
  6

 40
0.0
 41
0.0
 42
0.0
 43
0.0
 44
297.0
 45
210.0
 46
0.0
 47
0.0
 48
0.0
 49
0.0
140
0.0
141
0.0
142
1.0
143
1.0
 70
0
 72
1
 73
0
 74
0
  7

 75
0
147
1.0
148
0.0
149
0.0
100
AcDbLayout
  1
Layout1
 70
0
 71
1
 10
0.0
 20
0.0
 11
297.0
 21
210.0
 12
0.0
 22
0.0
 32
0.0
 14
0.0
 24
0.0
 34
0.0
 15
0.0
 25
0.0
 35
0.0
146
0.0
 13
0.0
 23
0.0
 33
0.0
 16
1.0
 26
0.0
 36
0.0
 17
0.0
 27
1.0
 37
0.0
 76
0
330
20C
345
0
346
0
  0
ENDSEC
  0
EOF
