  0
SECTION
  2
HEADER
  9
$ACADVER
  1
AC1015
  9
$DWGCODEPAGE
  3
ANSI_1252
  9
$EXTMAX
 10
297.0
 20
210.0
 30
0.0
  9
$EXTMIN
 10
0.0
 20
0.0
 30
0.0
  9
$LIMMIN
 10
0.0
 20
0.0
  9
$LIMMAX
 10
297.0
 20
210.0
  9
$VIEWCTR
 10
148.5
 20
105.0
  9
$VIEWSIZE
 40
210.0
  9
$CLAYER
  8
0
  9
$LTSCALE
 40
16.335
  9
$CELTYPE
  6
BYLAYER
  9
$DIMSCALE
 40
1.0
  9
$DIMASZ
 40
3.0
  9
$DIMEXO
 40
1.85625
  9
$DIMDLI
 40
11.286
  9
$DIMEXE
 40
5.346
  9
$DIMCEN
 40
2.673
  9
$DIMLFAC
 40
1.0
  9
$DIMBLK
  1
_FILLED
  9
$DIMTXT
 40
3.0
  9
$DIMTOL
 70
1
  9
$DIMLIM
 70
0
  9
$DIMTFAC
 40
1.0
  9
$DIMTP
 40
0.01
  9
$DIMTM
 40
0.01
  9
$PDMODE
 70
3
  9
$PDSIZE
 40
3.0
  9
$HANDSEED
  5
251
  9
$TILEMODE
 70
1
  9
$MEASUREMENT
 70
1
  9
$INSUNITS
 70
4
  0
ENDSEC
  0
SECTION
  2
CLASSES
  0
CLASS
  1
ACDBDICTIONARYWDFLT
  2
AcDbDictionaryWithDefault
  3
AutoCAD 2000
 90
0
280
0
281
0
  0
CLASS
  1
ACDBPLACEHOLDER
  2
AcDbPlaceHolder
  3
AutoCAD 2000
 90
0
280
0
281
0
  0
CLASS
  1
LAYOUT
  2
AcDbLayout
  3
AutoCAD 2000
 90
0
280
0
281
0
  0
ENDSEC
  0
SECTION
  2
TABLES
  0
TABLE
  2
VPORT
  5
8
100
AcDbSymbolTable
 70
2
  0
VPORT
  5
1F4
100
AcDbSymbolTableRecord
100
AcDbViewportTableRecord
  2
*ACTIVE
 70
0
 10
0.0
 20
0.0
 11
1.0
 21
1.0
 12
148.5
 22
105.0
 13
0.0
 23
0.0
 14
1.0
 24
1.0
 15
0.0
 25
0.0
 16
0.0
 26
0.0
 36
1.0
 17
0.0
 27
0.0
 37
0.0
 40
210.0
 41
1.4142857143
 42
50.0
 43
0.0
 44
0.0
 50
0.0
 51
0.0
 71
0
 72
100
 73
1
 74
1
 75
0
 76
0
 77
0
 78
0
  0
ENDTAB
  0
TABLE
  2
LTYPE
  5
5
100
AcDbSymbolTable
 70
6
  0
LTYPE
  5
14
100
AcDbSymbolTableRecord
100
AcDbLinetypeTableRecord
  2
BYBLOCK
 70
0
  3

 72
65
 73
0
 40
0.0
  0
LTYPE
  5
15
100
AcDbSymbolTableRecord
100
AcDbLinetypeTableRecord
  2
BYLAYER
 70
0
  3

 72
65
 73
0
 40
0.0
  0
LTYPE
  5
16
100
AcDbSymbolTableRecord
100
AcDbLinetypeTableRecord
  2
CONTINUOUS
 70
64
  3
Solid line
 72
65
 73
0
 40
0.0
  0
LTYPE
  5
1F5
100
AcDbSymbolTableRecord
100
AcDbLinetypeTableRecord
  2
CENTER
 70
64
  3
____ _ ____ _ ____ _ ____ _ ____ _ ____ _ ____
 72
65
 73
4
 40
0.6
 49
0.375
 74
0
 49
-0.075
 74
0
 49
0.075
 74
0
 49
-0.075
 74
0
  0
LTYPE
  5
1F6
100
AcDbSymbolTableRecord
100
AcDbLinetypeTableRecord
  2
HIDDEN
 70
64
  3
- - - - - - - - - - - - - - - - - - - -
 72
65
 73
2
 40
0.2
 49
0.1
 74
0
 49
-0.1
 74
0
  0
LTYPE
  5
1F7
100
AcDbSymbolTableRecord
100
AcDbLinetypeTableRecord
  2
PHANTOM
 70
64
  3
_____ _ _ _____ _ _ _____ _ _ _____
 72
65
 73
6
 40
0.8
 49
0.45
 74
0
 49
-0.05
 74
0
 49
0.1
 74
0
 49
-0.05
 74
0
 49
0.1
 74
0
 49
-0.05
 74
0
  0
LTYPE
  5
1F8
100
AcDbSymbolTableRecord
100
AcDbLinetypeTableRecord
  2
DOT
 70
64
  3
. . . . . . . . . . . . . . . . . . . .
 72
65
 73
2
 40
0.2
 49
0.1
 74
0
 49
-0.1
 74
0
  0
LTYPE
  5
1F9
100
AcDbSymbolTableRecord
100
AcDbLinetypeTableRecord
  2
DASHED
 70
64
  3
- - - - - - - - - - - - - - - - - - - -
 72
65
 73
2
 40
0.2
 49
0.1
 74
0
 49
-0.1
 74
0
  0
ENDTAB
  0
TABLE
  2
LAYER
  5
2
100
AcDbSymbolTable
 70
36
  0
LAYER
  5
10
100
AcDbSymbolTableRecord
100
AcDbLayerTableRecord
  2
0
 70
0
 62
7
  6
CONTINUOUS
370
-3
390
F
  0
LAYER
  5
1FA
100
AcDbSymbolTableRecord
100
AcDbLayerTableRecord
  2
DEFAULT_1
 70
0
 62
7
  6
CENTER
370
-3
390
F
  0
LAYER
  5
1FB
100
AcDbSymbolTableRecord
100
AcDbLayerTableRecord
  2
DEFAULT_2
 70
0
 62
7
  6
HIDDEN
370
-3
390
F
  0
LAYER
  5
1FC
100
AcDbSymbolTableRecord
100
AcDbLayerTableRecord
  2
DEFAULT_3
 70
0
 62
7
  6
PHANTOM
370
-3
390
F
  0
LAYER
  5
1FD
100
AcDbSymbolTableRecord
100
AcDbLayerTableRecord
  2
ASSI
 70
0
 62
7
  6
CONTINUOUS
370
-3
390
F
  0
LAYER
  5
1FE
100
AcDbSymbolTableRecord
100
AcDbLayerTableRecord
  2
COORDINATE
 70
0
 62
7
  6
CONTINUOUS
370
-3
390
F
  0
LAYER
  5
1FF
100
AcDbSymbolTableRecord
100
AcDbLayerTableRecord
  2
COORD_ORIGINE
 70
0
 62
7
  6
CONTINUOUS
370
-3
390
F
  0
LAYER
  5
200
100
AcDbSymbolTableRecord
100
AcDbLayerTableRecord
  2
CURVE
 70
0
 62
7
  6
CONTINUOUS
370
-3
390
F
  0
LAYER
  5
201
100
AcDbSymbolTableRecord
100
AcDbLayerTableRecord
  2
DRAFT
 70
0
 62
7
  6
CONTINUOUS
370
-3
390
F
  0
LAYER
  5
202
100
AcDbSymbolTableRecord
100
AcDbLayerTableRecord
  2
IGES
 70
0
 62
7
  6
CONTINUOUS
370
-3
390
F
  0
LAYER
  5
203
100
AcDbSymbolTableRecord
100
AcDbLayerTableRecord
  2
NOTE
 70
0
 62
7
  6
CONTINUOUS
370
-3
390
F
  0
LAYER
  5
204
100
AcDbSymbolTableRecord
100
AcDbLayerTableRecord
  2
PIANI
 70
0
 62
7
  6
CONTINUOUS
370
-3
390
F
  0
LAYER
  5
205
100
AcDbSymbolTableRecord
100
AcDbLayerTableRecord
  2
PIANI_ORIGINE
 70
0
 62
7
  6
CONTINUOUS
370
-3
390
F
  0
LAYER
  5
206
100
AcDbSymbolTableRecord
100
AcDbLayerTableRecord
  2
RACCORDO
 70
0
 62
7
  6
CONTINUOUS
370
-3
390
F
  0
LAYER
  5
207
100
AcDbSymbolTableRecord
100
AcDbLayerTableRecord
  2
SUPERFICI
 70
0
 62
7
  6
CONTINUOUS
370
-3
390
F
  0
LAYER
  5
208
100
AcDbSymbolTableRecord
100
AcDbLayerTableRecord
  2
TRASH
 70
0
 62
7
  6
CONTINUOUS
370
-3
390
F
  0
ENDTAB
  0
TABLE
  2
STYLE
  5
3
100
AcDbSymbolTable
 70
1
  0
STYLE
  5
11
100
AcDbSymbolTableRecord
100
AcDbTextStyleTableRecord
  2
STANDARD
 70
0
 40
0.0
 41
0.8
 50
0.0
 71
0
 42
0.2
  3
txt
  4

  0
STYLE
  5
209
100
AcDbSymbolTableRecord
100
AcDbTextStyleTableRecord
  2
TEXTSTYLE_1
 70
0
 40
0.0
 41
0.8
 50
0.0
 71
0
 42
0.2
  3
gdt
  4

  0
ENDTAB
  0
TABLE
  2
VIEW
  5
6
100
AcDbSymbolTable
 70
0
  0
ENDTAB
  0
TABLE
  2
UCS
  5
7
100
AcDbSymbolTable
 70
0
  0
ENDTAB
  0
TABLE
  2
APPID
  5
9
100
AcDbSymbolTable
 70
1
  0
APPID
  5
20A
100
AcDbSymbolTableRecord
100
AcDbRegAppTableRecord
  2
ACAD
 70
0
  0
ENDTAB
  0
TABLE
  2
BLOCK_RECORD
  5
1
100
AcDbSymbolTable
 70
0
  0
BLOCK_RECORD
  5
20B
100
AcDbSymbolTableRecord
100
AcDbBlockTableRecord
  2
*Model_Space
  0
BLOCK_RECORD
  5
20C
100
AcDbSymbolTableRecord
100
AcDbBlockTableRecord
  2
*Paper_Space
  0
ENDTAB
  0
TABLE
  2
DIMSTYLE
  5
A
100
AcDbSymbolTable
 70
1
100
AcDbDimStyleTable
 71
0
  0
DIMSTYLE
105
20D
100
AcDbSymbolTableRecord
100
AcDbDimStyleTableRecord
  2
STANDARD
 70
0
  3

  4

 40
1.0
 41
3.0
 42
0.0625
 43
0.38
 44
0.18
 45
0.0
 46
0.0
 47
0.01
 48
0.01
140
3.0
141
0.09
142
0.0
143
25.4
144
1.0
145
0.0
146
1.0
147
0.09
 71
1.0
 72
0.0
 73
0
 74
0
 75
0
 76
0
 77
1
 78
8
170
0
171
2
172
0
173
0
174
0
175
0
176
0
177
0
178
0
270
2
271
2
272
2
273
2
274
2
275
0
280
0
281
0
282
0
283
1
284
8
285
0
286
0
287
3
288
0
340
11
  0
ENDTAB
  0
ENDSEC
  0
SECTION
  2
BLOCKS
  0
BLOCK
  5
20
100
AcDbEntity
  8
0
100
AcDbBlockBegin
  2
*Model_Space
 70
0
 10
0.0
 20
0.0
 30
0.0
  3
*Model_Space
  1

  0
ENDBLK
  5
21
100
AcDbEntity
  8
0
100
AcDbBlockEnd
  0
BLOCK
  5
1C
100
AcDbEntity
  8
0
100
AcDbBlockBegin
  2
*Paper_Space
 70
0
 10
0.0
 20
0.0
 30
0.0
  3
*Paper_Space
  1

  0
ENDBLK
  5
1D
100
AcDbEntity
  8
0
100
AcDbBlockEnd
  0
ENDSEC
  0
SECTION
  2
ENTITIES
  0
LINE
  5
20E
100
AcDbEntity
  8
RACCORDO
100
AcDbLine
 62
7
  6
CONTINUOUS
 10
-20.6910851119
 20
15.200842508
 11
-17.5953810371
 21
16.8710458771
  0
LINE
  5
20F
100
AcDbEntity
  8
RACCORDO
100
AcDbLine
 62
253
  6
CONTINUOUS
 10
-20.575464337
 20
15.1957530761
 11
-17.4809474467
 21
16.8653159319
  0
LINE
  5
210
100
AcDbEntity
  8
DRAFT
100
AcDbLine
 62
7
  6
CONTINUOUS
 10
-15.1643487939
 20
15.7070166054
 11
-16.5193589971
 21
14.8678527543
  0
LINE
  5
211
100
AcDbEntity
  8
RACCORDO
100
AcDbLine
 62
7
  6
CONTINUOUS
 10
-20.5900204317
 20
0.9718806868
 11
-20.5833684592
 21
0.8851275975
  0
LWPOLYLINE
  5
212
100
AcDbEntity
  8
RACCORDO
100
AcDbPolyline
 62
7
  6
CONTINUOUS
 90
10
 70
0
 10
-20.8223790216
 20
14.9805622567
 10
-20.8183009522
 20
13.4673153464
 10
-20.808678512
 20
11.887163922
 10
-20.7935791191
 20
10.3099107248
 10
-20.7730029975
 20
8.7355885532
 10
-20.746950533
 20
7.1642247163
 10
-20.7154221179
 20
5.5958447301
 10
-20.6784182388
 20
4.0304762609
 10
-20.6359397221
 20
2.4681522292
 10
-20.5900304899
 20
0.9718293586
  0
LINE
  5
213
100
AcDbEntity
  8
DRAFT
100
AcDbLine
 62
7
  6
CONTINUOUS
 10
-15.1643487939
 20
14.7191823217
 11
-15.6368160195
 21
14.4265812655
  0
LINE
  5
214
100
AcDbEntity
  8
RACCORDO
100
AcDbLine
 62
7
  6
CONTINUOUS
 10
17.1302759327
 20
-16.2912488237
 11
14.731124551
 21
-16.940444006
  0
LINE
  5
215
100
AcDbEntity
  8
RACCORDO
100
AcDbLine
 62
253
  6
CONTINUOUS
 10
17.2141333176
 20
-16.146476618
 11
14.8394891588
 21
-16.7890403009
  0
LWPOLYLINE
  5
216
100
AcDbEntity
  8
RACCORDO
100
AcDbPolyline
 62
7
  6
CONTINUOUS
 90
11
 70
0
 10
-20.5833684592
 20
0.8851275975
 10
-20.5708481297
 20
0.8099698622
 10
-20.5521830891
 20
0.7385091201
 10
-20.5275187736
 20
0.6712779487
 10
-20.4973039112
 20
0.6092513262
 10
-20.4620664835
 20
0.5529675835
 10
-20.422064485
 20
0.5023505755
 10
-20.3775791817
 20
0.457526413
 10
-20.3291291578
 20
0.418845557
 10
-20.2772754789
 20
0.3865172551
 10
-20.2609363809
 20
0.3779778328
  0
LINE
  5
217
100
AcDbEntity
  8
DRAFT
100
AcDbLine
 62
7
  6
CONTINUOUS
 10
-15.1643487939
 20
15.7070166054
 11
-15.1643487939
 21
14.7191823217
  0
LWPOLYLINE
  5
218
100
AcDbEntity
  8
RACCORDO
100
AcDbPolyline
 62
7
  6
CONTINUOUS
 90
10
 70
0
 10
14.3064022777
 20
-16.9056914826
 10
14.3318346706
 20
-16.9176020978
 10
14.3785483103
 20
-16.9355068384
 10
14.4274606079
 20
-16.9492470313
 10
14.4780732681
 20
-16.9585777116
 10
14.5300856699
 20
-16.9633791523
 10
14.5832383373
 20
-16.9635601954
 10
14.6371181021
 20
-16.9590742814
 10
14.6914255235
 20
-16.949958596
 10
14.7310430679
 20
-16.9404523193
  0
LINE
  5
219
100
AcDbEntity
  8
RACCORDO
100
AcDbLine
 62
7
  6
CONTINUOUS
 10
-20.2608878064
 20
0.3779416237
 11
14.3064845658
 21
-16.9057445624
  0
LINE
  5
21A
100
AcDbEntity
  8
RACCORDO
100
AcDbLine
 62
253
  6
CONTINUOUS
 10
-20.5167990177
 20
0.8830135004
 11
14.0437234578
 21
-16.3972477374
  0
LINE
  5
21B
100
AcDbEntity
  8
RACCORDO
100
AcDbLine
 62
7
  6
CONTINUOUS
 10
17.0373566213
 20
-16.5181817168
 11
16.7754942121
 21
-16.3872505122
  0
LINE
  5
21C
100
AcDbEntity
  8
DRAFT
100
AcDbLine
 62
7
  6
CONTINUOUS
 10
20.2148382855
 20
-6.1489853212
 11
19.4847806907
 21
-6.1105147817
  0
LINE
  5
21D
100
AcDbEntity
  8
RACCORDO
100
AcDbLine
 62
7
  6
CONTINUOUS
 10
20.338882712
 20
-6.2110075344
 11
20.2148382855
 21
-6.1489853212
  0
LINE
  5
21E
100
AcDbEntity
  8
DRAFT
100
AcDbLine
 62
7
  6
CONTINUOUS
 10
14.8646747686
 20
0.6925048242
 11
13.2498364908
 21
-0.0167449897
  0
LINE
  5
21F
100
AcDbEntity
  8
RACCORDO
100
AcDbLine
 62
253
  6
CONTINUOUS
 10
13.8031160054
 20
-2.3839823954
 11
-20.7491557067
 21
14.8921534606
  0
LINE
  5
220
100
AcDbEntity
  8
RACCORDO
100
AcDbLine
 62
253
  6
CONTINUOUS
 10
13.976807375
 20
-2.0803827799
 11
-20.575464337
 21
15.1957530761
  0
LINE
  5
221
100
AcDbEntity
  8
DRAFT
100
AcDbLine
 62
7
  6
CONTINUOUS
 10
19.0127567575
 20
-3.2344087183
 11
18.2349392982
 21
-2.8454999887
  0
LINE
  5
222
100
AcDbEntity
  8
DRAFT
100
AcDbLine
 62
7
  6
CONTINUOUS
 10
-16.5193589971
 20
14.8678527543
 11
13.2498364908
 21
-0.0167449897
  0
LINE
  5
223
100
AcDbEntity
  8
RACCORDO
100
AcDbLine
 62
253
  6
CONTINUOUS
 10
17.1812734214
 20
-0.4657945022
 11
13.976807375
 21
-2.0803827799
  0
LINE
  5
224
100
AcDbEntity
  8
RACCORDO
100
AcDbLine
 62
253
  6
CONTINUOUS
 10
17.3580231928
 20
-0.7706427639
 11
14.1535571479
 21
-2.3852310408
  0
LINE
  5
225
100
AcDbEntity
  8
RACCORDO
100
AcDbLine
 62
7
  6
CONTINUOUS
 10
-17.4809474467
 20
16.8653159319
 11
-15.1643487939
 21
15.7070166054
  0
LINE
  5
226
100
AcDbEntity
  8
RACCORDO
100
AcDbLine
 62
7
  6
CONTINUOUS
 10
14.8646747686
 20
0.6925048242
 11
17.1812734214
 21
-0.4657945022
  0
LINE
  5
227
100
AcDbEntity
  8
DRAFT
100
AcDbLine
 62
7
  6
CONTINUOUS
 10
17.3580231928
 20
-3.2504889062
 11
18.2349392982
 21
-2.8454999887
  0
LINE
  5
228
100
AcDbEntity
  8
DRAFT
100
AcDbLine
 62
7
  6
CONTINUOUS
 10
17.3580231928
 20
-3.9986195145
 11
19.0127567575
 21
-3.2344087183
  0
LINE
  5
229
100
AcDbEntity
  8
DRAFT
100
AcDbLine
 62
7
  6
CONTINUOUS
 10
19.4847806907
 20
-6.1105147817
 11
19.0251612829
 21
-6.3206670078
  0
LINE
  5
22A
100
AcDbEntity
  8
DRAFT
100
AcDbLine
 62
7
  6
CONTINUOUS
 10
19.1895334528
 20
-6.6177864409
 11
19.0127567575
 21
-6.6986142202
  0
LINE
  5
22B
100
AcDbEntity
  8
DRAFT
100
AcDbLine
 62
7
  6
CONTINUOUS
 10
19.0251612829
 20
-6.3206670078
 11
19.1895334528
 21
-6.6177864409
  0
LINE
  5
22C
100
AcDbEntity
  8
RACCORDO
100
AcDbLine
 62
7
  6
CONTINUOUS
 10
20.3879101382
 20
-6.6598002781
 11
19.0127567575
 21
-7.4431651787
  0
LINE
  5
22D
100
AcDbEntity
  8
RACCORDO
100
AcDbLine
 62
7
  6
CONTINUOUS
 10
17.2141333176
 20
-16.146476618
 11
17.2141333176
 21
-16.3900884448
  0
LINE
  5
22E
100
AcDbEntity
  8
RACCORDO
100
AcDbLine
 62
7
  6
CONTINUOUS
 10
17.3580231928
 20
-0.7706427639
 11
17.3580231928
 21
-3.9986195145
  0
LINE
  5
22F
100
AcDbEntity
  8
RACCORDO
100
AcDbLine
 62
7
  6
CONTINUOUS
 10
19.0127567575
 20
-15.5405274348
 11
19.0127567575
 21
-11.0804718746
  0
LINE
  5
230
100
AcDbEntity
  8
DRAFT
100
AcDbLine
 62
7
  6
CONTINUOUS
 10
19.0127567575
 20
-11.0804718746
 11
19.0127567575
 21
-3.2344087183
  0
LINE
  5
231
100
AcDbEntity
  8
DRAFT
100
AcDbLine
 62
7
  6
CONTINUOUS
 10
19.0251612829
 20
-6.6929424871
 11
19.0251612829
 21
-6.3206670078
  0
LINE
  5
232
100
AcDbEntity
  8
RACCORDO
100
AcDbLine
 62
7
  6
CONTINUOUS
 10
20.3879101382
 20
-10.1656637756
 11
19.0127567575
 21
-11.0804718746
  0
LINE
  5
233
100
AcDbEntity
  8
RACCORDO
100
AcDbLine
 62
253
  6
CONTINUOUS
 10
20.3879101382
 20
-6.6598002781
 11
20.3879101382
 21
-10.1656637756
  0
LINE
  5
234
100
AcDbEntity
  8
RACCORDO
100
AcDbLine
 62
7
  6
CONTINUOUS
 10
20.5439079652
 20
-6.4521496988
 11
20.5439079652
 21
-9.9327900811
  0
LINE
  5
235
100
AcDbEntity
  8
RACCORDO
100
AcDbLine
 62
253
  6
CONTINUOUS
 10
19.0127567575
 20
-15.5405274348
 11
17.2141333176
 21
-16.3900884448
  0
LINE
  5
236
100
AcDbEntity
  8
RACCORDO
100
AcDbLine
 62
7
  6
CONTINUOUS
 10
18.9458582129
 20
-15.6766652872
 11
17.147234773
 21
-16.5262262972
  0
ARC
  5
237
100
AcDbEntity
  8
RACCORDO
100
AcDbCircle
 62
253
  6
CONTINUOUS
 10
425.1255059854
 20
15.2782079624
 40
445.8747234066
100
AcDbArc
 50
180.0496087578
 51
181.8384365301
  0
ARC
  5
238
100
AcDbEntity
  8
RACCORDO
100
AcDbCircle
 62
253
  6
CONTINUOUS
 10
447.050750125
 20
-1.956294388
 40
433.247871568
100
AcDbArc
 50
180.0565605162
 51
181.9101286409
  0
ARC
  5
239
100
AcDbEntity
  8
RACCORDO
100
AcDbCircle
 62
253
  6
CONTINUOUS
 10
447.1420332182
 20
-1.9577948422
 40
432.9887133805
100
AcDbArc
 50
180.0565610486
 51
181.9101477775
  0
ARC
  5
23A
100
AcDbEntity
  8
RACCORDO
100
AcDbCircle
 62
7
  6
CONTINUOUS
 10
-20.5723749026
 20
14.9808209256
 40
0.2500042528
100
AcDbArc
 50
118.3432164912
 51
180.0592816838
  0
SPLINE
  5
23B
100
AcDbEntity
  8
RACCORDO
100
AcDbSpline
 62
253
  6
CONTINUOUS
 70
0
 71
3
 72
10
 73
6
 74
4
 42
0.0000001
 43
0.0000001
 44
0.0000000001
 12
0.10563113
 22
0.0577365042
 32
0.0
 13
0.1074740273
 23
-0.0518543783
 33
0.0
 40
0.0
 40
0.0
 40
0.0
 40
0.0
 40
0.0928079964
 40
0.51389738
 40
1.0
 40
1.0
 40
1.0
 40
1.0
 10
-20.6910376414
 20
15.2008045368
 30
0.0
 10
-20.6877698369
 20
15.2025906732
 30
0.0
 10
-20.6691245934
 20
15.211404465
 30
0.0
 10
-20.6279696135
 20
15.2156524466
 30
0.0
 10
-20.5928788043
 20
15.2041552599
 30
0.0
 10
-20.5754643355
 20
15.1957530769
 30
0.0
 11
-20.6910376414
 21
15.2008045368
 31
0.0
 11
-20.6809536363
 21
15.2055578879
 31
0.0
 11
-20.6311288479
 21
15.2120688876
 31
0.0
 11
-20.5754643355
 21
15.1957530769
 31
0.0
  0
SPLINE
  5
23C
100
AcDbEntity
  8
RACCORDO
100
AcDbSpline
 62
253
  6
CONTINUOUS
 70
0
 71
3
 72
10
 73
6
 74
4
 42
0.0000001
 43
0.0000001
 44
0.0000000001
 12
0.191317547
 22
0.0524596651
 32
0.0
 13
0.0264958697
 23
0.1937281557
 33
0.0
 40
0.0
 40
0.0
 40
0.0
 40
0.0
 40
0.1989448273
 40
0.5693292251
 40
1.0
 40
1.0
 40
1.0
 40
1.0
 10
14.7310765591
 20
-16.9402684398
 30
0.0
 10
14.7437637712
 20
-16.9367895801
 30
0.0
 10
14.7785052373
 20
-16.9209438979
 30
0.0
 10
14.8211698334
 20
-16.8681806954
 30
0.0
 10
14.8356854933
 20
-16.8168513192
 30
0.0
 10
14.8394891588
 20
-16.7890403009
 30
0.0
 11
14.7310765591
 21
-16.9402684398
 31
0.0
 11
14.7667675285
 21
-16.9239822655
 31
0.0
 11
14.8143944733
 21
-16.8694240197
 31
0.0
 11
14.8394891588
 21
-16.7890403009
 31
0.0
  0
SPLINE
  5
23D
100
AcDbEntity
  8
RACCORDO
100
AcDbSpline
 62
253
  6
CONTINUOUS
 70
0
 71
3
 72
11
 73
7
 74
5
 42
0.0000001
 43
0.0000001
 44
0.0000000001
 12
-0.5378127741
 22
0.2701920874
 32
0.0
 13
-0.0200335589
 23
0.598380896
 33
0.0
 40
0.0
 40
0.0
 40
0.0
 40
0.0
 40
0.1741729506
 40
0.4214110806
 40
0.6949073461
 40
1.0
 40
1.0
 40
1.0
 40
1.0
 10
14.3063594491
 20
-16.9056253064
 30
0.0
 10
14.2751353032
 20
-16.8899385887
 30
0.0
 10
14.2046175813
 20
-16.8417237722
 30
0.0
 10
14.1185551381
 20
-16.7297457384
 30
0.0
 10
14.0600962943
 20
-16.5736723468
 30
0.0
 10
14.0457608217
 20
-16.4581016092
 30
0.0
 10
14.0437234578
 20
-16.3972477374
 30
0.0
 11
14.3063594491
 21
-16.9056253064
 31
0.0
 11
14.2199748069
 21
-16.8467195317
 31
0.0
 11
14.1280355133
 21
-16.7307078761
 31
0.0
 11
14.0682813489
 21
-16.5782532929
 31
0.0
 11
14.0437234578
 21
-16.3972477374
 31
0.0
  0
LINE
  5
23E
100
AcDbEntity
  8
RACCORDO
100
AcDbLine
 62
253
  6
CONTINUOUS
 10
-20.5197365954
 20
0.9739819609
 11
-20.5167990177
 21
0.8830135004
  0
SPLINE
  5
23F
100
AcDbEntity
  8
RACCORDO
100
AcDbSpline
 62
253
  6
CONTINUOUS
 70
0
 71
3
 72
13
 73
9
 74
7
 42
0.0000001
 43
0.0000001
 44
0.0000000001
 12
-0.6783435284
 22
-0.1833564672
 32
0.0
 13
-0.0236765242
 23
0.7022883729
 33
0.0
 40
0.0
 40
0.0
 40
0.0
 40
0.0
 40
0.1672015015
 40
0.3210572406
 40
0.4715695169
 40
0.6301195418
 40
0.8051742654
 40
1.0
 40
1.0
 40
1.0
 40
1.0
 10
14.8394891588
 20
-16.7890403009
 30
0.0
 10
14.8016824734
 20
-16.7992594598
 30
0.0
 10
14.726028299
 20
-16.8101208383
 30
0.0
 10
14.6151907933
 20
-16.7896661561
 30
0.0
 10
14.5208710001
 20
-16.7312100166
 30
0.0
 10
14.450385217
 20
-16.6397428678
 30
0.0
 10
14.4063513073
 20
-16.5225742871
 30
0.0
 10
14.3955630891
 20
-16.4358624552
 30
0.0
 10
14.3940254904
 20
-16.3902545058
 30
0.0
 11
14.8394891588
 21
-16.7890403009
 31
0.0
 11
14.7229358414
 21
-16.8038495638
 31
0.0
 11
14.6168383891
 21
-16.783073619
 31
0.0
 11
14.5267713192
 21
-16.7276321995
 31
0.0
 11
14.4574802456
 21
-16.6403901211
 31
0.0
 11
14.4124861456
 21
-16.5259057039
 31
0.0
 11
14.3940254904
 21
-16.3902545058
 31
0.0
  0
SPLINE
  5
240
100
AcDbEntity
  8
RACCORDO
100
AcDbSpline
 62
253
  6
CONTINUOUS
 70
0
 71
3
 72
12
 73
8
 74
6
 42
0.0000001
 43
0.0000001
 44
0.0000000001
 12
-0.0053497111
 22
0.3664553196
 32
0.0
 13
-0.3254074455
 23
0.168606391
 33
0.0
 40
0.0
 40
0.0
 40
0.0
 40
0.0
 40
0.1916137737
 40
0.4014556076
 40
0.6160218264
 40
0.8188532963
 40
1.0
 40
1.0
 40
1.0
 40
1.0
 10
14.1535571479
 20
-2.3852310408
 30
0.0
 10
14.1532154551
 20
-2.3618250786
 30
0.0
 10
14.1461947171
 20
-2.3128078899
 30
0.0
 10
14.1210453359
 20
-2.2414620732
 30
0.0
 10
14.0826543077
 20
-2.1746091714
 30
0.0
 10
14.0346768595
 20
-2.1188643852
 30
0.0
 10
13.9964562052
 20
-2.0905636098
 30
0.0
 10
13.9768073765
 20
-2.0803827792
 30
0.0
 11
14.1535571479
 21
-2.3852310408
 31
0.0
 11
14.1443791419
 21
-2.3156080087
 31
0.0
 11
14.1191236366
 21
-2.242967323
 31
0.0
 11
14.0798458352
 21
-2.1748418439
 31
0.0
 11
14.0308620574
 21
-2.1189265661
 31
0.0
 11
13.9768073765
 21
-2.0803827792
 31
0.0
  0
SPLINE
  5
241
100
AcDbEntity
  8
RACCORDO
100
AcDbSpline
 62
253
  6
CONTINUOUS
 70
0
 71
3
 72
11
 73
7
 74
5
 42
0.0000001
 43
0.0000001
 44
0.0000000001
 12
-0.0003852384
 22
0.3639135138
 32
0.0
 13
0.3226881654
 23
0.168242509
 33
0.0
 40
0.0
 40
0.0
 40
0.0
 40
0.0
 40
0.2422931069
 40
0.5079857053
 40
0.7681416217
 40
1.0
 40
1.0
 40
1.0
 40
1.0
 10
13.8031160054
 20
-2.3839823954
 30
0.0
 10
13.8030848919
 20
-2.3545911501
 30
0.0
 10
13.813028592
 20
-2.292857535
 30
0.0
 10
13.8497131467
 20
-2.20634439
 30
0.0
 10
13.9043802699
 20
-2.1314827814
 30
0.0
 10
13.9518680568
 20
-2.0933855917
 30
0.0
 10
13.976807375
 20
-2.0803827799
 30
0.0
 11
13.8031160054
 21
-2.3839823954
 31
0.0
 11
13.8158275274
 21
-2.2967296956
 31
0.0
 11
13.8532518786
 21
-2.2075769295
 31
0.0
 11
13.9097740609
 21
-2.1316265031
 31
0.0
 11
13.976807375
 21
-2.0803827799
 31
0.0
  0
SPLINE
  5
242
100
AcDbEntity
  8
RACCORDO
100
AcDbSpline
 62
253
  6
CONTINUOUS
 70
0
 71
3
 72
11
 73
7
 74
5
 42
0.0000001
 43
0.0000001
 44
0.0000000001
 12
-0.0003852405
 22
0.3639135139
 32
0.0
 13
0.3226881655
 23
0.1682425091
 33
0.0
 40
0.0
 40
0.0
 40
0.0
 40
0.0
 40
0.2422930938
 40
0.5079857216
 40
0.7681416198
 40
1.0
 40
1.0
 40
1.0
 40
1.0
 10
-20.7491557067
 20
14.8921534606
 30
0.0
 10
-20.7491868204
 20
14.9215447044
 30
0.0
 10
-20.7392431202
 20
14.9832783214
 30
0.0
 10
-20.7025585655
 20
15.0697914664
 30
0.0
 10
-20.6478914409
 20
15.1446530757
 30
0.0
 10
-20.6004036555
 20
15.1827502642
 30
0.0
 10
-20.575464337
 20
15.1957530761
 30
0.0
 11
-20.7491557067
 21
14.8921534606
 31
0.0
 11
-20.736444186
 21
14.9794061558
 31
0.0
 11
-20.6990198306
 21
15.0685589318
 31
0.0
 11
-20.6424976518
 21
15.1445093525
 31
0.0
 11
-20.575464337
 21
15.1957530761
 31
0.0
  0
SPLINE
  5
243
100
AcDbEntity
  8
RACCORDO
100
AcDbSpline
 62
253
  6
CONTINUOUS
 70
0
 71
3
 72
11
 73
7
 74
5
 42
0.0000001
 43
0.0000001
 44
0.0000000001
 12
0.0193070946
 22
-0.5918056087
 32
0.0
 13
0.5319030469
 23
-0.2674021024
 33
0.0
 40
0.0
 40
0.0
 40
0.0
 40
0.0
 40
0.3078823804
 40
0.5822639131
 40
0.8282392701
 40
1.0
 40
1.0
 40
1.0
 40
1.0
 10
-20.5167990177
 20
0.8830135004
 30
0.0
 10
-20.5148175796
 20
0.8222779939
 30
0.0
 10
-20.500939973
 20
0.7072517852
 30
0.0
 10
-20.4441880201
 20
0.5520483606
 30
0.0
 10
-20.3604363685
 20
0.4409370838
 30
0.0
 10
-20.2914314033
 20
0.3933565516
 30
0.0
 10
-20.2609780515
 20
0.3780468248
 30
0.0
 11
-20.5167990177
 21
0.8830135004
 31
0.0
 11
-20.4928664981
 21
0.7022877824
 31
0.0
 11
-20.4346478307
 21
0.550610207
 31
0.0
 11
-20.3450568776
 21
0.4357776243
 31
0.0
 11
-20.2609780515
 21
0.3780468248
 31
0.0
  0
SPLINE
  5
244
100
AcDbEntity
  8
RACCORDO
100
AcDbSpline
 62
253
  6
CONTINUOUS
 70
0
 71
3
 72
16
 73
12
 74
10
 42
0.0000001
 43
0.0000001
 44
0.0000000001
 12
-0.3244566175
 22
-0.157168314
 32
0.0
 13
-0.3224615978
 23
0.1612218767
 33
0.0
 40
0.0
 40
0.0
 40
0.0
 40
0.0
 40
0.083940622
 40
0.1820151024
 40
0.2923037372
 40
0.4115705857
 40
0.5355254205
 40
0.6597641555
 40
0.7806421222
 40
0.8949615685
 40
1.0
 40
1.0
 40
1.0
 40
1.0
 10
14.1535571479
 20
-2.3852310408
 30
0.0
 10
14.1444787845
 20
-2.3896286428
 30
0.0
 10
14.1242230133
 20
-2.3980096498
 30
0.0
 10
14.0905236937
 20
-2.40810871
 30
0.0
 10
14.0518482298
 20
-2.4157872712
 30
0.0
 10
14.0095439076
 20
-2.4202511508
 30
0.0
 10
13.965332449
 20
-2.4209754602
 30
0.0
 10
13.9210375966
 20
-2.4177335163
 30
0.0
 10
13.8783728082
 20
-2.4105485293
 30
0.0
 10
13.838892128
 20
-2.3996362905
 30
0.0
 10
13.8144062952
 20
-2.3896272264
 30
0.0
 10
13.8031160084
 20
-2.3839823954
 30
0.0
 11
14.1535571479
 21
-2.3852310408
 31
0.0
 11
14.1256409754
 21
-2.3969138309
 31
0.0
 11
14.0918045556
 21
-2.4071736973
 31
0.0
 11
14.0528220696
 21
-2.4150040885
 31
0.0
 11
14.0100670777
 21
-2.4195687383
 31
0.0
 11
13.9653851332
 21
-2.4203090851
 31
0.0
 11
13.9207172287
 21
-2.4169983694
 31
0.0
 11
13.8777595714
 21
-2.4096667808
 31
0.0
 11
13.8380781515
 21
-2.3985309622
 31
0.0
 11
13.8031160084
 21
-2.3839823954
 31
0.0
  0
SPLINE
  5
245
100
AcDbEntity
  8
RACCORDO
100
AcDbSpline
 62
253
  6
CONTINUOUS
 70
0
 71
3
 72
11
 73
7
 74
5
 42
0.0000001
 43
0.0000001
 44
0.0000000001
 12
0.322719245
 22
-0.1610949034
 32
0.0
 13
0.3186104634
 23
0.1690758753
 33
0.0
 40
0.0
 40
0.0
 40
0.0
 40
0.0
 40
0.2336145898
 40
0.4964215875
 40
0.7611579539
 40
1.0
 40
1.0
 40
1.0
 40
1.0
 10
14.0437234584
 20
-16.3972477411
 30
0.0
 10
14.0688540997
 20
-16.4097924477
 30
0.0
 10
14.1267934998
 20
-16.427347036
 30
0.0
 10
14.2185714064
 20
-16.4343896794
 30
0.0
 10
14.3106172838
 20
-16.4235428026
 30
0.0
 10
14.368659632
 20
-16.4037153152
 30
0.0
 10
14.3940254904
 20
-16.3902545058
 30
0.0
 11
14.0437234584
 21
-16.3972477411
 31
0.0
 11
14.1238109806
 21
-16.4234442667
 31
0.0
 11
14.2182768705
 21
-16.4313074681
 31
0.0
 11
14.313053117
 21
-16.4196663428
 31
0.0
 11
14.3940254904
 21
-16.3902545058
 31
0.0
  0
SPLINE
  5
246
100
AcDbEntity
  8
RACCORDO
100
AcDbSpline
 62
253
  6
CONTINUOUS
 70
0
 71
3
 72
12
 73
8
 74
6
 42
0.0000001
 43
0.0000001
 44
0.0000000001
 12
-0.1077072321
 22
0.0538565962
 32
0.0
 13
-0.0003290254
 23
0.1210172966
 33
0.0
 40
0.0
 40
0.0
 40
0.0
 40
0.0
 40
0.2309051615
 40
0.4554212153
 40
0.6656307004
 40
0.8600958206
 40
1.0
 40
1.0
 40
1.0
 40
1.0
 10
-20.7491557037
 20
14.8921534606
 30
0.0
 10
-20.7574457556
 20
14.896298716
 30
0.0
 10
-20.7733649805
 20
14.9053993538
 30
0.0
 10
-20.79447939
 20
14.9219730778
 30
0.0
 10
-20.8110499787
 20
14.941323977
 30
0.0
 10
-20.8205089048
 20
14.9614176624
 30
0.0
 10
-20.8223558467
 20
14.9749187122
 30
0.0
 10
-20.8223711907
 20
14.9805623208
 30
0.0
 11
-20.7491557037
 21
14.8921534606
 31
0.0
 11
-20.7732096949
 21
14.9061025979
 31
0.0
 11
-20.7943088558
 21
14.9230083118
 31
0.0
 11
-20.8104854743
 21
14.942478916
 31
0.0
 11
-20.8201168681
 21
14.9638244161
 31
0.0
 11
-20.8223711907
 21
14.9805623208
 31
0.0
  0
SPLINE
  5
247
100
AcDbEntity
  8
RACCORDO
100
AcDbSpline
 62
253
  6
CONTINUOUS
 70
0
 71
3
 72
9
 73
5
 74
3
 42
0.0000001
 43
0.0000001
 44
0.0000000001
 12
-0.1066341665
 22
0.0534043841
 32
0.0
 13
-0.0042583065
 23
0.1188346138
 33
0.0
 40
0.0
 40
0.0
 40
0.0
 40
0.0
 40
0.5657557067
 40
1.0
 40
1.0
 40
1.0
 40
1.0
 10
-20.5167866354
 20
0.8830202931
 30
0.0
 10
-20.5368962648
 20
0.8930915714
 30
0.0
 10
-20.5712301068
 20
0.9154185432
 30
0.0
 10
-20.5893999808
 20
0.9546287403
 30
0.0
 10
-20.5900163626
 20
0.9718298246
 30
0.0
 11
-20.5167866354
 21
0.8830202931
 31
0.0
 11
-20.5705716438
 21
0.9237587695
 31
0.0
 11
-20.5900163626
 21
0.9718298246
 31
0.0
  0
ELLIPSE
  5
248
100
AcDbEntity
  8
RACCORDO
100
AcDbEllipse
 62
7
  6
CONTINUOUS
 10
18.8359531342
 20
-15.4520926482
 30
0.0
 11
-0.1118523001
 21
0.2236266191
 31
0.0
 40
0.6122950388
 41
-3.1545008891
 42
-2.2557482655
  0
ELLIPSE
  5
249
100
AcDbEntity
  8
RACCORDO
100
AcDbEllipse
 62
7
  6
CONTINUOUS
 10
19.8439079652
 20
-9.9476144636
 30
0.0
 11
0.6999180957
 21
0.020550349
 31
0.0
 40
0.5210573591
 41
-0.69597602
 42
-0.0156221904
  0
ELLIPSE
  5
24A
100
AcDbEntity
  8
RACCORDO
100
AcDbEllipse
 62
7
  6
CONTINUOUS
 10
-17.4808935947
 20
16.6487496749
 30
0.0
 11
-0.1118504554
 21
0.2236675568
 31
0.0
 40
0.6121897086
 41
-0.6846338794
 42
0.0199943986
  0
ELLIPSE
  5
24B
100
AcDbEntity
  8
RACCORDO
100
AcDbEllipse
 62
7
  6
CONTINUOUS
 10
17.1812195694
 20
-0.6823069072
 30
0.0
 11
-0.1117903878
 21
0.2236141634
 31
0.0
 40
0.6125552124
 41
-2.255296188
 42
-0.6848044477
  0
ELLIPSE
  5
24C
100
AcDbEntity
  8
RACCORDO
100
AcDbEllipse
 62
7
  6
CONTINUOUS
 10
17.0373296943
 20
-16.3016536582
 30
0.0
 11
-0.1118523001
 21
0.2236266191
 31
0.0
 40
0.6122950388
 41
2.456793014
 42
4.0274370417
  0
ELLIPSE
  5
24D
100
AcDbEntity
  8
RACCORDO
100
AcDbEllipse
 62
7
  6
CONTINUOUS
 10
17.0373296943
 20
-16.0574085448
 30
0.0
 11
-0.1098985543
 21
0.2275784384
 31
0.0
 40
0.6085747011
 41
-3.255957921
 42
-2.2415613143
  0
ELLIPSE
  5
24E
100
AcDbEntity
  8
RACCORDO
100
AcDbEllipse
 62
7
  6
CONTINUOUS
 10
19.8439079652
 20
-6.4373253164
 30
0.0
 11
0.6999384131
 21
-0.0194119608
 31
0.0
 40
0.4783317971
 41
-0.667413222
 42
0.7986633497
  0
ENDSEC
  0
SECTION
  2
OBJECTS
  0
DICTIONARY
  5
C
100
AcDbDictionary
280
0
281
1
  3
ACAD_GROUP
350
D
  3
ACAD_MLINESTYLE
350
17
  3
ACAD_LAYOUT
350
1A
  3
ACAD_PLOTSETTINGS
350
19
  3
ACAD_PLOTSTYLENAME
350
E
  0
DICTIONARY
  5
D
102
{ACAD_REACTORS
330
C
102
}
100
AcDbDictionary
280
0
281
1
  0
ACDBDICTIONARYWDFLT
  5
E
102
{ACAD_REACTORS
330
C
102
}
100
AcDbDictionary
281
1
  3
Normal
350
F
100
AcDbDictionaryWithDefault
340
F
  0
DICTIONARY
  5
17
102
{ACAD_REACTORS
330
C
102
}
100
AcDbDictionary
280
0
281
1
  3
Standard
350
18
  0
DICTIONARY
  5
19
102
{ACAD_REACTORS
330
C
102
}
100
AcDbDictionary
281
1
  0
DICTIONARY
  5
1A
102
{ACAD_REACTORS
330
C
102
}
100
AcDbDictionary
281
1
  3
Model
350
24F
  3
Layout1
350
250
  0
ACDBPLACEHOLDER
  5
F
102
{ACAD_REACTORS
330
E
102
}
  0
MLINESTYLE
  5
18
102
{ACAD_REACTORS
330
17
102
}
100
AcDbMlineStyle
  2
STANDARD
 70
0
  3

 62
256
 51
90.0
 52
90.0
 71
2
 49
0.5
 62
256
  6
BYLAYER
 49
-0.5
 62
256
  6
BYLAYER
  0
LAYOUT
  5
24F
102
{ACAD_REACTORS
330
1A
102
}
100
AcDbPlotSettings
  1

  2
none_device
  4
ISO_A4_(297.00_x_210.00_MM)
  6

 40
0.0
 41
0.0
 42
0.0
 43
0.0
 44
297.0
 45
210.0
 46
0.0
 47
0.0
 48
0.0
 49
0.0
140
0.0
141
0.0
142
1.0
143
1.0
 70
1024
 72
1
 73
0
 74
0
  7

 75
0
147
1.0
148
0.0
149
0.0
100
AcDbLayout
  1
Model
 70
0
 71
0
 10
0.0
 20
0.0
 11
297.0
 21
210.0
 12
0.0
 22
0.0
 32
0.0
 14
0.0
 24
0.0
 34
0.0
 15
0.0
 25
0.0
 35
0.0
146
0.0
 13
0.0
 23
0.0
 33
0.0
 16
1.0
 26
0.0
 36
0.0
 17
0.0
 27
1.0
 37
0.0
 76
0
330
20B
345
0
346
0
  0
LAYOUT
  5
250
102
{ACAD_REACTORS
330
1A
102
}
100
AcDbPlotSettings
  1

  2
none_device
  4
ISO_A4_(297.00_x_210.00_MM)
  6

 40
0.0
 41
0.0
 42
0.0
 43
0.0
 44
297.0
 45
210.0
 46
0.0
 47
0.0
 48
0.0
 49
0.0
140
0.0
141
0.0
142
1.0
143
1.0
 70
0
 72
1
 73
0
 74
0
  7

 75
0
147
1.0
148
0.0
149
0.0
100
AcDbLayout
  1
Layout1
 70
0
 71
1
 10
0.0
 20
0.0
 11
297.0
 21
210.0
 12
0.0
 22
0.0
 32
0.0
 14
0.0
 24
0.0
 34
0.0
 15
0.0
 25
0.0
 35
0.0
146
0.0
 13
0.0
 23
0.0
 33
0.0
 16
1.0
 26
0.0
 36
0.0
 17
0.0
 27
1.0
 37
0.0
 76
0
330
20C
345
0
346
0
  0
ENDSEC
  0
EOF
