  0
SECTION
  2
HEADER
  9
$ACADVER
  1
AC1015
  9
$DWGCODEPAGE
  3
ANSI_1252
  9
$EXTMAX
 10
297.0
 20
210.0
 30
0.0
  9
$EXTMIN
 10
0.0
 20
0.0
 30
0.0
  9
$LIMMIN
 10
0.0
 20
0.0
  9
$LIMMAX
 10
297.0
 20
210.0
  9
$VIEWCTR
 10
148.5
 20
105.0
  9
$VIEWSIZE
 40
210.0
  9
$CLAYER
  8
0
  9
$LTSCALE
 40
16.335
  9
$CELTYPE
  6
BYLAYER
  9
$DIMSCALE
 40
1.0
  9
$DIMASZ
 40
3.0
  9
$DIMEXO
 40
0.5
  9
$DIMDLI
 40
11.286
  9
$DIMEXE
 40
1.5
  9
$DIMCEN
 40
2.673
  9
$DIMLFAC
 40
1.0
  9
$DIMBLK
  1
_FILLED
  9
$DIMTXT
 40
3.0
  9
$DIMTOL
 70
1
  9
$DIMLIM
 70
0
  9
$DIMTFAC
 40
1.0
  9
$DIMTP
 40
0.01
  9
$DIMTM
 40
0.01
  9
$DIMGAP
 40
0.625
  9
$DIMDSEP
 70
44
  9
$PDMODE
 70
3
  9
$PDSIZE
 40
3.0
  9
$HANDSEED
  5
2D7
  9
$TILEMODE
 70
1
  9
$MEASUREMENT
 70
1
  9
$INSUNITS
 70
4
  0
ENDSEC
  0
SECTION
  2
CLASSES
  0
CLASS
  1
ACDBDICTIONARYWDFLT
  2
AcDbDictionaryWithDefault
  3
AutoCAD 2000
 90
0
280
0
281
0
  0
CLASS
  1
ACDBPLACEHOLDER
  2
AcDbPlaceHolder
  3
AutoCAD 2000
 90
0
280
0
281
0
  0
CLASS
  1
LAYOUT
  2
AcDbLayout
  3
AutoCAD 2000
 90
0
280
0
281
0
  0
ENDSEC
  0
SECTION
  2
TABLES
  0
TABLE
  2
VPORT
  5
8
100
AcDbSymbolTable
 70
2
  0
VPORT
  5
1F4
100
AcDbSymbolTableRecord
100
AcDbViewportTableRecord
  2
*ACTIVE
 70
0
 10
0.0
 20
0.0
 11
1.0
 21
1.0
 12
148.5
 22
105.0
 13
0.0
 23
0.0
 14
1.0
 24
1.0
 15
0.0
 25
0.0
 16
0.0
 26
0.0
 36
1.0
 17
0.0
 27
0.0
 37
0.0
 40
210.0
 41
1.4142857143
 42
50.0
 43
0.0
 44
0.0
 50
0.0
 51
0.0
 71
0
 72
100
 73
1
 74
1
 75
0
 76
0
 77
0
 78
0
  0
ENDTAB
  0
TABLE
  2
LTYPE
  5
5
100
AcDbSymbolTable
 70
6
  0
LTYPE
  5
14
100
AcDbSymbolTableRecord
100
AcDbLinetypeTableRecord
  2
BYBLOCK
 70
0
  3

 72
65
 73
0
 40
0.0
  0
LTYPE
  5
15
100
AcDbSymbolTableRecord
100
AcDbLinetypeTableRecord
  2
BYLAYER
 70
0
  3

 72
65
 73
0
 40
0.0
  0
LTYPE
  5
16
100
AcDbSymbolTableRecord
100
AcDbLinetypeTableRecord
  2
CONTINUOUS
 70
64
  3
Solid line
 72
65
 73
0
 40
0.0
  0
LTYPE
  5
1F5
100
AcDbSymbolTableRecord
100
AcDbLinetypeTableRecord
  2
CENTER
 70
64
  3
____ _ ____ _ ____ _ ____ _ ____ _ ____ _ ____
 72
65
 73
4
 40
0.6
 49
0.375
 74
0
 49
-0.075
 74
0
 49
0.075
 74
0
 49
-0.075
 74
0
  0
LTYPE
  5
1F6
100
AcDbSymbolTableRecord
100
AcDbLinetypeTableRecord
  2
HIDDEN
 70
64
  3
- - - - - - - - - - - - - - - - - - - -
 72
65
 73
2
 40
0.2
 49
0.1
 74
0
 49
-0.1
 74
0
  0
LTYPE
  5
1F7
100
AcDbSymbolTableRecord
100
AcDbLinetypeTableRecord
  2
PHANTOM
 70
64
  3
_____ _ _ _____ _ _ _____ _ _ _____
 72
65
 73
6
 40
0.8
 49
0.45
 74
0
 49
-0.05
 74
0
 49
0.1
 74
0
 49
-0.05
 74
0
 49
0.1
 74
0
 49
-0.05
 74
0
  0
LTYPE
  5
1F8
100
AcDbSymbolTableRecord
100
AcDbLinetypeTableRecord
  2
DOT
 70
64
  3
. . . . . . . . . . . . . . . . . . . .
 72
65
 73
2
 40
0.2
 49
0.1
 74
0
 49
-0.1
 74
0
  0
LTYPE
  5
1F9
100
AcDbSymbolTableRecord
100
AcDbLinetypeTableRecord
  2
DASHED
 70
64
  3
- - - - - - - - - - - - - - - - - - - -
 72
65
 73
2
 40
0.2
 49
0.1
 74
0
 49
-0.1
 74
0
  0
ENDTAB
  0
TABLE
  2
LAYER
  5
2
100
AcDbSymbolTable
 70
36
  0
LAYER
  5
10
100
AcDbSymbolTableRecord
100
AcDbLayerTableRecord
  2
0
 70
0
 62
7
  6
CONTINUOUS
370
-3
390
F
  0
LAYER
  5
1FA
100
AcDbSymbolTableRecord
100
AcDbLayerTableRecord
  2
DEFAULT_1
 70
0
 62
7
  6
CENTER
370
-3
390
F
  0
LAYER
  5
1FB
100
AcDbSymbolTableRecord
100
AcDbLayerTableRecord
  2
DEFAULT_2
 70
0
 62
7
  6
HIDDEN
370
-3
390
F
  0
LAYER
  5
1FC
100
AcDbSymbolTableRecord
100
AcDbLayerTableRecord
  2
DEFAULT_3
 70
0
 62
7
  6
PHANTOM
370
-3
390
F
  0
LAYER
  5
1FD
100
AcDbSymbolTableRecord
100
AcDbLayerTableRecord
  2
ASSI
 70
0
 62
7
  6
CONTINUOUS
370
-3
390
F
  0
LAYER
  5
1FE
100
AcDbSymbolTableRecord
100
AcDbLayerTableRecord
  2
COLOR1
 70
0
 62
7
  6
CONTINUOUS
370
-3
390
F
  0
LAYER
  5
1FF
100
AcDbSymbolTableRecord
100
AcDbLayerTableRecord
  2
COORDINATE
 70
0
 62
7
  6
CONTINUOUS
370
-3
390
F
  0
LAYER
  5
200
100
AcDbSymbolTableRecord
100
AcDbLayerTableRecord
  2
COORD_ORIGINE
 70
0
 62
7
  6
CONTINUOUS
370
-3
390
F
  0
LAYER
  5
201
100
AcDbSymbolTableRecord
100
AcDbLayerTableRecord
  2
COPY_PUBLISH
 70
0
 62
7
  6
CONTINUOUS
370
-3
390
F
  0
LAYER
  5
202
100
AcDbSymbolTableRecord
100
AcDbLayerTableRecord
  2
COSMETICI
 70
0
 62
7
  6
CONTINUOUS
370
-3
390
F
  0
LAYER
  5
203
100
AcDbSymbolTableRecord
100
AcDbLayerTableRecord
  2
CURVE
 70
0
 62
7
  6
CONTINUOUS
370
-3
390
F
  0
LAYER
  5
204
100
AcDbSymbolTableRecord
100
AcDbLayerTableRecord
  2
CURVE_LED_TASTO
 70
0
 62
7
  6
CONTINUOUS
370
-3
390
F
  0
LAYER
  5
205
100
AcDbSymbolTableRecord
100
AcDbLayerTableRecord
  2
DRAFT
 70
0
 62
7
  6
CONTINUOUS
370
-3
390
F
  0
LAYER
  5
206
100
AcDbSymbolTableRecord
100
AcDbLayerTableRecord
  2
IMPORT_IGES
 70
0
 62
7
  6
CONTINUOUS
370
-3
390
F
  0
LAYER
  5
207
100
AcDbSymbolTableRecord
100
AcDbLayerTableRecord
  2
INTF_YELLOW
 70
0
 62
7
  6
CONTINUOUS
370
-3
390
F
  0
LAYER
  5
208
100
AcDbSymbolTableRecord
100
AcDbLayerTableRecord
  2
NOTE
 70
0
 62
7
  6
CONTINUOUS
370
-3
390
F
  0
LAYER
  5
209
100
AcDbSymbolTableRecord
100
AcDbLayerTableRecord
  2
PIANI
 70
0
 62
7
  6
CONTINUOUS
370
-3
390
F
  0
LAYER
  5
20A
100
AcDbSymbolTableRecord
100
AcDbLayerTableRecord
  2
PIANI_ORIGINE
 70
0
 62
7
  6
CONTINUOUS
370
-3
390
F
  0
LAYER
  5
20B
100
AcDbSymbolTableRecord
100
AcDbLayerTableRecord
  2
PIANI_RIFERIMENTO
 70
0
 62
7
  6
CONTINUOUS
370
-3
390
F
  0
LAYER
  5
20C
100
AcDbSymbolTableRecord
100
AcDbLayerTableRecord
  2
PUNTI
 70
0
 62
7
  6
CONTINUOUS
370
-3
390
F
  0
LAYER
  5
20D
100
AcDbSymbolTableRecord
100
AcDbLayerTableRecord
  2
RACCORDO
 70
0
 62
7
  6
CONTINUOUS
370
-3
390
F
  0
LAYER
  5
20E
100
AcDbSymbolTableRecord
100
AcDbLayerTableRecord
  2
SCRITTE
 70
0
 62
7
  6
CONTINUOUS
370
-3
390
F
  0
LAYER
  5
20F
100
AcDbSymbolTableRecord
100
AcDbLayerTableRecord
  2
SIMBOLI
 70
0
 62
7
  6
CONTINUOUS
370
-3
390
F
  0
LAYER
  5
210
100
AcDbSymbolTableRecord
100
AcDbLayerTableRecord
  2
SMUSSO
 70
0
 62
7
  6
CONTINUOUS
370
-3
390
F
  0
LAYER
  5
211
100
AcDbSymbolTableRecord
100
AcDbLayerTableRecord
  2
SNAPLINE
 70
0
 62
7
  6
CONTINUOUS
370
-3
390
F
  0
LAYER
  5
212
100
AcDbSymbolTableRecord
100
AcDbLayerTableRecord
  2
SUPERFICI
 70
0
 62
7
  6
CONTINUOUS
370
-3
390
F
  0
LAYER
  5
213
100
AcDbSymbolTableRecord
100
AcDbLayerTableRecord
  2
TRASH
 70
0
 62
7
  6
CONTINUOUS
370
-3
390
F
  0
ENDTAB
  0
TABLE
  2
STYLE
  5
3
100
AcDbSymbolTable
 70
1
  0
STYLE
  5
11
100
AcDbSymbolTableRecord
100
AcDbTextStyleTableRecord
  2
STANDARD
 70
0
 40
0.0
 41
0.8
 50
0.0
 71
0
 42
0.2
  3
txt
  4

  0
STYLE
  5
214
100
AcDbSymbolTableRecord
100
AcDbTextStyleTableRecord
  2
TEXTSTYLE_1
 70
0
 40
0.0
 41
0.8
 50
0.0
 71
0
 42
0.2
  3
gdt
  4

  0
ENDTAB
  0
TABLE
  2
VIEW
  5
6
100
AcDbSymbolTable
 70
0
  0
ENDTAB
  0
TABLE
  2
UCS
  5
7
100
AcDbSymbolTable
 70
0
  0
ENDTAB
  0
TABLE
  2
APPID
  5
9
100
AcDbSymbolTable
 70
1
  0
APPID
  5
215
100
AcDbSymbolTableRecord
100
AcDbRegAppTableRecord
  2
ACAD
 70
0
  0
ENDTAB
  0
TABLE
  2
BLOCK_RECORD
  5
1
100
AcDbSymbolTable
 70
0
  0
BLOCK_RECORD
  5
216
100
AcDbSymbolTableRecord
100
AcDbBlockTableRecord
  2
*Model_Space
  0
BLOCK_RECORD
  5
217
100
AcDbSymbolTableRecord
100
AcDbBlockTableRecord
  2
*Paper_Space
  0
ENDTAB
  0
TABLE
  2
DIMSTYLE
  5
A
100
AcDbSymbolTable
 70
1
100
AcDbDimStyleTable
 71
0
  0
DIMSTYLE
105
218
100
AcDbSymbolTableRecord
100
AcDbDimStyleTableRecord
  2
STANDARD
 70
0
  3

  4

 40
1.0
 41
3.0
 42
0.5
 43
0.38
 44
1.5
 45
0.0
 46
0.0
 47
0.01
 48
0.01
140
3.0
141
0.09
142
0.0
143
25.4
144
1.0
145
0.0
146
1.0
147
0.625
 71
1.0
 72
0.0
 73
0
 74
0
 75
0
 76
0
 77
1
 78
8
170
0
171
2
172
0
173
0
174
0
175
0
176
0
177
0
178
0
270
2
271
2
272
2
273
2
274
2
275
0
280
0
281
0
282
0
283
1
284
8
285
0
286
0
287
3
288
0
340
11
278
44
  0
ENDTAB
  0
ENDSEC
  0
SECTION
  2
BLOCKS
  0
BLOCK
  5
20
100
AcDbEntity
  8
0
100
AcDbBlockBegin
  2
*Model_Space
 70
0
 10
0.0
 20
0.0
 30
0.0
  3
*Model_Space
  1

  0
ENDBLK
  5
21
100
AcDbEntity
  8
0
100
AcDbBlockEnd
  0
BLOCK
  5
1C
100
AcDbEntity
  8
0
100
AcDbBlockBegin
  2
*Paper_Space
 70
0
 10
0.0
 20
0.0
 30
0.0
  3
*Paper_Space
  1

  0
ENDBLK
  5
1D
100
AcDbEntity
  8
0
100
AcDbBlockEnd
  0
ENDSEC
  0
SECTION
  2
ENTITIES
  0
LWPOLYLINE
  5
219
100
AcDbEntity
  8
ASSI
100
AcDbPolyline
 62
253
  6
CONTINUOUS
 90
10
 70
0
 10
-24.3339379283
 20
35.1585623383
 10
-24.3188984635
 20
35.1727435936
 10
-24.3037099135
 20
35.1864117592
 10
-24.2883816797
 20
35.1995580574
 10
-24.2729236594
 20
35.2121741633
 10
-24.2573456977
 20
35.2242521953
 10
-24.2416572424
 20
35.2357845387
 10
-24.2258681701
 20
35.2467639217
 10
-24.2099887835
 20
35.2571834333
 10
-24.194029263
 20
35.2670365122
  0
LINE
  5
21A
100
AcDbEntity
  8
RACCORDO
100
AcDbLine
 62
253
  6
CONTINUOUS
 10
-24.2883816797
 20
35.1995580574
 11
-24.2729236594
 21
35.2121741633
  0
LWPOLYLINE
  5
21B
100
AcDbEntity
  8
RACCORDO
100
AcDbPolyline
 62
253
  6
CONTINUOUS
 90
6
 70
0
 10
-24.2729236594
 20
35.2121741633
 10
-24.2573456977
 20
35.2242521953
 10
-24.2416572424
 20
35.2357845387
 10
-24.2258681701
 20
35.2467639217
 10
-24.2099887835
 20
35.2571834333
 10
-24.194029263
 20
35.2670365122
  0
LWPOLYLINE
  5
21C
100
AcDbEntity
  8
ASSI
100
AcDbPolyline
 62
7
  6
CONTINUOUS
 90
15
 70
0
 10
-24.3152141027
 20
35.2519605934
 10
-24.3843031641
 20
35.2050653398
 10
-24.4464239899
 20
35.1532294955
 10
-24.5065531051
 20
35.0929614737
 10
-24.5636028709
 20
35.0248320282
 10
-24.6155808288
 20
34.9512686406
 10
-24.6619738714
 20
34.8736617418
 10
-24.7031776395
 20
34.7919278213
 10
-24.738924855
 20
34.7069612652
 10
-24.7690619335
 20
34.6195095854
 10
-24.7935140755
 20
34.5300731141
 10
-24.8121351714
 20
34.4393068782
 10
-24.8247835756
 20
34.3478324823
 10
-24.8313120939
 20
34.2562229383
 10
-24.8317649543
 20
34.2420771447
  0
LWPOLYLINE
  5
21D
100
AcDbEntity
  8
RACCORDO
100
AcDbPolyline
 62
7
  6
CONTINUOUS
 90
49
 70
0
 10
-24.3151947758
 20
35.2519722562
 10
-24.3293425865
 20
35.2432246364
 10
-24.3478087285
 20
35.2311586782
 10
-24.3661228823
 20
35.2184457135
 10
-24.3842871307
 20
35.2050774824
 10
-24.4022790031
 20
35.1910638889
 10
-24.4200524953
 20
35.1764367921
 10
-24.4376004835
 20
35.1612000043
 10
-24.4549152176
 20
35.1453580465
 10
-24.4719532256
 20
35.1289501699
 10
-24.4887084643
 20
35.1119839293
 10
-24.5051754208
 20
35.0944663808
 10
-24.521314689
 20
35.0764425522
 10
-24.5371217236
 20
35.0579231993
 10
-24.552592844
 20
35.038917653
 10
-24.5676931494
 20
35.0194755791
 10
-24.5824158578
 20
34.9996156331
 10
-24.5967628948
 20
34.9793441474
 10
-24.61071499
 20
34.9586980476
 10
-24.6242664278
 20
34.9376973572
 10
-24.6374195504
 20
34.9163489396
 10
-24.6501681368
 20
34.8946734146
 10
-24.6625099902
 20
34.8726848711
 10
-24.6744434673
 20
34.850395808
 10
-24.6859631724
 20
34.8278263569
 10
-24.6970661764
 20
34.8049918149
 10
-24.7077514852
 20
34.7819035718
 10
-24.7180161703
 20
34.7585769455
 10
-24.7278576495
 20
34.7350258671
 10
-24.7372741344
 20
34.7112628772
 10
-24.7462630648
 20
34.6873016407
 10
-24.7548218153
 20
34.6631557565
 10
-24.7629482291
 20
34.6388379081
 10
-24.7706397695
 20
34.6143606664
 10
-24.7778936137
 20
34.5897379593
 10
-24.7847073816
 20
34.564981941
 10
-24.7910788738
 20
34.5401027313
 10
-24.7970052497
 20
34.5151133462
 10
-24.8024834077
 20
34.4900266233
 10
-24.8075107951
 20
34.464852439
 10
-24.8120842091
 20
34.4396035786
 10
-24.8162001097
 20
34.414292831
 10
-24.8198555769
 20
34.3889299511
 10
-24.8230468692
 20
34.3635282068
 10
-24.8257701321
 20
34.3381000508
 10
-24.8280220113
 20
34.3126530702
 10
-24.8297982703
 20
34.2871977203
 10
-24.8310944179
 20
34.2617496015
 10
-24.8317641196
 20
34.2421094005
  0
LINE
  5
21E
100
AcDbEntity
  8
RACCORDO
100
AcDbLine
 62
7
  6
CONTINUOUS
 10
-24.3151934443
 20
35.2519730791
 11
-20.4291476232
 21
37.5965139281
  0
LINE
  5
21F
100
AcDbEntity
  8
ASSI
100
AcDbLine
 62
7
  6
CONTINUOUS
 10
-24.3151934443
 20
35.2519730791
 11
-20.4291476232
 21
37.5965139281
  0
LINE
  5
220
100
AcDbEntity
  8
RACCORDO
100
AcDbLine
 62
253
  6
CONTINUOUS
 10
-24.194029263
 20
35.2670365122
 11
-20.3042018781
 21
37.6138588657
  0
LINE
  5
221
100
AcDbEntity
  8
ASSI
100
AcDbLine
 62
253
  6
CONTINUOUS
 10
-24.194029263
 20
35.2670365122
 11
-20.3042018781
 21
37.6138588657
  0
LWPOLYLINE
  5
222
100
AcDbEntity
  8
RACCORDO
100
AcDbPolyline
 62
253
  6
CONTINUOUS
 90
18
 70
0
 10
-24.3151934443
 20
35.2519730791
 10
-24.3105648646
 20
35.2546434304
 10
-24.3042989886
 20
35.2578889697
 10
-24.2978582482
 20
35.2608155783
 10
-24.2912504602
 20
35.2634197043
 10
-24.2844836441
 20
35.2656981872
 10
-24.2775660124
 20
35.2676482618
 10
-24.2705059609
 20
35.2692675614
 10
-24.2633120578
 20
35.2705541206
 10
-24.2559930341
 20
35.2715063781
 10
-24.2485577725
 20
35.2721231782
 10
-24.2410152967
 20
35.2724037722
 10
-24.2333747608
 20
35.2723478196
 10
-24.2256454377
 20
35.2719553884
 10
-24.217836708
 20
35.2712269548
 10
-24.2099580488
 20
35.2701634028
 10
-24.2020190221
 20
35.2687660234
 10
-24.194029263
 20
35.2670365122
  0
LWPOLYLINE
  5
223
100
AcDbEntity
  8
ASSI
100
AcDbPolyline
 62
253
  6
CONTINUOUS
 90
18
 70
0
 10
-24.3151934443
 20
35.2519730791
 10
-24.3105648646
 20
35.2546434304
 10
-24.3042989886
 20
35.2578889697
 10
-24.2978582482
 20
35.2608155783
 10
-24.2912504602
 20
35.2634197043
 10
-24.2844836441
 20
35.2656981872
 10
-24.2775660124
 20
35.2676482618
 10
-24.2705059609
 20
35.2692675614
 10
-24.2633120578
 20
35.2705541206
 10
-24.2559930341
 20
35.2715063781
 10
-24.2485577725
 20
35.2721231782
 10
-24.2410152967
 20
35.2724037722
 10
-24.2333747608
 20
35.2723478196
 10
-24.2256454377
 20
35.2719553884
 10
-24.217836708
 20
35.2712269548
 10
-24.2099580488
 20
35.2701634028
 10
-24.2020190221
 20
35.2687660234
 10
-24.194029263
 20
35.2670365122
  0
LINE
  5
224
100
AcDbEntity
  8
RACCORDO
100
AcDbLine
 62
7
  6
CONTINUOUS
 10
-6.0505968301
 20
-2.4641067997
 11
-2.0034488595
 21
-2.2045787494
  0
LINE
  5
225
100
AcDbEntity
  8
RACCORDO
100
AcDbLine
 62
253
  6
CONTINUOUS
 10
-5.8465855719
 20
-2.2221881648
 11
-1.8305214562
 21
-1.9646534027
  0
LINE
  5
226
100
AcDbEntity
  8
ASSI
100
AcDbLine
 62
253
  6
CONTINUOUS
 10
-5.8465855719
 20
-2.2221881648
 11
-1.8305214562
 21
-1.9646534027
  0
LINE
  5
227
100
AcDbEntity
  8
ASSI
100
AcDbLine
 62
7
  6
CONTINUOUS
 10
-2.0034488595
 20
-2.2045787494
 11
-6.0508277909
 21
-2.4641214522
  0
LINE
  5
228
100
AcDbEntity
  8
ASSI
100
AcDbLine
 62
7
  6
CONTINUOUS
 10
-6.0790618338
 20
-2.465255821
 11
-6.050827793
 21
-2.4641214194
  0
LWPOLYLINE
  5
229
100
AcDbEntity
  8
RACCORDO
100
AcDbPolyline
 62
7
  6
CONTINUOUS
 90
3
 70
0
 10
-6.0798159324
 20
-2.4652786934
 10
-6.0624864038
 20
-2.464753077
 10
-6.0506022893
 20
-2.4641071168
  0
LWPOLYLINE
  5
22A
100
AcDbEntity
  8
RACCORDO
100
AcDbPolyline
 62
7
  6
CONTINUOUS
 90
4
 70
0
 10
-6.131499991
 20
-2.4638873254
 10
-6.1143345661
 20
-2.4648446336
 10
-6.0971019856
 20
-2.4653089033
 10
-6.0798159324
 20
-2.4652786934
  0
LWPOLYLINE
  5
22B
100
AcDbEntity
  8
ASSI
100
AcDbPolyline
 62
7
  6
CONTINUOUS
 90
3
 70
0
 10
-6.1788997436
 20
-2.4586359808
 10
-6.129039006
 20
-2.4640550727
 10
-6.0790618338
 20
-2.465255821
  0
LWPOLYLINE
  5
22C
100
AcDbEntity
  8
RACCORDO
100
AcDbPolyline
 62
7
  6
CONTINUOUS
 90
4
 70
0
 10
-6.1824452712
 20
-2.4580865988
 10
-6.165566597
 20
-2.4605050127
 10
-6.1485810612
 20
-2.4624397497
 10
-6.131499991
 20
-2.4638873254
  0
LWPOLYLINE
  5
22D
100
AcDbEntity
  8
RACCORDO
100
AcDbPolyline
 62
253
  6
CONTINUOUS
 90
44
 70
0
 10
-24.4000820044
 20
2.0712857781
 10
-24.4145933382
 20
2.0771736846
 10
-24.4289168916
 20
2.0836629996
 10
-24.4430434726
 20
2.0907495828
 10
-24.4569644163
 20
2.0984290202
 10
-24.470670813
 20
2.1066964317
 10
-24.4841538591
 20
2.1155465517
 10
-24.4974052553
 20
2.1249738296
 10
-24.5104165072
 20
2.1349722685
 10
-24.523179274
 20
2.1455355172
 10
-24.5356857187
 20
2.1566569497
 10
-24.5479278289
 20
2.1683295021
 10
-24.5598977532
 20
2.1805457649
 10
-24.5715881505
 20
2.1932980727
 10
-24.5829915376
 20
2.2065783405
 10
-24.5941005942
 20
2.2203781393
 10
-24.6049084985
 20
2.2346887899
 10
-24.6154083313
 20
2.2495012205
 10
-24.6255933544
 20
2.264806039
 10
-24.6354573149
 20
2.2805936115
 10
-24.6449938968
 20
2.2968539303
 10
-24.6541969823
 20
2.3135766946
 10
-24.6630609292
 20
2.3307513848
 10
-24.6715800673
 20
2.3483671287
 10
-24.679748925
 20
2.3664127641
 10
-24.687562489
 20
2.3848769205
 10
-24.695015764
 20
2.4037479173
 10
-24.7021039601
 20
2.4230137978
 10
-24.7088227197
 20
2.442662392
 10
-24.7151677435
 20
2.4626812491
 10
-24.7211349617
 20
2.4830577107
 10
-24.72672072
 20
2.5037789455
 10
-24.7319214485
 20
2.52483184
 10
-24.7367338052
 20
2.5462030758
 10
-24.7411548451
 20
2.5678792046
 10
-24.745181752
 20
2.589846565
 10
-24.7488119234
 20
2.6120912151
 10
-24.7520431167
 20
2.634599009
 10
-24.7548732653
 20
2.6573556148
 10
-24.7573005634
 20
2.6803467323
 10
-24.7593235411
 20
2.7035580302
 10
-24.7609409224
 20
2.7269749058
 10
-24.7621516369
 20
2.7505824878
 10
-24.7629549034
 20
2.7743658537
  0
LINE
  5
22E
100
AcDbEntity
  8
ASSI
100
AcDbLine
 62
7
  6
CONTINUOUS
 10
-6.2323299276
 20
-2.4479713041
 11
-6.1788997436
 21
-2.4586359808
  0
LWPOLYLINE
  5
22F
100
AcDbEntity
  8
RACCORDO
100
AcDbPolyline
 62
7
  6
CONTINUOUS
 90
4
 70
0
 10
-6.2325034099
 20
-2.4479282059
 10
-6.2158166006
 20
-2.451819639
 10
-6.199199655
 20
-2.4551896106
 10
-6.1824452712
 20
-2.4580865988
  0
LINE
  5
230
100
AcDbEntity
  8
ASSI
100
AcDbLine
 62
7
  6
CONTINUOUS
 10
-6.2324706449
 20
-2.4479364229
 11
-6.2323273291
 21
-2.447972022
  0
LINE
  5
231
100
AcDbEntity
  8
RACCORDO
100
AcDbLine
 62
7
  6
CONTINUOUS
 10
-24.3554335906
 20
2.0572459393
 11
-6.2324684785
 21
-2.4479369615
  0
LINE
  5
232
100
AcDbEntity
  8
ASSI
100
AcDbLine
 62
7
  6
CONTINUOUS
 10
-24.3554314682
 20
2.0572454116
 11
-6.2324684785
 21
-2.4479369615
  0
LINE
  5
233
100
AcDbEntity
  8
RACCORDO
100
AcDbLine
 62
7
  6
CONTINUOUS
 10
-6.2325007883
 20
-2.4479289284
 11
-6.2324706449
 21
-2.4479364229
  0
LINE
  5
234
100
AcDbEntity
  8
RACCORDO
100
AcDbLine
 62
253
  6
CONTINUOUS
 10
-24.7629549034
 20
2.7743658537
 11
-6.6516721491
 21
-1.7279129329
  0
LINE
  5
235
100
AcDbEntity
  8
ASSI
100
AcDbLine
 62
253
  6
CONTINUOUS
 10
-24.7629549034
 20
2.7743658537
 11
-6.6516721491
 21
-1.7279129329
  0
LINE
  5
236
100
AcDbEntity
  8
RACCORDO
100
AcDbLine
 62
253
  6
CONTINUOUS
 10
-24.3554314682
 20
2.0572454116
 11
-24.3705328797
 21
2.0613287245
  0
LINE
  5
237
100
AcDbEntity
  8
ASSI
100
AcDbLine
 62
253
  6
CONTINUOUS
 10
-24.3554314682
 20
2.0572454116
 11
-24.3705328797
 21
2.0613287245
  0
LINE
  5
238
100
AcDbEntity
  8
ASSI
100
AcDbLine
 62
7
  6
CONTINUOUS
 10
-24.3942810998
 20
2.0683936531
 11
-24.353658901
 21
2.0568093506
  0
LWPOLYLINE
  5
239
100
AcDbEntity
  8
RACCORDO
100
AcDbPolyline
 62
253
  6
CONTINUOUS
 90
3
 70
0
 10
-24.3705328797
 20
2.0613287245
 10
-24.3853921852
 20
2.0660030346
 10
-24.4000820044
 20
2.0712857781
  0
LWPOLYLINE
  5
23A
100
AcDbEntity
  8
ASSI
100
AcDbPolyline
 62
253
  6
CONTINUOUS
 90
46
 70
0
 10
-24.3705328797
 20
2.0613287245
 10
-24.3853921852
 20
2.0660030346
 10
-24.4000820044
 20
2.0712857781
 10
-24.4145933382
 20
2.0771736846
 10
-24.4289168916
 20
2.0836629996
 10
-24.4430434726
 20
2.0907495828
 10
-24.4569644163
 20
2.0984290202
 10
-24.470670813
 20
2.1066964317
 10
-24.4841538591
 20
2.1155465517
 10
-24.4974052553
 20
2.1249738296
 10
-24.5104165072
 20
2.1349722685
 10
-24.523179274
 20
2.1455355172
 10
-24.5356857187
 20
2.1566569497
 10
-24.5479278289
 20
2.1683295021
 10
-24.5598977532
 20
2.1805457649
 10
-24.5715881505
 20
2.1932980727
 10
-24.5829915376
 20
2.2065783405
 10
-24.5941005942
 20
2.2203781393
 10
-24.6049084985
 20
2.2346887899
 10
-24.6154083313
 20
2.2495012205
 10
-24.6255933544
 20
2.264806039
 10
-24.6354573149
 20
2.2805936115
 10
-24.6449938968
 20
2.2968539303
 10
-24.6541969823
 20
2.3135766946
 10
-24.6630609292
 20
2.3307513848
 10
-24.6715800673
 20
2.3483671287
 10
-24.679748925
 20
2.3664127641
 10
-24.687562489
 20
2.3848769205
 10
-24.695015764
 20
2.4037479173
 10
-24.7021039601
 20
2.4230137978
 10
-24.7088227197
 20
2.442662392
 10
-24.7151677435
 20
2.4626812491
 10
-24.7211349617
 20
2.4830577107
 10
-24.72672072
 20
2.5037789455
 10
-24.7319214485
 20
2.52483184
 10
-24.7367338052
 20
2.5462030758
 10
-24.7411548451
 20
2.5678792046
 10
-24.745181752
 20
2.589846565
 10
-24.7488119234
 20
2.6120912151
 10
-24.7520431167
 20
2.634599009
 10
-24.7548732653
 20
2.6573556148
 10
-24.7573005634
 20
2.6803467323
 10
-24.7593235411
 20
2.7035580302
 10
-24.7609409224
 20
2.7269749058
 10
-24.7621516369
 20
2.7505824878
 10
-24.7629549034
 20
2.7743658537
  0
LINE
  5
23B
100
AcDbEntity
  8
RACCORDO
100
AcDbLine
 62
7
  6
CONTINUOUS
 10
-24.4095489345
 20
2.073612307
 11
-24.392440404
 21
2.0677960894
  0
LWPOLYLINE
  5
23C
100
AcDbEntity
  8
ASSI
100
AcDbPolyline
 62
253
  6
CONTINUOUS
 90
24
 70
0
 10
-24.866478599
 20
2.8424492526
 10
-24.8662076603
 20
2.8391245364
 10
-24.8655235557
 20
2.8356651342
 10
-24.8644305721
 20
2.8322252468
 10
-24.8629302044
 20
2.828809579
 10
-24.8610245047
 20
2.8254228024
 10
-24.8587160793
 20
2.8220695492
 10
-24.8560080857
 20
2.8187544055
 10
-24.8529042275
 20
2.8154819056
 10
-24.8494087498
 20
2.8122565253
 10
-24.8455264336
 20
2.809082676
 10
-24.8412625886
 20
2.8059646985
 10
-24.8366230467
 20
2.8029068575
 10
-24.8316141532
 20
2.799913335
 10
-24.826242759
 20
2.7969882254
 10
-24.8205162105
 20
2.7941355294
 10
-24.81444234
 20
2.7913591486
 10
-24.8080294549
 20
2.7886628804
 10
-24.8012863259
 20
2.7860504124
 10
-24.7942221759
 20
2.7835253177
 10
-24.7868466665
 20
2.7810910499
 10
-24.7791698852
 20
2.7787509385
 10
-24.7712023318
 20
2.7765081839
 10
-24.7629549034
 20
2.7743658537
  0
LWPOLYLINE
  5
23D
100
AcDbEntity
  8
RACCORDO
100
AcDbPolyline
 62
253
  6
CONTINUOUS
 90
24
 70
0
 10
-24.8664785991
 20
2.8424492548
 10
-24.8662076603
 20
2.8391245364
 10
-24.8655235557
 20
2.8356651342
 10
-24.8644305721
 20
2.8322252468
 10
-24.8629302044
 20
2.828809579
 10
-24.8610245047
 20
2.8254228024
 10
-24.8587160793
 20
2.8220695492
 10
-24.8560080857
 20
2.8187544055
 10
-24.8529042275
 20
2.8154819056
 10
-24.8494087498
 20
2.8122565253
 10
-24.8455264336
 20
2.809082676
 10
-24.8412625886
 20
2.8059646985
 10
-24.8366230467
 20
2.8029068575
 10
-24.8316141532
 20
2.799913335
 10
-24.826242759
 20
2.7969882254
 10
-24.8205162105
 20
2.7941355294
 10
-24.81444234
 20
2.7913591486
 10
-24.8080294549
 20
2.7886628804
 10
-24.8012863259
 20
2.7860504124
 10
-24.7942221759
 20
2.7835253177
 10
-24.7868466665
 20
2.7810910499
 10
-24.7791698852
 20
2.7787509385
 10
-24.7712023318
 20
2.7765081839
 10
-24.7629549034
 20
2.7743658537
  0
LINE
  5
23E
100
AcDbEntity
  8
ASSI
100
AcDbLine
 62
7
  6
CONTINUOUS
 10
-24.8657008756
 20
2.8195743619
 11
-24.8583796212
 21
2.7285667051
  0
LWPOLYLINE
  5
23F
100
AcDbEntity
  8
RACCORDO
100
AcDbPolyline
 62
7
  6
CONTINUOUS
 90
44
 70
0
 10
-24.8657560248
 20
2.8211982595
 10
-24.8645629107
 20
2.7976414686
 10
-24.862789547
 20
2.7726667063
 10
-24.8605008285
 20
2.7477386234
 10
-24.8576904016
 20
2.7228905031
 10
-24.8543585109
 20
2.6981931048
 10
-24.8505005883
 20
2.6736587042
 10
-24.8461118752
 20
2.649300716
 10
-24.8411990525
 20
2.6251875705
 10
-24.8357604676
 20
2.6013301203
 10
-24.8297941734
 20
2.5777402752
 10
-24.8233134956
 20
2.5544827695
 10
-24.8163198564
 20
2.5315673009
 10
-24.8088141114
 20
2.5090034598
 10
-24.8008158393
 20
2.4868504691
 10
-24.7923307134
 20
2.4651192784
 10
-24.7833615009
 20
2.4438140824
 10
-24.7739296655
 20
2.4229793108
 10
-24.7640429062
 20
2.4026228318
 10
-24.7537069578
 20
2.3827486206
 10
-24.7429455041
 20
2.3633917882
 10
-24.7317676082
 20
2.3445567542
 10
-24.7201824612
 20
2.3262480426
 10
-24.7082190088
 20
2.3084979097
 10
-24.6958942655
 20
2.2913159778
 10
-24.6832154982
 20
2.2746975425
 10
-24.6702008524
 20
2.258651702
 10
-24.6568672771
 20
2.243184529
 10
-24.6432248973
 20
2.2282935966
 10
-24.6292832063
 20
2.2139758603
 10
-24.6150560099
 20
2.2002330389
 10
-24.6005578717
 20
2.1870672574
 10
-24.585800385
 20
2.1744772472
 10
-24.5708018823
 20
2.1624669407
 10
-24.5555745516
 20
2.1510347701
 10
-24.5401212415
 20
2.1401728008
 10
-24.5244615307
 20
2.1298850563
 10
-24.5086070358
 20
2.1201695787
 10
-24.492547865
 20
2.1110127956
 10
-24.4762995356
 20
2.1024173836
 10
-24.4598769154
 20
2.0943847764
 10
-24.4432676623
 20
2.0869041974
 10
-24.4264867217
 20
2.0799791926
 10
-24.4095489345
 20
2.073612307
  0
LWPOLYLINE
  5
240
100
AcDbEntity
  8
ASSI
100
AcDbPolyline
 62
7
  6
CONTINUOUS
 90
12
 70
0
 10
-24.8583796212
 20
2.7285667051
 10
-24.8444007581
 20
2.6405764478
 10
-24.8236339214
 20
2.5555834237
 10
-24.7961322925
 20
2.4746501154
 10
-24.7625374087
 20
2.3996431596
 10
-24.723400597
 20
2.3312180507
 10
-24.6788617063
 20
2.269220319
 10
-24.62939846
 20
2.214090683
 10
-24.5755054823
 20
2.1661512046
 10
-24.5177492471
 20
2.1256879658
 10
-24.4570385732
 20
2.0930612817
 10
-24.3942810998
 20
2.0683936531
  0
LINE
  5
241
100
AcDbEntity
  8
RACCORDO
100
AcDbLine
 62
7
  6
CONTINUOUS
 10
-24.8664786104
 20
2.842450223
 11
-24.8657560248
 21
2.8211982595
  0
LINE
  5
242
100
AcDbEntity
  8
ASSI
100
AcDbLine
 62
7
  6
CONTINUOUS
 10
-24.8664805245
 20
2.842531523
 11
-24.8657008756
 21
2.8195743619
  0
LWPOLYLINE
  5
243
100
AcDbEntity
  8
RACCORDO
100
AcDbPolyline
 62
253
  6
CONTINUOUS
 90
31
 70
0
 10
-24.7629549034
 20
2.7743658537
 10
-24.7879364417
 20
3.8118826196
 10
-24.8111159717
 20
4.8501092972
 10
-24.832493337
 20
5.8890390235
 10
-24.8520683905
 20
6.9286649292
 10
-24.8698410029
 20
7.9689801436
 10
-24.8858110617
 20
9.0099777946
 10
-24.89997846
 20
10.051651002
 10
-24.9123431012
 20
11.0939928792
 10
-24.9229049075
 20
12.1369965385
 10
-24.9316638081
 20
13.1806550853
 10
-24.9386197431
 20
14.2249616215
 10
-24.9437726687
 20
15.2699092472
 10
-24.9471225509
 20
16.3154910549
 10
-24.9486693662
 20
17.3617001342
 10
-24.948413105
 20
18.4085295747
 10
-24.9463537698
 20
19.4559724574
 10
-24.9424913734
 20
20.5040218591
 10
-24.9368259407
 20
21.5526708568
 10
-24.9293575104
 20
22.6019125204
 10
-24.9200861319
 20
23.6517399141
 10
-24.9090118645
 20
24.7021461007
 10
-24.8961347831
 20
25.7531241384
 10
-24.8814549739
 20
26.8046670804
 10
-24.8649725301
 20
27.8567679762
 10
-24.8466875634
 20
28.909419872
 10
-24.8266001962
 20
29.9626158111
 10
-24.8047105561
 20
31.0163488339
 10
-24.781018788
 20
32.0706119766
 10
-24.755525054
 20
33.1253982715
 10
-24.7282295258
 20
34.1807007477
  0
LWPOLYLINE
  5
244
100
AcDbEntity
  8
ASSI
100
AcDbPolyline
 62
253
  6
CONTINUOUS
 90
31
 70
0
 10
-24.7629549034
 20
2.7743658537
 10
-24.7879364417
 20
3.8118826196
 10
-24.8111159717
 20
4.8501092972
 10
-24.832493337
 20
5.8890390235
 10
-24.8520683905
 20
6.9286649292
 10
-24.8698410029
 20
7.9689801436
 10
-24.8858110617
 20
9.0099777946
 10
-24.89997846
 20
10.051651002
 10
-24.9123431012
 20
11.0939928792
 10
-24.9229049075
 20
12.1369965385
 10
-24.9316638081
 20
13.1806550853
 10
-24.9386197431
 20
14.2249616215
 10
-24.9437726687
 20
15.2699092472
 10
-24.9471225509
 20
16.3154910549
 10
-24.9486693662
 20
17.3617001342
 10
-24.948413105
 20
18.4085295747
 10
-24.9463537698
 20
19.4559724574
 10
-24.9424913734
 20
20.5040218591
 10
-24.9368259407
 20
21.5526708568
 10
-24.9293575104
 20
22.6019125204
 10
-24.9200861319
 20
23.6517399141
 10
-24.9090118645
 20
24.7021461007
 10
-24.8961347831
 20
25.7531241384
 10
-24.8814549739
 20
26.8046670804
 10
-24.8649725301
 20
27.8567679762
 10
-24.8466875634
 20
28.909419872
 10
-24.8266001962
 20
29.9626158111
 10
-24.8047105561
 20
31.0163488339
 10
-24.781018788
 20
32.0706119766
 10
-24.755525054
 20
33.1253982715
 10
-24.7282295258
 20
34.1807007477
  0
LWPOLYLINE
  5
245
100
AcDbEntity
  8
RACCORDO
100
AcDbPolyline
 62
7
  6
CONTINUOUS
 90
5
 70
0
 10
-24.9554960351
 20
6.9916371753
 10
-24.9359105918
 20
5.951857183
 10
-24.9145219121
 20
4.9127718686
 10
-24.89133016
 20
3.8743889937
 10
-24.8664785991
 20
2.8424492548
  0
LWPOLYLINE
  5
246
100
AcDbEntity
  8
ASSI
100
AcDbPolyline
 62
253
  6
CONTINUOUS
 90
25
 70
0
 10
-24.8317649543
 20
34.2420771447
 10
-24.8317652197
 20
34.2410942711
 10
-24.8314902482
 20
34.2382359149
 10
-24.8308054847
 20
34.2353719007
 10
-24.8297118657
 20
34.2325061457
 10
-24.8282108871
 20
34.2296425693
 10
-24.8263046017
 20
34.2267850882
 10
-24.8239956167
 20
34.2239376104
 10
-24.8212870903
 20
34.2211040307
 10
-24.8181827268
 20
34.2182882243
 10
-24.8146867722
 20
34.2154940427
 10
-24.8108040079
 20
34.2127253073
 10
-24.8065397444
 20
34.2099858051
 10
-24.8018998139
 20
34.2072792828
 10
-24.7968905626
 20
34.2046094422
 10
-24.7915188416
 20
34.2019799349
 10
-24.7857919979
 20
34.1993943573
 10
-24.7797178641
 20
34.1968562457
 10
-24.773304748
 20
34.1943690714
 10
-24.7665614207
 20
34.1919362362
 10
-24.7594971052
 20
34.1895610676
 10
-24.7521214635
 20
34.1872468141
 10
-24.7444445832
 20
34.1849966408
 10
-24.7364769641
 20
34.1828136255
 10
-24.7282295036
 20
34.1807007537
  0
LWPOLYLINE
  5
247
100
AcDbEntity
  8
RACCORDO
100
AcDbPolyline
 62
253
  6
CONTINUOUS
 90
25
 70
0
 10
-24.8317641196
 20
34.2421094005
 10
-24.8317652197
 20
34.2410942711
 10
-24.8314902482
 20
34.2382359149
 10
-24.8308054847
 20
34.2353719007
 10
-24.8297118657
 20
34.2325061457
 10
-24.8282108871
 20
34.2296425693
 10
-24.8263046017
 20
34.2267850882
 10
-24.8239956167
 20
34.2239376104
 10
-24.8212870903
 20
34.2211040307
 10
-24.8181827268
 20
34.2182882243
 10
-24.8146867722
 20
34.2154940427
 10
-24.8108040079
 20
34.2127253073
 10
-24.8065397444
 20
34.2099858051
 10
-24.8018998139
 20
34.2072792828
 10
-24.7968905626
 20
34.2046094422
 10
-24.7915188416
 20
34.2019799349
 10
-24.7857919979
 20
34.1993943573
 10
-24.7797178641
 20
34.1968562457
 10
-24.773304748
 20
34.1943690714
 10
-24.7665614207
 20
34.1919362362
 10
-24.7594971052
 20
34.1895610676
 10
-24.7521214635
 20
34.1872468141
 10
-24.7444445832
 20
34.1849966408
 10
-24.7364769641
 20
34.1828136255
 10
-24.7282295036
 20
34.1807007537
  0
LWPOLYLINE
  5
248
100
AcDbEntity
  8
RACCORDO
100
AcDbPolyline
 62
7
  6
CONTINUOUS
 90
24
 70
0
 10
-24.9081355348
 20
31.0826943127
 10
-24.9300346376
 20
30.0288219715
 10
-24.9501306321
 20
28.975486689
 10
-24.968423399
 20
27.9226946818
 10
-24.9849128156
 20
26.8704525182
 10
-24.9995987708
 20
25.8187673633
 10
-25.0124811601
 20
24.7676463296
 10
-25.0235598873
 20
23.7170964247
 10
-25.0328348816
 20
22.6671245841
 10
-25.0403060777
 20
21.6177378114
 10
-25.0459734173
 20
20.5689430492
 10
-25.0498368656
 20
19.5207472112
 10
-25.0518963935
 20
18.4731572576
 10
-25.0521519779
 20
17.426180123
 10
-25.05060362
 20
16.3798227261
 10
-25.0472513269
 20
15.3340920039
 10
-25.0420951116
 20
14.2889948556
 10
-25.0351350104
 20
13.2445381895
 10
-25.0263710664
 20
12.2007289562
 10
-25.0158033283
 20
11.1575740503
 10
-25.0034318704
 20
10.1150804214
 10
-24.9892567744
 20
9.0732551022
 10
-24.9732781288
 20
8.0321051898
 10
-24.9554960351
 20
6.9916371753
  0
LWPOLYLINE
  5
249
100
AcDbEntity
  8
ASSI
100
AcDbPolyline
 62
7
  6
CONTINUOUS
 90
10
 70
0
 10
-24.8317641295
 20
34.2421097986
 10
-24.9145669106
 20
30.7819825243
 10
-24.9790732384
 20
27.2563951649
 10
-25.0233664506
 20
23.7370258546
 10
-25.0474431442
 20
20.2241361748
 10
-25.0513014343
 20
16.7179858002
 10
-25.0349409111
 20
13.2188331941
 10
-24.9983626383
 20
9.7269370226
 10
-24.9415691946
 20
6.24255683
 10
-24.866478599
 20
2.8424492526
  0
LWPOLYLINE
  5
24A
100
AcDbEntity
  8
RACCORDO
100
AcDbPolyline
 62
7
  6
CONTINUOUS
 90
4
 70
0
 10
-24.8317641295
 20
34.2421097971
 10
-24.8589285975
 20
33.1920220628
 10
-24.8844334587
 20
32.1370969677
 10
-24.9081355348
 20
31.0826943127
  0
LWPOLYLINE
  5
24B
100
AcDbEntity
  8
RACCORDO
100
AcDbPolyline
 62
253
  6
CONTINUOUS
 90
49
 70
0
 10
-24.7282295258
 20
34.1807007477
 10
-24.7273730486
 20
34.2050428307
 10
-24.7261092092
 20
34.2294833833
 10
-24.7244388221
 20
34.2540069592
 10
-24.7223629911
 20
34.278598
 10
-24.7198830252
 20
34.303241027
 10
-24.7170004275
 20
34.3279206516
 10
-24.7137170369
 20
34.3526213879
 10
-24.7100349533
 20
34.3773275248
 10
-24.7059564522
 20
34.4020233177
 10
-24.7014841692
 20
34.4266931162
 10
-24.6966209526
 20
34.4513213874
 10
-24.6913697792
 20
34.4758925889
 10
-24.6857340223
 20
34.5003912103
 10
-24.679717284
 20
34.5248017699
 10
-24.6733232499
 20
34.5491088378
 10
-24.6665560209
 20
34.5732970841
 10
-24.6594199269
 20
34.597351213
 10
-24.6519193559
 20
34.62125596
 10
-24.6440591279
 20
34.644996224
 10
-24.6358442676
 20
34.6685570231
 10
-24.6272798171
 20
34.6919234294
 10
-24.6183712764
 20
34.715080689
 10
-24.6091243443
 20
34.7380141854
 10
-24.5995446904
 20
34.7607093963
 10
-24.5896384599
 20
34.7831520042
 10
-24.5794119955
 20
34.8053278345
 10
-24.5688715764
 20
34.8272228187
 10
-24.5580239664
 20
34.8488231408
 10
-24.5468761101
 20
34.8701151667
 10
-24.5354348534
 20
34.8910853816
 10
-24.5237075407
 20
34.9117205501
 10
-24.5117016784
 20
34.9320076557
 10
-24.4994246303
 20
34.9519338302
 10
-24.4868842697
 20
34.9714865088
 10
-24.4740886307
 20
34.9906533497
 10
-24.4610455714
 20
35.0094221735
 10
-24.4477634529
 20
35.0277811516
 10
-24.434250789
 20
35.0457186949
 10
-24.4205158974
 20
35.0632233741
 10
-24.4065676004
 20
35.0802841422
 10
-24.3924148245
 20
35.0968902557
 10
-24.3780662504
 20
35.1130311633
 10
-24.3635310853
 20
35.1286966888
 10
-24.3488186398
 20
35.143876962
 10
-24.3339379283
 20
35.1585623383
 10
-24.3188984635
 20
35.1727435936
 10
-24.3037099135
 20
35.1864117592
 10
-24.2883816797
 20
35.1995580574
  0
LWPOLYLINE
  5
24C
100
AcDbEntity
  8
ASSI
100
AcDbPolyline
 62
253
  6
CONTINUOUS
 90
46
 70
0
 10
-24.7282295258
 20
34.1807007477
 10
-24.7273730486
 20
34.2050428307
 10
-24.7261092092
 20
34.2294833833
 10
-24.7244388221
 20
34.2540069592
 10
-24.7223629911
 20
34.278598
 10
-24.7198830252
 20
34.303241027
 10
-24.7170004275
 20
34.3279206516
 10
-24.7137170369
 20
34.3526213879
 10
-24.7100349533
 20
34.3773275248
 10
-24.7059564522
 20
34.4020233177
 10
-24.7014841692
 20
34.4266931162
 10
-24.6966209526
 20
34.4513213874
 10
-24.6913697792
 20
34.4758925889
 10
-24.6857340223
 20
34.5003912103
 10
-24.679717284
 20
34.5248017699
 10
-24.6733232499
 20
34.5491088378
 10
-24.6665560209
 20
34.5732970841
 10
-24.6594199269
 20
34.597351213
 10
-24.6519193559
 20
34.62125596
 10
-24.6440591279
 20
34.644996224
 10
-24.6358442676
 20
34.6685570231
 10
-24.6272798171
 20
34.6919234294
 10
-24.6183712764
 20
34.715080689
 10
-24.6091243443
 20
34.7380141854
 10
-24.5995446904
 20
34.7607093963
 10
-24.5896384599
 20
34.7831520042
 10
-24.5794119955
 20
34.8053278345
 10
-24.5688715764
 20
34.8272228187
 10
-24.5580239664
 20
34.8488231408
 10
-24.5468761101
 20
34.8701151667
 10
-24.5354348534
 20
34.8910853816
 10
-24.5237075407
 20
34.9117205501
 10
-24.5117016784
 20
34.9320076557
 10
-24.4994246303
 20
34.9519338302
 10
-24.4868842697
 20
34.9714865088
 10
-24.4740886307
 20
34.9906533497
 10
-24.4610455714
 20
35.0094221735
 10
-24.4477634529
 20
35.0277811516
 10
-24.434250789
 20
35.0457186949
 10
-24.4205158974
 20
35.0632233741
 10
-24.4065676004
 20
35.0802841422
 10
-24.3924148245
 20
35.0968902557
 10
-24.3780662504
 20
35.1130311633
 10
-24.3635310853
 20
35.1286966888
 10
-24.3488186398
 20
35.143876962
 10
-24.3339379283
 20
35.1585623383
  0
LWPOLYLINE
  5
24D
100
AcDbEntity
  8
CURVE
100
AcDbPolyline
 62
252
  6
CONTINUOUS
 90
5
 70
0
 10
-15.7063725794
 20
6.4911328416
 10
-15.6877733337
 20
6.4927136262
 10
-15.669394604
 20
6.4952736027
 10
-15.6512631414
 20
6.4988111242
 10
-15.6334065844
 20
6.5033165035
  0
LINE
  5
24E
100
AcDbEntity
  8
CURVE
100
AcDbLine
 62
252
  6
CONTINUOUS
 10
-15.7063564292
 20
6.4911332256
 11
-15.7251493644
 21
6.4905303469
  0
LWPOLYLINE
  5
24F
100
AcDbEntity
  8
CURVE
100
AcDbPolyline
 62
252
  6
CONTINUOUS
 90
5
 70
0
 10
-15.8017480176
 20
6.4979040738
 10
-15.7824441333
 20
6.4945943516
 10
-15.7632281179
 20
6.4922620038
 10
-15.7441265008
 20
6.4909073939
 10
-15.7251658115
 20
6.4905308853
  0
LWPOLYLINE
  5
250
100
AcDbEntity
  8
CURVE
100
AcDbPolyline
 62
252
  6
CONTINUOUS
 90
16
 70
0
 10
-15.8017312521
 20
6.4979006131
 10
-15.8210966635
 20
6.5021867314
 10
-15.8404958611
 20
6.5074473566
 10
-15.8598965717
 20
6.5136713291
 10
-15.8792653712
 20
6.5208453327
 10
-15.8985688358
 20
6.5289560513
 10
-15.9177735415
 20
6.5379901688
 10
-15.9368460643
 20
6.5479343692
 10
-15.9557529802
 20
6.5587753363
 10
-15.9744608654
 20
6.5704997542
 10
-15.9929376412
 20
6.5830928662
 10
-16.0111566098
 20
6.5965341543
 10
-16.0290924189
 20
6.6108016599
 10
-16.0467197161
 20
6.6258734244
 10
-16.0640131491
 20
6.6417274893
 10
-16.0809473654
 20
6.6583418959
  0
LINE
  5
251
100
AcDbEntity
  8
CURVE
100
AcDbLine
 62
252
  6
CONTINUOUS
 10
-16.0048140826
 20
7.7480883521
 11
-15.9866156719
 21
7.7513016757
  0
LINE
  5
252
100
AcDbEntity
  8
CURVE
100
AcDbLine
 62
252
  6
CONTINUOUS
 10
-15.9867747091
 20
7.7512780693
 11
-15.9683216978
 21
7.7535211038
  0
LINE
  5
253
100
AcDbEntity
  8
CURVE
100
AcDbLine
 62
252
  6
CONTINUOUS
 10
-15.9684849013
 20
7.7535039244
 11
-15.9498089554
 21
7.7547766956
  0
LINE
  5
254
100
AcDbEntity
  8
CURVE
100
AcDbLine
 62
252
  6
CONTINUOUS
 10
-15.9499742398
 20
7.7547666056
 11
-15.9311081261
 21
7.7550714969
  0
LINE
  5
255
100
AcDbEntity
  8
CURVE
100
AcDbLine
 62
252
  6
CONTINUOUS
 10
-15.9312738176
 20
7.7550690502
 11
-15.9122498915
 21
7.7544085535
  0
LINE
  5
256
100
AcDbEntity
  8
CURVE
100
AcDbLine
 62
252
  6
CONTINUOUS
 10
-15.9124147275
 20
7.7544141957
 11
-15.8932649333
 21
7.7527909113
  0
LINE
  5
257
100
AcDbEntity
  8
CURVE
100
AcDbLine
 62
252
  6
CONTINUOUS
 10
-15.8934280624
 20
7.7528049793
 11
-15.874183933
 21
7.7502216159
  0
LINE
  5
258
100
AcDbEntity
  8
CURVE
100
AcDbLine
 62
252
  6
CONTINUOUS
 10
-15.8743449151
 20
7.7502443384
 11
-15.8550375721
 21
7.7467037134
  0
LINE
  5
259
100
AcDbEntity
  8
CURVE
100
AcDbLine
 62
252
  6
CONTINUOUS
 10
-15.8551963787
 20
7.7467352103
 11
-15.8358565323
 21
7.7422402494
  0
LINE
  5
25A
100
AcDbEntity
  8
CURVE
100
AcDbLine
 62
252
  6
CONTINUOUS
 10
-15.8360135459
 20
7.7422805324
 11
-15.8166709926
 21
7.7368355396
  0
LINE
  5
25B
100
AcDbEntity
  8
CURVE
100
AcDbLine
 62
252
  6
CONTINUOUS
 10
-15.8168268937
 20
7.7368845114
 11
-15.7975091216
 21
7.7304989783
  0
LINE
  5
25C
100
AcDbEntity
  8
CURVE
100
AcDbLine
 62
252
  6
CONTINUOUS
 10
-15.7976644358
 20
7.7305564316
 11
-15.7783985857
 21
7.7232412295
  0
LINE
  5
25D
100
AcDbEntity
  8
CURVE
100
AcDbLine
 62
252
  6
CONTINUOUS
 10
-15.7785535697
 20
7.7233068467
 11
-15.7593670511
 21
7.7150729575
  0
LINE
  5
25E
100
AcDbEntity
  8
CURVE
100
AcDbLine
 62
252
  6
CONTINUOUS
 10
-15.7595216932
 20
7.7151463102
 11
-15.7404421839
 21
7.7060048263
  0
LINE
  5
25F
100
AcDbEntity
  8
CURVE
100
AcDbLine
 62
252
  6
CONTINUOUS
 10
-15.7405962038
 20
7.7060853759
 11
-15.7216516503
 21
7.6960475
  0
LINE
  5
260
100
AcDbEntity
  8
CURVE
100
AcDbLine
 62
252
  6
CONTINUOUS
 10
-15.7218044993
 20
7.6961345974
 11
-15.7030231166
 21
7.6852116426
  0
LINE
  5
261
100
AcDbEntity
  8
CURVE
100
AcDbLine
 62
252
  6
CONTINUOUS
 10
-15.7031739772
 20
7.6853045284
 11
-15.684584249
 21
7.6735079184
  0
LINE
  5
262
100
AcDbEntity
  8
CURVE
100
AcDbLine
 62
252
  6
CONTINUOUS
 10
-15.6847320353
 20
7.6736057224
 11
-15.6663626058
 21
7.6609492523
  0
LINE
  5
263
100
AcDbEntity
  8
CURVE
100
AcDbLine
 62
252
  6
CONTINUOUS
 10
-15.6665060504
 20
7.6610510312
 11
-15.6483853137
 21
7.647557613
  0
LINE
  5
264
100
AcDbEntity
  8
CURVE
100
AcDbLine
 62
252
  6
CONTINUOUS
 10
-15.6485233159
 20
7.6476624985
 11
-15.6306793918
 21
7.6333572301
  0
LWPOLYLINE
  5
265
100
AcDbEntity
  8
RACCORDO
100
AcDbPolyline
 62
253
  6
CONTINUOUS
 90
55
 70
0
 10
-6.0675023377
 20
30.7609681814
 10
-6.0839184858
 20
30.7512286153
 10
-6.1002516095
 20
30.7409218981
 10
-6.1164915283
 20
30.730054591
 10
-6.1326282184
 20
30.7186336741
 10
-6.1486515242
 20
30.7066663501
 10
-6.1645511618
 20
30.6941600257
 10
-6.1803172826
 20
30.6811225817
 10
-6.1959399926
 20
30.6675623438
 10
-6.2114090628
 20
30.653487884
 10
-6.2267148144
 20
30.6389081683
 10
-6.2418477452
 20
30.6238324234
 10
-6.2567980465
 20
30.6082700965
 10
-6.2715563979
 20
30.5922310554
 10
-6.2861136018
 20
30.5757254785
 10
-6.3004602114
 20
30.5587637268
 10
-6.3145872884
 20
30.5413565409
 10
-6.3284860222
 20
30.5235149706
 10
-6.3421473633
 20
30.5052502633
 10
-6.3555627848
 20
30.486574005
 10
-6.3687239388
 20
30.4674980273
 10
-6.3816222746
 20
30.4480343377
 10
-6.3942497439
 20
30.4281952743
 10
-6.4065984878
 20
30.4079934055
 10
-6.4186604933
 20
30.3874414382
 10
-6.4304282385
 20
30.366552385
 10
-6.4418943944
 20
30.3453394851
 10
-6.4530515123
 20
30.3238161035
 10
-6.463892631
 20
30.3019958701
 10
-6.4744110034
 20
30.2798926051
 10
-6.4845997972
 20
30.2575202396
 10
-6.4944526522
 20
30.2348929437
 10
-6.5039634409
 20
30.2120250393
 10
-6.5131259941
 20
30.1889309247
 10
-6.5219345947
 20
30.1656252115
 10
-6.5303837611
 20
30.1421226585
 10
-6.5384680075
 20
30.1184380832
 10
-6.5461822898
 20
30.0945864626
 10
-6.5535218074
 20
30.0705829027
 10
-6.5604817871
 20
30.0464425723
 10
-6.5670578786
 20
30.0221807619
 10
-6.5732460013
 20
29.9978128068
 10
-6.5790421452
 20
29.973354056
 10
-6.5844426875
 20
29.948819986
 10
-6.5894442756
 20
29.9242261125
 10
-6.5940436713
 20
29.8995879129
 10
-6.5982380051
 20
29.8749209148
 10
-6.6020246625
 20
29.850240774
 10
-6.6054011694
 20
29.8255631854
 10
-6.6083654037
 20
29.8009038548
 10
-6.6109155488
 20
29.7762782737
 10
-6.6130499694
 20
29.7517017976
 10
-6.6147673123
 20
29.7271898945
 10
-6.6160665179
 20
29.7027581335
 10
-6.6169467715
 20
29.678421961
  0
LWPOLYLINE
  5
266
100
AcDbEntity
  8
ASSI
100
AcDbPolyline
 62
253
  6
CONTINUOUS
 90
55
 70
0
 10
-6.0675023377
 20
30.7609681814
 10
-6.0839184858
 20
30.7512286153
 10
-6.1002516095
 20
30.7409218981
 10
-6.1164915283
 20
30.730054591
 10
-6.1326282184
 20
30.7186336741
 10
-6.1486515242
 20
30.7066663501
 10
-6.1645511618
 20
30.6941600257
 10
-6.1803172826
 20
30.6811225817
 10
-6.1959399926
 20
30.6675623438
 10
-6.2114090628
 20
30.653487884
 10
-6.2267148144
 20
30.6389081683
 10
-6.2418477452
 20
30.6238324234
 10
-6.2567980465
 20
30.6082700965
 10
-6.2715563979
 20
30.5922310554
 10
-6.2861136018
 20
30.5757254785
 10
-6.3004602114
 20
30.5587637268
 10
-6.3145872884
 20
30.5413565409
 10
-6.3284860222
 20
30.5235149706
 10
-6.3421473633
 20
30.5052502633
 10
-6.3555627848
 20
30.486574005
 10
-6.3687239388
 20
30.4674980273
 10
-6.3816222746
 20
30.4480343377
 10
-6.3942497439
 20
30.4281952743
 10
-6.4065984878
 20
30.4079934055
 10
-6.4186604933
 20
30.3874414382
 10
-6.4304282385
 20
30.366552385
 10
-6.4418943944
 20
30.3453394851
 10
-6.4530515123
 20
30.3238161035
 10
-6.463892631
 20
30.3019958701
 10
-6.4744110034
 20
30.2798926051
 10
-6.4845997972
 20
30.2575202396
 10
-6.4944526522
 20
30.2348929437
 10
-6.5039634409
 20
30.2120250393
 10
-6.5131259941
 20
30.1889309247
 10
-6.5219345947
 20
30.1656252115
 10
-6.5303837611
 20
30.1421226585
 10
-6.5384680075
 20
30.1184380832
 10
-6.5461822898
 20
30.0945864626
 10
-6.5535218074
 20
30.0705829027
 10
-6.5604817871
 20
30.0464425723
 10
-6.5670578786
 20
30.0221807619
 10
-6.5732460013
 20
29.9978128068
 10
-6.5790421452
 20
29.973354056
 10
-6.5844426875
 20
29.948819986
 10
-6.5894442756
 20
29.9242261125
 10
-6.5940436713
 20
29.8995879129
 10
-6.5982380051
 20
29.8749209148
 10
-6.6020246625
 20
29.850240774
 10
-6.6054011694
 20
29.8255631854
 10
-6.6083654037
 20
29.8009038548
 10
-6.6109155488
 20
29.7762782737
 10
-6.6130499694
 20
29.7517017976
 10
-6.6147673123
 20
29.7271898945
 10
-6.6160665179
 20
29.7027581335
 10
-6.6169467715
 20
29.678421961
  0
LINE
  5
267
100
AcDbEntity
  8
RACCORDO
100
AcDbLine
 62
253
  6
CONTINUOUS
 10
-2.0178699394
 20
33.0680646506
 11
-6.0675023377
 21
30.7609681814
  0
LINE
  5
268
100
AcDbEntity
  8
ASSI
100
AcDbLine
 62
253
  6
CONTINUOUS
 10
-2.0178699394
 20
33.0680646506
 11
-6.0675023377
 21
30.7609681814
  0
LINE
  5
269
100
AcDbEntity
  8
CURVE
100
AcDbLine
 62
252
  6
CONTINUOUS
 10
-16.0225794903
 20
7.7439430806
 11
-16.0046615422
 21
7.74811765
  0
LINE
  5
26A
100
AcDbEntity
  8
CURVE
100
AcDbLine
 62
252
  6
CONTINUOUS
 10
-15.6308111045
 20
7.6334644661
 11
-15.6132718588
 21
7.6183723333
  0
LINE
  5
26B
100
AcDbEntity
  8
CURVE
100
AcDbLine
 62
252
  6
CONTINUOUS
 10
-15.6133966888
 20
7.6184812757
 11
-15.5961897338
 21
7.602627152
  0
LINE
  5
26C
100
AcDbEntity
  8
CURVE
100
AcDbLine
 62
252
  6
CONTINUOUS
 10
-15.5963073414
 20
7.6027372689
 11
-15.5794600356
 21
7.5861459161
  0
LINE
  5
26D
100
AcDbEntity
  8
CURVE
100
AcDbLine
 62
252
  6
CONTINUOUS
 10
-15.579570335
 20
7.5862567876
 11
-15.5631097831
 21
7.5689528549
  0
LINE
  5
26E
100
AcDbEntity
  8
CURVE
100
AcDbLine
 62
252
  6
CONTINUOUS
 10
-15.5632129422
 20
7.5690641736
 11
-15.5471659953
 21
7.5510721983
  0
LINE
  5
26F
100
AcDbEntity
  8
CURVE
100
AcDbLine
 62
252
  6
CONTINUOUS
 10
-15.5472624356
 20
7.5511837684
 11
-15.5316554343
 21
7.5325294472
  0
LINE
  5
270
100
AcDbEntity
  8
CURVE
100
AcDbLine
 62
252
  6
CONTINUOUS
 10
-15.5317457596
 20
7.5326411567
 11
-15.5166038358
 21
7.513355189
  0
LINE
  5
271
100
AcDbEntity
  8
CURVE
100
AcDbLine
 62
252
  6
CONTINUOUS
 10
-15.5166885449
 20
7.5134668937
 11
-15.5020366786
 21
7.4935812826
  0
LWPOLYLINE
  5
272
100
AcDbEntity
  8
CURVE
100
AcDbPolyline
 62
252
  6
CONTINUOUS
 90
5
 70
0
 10
-16.1873392098
 20
6.793840001
 10
-16.2005176844
 20
6.8155594147
 10
-16.2131232029
 20
6.8377574318
 10
-16.2251338133
 20
6.8603937215
 10
-16.2365280428
 20
6.8834299282
  0
LWPOLYLINE
  5
273
100
AcDbEntity
  8
RACCORDO
100
AcDbPolyline
 62
253
  6
CONTINUOUS
 90
55
 70
0
 10
-5.8104809451
 20
30.4315677803
 10
-5.8220499266
 20
30.4247607794
 10
-5.8335469079
 20
30.4175658213
 10
-5.8449718888
 20
30.4099829059
 10
-5.8563322117
 20
30.40200663
 10
-5.8676205343
 20
30.393642397
 10
-5.8788148299
 20
30.3849064163
 10
-5.8899147249
 20
30.3757980893
 10
-5.9009205929
 20
30.3663180147
 10
-5.9118115275
 20
30.3564841978
 10
-5.9225872867
 20
30.3462959851
 10
-5.9332481126
 20
30.3357540302
 10
-5.9437738249
 20
30.3248782989
 10
-5.9541641704
 20
30.313668158
 10
-5.9644194025
 20
30.3021242407
 10
-5.9745201004
 20
30.2902684127
 10
-5.9844659781
 20
30.2781000733
 10
-5.9942573217
 20
30.2656198231
 10
-6.0038755686
 20
30.2528513297
 10
-6.0133203858
 20
30.2397940515
 10
-6.0225921063
 20
30.22644853
 10
-6.0316731666
 20
30.2128400576
 10
-6.0405632035
 20
30.1989681385
 10
-6.0492625803
 20
30.1848332684
 10
-6.0577548229
 20
30.170462227
 10
-6.06603954
 20
30.1558545644
 10
-6.0741171228
 20
30.1410107304
 10
-6.0819722717
 20
30.125958854
 10
-6.0896045644
 20
30.1106985412
 10
-6.0970144232
 20
30.095230186
 10
-6.1041878147
 20
30.0795830986
 10
-6.1111242889
 20
30.0637569453
 10
-6.1178242958
 20
30.0477520598
 10
-6.1242751528
 20
30.0315987535
 10
-6.130476389
 20
30.0152967423
 10
-6.1364284752
 20
29.9988463104
 10
-6.1421201408
 20
29.9822786214
 10
-6.1475508938
 20
29.9655934465
 10
-6.1527212262
 20
29.9487910145
 10
-6.157621343
 20
29.9319031764
 10
-6.1622507283
 20
29.9149297832
 10
-6.1666098981
 20
29.8978709838
 10
-6.1706906057
 20
29.8807590758
 10
-6.1744923247
 20
29.8635939636
 10
-6.1780155815
 20
29.8463757428
 10
-6.1812537093
 20
29.8291369981
 10
-6.1842061707
 20
29.811877654
 10
-6.1868735031
 20
29.794597786
 10
-6.1892506515
 20
29.777330205
 10
-6.191337075
 20
29.7600745332
 10
-6.1931333144
 20
29.7428311483
 10
-6.1946359373
 20
29.725633994
 10
-6.1958437995
 20
29.7084943847
 10
-6.1967580452
 20
29.691401006
 10
-6.1973786744
 20
29.6743538577
  0
LWPOLYLINE
  5
274
100
AcDbEntity
  8
ASSI
100
AcDbPolyline
 62
253
  6
CONTINUOUS
 90
55
 70
0
 10
-5.8104809451
 20
30.4315677803
 10
-5.8220499266
 20
30.4247607794
 10
-5.8335469079
 20
30.4175658213
 10
-5.8449718888
 20
30.4099829059
 10
-5.8563322117
 20
30.40200663
 10
-5.8676205343
 20
30.393642397
 10
-5.8788148299
 20
30.3849064163
 10
-5.8899147249
 20
30.3757980893
 10
-5.9009205929
 20
30.3663180147
 10
-5.9118115275
 20
30.3564841978
 10
-5.9225872867
 20
30.3462959851
 10
-5.9332481126
 20
30.3357540302
 10
-5.9437738249
 20
30.3248782989
 10
-5.9541641704
 20
30.313668158
 10
-5.9644194025
 20
30.3021242407
 10
-5.9745201004
 20
30.2902684127
 10
-5.9844659781
 20
30.2781000733
 10
-5.9942573217
 20
30.2656198231
 10
-6.0038755686
 20
30.2528513297
 10
-6.0133203858
 20
30.2397940515
 10
-6.0225921063
 20
30.22644853
 10
-6.0316731666
 20
30.2128400576
 10
-6.0405632035
 20
30.1989681385
 10
-6.0492625803
 20
30.1848332684
 10
-6.0577548229
 20
30.170462227
 10
-6.06603954
 20
30.1558545644
 10
-6.0741171228
 20
30.1410107304
 10
-6.0819722717
 20
30.125958854
 10
-6.0896045644
 20
30.1106985412
 10
-6.0970144232
 20
30.095230186
 10
-6.1041878147
 20
30.0795830986
 10
-6.1111242889
 20
30.0637569453
 10
-6.1178242958
 20
30.0477520598
 10
-6.1242751528
 20
30.0315987535
 10
-6.130476389
 20
30.0152967423
 10
-6.1364284752
 20
29.9988463104
 10
-6.1421201408
 20
29.9822786214
 10
-6.1475508938
 20
29.9655934465
 10
-6.1527212262
 20
29.9487910145
 10
-6.157621343
 20
29.9319031764
 10
-6.1622507283
 20
29.9149297832
 10
-6.1666098981
 20
29.8978709838
 10
-6.1706906057
 20
29.8807590758
 10
-6.1744923247
 20
29.8635939636
 10
-6.1780155815
 20
29.8463757428
 10
-6.1812537093
 20
29.8291369981
 10
-6.1842061707
 20
29.811877654
 10
-6.1868735031
 20
29.794597786
 10
-6.1892506515
 20
29.777330205
 10
-6.191337075
 20
29.7600745332
 10
-6.1931333144
 20
29.7428311483
 10
-6.1946359373
 20
29.725633994
 10
-6.1958437995
 20
29.7084943847
 10
-6.1967580452
 20
29.691401006
 10
-6.1973786744
 20
29.6743538577
  0
LINE
  5
275
100
AcDbEntity
  8
RACCORDO
100
AcDbLine
 62
253
  6
CONTINUOUS
 10
-1.7921703986
 20
32.720820029
 11
-5.8104809451
 21
30.4315677803
  0
LINE
  5
276
100
AcDbEntity
  8
ASSI
100
AcDbLine
 62
253
  6
CONTINUOUS
 10
-1.7921703986
 20
32.720820029
 11
-5.8104809451
 21
30.4315677803
  0
LINE
  5
277
100
AcDbEntity
  8
CURVE
100
AcDbLine
 62
252
  6
CONTINUOUS
 10
-15.5021160943
 20
7.4936927775
 11
-15.4879794417
 21
7.4732395868
  0
LINE
  5
278
100
AcDbEntity
  8
CURVE
100
AcDbLine
 62
252
  6
CONTINUOUS
 10
-15.4880537103
 20
7.4733506061
 11
-15.4744567753
 21
7.452363071
  0
LINE
  5
279
100
AcDbEntity
  8
CURVE
100
AcDbLine
 62
252
  6
CONTINUOUS
 10
-15.4745258899
 20
7.4524732646
 11
-15.4614900149
 21
7.4309891464
  0
LINE
  5
27A
100
AcDbEntity
  8
CURVE
100
AcDbLine
 62
252
  6
CONTINUOUS
 10
-15.4373062396
 20
7.386903159
 11
-15.426128681
 21
7.3642662429
  0
LWPOLYLINE
  5
27B
100
AcDbEntity
  8
CURVE
100
AcDbPolyline
 62
252
  6
CONTINUOUS
 90
3
 70
0
 10
-16.2472863371
 20
6.9068355962
 10
-16.257389621
 20
6.9305822451
 10
-16.2668188195
 20
6.9546413943
  0
LINE
  5
27C
100
AcDbEntity
  8
CURVE
100
AcDbLine
 62
252
  6
CONTINUOUS
 10
-15.3964121965
 20
7.2943358352
 11
-15.3878161927
 21
7.2704479944
  0
LWPOLYLINE
  5
27D
100
AcDbEntity
  8
CURVE
100
AcDbPolyline
 62
252
  6
CONTINUOUS
 90
28
 70
0
 10
-16.3226620973
 20
7.2530895535
 10
-16.3223704642
 20
7.2328421776
 10
-16.3215700369
 20
7.2127278946
 10
-16.3202668077
 20
7.1927094154
 10
-16.3184667688
 20
7.1727494507
 10
-16.3161759123
 20
7.1528107115
 10
-16.3126294238
 20
7.1278755467
 10
-16.3083260914
 20
7.1029337637
 10
-16.3032666107
 20
7.078003844
 10
-16.2974516773
 20
7.053104269
 10
-16.2908844201
 20
7.0282602546
 10
-16.2835776997
 20
7.0035239548
 10
-16.2755468102
 20
6.978954258
 10
-16.2668070455
 20
6.9546100527
 10
-16.2573744117
 20
6.9305452694
 10
-16.247267764
 20
6.9067940063
 10
-16.2365066698
 20
6.8833854036
 10
-16.2251106965
 20
6.8603486015
 10
-16.2130997638
 20
6.8377144697
 10
-16.2004952014
 20
6.8155207964
 10
-16.1873186916
 20
6.7938070991
 10
-16.1735919165
 20
6.7726128955
 10
-16.1593368156
 20
6.7519767246
 10
-16.1445763583
 20
6.7319332111
 10
-16.1293337714
 20
6.7125160011
 10
-16.1136322815
 20
6.6937587408
 10
-16.0974954761
 20
6.6756931437
 10
-16.0809483855
 20
6.6583431926
  0
LWPOLYLINE
  5
27E
100
AcDbEntity
  8
0
100
AcDbPolyline
 62
7
  6
CONTINUOUS
 90
151
 70
0
 10
-17.7858852218
 20
16.627998743
 10
-17.7854152303
 20
16.6777421685
 10
-17.7841184569
 20
16.7272238306
 10
-17.7819949162
 20
16.7764437238
 10
-17.7790425969
 20
16.8254276567
 10
-17.7752635353
 20
16.8741498109
 10
-17.7706638373
 20
16.9225327343
 10
-17.7652438428
 20
16.9705648961
 10
-17.7590032823
 20
17.0182578027
 10
-17.751947378
 20
17.0655685465
 10
-17.74407292
 20
17.1125100816
 10
-17.7353832054
 20
17.1590694241
 10
-17.7258932481
 20
17.2051647496
 10
-17.7156051521
 20
17.2507813912
 10
-17.7045169456
 20
17.2959339712
 10
-17.692637559
 20
17.3405845899
 10
-17.6799626374
 20
17.3847454392
 10
-17.6664966801
 20
17.4284042788
 10
-17.6522619262
 20
17.471486551
 10
-17.6372605994
 20
17.5139817397
 10
-17.6214906584
 20
17.5559003005
 10
-17.604967973
 20
17.5971991231
 10
-17.5876897418
 20
17.6378829346
 10
-17.5696589626
 20
17.677946943
 10
-17.5509002273
 20
17.717333753
 10
-17.5314124386
 20
17.756042125
 10
-17.511196913
 20
17.7940732264
 10
-17.4902818875
 20
17.8313732645
 10
-17.4686694417
 20
17.867936959
 10
-17.4463577337
 20
17.9037695122
 10
-17.4233691389
 20
17.9388328487
 10
-17.3996975808
 20
17.9731334317
 10
-17.3753493795
 20
18.0066647183
 10
-17.3503655249
 20
18.0393691176
 10
-17.3247525004
 20
18.0712365678
 10
-17.2985040835
 20
18.1022770458
 10
-17.2716422222
 20
18.132463013
 10
-17.2441579282
 20
18.1618024072
 10
-17.2160604462
 20
18.1902872074
 10
-17.1873990876
 20
18.2178659327
 10
-17.1581815281
 20
18.2445294442
 10
-17.1284003573
 20
18.2702867949
 10
-17.0980822686
 20
18.2951137887
 10
-17.0672194927
 20
18.319015167
 10
-17.0358200541
 20
18.3419861059
 10
-17.0039343453
 20
18.3639880584
 10
-16.9715664719
 20
18.3850161926
 10
-16.93871258
 20
18.4050752592
 10
-16.9054111296
 20
18.4241410828
 10
-16.8716604053
 20
18.4422134095
 10
-16.8374623605
 20
18.4592924167
 10
-16.8028609609
 20
18.4753545743
 10
-16.7678528499
 20
18.4903993439
 10
-16.7324416068
 20
18.5044271925
 10
-16.6966816032
 20
18.5174160983
 10
-16.6605791841
 20
18.5293626063
 10
-16.6241282093
 20
18.5402701057
 10
-16.5873643224
 20
18.5501268417
 10
-16.5502776342
 20
18.5589335913
 10
-16.5128782144
 20
18.5666895196
 10
-16.4752316425
 20
18.573380455
 10
-16.4373487533
 20
18.5790031825
 10
-16.3992188688
 20
18.5835608669
 10
-16.3608752954
 20
18.5870489071
 10
-16.3223063394
 20
18.5894667444
 10
-16.2835238218
 20
18.5908148969
 10
-16.2445963153
 20
18.5910903805
 10
-16.2055340865
 20
18.5902916313
 10
-16.1663269669
 20
18.588420182
 10
-16.1270128696
 20
18.5854776957
 10
-16.0875836069
 20
18.5814622305
 10
-16.0480474325
 20
18.5763757072
 10
-16.0084669148
 20
18.5702255859
 10
-15.9688463529
 20
18.5630107796
 10
-15.9291814809
 20
18.5547323645
 10
-15.8895220116
 20
18.5454010478
 10
-15.8498679959
 20
18.5350157449
 10
-15.8102193829
 20
18.5235775405
 10
-15.7706257238
 20
18.5111003988
 10
-15.7310826697
 20
18.4975810971
 10
-15.6915945362
 20
18.4830228687
 10
-15.6522238633
 20
18.4674493646
 10
-15.6129788957
 20
18.4508627709
 10
-15.5738513226
 20
18.4332609225
 10
-15.5348788442
 20
18.4146609459
 10
-15.496051222
 20
18.3950562341
 10
-15.4573785963
 20
18.3744534254
 10
-15.4189292276
 20
18.3528895167
 10
-15.3807147752
 20
18.3303698191
 10
-15.3427234524
 20
18.3068890622
 10
-15.3049883454
 20
18.2824683733
 10
-15.2674987291
 20
18.2570992891
 10
-15.230265172
 20
18.2307903231
 10
-15.193352696
 20
18.2035880682
 10
-15.1567710903
 20
18.1754982569
 10
-15.1205103855
 20
18.1465152146
 10
-15.0846059635
 20
18.1166684251
 10
-15.0490516234
 20
18.0859514885
 10
-15.0138533615
 20
18.0543708705
 10
-14.9790648547
 20
18.0219753541
 10
-14.9446893649
 20
17.9887661065
 10
-14.9107234078
 20
17.954742032
 10
-14.8772105431
 20
17.9199485189
 10
-14.8441525646
 20
17.8843863804
 10
-14.8115474406
 20
17.84805488
 10
-14.7794329964
 20
17.8109970801
 10
-14.7478051362
 20
17.7732062175
 10
-14.7166677041
 20
17.7346891366
 10
-14.686070443
 20
17.6955093095
 10
-14.6560210743
 20
17.6556754745
 10
-14.6265116214
 20
17.6151789758
 10
-14.5975682884
 20
17.5740571915
 10
-14.5691835224
 20
17.5322973924
 10
-14.5413646111
 20
17.4899123937
 10
-14.5141600311
 20
17.4469778867
 10
-14.4875786342
 20
17.4035063039
 10
-14.4616113122
 20
17.3594852961
 10
-14.4362796163
 20
17.3149533775
 10
-14.4115772288
 20
17.2698975789
 10
-14.3875102064
 20
17.2243309544
 10
-14.3641186779
 20
17.1783310475
 10
-14.3414085809
 20
17.1319072974
 10
-14.319373734
 20
17.0850503444
 10
-14.2980361068
 20
17.0378095276
 10
-14.2773937381
 20
16.9901788581
 10
-14.2574483516
 20
16.9421644025
 10
-14.2382274639
 20
16.8938335769
 10
-14.2197321177
 20
16.8451856664
 10
-14.201961051
 20
16.7962214581
 10
-14.1849383485
 20
16.7470106126
 10
-14.1686668118
 20
16.6975594308
 10
-14.153143443
 20
16.6478616769
 10
-14.1383836508
 20
16.5979681985
 10
-14.1243852696
 20
16.5478675128
 10
-14.1111502827
 20
16.4975711632
 10
-14.098700351
 20
16.4471645286
 10
-14.0870397458
 20
16.3966619277
 10
-14.0761640512
 20
16.3460490901
 10
-14.0660819252
 20
16.2953685019
 10
-14.0567913594
 20
16.2446047252
 10
-14.04829423
 20
16.1937732425
 10
-14.0406050517
 20
16.142962911
 10
-14.033726952
 20
16.0921880879
 10
-14.027656716
 20
16.041434446
 10
-14.0223993773
 20
15.9907478059
 10
-14.0179546575
 20
15.9401165984
 10
-14.0143227647
 20
15.8895524173
 10
-14.011509493
 20
15.8391358169
 10
-14.0095167726
 20
15.7888936497
 10
-14.0083426485
 20
15.7387990728
 10
-14.0079871059
 20
15.6888520919
  0
LWPOLYLINE
  5
27F
100
AcDbEntity
  8
ASSI
100
AcDbPolyline
 62
7
  6
CONTINUOUS
 90
151
 70
0
 10
-17.7858852218
 20
16.627998743
 10
-17.7854152303
 20
16.6777421685
 10
-17.7841184569
 20
16.7272238306
 10
-17.7819949162
 20
16.7764437238
 10
-17.7790425969
 20
16.8254276567
 10
-17.7752635353
 20
16.8741498109
 10
-17.7706638373
 20
16.9225327343
 10
-17.7652438428
 20
16.9705648961
 10
-17.7590032823
 20
17.0182578027
 10
-17.751947378
 20
17.0655685465
 10
-17.74407292
 20
17.1125100816
 10
-17.7353832054
 20
17.1590694241
 10
-17.7258932481
 20
17.2051647496
 10
-17.7156051521
 20
17.2507813912
 10
-17.7045169456
 20
17.2959339712
 10
-17.692637559
 20
17.3405845899
 10
-17.6799626374
 20
17.3847454392
 10
-17.6664966801
 20
17.4284042788
 10
-17.6522619262
 20
17.471486551
 10
-17.6372605994
 20
17.5139817397
 10
-17.6214906584
 20
17.5559003005
 10
-17.604967973
 20
17.5971991231
 10
-17.5876897418
 20
17.6378829346
 10
-17.5696589626
 20
17.677946943
 10
-17.5509002273
 20
17.717333753
 10
-17.5314124386
 20
17.756042125
 10
-17.511196913
 20
17.7940732264
 10
-17.4902818875
 20
17.8313732645
 10
-17.4686694417
 20
17.867936959
 10
-17.4463577337
 20
17.9037695122
 10
-17.4233691389
 20
17.9388328487
 10
-17.3996975808
 20
17.9731334317
 10
-17.3753493795
 20
18.0066647183
 10
-17.3503655249
 20
18.0393691176
 10
-17.3247525004
 20
18.0712365678
 10
-17.2985040835
 20
18.1022770458
 10
-17.2716422222
 20
18.132463013
 10
-17.2441579282
 20
18.1618024072
 10
-17.2160604462
 20
18.1902872074
 10
-17.1873990876
 20
18.2178659327
 10
-17.1581815281
 20
18.2445294442
 10
-17.1284003573
 20
18.2702867949
 10
-17.0980822686
 20
18.2951137887
 10
-17.0672194927
 20
18.319015167
 10
-17.0358200541
 20
18.3419861059
 10
-17.0039343453
 20
18.3639880584
 10
-16.9715664719
 20
18.3850161926
 10
-16.93871258
 20
18.4050752592
 10
-16.9054111296
 20
18.4241410828
 10
-16.8716604053
 20
18.4422134095
 10
-16.8374623605
 20
18.4592924167
 10
-16.8028609609
 20
18.4753545743
 10
-16.7678528499
 20
18.4903993439
 10
-16.7324416068
 20
18.5044271925
 10
-16.6966816032
 20
18.5174160983
 10
-16.6605791841
 20
18.5293626063
 10
-16.6241282093
 20
18.5402701057
 10
-16.5873643224
 20
18.5501268417
 10
-16.5502776342
 20
18.5589335913
 10
-16.5128782144
 20
18.5666895196
 10
-16.4752316425
 20
18.573380455
 10
-16.4373487533
 20
18.5790031825
 10
-16.3992188688
 20
18.5835608669
 10
-16.3608752954
 20
18.5870489071
 10
-16.3223063394
 20
18.5894667444
 10
-16.2835238218
 20
18.5908148969
 10
-16.2445963153
 20
18.5910903805
 10
-16.2055340865
 20
18.5902916313
 10
-16.1663269669
 20
18.588420182
 10
-16.1270128696
 20
18.5854776957
 10
-16.0875836069
 20
18.5814622305
 10
-16.0480474325
 20
18.5763757072
 10
-16.0084669148
 20
18.5702255859
 10
-15.9688463529
 20
18.5630107796
 10
-15.9291814809
 20
18.5547323645
 10
-15.8895220116
 20
18.5454010478
 10
-15.8498679959
 20
18.5350157449
 10
-15.8102193829
 20
18.5235775405
 10
-15.7706257238
 20
18.5111003988
 10
-15.7310826697
 20
18.4975810971
 10
-15.6915945362
 20
18.4830228687
 10
-15.6522238633
 20
18.4674493646
 10
-15.6129788957
 20
18.4508627709
 10
-15.5738513226
 20
18.4332609225
 10
-15.5348788442
 20
18.4146609459
 10
-15.496051222
 20
18.3950562341
 10
-15.4573785963
 20
18.3744534254
 10
-15.4189292276
 20
18.3528895167
 10
-15.3807147752
 20
18.3303698191
 10
-15.3427234524
 20
18.3068890622
 10
-15.3049883454
 20
18.2824683733
 10
-15.2674987291
 20
18.2570992891
 10
-15.230265172
 20
18.2307903231
 10
-15.193352696
 20
18.2035880682
 10
-15.1567710903
 20
18.1754982569
 10
-15.1205103855
 20
18.1465152146
 10
-15.0846059635
 20
18.1166684251
 10
-15.0490516234
 20
18.0859514885
 10
-15.0138533615
 20
18.0543708705
 10
-14.9790648547
 20
18.0219753541
 10
-14.9446893649
 20
17.9887661065
 10
-14.9107234078
 20
17.954742032
 10
-14.8772105431
 20
17.9199485189
 10
-14.8441525646
 20
17.8843863804
 10
-14.8115474406
 20
17.84805488
 10
-14.7794329964
 20
17.8109970801
 10
-14.7478051362
 20
17.7732062175
 10
-14.7166677041
 20
17.7346891366
 10
-14.686070443
 20
17.6955093095
 10
-14.6560210743
 20
17.6556754745
 10
-14.6265116214
 20
17.6151789758
 10
-14.5975682884
 20
17.5740571915
 10
-14.5691835224
 20
17.5322973924
 10
-14.5413646111
 20
17.4899123937
 10
-14.5141600311
 20
17.4469778867
 10
-14.4875786342
 20
17.4035063039
 10
-14.4616113122
 20
17.3594852961
 10
-14.4362796163
 20
17.3149533775
 10
-14.4115772288
 20
17.2698975789
 10
-14.3875102064
 20
17.2243309544
 10
-14.3641186779
 20
17.1783310475
 10
-14.3414085809
 20
17.1319072974
 10
-14.319373734
 20
17.0850503444
 10
-14.2980361068
 20
17.0378095276
 10
-14.2773937381
 20
16.9901788581
 10
-14.2574483516
 20
16.9421644025
 10
-14.2382274639
 20
16.8938335769
 10
-14.2197321177
 20
16.8451856664
 10
-14.201961051
 20
16.7962214581
 10
-14.1849383485
 20
16.7470106126
 10
-14.1686668118
 20
16.6975594308
 10
-14.153143443
 20
16.6478616769
 10
-14.1383836508
 20
16.5979681985
 10
-14.1243852696
 20
16.5478675128
 10
-14.1111502827
 20
16.4975711632
 10
-14.098700351
 20
16.4471645286
 10
-14.0870397458
 20
16.3966619277
 10
-14.0761640512
 20
16.3460490901
 10
-14.0660819252
 20
16.2953685019
 10
-14.0567913594
 20
16.2446047252
 10
-14.04829423
 20
16.1937732425
 10
-14.0406050517
 20
16.142962911
 10
-14.033726952
 20
16.0921880879
 10
-14.027656716
 20
16.041434446
 10
-14.0223993773
 20
15.9907478059
 10
-14.0179546575
 20
15.9401165984
 10
-14.0143227647
 20
15.8895524173
 10
-14.011509493
 20
15.8391358169
 10
-14.0095167726
 20
15.7888936497
 10
-14.0083426485
 20
15.7387990728
 10
-14.0079871059
 20
15.6888520919
  0
LWPOLYLINE
  5
280
100
AcDbEntity
  8
CURVE
100
AcDbPolyline
 62
252
  6
CONTINUOUS
 90
89
 70
0
 10
-16.5728890026
 20
25.4735013767
 10
-16.5719511487
 20
25.5055177604
 10
-16.5702006096
 20
25.5369580472
 10
-16.5676498836
 20
25.5679056111
 10
-16.564311469
 20
25.598443826
 10
-16.5601945082
 20
25.628637484
 10
-16.5552947198
 20
25.6584770499
 10
-16.5496044661
 20
25.6879344069
 10
-16.5431161097
 20
25.7169814381
 10
-16.5358258693
 20
25.7455881563
 10
-16.5277453881
 20
25.7737170936
 10
-16.5188901656
 20
25.8013289118
 10
-16.5092757013
 20
25.8283842728
 10
-16.4989170811
 20
25.8548463852
 10
-16.4878277373
 20
25.8806886455
 10
-16.4760206885
 20
25.9058869968
 10
-16.4635089534
 20
25.9304173826
 10
-16.4483645138
 20
25.9576036608
 10
-16.432341307
 20
25.9838521349
 10
-16.4154639679
 20
26.0091288668
 10
-16.3977571319
 20
26.0333999183
 10
-16.3792454341
 20
26.0566313514
 10
-16.3599535096
 20
26.0787892278
 10
-16.3399059937
 20
26.0998396093
 10
-16.3191288663
 20
26.1197505169
 10
-16.297653486
 20
26.1384978068
 10
-16.2755125563
 20
26.1560592946
 10
-16.2527387806
 20
26.1724127954
 10
-16.2293648623
 20
26.1875361248
 10
-16.2054235048
 20
26.201407098
 10
-16.1809474116
 20
26.2140035305
 10
-16.1559689875
 20
26.2253045465
 10
-16.1305194429
 20
26.2352945062
 10
-16.1046296894
 20
26.2439590786
 10
-16.078330639
 20
26.251283933
 10
-16.0516532033
 20
26.2572547383
 10
-16.0246282941
 20
26.2618571637
 10
-15.9972868232
 20
26.2650768782
 10
-15.9696620238
 20
26.2669031609
 10
-15.941796415
 20
26.2673397305
 10
-15.9137348375
 20
26.2663939155
 10
-15.8855221318
 20
26.2640730447
 10
-15.8572031384
 20
26.2603844466
 10
-15.828822698
 20
26.2553354499
 10
-15.8004256512
 20
26.2489333831
 10
-15.7720564228
 20
26.2411866717
 10
-15.7437577744
 20
26.2321081274
 10
-15.7155720519
 20
26.221711659
 10
-15.6875416013
 20
26.2100111751
 10
-15.6597087685
 20
26.1970205842
 10
-15.6321158994
 20
26.182753795
 10
-15.6048053398
 20
26.1672247161
 10
-15.5778177521
 20
26.1504500947
 10
-15.5511870638
 20
26.1324580324
 10
-15.524945519
 20
26.1132794694
 10
-15.4991253616
 20
26.092945346
 10
-15.4737588355
 20
26.0714866022
 10
-15.4488781848
 20
26.0489341783
 10
-15.4245156534
 20
26.0253190145
 10
-15.4007031771
 20
26.0006732477
 10
-15.3774714585
 20
25.9750338016
 10
-15.3548508921
 20
25.9484387969
 10
-15.3328718725
 20
25.9209263539
 10
-15.311564794
 20
25.8925345932
 10
-15.2909600513
 20
25.8633016353
 10
-15.2710880387
 20
25.8332656007
 10
-15.2519778627
 20
25.8024657604
 10
-15.2336534781
 20
25.7709459882
 10
-15.2161375514
 20
25.7387513083
 10
-15.1994527494
 20
25.705926745
 10
-15.1836217386
 20
25.6725173226
 10
-15.1686671857
 20
25.6385680653
 10
-15.1546117574
 20
25.6041239975
 10
-15.1430681523
 20
25.5736150719
 10
-15.1322425537
 20
25.5427927695
 10
-15.1221472219
 20
25.511688081
 10
-15.1127944169
 20
25.4803319972
 10
-15.1041966813
 20
25.4487582658
 10
-15.0963676869
 20
25.4170116623
 10
-15.0893213881
 20
25.3851397191
 10
-15.0830717391
 20
25.3531899686
 10
-15.0776288603
 20
25.3212059841
 10
-15.0729875364
 20
25.289215502
 10
-15.0691387183
 20
25.2572422996
 10
-15.066073357
 20
25.2253101542
 10
-15.0637863431
 20
25.1934260367
 10
-15.0622883275
 20
25.1615296922
 10
-15.0615939009
 20
25.1295440596
 10
-15.0617176539
 20
25.0973920776
  0
LWPOLYLINE
  5
281
100
AcDbEntity
  8
RACCORDO
100
AcDbPolyline
 62
7
  6
CONTINUOUS
 90
44
 70
0
 10
-15.5180284465
 20
15.1226390527
 10
-15.5759650246
 20
15.1391676552
 10
-15.6335871485
 20
15.159880519
 10
-15.6907047612
 20
15.1847367691
 10
-15.747117719
 20
15.2136779596
 10
-15.8026550895
 20
15.2466485653
 10
-15.8571723955
 20
15.2836058948
 10
-15.9106362734
 20
15.3246015569
 10
-15.9627000091
 20
15.3694517031
 10
-16.0127865986
 20
15.4176685314
 10
-16.0606415115
 20
15.4689426694
 10
-16.1062539796
 20
15.5232039075
 10
-16.1494626849
 20
15.580222211
 10
-16.1901590694
 20
15.6398197768
 10
-16.2282094291
 20
15.7017734224
 10
-16.2634360663
 20
15.7657520768
 10
-16.2957216791
 20
15.8314795484
 10
-16.3250086518
 20
15.8987811118
 10
-16.3512265526
 20
15.9674591507
 10
-16.3743085262
 20
16.0373253557
 10
-16.394166848
 20
16.1081141048
 10
-16.4107165818
 20
16.1795067102
 10
-16.4239029596
 20
16.2512276634
 10
-16.4336955836
 20
16.3230883464
 10
-16.4400623616
 20
16.3949021745
 10
-16.4429700035
 20
16.4665427065
 10
-16.4423777426
 20
16.5376766776
 10
-16.4382836309
 20
16.6078220397
 10
-16.4307215541
 20
16.6766671144
 10
-16.4197146753
 20
16.7441005824
 10
-16.4052839494
 20
16.8099612804
 10
-16.3874038121
 20
16.8742254964
 10
-16.3661472321
 20
16.9364979554
 10
-16.3417631476
 20
16.996113278
 10
-16.3145062875
 20
17.052681413
 10
-16.2844076709
 20
17.1063356265
 10
-16.2514200997
 20
17.1572154247
 10
-16.2155114018
 20
17.2053205493
 10
-16.1769042965
 20
17.2503036592
 10
-16.1359524874
 20
17.2917893204
 10
-16.0929663027
 20
17.3295709813
 10
-16.0480188987
 20
17.3636879398
 10
-16.0011549783
 20
17.394159863
 10
-15.9525150452
 20
17.4209190002
  0
LWPOLYLINE
  5
282
100
AcDbEntity
  8
CURVE
100
AcDbPolyline
 62
252
  6
CONTINUOUS
 90
9
 70
0
 10
-15.366125287
 20
7.1977190857
 10
-15.360299741
 20
7.1733058736
 10
-15.3551836535
 20
7.1488672223
 10
-15.3507745521
 20
7.1244212499
 10
-15.347069964
 20
7.0999860745
 10
-15.344070675
 20
7.0755647836
 10
-15.3417905043
 20
7.0511003409
 10
-15.3402465294
 20
7.0265206796
 10
-15.3394558276
 20
7.0017537327
  0
LWPOLYLINE
  5
283
100
AcDbEntity
  8
CURVE
100
AcDbPolyline
 62
252
  6
CONTINUOUS
 90
19
 70
0
 10
-15.3394563113
 20
7.0017831717
 10
-15.3402480754
 20
7.0265529914
 10
-15.3417932641
 20
7.0511356277
 10
-15.344074819
 20
7.075603198
 10
-15.3470756813
 20
7.1000278199
 10
-15.3507820601
 20
7.1244665889
 10
-15.3551932346
 20
7.1489165132
 10
-15.3603117517
 20
7.1733595787
 10
-15.3661401582
 20
7.1977777717
 10
-15.3726784969
 20
7.2221464724
 10
-15.3799167947
 20
7.2464146363
 10
-15.3878425743
 20
7.2705246133
 10
-15.3964433584
 20
7.294418753
 10
-15.4057068626
 20
7.3180444514
 10
-15.4156215746
 20
7.3413692894
 10
-15.4261761748
 20
7.3643658942
 10
-15.4373593436
 20
7.3870068929
 10
-15.4491582366
 20
7.4092630884
 10
-15.4615539087
 20
7.4310979855
  0
LINE
  5
284
100
AcDbEntity
  8
CURVE
100
AcDbLine
 62
252
  6
CONTINUOUS
 10
-15.7915546813
 20
4.3137002807
 11
-15.8121164766
 21
5.4565608347
  0
LINE
  5
285
100
AcDbEntity
  8
CURVE
100
AcDbLine
 62
252
  6
CONTINUOUS
 10
-15.8593995493
 20
8.794070956
 11
-15.8703580621
 21
9.8442840147
  0
LWPOLYLINE
  5
286
100
AcDbEntity
  8
CURVE
100
AcDbPolyline
 62
252
  6
CONTINUOUS
 90
3
 70
0
 10
-15.8671234859
 20
21.5043333344
 10
-15.8511194938
 20
22.9306682789
 10
-15.8466409751
 20
23.2833785527
  0
LWPOLYLINE
  5
287
100
AcDbEntity
  8
CURVE
100
AcDbPolyline
 62
252
  6
CONTINUOUS
 90
6
 70
0
 10
-16.3226620973
 20
7.2530895535
 10
-16.3223132583
 20
7.2780441263
 10
-16.3211906567
 20
7.3023819965
 10
-16.3193116949
 20
7.3261832104
 10
-16.3166937753
 20
7.3495278145
 10
-16.3133513036
 20
7.3724790506
  0
LWPOLYLINE
  5
288
100
AcDbEntity
  8
CURVE
100
AcDbPolyline
 62
252
  6
CONTINUOUS
 90
3
 70
0
 10
-15.7803567681
 20
27.3383685691
 10
-15.7504971319
 20
28.7688078049
 10
-15.7436715596
 20
29.0748338167
  0
LWPOLYLINE
  5
289
100
AcDbEntity
  8
CURVE
100
AcDbPolyline
 62
252
  6
CONTINUOUS
 90
89
 70
0
 10
-15.0617176539
 20
25.0973920776
 10
-15.062664677
 20
25.0653892038
 10
-15.0644202345
 20
25.0339628458
 10
-15.0669720765
 20
25.0030299844
 10
-15.0703079528
 20
24.9725076001
 10
-15.0744189413
 20
24.9423311579
 10
-15.0793094317
 20
24.9125100594
 10
-15.0849871415
 20
24.8830721905
 10
-15.0914597882
 20
24.8540454369
 10
-15.0987312306
 20
24.8254595876
 10
-15.1067898922
 20
24.7973520446
 10
-15.1156203375
 20
24.769762113
 10
-15.1252071312
 20
24.7427290979
 10
-15.1355352707
 20
24.7162897609
 10
-15.146591485
 20
24.6904706888
 10
-15.1583629359
 20
24.665295925
 10
-15.170836785
 20
24.6407895128
 10
-15.1859353737
 20
24.6136310704
 10
-15.2019103512
 20
24.5874107904
 10
-15.2187374564
 20
24.5621624824
 10
-15.2363924283
 20
24.5379199563
 10
-15.2548510058
 20
24.5147170218
 10
-15.2740889279
 20
24.4925874887
 10
-15.2940819333
 20
24.4715651667
 10
-15.3148044033
 20
24.4516819136
 10
-15.3362252871
 20
24.4329617787
 10
-15.3583121761
 20
24.4154268591
 10
-15.3810326618
 20
24.3990992521
 10
-15.4043543357
 20
24.384001055
 10
-15.4282447891
 20
24.3701543648
 10
-15.4526716135
 20
24.357581279
 10
-15.4776026845
 20
24.3463025878
 10
-15.5030070138
 20
24.3363338546
 10
-15.5288538974
 20
24.3276893358
 10
-15.5551126312
 20
24.3203832878
 10
-15.5817525111
 20
24.3144299672
 10
-15.608742833
 20
24.3098436304
 10
-15.6360528929
 20
24.3066385339
 10
-15.6636496415
 20
24.3048253207
 10
-15.6914906488
 20
24.30440018
 10
-15.7195311398
 20
24.3053556877
 10
-15.7477263391
 20
24.3076844196
 10
-15.7760314719
 20
24.3113789515
 10
-15.8044017628
 20
24.3164318593
 10
-15.8327924367
 20
24.3228357188
 10
-15.8611591117
 20
24.3305820325
 10
-15.8894589781
 20
24.3396580094
 10
-15.9176496192
 20
24.3500497855
 10
-15.9456886186
 20
24.3617434964
 10
-15.9735335596
 20
24.3747252779
 10
-16.0011420257
 20
24.388981266
 10
-16.0284716004
 20
24.4044975962
 10
-16.0554815343
 20
24.4212575725
 10
-16.082137748
 20
24.4392331708
 10
-16.1084078291
 20
24.4583935353
 10
-16.1342593653
 20
24.4787078099
 10
-16.1596599445
 20
24.5001451388
 10
-16.1845771543
 20
24.5226746659
 10
-16.2089785825
 20
24.5462655354
 10
-16.2328321116
 20
24.570885699
 10
-16.256106803
 20
24.5964983395
 10
-16.278772013
 20
24.6230654472
 10
-16.3007970978
 20
24.6505490127
 10
-16.3221514136
 20
24.6789110263
 10
-16.3428043168
 20
24.7081134786
 10
-16.3627251634
 20
24.7381183599
 10
-16.3818845974
 20
24.7688865208
 10
-16.4002584125
 20
24.800374252
 10
-16.4178236904
 20
24.8325367043
 10
-16.4345575126
 20
24.8653290282
 10
-16.4504369604
 20
24.8987063747
 10
-16.4654391155
 20
24.9326238945
 10
-16.4795410593
 20
24.9670367382
 10
-16.4911242807
 20
24.9975189031
 10
-16.5019883304
 20
25.0283150991
 10
-16.5121208078
 20
25.0593944623
 10
-16.5215093124
 20
25.0907261292
 10
-16.5301411995
 20
25.1222764914
 10
-16.5380028468
 20
25.1540009617
 10
-16.5450803879
 20
25.1858522083
 10
-16.5513599565
 20
25.2177828995
 10
-16.5568314687
 20
25.2497496552
 10
-16.5614999713
 20
25.2817249021
 10
-16.5653742935
 20
25.3136850188
 10
-16.5684632646
 20
25.3456063838
 10
-16.5707717575
 20
25.3774820862
 10
-16.5722888183
 20
25.4093720577
 10
-16.5729995368
 20
25.4413529405
 10
-16.5728890026
 20
25.4735013767
  0
LWPOLYLINE
  5
28A
100
AcDbEntity
  8
ASSI
100
AcDbPolyline
 62
7
  6
CONTINUOUS
 90
15
 70
0
 10
-15.1505407978
 20
15.0883734254
 10
-15.1723647246
 20
15.0825377746
 10
-15.1944023838
 20
15.077448656
 10
-15.2166400759
 20
15.0731092334
 10
-15.2390639771
 20
15.0695222043
 10
-15.261660148
 20
15.0666897984
 10
-15.284414542
 20
15.0646137766
 10
-15.3073130141
 20
15.0632954293
 10
-15.3303413298
 20
15.0627355761
 10
-15.3534851739
 20
15.062934565
 10
-15.3767301593
 20
15.0638922722
 10
-15.4000618362
 20
15.0656081026
 10
-15.4234657006
 20
15.0680809894
 10
-15.4469272039
 20
15.0713093953
 10
-15.4704317617
 20
15.0752913136
  0
LWPOLYLINE
  5
28B
100
AcDbEntity
  8
RACCORDO
100
AcDbPolyline
 62
7
  6
CONTINUOUS
 90
9
 70
0
 10
-15.1320673443
 20
15.1218533503
 10
-15.177803066
 20
15.111549424
 10
-15.2247824075
 20
15.1040711992
 10
-15.2724438859
 20
15.0995586287
 10
-15.3206879436
 20
15.0980430147
 10
-15.3694881925
 20
15.0995581083
 10
-15.4187510663
 20
15.1041455765
 10
-15.4683089346
 20
15.1118331611
 10
-15.5180284465
 20
15.1226390527
  0
LWPOLYLINE
  5
28C
100
AcDbEntity
  8
ASSI
100
AcDbPolyline
 62
7
  6
CONTINUOUS
 90
66
 70
0
 10
-15.4704317617
 20
15.0752913136
 10
-15.4939647626
 20
15.0800242689
 10
-15.5175115776
 20
15.085505319
 10
-15.5410575692
 20
15.0917310567
 10
-15.5645881004
 20
15.0986976119
 10
-15.5880885438
 20
15.1064006539
 10
-15.6115442906
 20
15.1148353942
 10
-15.6349407599
 20
15.1239965895
 10
-15.6582634076
 20
15.1338785448
 10
-15.6814977355
 20
15.1444751172
 10
-15.7046293004
 20
15.1557797195
 10
-15.7276437227
 20
15.1677853243
 10
-15.7505266959
 20
15.1804844684
 10
-15.7732639952
 20
15.1938692578
 10
-15.7958414862
 20
15.2079313718
 10
-15.8182451338
 20
15.2226620689
 10
-15.8404610113
 20
15.2380521921
 10
-15.8624753085
 20
15.2540921743
 10
-15.8842743403
 20
15.2707720445
 10
-15.9058445558
 20
15.2880814338
 10
-15.9271725462
 20
15.3060095821
 10
-15.9482450532
 20
15.3245453446
 10
-15.9690489774
 20
15.3436771988
 10
-15.9895713863
 20
15.3633932517
 10
-16.0097995224
 20
15.3836812471
 10
-16.0297208113
 20
15.4045285732
 10
-16.049322869
 20
15.4259222705
 10
-16.0685935103
 20
15.4478490401
 10
-16.0875207559
 20
15.4702952513
 10
-16.1060928399
 20
15.4932469509
 10
-16.1242982171
 20
15.5166898712
 10
-16.1421255706
 20
15.5406094393
 10
-16.1595638181
 20
15.5649907859
 10
-16.1766021195
 20
15.5898187547
 10
-16.193229883
 20
15.6150779117
 10
-16.2094367724
 20
15.6407525549
 10
-16.2252127128
 20
15.666826724
 10
-16.2405478972
 20
15.6932842105
 10
-16.2554327929
 20
15.7201085673
 10
-16.2698581468
 20
15.7472831195
 10
-16.2838149916
 20
15.7747909745
 10
-16.2972946512
 20
15.8026150322
 10
-16.3102887463
 20
15.8307379963
 10
-16.3227891991
 20
15.8591423846
 10
-16.3347882389
 20
15.8878105399
 10
-16.3462784068
 20
15.9167246409
 10
-16.35725256
 20
15.9458667138
 10
-16.3677038766
 20
15.9752186426
 10
-16.3776258596
 20
16.0047621811
 10
-16.3870123413
 20
16.0344789642
 10
-16.3958574866
 20
16.0643505187
 10
-16.4041557971
 20
16.0943582753
 10
-16.4119021142
 20
16.1244835803
 10
-16.4190916226
 20
16.1547077065
 10
-16.425719853
 20
16.1850118657
 10
-16.4317826851
 20
16.2153772197
 10
-16.4372763499
 20
16.2457848922
 10
-16.4421974325
 20
16.2762159808
 10
-16.4465428736
 20
16.3066515683
 10
-16.4503099721
 20
16.3370727351
 10
-16.4534963861
 20
16.36746057
 10
-16.4561001349
 20
16.3977961831
 10
-16.4581195998
 20
16.4280607165
 10
-16.4595535256
 20
16.4582353567
 10
-16.4604010208
 20
16.4883013462
 10
-16.4606615586
 20
16.5182399947
  0
LWPOLYLINE
  5
28D
100
AcDbEntity
  8
RACCORDO
100
AcDbPolyline
 62
253
  6
CONTINUOUS
 90
82
 70
0
 10
-15.600093779
 20
15.2538998523
 10
-15.587672763
 20
15.2509359676
 10
-15.5744175647
 20
15.2480463359
 10
-15.5603328944
 20
15.2452854647
 10
-15.5453840497
 20
15.2427048934
 10
-15.5296202753
 20
15.2403750365
 10
-15.5131743699
 20
15.2383746092
 10
-15.4960663809
 20
15.2367628006
 10
-15.4783015619
 20
15.2355994421
 10
-15.4599922009
 20
15.2349498536
 10
-15.4411617555
 20
15.2348704243
 10
-15.4218234886
 20
15.2354188456
 10
-15.4020756179
 20
15.2366485076
 10
-15.3819710903
 20
15.2386086625
 10
-15.3615045603
 20
15.2413541112
 10
-15.340689349
 20
15.2449416457
 10
-15.3196088935
 20
15.2494151194
 10
-15.298242146
 20
15.2548392302
 10
-15.2764560108
 20
15.2613246722
 10
-15.2543137459
 20
15.2689430007
 10
-15.2318474617
 20
15.2777776188
 10
-15.2089002293
 20
15.2880071919
 10
-15.1855270759
 20
15.2997492683
 10
-15.1618244049
 20
15.313105703
 10
-15.1377290985
 20
15.3282847781
 10
-15.1133241051
 20
15.345436535
 10
-15.0887517044
 20
15.3646771822
 10
-15.0640706741
 20
15.3861986575
 10
-15.0394273342
 20
15.4101391822
 10
-15.0149813158
 20
15.4366306416
 10
-14.9908457479
 20
15.465872912
 10
-14.9671975578
 20
15.4980196665
 10
-14.9442648911
 20
15.533164812
 10
-14.922267684
 20
15.5714139048
 10
-14.9013815285
 20
15.6129798481
 10
-14.8819271618
 20
15.6578092228
 10
-14.8643046988
 20
15.7055280298
 10
-14.8487040141
 20
15.7561687691
 10
-14.8353602585
 20
15.8096139541
 10
-14.8245952743
 20
15.8651207865
 10
-14.8165278177
 20
15.9224698974
 10
-14.8112487351
 20
15.9815484772
 10
-14.8088612992
 20
16.0416641706
 10
-14.8093747088
 20
16.1024831361
 10
-14.8127840235
 20
16.1638947053
 10
-14.8190596142
 20
16.2255044075
 10
-14.8281566484
 20
16.2870718066
 10
-14.8400238544
 20
16.348387098
 10
-14.854566022
 20
16.4091033947
 10
-14.8718011705
 20
16.4693501438
 10
-14.8915573378
 20
16.5285718655
 10
-14.9132779446
 20
16.5854568019
 10
-14.9366663648
 20
16.6397743936
 10
-14.9615265859
 20
16.6915511854
 10
-14.9872309639
 20
16.7400074877
 10
-15.0132576319
 20
16.7847905617
 10
-15.0395415176
 20
16.8263543767
 10
-15.0661288182
 20
16.865186436
 10
-15.0929126878
 20
16.9014496167
 10
-15.1196439095
 20
16.9351014572
 10
-15.1462248883
 20
16.9662962592
 10
-15.1724747025
 20
16.9950769867
 10
-15.1983044302
 20
17.0215844847
 10
-15.2237929593
 20
17.0461001175
 10
-15.2488307116
 20
17.0686908993
 10
-15.2733501874
 20
17.089458854
 10
-15.2975320035
 20
17.1086901283
 10
-15.3213667531
 20
17.1264815312
 10
-15.344754421
 20
17.1428583157
 10
-15.3677636224
 20
17.1579600085
 10
-15.3904068923
 20
17.1718720837
 10
-15.4125959837
 20
17.1846148321
 10
-15.4342568964
 20
17.1962231132
 10
-15.4553745497
 20
17.2067648366
 10
-15.4759070777
 20
17.2162922909
 10
-15.4957433615
 20
17.224829563
 10
-15.5148731492
 20
17.2324486019
 10
-15.5332671565
 20
17.2392108679
 10
-15.5507884751
 20
17.2451417686
 10
-15.5673834666
 20
17.2503020102
 10
-15.5830823255
 20
17.2547756013
 10
-15.5978771885
 20
17.2586291801
  0
LWPOLYLINE
  5
28E
100
AcDbEntity
  8
0
100
AcDbPolyline
 62
7
  6
CONTINUOUS
 90
82
 70
0
 10
-14.5717125006
 20
16.0486666692
 10
-14.5719730384
 20
16.0786053177
 10
-14.5728205336
 20
16.1086713072
 10
-14.5742544594
 20
16.1388459474
 10
-14.5762739244
 20
16.1691104808
 10
-14.5788776731
 20
16.1994460939
 10
-14.5820640872
 20
16.2298339288
 10
-14.5858311856
 20
16.2602550955
 10
-14.5901766268
 20
16.2906906831
 10
-14.5950977093
 20
16.3211217717
 10
-14.6005913742
 20
16.3515294442
 10
-14.6066542062
 20
16.3818947981
 10
-14.6132824366
 20
16.4121989573
 10
-14.620471945
 20
16.4424230836
 10
-14.6282182621
 20
16.4725483886
 10
-14.6365165726
 20
16.5025561452
 10
-14.6453617179
 20
16.5324276997
 10
-14.6547481996
 20
16.5621444827
 10
-14.6646701827
 20
16.5916880213
 10
-14.6751214992
 20
16.6210399501
 10
-14.6860956524
 20
16.6501820229
 10
-14.6975858203
 20
16.679096124
 10
-14.7095848602
 20
16.7077642792
 10
-14.722085313
 20
16.7361686675
 10
-14.735079408
 20
16.7642916317
 10
-14.7485590676
 20
16.7921156894
 10
-14.7625159124
 20
16.8196235443
 10
-14.7769412663
 20
16.8467980965
 10
-14.791826162
 20
16.8736224534
 10
-14.8071613465
 20
16.9000799398
 10
-14.8229372868
 20
16.926154109
 10
-14.8391441762
 20
16.9518287522
 10
-14.8557719398
 20
16.9770879092
 10
-14.8728102411
 20
17.001915878
 10
-14.8902484887
 20
17.0262972246
 10
-14.9080758421
 20
17.0502167926
 10
-14.9262812194
 20
17.073659713
 10
-14.9448533033
 20
17.0966114125
 10
-14.9637805489
 20
17.1190576238
 10
-14.9830511902
 20
17.1409843933
 10
-15.002653248
 20
17.1623780907
 10
-15.0225745368
 20
17.1832254168
 10
-15.0428026729
 20
17.2035134122
 10
-15.0633250818
 20
17.2232294651
 10
-15.084129006
 20
17.2423613193
 10
-15.105201513
 20
17.2608970818
 10
-15.1265295034
 20
17.2788252301
 10
-15.1480997189
 20
17.2961346194
 10
-15.1698987508
 20
17.3128144895
 10
-15.1919130479
 20
17.3288544717
 10
-15.2141289254
 20
17.3442445949
 10
-15.2365325731
 20
17.3589752921
 10
-15.2591100641
 20
17.3730374061
 10
-15.2818473633
 20
17.3864221954
 10
-15.3047303366
 20
17.3991213396
 10
-15.3277447589
 20
17.4111269444
 10
-15.3508763237
 20
17.4224315466
 10
-15.3741106516
 20
17.4330281191
 10
-15.3974332993
 20
17.4429100744
 10
-15.4208297686
 20
17.4520712697
 10
-15.4442855154
 20
17.46050601
 10
-15.4677859588
 20
17.468209052
 10
-15.49131649
 20
17.4751756071
 10
-15.5148624817
 20
17.4814013449
 10
-15.5384092967
 20
17.486882395
 10
-15.5619422976
 20
17.4916153503
 10
-15.5854468553
 20
17.4955972685
 10
-15.6089083586
 20
17.4988256745
 10
-15.6323122231
 20
17.5012985613
 10
-15.6556438999
 20
17.5030143916
 10
-15.6788888853
 20
17.5039720989
 10
-15.7020327294
 20
17.5041710878
 10
-15.7250610451
 20
17.5036112346
 10
-15.7479595172
 20
17.5022928873
 10
-15.7707139112
 20
17.5002168654
 10
-15.7933100821
 20
17.4973844596
 10
-15.8157339834
 20
17.4937974304
 10
-15.8379716754
 20
17.4894580078
 10
-15.8600093346
 20
17.4843688893
 10
-15.8818332614
 20
17.4785332384
 10
-15.9034298894
 20
17.4719546829
 10
-15.9061664452
 20
17.4710627186
  0
LWPOLYLINE
  5
28F
100
AcDbEntity
  8
ASSI
100
AcDbPolyline
 62
7
  6
CONTINUOUS
 90
76
 70
0
 10
-14.5717125006
 20
16.0486666692
 10
-14.5719730384
 20
16.0786053177
 10
-14.5728205336
 20
16.1086713072
 10
-14.5742544594
 20
16.1388459474
 10
-14.5762739244
 20
16.1691104808
 10
-14.5788776731
 20
16.1994460939
 10
-14.5820640872
 20
16.2298339288
 10
-14.5858311856
 20
16.2602550955
 10
-14.5901766268
 20
16.2906906831
 10
-14.5950977093
 20
16.3211217717
 10
-14.6005913742
 20
16.3515294442
 10
-14.6066542062
 20
16.3818947981
 10
-14.6132824366
 20
16.4121989573
 10
-14.620471945
 20
16.4424230836
 10
-14.6282182621
 20
16.4725483886
 10
-14.6365165726
 20
16.5025561452
 10
-14.6453617179
 20
16.5324276997
 10
-14.6547481996
 20
16.5621444827
 10
-14.6646701827
 20
16.5916880213
 10
-14.6751214992
 20
16.6210399501
 10
-14.6860956524
 20
16.6501820229
 10
-14.6975858203
 20
16.679096124
 10
-14.7095848602
 20
16.7077642792
 10
-14.722085313
 20
16.7361686675
 10
-14.735079408
 20
16.7642916317
 10
-14.7485590676
 20
16.7921156894
 10
-14.7625159124
 20
16.8196235443
 10
-14.7769412663
 20
16.8467980965
 10
-14.791826162
 20
16.8736224534
 10
-14.8071613465
 20
16.9000799398
 10
-14.8229372868
 20
16.926154109
 10
-14.8391441762
 20
16.9518287522
 10
-14.8557719398
 20
16.9770879092
 10
-14.8728102411
 20
17.001915878
 10
-14.8902484887
 20
17.0262972246
 10
-14.9080758421
 20
17.0502167926
 10
-14.9262812194
 20
17.073659713
 10
-14.9448533033
 20
17.0966114125
 10
-14.9637805489
 20
17.1190576238
 10
-14.9830511902
 20
17.1409843933
 10
-15.002653248
 20
17.1623780907
 10
-15.0225745368
 20
17.1832254168
 10
-15.0428026729
 20
17.2035134122
 10
-15.0633250818
 20
17.2232294651
 10
-15.084129006
 20
17.2423613193
 10
-15.105201513
 20
17.2608970818
 10
-15.1265295034
 20
17.2788252301
 10
-15.1480997189
 20
17.2961346194
 10
-15.1698987508
 20
17.3128144895
 10
-15.1919130479
 20
17.3288544717
 10
-15.2141289254
 20
17.3442445949
 10
-15.2365325731
 20
17.3589752921
 10
-15.2591100641
 20
17.3730374061
 10
-15.2818473633
 20
17.3864221954
 10
-15.3047303366
 20
17.3991213396
 10
-15.3277447589
 20
17.4111269444
 10
-15.3508763237
 20
17.4224315466
 10
-15.3741106516
 20
17.4330281191
 10
-15.3974332993
 20
17.4429100744
 10
-15.4208297686
 20
17.4520712697
 10
-15.4442855154
 20
17.46050601
 10
-15.4677859588
 20
17.468209052
 10
-15.49131649
 20
17.4751756071
 10
-15.5148624817
 20
17.4814013449
 10
-15.5384092967
 20
17.486882395
 10
-15.5619422976
 20
17.4916153503
 10
-15.5854468553
 20
17.4955972685
 10
-15.6089083586
 20
17.4988256745
 10
-15.6323122231
 20
17.5012985613
 10
-15.6556438999
 20
17.5030143916
 10
-15.6788888853
 20
17.5039720989
 10
-15.7020327294
 20
17.5041710878
 10
-15.7250610451
 20
17.5036112346
 10
-15.7479595172
 20
17.5022928873
 10
-15.7707139112
 20
17.5002168654
 10
-15.7933100821
 20
17.4973844596
  0
LWPOLYLINE
  5
290
100
AcDbEntity
  8
0
100
AcDbPolyline
 62
7
  6
CONTINUOUS
 90
151
 70
0
 10
-14.0079871059
 20
15.6888520919
 10
-14.008452928
 20
15.6391100355
 10
-14.0097372125
 20
15.5896324744
 10
-14.0118399744
 20
15.5404194044
 10
-14.0147632366
 20
15.4914450131
 10
-14.0185050011
 20
15.4427351063
 10
-14.0230592702
 20
15.3943671006
 10
-14.0284257859
 20
15.3463524997
 10
-14.0346048767
 20
15.2986797782
 10
-14.0415914545
 20
15.2513917994
 10
-14.0493887959
 20
15.2044755873
 10
-14.0579937116
 20
15.1579440905
 10
-14.0673914466
 20
15.1118790483
 10
-14.0775800595
 20
15.0662950744
 10
-14.0885616241
 20
15.0211775127
 10
-14.1003274375
 20
14.9765641885
 10
-14.1128819668
 20
14.9324428728
 10
-14.1262208895
 20
14.888825748
 10
-14.1403223469
 20
14.8457872469
 10
-14.155184331
 20
14.8033378146
 10
-14.1708090324
 20
14.7614669467
 10
-14.1871809194
 20
14.7202176422
 10
-14.2043029721
 20
14.6795851156
 10
-14.2221724069
 20
14.6395740884
 10
-14.2407650705
 20
14.6002418119
 10
-14.2600822837
 20
14.5615894524
 10
-14.2801229448
 20
14.5236157719
 10
-14.3008592918
 20
14.4863744071
 10
-14.3222895089
 20
14.4498705517
 10
-14.3444156496
 20
14.4140989338
 10
-14.367215775
 20
14.3790974857
 10
-14.3906961695
 20
14.3448596758
 10
-14.4148507925
 20
14.3113919551
 10
-14.439639238
 20
14.278751723
 10
-14.465055345
 20
14.2469489352
 10
-14.4911055353
 20
14.2159735496
 10
-14.5177682938
 20
14.1858529624
 10
-14.5450528115
 20
14.1565791695
 10
-14.5729501537
 20
14.1281600899
 10
-14.6014116298
 20
14.1006470007
 10
-14.6304298958
 20
14.0740489319
 10
-14.6600125609
 20
14.0483567652
 10
-14.6901333759
 20
14.0235945509
 10
-14.7208003268
 20
13.9997574763
 10
-14.7520056825
 20
13.9768502691
 10
-14.7836996262
 20
13.9549112872
 10
-14.8158783448
 20
13.9339452664
 10
-14.8485459031
 20
13.9139473868
 10
-14.8816643083
 20
13.8949416704
 10
-14.9152355159
 20
13.8769282921
 10
-14.9492578085
 20
13.8599069974
 10
-14.9836876871
 20
13.8439011627
 10
-15.0185287326
 20
13.8289112529
 10
-15.0537775868
 20
13.8149367286
 10
-15.0893803438
 20
13.8019994583
 10
-15.1253309041
 20
13.7901028168
 10
-15.1616355719
 20
13.7792433608
 10
-15.1982590469
 20
13.7694327323
 10
-15.2352113791
 20
13.7606701016
 10
-15.2724826989
 20
13.7529562379
 10
-15.3100078239
 20
13.7463051825
 10
-15.3477761257
 20
13.7407200824
 10
-15.3857983893
 20
13.7361977379
 10
-15.4240415489
 20
13.7327426709
 10
-15.4625174122
 20
13.7303554028
 10
-15.5012142987
 20
13.7290353693
 10
-15.5400639048
 20
13.7287854661
 10
-15.5790560992
 20
13.7296072127
 10
-15.6182011112
 20
13.7314990566
 10
-15.6574611706
 20
13.7344592875
 10
-15.696844536
 20
13.7384898241
 10
-15.7363430147
 20
13.7435887256
 10
-15.7758941527
 20
13.7497484945
 10
-15.8154937067
 20
13.7569701993
 10
-15.8551459533
 20
13.7652527602
 10
-15.8948012097
 20
13.7745854602
 10
-15.9344594391
 20
13.7849693794
 10
-15.9741206783
 20
13.7964034378
 10
-16.0137353461
 20
13.8088736808
 10
-16.0533077809
 20
13.8223833347
 10
-16.092833611
 20
13.8369291845
 10
-16.1322501822
 20
13.8524876168
 10
-16.1715491885
 20
13.8690564657
 10
-16.2107388699
 20
13.8866379193
 10
-16.2497813835
 20
13.9052148982
 10
-16.2886869069
 20
13.9247940294
 10
-16.3274451644
 20
13.9453687188
 10
-16.3659876266
 20
13.966902058
 10
-16.4043024937
 20
13.9893887822
 10
-16.4424014382
 20
14.0128341989
 10
-16.4802511333
 20
14.0372172602
 10
-16.5178621969
 20
14.0625464643
 10
-16.5552238544
 20
14.0888133655
 10
-16.5922706867
 20
14.1159715013
 10
-16.6289927051
 20
14.1440152049
 10
-16.665399718
 20
14.1729502035
 10
-16.7014559996
 20
14.2027471263
 10
-16.7371675862
 20
14.2334124273
 10
-16.7725282368
 20
14.2649397212
 10
-16.807483809
 20
14.2972803777
 10
-16.8420308205
 20
14.3304333022
 10
-16.8761725311
 20
14.3643996639
 10
-16.9098649132
 20
14.3991342282
 10
-16.9431059371
 20
14.4346362594
 10
-16.9758973944
 20
14.470906573
 10
-17.0082009932
 20
14.5079022595
 10
-17.0400206188
 20
14.5456301515
 10
-17.0713521342
 20
14.5840835005
 10
-17.1021452207
 20
14.6231990237
 10
-17.1323918635
 20
14.6629680791
 10
-17.1620998224
 20
14.7033993938
 10
-17.1912424488
 20
14.7444557354
 10
-17.219827097
 20
14.7861498985
 10
-17.2478461475
 20
14.8284691768
 10
-17.2752505034
 20
14.8713380827
 10
-17.3020310037
 20
14.9147442852
 10
-17.3281965529
 20
14.9587002004
 10
-17.3537251666
 20
15.0031674565
 10
-17.3786229622
 20
15.0481590882
 10
-17.4028835614
 20
15.0936621472
 10
-17.4264662527
 20
15.1395992813
 10
-17.4493648195
 20
15.185961143
 10
-17.4715852346
 20
15.2327571603
 10
-17.4931050907
 20
15.279938138
 10
-17.5139261367
 20
15.3275101346
 10
-17.5340463862
 20
15.3754671698
 10
-17.5534378483
 20
15.4237419833
 10
-17.5720992662
 20
15.4723353602
 10
-17.5900316775
 20
15.5212465873
 10
-17.6072105584
 20
15.570406148
 10
-17.623632893
 20
15.6198078117
 10
-17.6393015009
 20
15.669457873
 10
-17.654200635
 20
15.7193055951
 10
-17.6683323118
 20
15.7693625101
 10
-17.6816943324
 20
15.8196171452
 10
-17.6942646558
 20
15.8699842464
 10
-17.706038834
 20
15.9204495529
 10
-17.7170211704
 20
15.9710273722
 10
-17.7272027789
 20
16.0216752929
 10
-17.7365855659
 20
16.0724087866
 10
-17.7451674929
 20
16.1232124241
 10
-17.7529337868
 20
16.1739974328
 10
-17.7598812128
 20
16.2247494911
 10
-17.7660129182
 20
16.2754829481
 10
-17.771323735
 20
16.3261520274
 10
-17.7758138829
 20
16.3767683174
 10
-17.7794830718
 20
16.4273202515
 10
-17.7823253996
 20
16.4777273106
 10
-17.7843388978
 20
16.527962655
 10
-17.7855255101
 20
16.5780531311
 10
-17.7858852218
 20
16.627998743
  0
LWPOLYLINE
  5
291
100
AcDbEntity
  8
ASSI
100
AcDbPolyline
 62
7
  6
CONTINUOUS
 90
151
 70
0
 10
-14.0079871059
 20
15.6888520919
 10
-14.008452928
 20
15.6391100355
 10
-14.0097372125
 20
15.5896324744
 10
-14.0118399744
 20
15.5404194044
 10
-14.0147632366
 20
15.4914450131
 10
-14.0185050011
 20
15.4427351063
 10
-14.0230592702
 20
15.3943671006
 10
-14.0284257859
 20
15.3463524997
 10
-14.0346048767
 20
15.2986797782
 10
-14.0415914545
 20
15.2513917994
 10
-14.0493887959
 20
15.2044755873
 10
-14.0579937116
 20
15.1579440905
 10
-14.0673914466
 20
15.1118790483
 10
-14.0775800595
 20
15.0662950744
 10
-14.0885616241
 20
15.0211775127
 10
-14.1003274375
 20
14.9765641885
 10
-14.1128819668
 20
14.9324428728
 10
-14.1262208895
 20
14.888825748
 10
-14.1403223469
 20
14.8457872469
 10
-14.155184331
 20
14.8033378146
 10
-14.1708090324
 20
14.7614669467
 10
-14.1871809194
 20
14.7202176422
 10
-14.2043029721
 20
14.6795851156
 10
-14.2221724069
 20
14.6395740884
 10
-14.2407650705
 20
14.6002418119
 10
-14.2600822837
 20
14.5615894524
 10
-14.2801229448
 20
14.5236157719
 10
-14.3008592918
 20
14.4863744071
 10
-14.3222895089
 20
14.4498705517
 10
-14.3444156496
 20
14.4140989338
 10
-14.367215775
 20
14.3790974857
 10
-14.3906961695
 20
14.3448596758
 10
-14.4148507925
 20
14.3113919551
 10
-14.439639238
 20
14.278751723
 10
-14.465055345
 20
14.2469489352
 10
-14.4911055353
 20
14.2159735496
 10
-14.5177682938
 20
14.1858529624
 10
-14.5450528115
 20
14.1565791695
 10
-14.5729501537
 20
14.1281600899
 10
-14.6014116298
 20
14.1006470007
 10
-14.6304298958
 20
14.0740489319
 10
-14.6600125609
 20
14.0483567652
 10
-14.6901333759
 20
14.0235945509
 10
-14.7208003268
 20
13.9997574763
 10
-14.7520056825
 20
13.9768502691
 10
-14.7836996262
 20
13.9549112872
 10
-14.8158783448
 20
13.9339452664
 10
-14.8485459031
 20
13.9139473868
 10
-14.8816643083
 20
13.8949416704
 10
-14.9152355159
 20
13.8769282921
 10
-14.9492578085
 20
13.8599069974
 10
-14.9836876871
 20
13.8439011627
 10
-15.0185287326
 20
13.8289112529
 10
-15.0537775868
 20
13.8149367286
 10
-15.0893803438
 20
13.8019994583
 10
-15.1253309041
 20
13.7901028168
 10
-15.1616355719
 20
13.7792433608
 10
-15.1982590469
 20
13.7694327323
 10
-15.2352113791
 20
13.7606701016
 10
-15.2724826989
 20
13.7529562379
 10
-15.3100078239
 20
13.7463051825
 10
-15.3477761257
 20
13.7407200824
 10
-15.3857983893
 20
13.7361977379
 10
-15.4240415489
 20
13.7327426709
 10
-15.4625174122
 20
13.7303554028
 10
-15.5012142987
 20
13.7290353693
 10
-15.5400639048
 20
13.7287854661
 10
-15.5790560992
 20
13.7296072127
 10
-15.6182011112
 20
13.7314990566
 10
-15.6574611706
 20
13.7344592875
 10
-15.696844536
 20
13.7384898241
 10
-15.7363430147
 20
13.7435887256
 10
-15.7758941527
 20
13.7497484945
 10
-15.8154937067
 20
13.7569701993
 10
-15.8551459533
 20
13.7652527602
 10
-15.8948012097
 20
13.7745854602
 10
-15.9344594391
 20
13.7849693794
 10
-15.9741206783
 20
13.7964034378
 10
-16.0137353461
 20
13.8088736808
 10
-16.0533077809
 20
13.8223833347
 10
-16.092833611
 20
13.8369291845
 10
-16.1322501822
 20
13.8524876168
 10
-16.1715491885
 20
13.8690564657
 10
-16.2107388699
 20
13.8866379193
 10
-16.2497813835
 20
13.9052148982
 10
-16.2886869069
 20
13.9247940294
 10
-16.3274451644
 20
13.9453687188
 10
-16.3659876266
 20
13.966902058
 10
-16.4043024937
 20
13.9893887822
 10
-16.4424014382
 20
14.0128341989
 10
-16.4802511333
 20
14.0372172602
 10
-16.5178621969
 20
14.0625464643
 10
-16.5552238544
 20
14.0888133655
 10
-16.5922706867
 20
14.1159715013
 10
-16.6289927051
 20
14.1440152049
 10
-16.665399718
 20
14.1729502035
 10
-16.7014559996
 20
14.2027471263
 10
-16.7371675862
 20
14.2334124273
 10
-16.7725282368
 20
14.2649397212
 10
-16.807483809
 20
14.2972803777
 10
-16.8420308205
 20
14.3304333022
 10
-16.8761725311
 20
14.3643996639
 10
-16.9098649132
 20
14.3991342282
 10
-16.9431059371
 20
14.4346362594
 10
-16.9758973944
 20
14.470906573
 10
-17.0082009932
 20
14.5079022595
 10
-17.0400206188
 20
14.5456301515
 10
-17.0713521342
 20
14.5840835005
 10
-17.1021452207
 20
14.6231990237
 10
-17.1323918635
 20
14.6629680791
 10
-17.1620998224
 20
14.7033993938
 10
-17.1912424488
 20
14.7444557354
 10
-17.219827097
 20
14.7861498985
 10
-17.2478461475
 20
14.8284691768
 10
-17.2752505034
 20
14.8713380827
 10
-17.3020310037
 20
14.9147442852
 10
-17.3281965529
 20
14.9587002004
 10
-17.3537251666
 20
15.0031674565
 10
-17.3786229622
 20
15.0481590882
 10
-17.4028835614
 20
15.0936621472
 10
-17.4264662527
 20
15.1395992813
 10
-17.4493648195
 20
15.185961143
 10
-17.4715852346
 20
15.2327571603
 10
-17.4931050907
 20
15.279938138
 10
-17.5139261367
 20
15.3275101346
 10
-17.5340463862
 20
15.3754671698
 10
-17.5534378483
 20
15.4237419833
 10
-17.5720992662
 20
15.4723353602
 10
-17.5900316775
 20
15.5212465873
 10
-17.6072105584
 20
15.570406148
 10
-17.623632893
 20
15.6198078117
 10
-17.6393015009
 20
15.669457873
 10
-17.654200635
 20
15.7193055951
 10
-17.6683323118
 20
15.7693625101
 10
-17.6816943324
 20
15.8196171452
 10
-17.6942646558
 20
15.8699842464
 10
-17.706038834
 20
15.9204495529
 10
-17.7170211704
 20
15.9710273722
 10
-17.7272027789
 20
16.0216752929
 10
-17.7365855659
 20
16.0724087866
 10
-17.7451674929
 20
16.1232124241
 10
-17.7529337868
 20
16.1739974328
 10
-17.7598812128
 20
16.2247494911
 10
-17.7660129182
 20
16.2754829481
 10
-17.771323735
 20
16.3261520274
 10
-17.7758138829
 20
16.3767683174
 10
-17.7794830718
 20
16.4273202515
 10
-17.7823253996
 20
16.4777273106
 10
-17.7843388978
 20
16.527962655
 10
-17.7855255101
 20
16.5780531311
 10
-17.7858852218
 20
16.627998743
  0
LWPOLYLINE
  5
292
100
AcDbEntity
  8
0
100
AcDbPolyline
 62
7
  6
CONTINUOUS
 90
47
 70
0
 10
-14.5717125006
 20
16.0486666692
 10
-14.5720390822
 20
16.0188739725
 10
-14.5729525802
 20
15.9892457478
 10
-14.5744524266
 20
15.9598004132
 10
-14.5765376891
 20
15.9305562729
 10
-14.5792070715
 20
15.901531506
 10
-14.5824589144
 20
15.8727441556
 10
-14.5862911963
 20
15.8442121168
 10
-14.5907015349
 20
15.8159531261
 10
-14.5956871886
 20
15.7879847503
 10
-14.6012450582
 20
15.7603243757
 10
-14.6073716886
 20
15.7329891969
 10
-14.6140632713
 20
15.7059962063
 10
-14.6213156467
 20
15.679362184
 10
-14.6291243063
 20
15.6531036864
 10
-14.637484396
 20
15.6272370369
 10
-14.646390719
 20
15.601778315
 10
-14.6558377386
 20
15.5767433468
 10
-14.6658195823
 20
15.5521476951
 10
-14.676330045
 20
15.5280066492
 10
-14.6873625931
 20
15.5043352162
 10
-14.6989103683
 20
15.481148111
 10
-14.7109661921
 20
15.4584597477
 10
-14.7235225701
 20
15.4362842301
 10
-14.7365716969
 20
15.4146353433
 10
-14.7501054606
 20
15.393526545
 10
-14.7641154482
 20
15.3729709572
 10
-14.7785929506
 20
15.3529813581
 10
-14.7935289681
 20
15.3335701738
 10
-14.8089142157
 20
15.3147494712
 10
-14.8247391297
 20
15.2965309496
 10
-14.8409938725
 20
15.2789259346
 10
-14.8576683397
 20
15.26194537
 10
-14.8747521659
 20
15.2455998115
 10
-14.892234731
 20
15.2298994201
 10
-14.9101051673
 20
15.2148539557
 10
-14.928352366
 20
15.2004727712
 10
-14.9469649838
 20
15.1867648064
 10
-14.9659314506
 20
15.1737385826
 10
-14.985239976
 20
15.1614021975
 10
-15.0048785572
 20
15.1497633198
 10
-15.0248349862
 20
15.1388291846
 10
-15.0450968573
 20
15.1286065889
 10
-15.065651575
 20
15.1191018876
 10
-15.0864863618
 20
15.110320989
 10
-15.107588266
 20
15.1022693518
 10
-15.126207614
 20
15.0958439452
  0
LWPOLYLINE
  5
293
100
AcDbEntity
  8
ASSI
100
AcDbPolyline
 62
7
  6
CONTINUOUS
 90
42
 70
0
 10
-14.5717125006
 20
16.0486666692
 10
-14.5720390822
 20
16.0188739725
 10
-14.5729525802
 20
15.9892457478
 10
-14.5744524266
 20
15.9598004132
 10
-14.5765376891
 20
15.9305562729
 10
-14.5792070715
 20
15.901531506
 10
-14.5824589144
 20
15.8727441556
 10
-14.5862911963
 20
15.8442121168
 10
-14.5907015349
 20
15.8159531261
 10
-14.5956871886
 20
15.7879847503
 10
-14.6012450582
 20
15.7603243757
 10
-14.6073716886
 20
15.7329891969
 10
-14.6140632713
 20
15.7059962063
 10
-14.6213156467
 20
15.679362184
 10
-14.6291243063
 20
15.6531036864
 10
-14.637484396
 20
15.6272370369
 10
-14.646390719
 20
15.601778315
 10
-14.6558377386
 20
15.5767433468
 10
-14.6658195823
 20
15.5521476951
 10
-14.676330045
 20
15.5280066492
 10
-14.6873625931
 20
15.5043352162
 10
-14.6989103683
 20
15.481148111
 10
-14.7109661921
 20
15.4584597477
 10
-14.7235225701
 20
15.4362842301
 10
-14.7365716969
 20
15.4146353433
 10
-14.7501054606
 20
15.393526545
 10
-14.7641154482
 20
15.3729709572
 10
-14.7785929506
 20
15.3529813581
 10
-14.7935289681
 20
15.3335701738
 10
-14.8089142157
 20
15.3147494712
 10
-14.8247391297
 20
15.2965309496
 10
-14.8409938725
 20
15.2789259346
 10
-14.8576683397
 20
15.26194537
 10
-14.8747521659
 20
15.2455998115
 10
-14.892234731
 20
15.2298994201
 10
-14.9101051673
 20
15.2148539557
 10
-14.928352366
 20
15.2004727712
 10
-14.9469649838
 20
15.1867648064
 10
-14.9659314506
 20
15.1737385826
 10
-14.985239976
 20
15.1614021975
 10
-15.0048785572
 20
15.1497633198
 10
-15.0248349862
 20
15.1388291846
  0
LWPOLYLINE
  5
294
100
AcDbEntity
  8
CURVE
100
AcDbPolyline
 62
252
  6
CONTINUOUS
 90
3
 70
0
 10
-16.2989887838
 20
7.4388655669
 10
-16.292756533
 20
7.4600985493
 10
-16.2858131283
 20
7.4808259316
  0
LWPOLYLINE
  5
295
100
AcDbEntity
  8
RACCORDO
100
AcDbPolyline
 62
7
  6
CONTINUOUS
 90
3
 70
0
 10
-15.9525150452
 20
17.4209190002
 10
-15.9023507076
 20
17.4438540451
 10
-15.850872685
 20
17.462906357
  0
LWPOLYLINE
  5
296
100
AcDbEntity
  8
0
100
AcDbPolyline
 62
7
  6
CONTINUOUS
 90
47
 70
0
 10
-15.9061664452
 20
17.4710627186
 10
-15.9247857933
 20
17.4646373121
 10
-15.9458876974
 20
17.4565856748
 10
-15.9667224842
 20
17.4478047763
 10
-15.9872772019
 20
17.4383000749
 10
-16.007539073
 20
17.4280774793
 10
-16.027495502
 20
17.4171433441
 10
-16.0471340832
 20
17.4055044663
 10
-16.0664426087
 20
17.3931680812
 10
-16.0854090754
 20
17.3801418575
 10
-16.1040216933
 20
17.3664338927
 10
-16.1222688919
 20
17.3520527081
 10
-16.1401393282
 20
17.3370072438
 10
-16.1576218934
 20
17.3213068524
 10
-16.1747057195
 20
17.3049612939
 10
-16.1913801867
 20
17.2879807292
 10
-16.2076349296
 20
17.2703757142
 10
-16.2234598435
 20
17.2521571927
 10
-16.2388450912
 20
17.23333649
 10
-16.2537811086
 20
17.2139253058
 10
-16.268258611
 20
17.1939357066
 10
-16.2822685986
 20
17.1733801189
 10
-16.2958023624
 20
17.1522713206
 10
-16.3088514892
 20
17.1306224338
 10
-16.3214078672
 20
17.1084469162
 10
-16.333463691
 20
17.0857585528
 10
-16.3450114661
 20
17.0625714477
 10
-16.3560440142
 20
17.0389000147
 10
-16.3665544769
 20
17.0147589688
 10
-16.3765363206
 20
16.990163317
 10
-16.3859833403
 20
16.9651283489
 10
-16.3948896632
 20
16.939669627
 10
-16.4032497529
 20
16.9138029775
 10
-16.4110584125
 20
16.8875444799
 10
-16.4183107879
 20
16.8609104575
 10
-16.4250023706
 20
16.833917467
 10
-16.4311290011
 20
16.8065822882
 10
-16.4366868706
 20
16.7789219135
 10
-16.4416725243
 20
16.7509535378
 10
-16.4460828629
 20
16.7226945471
 10
-16.4499151448
 20
16.6941625083
 10
-16.4531669877
 20
16.6653751578
 10
-16.4558363701
 20
16.636350391
 10
-16.4579216327
 20
16.6071062507
 10
-16.4594214791
 20
16.5776609161
 10
-16.460334977
 20
16.5480326914
 10
-16.4606615586
 20
16.5182399947
  0
LWPOLYLINE
  5
297
100
AcDbEntity
  8
ASSI
100
AcDbPolyline
 62
7
  6
CONTINUOUS
 90
47
 70
0
 10
-15.9061664452
 20
17.4710627186
 10
-15.9247857933
 20
17.4646373121
 10
-15.9458876974
 20
17.4565856748
 10
-15.9667224842
 20
17.4478047763
 10
-15.9872772019
 20
17.4383000749
 10
-16.007539073
 20
17.4280774793
 10
-16.027495502
 20
17.4171433441
 10
-16.0471340832
 20
17.4055044663
 10
-16.0664426087
 20
17.3931680812
 10
-16.0854090754
 20
17.3801418575
 10
-16.1040216933
 20
17.3664338927
 10
-16.1222688919
 20
17.3520527081
 10
-16.1401393282
 20
17.3370072438
 10
-16.1576218934
 20
17.3213068524
 10
-16.1747057195
 20
17.3049612939
 10
-16.1913801867
 20
17.2879807292
 10
-16.2076349296
 20
17.2703757142
 10
-16.2234598435
 20
17.2521571927
 10
-16.2388450912
 20
17.23333649
 10
-16.2537811086
 20
17.2139253058
 10
-16.268258611
 20
17.1939357066
 10
-16.2822685986
 20
17.1733801189
 10
-16.2958023624
 20
17.1522713206
 10
-16.3088514892
 20
17.1306224338
 10
-16.3214078672
 20
17.1084469162
 10
-16.333463691
 20
17.0857585528
 10
-16.3450114661
 20
17.0625714477
 10
-16.3560440142
 20
17.0389000147
 10
-16.3665544769
 20
17.0147589688
 10
-16.3765363206
 20
16.990163317
 10
-16.3859833403
 20
16.9651283489
 10
-16.3948896632
 20
16.939669627
 10
-16.4032497529
 20
16.9138029775
 10
-16.4110584125
 20
16.8875444799
 10
-16.4183107879
 20
16.8609104575
 10
-16.4250023706
 20
16.833917467
 10
-16.4311290011
 20
16.8065822882
 10
-16.4366868706
 20
16.7789219135
 10
-16.4416725243
 20
16.7509535378
 10
-16.4460828629
 20
16.7226945471
 10
-16.4499151448
 20
16.6941625083
 10
-16.4531669877
 20
16.6653751578
 10
-16.4558363701
 20
16.636350391
 10
-16.4579216327
 20
16.6071062507
 10
-16.4594214791
 20
16.5776609161
 10
-16.460334977
 20
16.5480326914
 10
-16.4606615586
 20
16.5182399947
  0
LINE
  5
298
100
AcDbEntity
  8
0
100
AcDbLine
 62
7
  6
CONTINUOUS
 10
-15.8508726898
 20
17.4629063554
 11
-15.7273074537
 21
17.5034819008
  0
LWPOLYLINE
  5
299
100
AcDbEntity
  8
RACCORDO
100
AcDbPolyline
 62
253
  6
CONTINUOUS
 90
16
 70
0
 10
-15.5439032641
 20
17.4879873413
 10
-15.5499347535
 20
17.4888787894
 10
-15.5691965226
 20
17.4912217426
 10
-15.5892337362
 20
17.4931095324
 10
-15.6100402417
 20
17.4944720862
 10
-15.6314845263
 20
17.4952329045
 10
-15.6535391165
 20
17.495325946
 10
-15.6761884782
 20
17.4946836384
 10
-15.6993175761
 20
17.4932434467
 10
-15.7228643966
 20
17.4909476827
 10
-15.7468352012
 20
17.4877321656
 10
-15.7712143893
 20
17.4835303833
 10
-15.7959042385
 20
17.4782909754
 10
-15.8209294001
 20
17.4719381647
 10
-15.8464457591
 20
17.4643423056
 10
-15.8508726897
 20
17.4629063554
  0
LWPOLYLINE
  5
29A
100
AcDbEntity
  8
RACCORDO
100
AcDbPolyline
 62
253
  6
CONTINUOUS
 90
82
 70
0
 10
-15.5978771885
 20
17.2586291801
 10
-15.6102982053
 20
17.2615930648
 10
-15.6235534048
 20
17.2644826962
 10
-15.6376380766
 20
17.2672435671
 10
-15.6525869233
 20
17.2698241379
 10
-15.6683507
 20
17.2721539941
 10
-15.6847966074
 20
17.2741544208
 10
-15.7019045977
 20
17.2757662291
 10
-15.7196694177
 20
17.2769295873
 10
-15.73797878
 20
17.2775791754
 10
-15.7568092273
 20
17.2776586042
 10
-15.7761474962
 20
17.2771101821
 10
-15.7958953689
 20
17.2758805195
 10
-15.8159998978
 20
17.2739203641
 10
-15.8364664289
 20
17.2711749149
 10
-15.8572816416
 20
17.2675873798
 10
-15.878362099
 20
17.2631139054
 10
-15.8997288487
 20
17.2576897935
 10
-15.9215149867
 20
17.2512043504
 10
-15.9436572547
 20
17.2435860206
 10
-15.9661235425
 20
17.234751401
 10
-15.9890707793
 20
17.2245218261
 10
-16.0124439379
 20
17.2127797475
 10
-16.0361466149
 20
17.1994233104
 10
-16.0602419278
 20
17.1842442325
 10
-16.0846469279
 20
17.1670924727
 10
-16.1092193357
 20
17.1478518224
 10
-16.1339003732
 20
17.1263303438
 10
-16.15854372
 20
17.1023898159
 10
-16.1829897452
 20
17.0758983532
 10
-16.207125321
 20
17.046656079
 10
-16.2307735215
 20
17.0145093198
 10
-16.2537061997
 20
16.9793641693
 10
-16.2757034151
 20
16.9411150724
 10
-16.2965895747
 20
16.8995491262
 10
-16.3160439425
 20
16.8547197498
 10
-16.3336664024
 20
16.8070009424
 10
-16.3492670789
 20
16.7563602045
 10
-16.3626108224
 20
16.7029150225
 10
-16.3733757935
 20
16.6474081937
 10
-16.3814432366
 20
16.5900590867
 10
-16.3867223048
 20
16.5309805113
 10
-16.3891097268
 20
16.4708648224
 10
-16.3885963042
 20
16.4100458612
 10
-16.385186977
 20
16.3486342962
 10
-16.3789113761
 20
16.2870245976
 10
-16.3698143352
 20
16.225457201
 10
-16.3579471247
 20
16.1641419115
 10
-16.3434049528
 20
16.1034256167
 10
-16.3261697986
 20
16.04317887
 10
-16.3064136257
 20
15.9839571507
 10
-16.2846930159
 20
15.9270722162
 10
-16.2613045972
 20
15.8727546253
 10
-16.2364443802
 20
15.8209778335
 10
-16.2107400054
 20
15.7725215314
 10
-16.1847133381
 20
15.7277384584
 10
-16.1584294522
 20
15.6861746445
 10
-16.1318421522
 20
15.6473425859
 10
-16.105058285
 20
15.6110794053
 10
-16.0783270664
 20
15.5774275647
 10
-16.0517460898
 20
15.5462327628
 10
-16.0254962757
 20
15.5174520361
 10
-15.9996665468
 20
15.490944539
 10
-15.974178017
 20
15.4664289072
 10
-15.9491402644
 20
15.443838126
 10
-15.9246207886
 20
15.4230701718
 10
-15.9004389725
 20
15.403838898
 10
-15.876604223
 20
15.3860474954
 10
-15.8532165552
 20
15.3696707112
 10
-15.8302073539
 20
15.3545690188
 10
-15.8075640837
 20
15.340656944
 10
-15.7853749919
 20
15.327914196
 10
-15.763714079
 20
15.3163059152
 10
-15.7425964259
 20
15.305764192
 10
-15.7220638984
 20
15.2962367377
 10
-15.7022276144
 20
15.287699466
 10
-15.683097825
 20
15.2800804278
 10
-15.6647038154
 20
15.2733181627
 10
-15.6471824948
 20
15.2673872628
 10
-15.6305875021
 20
15.2622270217
 10
-15.6148886424
 20
15.257753431
 10
-15.600093779
 20
15.2538998523
  0
LWPOLYLINE
  5
29B
100
AcDbEntity
  8
CURVE
100
AcDbPolyline
 62
252
  6
CONTINUOUS
 90
7
 70
0
 10
-15.3509194587
 20
6.8594455242
 10
-15.3553804755
 20
6.8374157732
 10
-15.3605704183
 20
6.8157573708
 10
-15.3664909279
 20
6.7944906079
 10
-15.3731302328
 20
6.7736614157
 10
-15.3804732085
 20
6.753322136
 10
-15.3885047307
 20
6.7335251101
  0
LINE
  5
29C
100
AcDbEntity
  8
CURVE
100
AcDbLine
 62
252
  6
CONTINUOUS
 10
-16.2781712799
 20
7.5010018019
 11
-16.269843698
 21
7.5205802481
  0
LWPOLYLINE
  5
29D
100
AcDbEntity
  8
ASSI
100
AcDbPolyline
 62
7
  6
CONTINUOUS
 90
5
 70
0
 10
-15.0248349862
 20
15.1388291846
 10
-15.0450968573
 20
15.1286065889
 10
-15.065651575
 20
15.1191018876
 10
-15.0864863618
 20
15.110320989
 10
-15.107588266
 20
15.1022693518
  0
LWPOLYLINE
  5
29E
100
AcDbEntity
  8
ASSI
100
AcDbPolyline
 62
7
  6
CONTINUOUS
 90
7
 70
0
 10
-15.7933100821
 20
17.4973844596
 10
-15.8157339834
 20
17.4937974304
 10
-15.8379716754
 20
17.4894580078
 10
-15.8600093346
 20
17.4843688893
 10
-15.8818332614
 20
17.4785332384
 10
-15.9034298894
 20
17.4719546829
 10
-15.9061664452
 20
17.4710627186
  0
LWPOLYLINE
  5
29F
100
AcDbEntity
  8
RACCORDO
100
AcDbPolyline
 62
253
  6
CONTINUOUS
 90
11
 70
0
 10
-15.0865130352
 20
15.1351919574
 10
-15.0650065061
 20
15.1426787195
 10
-15.0386935397
 20
15.153025973
 10
-15.0118172734
 20
15.16500702
 10
-14.9844421549
 20
15.1787595344
 10
-14.9566810941
 20
15.1944028126
 10
-14.9284601669
 20
15.212180802
 10
-14.8998765241
 20
15.2322692342
 10
-14.8710968061
 20
15.2548042155
 10
-14.8421898556
 20
15.28001055
 10
-14.82233286
 20
15.2993011812
  0
LINE
  5
2A0
100
AcDbEntity
  8
ASSI
100
AcDbLine
 62
7
  6
CONTINUOUS
 10
-15.107588266
 20
15.1022693518
 11
-15.126207614
 21
15.0958439452
  0
LINE
  5
2A1
100
AcDbEntity
  8
0
100
AcDbLine
 62
7
  6
CONTINUOUS
 10
-15.0865130352
 20
15.1351919574
 11
-14.9630043241
 21
15.1757489415
  0
LWPOLYLINE
  5
2A2
100
AcDbEntity
  8
0
100
AcDbPolyline
 62
7
  6
CONTINUOUS
 90
82
 70
0
 10
-15.126207614
 20
15.0958439452
 10
-15.1289441698
 20
15.094951981
 10
-15.1505407978
 20
15.0883734254
 10
-15.1723647246
 20
15.0825377746
 10
-15.1944023838
 20
15.077448656
 10
-15.2166400759
 20
15.0731092334
 10
-15.2390639771
 20
15.0695222043
 10
-15.261660148
 20
15.0666897984
 10
-15.284414542
 20
15.0646137766
 10
-15.3073130141
 20
15.0632954293
 10
-15.3303413298
 20
15.0627355761
 10
-15.3534851739
 20
15.062934565
 10
-15.3767301593
 20
15.0638922722
 10
-15.4000618362
 20
15.0656081026
 10
-15.4234657006
 20
15.0680809894
 10
-15.4469272039
 20
15.0713093953
 10
-15.4704317617
 20
15.0752913136
 10
-15.4939647626
 20
15.0800242689
 10
-15.5175115776
 20
15.085505319
 10
-15.5410575692
 20
15.0917310567
 10
-15.5645881004
 20
15.0986976119
 10
-15.5880885438
 20
15.1064006539
 10
-15.6115442906
 20
15.1148353942
 10
-15.6349407599
 20
15.1239965895
 10
-15.6582634076
 20
15.1338785448
 10
-15.6814977355
 20
15.1444751172
 10
-15.7046293004
 20
15.1557797195
 10
-15.7276437227
 20
15.1677853243
 10
-15.7505266959
 20
15.1804844684
 10
-15.7732639952
 20
15.1938692578
 10
-15.7958414862
 20
15.2079313718
 10
-15.8182451338
 20
15.2226620689
 10
-15.8404610113
 20
15.2380521921
 10
-15.8624753085
 20
15.2540921743
 10
-15.8842743403
 20
15.2707720445
 10
-15.9058445558
 20
15.2880814338
 10
-15.9271725462
 20
15.3060095821
 10
-15.9482450532
 20
15.3245453446
 10
-15.9690489774
 20
15.3436771988
 10
-15.9895713863
 20
15.3633932517
 10
-16.0097995224
 20
15.3836812471
 10
-16.0297208113
 20
15.4045285732
 10
-16.049322869
 20
15.4259222705
 10
-16.0685935103
 20
15.4478490401
 10
-16.0875207559
 20
15.4702952513
 10
-16.1060928399
 20
15.4932469509
 10
-16.1242982171
 20
15.5166898712
 10
-16.1421255706
 20
15.5406094393
 10
-16.1595638181
 20
15.5649907859
 10
-16.1766021195
 20
15.5898187547
 10
-16.193229883
 20
15.6150779117
 10
-16.2094367724
 20
15.6407525549
 10
-16.2252127128
 20
15.666826724
 10
-16.2405478972
 20
15.6932842105
 10
-16.2554327929
 20
15.7201085673
 10
-16.2698581468
 20
15.7472831195
 10
-16.2838149916
 20
15.7747909745
 10
-16.2972946512
 20
15.8026150322
 10
-16.3102887463
 20
15.8307379963
 10
-16.3227891991
 20
15.8591423846
 10
-16.3347882389
 20
15.8878105399
 10
-16.3462784068
 20
15.9167246409
 10
-16.35725256
 20
15.9458667138
 10
-16.3677038766
 20
15.9752186426
 10
-16.3776258596
 20
16.0047621811
 10
-16.3870123413
 20
16.0344789642
 10
-16.3958574866
 20
16.0643505187
 10
-16.4041557971
 20
16.0943582753
 10
-16.4119021142
 20
16.1244835803
 10
-16.4190916226
 20
16.1547077065
 10
-16.425719853
 20
16.1850118657
 10
-16.4317826851
 20
16.2153772197
 10
-16.4372763499
 20
16.2457848922
 10
-16.4421974325
 20
16.2762159808
 10
-16.4465428736
 20
16.3066515683
 10
-16.4503099721
 20
16.3370727351
 10
-16.4534963861
 20
16.36746057
 10
-16.4561001349
 20
16.3977961831
 10
-16.4581195998
 20
16.4280607165
 10
-16.4595535256
 20
16.4582353567
 10
-16.4604010208
 20
16.4883013462
 10
-16.4606615586
 20
16.5182399947
  0
LWPOLYLINE
  5
2A3
100
AcDbEntity
  8
ASSI
100
AcDbPolyline
 62
7
  6
CONTINUOUS
 90
3
 70
0
 10
-15.126207614
 20
15.0958439452
 10
-15.1289441698
 20
15.094951981
 10
-15.1505407978
 20
15.0883734254
  0
LINE
  5
2A4
100
AcDbEntity
  8
RACCORDO
100
AcDbLine
 62
7
  6
CONTINUOUS
 10
-15.0865130304
 20
15.135191959
 11
-15.1320673443
 21
15.1218533503
  0
LWPOLYLINE
  5
2A5
100
AcDbEntity
  8
CURVE
100
AcDbPolyline
 62
252
  6
CONTINUOUS
 90
8
 70
0
 10
-15.4065790832
 20
6.6957364923
 10
-15.4166001439
 20
6.6778073792
 10
-15.4272631285
 20
6.6605608247
 10
-15.4385559364
 20
6.6440248653
 10
-15.4504600637
 20
6.6282223991
 10
-15.4629554051
 20
6.6131750395
 10
-15.4760218555
 20
6.5989044
 10
-15.48963931
 20
6.585432094
  0
LWPOLYLINE
  5
2A6
100
AcDbEntity
  8
RACCORDO
100
AcDbPolyline
 62
253
  6
CONTINUOUS
 90
47
 70
0
 10
-6.6516721491
 20
-1.7279129329
 10
-6.650845106
 20
-1.7517022095
 10
-6.6495990251
 20
-1.7753185831
 10
-6.647934688
 20
-1.7987471315
 10
-6.6458531208
 20
-1.8219729942
 10
-6.6433556437
 20
-1.8449815574
 10
-6.6404438585
 20
-1.8677584572
 10
-6.6371195487
 20
-1.8902893989
 10
-6.6333848034
 20
-1.912560045
 10
-6.6292420636
 20
-1.9345562003
 10
-6.624693911
 20
-1.956263928
 10
-6.6197431827
 20
-1.9776695616
 10
-6.6143930854
 20
-1.9987595876
 10
-6.6086469398
 20
-2.0195206931
 10
-6.6025083372
 20
-2.039939759
 10
-6.5959812559
 20
-2.0600038738
 10
-6.5890697456
 20
-2.0797003838
 10
-6.5817781257
 20
-2.0990168334
 10
-6.5741111393
 20
-2.1179409567
 10
-6.5660735568
 20
-2.1364608017
 10
-6.5576703929
 20
-2.1545646832
 10
-6.5489071047
 20
-2.1722411204
 10
-6.5397891451
 20
-2.1894789555
 10
-6.5303222029
 20
-2.2062673119
 10
-6.5205124198
 20
-2.2225955457
 10
-6.5103658959
 20
-2.2384533605
 10
-6.4998889648
 20
-2.2538307444
 10
-6.4890884323
 20
-2.2687179258
 10
-6.47797102
 20
-2.283105517
 10
-6.4665436637
 20
-2.2969844418
 10
-6.454813788
 20
-2.3103458712
 10
-6.442788698
 20
-2.3231813803
 10
-6.4304758921
 20
-2.3354828799
 10
-6.4178833607
 20
-2.3472425434
 10
-6.4050189407
 20
-2.3584529649
 10
-6.391890659
 20
-2.3691070768
 10
-6.3785070448
 20
-2.3791980812
 10
-6.364876426
 20
-2.3887196299
 10
-6.35100731
 20
-2.3976657229
 10
-6.3369087278
 20
-2.4060306277
 10
-6.3225894716
 20
-2.4138090815
 10
-6.3080584626
 20
-2.4209962014
 10
-6.2933251319
 20
-2.4275873827
 10
-6.2783986619
 20
-2.4335784879
 10
-6.2632883573
 20
-2.4389657597
 10
-6.2480040117
 20
-2.4437457303
 10
-6.2325007883
 20
-2.4479289284
  0
LWPOLYLINE
  5
2A7
100
AcDbEntity
  8
ASSI
100
AcDbPolyline
 62
253
  6
CONTINUOUS
 90
47
 70
0
 10
-6.6516721491
 20
-1.7279129329
 10
-6.650845106
 20
-1.7517022095
 10
-6.6495990251
 20
-1.7753185831
 10
-6.647934688
 20
-1.7987471315
 10
-6.6458531208
 20
-1.8219729942
 10
-6.6433556437
 20
-1.8449815574
 10
-6.6404438585
 20
-1.8677584572
 10
-6.6371195487
 20
-1.8902893989
 10
-6.6333848034
 20
-1.912560045
 10
-6.6292420636
 20
-1.9345562003
 10
-6.624693911
 20
-1.956263928
 10
-6.6197431827
 20
-1.9776695616
 10
-6.6143930854
 20
-1.9987595876
 10
-6.6086469398
 20
-2.0195206931
 10
-6.6025083372
 20
-2.039939759
 10
-6.5959812559
 20
-2.0600038738
 10
-6.5890697456
 20
-2.0797003838
 10
-6.5817781257
 20
-2.0990168334
 10
-6.5741111393
 20
-2.1179409567
 10
-6.5660735568
 20
-2.1364608017
 10
-6.5576703929
 20
-2.1545646832
 10
-6.5489071047
 20
-2.1722411204
 10
-6.5397891451
 20
-2.1894789555
 10
-6.5303222029
 20
-2.2062673119
 10
-6.5205124198
 20
-2.2225955457
 10
-6.5103658959
 20
-2.2384533605
 10
-6.4998889648
 20
-2.2538307444
 10
-6.4890884323
 20
-2.2687179258
 10
-6.47797102
 20
-2.283105517
 10
-6.4665436637
 20
-2.2969844418
 10
-6.454813788
 20
-2.3103458712
 10
-6.442788698
 20
-2.3231813803
 10
-6.4304758921
 20
-2.3354828799
 10
-6.4178833607
 20
-2.3472425434
 10
-6.4050189407
 20
-2.3584529649
 10
-6.391890659
 20
-2.3691070768
 10
-6.3785070448
 20
-2.3791980812
 10
-6.364876426
 20
-2.3887196299
 10
-6.35100731
 20
-2.3976657229
 10
-6.3369087278
 20
-2.4060306277
 10
-6.3225894716
 20
-2.4138090815
 10
-6.3080584626
 20
-2.4209962014
 10
-6.2933251319
 20
-2.4275873827
 10
-6.2783986619
 20
-2.4335784879
 10
-6.2632883573
 20
-2.4389657597
 10
-6.2480040117
 20
-2.4437457303
 10
-6.2324706449
 20
-2.4479364229
  0
LWPOLYLINE
  5
2A8
100
AcDbEntity
  8
RACCORDO
100
AcDbPolyline
 62
253
  6
CONTINUOUS
 90
55
 70
0
 10
-6.2320795399
 20
-1.7098118587
 10
-6.2314960929
 20
-1.7264787439
 10
-6.2306189348
 20
-1.743005335
 10
-6.2294480656
 20
-1.7593916321
 10
-6.2279823689
 20
-1.7756481172
 10
-6.2262229611
 20
-1.7917643082
 10
-6.2241731914
 20
-1.8077087588
 10
-6.2218325134
 20
-1.8234808628
 10
-6.2192014735
 20
-1.8390812264
 10
-6.2162850589
 20
-1.8544802226
 10
-6.2130827324
 20
-1.8696774358
 10
-6.2095950312
 20
-1.8846732816
 10
-6.2058285546
 20
-1.8994393791
 10
-6.2017827754
 20
-1.9139752979
 10
-6.1974582208
 20
-1.9282814684
 10
-6.192863072
 20
-1.9423308012
 10
-6.1879968122
 20
-1.9561228203
 10
-6.1828599581
 20
-1.9696580018
 10
-6.177462241
 20
-1.9829106842
 10
-6.1718031678
 20
-1.9958803267
 10
-6.1658832315
 20
-2.0085674702
 10
-6.1597136427
 20
-2.0209480756
 10
-6.1532939289
 20
-2.0330215608
 10
-6.1466245625
 20
-2.0447885078
 10
-6.1397181706
 20
-2.0562266247
 10
-6.1325743026
 20
-2.0673352907
 10
-6.1251934091
 20
-2.0781151265
 10
-6.1175894696
 20
-2.088545702
 10
-6.1097620607
 20
-2.0986263552
 10
-6.1017116058
 20
-2.1083577481
 10
-6.0934533536
 20
-2.1177214368
 10
-6.0849869125
 20
-2.1267167224
 10
-6.0763126741
 20
-2.1353443038
 10
-6.0674470626
 20
-2.1435878338
 10
-6.0583897131
 20
-2.1514465869
 10
-6.0491409904
 20
-2.1589212886
 10
-6.0397184137
 20
-2.1659977687
 10
-6.0301216482
 20
-2.1726752742
 10
-6.0203510285
 20
-2.1789545581
 10
-6.010425078
 20
-2.1848237085
 10
-6.0003435087
 20
-2.1902819427
 10
-5.9901066085
 20
-2.1953300435
 10
-5.9797337638
 20
-2.1999584464
 10
-5.9692247203
 20
-2.2041663575
 10
-5.9585797324
 20
-2.2079545709
 10
-5.9478189492
 20
-2.2113159043
 10
-5.9369421266
 20
-2.2142495494
 10
-5.9259495087
 20
-2.2167563146
 10
-5.9148619772
 20
-2.2188314425
 10
-5.9036790776
 20
-2.2204740939
 10
-5.8924012644
 20
-2.2216851081
 10
-5.8810507827
 20
-2.2224622462
 10
-5.8696350476
 20
-2.2228047618
 10
-5.858146644
 20
-2.2227134014
 10
-5.8465855719
 20
-2.2221881648
  0
LWPOLYLINE
  5
2A9
100
AcDbEntity
  8
ASSI
100
AcDbPolyline
 62
253
  6
CONTINUOUS
 90
55
 70
0
 10
-6.2320795399
 20
-1.7098118587
 10
-6.2314960929
 20
-1.7264787439
 10
-6.2306189348
 20
-1.743005335
 10
-6.2294480656
 20
-1.7593916321
 10
-6.2279823689
 20
-1.7756481172
 10
-6.2262229611
 20
-1.7917643082
 10
-6.2241731914
 20
-1.8077087588
 10
-6.2218325134
 20
-1.8234808628
 10
-6.2192014735
 20
-1.8390812264
 10
-6.2162850589
 20
-1.8544802226
 10
-6.2130827324
 20
-1.8696774358
 10
-6.2095950312
 20
-1.8846732816
 10
-6.2058285546
 20
-1.8994393791
 10
-6.2017827754
 20
-1.9139752979
 10
-6.1974582208
 20
-1.9282814684
 10
-6.192863072
 20
-1.9423308012
 10
-6.1879968122
 20
-1.9561228203
 10
-6.1828599581
 20
-1.9696580018
 10
-6.177462241
 20
-1.9829106842
 10
-6.1718031678
 20
-1.9958803267
 10
-6.1658832315
 20
-2.0085674702
 10
-6.1597136427
 20
-2.0209480756
 10
-6.1532939289
 20
-2.0330215608
 10
-6.1466245625
 20
-2.0447885078
 10
-6.1397181706
 20
-2.0562266247
 10
-6.1325743026
 20
-2.0673352907
 10
-6.1251934091
 20
-2.0781151265
 10
-6.1175894696
 20
-2.088545702
 10
-6.1097620607
 20
-2.0986263552
 10
-6.1017116058
 20
-2.1083577481
 10
-6.0934533536
 20
-2.1177214368
 10
-6.0849869125
 20
-2.1267167224
 10
-6.0763126741
 20
-2.1353443038
 10
-6.0674470626
 20
-2.1435878338
 10
-6.0583897131
 20
-2.1514465869
 10
-6.0491409904
 20
-2.1589212886
 10
-6.0397184137
 20
-2.1659977687
 10
-6.0301216482
 20
-2.1726752742
 10
-6.0203510285
 20
-2.1789545581
 10
-6.010425078
 20
-2.1848237085
 10
-6.0003435087
 20
-2.1902819427
 10
-5.9901066085
 20
-2.1953300435
 10
-5.9797337638
 20
-2.1999584464
 10
-5.9692247203
 20
-2.2041663575
 10
-5.9585797324
 20
-2.2079545709
 10
-5.9478189492
 20
-2.2113159043
 10
-5.9369421266
 20
-2.2142495494
 10
-5.9259495087
 20
-2.2167563146
 10
-5.9148619772
 20
-2.2188314425
 10
-5.9036790776
 20
-2.2204740939
 10
-5.8924012644
 20
-2.2216851081
 10
-5.8810507827
 20
-2.2224622462
 10
-5.8696350476
 20
-2.2228047618
 10
-5.858146644
 20
-2.2227134014
 10
-5.8465855719
 20
-2.2221881648
  0
LWPOLYLINE
  5
2AA
100
AcDbEntity
  8
RACCORDO
100
AcDbPolyline
 62
253
  6
CONTINUOUS
 90
31
 70
0
 10
-6.6169467715
 20
29.678421961
 10
-6.6453156931
 20
28.6233863194
 10
-6.6718088125
 20
27.5688484615
 10
-6.6964259581
 20
26.5148153582
 10
-6.7191669727
 20
25.4612939783
 10
-6.7400317063
 20
24.4082912845
 10
-6.7590200161
 20
23.3558142326
 10
-6.7761317782
 20
22.3038697788
 10
-6.7913668823
 20
21.2524648774
 10
-6.804725224
 20
20.2016064761
 10
-6.816206716
 20
19.1513015214
 10
-6.8258112845
 20
18.1015569552
 10
-6.8335388639
 20
17.0523797134
 10
-6.8393894032
 20
16.0037767314
 10
-6.8433628651
 20
14.9557549395
 10
-6.8454592228
 20
13.9083212601
 10
-6.8456784616
 20
12.8614826162
 10
-6.8440205808
 20
11.8152459271
 10
-6.840485592
 20
10.7696181038
 10
-6.8350735172
 20
9.7246060564
 10
-6.8277843921
 20
8.6802166926
 10
-6.818618267
 20
7.6364569139
 10
-6.8075752004
 20
6.5933336182
 10
-6.7946552643
 20
5.5508537004
 10
-6.7798585478
 20
4.509024051
 10
-6.7631851459
 20
3.4678515561
 10
-6.744635167
 20
2.4273430963
 10
-6.7242087389
 20
1.3875055477
 10
-6.7019059963
 20
0.3483457821
 10
-6.6777270808
 20
-0.6901293324
 10
-6.6516721491
 20
-1.7279129329
  0
LWPOLYLINE
  5
2AB
100
AcDbEntity
  8
ASSI
100
AcDbPolyline
 62
253
  6
CONTINUOUS
 90
31
 70
0
 10
-6.6169467715
 20
29.678421961
 10
-6.6453156931
 20
28.6233863194
 10
-6.6718088125
 20
27.5688484615
 10
-6.6964259581
 20
26.5148153582
 10
-6.7191669727
 20
25.4612939783
 10
-6.7400317063
 20
24.4082912845
 10
-6.7590200161
 20
23.3558142326
 10
-6.7761317782
 20
22.3038697788
 10
-6.7913668823
 20
21.2524648774
 10
-6.804725224
 20
20.2016064761
 10
-6.816206716
 20
19.1513015214
 10
-6.8258112845
 20
18.1015569552
 10
-6.8335388639
 20
17.0523797134
 10
-6.8393894032
 20
16.0037767314
 10
-6.8433628651
 20
14.9557549395
 10
-6.8454592228
 20
13.9083212601
 10
-6.8456784616
 20
12.8614826162
 10
-6.8440205808
 20
11.8152459271
 10
-6.840485592
 20
10.7696181038
 10
-6.8350735172
 20
9.7246060564
 10
-6.8277843921
 20
8.6802166926
 10
-6.818618267
 20
7.6364569139
 10
-6.8075752004
 20
6.5933336182
 10
-6.7946552643
 20
5.5508537004
 10
-6.7798585478
 20
4.509024051
 10
-6.7631851459
 20
3.4678515561
 10
-6.744635167
 20
2.4273430963
 10
-6.7242087389
 20
1.3875055477
 10
-6.7019059963
 20
0.3483457821
 10
-6.6777270808
 20
-0.6901293324
 10
-6.6516721491
 20
-1.7279129329
  0
LWPOLYLINE
  5
2AC
100
AcDbEntity
  8
RACCORDO
100
AcDbPolyline
 62
253
  6
CONTINUOUS
 90
31
 70
0
 10
-6.1973786744
 20
29.6743538577
 10
-6.2257282134
 20
28.6200515278
 10
-6.2522029259
 20
27.5662605238
 10
-6.2768028118
 20
26.5129808458
 10
-6.2995280092
 20
25.4602055312
 10
-6.3203783802
 20
24.4079415425
 10
-6.3393535106
 20
23.356209768
 10
-6.3564533632
 20
22.3050102262
 10
-6.3716779753
 20
21.2543428985
 10
-6.3850270452
 20
20.2042286174
 10
-6.3965005357
 20
19.1546673943
 10
-6.4060984839
 20
18.1056592179
 10
-6.4138206997
 20
17.0572248862
 10
-6.4196671459
 20
16.0093644113
 10
-6.4236378597
 20
14.9620777813
 10
-6.4257327623
 20
13.9153857577
 10
-6.4259518166
 20
12.8692883524
 10
-6.4242950598
 20
11.8237855536
 10
-6.4207625247
 20
10.7788980877
 10
-6.4153541741
 20
9.7346259662
 10
-6.4080700452
 20
8.6909691775
 10
-6.3989102823
 20
7.6479484138
 10
-6.3878748483
 20
6.6055636873
 10
-6.3749637802
 20
5.5638149859
 10
-6.3601773341
 20
4.5227229651
 10
-6.3435154726
 20
3.4822876328
 10
-6.324978233
 20
2.4425089811
 10
-6.3045659831
 20
1.4034076429
 10
-6.2822788456
 20
0.3649904956
 10
-6.2581166979
 20
-0.6727493382
 10
-6.2320795399
 20
-1.7098118587
  0
LWPOLYLINE
  5
2AD
100
AcDbEntity
  8
ASSI
100
AcDbPolyline
 62
253
  6
CONTINUOUS
 90
31
 70
0
 10
-6.1973786744
 20
29.6743538577
 10
-6.2257282134
 20
28.6200515278
 10
-6.2522029259
 20
27.5662605238
 10
-6.2768028118
 20
26.5129808458
 10
-6.2995280092
 20
25.4602055312
 10
-6.3203783802
 20
24.4079415425
 10
-6.3393535106
 20
23.356209768
 10
-6.3564533632
 20
22.3050102262
 10
-6.3716779753
 20
21.2543428985
 10
-6.3850270452
 20
20.2042286174
 10
-6.3965005357
 20
19.1546673943
 10
-6.4060984839
 20
18.1056592179
 10
-6.4138206997
 20
17.0572248862
 10
-6.4196671459
 20
16.0093644113
 10
-6.4236378597
 20
14.9620777813
 10
-6.4257327623
 20
13.9153857577
 10
-6.4259518166
 20
12.8692883524
 10
-6.4242950598
 20
11.8237855536
 10
-6.4207625247
 20
10.7788980877
 10
-6.4153541741
 20
9.7346259662
 10
-6.4080700452
 20
8.6909691775
 10
-6.3989102823
 20
7.6479484138
 10
-6.3878748483
 20
6.6055636873
 10
-6.3749637802
 20
5.5638149859
 10
-6.3601773341
 20
4.5227229651
 10
-6.3435154726
 20
3.4822876328
 10
-6.324978233
 20
2.4425089811
 10
-6.3045659831
 20
1.4034076429
 10
-6.2822788456
 20
0.3649904956
 10
-6.2581166979
 20
-0.6727493382
 10
-6.2320795399
 20
-1.7098118587
  0
LINE
  5
2AE
100
AcDbEntity
  8
CURVE
100
AcDbLine
 62
252
  6
CONTINUOUS
 10
-15.5037876632
 20
6.572779735
 11
-15.5184468102
 21
6.5609689365
  0
LWPOLYLINE
  5
2AF
100
AcDbEntity
  8
CURVE
100
AcDbPolyline
 62
252
  6
CONTINUOUS
 90
23
 70
0
 10
-16.0740117242
 20
7.7258795108
 10
-16.0904610746
 20
7.7180175924
 10
-16.1065263624
 20
7.7092529047
 10
-16.1221855681
 20
7.6995960049
 10
-16.1374162489
 20
7.6890587676
 10
-16.1521942674
 20
7.677658339
 10
-16.1664950629
 20
7.665413183
 10
-16.1802940747
 20
7.6523417634
 10
-16.1935668909
 20
7.6384631693
 10
-16.2062896967
 20
7.6237989898
 10
-16.2184388261
 20
7.6083714392
 10
-16.2299906134
 20
7.5922027318
 10
-16.2409232129
 20
7.5753145606
 10
-16.2512220602
 20
7.557726534
 10
-16.2608744113
 20
7.539457739
 10
-16.2698675219
 20
7.5205272629
 10
-16.2781886563
 20
7.5009585536
 10
-16.2858251121
 20
7.4807925023
 10
-16.2927641953
 20
7.4600743609
 10
-16.2989932117
 20
7.4388493814
 10
-16.3045016399
 20
7.4171587799
 10
-16.3092876486
 20
7.3950276294
 10
-16.3133515793
 20
7.3724769668
  0
LINE
  5
2B0
100
AcDbEntity
  8
CURVE
100
AcDbLine
 62
252
  6
CONTINUOUS
 10
-12.8478814603
 20
24.5475027788
 11
-14.2457037632
 21
24.8949870397
  0
LINE
  5
2B1
100
AcDbEntity
  8
CURVE
100
AcDbLine
 62
252
  6
CONTINUOUS
 10
-17.4266939768
 20
25.6857485199
 11
-18.7867372985
 21
26.0238413143
  0
LWPOLYLINE
  5
2B2
100
AcDbEntity
  8
CURVE
100
AcDbPolyline
 62
252
  6
CONTINUOUS
 90
27
 70
0
 10
-15.5652866156
 20
6.5307826447
 10
-15.5492224893
 20
6.5399518479
 10
-15.5336004298
 20
6.550018723
 10
-15.518447049
 20
6.5609698664
 10
-15.5037839649
 20
6.5727850507
 10
-15.4896315474
 20
6.5854423426
 10
-15.4760101663
 20
6.5989198088
 10
-15.4629401913
 20
6.6131955159
 10
-15.4504419923
 20
6.6282475307
 10
-15.438535939
 20
6.6440539197
 10
-15.4272424012
 20
6.6605927497
 10
-15.4165800328
 20
6.6778408892
 10
-15.4065606237
 20
6.6957704148
 10
-15.3971942477
 20
6.7143522049
 10
-15.3884909789
 20
6.7335571377
 10
-15.3804617307
 20
6.7533522733
 10
-15.373120775
 20
6.7736893966
 10
-15.3664832233
 20
6.7945164742
 10
-15.360564187
 20
6.8157814727
 10
-15.3553754383
 20
6.8374386896
 10
-15.3509153932
 20
6.8594677463
 10
-15.3471791283
 20
6.8818545955
 10
-15.3441617203
 20
6.9045851895
 10
-15.3418620144
 20
6.9276599656
 10
-15.3402939283
 20
6.9511373003
 10
-15.3394751484
 20
6.9750900548
 10
-15.3394233608
 20
6.9995910904
  0
LWPOLYLINE
  5
2B3
100
AcDbEntity
  8
CURVE
100
AcDbPolyline
 62
252
  6
CONTINUOUS
 90
5
 70
0
 10
-15.5652775207
 20
6.5307890378
 10
-15.5817539924
 20
6.5225297398
 10
-15.5986172385
 20
6.5151908188
 10
-15.6158393226
 20
6.5087841379
 10
-15.6333923083
 20
6.5033215605
  0
LINE
  5
2B4
100
AcDbEntity
  8
CURVE
100
AcDbLine
 62
252
  6
CONTINUOUS
 10
-16.0740117242
 20
7.7258795108
 11
-16.0570764089
 21
7.7328708999
  0
LINE
  5
2B5
100
AcDbEntity
  8
CURVE
100
AcDbLine
 62
252
  6
CONTINUOUS
 10
-16.0572003304
 20
7.7328281029
 11
-16.0399145151
 21
7.7388916002
  0
LINE
  5
2B6
100
AcDbEntity
  8
CURVE
100
AcDbLine
 62
252
  6
CONTINUOUS
 10
-16.0400489126
 20
7.7388528119
 11
-16.0224353581
 21
7.7439774042
  0
LWPOLYLINE
  5
2B7
100
AcDbEntity
  8
RACCORDO
100
AcDbPolyline
 62
253
  6
CONTINUOUS
 90
46
 70
0
 10
-5.8104809451
 20
30.4315677803
 10
-5.8118176984
 20
30.4410808176
 10
-5.8134237277
 20
30.4506520536
 10
-5.8152970839
 20
30.4602698721
 10
-5.8174354933
 20
30.4699226004
 10
-5.8198363608
 20
30.4795985236
 10
-5.8224967723
 20
30.4892858984
 10
-5.8254134992
 20
30.4989729678
 10
-5.8285830016
 20
30.508647975
 10
-5.8320014328
 20
30.5182991781
 10
-5.8356646441
 20
30.5279148637
 10
-5.8395681895
 20
30.5374833619
 10
-5.8437073315
 20
30.5469930598
 10
-5.8480770468
 20
30.556432416
 10
-5.8526720319
 20
30.5657899744
 10
-5.8574867102
 20
30.5750543782
 10
-5.8625152383
 20
30.5842143837
 10
-5.8677515134
 20
30.5932588739
 10
-5.8731891805
 20
30.6021768718
 10
-5.8788216401
 20
30.6109575542
 10
-5.8846420564
 20
30.6195902643
 10
-5.8906433655
 20
30.6280645252
 10
-5.8968182838
 20
30.636370052
 10
-5.9031593173
 20
30.6444967647
 10
-5.9096587701
 20
30.6524348003
 10
-5.9163087541
 20
30.6601745248
 10
-5.9231011986
 20
30.667706545
 10
-5.9300278599
 20
30.6750217195
 10
-5.9370803315
 20
30.6821111703
 10
-5.9442500542
 20
30.6889662934
 10
-5.9515283265
 20
30.6955787689
 10
-5.958906315
 20
30.7019405716
 10
-5.9663750654
 20
30.7080439807
 10
-5.9739255134
 20
30.7138815885
 10
-5.9815484953
 20
30.7194463104
 10
-5.9892347595
 20
30.7247313927
 10
-5.9969749775
 20
30.7297304211
 10
-6.0047597555
 20
30.7344373287
 10
-6.0125796455
 20
30.7388464028
 10
-6.0204251567
 20
30.7429522923
 10
-6.0282867676
 20
30.7467500143
 10
-6.0361549369
 20
30.7502349595
 10
-6.0440201153
 20
30.7534028984
 10
-6.0518727574
 20
30.7562499864
 10
-6.0597033327
 20
30.758772768
 10
-6.0675023377
 20
30.7609681814
  0
LWPOLYLINE
  5
2B8
100
AcDbEntity
  8
ASSI
100
AcDbPolyline
 62
253
  6
CONTINUOUS
 90
46
 70
0
 10
-5.8104809451
 20
30.4315677803
 10
-5.8118176984
 20
30.4410808176
 10
-5.8134237277
 20
30.4506520536
 10
-5.8152970839
 20
30.4602698721
 10
-5.8174354933
 20
30.4699226004
 10
-5.8198363608
 20
30.4795985236
 10
-5.8224967723
 20
30.4892858984
 10
-5.8254134992
 20
30.4989729678
 10
-5.8285830016
 20
30.508647975
 10
-5.8320014328
 20
30.5182991781
 10
-5.8356646441
 20
30.5279148637
 10
-5.8395681895
 20
30.5374833619
 10
-5.8437073315
 20
30.5469930598
 10
-5.8480770468
 20
30.556432416
 10
-5.8526720319
 20
30.5657899744
 10
-5.8574867102
 20
30.5750543782
 10
-5.8625152383
 20
30.5842143837
 10
-5.8677515134
 20
30.5932588739
 10
-5.8731891805
 20
30.6021768718
 10
-5.8788216401
 20
30.6109575542
 10
-5.8846420564
 20
30.6195902643
 10
-5.8906433655
 20
30.6280645252
 10
-5.8968182838
 20
30.636370052
 10
-5.9031593173
 20
30.6444967647
 10
-5.9096587701
 20
30.6524348003
 10
-5.9163087541
 20
30.6601745248
 10
-5.9231011986
 20
30.667706545
 10
-5.9300278599
 20
30.6750217195
 10
-5.9370803315
 20
30.6821111703
 10
-5.9442500542
 20
30.6889662934
 10
-5.9515283265
 20
30.6955787689
 10
-5.958906315
 20
30.7019405716
 10
-5.9663750654
 20
30.7080439807
 10
-5.9739255134
 20
30.7138815885
 10
-5.9815484953
 20
30.7194463104
 10
-5.9892347595
 20
30.7247313927
 10
-5.9969749775
 20
30.7297304211
 10
-6.0047597555
 20
30.7344373287
 10
-6.0125796455
 20
30.7388464028
 10
-6.0204251567
 20
30.7429522923
 10
-6.0282867676
 20
30.7467500143
 10
-6.0361549369
 20
30.7502349595
 10
-6.0440201153
 20
30.7534028984
 10
-6.0518727574
 20
30.7562499864
 10
-6.0597033327
 20
30.758772768
 10
-6.0675023377
 20
30.7609681814
  0
LWPOLYLINE
  5
2B9
100
AcDbEntity
  8
RACCORDO
100
AcDbPolyline
 62
253
  6
CONTINUOUS
 90
39
 70
0
 10
-5.8465855719
 20
-2.2221881648
 10
-5.8479441347
 20
-2.2323999658
 10
-5.849571947
 20
-2.242529629
 10
-5.8514670333
 20
-2.2525648607
 10
-5.8536270936
 20
-2.2624934816
 10
-5.8560495063
 20
-2.2723034419
 10
-5.8587313315
 20
-2.2819828356
 10
-5.8616693143
 20
-2.2915199154
 10
-5.8648598891
 20
-2.3009031066
 10
-5.8682991837
 20
-2.3101210213
 10
-5.871983024
 20
-2.3191624722
 10
-5.875906939
 20
-2.3280164861
 10
-5.8800661665
 20
-2.3366723174
 10
-5.8844556586
 20
-2.3451194608
 10
-5.8890700881
 20
-2.3533476646
 10
-5.8939038547
 20
-2.3613469426
 10
-5.8989510918
 20
-2.3691075864
 10
-5.9042056739
 20
-2.3766201774
 10
-5.9096612237
 20
-2.3838755978
 10
-5.9153111202
 20
-2.3908650422
 10
-5.9211485062
 20
-2.3975800279
 10
-5.9271662974
 20
-2.4040124051
 10
-5.9333571901
 20
-2.4101543672
 10
-5.9397136709
 20
-2.41599846
 10
-5.9462280251
 20
-2.4215375909
 10
-5.9528923467
 20
-2.4267650373
 10
-5.9596985474
 20
-2.4316744548
 10
-5.966638367
 20
-2.4362598853
 10
-5.9737033829
 20
-2.4405157635
 10
-5.9808850207
 20
-2.4444369244
 10
-5.9881745643
 20
-2.4480186089
 10
-5.9955631669
 20
-2.4512564703
 10
-6.0030418612
 20
-2.4541465788
 10
-6.0106015707
 20
-2.4566854269
 10
-6.0182331206
 20
-2.4588699333
 10
-6.0259272489
 20
-2.4606974469
 10
-6.0336746176
 20
-2.4621657495
 10
-6.0414658241
 20
-2.4632730593
 10
-6.0492914125
 20
-2.4640180324
  0
LWPOLYLINE
  5
2BA
100
AcDbEntity
  8
ASSI
100
AcDbPolyline
 62
253
  6
CONTINUOUS
 90
39
 70
0
 10
-5.8465855719
 20
-2.2221881648
 10
-5.8479441347
 20
-2.2323999658
 10
-5.849571947
 20
-2.242529629
 10
-5.8514670333
 20
-2.2525648607
 10
-5.8536270936
 20
-2.2624934816
 10
-5.8560495063
 20
-2.2723034419
 10
-5.8587313315
 20
-2.2819828356
 10
-5.8616693143
 20
-2.2915199154
 10
-5.8648598891
 20
-2.3009031066
 10
-5.8682991837
 20
-2.3101210213
 10
-5.871983024
 20
-2.3191624722
 10
-5.875906939
 20
-2.3280164861
 10
-5.8800661665
 20
-2.3366723174
 10
-5.8844556586
 20
-2.3451194608
 10
-5.8890700881
 20
-2.3533476646
 10
-5.8939038547
 20
-2.3613469426
 10
-5.8989510918
 20
-2.3691075864
 10
-5.9042056739
 20
-2.3766201774
 10
-5.9096612237
 20
-2.3838755978
 10
-5.9153111202
 20
-2.3908650422
 10
-5.9211485062
 20
-2.3975800279
 10
-5.9271662974
 20
-2.4040124051
 10
-5.9333571901
 20
-2.4101543672
 10
-5.9397136709
 20
-2.41599846
 10
-5.9462280251
 20
-2.4215375909
 10
-5.9528923467
 20
-2.4267650373
 10
-5.9596985474
 20
-2.4316744548
 10
-5.966638367
 20
-2.4362598853
 10
-5.9737033829
 20
-2.4405157635
 10
-5.9808850207
 20
-2.4444369244
 10
-5.9881745643
 20
-2.4480186089
 10
-5.9955631669
 20
-2.4512564703
 10
-6.0030418612
 20
-2.4541465788
 10
-6.0106015707
 20
-2.4566854269
 10
-6.0182331206
 20
-2.4588699333
 10
-6.0259272489
 20
-2.4606974469
 10
-6.0336746176
 20
-2.4621657495
 10
-6.0414658241
 20
-2.4632730593
 10
-6.0492914125
 20
-2.4640180324
  0
LWPOLYLINE
  5
2BB
100
AcDbEntity
  8
RACCORDO
100
AcDbPolyline
 62
253
  6
CONTINUOUS
 90
43
 70
0
 10
-6.1973786744
 20
29.6743538577
 10
-6.2049369746
 20
29.6724554493
 10
-6.2127902233
 20
29.6706382348
 10
-6.2209276795
 20
29.6689046995
 10
-6.2293382135
 20
29.6672572145
 10
-6.2380103221
 20
29.6656980331
 10
-6.2469321445
 20
29.6642292877
 10
-6.2560914782
 20
29.6628529872
 10
-6.2654757958
 20
29.6615710139
 10
-6.2750722624
 20
29.6603851213
 10
-6.2848677527
 20
29.6592969312
 10
-6.2948488694
 20
29.6583079321
 10
-6.3050019611
 20
29.6574194765
 10
-6.3153131415
 20
29.6566327796
 10
-6.3257683079
 20
29.6559489174
 10
-6.3363531605
 20
29.6553688253
 10
-6.3470532223
 20
29.6548932965
 10
-6.3578538589
 20
29.6545229816
 10
-6.3687402981
 20
29.6542583869
 10
-6.3796976503
 20
29.6540998744
 10
-6.3907109291
 20
29.6540476609
 10
-6.4017650716
 20
29.6541018177
 10
-6.4128449588
 20
29.6542622709
 10
-6.4239354368
 20
29.6545288009
 10
-6.4350213369
 20
29.6549010433
 10
-6.4460874969
 20
29.6553784888
 10
-6.4571187814
 20
29.6559604846
 10
-6.4681001029
 20
29.6566462345
 10
-6.4790164421
 20
29.6574348008
 10
-6.4898528686
 20
29.6583251048
 10
-6.5005945614
 20
29.6593159288
 10
-6.5112268289
 20
29.6604059178
 10
-6.5217351293
 20
29.661593581
 10
-6.5321050902
 20
29.6628772938
 10
-6.5423225287
 20
29.6642553007
 10
-6.55237347
 20
29.6657257169
 10
-6.5622441677
 20
29.6672865313
 10
-6.5719211212
 20
29.6689356091
 10
-6.5813910955
 20
29.670670695
 10
-6.5906411383
 20
29.6724894157
 10
-6.5996585983
 20
29.6743892838
 10
-6.6084311421
 20
29.6763677009
 10
-6.6169467715
 20
29.6784219611
  0
LWPOLYLINE
  5
2BC
100
AcDbEntity
  8
ASSI
100
AcDbPolyline
 62
253
  6
CONTINUOUS
 90
43
 70
0
 10
-6.1973786744
 20
29.6743538577
 10
-6.2049369746
 20
29.6724554493
 10
-6.2127902233
 20
29.6706382348
 10
-6.2209276795
 20
29.6689046995
 10
-6.2293382135
 20
29.6672572145
 10
-6.2380103221
 20
29.6656980331
 10
-6.2469321445
 20
29.6642292877
 10
-6.2560914782
 20
29.6628529872
 10
-6.2654757958
 20
29.6615710139
 10
-6.2750722624
 20
29.6603851213
 10
-6.2848677527
 20
29.6592969312
 10
-6.2948488694
 20
29.6583079321
 10
-6.3050019611
 20
29.6574194765
 10
-6.3153131415
 20
29.6566327796
 10
-6.3257683079
 20
29.6559489174
 10
-6.3363531605
 20
29.6553688253
 10
-6.3470532223
 20
29.6548932965
 10
-6.3578538589
 20
29.6545229816
 10
-6.3687402981
 20
29.6542583869
 10
-6.3796976503
 20
29.6540998744
 10
-6.3907109291
 20
29.6540476609
 10
-6.4017650716
 20
29.6541018177
 10
-6.4128449588
 20
29.6542622709
 10
-6.4239354368
 20
29.6545288009
 10
-6.4350213369
 20
29.6549010433
 10
-6.4460874969
 20
29.6553784888
 10
-6.4571187814
 20
29.6559604846
 10
-6.4681001029
 20
29.6566462345
 10
-6.4790164421
 20
29.6574348008
 10
-6.4898528686
 20
29.6583251048
 10
-6.5005945614
 20
29.6593159288
 10
-6.5112268289
 20
29.6604059178
 10
-6.5217351293
 20
29.661593581
 10
-6.5321050902
 20
29.6628772938
 10
-6.5423225287
 20
29.6642553007
 10
-6.55237347
 20
29.6657257169
 10
-6.5622441677
 20
29.6672865313
 10
-6.5719211212
 20
29.6689356091
 10
-6.5813910955
 20
29.670670695
 10
-6.5906411383
 20
29.6724894157
 10
-6.5996585983
 20
29.6743892838
 10
-6.6084311421
 20
29.6763677009
 10
-6.6169467715
 20
29.6784219611
  0
LINE
  5
2BD
100
AcDbEntity
  8
RACCORDO
100
AcDbLine
 62
7
  6
CONTINUOUS
 10
-1.7921703986
 20
32.720820029
 11
-1.8305214562
 21
-1.9646534027
  0
LINE
  5
2BE
100
AcDbEntity
  8
ASSI
100
AcDbLine
 62
7
  6
CONTINUOUS
 10
-1.7921703986
 20
32.720820029
 11
-1.8305214562
 21
-1.9646534027
  0
LINE
  5
2BF
100
AcDbEntity
  8
RACCORDO
100
AcDbLine
 62
253
  6
CONTINUOUS
 10
-24.7282295258
 20
34.1807007477
 11
-6.6169467715
 21
29.678421961
  0
LINE
  5
2C0
100
AcDbEntity
  8
ASSI
100
AcDbLine
 62
253
  6
CONTINUOUS
 10
-24.7282295258
 20
34.1807007477
 11
-6.6169467715
 21
29.678421961
  0
LINE
  5
2C1
100
AcDbEntity
  8
RACCORDO
100
AcDbLine
 62
253
  6
CONTINUOUS
 10
-24.194029263
 20
35.2670365122
 11
-6.0675023377
 21
30.7609681814
  0
LINE
  5
2C2
100
AcDbEntity
  8
ASSI
100
AcDbLine
 62
253
  6
CONTINUOUS
 10
-24.194029263
 20
35.2670365122
 11
-6.0675023377
 21
30.7609681814
  0
LINE
  5
2C3
100
AcDbEntity
  8
RACCORDO
100
AcDbLine
 62
7
  6
CONTINUOUS
 10
-2.0178699394
 20
33.0680646506
 11
-20.3042018781
 21
37.6138588657
  0
LINE
  5
2C4
100
AcDbEntity
  8
ASSI
100
AcDbLine
 62
7
  6
CONTINUOUS
 10
-2.0178699394
 20
33.0680646506
 11
-20.3042018781
 21
37.6138588657
  0
LWPOLYLINE
  5
2C5
100
AcDbEntity
  8
RACCORDO
100
AcDbPolyline
 62
253
  6
CONTINUOUS
 90
43
 70
0
 10
-6.2320795399
 20
-1.7098118587
 10
-6.2396387468
 20
-1.7125301243
 10
-6.2474929008
 20
-1.7151660747
 10
-6.2556312598
 20
-1.7177161046
 10
-6.2640426929
 20
-1.7201767265
 10
-6.2727156957
 20
-1.7225445748
 10
-6.281638406
 20
-1.7248164111
 10
-6.2907986202
 20
-1.7269891281
 10
-6.3001838097
 20
-1.7290597542
 10
-6.3097811383
 20
-1.7310254574
 10
-6.3195774797
 20
-1.7328835491
 10
-6.3295594354
 20
-1.734631488
 10
-6.3397133528
 20
-1.7362668835
 10
-6.3500253444
 20
-1.7377874988
 10
-6.3604813064
 20
-1.7391912542
 10
-6.3710669381
 20
-1.7404762296
 10
-6.3817677613
 20
-1.7416406677
 10
-6.3925691405
 20
-1.7426829759
 10
-6.4034563026
 20
-1.7436017285
 10
-6.414414357
 20
-1.744395669
 10
-6.4254283163
 20
-1.7450637114
 10
-6.4364831167
 20
-1.7456049422
 10
-6.4475636382
 20
-1.746018621
 10
-6.4586547262
 20
-1.7463041821
 10
-6.469741211
 20
-1.7464612349
 10
-6.4808079297
 20
-1.7464895646
 10
-6.4918397462
 20
-1.7463891324
 10
-6.5028215722
 20
-1.7461600757
 10
-6.5137383877
 20
-1.7458027079
 10
-6.5245752616
 20
-1.7453175176
 10
-6.5353173724
 20
-1.7447051684
 10
-6.5459500279
 20
-1.743966498
 10
-6.5564586857
 20
-1.7431025165
 10
-6.566828973
 20
-1.7421144057
 10
-6.5770467063
 20
-1.741003517
 10
-6.5870979106
 20
-1.7397713697
 10
-6.596968839
 20
-1.7384196492
 10
-6.6066459908
 20
-1.736950204
 10
-6.6161161304
 20
-1.7353650441
 10
-6.6253663055
 20
-1.7336663375
 10
-6.6343838645
 20
-1.7318564075
 10
-6.643156474
 20
-1.7299377295
 10
-6.6516721357
 20
-1.7279129278
  0
LWPOLYLINE
  5
2C6
100
AcDbEntity
  8
ASSI
100
AcDbPolyline
 62
253
  6
CONTINUOUS
 90
43
 70
0
 10
-6.2320795399
 20
-1.7098118587
 10
-6.2396387468
 20
-1.7125301243
 10
-6.2474929008
 20
-1.7151660747
 10
-6.2556312598
 20
-1.7177161046
 10
-6.2640426929
 20
-1.7201767265
 10
-6.2727156957
 20
-1.7225445748
 10
-6.281638406
 20
-1.7248164111
 10
-6.2907986202
 20
-1.7269891281
 10
-6.3001838097
 20
-1.7290597542
 10
-6.3097811383
 20
-1.7310254574
 10
-6.3195774797
 20
-1.7328835491
 10
-6.3295594354
 20
-1.734631488
 10
-6.3397133528
 20
-1.7362668835
 10
-6.3500253444
 20
-1.7377874988
 10
-6.3604813064
 20
-1.7391912542
 10
-6.3710669381
 20
-1.7404762296
 10
-6.3817677613
 20
-1.7416406677
 10
-6.3925691405
 20
-1.7426829759
 10
-6.4034563026
 20
-1.7436017285
 10
-6.414414357
 20
-1.744395669
 10
-6.4254283163
 20
-1.7450637114
 10
-6.4364831167
 20
-1.7456049422
 10
-6.4475636382
 20
-1.746018621
 10
-6.4586547262
 20
-1.7463041821
 10
-6.469741211
 20
-1.7464612349
 10
-6.4808079297
 20
-1.7464895646
 10
-6.4918397462
 20
-1.7463891324
 10
-6.5028215722
 20
-1.7461600757
 10
-6.5137383877
 20
-1.7458027079
 10
-6.5245752616
 20
-1.7453175176
 10
-6.5353173724
 20
-1.7447051684
 10
-6.5459500279
 20
-1.743966498
 10
-6.5564586857
 20
-1.7431025165
 10
-6.566828973
 20
-1.7421144057
 10
-6.5770467063
 20
-1.741003517
 10
-6.5870979106
 20
-1.7397713697
 10
-6.596968839
 20
-1.7384196492
 10
-6.6066459908
 20
-1.736950204
 10
-6.6161161304
 20
-1.7353650441
 10
-6.6253663055
 20
-1.7336663375
 10
-6.6343838645
 20
-1.7318564075
 10
-6.643156474
 20
-1.7299377295
 10
-6.6516721357
 20
-1.7279129278
  0
ELLIPSE
  5
2C7
100
AcDbEntity
  8
RACCORDO
100
AcDbEllipse
 62
7
  6
CONTINUOUS
 10
-20.3038376159
 20
37.3217452801
 30
0.0
 11
-0.0909003502
 21
0.2903058863
 31
0.0
 40
0.7154041771
 41
-0.4109560683
 42
0.1728737527
  0
ELLIPSE
  5
2C8
100
AcDbEntity
  8
RACCORDO
100
AcDbEllipse
 62
7
  6
CONTINUOUS
 10
-2.0572288937
 20
-1.9074112646
 30
0.0
 11
-0.0909003502
 21
0.2903058863
 31
0.0
 40
0.7154041771
 41
-3.3144744156
 42
-1.9847829783
  0
ELLIPSE
  5
2C9
100
AcDbEntity
  8
RACCORDO
100
AcDbEllipse
 62
7
  6
CONTINUOUS
 10
-2.0188797926
 20
32.776292656
 30
0.0
 11
-0.0889275481
 21
0.2902131033
 31
0.0
 40
0.7185771717
 41
-1.9752998453
 42
-0.4075341018
  0
ELLIPSE
  5
2CA
100
AcDbEntity
  8
ASSI
100
AcDbEllipse
 62
7
  6
CONTINUOUS
 10
-20.3038376159
 20
37.3217452801
 30
0.0
 11
-0.0909003502
 21
0.2903058863
 31
0.0
 40
0.7154041771
 41
-0.4109560683
 42
0.1728737527
  0
ELLIPSE
  5
2CB
100
AcDbEntity
  8
ASSI
100
AcDbEllipse
 62
7
  6
CONTINUOUS
 10
-2.0572288937
 20
-1.9074112646
 30
0.0
 11
-0.0909003502
 21
0.2903058863
 31
0.0
 40
0.7154041771
 41
-3.3144744156
 42
-1.9847829783
  0
ELLIPSE
  5
2CC
100
AcDbEntity
  8
ASSI
100
AcDbEllipse
 62
7
  6
CONTINUOUS
 10
-2.0188797926
 20
32.776292656
 30
0.0
 11
-0.0889275481
 21
0.2902131033
 31
0.0
 40
0.7185771717
 41
-1.9752998453
 42
-0.4075341018
  0
ELLIPSE
  5
2CD
100
AcDbEntity
  8
CURVE
100
AcDbEllipse
 62
252
  6
CONTINUOUS
 10
255.3238402451
 20
109.3615784833
 30
0.0
 11
419.2933725783
 21
327.4493193045
 31
0.0
 40
0.218248649
 41
2.0866416799
 42
2.0897251878
  0
ELLIPSE
  5
2CE
100
AcDbEntity
  8
CURVE
100
AcDbEllipse
 62
252
  6
CONTINUOUS
 10
255.3238402451
 20
109.3615784833
 30
0.0
 11
419.2933725783
 21
327.4493193045
 31
0.0
 40
0.218248649
 41
2.0967151783
 42
2.0997273959
  0
ELLIPSE
  5
2CF
100
AcDbEntity
  8
CURVE
100
AcDbEllipse
 62
252
  6
CONTINUOUS
 10
269.6798530854
 20
105.7928212092
 30
0.0
 11
-362.9719267749
 21
464.7794768728
 31
0.0
 40
0.4742570158
 41
1.382703156
 42
1.3857859743
  0
ELLIPSE
  5
2D0
100
AcDbEntity
  8
CURVE
100
AcDbEllipse
 62
252
  6
CONTINUOUS
 10
269.6798530854
 20
105.7928212092
 30
0.0
 11
-362.9719267749
 21
464.7794768728
 31
0.0
 40
0.4742570158
 41
1.3727002583
 42
1.3756896171
  0
ELLIPSE
  5
2D1
100
AcDbEntity
  8
CURVE
100
AcDbEllipse
 62
252
  6
CONTINUOUS
 10
274.9373877798
 20
104.4858521091
 30
0.0
 11
622.4175060697
 21
282.290049698
 31
0.0
 40
0.0513292171
 41
2.0300564541
 42
2.0314684915
  0
ELLIPSE
  5
2D2
100
AcDbEntity
  8
CURVE
100
AcDbEllipse
 62
252
  6
CONTINUOUS
 10
274.9281620561
 20
104.4881455292
 30
0.0
 11
622.0149294474
 21
282.3842479576
 31
0.0
 40
0.0515328082
 41
2.0357942156
 42
2.0370887417
  0
ELLIPSE
  5
2D3
100
AcDbEntity
  8
CURVE
100
AcDbEllipse
 62
252
  6
CONTINUOUS
 10
250.0620187277
 20
110.6696132436
 30
0.0
 11
598.7856826801
 21
-518.2626716761
 31
0.0
 40
0.3232563973
 41
-1.7378720436
 42
-1.7364598353
  0
ELLIPSE
  5
2D4
100
AcDbEntity
  8
CURVE
100
AcDbEllipse
 62
252
  6
CONTINUOUS
 10
250.0728377814
 20
110.666923738
 30
0.0
 11
598.348332317
 21
-518.1499805441
 31
0.0
 40
0.32347185
 41
-1.7433019632
 42
-1.7420075971
  0
ENDSEC
  0
SECTION
  2
OBJECTS
  0
DICTIONARY
  5
C
100
AcDbDictionary
280
0
281
1
  3
ACAD_GROUP
350
D
  3
ACAD_MLINESTYLE
350
17
  3
ACAD_LAYOUT
350
1A
  3
ACAD_PLOTSETTINGS
350
19
  3
ACAD_PLOTSTYLENAME
350
E
  0
DICTIONARY
  5
D
102
{ACAD_REACTORS
330
C
102
}
100
AcDbDictionary
280
0
281
1
  0
ACDBDICTIONARYWDFLT
  5
E
102
{ACAD_REACTORS
330
C
102
}
100
AcDbDictionary
281
1
  3
Normal
350
F
100
AcDbDictionaryWithDefault
340
F
  0
DICTIONARY
  5
17
102
{ACAD_REACTORS
330
C
102
}
100
AcDbDictionary
280
0
281
1
  3
Standard
350
18
  0
DICTIONARY
  5
19
102
{ACAD_REACTORS
330
C
102
}
100
AcDbDictionary
281
1
  0
DICTIONARY
  5
1A
102
{ACAD_REACTORS
330
C
102
}
100
AcDbDictionary
281
1
  3
Model
350
2D5
  3
Layout1
350
2D6
  0
ACDBPLACEHOLDER
  5
F
102
{ACAD_REACTORS
330
E
102
}
  0
MLINESTYLE
  5
18
102
{ACAD_REACTORS
330
17
102
}
100
AcDbMlineStyle
  2
STANDARD
 70
0
  3

 62
256
 51
90.0
 52
90.0
 71
2
 49
0.5
 62
256
  6
BYLAYER
 49
-0.5
 62
256
  6
BYLAYER
  0
LAYOUT
  5
2D5
102
{ACAD_REACTORS
330
1A
102
}
100
AcDbPlotSettings
  1

  2
none_device
  4
ISO_A4_(297.00_x_210.00_MM)
  6

 40
0.0
 41
0.0
 42
0.0
 43
0.0
 44
297.0
 45
210.0
 46
0.0
 47
0.0
 48
0.0
 49
0.0
140
0.0
141
0.0
142
1.0
143
1.0
 70
1024
 72
1
 73
0
 74
0
  7

 75
0
147
1.0
148
0.0
149
0.0
100
AcDbLayout
  1
Model
 70
0
 71
0
 10
0.0
 20
0.0
 11
297.0
 21
210.0
 12
0.0
 22
0.0
 32
0.0
 14
0.0
 24
0.0
 34
0.0
 15
0.0
 25
0.0
 35
0.0
146
0.0
 13
0.0
 23
0.0
 33
0.0
 16
1.0
 26
0.0
 36
0.0
 17
0.0
 27
1.0
 37
0.0
 76
0
330
216
345
0
346
0
  0
LAYOUT
  5
2D6
102
{ACAD_REACTORS
330
1A
102
}
100
AcDbPlotSettings
  1

  2
none_device
  4
ISO_A4_(297.00_x_210.00_MM)
  6

 40
0.0
 41
0.0
 42
0.0
 43
0.0
 44
297.0
 45
210.0
 46
0.0
 47
0.0
 48
0.0
 49
0.0
140
0.0
141
0.0
142
1.0
143
1.0
 70
0
 72
1
 73
0
 74
0
  7

 75
0
147
1.0
148
0.0
149
0.0
100
AcDbLayout
  1
Layout1
 70
0
 71
1
 10
0.0
 20
0.0
 11
297.0
 21
210.0
 12
0.0
 22
0.0
 32
0.0
 14
0.0
 24
0.0
 34
0.0
 15
0.0
 25
0.0
 35
0.0
146
0.0
 13
0.0
 23
0.0
 33
0.0
 16
1.0
 26
0.0
 36
0.0
 17
0.0
 27
1.0
 37
0.0
 76
0
330
217
345
0
346
0
  0
ENDSEC
  0
EOF
