  0
SECTION
  2
HEADER
  9
$ACADVER
  1
AC1015
  9
$DWGCODEPAGE
  3
ANSI_1252
  9
$EXTMAX
 10
297.0
 20
210.0
 30
0.0
  9
$EXTMIN
 10
0.0
 20
0.0
 30
0.0
  9
$LIMMIN
 10
0.0
 20
0.0
  9
$LIMMAX
 10
297.0
 20
210.0
  9
$VIEWCTR
 10
148.5
 20
105.0
  9
$VIEWSIZE
 40
210.0
  9
$CLAYER
  8
0
  9
$LTSCALE
 40
16.335
  9
$CELTYPE
  6
BYLAYER
  9
$DIMSCALE
 40
1.0
  9
$DIMASZ
 40
3.0
  9
$DIMEXO
 40
0.5
  9
$DIMDLI
 40
11.286
  9
$DIMEXE
 40
1.5
  9
$DIMCEN
 40
2.673
  9
$DIMLFAC
 40
1.0
  9
$DIMBLK
  1
_FILLED
  9
$DIMTXT
 40
3.0
  9
$DIMTOL
 70
1
  9
$DIMLIM
 70
0
  9
$DIMTFAC
 40
1.0
  9
$DIMTP
 40
0.01
  9
$DIMTM
 40
0.01
  9
$DIMGAP
 40
0.625
  9
$DIMDSEP
 70
44
  9
$PDMODE
 70
3
  9
$PDSIZE
 40
3.0
  9
$HANDSEED
  5
2C0
  9
$TILEMODE
 70
1
  9
$MEASUREMENT
 70
1
  9
$INSUNITS
 70
4
  0
ENDSEC
  0
SECTION
  2
CLASSES
  0
CLASS
  1
ACDBDICTIONARYWDFLT
  2
AcDbDictionaryWithDefault
  3
AutoCAD 2000
 90
0
280
0
281
0
  0
CLASS
  1
ACDBPLACEHOLDER
  2
AcDbPlaceHolder
  3
AutoCAD 2000
 90
0
280
0
281
0
  0
CLASS
  1
LAYOUT
  2
AcDbLayout
  3
AutoCAD 2000
 90
0
280
0
281
0
  0
ENDSEC
  0
SECTION
  2
TABLES
  0
TABLE
  2
VPORT
  5
8
100
AcDbSymbolTable
 70
2
  0
VPORT
  5
1F4
100
AcDbSymbolTableRecord
100
AcDbViewportTableRecord
  2
*ACTIVE
 70
0
 10
0.0
 20
0.0
 11
1.0
 21
1.0
 12
148.5
 22
105.0
 13
0.0
 23
0.0
 14
1.0
 24
1.0
 15
0.0
 25
0.0
 16
0.0
 26
0.0
 36
1.0
 17
0.0
 27
0.0
 37
0.0
 40
210.0
 41
1.4142857143
 42
50.0
 43
0.0
 44
0.0
 50
0.0
 51
0.0
 71
0
 72
100
 73
1
 74
1
 75
0
 76
0
 77
0
 78
0
  0
ENDTAB
  0
TABLE
  2
LTYPE
  5
5
100
AcDbSymbolTable
 70
6
  0
LTYPE
  5
14
100
AcDbSymbolTableRecord
100
AcDbLinetypeTableRecord
  2
BYBLOCK
 70
0
  3

 72
65
 73
0
 40
0.0
  0
LTYPE
  5
15
100
AcDbSymbolTableRecord
100
AcDbLinetypeTableRecord
  2
BYLAYER
 70
0
  3

 72
65
 73
0
 40
0.0
  0
LTYPE
  5
16
100
AcDbSymbolTableRecord
100
AcDbLinetypeTableRecord
  2
CONTINUOUS
 70
64
  3
Solid line
 72
65
 73
0
 40
0.0
  0
LTYPE
  5
1F5
100
AcDbSymbolTableRecord
100
AcDbLinetypeTableRecord
  2
CENTER
 70
64
  3
____ _ ____ _ ____ _ ____ _ ____ _ ____ _ ____
 72
65
 73
4
 40
0.6
 49
0.375
 74
0
 49
-0.075
 74
0
 49
0.075
 74
0
 49
-0.075
 74
0
  0
LTYPE
  5
1F6
100
AcDbSymbolTableRecord
100
AcDbLinetypeTableRecord
  2
HIDDEN
 70
64
  3
- - - - - - - - - - - - - - - - - - - -
 72
65
 73
2
 40
0.2
 49
0.1
 74
0
 49
-0.1
 74
0
  0
LTYPE
  5
1F7
100
AcDbSymbolTableRecord
100
AcDbLinetypeTableRecord
  2
PHANTOM
 70
64
  3
_____ _ _ _____ _ _ _____ _ _ _____
 72
65
 73
6
 40
0.8
 49
0.45
 74
0
 49
-0.05
 74
0
 49
0.1
 74
0
 49
-0.05
 74
0
 49
0.1
 74
0
 49
-0.05
 74
0
  0
LTYPE
  5
1F8
100
AcDbSymbolTableRecord
100
AcDbLinetypeTableRecord
  2
DOT
 70
64
  3
. . . . . . . . . . . . . . . . . . . .
 72
65
 73
2
 40
0.2
 49
0.1
 74
0
 49
-0.1
 74
0
  0
LTYPE
  5
1F9
100
AcDbSymbolTableRecord
100
AcDbLinetypeTableRecord
  2
DASHED
 70
64
  3
- - - - - - - - - - - - - - - - - - - -
 72
65
 73
2
 40
0.2
 49
0.1
 74
0
 49
-0.1
 74
0
  0
ENDTAB
  0
TABLE
  2
LAYER
  5
2
100
AcDbSymbolTable
 70
36
  0
LAYER
  5
10
100
AcDbSymbolTableRecord
100
AcDbLayerTableRecord
  2
0
 70
0
 62
7
  6
CONTINUOUS
370
-3
390
F
  0
LAYER
  5
1FA
100
AcDbSymbolTableRecord
100
AcDbLayerTableRecord
  2
DEFAULT_1
 70
0
 62
7
  6
CENTER
370
-3
390
F
  0
LAYER
  5
1FB
100
AcDbSymbolTableRecord
100
AcDbLayerTableRecord
  2
DEFAULT_2
 70
0
 62
7
  6
HIDDEN
370
-3
390
F
  0
LAYER
  5
1FC
100
AcDbSymbolTableRecord
100
AcDbLayerTableRecord
  2
DEFAULT_3
 70
0
 62
7
  6
PHANTOM
370
-3
390
F
  0
LAYER
  5
1FD
100
AcDbSymbolTableRecord
100
AcDbLayerTableRecord
  2
ASSI
 70
0
 62
7
  6
CONTINUOUS
370
-3
390
F
  0
LAYER
  5
1FE
100
AcDbSymbolTableRecord
100
AcDbLayerTableRecord
  2
COORDINATE
 70
0
 62
7
  6
CONTINUOUS
370
-3
390
F
  0
LAYER
  5
1FF
100
AcDbSymbolTableRecord
100
AcDbLayerTableRecord
  2
COORD_ORIGINE
 70
0
 62
7
  6
CONTINUOUS
370
-3
390
F
  0
LAYER
  5
200
100
AcDbSymbolTableRecord
100
AcDbLayerTableRecord
  2
COPY_PUBLISH
 70
0
 62
7
  6
CONTINUOUS
370
-3
390
F
  0
LAYER
  5
201
100
AcDbSymbolTableRecord
100
AcDbLayerTableRecord
  2
COSMETICI
 70
0
 62
7
  6
CONTINUOUS
370
-3
390
F
  0
LAYER
  5
202
100
AcDbSymbolTableRecord
100
AcDbLayerTableRecord
  2
CURVE
 70
0
 62
7
  6
CONTINUOUS
370
-3
390
F
  0
LAYER
  5
203
100
AcDbSymbolTableRecord
100
AcDbLayerTableRecord
  2
CURVE_LED_TASTO
 70
0
 62
7
  6
CONTINUOUS
370
-3
390
F
  0
LAYER
  5
204
100
AcDbSymbolTableRecord
100
AcDbLayerTableRecord
  2
DRAFT
 70
0
 62
7
  6
CONTINUOUS
370
-3
390
F
  0
LAYER
  5
205
100
AcDbSymbolTableRecord
100
AcDbLayerTableRecord
  2
IMPORT_IGES
 70
0
 62
7
  6
CONTINUOUS
370
-3
390
F
  0
LAYER
  5
206
100
AcDbSymbolTableRecord
100
AcDbLayerTableRecord
  2
NOTE
 70
0
 62
7
  6
CONTINUOUS
370
-3
390
F
  0
LAYER
  5
207
100
AcDbSymbolTableRecord
100
AcDbLayerTableRecord
  2
PIANI
 70
0
 62
7
  6
CONTINUOUS
370
-3
390
F
  0
LAYER
  5
208
100
AcDbSymbolTableRecord
100
AcDbLayerTableRecord
  2
PIANI_ORIGINE
 70
0
 62
7
  6
CONTINUOUS
370
-3
390
F
  0
LAYER
  5
209
100
AcDbSymbolTableRecord
100
AcDbLayerTableRecord
  2
PIANI_RIFERIMENTO
 70
0
 62
7
  6
CONTINUOUS
370
-3
390
F
  0
LAYER
  5
20A
100
AcDbSymbolTableRecord
100
AcDbLayerTableRecord
  2
PUNTI
 70
0
 62
7
  6
CONTINUOUS
370
-3
390
F
  0
LAYER
  5
20B
100
AcDbSymbolTableRecord
100
AcDbLayerTableRecord
  2
RACCORDO
 70
0
 62
7
  6
CONTINUOUS
370
-3
390
F
  0
LAYER
  5
20C
100
AcDbSymbolTableRecord
100
AcDbLayerTableRecord
  2
SCRITTE
 70
0
 62
7
  6
CONTINUOUS
370
-3
390
F
  0
LAYER
  5
20D
100
AcDbSymbolTableRecord
100
AcDbLayerTableRecord
  2
SIMBOLI
 70
0
 62
7
  6
CONTINUOUS
370
-3
390
F
  0
LAYER
  5
20E
100
AcDbSymbolTableRecord
100
AcDbLayerTableRecord
  2
SMUSSO
 70
0
 62
7
  6
CONTINUOUS
370
-3
390
F
  0
LAYER
  5
20F
100
AcDbSymbolTableRecord
100
AcDbLayerTableRecord
  2
SNAPLINE
 70
0
 62
7
  6
CONTINUOUS
370
-3
390
F
  0
LAYER
  5
210
100
AcDbSymbolTableRecord
100
AcDbLayerTableRecord
  2
SUPERFICI
 70
0
 62
7
  6
CONTINUOUS
370
-3
390
F
  0
LAYER
  5
211
100
AcDbSymbolTableRecord
100
AcDbLayerTableRecord
  2
TRASH
 70
0
 62
7
  6
CONTINUOUS
370
-3
390
F
  0
ENDTAB
  0
TABLE
  2
STYLE
  5
3
100
AcDbSymbolTable
 70
1
  0
STYLE
  5
11
100
AcDbSymbolTableRecord
100
AcDbTextStyleTableRecord
  2
STANDARD
 70
0
 40
0.0
 41
0.8
 50
0.0
 71
0
 42
0.2
  3
txt
  4

  0
STYLE
  5
212
100
AcDbSymbolTableRecord
100
AcDbTextStyleTableRecord
  2
TEXTSTYLE_1
 70
0
 40
0.0
 41
0.8
 50
0.0
 71
0
 42
0.2
  3
gdt
  4

  0
ENDTAB
  0
TABLE
  2
VIEW
  5
6
100
AcDbSymbolTable
 70
0
  0
ENDTAB
  0
TABLE
  2
UCS
  5
7
100
AcDbSymbolTable
 70
0
  0
ENDTAB
  0
TABLE
  2
APPID
  5
9
100
AcDbSymbolTable
 70
1
  0
APPID
  5
213
100
AcDbSymbolTableRecord
100
AcDbRegAppTableRecord
  2
ACAD
 70
0
  0
ENDTAB
  0
TABLE
  2
BLOCK_RECORD
  5
1
100
AcDbSymbolTable
 70
0
  0
BLOCK_RECORD
  5
214
100
AcDbSymbolTableRecord
100
AcDbBlockTableRecord
  2
*Model_Space
  0
BLOCK_RECORD
  5
215
100
AcDbSymbolTableRecord
100
AcDbBlockTableRecord
  2
*Paper_Space
  0
ENDTAB
  0
TABLE
  2
DIMSTYLE
  5
A
100
AcDbSymbolTable
 70
1
100
AcDbDimStyleTable
 71
0
  0
DIMSTYLE
105
216
100
AcDbSymbolTableRecord
100
AcDbDimStyleTableRecord
  2
STANDARD
 70
0
  3

  4

 40
1.0
 41
3.0
 42
0.5
 43
0.38
 44
1.5
 45
0.0
 46
0.0
 47
0.01
 48
0.01
140
3.0
141
0.09
142
0.0
143
25.4
144
1.0
145
0.0
146
1.0
147
0.625
 71
1.0
 72
0.0
 73
0
 74
0
 75
0
 76
0
 77
1
 78
8
170
0
171
2
172
0
173
0
174
0
175
0
176
0
177
0
178
0
270
2
271
2
272
2
273
2
274
2
275
0
280
0
281
0
282
0
283
1
284
8
285
0
286
0
287
3
288
0
340
11
278
44
  0
ENDTAB
  0
ENDSEC
  0
SECTION
  2
BLOCKS
  0
BLOCK
  5
20
100
AcDbEntity
  8
0
100
AcDbBlockBegin
  2
*Model_Space
 70
0
 10
0.0
 20
0.0
 30
0.0
  3
*Model_Space
  1

  0
ENDBLK
  5
21
100
AcDbEntity
  8
0
100
AcDbBlockEnd
  0
BLOCK
  5
1C
100
AcDbEntity
  8
0
100
AcDbBlockBegin
  2
*Paper_Space
 70
0
 10
0.0
 20
0.0
 30
0.0
  3
*Paper_Space
  1

  0
ENDBLK
  5
1D
100
AcDbEntity
  8
0
100
AcDbBlockEnd
  0
ENDSEC
  0
SECTION
  2
ENTITIES
  0
LWPOLYLINE
  5
217
100
AcDbEntity
  8
ASSI
100
AcDbPolyline
 62
253
  6
CONTINUOUS
 90
3
 70
0
 10
-39.6659802415
 20
40.9849988075
 10
-39.6469147033
 20
40.9985569124
 10
-39.6276225637
 20
41.0114119915
  0
LWPOLYLINE
  5
218
100
AcDbEntity
  8
RACCORDO
100
AcDbPolyline
 62
253
  6
CONTINUOUS
 90
6
 70
0
 10
-39.6276225637
 20
41.0114119915
 10
-39.6081195717
 20
41.0235537137
 10
-39.5884213728
 20
41.0349724895
 10
-39.5685431285
 20
41.045659267
 10
-39.5485006565
 20
41.055605517
 10
-39.528310426
 20
41.0648032698
  0
LWPOLYLINE
  5
219
100
AcDbEntity
  8
ASSI
100
AcDbPolyline
 62
253
  6
CONTINUOUS
 90
6
 70
0
 10
-39.6276225637
 20
41.0114119915
 10
-39.6081195717
 20
41.0235537137
 10
-39.5884213728
 20
41.0349724895
 10
-39.5685431285
 20
41.045659267
 10
-39.5485006565
 20
41.055605517
 10
-39.528310426
 20
41.0648032698
  0
LWPOLYLINE
  5
21A
100
AcDbEntity
  8
ASSI
100
AcDbPolyline
 62
7
  6
CONTINUOUS
 90
17
 70
0
 10
-39.5753990518
 20
41.0658684964
 10
-39.6314403408
 20
41.040853425
 10
-39.6922757387
 20
41.007266132
 10
-39.7513098895
 20
40.9676123424
 10
-39.8080489657
 20
40.9220810417
 10
-39.8618609669
 20
40.8710993299
 10
-39.9124805411
 20
40.8148714862
 10
-39.9595958976
 20
40.7536634424
 10
-40.0026570169
 20
40.6881655899
 10
-40.0414664996
 20
40.6187041822
 10
-40.0758125568
 20
40.5456300781
 10
-40.1052916782
 20
40.4698442266
 10
-40.1297916129
 20
40.3917652915
 10
-40.149199881
 20
40.3118093884
 10
-40.163316817
 20
40.2309954058
 10
-40.1721263046
 20
40.1499714186
 10
-40.1756683245
 20
40.0691603639
  0
LINE
  5
21B
100
AcDbEntity
  8
RACCORDO
100
AcDbLine
 62
253
  6
CONTINUOUS
 10
-39.528310426
 20
41.0648032698
 11
-39.5079887683
 21
41.0732451738
  0
LINE
  5
21C
100
AcDbEntity
  8
ASSI
100
AcDbLine
 62
253
  6
CONTINUOUS
 10
-39.528310426
 20
41.0648032698
 11
-39.5079887683
 21
41.0732451738
  0
LWPOLYLINE
  5
21D
100
AcDbEntity
  8
RACCORDO
100
AcDbPolyline
 62
7
  6
CONTINUOUS
 90
42
 70
0
 10
-39.5752893873
 20
41.065912226
 10
-39.5905770016
 20
41.0596282381
 10
-39.6128412238
 20
41.0497615377
 10
-39.6349758291
 20
41.0390901777
 10
-39.6569667126
 20
41.0276094406
 10
-39.6787845994
 20
41.015323687
 10
-39.7003860133
 20
41.0022484167
 10
-39.7217528959
 20
40.9883864153
 10
-39.7428665054
 20
40.973741905
 10
-39.7636856219
 20
40.9583368351
 10
-39.7841939033
 20
40.9421773439
 10
-39.8043742187
 20
40.9252712453
 10
-39.8241875574
 20
40.9076470164
 10
-39.8436190968
 20
40.8893144398
 10
-39.8626548592
 20
40.8702835133
 10
-39.8812603133
 20
40.8505867045
 10
-39.8994231589
 20
40.8302356906
 10
-39.9171309057
 20
40.8092434078
 10
-39.9343517049
 20
40.7876475809
 10
-39.9510750849
 20
40.7654623585
 10
-39.9672908084
 20
40.74270259
 10
-39.9829703358
 20
40.7194103902
 10
-39.9981042869
 20
40.6956035
 10
-40.0126854475
 20
40.671297092
 10
-40.0266913907
 20
40.646532579
 10
-40.0401137966
 20
40.6213310383
 10
-40.052947965
 20
40.5957071382
 10
-40.0651792776
 20
40.5696952543
 10
-40.0768020526
 20
40.5433146879
 10
-40.0878110183
 20
40.5165832303
 10
-40.0981944347
 20
40.4895351963
 10
-40.1079473295
 20
40.4621917307
 10
-40.1170657394
 20
40.4345698301
 10
-40.1255418264
 20
40.4066994644
 10
-40.1333717012
 20
40.3786009693
 10
-40.1405515124
 20
40.3502926467
 10
-40.1470756011
 20
40.3218026417
 10
-40.1529407554
 20
40.2931503303
 10
-40.1581434075
 20
40.2643551234
 10
-40.1626791738
 20
40.2354460834
 10
-40.1665451882
 20
40.2064437042
 10
-40.1697387697
 20
40.1773666251
  0
LINE
  5
21E
100
AcDbEntity
  8
RACCORDO
100
AcDbLine
 62
7
  6
CONTINUOUS
 10
-39.5752851731
 20
41.0659139487
 11
-35.1648432048
 21
42.8219332892
  0
LINE
  5
21F
100
AcDbEntity
  8
ASSI
100
AcDbLine
 62
7
  6
CONTINUOUS
 10
-39.5753990672
 20
41.065868535
 11
-35.1648432048
 21
42.8219332892
  0
LINE
  5
220
100
AcDbEntity
  8
RACCORDO
100
AcDbLine
 62
253
  6
CONTINUOUS
 10
-39.5079887683
 20
41.0732451738
 11
-35.0964975959
 21
42.8296822553
  0
LINE
  5
221
100
AcDbEntity
  8
ASSI
100
AcDbLine
 62
253
  6
CONTINUOUS
 10
-39.5079887683
 20
41.0732451738
 11
-35.0964975959
 21
42.8296822553
  0
LWPOLYLINE
  5
222
100
AcDbEntity
  8
RACCORDO
100
AcDbPolyline
 62
253
  6
CONTINUOUS
 90
10
 70
0
 10
-39.5752851731
 20
41.0659139487
 10
-39.5703916628
 20
41.0677413053
 10
-39.5630631121
 20
41.0700431822
 10
-39.5555750049
 20
41.0718880443
 10
-39.5479394403
 20
41.0732729107
 10
-39.5401687553
 20
41.0741955439
 10
-39.5322755054
 20
41.074654453
 10
-39.5242724442
 20
41.0746488966
 10
-39.5161725027
 20
41.0741788838
 10
-39.5079887683
 20
41.0732451738
  0
LWPOLYLINE
  5
223
100
AcDbEntity
  8
ASSI
100
AcDbPolyline
 62
253
  6
CONTINUOUS
 90
10
 70
0
 10
-39.5752851731
 20
41.0659139487
 10
-39.5703916628
 20
41.0677413053
 10
-39.5630631121
 20
41.0700431822
 10
-39.5555750049
 20
41.0718880443
 10
-39.5479394403
 20
41.0732729107
 10
-39.5401687553
 20
41.0741955439
 10
-39.5322755054
 20
41.074654453
 10
-39.5242724442
 20
41.0746488966
 10
-39.5161725027
 20
41.0741788838
 10
-39.5079887683
 20
41.0732451738
  0
LWPOLYLINE
  5
224
100
AcDbEntity
  8
ASSI
100
AcDbPolyline
 62
253
  6
CONTINUOUS
 90
7
 70
0
 10
-6.2131216985
 20
1.866414905
 10
-6.2211205116
 20
1.8644917456
 10
-6.2291424425
 20
1.8630476447
 10
-6.2371745298
 20
1.8620849355
 10
-6.2452037957
 20
1.8616051735
 10
-6.2532172669
 20
1.8616091339
 10
-6.2599617998
 20
1.8619891582
  0
LWPOLYLINE
  5
225
100
AcDbEntity
  8
RACCORDO
100
AcDbPolyline
 62
7
  6
CONTINUOUS
 90
5
 70
0
 10
-40.1697387697
 20
40.1773666251
 10
-40.1722569356
 20
40.1482408137
 10
-40.1740971204
 20
40.1190874157
 10
-40.175257478
 20
40.0899254578
 10
-40.1756683269
 20
40.0691601538
  0
LWPOLYLINE
  5
226
100
AcDbEntity
  8
RACCORDO
100
AcDbPolyline
 62
253
  6
CONTINUOUS
 90
40
 70
0
 10
-6.4857701202
 20
2.7197745001
 10
-6.4949234312
 20
2.718005843
 10
-6.5043744901
 20
2.7162892314
 10
-6.5141083055
 20
2.7146273882
 10
-6.5241094378
 20
2.7130229492
 10
-6.5343620233
 20
2.7114784596
 10
-6.5448497995
 20
2.7099963691
 10
-6.5555561307
 20
2.7085790286
 10
-6.5664640347
 20
2.7072286863
 10
-6.5775562095
 20
2.705947484
 10
-6.5888150607
 20
2.7047374541
 10
-6.6002227297
 20
2.7036005158
 10
-6.6117611217
 20
2.7025384726
 10
-6.6234119347
 20
2.701553009
 10
-6.6351566882
 20
2.7006456882
 10
-6.6469767529
 20
2.6998179494
 10
-6.6588533798
 20
2.6990711055
 10
-6.6707677303
 20
2.6984063412
 10
-6.6827009062
 20
2.6978247109
 10
-6.6946339789
 20
2.6973271371
 10
-6.7065480205
 20
2.6969144092
 10
-6.718424133
 20
2.6965871818
 10
-6.7302434786
 20
2.6963459739
 10
-6.7419873096
 20
2.6961911681
 10
-6.753636998
 20
2.69612301
 10
-6.7651740652
 20
2.6961416077
 10
-6.7765802112
 20
2.6962469318
 10
-6.7878373438
 20
2.696438815
 10
-6.7989276069
 20
2.6967169531
 10
-6.8098334092
 20
2.697080905
 10
-6.8205374522
 20
2.6975300932
 10
-6.8310227571
 20
2.6980638053
 10
-6.8412726923
 20
2.6986811947
 10
-6.8512709994
 20
2.6993812822
 10
-6.8610018192
 20
2.7001629573
 10
-6.8704497167
 20
2.70102498
 10
-6.8795997059
 20
2.701965983
 10
-6.888437273
 20
2.7029844738
 10
-6.8969484
 20
2.7040788368
 10
-6.9051195867
 20
2.7052473361
  0
LWPOLYLINE
  5
227
100
AcDbEntity
  8
ASSI
100
AcDbPolyline
 62
253
  6
CONTINUOUS
 90
40
 70
0
 10
-6.4857701202
 20
2.7197745001
 10
-6.4949234312
 20
2.718005843
 10
-6.5043744901
 20
2.7162892314
 10
-6.5141083055
 20
2.7146273882
 10
-6.5241094378
 20
2.7130229492
 10
-6.5343620233
 20
2.7114784596
 10
-6.5448497995
 20
2.7099963691
 10
-6.5555561307
 20
2.7085790286
 10
-6.5664640347
 20
2.7072286863
 10
-6.5775562095
 20
2.705947484
 10
-6.5888150607
 20
2.7047374541
 10
-6.6002227297
 20
2.7036005158
 10
-6.6117611217
 20
2.7025384726
 10
-6.6234119347
 20
2.701553009
 10
-6.6351566882
 20
2.7006456882
 10
-6.6469767529
 20
2.6998179494
 10
-6.6588533798
 20
2.6990711055
 10
-6.6707677303
 20
2.6984063412
 10
-6.6827009062
 20
2.6978247109
 10
-6.6946339789
 20
2.6973271371
 10
-6.7065480205
 20
2.6969144092
 10
-6.718424133
 20
2.6965871818
 10
-6.7302434786
 20
2.6963459739
 10
-6.7419873096
 20
2.6961911681
 10
-6.753636998
 20
2.69612301
 10
-6.7651740652
 20
2.6961416077
 10
-6.7765802112
 20
2.6962469318
 10
-6.7878373438
 20
2.696438815
 10
-6.7989276069
 20
2.6967169531
 10
-6.8098334092
 20
2.697080905
 10
-6.8205374522
 20
2.6975300932
 10
-6.8310227571
 20
2.6980638053
 10
-6.8412726923
 20
2.6986811947
 10
-6.8512709994
 20
2.6993812822
 10
-6.8610018192
 20
2.7001629573
 10
-6.8704497167
 20
2.70102498
 10
-6.8795997059
 20
2.701965983
 10
-6.888437273
 20
2.7029844738
 10
-6.8969484
 20
2.7040788368
 10
-6.9051195867
 20
2.7052473361
  0
LWPOLYLINE
  5
228
100
AcDbEntity
  8
RACCORDO
100
AcDbPolyline
 62
253
  6
CONTINUOUS
 90
19
 70
0
 10
-39.6233583424
 20
7.6869394471
 10
-39.6229234593
 20
7.6848802733
 10
-39.6220051354
 20
7.6828051131
 10
-39.6206136683
 20
7.6807591209
 10
-39.6187512653
 20
7.6787455423
 10
-39.6164208803
 20
7.676767571
 10
-39.61362621
 20
7.6748283445
 10
-39.610371687
 20
7.6729309389
 10
-39.6066624739
 20
7.6710783637
 10
-39.6025044539
 20
7.6692735574
 10
-39.5979042227
 20
7.667519383
 10
-39.592869077
 20
7.6658186227
 10
-39.5874070034
 20
7.6641739744
 10
-39.581526666
 20
7.6625880467
 10
-39.5752373921
 20
7.6610633553
 10
-39.5685491575
 20
7.6596023186
 10
-39.5614725712
 20
7.6582072541
 10
-39.554018858
 20
7.6568803745
 10
-39.5461998409
 20
7.6556237847
  0
LINE
  5
229
100
AcDbEntity
  8
RACCORDO
100
AcDbLine
 62
253
  6
CONTINUOUS
 10
-39.6234019724
 20
7.6874668478
 11
-39.6233583424
 21
7.6869394471
  0
LWPOLYLINE
  5
22A
100
AcDbEntity
  8
ASSI
100
AcDbPolyline
 62
7
  6
CONTINUOUS
 90
17
 70
0
 10
-39.6234024171
 20
7.6874773795
 10
-39.6162964727
 20
7.600749353
 10
-39.6043280586
 20
7.5225671733
 10
-39.5872039176
 20
7.4462717387
 10
-39.5650107935
 20
7.372361774
 10
-39.5379504201
 20
7.3015155728
 10
-39.5061693836
 20
7.234082828
 10
-39.4698043859
 20
7.1703781032
 10
-39.4291669254
 20
7.1109490194
 10
-39.3844775607
 20
7.0560912684
 10
-39.3359829878
 20
7.0061020587
 10
-39.2841907458
 20
6.9614539051
 10
-39.2294840944
 20
6.9223766208
 10
-39.1722548316
 20
6.8890496134
 10
-39.1132007217
 20
6.8617316045
 10
-39.0529203625
 20
6.8404853199
 10
-38.9918339235
 20
6.8252357541
  0
LWPOLYLINE
  5
22B
100
AcDbEntity
  8
ASSI
100
AcDbPolyline
 62
253
  6
CONTINUOUS
 90
20
 70
0
 10
-39.6234019724
 20
7.6874668473
 10
-39.6233671835
 20
7.6869813101
 10
-39.6229234593
 20
7.6848802733
 10
-39.6220051354
 20
7.6828051131
 10
-39.6206136683
 20
7.6807591209
 10
-39.6187512653
 20
7.6787455423
 10
-39.6164208803
 20
7.676767571
 10
-39.61362621
 20
7.6748283445
 10
-39.610371687
 20
7.6729309389
 10
-39.6066624739
 20
7.6710783637
 10
-39.6025044539
 20
7.6692735574
 10
-39.5979042227
 20
7.667519383
 10
-39.592869077
 20
7.6658186227
 10
-39.5874070034
 20
7.6641739744
 10
-39.581526666
 20
7.6625880467
 10
-39.5752373921
 20
7.6610633553
 10
-39.5685491575
 20
7.6596023186
 10
-39.5614725712
 20
7.6582072541
 10
-39.554018858
 20
7.6568803745
 10
-39.5461998409
 20
7.6556237847
  0
LWPOLYLINE
  5
22C
100
AcDbEntity
  8
RACCORDO
100
AcDbPolyline
 62
7
  6
CONTINUOUS
 90
4
 70
0
 10
-39.6234019535
 20
7.6874671296
 10
-39.6222650366
 20
7.6665757378
 10
-39.6201322441
 20
7.6381052126
 10
-39.6173290294
 20
7.6097443267
  0
LWPOLYLINE
  5
22D
100
AcDbEntity
  8
RACCORDO
100
AcDbPolyline
 62
253
  6
CONTINUOUS
 90
25
 70
0
 10
-39.5461998409
 20
7.6556237847
 10
-39.6061011033
 20
8.9986747132
 10
-39.6627978984
 20
10.3423862402
 10
-39.7162896354
 20
11.6867444878
 10
-39.7665757529
 20
13.0317355696
 10
-39.8136557311
 20
14.3773455964
 10
-39.8575290919
 20
15.7235606761
 10
-39.8981953806
 20
17.0703669057
 10
-39.9356541726
 20
18.4177503752
 10
-39.9699050862
 20
19.765697173
 10
-40.0009477672
 20
21.1141933764
 10
-40.0287818922
 20
22.4632250603
 10
-40.0534071757
 20
23.8127783008
 10
-40.0748233646
 20
25.1628391607
 10
-40.0930302365
 20
26.5133936973
 10
-40.1080276017
 20
27.8644279704
 10
-40.1198153083
 20
29.2159280296
 10
-40.1283932347
 20
30.5678799156
 10
-40.1337612875
 20
31.9202696683
 10
-40.1359194157
 20
33.2730833214
 10
-40.1348675987
 20
34.6263069042
 10
-40.1306058395
 20
35.9799264438
 10
-40.1231341825
 20
37.333927962
 10
-40.1124527136
 20
38.6882974755
 10
-40.0985615487
 20
40.0430209981
  0
LWPOLYLINE
  5
22E
100
AcDbEntity
  8
ASSI
100
AcDbPolyline
 62
253
  6
CONTINUOUS
 90
25
 70
0
 10
-39.5461998409
 20
7.6556237847
 10
-39.6061011033
 20
8.9986747132
 10
-39.6627978984
 20
10.3423862402
 10
-39.7162896354
 20
11.6867444878
 10
-39.7665757529
 20
13.0317355696
 10
-39.8136557311
 20
14.3773455964
 10
-39.8575290919
 20
15.7235606761
 10
-39.8981953806
 20
17.0703669057
 10
-39.9356541726
 20
18.4177503752
 10
-39.9699050862
 20
19.765697173
 10
-40.0009477672
 20
21.1141933764
 10
-40.0287818922
 20
22.4632250603
 10
-40.0534071757
 20
23.8127783008
 10
-40.0748233646
 20
25.1628391607
 10
-40.0930302365
 20
26.5133936973
 10
-40.1080276017
 20
27.8644279704
 10
-40.1198153083
 20
29.2159280296
 10
-40.1283932347
 20
30.5678799156
 10
-40.1337612875
 20
31.9202696683
 10
-40.1359194157
 20
33.2730833214
 10
-40.1348675987
 20
34.6263069042
 10
-40.1306058395
 20
35.9799264438
 10
-40.1231341825
 20
37.333927962
 10
-40.1124527136
 20
38.6882974755
 10
-40.0985615487
 20
40.0430209981
  0
LWPOLYLINE
  5
22F
100
AcDbEntity
  8
RACCORDO
100
AcDbPolyline
 62
7
  6
CONTINUOUS
 90
4
 70
0
 10
-39.7932204457
 20
11.7116506391
 10
-39.739696301
 20
10.3668670121
 10
-39.6829645235
 20
9.0227299509
 10
-39.6234019724
 20
7.6874668478
  0
LWPOLYLINE
  5
230
100
AcDbEntity
  8
RACCORDO
100
AcDbPolyline
 62
7
  6
CONTINUOUS
 90
20
 70
0
 10
-40.2001936982
 20
37.3668273455
 10
-40.2076814114
 20
36.0124042567
 10
-40.2119566799
 20
34.6583645492
 10
-40.2130194816
 20
33.3047219451
 10
-40.2108698136
 20
31.9514894543
 10
-40.2055076863
 20
30.5986806659
 10
-40.1969331709
 20
29.2463095832
 10
-40.1851463487
 20
27.8943898384
 10
-40.170147317
 20
26.5429352921
 10
-40.1519362457
 20
25.1919601238
 10
-40.1305133229
 20
23.8414784447
 10
-40.1058787511
 20
22.4915041859
 10
-40.0780327975
 20
21.1420512677
 10
-40.0469757495
 20
19.7931337844
 10
-40.0127079153
 20
18.4447658943
 10
-39.9752296643
 20
17.0969614147
 10
-39.9345413737
 20
15.7497339296
 10
-39.8906434437
 20
14.4030973894
 10
-39.8435363211
 20
13.0570653131
 10
-39.7932204457
 20
11.7116506391
  0
LWPOLYLINE
  5
231
100
AcDbEntity
  8
ASSI
100
AcDbPolyline
 62
7
  6
CONTINUOUS
 90
10
 70
0
 10
-40.175668378
 20
40.0691602124
 10
-40.2052812981
 20
36.5142755934
 10
-40.2127007154
 20
32.8887521224
 10
-40.1970825773
 20
29.2661992109
 10
-40.1584280419
 20
25.6468845246
 10
-40.0967399388
 20
22.0310762281
 10
-40.0120227426
 20
18.4190396121
 10
-39.9042826619
 20
14.81104231
 10
-39.7735275498
 20
11.2073509097
 10
-39.6234019724
 20
7.6874668473
  0
LWPOLYLINE
  5
232
100
AcDbEntity
  8
RACCORDO
100
AcDbPolyline
 62
7
  6
CONTINUOUS
 90
3
 70
0
 10
-40.175668378
 20
40.0691602121
 10
-40.1894936506
 20
38.721618183
 10
-40.2001936982
 20
37.3668273455
  0
LWPOLYLINE
  5
233
100
AcDbEntity
  8
RACCORDO
100
AcDbPolyline
 62
253
  6
CONTINUOUS
 90
43
 70
0
 10
-40.0985615487
 20
40.0430209981
 10
-40.0979430171
 20
40.0711064006
 10
-40.0967371811
 20
40.0992307006
 10
-40.0949450313
 20
40.1273714015
 10
-40.0925680743
 20
40.1555058808
 10
-40.0896082111
 20
40.1836117514
 10
-40.0860677103
 20
40.2116668784
 10
-40.0819494142
 20
40.239649014
 10
-40.077256653
 20
40.267535587
 10
-40.0719931196
 20
40.2953040654
 10
-40.0661631136
 20
40.3229321494
 10
-40.059771324
 20
40.3503978417
 10
-40.0528227222
 20
40.3776792352
 10
-40.0453229407
 20
40.4047545278
 10
-40.0372780344
 20
40.4316020564
 10
-40.0286942689
 20
40.4582003674
 10
-40.019578587
 20
40.4845282274
 10
-40.0099383564
 20
40.5105645483
 10
-39.999781125
 20
40.5362884201
 10
-39.989115129
 20
40.5616792652
 10
-39.9779489781
 20
40.5867167957
 10
-39.9662914018
 20
40.6113809382
 10
-39.9541518502
 20
40.6356519657
 10
-39.9415401259
 20
40.6595104875
 10
-39.9284660703
 20
40.6829374061
 10
-39.9149402702
 20
40.705913997
 10
-39.9009736551
 20
40.7284218916
 10
-39.8865771252
 20
40.7504430639
 10
-39.8717623268
 20
40.7719599248
 10
-39.8565412396
 20
40.7929552609
 10
-39.840925771
 20
40.813412214
 10
-39.8249285526
 20
40.8333144474
 10
-39.8085625236
 20
40.8526460419
 10
-39.7918405187
 20
40.8713914375
 10
-39.7747760975
 20
40.8895356379
 10
-39.7573830364
 20
40.9070641717
 10
-39.7396749115
 20
40.9239629895
 10
-39.7216660616
 20
40.9402185875
 10
-39.7033710421
 20
40.955817986
 10
-39.6848041154
 20
40.9707486858
 10
-39.6659802415
 20
40.9849988075
 10
-39.6469147033
 20
40.9985569124
 10
-39.6276225637
 20
41.0114119915
  0
LWPOLYLINE
  5
234
100
AcDbEntity
  8
ASSI
100
AcDbPolyline
 62
253
  6
CONTINUOUS
 90
41
 70
0
 10
-40.0985615487
 20
40.0430209981
 10
-40.0979430171
 20
40.0711064006
 10
-40.0967371811
 20
40.0992307006
 10
-40.0949450313
 20
40.1273714015
 10
-40.0925680743
 20
40.1555058808
 10
-40.0896082111
 20
40.1836117514
 10
-40.0860677103
 20
40.2116668784
 10
-40.0819494142
 20
40.239649014
 10
-40.077256653
 20
40.267535587
 10
-40.0719931196
 20
40.2953040654
 10
-40.0661631136
 20
40.3229321494
 10
-40.059771324
 20
40.3503978417
 10
-40.0528227222
 20
40.3776792352
 10
-40.0453229407
 20
40.4047545278
 10
-40.0372780344
 20
40.4316020564
 10
-40.0286942689
 20
40.4582003674
 10
-40.019578587
 20
40.4845282274
 10
-40.0099383564
 20
40.5105645483
 10
-39.999781125
 20
40.5362884201
 10
-39.989115129
 20
40.5616792652
 10
-39.9779489781
 20
40.5867167957
 10
-39.9662914018
 20
40.6113809382
 10
-39.9541518502
 20
40.6356519657
 10
-39.9415401259
 20
40.6595104875
 10
-39.9284660703
 20
40.6829374061
 10
-39.9149402702
 20
40.705913997
 10
-39.9009736551
 20
40.7284218916
 10
-39.8865771252
 20
40.7504430639
 10
-39.8717623268
 20
40.7719599248
 10
-39.8565412396
 20
40.7929552609
 10
-39.840925771
 20
40.813412214
 10
-39.8249285526
 20
40.8333144474
 10
-39.8085625236
 20
40.8526460419
 10
-39.7918405187
 20
40.8713914375
 10
-39.7747760975
 20
40.8895356379
 10
-39.7573830364
 20
40.9070641717
 10
-39.7396749115
 20
40.9239629895
 10
-39.7216660616
 20
40.9402185875
 10
-39.7033710421
 20
40.955817986
 10
-39.6848041154
 20
40.9707486858
 10
-39.6659802415
 20
40.9849988075
  0
LINE
  5
235
100
AcDbEntity
  8
RACCORDO
100
AcDbLine
 62
7
  6
CONTINUOUS
 10
-6.2599617998
 20
1.8619891582
 11
-1.6708283796
 21
1.4854365417
  0
LINE
  5
236
100
AcDbEntity
  8
ASSI
100
AcDbLine
 62
7
  6
CONTINUOUS
 10
-6.2599617998
 20
1.8619891582
 11
-1.6708283796
 21
1.4854365417
  0
LINE
  5
237
100
AcDbEntity
  8
RACCORDO
100
AcDbLine
 62
253
  6
CONTINUOUS
 10
-6.038562471
 20
2.1299413749
 11
-1.485
 21
1.756307465
  0
LINE
  5
238
100
AcDbEntity
  8
ASSI
100
AcDbLine
 62
253
  6
CONTINUOUS
 10
-6.038562471
 20
2.1299413749
 11
-1.485
 21
1.756307465
  0
LINE
  5
239
100
AcDbEntity
  8
ASSI
100
AcDbLine
 62
7
  6
CONTINUOUS
 10
-6.2702345115
 20
1.8629113719
 11
-6.2600149763
 21
1.8619936065
  0
LINE
  5
23A
100
AcDbEntity
  8
RACCORDO
100
AcDbLine
 62
7
  6
CONTINUOUS
 10
-6.2705513136
 20
1.8629401513
 11
-6.2599637536
 21
1.8619893927
  0
LINE
  5
23B
100
AcDbEntity
  8
RACCORDO
100
AcDbLine
 62
253
  6
CONTINUOUS
 10
-38.9852957103
 20
6.8240897893
 11
-39.0050341876
 21
6.8284189806
  0
LINE
  5
23C
100
AcDbEntity
  8
ASSI
100
AcDbLine
 62
253
  6
CONTINUOUS
 10
-38.9852957103
 20
6.8240897893
 11
-39.0050341876
 21
6.8284189806
  0
LWPOLYLINE
  5
23D
100
AcDbEntity
  8
RACCORDO
100
AcDbPolyline
 62
253
  6
CONTINUOUS
 90
45
 70
0
 10
-39.0050341876
 20
6.8284189806
 10
-39.0250158342
 20
6.8336195879
 10
-39.0448279092
 20
6.8396004116
 10
-39.0644545195
 20
6.846356697
 10
-39.0838796497
 20
6.8538829827
 10
-39.1030879467
 20
6.8621732382
 10
-39.1220638171
 20
6.8712207631
 10
-39.1407919757
 20
6.8810183102
 10
-39.1592578166
 20
6.8915581084
 10
-39.1774464203
 20
6.9028317024
 10
-39.1953430617
 20
6.9148300393
 10
-39.2129337603
 20
6.92754358
 10
-39.230204319
 20
6.9409621466
 10
-39.2471407391
 20
6.9550749628
 10
-39.2637297277
 20
6.9698707452
 10
-39.2799578714
 20
6.9853376202
 10
-39.2958120489
 20
7.0014631935
 10
-39.3112798468
 20
7.01823459
 10
-39.3263487625
 20
7.0356383563
 10
-39.3410066119
 20
7.0536605502
 10
-39.3552419425
 20
7.072286806
 10
-39.3690432573
 20
7.091502201
 10
-39.3823993875
 20
7.1112913387
 10
-39.3952998961
 20
7.131638441
 10
-39.4077343724
 20
7.1525272242
 10
-39.4196927441
 20
7.1739409461
 10
-39.4311656469
 20
7.1958624944
 10
-39.4421438256
 20
7.2182743274
 10
-39.4526183873
 20
7.2411584862
 10
-39.4625811151
 20
7.2644966418
 10
-39.4720239624
 20
7.2882700775
 10
-39.4809393002
 20
7.3124597858
 10
-39.4893201691
 20
7.3370464813
 10
-39.4971598094
 20
7.3620104767
 10
-39.5044518752
 20
7.3873317954
 10
-39.5111906767
 20
7.4129902726
 10
-39.517370801
 20
7.4389654678
 10
-39.5229872123
 20
7.4652365043
 10
-39.5280354723
 20
7.4917821807
 10
-39.5325114996
 20
7.5185810671
 10
-39.5364117109
 20
7.5456118957
 10
-39.5397330984
 20
7.5728534088
 10
-39.5424730095
 20
7.6002839406
 10
-39.5446291741
 20
7.6278814246
 10
-39.5461998409
 20
7.6556237847
  0
LWPOLYLINE
  5
23E
100
AcDbEntity
  8
ASSI
100
AcDbPolyline
 62
253
  6
CONTINUOUS
 90
45
 70
0
 10
-39.0050341876
 20
6.8284189806
 10
-39.0250158342
 20
6.8336195879
 10
-39.0448279092
 20
6.8396004116
 10
-39.0644545195
 20
6.846356697
 10
-39.0838796497
 20
6.8538829827
 10
-39.1030879467
 20
6.8621732382
 10
-39.1220638171
 20
6.8712207631
 10
-39.1407919757
 20
6.8810183102
 10
-39.1592578166
 20
6.8915581084
 10
-39.1774464203
 20
6.9028317024
 10
-39.1953430617
 20
6.9148300393
 10
-39.2129337603
 20
6.92754358
 10
-39.230204319
 20
6.9409621466
 10
-39.2471407391
 20
6.9550749628
 10
-39.2637297277
 20
6.9698707452
 10
-39.2799578714
 20
6.9853376202
 10
-39.2958120489
 20
7.0014631935
 10
-39.3112798468
 20
7.01823459
 10
-39.3263487625
 20
7.0356383563
 10
-39.3410066119
 20
7.0536605502
 10
-39.3552419425
 20
7.072286806
 10
-39.3690432573
 20
7.091502201
 10
-39.3823993875
 20
7.1112913387
 10
-39.3952998961
 20
7.131638441
 10
-39.4077343724
 20
7.1525272242
 10
-39.4196927441
 20
7.1739409461
 10
-39.4311656469
 20
7.1958624944
 10
-39.4421438256
 20
7.2182743274
 10
-39.4526183873
 20
7.2411584862
 10
-39.4625811151
 20
7.2644966418
 10
-39.4720239624
 20
7.2882700775
 10
-39.4809393002
 20
7.3124597858
 10
-39.4893201691
 20
7.3370464813
 10
-39.4971598094
 20
7.3620104767
 10
-39.5044518752
 20
7.3873317954
 10
-39.5111906767
 20
7.4129902726
 10
-39.517370801
 20
7.4389654678
 10
-39.5229872123
 20
7.4652365043
 10
-39.5280354723
 20
7.4917821807
 10
-39.5325114996
 20
7.5185810671
 10
-39.5364117109
 20
7.5456118957
 10
-39.5397330984
 20
7.5728534088
 10
-39.5424730095
 20
7.6002839406
 10
-39.5446291741
 20
7.6278814246
 10
-39.5461998409
 20
7.6556237847
  0
LWPOLYLINE
  5
23F
100
AcDbEntity
  8
RACCORDO
100
AcDbPolyline
 62
7
  6
CONTINUOUS
 90
43
 70
0
 10
-39.6173290294
 20
7.6097443267
 10
-39.6138522225
 20
7.5815039844
 10
-39.6097012865
 20
7.5534128439
 10
-39.6048798365
 20
7.5255190843
 10
-39.5993881585
 20
7.497840279
 10
-39.5932269532
 20
7.4703956157
 10
-39.5864043133
 20
7.4432341347
 10
-39.578923026
 20
7.4163737107
 10
-39.5707857237
 20
7.3898317185
 10
-39.5620044928
 20
7.3636538726
 10
-39.5525841203
 20
7.337856313
 10
-39.5425294662
 20
7.3124561468
 10
-39.531857276
 20
7.2874976281
 10
-39.5205742902
 20
7.2629949332
 10
-39.5086879254
 20
7.2389645649
 10
-39.4962209929
 20
7.2154507364
 10
-39.4831831869
 20
7.1924666693
 10
-39.4695843168
 20
7.1700264095
 10
-39.4554528389
 20
7.1481713999
 10
-39.4408035855
 20
7.1269159955
 10
-39.425647222
 20
7.1062686521
 10
-39.410010864
 20
7.086258271
 10
-39.3939125195
 20
7.0668977673
 10
-39.3773644795
 20
7.0481930396
 10
-39.3603887332
 20
7.0301600806
 10
-39.3430022794
 20
7.0128071511
 10
-39.3252217541
 20
6.9961419587
 10
-39.3070712839
 20
6.9801780307
 10
-39.2885743222
 20
6.9649254623
 10
-39.2697449668
 20
6.9503859307
 10
-39.2505949714
 20
6.9365599452
 10
-39.2311467318
 20
6.9234548487
 10
-39.2114170871
 20
6.9110733293
 10
-39.1914096503
 20
6.8994107167
 10
-39.1711440487
 20
6.8884721758
 10
-39.1506406516
 20
6.8782621075
 10
-39.1299039216
 20
6.8687773882
 10
-39.108954823
 20
6.8600230595
 10
-39.0878136275
 20
6.8520023183
 10
-39.0664834355
 20
6.844712172
 10
-39.0449849001
 20
6.8381566299
 10
-39.0233391108
 20
6.832338533
 10
-39.0015494216
 20
6.8272557816
  0
LWPOLYLINE
  5
240
100
AcDbEntity
  8
ASSI
100
AcDbPolyline
 62
253
  6
CONTINUOUS
 90
20
 70
0
 10
-40.1756683262
 20
40.0691602118
 10
-40.1756283858
 20
40.0684885164
 10
-40.1751948363
 20
40.0669841467
 10
-40.174286212
 20
40.0654777867
 10
-40.172903954
 20
40.0639718258
 10
-40.171050255
 20
40.0624686529
 10
-40.1687280551
 20
40.0609706521
 10
-40.1659410379
 20
40.0594801997
 10
-40.162693624
 20
40.0579996598
 10
-40.1589909646
 20
40.0565313807
 10
-40.1548389328
 20
40.0550776915
 10
-40.1502441143
 20
40.053640898
 10
-40.1452137976
 20
40.0522232792
 10
-40.1397559616
 20
40.0508270837
 10
-40.1338792636
 20
40.0494545261
 10
-40.127593025
 20
40.0481077837
 10
-40.120907217
 20
40.0467889925
 10
-40.1138324446
 20
40.0455002445
 10
-40.1063799298
 20
40.0442435838
 10
-40.0985614936
 20
40.0430210037
  0
LWPOLYLINE
  5
241
100
AcDbEntity
  8
RACCORDO
100
AcDbPolyline
 62
253
  6
CONTINUOUS
 90
20
 70
0
 10
-40.1756683269
 20
40.0691601538
 10
-40.1756283858
 20
40.0684885164
 10
-40.1751948363
 20
40.0669841467
 10
-40.174286212
 20
40.0654777867
 10
-40.172903954
 20
40.0639718258
 10
-40.171050255
 20
40.0624686529
 10
-40.1687280551
 20
40.0609706521
 10
-40.1659410379
 20
40.0594801997
 10
-40.162693624
 20
40.0579996598
 10
-40.1589909646
 20
40.0565313807
 10
-40.1548389328
 20
40.0550776915
 10
-40.1502441143
 20
40.053640898
 10
-40.1452137976
 20
40.0522232792
 10
-40.1397559616
 20
40.0508270837
 10
-40.1338792636
 20
40.0494545261
 10
-40.127593025
 20
40.0481077837
 10
-40.120907217
 20
40.0467889925
 10
-40.1138324446
 20
40.0455002445
 10
-40.1063799298
 20
40.0442435838
 10
-40.0985614936
 20
40.0430210037
  0
LINE
  5
242
100
AcDbEntity
  8
ASSI
100
AcDbLine
 62
7
  6
CONTINUOUS
 10
-6.3071235536
 20
1.8674937621
 11
-6.2702345115
 21
1.8629113719
  0
LWPOLYLINE
  5
243
100
AcDbEntity
  8
RACCORDO
100
AcDbPolyline
 62
7
  6
CONTINUOUS
 90
5
 70
0
 10
-6.3071534549
 20
1.8674982976
 10
-6.2979402662
 20
1.8661639459
 10
-6.2888266597
 20
1.8649682463
 10
-6.2796965726
 20
1.8638935883
 10
-6.2705513136
 20
1.8629401513
  0
LINE
  5
244
100
AcDbEntity
  8
RACCORDO
100
AcDbLine
 62
7
  6
CONTINUOUS
 10
-38.9608754756
 20
6.8197917955
 11
-6.3071121887
 21
1.8674918146
  0
LINE
  5
245
100
AcDbEntity
  8
ASSI
100
AcDbLine
 62
7
  6
CONTINUOUS
 10
-38.9608738546
 20
6.8197915497
 11
-6.3071121887
 21
1.8674918146
  0
LINE
  5
246
100
AcDbEntity
  8
RACCORDO
100
AcDbLine
 62
7
  6
CONTINUOUS
 10
-6.3071472203
 20
1.8674971286
 11
-6.3071141801
 21
1.8674921167
  0
LINE
  5
247
100
AcDbEntity
  8
RACCORDO
100
AcDbLine
 62
253
  6
CONTINUOUS
 10
-39.5461998409
 20
7.6556237847
 11
-6.9051196198
 21
2.7052473293
  0
LINE
  5
248
100
AcDbEntity
  8
ASSI
100
AcDbLine
 62
253
  6
CONTINUOUS
 10
-39.5461998409
 20
7.6556237847
 11
-6.9051196198
 21
2.7052473293
  0
LINE
  5
249
100
AcDbEntity
  8
RACCORDO
100
AcDbLine
 62
253
  6
CONTINUOUS
 10
-38.9608738546
 20
6.8197915497
 11
-38.9646243891
 21
6.8203741072
  0
LINE
  5
24A
100
AcDbEntity
  8
ASSI
100
AcDbLine
 62
253
  6
CONTINUOUS
 10
-38.9608738546
 20
6.8197915497
 11
-38.9646243891
 21
6.8203741072
  0
LINE
  5
24B
100
AcDbEntity
  8
ASSI
100
AcDbLine
 62
253
  6
CONTINUOUS
 10
-6.31094771
 20
1.8680872613
 11
-6.3071172861
 21
1.8674925877
  0
LINE
  5
24C
100
AcDbEntity
  8
ASSI
100
AcDbLine
 62
7
  6
CONTINUOUS
 10
-38.9918339235
 20
6.8252357541
 11
-38.9601527227
 21
6.8196829311
  0
LINE
  5
24D
100
AcDbEntity
  8
RACCORDO
100
AcDbLine
 62
253
  6
CONTINUOUS
 10
-38.9646243891
 20
6.8203741072
 11
-38.9852957103
 21
6.8240897893
  0
LINE
  5
24E
100
AcDbEntity
  8
ASSI
100
AcDbLine
 62
253
  6
CONTINUOUS
 10
-38.9678792496
 20
6.8209566456
 11
-38.9852957103
 21
6.8240897893
  0
LINE
  5
24F
100
AcDbEntity
  8
RACCORDO
100
AcDbLine
 62
7
  6
CONTINUOUS
 10
-39.0015494216
 20
6.8272557816
 11
-38.9877526396
 21
6.8245204198
  0
LWPOLYLINE
  5
250
100
AcDbEntity
  8
CURVE
100
AcDbPolyline
 62
252
  6
CONTINUOUS
 90
3
 70
0
 10
-23.6519321729
 20
11.4041916011
 10
-23.6664312117
 20
11.416310484
 10
-23.6807524741
 20
11.42919249
  0
LINE
  5
251
100
AcDbEntity
  8
CURVE
100
AcDbLine
 62
252
  6
CONTINUOUS
 10
-23.7087136239
 20
11.4571300825
 11
-23.7222813149
 21
11.4721256353
  0
LWPOLYLINE
  5
252
100
AcDbEntity
  8
RACCORDO
100
AcDbPolyline
 62
253
  6
CONTINUOUS
 90
49
 70
0
 10
-6.8534054039
 20
36.1208208192
 10
-6.8741820863
 20
36.1124479247
 10
-6.8948239809
 20
36.1033186717
 10
-6.9153147566
 20
36.0934404118
 10
-6.9356382938
 20
36.0828211678
 10
-6.955778425
 20
36.071469416
 10
-6.9757189396
 20
36.0593940488
 10
-6.9954441871
 20
36.0466046553
 10
-7.0149384233
 20
36.0331115671
 10
-7.0341855511
 20
36.0189256365
 10
-7.053170271
 20
36.0040582995
 10
-7.0718776393
 20
35.9885214382
 10
-7.0902924079
 20
35.9723274022
 10
-7.1084000069
 20
35.9554891691
 10
-7.1261861119
 20
35.9380202447
 10
-7.1436362048
 20
35.9199345356
 10
-7.1607364919
 20
35.9012465107
 10
-7.1774734309
 20
35.8819711686
 10
-7.1938332975
 20
35.8621239349
 10
-7.2098031326
 20
35.8417207253
 10
-7.2253703244
 20
35.8207778798
 10
-7.2405221361
 20
35.7993121305
 10
-7.2552465658
 20
35.7773406879
 10
-7.2695319894
 20
35.7548811441
 10
-7.283366743
 20
35.7319514094
 10
-7.2967398736
 20
35.7085698488
 10
-7.309640818
 20
35.6847551904
 10
-7.322059042
 20
35.6605264266
 10
-7.3339847179
 20
35.6359029442
 10
-7.3454084209
 20
35.6109044743
 10
-7.3563208041
 20
35.5855509966
 10
-7.3667132309
 20
35.5598627948
 10
-7.3765774922
 20
35.5338604505
 10
-7.3859055028
 20
35.5075647925
 10
-7.3946898669
 20
35.4809969044
 10
-7.4029236699
 20
35.4541780241
 10
-7.4106001939
 20
35.4271295365
 10
-7.4177133549
 20
35.3998731002
 10
-7.4242575495
 20
35.3724305217
 10
-7.4302274419
 20
35.3448236531
 10
-7.4356183136
 20
35.3170744869
 10
-7.4404258943
 20
35.2892053275
 10
-7.4446462154
 20
35.2612386651
 10
-7.4482759153
 20
35.2331970662
 10
-7.4513121831
 20
35.2051027831
 10
-7.4537525681
 20
35.1769779234
 10
-7.4555951085
 20
35.1488448647
 10
-7.4568383586
 20
35.120726239
 10
-7.4574813276
 20
35.0926445427
  0
LWPOLYLINE
  5
253
100
AcDbEntity
  8
ASSI
100
AcDbPolyline
 62
253
  6
CONTINUOUS
 90
49
 70
0
 10
-6.8534054039
 20
36.1208208192
 10
-6.8741820863
 20
36.1124479247
 10
-6.8948239809
 20
36.1033186717
 10
-6.9153147566
 20
36.0934404118
 10
-6.9356382938
 20
36.0828211678
 10
-6.955778425
 20
36.071469416
 10
-6.9757189396
 20
36.0593940488
 10
-6.9954441871
 20
36.0466046553
 10
-7.0149384233
 20
36.0331115671
 10
-7.0341855511
 20
36.0189256365
 10
-7.053170271
 20
36.0040582995
 10
-7.0718776393
 20
35.9885214382
 10
-7.0902924079
 20
35.9723274022
 10
-7.1084000069
 20
35.9554891691
 10
-7.1261861119
 20
35.9380202447
 10
-7.1436362048
 20
35.9199345356
 10
-7.1607364919
 20
35.9012465107
 10
-7.1774734309
 20
35.8819711686
 10
-7.1938332975
 20
35.8621239349
 10
-7.2098031326
 20
35.8417207253
 10
-7.2253703244
 20
35.8207778798
 10
-7.2405221361
 20
35.7993121305
 10
-7.2552465658
 20
35.7773406879
 10
-7.2695319894
 20
35.7548811441
 10
-7.283366743
 20
35.7319514094
 10
-7.2967398736
 20
35.7085698488
 10
-7.309640818
 20
35.6847551904
 10
-7.322059042
 20
35.6605264266
 10
-7.3339847179
 20
35.6359029442
 10
-7.3454084209
 20
35.6109044743
 10
-7.3563208041
 20
35.5855509966
 10
-7.3667132309
 20
35.5598627948
 10
-7.3765774922
 20
35.5338604505
 10
-7.3859055028
 20
35.5075647925
 10
-7.3946898669
 20
35.4809969044
 10
-7.4029236699
 20
35.4541780241
 10
-7.4106001939
 20
35.4271295365
 10
-7.4177133549
 20
35.3998731002
 10
-7.4242575495
 20
35.3724305217
 10
-7.4302274419
 20
35.3448236531
 10
-7.4356183136
 20
35.3170744869
 10
-7.4404258943
 20
35.2892053275
 10
-7.4446462154
 20
35.2612386651
 10
-7.4482759153
 20
35.2331970662
 10
-7.4513121831
 20
35.2051027831
 10
-7.4537525681
 20
35.1769779234
 10
-7.4555951085
 20
35.1488448647
 10
-7.4568383586
 20
35.120726239
 10
-7.4574813276
 20
35.0926445427
  0
LWPOLYLINE
  5
254
100
AcDbEntity
  8
RACCORDO
100
AcDbPolyline
 62
253
  6
CONTINUOUS
 90
49
 70
0
 10
-6.6128633075
 20
35.80372623
 10
-6.6274892034
 20
35.797868642
 10
-6.6419989251
 20
35.7914919301
 10
-6.6563924727
 20
35.7845960944
 10
-6.670681575
 20
35.7771746388
 10
-6.6848545032
 20
35.7692340594
 10
-6.6988760707
 20
35.7607938437
 10
-6.7127455476
 20
35.7518529216
 10
-6.726463664
 20
35.7424123632
 10
-6.739997423
 20
35.732494867
 10
-6.7533463329
 20
35.7220993158
 10
-6.7665108855
 20
35.7112268268
 10
-6.7794595599
 20
35.6999034509
 10
-6.7921918445
 20
35.6881281073
 10
-6.8047082509
 20
35.6759018767
 10
-6.8169787941
 20
35.6632540532
 10
-6.8290028988
 20
35.6501836079
 10
-6.8407811403
 20
35.6366915696
 10
-6.8522852588
 20
35.6228103185
 10
-6.8635145903
 20
35.6085389232
 10
-6.8744697988
 20
35.5938783151
 10
-6.885124617
 20
35.5788636681
 10
-6.8954783154
 20
35.5634941444
 10
-6.9055316234
 20
35.5477705818
 10
-6.9152604612
 20
35.5317306673
 10
-6.9246640504
 20
35.5153736452
 10
-6.9337431694
 20
35.4987002712
 10
-6.9424760731
 20
35.4817504994
 10
-6.9508619355
 20
35.4645236586
 10
-6.9589015825
 20
35.4470204201
 10
-6.9665757468
 20
35.4292827506
 10
-6.9738835536
 20
35.4113100781
 10
-6.9808258777
 20
35.3931029746
 10
-6.9873860757
 20
35.3747051237
 10
-6.9935632223
 20
35.3561160915
 10
-6.9993582429
 20
35.3373363118
 10
-7.0047572707
 20
35.3184107693
 10
-7.0097593586
 20
35.299339124
 10
-7.0143654537
 20
35.2801217159
 10
-7.0185645298
 20
35.260804549
 10
-7.0223556168
 20
35.2413873156
 10
-7.0257396849
 20
35.2218703236
 10
-7.0287086183
 20
35.2023005001
 10
-7.0312614241
 20
35.1826770409
 10
-7.0333990953
 20
35.1630007503
 10
-7.0351164948
 20
35.143320969
 10
-7.0364119102
 20
35.1236541439
 10
-7.0372870538
 20
35.103983828
 10
-7.0377419256
 20
35.0843100213
  0
LWPOLYLINE
  5
255
100
AcDbEntity
  8
ASSI
100
AcDbPolyline
 62
253
  6
CONTINUOUS
 90
49
 70
0
 10
-6.6128633075
 20
35.80372623
 10
-6.6274892034
 20
35.797868642
 10
-6.6419989251
 20
35.7914919301
 10
-6.6563924727
 20
35.7845960944
 10
-6.670681575
 20
35.7771746388
 10
-6.6848545032
 20
35.7692340594
 10
-6.6988760707
 20
35.7607938437
 10
-6.7127455476
 20
35.7518529216
 10
-6.726463664
 20
35.7424123632
 10
-6.739997423
 20
35.732494867
 10
-6.7533463329
 20
35.7220993158
 10
-6.7665108855
 20
35.7112268268
 10
-6.7794595599
 20
35.6999034509
 10
-6.7921918445
 20
35.6881281073
 10
-6.8047082509
 20
35.6759018767
 10
-6.8169787941
 20
35.6632540532
 10
-6.8290028988
 20
35.6501836079
 10
-6.8407811403
 20
35.6366915696
 10
-6.8522852588
 20
35.6228103185
 10
-6.8635145903
 20
35.6085389232
 10
-6.8744697988
 20
35.5938783151
 10
-6.885124617
 20
35.5788636681
 10
-6.8954783154
 20
35.5634941444
 10
-6.9055316234
 20
35.5477705818
 10
-6.9152604612
 20
35.5317306673
 10
-6.9246640504
 20
35.5153736452
 10
-6.9337431694
 20
35.4987002712
 10
-6.9424760731
 20
35.4817504994
 10
-6.9508619355
 20
35.4645236586
 10
-6.9589015825
 20
35.4470204201
 10
-6.9665757468
 20
35.4292827506
 10
-6.9738835536
 20
35.4113100781
 10
-6.9808258777
 20
35.3931029746
 10
-6.9873860757
 20
35.3747051237
 10
-6.9935632223
 20
35.3561160915
 10
-6.9993582429
 20
35.3373363118
 10
-7.0047572707
 20
35.3184107693
 10
-7.0097593586
 20
35.299339124
 10
-7.0143654537
 20
35.2801217159
 10
-7.0185645298
 20
35.260804549
 10
-7.0223556168
 20
35.2413873156
 10
-7.0257396849
 20
35.2218703236
 10
-7.0287086183
 20
35.2023005001
 10
-7.0312614241
 20
35.1826770409
 10
-7.0333990953
 20
35.1630007503
 10
-7.0351164948
 20
35.143320969
 10
-7.0364119102
 20
35.1236541439
 10
-7.0372870538
 20
35.103983828
 10
-7.0377419256
 20
35.0843100213
  0
LINE
  5
256
100
AcDbEntity
  8
RACCORDO
100
AcDbLine
 62
253
  6
CONTINUOUS
 10
-2.3003604524
 20
37.8557897235
 11
-6.8534054039
 21
36.1208208192
  0
LINE
  5
257
100
AcDbEntity
  8
ASSI
100
AcDbLine
 62
253
  6
CONTINUOUS
 10
-2.3003604524
 20
37.8557897235
 11
-6.8534054039
 21
36.1208208192
  0
LINE
  5
258
100
AcDbEntity
  8
RACCORDO
100
AcDbLine
 62
253
  6
CONTINUOUS
 10
-2.0950338485
 20
37.5252760301
 11
-6.6128633075
 21
35.80372623
  0
LINE
  5
259
100
AcDbEntity
  8
ASSI
100
AcDbLine
 62
253
  6
CONTINUOUS
 10
-2.0950338485
 20
37.5252760301
 11
-6.6128633075
 21
35.80372623
  0
LINE
  5
25A
100
AcDbEntity
  8
CURVE
100
AcDbLine
 62
252
  6
CONTINUOUS
 10
-23.2205264536
 20
12.3997614629
 11
-23.2085473162
 21
12.3827094619
  0
LINE
  5
25B
100
AcDbEntity
  8
CURVE
100
AcDbLine
 62
252
  6
CONTINUOUS
 10
-23.7962788798
 20
11.5741062603
 11
-23.8072535669
 21
11.5928650044
  0
LWPOLYLINE
  5
25C
100
AcDbEntity
  8
CURVE
100
AcDbPolyline
 62
252
  6
CONTINUOUS
 90
3
 70
0
 10
-23.1545957745
 20
12.290363287
 10
-23.1450205686
 20
12.2705563374
 10
-23.1358707827
 20
12.2503285209
  0
LWPOLYLINE
  5
25D
100
AcDbEntity
  8
CURVE
100
AcDbPolyline
 62
252
  6
CONTINUOUS
 90
3
 70
0
 10
-23.8377664512
 20
11.6519282864
 10
-23.8471030138
 20
11.6725118298
 10
-23.8560042009
 20
11.6935220157
  0
LWPOLYLINE
  5
25E
100
AcDbEntity
  8
CURVE
100
AcDbPolyline
 62
252
  6
CONTINUOUS
 90
3
 70
0
 10
-23.8644500072
 20
11.7149259034
 10
-23.8724183596
 20
11.7366859628
 10
-23.8798871848
 20
11.7587646642
  0
LWPOLYLINE
  5
25F
100
AcDbEntity
  8
0
100
AcDbPolyline
 62
7
  6
CONTINUOUS
 90
139
 70
0
 10
-25.4097692067
 20
21.5919106049
 10
-25.4102872937
 20
21.6477200688
 10
-25.4099377448
 20
21.7033230823
 10
-25.4087205828
 20
21.7587196409
 10
-25.4066339194
 20
21.8139447665
 10
-25.4036796818
 20
21.8689634293
 10
-25.399863648
 20
21.9236705425
 10
-25.3951860654
 20
21.9780496331
 10
-25.3896467984
 20
22.0321171551
 10
-25.3832510989
 20
22.0858174048
 10
-25.3759952416
 20
22.1391688317
 10
-25.3678830887
 20
22.1921529636
 10
-25.3589313223
 20
22.244658707
 10
-25.349142221
 20
22.2966660877
 10
-25.3385137143
 20
22.3481950466
 10
-25.3270560079
 20
22.3991943559
 10
-25.3147643318
 20
22.449679775
 10
-25.3016436827
 20
22.4996355087
 10
-25.2877189591
 20
22.5489629907
 10
-25.2729918892
 20
22.5976504018
 10
-25.2574610272
 20
22.6457095173
 10
-25.2411465559
 20
22.6930771558
 10
-25.2240465729
 20
22.7397560947
 10
-25.2061632867
 20
22.7857435094
 10
-25.1875230822
 20
22.8309678114
 10
-25.1681228289
 20
22.8754315885
 10
-25.1479659909
 20
22.9191322018
 10
-25.1270888825
 20
22.9619902164
 10
-25.1054959029
 20
23.003994549
 10
-25.0831830163
 20
23.0451562278
 10
-25.060173914
 20
23.0854289815
 10
-25.0364598114
 20
23.1248245102
 10
-25.0120498577
 20
23.1633310588
 10
-24.9869946722
 20
23.2008671683
 10
-24.9613027849
 20
23.237417764
 10
-24.934966053
 20
23.2729978626
 10
-24.9080101095
 20
23.307571139
 10
-24.8804246509
 20
23.3411481599
 10
-24.8522203551
 20
23.3737183028
 10
-24.8234543441
 20
23.4052134557
 10
-24.7941338417
 20
23.4356229976
 10
-24.7642520027
 20
23.4649574934
 10
-24.7338448607
 20
23.4931806072
 10
-24.7029069667
 20
23.520295557
 10
-24.6714441287
 20
23.5462990717
 10
-24.6395092738
 20
23.5711450815
 10
-24.6071017488
 20
23.5948310049
 10
-24.5742225482
 20
23.617359373
 10
-24.5409270779
 20
23.6386917837
 10
-24.5072199672
 20
23.6588237399
 10
-24.4730969022
 20
23.6777596924
 10
-24.4385998753
 20
23.6954746599
 10
-24.4037190096
 20
23.7119709022
 10
-24.3684644621
 20
23.7272461185
 10
-24.3329082735
 20
23.7412684877
 10
-24.2970622749
 20
23.7540316105
 10
-24.2609148803
 20
23.7655418504
 10
-24.2245029994
 20
23.7757865315
 10
-24.1878129524
 20
23.7847671214
 10
-24.1508586189
 20
23.7924821234
 10
-24.1137182397
 20
23.7989144164
 10
-24.0764041656
 20
23.8040597692
 10
-24.0389042004
 20
23.8079223904
 10
-24.0012597547
 20
23.8104978205
 10
-23.9634606627
 20
23.8117848618
 10
-23.9255171943
 20
23.8117846966
 10
-23.8875014017
 20
23.8104964377
 10
-23.84941862
 20
23.8079177092
 10
-23.8112635668
 20
23.8040508792
 10
-23.7730923549
 20
23.7989021782
 10
-23.7349050381
 20
23.7924700985
 10
-23.6967015626
 20
23.7847561478
 10
-23.6585378667
 20
23.7757710805
 10
-23.6204084216
 20
23.7655108798
 10
-23.5823187032
 20
23.7539795702
 10
-23.5443411437
 20
23.7411999704
 10
-23.5064860008
 20
23.7271740197
 10
-23.4687429127
 20
23.7118997939
 10
-23.4311533697
 20
23.6953943186
 10
-23.3937048646
 20
23.6776496422
 10
-23.3564097501
 20
23.6586737388
 10
-23.3193467959
 20
23.6385075235
 10
-23.2825297298
 20
23.6171566523
 10
-23.2459446242
 20
23.5946154985
 10
-23.2096287587
 20
23.5709080546
 10
-23.173570206
 20
23.5460244525
 10
-23.1377806484
 20
23.5199745961
 10
-23.1023327734
 20
23.4928121372
 10
-23.0672364181
 20
23.4645423124
 10
-23.0324814654
 20
23.4351599262
 10
-22.998110669
 20
23.4047029819
 10
-22.9641194337
 20
23.3731658017
 10
-22.9305120393
 20
23.3405541099
 10
-22.8973445538
 20
23.3069230133
 10
-22.8646174285
 20
23.2722700782
 10
-22.8323298708
 20
23.2365977886
 10
-22.8005360888
 20
23.1999686266
 10
-22.7692417306
 20
23.1623876744
 10
-22.7384407893
 20
23.123849903
 10
-22.7081699981
 20
23.0844026271
 10
-22.6784218148
 20
23.0440331062
 10
-22.6492034029
 20
23.002754137
 10
-22.6205735692
 20
22.9606513379
 10
-22.5925428947
 20
22.9177384562
 10
-22.565100424
 20
22.8740018006
 10
-22.5382726762
 20
22.8294858295
 10
-22.5120507847
 20
22.7841731395
 10
-22.4864432289
 20
22.7380811921
 10
-22.4615025695
 20
22.6913067401
 10
-22.4372378203
 20
22.6438640241
 10
-22.4136396027
 20
22.5957388584
 10
-22.3907329171
 20
22.5469853524
 10
-22.3685131825
 20
22.4975914869
 10
-22.3469846168
 20
22.4475693362
 10
-22.3261854474
 20
22.3970091449
 10
-22.3061187672
 20
22.3459142494
 10
-22.2867811496
 20
22.2942813644
 10
-22.2682010806
 20
22.2421907964
 10
-22.2503806376
 20
22.1896462107
 10
-22.2333174372
 20
22.1366439891
 10
-22.2170333098
 20
22.0832535079
 10
-22.2015261411
 20
22.029462424
 10
-22.186797763
 20
21.9752831243
 10
-22.1728759702
 20
21.920822073
 10
-22.1597660186
 20
21.8660964619
 10
-22.1474624255
 20
21.8110891352
 10
-22.1359769199
 20
21.7558550286
 10
-22.1253066393
 20
21.7003737824
 10
-22.1154542383
 20
21.6446657895
 10
-22.1064397685
 20
21.5888471087
 10
-22.0982675054
 20
21.5329369969
 10
-22.0909330363
 20
21.4769162198
 10
-22.0844434304
 20
21.4208430907
 10
-22.0787979465
 20
21.364701257
 10
-22.0739972142
 20
21.3085070903
 10
-22.0700504063
 20
21.252367983
 10
-22.0669605794
 20
21.1963197334
 10
-22.0647246383
 20
21.1403265511
 10
-22.0633425602
 20
21.0843884406
  0
LWPOLYLINE
  5
260
100
AcDbEntity
  8
ASSI
100
AcDbPolyline
 62
7
  6
CONTINUOUS
 90
139
 70
0
 10
-25.4097692067
 20
21.5919106049
 10
-25.4102872937
 20
21.6477200688
 10
-25.4099377448
 20
21.7033230823
 10
-25.4087205828
 20
21.7587196409
 10
-25.4066339194
 20
21.8139447665
 10
-25.4036796818
 20
21.8689634293
 10
-25.399863648
 20
21.9236705425
 10
-25.3951860654
 20
21.9780496331
 10
-25.3896467984
 20
22.0321171551
 10
-25.3832510989
 20
22.0858174048
 10
-25.3759952416
 20
22.1391688317
 10
-25.3678830887
 20
22.1921529636
 10
-25.3589313223
 20
22.244658707
 10
-25.349142221
 20
22.2966660877
 10
-25.3385137143
 20
22.3481950466
 10
-25.3270560079
 20
22.3991943559
 10
-25.3147643318
 20
22.449679775
 10
-25.3016436827
 20
22.4996355087
 10
-25.2877189591
 20
22.5489629907
 10
-25.2729918892
 20
22.5976504018
 10
-25.2574610272
 20
22.6457095173
 10
-25.2411465559
 20
22.6930771558
 10
-25.2240465729
 20
22.7397560947
 10
-25.2061632867
 20
22.7857435094
 10
-25.1875230822
 20
22.8309678114
 10
-25.1681228289
 20
22.8754315885
 10
-25.1479659909
 20
22.9191322018
 10
-25.1270888825
 20
22.9619902164
 10
-25.1054959029
 20
23.003994549
 10
-25.0831830163
 20
23.0451562278
 10
-25.060173914
 20
23.0854289815
 10
-25.0364598114
 20
23.1248245102
 10
-25.0120498577
 20
23.1633310588
 10
-24.9869946722
 20
23.2008671683
 10
-24.9613027849
 20
23.237417764
 10
-24.934966053
 20
23.2729978626
 10
-24.9080101095
 20
23.307571139
 10
-24.8804246509
 20
23.3411481599
 10
-24.8522203551
 20
23.3737183028
 10
-24.8234543441
 20
23.4052134557
 10
-24.7941338417
 20
23.4356229976
 10
-24.7642520027
 20
23.4649574934
 10
-24.7338448607
 20
23.4931806072
 10
-24.7029069667
 20
23.520295557
 10
-24.6714441287
 20
23.5462990717
 10
-24.6395092738
 20
23.5711450815
 10
-24.6071017488
 20
23.5948310049
 10
-24.5742225482
 20
23.617359373
 10
-24.5409270779
 20
23.6386917837
 10
-24.5072199672
 20
23.6588237399
 10
-24.4730969022
 20
23.6777596924
 10
-24.4385998753
 20
23.6954746599
 10
-24.4037190096
 20
23.7119709022
 10
-24.3684644621
 20
23.7272461185
 10
-24.3329082735
 20
23.7412684877
 10
-24.2970622749
 20
23.7540316105
 10
-24.2609148803
 20
23.7655418504
 10
-24.2245029994
 20
23.7757865315
 10
-24.1878129524
 20
23.7847671214
 10
-24.1508586189
 20
23.7924821234
 10
-24.1137182397
 20
23.7989144164
 10
-24.0764041656
 20
23.8040597692
 10
-24.0389042004
 20
23.8079223904
 10
-24.0012597547
 20
23.8104978205
 10
-23.9634606627
 20
23.8117848618
 10
-23.9255171943
 20
23.8117846966
 10
-23.8875014017
 20
23.8104964377
 10
-23.84941862
 20
23.8079177092
 10
-23.8112635668
 20
23.8040508792
 10
-23.7730923549
 20
23.7989021782
 10
-23.7349050381
 20
23.7924700985
 10
-23.6967015626
 20
23.7847561478
 10
-23.6585378667
 20
23.7757710805
 10
-23.6204084216
 20
23.7655108798
 10
-23.5823187032
 20
23.7539795702
 10
-23.5443411437
 20
23.7411999704
 10
-23.5064860008
 20
23.7271740197
 10
-23.4687429127
 20
23.7118997939
 10
-23.4311533697
 20
23.6953943186
 10
-23.3937048646
 20
23.6776496422
 10
-23.3564097501
 20
23.6586737388
 10
-23.3193467959
 20
23.6385075235
 10
-23.2825297298
 20
23.6171566523
 10
-23.2459446242
 20
23.5946154985
 10
-23.2096287587
 20
23.5709080546
 10
-23.173570206
 20
23.5460244525
 10
-23.1377806484
 20
23.5199745961
 10
-23.1023327734
 20
23.4928121372
 10
-23.0672364181
 20
23.4645423124
 10
-23.0324814654
 20
23.4351599262
 10
-22.998110669
 20
23.4047029819
 10
-22.9641194337
 20
23.3731658017
 10
-22.9305120393
 20
23.3405541099
 10
-22.8973445538
 20
23.3069230133
 10
-22.8646174285
 20
23.2722700782
 10
-22.8323298708
 20
23.2365977886
 10
-22.8005360888
 20
23.1999686266
 10
-22.7692417306
 20
23.1623876744
 10
-22.7384407893
 20
23.123849903
 10
-22.7081699981
 20
23.0844026271
 10
-22.6784218148
 20
23.0440331062
 10
-22.6492034029
 20
23.002754137
 10
-22.6205735692
 20
22.9606513379
 10
-22.5925428947
 20
22.9177384562
 10
-22.565100424
 20
22.8740018006
 10
-22.5382726762
 20
22.8294858295
 10
-22.5120507847
 20
22.7841731395
 10
-22.4864432289
 20
22.7380811921
 10
-22.4615025695
 20
22.6913067401
 10
-22.4372378203
 20
22.6438640241
 10
-22.4136396027
 20
22.5957388584
 10
-22.3907329171
 20
22.5469853524
 10
-22.3685131825
 20
22.4975914869
 10
-22.3469846168
 20
22.4475693362
 10
-22.3261854474
 20
22.3970091449
 10
-22.3061187672
 20
22.3459142494
 10
-22.2867811496
 20
22.2942813644
 10
-22.2682010806
 20
22.2421907964
 10
-22.2503806376
 20
22.1896462107
 10
-22.2333174372
 20
22.1366439891
 10
-22.2170333098
 20
22.0832535079
 10
-22.2015261411
 20
22.029462424
 10
-22.186797763
 20
21.9752831243
 10
-22.1728759702
 20
21.920822073
 10
-22.1597660186
 20
21.8660964619
 10
-22.1474624255
 20
21.8110891352
 10
-22.1359769199
 20
21.7558550286
 10
-22.1253066393
 20
21.7003737824
 10
-22.1154542383
 20
21.6446657895
 10
-22.1064397685
 20
21.5888471087
 10
-22.0982675054
 20
21.5329369969
 10
-22.0909330363
 20
21.4769162198
 10
-22.0844434304
 20
21.4208430907
 10
-22.0787979465
 20
21.364701257
 10
-22.0739972142
 20
21.3085070903
 10
-22.0700504063
 20
21.252367983
 10
-22.0669605794
 20
21.1963197334
 10
-22.0647246383
 20
21.1403265511
 10
-22.0633425602
 20
21.0843884406
  0
LWPOLYLINE
  5
261
100
AcDbEntity
  8
CURVE
100
AcDbPolyline
 62
252
  6
CONTINUOUS
 90
84
 70
0
 10
-24.4937793443
 20
30.8415678816
 10
-24.4932081628
 20
30.8833880754
 10
-24.4914745317
 20
30.9246560193
 10
-24.488578224
 20
30.9654024063
 10
-24.4845190125
 20
31.0056579295
 10
-24.4792966703
 20
31.0454532821
 10
-24.4740571792
 20
31.0782750087
 10
-24.4680164335
 20
31.1107460998
 10
-24.4611810662
 20
31.1428141684
 10
-24.4535577101
 20
31.1744268274
 10
-24.4451529981
 20
31.2055316895
 10
-24.4359735632
 20
31.2360763676
 10
-24.4260285424
 20
31.2660109267
 10
-24.4153370897
 20
31.2952952395
 10
-24.4039208629
 20
31.3238916308
 10
-24.3918015204
 20
31.3517624255
 10
-24.37900072
 20
31.3788699483
 10
-24.3655401199
 20
31.405176524
 10
-24.3485435535
 20
31.4356394869
 10
-24.3306450576
 20
31.4648619446
 10
-24.3118616264
 20
31.4928110079
 10
-24.2922102543
 20
31.5194537877
 10
-24.2717079357
 20
31.5447573947
 10
-24.2503794374
 20
31.5686855778
 10
-24.2282806158
 20
31.5911886381
 10
-24.2054750995
 20
31.6122135142
 10
-24.1820265175
 20
31.6317071453
 10
-24.1579984985
 20
31.6496164701
 10
-24.1375737669
 20
31.6632958764
 10
-24.1167996858
 20
31.6758284176
 10
-24.0956851059
 20
31.6872042892
 10
-24.0742388781
 20
31.6974136869
 10
-24.0524698528
 20
31.7064468061
 10
-24.0303868809
 20
31.7142938425
 10
-24.0080048127
 20
31.7209462974
 10
-23.985362497
 20
31.7264008962
 10
-23.9625047821
 20
31.73065567
 10
-23.9394765164
 20
31.7337086499
 10
-23.9163225483
 20
31.7355578673
 10
-23.8930877262
 20
31.7362013532
 10
-23.8651534223
 20
31.7353805641
 10
-23.8371911488
 20
31.7328254764
 10
-23.8092247841
 20
31.72854088
 10
-23.7812782066
 20
31.7225315647
 10
-23.7533752948
 20
31.7148023204
 10
-23.7301783214
 20
31.7070528866
 10
-23.7070712935
 20
31.6981270497
 10
-23.6840972507
 20
31.6880394754
 10
-23.661299233
 20
31.6768048294
 10
-23.6387202801
 20
31.6644377776
 10
-23.6164034318
 20
31.6509529855
 10
-23.5943864163
 20
31.6363653261
 10
-23.5726857159
 20
31.6206905008
 10
-23.551312501
 20
31.6039444177
 10
-23.5302779424
 20
31.5861429854
 10
-23.5095932105
 20
31.5673021122
 10
-23.4892694761
 20
31.5474377065
 10
-23.4653792326
 20
31.5222776683
 10
-23.4420801725
 20
31.4957296165
 10
-23.419427557
 20
31.4678565163
 10
-23.3974766474
 20
31.4387213328
 10
-23.3762827053
 20
31.4083870313
 10
-23.3558955358
 20
31.3769134124
 10
-23.3363431204
 20
31.3443476186
 10
-23.3176479844
 20
31.3107336281
 10
-23.2998326534
 20
31.2761154189
 10
-23.2829196526
 20
31.2405369692
 10
-23.2669330706
 20
31.2040476458
 10
-23.2519032482
 20
31.1667183703
 10
-23.2378620892
 20
31.1286254533
 10
-23.2248414976
 20
31.0898452052
 10
-23.2128733772
 20
31.0504539363
 10
-23.2037255806
 20
31.0172133464
 10
-23.1953411783
 20
30.9836285818
 10
-23.1877305262
 20
30.9497267944
 10
-23.1809040754
 20
30.9155412733
 10
-23.1748726558
 20
30.8811298554
 10
-23.1696471923
 20
30.8465565149
 10
-23.1652350857
 20
30.811883499
 10
-23.1616296392
 20
30.7771661479
 10
-23.1588206317
 20
30.7424580748
 10
-23.1568016991
 20
30.7077804165
 10
-23.1555819051
 20
30.6730244044
 10
-23.1551741703
 20
30.6380487936
  0
LWPOLYLINE
  5
262
100
AcDbEntity
  8
CURVE
100
AcDbPolyline
 62
252
  6
CONTINUOUS
 90
3
 70
0
 10
-23.0704204369
 20
12.0319061353
 10
-23.0666851951
 20
12.0093201478
 10
-23.0634686327
 20
11.986700291
  0
LWPOLYLINE
  5
263
100
AcDbEntity
  8
CURVE
100
AcDbPolyline
 62
252
  6
CONTINUOUS
 90
3
 70
0
 10
-23.060769629
 20
11.9640456483
 10
-23.0585951409
 20
11.9413088038
 10
-23.0569541453
 20
11.9184307169
  0
LWPOLYLINE
  5
264
100
AcDbEntity
  8
CURVE
100
AcDbPolyline
 62
252
  6
CONTINUOUS
 90
89
 70
0
 10
-23.0558574112
 20
11.895402753
 10
-23.0569573074
 20
11.9184834287
 10
-23.058599751
 20
11.9413638017
 10
-23.0607757741
 20
11.964102929
 10
-23.0634764088
 20
11.9867598682
 10
-23.0666947099
 20
12.0093820573
 10
-23.0704318231
 20
12.0319704587
 10
-23.074690917
 20
12.0545144157
 10
-23.0794751599
 20
12.0770032716
 10
-23.0847856144
 20
12.0994197567
 10
-23.0906149186
 20
12.1217201493
 10
-23.0969536046
 20
12.1438541149
 10
-23.1037922044
 20
12.1657713188
 10
-23.1111205327
 20
12.1874238239
 10
-23.1189255347
 20
12.2087732822
 10
-23.1271934379
 20
12.2297837433
 10
-23.1359104702
 20
12.2504192567
 10
-23.145063486
 20
12.2706481176
 10
-23.154641848
 20
12.2904556035
 10
-23.1646355456
 20
12.3098312373
 10
-23.1750345682
 20
12.3287645421
 10
-23.1858305807
 20
12.3472448151
 10
-23.1970219494
 20
12.3652604491
 10
-23.2086087159
 20
12.382799611
 10
-23.2205909219
 20
12.3998504679
 10
-23.2329639616
 20
12.4163969938
 10
-23.2457046395
 20
12.4324063923
 10
-23.2587851125
 20
12.4478416738
 10
-23.2721775377
 20
12.4626658489
 10
-23.2858524101
 20
12.4768434603
 10
-23.2997735765
 20
12.4903451788
 10
-23.3139032216
 20
12.503143207
 10
-23.3282035303
 20
12.5152097478
 10
-23.342642525
 20
12.5265223512
 10
-23.357211578
 20
12.5370799571
 10
-23.3719078993
 20
12.5468868524
 10
-23.386728699
 20
12.5559473243
 10
-23.4016719775
 20
12.5642643271
 10
-23.4167388973
 20
12.5718354837
 10
-23.4319314115
 20
12.5786570846
 10
-23.4472514731
 20
12.5847254198
 10
-23.4626945275
 20
12.5900343561
 10
-23.4782299898
 20
12.594568066
 10
-23.4938207672
 20
12.5983082981
 10
-23.5094297672
 20
12.6012368013
 10
-23.5250193374
 20
12.6033397929
 10
-23.5405495863
 20
12.6046213646
 10
-23.5559800628
 20
12.6050900763
 10
-23.5712703157
 20
12.6047544883
 10
-23.5863869063
 20
12.6036222711
 10
-23.6013244453
 20
12.6016975381
 10
-23.6160845556
 20
12.5989835128
 10
-23.6306688605
 20
12.5954834192
 10
-23.6450782856
 20
12.591198978
 10
-23.6593109684
 20
12.5861258986
 10
-23.6733643486
 20
12.5802583876
 10
-23.6872358663
 20
12.5735906513
 10
-23.70091788
 20
12.5661205961
 10
-23.7143824226
 20
12.5578609269
 10
-23.7275964455
 20
12.5488280484
 10
-23.7405269002
 20
12.5390383653
 10
-23.7531423395
 20
12.5285102913
 10
-23.7654177225
 20
12.5172702758
 10
-23.7773296096
 20
12.505346777
 10
-23.7888545614
 20
12.4927682535
 10
-23.7999728092
 20
12.4795599336
 10
-23.8106792675
 20
12.4657341264
 10
-23.8209725217
 20
12.4512999108
 10
-23.8308511574
 20
12.436266366
 10
-23.8403120897
 20
12.420641589
 10
-23.8493455543
 20
12.4044297489
 10
-23.8579401166
 20
12.3876340329
 10
-23.8660843419
 20
12.370257628
 10
-23.8737665178
 20
12.3523082958
 10
-23.8809738195
 20
12.3338120948
 10
-23.8876931443
 20
12.3147996582
 10
-23.8939113893
 20
12.2953016189
 10
-23.8996163324
 20
12.2753507442
 10
-23.9047992738
 20
12.2549883385
 10
-23.909452394
 20
12.2342578405
 10
-23.9135678738
 20
12.2132026888
 10
-23.9171396446
 20
12.191861308
 10
-23.9201686409
 20
12.1702520657
 10
-23.9226575478
 20
12.148388315
 10
-23.9246090505
 20
12.1262834095
 10
-23.9260233884
 20
12.1039381277
 10
-23.9268910174
 20
12.0813029487
 10
-23.9271999474
 20
12.0583157773
 10
-23.9269381886
 20
12.0349145177
  0
LINE
  5
265
100
AcDbEntity
  8
CURVE
100
AcDbLine
 62
252
  6
CONTINUOUS
 10
-23.3931518911
 20
9.1038922867
 11
-23.4381365393
 21
10.2860508996
  0
LWPOLYLINE
  5
266
100
AcDbEntity
  8
CURVE
100
AcDbPolyline
 62
252
  6
CONTINUOUS
 90
68
 70
0
 10
-23.9269381886
 20
12.0349145177
 10
-23.9260985032
 20
12.0113076127
 10
-23.9246891794
 20
11.9879083067
 10
-23.92271444
 20
11.9646582832
 10
-23.9201785074
 20
11.9414992253
 10
-23.9170847472
 20
11.9183840063
 10
-23.9134330969
 20
11.8953102591
 10
-23.9092226371
 20
11.8722868062
 10
-23.9044524484
 20
11.8493224705
 10
-23.8991233744
 20
11.8264335029
 10
-23.8932433111
 20
11.8036658674
 10
-23.8868219175
 20
11.7810729564
 10
-23.8798688526
 20
11.7587081621
 10
-23.8723958972
 20
11.7366223139
 10
-23.8644233198
 20
11.7148559905
 10
-23.8559735105
 20
11.6934472076
 10
-23.8470688597
 20
11.6724339809
 10
-23.8377296112
 20
11.6518495648
 10
-23.8279674231
 20
11.6317081686
 10
-23.8177918074
 20
11.6120192401
 10
-23.8072122758
 20
11.5927922272
 10
-23.7962368071
 20
11.574036567
 10
-23.784867247
 20
11.5557616537
 10
-23.7731039081
 20
11.5379768708
 10
-23.7609471029
 20
11.5206916018
 10
-23.7484014427
 20
11.5039206433
 10
-23.7354887334
 20
11.4877004456
 10
-23.7222350797
 20
11.4720728718
 10
-23.7086665863
 20
11.4570797853
 10
-23.6948111625
 20
11.4427608861
 10
-23.6807039365
 20
11.4291472207
 10
-23.6663818414
 20
11.4162676719
 10
-23.6518818102
 20
11.4041511229
 10
-23.6372353981
 20
11.3928196575
 10
-23.6224526503
 20
11.382268164
 10
-23.6075382341
 20
11.3724847313
 10
-23.592496817
 20
11.3634574486
 10
-23.5773322466
 20
11.3551780462
 10
-23.5620450913
 20
11.3476528197
 10
-23.5466350999
 20
11.3408917062
 10
-23.5311020209
 20
11.3349046428
 10
-23.5154523343
 20
11.3297026411
 10
-23.4997194441
 20
11.3253010125
 10
-23.4839434858
 20
11.3217161428
 10
-23.4681645948
 20
11.318964418
 10
-23.4524227026
 20
11.3170584352
 10
-23.4367569258
 20
11.3159956354
 10
-23.4212061772
 20
11.3157696709
 10
-23.4058093697
 20
11.3163741939
 10
-23.3905984733
 20
11.3178024569
 10
-23.3755776871
 20
11.3200461147
 10
-23.3607442673
 20
11.3230964226
 10
-23.3460954703
 20
11.3269446357
 10
-23.3316294661
 20
11.3315843812
 10
-23.3173480798
 20
11.3370187746
 10
-23.3032540503
 20
11.343253303
 10
-23.2893501163
 20
11.350293454
 10
-23.2756446038
 20
11.3581416252
 10
-23.2621681867
 20
11.3667878567
 10
-23.2489571259
 20
11.3762190987
 10
-23.2360476825
 20
11.3864223017
 10
-23.2234740919
 20
11.3973801787
 10
-23.2112624869
 20
11.4090584932
 10
-23.1994369751
 20
11.4214187715
 10
-23.1880216637
 20
11.4344225398
 10
-23.1770368476
 20
11.4480368276
 10
-23.1664875716
 20
11.4622506769
 10
-23.1563750676
 20
11.4770586329
  0
LINE
  5
267
100
AcDbEntity
  8
CURVE
100
AcDbLine
 62
252
  6
CONTINUOUS
 10
-23.551912714
 20
13.6375978249
 11
-23.5872421299
 21
14.8212367297
  0
LWPOLYLINE
  5
268
100
AcDbEntity
  8
0
100
AcDbPolyline
 62
7
  6
CONTINUOUS
 90
67
 70
0
 10
-22.4681908527
 20
21.2774626638
 10
-22.4690580871
 20
21.3106755835
 10
-22.4705278434
 20
21.3439560325
 10
-22.4725990619
 20
21.3772800172
 10
-22.4752702494
 20
21.410623513
 10
-22.4785394802
 20
21.443962481
 10
-22.4824043973
 20
21.4772728857
 10
-22.4868622143
 20
21.5105307122
 10
-22.4919097175
 20
21.5437119833
 10
-22.4975432677
 20
21.5767927773
 10
-22.5037588036
 20
21.6097492447
 10
-22.510551844
 20
21.6425576257
 10
-22.5179174916
 20
21.6751942672
 10
-22.5258504362
 20
21.7076356402
 10
-22.5343449585
 20
21.7398583561
 10
-22.5433949345
 20
21.7718391841
 10
-22.5529938396
 20
21.8035550678
 10
-22.5631347535
 20
21.8349831419
 10
-22.5738103652
 20
21.8661007485
 10
-22.5850129782
 20
21.8968854534
 10
-22.5967345161
 20
21.9273150626
 10
-22.6089665281
 20
21.957367638
 10
-22.6217001958
 20
21.9870215135
 10
-22.6349263389
 20
22.0162553101
 10
-22.648635422
 20
22.0450479519
 10
-22.6628175617
 20
22.0733786811
 10
-22.6774625334
 20
22.1012270727
 10
-22.6925597788
 20
22.1285730497
 10
-22.7080984138
 20
22.155396897
 10
-22.7240672359
 20
22.1816792761
 10
-22.7404547323
 20
22.207401239
 10
-22.7572490887
 20
22.2325442414
 10
-22.7744381971
 20
22.2570901567
 10
-22.7920096653
 20
22.2810212887
 10
-22.8099508251
 20
22.3043203843
 10
-22.828248742
 20
22.3269706462
 10
-22.8468902242
 20
22.3489557447
 10
-22.8658618323
 20
22.3702598299
 10
-22.8851498886
 20
22.3908675426
 10
-22.9047404877
 20
22.4107640259
 10
-22.9246195057
 20
22.4299349355
 10
-22.9447726111
 20
22.4483664502
 10
-22.9651852744
 20
22.4660452819
 10
-22.9858427795
 20
22.4829586852
 10
-23.0067302332
 20
22.4990944664
 10
-23.0278325769
 20
22.5144409925
 10
-23.049134597
 20
22.5289871996
 10
-23.070620936
 20
22.5427226005
 10
-23.0922761033
 20
22.555637293
 10
-23.1140844868
 20
22.5677219661
 10
-23.1360303638
 20
22.5789679075
 10
-23.1580979126
 20
22.5893670095
 10
-23.1802712236
 20
22.5989117749
 10
-23.2025343113
 20
22.6075953225
 10
-23.224871125
 20
22.6154113919
 10
-23.2472655613
 20
22.6223543482
 10
-23.2697014749
 20
22.6284191858
 10
-23.2921626908
 20
22.6336015324
 10
-23.3146330157
 20
22.6378976518
 10
-23.3370962498
 20
22.6413044466
 10
-23.3595361983
 20
22.6438194609
 10
-23.3819366832
 20
22.6454408814
 10
-23.404281555
 20
22.6461675392
 10
-23.4265547044
 20
22.6459989103
 10
-23.4487400735
 20
22.6449351164
 10
-23.4708216681
 20
22.6429769244
 10
-23.4942240882
 20
22.639906871
  0
LWPOLYLINE
  5
269
100
AcDbEntity
  8
ASSI
100
AcDbPolyline
 62
7
  6
CONTINUOUS
 90
62
 70
0
 10
-22.4681908527
 20
21.2774626638
 10
-22.4690580871
 20
21.3106755835
 10
-22.4705278434
 20
21.3439560325
 10
-22.4725990619
 20
21.3772800172
 10
-22.4752702494
 20
21.410623513
 10
-22.4785394802
 20
21.443962481
 10
-22.4824043973
 20
21.4772728857
 10
-22.4868622143
 20
21.5105307122
 10
-22.4919097175
 20
21.5437119833
 10
-22.4975432677
 20
21.5767927773
 10
-22.5037588036
 20
21.6097492447
 10
-22.510551844
 20
21.6425576257
 10
-22.5179174916
 20
21.6751942672
 10
-22.5258504362
 20
21.7076356402
 10
-22.5343449585
 20
21.7398583561
 10
-22.5433949345
 20
21.7718391841
 10
-22.5529938396
 20
21.8035550678
 10
-22.5631347535
 20
21.8349831419
 10
-22.5738103652
 20
21.8661007485
 10
-22.5850129782
 20
21.8968854534
 10
-22.5967345161
 20
21.9273150626
 10
-22.6089665281
 20
21.957367638
 10
-22.6217001958
 20
21.9870215135
 10
-22.6349263389
 20
22.0162553101
 10
-22.648635422
 20
22.0450479519
 10
-22.6628175617
 20
22.0733786811
 10
-22.6774625334
 20
22.1012270727
 10
-22.6925597788
 20
22.1285730497
 10
-22.7080984138
 20
22.155396897
 10
-22.7240672359
 20
22.1816792761
 10
-22.7404547323
 20
22.207401239
 10
-22.7572490887
 20
22.2325442414
 10
-22.7744381971
 20
22.2570901567
 10
-22.7920096653
 20
22.2810212887
 10
-22.8099508251
 20
22.3043203843
 10
-22.828248742
 20
22.3269706462
 10
-22.8468902242
 20
22.3489557447
 10
-22.8658618323
 20
22.3702598299
 10
-22.8851498886
 20
22.3908675426
 10
-22.9047404877
 20
22.4107640259
 10
-22.9246195057
 20
22.4299349355
 10
-22.9447726111
 20
22.4483664502
 10
-22.9651852744
 20
22.4660452819
 10
-22.9858427795
 20
22.4829586852
 10
-23.0067302332
 20
22.4990944664
 10
-23.0278325769
 20
22.5144409925
 10
-23.049134597
 20
22.5289871996
 10
-23.070620936
 20
22.5427226005
 10
-23.0922761033
 20
22.555637293
 10
-23.1140844868
 20
22.5677219661
 10
-23.1360303638
 20
22.5789679075
 10
-23.1580979126
 20
22.5893670095
 10
-23.1802712236
 20
22.5989117749
 10
-23.2025343113
 20
22.6075953225
 10
-23.224871125
 20
22.6154113919
 10
-23.2472655613
 20
22.6223543482
 10
-23.2697014749
 20
22.6284191858
 10
-23.2921626908
 20
22.6336015324
 10
-23.3146330157
 20
22.6378976518
 10
-23.3370962498
 20
22.6413044466
 10
-23.3595361983
 20
22.6438194609
 10
-23.3819366832
 20
22.6454408814
  0
LINE
  5
26A
100
AcDbEntity
  8
CURVE
100
AcDbLine
 62
252
  6
CONTINUOUS
 10
-23.0558142194
 20
11.8941660572
 11
-23.0553047363
 21
11.8709550406
  0
LWPOLYLINE
  5
26B
100
AcDbEntity
  8
CURVE
100
AcDbPolyline
 62
252
  6
CONTINUOUS
 90
3
 70
0
 10
-23.8033256261
 20
26.8471114489
 10
-23.8119624207
 20
28.3156237155
 10
-23.8135041614
 20
28.6786779013
  0
LINE
  5
26C
100
AcDbEntity
  8
CURVE
100
AcDbLine
 62
252
  6
CONTINUOUS
 10
-23.0553073013
 20
11.8712267278
 11
-23.0553679719
 21
11.8483697287
  0
LWPOLYLINE
  5
26D
100
AcDbEntity
  8
CURVE
100
AcDbPolyline
 62
252
  6
CONTINUOUS
 90
3
 70
0
 10
-23.8143589935
 20
32.8501493519
 10
-23.8072754958
 20
34.3206109052
 10
-23.8052613037
 20
34.6351271225
  0
LWPOLYLINE
  5
26E
100
AcDbEntity
  8
CURVE
100
AcDbPolyline
 62
252
  6
CONTINUOUS
 90
84
 70
0
 10
-23.1551741703
 20
30.6380487936
 10
-23.1557551446
 20
30.5962344214
 10
-23.1574921259
 20
30.5549738818
 10
-23.160385555
 20
30.5142365057
 10
-23.1644358724
 20
30.4739916242
 10
-23.1696435189
 20
30.4342085684
 10
-23.1748664757
 20
30.4013983553
 10
-23.1808868696
 20
30.3689398646
 10
-23.187698131
 20
30.3368854042
 10
-23.1952936904
 20
30.3052872822
 10
-23.203666978
 20
30.2741978066
 10
-23.2128114244
 20
30.2436692852
 10
-23.2227179937
 20
30.2137515794
 10
-23.2333677857
 20
30.1844847637
 10
-23.2447394343
 20
30.1559064657
 10
-23.2568115731
 20
30.1280543131
 10
-23.2695628357
 20
30.1009659338
 10
-23.2829718561
 20
30.0746789553
 10
-23.2999042286
 20
30.0442400333
 10
-23.3177364341
 20
30.0150420712
 10
-23.3364519023
 20
29.987117828
 10
-23.3560340625
 20
29.9605000624
 10
-23.3764663443
 20
29.9352215333
 10
-23.3977244214
 20
29.9113183464
 10
-23.419752945
 20
29.8888399958
 10
-23.44248881
 20
29.8678393224
 10
-23.4658689119
 20
29.8483691674
 10
-23.4898301458
 20
29.8304823717
 10
-23.5102008812
 20
29.8168208622
 10
-23.5309227214
 20
29.8043053075
 10
-23.5519870303
 20
29.7929454119
 10
-23.5733851714
 20
29.7827508801
 10
-23.5951085084
 20
29.7737314165
 10
-23.6171484052
 20
29.7658967255
 10
-23.6394902276
 20
29.7592552155
 10
-23.6620953499
 20
29.7538101102
 10
-23.6849191488
 20
29.7495633372
 10
-23.7079170009
 20
29.7465168239
 10
-23.7310442827
 20
29.7446724979
 10
-23.7542563708
 20
29.7440322868
 10
-23.782168873
 20
29.7448548449
 10
-23.8101154194
 20
29.7474094297
 10
-23.838072191
 20
29.7516913667
 10
-23.8660153687
 20
29.7576959817
 10
-23.8939211335
 20
29.7654186003
 10
-23.9171252789
 20
29.7731611281
 10
-23.9402437487
 20
29.7820788884
 10
-23.9632333898
 20
29.7921573016
 10
-23.9860510489
 20
29.803381788
 10
-24.0086535727
 20
29.8157377683
 10
-24.030997808
 20
29.8292106629
 10
-24.0530458934
 20
29.843785679
 10
-24.0747811344
 20
29.8594471709
 10
-24.0961921284
 20
29.8761792798
 10
-24.1172674728
 20
29.8939661467
 10
-24.137995765
 20
29.9127919127
 10
-24.1583656023
 20
29.9326407189
 10
-24.182314184
 20
29.9577814518
 10
-24.2056744201
 20
29.9843096111
 10
-24.2283905598
 20
30.0121622825
 10
-24.2504068521
 20
30.0412765513
 10
-24.2716675463
 20
30.0715895031
 10
-24.2921223557
 20
30.1030413918
 10
-24.3117428503
 20
30.1355851455
 10
-24.3305060643
 20
30.1691768609
 10
-24.3483890319
 20
30.2037726345
 10
-24.3653687873
 20
30.239328563
 10
-24.3814208057
 20
30.2757953706
 10
-24.3965143254
 20
30.313102292
 10
-24.4106170259
 20
30.3511731896
 10
-24.4236965864
 20
30.3899319259
 10
-24.4357206864
 20
30.4293023631
 10
-24.4449125867
 20
30.4625262204
 10
-24.4533387152
 20
30.4960948407
 10
-24.460988704
 20
30.5299810678
 10
-24.4678520926
 20
30.5641516455
 10
-24.4739180513
 20
30.5985489161
 10
-24.4791756583
 20
30.6331091218
 10
-24.4836174572
 20
30.6677702313
 10
-24.4872498548
 20
30.7024771187
 10
-24.4900827235
 20
30.7371763851
 10
-24.492122101
 20
30.7718469799
 10
-24.4933586865
 20
30.8065972477
 10
-24.4937793443
 20
30.8415678816
  0
LINE
  5
26F
100
AcDbEntity
  8
CURVE
100
AcDbLine
 62
252
  6
CONTINUOUS
 10
-23.0553639123
 20
11.848638099
 11
-23.0559828162
 21
11.8260814378
  0
LINE
  5
270
100
AcDbEntity
  8
CURVE
100
AcDbLine
 62
252
  6
CONTINUOUS
 10
-23.055972298
 20
11.82634626
 11
-23.0571375346
 21
11.8040362897
  0
LWPOLYLINE
  5
271
100
AcDbEntity
  8
RACCORDO
100
AcDbPolyline
 62
7
  6
CONTINUOUS
 90
10
 70
0
 10
-23.0653024718
 20
20.2017477294
 10
-23.0869636433
 20
20.1988008985
 10
-23.1087515607
 20
20.196584586
 10
-23.1306495114
 20
20.1951034474
 10
-23.1526314697
 20
20.1943615363
 10
-23.1746896239
 20
20.194361216
 10
-23.1968348042
 20
20.1951062611
 10
-23.2190596087
 20
20.1966018919
 10
-23.2413380117
 20
20.1988516666
 10
-23.263653174
 20
20.2018585665
  0
LWPOLYLINE
  5
272
100
AcDbEntity
  8
0
100
AcDbPolyline
 62
7
  6
CONTINUOUS
 90
67
 70
0
 10
-23.1153709405
 20
20.1687795387
 10
-23.1387733606
 20
20.1657094854
 10
-23.1608549552
 20
20.1637512934
 10
-23.1830403243
 20
20.1626874994
 10
-23.2053134737
 20
20.1625188706
 10
-23.2276583455
 20
20.1632455283
 10
-23.2500588304
 20
20.1648669488
 10
-23.2724987789
 20
20.1673819631
 10
-23.294962013
 20
20.170788758
 10
-23.3174323379
 20
20.1750848774
 10
-23.3398935538
 20
20.180267224
 10
-23.3623294674
 20
20.1863320616
 10
-23.3847239037
 20
20.1932750179
 10
-23.4070607174
 20
20.2010910873
 10
-23.4293238051
 20
20.2097746349
 10
-23.4514971162
 20
20.2193194003
 10
-23.4735646649
 20
20.2297185023
 10
-23.495510542
 20
20.2409644437
 10
-23.5173189254
 20
20.2530491168
 10
-23.5389740927
 20
20.2659638092
 10
-23.5604604317
 20
20.2796992102
 10
-23.5817624518
 20
20.2942454173
 10
-23.6028647955
 20
20.3095919434
 10
-23.6237522492
 20
20.3257277246
 10
-23.6444097543
 20
20.3426411279
 10
-23.6648224176
 20
20.3603199596
 10
-23.684975523
 20
20.3787514743
 10
-23.704854541
 20
20.3979223838
 10
-23.7244451401
 20
20.4178188671
 10
-23.7437331965
 20
20.4384265799
 10
-23.7627048045
 20
20.459730665
 10
-23.7813462867
 20
20.4817157636
 10
-23.7996442036
 20
20.5043660254
 10
-23.8175853634
 20
20.527665121
 10
-23.8351568316
 20
20.551596253
 10
-23.8523459401
 20
20.5761421684
 10
-23.8691402964
 20
20.6012851708
 10
-23.8855277928
 20
20.6270071337
 10
-23.9014966149
 20
20.6532895128
 10
-23.9170352499
 20
20.6801133601
 10
-23.9321324954
 20
20.707459337
 10
-23.946777467
 20
20.7353077287
 10
-23.9609596067
 20
20.7636384578
 10
-23.9746686898
 20
20.7924310997
 10
-23.9878948329
 20
20.8216648963
 10
-24.0006285006
 20
20.8513187717
 10
-24.0128605126
 20
20.8813713472
 10
-24.0245820505
 20
20.9118009564
 10
-24.0357846635
 20
20.9425856613
 10
-24.0464602752
 20
20.9737032678
 10
-24.0566011891
 20
21.0051313419
 10
-24.0662000942
 20
21.0368472257
 10
-24.0752500702
 20
21.0688280537
 10
-24.0837445925
 20
21.1010507696
 10
-24.0916775371
 20
21.1334921425
 10
-24.0990431847
 20
21.1661287841
 10
-24.1058362251
 20
21.1989371651
 10
-24.112051761
 20
21.2318936325
 10
-24.1176853112
 20
21.2649744264
 10
-24.1227328144
 20
21.2981556976
 10
-24.1271906314
 20
21.331413524
 10
-24.1310555485
 20
21.3647239288
 10
-24.1343247793
 20
21.3980628968
 10
-24.1369959668
 20
21.4314063926
 10
-24.1390671854
 20
21.4647303773
 10
-24.1405369416
 20
21.4980108262
 10
-24.141404176
 20
21.531223746
  0
LWPOLYLINE
  5
273
100
AcDbEntity
  8
ASSI
100
AcDbPolyline
 62
7
  6
CONTINUOUS
 90
67
 70
0
 10
-23.1153709405
 20
20.1687795387
 10
-23.1387733606
 20
20.1657094854
 10
-23.1608549552
 20
20.1637512934
 10
-23.1830403243
 20
20.1626874994
 10
-23.2053134737
 20
20.1625188706
 10
-23.2276583455
 20
20.1632455283
 10
-23.2500588304
 20
20.1648669488
 10
-23.2724987789
 20
20.1673819631
 10
-23.294962013
 20
20.170788758
 10
-23.3174323379
 20
20.1750848774
 10
-23.3398935538
 20
20.180267224
 10
-23.3623294674
 20
20.1863320616
 10
-23.3847239037
 20
20.1932750179
 10
-23.4070607174
 20
20.2010910873
 10
-23.4293238051
 20
20.2097746349
 10
-23.4514971162
 20
20.2193194003
 10
-23.4735646649
 20
20.2297185023
 10
-23.495510542
 20
20.2409644437
 10
-23.5173189254
 20
20.2530491168
 10
-23.5389740927
 20
20.2659638092
 10
-23.5604604317
 20
20.2796992102
 10
-23.5817624518
 20
20.2942454173
 10
-23.6028647955
 20
20.3095919434
 10
-23.6237522492
 20
20.3257277246
 10
-23.6444097543
 20
20.3426411279
 10
-23.6648224176
 20
20.3603199596
 10
-23.684975523
 20
20.3787514743
 10
-23.704854541
 20
20.3979223838
 10
-23.7244451401
 20
20.4178188671
 10
-23.7437331965
 20
20.4384265799
 10
-23.7627048045
 20
20.459730665
 10
-23.7813462867
 20
20.4817157636
 10
-23.7996442036
 20
20.5043660254
 10
-23.8175853634
 20
20.527665121
 10
-23.8351568316
 20
20.551596253
 10
-23.8523459401
 20
20.5761421684
 10
-23.8691402964
 20
20.6012851708
 10
-23.8855277928
 20
20.6270071337
 10
-23.9014966149
 20
20.6532895128
 10
-23.9170352499
 20
20.6801133601
 10
-23.9321324954
 20
20.707459337
 10
-23.946777467
 20
20.7353077287
 10
-23.9609596067
 20
20.7636384578
 10
-23.9746686898
 20
20.7924310997
 10
-23.9878948329
 20
20.8216648963
 10
-24.0006285006
 20
20.8513187717
 10
-24.0128605126
 20
20.8813713472
 10
-24.0245820505
 20
20.9118009564
 10
-24.0357846635
 20
20.9425856613
 10
-24.0464602752
 20
20.9737032678
 10
-24.0566011891
 20
21.0051313419
 10
-24.0662000942
 20
21.0368472257
 10
-24.0752500702
 20
21.0688280537
 10
-24.0837445925
 20
21.1010507696
 10
-24.0916775371
 20
21.1334921425
 10
-24.0990431847
 20
21.1661287841
 10
-24.1058362251
 20
21.1989371651
 10
-24.112051761
 20
21.2318936325
 10
-24.1176853112
 20
21.2649744264
 10
-24.1227328144
 20
21.2981556976
 10
-24.1271906314
 20
21.331413524
 10
-24.1310555485
 20
21.3647239288
 10
-24.1343247793
 20
21.3980628968
 10
-24.1369959668
 20
21.4314063926
 10
-24.1390671854
 20
21.4647303773
 10
-24.1405369416
 20
21.4980108262
 10
-24.141404176
 20
21.531223746
  0
LWPOLYLINE
  5
274
100
AcDbEntity
  8
RACCORDO
100
AcDbPolyline
 62
253
  6
CONTINUOUS
 90
82
 70
0
 10
-23.3810593591
 20
20.3562723455
 10
-23.3700592389
 20
20.3547314128
 10
-23.3583254354
 20
20.3533687978
 10
-23.3458631107
 20
20.3522401284
 10
-23.3326426429
 20
20.3514027805
 10
-23.3187087321
 20
20.3509233515
 10
-23.3041798584
 20
20.3508668058
 10
-23.2890747858
 20
20.3512917279
 10
-23.2733992541
 20
20.3522591695
 10
-23.2572534215
 20
20.353822785
 10
-23.240659005
 20
20.356037856
 10
-23.2236287624
 20
20.3589622507
 10
-23.2062502316
 20
20.3626390387
 10
-23.1885709826
 20
20.3671125457
 10
-23.170587322
 20
20.3724399288
 10
-23.1523120426
 20
20.378678122
 10
-23.133819481
 20
20.3858621645
 10
-23.1150922913
 20
20.3940613342
 10
-23.0960152475
 20
20.4034060031
 10
-23.0766454192
 20
20.4139622359
 10
-23.0570126495
 20
20.425812113
 10
-23.0369819727
 20
20.439158999
 10
-23.0166040595
 20
20.4541173863
 10
-22.9959657488
 20
20.4707805382
 10
-22.9750152887
 20
20.4893709143
 10
-22.9538285566
 20
20.5100331044
 10
-22.9325330829
 20
20.5328695759
 10
-22.9111842239
 20
20.5580710667
 10
-22.8899134789
 20
20.5857622486
 10
-22.8688639591
 20
20.6160596368
 10
-22.8481390612
 20
20.6491555251
 10
-22.8278975423
 20
20.6851867844
 10
-22.8083421815
 20
20.7242224124
 10
-22.7896687403
 20
20.76634442
 10
-22.7720358979
 20
20.811750913
 10
-22.7557252889
 20
20.8603476867
 10
-22.741082543
 20
20.9117003031
 10
-22.728275576
 20
20.9658191114
 10
-22.7175094169
 20
21.0225542869
 10
-22.7090538779
 20
21.0811006697
 10
-22.7030095325
 20
21.141217582
 10
-22.6994543382
 20
21.2027776237
 10
-22.6984664455
 20
21.2650543081
 10
-22.7000477631
 20
21.3277022883
 10
-22.7041918837
 20
21.3906080564
 10
-22.7108653767
 20
21.4533684869
 10
-22.7200242741
 20
21.5157411345
 10
-22.731619502
 20
21.5775159229
 10
-22.7455607242
 20
21.6383467898
 10
-22.7618662215
 20
21.6983650101
 10
-22.7803741544
 20
21.7570188034
 10
-22.80056973
 20
21.8130235053
 10
-22.822187289
 20
21.8661775686
 10
-22.8450546024
 20
21.9165322734
 10
-22.8686041322
 20
21.9633602402
 10
-22.8923694739
 20
22.0063614169
 10
-22.9163017141
 20
22.0460118305
 10
-22.9404506098
 20
22.082808512
 10
-22.9647250346
 20
22.116932438
 10
-22.9889045959
 20
22.1483702258
 10
-23.0129061593
 20
22.1772928809
 10
-23.0365710982
 20
22.2037667727
 10
-23.0598236714
 20
22.2279479738
 10
-23.0827386156
 20
22.250116977
 10
-23.1052206173
 20
22.2703562476
 10
-23.1272120908
 20
22.2887792163
 10
-23.1488775029
 20
22.3056588977
 10
-23.1702103616
 20
22.3210962594
 10
-23.1911230045
 20
22.3351295399
 10
-23.2116784835
 20
22.3478942356
 10
-23.2318894308
 20
22.3594769502
 10
-23.2516784619
 20
22.3699093701
 10
-23.2709810165
 20
22.3792364658
 10
-23.2897850666
 20
22.3875300984
 10
-23.3080546913
 20
22.3948492901
 10
-23.3256924224
 20
22.401232431
 10
-23.3426905616
 20
22.4067549584
 10
-23.3590244452
 20
22.4114838166
 10
-23.3745739045
 20
22.4154619038
 10
-23.3892928014
 20
22.4187583573
 10
-23.4032093021
 20
22.4214561154
 10
-23.4163177145
 20
22.4236248482
  0
LWPOLYLINE
  5
275
100
AcDbEntity
  8
RACCORDO
100
AcDbPolyline
 62
7
  6
CONTINUOUS
 90
49
 70
0
 10
-23.263653174
 20
20.2018585665
 10
-23.3164459093
 20
20.2119868939
 10
-23.3693736744
 20
20.2264464734
 10
-23.4222290837
 20
20.2452947756
 10
-23.4748281528
 20
20.2685844656
 10
-23.5269388444
 20
20.2963327624
 10
-23.5782979033
 20
20.3285107932
 10
-23.6288809622
 20
20.3652364608
 10
-23.6783230079
 20
20.406387278
 10
-23.725922256
 20
20.4514179123
 10
-23.7714204397
 20
20.5000165775
 10
-23.814838754
 20
20.5521468109
 10
-23.8559677283
 20
20.6075140113
 10
-23.8947133348
 20
20.665940525
 10
-23.9309599268
 20
20.72721102
 10
-23.9644973617
 20
20.7909021558
 10
-23.9952275303
 20
20.8567218408
 10
-24.0231105173
 20
20.9244854677
 10
-24.0480558725
 20
20.9938780991
 10
-24.0700000086
 20
21.0646104687
 10
-24.0889118849
 20
21.1364744774
 10
-24.1047580669
 20
21.2092604856
 10
-24.1175005949
 20
21.2827371394
 10
-24.127100761
 20
21.3566403098
 10
-24.1335284928
 20
21.4307089312
 10
-24.1367619176
 20
21.5046967096
 10
-24.1367845879
 20
21.5783565897
 10
-24.1335862893
 20
21.6514332521
 10
-24.1271584783
 20
21.7237225541
 10
-24.1175023879
 20
21.7949471723
 10
-24.1046451815
 20
21.8647639635
 10
-24.0886078176
 20
21.9329571787
 10
-24.0694187215
 20
21.9992958708
 10
-24.0471490527
 20
22.0634536393
 10
-24.0217786191
 20
22.1253842649
 10
-23.9934113218
 20
22.1847228334
 10
-23.9624017657
 20
22.2407673534
 10
-23.9290444856
 20
22.2931736246
 10
-23.8933411894
 20
22.3421010579
 10
-23.8552546287
 20
22.3876522165
 10
-23.814737959
 20
22.4298471842
 10
-23.7720560569
 20
22.4683708769
 10
-23.7276770252
 20
22.5028532354
 10
-23.6819752138
 20
22.5331403478
 10
-23.6349937514
 20
22.5593360249
 10
-23.5867639537
 20
22.5814986535
 10
-23.5374393137
 20
22.5996009428
 10
-23.4873014396
 20
22.6135869539
 10
-23.4365785565
 20
22.623452515
  0
LWPOLYLINE
  5
276
100
AcDbEntity
  8
0
100
AcDbPolyline
 62
7
  6
CONTINUOUS
 90
139
 70
0
 10
-22.0633425602
 20
21.0843884406
 10
-22.0628188866
 20
21.0285798332
 10
-22.0631517065
 20
20.9729793844
 10
-22.064341043
 20
20.9175870918
 10
-22.066388802
 20
20.8623679307
 10
-22.0692931165
 20
20.8073569217
 10
-22.0730483812
 20
20.7526591251
 10
-22.0776544807
 20
20.6982909937
 10
-22.0831116424
 20
20.6442360594
 10
-22.089414824
 20
20.5905499938
 10
-22.0965678536
 20
20.5372143316
 10
-22.1045670401
 20
20.4842475188
 10
-22.1133961107
 20
20.4317605861
 10
-22.1230530437
 20
20.3797734684
 10
-22.1335400691
 20
20.3282662003
 10
-22.1448473383
 20
20.2772899548
 10
-22.1569798005
 20
20.2268289451
 10
-22.1699327332
 20
20.1768989243
 10
-22.1836818238
 20
20.1275983689
 10
-22.1982256701
 20
20.0789390481
 10
-22.2135659567
 20
20.0309091502
 10
-22.2296830447
 20
19.9835717728
 10
-22.246579132
 20
19.9369240936
 10
-22.2642523268
 20
19.8909688884
 10
-22.2826768913
 20
19.8457776466
 10
-22.3018562773
 20
19.801347731
 10
-22.3217873666
 20
19.7576817277
 10
-22.342434603
 20
19.7148589552
 10
-22.3637940132
 20
19.6728904316
 10
-22.3858699337
 20
19.6317650824
 10
-22.4086393027
 20
19.5915290828
 10
-22.4321111998
 20
19.552170687
 10
-22.4562769098
 20
19.5137015839
 10
-22.4810867057
 20
19.4762030955
 10
-22.5065325468
 20
19.4396902216
 10
-22.5326228609
 20
19.4041479018
 10
-22.5593326459
 20
19.3696123644
 10
-22.5866725058
 20
19.3360729966
 10
-22.6146322109
 20
19.3035403525
 10
-22.6431555263
 20
19.2720824077
 10
-22.6722356918
 20
19.2417097122
 10
-22.7018798462
 20
19.2124116564
 10
-22.7320526176
 20
19.1842244743
 10
-22.7627597902
 20
19.1571448969
 10
-22.7939959385
 20
19.1311761364
 10
-22.8257088843
 20
19.1063641479
 10
-22.857899647
 20
19.0827114567
 10
-22.8905675482
 20
19.0602154833
 10
-22.9236578699
 20
19.0389145244
 10
-22.9571663456
 20
19.0188130212
 10
-22.991097557
 20
18.9999064822
 10
-23.0254100594
 20
18.9822198044
 10
-23.060113986
 20
18.965750689
 10
-23.0951994836
 20
18.9505013901
 10
-23.1305951245
 20
18.9365036347
 10
-23.1662893984
 20
18.9237637732
 10
-23.2022940606
 20
18.9122754159
 10
-23.238572577
 20
18.9020511811
 10
-23.275138805
 20
18.8930895741
 10
-23.3119790869
 20
18.8853920576
 10
-23.3490156077
 20
18.8789756873
 10
-23.3862362322
 20
18.8738446615
 10
-23.4236532501
 20
18.869994757
 10
-23.4612254737
 20
18.8674303994
 10
-23.4989631783
 20
18.8661527696
 10
-23.5368561928
 20
18.8661606699
 10
-23.5748326472
 20
18.8674549598
 10
-23.6128872958
 20
18.8700380015
 10
-23.6510254372
 20
18.8739074242
 10
-23.6891910049
 20
18.8790569906
 10
-23.7273839674
 20
18.8854882047
 10
-23.7656043563
 20
18.8931995624
 10
-23.8037961869
 20
18.9021803163
 10
-23.841964972
 20
18.9124344857
 10
-23.8801051462
 20
18.9239580599
 10
-23.9181440948
 20
18.936728248
 10
-23.9560714613
 20
18.950743126
 10
-23.9938974981
 20
18.9660046347
 10
-24.0315804922
 20
18.9824957829
 10
-24.069132857
 20
19.0002245363
 10
-24.1065420244
 20
19.0191829541
 10
-24.1437287989
 20
19.0393301862
 10
-24.1806792313
 20
19.0606606108
 10
-24.2174070711
 20
19.0831798818
 10
-24.2538746628
 20
19.1068640643
 10
-24.2900937635
 20
19.1317230525
 10
-24.3260523711
 20
19.1577469914
 10
-24.3616771857
 20
19.1848823234
 10
-24.3969580674
 20
19.2131238581
 10
-24.4319048759
 20
19.2424768306
 10
-24.4664743088
 20
19.2729033215
 10
-24.5006706924
 20
19.30440905
 10
-24.534489385
 20
19.3369883473
 10
-24.5678736327
 20
19.3705862117
 10
-24.6008226682
 20
19.4052051254
 10
-24.6333369176
 20
19.4408426605
 10
-24.6653614225
 20
19.4774364498
 10
-24.6968901516
 20
19.5149814702
 10
-24.7279287775
 20
19.5534828017
 10
-24.7584399055
 20
19.5928932312
 10
-24.7884307842
 20
19.633225544
 10
-24.8178937863
 20
19.6744670147
 10
-24.8467692188
 20
19.7165321605
 10
-24.8750460528
 20
19.759407303
 10
-24.9027349427
 20
19.8031061796
 10
-24.9298087371
 20
19.8475844289
 10
-24.9562760165
 20
19.892859498
 10
-24.9821278134
 20
19.9389140003
 10
-25.0073106768
 20
19.9856513196
 10
-25.0318151605
 20
20.0330572815
 10
-25.0556503462
 20
20.0811461171
 10
-25.0787906019
 20
20.1298638141
 10
-25.101240206
 20
20.1792224378
 10
-25.122994517
 20
20.2292099791
 10
-25.1440145514
 20
20.2797363092
 10
-25.164296872
 20
20.3307981444
 10
-25.1838445821
 20
20.3823988198
 10
-25.2026285471
 20
20.4344581281
 10
-25.2206463723
 20
20.4869724528
 10
-25.2379001464
 20
20.5399454571
 10
-25.2543674957
 20
20.5933078483
 10
-25.270050296
 20
20.6470720058
 10
-25.2849463892
 20
20.7012255928
 10
-25.299027395
 20
20.7556622348
 10
-25.3122877834
 20
20.8103647821
 10
-25.3247328578
 20
20.8653504181
 10
-25.3363505307
 20
20.9205642619
 10
-25.3471435048
 20
20.9760266977
 10
-25.3571088697
 20
21.0317173719
 10
-25.3662261652
 20
21.0875202883
 10
-25.3744909459
 20
21.143416216
 10
-25.38190752
 20
21.1994244055
 10
-25.3884686081
 20
21.2554865755
 10
-25.3941748592
 20
21.3116190928
 10
-25.3990255127
 20
21.3678056061
 10
-25.403011223
 20
21.4239387492
 10
-25.4061288737
 20
21.4799827331
 10
-25.4083815426
 20
21.5359733508
 10
-25.4097692067
 20
21.5919106049
  0
LWPOLYLINE
  5
277
100
AcDbEntity
  8
ASSI
100
AcDbPolyline
 62
7
  6
CONTINUOUS
 90
139
 70
0
 10
-22.0633425602
 20
21.0843884406
 10
-22.0628188866
 20
21.0285798332
 10
-22.0631517065
 20
20.9729793844
 10
-22.064341043
 20
20.9175870918
 10
-22.066388802
 20
20.8623679307
 10
-22.0692931165
 20
20.8073569217
 10
-22.0730483812
 20
20.7526591251
 10
-22.0776544807
 20
20.6982909937
 10
-22.0831116424
 20
20.6442360594
 10
-22.089414824
 20
20.5905499938
 10
-22.0965678536
 20
20.5372143316
 10
-22.1045670401
 20
20.4842475188
 10
-22.1133961107
 20
20.4317605861
 10
-22.1230530437
 20
20.3797734684
 10
-22.1335400691
 20
20.3282662003
 10
-22.1448473383
 20
20.2772899548
 10
-22.1569798005
 20
20.2268289451
 10
-22.1699327332
 20
20.1768989243
 10
-22.1836818238
 20
20.1275983689
 10
-22.1982256701
 20
20.0789390481
 10
-22.2135659567
 20
20.0309091502
 10
-22.2296830447
 20
19.9835717728
 10
-22.246579132
 20
19.9369240936
 10
-22.2642523268
 20
19.8909688884
 10
-22.2826768913
 20
19.8457776466
 10
-22.3018562773
 20
19.801347731
 10
-22.3217873666
 20
19.7576817277
 10
-22.342434603
 20
19.7148589552
 10
-22.3637940132
 20
19.6728904316
 10
-22.3858699337
 20
19.6317650824
 10
-22.4086393027
 20
19.5915290828
 10
-22.4321111998
 20
19.552170687
 10
-22.4562769098
 20
19.5137015839
 10
-22.4810867057
 20
19.4762030955
 10
-22.5065325468
 20
19.4396902216
 10
-22.5326228609
 20
19.4041479018
 10
-22.5593326459
 20
19.3696123644
 10
-22.5866725058
 20
19.3360729966
 10
-22.6146322109
 20
19.3035403525
 10
-22.6431555263
 20
19.2720824077
 10
-22.6722356918
 20
19.2417097122
 10
-22.7018798462
 20
19.2124116564
 10
-22.7320526176
 20
19.1842244743
 10
-22.7627597902
 20
19.1571448969
 10
-22.7939959385
 20
19.1311761364
 10
-22.8257088843
 20
19.1063641479
 10
-22.857899647
 20
19.0827114567
 10
-22.8905675482
 20
19.0602154833
 10
-22.9236578699
 20
19.0389145244
 10
-22.9571663456
 20
19.0188130212
 10
-22.991097557
 20
18.9999064822
 10
-23.0254100594
 20
18.9822198044
 10
-23.060113986
 20
18.965750689
 10
-23.0951994836
 20
18.9505013901
 10
-23.1305951245
 20
18.9365036347
 10
-23.1662893984
 20
18.9237637732
 10
-23.2022940606
 20
18.9122754159
 10
-23.238572577
 20
18.9020511811
 10
-23.275138805
 20
18.8930895741
 10
-23.3119790869
 20
18.8853920576
 10
-23.3490156077
 20
18.8789756873
 10
-23.3862362322
 20
18.8738446615
 10
-23.4236532501
 20
18.869994757
 10
-23.4612254737
 20
18.8674303994
 10
-23.4989631783
 20
18.8661527696
 10
-23.5368561928
 20
18.8661606699
 10
-23.5748326472
 20
18.8674549598
 10
-23.6128872958
 20
18.8700380015
 10
-23.6510254372
 20
18.8739074242
 10
-23.6891910049
 20
18.8790569906
 10
-23.7273839674
 20
18.8854882047
 10
-23.7656043563
 20
18.8931995624
 10
-23.8037961869
 20
18.9021803163
 10
-23.841964972
 20
18.9124344857
 10
-23.8801051462
 20
18.9239580599
 10
-23.9181440948
 20
18.936728248
 10
-23.9560714613
 20
18.950743126
 10
-23.9938974981
 20
18.9660046347
 10
-24.0315804922
 20
18.9824957829
 10
-24.069132857
 20
19.0002245363
 10
-24.1065420244
 20
19.0191829541
 10
-24.1437287989
 20
19.0393301862
 10
-24.1806792313
 20
19.0606606108
 10
-24.2174070711
 20
19.0831798818
 10
-24.2538746628
 20
19.1068640643
 10
-24.2900937635
 20
19.1317230525
 10
-24.3260523711
 20
19.1577469914
 10
-24.3616771857
 20
19.1848823234
 10
-24.3969580674
 20
19.2131238581
 10
-24.4319048759
 20
19.2424768306
 10
-24.4664743088
 20
19.2729033215
 10
-24.5006706924
 20
19.30440905
 10
-24.534489385
 20
19.3369883473
 10
-24.5678736327
 20
19.3705862117
 10
-24.6008226682
 20
19.4052051254
 10
-24.6333369176
 20
19.4408426605
 10
-24.6653614225
 20
19.4774364498
 10
-24.6968901516
 20
19.5149814702
 10
-24.7279287775
 20
19.5534828017
 10
-24.7584399055
 20
19.5928932312
 10
-24.7884307842
 20
19.633225544
 10
-24.8178937863
 20
19.6744670147
 10
-24.8467692188
 20
19.7165321605
 10
-24.8750460528
 20
19.759407303
 10
-24.9027349427
 20
19.8031061796
 10
-24.9298087371
 20
19.8475844289
 10
-24.9562760165
 20
19.892859498
 10
-24.9821278134
 20
19.9389140003
 10
-25.0073106768
 20
19.9856513196
 10
-25.0318151605
 20
20.0330572815
 10
-25.0556503462
 20
20.0811461171
 10
-25.0787906019
 20
20.1298638141
 10
-25.101240206
 20
20.1792224378
 10
-25.122994517
 20
20.2292099791
 10
-25.1440145514
 20
20.2797363092
 10
-25.164296872
 20
20.3307981444
 10
-25.1838445821
 20
20.3823988198
 10
-25.2026285471
 20
20.4344581281
 10
-25.2206463723
 20
20.4869724528
 10
-25.2379001464
 20
20.5399454571
 10
-25.2543674957
 20
20.5933078483
 10
-25.270050296
 20
20.6470720058
 10
-25.2849463892
 20
20.7012255928
 10
-25.299027395
 20
20.7556622348
 10
-25.3122877834
 20
20.8103647821
 10
-25.3247328578
 20
20.8653504181
 10
-25.3363505307
 20
20.9205642619
 10
-25.3471435048
 20
20.9760266977
 10
-25.3571088697
 20
21.0317173719
 10
-25.3662261652
 20
21.0875202883
 10
-25.3744909459
 20
21.143416216
 10
-25.38190752
 20
21.1994244055
 10
-25.3884686081
 20
21.2554865755
 10
-25.3941748592
 20
21.3116190928
 10
-25.3990255127
 20
21.3678056061
 10
-25.403011223
 20
21.4239387492
 10
-25.4061288737
 20
21.4799827331
 10
-25.4083815426
 20
21.5359733508
 10
-25.4097692067
 20
21.5919106049
  0
LWPOLYLINE
  5
278
100
AcDbEntity
  8
0
100
AcDbPolyline
 62
7
  6
CONTINUOUS
 90
52
 70
0
 10
-22.4681908527
 20
21.2774626638
 10
-22.4679267655
 20
21.2443412179
 10
-22.4682660157
 20
21.2113351246
 10
-22.4692083588
 20
21.1784681794
 10
-22.4707531155
 20
21.1457640776
 10
-22.472899172
 20
21.1132463971
 10
-22.4756449812
 20
21.0809385812
 10
-22.4789885635
 20
21.0488639222
 10
-22.4829275084
 20
21.0170455441
 10
-22.487458976
 20
20.9855063861
 10
-22.4925796995
 20
20.9542691864
 10
-22.4982859871
 20
20.923356465
 10
-22.5045737248
 20
20.8927905085
 10
-22.5114383796
 20
20.8625933532
 10
-22.5188750025
 20
20.8327867696
 10
-22.526878232
 20
20.8033922465
 10
-22.5354422982
 20
20.7744309758
 10
-22.544561027
 20
20.7459238369
 10
-22.5542278442
 20
20.717891382
 10
-22.5644357806
 20
20.6903538208
 10
-22.5751774769
 20
20.6633310065
 10
-22.5864451888
 20
20.636842421
 10
-22.5982307929
 20
20.610907161
 10
-22.6105257926
 20
20.5855439246
 10
-22.6233213238
 20
20.5607709971
 10
-22.6366081616
 20
20.5366062384
 10
-22.6503767269
 20
20.5130670702
 10
-22.6646170934
 20
20.4901704626
 10
-22.6793189946
 20
20.4679329231
 10
-22.6944718312
 20
20.4463704835
 10
-22.7100646788
 20
20.4254986892
 10
-22.7260862958
 20
20.4053325877
 10
-22.7425251317
 20
20.3858867175
 10
-22.7593693347
 20
20.3671750981
 10
-22.7766067614
 20
20.3492112195
 10
-22.7942249843
 20
20.3320080327
 10
-22.8122113018
 20
20.3155779402
 10
-22.8305527466
 20
20.2999327872
 10
-22.8492360957
 20
20.2850838529
 10
-22.8682478794
 20
20.2710418428
 10
-22.8875743912
 20
20.2578168801
 10
-22.9072016978
 20
20.2454184996
 10
-22.9271156489
 20
20.2338556396
 10
-22.9473018878
 20
20.2231366363
 10
-22.9677458613
 20
20.2132692176
 10
-22.9884328303
 20
20.2042604974
 10
-23.0093478808
 20
20.1961169704
 10
-23.0304759341
 20
20.1888445076
 10
-23.051801758
 20
20.1824483521
 10
-23.073309978
 20
20.1769331152
 10
-23.0949850876
 20
20.172302773
 10
-23.1153709405
 20
20.1687795387
  0
LWPOLYLINE
  5
279
100
AcDbEntity
  8
ASSI
100
AcDbPolyline
 62
7
  6
CONTINUOUS
 90
47
 70
0
 10
-22.4681908527
 20
21.2774626638
 10
-22.4679267655
 20
21.2443412179
 10
-22.4682660157
 20
21.2113351246
 10
-22.4692083588
 20
21.1784681794
 10
-22.4707531155
 20
21.1457640776
 10
-22.472899172
 20
21.1132463971
 10
-22.4756449812
 20
21.0809385812
 10
-22.4789885635
 20
21.0488639222
 10
-22.4829275084
 20
21.0170455441
 10
-22.487458976
 20
20.9855063861
 10
-22.4925796995
 20
20.9542691864
 10
-22.4982859871
 20
20.923356465
 10
-22.5045737248
 20
20.8927905085
 10
-22.5114383796
 20
20.8625933532
 10
-22.5188750025
 20
20.8327867696
 10
-22.526878232
 20
20.8033922465
 10
-22.5354422982
 20
20.7744309758
 10
-22.544561027
 20
20.7459238369
 10
-22.5542278442
 20
20.717891382
 10
-22.5644357806
 20
20.6903538208
 10
-22.5751774769
 20
20.6633310065
 10
-22.5864451888
 20
20.636842421
 10
-22.5982307929
 20
20.610907161
 10
-22.6105257926
 20
20.5855439246
 10
-22.6233213238
 20
20.5607709971
 10
-22.6366081616
 20
20.5366062384
 10
-22.6503767269
 20
20.5130670702
 10
-22.6646170934
 20
20.4901704626
 10
-22.6793189946
 20
20.4679329231
 10
-22.6944718312
 20
20.4463704835
 10
-22.7100646788
 20
20.4254986892
 10
-22.7260862958
 20
20.4053325877
 10
-22.7425251317
 20
20.3858867175
 10
-22.7593693347
 20
20.3671750981
 10
-22.7766067614
 20
20.3492112195
 10
-22.7942249843
 20
20.3320080327
 10
-22.8122113018
 20
20.3155779402
 10
-22.8305527466
 20
20.2999327872
 10
-22.8492360957
 20
20.2850838529
 10
-22.8682478794
 20
20.2710418428
 10
-22.8875743912
 20
20.2578168801
 10
-22.9072016978
 20
20.2454184996
 10
-22.9271156489
 20
20.2338556396
 10
-22.9473018878
 20
20.2231366363
 10
-22.9677458613
 20
20.2132692176
 10
-22.9884328303
 20
20.2042604974
 10
-23.0093478808
 20
20.1961169704
  0
LINE
  5
27A
100
AcDbEntity
  8
CURVE
100
AcDbLine
 62
252
  6
CONTINUOUS
 10
-23.057120704
 20
11.8042972999
 11
-23.0588232131
 21
11.7821902676
  0
LINE
  5
27B
100
AcDbEntity
  8
CURVE
100
AcDbLine
 62
252
  6
CONTINUOUS
 10
-23.058800194
 20
11.7824471943
 11
-23.0610422202
 21
11.7605387996
  0
LINE
  5
27C
100
AcDbEntity
  8
CURVE
100
AcDbLine
 62
252
  6
CONTINUOUS
 10
-23.0610131035
 20
11.7607914644
 11
-23.0637997453
 21
11.7390871752
  0
LINE
  5
27D
100
AcDbEntity
  8
CURVE
100
AcDbLine
 62
252
  6
CONTINUOUS
 10
-23.0637645862
 20
11.7393355181
 11
-23.0671009776
 21
11.717840684
  0
LINE
  5
27E
100
AcDbEntity
  8
CURVE
100
AcDbLine
 62
252
  6
CONTINUOUS
 10
-23.0670597956
 20
11.7180847628
 11
-23.0709489664
 21
11.6968121751
  0
LINE
  5
27F
100
AcDbEntity
  8
CURVE
100
AcDbLine
 62
252
  6
CONTINUOUS
 10
-23.0709017561
 20
11.6970521182
 11
-23.0753382006
 21
11.6760447368
  0
LINE
  5
280
100
AcDbEntity
  8
CURVE
100
AcDbLine
 62
252
  6
CONTINUOUS
 10
-23.899604462
 20
12.2753946788
 11
-23.8938954914
 21
12.2953542183
  0
LWPOLYLINE
  5
281
100
AcDbEntity
  8
ASSI
100
AcDbPolyline
 62
7
  6
CONTINUOUS
 90
4
 70
0
 10
-23.051801758
 20
20.1824483521
 10
-23.073309978
 20
20.1769331152
 10
-23.0949850876
 20
20.172302773
 10
-23.1153709405
 20
20.1687795387
  0
LWPOLYLINE
  5
282
100
AcDbEntity
  8
RACCORDO
100
AcDbPolyline
 62
253
  6
CONTINUOUS
 90
11
 70
0
 10
-23.0653024744
 20
20.201747729
 10
-23.0459070645
 20
20.2050886808
 10
-23.025552985
 20
20.2093949941
 10
-23.0048466991
 20
20.2146344448
 10
-22.9837838807
 20
20.220873974
 10
-22.9623795115
 20
20.2281802592
 10
-22.9407206556
 20
20.2365943381
 10
-22.9187869973
 20
20.2461973516
 10
-22.896443581
 20
20.257141993
 10
-22.8737572477
 20
20.2695056388
 10
-22.8549971562
 20
20.280828762
  0
LINE
  5
283
100
AcDbEntity
  8
0
100
AcDbLine
 62
7
  6
CONTINUOUS
 10
-23.0653024744
 20
20.201747729
 11
-22.9573157629
 21
20.2183033734
  0
LWPOLYLINE
  5
284
100
AcDbEntity
  8
RACCORDO
100
AcDbPolyline
 62
253
  6
CONTINUOUS
 90
82
 70
0
 10
-23.4163177145
 20
22.4236248482
 10
-23.4273178356
 20
22.4251657808
 10
-23.4390516404
 20
22.4265283957
 10
-23.4515139666
 20
22.4276570648
 10
-23.4647344366
 20
22.4284944124
 10
-23.47866835
 20
22.4289738411
 10
-23.4931972259
 20
22.4290303865
 10
-23.5083022999
 20
22.4286054641
 10
-23.5239778327
 20
22.4276380223
 10
-23.5401236666
 20
22.4260744066
 10
-23.5567180851
 20
22.4238593351
 10
-23.57374833
 20
22.4209349399
 10
-23.5911268629
 20
22.4172581515
 10
-23.6088061134
 20
22.4127846441
 10
-23.6267897751
 20
22.4074572606
 10
-23.645065056
 20
22.4012190669
 10
-23.6635576197
 20
22.3940350239
 10
-23.6822848118
 20
22.3858358535
 10
-23.7013618586
 20
22.3764911838
 10
-23.7207316904
 20
22.36593495
 10
-23.7403644641
 20
22.3540850719
 10
-23.7603951458
 20
22.3407381846
 10
-23.7807730649
 20
22.3257797958
 10
-23.8014113823
 20
22.3091166423
 10
-23.8223618496
 20
22.2905262643
 10
-23.8435485893
 20
22.2698640723
 10
-23.8648440709
 20
22.2470275987
 10
-23.886192938
 20
22.2218261057
 10
-23.9074636908
 20
22.1941349215
 10
-23.9285132183
 20
22.163837531
 10
-23.9492381251
 20
22.1307416401
 10
-23.9694796559
 20
22.0947103778
 10
-23.9890350296
 20
22.0556747464
 10
-24.0077084803
 20
22.0135527361
 10
-24.0253413275
 20
21.968146241
 10
-24.0416519377
 20
21.9195494657
 10
-24.0562946804
 20
21.8681968487
 10
-24.0691016383
 20
21.8140780408
 10
-24.0798677839
 20
21.7573428666
 10
-24.0883233082
 20
21.6987964856
 10
-24.0943676386
 20
21.6386795754
 10
-24.0979228167
 20
21.5771195362
 10
-24.0989106941
 20
21.5148428544
 10
-24.0973293619
 20
21.4521948768
 10
-24.0931852274
 20
21.3892891113
 10
-24.0865117231
 20
21.326528683
 10
-24.0773528182
 20
21.2641560371
 10
-24.0657575855
 20
21.2023812501
 10
-24.0518163585
 20
21.1415503846
 10
-24.0355108549
 20
21.0815321661
 10
-24.0170029159
 20
21.0228783745
 10
-23.9968073369
 20
20.9668736741
 10
-23.9751897796
 20
20.9137196119
 10
-23.9523224709
 20
20.8633649078
 10
-23.9287729448
 20
20.8165369418
 10
-23.9050076039
 20
20.7735357661
 10
-23.8810753635
 20
20.7338853536
 10
-23.8569264683
 20
20.6970886728
 10
-23.8326520463
 20
20.6629647473
 10
-23.8084724885
 20
20.6315269598
 10
-23.7844709274
 20
20.6026043051
 10
-23.7608059885
 20
20.576130414
 10
-23.737553414
 20
20.5519492137
 10
-23.7146384688
 20
20.5297802111
 10
-23.6921564668
 20
20.5095409411
 10
-23.6701649932
 20
20.4911179729
 10
-23.6484995811
 20
20.4742382919
 10
-23.6271667225
 20
20.4588009305
 10
-23.6062540797
 20
20.4447676503
 10
-23.5856986006
 20
20.4320029548
 10
-23.565487653
 20
20.4204202406
 10
-23.5456986215
 20
20.4099878209
 10
-23.5263960665
 20
20.4006607255
 10
-23.5075920167
 20
20.392367093
 10
-23.4893223924
 20
20.3850479014
 10
-23.471684661
 20
20.3786647608
 10
-23.4546865198
 20
20.3731422337
 10
-23.4383526336
 20
20.3684133761
 10
-23.422803172
 20
20.3644352893
 10
-23.4080842737
 20
20.3611388361
 10
-23.3941677721
 20
20.3584410781
 10
-23.3810593591
 20
20.3562723455
  0
LWPOLYLINE
  5
285
100
AcDbEntity
  8
RACCORDO
100
AcDbPolyline
 62
253
  6
CONTINUOUS
 90
11
 70
0
 10
-23.271588151
 20
22.6232619171
 10
-23.2844717074
 20
22.6250666922
 10
-23.2982145685
 20
22.6266626207
 10
-23.3128106883
 20
22.62798455
 10
-23.3282947612
 20
22.6289652822
 10
-23.3446144332
 20
22.6295268154
 10
-23.3616309374
 20
22.6295930569
 10
-23.3793222963
 20
22.6290953881
 10
-23.3976817877
 20
22.6279623072
 10
-23.4165921054
 20
22.6261309778
 10
-23.435982643
 20
22.6235435309
  0
LINE
  5
286
100
AcDbEntity
  8
CURVE
100
AcDbLine
 62
252
  6
CONTINUOUS
 10
-23.0752849752
 20
11.6762805507
 11
-23.080261029
 21
11.6555890174
  0
LINE
  5
287
100
AcDbEntity
  8
CURVE
100
AcDbLine
 62
252
  6
CONTINUOUS
 10
-23.080201831
 20
11.655820539
 11
-23.0857098005
 21
11.6354956649
  0
LINE
  5
288
100
AcDbEntity
  8
CURVE
100
AcDbLine
 62
252
  6
CONTINUOUS
 10
-23.0856447017
 20
11.6357225612
 11
-23.0916756355
 21
11.6158128649
  0
LINE
  5
289
100
AcDbEntity
  8
CURVE
100
AcDbLine
 62
252
  6
CONTINUOUS
 10
-23.0916047663
 20
11.6160346157
 11
-23.0981447398
 21
11.5965789532
  0
LINE
  5
28A
100
AcDbEntity
  8
CURVE
100
AcDbLine
 62
252
  6
CONTINUOUS
 10
-23.8876726393
 20
12.3148604344
 11
-23.880948416
 21
12.3338800594
  0
LINE
  5
28B
100
AcDbEntity
  8
CURVE
100
AcDbLine
 62
252
  6
CONTINUOUS
 10
-23.0980684063
 20
11.5967947795
 11
-23.105102091
 21
11.577829803
  0
LINE
  5
28C
100
AcDbEntity
  8
CURVE
100
AcDbLine
 62
252
  6
CONTINUOUS
 10
-23.1050208042
 20
11.5780386495
 11
-23.1125326664
 21
11.5596012874
  0
LWPOLYLINE
  5
28D
100
AcDbEntity
  8
ASSI
100
AcDbPolyline
 62
7
  6
CONTINUOUS
 90
3
 70
0
 10
-23.0093478808
 20
20.1961169704
 10
-23.0304759341
 20
20.1888445076
 10
-23.051801758
 20
20.1824483521
  0
LWPOLYLINE
  5
28E
100
AcDbEntity
  8
0
100
AcDbPolyline
 62
7
  6
CONTINUOUS
 90
52
 70
0
 10
-23.4942240882
 20
22.639906871
 10
-23.5146099411
 20
22.6363836368
 10
-23.5362850508
 20
22.6317532946
 10
-23.5577932707
 20
22.6262380577
 10
-23.5791190946
 20
22.6198419022
 10
-23.6002471479
 20
22.6125694394
 10
-23.6211621984
 20
22.6044259124
 10
-23.6418491674
 20
22.5954171921
 10
-23.6622931409
 20
22.5855497734
 10
-23.6824793798
 20
22.5748307702
 10
-23.7023933309
 20
22.5632679102
 10
-23.7220206375
 20
22.5508695296
 10
-23.7413471493
 20
22.537644567
 10
-23.760358933
 20
22.5236025568
 10
-23.7790422821
 20
22.5087536226
 10
-23.7973837269
 20
22.4931084696
 10
-23.8153700444
 20
22.4766783771
 10
-23.8329882673
 20
22.4594751903
 10
-23.850225694
 20
22.4415113117
 10
-23.8670698971
 20
22.4227996923
 10
-23.8835087329
 20
22.4033538221
 10
-23.8995303499
 20
22.3831877205
 10
-23.9151231975
 20
22.3623159263
 10
-23.9302760341
 20
22.3407534867
 10
-23.9449779353
 20
22.3185159471
 10
-23.9592183018
 20
22.2956193396
 10
-23.9729868671
 20
22.2720801713
 10
-23.9862737049
 20
22.2479154127
 10
-23.9990692361
 20
22.2231424852
 10
-24.0113642358
 20
22.1977792487
 10
-24.0231498399
 20
22.1718439888
 10
-24.0344175519
 20
22.1453554033
 10
-24.0451592481
 20
22.1183325889
 10
-24.0553671845
 20
22.0907950278
 10
-24.0650340017
 20
22.0627625728
 10
-24.0741527305
 20
22.034255434
 10
-24.0827167967
 20
22.0052941633
 10
-24.0907200262
 20
21.9758996402
 10
-24.0981566491
 20
21.9460930565
 10
-24.1050213039
 20
21.9158959012
 10
-24.1113090416
 20
21.8853299447
 10
-24.1170153292
 20
21.8544172234
 10
-24.1221360527
 20
21.8231800236
 10
-24.1266675203
 20
21.7916408657
 10
-24.1306064652
 20
21.7598224875
 10
-24.1339500475
 20
21.7277478285
 10
-24.1366958567
 20
21.6954400127
 10
-24.1388419132
 20
21.6629223321
 10
-24.1403866699
 20
21.6302182304
 10
-24.141329013
 20
21.5973512852
 10
-24.1416682632
 20
21.5643451919
 10
-24.141404176
 20
21.531223746
  0
LWPOLYLINE
  5
28F
100
AcDbEntity
  8
ASSI
100
AcDbPolyline
 62
7
  6
CONTINUOUS
 90
52
 70
0
 10
-23.4942240882
 20
22.639906871
 10
-23.5146099411
 20
22.6363836368
 10
-23.5362850508
 20
22.6317532946
 10
-23.5577932707
 20
22.6262380577
 10
-23.5791190946
 20
22.6198419022
 10
-23.6002471479
 20
22.6125694394
 10
-23.6211621984
 20
22.6044259124
 10
-23.6418491674
 20
22.5954171921
 10
-23.6622931409
 20
22.5855497734
 10
-23.6824793798
 20
22.5748307702
 10
-23.7023933309
 20
22.5632679102
 10
-23.7220206375
 20
22.5508695296
 10
-23.7413471493
 20
22.537644567
 10
-23.760358933
 20
22.5236025568
 10
-23.7790422821
 20
22.5087536226
 10
-23.7973837269
 20
22.4931084696
 10
-23.8153700444
 20
22.4766783771
 10
-23.8329882673
 20
22.4594751903
 10
-23.850225694
 20
22.4415113117
 10
-23.8670698971
 20
22.4227996923
 10
-23.8835087329
 20
22.4033538221
 10
-23.8995303499
 20
22.3831877205
 10
-23.9151231975
 20
22.3623159263
 10
-23.9302760341
 20
22.3407534867
 10
-23.9449779353
 20
22.3185159471
 10
-23.9592183018
 20
22.2956193396
 10
-23.9729868671
 20
22.2720801713
 10
-23.9862737049
 20
22.2479154127
 10
-23.9990692361
 20
22.2231424852
 10
-24.0113642358
 20
22.1977792487
 10
-24.0231498399
 20
22.1718439888
 10
-24.0344175519
 20
22.1453554033
 10
-24.0451592481
 20
22.1183325889
 10
-24.0553671845
 20
22.0907950278
 10
-24.0650340017
 20
22.0627625728
 10
-24.0741527305
 20
22.034255434
 10
-24.0827167967
 20
22.0052941633
 10
-24.0907200262
 20
21.9758996402
 10
-24.0981566491
 20
21.9460930565
 10
-24.1050213039
 20
21.9158959012
 10
-24.1113090416
 20
21.8853299447
 10
-24.1170153292
 20
21.8544172234
 10
-24.1221360527
 20
21.8231800236
 10
-24.1266675203
 20
21.7916408657
 10
-24.1306064652
 20
21.7598224875
 10
-24.1339500475
 20
21.7277478285
 10
-24.1366958567
 20
21.6954400127
 10
-24.1388419132
 20
21.6629223321
 10
-24.1403866699
 20
21.6302182304
 10
-24.141329013
 20
21.5973512852
 10
-24.1416682632
 20
21.5643451919
 10
-24.141404176
 20
21.531223746
  0
LINE
  5
290
100
AcDbEntity
  8
0
100
AcDbLine
 62
7
  6
CONTINUOUS
 10
-23.4365785592
 20
22.6234525146
 11
-23.3285705276
 21
22.6400114277
  0
LINE
  5
291
100
AcDbEntity
  8
RACCORDO
100
AcDbLine
 62
253
  6
CONTINUOUS
 10
-23.435982643
 20
22.6235435309
 11
-23.4365785592
 21
22.6234525146
  0
LWPOLYLINE
  5
292
100
AcDbEntity
  8
ASSI
100
AcDbPolyline
 62
7
  6
CONTINUOUS
 90
6
 70
0
 10
-23.3819366832
 20
22.6454408814
 10
-23.404281555
 20
22.6461675392
 10
-23.4265547044
 20
22.6459989103
 10
-23.4487400735
 20
22.6449351164
 10
-23.4708216681
 20
22.6429769244
 10
-23.4942240882
 20
22.639906871
  0
LINE
  5
293
100
AcDbEntity
  8
CURVE
100
AcDbLine
 62
252
  6
CONTINUOUS
 10
-23.1124471422
 20
11.5598018224
 11
-23.1204231324
 21
11.5419244033
  0
LINE
  5
294
100
AcDbEntity
  8
CURVE
100
AcDbLine
 62
252
  6
CONTINUOUS
 10
-23.1203342437
 20
11.5421151415
 11
-23.1287669115
 21
11.5248106425
  0
LINE
  5
295
100
AcDbEntity
  8
CURVE
100
AcDbLine
 62
252
  6
CONTINUOUS
 10
-23.1286754962
 20
11.5249904346
 11
-23.1375591151
 21
11.5082666201
  0
LINE
  5
296
100
AcDbEntity
  8
CURVE
100
AcDbLine
 62
252
  6
CONTINUOUS
 10
-23.1374659281
 20
11.5084347764
 11
-23.1467948547
 21
11.4922989515
  0
LINE
  5
297
100
AcDbEntity
  8
CURVE
100
AcDbLine
 62
252
  6
CONTINUOUS
 10
-23.146700568
 20
11.492455241
 11
-23.1564698699
 21
11.4769140449
  0
LINE
  5
298
100
AcDbEntity
  8
CURVE
100
AcDbLine
 62
252
  6
CONTINUOUS
 10
-21.1875098176
 20
30.3401359833
 11
-22.4256876768
 21
30.5279191841
  0
LINE
  5
299
100
AcDbEntity
  8
CURVE
100
AcDbLine
 62
252
  6
CONTINUOUS
 10
-25.2433789131
 20
30.9552528465
 11
-26.4480925059
 21
31.1379608256
  0
LWPOLYLINE
  5
29A
100
AcDbEntity
  8
RACCORDO
100
AcDbPolyline
 62
253
  6
CONTINUOUS
 90
40
 70
0
 10
-7.0377419256
 20
35.0843100213
 10
-7.0469107646
 20
35.0834518347
 10
-7.0563773267
 20
35.0826442493
 10
-7.0661265963
 20
35.0818885462
 10
-7.0761431092
 20
35.081185924
 10
-7.0864109772
 20
35.0805374973
 10
-7.0969139136
 20
35.0799442945
 10
-7.1076352587
 20
35.0794072567
 10
-7.1185580065
 20
35.0789272356
 10
-7.1296648313
 20
35.0785049927
 10
-7.1409381156
 20
35.0781411976
 10
-7.1523599778
 20
35.0778364276
 10
-7.1639123007
 20
35.0775911659
 10
-7.1755767601
 20
35.0774058017
 10
-7.187334854
 20
35.0772806289
 10
-7.1991679317
 20
35.077215846
 10
-7.2110572238
 20
35.077211556
 10
-7.2229838715
 20
35.0772677654
 10
-7.2349289569
 20
35.0773843853
 10
-7.2468735329
 20
35.0775612306
 10
-7.2587986531
 20
35.0777980208
 10
-7.2706854019
 20
35.0780943803
 10
-7.2825149248
 20
35.078449839
 10
-7.2942684577
 20
35.0788638331
 10
-7.3059273575
 20
35.0793357059
 10
-7.3174731307
 20
35.079864709
 10
-7.3288874638
 20
35.0804500032
 10
-7.3401522513
 20
35.0810906602
 10
-7.3512496251
 20
35.0817856637
 10
-7.3621619827
 20
35.0825339114
 10
-7.372872015
 20
35.0833342164
 10
-7.3833627339
 20
35.0841853092
 10
-7.3936174991
 20
35.0850858399
 10
-7.4036200445
 20
35.0860343799
 10
-7.4133545043
 20
35.0870294249
 10
-7.4228054376
 20
35.0880693964
 10
-7.4319578536
 20
35.0891526449
 10
-7.4407972348
 20
35.090277452
 10
-7.4493095602
 20
35.0914420337
 10
-7.4574813276
 20
35.0926445427
  0
LWPOLYLINE
  5
29B
100
AcDbEntity
  8
ASSI
100
AcDbPolyline
 62
253
  6
CONTINUOUS
 90
40
 70
0
 10
-7.0377419256
 20
35.0843100213
 10
-7.0469107646
 20
35.0834518347
 10
-7.0563773267
 20
35.0826442493
 10
-7.0661265963
 20
35.0818885462
 10
-7.0761431092
 20
35.081185924
 10
-7.0864109772
 20
35.0805374973
 10
-7.0969139136
 20
35.0799442945
 10
-7.1076352587
 20
35.0794072567
 10
-7.1185580065
 20
35.0789272356
 10
-7.1296648313
 20
35.0785049927
 10
-7.1409381156
 20
35.0781411976
 10
-7.1523599778
 20
35.0778364276
 10
-7.1639123007
 20
35.0775911659
 10
-7.1755767601
 20
35.0774058017
 10
-7.187334854
 20
35.0772806289
 10
-7.1991679317
 20
35.077215846
 10
-7.2110572238
 20
35.077211556
 10
-7.2229838715
 20
35.0772677654
 10
-7.2349289569
 20
35.0773843853
 10
-7.2468735329
 20
35.0775612306
 10
-7.2587986531
 20
35.0777980208
 10
-7.2706854019
 20
35.0780943803
 10
-7.2825149248
 20
35.078449839
 10
-7.2942684577
 20
35.0788638331
 10
-7.3059273575
 20
35.0793357059
 10
-7.3174731307
 20
35.079864709
 10
-7.3288874638
 20
35.0804500032
 10
-7.3401522513
 20
35.0810906602
 10
-7.3512496251
 20
35.0817856637
 10
-7.3621619827
 20
35.0825339114
 10
-7.372872015
 20
35.0833342164
 10
-7.3833627339
 20
35.0841853092
 10
-7.3936174991
 20
35.0850858399
 10
-7.4036200445
 20
35.0860343799
 10
-7.4133545043
 20
35.0870294249
 10
-7.4228054376
 20
35.0880693964
 10
-7.4319578536
 20
35.0891526449
 10
-7.4407972348
 20
35.090277452
 10
-7.4493095602
 20
35.0914420337
 10
-7.4574813276
 20
35.0926445427
  0
LWPOLYLINE
  5
29C
100
AcDbEntity
  8
RACCORDO
100
AcDbPolyline
 62
253
  6
CONTINUOUS
 90
49
 70
0
 10
-6.4857701202
 20
2.7197745001
 10
-6.4846479544
 20
2.7003326913
 10
-6.4831077863
 20
2.6810195065
 10
-6.4811496158
 20
2.6618349457
 10
-6.4787711896
 20
2.6427633413
 10
-6.4759747611
 20
2.623820361
 10
-6.4727670898
 20
2.6050530069
 10
-6.4691472042
 20
2.5864621855
 10
-6.4651160757
 20
2.5680469904
 10
-6.4606833789
 20
2.5498517056
 10
-6.45584816
 20
2.5318769235
 10
-6.4506113727
 20
2.5141220517
 10
-6.4449855524
 20
2.4966295963
 10
-6.4389697684
 20
2.479400178
 10
-6.4325649513
 20
2.4624331761
 10
-6.4257864286
 20
2.4457692356
 10
-6.4186332942
 20
2.4294090614
 10
-6.4111064543
 20
2.4133519485
 10
-6.4032239547
 20
2.3976364272
 10
-6.394984942
 20
2.382263323
 10
-6.3863902697
 20
2.3672318103
 10
-6.377460544
 20
2.3525779432
 10
-6.3681949672
 20
2.3383026375
 10
-6.358594337
 20
2.3244049773
 10
-6.3486816528
 20
2.3109182685
 10
-6.3384561676
 20
2.2978434955
 10
-6.3279186285
 20
2.2851796739
 10
-6.3170942761
 20
2.2729571557
 10
-6.305982416
 20
2.2611769921
 10
-6.2945837426
 20
2.2498381319
 10
-6.2829255793
 20
2.2389677738
 10
-6.2710072948
 20
2.2285670376
 10
-6.2588295204
 20
2.2186348035
 10
-6.2464214737
 20
2.2091949101
 10
-6.2337826166
 20
2.2002485513
 10
-6.2209134873
 20
2.1917945333
 10
-6.2078449172
 20
2.183853113
 10
-6.1945764353
 20
2.1764255177
 10
-6.1811085128
 20
2.1695105203
 10
-6.1674733951
 20
2.1631246964
 10
-6.1536706299
 20
2.1572693053
 10
-6.1397006695
 20
2.1519430877
 10
-6.1255971166
 20
2.1471588424
 10
-6.1113591382
 20
2.1429178357
 10
-6.0969875672
 20
2.1392188012
 10
-6.0825185048
 20
2.136070738
 10
-6.0679639849
 20
2.1334766457
 10
-6.0533119736
 20
2.1314335247
 10
-6.038562471
 20
2.1299413749
  0
LWPOLYLINE
  5
29D
100
AcDbEntity
  8
ASSI
100
AcDbPolyline
 62
253
  6
CONTINUOUS
 90
49
 70
0
 10
-6.4857701202
 20
2.7197745001
 10
-6.4846479544
 20
2.7003326913
 10
-6.4831077863
 20
2.6810195065
 10
-6.4811496158
 20
2.6618349457
 10
-6.4787711896
 20
2.6427633413
 10
-6.4759747611
 20
2.623820361
 10
-6.4727670898
 20
2.6050530069
 10
-6.4691472042
 20
2.5864621855
 10
-6.4651160757
 20
2.5680469904
 10
-6.4606833789
 20
2.5498517056
 10
-6.45584816
 20
2.5318769235
 10
-6.4506113727
 20
2.5141220517
 10
-6.4449855524
 20
2.4966295963
 10
-6.4389697684
 20
2.479400178
 10
-6.4325649513
 20
2.4624331761
 10
-6.4257864286
 20
2.4457692356
 10
-6.4186332942
 20
2.4294090614
 10
-6.4111064543
 20
2.4133519485
 10
-6.4032239547
 20
2.3976364272
 10
-6.394984942
 20
2.382263323
 10
-6.3863902697
 20
2.3672318103
 10
-6.377460544
 20
2.3525779432
 10
-6.3681949672
 20
2.3383026375
 10
-6.358594337
 20
2.3244049773
 10
-6.3486816528
 20
2.3109182685
 10
-6.3384561676
 20
2.2978434955
 10
-6.3279186285
 20
2.2851796739
 10
-6.3170942761
 20
2.2729571557
 10
-6.305982416
 20
2.2611769921
 10
-6.2945837426
 20
2.2498381319
 10
-6.2829255793
 20
2.2389677738
 10
-6.2710072948
 20
2.2285670376
 10
-6.2588295204
 20
2.2186348035
 10
-6.2464214737
 20
2.2091949101
 10
-6.2337826166
 20
2.2002485513
 10
-6.2209134873
 20
2.1917945333
 10
-6.2078449172
 20
2.183853113
 10
-6.1945764353
 20
2.1764255177
 10
-6.1811085128
 20
2.1695105203
 10
-6.1674733951
 20
2.1631246964
 10
-6.1536706299
 20
2.1572693053
 10
-6.1397006695
 20
2.1519430877
 10
-6.1255971166
 20
2.1471588424
 10
-6.1113591382
 20
2.1429178357
 10
-6.0969875672
 20
2.1392188012
 10
-6.0825185048
 20
2.136070738
 10
-6.0679639849
 20
2.1334766457
 10
-6.0533119736
 20
2.1314335247
 10
-6.038562471
 20
2.1299413749
  0
LWPOLYLINE
  5
29E
100
AcDbEntity
  8
RACCORDO
100
AcDbPolyline
 62
253
  6
CONTINUOUS
 90
47
 70
0
 10
-6.9051196198
 20
2.7052473293
 10
-6.9035245153
 20
2.677501263
 10
-6.9013309364
 20
2.6498981047
 10
-6.8985406346
 20
2.6224599306
 10
-6.8951558192
 20
2.5952087979
 10
-6.8911792037
 20
2.5681663818
 10
-6.8866139773
 20
2.5413539674
 10
-6.8814636922
 20
2.5147928177
 10
-6.8757324609
 20
2.4885043675
 10
-6.8694249981
 20
2.4625098601
 10
-6.86254631
 20
2.4368301676
 10
-6.855101839
 20
2.411485735
 10
-6.8470976395
 20
2.3864967824
 10
-6.8385400279
 20
2.3618832819
 10
-6.8294357933
 20
2.3376649253
 10
-6.8197923473
 20
2.3138610667
 10
-6.8096172906
 20
2.290490709
 10
-6.7989186981
 20
2.2675725736
 10
-6.7877053237
 20
2.2451250706
 10
-6.7759860335
 20
2.2231661549
 10
-6.7637701094
 20
2.2017133723
 10
-6.7510675332
 20
2.1807839289
 10
-6.737888352
 20
2.1603945628
 10
-6.7242430017
 20
2.1405615618
 10
-6.7101426116
 20
2.1213008087
 10
-6.6955983274
 20
2.1026276967
 10
-6.6806216696
 20
2.084557152
 10
-6.6652248539
 20
2.0671036561
 10
-6.6494200428
 20
2.0502811479
 10
-6.6332197606
 20
2.034103084
 10
-6.6166372505
 20
2.0185824654
 10
-6.5996856136
 20
2.0037316836
 10
-6.5823782834
 20
1.9895626147
 10
-6.5647294426
 20
1.9760866775
 10
-6.5467530722
 20
1.9633146455
 10
-6.5284633869
 20
1.9512566992
 10
-6.5098753092
 20
1.9399225205
 10
-6.4910035495
 20
1.9293211604
 10
-6.471863042
 20
1.919461076
 10
-6.4524693784
 20
1.9103501883
 10
-6.432837828
 20
1.9019957417
 10
-6.412984
 20
1.8944044393
 10
-6.392924282
 20
1.8875824684
 10
-6.3726746839
 20
1.8815352896
 10
-6.3522511043
 20
1.8762676583
 10
-6.3316699873
 20
1.8717837844
 10
-6.31094771
 20
1.8680872613
  0
LWPOLYLINE
  5
29F
100
AcDbEntity
  8
ASSI
100
AcDbPolyline
 62
253
  6
CONTINUOUS
 90
47
 70
0
 10
-6.9051196198
 20
2.7052473293
 10
-6.9035245153
 20
2.677501263
 10
-6.9013309364
 20
2.6498981047
 10
-6.8985406346
 20
2.6224599306
 10
-6.8951558192
 20
2.5952087979
 10
-6.8911792037
 20
2.5681663818
 10
-6.8866139773
 20
2.5413539674
 10
-6.8814636922
 20
2.5147928177
 10
-6.8757324609
 20
2.4885043675
 10
-6.8694249981
 20
2.4625098601
 10
-6.86254631
 20
2.4368301676
 10
-6.855101839
 20
2.411485735
 10
-6.8470976395
 20
2.3864967824
 10
-6.8385400279
 20
2.3618832819
 10
-6.8294357933
 20
2.3376649253
 10
-6.8197923473
 20
2.3138610667
 10
-6.8096172906
 20
2.290490709
 10
-6.7989186981
 20
2.2675725736
 10
-6.7877053237
 20
2.2451250706
 10
-6.7759860335
 20
2.2231661549
 10
-6.7637701094
 20
2.2017133723
 10
-6.7510675332
 20
2.1807839289
 10
-6.737888352
 20
2.1603945628
 10
-6.7242430017
 20
2.1405615618
 10
-6.7101426116
 20
2.1213008087
 10
-6.6955983274
 20
2.1026276967
 10
-6.6806216696
 20
2.084557152
 10
-6.6652248539
 20
2.0671036561
 10
-6.6494200428
 20
2.0502811479
 10
-6.6332197606
 20
2.034103084
 10
-6.6166372505
 20
2.0185824654
 10
-6.5996856136
 20
2.0037316836
 10
-6.5823782834
 20
1.9895626147
 10
-6.5647294426
 20
1.9760866775
 10
-6.5467530722
 20
1.9633146455
 10
-6.5284633869
 20
1.9512566992
 10
-6.5098753092
 20
1.9399225205
 10
-6.4910035495
 20
1.9293211604
 10
-6.471863042
 20
1.919461076
 10
-6.4524693784
 20
1.9103501883
 10
-6.432837828
 20
1.9019957417
 10
-6.412984
 20
1.8944044393
 10
-6.392924282
 20
1.8875824684
 10
-6.3726746839
 20
1.8815352896
 10
-6.3522511043
 20
1.8762676583
 10
-6.3316699873
 20
1.8717837844
 10
-6.31094771
 20
1.8680872613
  0
LWPOLYLINE
  5
2A0
100
AcDbEntity
  8
RACCORDO
100
AcDbPolyline
 62
253
  6
CONTINUOUS
 90
25
 70
0
 10
-7.4574813276
 20
35.0926445427
 10
-7.4725507591
 20
33.7380997171
 10
-7.4843080584
 20
32.383893365
 10
-7.4927531095
 20
31.0300394727
 10
-7.4978858346
 20
29.6765520246
 10
-7.4997061811
 20
28.3234449977
 10
-7.4982141225
 20
26.9707323614
 10
-7.493409676
 20
25.6184280857
 10
-7.4852928959
 20
24.2665461376
 10
-7.4738638613
 20
22.9151004749
 10
-7.4591226906
 20
21.5641050564
 10
-7.441069539
 20
20.2135738333
 10
-7.4197045912
 20
18.8635207446
 10
-7.3950280666
 20
17.5139597328
 10
-7.3670402213
 20
16.1649047356
 10
-7.3357413458
 20
14.8163696775
 10
-7.3011317603
 20
13.4683684831
 10
-7.2632118219
 20
12.1209150758
 10
-7.2219819269
 20
10.7740233691
 10
-7.1774424965
 20
9.4277072727
 10
-7.1295939887
 20
8.08198069
 10
-7.0784369054
 20
6.7368575167
 10
-7.0239717743
 20
5.3923516432
 10
-6.9661991488
 20
4.0484769548
 10
-6.9051196198
 20
2.7052473293
  0
LWPOLYLINE
  5
2A1
100
AcDbEntity
  8
ASSI
100
AcDbPolyline
 62
253
  6
CONTINUOUS
 90
25
 70
0
 10
-7.4574813276
 20
35.0926445427
 10
-7.4725507591
 20
33.7380997171
 10
-7.4843080584
 20
32.383893365
 10
-7.4927531095
 20
31.0300394727
 10
-7.4978858346
 20
29.6765520246
 10
-7.4997061811
 20
28.3234449977
 10
-7.4982141225
 20
26.9707323614
 10
-7.493409676
 20
25.6184280857
 10
-7.4852928959
 20
24.2665461376
 10
-7.4738638613
 20
22.9151004749
 10
-7.4591226906
 20
21.5641050564
 10
-7.441069539
 20
20.2135738333
 10
-7.4197045912
 20
18.8635207446
 10
-7.3950280666
 20
17.5139597328
 10
-7.3670402213
 20
16.1649047356
 10
-7.3357413458
 20
14.8163696775
 10
-7.3011317603
 20
13.4683684831
 10
-7.2632118219
 20
12.1209150758
 10
-7.2219819269
 20
10.7740233691
 10
-7.1774424965
 20
9.4277072727
 10
-7.1295939887
 20
8.08198069
 10
-7.0784369054
 20
6.7368575167
 10
-7.0239717743
 20
5.3923516432
 10
-6.9661991488
 20
4.0484769548
 10
-6.9051196198
 20
2.7052473293
  0
LWPOLYLINE
  5
2A2
100
AcDbEntity
  8
RACCORDO
100
AcDbPolyline
 62
253
  6
CONTINUOUS
 90
25
 70
0
 10
-7.0377419256
 20
35.0843100213
 10
-7.0528012713
 20
33.7306983141
 10
-7.0645506117
 20
32.3774527249
 10
-7.0729899469
 20
31.0245732537
 10
-7.0781192959
 20
29.6720459184
 10
-7.0799386396
 20
28.3198847011
 10
-7.0784479214
 20
26.9681315484
 10
-7.0736470385
 20
25.6167864918
 10
-7.0655360935
 20
24.2658494999
 10
-7.0541153381
 20
22.9153624243
 10
-7.0393846697
 20
21.5653252806
 10
-7.0213441908
 20
20.2157380533
 10
-6.9999944603
 20
18.8666425468
 10
-6.9753353758
 20
17.5180387764
 10
-6.9473670397
 20
16.1699267268
 10
-6.9160903182
 20
14.8223481571
 10
-6.8815051089
 20
13.4753030818
 10
-6.8436115143
 20
12.1287914864
 10
-6.802410708
 20
10.7828550855
 10
-6.7579025871
 20
9.4374938836
 10
-6.7100872546
 20
8.0927078762
 10
-6.6589661934
 20
6.7485387641
 10
-6.6045398977
 20
5.4050004475
 10
-6.5468078733
 20
4.0620790262
 10
-6.4857701202
 20
2.7197745001
  0
LWPOLYLINE
  5
2A3
100
AcDbEntity
  8
ASSI
100
AcDbPolyline
 62
253
  6
CONTINUOUS
 90
25
 70
0
 10
-7.0377419256
 20
35.0843100213
 10
-7.0528012713
 20
33.7306983141
 10
-7.0645506117
 20
32.3774527249
 10
-7.0729899469
 20
31.0245732537
 10
-7.0781192959
 20
29.6720459184
 10
-7.0799386396
 20
28.3198847011
 10
-7.0784479214
 20
26.9681315484
 10
-7.0736470385
 20
25.6167864918
 10
-7.0655360935
 20
24.2658494999
 10
-7.0541153381
 20
22.9153624243
 10
-7.0393846697
 20
21.5653252806
 10
-7.0213441908
 20
20.2157380533
 10
-6.9999944603
 20
18.8666425468
 10
-6.9753353758
 20
17.5180387764
 10
-6.9473670397
 20
16.1699267268
 10
-6.9160903182
 20
14.8223481571
 10
-6.8815051089
 20
13.4753030818
 10
-6.8436115143
 20
12.1287914864
 10
-6.802410708
 20
10.7828550855
 10
-6.7579025871
 20
9.4374938836
 10
-6.7100872546
 20
8.0927078762
 10
-6.6589661934
 20
6.7485387641
 10
-6.6045398977
 20
5.4050004475
 10
-6.5468078733
 20
4.0620790262
 10
-6.4857701202
 20
2.7197745001
  0
LINE
  5
2A4
100
AcDbEntity
  8
RACCORDO
100
AcDbLine
 62
253
  6
CONTINUOUS
 10
-40.0985615487
 20
40.0430209981
 11
-7.4574813276
 21
35.0926445427
  0
LINE
  5
2A5
100
AcDbEntity
  8
ASSI
100
AcDbLine
 62
253
  6
CONTINUOUS
 10
-40.0985615487
 20
40.0430209981
 11
-7.4574813276
 21
35.0926445427
  0
LWPOLYLINE
  5
2A6
100
AcDbEntity
  8
RACCORDO
100
AcDbPolyline
 62
253
  6
CONTINUOUS
 90
39
 70
0
 10
-6.038562471
 20
2.1299413749
 10
-6.0401005167
 20
2.1179974068
 10
-6.0419541636
 20
2.1061228949
 10
-6.0441204167
 20
2.0943370255
 10
-6.0465957759
 20
2.0826588415
 10
-6.0493762417
 20
2.0711072121
 10
-6.0524573214
 20
2.0597008018
 10
-6.0558340368
 20
2.0484580405
 10
-6.059500932
 20
2.0373970937
 10
-6.0634520822
 20
2.0265358333
 10
-6.0676811033
 20
2.0158918082
 10
-6.0721811623
 20
2.0054822166
 10
-6.0769449881
 20
1.9953238778
 10
-6.0819648837
 20
1.9854332052
 10
-6.0872327381
 20
1.9758261796
 10
-6.0927400398
 20
1.9665183236
 10
-6.0984778903
 20
1.9575246763
 10
-6.1044370188
 20
1.9488597694
 10
-6.1106077966
 20
1.9405376031
 10
-6.1169802535
 20
1.932571624
 10
-6.123544093
 20
1.9249747031
 10
-6.1302887096
 20
1.9177591151
 10
-6.1372032058
 20
1.9109365187
 10
-6.1442764094
 20
1.9045179375
 10
-6.1514968918
 20
1.8985137424
 10
-6.1588529866
 20
1.8929336345
 10
-6.1663328081
 20
1.88778663
 10
-6.1739242708
 20
1.8830810452
 10
-6.1816151088
 20
1.878824483
 10
-6.1893928956
 20
1.8750238212
 10
-6.1972450642
 20
1.8716852005
 10
-6.2051589274
 20
1.8688140154
 10
-6.2131216985
 20
1.866414905
 10
-6.2211205116
 20
1.8644917456
 10
-6.2291424425
 20
1.8630476447
 10
-6.2371745298
 20
1.8620849355
 10
-6.2452037957
 20
1.8616051735
 10
-6.2532172669
 20
1.8616091339
 10
-6.2599617998
 20
1.8619891582
  0
LWPOLYLINE
  5
2A7
100
AcDbEntity
  8
ASSI
100
AcDbPolyline
 62
253
  6
CONTINUOUS
 90
33
 70
0
 10
-6.038562471
 20
2.1299413749
 10
-6.0401005167
 20
2.1179974068
 10
-6.0419541636
 20
2.1061228949
 10
-6.0441204167
 20
2.0943370255
 10
-6.0465957759
 20
2.0826588415
 10
-6.0493762417
 20
2.0711072121
 10
-6.0524573214
 20
2.0597008018
 10
-6.0558340368
 20
2.0484580405
 10
-6.059500932
 20
2.0373970937
 10
-6.0634520822
 20
2.0265358333
 10
-6.0676811033
 20
2.0158918082
 10
-6.0721811623
 20
2.0054822166
 10
-6.0769449881
 20
1.9953238778
 10
-6.0819648837
 20
1.9854332052
 10
-6.0872327381
 20
1.9758261796
 10
-6.0927400398
 20
1.9665183236
 10
-6.0984778903
 20
1.9575246763
 10
-6.1044370188
 20
1.9488597694
 10
-6.1106077966
 20
1.9405376031
 10
-6.1169802535
 20
1.932571624
 10
-6.123544093
 20
1.9249747031
 10
-6.1302887096
 20
1.9177591151
 10
-6.1372032058
 20
1.9109365187
 10
-6.1442764094
 20
1.9045179375
 10
-6.1514968918
 20
1.8985137424
 10
-6.1588529866
 20
1.8929336345
 10
-6.1663328081
 20
1.88778663
 10
-6.1739242708
 20
1.8830810452
 10
-6.1816151088
 20
1.878824483
 10
-6.1893928956
 20
1.8750238212
 10
-6.1972450642
 20
1.8716852005
 10
-6.2051589274
 20
1.8688140154
 10
-6.2131216985
 20
1.866414905
  0
LINE
  5
2A8
100
AcDbEntity
  8
RACCORDO
100
AcDbLine
 62
253
  6
CONTINUOUS
 10
-39.5079887683
 20
41.0732451738
 11
-6.8534054039
 21
36.1208208192
  0
LINE
  5
2A9
100
AcDbEntity
  8
ASSI
100
AcDbLine
 62
253
  6
CONTINUOUS
 10
-39.5079887683
 20
41.0732451738
 11
-6.8534054039
 21
36.1208208192
  0
LWPOLYLINE
  5
2AA
100
AcDbEntity
  8
RACCORDO
100
AcDbPolyline
 62
253
  6
CONTINUOUS
 90
40
 70
0
 10
-6.6128633075
 20
35.80372623
 10
-6.6148016096
 20
35.8152510693
 10
-6.6170548662
 20
35.8268074451
 10
-6.6196194366
 20
35.8383766851
 10
-6.6224911771
 20
35.8499400964
 10
-6.6256654476
 20
35.8614789953
 10
-6.6291371194
 20
35.8729747378
 10
-6.632900583
 20
35.8844087497
 10
-6.6369497578
 20
35.8957625565
 10
-6.6412781011
 20
35.9070178132
 10
-6.6458786195
 20
35.9181563341
 10
-6.6507438798
 20
35.9291601221
 10
-6.6558660208
 20
35.9400113979
 10
-6.6612367664
 20
35.9506926284
 10
-6.6668474389
 20
35.9611865555
 10
-6.6726889728
 20
35.9714762235
 10
-6.6787519297
 20
35.981545007
 10
-6.6850265133
 20
35.9913766372
 10
-6.6915025854
 20
36.0009552287
 10
-6.6981696824
 20
36.0102653048
 10
-6.7050170318
 20
36.0192918228
 10
-6.71203357
 20
36.0280201981
 10
-6.7192079601
 20
36.0364363277
 10
-6.7265286101
 20
36.0445266132
 10
-6.7339836915
 20
36.0522779829
 10
-6.7415611588
 20
36.0596779123
 10
-6.7492487687
 20
36.066714445
 10
-6.7570341
 20
36.0733762117
 10
-6.7649045734
 20
36.0796524487
 10
-6.7728474723
 20
36.0855330151
 10
-6.7808499628
 20
36.0910084094
 10
-6.788899115
 20
36.0960697846
 10
-6.7969819233
 20
36.1007089629
 10
-6.8050853281
 20
36.1049184485
 10
-6.8131962361
 20
36.1086914398
 10
-6.8213015423
 20
36.1120218408
 10
-6.8293881503
 20
36.1149042701
 10
-6.8374429943
 20
36.1173340707
 10
-6.8454530595
 20
36.1193073165
 10
-6.8534054039
 20
36.1208208192
  0
LWPOLYLINE
  5
2AB
100
AcDbEntity
  8
ASSI
100
AcDbPolyline
 62
253
  6
CONTINUOUS
 90
40
 70
0
 10
-6.6128633075
 20
35.80372623
 10
-6.6148016096
 20
35.8152510693
 10
-6.6170548662
 20
35.8268074451
 10
-6.6196194366
 20
35.8383766851
 10
-6.6224911771
 20
35.8499400964
 10
-6.6256654476
 20
35.8614789953
 10
-6.6291371194
 20
35.8729747378
 10
-6.632900583
 20
35.8844087497
 10
-6.6369497578
 20
35.8957625565
 10
-6.6412781011
 20
35.9070178132
 10
-6.6458786195
 20
35.9181563341
 10
-6.6507438798
 20
35.9291601221
 10
-6.6558660208
 20
35.9400113979
 10
-6.6612367664
 20
35.9506926284
 10
-6.6668474389
 20
35.9611865555
 10
-6.6726889728
 20
35.9714762235
 10
-6.6787519297
 20
35.981545007
 10
-6.6850265133
 20
35.9913766372
 10
-6.6915025854
 20
36.0009552287
 10
-6.6981696824
 20
36.0102653048
 10
-6.7050170318
 20
36.0192918228
 10
-6.71203357
 20
36.0280201981
 10
-6.7192079601
 20
36.0364363277
 10
-6.7265286101
 20
36.0445266132
 10
-6.7339836915
 20
36.0522779829
 10
-6.7415611588
 20
36.0596779123
 10
-6.7492487687
 20
36.066714445
 10
-6.7570341
 20
36.0733762117
 10
-6.7649045734
 20
36.0796524487
 10
-6.7728474723
 20
36.0855330151
 10
-6.7808499628
 20
36.0910084094
 10
-6.788899115
 20
36.0960697846
 10
-6.7969819233
 20
36.1007089629
 10
-6.8050853281
 20
36.1049184485
 10
-6.8131962361
 20
36.1086914398
 10
-6.8213015423
 20
36.1120218408
 10
-6.8293881503
 20
36.1149042701
 10
-6.8374429943
 20
36.1173340707
 10
-6.8454530595
 20
36.1193073165
 10
-6.8534054039
 20
36.1208208192
  0
LINE
  5
2AC
100
AcDbEntity
  8
RACCORDO
100
AcDbLine
 62
7
  6
CONTINUOUS
 10
-2.0950338485
 20
37.5252760301
 11
-1.485
 21
1.756307465
  0
LINE
  5
2AD
100
AcDbEntity
  8
ASSI
100
AcDbLine
 62
7
  6
CONTINUOUS
 10
-2.0950338485
 20
37.5252760301
 11
-1.485
 21
1.756307465
  0
LINE
  5
2AE
100
AcDbEntity
  8
RACCORDO
100
AcDbLine
 62
7
  6
CONTINUOUS
 10
-2.3003604524
 20
37.8557897235
 11
-35.0964975959
 21
42.8296822553
  0
LINE
  5
2AF
100
AcDbEntity
  8
ASSI
100
AcDbLine
 62
7
  6
CONTINUOUS
 10
-2.3003604524
 20
37.8557897235
 11
-35.0964975959
 21
42.8296822553
  0
ELLIPSE
  5
2B0
100
AcDbEntity
  8
RACCORDO
100
AcDbEllipse
 62
7
  6
CONTINUOUS
 10
-1.6858317448
 20
1.7876758268
 30
0.0
 11
-0.0450767473
 21
0.3012701133
 31
0.0
 40
0.649832043
 41
-3.2928452719
 42
-1.7715391663
  0
ELLIPSE
  5
2B1
100
AcDbEntity
  8
RACCORDO
100
AcDbEllipse
 62
7
  6
CONTINUOUS
 10
-2.2958344718
 20
37.5548196053
 30
0.0
 11
-0.0431219776
 21
0.301200421
 31
0.0
 40
0.6513368971
 41
-1.7615957536
 42
-0.19383001
  0
ELLIPSE
  5
2B2
100
AcDbEntity
  8
RACCORDO
100
AcDbEllipse
 62
7
  6
CONTINUOUS
 10
-35.0907544368
 20
42.5285275387
 30
0.0
 11
-0.0450767473
 21
0.3012701133
 31
0.0
 40
0.649832043
 41
-0.1977122563
 42
0.1512517636
  0
ELLIPSE
  5
2B3
100
AcDbEntity
  8
ASSI
100
AcDbEllipse
 62
7
  6
CONTINUOUS
 10
-1.6858317448
 20
1.7876758268
 30
0.0
 11
-0.0450767473
 21
0.3012701133
 31
0.0
 40
0.649832043
 41
-3.2928452719
 42
-1.7715391663
  0
ELLIPSE
  5
2B4
100
AcDbEntity
  8
ASSI
100
AcDbEllipse
 62
7
  6
CONTINUOUS
 10
-2.2958344718
 20
37.5548196053
 30
0.0
 11
-0.0431219776
 21
0.301200421
 31
0.0
 40
0.6513368971
 41
-1.7615957536
 42
-0.19383001
  0
ELLIPSE
  5
2B5
100
AcDbEntity
  8
ASSI
100
AcDbEllipse
 62
7
  6
CONTINUOUS
 10
-35.0907544368
 20
42.5285275387
 30
0.0
 11
-0.0450767473
 21
0.3012701133
 31
0.0
 40
0.649832043
 41
-0.1977122563
 42
0.1512517636
  0
ELLIPSE
  5
2B6
100
AcDbEntity
  8
CURVE
100
AcDbEllipse
 62
252
  6
CONTINUOUS
 10
302.9666251299
 20
68.0687544021
 30
0.0
 11
575.390056825
 21
330.3009954335
 31
0.0
 40
0.1943149231
 41
2.0609088569
 42
2.0622033831
  0
ELLIPSE
  5
2B7
100
AcDbEntity
  8
CURVE
100
AcDbEllipse
 62
252
  6
CONTINUOUS
 10
280.8824438815
 20
71.4180617824
 30
0.0
 11
570.8747683911
 21
-458.528271251
 31
0.0
 40
0.3364761339
 41
-1.8455193022
 42
-1.844224776
  0
ELLIPSE
  5
2B8
100
AcDbEntity
  8
CURVE
100
AcDbEllipse
 62
252
  6
CONTINUOUS
 10
280.9500124769
 20
71.4078142667
 30
0.0
 11
570.504166469
 21
-458.4596206747
 31
0.0
 40
0.3367099985
 41
-1.8511077735
 42
-1.8498134075
  0
ELLIPSE
  5
2B9
100
AcDbEntity
  8
CURVE
100
AcDbEllipse
 62
252
  6
CONTINUOUS
 10
302.9168120099
 20
68.076309106
 30
0.0
 11
575.7351236337
 21
330.2642932946
 31
0.0
 40
0.1940636163
 41
2.0552249513
 42
2.0565193174
  0
ELLIPSE
  5
2BA
100
AcDbEntity
  8
CURVE
100
AcDbEllipse
 62
252
  6
CONTINUOUS
 10
285.6013011104
 20
70.702395525
 30
0.0
 11
399.2247830598
 21
349.2073629452
 31
0.0
 40
0.3752263136
 41
2.074848605
 42
2.0779321129
  0
ELLIPSE
  5
2BB
100
AcDbEntity
  8
CURVE
100
AcDbEllipse
 62
252
  6
CONTINUOUS
 10
285.6013011104
 20
70.702395525
 30
0.0
 11
399.2247830598
 21
349.2073629452
 31
0.0
 40
0.3752263136
 41
2.0849221034
 42
2.087934321
  0
ELLIPSE
  5
2BC
100
AcDbEntity
  8
CURVE
100
AcDbEllipse
 62
252
  6
CONTINUOUS
 10
298.3177223671
 20
68.7738113004
 30
0.0
 11
-373.39097652
 21
426.8722467375
 31
0.0
 40
0.4984854791
 41
1.2448438459
 42
1.2479266643
  0
ELLIPSE
  5
2BD
100
AcDbEntity
  8
CURVE
100
AcDbEllipse
 62
252
  6
CONTINUOUS
 10
298.3177223671
 20
68.7738113004
 30
0.0
 11
-373.39097652
 21
426.8722467375
 31
0.0
 40
0.4984854791
 41
1.2348409483
 42
1.237830307
  0
ENDSEC
  0
SECTION
  2
OBJECTS
  0
DICTIONARY
  5
C
100
AcDbDictionary
280
0
281
1
  3
ACAD_GROUP
350
D
  3
ACAD_MLINESTYLE
350
17
  3
ACAD_LAYOUT
350
1A
  3
ACAD_PLOTSETTINGS
350
19
  3
ACAD_PLOTSTYLENAME
350
E
  0
DICTIONARY
  5
D
102
{ACAD_REACTORS
330
C
102
}
100
AcDbDictionary
280
0
281
1
  0
ACDBDICTIONARYWDFLT
  5
E
102
{ACAD_REACTORS
330
C
102
}
100
AcDbDictionary
281
1
  3
Normal
350
F
100
AcDbDictionaryWithDefault
340
F
  0
DICTIONARY
  5
17
102
{ACAD_REACTORS
330
C
102
}
100
AcDbDictionary
280
0
281
1
  3
Standard
350
18
  0
DICTIONARY
  5
19
102
{ACAD_REACTORS
330
C
102
}
100
AcDbDictionary
281
1
  0
DICTIONARY
  5
1A
102
{ACAD_REACTORS
330
C
102
}
100
AcDbDictionary
281
1
  3
Model
350
2BE
  3
Layout1
350
2BF
  0
ACDBPLACEHOLDER
  5
F
102
{ACAD_REACTORS
330
E
102
}
  0
MLINESTYLE
  5
18
102
{ACAD_REACTORS
330
17
102
}
100
AcDbMlineStyle
  2
STANDARD
 70
0
  3

 62
256
 51
90.0
 52
90.0
 71
2
 49
0.5
 62
256
  6
BYLAYER
 49
-0.5
 62
256
  6
BYLAYER
  0
LAYOUT
  5
2BE
102
{ACAD_REACTORS
330
1A
102
}
100
AcDbPlotSettings
  1

  2
none_device
  4
ISO_A4_(297.00_x_210.00_MM)
  6

 40
0.0
 41
0.0
 42
0.0
 43
0.0
 44
297.0
 45
210.0
 46
0.0
 47
0.0
 48
0.0
 49
0.0
140
0.0
141
0.0
142
1.0
143
1.0
 70
1024
 72
1
 73
0
 74
0
  7

 75
0
147
1.0
148
0.0
149
0.0
100
AcDbLayout
  1
Model
 70
0
 71
0
 10
0.0
 20
0.0
 11
297.0
 21
210.0
 12
0.0
 22
0.0
 32
0.0
 14
0.0
 24
0.0
 34
0.0
 15
0.0
 25
0.0
 35
0.0
146
0.0
 13
0.0
 23
0.0
 33
0.0
 16
1.0
 26
0.0
 36
0.0
 17
0.0
 27
1.0
 37
0.0
 76
0
330
214
345
0
346
0
  0
LAYOUT
  5
2BF
102
{ACAD_REACTORS
330
1A
102
}
100
AcDbPlotSettings
  1

  2
none_device
  4
ISO_A4_(297.00_x_210.00_MM)
  6

 40
0.0
 41
0.0
 42
0.0
 43
0.0
 44
297.0
 45
210.0
 46
0.0
 47
0.0
 48
0.0
 49
0.0
140
0.0
141
0.0
142
1.0
143
1.0
 70
0
 72
1
 73
0
 74
0
  7

 75
0
147
1.0
148
0.0
149
0.0
100
AcDbLayout
  1
Layout1
 70
0
 71
1
 10
0.0
 20
0.0
 11
297.0
 21
210.0
 12
0.0
 22
0.0
 32
0.0
 14
0.0
 24
0.0
 34
0.0
 15
0.0
 25
0.0
 35
0.0
146
0.0
 13
0.0
 23
0.0
 33
0.0
 16
1.0
 26
0.0
 36
0.0
 17
0.0
 27
1.0
 37
0.0
 76
0
330
215
345
0
346
0
  0
ENDSEC
  0
EOF
