0
SECTION
2
HEADER
9
$ACADVER
1
AC1015
9
$DWGCODEPAGE
3
ANSI_1252
9
$EXTMAX
10
558.8000000000
20
431.8000000000
30
0.0000000000
9
$EXTMIN
10
0.0000000000
20
0.0000000000
30
0.0000000000
9
$LIMMIN
10
0.0000000000
20
0.0000000000
9
$LIMMAX
10
558.8000000000
20
431.8000000000
9
$VIEWCTR
10
279.4000000000
20
215.9000000000
9
$VIEWSIZE
40
431.8000000000
9
$CLAYER
8
0
9
$LTSCALE
40
30.7340000000
9
$CELTYPE
6
BYLAYER
9
$DIMSCALE
40
1
9
$DIMASZ
40
3.0000000000
9
$DIMEXO
40
3.4925000000
9
$DIMDLI
40
21.2344000000
9
$DIMEXE
40
10.0584000000
9
$DIMCEN
40
5.0292000000
9
$DIMLFAC
40
1.0000000000
9
$DIMBLK
1
_FILLED
9
$DIMTXT
40
3.0000000000
9
$DIMTOL
70
1
9
$DIMLIM
70
0
9
$DIMTFAC
40
1.0000000000
9
$DIMTP
40
0.0100000000
9
$DIMTM
40
0.0100000000
9
$PDMODE
70
3
9
$PDSIZE
40
3.0000000000
9
$HANDSEED
5
262
9
$MEASUREMENT
70
1
9
$INSUNITS
70
4
0
ENDSEC
0
SECTION
2
CLASSES
0
CLASS
1
ACDBDICTIONARYWDFLT
2
AcDbDictionaryWithDefault
3
AutoCAD 2000
90
0
280
0
281
0
0
CLASS
1
ACDBPLACEHOLDER
2
AcDbPlaceHolder
3
AutoCAD 2000
90
0
280
0
281
0
0
CLASS
1
LAYOUT
2
AcDbLayout
3
AutoCAD 2000
90
0
280
0
281
0
0
ENDSEC
0
SECTION
2
TABLES
0
TABLE
2
VPORT
5
8
100
AcDbSymbolTable
70
2
0
VPORT
5
1F4
100
AcDbSymbolTableRecord
100
AcDbViewportTableRecord
2
*ACTIVE
70
0
10
0.0
20
0.0
11
1.0
21
1.0
12
279.4000000000
22
215.9000000000
13
0.0
23
0.0
14
1.0
24
1.0
15
0.0
25
0.0
16
0.0
26
0.0
36
1.0
17
0.0
27
0.0
37
0.0
40
431.8000000000
41
1.2941176471
42
50.0
43
0.0
44
0.0
50
0.0
51
0.0
71
0
72
100
73
1
74
1
75
0
76
0
77
0
78
0
0
ENDTAB
0
TABLE
2
LTYPE
5
5
100
AcDbSymbolTable
70
6
0
LTYPE
5
14
100
AcDbSymbolTableRecord
100
AcDbLinetypeTableRecord
2
BYBLOCK
70
0
3

72
65
73
0
40
0.0
0
LTYPE
5
15
100
AcDbSymbolTableRecord
100
AcDbLinetypeTableRecord
2
BYLAYER
70
0
3

72
65
73
0
40
0.0
0
LTYPE
5
16
100
AcDbSymbolTableRecord
100
AcDbLinetypeTableRecord
2
CONTINUOUS
70
64
3
Solid line
72
65
73
0
40
0
0
LTYPE
5
1F5
100
AcDbSymbolTableRecord
100
AcDbLinetypeTableRecord
2
CENTER
70
64
3
____ _ ____ _ ____ _ ____ _ ____ _ ____ _ ____
72
65
73
4
40
0.6
49
0.375
74
0
49
-0.075
74
0
49
0.075
74
0
49
-0.075
74
0
0
LTYPE
5
1F6
100
AcDbSymbolTableRecord
100
AcDbLinetypeTableRecord
2
HIDDEN
70
64
3
- - - - - - - - - - - - - - - - - - - -
72
65
73
2
40
0.2
49
0.1
74
0
49
-0.1
74
0
0
LTYPE
5
1F7
100
AcDbSymbolTableRecord
100
AcDbLinetypeTableRecord
2
PHANTOM
70
64
3
_____ _ _ _____ _ _ _____ _ _ _____
72
65
73
6
40
0.8
49
0.45
74
0
49
-0.05
74
0
49
0.1
74
0
49
-0.05
74
0
49
0.1
74
0
49
-0.05
74
0
0
LTYPE
5
1F8
100
AcDbSymbolTableRecord
100
AcDbLinetypeTableRecord
2
DOT
70
64
3
. . . . . . . . . . . . . . . . . . . .
72
65
73
2
40
0.2
49
0.1
74
0
49
-0.1
74
0
0
LTYPE
5
1F9
100
AcDbSymbolTableRecord
100
AcDbLinetypeTableRecord
2
DASHED
70
64
3
- - - - - - - - - - - - - - - - - - - -
72
65
73
2
40
0.2
49
0.1
74
0
49
-0.1
74
0
0
ENDTAB
0
TABLE
2
LAYER
5
2
100
AcDbSymbolTable
70
36
0
LAYER
5
10
100
AcDbSymbolTableRecord
100
AcDbLayerTableRecord
2
0
70
0
62
7
6
CONTINUOUS
370
-3
390
F
0
LAYER
5
1FA
100
AcDbSymbolTableRecord
100
AcDbLayerTableRecord
2
DEFAULT_1
70
0
62
7
6
CENTER
370
-3
390
F
0
LAYER
5
1FB
100
AcDbSymbolTableRecord
100
AcDbLayerTableRecord
2
DEFAULT_2
70
0
62
0
6
HIDDEN
370
-3
390
F
0
LAYER
5
1FC
100
AcDbSymbolTableRecord
100
AcDbLayerTableRecord
2
DEFAULT_3
70
0
62
7
6
PHANTOM
370
-3
390
F
0
LAYER
5
1FD
100
AcDbSymbolTableRecord
100
AcDbLayerTableRecord
2
ASSI
70
0
62
7
6
CONTINUOUS
370
-3
390
F
0
LAYER
5
1FE
100
AcDbSymbolTableRecord
100
AcDbLayerTableRecord
2
COORDINATE
70
0
62
7
6
CONTINUOUS
370
-3
390
F
0
LAYER
5
1FF
100
AcDbSymbolTableRecord
100
AcDbLayerTableRecord
2
COORD_ORIGINE
70
0
62
7
6
CONTINUOUS
370
-3
390
F
0
LAYER
5
200
100
AcDbSymbolTableRecord
100
AcDbLayerTableRecord
2
CURVE
70
0
62
7
6
CONTINUOUS
370
-3
390
F
0
LAYER
5
201
100
AcDbSymbolTableRecord
100
AcDbLayerTableRecord
2
CURVE_LED_TASTO
70
0
62
7
6
CONTINUOUS
370
-3
390
F
0
LAYER
5
202
100
AcDbSymbolTableRecord
100
AcDbLayerTableRecord
2
DRAFT
70
0
62
7
6
CONTINUOUS
370
-3
390
F
0
LAYER
5
203
100
AcDbSymbolTableRecord
100
AcDbLayerTableRecord
2
PIANI
70
0
62
7
6
CONTINUOUS
370
-3
390
F
0
LAYER
5
204
100
AcDbSymbolTableRecord
100
AcDbLayerTableRecord
2
PIANI_ORIGINE
70
0
62
7
6
CONTINUOUS
370
-3
390
F
0
LAYER
5
205
100
AcDbSymbolTableRecord
100
AcDbLayerTableRecord
2
PIANI_RIFERIMENTO
70
0
62
7
6
CONTINUOUS
370
-3
390
F
0
LAYER
5
206
100
AcDbSymbolTableRecord
100
AcDbLayerTableRecord
2
PUNTI
70
0
62
7
6
CONTINUOUS
370
-3
390
F
0
LAYER
5
207
100
AcDbSymbolTableRecord
100
AcDbLayerTableRecord
2
RACCORDO
70
0
62
7
6
CONTINUOUS
370
-3
390
F
0
LAYER
5
208
100
AcDbSymbolTableRecord
100
AcDbLayerTableRecord
2
SCRITTE
70
0
62
7
6
CONTINUOUS
370
-3
390
F
0
LAYER
5
209
100
AcDbSymbolTableRecord
100
AcDbLayerTableRecord
2
SUPERFICI
70
0
62
7
6
CONTINUOUS
370
-3
390
F
0
LAYER
5
20A
100
AcDbSymbolTableRecord
100
AcDbLayerTableRecord
2
TRASH
70
0
62
7
6
CONTINUOUS
370
-3
390
F
0
ENDTAB
0
TABLE
2
STYLE
5
3
100
AcDbSymbolTable
70
1
0
STYLE
5
11
100
AcDbSymbolTableRecord
100
AcDbTextStyleTableRecord
2
STANDARD
70
0
40
0.0
41
0.8000000000
50
0.0
71
0
42
0.2
3
txt
4

0
ENDTAB
0
TABLE
2
VIEW
5
6
100
AcDbSymbolTable
70
0
0
ENDTAB
0
TABLE
2
UCS
5
7
100
AcDbSymbolTable
70
0
0
ENDTAB
0
TABLE
2
APPID
5
9
100
AcDbSymbolTable
70
1
0
APPID
5
20B
100
AcDbSymbolTableRecord
100
AcDbRegAppTableRecord
2
ACAD
70
0
0
ENDTAB
0
TABLE
2
BLOCK_RECORD
5
1
100
AcDbSymbolTable
70
0
0
BLOCK_RECORD
5
1F
100
AcDbSymbolTableRecord
100
AcDbBlockTableRecord
2
*MODEL_SPACE
0
BLOCK_RECORD
5
1B
100
AcDbSymbolTableRecord
100
AcDbBlockTableRecord
2
*PAPER_SPACE
0
ENDTAB
0
TABLE
2
DIMSTYLE
5
A
100
AcDbSymbolTable
70
1
100
AcDbDimStyleTable
71
0
0
DIMSTYLE
105
20C
100
AcDbSymbolTableRecord
100
AcDbDimStyleTableRecord
2
STANDARD
70
0
3

4

40
1.0
41
3.0000000000
42
0.0625
43
0.38
44
0.18
45
0.0
46
0.0
47
0.0100000000
48
0.0100000000
140
3.0000000000
141
0.09
142
0.0
143
25.4
144
1.0000000000
145
0.0
146
1.0000000000
147
0.09
71
1
72
0
73
0
74
0
75
0
76
0
77
1
78
8
170
0
171
2
172
0
173
0
174
0
175
0
176
0
177
0
178
0
270
2
271
2
272
2
273
2
274
2
275
0
280
0
281
0
282
0
283
1
284
8
285
0
286
0
287
3
288
0
340
11
0
ENDTAB
0
ENDSEC
0
SECTION
2
BLOCKS
0
BLOCK
5
20
100
AcDbEntity
8
0
100
AcDbBlockBegin
2
*MODEL_SPACE
70
0
10
0.0
20
0.0
30
0.0
3
*MODEL_SPACE
1

0
ENDBLK
5
21
100
AcDbEntity
8
0
100
AcDbBlockEnd
0
BLOCK
5
1C
100
AcDbEntity
8
0
100
AcDbBlockBegin
2
*PAPER_SPACE
70
0
10
0.0
20
0.0
30
0.0
3
*PAPER_SPACE
1

0
ENDBLK
5
1D
100
AcDbEntity
8
0
100
AcDbBlockEnd
0
ENDSEC
0
SECTION
2
ENTITIES
0
LWPOLYLINE
5
20D
100
AcDbEntity
8
0
100
AcDbPolyline
62
0
6
CONTINUOUS
90
43
70
0
10
-19.2342719495
20
22.0961866826
10
-19.2504253511
20
22.0840240670
10
-19.2719628486
20
22.0670207875
10
-19.2931527941
20
22.0493874475
10
-19.3139904335
20
22.0311405501
10
-19.3344678395
20
22.0122994293
10
-19.3545705994
20
21.9928890026
10
-19.3742928931
20
21.9729266653
10
-19.3936277426
20
21.9524302531
10
-19.4125574464
20
21.9314288437
10
-19.4310754177
20
21.9099408597
10
-19.4491751939
20
21.8879835345
10
-19.4668392341
20
21.8655880977
10
-19.4840590468
20
21.8427759224
10
-19.5008301387
20
21.8195620938
10
-19.5171411647
20
21.7959716747
10
-19.5329825411
20
21.7720275857
10
-19.5483507532
20
21.7477431681
10
-19.5632428838
20
21.7231303469
10
-19.5776513023
20
21.6982070780
10
-19.5915690722
20
21.6729903411
10
-19.6049926568
20
21.6474903186
10
-19.6179139596
20
21.6217239641
10
-19.6303251922
20
21.5957083861
10
-19.6422214327
20
21.5694532221
10
-19.6535941108
20
21.5429748377
10
-19.6644345641
20
21.5162903386
10
-19.6747362686
20
21.4894095628
10
-19.6844910931
20
21.4623458117
10
-19.6936883234
20
21.4351188268
10
-19.7023174362
20
21.4077471723
10
-19.7103696254
20
21.3802451104
10
-19.7178341386
20
21.3526313770
10
-19.7246990760
20
21.3249299451
10
-19.7309549332
20
21.2971567695
10
-19.7365913302
20
21.2693285619
10
-19.7415970298
20
21.2414685932
10
-19.7459618913
20
21.2135936144
10
-19.7496753685
20
21.1857194641
10
-19.7527266224
20
21.1578649832
10
-19.7551045237
20
21.1300459229
10
-19.7567978545
20
21.1022790955
10
-19.7575859489
20
21.0823529749
0
LINE
5
20E
100
AcDbEntity
8
0
100
AcDbLine
62
0
6
CONTINUOUS
10
-19.2342744455
20
22.0961848795
11
-15.0331271582
21
25.1947713377
0
LINE
5
20F
100
AcDbEntity
8
0
100
AcDbLine
62
0
6
CONTINUOUS
10
-19.0930391974
20
22.0921929937
11
-14.8838725370
21
25.1966941982
0
LINE
5
210
100
AcDbEntity
8
0
100
AcDbLine
62
0
6
CONTINUOUS
10
15.5220577251
20
-25.1925161152
11
19.8770902925
21
-24.0140718606
0
LINE
5
211
100
AcDbEntity
8
0
100
AcDbLine
62
0
6
CONTINUOUS
10
15.6520952550
20
-25.0108316689
11
19.9771024425
21
-23.8405120922
0
LWPOLYLINE
5
212
100
AcDbEntity
8
0
100
AcDbPolyline
62
0
6
CONTINUOUS
90
36
70
0
10
-19.7575767148
20
-7.2966700436
10
-19.7568318344
20
-7.3150381189
10
-19.7552577870
20
-7.3402250241
10
-19.7530544369
20
-7.3651216627
10
-19.7502206767
20
-7.3897312939
10
-19.7467586694
20
-7.4140291935
10
-19.7426770286
20
-7.4379620869
10
-19.7379793093
20
-7.4615225634
10
-19.7326696155
20
-7.4847013645
10
-19.7267638139
20
-7.5074449893
10
-19.7202689765
20
-7.5297463583
10
-19.7131928184
20
-7.5515978803
10
-19.7055594351
20
-7.5729477008
10
-19.6973813158
20
-7.5937871364
10
-19.6886694185
20
-7.6141133221
10
-19.6794528994
20
-7.6338852220
10
-19.6697549245
20
-7.6530837111
10
-19.6595845686
20
-7.6717200995
10
-19.6489533262
20
-7.6897986528
10
-19.6378804078
20
-7.7073098379
10
-19.6263793853
20
-7.7242541370
10
-19.6144523843
20
-7.7406475070
10
-19.6021150823
20
-7.7564845315
10
-19.5893839694
20
-7.7717593504
10
-19.5762607161
20
-7.7864832990
10
-19.5627620588
20
-7.8006495587
10
-19.5489041323
20
-7.8142527908
10
-19.5346863669
20
-7.8273030616
10
-19.5201256868
20
-7.8397929222
10
-19.5052384229
20
-7.8517168871
10
-19.4900214120
20
-7.8630842004
10
-19.4744907704
20
-7.8738878290
10
-19.4586636077
20
-7.8841211138
10
-19.4425366743
20
-7.8937905179
10
-19.4261196104
20
-7.9028928297
10
-19.4134617353
20
-7.9094255021
0
LWPOLYLINE
5
213
100
AcDbEntity
8
0
100
AcDbPolyline
62
0
6
CONTINUOUS
90
25
70
0
10
-19.7575859127
20
21.0823557482
10
-19.7924719199
20
19.8884332991
10
-19.8245130661
20
18.6892140695
10
-19.8535036612
20
17.4914494662
10
-19.8794433375
20
16.2951533214
10
-19.9023318419
20
15.1003377429
10
-19.9221689512
20
13.9070141962
10
-19.9389544449
20
12.7151946644
10
-19.9526881534
20
11.5248914742
10
-19.9633699228
20
10.3361166096
10
-19.9709996105
20
9.1488822624
10
-19.9755771373
20
7.9632008803
10
-19.9771024424
20
6.7790848323
10
-19.9755754814
20
5.5965463353
10
-19.9709962713
20
4.4155975741
10
-19.9633648452
20
3.2362508676
10
-19.9526812550
20
2.0585185960
10
-19.9389456159
20
0.8824128175
10
-19.9221580541
20
-0.2920546319
10
-19.9023187117
20
-1.4648715877
10
-19.8794277817
20
-2.6360262821
10
-19.8534854596
20
-3.8055074705
10
-19.8244919710
20
-4.9733032916
10
-19.7924476563
20
-6.1394002756
10
-19.7575767085
20
-7.2966712085
0
LWPOLYLINE
5
214
100
AcDbEntity
8
0
100
AcDbPolyline
62
0
6
CONTINUOUS
90
24
70
0
10
15.0784401706
20
-25.1553764554
10
15.0906378537
20
-25.1612964992
10
15.1080474054
20
-25.1691403809
10
15.1257543320
20
-25.1764178143
10
15.1437490919
20
-25.1831208484
10
15.1620333729
20
-25.1892449661
10
15.1805928216
20
-25.1947797032
10
15.1994116700
20
-25.1997152992
10
15.2184906878
20
-25.2040462097
10
15.2378147349
20
-25.2077624944
10
15.2573685766
20
-25.2108551011
10
15.2771542525
20
-25.2133178912
10
15.2971570036
20
-25.2151417493
10
15.3173616401
20
-25.2163180187
10
15.3377711973
20
-25.2168391348
10
15.3583717478
20
-25.2166965164
10
15.3791479875
20
-25.2158819697
10
15.4001026692
20
-25.2143862167
10
15.4212218389
20
-25.2122006535
10
15.4424921762
20
-25.2093171416
10
15.4639194713
20
-25.2057241920
10
15.4854970198
20
-25.2014110664
10
15.5072036716
20
-25.1963705680
10
15.5220520263
20
-25.1925175935
0
LINE
5
215
100
AcDbEntity
8
0
100
AcDbLine
62
0
6
CONTINUOUS
10
-19.4135012238
20
-7.9094057687
11
15.0784718460
21
-25.1553923036
0
LINE
5
216
100
AcDbEntity
8
0
100
AcDbLine
62
0
6
CONTINUOUS
10
-19.6696993469
20
-7.4032425912
11
14.8159350444
21
-24.6460597868
0
LINE
5
217
100
AcDbEntity
8
0
100
AcDbLine
62
0
6
CONTINUOUS
10
3.1500666194
20
-17.3648819109
11
-8.0929312014
21
-11.7433830004
0
LINE
5
218
100
AcDbEntity
8
0
100
AcDbLine
62
0
6
CONTINUOUS
10
-8.0956485692
20
-11.6479587683
11
3.1473492516
21
-17.2694576787
0
LINE
5
219
100
AcDbEntity
8
0
100
AcDbLine
62
0
6
CONTINUOUS
10
-8.2553395061
20
-2.9809476584
11
2.9876583148
21
-8.6024465689
0
LINE
5
21A
100
AcDbEntity
8
0
100
AcDbLine
62
0
6
CONTINUOUS
10
2.9868267054
20
-8.5043347188
11
-8.2561711154
21
-2.8828358084
0
LINE
5
21B
100
AcDbEntity
8
0
100
AcDbLine
62
0
6
CONTINUOUS
10
-9.1462438402
20
-2.9223826556
11
-8.7750125079
21
-2.7367669894
0
LINE
5
21C
100
AcDbEntity
8
0
100
AcDbLine
62
0
6
CONTINUOUS
10
-8.2553395061
20
-2.9809476584
11
-8.1576434607
21
-2.9320996358
0
LINE
5
21D
100
AcDbEntity
8
0
100
AcDbLine
62
0
6
CONTINUOUS
10
-2.7358796543
20
-0.6193119599
11
-2.6512099609
21
-0.5769771133
0
LINE
5
21E
100
AcDbEntity
8
0
100
AcDbLine
62
0
6
CONTINUOUS
10
-9.6504972819
20
-3.9167843324
11
-9.7316982766
21
-3.9566823300
0
LINE
5
21F
100
AcDbEntity
8
0
100
AcDbLine
62
0
6
CONTINUOUS
10
-1.6402063453
20
-2.8106585779
11
-1.5555367855
21
-2.7683237980
0
LINE
5
220
100
AcDbEntity
8
0
100
AcDbLine
62
0
6
CONTINUOUS
10
-9.5567966303
20
-9.1534996086
11
-9.6344139624
21
-9.1916367785
0
LINE
5
221
100
AcDbEntity
8
0
100
AcDbLine
62
0
6
CONTINUOUS
10
19.7655810752
20
7.8719673921
11
15.4068614027
21
4.8422426937
0
LINE
5
222
100
AcDbEntity
8
0
100
AcDbLine
62
0
6
CONTINUOUS
10
19.9771024425
20
7.5031906498
11
15.6520952550
21
4.4968993346
0
LINE
5
223
100
AcDbEntity
8
0
100
AcDbLine
62
0
6
CONTINUOUS
10
-7.9998604111
20
-11.6958528473
11
-8.0929312014
21
-11.7433830004
0
LINE
5
224
100
AcDbEntity
8
0
100
AcDbLine
62
0
6
CONTINUOUS
10
2.9876583148
20
-8.6024465689
11
3.0815894911
21
-8.5554809807
0
LINE
5
225
100
AcDbEntity
8
0
100
AcDbLine
62
0
6
CONTINUOUS
10
-19.6696993469
20
20.9772500975
11
14.8159350444
21
3.7344329019
0
LINE
5
226
100
AcDbEntity
8
0
100
AcDbLine
62
0
6
CONTINUOUS
10
4.4200086279
20
-11.0325357823
11
4.4978763486
21
-10.9936019219
0
LINE
5
227
100
AcDbEntity
8
0
100
AcDbLine
62
0
6
CONTINUOUS
10
-19.0930391974
20
22.0921929937
11
15.4068614027
21
4.8422426937
0
LINE
5
228
100
AcDbEntity
8
0
100
AcDbLine
62
0
6
CONTINUOUS
10
3.2478602020
20
-17.3149398835
11
3.1500666194
21
-17.3648819109
0
LINE
5
229
100
AcDbEntity
8
0
100
AcDbLine
62
0
6
CONTINUOUS
10
4.5164512996
20
-16.2670694095
11
4.5940430924
21
-16.2282735131
0
LINE
5
22A
100
AcDbEntity
8
0
100
AcDbLine
62
0
6
CONTINUOUS
10
4.0309896406
20
-17.3316546542
11
4.3926332667
21
-17.1508328411
0
LINE
5
22B
100
AcDbEntity
8
0
100
AcDbLine
62
0
6
CONTINUOUS
10
19.7655810752
20
7.8719673921
11
-14.8838725370
21
25.1966941982
0
LINE
5
22C
100
AcDbEntity
8
0
100
AcDbLine
62
0
6
CONTINUOUS
10
19.9771024425
20
7.5031906498
11
19.9771024425
21
-23.8405120922
0
SPLINE
5
22D
100
AcDbEntity
8
0
100
AcDbSpline
62
0
6
CONTINUOUS
70
0
71
3
72
11
73
7
74
5
42
0.0000001000
43
0.0000001000
44
0.0000000001
12
-0.5907207857
22
-0.2953603929
32
0.0000000000
13
-0.5907207857
23
0.2953603928
33
0.0000000000
40
0.0000000000
40
0.0000000000
40
0.0000000000
40
0.0000000000
40
0.2249271483
40
0.4614838855
40
0.7187250717
40
1.0000000000
40
1.0000000000
40
1.0000000000
40
1.0000000000
10
-1.6402063326
20
-2.8106585715
30
0.0000000000
10
-1.6844960465
20
-2.8328034285
30
0.0000000000
10
-1.7816356035
20
-2.8666841586
30
0.0000000000
10
-1.9408737189
20
-2.8798160396
30
0.0000000000
10
-2.1108557763
20
-2.8528712018
30
0.0000000000
10
-2.2221007240
20
-2.8092392308
30
0.0000000000
10
-2.2774857062
20
-2.7815467396
30
0.0000000000
11
-1.6402063326
21
-2.8106585715
31
0.0000000000
11
-1.7804004143
21
-2.8597847406
31
0.0000000000
11
-1.9360365020
21
-2.8734279425
31
0.0000000000
11
-2.1040201221
21
-2.8480224796
31
0.0000000000
11
-2.2774857062
21
-2.7815467396
31
0.0000000000
0
SPLINE
5
22E
100
AcDbEntity
8
0
100
AcDbSpline
62
0
6
CONTINUOUS
70
0
71
3
72
20
73
16
74
14
42
0.0000001000
43
0.0000001000
44
0.0000000001
12
-2.2746577121
22
1.1373288560
32
0.0000000000
13
2.1656390982
23
1.3458139624
33
0.0000000000
40
0.0000000000
40
0.0000000000
40
0.0000000000
40
0.0000000000
40
0.0788477395
40
0.1625514753
40
0.2494483562
40
0.3379804764
40
0.4270550123
40
0.5152618441
40
0.6012997497
40
0.6840047061
40
0.7621681531
40
0.8346752463
40
0.9005835956
40
0.9622368097
40
1.0000000000
40
1.0000000000
40
1.0000000000
40
1.0000000000
10
-2.2774857062
20
-2.7815467396
30
0.0000000000
10
-2.3372695791
20
-2.7516548032
30
0.0000000000
10
-2.4546827270
20
-2.6779332256
30
0.0000000000
10
-2.6140108977
20
-2.5377985000
30
0.0000000000
10
-2.7575059760
20
-2.3705977582
30
0.0000000000
10
-2.8810805191
20
-2.1828270570
30
0.0000000000
10
-2.9816088353
20
-1.9805535151
30
0.0000000000
10
-3.0563342633
20
-1.7696160792
30
0.0000000000
10
-3.1026669431
20
-1.5561324234
30
0.0000000000
10
-3.1182674846
20
-1.3466384215
30
0.0000000000
10
-3.1013734212
20
-1.1485447270
30
0.0000000000
10
-3.0518760693
20
-0.9704609236
30
0.0000000000
10
-2.9720644444
20
-0.8191562555
30
0.0000000000
10
-2.8783988113
20
-0.7130673040
30
0.0000000000
10
-2.8101426817
20
-0.6625481185
30
0.0000000000
10
-2.7828822012
20
-0.6456073756
30
0.0000000000
11
-2.2774857062
21
-2.7815467396
31
0.0000000000
11
-2.4479781201
21
-2.6759953740
31
0.0000000000
11
-2.6084817395
21
-2.5361650275
31
0.0000000000
11
-2.7528747506
21
-2.3688693936
31
0.0000000000
11
-2.8768993206
21
-2.1809587166
31
0.0000000000
11
-2.9777117133
21
-1.9780980667
31
0.0000000000
11
-3.0523298288
21
-1.7665494328
31
0.0000000000
11
-3.0981294220
21
-1.5525895544
31
0.0000000000
11
-3.1127898371
21
-1.3427704385
31
0.0000000000
11
-3.0946321717
21
-1.1448205317
31
0.0000000000
11
-3.0438966548
21
-0.9675416515
31
0.0000000000
11
-2.9646584582
21
-0.8198395288
31
0.0000000000
11
-2.8602751860
21
-0.7028429899
31
0.0000000000
11
-2.7828822012
21
-0.6456073756
31
0.0000000000
0
SPLINE
5
22F
100
AcDbEntity
8
0
100
AcDbSpline
62
0
6
CONTINUOUS
70
0
71
3
72
8
73
4
74
2
42
0.0000001000
43
0.0000001000
44
0.0000000001
12
0.0036902994
22
0.0022932983
32
0.0000000000
13
0.0037064836
23
0.0022657316
33
0.0000000000
40
0.0000000000
40
0.0000000000
40
0.0000000000
40
0.0000000000
40
1.0000000000
40
1.0000000000
40
1.0000000000
40
1.0000000000
10
-2.7828822012
20
-0.6456073756
30
0.0000000000
10
-2.7816521014
20
-0.6448429428
30
0.0000000000
10
-2.7804192865
20
-0.6440830892
30
0.0000000000
10
-2.7791837919
20
-0.6433278454
30
0.0000000000
11
-2.7828822012
21
-0.6456073756
31
0.0000000000
11
-2.7791837919
21
-0.6433278454
31
0.0000000000
0
SPLINE
5
230
100
AcDbEntity
8
0
100
AcDbSpline
62
0
6
CONTINUOUS
70
0
71
3
72
8
73
4
74
2
42
0.0000001000
43
0.0000001000
44
0.0000000001
12
0.0423097190
22
0.0258634533
32
0.0000000000
13
0.0442455536
23
0.0221227768
33
0.0000000000
40
0.0000000000
40
0.0000000000
40
0.0000000000
40
0.0000000000
40
1.0000000000
40
1.0000000000
40
1.0000000000
40
1.0000000000
10
-2.7791837919
20
-0.6433278454
30
0.0000000000
10
-2.7650805523
20
-0.6347066942
30
0.0000000000
10
-2.7506281594
20
-0.6266862125
30
0.0000000000
10
-2.7358796416
20
-0.6193119536
30
0.0000000000
11
-2.7791837919
21
-0.6433278454
31
0.0000000000
11
-2.7358796416
21
-0.6193119536
31
0.0000000000
0
SPLINE
5
231
100
AcDbEntity
8
0
100
AcDbSpline
62
0
6
CONTINUOUS
70
0
71
3
72
10
73
6
74
4
42
0.0000001000
43
0.0000001000
44
0.0000000001
12
0.1598742593
22
0.0799334232
32
0.0000000000
13
0.1198233755
23
0.1326712733
33
0.0000000000
40
0.0000000000
40
0.0000000000
40
0.0000000000
40
0.0000000000
40
0.2528417102
40
0.8257992762
40
1.0000000000
40
1.0000000000
40
1.0000000000
40
1.0000000000
10
-1.6402089145
20
-2.8106534393
30
0.0000000000
10
-1.6267346207
20
-2.8039166048
30
0.0000000000
10
-1.5838002695
20
-2.7797579318
30
0.0000000000
10
-1.5369190945
20
-2.7423920415
30
0.0000000000
10
-1.5060952817
20
-2.7102416661
30
0.0000000000
10
-1.4991375088
20
-2.7025378555
30
0.0000000000
11
-1.6402089145
21
-2.8106534393
31
0.0000000000
11
-1.6008390945
21
-2.7884949789
31
0.0000000000
11
-1.5206970076
21
-2.7250033957
31
0.0000000000
11
-1.4991375088
21
-2.7025378555
31
0.0000000000
0
SPLINE
5
232
100
AcDbEntity
8
0
100
AcDbSpline
62
0
6
CONTINUOUS
70
0
71
3
72
34
73
30
74
28
42
0.0000001000
43
0.0000001000
44
0.0000000001
12
-2.4019410392
22
1.2009705196
32
0.0000000000
13
2.4019410392
23
-1.2009705196
33
0.0000000000
40
0.0000000000
40
0.0000000000
40
0.0000000000
40
0.0000000000
40
0.0153048713
40
0.0330120699
40
0.0524794339
40
0.0731906623
40
0.0947523826
40
0.1171265012
40
0.1408256747
40
0.1666059006
40
0.1952732319
40
0.2277807780
40
0.2655724095
40
0.3102622078
40
0.3622426319
40
0.4204942870
40
0.4834030765
40
0.5495979157
40
0.6174538869
40
0.6816012299
40
0.7380531490
40
0.7879082868
40
0.8312708033
40
0.8691003455
40
0.9026576497
40
0.9325675621
40
0.9588414530
40
0.9813767194
40
1.0000000000
40
1.0000000000
40
1.0000000000
40
1.0000000000
10
-2.3286886801
20
-0.8795162326
30
0.0000000000
10
-2.3409424796
20
-0.8733893329
30
0.0000000000
10
-2.3677000328
20
-0.8608147984
30
0.0000000000
10
-2.4113062054
20
-0.8432589756
30
0.0000000000
10
-2.4606537018
20
-0.8272883650
30
0.0000000000
10
-2.5145476752
20
-0.8147067323
30
0.0000000000
10
-2.5720303116
20
-0.8071446226
30
0.0000000000
10
-2.6327202492
20
-0.8061836299
30
0.0000000000
10
-2.6968114269
20
-0.8138323760
30
0.0000000000
10
-2.7644154169
20
-0.8331030522
30
0.0000000000
10
-2.8344932950
20
-0.8681406835
30
0.0000000000
10
-2.9043143112
20
-0.9237905709
30
0.0000000000
10
-2.9692930369
20
-1.0047048201
30
0.0000000000
10
-3.0230080354
20
-1.1134164119
30
0.0000000000
10
-3.0588210855
20
-1.2482327369
30
0.0000000000
10
-3.0722406175
20
-1.4033083004
30
0.0000000000
10
-3.0617628326
20
-1.5712280497
30
0.0000000000
10
-3.0280312699
20
-1.7447299189
30
0.0000000000
10
-2.9739930969
20
-1.9141119512
30
0.0000000000
10
-2.9059008772
20
-2.0687689199
30
0.0000000000
10
-2.8314192206
20
-2.2021667105
30
0.0000000000
10
-2.7563201352
20
-2.3132968457
30
0.0000000000
10
-2.6831435705
20
-2.4051248177
30
0.0000000000
10
-2.6133393920
20
-2.4805986871
30
0.0000000000
10
-2.5471867929
20
-2.5427207336
30
0.0000000000
10
-2.4849383454
20
-2.5935963663
30
0.0000000000
10
-2.4274602567
20
-2.6344498221
30
0.0000000000
10
-2.3760709512
20
-2.6661889344
30
0.0000000000
10
-2.3435993541
20
-2.6836446485
30
0.0000000000
10
-2.3286886801
20
-2.6910999855
30
0.0000000000
11
-2.3286886801
21
-0.8795162326
31
0.0000000000
11
-2.3658974671
21
-0.8620589507
31
0.0000000000
11
-2.4100256500
21
-0.8443423000
31
0.0000000000
11
-2.4597858835
21
-0.8283117639
31
0.0000000000
11
-2.5139702880
21
-0.8157609104
31
0.0000000000
11
-2.5713940709
21
-0.8083270815
31
0.0000000000
11
-2.6314731768
21
-0.8075134414
31
0.0000000000
11
-2.6946500761
21
-0.8152016861
31
0.0000000000
11
-2.7611954018
21
-0.8342995246
31
0.0000000000
11
-2.8300495730
21
-0.8687342801
31
0.0000000000
11
-2.8984756581
21
-0.9229441952
31
0.0000000000
11
-2.9625274373
21
-1.0016658751
31
0.0000000000
11
-3.0166182728
21
-1.1087972555
31
0.0000000000
11
-3.0536048732
21
-1.2433989500
31
0.0000000000
11
-3.0681427481
21
-1.3991539601
31
0.0000000000
11
-3.0584110983
21
-1.5678119497
31
0.0000000000
11
-3.0250017287
21
-1.7424072365
31
0.0000000000
11
-2.9698890159
21
-1.9160970497
31
0.0000000000
11
-2.9005394680
21
-2.0737857625
31
0.0000000000
11
-2.8265939597
21
-2.2061273252
31
0.0000000000
11
-2.7515523184
21
-2.3170036583
31
0.0000000000
11
-2.6788978776
21
-2.4080061639
31
0.0000000000
11
-2.6098436433
21
-2.4825173763
31
0.0000000000
11
-2.5440846996
21
-2.5441351378
31
0.0000000000
11
-2.4818346976
21
-2.5948943815
31
0.0000000000
11
-2.4242790051
21
-2.6357070019
31
0.0000000000
11
-2.3727583479
21
-2.6674556072
31
0.0000000000
11
-2.3286886801
21
-2.6910999855
31
0.0000000000
0
SPLINE
5
233
100
AcDbEntity
8
0
100
AcDbSpline
62
0
6
CONTINUOUS
70
0
71
3
72
10
73
6
74
4
42
0.0000001000
43
0.0000001000
44
0.0000000001
12
-0.1602109063
22
-0.0151764679
32
0.0000000000
13
-0.1464690621
23
-0.0669401572
33
0.0000000000
40
0.0000000000
40
0.0000000000
40
0.0000000000
40
0.0000000000
40
0.3157230047
40
0.8200216772
40
1.0000000000
40
1.0000000000
40
1.0000000000
40
1.0000000000
10
-2.5664016254
20
-0.5714820708
30
0.0000000000
10
-2.5832623817
20
-0.5730792575
30
0.0000000000
10
-2.6268545989
20
-0.5793568510
30
0.0000000000
10
-2.6786509415
20
-0.5941214154
30
0.0000000000
10
-2.7125362076
20
-0.6083397619
30
0.0000000000
10
-2.7213232930
20
-0.6123556877
30
0.0000000000
11
-2.5664016254
21
-0.5714820708
31
0.0000000000
11
-2.6166642027
21
-0.5787774119
31
0.0000000000
11
-2.6946034571
21
-0.6011450452
31
0.0000000000
11
-2.7213232930
21
-0.6123556877
31
0.0000000000
0
SPLINE
5
234
100
AcDbEntity
8
0
100
AcDbSpline
62
0
6
CONTINUOUS
70
0
71
3
72
8
73
4
74
2
42
0.0000001000
43
0.0000001000
44
0.0000000001
12
-0.0134967816
22
-0.0061683790
32
0.0000000000
13
-0.0132924364
23
-0.0065994134
33
0.0000000000
40
0.0000000000
40
0.0000000000
40
0.0000000000
40
0.0000000000
40
1.0000000000
40
1.0000000000
40
1.0000000000
40
1.0000000000
10
-2.7213232930
20
-0.6123556877
30
0.0000000000
10
-2.7258222202
20
-0.6144118140
30
0.0000000000
10
-2.7302882737
20
-0.6165403480
30
0.0000000000
10
-2.7347190858
20
-0.6187401524
30
0.0000000000
11
-2.7213232930
21
-0.6123556877
31
0.0000000000
11
-2.7347190858
21
-0.6187401524
31
0.0000000000
0
SPLINE
5
235
100
AcDbEntity
8
0
100
AcDbSpline
62
0
6
CONTINUOUS
70
0
71
3
72
34
73
30
74
28
42
0.0000001000
43
0.0000001000
44
0.0000000001
12
2.4019409704
22
-1.2009704852
32
0.0000000000
13
-2.4019409704
23
1.2009704852
33
0.0000000000
40
0.0000000000
40
0.0000000000
40
0.0000000000
40
0.0000000000
40
0.0153048710
40
0.0330120685
40
0.0524794322
40
0.0731906596
40
0.0947523794
40
0.1171264963
40
0.1408256662
40
0.1666058855
40
0.1952732084
40
0.2277807461
40
0.2655723661
40
0.3102621643
40
0.3622425992
40
0.4204942651
40
0.4834030622
40
0.5495979050
40
0.6174538790
40
0.6816012236
40
0.7380531443
40
0.7879082839
40
0.8312708014
40
0.8691003445
40
0.9026576495
40
0.9325675625
40
0.9588414541
40
0.9813767196
40
1.0000000000
40
1.0000000000
40
1.0000000000
40
1.0000000000
10
-2.3286886801
20
-2.6910999855
30
0.0000000000
10
-2.3164348812
20
-2.6972268849
30
0.0000000000
10
-2.2896773309
20
-2.7098014206
30
0.0000000000
10
-2.2460711631
20
-2.7273572481
30
0.0000000000
10
-2.1967236703
20
-2.7433278578
30
0.0000000000
10
-2.1428297013
20
-2.7559094951
30
0.0000000000
10
-2.0853470695
20
-2.7634716049
30
0.0000000000
10
-2.0246571390
20
-2.7644326013
30
0.0000000000
10
-1.9605659732
20
-2.7567838609
30
0.0000000000
10
-1.8929619997
20
-2.7375131943
30
0.0000000000
10
-1.8228841426
20
-2.7024755728
30
0.0000000000
10
-1.7530631500
20
-2.6468256995
30
0.0000000000
10
-1.6880844544
20
-2.5659114527
30
0.0000000000
10
-1.6343694642
20
-2.4571998644
30
0.0000000000
10
-1.5985563777
20
-2.3223835346
30
0.0000000000
10
-1.5851368040
20
-2.1673079528
30
0.0000000000
10
-1.5956145473
20
-1.9993881846
30
0.0000000000
10
-1.6293461065
20
-1.8258863070
30
0.0000000000
10
-1.6833842535
20
-1.6565042635
30
0.0000000000
10
-1.7514764966
20
-1.5018473041
30
0.0000000000
10
-1.8259581451
20
-1.3684495090
30
0.0000000000
10
-1.9010572447
20
-1.2573193832
30
0.0000000000
10
-1.9742338026
20
-1.1654914064
30
0.0000000000
10
-2.0440379808
20
-1.0900175370
30
0.0000000000
10
-2.1101905798
20
-1.0278954913
30
0.0000000000
10
-2.1724390247
20
-0.9770198558
30
0.0000000000
10
-2.2299171139
20
-0.9361664039
30
0.0000000000
10
-2.2813064125
20
-0.9044272846
30
0.0000000000
10
-2.3137780067
20
-0.8869715694
30
0.0000000000
10
-2.3286886801
20
-0.8795162326
30
0.0000000000
11
-2.3286886801
21
-2.6910999855
31
0.0000000000
11
-2.2914798959
21
-2.7085572689
31
0.0000000000
11
-2.2473517187
21
-2.7262739224
31
0.0000000000
11
-2.1975914880
21
-2.7423044600
31
0.0000000000
11
-2.1434070888
21
-2.7548553161
31
0.0000000000
11
-2.0859833091
21
-2.7622891466
31
0.0000000000
11
-2.0259042095
21
-2.7631027899
31
0.0000000000
11
-1.9627273211
21
-2.7554145505
31
0.0000000000
11
-1.8961820134
21
-2.7363167211
31
0.0000000000
11
-1.8273278642
21
-2.7018819765
31
0.0000000000
11
-1.7589018022
21
-2.6476720728
31
0.0000000000
11
-1.6948500562
21
-2.5689504094
31
0.0000000000
11
-1.6407592249
21
-2.4618190309
31
0.0000000000
11
-1.6037725915
21
-2.3272173198
31
0.0000000000
11
-1.5892346750
21
-2.1714622889
31
0.0000000000
11
-1.5989662892
21
-2.0028042814
31
0.0000000000
11
-1.6323756444
21
-1.8282089874
31
0.0000000000
11
-1.6874883434
21
-1.6545191673
31
0.0000000000
11
-1.7568379009
21
-1.4968304595
31
0.0000000000
11
-1.8307834097
21
-1.3644888972
31
0.0000000000
11
-1.9058250585
21
-1.2536125680
31
0.0000000000
11
-1.9784794964
21
-1.1626100609
31
0.0000000000
11
-2.0475337295
21
-1.0880988480
31
0.0000000000
11
-2.1132926728
21
-1.0264810862
31
0.0000000000
11
-2.1755426730
21
-0.9757218418
31
0.0000000000
11
-2.2330983653
21
-0.9349092213
31
0.0000000000
11
-2.2846190154
21
-0.9031606125
31
0.0000000000
11
-2.3286886801
21
-0.8795162326
31
0.0000000000
0
SPLINE
5
236
100
AcDbEntity
8
0
100
AcDbSpline
62
0
6
CONTINUOUS
70
0
71
3
72
13
73
9
74
7
42
0.0000001000
43
0.0000001000
44
0.0000000001
12
-1.1208387359
22
-0.5598160118
32
0.0000000000
13
0.0155742024
23
-1.2489100780
33
0.0000000000
40
0.0000000000
40
0.0000000000
40
0.0000000000
40
0.0000000000
40
0.0125121962
40
0.1840950965
40
0.3628506375
40
0.5562632854
40
0.7695078546
40
1.0000000000
40
1.0000000000
40
1.0000000000
40
1.0000000000
10
-9.1462086305
20
-2.9223683000
30
0.0000000000
10
-9.1508833485
20
-2.9247031425
30
0.0000000000
10
-9.2192916277
20
-2.9597978776
30
0.0000000000
10
-9.3428149516
20
-3.0504326344
30
0.0000000000
10
-9.4831896418
20
-3.2312424586
30
0.0000000000
10
-9.5836742690
20
-3.4554147406
30
0.0000000000
10
-9.6423302931
20
-3.7155794285
30
0.0000000000
10
-9.6526128948
20
-3.9008686551
30
0.0000000000
10
-9.6514163177
20
-3.9968233095
30
0.0000000000
11
-9.1462086305
21
-2.9223683000
31
0.0000000000
11
-9.1601557096
21
-2.9295239385
31
0.0000000000
11
-9.3334600781
21
-3.0555938891
31
0.0000000000
11
-9.4719780053
21
-3.2306964784
31
0.0000000000
11
-9.5729489140
21
-3.4501566565
31
0.0000000000
11
-9.6336830447
21
-3.7094836524
31
0.0000000000
11
-9.6514163177
21
-3.9968233095
31
0.0000000000
0
SPLINE
5
237
100
AcDbEntity
8
0
100
AcDbSpline
62
0
6
CONTINUOUS
70
0
71
3
72
16
73
12
74
10
42
0.0000001000
43
0.0000001000
44
0.0000000001
12
0.0717924815
22
-2.9404288596
32
0.0000000000
13
2.6307833113
23
-1.3153916557
33
0.0000000000
40
0.0000000000
40
0.0000000000
40
0.0000000000
40
0.0000000000
40
0.1048021710
40
0.2167748311
40
0.3323745452
40
0.4503806238
40
0.5694179934
40
0.6852429162
40
0.7966165095
40
0.9025346018
40
1.0000000000
40
1.0000000000
40
1.0000000000
40
1.0000000000
10
-9.5549736460
20
-9.2313569367
30
0.0000000000
10
-9.5524656434
20
-9.3340780461
30
0.0000000000
10
-9.5316807417
20
-9.5463441934
30
0.0000000000
10
-9.4598662526
20
-9.8649230111
30
0.0000000000
10
-9.3485333172
20
-10.1856430551
30
0.0000000000
10
-9.2010938668
20
-10.4990576344
30
0.0000000000
10
-9.0218742659
20
-10.7957257925
30
0.0000000000
10
-8.8163439213
20
-11.0667092244
30
0.0000000000
10
-8.5908557687
20
-11.3040082364
30
0.0000000000
10
-8.3519899873
20
-11.5006613807
30
0.0000000000
10
-8.1811186836
20
-11.6052237111
30
0.0000000000
10
-8.0956485692
20
-11.6479587683
30
0.0000000000
11
-9.5549736460
21
-9.2313569367
31
0.0000000000
11
-9.5262788878
21
-9.5382736328
31
0.0000000000
11
-9.4548045089
21
-9.8597702032
31
0.0000000000
11
-9.3438207000
21
-10.1811611464
31
0.0000000000
11
-9.1962498909
21
-10.4953197607
31
0.0000000000
11
-9.0150709584
21
-10.7949226155
31
0.0000000000
11
-8.8087834642
21
-11.0660423464
31
0.0000000000
11
-8.5824828238
21
-11.3028948675
31
0.0000000000
11
-8.3410933464
21
-11.4998382385
31
0.0000000000
11
-8.0956485692
21
-11.6479587683
31
0.0000000000
0
SPLINE
5
238
100
AcDbEntity
8
0
100
AcDbSpline
62
0
6
CONTINUOUS
70
0
71
3
72
9
73
5
74
3
42
0.0000001000
43
0.0000001000
44
0.0000000001
12
0.0652821590
22
-5.2350382992
32
0.0000000000
13
0.1277887168
23
-5.2338855355
33
0.0000000000
40
0.0000000000
40
0.0000000000
40
0.0000000000
40
0.0000000000
40
0.5007520837
40
1.0000000000
40
1.0000000000
40
1.0000000000
40
1.0000000000
10
-9.6514163177
20
-3.9968233095
30
0.0000000000
10
-9.6405195920
20
-4.8706420883
30
0.0000000000
10
-9.6135884459
20
-6.6155942891
30
0.0000000000
10
-9.5762397295
20
-8.3603547875
30
0.0000000000
10
-9.5549736460
20
-9.2313569367
30
0.0000000000
11
-9.6514163177
21
-3.9968233095
31
0.0000000000
11
-9.6109357036
21
-6.6181709194
31
0.0000000000
11
-9.5549736460
21
-9.2313569367
31
0.0000000000
0
SPLINE
5
239
100
AcDbEntity
8
0
100
AcDbSpline
62
0
6
CONTINUOUS
70
0
71
3
72
11
73
7
74
5
42
0.0000001000
43
0.0000001000
44
0.0000000001
12
0.8197683541
22
-0.4098841770
32
0.0000000000
13
0.8225351207
23
0.4108198413
33
0.0000000000
40
0.0000000000
40
0.0000000000
40
0.0000000000
40
0.0000000000
40
0.2863254524
40
0.5490459120
40
0.7887972117
40
1.0000000000
40
1.0000000000
40
1.0000000000
40
1.0000000000
10
3.1473492516
20
-17.2694576787
30
0.0000000000
10
3.2255894333
20
-17.3085777695
30
0.0000000000
10
3.3819829457
20
-17.3720479855
30
0.0000000000
10
3.6206269621
20
-17.4171661218
30
0.0000000000
10
3.8408347530
20
-17.4051933071
30
0.0000000000
10
3.9730668867
20
-17.3605815923
30
0.0000000000
10
4.0309741237
20
-17.3316594936
30
0.0000000000
11
3.1473492516
21
-17.2694576787
31
0.0000000000
11
3.3913490126
21
-17.3660562519
31
0.0000000000
11
3.6284021012
21
-17.4083183573
31
0.0000000000
11
3.8476898317
21
-17.3942430107
31
0.0000000000
11
4.0309741237
21
-17.3316594936
31
0.0000000000
0
SPLINE
5
23A
100
AcDbEntity
8
0
100
AcDbSpline
62
0
6
CONTINUOUS
70
0
71
3
72
11
73
7
74
5
42
0.0000001000
43
0.0000001000
44
0.0000000001
12
-0.8263400520
22
0.4131700260
32
0.0000000000
13
-0.8290715377
23
-0.4140894733
33
0.0000000000
40
0.0000000000
40
0.0000000000
40
0.0000000000
40
0.0000000000
40
0.2845362461
40
0.5466701986
40
0.7871851833
40
1.0000000000
40
1.0000000000
40
1.0000000000
40
1.0000000000
10
-8.2553395061
20
-2.9809476584
30
0.0000000000
10
-8.3337140715
20
-2.9417603757
30
0.0000000000
10
-8.4908294064
20
-2.8783228389
30
0.0000000000
10
-8.7311441111
20
-2.8340614233
30
0.0000000000
10
-8.9535894506
20
-2.8474151247
30
0.0000000000
10
-9.0873957280
20
-2.8929935082
30
0.0000000000
10
-9.1462086305
20
-2.9223683000
30
0.0000000000
11
-8.2553395061
21
-2.9809476584
31
0.0000000000
11
-8.4999158171
21
-2.8845818511
31
0.0000000000
11
-8.7385132793
21
-2.8430838725
31
0.0000000000
11
-8.9601922591
21
-2.8583800938
31
0.0000000000
11
-9.1462086305
21
-2.9223683000
31
0.0000000000
0
SPLINE
5
23B
100
AcDbEntity
8
0
100
AcDbSpline
62
0
6
CONTINUOUS
70
0
71
3
72
13
73
9
74
7
42
0.0000001000
43
0.0000001000
44
0.0000000001
12
1.1058235789
22
0.5523098720
32
0.0000000000
13
-0.0300757476
23
1.2318225293
33
0.0000000000
40
0.0000000000
40
0.0000000000
40
0.0000000000
40
0.0000000000
40
0.0123432447
40
0.1829743355
40
0.3609171895
40
0.5541117001
40
0.7679879018
40
1.0000000000
40
1.0000000000
40
1.0000000000
40
1.0000000000
10
4.0309741237
20
-17.3316594936
30
0.0000000000
10
4.0355239407
20
-17.3293870617
30
0.0000000000
10
4.1026015413
20
-17.2949661850
30
0.0000000000
10
4.2236195870
20
-17.2056088389
30
0.0000000000
10
4.3600476121
20
-17.0265716187
30
0.0000000000
10
4.4563563627
20
-16.8043157416
30
0.0000000000
10
4.5109303922
20
-16.5461179730
30
0.0000000000
10
4.5187772787
20
-16.3623353194
30
0.0000000000
10
4.5164512996
20
-16.2670694095
30
0.0000000000
11
4.0309741237
21
-17.3316594936
31
0.0000000000
11
4.0445478482
21
-17.3246935591
31
0.0000000000
11
4.2141945578
21
-17.2004961434
31
0.0000000000
11
4.3487680309
21
-17.0273931723
31
0.0000000000
11
4.4456868430
21
-16.8099635775
31
0.0000000000
11
4.5024265997
21
-16.5526080963
31
0.0000000000
11
4.5164512996
21
-16.2670694095
31
0.0000000000
0
SPLINE
5
23C
100
AcDbEntity
8
0
100
AcDbSpline
62
0
6
CONTINUOUS
70
0
71
3
72
9
73
5
74
3
42
0.0000001000
43
0.0000001000
44
0.0000000001
12
0.0652821590
22
-5.2350382992
32
0.0000000000
13
0.1277887168
23
-5.2338855355
33
0.0000000000
40
0.0000000000
40
0.0000000000
40
0.0000000000
40
0.0000000000
40
0.5007520837
40
1.0000000000
40
1.0000000000
40
1.0000000000
40
1.0000000000
10
4.4200086279
20
-11.0325357823
30
0.0000000000
10
4.4309053536
20
-11.9063545611
30
0.0000000000
10
4.4578364997
20
-13.6513067619
30
0.0000000000
10
4.4951852161
20
-15.3960672603
30
0.0000000000
10
4.5164512996
20
-16.2670694095
30
0.0000000000
11
4.4200086279
21
-11.0325357823
31
0.0000000000
11
4.4604892420
21
-13.6538833922
31
0.0000000000
11
4.5164512996
21
-16.2670694095
31
0.0000000000
0
SPLINE
5
23D
100
AcDbEntity
8
0
100
AcDbSpline
62
0
6
CONTINUOUS
70
0
71
3
72
16
73
12
74
10
42
0.0000001000
43
0.0000001000
44
0.0000000001
12
-0.0366848720
22
2.9417947116
32
0.0000000000
13
-2.6314257588
23
1.3157128794
33
0.0000000000
40
0.0000000000
40
0.0000000000
40
0.0000000000
40
0.0000000000
40
0.1052733979
40
0.2175763635
40
0.3333431566
40
0.4513540307
40
0.5702558961
40
0.6858480614
40
0.7969478704
40
0.9026315928
40
1.0000000000
40
1.0000000000
40
1.0000000000
40
1.0000000000
10
4.4200086279
20
-11.0325357823
30
0.0000000000
10
4.4187213142
20
-10.9293048739
30
0.0000000000
10
4.4005555797
20
-10.7159663496
30
0.0000000000
10
4.3327912977
20
-10.3954509920
30
0.0000000000
10
4.2256049791
20
-10.0727119095
30
0.0000000000
10
4.0821970541
20
-9.7572899132
30
0.0000000000
10
3.9066578652
20
-9.4587258481
30
0.0000000000
10
3.7042258054
20
-9.1860720213
30
0.0000000000
10
3.4810516483
20
-8.9474367883
30
0.0000000000
10
3.2435557089
20
-8.7498796688
30
0.0000000000
10
3.0730642264
20
-8.6451495247
30
0.0000000000
10
2.9876583148
20
-8.6024465689
30
0.0000000000
11
4.4200086279
21
-11.0325357823
31
0.0000000000
11
4.3950405711
21
-10.7238270283
31
0.0000000000
11
4.3276101197
21
-10.4003831472
31
0.0000000000
11
4.2207444270
21
-10.0769943244
31
0.0000000000
11
4.0771893190
21
-9.7608719539
31
0.0000000000
11
3.8997177680
21
-9.4594215664
31
0.0000000000
11
3.6965431133
21
-9.1867111529
31
0.0000000000
11
3.4726015369
21
-8.9486219242
31
0.0000000000
11
3.2326679941
21
-8.7508705108
31
0.0000000000
11
2.9876583148
21
-8.6024465689
31
0.0000000000
0
SPLINE
5
23E
100
AcDbEntity
8
0
100
AcDbSpline
62
0
6
CONTINUOUS
70
0
71
3
72
29
73
25
74
23
42
0.0000001000
43
0.0000001000
44
0.0000000001
12
2.7824000201
22
-1.3912000100
32
0.0000000000
13
0.0384532458
23
-3.1105801207
33
0.0000000000
40
0.0000000000
40
0.0000000000
40
0.0000000000
40
0.0000000000
40
0.0390223780
40
0.0793781636
40
0.1210204092
40
0.1638810618
40
0.2078745476
40
0.2528987081
40
0.2988382687
40
0.3455665205
40
0.3929473607
40
0.4408369781
40
0.4890849513
40
0.5375384223
40
0.5860404418
40
0.6344350965
40
0.6825647689
40
0.7302780209
40
0.7774245180
40
0.8238628109
40
0.8694576823
40
0.9140848824
40
0.9576316840
40
1.0000000000
40
1.0000000000
40
1.0000000000
40
1.0000000000
10
2.9868267054
20
-8.5043347188
30
0.0000000000
10
3.0230186605
20
-8.5224306964
30
0.0000000000
10
3.0953611288
20
-8.5618470861
30
0.0000000000
10
3.2015131692
20
-8.6289212265
30
0.0000000000
10
3.3066415546
20
-8.7046202714
30
0.0000000000
10
3.4102112509
20
-8.7885551439
30
0.0000000000
10
3.5117036409
20
-8.8802996815
30
0.0000000000
10
3.6106077878
20
-8.9793869414
30
0.0000000000
10
3.7064260916
20
-9.0853126318
30
0.0000000000
10
3.7986766001
20
-9.1975378204
30
0.0000000000
10
3.8868953962
20
-9.3154914306
30
0.0000000000
10
3.9706384580
20
-9.4385724386
30
0.0000000000
10
4.0494849677
20
-9.5661542462
30
0.0000000000
10
4.1230384504
20
-9.6975865872
30
0.0000000000
10
4.1909300648
20
-9.8322011542
30
0.0000000000
10
4.2528183097
20
-9.9693111261
30
0.0000000000
10
4.3083931798
20
-10.1082195084
30
0.0000000000
10
4.3573754744
20
-10.2482180626
30
0.0000000000
10
4.3995201350
20
-10.3885961051
30
0.0000000000
10
4.4346155888
20
-10.5286392450
30
0.0000000000
10
4.4624859459
20
-10.6676365695
30
0.0000000000
10
4.4829909994
20
-10.8048839026
30
0.0000000000
10
4.4960270738
20
-10.9396795706
30
0.0000000000
10
4.4997475203
20
-11.0287467479
30
0.0000000000
10
4.5002905868
20
-11.0726767617
30
0.0000000000
11
2.9868267054
21
-8.5043347188
31
0.0000000000
11
3.0934893891
21
-8.5622913410
31
0.0000000000
11
3.1996863844
21
-8.6292417950
31
0.0000000000
11
3.3048776175
21
-8.7048446304
31
0.0000000000
11
3.4085278342
21
-8.7887133950
31
0.0000000000
11
3.5101117335
21
-8.8804205325
31
0.0000000000
11
3.6091131069
21
-8.9794966679
31
0.0000000000
11
3.7050303764
21
-9.0854354796
31
0.0000000000
11
3.7973780855
21
-9.1976955567
31
0.0000000000
11
3.8856894347
21
-9.3157033927
31
0.0000000000
11
3.9695182312
21
-9.4388559158
31
0.0000000000
11
4.0484400340
21
-9.5665217032
31
0.0000000000
11
4.1220582407
21
-9.6980506671
31
0.0000000000
11
4.1900005489
21
-9.8327685292
31
0.0000000000
11
4.2519259696
21
-9.9699896183
31
0.0000000000
11
4.3075205778
21
-10.1090079942
31
0.0000000000
11
4.3565066736
21
-10.2491186864
31
0.0000000000
11
4.3986362176
21
-10.3896017030
31
0.0000000000
11
4.4336983656
21
-10.5297432238
31
0.0000000000
11
4.4615161786
21
-10.6688259311
31
0.0000000000
11
4.4819498709
21
-10.8061409873
31
0.0000000000
11
4.4948964252
21
-10.9409870798
31
0.0000000000
11
4.5002905868
21
-11.0726767617
31
0.0000000000
0
SPLINE
5
23F
100
AcDbEntity
8
0
100
AcDbSpline
62
0
6
CONTINUOUS
70
0
71
3
72
20
73
16
74
14
42
0.0000001000
43
0.0000001000
44
0.0000000001
12
0.0313293158
22
-1.2943240351
32
0.0000000000
13
-1.1522616925
23
-0.5920783585
33
0.0000000000
40
0.0000000000
40
0.0000000000
40
0.0000000000
40
0.0000000000
40
0.0981029005
40
0.1929624354
40
0.2844843387
40
0.3726350494
40
0.4574522118
40
0.5390481153
40
0.6176208349
40
0.6934566623
40
0.7669344157
40
0.8385189499
40
0.9087534850
40
0.9782413957
40
1.0000000000
40
1.0000000000
40
1.0000000000
40
1.0000000000
10
4.5958916160
20
-16.3067895677
30
0.0000000000
10
4.5969161149
20
-16.3491152151
30
0.0000000000
10
4.5965596306
20
-16.4324489721
30
0.0000000000
10
4.5884544240
20
-16.5550356779
30
0.0000000000
10
4.5728230042
20
-16.6725738629
30
0.0000000000
10
4.5497356169
20
-16.7844659985
30
0.0000000000
10
4.5192973553
20
-16.8901486030
30
0.0000000000
10
4.4816469405
20
-16.9890865374
30
0.0000000000
10
4.4369568362
20
-17.0807748309
30
0.0000000000
10
4.3854331073
20
-17.1647400682
30
0.0000000000
10
4.3273178676
20
-17.2405397527
30
0.0000000000
10
4.2628921339
20
-17.3077648749
30
0.0000000000
10
4.1924796196
20
-17.3660441775
30
0.0000000000
10
4.1337632475
20
-17.4038910353
30
0.0000000000
10
4.0990552402
20
-17.4225579746
30
0.0000000000
10
4.0906980381
20
-17.4268522408
30
0.0000000000
11
4.5958916160
21
-16.3067895677
31
0.0000000000
11
4.5952247725
21
-16.4338019510
31
0.0000000000
11
4.5869859107
21
-16.5563402316
31
0.0000000000
11
4.5712160622
21
-16.6737798666
31
0.0000000000
11
4.5479944581
21
-16.7855214715
31
0.0000000000
11
4.5174374665
21
-16.8909974193
31
0.0000000000
11
4.4796992950
21
-16.9896694137
31
0.0000000000
11
4.4349699003
21
-17.0810364640
31
0.0000000000
11
4.3834751435
21
-17.1646340807
31
0.0000000000
11
4.3254741477
21
-17.2400393774
31
0.0000000000
11
4.2612602748
21
-17.3068697200
31
0.0000000000
11
4.1911579900
21
-17.3647873956
31
0.0000000000
11
4.1155211683
21
-17.4135007543
31
0.0000000000
11
4.0906980381
21
-17.4268522408
31
0.0000000000
0
SPLINE
5
240
100
AcDbEntity
8
0
100
AcDbSpline
62
0
6
CONTINUOUS
70
0
71
3
72
10
73
6
74
4
42
0.0000001000
43
0.0000001000
44
0.0000000001
12
0.0647107143
22
-5.2346130201
32
0.0000000000
13
0.1266772043
23
-5.2334800881
33
0.0000000000
40
0.0000000000
40
0.0000000000
40
0.0000000000
40
0.0000000000
40
0.3340079099
40
0.6673420574
40
1.0000000000
40
1.0000000000
40
1.0000000000
40
1.0000000000
10
4.5002905868
20
-11.0726767617
30
0.0000000000
10
4.5074952169
20
-11.6554774797
30
0.0000000000
10
4.5241713665
20
-12.8198764461
30
0.0000000000
10
4.5560316450
20
-14.5645939743
30
0.0000000000
10
4.5818448900
20
-15.7264699948
30
0.0000000000
10
4.5958916160
20
-16.3067895677
30
0.0000000000
11
4.5002905868
21
-11.0726767617
31
0.0000000000
11
4.5253369077
21
-12.8210331139
31
0.0000000000
11
4.5572041606
21
-14.5657507010
31
0.0000000000
11
4.5958916160
21
-16.3067895677
31
0.0000000000
0
SPLINE
5
241
100
AcDbEntity
8
0
100
AcDbSpline
62
0
6
CONTINUOUS
70
0
71
3
72
35
73
31
74
29
42
0.0000001000
43
0.0000001000
44
0.0000000001
12
0.0000000000
22
2.4215898531
32
0.0000000000
13
-2.1674675363
23
-1.0837340164
33
0.0000000000
40
0.0000000000
40
0.0000000000
40
0.0000000000
40
0.0000000000
40
0.0365821961
40
0.0742586670
40
0.1129210575
40
0.1524444651
40
0.1926903447
40
0.2335092259
40
0.2747432827
40
0.3162287937
40
0.3577985294
40
0.3992840952
40
0.4405182607
40
0.4813373032
40
0.5215833941
40
0.5611070601
40
0.5997697521
40
0.6374465625
40
0.6740291305
40
0.7094287773
40
0.7435799049
40
0.7764436666
40
0.8080118683
40
0.8383109619
40
0.8674058325
40
0.8954028512
40
0.9224513835
40
0.9487427095
40
0.9745053044
40
1.0000000000
40
1.0000000000
40
1.0000000000
40
1.0000000000
10
-1.3554275749
20
-2.1825610329
30
0.0000000000
10
-1.3554275749
20
-2.1530320079
30
0.0000000000
10
-1.3574278021
20
-2.0930757293
30
0.0000000000
10
-1.3660799741
20
-2.0022863204
30
0.0000000000
10
-1.3803733744
20
-1.9098093895
30
0.0000000000
10
-1.4002149513
20
-1.8162454330
30
0.0000000000
10
-1.4254762279
20
-1.7221956765
30
0.0000000000
10
-1.4559939379
20
-1.6282668640
30
0.0000000000
10
-1.4915709784
20
-1.5350647951
30
0.0000000000
10
-1.5319776227
20
-1.4431909756
30
0.0000000000
10
-1.5769529841
20
-1.3532384504
30
0.0000000000
10
-1.6262067118
20
-1.2657879352
30
0.0000000000
10
-1.6794209038
20
-1.1814039763
30
0.0000000000
10
-1.7362522240
20
-1.1006312474
30
0.0000000000
10
-1.7963342110
20
-1.0239909871
30
0.0000000000
10
-1.8592797659
20
-0.9519776151
30
0.0000000000
10
-1.9246838053
20
-0.8850555590
30
0.0000000000
10
-1.9921260644
20
-0.8236563296
30
0.0000000000
10
-2.0611740268
20
-0.7681758950
30
0.0000000000
10
-2.1313859434
20
-0.7189724073
30
0.0000000000
10
-2.2023138787
20
-0.6763643494
30
0.0000000000
10
-2.2735066765
20
-0.6406291651
30
0.0000000000
10
-2.3445126714
20
-0.6120024086
30
0.0000000000
10
-2.4148818904
20
-0.5906773658
30
0.0000000000
10
-2.4841674405
20
-0.5768049075
30
0.0000000000
10
-2.5519258598
20
-0.5704930360
30
0.0000000000
10
-2.6177166006
20
-0.5718052515
30
0.0000000000
10
-2.6811016155
20
-0.5807568384
30
0.0000000000
10
-2.7416501769
20
-0.5973098421
30
0.0000000000
10
-2.7799084040
20
-0.6133754830
30
0.0000000000
10
-2.7983280457
20
-0.6225853059
30
0.0000000000
11
-1.3554275749
21
-2.1825610329
31
0.0000000000
11
-1.3582937366
21
-2.0940203362
31
0.0000000000
11
-1.3668736337
21
-2.0031876981
31
0.0000000000
11
-1.3811116223
21
-1.9106522032
31
0.0000000000
11
-1.4009153635
21
-1.8170139796
31
0.0000000000
11
-1.4261564224
21
-1.7228803072
31
0.0000000000
11
-1.4566711011
21
-1.6288616789
31
0.0000000000
11
-1.4922615002
21
-1.5355678416
31
0.0000000000
11
-1.5326968024
21
-1.4436038417
31
0.0000000000
11
-1.5777147691
21
-1.3535661010
31
0.0000000000
11
-1.6270234415
21
-1.2660385488
31
0.0000000000
11
-1.6803030341
21
-1.1815888348
31
0.0000000000
11
-1.7372080081
21
-1.1007646478
31
0.0000000000
11
-1.7973693131
21
-1.0240901638
31
0.0000000000
11
-1.8603967798
21
-0.9520626461
31
0.0000000000
11
-1.9258816510
21
-0.8851492210
31
0.0000000000
11
-1.9933992321
21
-0.8237838475
31
0.0000000000
11
-2.0625116457
21
-0.7683645037
31
0.0000000000
11
-2.1327706714
21
-0.7192506053
31
0.0000000000
11
-2.2037206522
21
-0.6767606747
31
0.0000000000
11
-2.2749014505
21
-0.6411702756
31
0.0000000000
11
-2.3458514313
21
-0.6127102253
31
0.0000000000
11
-2.4161104569
21
-0.5915650981
31
0.0000000000
11
-2.4852228706
21
-0.5778720282
31
0.0000000000
11
-2.5527404517
21
-0.5717198206
31
0.0000000000
11
-2.6182253229
21
-0.5731483746
31
0.0000000000
11
-2.6812527896
21
-0.5821484256
31
0.0000000000
11
-2.7414140945
21
-0.5986616046
31
0.0000000000
11
-2.7983280457
21
-0.6225853059
31
0.0000000000
0
SPLINE
5
242
100
AcDbEntity
8
0
100
AcDbSpline
62
0
6
CONTINUOUS
70
0
71
3
72
18
73
14
74
12
42
0.0000001000
43
0.0000001000
44
0.0000000001
12
0.0000000000
22
-0.7893393667
32
0.0000000000
13
-0.7065058727
23
-0.3532530173
33
0.0000000000
40
0.0000000000
40
0.0000000000
40
0.0000000000
40
0.0000000000
40
0.1086002644
40
0.2133701824
40
0.3141906061
40
0.4110364299
40
0.5039888410
40
0.5932469390
40
0.6791370987
40
0.7621175966
40
0.8427752956
40
0.9218111609
40
1.0000000000
40
1.0000000000
40
1.0000000000
40
1.0000000000
10
-1.3554275749
20
-2.1825610329
30
0.0000000000
10
-1.3554275749
20
-2.2111351876
30
0.0000000000
10
-1.3572403014
20
-2.2672970485
30
0.0000000000
10
-1.3657124752
20
-2.3496001185
30
0.0000000000
10
-1.3798418346
20
-2.4279948505
30
0.0000000000
10
-1.3995458245
20
-2.5019739975
30
0.0000000000
10
-1.4247090765
20
-2.5710627789
30
0.0000000000
10
-1.4551841418
20
-2.6348128744
30
0.0000000000
10
-1.4907913340
20
-2.6928047960
30
0.0000000000
10
-1.5313171135
20
-2.7446479966
30
0.0000000000
10
-1.5765108664
20
-2.7899828830
30
0.0000000000
10
-1.6260784838
20
-2.8284835444
30
0.0000000000
10
-1.6618804323
20
-2.8494464690
30
0.0000000000
10
-1.6802940570
20
-2.8586532834
30
0.0000000000
11
-1.3554275749
21
-2.1825610329
31
0.0000000000
11
-1.3582937366
21
-2.2682355679
31
0.0000000000
11
-1.3668736337
21
-2.3504883088
31
0.0000000000
11
-1.3811116223
21
-2.4287858152
31
0.0000000000
11
-1.4009153635
21
-2.5026202976
31
0.0000000000
11
-1.4261564224
21
-2.5715129111
31
0.0000000000
11
-1.4566711011
21
-2.6350168607
31
0.0000000000
11
-1.4922615002
21
-2.6927202988
31
0.0000000000
11
-1.5326968024
21
-2.7442489966
31
0.0000000000
11
-1.5777147691
21
-2.7892687706
31
0.0000000000
11
-1.6270234415
21
-2.8274876504
31
0.0000000000
11
-1.6802940570
21
-2.8586532834
31
0.0000000000
0
SPLINE
5
243
100
AcDbEntity
8
0
100
AcDbSpline
62
0
6
CONTINUOUS
70
0
71
3
72
15
73
11
74
9
42
0.0000001000
43
0.0000001000
44
0.0000000001
12
0.1266924923
22
0.0934381720
32
0.0000000000
13
0.1406209414
23
-0.0703104707
33
0.0000000000
40
0.0000000000
40
0.0000000000
40
0.0000000000
40
0.0000000000
40
0.0021041616
40
0.1334743006
40
0.2652544799
40
0.3993387494
40
0.5375968285
40
0.6833590792
40
0.8376333894
40
1.0000000000
40
1.0000000000
40
1.0000000000
40
1.0000000000
10
-15.0331237900
20
25.1947738330
30
0.0000000000
10
-15.0330349295
20
25.1948393694
30
0.0000000000
10
-15.0273921996
20
25.1989884867
30
0.0000000000
10
-15.0154234442
20
25.2062118278
30
0.0000000000
10
-14.9958114408
20
25.2135392640
30
0.0000000000
10
-14.9748524859
20
25.2172700696
30
0.0000000000
10
-14.9528461941
20
25.2174144713
30
0.0000000000
10
-14.9300458665
20
25.2140140505
30
0.0000000000
10
-14.9067396000
20
25.2071364681
30
0.0000000000
10
-14.8914832522
20
25.2004995559
30
0.0000000000
10
-14.8838725370
20
25.1966941982
30
0.0000000000
11
-15.0331237900
21
25.1947738330
31
0.0000000000
11
-15.0328569250
21
25.1949700594
31
0.0000000000
11
-15.0151632486
21
25.2056244767
31
0.0000000000
11
-14.9957624522
21
25.2128948963
31
0.0000000000
11
-14.9750180815
21
25.2166448985
31
0.0000000000
11
-14.9532824151
21
25.2168664817
31
0.0000000000
11
-14.9306032496
21
25.2135762330
31
0.0000000000
11
-14.9073143868
21
25.2067993094
31
0.0000000000
11
-14.8838725370
21
25.1966941982
31
0.0000000000
0
SPLINE
5
244
100
AcDbEntity
8
0
100
AcDbSpline
62
0
6
CONTINUOUS
70
0
71
3
72
17
73
13
74
11
42
0.0000001000
43
0.0000001000
44
0.0000000001
12
0.0000000000
22
-0.2154394529
32
0.0000000000
13
-0.2082294736
23
-0.0563493225
33
0.0000000000
40
0.0000000000
40
0.0000000000
40
0.0000000000
40
0.0000000000
40
0.1347234188
40
0.2631784264
40
0.3842185495
40
0.4978384289
40
0.6056821031
40
0.7081794316
40
0.8061541748
40
0.9020227845
40
0.9981906251
40
1.0000000000
40
1.0000000000
40
1.0000000000
40
1.0000000000
10
19.9771024425
20
-23.8405120922
30
0.0000000000
10
19.9771024425
20
-23.8501870054
30
0.0000000000
10
19.9762683809
20
-23.8691012853
30
0.0000000000
10
19.9723082086
20
-23.8964572166
30
0.0000000000
10
19.9657157392
20
-23.9217490962
30
0.0000000000
10
19.9565801352
20
-23.9446618651
30
0.0000000000
10
19.9449953058
20
-23.9649351094
30
0.0000000000
10
19.9310867612
20
-23.9822903850
30
0.0000000000
10
19.9150636737
20
-23.9964630255
30
0.0000000000
10
19.8971319824
20
-24.0072850967
30
0.0000000000
10
19.8840174870
20
-24.0121849342
30
0.0000000000
10
19.8772199850
20
-24.0140367753
30
0.0000000000
10
19.8770943966
20
-24.0140707610
30
0.0000000000
11
19.9771024425
21
-23.8405120922
31
0.0000000000
11
19.9757562421
21
-23.8695055958
31
0.0000000000
11
19.9717127292
21
-23.8968828782
31
0.0000000000
11
19.9650492307
21
-23.9220939515
31
0.0000000000
11
19.9558963729
21
-23.9447965438
31
0.0000000000
11
19.9442870592
21
-23.9649219623
31
0.0000000000
11
19.9304132751
21
-23.9821013523
31
0.0000000000
11
19.9145654632
21
-23.9960433283
31
0.0000000000
11
19.8968717868
21
-24.0066977457
31
0.0000000000
11
19.8774709904
21
-24.0139681652
31
0.0000000000
11
19.8770943966
21
-24.0140707610
31
0.0000000000
0
SPLINE
5
245
100
AcDbEntity
8
0
100
AcDbSpline
62
0
6
CONTINUOUS
70
0
71
3
72
21
73
17
74
15
42
0.0000001000
43
0.0000001000
44
0.0000000001
12
0.3971717296
22
-0.1985858648
32
0.0000000000
13
0.0000000000
23
-0.4440514931
33
0.0000000000
40
0.0000000000
40
0.0000000000
40
0.0000000000
40
0.0000000000
40
0.0607365341
40
0.1250274388
40
0.1922211560
40
0.2617985700
40
0.3340837376
40
0.4083565972
40
0.4836108680
40
0.5595996212
40
0.6361931951
40
0.7122914821
40
0.7869321461
40
0.8602651691
40
0.9316080320
40
1.0000000000
40
1.0000000000
40
1.0000000000
40
1.0000000000
10
19.7655810752
20
7.8719673921
30
0.0000000000
10
19.7736220200
20
7.8679469197
30
0.0000000000
10
19.7897169356
20
7.8587316182
30
0.0000000000
10
19.8129213092
20
7.8421991839
30
0.0000000000
10
19.8355357186
20
7.8227948513
30
0.0000000000
10
19.8572972333
20
7.8007501544
30
0.0000000000
10
19.8779667735
20
7.7762923514
30
0.0000000000
10
19.8972773132
20
7.7497045730
30
0.0000000000
10
19.9149536689
20
7.7213570787
30
0.0000000000
10
19.9308001204
20
7.6915585077
30
0.0000000000
10
19.9446218602
20
7.6606311371
30
0.0000000000
10
19.9562040164
20
7.6290089089
30
0.0000000000
10
19.9653925398
20
7.5971112634
30
0.0000000000
10
19.9720738834
20
7.5653115924
30
0.0000000000
10
19.9761471544
20
7.5340059160
30
0.0000000000
10
19.9771024425
20
7.5133138350
30
0.0000000000
10
19.9771024425
20
7.5031906498
30
0.0000000000
11
19.7655810752
21
7.8719673921
31
0.0000000000
11
19.7890229250
21
7.8586306535
31
0.0000000000
11
19.8123117878
21
7.8421187143
31
0.0000000000
11
19.8349909533
21
7.8227297975
31
0.0000000000
11
19.8567266198
21
7.8007725478
31
0.0000000000
11
19.8774709904
21
7.7762781750
31
0.0000000000
11
19.8968717868
21
7.7496069591
31
0.0000000000
11
19.9145654632
21
7.7212588653
31
0.0000000000
11
19.9304132751
21
7.6914690774
31
0.0000000000
11
19.9442870592
21
7.6604159033
31
0.0000000000
11
19.9558963729
21
7.6286811711
31
0.0000000000
11
19.9650492307
21
7.5968257210
31
0.0000000000
11
19.9717127292
21
7.5649511491
31
0.0000000000
11
19.9757562421
21
7.5335303539
31
0.0000000000
11
19.9771024425
21
7.5031906498
31
0.0000000000
0
SPLINE
5
246
100
AcDbEntity
8
0
100
AcDbSpline
62
0
6
CONTINUOUS
70
0
71
3
72
17
73
13
74
11
42
0.0000001000
43
0.0000001000
44
0.0000000001
12
0.8726484132
22
0.4243491020
32
0.0000000000
13
0.8674070090
23
-0.4337035045
33
0.0000000000
40
0.0000000000
40
0.0000000000
40
0.0000000000
40
0.0000000000
40
0.0468070166
40
0.1417886519
40
0.2381377393
40
0.3365868748
40
0.4377822237
40
0.5422661807
40
0.6504676307
40
0.7627037036
40
0.8791799560
40
1.0000000000
40
1.0000000000
40
1.0000000000
40
1.0000000000
10
-9.1900550980
20
-2.8171939917
30
0.0000000000
10
-9.1764397417
20
-2.8105731532
30
0.0000000000
10
-9.1346116009
20
-2.7917185558
30
0.0000000000
10
-9.0617551370
20
-2.7663225326
30
0.0000000000
10
-8.9701468031
20
-2.7458152331
30
0.0000000000
10
-8.8748465543
20
-2.7353660552
30
0.0000000000
10
-8.7763613473
20
-2.7350094358
30
0.0000000000
10
-8.6752044961
20
-2.7447259854
30
0.0000000000
10
-8.5718944182
20
-2.7644461839
30
0.0000000000
10
-8.4669525534
20
-2.7940542081
30
0.0000000000
10
-8.3609124434
20
-2.8333844358
30
0.0000000000
10
-8.2911044998
20
-2.8653691162
30
0.0000000000
10
-8.2561711154
20
-2.8828358084
30
0.0000000000
11
-9.1900550980
21
-2.8171939917
31
0.0000000000
11
-9.1486542502
21
-2.7985315471
31
0.0000000000
11
-9.0616931086
21
-2.7681599536
31
0.0000000000
11
-8.9705325531
21
-2.7476540135
31
0.0000000000
11
-8.8756404282
21
-2.7371199001
31
0.0000000000
11
-8.7775034478
21
-2.7366129409
31
0.0000000000
11
-8.6766245073
21
-2.7461372215
31
0.0000000000
11
-8.5735210852
21
-2.7656452790
31
0.0000000000
11
-8.4687195675
21
-2.7950388202
31
0.0000000000
11
-8.3627560376
21
-2.8341686278
31
0.0000000000
11
-8.2561711154
21
-2.8828358084
31
0.0000000000
0
SPLINE
5
247
100
AcDbEntity
8
0
100
AcDbSpline
62
0
6
CONTINUOUS
70
0
71
3
72
17
73
13
74
11
42
0.0000001000
43
0.0000001000
44
0.0000000001
12
0.0194706769
22
-0.6010373812
32
0.0000000000
13
0.5382495962
23
-0.2691949667
33
0.0000000000
40
0.0000000000
40
0.0000000000
40
0.0000000000
40
0.0000000000
40
0.1180603787
40
0.2316423751
40
0.3406814960
40
0.4452362993
40
0.5455143179
40
0.6418809285
40
0.7348654713
40
0.8251593983
40
0.9135979836
40
1.0000000000
40
1.0000000000
40
1.0000000000
40
1.0000000000
10
14.8159350444
20
-24.6460597868
30
0.0000000000
10
14.8167012829
20
-24.6697126871
30
0.0000000000
10
14.8198520600
20
-24.7160896557
30
0.0000000000
10
14.8297745122
20
-24.7837272110
30
0.0000000000
10
14.8447414775
20
-24.8476665313
30
0.0000000000
10
14.8646570098
20
-24.9074479339
30
0.0000000000
10
14.8893929405
20
-24.9626431115
30
0.0000000000
10
14.9187891249
20
-25.0128496791
30
0.0000000000
10
14.9526516610
20
-25.0576929373
30
0.0000000000
10
14.9907495423
20
-25.0968274219
30
0.0000000000
10
15.0326331767
20
-25.1298022695
30
0.0000000000
10
15.0629367464
20
-25.1476227273
30
0.0000000000
10
15.0784386965
20
-25.1553757233
30
0.0000000000
11
14.8159350444
21
-24.6460597868
31
0.0000000000
11
14.8208470398
21
-24.7168855844
31
0.0000000000
11
14.8308699880
21
-24.7844490222
31
0.0000000000
11
14.8459321629
21
-24.8482665952
31
0.0000000000
11
14.8659249676
21
-24.9078775565
31
0.0000000000
11
14.8907047346
21
-24.9628534531
31
0.0000000000
11
14.9200934157
21
-25.0127988725
31
0.0000000000
11
14.9538794751
21
-25.0573539795
31
0.0000000000
11
14.9918198006
21
-25.0961980038
31
0.0000000000
11
15.0336415626
21
-25.1290514404
31
0.0000000000
11
15.0784386965
21
-25.1553757233
31
0.0000000000
0
SPLINE
5
248
100
AcDbEntity
8
0
100
AcDbSpline
62
0
6
CONTINUOUS
70
0
71
3
72
20
73
16
74
14
42
0.0000001000
43
0.0000001000
44
0.0000000001
12
-0.3833260216
22
-0.2028951461
32
0.0000000000
13
-0.3880466945
23
0.1937138148
33
0.0000000000
40
0.0000000000
40
0.0000000000
40
0.0000000000
40
0.0000000000
40
0.0693298542
40
0.1426100115
40
0.2192587048
40
0.2985874184
40
0.3798295827
40
0.4621660391
40
0.5447485968
40
0.6267226334
40
0.7072494937
40
0.7855293967
40
0.8608256691
40
0.9324913931
40
1.0000000000
40
1.0000000000
40
1.0000000000
40
1.0000000000
10
15.2363068729
20
-24.6379569537
30
0.0000000000
10
15.2274482271
20
-24.6426458506
30
0.0000000000
10
15.2087515011
20
-24.6514114356
30
0.0000000000
10
15.1790042724
20
-24.6624482726
30
0.0000000000
10
15.1471234735
20
-24.6716178315
30
0.0000000000
10
15.1135604583
20
-24.6787895693
30
0.0000000000
10
15.0787871171
20
-24.6838627051
30
0.0000000000
10
15.0432947382
20
-24.6867652155
30
0.0000000000
10
15.0075849298
20
-24.6874559820
30
0.0000000000
10
14.9721626293
20
-24.6859252743
30
0.0000000000
10
14.9375282799
20
-24.6821948686
30
0.0000000000
10
14.9041708959
20
-24.6763178191
30
0.0000000000
10
14.8725587700
20
-24.6683764538
30
0.0000000000
10
14.8431390656
20
-24.6584836890
30
0.0000000000
10
14.8246672398
20
-24.6504188861
30
0.0000000000
10
14.8159350759
20
-24.6460597695
30
0.0000000000
11
15.2363068729
21
-24.6379569537
31
0.0000000000
11
15.2091154399
21
-24.6507935500
31
0.0000000000
11
15.1793398962
21
-24.6619083534
31
0.0000000000
11
15.1474048593
21
-24.6711428599
31
0.0000000000
11
15.1137657429
21
-24.6783653796
31
0.0000000000
11
15.0789022615
21
-24.6834729151
31
0.0000000000
11
15.0433115901
21
-24.6863926296
31
0.0000000000
11
15.0075012737
21
-24.6870828861
31
0.0000000000
11
14.9719819897
21
-24.6855338413
31
0.0000000000
11
14.9372602653
21
-24.6817675855
31
0.0000000000
11
14.9038312536
21
-24.6758378277
31
0.0000000000
11
14.8721716732
21
-24.6678291301
31
0.0000000000
11
14.8427330095
21
-24.6578557016
31
0.0000000000
11
14.8159350759
21
-24.6460597695
31
0.0000000000
0
SPLINE
5
249
100
AcDbEntity
8
0
100
AcDbSpline
62
0
6
CONTINUOUS
70
0
71
3
72
15
73
11
74
9
42
0.0000001000
43
0.0000001000
44
0.0000000001
12
-0.8948768322
22
-28.3511172262
32
0.0000000000
13
0.9229818724
23
-28.3502161717
33
0.0000000000
40
0.0000000000
40
0.0000000000
40
0.0000000000
40
0.0000000000
40
0.1266784366
40
0.2528848670
40
0.3786153386
40
0.5038660480
40
0.6286333287
40
0.7529136520
40
0.8767036283
40
1.0000000000
40
1.0000000000
40
1.0000000000
40
1.0000000000
10
15.2363068729
20
3.7225024460
30
0.0000000000
10
15.1985196735
20
2.5253440442
30
0.0000000000
10
15.1323538377
20
0.1351846735
30
0.0000000000
10
15.0613082008
20
-3.4439832513
30
0.0000000000
10
15.0186561382
20
-7.0101045371
30
0.0000000000
10
15.0044017381
20
-10.5628448935
30
0.0000000000
10
15.0185463182
20
-14.1018747300
30
0.0000000000
10
15.0610886294
20
-17.6268658580
30
0.0000000000
10
15.1320246374
20
-21.1374875150
30
0.0000000000
10
15.1983734342
20
-23.4727973564
30
0.0000000000
10
15.2363068729
20
-24.6379569537
30
0.0000000000
11
15.2363068729
21
3.7225024460
31
0.0000000000
11
15.1369260735
21
0.1306131855
31
0.0000000000
11
15.0659331823
21
-3.4485580815
31
0.0000000000
11
15.0233348092
21
-7.0146782529
31
0.0000000000
11
15.0091349115
21
-10.5674158933
31
0.0000000000
11
15.0233348081
21
-14.1064408524
31
0.0000000000
11
15.0659331802
21
-17.6314242537
31
0.0000000000
11
15.1369260703
21
-21.1420384833
31
0.0000000000
11
15.2363068729
21
-24.6379569537
31
0.0000000000
0
SPLINE
5
24A
100
AcDbEntity
8
0
100
AcDbSpline
62
0
6
CONTINUOUS
70
0
71
3
72
15
73
11
74
9
42
0.0000001000
43
0.0000001000
44
0.0000000001
12
-0.8954980168
22
-28.3711441455
32
0.0000000000
13
0.9236229265
23
-28.3702424649
33
0.0000000000
40
0.0000000000
40
0.0000000000
40
0.0000000000
40
0.0000000000
40
0.1266784699
40
0.2528849118
40
0.3786153894
40
0.5038660989
40
0.6286333736
40
0.7529136847
40
0.8767036424
40
1.0000000000
40
1.0000000000
40
1.0000000000
40
1.0000000000
10
14.8159350444
20
3.7344329019
30
0.0000000000
10
14.7781216049
20
2.5364285258
30
0.0000000000
10
14.7119098365
20
0.1445803555
30
0.0000000000
10
14.6408148742
20
-3.4371163078
30
0.0000000000
10
14.5981332027
20
-7.0057567912
30
0.0000000000
10
14.5838689068
20
-10.5610067217
30
0.0000000000
10
14.5980233061
20
-14.1025362761
30
0.0000000000
10
14.6405951498
20
-17.6300170340
30
0.0000000000
10
14.7115804058
20
-21.1431181042
30
0.0000000000
10
14.7779752635
20
-23.4800772668
30
0.0000000000
10
14.8159350444
20
-24.6460597868
30
0.0000000000
11
14.8159350444
21
3.7344329019
31
0.0000000000
11
14.7164852401
21
0.1400054358
31
0.0000000000
11
14.6454430656
21
-3.4416944213
31
0.0000000000
11
14.6028151208
21
-7.0103337923
31
0.0000000000
11
14.5886053660
21
-10.5655810075
31
0.0000000000
11
14.6028151208
21
-14.1071056838
31
0.0000000000
11
14.6454430656
21
-17.6345787123
31
0.0000000000
11
14.7164852401
21
-21.1476722477
31
0.0000000000
11
14.8159350444
21
-24.6460597868
31
0.0000000000
0
SPLINE
5
24B
100
AcDbEntity
8
0
100
AcDbSpline
62
0
6
CONTINUOUS
70
0
71
3
72
20
73
16
74
14
42
0.0000001000
43
0.0000001000
44
0.0000000001
12
-0.3955767551
22
-0.1726244986
32
0.0000000000
13
-0.3859052316
23
0.1932804670
33
0.0000000000
40
0.0000000000
40
0.0000000000
40
0.0000000000
40
0.0000000000
40
0.0674920152
40
0.1394044241
40
0.2151271677
40
0.2939358978
40
0.3750218711
40
0.4575179020
40
0.5405220316
40
0.6231200140
40
0.7044074150
40
0.7835120186
40
0.8596173175
40
0.9319881405
40
1.0000000000
40
1.0000000000
40
1.0000000000
40
1.0000000000
10
15.2363068729
20
3.7225024460
30
0.0000000000
10
15.2274074487
20
3.7186188543
30
0.0000000000
10
15.2086372120
20
3.7114701829
30
0.0000000000
10
15.1789011940
20
3.7027915253
30
0.0000000000
10
15.1470321444
20
3.6959098469
30
0.0000000000
10
15.1134808794
20
3.6909237783
30
0.0000000000
10
15.0787191686
20
3.6879039025
30
0.0000000000
10
15.0432384107
20
3.6868935583
30
0.0000000000
10
15.0075404596
20
3.6879073152
30
0.0000000000
10
14.9721305930
20
3.6909308411
30
0.0000000000
10
14.9375096943
20
3.6959211176
30
0.0000000000
10
14.9041672228
20
3.7028069696
30
0.0000000000
10
14.8725721812
20
3.7114910594
30
0.0000000000
10
14.8431715709
20
3.7218492269
30
0.0000000000
10
14.8246837552
20
3.7300511139
30
0.0000000000
10
14.8159350444
20
3.7344329019
30
0.0000000000
11
15.2363068729
21
3.7225024460
31
0.0000000000
11
15.2091154402
21
3.7120542740
31
0.0000000000
11
15.1793398958
21
3.7032938345
31
0.0000000000
11
15.1474048576
21
3.6963460569
31
0.0000000000
11
15.1137657391
21
3.6913100208
31
0.0000000000
11
15.0789022551
21
3.6882575433
31
0.0000000000
11
15.0433115807
21
3.6872321545
31
0.0000000000
11
15.0075012611
21
3.6882484772
31
0.0000000000
11
14.9719819736
21
3.6912920180
31
0.0000000000
11
14.9372602456
21
3.6963193741
31
0.0000000000
11
14.9038312306
21
3.7032588522
31
0.0000000000
11
14.8721716470
21
3.7120114911
31
0.0000000000
11
14.8427329804
21
3.7224524726
31
0.0000000000
11
14.8159350444
21
3.7344329019
31
0.0000000000
0
SPLINE
5
24C
100
AcDbEntity
8
0
100
AcDbSpline
62
0
6
CONTINUOUS
70
0
71
3
72
23
73
19
74
17
42
0.0000001000
43
0.0000001000
44
0.0000000001
12
-0.7453997028
22
-0.5181322716
32
0.0000000000
13
-0.0286468612
23
-0.9073373822
33
0.0000000000
40
0.0000000000
40
0.0000000000
40
0.0000000000
40
0.0000000000
40
0.0573867067
40
0.1165859472
40
0.1774047308
40
0.2396317013
40
0.3030320595
40
0.3673507987
40
0.4323170611
40
0.4976498146
40
0.5630627020
40
0.6282681712
40
0.6929816207
40
0.7569259513
40
0.8198372523
40
0.8814690617
40
0.9415953554
40
1.0000000000
40
1.0000000000
40
1.0000000000
40
1.0000000000
10
15.6520952550
20
4.4968993346
30
0.0000000000
10
15.6378365770
20
4.4869880331
30
0.0000000000
10
15.6095860653
20
4.4658028489
30
0.0000000000
10
15.5688429155
20
4.4307956485
30
0.0000000000
10
15.5293218734
20
4.3922847189
30
0.0000000000
10
15.4913110504
20
4.3505504200
30
0.0000000000
10
15.4550808510
20
4.3058910132
30
0.0000000000
10
15.4208902962
20
4.2586261882
30
0.0000000000
10
15.3889838558
20
4.2090943717
30
0.0000000000
10
15.3595898847
20
4.1576503823
30
0.0000000000
10
15.3329186978
20
4.1046625742
30
0.0000000000
10
15.3091611613
20
4.0505102687
30
0.0000000000
10
15.2884873699
20
3.9955812150
30
0.0000000000
10
15.2710453491
20
3.9402684403
30
0.0000000000
10
15.2569599241
20
3.8849676513
30
0.0000000000
10
15.2463322537
20
3.8300731649
30
0.0000000000
10
15.2392393555
20
3.7759863376
30
0.0000000000
10
15.2368645761
20
3.7401666852
30
0.0000000000
10
15.2363068729
20
3.7225024460
30
0.0000000000
11
15.6520952550
21
4.4968993346
31
0.0000000000
11
15.6103826751
21
4.4656910848
31
0.0000000000
11
15.5695887856
21
4.4307068826
31
0.0000000000
11
15.5300176365
21
4.3922057092
31
0.0000000000
11
15.4919550011
21
4.3504655392
31
0.0000000000
11
15.4556745084
21
4.3057865800
31
0.0000000000
11
15.4214371160
21
4.2584902271
31
0.0000000000
11
15.3894894607
21
4.2089172567
31
0.0000000000
11
15.3600615339
21
4.1574247142
31
0.0000000000
11
15.3333649668
21
4.1043831065
31
0.0000000000
11
15.3095917358
21
4.0501740132
31
0.0000000000
11
15.2889129016
21
3.9951876457
31
0.0000000000
11
15.2714773118
21
3.9398200601
31
0.0000000000
11
15.2574102378
21
3.8844694101
31
0.0000000000
11
15.2468127818
21
3.8295335204
31
0.0000000000
11
15.2397612675
21
3.7754089159
31
0.0000000000
11
15.2363068729
21
3.7225024460
31
0.0000000000
0
SPLINE
5
24D
100
AcDbEntity
8
0
100
AcDbSpline
62
0
6
CONTINUOUS
70
0
71
3
72
23
73
19
74
17
42
0.0000001000
43
0.0000001000
44
0.0000000001
12
-1.0613681206
22
-0.7443201164
32
0.0000000000
13
-0.0406890306
23
-1.2957079632
33
0.0000000000
40
0.0000000000
40
0.0000000000
40
0.0000000000
40
0.0000000000
40
0.0573049430
40
0.1164250039
40
0.1771826981
40
0.2393657456
40
0.3027382377
40
0.3670438524
40
0.4320102594
40
0.4973549195
40
0.5627897102
40
0.6280251304
40
0.6927744838
40
0.7567584363
40
0.8197106999
40
0.8813823135
40
0.9415445770
40
1.0000000000
40
1.0000000000
40
1.0000000000
40
1.0000000000
10
15.4068614027
20
4.8422426937
30
0.0000000000
10
15.3865875228
20
4.8280249530
30
0.0000000000
10
15.3464265852
20
4.7976467726
30
0.0000000000
10
15.2885202599
20
4.7474830439
30
0.0000000000
10
15.2323561705
20
4.6923236497
30
0.0000000000
10
15.1783382882
20
4.6325657402
30
0.0000000000
10
15.1268509072
20
4.5686362731
30
0.0000000000
10
15.0782620606
20
4.5009928588
30
0.0000000000
10
15.0329191024
20
4.4301197407
30
0.0000000000
10
14.9911464851
20
4.3565245052
30
0.0000000000
10
14.9532430474
20
4.2807340052
30
0.0000000000
10
14.9194800233
20
4.2032907458
30
0.0000000000
10
14.8900991477
20
4.1247492129
30
0.0000000000
10
14.8653107597
20
4.0456713678
30
0.0000000000
10
14.8452923157
20
3.9666228927
30
0.0000000000
10
14.8301873966
20
3.8881674716
30
0.0000000000
10
14.8201046411
20
3.8108694458
30
0.0000000000
10
14.8167278759
20
3.7596799543
30
0.0000000000
10
14.8159350444
20
3.7344329019
30
0.0000000000
11
15.4068614027
21
4.8422426937
31
0.0000000000
11
15.3475641982
21
4.7974943894
31
0.0000000000
11
15.2895897892
21
4.7473678293
31
0.0000000000
11
15.2333531846
21
4.6922220222
31
0.0000000000
11
15.1792604669
21
4.6324551673
31
0.0000000000
11
15.1277004664
21
4.5684970894
31
0.0000000000
11
15.0790440003
21
4.5008078503
31
0.0000000000
11
15.0336415240
21
4.4298751159
31
0.0000000000
11
14.9918197632
21
4.3562095780
31
0.0000000000
11
14.9538794441
21
4.2803411922
31
0.0000000000
11
14.9200933915
21
4.2028156996
31
0.0000000000
11
14.8907047123
21
4.1241910988
31
0.0000000000
11
14.8659249463
21
4.0450336607
31
0.0000000000
11
14.8459321481
21
3.9659125709
31
0.0000000000
11
14.8308699775
21
3.8873964551
31
0.0000000000
11
14.8208470317
21
3.8100520298
31
0.0000000000
11
14.8159350444
21
3.7344329019
31
0.0000000000
0
SPLINE
5
24E
100
AcDbEntity
8
0
100
AcDbSpline
62
0
6
CONTINUOUS
70
0
71
3
72
20
73
16
74
14
42
0.0000001000
43
0.0000001000
44
0.0000000001
12
-0.0679212356
22
0.4310246399
32
0.0000000000
13
-0.3869823151
23
0.2015942020
33
0.0000000000
40
0.0000000000
40
0.0000000000
40
0.0000000000
40
0.0000000000
40
0.0687513670
40
0.1416690499
40
0.2181477329
40
0.2974695616
40
0.3788343854
40
0.4613863666
40
0.5442384756
40
0.6264959226
40
0.7072793413
40
0.7857484735
40
0.8611272272
40
0.9327312875
40
1.0000000000
40
1.0000000000
40
1.0000000000
40
1.0000000000
10
15.6520952550
20
4.4968993346
30
0.0000000000
10
15.6505386957
20
4.5067771790
30
0.0000000000
10
15.6463393272
20
4.5269831498
30
0.0000000000
10
15.6373310281
20
4.5574376989
30
0.0000000000
10
15.6255406899
20
4.5885755490
30
0.0000000000
10
15.6111374621
20
4.6199473386
30
0.0000000000
10
15.5943274717
20
4.6511037577
30
0.0000000000
10
15.5753522685
20
4.6815961220
30
0.0000000000
10
15.5544849346
20
4.7109853024
30
0.0000000000
10
15.5320261221
20
4.7388479334
30
0.0000000000
10
15.5082992845
20
4.7647830847
30
0.0000000000
10
15.4836461470
20
4.7884179968
30
0.0000000000
10
15.4584193495
20
4.8094146953
30
0.0000000000
10
15.4329829236
20
4.8274713164
30
0.0000000000
10
15.4155386700
20
4.8377223662
30
0.0000000000
10
15.4068614027
20
4.8422426937
30
0.0000000000
11
15.6520952550
21
4.4968993346
31
0.0000000000
11
15.6460740468
21
4.5262880609
31
0.0000000000
11
15.6371130993
21
4.5568172647
31
0.0000000000
11
15.6253425799
21
4.5880434756
31
0.0000000000
11
15.6109334684
21
4.6195130986
31
0.0000000000
11
15.5940950729
21
4.6507690025
31
0.0000000000
11
15.5750719895
21
4.6813571608
31
0.0000000000
11
15.5541405496
21
4.7108332465
31
0.0000000000
11
15.5316048054
21
4.7387690868
31
0.0000000000
11
15.5077921134
21
4.7647588826
31
0.0000000000
11
15.4830483795
21
4.7884251031
31
0.0000000000
11
15.4577330338
21
4.8094239702
31
0.0000000000
11
15.4322138099
21
4.8274504520
31
0.0000000000
11
15.4068614027
21
4.8422426937
31
0.0000000000
0
SPLINE
5
24F
100
AcDbEntity
8
0
100
AcDbSpline
62
0
6
CONTINUOUS
70
0
71
3
72
23
73
19
74
17
42
0.0000001000
43
0.0000001000
44
0.0000000001
12
0.0396257488
22
1.2935630651
32
0.0000000000
13
1.0447859870
23
0.7637393827
33
0.0000000000
40
0.0000000000
40
0.0000000000
40
0.0000000000
40
0.0000000000
40
0.0585936021
40
0.1189260658
40
0.1807871889
40
0.2439360797
40
0.3081121576
40
0.3730380977
40
0.4384241224
40
0.5039737016
40
0.5693881247
40
0.6343707060
40
0.6986310217
40
0.7618895834
40
0.8238837023
40
0.8843719782
40
0.9431376748
40
1.0000000000
40
1.0000000000
40
1.0000000000
40
1.0000000000
10
-19.6696993469
20
20.9772500975
30
0.0000000000
10
-19.6689254084
20
21.0025149373
30
0.0000000000
10
-19.6656285869
20
21.0537545129
30
0.0000000000
10
-19.6557894880
20
21.1311661277
30
0.0000000000
10
-19.6410503149
20
21.2097963533
30
0.0000000000
10
-19.6215169181
20
21.2890797252
30
0.0000000000
10
-19.5973292994
20
21.3684506995
30
0.0000000000
10
-19.5686605491
20
21.4473414013
30
0.0000000000
10
-19.5357158819
20
21.5251872662
30
0.0000000000
10
-19.4987311711
20
21.6014308443
30
0.0000000000
10
-19.4579710943
20
21.6755263279
30
0.0000000000
10
-19.4137272778
20
21.7469432524
30
0.0000000000
10
-19.3663163415
20
21.8151701347
30
0.0000000000
10
-19.3160772570
20
21.8797186008
30
0.0000000000
10
-19.2633691306
20
21.9401266706
30
0.0000000000
10
-19.2085669524
20
21.9959629339
30
0.0000000000
10
-19.1520647189
20
22.0468254543
30
0.0000000000
10
-19.1128421842
20
22.0777169947
30
0.0000000000
10
-19.0930391974
20
22.0921929937
30
0.0000000000
11
-19.6696993469
21
20.9772500975
31
0.0000000000
11
-19.6649059445
21
21.0529285179
31
0.0000000000
11
-19.6551249731
21
21.1303939304
31
0.0000000000
11
-19.6404264350
21
21.2090918625
31
0.0000000000
11
-19.6209163042
21
21.2884542859
31
0.0000000000
11
-19.5967347741
21
21.3679108420
31
0.0000000000
11
-19.5680555996
21
21.4468901951
31
0.0000000000
11
-19.5350852140
21
21.5248235212
31
0.0000000000
11
-19.4980608548
21
21.6011498870
31
0.0000000000
11
-19.4572487604
21
21.6753202581
31
0.0000000000
11
-19.4129423970
21
21.7468010489
31
0.0000000000
11
-19.3654606016
21
21.8150776234
31
0.0000000000
11
-19.3151453705
21
21.8796580860
31
0.0000000000
11
-19.2623585637
21
21.9400778963
31
0.0000000000
11
-19.2074796379
21
21.9959025428
31
0.0000000000
11
-19.1509048383
21
22.0467289077
31
0.0000000000
11
-19.0930391974
21
22.0921929937
31
0.0000000000
0
SPLINE
5
250
100
AcDbEntity
8
0
100
AcDbSpline
62
0
6
CONTINUOUS
70
0
71
3
72
17
73
13
74
11
42
0.0000001000
43
0.0000001000
44
0.0000000001
12
-0.5328325761
22
0.2664212972
32
0.0000000000
13
-0.0188155437
23
0.5949525461
33
0.0000000000
40
0.0000000000
40
0.0000000000
40
0.0000000000
40
0.0000000000
40
0.0853214632
40
0.1728098053
40
0.2624056127
40
0.3549720436
40
0.4512112385
40
0.5516487370
40
0.6566351881
40
0.7663558587
40
0.8808422313
40
1.0000000000
40
1.0000000000
40
1.0000000000
40
1.0000000000
10
-19.4135009891
20
-7.9094058835
30
0.0000000000
10
-19.4286550074
20
-7.9018287319
30
0.0000000000
10
-19.4582770343
20
-7.8843405527
30
0.0000000000
10
-19.4991653037
20
-7.8518456616
30
0.0000000000
10
-19.5363408130
20
-7.8131574389
30
0.0000000000
10
-19.5693775362
20
-7.7687155201
30
0.0000000000
10
-19.5980531586
20
-7.7188626806
30
0.0000000000
10
-19.6221809220
20
-7.6639700817
30
0.0000000000
10
-19.6416060307
20
-7.6044365096
30
0.0000000000
10
-19.6562040376
20
-7.5406872562
30
0.0000000000
10
-19.6658814226
20
-7.4731794622
30
0.0000000000
10
-19.6689520075
20
-7.4268736638
30
0.0000000000
10
-19.6696993469
20
-7.4032425912
30
0.0000000000
11
-19.4135009891
21
-7.9094058835
31
0.0000000000
11
-19.4572487257
21
-7.8836062962
31
0.0000000000
11
-19.4980608211
21
-7.8512576930
31
0.0000000000
11
-19.5350851860
21
-7.8128716489
31
0.0000000000
11
-19.5680555778
21
-7.7687243757
31
0.0000000000
11
-19.5967347537
21
-7.7191337089
31
0.0000000000
11
-19.6209162842
21
-7.6644569306
31
0.0000000000
11
-19.6404264212
21
-7.6050873031
31
0.0000000000
11
-19.6551249626
21
-7.5414515469
31
0.0000000000
11
-19.6649059371
21
-7.4740090960
31
0.0000000000
11
-19.6696993469
21
-7.4032425912
31
0.0000000000
0
SPLINE
5
251
100
AcDbEntity
8
0
100
AcDbSpline
62
0
6
CONTINUOUS
70
0
71
3
72
15
73
11
74
9
42
0.0000001000
43
0.0000001000
44
0.0000000001
12
-0.8924736112
22
28.3709171701
32
0.0000000000
13
0.8643456153
23
28.3717880451
33
0.0000000000
40
0.0000000000
40
0.0000000000
40
0.0000000000
40
0.0000000000
40
0.1232343594
40
0.2469811173
40
0.3712364829
40
0.4959965236
40
0.6212571692
40
0.7470142135
40
0.8732633147
40
1.0000000000
40
1.0000000000
40
1.0000000000
40
1.0000000000
10
-19.6696993469
20
-7.4032425912
30
0.0000000000
10
-19.7063604848
20
-6.2378186567
30
0.0000000000
10
-19.7704822441
20
-3.9018203415
30
0.0000000000
10
-19.8390313374
20
-0.3899448460
30
0.0000000000
10
-19.8801413911
20
3.1367973409
30
0.0000000000
10
-19.8938085147
20
6.6780756013
30
0.0000000000
10
-19.8800314943
20
10.2335614983
30
0.0000000000
10
-19.8388116031
20
13.8029251507
30
0.0000000000
10
-19.7701527761
20
17.3858323108
30
0.0000000000
10
-19.7062141130
20
19.7786679728
30
0.0000000000
10
-19.6696993469
20
20.9772500975
30
0.0000000000
11
-19.6696993469
21
-7.4032425912
31
0.0000000000
11
-19.7657392738
21
-3.9065599908
31
0.0000000000
11
-19.8343455955
21
-0.3946843818
31
0.0000000000
11
-19.8755119379
21
3.1320578456
31
0.0000000000
11
-19.8892344769
21
6.6733389140
31
0.0000000000
11
-19.8755119379
21
10.2288297371
31
0.0000000000
11
-19.8343455955
21
13.7981999092
31
0.0000000000
11
-19.7657392738
21
17.3811176928
31
0.0000000000
11
-19.6696993469
21
20.9772500975
31
0.0000000000
0
SPLINE
5
252
100
AcDbEntity
8
0
100
AcDbSpline
62
0
6
CONTINUOUS
70
0
71
3
72
17
73
13
74
11
42
0.0000001000
43
0.0000001000
44
0.0000000001
12
-0.5679006156
22
-0.2839503728
32
0.0000000000
13
-0.5523455048
23
0.3125086112
33
0.0000000000
40
0.0000000000
40
0.0000000000
40
0.0000000000
40
0.0000000000
40
0.0973038653
40
0.1956302037
40
0.2959745141
40
0.3992088019
40
0.5060631134
40
0.6171075212
40
0.7327480045
40
0.8532322063
40
0.9786610835
40
1.0000000000
40
1.0000000000
40
1.0000000000
40
1.0000000000
10
-1.6802940570
20
-2.8586532834
30
0.0000000000
10
-1.6987136986
20
-2.8678631064
30
0.0000000000
10
-1.7369719258
20
-2.8839287473
30
0.0000000000
10
-1.7975204872
20
-2.9004817509
30
0.0000000000
10
-1.8609055021
20
-2.9094333379
30
0.0000000000
10
-1.9266962429
20
-2.9107455534
30
0.0000000000
10
-1.9944546622
20
-2.9044336819
30
0.0000000000
10
-2.0637402123
20
-2.8905612236
30
0.0000000000
10
-2.1341094313
20
-2.8692361808
30
0.0000000000
10
-2.2051154262
20
-2.8406094243
30
0.0000000000
10
-2.2556832570
20
-2.8152269304
30
0.0000000000
10
-2.2828005553
20
-2.8001059387
30
0.0000000000
10
-2.2867293735
20
-2.7978830737
30
0.0000000000
11
-1.6802940570
21
-2.8586532834
31
0.0000000000
11
-1.7372080081
21
-2.8825769847
31
0.0000000000
11
-1.7973693131
21
-2.8990901638
31
0.0000000000
11
-1.8603967798
21
-2.9080902147
31
0.0000000000
11
-1.9258816510
21
-2.9095187687
31
0.0000000000
11
-1.9933992321
21
-2.9033665611
31
0.0000000000
11
-2.0625116457
21
-2.8896734913
31
0.0000000000
11
-2.1327706714
21
-2.8685283641
31
0.0000000000
11
-2.2037206522
21
-2.8400683137
31
0.0000000000
11
-2.2749014505
21
-2.8044779146
31
0.0000000000
11
-2.2867293735
21
-2.7978830737
31
0.0000000000
0
SPLINE
5
253
100
AcDbEntity
8
0
100
AcDbSpline
62
0
6
CONTINUOUS
70
0
71
3
72
8
73
4
74
2
42
0.0000001000
43
0.0000001000
44
0.0000000001
12
-0.0119130303
22
0.0067402098
32
0.0000000000
13
-0.0118281931
23
0.0068878742
33
0.0000000000
40
0.0000000000
40
0.0000000000
40
0.0000000000
40
0.0000000000
40
1.0000000000
40
1.0000000000
40
1.0000000000
40
1.0000000000
10
-2.2867293735
20
-2.7978830737
30
0.0000000000
10
-2.2907003836
20
-2.7956363371
30
0.0000000000
10
-2.2946572651
20
-2.7933646856
30
0.0000000000
10
-2.2985999962
20
-2.7910687275
30
0.0000000000
11
-2.2867293735
21
-2.7978830737
31
0.0000000000
11
-2.2985999962
21
-2.7910687275
31
0.0000000000
0
SPLINE
5
254
100
AcDbEntity
8
0
100
AcDbSpline
62
0
6
CONTINUOUS
70
0
71
3
72
14
73
10
74
8
42
0.0000001000
43
0.0000001000
44
0.0000000001
12
-0.4460197188
22
0.2597292487
32
0.0000000000
13
-0.3279906272
23
0.3984503239
33
0.0000000000
40
0.0000000000
40
0.0000000000
40
0.0000000000
40
0.0000000000
40
0.1075077209
40
0.2736316194
40
0.4453067447
40
0.6221169444
40
0.8035537014
40
0.9890308476
40
1.0000000000
40
1.0000000000
40
1.0000000000
40
1.0000000000
10
-2.2985999962
20
-2.7910687275
30
0.0000000000
10
-2.3145835173
20
-2.7817610943
30
0.0000000000
10
-2.3546733139
20
-2.7570543326
30
0.0000000000
10
-2.4174480759
20
-2.7130626944
30
0.0000000000
10
-2.4864960383
20
-2.6575822598
30
0.0000000000
10
-2.5539382974
20
-2.5961830304
30
0.0000000000
10
-2.6193423368
20
-2.5292609742
30
0.0000000000
10
-2.6621398554
20
-2.4802981263
30
0.0000000000
10
-2.6836581394
20
-2.4542402767
30
0.0000000000
10
-2.6848573991
20
-2.4527833892
30
0.0000000000
11
-2.2985999962
21
-2.7910687275
31
0.0000000000
11
-2.3458514313
21
-2.7619879841
31
0.0000000000
11
-2.4161104569
21
-2.7128740857
31
0.0000000000
11
-2.4852228706
21
-2.6574547419
31
0.0000000000
11
-2.5527404517
21
-2.5960893684
31
0.0000000000
11
-2.6182253229
21
-2.5291759432
31
0.0000000000
11
-2.6812527896
21
-2.4571484256
31
0.0000000000
11
-2.6848573991
21
-2.4527833892
31
0.0000000000
0
SPLINE
5
255
100
AcDbEntity
8
0
100
AcDbSpline
62
0
6
CONTINUOUS
70
0
71
3
72
12
73
8
74
6
42
0.0000001000
43
0.0000001000
44
0.0000000001
12
-0.0881007290
22
0.3632213439
32
0.0000000000
13
0.0000000000
23
0.3737093116
33
0.0000000000
40
0.0000000000
40
0.0000000000
40
0.0000000000
40
0.0000000000
40
0.0121788287
40
0.2682855934
40
0.5188130750
40
0.7629519194
40
1.0000000000
40
1.0000000000
40
1.0000000000
40
1.0000000000
10
-3.0766393378
20
-1.6686495687
30
0.0000000000
10
-3.0769969924
20
-1.6671750318
30
0.0000000000
10
-3.0848349061
20
-1.6346827551
30
0.0000000000
10
-3.0982487282
20
-1.5714291999
30
0.0000000000
10
-3.1125421286
20
-1.4789522690
30
0.0000000000
10
-3.1211943006
20
-1.3881628601
30
0.0000000000
10
-3.1231945278
20
-1.3282065814
30
0.0000000000
10
-3.1231945278
20
-1.2986775564
30
0.0000000000
11
-3.0766393378
21
-1.6686495687
31
0.0000000000
11
-3.0777067392
21
-1.6642246097
31
0.0000000000
11
-3.0975104804
21
-1.5705863862
31
0.0000000000
11
-3.1117484689
21
-1.4780508912
31
0.0000000000
11
-3.1203283661
21
-1.3872182532
31
0.0000000000
11
-3.1231945278
21
-1.2986775564
31
0.0000000000
0
SPLINE
5
256
100
AcDbEntity
8
0
100
AcDbSpline
62
0
6
CONTINUOUS
70
0
71
3
72
18
73
14
74
12
42
0.0000001000
43
0.0000001000
44
0.0000000001
12
-0.7065058727
22
-0.3532530173
32
0.0000000000
13
0.0000000000
23
-0.7893393667
33
0.0000000000
40
0.0000000000
40
0.0000000000
40
0.0000000000
40
0.0000000000
40
0.0781888391
40
0.1572247044
40
0.2378824034
40
0.3208629013
40
0.4067530610
40
0.4960111590
40
0.5889635701
40
0.6858093939
40
0.7866298176
40
0.8913997356
40
1.0000000000
40
1.0000000000
40
1.0000000000
40
1.0000000000
10
-2.7983280457
20
-0.6225853059
30
0.0000000000
10
-2.8167416704
20
-0.6317921204
30
0.0000000000
10
-2.8525436189
20
-0.6527550449
30
0.0000000000
10
-2.9021112362
20
-0.6912557064
30
0.0000000000
10
-2.9473049892
20
-0.7365905928
30
0.0000000000
10
-2.9878307686
20
-0.7884337934
30
0.0000000000
10
-3.0234379609
20
-0.8464257150
30
0.0000000000
10
-3.0539130262
20
-0.9101758105
30
0.0000000000
10
-3.0790762781
20
-0.9792645919
30
0.0000000000
10
-3.0987802681
20
-1.0532437388
30
0.0000000000
10
-3.1129096275
20
-1.1316384709
30
0.0000000000
10
-3.1213818012
20
-1.2139415409
30
0.0000000000
10
-3.1231945278
20
-1.2701034018
30
0.0000000000
10
-3.1231945278
20
-1.2986775564
30
0.0000000000
11
-2.7983280457
21
-0.6225853059
31
0.0000000000
11
-2.8515986612
21
-0.6537509389
31
0.0000000000
11
-2.9009073336
21
-0.6919698187
31
0.0000000000
11
-2.9459253003
21
-0.7369895928
31
0.0000000000
11
-2.9863606024
21
-0.7885182905
31
0.0000000000
11
-3.0219510016
21
-0.8462217287
31
0.0000000000
11
-3.0524656803
21
-0.9097256782
31
0.0000000000
11
-3.0777067392
21
-0.9786182917
31
0.0000000000
11
-3.0975104804
21
-1.0524527742
31
0.0000000000
11
-3.1117484689
21
-1.1307502805
31
0.0000000000
11
-3.1203283661
21
-1.2130030215
31
0.0000000000
11
-3.1231945278
21
-1.2986775564
31
0.0000000000
0
SPLINE
5
257
100
AcDbEntity
8
0
100
AcDbSpline
62
0
6
CONTINUOUS
70
0
71
3
72
10
73
6
74
4
42
0.0000001000
43
0.0000001000
44
0.0000000001
12
-0.1289003755
22
5.2342995273
32
0.0000000000
13
-0.0658537437
23
5.2354722932
33
0.0000000000
40
0.0000000000
40
0.0000000000
40
0.0000000000
40
0.0000000000
40
0.3326703967
40
0.6660044840
40
1.0000000000
40
1.0000000000
40
1.0000000000
40
1.0000000000
10
-9.6344139624
20
-9.1916367785
30
0.0000000000
10
-9.6487077421
20
-8.6112046117
30
0.0000000000
10
-9.6749750893
20
-7.4491230498
30
0.0000000000
10
-9.7073964844
20
-5.7041245123
30
0.0000000000
10
-9.7243666582
20
-4.5395570868
30
0.0000000000
10
-9.7316982766
20
-3.9566823300
30
0.0000000000
11
-9.6344139624
21
-9.1916367785
31
0.0000000000
11
-9.6737826030
21
-7.4502573191
31
0.0000000000
11
-9.7062109552
21
-5.7052591825
31
0.0000000000
11
-9.7316982766
21
-3.9566823300
31
0.0000000000
0
SPLINE
5
258
100
AcDbEntity
8
0
100
AcDbSpline
62
0
6
CONTINUOUS
70
0
71
3
72
17
73
13
74
11
42
0.0000001000
43
0.0000001000
44
0.0000000001
12
-0.8705458962
22
-0.4473214623
32
0.0000000000
13
-0.8748946187
23
0.4374473093
33
0.0000000000
40
0.0000000000
40
0.0000000000
40
0.0000000000
40
0.0000000000
40
0.0630309469
40
0.1555683472
40
0.2496279193
40
0.3459584379
40
0.4452103766
40
0.5479229660
40
0.6545134171
40
0.7652831305
40
0.8804178641
40
1.0000000000
40
1.0000000000
40
1.0000000000
40
1.0000000000
10
4.0906980381
20
-17.4268522408
30
0.0000000000
10
4.0724075940
20
-17.4362506059
30
0.0000000000
10
4.0263098823
20
-17.4575903719
30
0.0000000000
10
3.9491993770
20
-17.4842292754
30
0.0000000000
10
3.8588967921
20
-17.5040441553
30
0.0000000000
10
3.7647835389
20
-17.5138799480
30
0.0000000000
10
3.6673530941
20
-17.5137127800
30
0.0000000000
10
3.5671059656
20
-17.5035706748
30
0.0000000000
10
3.4645482925
20
-17.4835295292
30
0.0000000000
10
3.3601912989
20
-17.4537094473
30
0.0000000000
10
3.2545598330
20
-17.4142781485
30
0.0000000000
10
3.1849405418
20
-17.3823188721
30
0.0000000000
10
3.1500666194
20
-17.3648819109
30
0.0000000000
11
4.0906980381
21
-17.4268522408
31
0.0000000000
11
4.0347318153
21
-17.4527650371
31
0.0000000000
11
3.9491982562
21
-17.4823835805
31
0.0000000000
11
3.8593540771
21
-17.5022086654
31
0.0000000000
11
3.7656523802
21
-17.5121429659
31
0.0000000000
11
3.6685679134
21
-17.5121388141
31
0.0000000000
11
3.5685912830
21
-17.5021988656
31
0.0000000000
11
3.4662302766
21
-17.4823761707
31
0.0000000000
11
3.3620019880
21
-17.4527731066
31
0.0000000000
11
3.2564356550
21
-17.4135416580
31
0.0000000000
11
3.1500666194
21
-17.3648819109
31
0.0000000000
0
SPLINE
5
259
100
AcDbEntity
8
0
100
AcDbSpline
62
0
6
CONTINUOUS
70
0
71
3
72
20
73
16
74
14
42
0.0000001000
43
0.0000001000
44
0.0000000001
12
-0.0167402510
22
1.3308752932
32
0.0000000000
13
1.1976587336
23
0.5823942385
33
0.0000000000
40
0.0000000000
40
0.0000000000
40
0.0000000000
40
0.0000000000
40
0.0961049754
40
0.1891527457
40
0.2790555715
40
0.3657826016
40
0.4493684872
40
0.5299173249
40
0.6076134169
40
0.6827181947
40
0.7555812851
40
0.8266270100
40
0.8963549286
40
0.9653178182
40
1.0000000000
40
1.0000000000
40
1.0000000000
40
1.0000000000
10
-9.7316982766
20
-3.9566823300
30
0.0000000000
10
-9.7322345504
20
-3.9140477510
30
0.0000000000
10
-9.7308725814
20
-3.8300795253
30
0.0000000000
10
-9.7211626697
20
-3.7065729499
30
0.0000000000
10
-9.7038632198
20
-3.5880885558
30
0.0000000000
10
-9.6790561026
20
-3.4752303170
30
0.0000000000
10
-9.6468594223
20
-3.3685686745
30
0.0000000000
10
-9.6074261474
20
-3.2686458508
30
0.0000000000
10
-9.5609443466
20
-3.1759748612
30
0.0000000000
10
-9.5076363361
20
-3.0910365059
30
0.0000000000
10
-9.4477617173
20
-3.0142814800
30
0.0000000000
10
-9.3816178269
20
-2.9461251518
30
0.0000000000
10
-9.3095444729
20
-2.8869458310
30
0.0000000000
10
-9.2446819767
20
-2.8452733031
30
0.0000000000
10
-9.2039009040
20
-2.8239268927
30
0.0000000000
10
-9.1900550980
20
-2.8171939917
30
0.0000000000
11
-9.7316982766
21
-3.9566823300
31
0.0000000000
11
-9.7295031158
21
-3.8287873122
31
0.0000000000
11
-9.7196641483
21
-3.7053339894
31
0.0000000000
11
-9.7022325166
21
-3.5869515835
31
0.0000000000
11
-9.6772987550
21
-3.4742446523
31
0.0000000000
11
-9.6449918577
21
-3.3677876581
31
0.0000000000
11
-9.6054795327
21
-3.2681255663
31
0.0000000000
11
-9.5589650894
21
-3.1757651526
31
0.0000000000
11
-9.5056903638
21
-3.0911814366
31
0.0000000000
11
-9.4459284425
21
-3.0148040276
31
0.0000000000
11
-9.3799897197
21
-2.9470266781
31
0.0000000000
11
-9.3082129410
21
-2.8881952120
31
0.0000000000
11
-9.2309690610
21
-2.8386122633
31
0.0000000000
11
-9.1900550980
21
-2.8171939917
31
0.0000000000
0
SPLINE
5
25A
100
AcDbEntity
8
0
100
AcDbSpline
62
0
6
CONTINUOUS
70
0
71
3
72
53
73
49
74
47
42
0.0000001000
43
0.0000001000
44
0.0000000001
12
0.0000000000
22
-6.4026688544
32
0.0000000000
13
-0.0000000000
23
6.4026688544
33
0.0000000000
40
0.0000000000
40
0.0000000000
40
0.0000000000
40
0.0000000000
40
0.0225968977
40
0.0445305054
40
0.0657561097
40
0.0862973137
40
0.1061237234
40
0.1252862529
40
0.1437938476
40
0.1617095855
40
0.1791005766
40
0.1960369476
40
0.2126410175
40
0.2289983810
40
0.2452591103
40
0.2615264646
40
0.2779444530
40
0.2946277291
40
0.3116812729
40
0.3292194649
40
0.3472984144
40
0.3660121694
40
0.3853769337
40
0.4054502202
40
0.4262272857
40
0.4477145841
40
0.4699068831
40
0.4927575655
40
0.5162647217
40
0.5403463159
40
0.5649905926
40
0.5901051866
40
0.6156508845
40
0.6415515144
40
0.6677243097
40
0.6941228768
40
0.7206325740
40
0.7472210018
40
0.7737684825
40
0.8002338087
40
0.8265214665
40
0.8525585009
40
0.8782926265
40
0.9036244475
40
0.9285322615
40
0.9529172880
40
0.9767639876
40
1.0000000000
40
1.0000000000
40
1.0000000000
40
1.0000000000
10
-0.8825476025
20
-2.8300045232
30
0.0000000000
10
-0.8825476025
20
-2.8782313409
30
0.0000000000
10
-0.8851456240
20
-2.9732944354
30
0.0000000000
10
-0.8972225184
20
-3.1131948102
30
0.0000000000
10
-0.9173781570
20
-3.2477398712
30
0.0000000000
10
-0.9455226324
20
-3.3762526234
30
0.0000000000
10
-0.9815560750
20
-3.4982078884
30
0.0000000000
10
-1.0253157700
20
-3.6129896706
30
0.0000000000
10
-1.0766404535
20
-3.7201053207
30
0.0000000000
10
-1.1353082166
20
-3.8190285124
30
0.0000000000
10
-1.2010750263
20
-3.9092830646
30
0.0000000000
10
-1.2736711310
20
-3.9904420310
30
0.0000000000
10
-1.3527523863
20
-4.0620691515
30
0.0000000000
10
-1.4379954443
20
-4.1238284957
30
0.0000000000
10
-1.5289597727
20
-4.1753693704
30
0.0000000000
10
-1.6252445597
20
-4.2164444043
30
0.0000000000
10
-1.7263528150
20
-4.2468343011
30
0.0000000000
10
-1.8317985486
20
-4.2663941658
30
0.0000000000
10
-1.9410788260
20
-4.2750417261
30
0.0000000000
10
-2.0536411594
20
-4.2727463847
30
0.0000000000
10
-2.1689999400
20
-4.2595341974
30
0.0000000000
10
-2.2865619608
20
-4.2354872256
30
0.0000000000
10
-2.4058358757
20
-4.2007196768
30
0.0000000000
10
-2.5262227620
20
-4.1554171407
30
0.0000000000
10
-2.6471920026
20
-4.0997885040
30
0.0000000000
10
-2.7681708948
20
-4.0341059664
30
0.0000000000
10
-2.8885794156
20
-3.9586907146
30
0.0000000000
10
-3.0078877194
20
-3.8738820046
30
0.0000000000
10
-3.1254883951
20
-3.7801165817
30
0.0000000000
10
-3.2408861094
20
-3.6777949508
30
0.0000000000
10
-3.3534858797
20
-3.5674487641
30
0.0000000000
10
-3.4628033089
20
-3.4495567672
30
0.0000000000
10
-3.5682988446
20
-3.3247050013
30
0.0000000000
10
-3.6694840821
20
-3.1934744379
30
0.0000000000
10
-3.7658973079
20
-3.0564694481
30
0.0000000000
10
-3.8570616098
20
-2.9143716679
30
0.0000000000
10
-3.9425920574
20
-2.7677863644
30
0.0000000000
10
-4.0220529173
20
-2.6174647872
30
0.0000000000
10
-4.0951140712
20
-2.4640357349
30
0.0000000000
10
-4.1614141487
20
-2.3082629811
30
0.0000000000
10
-4.2206609638
20
-2.1508358390
30
0.0000000000
10
-4.2725828859
20
-1.9924833209
30
0.0000000000
10
-4.3169336870
20
-1.8339610448
30
0.0000000000
10
-4.3535273862
20
-1.6759408133
30
0.0000000000
10
-4.3821823880
20
-1.5192132606
30
0.0000000000
10
-4.4027819009
20
-1.3644168687
30
0.0000000000
10
-4.4152234895
20
-1.2123323443
30
0.0000000000
10
-4.4180815084
20
-1.1118284012
30
0.0000000000
10
-4.4180815084
20
-1.0622375702
30
0.0000000000
11
-0.8825476025
21
-2.8300045232
31
0.0000000000
11
-0.8866213274
21
-2.9746276135
31
0.0000000000
11
-0.8988322889
21
-3.1145293502
31
0.0000000000
11
-0.9191105461
21
-3.2489084500
31
0.0000000000
11
-0.9473999402
21
-3.3773484484
31
0.0000000000
11
-0.9835285609
21
-3.4990405924
31
0.0000000000
11
-1.0273958822
21
-3.6136216587
31
0.0000000000
11
-1.0787560053
21
-3.7204107677
31
0.0000000000
11
-1.1374136926
21
-3.8189872567
31
0.0000000000
11
-1.2031143767
21
-3.9088870110
31
0.0000000000
11
-1.2755087978
21
-3.9896201654
31
0.0000000000
11
-1.3543723968
21
-4.0609112979
31
0.0000000000
11
-1.4392206646
21
-4.1223059892
31
0.0000000000
11
-1.5298123046
21
-4.1736136581
31
0.0000000000
11
-1.6256029461
21
-4.2145075357
31
0.0000000000
11
-1.7262523138
21
-4.2448340430
31
0.0000000000
11
-1.8312581329
21
-4.2644236971
31
0.0000000000
11
-1.9400950015
21
-4.2731757097
31
0.0000000000
11
-2.0523660432
21
-4.2710462053
31
0.0000000000
11
-2.1673871055
21
-4.2580448877
31
0.0000000000
11
-2.2848095640
21
-4.2342055567
31
0.0000000000
11
-2.4038901206
21
-4.1996745242
31
0.0000000000
11
-2.5242363984
21
-4.1545653943
31
0.0000000000
11
-2.6451636857
21
-4.0991287791
31
0.0000000000
11
-2.7661387050
21
-4.0336137735
31
0.0000000000
11
-2.8866292858
21
-3.9583039370
31
0.0000000000
11
-3.0059462998
21
-3.8736357239
31
0.0000000000
11
-3.1236938518
21
-3.7798896107
31
0.0000000000
11
-3.2391222875
21
-3.6776656184
31
0.0000000000
11
-3.3518748028
21
-3.5672831738
31
0.0000000000
11
-3.4612593760
21
-3.4494197234
31
0.0000000000
11
-3.5668670818
21
-3.3245233788
31
0.0000000000
11
-3.6681633456
21
-3.1932233308
31
0.0000000000
11
-3.7646317508
21
-3.0561996980
31
0.0000000000
11
-3.8559206566
21
-2.9139515703
31
0.0000000000
11
-3.9414721067
21
-2.7673562872
31
0.0000000000
11
-4.0210315288
21
-2.6168541277
31
0.0000000000
11
-4.0941022964
21
-2.4633872870
31
0.0000000000
11
-4.1604460321
21
-2.3074662257
31
0.0000000000
11
-4.2197031485
21
-2.1499313304
31
0.0000000000
11
-4.2716065165
21
-1.9915106856
31
0.0000000000
11
-4.3159518657
21
-1.8328233136
31
0.0000000000
11
-4.3524840436
21
-1.6747998807
31
0.0000000000
11
-4.3810950616
21
-1.5179108790
31
0.0000000000
11
-4.4016074556
21
-1.3631349627
31
0.0000000000
11
-4.4139603415
21
-1.2109529716
31
0.0000000000
11
-4.4180815084
21
-1.0622375702
31
0.0000000000
0
SPLINE
5
25B
100
AcDbEntity
8
0
100
AcDbSpline
62
0
6
CONTINUOUS
70
0
71
3
72
53
73
49
74
47
42
0.0000001000
43
0.0000001000
44
0.0000000001
12
0.0000000000
22
6.4119640463
32
0.0000000000
13
0.0000000000
23
-6.4119640463
33
0.0000000000
40
0.0000000000
40
0.0000000000
40
0.0000000000
40
0.0000000000
40
0.0225680711
40
0.0444828864
40
0.0657012630
40
0.0862480831
40
0.1060939152
40
0.1252902644
40
0.1438460838
40
0.1618239030
40
0.1792895614
40
0.1963110868
40
0.2130081471
40
0.2294627904
40
0.2458214339
40
0.2621832400
40
0.2786885515
40
0.2954487006
40
0.3125660737
40
0.3301533590
40
0.3482656876
40
0.3669970188
40
0.3863640410
40
0.4064253140
40
0.4271775336
40
0.4486288579
40
0.4707759108
40
0.4935740746
40
0.5170233191
40
0.5410435988
40
0.5656248448
40
0.5906764134
40
0.6161604772
40
0.6420021180
40
0.6681195890
40
0.6944671838
40
0.7209308170
40
0.7474782286
40
0.7739897587
40
0.8004238419
40
0.8266844326
40
0.8526977812
40
0.8784105795
40
0.9037222604
40
0.9286097276
40
0.9529727446
40
0.9767941567
40
1.0000000000
40
1.0000000000
40
1.0000000000
40
1.0000000000
10
-4.4180815084
20
-1.0622375702
30
0.0000000000
10
-4.4180815084
20
-1.0140023501
30
0.0000000000
10
-4.4154513673
20
-0.9189025086
30
0.0000000000
10
-4.4032307823
20
-0.7789259843
30
0.0000000000
10
-4.3828384069
20
-0.6442591956
30
0.0000000000
10
-4.3543685530
20
-0.5155818697
30
0.0000000000
10
-4.3179269864
20
-0.3934224614
30
0.0000000000
10
-4.2736843169
20
-0.2784011994
30
0.0000000000
10
-4.2218109860
20
-0.1710154612
30
0.0000000000
10
-4.1625397679
20
-0.0717967613
30
0.0000000000
10
-4.0961267179
20
0.0187732996
30
0.0000000000
10
-4.0228542613
20
0.1002625818
30
0.0000000000
10
-3.9430799149
20
0.1722295656
30
0.0000000000
10
-3.8571396207
20
0.2343334849
30
0.0000000000
10
-3.7654865455
20
0.2862183080
30
0.0000000000
10
-3.6685328033
20
0.3276311415
30
0.0000000000
10
-3.5667866320
20
0.3583462672
30
0.0000000000
10
-3.4607446731
20
0.3782120059
30
0.0000000000
10
-3.3509204179
20
0.3871392222
30
0.0000000000
10
-3.2378766639
20
0.3850908445
30
0.0000000000
10
-3.1221083651
20
0.3720874769
30
0.0000000000
10
-3.0042172802
20
0.3482066465
30
0.0000000000
10
-2.8847014804
20
0.3135593201
30
0.0000000000
10
-2.7641651290
20
0.2683288664
30
0.0000000000
10
-2.6431420060
20
0.2127230213
30
0.0000000000
10
-2.5222061191
20
0.1470138472
30
0.0000000000
10
-2.4019367691
20
0.0715232854
30
0.0000000000
10
-2.2828612580
20
-0.0134077479
30
0.0000000000
10
-2.1655824719
20
-0.1073399638
30
0.0000000000
10
-2.0505897651
20
-0.2098696308
30
0.0000000000
10
-1.9384702275
20
-0.3204609736
30
0.0000000000
10
-1.8296993255
20
-0.4386306426
30
0.0000000000
10
-1.7248061229
20
-0.5637872608
30
0.0000000000
10
-1.6242676953
20
-0.6953441057
30
0.0000000000
10
-1.5285336254
20
-0.8326907118
30
0.0000000000
10
-1.4380678913
20
-0.9751389332
30
0.0000000000
10
-1.3532426192
20
-1.1220771018
30
0.0000000000
10
-1.2744800521
20
-1.2727472266
30
0.0000000000
10
-1.2020976104
20
-1.4265141747
30
0.0000000000
10
-1.1364438077
20
-1.5826077925
30
0.0000000000
10
-1.0777989511
20
-1.7403328572
30
0.0000000000
10
-1.0264234914
20
-1.8989548499
30
0.0000000000
10
-0.9825534354
20
-2.0577131106
30
0.0000000000
10
-0.9463660160
20
-2.2159315670
30
0.0000000000
10
-0.9180351196
20
-2.3728158595
30
0.0000000000
10
-0.8976716457
20
-2.5277246731
30
0.0000000000
10
-0.8853735035
20
-2.6798753541
30
0.0000000000
10
-0.8825476025
20
-2.7804061788
30
0.0000000000
10
-0.8825476025
20
-2.8300045232
30
0.0000000000
11
-4.4180815084
21
-1.0622375702
31
0.0000000000
11
-4.4139600526
21
-0.9175906146
31
0.0000000000
11
-4.4016066857
21
-0.7776176751
31
0.0000000000
11
-4.3810941527
21
-0.6431214375
31
0.0000000000
11
-4.3524825401
21
-0.5145203297
31
0.0000000000
11
-4.3159502187
21
-0.3926263354
31
0.0000000000
11
-4.2716044926
21
-0.2778060667
31
0.0000000000
11
-4.2197006443
21
-0.1707450951
31
0.0000000000
11
-4.1604435963
21
-0.0718689258
31
0.0000000000
11
-4.0940989434
21
0.0183528129
31
0.0000000000
11
-4.0210283965
21
0.0994240302
31
0.0000000000
11
-3.9414681386
21
0.1710634922
31
0.0000000000
11
-3.8559167544
21
0.2328097417
31
0.0000000000
11
-3.7646274596
21
0.2844662379
31
0.0000000000
11
-3.6681586710
21
0.3256991891
31
0.0000000000
11
-3.5668626385
21
0.3563490289
31
0.0000000000
11
-3.4612540478
21
0.3762400687
31
0.0000000000
11
-3.3518698073
21
0.3852657673
31
0.0000000000
11
-3.2391165784
21
0.3833773565
31
0.0000000000
11
-3.1236882601
21
0.3705796669
31
0.0000000000
11
-3.0059404997
21
0.3469029869
31
0.0000000000
11
-2.8866232754
21
0.3124902882
31
0.0000000000
11
-2.7661330853
21
0.2674531145
31
0.0000000000
11
-2.6451575455
21
0.2120406254
31
0.0000000000
11
-2.5242307831
21
0.1465014914
31
0.0000000000
11
-2.4038841197
21
0.0711196962
31
0.0000000000
11
-2.2848037777
21
-0.0136668528
31
0.0000000000
11
-2.1673815314
21
-0.1075756189
31
0.0000000000
11
-2.0523603564
21
-0.2100032415
31
0.0000000000
11
-1.9400900292
21
-0.3206267802
31
0.0000000000
11
-1.8312528333
21
-0.4387639192
31
0.0000000000
11
-1.7262478973
21
-0.5639616488
31
0.0000000000
11
-1.6255983029
21
-0.6955850315
31
0.0000000000
11
-1.5298080449
21
-0.8329477379
31
0.0000000000
11
-1.4392167933
21
-0.9755446927
31
0.0000000000
11
-1.3543684625
21
-1.1224915353
31
0.0000000000
11
-1.2755056937
21
-1.2733420216
31
0.0000000000
11
-1.2031110556
21
-1.4271469270
31
0.0000000000
11
-1.1374112809
21
-1.5833899689
31
0.0000000000
11
-1.0787535269
21
-1.7412245454
31
0.0000000000
11
-1.0273938798
21
-1.8999170506
31
0.0000000000
11
-0.9835269319
21
-2.0588436232
31
0.0000000000
11
-0.9473984534
21
-2.2170689058
31
0.0000000000
11
-0.9191096475
21
-2.3741190135
31
0.0000000000
11
-0.8988315279
21
-2.5290120671
31
0.0000000000
11
-0.8866210418
21
-2.6812652581
31
0.0000000000
11
-0.8825476025
21
-2.8300045232
31
0.0000000000
0
SPLINE
5
25C
100
AcDbEntity
8
0
100
AcDbSpline
62
0
6
CONTINUOUS
70
0
71
3
72
14
73
10
74
8
42
0.0000001000
43
0.0000001000
44
0.0000000001
12
0.0045452627
22
-0.1450175956
32
0.0000000000
13
0.1294408729
23
-0.0648236824
33
0.0000000000
40
0.0000000000
40
0.0000000000
40
0.0000000000
40
0.0000000000
40
0.0567860358
40
0.1885040011
40
0.3268342587
40
0.4753300431
40
0.6363614310
40
0.8111614530
40
1.0000000000
40
1.0000000000
40
1.0000000000
40
1.0000000000
10
-19.7575744721
20
-7.2966711384
30
0.0000000000
10
-19.7574884362
20
-7.2994161299
30
0.0000000000
10
-19.7567499612
20
-7.3085137246
30
0.0000000000
10
-19.7528592642
20
-7.3239334801
30
0.0000000000
10
-19.7438137988
20
-7.3421438805
30
0.0000000000
10
-19.7306923226
20
-7.3594515787
30
0.0000000000
10
-19.7137276360
20
-7.3756489623
30
0.0000000000
10
-19.6931768593
20
-7.3905439256
30
0.0000000000
10
-19.6778471556
20
-7.3991621878
30
0.0000000000
10
-19.6696993468
20
-7.4032425912
30
0.0000000000
11
-19.7575744721
21
-7.2966711384
31
0.0000000000
11
-19.7569068875
21
-7.3048788285
31
0.0000000000
11
-19.7523143030
21
-7.3233857207
31
0.0000000000
11
-19.7435206917
21
-7.3413771352
31
0.0000000000
11
-19.7306514562
21
-7.3585965030
31
0.0000000000
11
-19.7138901196
21
-7.3747982654
31
0.0000000000
11
-19.6934757090
21
-7.3897513750
31
0.0000000000
11
-19.6696993468
21
-7.4032425912
31
0.0000000000
0
SPLINE
5
25D
100
AcDbEntity
8
0
100
AcDbSpline
62
0
6
CONTINUOUS
70
0
71
3
72
29
73
25
74
23
42
0.0000001000
43
0.0000001000
44
0.0000000001
12
-2.7795212440
22
1.3897606220
32
0.0000000000
13
-0.0765048500
23
3.1066573580
33
0.0000000000
40
0.0000000000
40
0.0000000000
40
0.0000000000
40
0.0000000000
40
0.0390361272
40
0.0794376438
40
0.1211507333
40
0.1641005785
40
0.2081954917
40
0.2533270902
40
0.2993748897
40
0.3462067130
40
0.3936824133
40
0.4416534357
40
0.4899664798
40
0.5384647926
40
0.5869898469
40
0.6353826490
40
0.6834852951
40
0.7311442645
40
0.7782100850
40
0.8245406179
40
0.8700013758
40
0.9144696917
40
0.9578345145
40
1.0000000000
40
1.0000000000
40
1.0000000000
40
1.0000000000
10
-8.0929312014
20
-11.7433830004
30
0.0000000000
10
-8.1290984497
20
-11.7252993763
30
0.0000000000
10
-8.2014456194
20
-11.6859474373
30
0.0000000000
10
-8.3077440035
20
-11.6191023844
30
0.0000000000
10
-8.4132046799
20
-11.5437367107
30
0.0000000000
10
-8.5172897817
20
-11.4602341965
30
0.0000000000
10
-8.6194750120
20
-11.3690149491
30
0.0000000000
10
-8.7192420414
20
-11.2705385732
30
0.0000000000
10
-8.8160833504
20
-11.1653016881
30
0.0000000000
10
-8.9095057962
20
-11.0538343355
30
0.0000000000
10
-8.9990319351
20
-10.9366990139
30
0.0000000000
10
-9.0842034925
20
-10.8144870159
30
0.0000000000
10
-9.1645833978
20
-10.6878162762
30
0.0000000000
10
-9.2397589549
20
-10.5573270765
30
0.0000000000
10
-9.3093435829
20
-10.4236795308
30
0.0000000000
10
-9.3729787396
20
-10.2875507536
30
0.0000000000
10
-9.4303364795
20
-10.1496304294
30
0.0000000000
10
-9.4811209382
20
-10.0106177631
30
0.0000000000
10
-9.5250702808
20
-9.8712168929
30
0.0000000000
10
-9.5619574316
20
-9.7321350371
30
0.0000000000
10
-9.5915919707
20
-9.5940773967
30
0.0000000000
10
-9.6138206896
20
-9.4577421220
30
0.0000000000
10
-9.6285282341
20
-9.3238254782
30
0.0000000000
10
-9.6333386744
20
-9.2353013504
30
0.0000000000
10
-9.6344139624
20
-9.1916367785
30
0.0000000000
11
-8.0929312014
21
-11.7433830004
31
0.0000000000
11
-8.1995626395
21
-11.6855425109
31
0.0000000000
11
-8.3059142767
21
-11.6188149754
31
0.0000000000
11
-8.4114451017
21
-11.5435384816
31
0.0000000000
11
-8.5156164421
21
-11.4600950011
31
0.0000000000
11
-8.6178981926
21
-11.3689057609
31
0.0000000000
11
-8.7177660341
21
-11.2704337603
31
0.0000000000
11
-8.8147095695
21
-11.1651768419
31
0.0000000000
11
-8.9082311128
21
-11.0536688932
31
0.0000000000
11
-8.9978518589
21
-10.9364731990
31
0.0000000000
11
-9.0831098524
21
-10.8141852429
31
0.0000000000
11
-9.1635661495
21
-10.6874253253
31
0.0000000000
11
-9.2388061759
21
-10.5568364933
31
0.0000000000
11
-9.3084418586
21
-10.4230813729
31
0.0000000000
11
-9.3721132057
21
-10.2868399018
31
0.0000000000
11
-9.4294903062
21
-10.1488063604
31
0.0000000000
11
-9.4802770198
21
-10.0096812596
31
0.0000000000
11
-9.5242100745
21
-9.8701736480
31
0.0000000000
11
-9.5610622193
21
-9.7309931261
31
0.0000000000
11
-9.5906421784
21
-9.5928507463
31
0.0000000000
11
-9.6127973468
21
-9.4564486102
31
0.0000000000
11
-9.6274130335
21
-9.3224830499
31
0.0000000000
11
-9.6344139624
21
-9.1916367785
31
0.0000000000
0
SPLINE
5
25E
100
AcDbEntity
8
0
100
AcDbSpline
62
0
6
CONTINUOUS
70
0
71
3
72
14
73
10
74
8
42
0.0000001000
43
0.0000001000
44
0.0000000001
12
-0.0043313667
22
-0.1445157391
32
0.0000000000
13
0.1290215479
23
-0.0644011671
33
0.0000000000
40
0.0000000000
40
0.0000000000
40
0.0000000000
40
0.0000000000
40
0.0825451799
40
0.2047449515
40
0.3358153977
40
0.4793444049
40
0.6374635791
40
0.8110510196
40
1.0000000000
40
1.0000000000
40
1.0000000000
40
1.0000000000
10
-19.7575837637
20
21.0823529094
30
0.0000000000
10
-19.7577029415
20
21.0783765502
30
0.0000000000
10
-19.7571360826
20
21.0684851753
30
0.0000000000
10
-19.7527851729
20
21.0527828258
30
0.0000000000
10
-19.7437013439
20
21.0358613640
30
0.0000000000
10
-19.7305726189
20
21.0196020789
30
0.0000000000
10
-19.7136217300
20
21.0041801761
30
0.0000000000
10
-19.6930931643
20
20.9897729000
30
0.0000000000
10
-19.6778254578
20
20.9813062995
30
0.0000000000
10
-19.6696992945
20
20.9772501212
30
0.0000000000
11
-19.7575837637
21
21.0823529094
31
0.0000000000
11
-19.7569068361
21
21.0704525607
31
0.0000000000
11
-19.7523142484
21
21.0534401682
31
0.0000000000
11
-19.7435206352
21
21.0367098573
31
0.0000000000
11
-19.7306513989
21
21.0205002127
31
0.0000000000
11
-19.7138900628
21
21.0050423939
31
0.0000000000
11
-19.6934756540
21
20.9905568391
31
0.0000000000
11
-19.6696992945
21
20.9772501212
31
0.0000000000
0
SPLINE
5
25F
100
AcDbEntity
8
0
100
AcDbSpline
62
0
6
CONTINUOUS
70
0
71
3
72
14
73
10
74
8
42
0.0000001000
43
0.0000001000
44
0.0000000001
12
0.1195138812
22
0.0881484050
32
0.0000000000
13
0.1335919269
23
-0.0640918072
33
0.0000000000
40
0.0000000000
40
0.0000000000
40
0.0000000000
40
0.0000000000
40
0.0617119592
40
0.1925464357
40
0.3301217993
40
0.4779136849
40
0.6382110854
40
0.8121719242
40
1.0000000000
40
1.0000000000
40
1.0000000000
40
1.0000000000
10
-19.2342705690
20
22.0961848109
30
0.0000000000
10
-19.2318120904
20
22.0979980812
30
0.0000000000
10
-19.2238324804
20
22.1032365313
30
0.0000000000
10
-19.2087514855
20
22.1097837696
30
0.0000000000
10
-19.1884533546
20
22.1138138293
30
0.0000000000
10
-19.1663336974
20
22.1140116966
30
0.0000000000
10
-19.1427093429
20
22.1104350292
30
0.0000000000
10
-19.1179012222
20
22.1031713664
30
0.0000000000
10
-19.1014033022
20
22.0962057406
30
0.0000000000
10
-19.0930391974
20
22.0921929937
30
0.0000000000
11
-19.2342705690
21
22.0961848109
31
0.0000000000
11
-19.2266132172
21
22.1012101352
31
0.0000000000
11
-19.2088625709
21
22.1090027791
31
0.0000000000
11
-19.1888943733
21
22.1131021290
31
0.0000000000
11
-19.1669986847
21
22.1134486371
31
0.0000000000
11
-19.1434935640
21
22.1100372701
31
0.0000000000
11
-19.1187204493
21
22.1029175818
31
0.0000000000
11
-19.0930391974
21
22.0921929937
31
0.0000000000
0
SPLINE
5
260
100
AcDbEntity
8
0
100
AcDbSpline
62
0
6
CONTINUOUS
70
0
71
3
72
16
73
12
74
10
42
0.0000001000
43
0.0000001000
44
0.0000000001
12
-0.0320443416
22
-0.2342965924
32
0.0000000000
13
-0.2285757625
23
-0.0618362805
33
0.0000000000
40
0.0000000000
40
0.0000000000
40
0.0000000000
40
0.0000000000
40
0.1384183407
40
0.2713841348
40
0.3985280733
40
0.5197895362
40
0.6354648679
40
0.7462417898
40
0.8532034335
40
0.9577820007
40
1.0000000000
40
1.0000000000
40
1.0000000000
40
1.0000000000
10
15.6520952550
20
-25.0108316689
30
0.0000000000
10
15.6506167468
20
-25.0216419841
30
0.0000000000
10
15.6467137019
20
-25.0427172841
30
0.0000000000
10
15.6378139463
20
-25.0729056994
30
0.0000000000
10
15.6260944761
20
-25.1006656132
30
0.0000000000
10
15.6117110974
20
-25.1255931868
30
0.0000000000
10
15.5948538233
20
-25.1473236055
30
0.0000000000
10
15.5757484421
20
-25.1655266196
30
0.0000000000
10
15.5546605760
20
-25.1799111737
30
0.0000000000
10
15.5363497973
20
-25.1882166678
30
0.0000000000
10
15.5252741395
20
-25.1916449676
30
0.0000000000
10
15.5220574691
20
-25.1925151690
30
0.0000000000
11
15.6520952550
21
-25.0108316689
31
0.0000000000
11
15.6460740461
21
-25.0430059622
31
0.0000000000
11
15.6371130975
21
-25.0731455074
31
0.0000000000
11
15.6253425769
21
-25.1008124941
31
0.0000000000
11
15.6109334642
21
-25.1256050289
31
0.0000000000
11
15.5940950676
21
-25.1471629727
31
0.0000000000
11
15.5750719835
21
-25.1651731725
31
0.0000000000
11
15.5541405433
21
-25.1793740102
31
0.0000000000
11
15.5316047992
21
-25.1895592030
31
0.0000000000
11
15.5220574691
21
-25.1925151690
31
0.0000000000
0
SPLINE
5
261
100
AcDbEntity
8
0
100
AcDbSpline
62
0
6
CONTINUOUS
70
0
71
3
72
23
73
19
74
17
42
0.0000001000
43
0.0000001000
44
0.0000000001
12
0.0214369841
22
-0.6582948567
32
0.0000000000
13
0.6357808634
23
0.1720301029
33
0.0000000000
40
0.0000000000
40
0.0000000000
40
0.0000000000
40
0.0000000000
40
0.0754508299
40
0.1480812687
40
0.2178321894
40
0.2847447211
40
0.3489547895
40
0.4106983708
40
0.4703149650
40
0.5282458555
40
0.5850222693
40
0.6412420913
40
0.6975367727
40
0.7545328975
40
0.8128154669
40
0.8728967864
40
0.9351938529
40
1.0000000000
40
1.0000000000
40
1.0000000000
40
1.0000000000
10
15.2363068729
20
-24.6379569537
30
0.0000000000
10
15.2368460189
20
-24.6545132514
30
0.0000000000
10
15.2390629714
20
-24.6869845938
30
0.0000000000
10
15.2460443354
20
-24.7343480072
30
0.0000000000
10
15.2565763018
20
-24.7791363898
30
0.0000000000
10
15.2705908678
20
-24.8210227424
30
0.0000000000
10
15.2879976625
20
-24.8597067591
30
0.0000000000
10
15.3086838077
20
-24.8949061807
30
0.0000000000
10
15.3325124679
20
-24.9263581331
30
0.0000000000
10
15.3593206094
20
-24.9538203385
30
0.0000000000
10
15.3889164030
20
-24.9770748419
30
0.0000000000
10
15.4210779965
20
-24.9959339845
30
0.0000000000
10
15.4555557681
20
-25.0102476484
30
0.0000000000
10
15.4920790390
20
-25.0199087088
30
0.0000000000
10
15.5303639649
20
-25.0248543686
30
0.0000000000
10
15.5701219097
20
-25.0250622423
30
0.0000000000
10
15.6110506382
20
-25.0205491989
30
0.0000000000
10
15.6383610856
20
-25.0145478716
30
0.0000000000
10
15.6520952550
20
-25.0108316689
30
0.0000000000
11
15.2363068729
21
-24.6379569537
31
0.0000000000
11
15.2397617451
21
-24.6875319365
31
0.0000000000
11
15.2468135986
21
-24.7348469050
31
0.0000000000
11
15.2574114317
21
-24.7795488346
31
0.0000000000
11
15.2714788943
21
-24.8213149185
31
0.0000000000
11
15.2889148863
21
-24.8598449400
31
0.0000000000
11
15.3095941347
21
-24.8948617330
31
0.0000000000
11
15.3333677872
21
-24.9261129746
31
0.0000000000
11
15.3600647128
21
-24.9533735859
31
0.0000000000
11
15.3894928931
21
-24.9764473943
31
0.0000000000
11
15.4214406934
21
-24.9951683147
31
0.0000000000
11
15.4556781890
21
-25.0094014661
31
0.0000000000
11
15.4919587508
21
-25.0190442503
31
0.0000000000
11
15.5300214093
21
-25.0240272810
31
0.0000000000
11
15.5695925553
21
-25.0243145824
31
0.0000000000
11
15.6103864111
21
-25.0199041814
31
0.0000000000
11
15.6520952550
21
-25.0108316689
31
0.0000000000
0
ENDSEC
0
SECTION
2
OBJECTS
0
DICTIONARY
5
C
100
AcDbDictionary
280
0
281
1
3
ACAD_GROUP
350
D
3
ACAD_MLINESTYLE
350
17
3
ACAD_LAYOUT
350
1A
3
ACAD_PLOTSETTINGS
350
19
3
ACAD_PLOTSTYLENAME
350
E
0
DICTIONARY
5
D
102
{ACAD_REACTORS
330
C
102
}
100
AcDbDictionary
280
0
281
1
0
ACDBDICTIONARYWDFLT
5
E
102
{ACAD_REACTORS
330
C
102
}
100
AcDbDictionary
281
1
3
Normal
350
F
100
AcDbDictionaryWithDefault
340
F
0
DICTIONARY
5
17
102
{ACAD_REACTORS
330
C
102
}
100
AcDbDictionary
280
0
281
1
3
Standard
350
18
0
DICTIONARY
5
19
102
{ACAD_REACTORS
330
C
102
}
100
AcDbDictionary
281
1
0
DICTIONARY
5
1A
102
{ACAD_REACTORS
330
C
102
}
100
AcDbDictionary
281
1
3
Layout1
350
1E
3
Model
350
22
0
ACDBPLACEHOLDER
5
F
102
{ACAD_REACTORS
330
E
102
}
0
MLINESTYLE
5
18
102
{ACAD_REACTORS
330
17
102
}
100
AcDbMlineStyle
2
STANDARD
70
0
3

62
256
51
90.0
52
90.0
71
2
49
0.5
62
256
6
BYLAYER
49
-0.5
62
256
6
BYLAYER
0
LAYOUT
5
1E
102
{ACAD_REACTORS
330
1A
102
}
100
AcDbPlotSettings
1

2

4

6

40
0.0
41
0.0
42
0.0
43
0.0
44
0.0
45
0.0
46
0.0
47
0.0
48
0.0
49
0.0
140
0.0
141
0.0
142
1.0
143
1.0
70
0
72
0
73
0
74
0
7

75
0
147
1.0
148
0.0
149
0.0
100
AcDbLayout
1
Layout1
70
0
71
0
10
0.0
20
0.0
11
0.0
21
0.0
12
0.0
22
0.0
32
0.0
14
0.0
24
0.0
34
0.0
15
0.0
25
0.0
35
0.0
146
0.0
13
0.0
23
0.0
33
0.0
16
0.0
26
0.0
36
0.0
17
0.0
27
0.0
37
0.0
76
0
330
1B
331
0
345
0
346
0
0
LAYOUT
5
22
102
{ACAD_REACTORS
330
1A
102
}
100
AcDbPlotSettings
1

2

4

6

40
0.0
41
0.0
42
0.0
43
0.0
44
0.0
45
0.0
46
0.0
47
0.0
48
0.0
49
0.0
140
0.0
141
0.0
142
1.0
143
1.0
70
0
72
0
73
0
74
0
7

75
0
147
1.0
148
0.0
149
0.0
100
AcDbLayout
1
Model
70
0
71
0
10
0.0
20
0.0
11
0.0
21
0.0
12
0.0
22
0.0
32
0.0
14
0.0
24
0.0
34
0.0
15
0.0
25
0.0
35
0.0
146
0.0
13
0.0
23
0.0
33
0.0
16
0.0
26
0.0
36
0.0
17
0.0
27
0.0
37
0.0
76
0
330
1F
331
0
345
0
346
0
0
ENDSEC
0
EOF
