0
SECTION
2
HEADER
9
$ACADVER
1
AC1015
9
$DWGCODEPAGE
3
ANSI_1252
9
$EXTMAX
10
558.8000000000
20
431.8000000000
30
0.0000000000
9
$EXTMIN
10
0.0000000000
20
0.0000000000
30
0.0000000000
9
$LIMMIN
10
0.0000000000
20
0.0000000000
9
$LIMMAX
10
558.8000000000
20
431.8000000000
9
$VIEWCTR
10
279.4000000000
20
215.9000000000
9
$VIEWSIZE
40
431.8000000000
9
$CLAYER
8
0
9
$LTSCALE
40
30.7340000000
9
$CELTYPE
6
BYLAYER
9
$DIMSCALE
40
1
9
$DIMASZ
40
3.0000000000
9
$DIMEXO
40
3.4925000000
9
$DIMDLI
40
21.2344000000
9
$DIMEXE
40
10.0584000000
9
$DIMCEN
40
5.0292000000
9
$DIMLFAC
40
1.0000000000
9
$DIMBLK
1
_FILLED
9
$DIMTXT
40
3.0000000000
9
$DIMTOL
70
1
9
$DIMLIM
70
0
9
$DIMTFAC
40
1.0000000000
9
$DIMTP
40
0.0100000000
9
$DIMTM
40
0.0100000000
9
$PDMODE
70
3
9
$PDSIZE
40
3.0000000000
9
$HANDSEED
5
288
9
$MEASUREMENT
70
1
9
$INSUNITS
70
4
0
ENDSEC
0
SECTION
2
CLASSES
0
CLASS
1
ACDBDICTIONARYWDFLT
2
AcDbDictionaryWithDefault
3
AutoCAD 2000
90
0
280
0
281
0
0
CLASS
1
ACDBPLACEHOLDER
2
AcDbPlaceHolder
3
AutoCAD 2000
90
0
280
0
281
0
0
CLASS
1
LAYOUT
2
AcDbLayout
3
AutoCAD 2000
90
0
280
0
281
0
0
ENDSEC
0
SECTION
2
TABLES
0
TABLE
2
VPORT
5
8
100
AcDbSymbolTable
70
2
0
VPORT
5
1F4
100
AcDbSymbolTableRecord
100
AcDbViewportTableRecord
2
*ACTIVE
70
0
10
0.0
20
0.0
11
1.0
21
1.0
12
279.4000000000
22
215.9000000000
13
0.0
23
0.0
14
1.0
24
1.0
15
0.0
25
0.0
16
0.0
26
0.0
36
1.0
17
0.0
27
0.0
37
0.0
40
431.8000000000
41
1.2941176471
42
50.0
43
0.0
44
0.0
50
0.0
51
0.0
71
0
72
100
73
1
74
1
75
0
76
0
77
0
78
0
0
ENDTAB
0
TABLE
2
LTYPE
5
5
100
AcDbSymbolTable
70
6
0
LTYPE
5
14
100
AcDbSymbolTableRecord
100
AcDbLinetypeTableRecord
2
BYBLOCK
70
0
3

72
65
73
0
40
0.0
0
LTYPE
5
15
100
AcDbSymbolTableRecord
100
AcDbLinetypeTableRecord
2
BYLAYER
70
0
3

72
65
73
0
40
0.0
0
LTYPE
5
16
100
AcDbSymbolTableRecord
100
AcDbLinetypeTableRecord
2
CONTINUOUS
70
64
3
Solid line
72
65
73
0
40
0
0
LTYPE
5
1F5
100
AcDbSymbolTableRecord
100
AcDbLinetypeTableRecord
2
CENTER
70
64
3
____ _ ____ _ ____ _ ____ _ ____ _ ____ _ ____
72
65
73
4
40
0.6
49
0.375
74
0
49
-0.075
74
0
49
0.075
74
0
49
-0.075
74
0
0
LTYPE
5
1F6
100
AcDbSymbolTableRecord
100
AcDbLinetypeTableRecord
2
HIDDEN
70
64
3
- - - - - - - - - - - - - - - - - - - -
72
65
73
2
40
0.2
49
0.1
74
0
49
-0.1
74
0
0
LTYPE
5
1F7
100
AcDbSymbolTableRecord
100
AcDbLinetypeTableRecord
2
PHANTOM
70
64
3
_____ _ _ _____ _ _ _____ _ _ _____
72
65
73
6
40
0.8
49
0.45
74
0
49
-0.05
74
0
49
0.1
74
0
49
-0.05
74
0
49
0.1
74
0
49
-0.05
74
0
0
LTYPE
5
1F8
100
AcDbSymbolTableRecord
100
AcDbLinetypeTableRecord
2
DOT
70
64
3
. . . . . . . . . . . . . . . . . . . .
72
65
73
2
40
0.2
49
0.1
74
0
49
-0.1
74
0
0
LTYPE
5
1F9
100
AcDbSymbolTableRecord
100
AcDbLinetypeTableRecord
2
DASHED
70
64
3
- - - - - - - - - - - - - - - - - - - -
72
65
73
2
40
0.2
49
0.1
74
0
49
-0.1
74
0
0
ENDTAB
0
TABLE
2
LAYER
5
2
100
AcDbSymbolTable
70
36
0
LAYER
5
10
100
AcDbSymbolTableRecord
100
AcDbLayerTableRecord
2
0
70
0
62
7
6
CONTINUOUS
370
-3
390
F
0
LAYER
5
1FA
100
AcDbSymbolTableRecord
100
AcDbLayerTableRecord
2
DEFAULT_1
70
0
62
7
6
CENTER
370
-3
390
F
0
LAYER
5
1FB
100
AcDbSymbolTableRecord
100
AcDbLayerTableRecord
2
DEFAULT_2
70
0
62
0
6
HIDDEN
370
-3
390
F
0
LAYER
5
1FC
100
AcDbSymbolTableRecord
100
AcDbLayerTableRecord
2
DEFAULT_3
70
0
62
7
6
PHANTOM
370
-3
390
F
0
LAYER
5
1FD
100
AcDbSymbolTableRecord
100
AcDbLayerTableRecord
2
ASSI
70
0
62
7
6
CONTINUOUS
370
-3
390
F
0
LAYER
5
1FE
100
AcDbSymbolTableRecord
100
AcDbLayerTableRecord
2
COORDINATE
70
0
62
7
6
CONTINUOUS
370
-3
390
F
0
LAYER
5
1FF
100
AcDbSymbolTableRecord
100
AcDbLayerTableRecord
2
COORD_ORIGINE
70
0
62
7
6
CONTINUOUS
370
-3
390
F
0
LAYER
5
200
100
AcDbSymbolTableRecord
100
AcDbLayerTableRecord
2
CURVE
70
0
62
7
6
CONTINUOUS
370
-3
390
F
0
LAYER
5
201
100
AcDbSymbolTableRecord
100
AcDbLayerTableRecord
2
CURVE_LED_TASTO
70
0
62
7
6
CONTINUOUS
370
-3
390
F
0
LAYER
5
202
100
AcDbSymbolTableRecord
100
AcDbLayerTableRecord
2
DRAFT
70
0
62
7
6
CONTINUOUS
370
-3
390
F
0
LAYER
5
203
100
AcDbSymbolTableRecord
100
AcDbLayerTableRecord
2
PIANI
70
0
62
7
6
CONTINUOUS
370
-3
390
F
0
LAYER
5
204
100
AcDbSymbolTableRecord
100
AcDbLayerTableRecord
2
PIANI_ORIGINE
70
0
62
7
6
CONTINUOUS
370
-3
390
F
0
LAYER
5
205
100
AcDbSymbolTableRecord
100
AcDbLayerTableRecord
2
PIANI_RIFERIMENTO
70
0
62
7
6
CONTINUOUS
370
-3
390
F
0
LAYER
5
206
100
AcDbSymbolTableRecord
100
AcDbLayerTableRecord
2
PUNTI
70
0
62
7
6
CONTINUOUS
370
-3
390
F
0
LAYER
5
207
100
AcDbSymbolTableRecord
100
AcDbLayerTableRecord
2
RACCORDO
70
0
62
7
6
CONTINUOUS
370
-3
390
F
0
LAYER
5
208
100
AcDbSymbolTableRecord
100
AcDbLayerTableRecord
2
SCRITTE
70
0
62
7
6
CONTINUOUS
370
-3
390
F
0
LAYER
5
209
100
AcDbSymbolTableRecord
100
AcDbLayerTableRecord
2
SUPERFICI
70
0
62
7
6
CONTINUOUS
370
-3
390
F
0
LAYER
5
20A
100
AcDbSymbolTableRecord
100
AcDbLayerTableRecord
2
TRASH
70
0
62
7
6
CONTINUOUS
370
-3
390
F
0
ENDTAB
0
TABLE
2
STYLE
5
3
100
AcDbSymbolTable
70
1
0
STYLE
5
11
100
AcDbSymbolTableRecord
100
AcDbTextStyleTableRecord
2
STANDARD
70
0
40
0.0
41
0.8000000000
50
0.0
71
0
42
0.2
3
txt
4

0
ENDTAB
0
TABLE
2
VIEW
5
6
100
AcDbSymbolTable
70
0
0
ENDTAB
0
TABLE
2
UCS
5
7
100
AcDbSymbolTable
70
0
0
ENDTAB
0
TABLE
2
APPID
5
9
100
AcDbSymbolTable
70
1
0
APPID
5
20B
100
AcDbSymbolTableRecord
100
AcDbRegAppTableRecord
2
ACAD
70
0
0
ENDTAB
0
TABLE
2
BLOCK_RECORD
5
1
100
AcDbSymbolTable
70
0
0
BLOCK_RECORD
5
1F
100
AcDbSymbolTableRecord
100
AcDbBlockTableRecord
2
*MODEL_SPACE
0
BLOCK_RECORD
5
1B
100
AcDbSymbolTableRecord
100
AcDbBlockTableRecord
2
*PAPER_SPACE
0
ENDTAB
0
TABLE
2
DIMSTYLE
5
A
100
AcDbSymbolTable
70
1
100
AcDbDimStyleTable
71
0
0
DIMSTYLE
105
20C
100
AcDbSymbolTableRecord
100
AcDbDimStyleTableRecord
2
STANDARD
70
0
3

4

40
1.0
41
3.0000000000
42
0.0625
43
0.38
44
0.18
45
0.0
46
0.0
47
0.0100000000
48
0.0100000000
140
3.0000000000
141
0.09
142
0.0
143
25.4
144
1.0000000000
145
0.0
146
1.0000000000
147
0.09
71
1
72
0
73
0
74
0
75
0
76
0
77
1
78
8
170
0
171
2
172
0
173
0
174
0
175
0
176
0
177
0
178
0
270
2
271
2
272
2
273
2
274
2
275
0
280
0
281
0
282
0
283
1
284
8
285
0
286
0
287
3
288
0
340
11
0
ENDTAB
0
ENDSEC
0
SECTION
2
BLOCKS
0
BLOCK
5
20
100
AcDbEntity
8
0
100
AcDbBlockBegin
2
*MODEL_SPACE
70
0
10
0.0
20
0.0
30
0.0
3
*MODEL_SPACE
1

0
ENDBLK
5
21
100
AcDbEntity
8
0
100
AcDbBlockEnd
0
BLOCK
5
1C
100
AcDbEntity
8
0
100
AcDbBlockBegin
2
*PAPER_SPACE
70
0
10
0.0
20
0.0
30
0.0
3
*PAPER_SPACE
1

0
ENDBLK
5
1D
100
AcDbEntity
8
0
100
AcDbBlockEnd
0
ENDSEC
0
SECTION
2
ENTITIES
0
LWPOLYLINE
5
20D
100
AcDbEntity
8
0
100
AcDbPolyline
62
0
6
CONTINUOUS
90
38
70
0
10
-19.2931527941
20
22.0493874475
10
-19.3139904335
20
22.0311405501
10
-19.3344678395
20
22.0122994293
10
-19.3545705994
20
21.9928890026
10
-19.3742928931
20
21.9729266653
10
-19.3936277426
20
21.9524302531
10
-19.4125574464
20
21.9314288437
10
-19.4310754177
20
21.9099408597
10
-19.4491751939
20
21.8879835345
10
-19.4668392341
20
21.8655880977
10
-19.4840590468
20
21.8427759224
10
-19.5008301387
20
21.8195620938
10
-19.5171411647
20
21.7959716747
10
-19.5329825411
20
21.7720275857
10
-19.5483507532
20
21.7477431681
10
-19.5632428838
20
21.7231303469
10
-19.5776513023
20
21.6982070780
10
-19.5915690722
20
21.6729903411
10
-19.6049926568
20
21.6474903186
10
-19.6179139596
20
21.6217239641
10
-19.6303251922
20
21.5957083861
10
-19.6422214327
20
21.5694532221
10
-19.6535941108
20
21.5429748377
10
-19.6644345641
20
21.5162903386
10
-19.6747362686
20
21.4894095628
10
-19.6844910931
20
21.4623458117
10
-19.6936883234
20
21.4351188268
10
-19.7023174362
20
21.4077471723
10
-19.7103696254
20
21.3802451104
10
-19.7178341386
20
21.3526313770
10
-19.7246990760
20
21.3249299451
10
-19.7309549332
20
21.2971567695
10
-19.7365913302
20
21.2693285619
10
-19.7415970298
20
21.2414685932
10
-19.7459618913
20
21.2135936144
10
-19.7496753685
20
21.1857194641
10
-19.7527266224
20
21.1578649832
10
-19.7551045237
20
21.1300459229
0
LWPOLYLINE
5
20E
100
AcDbEntity
8
0
100
AcDbPolyline
62
0
6
CONTINUOUS
90
14
70
0
10
-19.2340920422
20
22.0963189919
10
-19.2980290236
20
22.0451990806
10
-19.3603375619
20
21.9871478899
10
-19.4191772558
20
21.9238571377
10
-19.4743279416
20
21.8557900782
10
-19.5254510313
20
21.7835435927
10
-19.5722965584
20
21.7076037786
10
-19.6145969288
20
21.6284604746
10
-19.6519696900
20
21.5468467633
10
-19.6841661932
20
21.4632754268
10
-19.7109275126
20
21.3782579453
10
-19.7319403928
20
21.2925089692
10
-19.7469618447
20
21.2065509916
10
-19.7557446427
20
21.1207955026
0
LWPOLYLINE
5
20F
100
AcDbEntity
8
0
100
AcDbPolyline
62
0
6
CONTINUOUS
90
4
70
0
10
-19.2342719495
20
22.0961866826
10
-19.2504253511
20
22.0840240670
10
-19.2719628486
20
22.0670207875
10
-19.2931527941
20
22.0493874475
0
LINE
5
210
100
AcDbEntity
8
0
100
AcDbLine
62
0
6
CONTINUOUS
10
-19.2342744455
20
22.0961848795
11
-15.0331271582
21
25.1947713377
0
LINE
5
211
100
AcDbEntity
8
0
100
AcDbLine
62
0
6
CONTINUOUS
10
-19.0930391974
20
22.0921929937
11
-14.8838725370
21
25.1966941982
0
LINE
5
212
100
AcDbEntity
8
0
100
AcDbLine
62
0
6
CONTINUOUS
10
15.6520952550
20
-25.0108316689
11
19.9771024425
21
-23.8405120922
0
LINE
5
213
100
AcDbEntity
8
0
100
AcDbLine
62
0
6
CONTINUOUS
10
19.8770902925
20
-24.0140718606
11
15.5216755964
21
-25.1926189308
0
LWPOLYLINE
5
214
100
AcDbEntity
8
0
100
AcDbPolyline
62
0
6
CONTINUOUS
90
3
70
0
10
-19.7575783207
20
-7.2966184548
10
-19.7519359436
20
-7.3755383567
10
-19.7398196732
20
-7.4526981823
0
LWPOLYLINE
5
215
100
AcDbEntity
8
0
100
AcDbPolyline
62
0
6
CONTINUOUS
90
4
70
0
10
-19.7575767148
20
-7.2966700436
10
-19.7568318344
20
-7.3150381189
10
-19.7552577870
20
-7.3402250241
10
-19.7530544369
20
-7.3651216627
0
LINE
5
216
100
AcDbEntity
8
0
100
AcDbLine
62
0
6
CONTINUOUS
10
-19.8426480460
20
-4.2567820537
11
-19.7575767082
21
-7.2966712180
0
LWPOLYLINE
5
217
100
AcDbEntity
8
0
100
AcDbPolyline
62
0
6
CONTINUOUS
90
4
70
0
10
-19.8534854596
20
-3.8055074705
10
-19.8244919710
20
-4.9733032916
10
-19.7924476563
20
-6.1394002756
10
-19.7575767085
20
-7.2966712085
0
LWPOLYLINE
5
218
100
AcDbEntity
8
0
100
AcDbPolyline
62
0
6
CONTINUOUS
90
20
70
0
10
-19.8245130661
20
18.6892140695
10
-19.8535036612
20
17.4914494662
10
-19.8794433375
20
16.2951533214
10
-19.9023318419
20
15.1003377429
10
-19.9221689512
20
13.9070141962
10
-19.9389544449
20
12.7151946644
10
-19.9526881534
20
11.5248914742
10
-19.9633699228
20
10.3361166096
10
-19.9709996105
20
9.1488822624
10
-19.9755771373
20
7.9632008803
10
-19.9771024424
20
6.7790848323
10
-19.9755754814
20
5.5965463353
10
-19.9709962713
20
4.4155975741
10
-19.9633648452
20
3.2362508676
10
-19.9526812550
20
2.0585185960
10
-19.9389456159
20
0.8824128175
10
-19.9221580541
20
-0.2920546319
10
-19.9023187117
20
-1.4648715877
10
-19.8794277817
20
-2.6360262821
10
-19.8534854596
20
-3.8055074705
0
LWPOLYLINE
5
219
100
AcDbEntity
8
0
100
AcDbPolyline
62
0
6
CONTINUOUS
90
9
70
0
10
-19.7575859124
20
21.0823557556
10
-19.8428266342
20
17.9472636841
10
-19.9086094376
20
14.7418299571
10
-19.9524592336
20
11.5471459515
10
-19.9743725723
20
8.3634482442
10
-19.9743475856
20
5.1909731070
10
-19.9523840105
20
2.0299535015
10
-19.9084831896
20
-1.1193759720
10
-19.8426480460
20
-4.2567820537
0
LWPOLYLINE
5
21A
100
AcDbEntity
8
0
100
AcDbPolyline
62
0
6
CONTINUOUS
90
3
70
0
10
-19.7575859127
20
21.0823557482
10
-19.7924719199
20
19.8884332991
10
-19.8245130661
20
18.6892140695
0
LINE
5
21B
100
AcDbEntity
8
0
100
AcDbLine
62
0
6
CONTINUOUS
10
-19.7557446427
20
21.1207955026
11
-19.7575893595
21
21.0822376445
0
LWPOLYLINE
5
21C
100
AcDbEntity
8
0
100
AcDbPolyline
62
0
6
CONTINUOUS
90
3
70
0
10
-19.7551045237
20
21.1300459229
10
-19.7567978545
20
21.1022790955
10
-19.7575859489
20
21.0823529749
0
LWPOLYLINE
5
21D
100
AcDbEntity
8
0
100
AcDbPolyline
62
0
6
CONTINUOUS
90
20
70
0
10
15.1437490919
20
-25.1831208484
10
15.1620333729
20
-25.1892449661
10
15.1805928216
20
-25.1947797032
10
15.1994116700
20
-25.1997152992
10
15.2184906878
20
-25.2040462097
10
15.2378147349
20
-25.2077624944
10
15.2573685766
20
-25.2108551011
10
15.2771542525
20
-25.2133178912
10
15.2971570036
20
-25.2151417493
10
15.3173616401
20
-25.2163180187
10
15.3377711973
20
-25.2168391348
10
15.3583717478
20
-25.2166965164
10
15.3791479875
20
-25.2158819697
10
15.4001026692
20
-25.2143862167
10
15.4212218389
20
-25.2122006535
10
15.4424921762
20
-25.2093171416
10
15.4639194713
20
-25.2057241920
10
15.4854970198
20
-25.2014110664
10
15.5072036716
20
-25.1963705680
10
15.5220520263
20
-25.1925175935
0
LWPOLYLINE
5
21E
100
AcDbEntity
8
0
100
AcDbPolyline
62
0
6
CONTINUOUS
90
10
70
0
10
-19.7398196732
20
-7.4526981823
10
-19.7213148977
20
-7.5263156303
10
-19.6965266913
20
-7.5958602312
10
-19.6658518403
20
-7.6604040685
10
-19.6297640362
20
-7.7193897742
10
-19.5885186376
20
-7.7727608913
10
-19.5424705248
20
-7.8202671942
10
-19.4921777533
20
-7.8615216178
10
-19.4382332406
20
-7.8962470941
10
-19.4138303619
20
-7.9092409802
0
LWPOLYLINE
5
21F
100
AcDbEntity
8
0
100
AcDbPolyline
62
0
6
CONTINUOUS
90
32
70
0
10
-19.7530544369
20
-7.3651216627
10
-19.7502206767
20
-7.3897312939
10
-19.7467586694
20
-7.4140291935
10
-19.7426770286
20
-7.4379620869
10
-19.7379793093
20
-7.4615225634
10
-19.7326696155
20
-7.4847013645
10
-19.7267638139
20
-7.5074449893
10
-19.7202689765
20
-7.5297463583
10
-19.7131928184
20
-7.5515978803
10
-19.7055594351
20
-7.5729477008
10
-19.6973813158
20
-7.5937871364
10
-19.6886694185
20
-7.6141133221
10
-19.6794528994
20
-7.6338852220
10
-19.6697549245
20
-7.6530837111
10
-19.6595845686
20
-7.6717200995
10
-19.6489533262
20
-7.6897986528
10
-19.6378804078
20
-7.7073098379
10
-19.6263793853
20
-7.7242541370
10
-19.6144523843
20
-7.7406475070
10
-19.6021150823
20
-7.7564845315
10
-19.5893839694
20
-7.7717593504
10
-19.5762607161
20
-7.7864832990
10
-19.5627620588
20
-7.8006495587
10
-19.5489041323
20
-7.8142527908
10
-19.5346863669
20
-7.8273030616
10
-19.5201256868
20
-7.8397929222
10
-19.5052384229
20
-7.8517168871
10
-19.4900214120
20
-7.8630842004
10
-19.4744907704
20
-7.8738878290
10
-19.4586636077
20
-7.8841211138
10
-19.4425366743
20
-7.8937905179
10
-19.4261196104
20
-7.9028928297
0
LINE
5
220
100
AcDbEntity
8
0
100
AcDbLine
62
0
6
CONTINUOUS
10
15.1257543320
20
-25.1764178143
11
15.1437490919
21
-25.1831208484
0
LWPOLYLINE
5
221
100
AcDbEntity
8
0
100
AcDbPolyline
62
0
6
CONTINUOUS
90
3
70
0
10
15.0906378537
20
-25.1612964992
10
15.1080474054
20
-25.1691403809
10
15.1257543320
20
-25.1764178143
0
LWPOLYLINE
5
222
100
AcDbEntity
8
0
100
AcDbPolyline
62
0
6
CONTINUOUS
90
8
70
0
10
15.0768820783
20
-25.1545927832
10
15.0948858035
20
-25.1632740368
10
15.1601660773
20
-25.1886505105
10
15.2295201442
20
-25.2062486197
10
15.3020366103
20
-25.2154866501
10
15.3764615146
20
-25.2160249178
10
15.4519599045
20
-25.2078141980
10
15.5216755805
20
-25.1926188715
0
LINE
5
223
100
AcDbEntity
8
0
100
AcDbLine
62
0
6
CONTINUOUS
10
-19.6696993469
20
-7.4032425912
11
14.8159350444
21
-24.6460597868
0
LINE
5
224
100
AcDbEntity
8
0
100
AcDbLine
62
0
6
CONTINUOUS
10
15.0784718460
20
-25.1553923036
11
-19.4138319554
21
-7.9092401936
0
LINE
5
225
100
AcDbEntity
8
0
100
AcDbLine
62
0
6
CONTINUOUS
10
-19.4261196104
20
-7.9028928297
11
-19.4134617353
21
-7.9094255021
0
LINE
5
226
100
AcDbEntity
8
CURVE
100
AcDbLine
6
CONTINUOUS
10
-4.2411279503
20
-10.8305585557
11
-4.8350976524
21
-10.5335737047
0
LINE
5
227
100
AcDbEntity
8
CURVE
100
AcDbLine
6
CONTINUOUS
10
-3.0874726766
20
-9.7096193554
11
-1.8995331898
21
-10.3035890988
0
LINE
5
228
100
AcDbEntity
8
CURVE
100
AcDbLine
6
CONTINUOUS
10
-1.1075736421
20
-10.6995688727
11
0.0803658447
21
-11.2935386161
0
LINE
5
229
100
AcDbEntity
8
CURVE
100
AcDbLine
6
CONTINUOUS
10
-4.8907240384
20
-7.5302979844
11
-4.2967543363
21
-7.8272828354
0
LINE
5
22A
100
AcDbEntity
8
CURVE
100
AcDbLine
6
CONTINUOUS
10
-3.1088150147
20
-8.4212524962
11
-1.9208755279
21
-9.0152222396
0
LINE
5
22B
100
AcDbEntity
8
CURVE
100
AcDbLine
6
CONTINUOUS
10
-1.1289159802
20
-9.4112020135
11
0.0590235066
21
-10.0051717569
0
LINE
5
22C
100
AcDbEntity
8
0
100
AcDbLine
62
0
6
CONTINUOUS
10
-2.7358796543
20
-0.6193119599
11
-2.6512099609
21
-0.5769771133
0
LINE
5
22D
100
AcDbEntity
8
0
100
AcDbLine
62
0
6
CONTINUOUS
10
-1.6402063453
20
-2.8106585779
11
-1.5555367855
21
-2.7683237980
0
LINE
5
22E
100
AcDbEntity
8
CURVE
100
AcDbLine
6
CONTINUOUS
10
-3.3775155208
20
5.2230940558
11
-3.9714852229
21
5.5200789069
0
LINE
5
22F
100
AcDbEntity
8
0
100
AcDbLine
62
0
6
CONTINUOUS
10
19.7655810752
20
7.8719673921
11
15.4068614027
21
4.8422426937
0
LINE
5
230
100
AcDbEntity
8
0
100
AcDbLine
62
0
6
CONTINUOUS
10
19.9771024425
20
7.5031906498
11
15.6520952550
21
4.4968993346
0
LINE
5
231
100
AcDbEntity
8
CURVE
100
AcDbLine
6
CONTINUOUS
10
-3.9158588369
20
8.5789810131
11
-3.3218891348
21
8.2819961621
0
LINE
5
232
100
AcDbEntity
8
0
100
AcDbLine
62
0
6
CONTINUOUS
10
-19.6696993469
20
20.9772500975
11
14.8159350444
21
3.7344329019
0
LINE
5
233
100
AcDbEntity
8
0
100
AcDbLine
62
0
6
CONTINUOUS
10
-19.0930391974
20
22.0921929937
11
15.4068614027
21
4.8422426937
0
LINE
5
234
100
AcDbEntity
8
0
100
AcDbLine
62
0
6
CONTINUOUS
10
19.7655810752
20
7.8719673921
11
-14.8838725370
21
25.1966941982
0
LINE
5
235
100
AcDbEntity
8
0
100
AcDbLine
62
0
6
CONTINUOUS
10
19.9771024425
20
7.5031906498
11
19.9771024425
21
-23.8405120922
0
SPLINE
5
236
100
AcDbEntity
8
0
100
AcDbSpline
62
0
6
CONTINUOUS
70
0
71
3
72
8
73
4
74
2
42
0.0000001000
43
0.0000001000
44
0.0000000001
12
-0.0880173021
22
-0.0440086510
32
0.0000000000
13
-0.0944562500
23
-0.0288203622
33
0.0000000000
40
0.0000000000
40
0.0000000000
40
0.0000000000
40
0.0000000000
40
1.0000000000
40
1.0000000000
40
1.0000000000
40
1.0000000000
10
-1.6402063326
20
-2.8106585715
30
0.0000000000
10
-1.6695454333
20
-2.8253281219
30
0.0000000000
10
-1.7002256099
20
-2.8375264948
30
0.0000000000
10
-1.7317110266
20
-2.8471332822
30
0.0000000000
11
-1.6402063326
21
-2.8106585715
31
0.0000000000
11
-1.7317110266
21
-2.8471332822
31
0.0000000000
0
SPLINE
5
237
100
AcDbEntity
8
0
100
AcDbSpline
62
0
6
CONTINUOUS
70
0
71
3
72
11
73
7
74
5
42
0.0000001000
43
0.0000001000
44
0.0000000001
12
-0.5394789979
22
-0.1646050961
32
0.0000000000
13
-0.5027034836
23
0.2513517418
33
0.0000000000
40
0.0000000000
40
0.0000000000
40
0.0000000000
40
0.0000000000
40
0.0892212629
40
0.3671962248
40
0.6694772325
40
1.0000000000
40
1.0000000000
40
1.0000000000
40
1.0000000000
10
-1.7317110266
20
-2.8471332822
30
0.0000000000
10
-1.7477553591
20
-2.8520287070
30
0.0000000000
10
-1.8146474665
20
-2.8694065461
30
0.0000000000
10
-1.9408737189
20
-2.8798160396
30
0.0000000000
10
-2.1108557763
20
-2.8528712018
30
0.0000000000
10
-2.2221007240
20
-2.8092392308
30
0.0000000000
10
-2.2774857062
20
-2.7815467396
30
0.0000000000
11
-1.7317110266
21
-2.8471332822
31
0.0000000000
11
-1.7804004143
21
-2.8597847406
31
0.0000000000
11
-1.9360365020
21
-2.8734279425
31
0.0000000000
11
-2.1040201221
21
-2.8480224796
31
0.0000000000
11
-2.2774857062
21
-2.7815467396
31
0.0000000000
0
SPLINE
5
238
100
AcDbEntity
8
0
100
AcDbSpline
62
0
6
CONTINUOUS
70
0
71
3
72
19
73
15
74
13
42
0.0000001000
43
0.0000001000
44
0.0000000001
12
-2.1887593801
22
1.0943796900
32
0.0000000000
13
1.8503277559
23
1.6133349320
33
0.0000000000
40
0.0000000000
40
0.0000000000
40
0.0000000000
40
0.0000000000
40
0.0819421360
40
0.1689308428
40
0.2592380105
40
0.3512445928
40
0.4438148780
40
0.5354834059
40
0.6248978875
40
0.7108486177
40
0.7920796060
40
0.8674322556
40
0.9359271922
40
1.0000000000
40
1.0000000000
40
1.0000000000
40
1.0000000000
10
-2.2774857062
20
-2.7815467396
30
0.0000000000
10
-2.3372695791
20
-2.7516548032
30
0.0000000000
10
-2.4546827270
20
-2.6779332256
30
0.0000000000
10
-2.6140108977
20
-2.5377985000
30
0.0000000000
10
-2.7575059760
20
-2.3705977582
30
0.0000000000
10
-2.8810805191
20
-2.1828270570
30
0.0000000000
10
-2.9816088353
20
-1.9805535151
30
0.0000000000
10
-3.0563342633
20
-1.7696160792
30
0.0000000000
10
-3.1026669431
20
-1.5561324234
30
0.0000000000
10
-3.1182674846
20
-1.3466384215
30
0.0000000000
10
-3.1013734212
20
-1.1485447270
30
0.0000000000
10
-3.0518760693
20
-0.9704609236
30
0.0000000000
10
-2.9720644444
20
-0.8191562555
30
0.0000000000
10
-2.8997937509
20
-0.7372999562
30
0.0000000000
10
-2.8602751860
20
-0.7028429899
30
0.0000000000
11
-2.2774857062
21
-2.7815467396
31
0.0000000000
11
-2.4479781201
21
-2.6759953740
31
0.0000000000
11
-2.6084817395
21
-2.5361650275
31
0.0000000000
11
-2.7528747506
21
-2.3688693936
31
0.0000000000
11
-2.8768993206
21
-2.1809587166
31
0.0000000000
11
-2.9777117133
21
-1.9780980667
31
0.0000000000
11
-3.0523298288
21
-1.7665494328
31
0.0000000000
11
-3.0981294220
21
-1.5525895544
31
0.0000000000
11
-3.1127898371
21
-1.3427704385
31
0.0000000000
11
-3.0946321717
21
-1.1448205317
31
0.0000000000
11
-3.0438966548
21
-0.9675416515
31
0.0000000000
11
-2.9646584582
21
-0.8198395288
31
0.0000000000
11
-2.8602751860
21
-0.7028429899
31
0.0000000000
0
SPLINE
5
239
100
AcDbEntity
8
0
100
AcDbSpline
62
0
6
CONTINUOUS
70
0
71
3
72
8
73
4
74
2
42
0.0000001000
43
0.0000001000
44
0.0000000001
12
0.0726165102
22
0.0633156760
32
0.0000000000
13
0.0817814414
23
0.0508222288
33
0.0000000000
40
0.0000000000
40
0.0000000000
40
0.0000000000
40
0.0000000000
40
1.0000000000
40
1.0000000000
40
1.0000000000
40
1.0000000000
10
-2.8602751860
20
-0.7028429899
30
0.0000000000
10
-2.8360696826
20
-0.6817377646
30
0.0000000000
10
-2.8101426817
20
-0.6625481185
30
0.0000000000
10
-2.7828822012
20
-0.6456073756
30
0.0000000000
11
-2.8602751860
21
-0.7028429899
31
0.0000000000
11
-2.7828822012
21
-0.6456073756
31
0.0000000000
0
SPLINE
5
23A
100
AcDbEntity
8
0
100
AcDbSpline
62
0
6
CONTINUOUS
70
0
71
3
72
8
73
4
74
2
42
0.0000001000
43
0.0000001000
44
0.0000000001
12
0.0036902994
22
0.0022932983
32
0.0000000000
13
0.0037064836
23
0.0022657316
33
0.0000000000
40
0.0000000000
40
0.0000000000
40
0.0000000000
40
0.0000000000
40
1.0000000000
40
1.0000000000
40
1.0000000000
40
1.0000000000
10
-2.7828822012
20
-0.6456073756
30
0.0000000000
10
-2.7816521014
20
-0.6448429428
30
0.0000000000
10
-2.7804192865
20
-0.6440830892
30
0.0000000000
10
-2.7791837919
20
-0.6433278454
30
0.0000000000
11
-2.7828822012
21
-0.6456073756
31
0.0000000000
11
-2.7791837919
21
-0.6433278454
31
0.0000000000
0
SPLINE
5
23B
100
AcDbEntity
8
0
100
AcDbSpline
62
0
6
CONTINUOUS
70
0
71
3
72
8
73
4
74
2
42
0.0000001000
43
0.0000001000
44
0.0000000001
12
0.0423097190
22
0.0258634533
32
0.0000000000
13
0.0442455536
23
0.0221227768
33
0.0000000000
40
0.0000000000
40
0.0000000000
40
0.0000000000
40
0.0000000000
40
1.0000000000
40
1.0000000000
40
1.0000000000
40
1.0000000000
10
-2.7791837919
20
-0.6433278454
30
0.0000000000
10
-2.7650805523
20
-0.6347066942
30
0.0000000000
10
-2.7506281594
20
-0.6266862125
30
0.0000000000
10
-2.7358796416
20
-0.6193119536
30
0.0000000000
11
-2.7791837919
21
-0.6433278454
31
0.0000000000
11
-2.7358796416
21
-0.6193119536
31
0.0000000000
0
SPLINE
5
23C
100
AcDbEntity
8
0
100
AcDbSpline
62
0
6
CONTINUOUS
70
0
71
3
72
10
73
6
74
4
42
0.0000001000
43
0.0000001000
44
0.0000000001
12
0.1598742593
22
0.0799334232
32
0.0000000000
13
0.1198233755
23
0.1326712733
33
0.0000000000
40
0.0000000000
40
0.0000000000
40
0.0000000000
40
0.0000000000
40
0.2528417102
40
0.8257992762
40
1.0000000000
40
1.0000000000
40
1.0000000000
40
1.0000000000
10
-1.6402089145
20
-2.8106534393
30
0.0000000000
10
-1.6267346207
20
-2.8039166048
30
0.0000000000
10
-1.5838002695
20
-2.7797579318
30
0.0000000000
10
-1.5369190945
20
-2.7423920415
30
0.0000000000
10
-1.5060952817
20
-2.7102416661
30
0.0000000000
10
-1.4991375088
20
-2.7025378555
30
0.0000000000
11
-1.6402089145
21
-2.8106534393
31
0.0000000000
11
-1.6008390945
21
-2.7884949789
31
0.0000000000
11
-1.5206970076
21
-2.7250033957
31
0.0000000000
11
-1.4991375088
21
-2.7025378555
31
0.0000000000
0
SPLINE
5
23D
100
AcDbEntity
8
0
100
AcDbSpline
62
0
6
CONTINUOUS
70
0
71
3
72
34
73
30
74
28
42
0.0000001000
43
0.0000001000
44
0.0000000001
12
-2.4019410392
22
1.2009705196
32
0.0000000000
13
2.4019410392
23
-1.2009705196
33
0.0000000000
40
0.0000000000
40
0.0000000000
40
0.0000000000
40
0.0000000000
40
0.0153048713
40
0.0330120699
40
0.0524794339
40
0.0731906623
40
0.0947523826
40
0.1171265012
40
0.1408256747
40
0.1666059006
40
0.1952732319
40
0.2277807780
40
0.2655724095
40
0.3102622078
40
0.3622426319
40
0.4204942870
40
0.4834030765
40
0.5495979157
40
0.6174538869
40
0.6816012299
40
0.7380531490
40
0.7879082868
40
0.8312708033
40
0.8691003455
40
0.9026576497
40
0.9325675621
40
0.9588414530
40
0.9813767194
40
1.0000000000
40
1.0000000000
40
1.0000000000
40
1.0000000000
10
-2.3286886801
20
-0.8795162326
30
0.0000000000
10
-2.3409424796
20
-0.8733893329
30
0.0000000000
10
-2.3677000328
20
-0.8608147984
30
0.0000000000
10
-2.4113062054
20
-0.8432589756
30
0.0000000000
10
-2.4606537018
20
-0.8272883650
30
0.0000000000
10
-2.5145476752
20
-0.8147067323
30
0.0000000000
10
-2.5720303116
20
-0.8071446226
30
0.0000000000
10
-2.6327202492
20
-0.8061836299
30
0.0000000000
10
-2.6968114269
20
-0.8138323760
30
0.0000000000
10
-2.7644154169
20
-0.8331030522
30
0.0000000000
10
-2.8344932950
20
-0.8681406835
30
0.0000000000
10
-2.9043143112
20
-0.9237905709
30
0.0000000000
10
-2.9692930369
20
-1.0047048201
30
0.0000000000
10
-3.0230080354
20
-1.1134164119
30
0.0000000000
10
-3.0588210855
20
-1.2482327369
30
0.0000000000
10
-3.0722406175
20
-1.4033083004
30
0.0000000000
10
-3.0617628326
20
-1.5712280497
30
0.0000000000
10
-3.0280312699
20
-1.7447299189
30
0.0000000000
10
-2.9739930969
20
-1.9141119512
30
0.0000000000
10
-2.9059008772
20
-2.0687689199
30
0.0000000000
10
-2.8314192206
20
-2.2021667105
30
0.0000000000
10
-2.7563201352
20
-2.3132968457
30
0.0000000000
10
-2.6831435705
20
-2.4051248177
30
0.0000000000
10
-2.6133393920
20
-2.4805986871
30
0.0000000000
10
-2.5471867929
20
-2.5427207336
30
0.0000000000
10
-2.4849383454
20
-2.5935963663
30
0.0000000000
10
-2.4274602567
20
-2.6344498221
30
0.0000000000
10
-2.3760709512
20
-2.6661889344
30
0.0000000000
10
-2.3435993541
20
-2.6836446485
30
0.0000000000
10
-2.3286886801
20
-2.6910999855
30
0.0000000000
11
-2.3286886801
21
-0.8795162326
31
0.0000000000
11
-2.3658974671
21
-0.8620589507
31
0.0000000000
11
-2.4100256500
21
-0.8443423000
31
0.0000000000
11
-2.4597858835
21
-0.8283117639
31
0.0000000000
11
-2.5139702880
21
-0.8157609104
31
0.0000000000
11
-2.5713940709
21
-0.8083270815
31
0.0000000000
11
-2.6314731768
21
-0.8075134414
31
0.0000000000
11
-2.6946500761
21
-0.8152016861
31
0.0000000000
11
-2.7611954018
21
-0.8342995246
31
0.0000000000
11
-2.8300495730
21
-0.8687342801
31
0.0000000000
11
-2.8984756581
21
-0.9229441952
31
0.0000000000
11
-2.9625274373
21
-1.0016658751
31
0.0000000000
11
-3.0166182728
21
-1.1087972555
31
0.0000000000
11
-3.0536048732
21
-1.2433989500
31
0.0000000000
11
-3.0681427481
21
-1.3991539601
31
0.0000000000
11
-3.0584110983
21
-1.5678119497
31
0.0000000000
11
-3.0250017287
21
-1.7424072365
31
0.0000000000
11
-2.9698890159
21
-1.9160970497
31
0.0000000000
11
-2.9005394680
21
-2.0737857625
31
0.0000000000
11
-2.8265939597
21
-2.2061273252
31
0.0000000000
11
-2.7515523184
21
-2.3170036583
31
0.0000000000
11
-2.6788978776
21
-2.4080061639
31
0.0000000000
11
-2.6098436433
21
-2.4825173763
31
0.0000000000
11
-2.5440846996
21
-2.5441351378
31
0.0000000000
11
-2.4818346976
21
-2.5948943815
31
0.0000000000
11
-2.4242790051
21
-2.6357070019
31
0.0000000000
11
-2.3727583479
21
-2.6674556072
31
0.0000000000
11
-2.3286886801
21
-2.6910999855
31
0.0000000000
0
SPLINE
5
23E
100
AcDbEntity
8
0
100
AcDbSpline
62
0
6
CONTINUOUS
70
0
71
3
72
10
73
6
74
4
42
0.0000001000
43
0.0000001000
44
0.0000000001
12
-0.1602109063
22
-0.0151764679
32
0.0000000000
13
-0.1464690621
23
-0.0669401572
33
0.0000000000
40
0.0000000000
40
0.0000000000
40
0.0000000000
40
0.0000000000
40
0.3157230047
40
0.8200216772
40
1.0000000000
40
1.0000000000
40
1.0000000000
40
1.0000000000
10
-2.5664016254
20
-0.5714820708
30
0.0000000000
10
-2.5832623817
20
-0.5730792575
30
0.0000000000
10
-2.6268545989
20
-0.5793568510
30
0.0000000000
10
-2.6786509415
20
-0.5941214154
30
0.0000000000
10
-2.7125362076
20
-0.6083397619
30
0.0000000000
10
-2.7213232930
20
-0.6123556877
30
0.0000000000
11
-2.5664016254
21
-0.5714820708
31
0.0000000000
11
-2.6166642027
21
-0.5787774119
31
0.0000000000
11
-2.6946034571
21
-0.6011450452
31
0.0000000000
11
-2.7213232930
21
-0.6123556877
31
0.0000000000
0
SPLINE
5
23F
100
AcDbEntity
8
0
100
AcDbSpline
62
0
6
CONTINUOUS
70
0
71
3
72
8
73
4
74
2
42
0.0000001000
43
0.0000001000
44
0.0000000001
12
-0.0134967816
22
-0.0061683790
32
0.0000000000
13
-0.0132924364
23
-0.0065994134
33
0.0000000000
40
0.0000000000
40
0.0000000000
40
0.0000000000
40
0.0000000000
40
1.0000000000
40
1.0000000000
40
1.0000000000
40
1.0000000000
10
-2.7213232930
20
-0.6123556877
30
0.0000000000
10
-2.7258222202
20
-0.6144118140
30
0.0000000000
10
-2.7302882737
20
-0.6165403480
30
0.0000000000
10
-2.7347190858
20
-0.6187401524
30
0.0000000000
11
-2.7213232930
21
-0.6123556877
31
0.0000000000
11
-2.7347190858
21
-0.6187401524
31
0.0000000000
0
SPLINE
5
240
100
AcDbEntity
8
0
100
AcDbSpline
62
0
6
CONTINUOUS
70
0
71
3
72
34
73
30
74
28
42
0.0000001000
43
0.0000001000
44
0.0000000001
12
2.4019409704
22
-1.2009704852
32
0.0000000000
13
-2.4019409704
23
1.2009704852
33
0.0000000000
40
0.0000000000
40
0.0000000000
40
0.0000000000
40
0.0000000000
40
0.0153048710
40
0.0330120685
40
0.0524794322
40
0.0731906596
40
0.0947523794
40
0.1171264963
40
0.1408256662
40
0.1666058855
40
0.1952732084
40
0.2277807461
40
0.2655723661
40
0.3102621643
40
0.3622425992
40
0.4204942651
40
0.4834030622
40
0.5495979050
40
0.6174538790
40
0.6816012236
40
0.7380531443
40
0.7879082839
40
0.8312708014
40
0.8691003445
40
0.9026576495
40
0.9325675625
40
0.9588414541
40
0.9813767196
40
1.0000000000
40
1.0000000000
40
1.0000000000
40
1.0000000000
10
-2.3286886801
20
-2.6910999855
30
0.0000000000
10
-2.3164348812
20
-2.6972268849
30
0.0000000000
10
-2.2896773309
20
-2.7098014206
30
0.0000000000
10
-2.2460711631
20
-2.7273572481
30
0.0000000000
10
-2.1967236703
20
-2.7433278578
30
0.0000000000
10
-2.1428297013
20
-2.7559094951
30
0.0000000000
10
-2.0853470695
20
-2.7634716049
30
0.0000000000
10
-2.0246571390
20
-2.7644326013
30
0.0000000000
10
-1.9605659732
20
-2.7567838609
30
0.0000000000
10
-1.8929619997
20
-2.7375131943
30
0.0000000000
10
-1.8228841426
20
-2.7024755728
30
0.0000000000
10
-1.7530631500
20
-2.6468256995
30
0.0000000000
10
-1.6880844544
20
-2.5659114527
30
0.0000000000
10
-1.6343694642
20
-2.4571998644
30
0.0000000000
10
-1.5985563777
20
-2.3223835346
30
0.0000000000
10
-1.5851368040
20
-2.1673079528
30
0.0000000000
10
-1.5956145473
20
-1.9993881846
30
0.0000000000
10
-1.6293461065
20
-1.8258863070
30
0.0000000000
10
-1.6833842535
20
-1.6565042635
30
0.0000000000
10
-1.7514764966
20
-1.5018473041
30
0.0000000000
10
-1.8259581451
20
-1.3684495090
30
0.0000000000
10
-1.9010572447
20
-1.2573193832
30
0.0000000000
10
-1.9742338026
20
-1.1654914064
30
0.0000000000
10
-2.0440379808
20
-1.0900175370
30
0.0000000000
10
-2.1101905798
20
-1.0278954913
30
0.0000000000
10
-2.1724390247
20
-0.9770198558
30
0.0000000000
10
-2.2299171139
20
-0.9361664039
30
0.0000000000
10
-2.2813064125
20
-0.9044272846
30
0.0000000000
10
-2.3137780067
20
-0.8869715694
30
0.0000000000
10
-2.3286886801
20
-0.8795162326
30
0.0000000000
11
-2.3286886801
21
-2.6910999855
31
0.0000000000
11
-2.2914798959
21
-2.7085572689
31
0.0000000000
11
-2.2473517187
21
-2.7262739224
31
0.0000000000
11
-2.1975914880
21
-2.7423044600
31
0.0000000000
11
-2.1434070888
21
-2.7548553161
31
0.0000000000
11
-2.0859833091
21
-2.7622891466
31
0.0000000000
11
-2.0259042095
21
-2.7631027899
31
0.0000000000
11
-1.9627273211
21
-2.7554145505
31
0.0000000000
11
-1.8961820134
21
-2.7363167211
31
0.0000000000
11
-1.8273278642
21
-2.7018819765
31
0.0000000000
11
-1.7589018022
21
-2.6476720728
31
0.0000000000
11
-1.6948500562
21
-2.5689504094
31
0.0000000000
11
-1.6407592249
21
-2.4618190309
31
0.0000000000
11
-1.6037725915
21
-2.3272173198
31
0.0000000000
11
-1.5892346750
21
-2.1714622889
31
0.0000000000
11
-1.5989662892
21
-2.0028042814
31
0.0000000000
11
-1.6323756444
21
-1.8282089874
31
0.0000000000
11
-1.6874883434
21
-1.6545191673
31
0.0000000000
11
-1.7568379009
21
-1.4968304595
31
0.0000000000
11
-1.8307834097
21
-1.3644888972
31
0.0000000000
11
-1.9058250585
21
-1.2536125680
31
0.0000000000
11
-1.9784794964
21
-1.1626100609
31
0.0000000000
11
-2.0475337295
21
-1.0880988480
31
0.0000000000
11
-2.1132926728
21
-1.0264810862
31
0.0000000000
11
-2.1755426730
21
-0.9757218418
31
0.0000000000
11
-2.2330983653
21
-0.9349092213
31
0.0000000000
11
-2.2846190154
21
-0.9031606125
31
0.0000000000
11
-2.3286886801
21
-0.8795162326
31
0.0000000000
0
SPLINE
5
241
100
AcDbEntity
8
0
100
AcDbSpline
62
0
6
CONTINUOUS
70
0
71
3
72
35
73
31
74
29
42
0.0000001000
43
0.0000001000
44
0.0000000001
12
0.0000000000
22
2.4215898531
32
0.0000000000
13
-2.1674675363
23
-1.0837340164
33
0.0000000000
40
0.0000000000
40
0.0000000000
40
0.0000000000
40
0.0000000000
40
0.0365821961
40
0.0742586670
40
0.1129210575
40
0.1524444651
40
0.1926903447
40
0.2335092259
40
0.2747432827
40
0.3162287937
40
0.3577985294
40
0.3992840952
40
0.4405182607
40
0.4813373032
40
0.5215833941
40
0.5611070601
40
0.5997697521
40
0.6374465625
40
0.6740291305
40
0.7094287773
40
0.7435799049
40
0.7764436666
40
0.8080118683
40
0.8383109619
40
0.8674058325
40
0.8954028512
40
0.9224513835
40
0.9487427095
40
0.9745053044
40
1.0000000000
40
1.0000000000
40
1.0000000000
40
1.0000000000
10
-1.3554275749
20
-2.1825610329
30
0.0000000000
10
-1.3554275749
20
-2.1530320079
30
0.0000000000
10
-1.3574278021
20
-2.0930757293
30
0.0000000000
10
-1.3660799741
20
-2.0022863204
30
0.0000000000
10
-1.3803733744
20
-1.9098093895
30
0.0000000000
10
-1.4002149513
20
-1.8162454330
30
0.0000000000
10
-1.4254762279
20
-1.7221956765
30
0.0000000000
10
-1.4559939379
20
-1.6282668640
30
0.0000000000
10
-1.4915709784
20
-1.5350647951
30
0.0000000000
10
-1.5319776227
20
-1.4431909756
30
0.0000000000
10
-1.5769529841
20
-1.3532384504
30
0.0000000000
10
-1.6262067118
20
-1.2657879352
30
0.0000000000
10
-1.6794209038
20
-1.1814039763
30
0.0000000000
10
-1.7362522240
20
-1.1006312474
30
0.0000000000
10
-1.7963342110
20
-1.0239909871
30
0.0000000000
10
-1.8592797659
20
-0.9519776151
30
0.0000000000
10
-1.9246838053
20
-0.8850555590
30
0.0000000000
10
-1.9921260644
20
-0.8236563296
30
0.0000000000
10
-2.0611740268
20
-0.7681758950
30
0.0000000000
10
-2.1313859434
20
-0.7189724073
30
0.0000000000
10
-2.2023138787
20
-0.6763643494
30
0.0000000000
10
-2.2735066765
20
-0.6406291651
30
0.0000000000
10
-2.3445126714
20
-0.6120024086
30
0.0000000000
10
-2.4148818904
20
-0.5906773658
30
0.0000000000
10
-2.4841674405
20
-0.5768049075
30
0.0000000000
10
-2.5519258598
20
-0.5704930360
30
0.0000000000
10
-2.6177166006
20
-0.5718052515
30
0.0000000000
10
-2.6811016155
20
-0.5807568384
30
0.0000000000
10
-2.7416501769
20
-0.5973098421
30
0.0000000000
10
-2.7799084040
20
-0.6133754830
30
0.0000000000
10
-2.7983280457
20
-0.6225853059
30
0.0000000000
11
-1.3554275749
21
-2.1825610329
31
0.0000000000
11
-1.3582937366
21
-2.0940203362
31
0.0000000000
11
-1.3668736337
21
-2.0031876981
31
0.0000000000
11
-1.3811116223
21
-1.9106522032
31
0.0000000000
11
-1.4009153635
21
-1.8170139796
31
0.0000000000
11
-1.4261564224
21
-1.7228803072
31
0.0000000000
11
-1.4566711011
21
-1.6288616789
31
0.0000000000
11
-1.4922615002
21
-1.5355678416
31
0.0000000000
11
-1.5326968024
21
-1.4436038417
31
0.0000000000
11
-1.5777147691
21
-1.3535661010
31
0.0000000000
11
-1.6270234415
21
-1.2660385488
31
0.0000000000
11
-1.6803030341
21
-1.1815888348
31
0.0000000000
11
-1.7372080081
21
-1.1007646478
31
0.0000000000
11
-1.7973693131
21
-1.0240901638
31
0.0000000000
11
-1.8603967798
21
-0.9520626461
31
0.0000000000
11
-1.9258816510
21
-0.8851492210
31
0.0000000000
11
-1.9933992321
21
-0.8237838475
31
0.0000000000
11
-2.0625116457
21
-0.7683645037
31
0.0000000000
11
-2.1327706714
21
-0.7192506053
31
0.0000000000
11
-2.2037206522
21
-0.6767606747
31
0.0000000000
11
-2.2749014505
21
-0.6411702756
31
0.0000000000
11
-2.3458514313
21
-0.6127102253
31
0.0000000000
11
-2.4161104569
21
-0.5915650981
31
0.0000000000
11
-2.4852228706
21
-0.5778720282
31
0.0000000000
11
-2.5527404517
21
-0.5717198206
31
0.0000000000
11
-2.6182253229
21
-0.5731483746
31
0.0000000000
11
-2.6812527896
21
-0.5821484256
31
0.0000000000
11
-2.7414140945
21
-0.5986616046
31
0.0000000000
11
-2.7983280457
21
-0.6225853059
31
0.0000000000
0
SPLINE
5
242
100
AcDbEntity
8
0
100
AcDbSpline
62
0
6
CONTINUOUS
70
0
71
3
72
18
73
14
74
12
42
0.0000001000
43
0.0000001000
44
0.0000000001
12
0.0000000000
22
-0.7893393667
32
0.0000000000
13
-0.7065058727
23
-0.3532530173
33
0.0000000000
40
0.0000000000
40
0.0000000000
40
0.0000000000
40
0.0000000000
40
0.1086002644
40
0.2133701824
40
0.3141906061
40
0.4110364299
40
0.5039888410
40
0.5932469390
40
0.6791370987
40
0.7621175966
40
0.8427752956
40
0.9218111609
40
1.0000000000
40
1.0000000000
40
1.0000000000
40
1.0000000000
10
-1.3554275749
20
-2.1825610329
30
0.0000000000
10
-1.3554275749
20
-2.2111351876
30
0.0000000000
10
-1.3572403014
20
-2.2672970485
30
0.0000000000
10
-1.3657124752
20
-2.3496001185
30
0.0000000000
10
-1.3798418346
20
-2.4279948505
30
0.0000000000
10
-1.3995458245
20
-2.5019739975
30
0.0000000000
10
-1.4247090765
20
-2.5710627789
30
0.0000000000
10
-1.4551841418
20
-2.6348128744
30
0.0000000000
10
-1.4907913340
20
-2.6928047960
30
0.0000000000
10
-1.5313171135
20
-2.7446479966
30
0.0000000000
10
-1.5765108664
20
-2.7899828830
30
0.0000000000
10
-1.6260784838
20
-2.8284835444
30
0.0000000000
10
-1.6618804323
20
-2.8494464690
30
0.0000000000
10
-1.6802940570
20
-2.8586532834
30
0.0000000000
11
-1.3554275749
21
-2.1825610329
31
0.0000000000
11
-1.3582937366
21
-2.2682355679
31
0.0000000000
11
-1.3668736337
21
-2.3504883088
31
0.0000000000
11
-1.3811116223
21
-2.4287858152
31
0.0000000000
11
-1.4009153635
21
-2.5026202976
31
0.0000000000
11
-1.4261564224
21
-2.5715129111
31
0.0000000000
11
-1.4566711011
21
-2.6350168607
31
0.0000000000
11
-1.4922615002
21
-2.6927202988
31
0.0000000000
11
-1.5326968024
21
-2.7442489966
31
0.0000000000
11
-1.5777147691
21
-2.7892687706
31
0.0000000000
11
-1.6270234415
21
-2.8274876504
31
0.0000000000
11
-1.6802940570
21
-2.8586532834
31
0.0000000000
0
SPLINE
5
243
100
AcDbEntity
8
0
100
AcDbSpline
62
0
6
CONTINUOUS
70
0
71
3
72
17
73
13
74
11
42
0.0000001000
43
0.0000001000
44
0.0000000001
12
0.0000000000
22
-0.2154394529
32
0.0000000000
13
-0.2082294736
23
-0.0563493225
33
0.0000000000
40
0.0000000000
40
0.0000000000
40
0.0000000000
40
0.0000000000
40
0.1347234188
40
0.2631784264
40
0.3842185495
40
0.4978384289
40
0.6056821031
40
0.7081794316
40
0.8061541748
40
0.9020227845
40
0.9981906251
40
1.0000000000
40
1.0000000000
40
1.0000000000
40
1.0000000000
10
19.9771024425
20
-23.8405120922
30
0.0000000000
10
19.9771024425
20
-23.8501870054
30
0.0000000000
10
19.9762683809
20
-23.8691012853
30
0.0000000000
10
19.9723082086
20
-23.8964572166
30
0.0000000000
10
19.9657157392
20
-23.9217490962
30
0.0000000000
10
19.9565801352
20
-23.9446618651
30
0.0000000000
10
19.9449953058
20
-23.9649351094
30
0.0000000000
10
19.9310867612
20
-23.9822903850
30
0.0000000000
10
19.9150636737
20
-23.9964630255
30
0.0000000000
10
19.8971319824
20
-24.0072850967
30
0.0000000000
10
19.8840174870
20
-24.0121849342
30
0.0000000000
10
19.8772199850
20
-24.0140367753
30
0.0000000000
10
19.8770943966
20
-24.0140707610
30
0.0000000000
11
19.9771024425
21
-23.8405120922
31
0.0000000000
11
19.9757562421
21
-23.8695055958
31
0.0000000000
11
19.9717127292
21
-23.8968828782
31
0.0000000000
11
19.9650492307
21
-23.9220939515
31
0.0000000000
11
19.9558963729
21
-23.9447965438
31
0.0000000000
11
19.9442870592
21
-23.9649219623
31
0.0000000000
11
19.9304132751
21
-23.9821013523
31
0.0000000000
11
19.9145654632
21
-23.9960433283
31
0.0000000000
11
19.8968717868
21
-24.0066977457
31
0.0000000000
11
19.8774709904
21
-24.0139681652
31
0.0000000000
11
19.8770943966
21
-24.0140707610
31
0.0000000000
0
SPLINE
5
244
100
AcDbEntity
8
0
100
AcDbSpline
62
0
6
CONTINUOUS
70
0
71
3
72
15
73
11
74
9
42
0.0000001000
43
0.0000001000
44
0.0000000001
12
0.1266924923
22
0.0934381720
32
0.0000000000
13
0.1406209414
23
-0.0703104707
33
0.0000000000
40
0.0000000000
40
0.0000000000
40
0.0000000000
40
0.0000000000
40
0.0021041616
40
0.1334743006
40
0.2652544799
40
0.3993387494
40
0.5375968285
40
0.6833590792
40
0.8376333894
40
1.0000000000
40
1.0000000000
40
1.0000000000
40
1.0000000000
10
-15.0331237900
20
25.1947738330
30
0.0000000000
10
-15.0330349295
20
25.1948393694
30
0.0000000000
10
-15.0273921996
20
25.1989884867
30
0.0000000000
10
-15.0154234442
20
25.2062118278
30
0.0000000000
10
-14.9958114408
20
25.2135392640
30
0.0000000000
10
-14.9748524859
20
25.2172700696
30
0.0000000000
10
-14.9528461941
20
25.2174144713
30
0.0000000000
10
-14.9300458665
20
25.2140140505
30
0.0000000000
10
-14.9067396000
20
25.2071364681
30
0.0000000000
10
-14.8914832522
20
25.2004995559
30
0.0000000000
10
-14.8838725370
20
25.1966941982
30
0.0000000000
11
-15.0331237900
21
25.1947738330
31
0.0000000000
11
-15.0328569250
21
25.1949700594
31
0.0000000000
11
-15.0151632486
21
25.2056244767
31
0.0000000000
11
-14.9957624522
21
25.2128948963
31
0.0000000000
11
-14.9750180815
21
25.2166448985
31
0.0000000000
11
-14.9532824151
21
25.2168664817
31
0.0000000000
11
-14.9306032496
21
25.2135762330
31
0.0000000000
11
-14.9073143868
21
25.2067993094
31
0.0000000000
11
-14.8838725370
21
25.1966941982
31
0.0000000000
0
SPLINE
5
245
100
AcDbEntity
8
0
100
AcDbSpline
62
0
6
CONTINUOUS
70
0
71
3
72
16
73
12
74
10
42
0.0000001000
43
0.0000001000
44
0.0000000001
12
-0.0320443416
22
-0.2342965924
32
0.0000000000
13
-0.2285757625
23
-0.0618362805
33
0.0000000000
40
0.0000000000
40
0.0000000000
40
0.0000000000
40
0.0000000000
40
0.1384183407
40
0.2713841348
40
0.3985280733
40
0.5197895362
40
0.6354648679
40
0.7462417898
40
0.8532034335
40
0.9577820007
40
1.0000000000
40
1.0000000000
40
1.0000000000
40
1.0000000000
10
15.6520952550
20
-25.0108316689
30
0.0000000000
10
15.6506167468
20
-25.0216419841
30
0.0000000000
10
15.6467137019
20
-25.0427172841
30
0.0000000000
10
15.6378139463
20
-25.0729056994
30
0.0000000000
10
15.6260944761
20
-25.1006656132
30
0.0000000000
10
15.6117110974
20
-25.1255931868
30
0.0000000000
10
15.5948538233
20
-25.1473236055
30
0.0000000000
10
15.5757484421
20
-25.1655266196
30
0.0000000000
10
15.5546605760
20
-25.1799111737
30
0.0000000000
10
15.5363497973
20
-25.1882166678
30
0.0000000000
10
15.5252741395
20
-25.1916449676
30
0.0000000000
10
15.5220574691
20
-25.1925151690
30
0.0000000000
11
15.6520952550
21
-25.0108316689
31
0.0000000000
11
15.6460740461
21
-25.0430059622
31
0.0000000000
11
15.6371130975
21
-25.0731455074
31
0.0000000000
11
15.6253425769
21
-25.1008124941
31
0.0000000000
11
15.6109334642
21
-25.1256050289
31
0.0000000000
11
15.5940950676
21
-25.1471629727
31
0.0000000000
11
15.5750719835
21
-25.1651731725
31
0.0000000000
11
15.5541405433
21
-25.1793740102
31
0.0000000000
11
15.5316047992
21
-25.1895592030
31
0.0000000000
11
15.5220574691
21
-25.1925151690
31
0.0000000000
0
SPLINE
5
246
100
AcDbEntity
8
0
100
AcDbSpline
62
0
6
CONTINUOUS
70
0
71
3
72
23
73
19
74
17
42
0.0000001000
43
0.0000001000
44
0.0000000001
12
0.0214369841
22
-0.6582948567
32
0.0000000000
13
0.6357808634
23
0.1720301029
33
0.0000000000
40
0.0000000000
40
0.0000000000
40
0.0000000000
40
0.0000000000
40
0.0754508299
40
0.1480812687
40
0.2178321894
40
0.2847447211
40
0.3489547895
40
0.4106983708
40
0.4703149650
40
0.5282458555
40
0.5850222693
40
0.6412420913
40
0.6975367727
40
0.7545328975
40
0.8128154669
40
0.8728967864
40
0.9351938529
40
1.0000000000
40
1.0000000000
40
1.0000000000
40
1.0000000000
10
15.2363068729
20
-24.6379569537
30
0.0000000000
10
15.2368460189
20
-24.6545132514
30
0.0000000000
10
15.2390629714
20
-24.6869845938
30
0.0000000000
10
15.2460443354
20
-24.7343480072
30
0.0000000000
10
15.2565763018
20
-24.7791363898
30
0.0000000000
10
15.2705908678
20
-24.8210227424
30
0.0000000000
10
15.2879976625
20
-24.8597067591
30
0.0000000000
10
15.3086838077
20
-24.8949061807
30
0.0000000000
10
15.3325124679
20
-24.9263581331
30
0.0000000000
10
15.3593206094
20
-24.9538203385
30
0.0000000000
10
15.3889164030
20
-24.9770748419
30
0.0000000000
10
15.4210779965
20
-24.9959339845
30
0.0000000000
10
15.4555557681
20
-25.0102476484
30
0.0000000000
10
15.4920790390
20
-25.0199087088
30
0.0000000000
10
15.5303639649
20
-25.0248543686
30
0.0000000000
10
15.5701219097
20
-25.0250622423
30
0.0000000000
10
15.6110506382
20
-25.0205491989
30
0.0000000000
10
15.6383610856
20
-25.0145478716
30
0.0000000000
10
15.6520952550
20
-25.0108316689
30
0.0000000000
11
15.2363068729
21
-24.6379569537
31
0.0000000000
11
15.2397617451
21
-24.6875319365
31
0.0000000000
11
15.2468135986
21
-24.7348469050
31
0.0000000000
11
15.2574114317
21
-24.7795488346
31
0.0000000000
11
15.2714788943
21
-24.8213149185
31
0.0000000000
11
15.2889148863
21
-24.8598449400
31
0.0000000000
11
15.3095941347
21
-24.8948617330
31
0.0000000000
11
15.3333677872
21
-24.9261129746
31
0.0000000000
11
15.3600647128
21
-24.9533735859
31
0.0000000000
11
15.3894928931
21
-24.9764473943
31
0.0000000000
11
15.4214406934
21
-24.9951683147
31
0.0000000000
11
15.4556781890
21
-25.0094014661
31
0.0000000000
11
15.4919587508
21
-25.0190442503
31
0.0000000000
11
15.5300214093
21
-25.0240272810
31
0.0000000000
11
15.5695925553
21
-25.0243145824
31
0.0000000000
11
15.6103864111
21
-25.0199041814
31
0.0000000000
11
15.6520952550
21
-25.0108316689
31
0.0000000000
0
SPLINE
5
247
100
AcDbEntity
8
0
100
AcDbSpline
62
0
6
CONTINUOUS
70
0
71
3
72
17
73
13
74
11
42
0.0000001000
43
0.0000001000
44
0.0000000001
12
0.0194142490
22
-0.5992955162
32
0.0000000000
13
0.5354615231
23
-0.2708577400
33
0.0000000000
40
0.0000000000
40
0.0000000000
40
0.0000000000
40
0.0000000000
40
0.1184035236
40
0.2323156485
40
0.3416716939
40
0.4465303880
40
0.5470998667
40
0.6437465689
40
0.7370013732
40
0.8275577414
40
0.9162533753
40
1.0000000000
40
1.0000000000
40
1.0000000000
40
1.0000000000
10
14.8159350444
20
-24.6460597868
30
0.0000000000
10
14.8167012829
20
-24.6697126871
30
0.0000000000
10
14.8198520600
20
-24.7160896557
30
0.0000000000
10
14.8297745122
20
-24.7837272110
30
0.0000000000
10
14.8447414775
20
-24.8476665313
30
0.0000000000
10
14.8646570098
20
-24.9074479339
30
0.0000000000
10
14.8893929405
20
-24.9626431115
30
0.0000000000
10
14.9187891249
20
-25.0128496791
30
0.0000000000
10
14.9526516610
20
-25.0576929373
30
0.0000000000
10
14.9907495423
20
-25.0968274219
30
0.0000000000
10
15.0321753605
20
-25.1294418323
30
0.0000000000
10
15.0619328807
20
-25.1470308775
30
0.0000000000
10
15.0768805791
20
-25.1545920180
30
0.0000000000
11
14.8159350444
21
-24.6460597868
31
0.0000000000
11
14.8208470398
21
-24.7168855844
31
0.0000000000
11
14.8308699880
21
-24.7844490222
31
0.0000000000
11
14.8459321629
21
-24.8482665952
31
0.0000000000
11
14.8659249676
21
-24.9078775565
31
0.0000000000
11
14.8907047346
21
-24.9628534531
31
0.0000000000
11
14.9200934157
21
-25.0127988725
31
0.0000000000
11
14.9538794751
21
-25.0573539795
31
0.0000000000
11
14.9918198006
21
-25.0961980038
31
0.0000000000
11
15.0336415626
21
-25.1290514404
31
0.0000000000
11
15.0768805791
21
-25.1545920180
31
0.0000000000
0
SPLINE
5
248
100
AcDbEntity
8
0
100
AcDbSpline
62
0
6
CONTINUOUS
70
0
71
3
72
8
73
4
74
2
42
0.0000001000
43
0.0000001000
44
0.0000000001
12
0.0008414834
22
-0.0004256558
32
0.0000000000
13
0.0008425289
23
-0.0004235815
33
0.0000000000
40
0.0000000000
40
0.0000000000
40
0.0000000000
40
0.0000000000
40
1.0000000000
40
1.0000000000
40
1.0000000000
40
1.0000000000
10
15.0768805791
20
-25.1545920180
30
0.0000000000
10
15.0771610735
20
-25.1547339032
30
0.0000000000
10
15.0774417426
20
-25.1548754430
30
0.0000000000
10
15.0777225856
20
-25.1550166369
30
0.0000000000
11
15.0768805791
21
-25.1545920180
31
0.0000000000
11
15.0777225856
21
-25.1550166369
31
0.0000000000
0
SPLINE
5
249
100
AcDbEntity
8
0
100
AcDbSpline
62
0
6
CONTINUOUS
70
0
71
3
72
8
73
4
74
2
42
0.0000001000
43
0.0000001000
44
0.0000000001
12
0.0007157350
22
-0.0003598358
32
0.0000000000
13
0.0007164864
23
-0.0003583366
33
0.0000000000
40
0.0000000000
40
0.0000000000
40
0.0000000000
40
0.0000000000
40
1.0000000000
40
1.0000000000
40
1.0000000000
40
1.0000000000
10
15.0777225856
20
-25.1550166369
30
0.0000000000
10
15.0779611639
20
-25.1551365821
30
0.0000000000
10
15.0781998677
20
-25.1552562777
30
0.0000000000
10
15.0784386965
20
-25.1553757233
30
0.0000000000
11
15.0777225856
21
-25.1550166369
31
0.0000000000
11
15.0784386965
21
-25.1553757233
31
0.0000000000
0
SPLINE
5
24A
100
AcDbEntity
8
0
100
AcDbSpline
62
0
6
CONTINUOUS
70
0
71
3
72
22
73
18
74
16
42
0.0000001000
43
0.0000001000
44
0.0000000001
12
0.0364925297
22
1.1912806722
32
0.0000000000
13
0.8927705224
23
0.7898833676
33
0.0000000000
40
0.0000000000
40
0.0000000000
40
0.0000000000
40
0.0000000000
40
0.0636244013
40
0.1291369614
40
0.1963094304
40
0.2648802337
40
0.3345664177
40
0.4050668464
40
0.4760668622
40
0.5472444752
40
0.6182753276
40
0.6888372606
40
0.7586149150
40
0.8273048055
40
0.8946216892
40
0.9603034394
40
1.0000000000
40
1.0000000000
40
1.0000000000
40
1.0000000000
10
-19.6696993469
20
20.9772500975
30
0.0000000000
10
-19.6689254084
20
21.0025149373
30
0.0000000000
10
-19.6656285869
20
21.0537545129
30
0.0000000000
10
-19.6557894880
20
21.1311661277
30
0.0000000000
10
-19.6410503149
20
21.2097963533
30
0.0000000000
10
-19.6215169181
20
21.2890797252
30
0.0000000000
10
-19.5973292994
20
21.3684506995
30
0.0000000000
10
-19.5686605491
20
21.4473414013
30
0.0000000000
10
-19.5357158819
20
21.5251872662
30
0.0000000000
10
-19.4987311711
20
21.6014308443
30
0.0000000000
10
-19.4579710943
20
21.6755263279
30
0.0000000000
10
-19.4137272778
20
21.7469432524
30
0.0000000000
10
-19.3663163415
20
21.8151701347
30
0.0000000000
10
-19.3160772570
20
21.8797186008
30
0.0000000000
10
-19.2633691306
20
21.9401266706
30
0.0000000000
10
-19.2152817501
20
21.9891214319
30
0.0000000000
10
-19.1844807903
20
22.0174965517
30
0.0000000000
10
-19.1726674839
20
22.0279484361
30
0.0000000000
11
-19.6696993469
21
20.9772500975
31
0.0000000000
11
-19.6649059445
21
21.0529285179
31
0.0000000000
11
-19.6551249731
21
21.1303939304
31
0.0000000000
11
-19.6404264350
21
21.2090918625
31
0.0000000000
11
-19.6209163042
21
21.2884542859
31
0.0000000000
11
-19.5967347741
21
21.3679108420
31
0.0000000000
11
-19.5680555996
21
21.4468901951
31
0.0000000000
11
-19.5350852140
21
21.5248235212
31
0.0000000000
11
-19.4980608548
21
21.6011498870
31
0.0000000000
11
-19.4572487604
21
21.6753202581
31
0.0000000000
11
-19.4129423970
21
21.7468010489
31
0.0000000000
11
-19.3654606016
21
21.8150776234
31
0.0000000000
11
-19.3151453705
21
21.8796580860
31
0.0000000000
11
-19.2623585637
21
21.9400778963
31
0.0000000000
11
-19.2074796379
21
21.9959025428
31
0.0000000000
11
-19.1726674839
21
22.0279484361
31
0.0000000000
0
SPLINE
5
24B
100
AcDbEntity
8
0
100
AcDbSpline
62
0
6
CONTINUOUS
70
0
71
3
72
9
73
5
74
3
42
0.0000001000
43
0.0000001000
44
0.0000000001
12
0.0766525534
22
0.0678187457
32
0.0000000000
13
0.0826115199
23
0.0603890863
33
0.0000000000
40
0.0000000000
40
0.0000000000
40
0.0000000000
40
0.0000000000
40
0.2808634848
40
1.0000000000
40
1.0000000000
40
1.0000000000
40
1.0000000000
10
-19.1726674839
20
22.0279484361
30
0.0000000000
10
-19.1654911828
20
22.0342977058
30
0.0000000000
10
-19.1396638553
20
22.0565923340
30
0.0000000000
10
-19.1128421842
20
22.0777169947
30
0.0000000000
10
-19.0930391974
20
22.0921929937
30
0.0000000000
11
-19.1726674839
21
22.0279484361
31
0.0000000000
11
-19.1509048383
21
22.0467289077
31
0.0000000000
11
-19.0930391974
21
22.0921929937
31
0.0000000000
0
SPLINE
5
24C
100
AcDbEntity
8
0
100
AcDbSpline
62
0
6
CONTINUOUS
70
0
71
3
72
15
73
11
74
9
42
0.0000001000
43
0.0000001000
44
0.0000000001
12
-0.8924736112
22
28.3709171701
32
0.0000000000
13
0.8643456153
23
28.3717880451
33
0.0000000000
40
0.0000000000
40
0.0000000000
40
0.0000000000
40
0.0000000000
40
0.1232343594
40
0.2469811173
40
0.3712364829
40
0.4959965236
40
0.6212571692
40
0.7470142135
40
0.8732633147
40
1.0000000000
40
1.0000000000
40
1.0000000000
40
1.0000000000
10
-19.6696993469
20
-7.4032425912
30
0.0000000000
10
-19.7063604848
20
-6.2378186567
30
0.0000000000
10
-19.7704822441
20
-3.9018203415
30
0.0000000000
10
-19.8390313374
20
-0.3899448460
30
0.0000000000
10
-19.8801413911
20
3.1367973409
30
0.0000000000
10
-19.8938085147
20
6.6780756013
30
0.0000000000
10
-19.8800314943
20
10.2335614983
30
0.0000000000
10
-19.8388116031
20
13.8029251507
30
0.0000000000
10
-19.7701527761
20
17.3858323108
30
0.0000000000
10
-19.7062141130
20
19.7786679728
30
0.0000000000
10
-19.6696993469
20
20.9772500975
30
0.0000000000
11
-19.6696993469
21
-7.4032425912
31
0.0000000000
11
-19.7657392738
21
-3.9065599908
31
0.0000000000
11
-19.8343455955
21
-0.3946843818
31
0.0000000000
11
-19.8755119379
21
3.1320578456
31
0.0000000000
11
-19.8892344769
21
6.6733389140
31
0.0000000000
11
-19.8755119379
21
10.2288297371
31
0.0000000000
11
-19.8343455955
21
13.7981999092
31
0.0000000000
11
-19.7657392738
21
17.3811176928
31
0.0000000000
11
-19.6696993469
21
20.9772500975
31
0.0000000000
0
SPLINE
5
24D
100
AcDbEntity
8
0
100
AcDbSpline
62
0
6
CONTINUOUS
70
0
71
3
72
53
73
49
74
47
42
0.0000001000
43
0.0000001000
44
0.0000000001
12
0.0000000000
22
-6.4026688544
32
0.0000000000
13
-0.0000000000
23
6.4026688544
33
0.0000000000
40
0.0000000000
40
0.0000000000
40
0.0000000000
40
0.0000000000
40
0.0225968977
40
0.0445305054
40
0.0657561097
40
0.0862973137
40
0.1061237234
40
0.1252862529
40
0.1437938476
40
0.1617095855
40
0.1791005766
40
0.1960369476
40
0.2126410175
40
0.2289983810
40
0.2452591103
40
0.2615264646
40
0.2779444530
40
0.2946277291
40
0.3116812729
40
0.3292194649
40
0.3472984144
40
0.3660121694
40
0.3853769337
40
0.4054502202
40
0.4262272857
40
0.4477145841
40
0.4699068831
40
0.4927575655
40
0.5162647217
40
0.5403463159
40
0.5649905926
40
0.5901051866
40
0.6156508845
40
0.6415515144
40
0.6677243097
40
0.6941228768
40
0.7206325740
40
0.7472210018
40
0.7737684825
40
0.8002338087
40
0.8265214665
40
0.8525585009
40
0.8782926265
40
0.9036244475
40
0.9285322615
40
0.9529172880
40
0.9767639876
40
1.0000000000
40
1.0000000000
40
1.0000000000
40
1.0000000000
10
-0.8825476025
20
-2.8300045232
30
0.0000000000
10
-0.8825476025
20
-2.8782313409
30
0.0000000000
10
-0.8851456240
20
-2.9732944354
30
0.0000000000
10
-0.8972225184
20
-3.1131948102
30
0.0000000000
10
-0.9173781570
20
-3.2477398712
30
0.0000000000
10
-0.9455226324
20
-3.3762526234
30
0.0000000000
10
-0.9815560750
20
-3.4982078884
30
0.0000000000
10
-1.0253157700
20
-3.6129896706
30
0.0000000000
10
-1.0766404535
20
-3.7201053207
30
0.0000000000
10
-1.1353082166
20
-3.8190285124
30
0.0000000000
10
-1.2010750263
20
-3.9092830646
30
0.0000000000
10
-1.2736711310
20
-3.9904420310
30
0.0000000000
10
-1.3527523863
20
-4.0620691515
30
0.0000000000
10
-1.4379954443
20
-4.1238284957
30
0.0000000000
10
-1.5289597727
20
-4.1753693704
30
0.0000000000
10
-1.6252445597
20
-4.2164444043
30
0.0000000000
10
-1.7263528150
20
-4.2468343011
30
0.0000000000
10
-1.8317985486
20
-4.2663941658
30
0.0000000000
10
-1.9410788260
20
-4.2750417261
30
0.0000000000
10
-2.0536411594
20
-4.2727463847
30
0.0000000000
10
-2.1689999400
20
-4.2595341974
30
0.0000000000
10
-2.2865619608
20
-4.2354872256
30
0.0000000000
10
-2.4058358757
20
-4.2007196768
30
0.0000000000
10
-2.5262227620
20
-4.1554171407
30
0.0000000000
10
-2.6471920026
20
-4.0997885040
30
0.0000000000
10
-2.7681708948
20
-4.0341059664
30
0.0000000000
10
-2.8885794156
20
-3.9586907146
30
0.0000000000
10
-3.0078877194
20
-3.8738820046
30
0.0000000000
10
-3.1254883951
20
-3.7801165817
30
0.0000000000
10
-3.2408861094
20
-3.6777949508
30
0.0000000000
10
-3.3534858797
20
-3.5674487641
30
0.0000000000
10
-3.4628033089
20
-3.4495567672
30
0.0000000000
10
-3.5682988446
20
-3.3247050013
30
0.0000000000
10
-3.6694840821
20
-3.1934744379
30
0.0000000000
10
-3.7658973079
20
-3.0564694481
30
0.0000000000
10
-3.8570616098
20
-2.9143716679
30
0.0000000000
10
-3.9425920574
20
-2.7677863644
30
0.0000000000
10
-4.0220529173
20
-2.6174647872
30
0.0000000000
10
-4.0951140712
20
-2.4640357349
30
0.0000000000
10
-4.1614141487
20
-2.3082629811
30
0.0000000000
10
-4.2206609638
20
-2.1508358390
30
0.0000000000
10
-4.2725828859
20
-1.9924833209
30
0.0000000000
10
-4.3169336870
20
-1.8339610448
30
0.0000000000
10
-4.3535273862
20
-1.6759408133
30
0.0000000000
10
-4.3821823880
20
-1.5192132606
30
0.0000000000
10
-4.4027819009
20
-1.3644168687
30
0.0000000000
10
-4.4152234895
20
-1.2123323443
30
0.0000000000
10
-4.4180815084
20
-1.1118284012
30
0.0000000000
10
-4.4180815084
20
-1.0622375702
30
0.0000000000
11
-0.8825476025
21
-2.8300045232
31
0.0000000000
11
-0.8866213274
21
-2.9746276135
31
0.0000000000
11
-0.8988322889
21
-3.1145293502
31
0.0000000000
11
-0.9191105461
21
-3.2489084500
31
0.0000000000
11
-0.9473999402
21
-3.3773484484
31
0.0000000000
11
-0.9835285609
21
-3.4990405924
31
0.0000000000
11
-1.0273958822
21
-3.6136216587
31
0.0000000000
11
-1.0787560053
21
-3.7204107677
31
0.0000000000
11
-1.1374136926
21
-3.8189872567
31
0.0000000000
11
-1.2031143767
21
-3.9088870110
31
0.0000000000
11
-1.2755087978
21
-3.9896201654
31
0.0000000000
11
-1.3543723968
21
-4.0609112979
31
0.0000000000
11
-1.4392206646
21
-4.1223059892
31
0.0000000000
11
-1.5298123046
21
-4.1736136581
31
0.0000000000
11
-1.6256029461
21
-4.2145075357
31
0.0000000000
11
-1.7262523138
21
-4.2448340430
31
0.0000000000
11
-1.8312581329
21
-4.2644236971
31
0.0000000000
11
-1.9400950015
21
-4.2731757097
31
0.0000000000
11
-2.0523660432
21
-4.2710462053
31
0.0000000000
11
-2.1673871055
21
-4.2580448877
31
0.0000000000
11
-2.2848095640
21
-4.2342055567
31
0.0000000000
11
-2.4038901206
21
-4.1996745242
31
0.0000000000
11
-2.5242363984
21
-4.1545653943
31
0.0000000000
11
-2.6451636857
21
-4.0991287791
31
0.0000000000
11
-2.7661387050
21
-4.0336137735
31
0.0000000000
11
-2.8866292858
21
-3.9583039370
31
0.0000000000
11
-3.0059462998
21
-3.8736357239
31
0.0000000000
11
-3.1236938518
21
-3.7798896107
31
0.0000000000
11
-3.2391222875
21
-3.6776656184
31
0.0000000000
11
-3.3518748028
21
-3.5672831738
31
0.0000000000
11
-3.4612593760
21
-3.4494197234
31
0.0000000000
11
-3.5668670818
21
-3.3245233788
31
0.0000000000
11
-3.6681633456
21
-3.1932233308
31
0.0000000000
11
-3.7646317508
21
-3.0561996980
31
0.0000000000
11
-3.8559206566
21
-2.9139515703
31
0.0000000000
11
-3.9414721067
21
-2.7673562872
31
0.0000000000
11
-4.0210315288
21
-2.6168541277
31
0.0000000000
11
-4.0941022964
21
-2.4633872870
31
0.0000000000
11
-4.1604460321
21
-2.3074662257
31
0.0000000000
11
-4.2197031485
21
-2.1499313304
31
0.0000000000
11
-4.2716065165
21
-1.9915106856
31
0.0000000000
11
-4.3159518657
21
-1.8328233136
31
0.0000000000
11
-4.3524840436
21
-1.6747998807
31
0.0000000000
11
-4.3810950616
21
-1.5179108790
31
0.0000000000
11
-4.4016074556
21
-1.3631349627
31
0.0000000000
11
-4.4139603415
21
-1.2109529716
31
0.0000000000
11
-4.4180815084
21
-1.0622375702
31
0.0000000000
0
SPLINE
5
24E
100
AcDbEntity
8
0
100
AcDbSpline
62
0
6
CONTINUOUS
70
0
71
3
72
8
73
4
74
2
42
0.0000001000
43
0.0000001000
44
0.0000000001
12
0.0001432512
22
-0.0045704613
32
0.0000000000
13
0.0003954949
23
-0.0045551121
33
0.0000000000
40
0.0000000000
40
0.0000000000
40
0.0000000000
40
0.0000000000
40
1.0000000000
40
1.0000000000
40
1.0000000000
40
1.0000000000
10
-19.7575744721
20
-7.2966711384
30
0.0000000000
10
-19.7575267217
20
-7.2981946255
30
0.0000000000
10
-19.7574369475
20
-7.2997167636
30
0.0000000000
10
-19.7573051159
20
-7.3012351343
30
0.0000000000
11
-19.7575744721
21
-7.2966711384
31
0.0000000000
11
-19.7573051159
21
-7.3012351343
31
0.0000000000
0
SPLINE
5
24F
100
AcDbEntity
8
0
100
AcDbSpline
62
0
6
CONTINUOUS
70
0
71
3
72
14
73
10
74
8
42
0.0000001000
43
0.0000001000
44
0.0000000001
12
-0.0043313667
22
-0.1445157391
32
0.0000000000
13
0.1290215479
23
-0.0644011671
33
0.0000000000
40
0.0000000000
40
0.0000000000
40
0.0000000000
40
0.0000000000
40
0.0825451799
40
0.2047449515
40
0.3358153977
40
0.4793444049
40
0.6374635791
40
0.8110510196
40
1.0000000000
40
1.0000000000
40
1.0000000000
40
1.0000000000
10
-19.7575837637
20
21.0823529094
30
0.0000000000
10
-19.7577029415
20
21.0783765502
30
0.0000000000
10
-19.7571360826
20
21.0684851753
30
0.0000000000
10
-19.7527851729
20
21.0527828258
30
0.0000000000
10
-19.7437013439
20
21.0358613640
30
0.0000000000
10
-19.7305726189
20
21.0196020789
30
0.0000000000
10
-19.7136217300
20
21.0041801761
30
0.0000000000
10
-19.6930931643
20
20.9897729000
30
0.0000000000
10
-19.6778254578
20
20.9813062995
30
0.0000000000
10
-19.6696992945
20
20.9772501212
30
0.0000000000
11
-19.7575837637
21
21.0823529094
31
0.0000000000
11
-19.7569068361
21
21.0704525607
31
0.0000000000
11
-19.7523142484
21
21.0534401682
31
0.0000000000
11
-19.7435206352
21
21.0367098573
31
0.0000000000
11
-19.7306513989
21
21.0205002127
31
0.0000000000
11
-19.7138900628
21
21.0050423939
31
0.0000000000
11
-19.6934756540
21
20.9905568391
31
0.0000000000
11
-19.6696992945
21
20.9772501212
31
0.0000000000
0
SPLINE
5
250
100
AcDbEntity
8
0
100
AcDbSpline
62
0
6
CONTINUOUS
70
0
71
3
72
14
73
10
74
8
42
0.0000001000
43
0.0000001000
44
0.0000000001
12
0.1195138812
22
0.0881484050
32
0.0000000000
13
0.1335919269
23
-0.0640918072
33
0.0000000000
40
0.0000000000
40
0.0000000000
40
0.0000000000
40
0.0000000000
40
0.0617119592
40
0.1925464357
40
0.3301217993
40
0.4779136849
40
0.6382110854
40
0.8121719242
40
1.0000000000
40
1.0000000000
40
1.0000000000
40
1.0000000000
10
-19.2342705690
20
22.0961848109
30
0.0000000000
10
-19.2318120904
20
22.0979980812
30
0.0000000000
10
-19.2238324804
20
22.1032365313
30
0.0000000000
10
-19.2087514855
20
22.1097837696
30
0.0000000000
10
-19.1884533546
20
22.1138138293
30
0.0000000000
10
-19.1663336974
20
22.1140116966
30
0.0000000000
10
-19.1427093429
20
22.1104350292
30
0.0000000000
10
-19.1179012222
20
22.1031713664
30
0.0000000000
10
-19.1014033022
20
22.0962057406
30
0.0000000000
10
-19.0930391974
20
22.0921929937
30
0.0000000000
11
-19.2342705690
21
22.0961848109
31
0.0000000000
11
-19.2266132172
21
22.1012101352
31
0.0000000000
11
-19.2088625709
21
22.1090027791
31
0.0000000000
11
-19.1888943733
21
22.1131021290
31
0.0000000000
11
-19.1669986847
21
22.1134486371
31
0.0000000000
11
-19.1434935640
21
22.1100372701
31
0.0000000000
11
-19.1187204493
21
22.1029175818
31
0.0000000000
11
-19.0930391974
21
22.0921929937
31
0.0000000000
0
SPLINE
5
251
100
AcDbEntity
8
0
100
AcDbSpline
62
0
6
CONTINUOUS
70
0
71
3
72
53
73
49
74
47
42
0.0000001000
43
0.0000001000
44
0.0000000001
12
0.0000000000
22
6.4119640463
32
0.0000000000
13
-0.0000000000
23
-6.4119640463
33
0.0000000000
40
0.0000000000
40
0.0000000000
40
0.0000000000
40
0.0000000000
40
0.0225680711
40
0.0444828864
40
0.0657012630
40
0.0862480831
40
0.1060939152
40
0.1252902644
40
0.1438460838
40
0.1618239030
40
0.1792895614
40
0.1963110868
40
0.2130081471
40
0.2294627904
40
0.2458214339
40
0.2621832400
40
0.2786885515
40
0.2954487006
40
0.3125660737
40
0.3301533590
40
0.3482656876
40
0.3669970188
40
0.3863640410
40
0.4064253140
40
0.4271775336
40
0.4486288579
40
0.4707759108
40
0.4935740746
40
0.5170233191
40
0.5410435988
40
0.5656248448
40
0.5906764134
40
0.6161604772
40
0.6420021180
40
0.6681195890
40
0.6944671838
40
0.7209308170
40
0.7474782286
40
0.7739897587
40
0.8004238419
40
0.8266844326
40
0.8526977812
40
0.8784105795
40
0.9037222604
40
0.9286097276
40
0.9529727446
40
0.9767941567
40
1.0000000000
40
1.0000000000
40
1.0000000000
40
1.0000000000
10
-4.4180815084
20
-1.0622375702
30
0.0000000000
10
-4.4180815084
20
-1.0140023501
30
0.0000000000
10
-4.4154513673
20
-0.9189025086
30
0.0000000000
10
-4.4032307823
20
-0.7789259843
30
0.0000000000
10
-4.3828384069
20
-0.6442591956
30
0.0000000000
10
-4.3543685530
20
-0.5155818697
30
0.0000000000
10
-4.3179269864
20
-0.3934224614
30
0.0000000000
10
-4.2736843169
20
-0.2784011994
30
0.0000000000
10
-4.2218109860
20
-0.1710154612
30
0.0000000000
10
-4.1625397679
20
-0.0717967613
30
0.0000000000
10
-4.0961267179
20
0.0187732996
30
0.0000000000
10
-4.0228542613
20
0.1002625818
30
0.0000000000
10
-3.9430799149
20
0.1722295656
30
0.0000000000
10
-3.8571396207
20
0.2343334849
30
0.0000000000
10
-3.7654865455
20
0.2862183080
30
0.0000000000
10
-3.6685328033
20
0.3276311415
30
0.0000000000
10
-3.5667866320
20
0.3583462672
30
0.0000000000
10
-3.4607446731
20
0.3782120059
30
0.0000000000
10
-3.3509204179
20
0.3871392222
30
0.0000000000
10
-3.2378766639
20
0.3850908445
30
0.0000000000
10
-3.1221083651
20
0.3720874769
30
0.0000000000
10
-3.0042172802
20
0.3482066465
30
0.0000000000
10
-2.8847014804
20
0.3135593201
30
0.0000000000
10
-2.7641651290
20
0.2683288664
30
0.0000000000
10
-2.6431420060
20
0.2127230213
30
0.0000000000
10
-2.5222061191
20
0.1470138472
30
0.0000000000
10
-2.4019367691
20
0.0715232854
30
0.0000000000
10
-2.2828612580
20
-0.0134077479
30
0.0000000000
10
-2.1655824719
20
-0.1073399638
30
0.0000000000
10
-2.0505897651
20
-0.2098696308
30
0.0000000000
10
-1.9384702275
20
-0.3204609736
30
0.0000000000
10
-1.8296993255
20
-0.4386306426
30
0.0000000000
10
-1.7248061229
20
-0.5637872608
30
0.0000000000
10
-1.6242676953
20
-0.6953441057
30
0.0000000000
10
-1.5285336254
20
-0.8326907118
30
0.0000000000
10
-1.4380678913
20
-0.9751389332
30
0.0000000000
10
-1.3532426192
20
-1.1220771018
30
0.0000000000
10
-1.2744800521
20
-1.2727472266
30
0.0000000000
10
-1.2020976104
20
-1.4265141747
30
0.0000000000
10
-1.1364438077
20
-1.5826077925
30
0.0000000000
10
-1.0777989511
20
-1.7403328572
30
0.0000000000
10
-1.0264234914
20
-1.8989548499
30
0.0000000000
10
-0.9825534354
20
-2.0577131106
30
0.0000000000
10
-0.9463660160
20
-2.2159315670
30
0.0000000000
10
-0.9180351196
20
-2.3728158595
30
0.0000000000
10
-0.8976716457
20
-2.5277246731
30
0.0000000000
10
-0.8853735035
20
-2.6798753541
30
0.0000000000
10
-0.8825476025
20
-2.7804061788
30
0.0000000000
10
-0.8825476025
20
-2.8300045232
30
0.0000000000
11
-4.4180815084
21
-1.0622375702
31
0.0000000000
11
-4.4139600526
21
-0.9175906146
31
0.0000000000
11
-4.4016066857
21
-0.7776176751
31
0.0000000000
11
-4.3810941527
21
-0.6431214375
31
0.0000000000
11
-4.3524825401
21
-0.5145203297
31
0.0000000000
11
-4.3159502187
21
-0.3926263354
31
0.0000000000
11
-4.2716044926
21
-0.2778060667
31
0.0000000000
11
-4.2197006443
21
-0.1707450951
31
0.0000000000
11
-4.1604435963
21
-0.0718689258
31
0.0000000000
11
-4.0940989434
21
0.0183528129
31
0.0000000000
11
-4.0210283965
21
0.0994240302
31
0.0000000000
11
-3.9414681386
21
0.1710634922
31
0.0000000000
11
-3.8559167544
21
0.2328097417
31
0.0000000000
11
-3.7646274596
21
0.2844662379
31
0.0000000000
11
-3.6681586710
21
0.3256991891
31
0.0000000000
11
-3.5668626385
21
0.3563490289
31
0.0000000000
11
-3.4612540478
21
0.3762400687
31
0.0000000000
11
-3.3518698073
21
0.3852657673
31
0.0000000000
11
-3.2391165784
21
0.3833773565
31
0.0000000000
11
-3.1236882601
21
0.3705796669
31
0.0000000000
11
-3.0059404997
21
0.3469029869
31
0.0000000000
11
-2.8866232754
21
0.3124902882
31
0.0000000000
11
-2.7661330853
21
0.2674531145
31
0.0000000000
11
-2.6451575455
21
0.2120406254
31
0.0000000000
11
-2.5242307831
21
0.1465014914
31
0.0000000000
11
-2.4038841197
21
0.0711196962
31
0.0000000000
11
-2.2848037777
21
-0.0136668528
31
0.0000000000
11
-2.1673815314
21
-0.1075756189
31
0.0000000000
11
-2.0523603564
21
-0.2100032415
31
0.0000000000
11
-1.9400900292
21
-0.3206267802
31
0.0000000000
11
-1.8312528333
21
-0.4387639192
31
0.0000000000
11
-1.7262478973
21
-0.5639616488
31
0.0000000000
11
-1.6255983029
21
-0.6955850315
31
0.0000000000
11
-1.5298080449
21
-0.8329477379
31
0.0000000000
11
-1.4392167933
21
-0.9755446927
31
0.0000000000
11
-1.3543684625
21
-1.1224915353
31
0.0000000000
11
-1.2755056937
21
-1.2733420216
31
0.0000000000
11
-1.2031110556
21
-1.4271469270
31
0.0000000000
11
-1.1374112809
21
-1.5833899689
31
0.0000000000
11
-1.0787535269
21
-1.7412245454
31
0.0000000000
11
-1.0273938798
21
-1.8999170506
31
0.0000000000
11
-0.9835269319
21
-2.0588436232
31
0.0000000000
11
-0.9473984534
21
-2.2170689058
31
0.0000000000
11
-0.9191096475
21
-2.3741190135
31
0.0000000000
11
-0.8988315279
21
-2.5290120671
31
0.0000000000
11
-0.8866210418
21
-2.6812652581
31
0.0000000000
11
-0.8825476025
21
-2.8300045232
31
0.0000000000
0
SPLINE
5
252
100
AcDbEntity
8
0
100
AcDbSpline
62
0
6
CONTINUOUS
70
0
71
3
72
8
73
4
74
2
42
0.0000001000
43
0.0000001000
44
0.0000000001
12
-0.0026525913
22
0.0013263206
32
0.0000000000
13
-0.0026417150
23
0.0013478556
33
0.0000000000
40
0.0000000000
40
0.0000000000
40
0.0000000000
40
0.0000000000
40
1.0000000000
40
1.0000000000
40
1.0000000000
40
1.0000000000
10
-19.4135009891
20
-7.9094058835
30
0.0000000000
10
-19.4143851862
20
-7.9089637767
30
0.0000000000
10
-19.4152675833
20
-7.9085180703
30
0.0000000000
10
-19.4161481549
20
-7.9080687852
30
0.0000000000
11
-19.4135009891
21
-7.9094058835
31
0.0000000000
11
-19.4161481549
21
-7.9080687852
31
0.0000000000
0
SPLINE
5
253
100
AcDbEntity
8
0
100
AcDbSpline
62
0
6
CONTINUOUS
70
0
71
3
72
8
73
4
74
2
42
0.0000001000
43
0.0000001000
44
0.0000000001
12
-0.0129276502
22
0.0065959445
32
0.0000000000
13
-0.0126564071
23
0.0071029359
33
0.0000000000
40
0.0000000000
40
0.0000000000
40
0.0000000000
40
0.0000000000
40
1.0000000000
40
1.0000000000
40
1.0000000000
40
1.0000000000
10
-19.4161481549
20
-7.9080687852
30
0.0000000000
10
-19.4204573717
20
-7.9058701370
30
0.0000000000
10
-19.4247228729
20
-7.9035857826
30
0.0000000000
10
-19.4289416753
20
-7.9012181373
30
0.0000000000
11
-19.4161481549
21
-7.9080687852
31
0.0000000000
11
-19.4289416753
21
-7.9012181373
31
0.0000000000
0
SPLINE
5
254
100
AcDbEntity
8
0
100
AcDbSpline
62
0
6
CONTINUOUS
70
0
71
3
72
17
73
13
74
11
42
0.0000001000
43
0.0000001000
44
0.0000000001
12
-0.5042712790
22
0.2830034273
32
0.0000000000
13
-0.0182634900
23
0.5774964613
33
0.0000000000
40
0.0000000000
40
0.0000000000
40
0.0000000000
40
0.0000000000
40
0.0576733178
40
0.1478061851
40
0.2401102204
40
0.3354746727
40
0.4346229062
40
0.5380963463
40
0.6462562410
40
0.7592934571
40
0.8772404290
40
1.0000000000
40
1.0000000000
40
1.0000000000
40
1.0000000000
10
-19.4289416753
20
-7.9012181373
30
0.0000000000
10
-19.4386360078
20
-7.8957775551
30
0.0000000000
10
-19.4628488648
20
-7.8807072090
30
0.0000000000
10
-19.4991653037
20
-7.8518456616
30
0.0000000000
10
-19.5363408130
20
-7.8131574389
30
0.0000000000
10
-19.5693775362
20
-7.7687155201
30
0.0000000000
10
-19.5980531586
20
-7.7188626806
30
0.0000000000
10
-19.6221809220
20
-7.6639700817
30
0.0000000000
10
-19.6416060307
20
-7.6044365096
30
0.0000000000
10
-19.6562040376
20
-7.5406872562
30
0.0000000000
10
-19.6658814226
20
-7.4731794622
30
0.0000000000
10
-19.6689520075
20
-7.4268736638
30
0.0000000000
10
-19.6696993469
20
-7.4032425912
30
0.0000000000
11
-19.4289416753
21
-7.9012181373
31
0.0000000000
11
-19.4572487257
21
-7.8836062962
31
0.0000000000
11
-19.4980608211
21
-7.8512576930
31
0.0000000000
11
-19.5350851860
21
-7.8128716489
31
0.0000000000
11
-19.5680555778
21
-7.7687243757
31
0.0000000000
11
-19.5967347537
21
-7.7191337089
31
0.0000000000
11
-19.6209162842
21
-7.6644569306
31
0.0000000000
11
-19.6404264212
21
-7.6050873031
31
0.0000000000
11
-19.6551249626
21
-7.5414515469
31
0.0000000000
11
-19.6649059371
21
-7.4740090960
31
0.0000000000
11
-19.6696993469
21
-7.4032425912
31
0.0000000000
0
SPLINE
5
255
100
AcDbEntity
8
0
100
AcDbSpline
62
0
6
CONTINUOUS
70
0
71
3
72
17
73
13
74
11
42
0.0000001000
43
0.0000001000
44
0.0000000001
12
-0.5679006156
22
-0.2839503728
32
0.0000000000
13
-0.5523455048
23
0.3125086112
33
0.0000000000
40
0.0000000000
40
0.0000000000
40
0.0000000000
40
0.0000000000
40
0.0973038653
40
0.1956302037
40
0.2959745141
40
0.3992088019
40
0.5060631134
40
0.6171075212
40
0.7327480045
40
0.8532322063
40
0.9786610835
40
1.0000000000
40
1.0000000000
40
1.0000000000
40
1.0000000000
10
-1.6802940570
20
-2.8586532834
30
0.0000000000
10
-1.6987136986
20
-2.8678631064
30
0.0000000000
10
-1.7369719258
20
-2.8839287473
30
0.0000000000
10
-1.7975204872
20
-2.9004817509
30
0.0000000000
10
-1.8609055021
20
-2.9094333379
30
0.0000000000
10
-1.9266962429
20
-2.9107455534
30
0.0000000000
10
-1.9944546622
20
-2.9044336819
30
0.0000000000
10
-2.0637402123
20
-2.8905612236
30
0.0000000000
10
-2.1341094313
20
-2.8692361808
30
0.0000000000
10
-2.2051154262
20
-2.8406094243
30
0.0000000000
10
-2.2556832570
20
-2.8152269304
30
0.0000000000
10
-2.2828005553
20
-2.8001059387
30
0.0000000000
10
-2.2867293735
20
-2.7978830737
30
0.0000000000
11
-1.6802940570
21
-2.8586532834
31
0.0000000000
11
-1.7372080081
21
-2.8825769847
31
0.0000000000
11
-1.7973693131
21
-2.8990901638
31
0.0000000000
11
-1.8603967798
21
-2.9080902147
31
0.0000000000
11
-1.9258816510
21
-2.9095187687
31
0.0000000000
11
-1.9933992321
21
-2.9033665611
31
0.0000000000
11
-2.0625116457
21
-2.8896734913
31
0.0000000000
11
-2.1327706714
21
-2.8685283641
31
0.0000000000
11
-2.2037206522
21
-2.8400683137
31
0.0000000000
11
-2.2749014505
21
-2.8044779146
31
0.0000000000
11
-2.2867293735
21
-2.7978830737
31
0.0000000000
0
SPLINE
5
256
100
AcDbEntity
8
0
100
AcDbSpline
62
0
6
CONTINUOUS
70
0
71
3
72
8
73
4
74
2
42
0.0000001000
43
0.0000001000
44
0.0000000001
12
-0.0119130303
22
0.0067402098
32
0.0000000000
13
-0.0118281931
23
0.0068878742
33
0.0000000000
40
0.0000000000
40
0.0000000000
40
0.0000000000
40
0.0000000000
40
1.0000000000
40
1.0000000000
40
1.0000000000
40
1.0000000000
10
-2.2867293735
20
-2.7978830737
30
0.0000000000
10
-2.2907003836
20
-2.7956363371
30
0.0000000000
10
-2.2946572651
20
-2.7933646856
30
0.0000000000
10
-2.2985999962
20
-2.7910687275
30
0.0000000000
11
-2.2867293735
21
-2.7978830737
31
0.0000000000
11
-2.2985999962
21
-2.7910687275
31
0.0000000000
0
SPLINE
5
257
100
AcDbEntity
8
0
100
AcDbSpline
62
0
6
CONTINUOUS
70
0
71
3
72
14
73
10
74
8
42
0.0000001000
43
0.0000001000
44
0.0000000001
12
-0.4460197188
22
0.2597292487
32
0.0000000000
13
-0.3279906272
23
0.3984503239
33
0.0000000000
40
0.0000000000
40
0.0000000000
40
0.0000000000
40
0.0000000000
40
0.1075077209
40
0.2736316194
40
0.4453067447
40
0.6221169444
40
0.8035537014
40
0.9890308476
40
1.0000000000
40
1.0000000000
40
1.0000000000
40
1.0000000000
10
-2.2985999962
20
-2.7910687275
30
0.0000000000
10
-2.3145835173
20
-2.7817610943
30
0.0000000000
10
-2.3546733139
20
-2.7570543326
30
0.0000000000
10
-2.4174480759
20
-2.7130626944
30
0.0000000000
10
-2.4864960383
20
-2.6575822598
30
0.0000000000
10
-2.5539382974
20
-2.5961830304
30
0.0000000000
10
-2.6193423368
20
-2.5292609742
30
0.0000000000
10
-2.6621398554
20
-2.4802981263
30
0.0000000000
10
-2.6836581394
20
-2.4542402767
30
0.0000000000
10
-2.6848573991
20
-2.4527833892
30
0.0000000000
11
-2.2985999962
21
-2.7910687275
31
0.0000000000
11
-2.3458514313
21
-2.7619879841
31
0.0000000000
11
-2.4161104569
21
-2.7128740857
31
0.0000000000
11
-2.4852228706
21
-2.6574547419
31
0.0000000000
11
-2.5527404517
21
-2.5960893684
31
0.0000000000
11
-2.6182253229
21
-2.5291759432
31
0.0000000000
11
-2.6812527896
21
-2.4571484256
31
0.0000000000
11
-2.6848573991
21
-2.4527833892
31
0.0000000000
0
SPLINE
5
258
100
AcDbEntity
8
0
100
AcDbSpline
62
0
6
CONTINUOUS
70
0
71
3
72
18
73
14
74
12
42
0.0000001000
43
0.0000001000
44
0.0000000001
12
-0.7065058727
22
-0.3532530173
32
0.0000000000
13
-0.0000000000
23
-0.7893393667
33
0.0000000000
40
0.0000000000
40
0.0000000000
40
0.0000000000
40
0.0000000000
40
0.0781888391
40
0.1572247044
40
0.2378824034
40
0.3208629013
40
0.4067530610
40
0.4960111590
40
0.5889635701
40
0.6858093939
40
0.7866298176
40
0.8913997356
40
1.0000000000
40
1.0000000000
40
1.0000000000
40
1.0000000000
10
-2.7983280457
20
-0.6225853059
30
0.0000000000
10
-2.8167416704
20
-0.6317921204
30
0.0000000000
10
-2.8525436189
20
-0.6527550449
30
0.0000000000
10
-2.9021112362
20
-0.6912557064
30
0.0000000000
10
-2.9473049892
20
-0.7365905928
30
0.0000000000
10
-2.9878307686
20
-0.7884337934
30
0.0000000000
10
-3.0234379609
20
-0.8464257150
30
0.0000000000
10
-3.0539130262
20
-0.9101758105
30
0.0000000000
10
-3.0790762781
20
-0.9792645919
30
0.0000000000
10
-3.0987802681
20
-1.0532437388
30
0.0000000000
10
-3.1129096275
20
-1.1316384709
30
0.0000000000
10
-3.1213818012
20
-1.2139415409
30
0.0000000000
10
-3.1231945278
20
-1.2701034018
30
0.0000000000
10
-3.1231945278
20
-1.2986775564
30
0.0000000000
11
-2.7983280457
21
-0.6225853059
31
0.0000000000
11
-2.8515986612
21
-0.6537509389
31
0.0000000000
11
-2.9009073336
21
-0.6919698187
31
0.0000000000
11
-2.9459253003
21
-0.7369895928
31
0.0000000000
11
-2.9863606024
21
-0.7885182905
31
0.0000000000
11
-3.0219510016
21
-0.8462217287
31
0.0000000000
11
-3.0524656803
21
-0.9097256782
31
0.0000000000
11
-3.0777067392
21
-0.9786182917
31
0.0000000000
11
-3.0975104804
21
-1.0524527742
31
0.0000000000
11
-3.1117484689
21
-1.1307502805
31
0.0000000000
11
-3.1203283661
21
-1.2130030215
31
0.0000000000
11
-3.1231945278
21
-1.2986775564
31
0.0000000000
0
SPLINE
5
259
100
AcDbEntity
8
0
100
AcDbSpline
62
0
6
CONTINUOUS
70
0
71
3
72
33
73
29
74
27
42
0.0000001000
43
0.0000001000
44
0.0000000001
12
0.0000000000
22
2.2764141733
32
0.0000000000
13
-2.2478465523
23
-0.3683952711
33
0.0000000000
40
0.0000000000
40
0.0000000000
40
0.0000000000
40
0.0000000000
40
0.0389151834
40
0.0789944275
40
0.1201224673
40
0.1621664345
40
0.2049789485
40
0.2484010066
40
0.2922647176
40
0.3363959191
40
0.3806167166
40
0.4247479764
40
0.4686118030
40
0.5120340327
40
0.5548467716
40
0.5968910136
40
0.6380193740
40
0.6780989794
40
0.7170145583
40
0.7546717767
40
0.7910008529
40
0.8259604630
40
0.8595418902
40
0.8917732734
40
0.9227236357
40
0.9525061320
40
0.9812796531
40
1.0000000000
40
1.0000000000
40
1.0000000000
40
1.0000000000
10
-1.3554275749
20
-2.1825610329
30
0.0000000000
10
-1.3554275749
20
-2.1530320079
30
0.0000000000
10
-1.3574278021
20
-2.0930757293
30
0.0000000000
10
-1.3660799741
20
-2.0022863204
30
0.0000000000
10
-1.3803733744
20
-1.9098093895
30
0.0000000000
10
-1.4002149513
20
-1.8162454330
30
0.0000000000
10
-1.4254762279
20
-1.7221956765
30
0.0000000000
10
-1.4559939379
20
-1.6282668640
30
0.0000000000
10
-1.4915709784
20
-1.5350647951
30
0.0000000000
10
-1.5319776227
20
-1.4431909756
30
0.0000000000
10
-1.5769529841
20
-1.3532384504
30
0.0000000000
10
-1.6262067118
20
-1.2657879352
30
0.0000000000
10
-1.6794209038
20
-1.1814039763
30
0.0000000000
10
-1.7362522240
20
-1.1006312474
30
0.0000000000
10
-1.7963342110
20
-1.0239909871
30
0.0000000000
10
-1.8592797659
20
-0.9519776151
30
0.0000000000
10
-1.9246838053
20
-0.8850555590
30
0.0000000000
10
-1.9921260644
20
-0.8236563296
30
0.0000000000
10
-2.0611740268
20
-0.7681758950
30
0.0000000000
10
-2.1313859434
20
-0.7189724073
30
0.0000000000
10
-2.2023138787
20
-0.6763643494
30
0.0000000000
10
-2.2735066765
20
-0.6406291651
30
0.0000000000
10
-2.3445126714
20
-0.6120024086
30
0.0000000000
10
-2.4148818904
20
-0.5906773658
30
0.0000000000
10
-2.4841674405
20
-0.5768049075
30
0.0000000000
10
-2.5519258598
20
-0.5704930360
30
0.0000000000
10
-2.6106848951
20
-0.5716650021
30
0.0000000000
10
-2.6465153694
20
-0.5760113647
30
0.0000000000
10
-2.6605421918
20
-0.5783101937
30
0.0000000000
11
-1.3554275749
21
-2.1825610329
31
0.0000000000
11
-1.3582937366
21
-2.0940203362
31
0.0000000000
11
-1.3668736337
21
-2.0031876981
31
0.0000000000
11
-1.3811116223
21
-1.9106522032
31
0.0000000000
11
-1.4009153635
21
-1.8170139796
31
0.0000000000
11
-1.4261564224
21
-1.7228803072
31
0.0000000000
11
-1.4566711011
21
-1.6288616789
31
0.0000000000
11
-1.4922615002
21
-1.5355678416
31
0.0000000000
11
-1.5326968024
21
-1.4436038417
31
0.0000000000
11
-1.5777147691
21
-1.3535661010
31
0.0000000000
11
-1.6270234415
21
-1.2660385488
31
0.0000000000
11
-1.6803030341
21
-1.1815888348
31
0.0000000000
11
-1.7372080081
21
-1.1007646478
31
0.0000000000
11
-1.7973693131
21
-1.0240901638
31
0.0000000000
11
-1.8603967798
21
-0.9520626461
31
0.0000000000
11
-1.9258816510
21
-0.8851492210
31
0.0000000000
11
-1.9933992321
21
-0.8237838475
31
0.0000000000
11
-2.0625116457
21
-0.7683645037
31
0.0000000000
11
-2.1327706714
21
-0.7192506053
31
0.0000000000
11
-2.2037206522
21
-0.6767606747
31
0.0000000000
11
-2.2749014505
21
-0.6411702756
31
0.0000000000
11
-2.3458514313
21
-0.6127102253
31
0.0000000000
11
-2.4161104569
21
-0.5915650981
31
0.0000000000
11
-2.4852228706
21
-0.5778720282
31
0.0000000000
11
-2.5527404517
21
-0.5717198206
31
0.0000000000
11
-2.6182253229
21
-0.5731483746
31
0.0000000000
11
-2.6605421918
21
-0.5783101937
31
0.0000000000
0
SPLINE
5
25A
100
AcDbEntity
8
0
100
AcDbSpline
62
0
6
CONTINUOUS
70
0
71
3
72
10
73
6
74
4
42
0.0000001000
43
0.0000001000
44
0.0000000001
12
-0.1433538128
22
-0.0234939821
32
0.0000000000
13
-0.1299409033
23
-0.0649704665
33
0.0000000000
40
0.0000000000
40
0.0000000000
40
0.0000000000
40
0.0000000000
40
0.1450073819
40
0.5747380263
40
1.0000000000
40
1.0000000000
40
1.0000000000
40
1.0000000000
10
-2.6605421918
20
-0.5783101937
30
0.0000000000
10
-2.6674713122
20
-0.5794457940
30
0.0000000000
10
-2.6948418568
20
-0.5845131996
30
0.0000000000
10
-2.7416501769
20
-0.5973098421
30
0.0000000000
10
-2.7799084040
20
-0.6133754830
30
0.0000000000
10
-2.7983280457
20
-0.6225853059
30
0.0000000000
11
-2.6605421918
21
-0.5783101937
31
0.0000000000
11
-2.6812527896
21
-0.5821484256
31
0.0000000000
11
-2.7414140945
21
-0.5986616046
31
0.0000000000
11
-2.7983280457
21
-0.6225853059
31
0.0000000000
0
SPLINE
5
25B
100
AcDbEntity
8
0
100
AcDbSpline
62
0
6
CONTINUOUS
70
0
71
3
72
16
73
12
74
10
42
0.0000001000
43
0.0000001000
44
0.0000000001
12
0.0000000000
22
-0.6441843231
32
0.0000000000
13
-0.4650775858
23
-0.4463118043
33
0.0000000000
40
0.0000000000
40
0.0000000000
40
0.0000000000
40
0.0000000000
40
0.1330713289
40
0.2614492136
40
0.3849876583
40
0.5036559004
40
0.6175534212
40
0.7269241835
40
0.8321681050
40
0.9338467260
40
1.0000000000
40
1.0000000000
40
1.0000000000
40
1.0000000000
10
-1.3554275749
20
-2.1825610329
30
0.0000000000
10
-1.3554275749
20
-2.2111351876
30
0.0000000000
10
-1.3572403014
20
-2.2672970485
30
0.0000000000
10
-1.3657124752
20
-2.3496001185
30
0.0000000000
10
-1.3798418346
20
-2.4279948505
30
0.0000000000
10
-1.3995458245
20
-2.5019739975
30
0.0000000000
10
-1.4247090765
20
-2.5710627789
30
0.0000000000
10
-1.4551841418
20
-2.6348128744
30
0.0000000000
10
-1.4907913340
20
-2.6928047960
30
0.0000000000
10
-1.5269857105
20
-2.7391069856
30
0.0000000000
10
-1.5519618853
20
-2.7651623025
30
0.0000000000
10
-1.5622173537
20
-2.7750039649
30
0.0000000000
11
-1.3554275749
21
-2.1825610329
31
0.0000000000
11
-1.3582937366
21
-2.2682355679
31
0.0000000000
11
-1.3668736337
21
-2.3504883088
31
0.0000000000
11
-1.3811116223
21
-2.4287858152
31
0.0000000000
11
-1.4009153635
21
-2.5026202976
31
0.0000000000
11
-1.4261564224
21
-2.5715129111
31
0.0000000000
11
-1.4566711011
21
-2.6350168607
31
0.0000000000
11
-1.4922615002
21
-2.6927202988
31
0.0000000000
11
-1.5326968024
21
-2.7442489966
31
0.0000000000
11
-1.5622173537
21
-2.7750039649
31
0.0000000000
0
SPLINE
5
25C
100
AcDbEntity
8
0
100
AcDbSpline
62
0
6
CONTINUOUS
70
0
71
3
72
10
73
6
74
4
42
0.0000001000
43
0.0000001000
44
0.0000000001
12
-0.0899724753
22
-0.0863421051
32
0.0000000000
13
-0.1089931032
23
-0.0606088765
33
0.0000000000
40
0.0000000000
40
0.0000000000
40
0.0000000000
40
0.0000000000
40
0.1689220992
40
0.6695252333
40
1.0000000000
40
1.0000000000
40
1.0000000000
40
1.0000000000
10
-1.5622173537
20
-2.7750039649
30
0.0000000000
10
-1.5672834668
20
-2.7798656614
30
0.0000000000
10
-1.5877603726
20
-2.7987207133
30
0.0000000000
10
-1.6206581360
20
-2.8242733971
30
0.0000000000
10
-1.6501167069
20
-2.8423870435
30
0.0000000000
10
-1.6621231971
20
-2.8490636116
30
0.0000000000
11
-1.5622173537
21
-2.7750039649
31
0.0000000000
11
-1.5777147691
21
-2.7892687706
31
0.0000000000
11
-1.6270234415
21
-2.8274876504
31
0.0000000000
11
-1.6621231971
21
-2.8490636116
31
0.0000000000
0
SPLINE
5
25D
100
AcDbEntity
8
0
100
AcDbSpline
62
0
6
CONTINUOUS
70
0
71
3
72
8
73
4
74
2
42
0.0000001000
43
0.0000001000
44
0.0000000001
12
-0.0179580754
22
-0.0099861252
32
0.0000000000
13
-0.0183783788
23
-0.0091891915
33
0.0000000000
40
0.0000000000
40
0.0000000000
40
0.0000000000
40
0.0000000000
40
1.0000000000
40
1.0000000000
40
1.0000000000
40
1.0000000000
10
-1.6621231971
20
-2.8490636116
30
0.0000000000
10
-1.6681092222
20
-2.8523923201
30
0.0000000000
10
-1.6741679307
20
-2.8555902196
30
0.0000000000
10
-1.6802940570
20
-2.8586532834
30
0.0000000000
11
-1.6621231971
21
-2.8490636116
31
0.0000000000
11
-1.6802940570
21
-2.8586532834
31
0.0000000000
0
SPLINE
5
25E
100
AcDbEntity
8
0
100
AcDbSpline
62
0
6
CONTINUOUS
70
0
71
3
72
17
73
13
74
11
42
0.0000001000
43
0.0000001000
44
0.0000000001
12
0.0000000000
22
-0.2154394529
32
0.0000000000
13
-0.2082294736
23
-0.0563493225
33
0.0000000000
40
0.0000000000
40
0.0000000000
40
0.0000000000
40
0.0000000000
40
0.1347234188
40
0.2631784264
40
0.3842185495
40
0.4978384289
40
0.6056821031
40
0.7081794316
40
0.8061541748
40
0.9020227845
40
0.9981906251
40
1.0000000000
40
1.0000000000
40
1.0000000000
40
1.0000000000
10
19.9771024425
20
-23.8405120922
30
0.0000000000
10
19.9771024425
20
-23.8501870054
30
0.0000000000
10
19.9762683809
20
-23.8691012853
30
0.0000000000
10
19.9723082086
20
-23.8964572166
30
0.0000000000
10
19.9657157392
20
-23.9217490962
30
0.0000000000
10
19.9565801352
20
-23.9446618651
30
0.0000000000
10
19.9449953058
20
-23.9649351094
30
0.0000000000
10
19.9310867612
20
-23.9822903850
30
0.0000000000
10
19.9150636737
20
-23.9964630255
30
0.0000000000
10
19.8971319824
20
-24.0072850967
30
0.0000000000
10
19.8840174870
20
-24.0121849342
30
0.0000000000
10
19.8772199850
20
-24.0140367753
30
0.0000000000
10
19.8770943966
20
-24.0140707610
30
0.0000000000
11
19.9771024425
21
-23.8405120922
31
0.0000000000
11
19.9757562421
21
-23.8695055958
31
0.0000000000
11
19.9717127292
21
-23.8968828782
31
0.0000000000
11
19.9650492307
21
-23.9220939515
31
0.0000000000
11
19.9558963729
21
-23.9447965438
31
0.0000000000
11
19.9442870592
21
-23.9649219623
31
0.0000000000
11
19.9304132751
21
-23.9821013523
31
0.0000000000
11
19.9145654632
21
-23.9960433283
31
0.0000000000
11
19.8968717868
21
-24.0066977457
31
0.0000000000
11
19.8774709904
21
-24.0139681652
31
0.0000000000
11
19.8770943966
21
-24.0140707610
31
0.0000000000
0
SPLINE
5
25F
100
AcDbEntity
8
0
100
AcDbSpline
62
0
6
CONTINUOUS
70
0
71
3
72
21
73
17
74
15
42
0.0000001000
43
0.0000001000
44
0.0000000001
12
0.3971717296
22
-0.1985858648
32
0.0000000000
13
-0.0000000000
23
-0.4440514931
33
0.0000000000
40
0.0000000000
40
0.0000000000
40
0.0000000000
40
0.0000000000
40
0.0607365341
40
0.1250274388
40
0.1922211560
40
0.2617985700
40
0.3340837376
40
0.4083565972
40
0.4836108680
40
0.5595996212
40
0.6361931951
40
0.7122914821
40
0.7869321461
40
0.8602651691
40
0.9316080320
40
1.0000000000
40
1.0000000000
40
1.0000000000
40
1.0000000000
10
19.7655810752
20
7.8719673921
30
0.0000000000
10
19.7736220200
20
7.8679469197
30
0.0000000000
10
19.7897169356
20
7.8587316182
30
0.0000000000
10
19.8129213092
20
7.8421991839
30
0.0000000000
10
19.8355357186
20
7.8227948513
30
0.0000000000
10
19.8572972333
20
7.8007501544
30
0.0000000000
10
19.8779667735
20
7.7762923514
30
0.0000000000
10
19.8972773132
20
7.7497045730
30
0.0000000000
10
19.9149536689
20
7.7213570787
30
0.0000000000
10
19.9308001204
20
7.6915585077
30
0.0000000000
10
19.9446218602
20
7.6606311371
30
0.0000000000
10
19.9562040164
20
7.6290089089
30
0.0000000000
10
19.9653925398
20
7.5971112634
30
0.0000000000
10
19.9720738834
20
7.5653115924
30
0.0000000000
10
19.9761471544
20
7.5340059160
30
0.0000000000
10
19.9771024425
20
7.5133138350
30
0.0000000000
10
19.9771024425
20
7.5031906498
30
0.0000000000
11
19.7655810752
21
7.8719673921
31
0.0000000000
11
19.7890229250
21
7.8586306535
31
0.0000000000
11
19.8123117878
21
7.8421187143
31
0.0000000000
11
19.8349909533
21
7.8227297975
31
0.0000000000
11
19.8567266198
21
7.8007725478
31
0.0000000000
11
19.8774709904
21
7.7762781750
31
0.0000000000
11
19.8968717868
21
7.7496069591
31
0.0000000000
11
19.9145654632
21
7.7212588653
31
0.0000000000
11
19.9304132751
21
7.6914690774
31
0.0000000000
11
19.9442870592
21
7.6604159033
31
0.0000000000
11
19.9558963729
21
7.6286811711
31
0.0000000000
11
19.9650492307
21
7.5968257210
31
0.0000000000
11
19.9717127292
21
7.5649511491
31
0.0000000000
11
19.9757562421
21
7.5335303539
31
0.0000000000
11
19.9771024425
21
7.5031906498
31
0.0000000000
0
SPLINE
5
260
100
AcDbEntity
8
0
100
AcDbSpline
62
0
6
CONTINUOUS
70
0
71
3
72
15
73
11
74
9
42
0.0000001000
43
0.0000001000
44
0.0000000001
12
0.1266924923
22
0.0934381720
32
0.0000000000
13
0.1406209414
23
-0.0703104707
33
0.0000000000
40
0.0000000000
40
0.0000000000
40
0.0000000000
40
0.0000000000
40
0.0021041616
40
0.1334743006
40
0.2652544799
40
0.3993387494
40
0.5375968285
40
0.6833590792
40
0.8376333894
40
1.0000000000
40
1.0000000000
40
1.0000000000
40
1.0000000000
10
-15.0331237900
20
25.1947738330
30
0.0000000000
10
-15.0330349295
20
25.1948393694
30
0.0000000000
10
-15.0273921996
20
25.1989884867
30
0.0000000000
10
-15.0154234442
20
25.2062118278
30
0.0000000000
10
-14.9958114408
20
25.2135392640
30
0.0000000000
10
-14.9748524859
20
25.2172700696
30
0.0000000000
10
-14.9528461941
20
25.2174144713
30
0.0000000000
10
-14.9300458665
20
25.2140140505
30
0.0000000000
10
-14.9067396000
20
25.2071364681
30
0.0000000000
10
-14.8914832522
20
25.2004995559
30
0.0000000000
10
-14.8838725370
20
25.1966941982
30
0.0000000000
11
-15.0331237900
21
25.1947738330
31
0.0000000000
11
-15.0328569250
21
25.1949700594
31
0.0000000000
11
-15.0151632486
21
25.2056244767
31
0.0000000000
11
-14.9957624522
21
25.2128948963
31
0.0000000000
11
-14.9750180815
21
25.2166448985
31
0.0000000000
11
-14.9532824151
21
25.2168664817
31
0.0000000000
11
-14.9306032496
21
25.2135762330
31
0.0000000000
11
-14.9073143868
21
25.2067993094
31
0.0000000000
11
-14.8838725370
21
25.1966941982
31
0.0000000000
0
SPLINE
5
261
100
AcDbEntity
8
0
100
AcDbSpline
62
0
6
CONTINUOUS
70
0
71
3
72
23
73
19
74
17
42
0.0000001000
43
0.0000001000
44
0.0000000001
12
0.0214369841
22
-0.6582948567
32
0.0000000000
13
0.6357808634
23
0.1720301029
33
0.0000000000
40
0.0000000000
40
0.0000000000
40
0.0000000000
40
0.0000000000
40
0.0754508299
40
0.1480812687
40
0.2178321894
40
0.2847447211
40
0.3489547895
40
0.4106983708
40
0.4703149650
40
0.5282458555
40
0.5850222693
40
0.6412420913
40
0.6975367727
40
0.7545328975
40
0.8128154669
40
0.8728967864
40
0.9351938529
40
1.0000000000
40
1.0000000000
40
1.0000000000
40
1.0000000000
10
15.2363068729
20
-24.6379569537
30
0.0000000000
10
15.2368460189
20
-24.6545132514
30
0.0000000000
10
15.2390629714
20
-24.6869845938
30
0.0000000000
10
15.2460443354
20
-24.7343480072
30
0.0000000000
10
15.2565763018
20
-24.7791363898
30
0.0000000000
10
15.2705908678
20
-24.8210227424
30
0.0000000000
10
15.2879976625
20
-24.8597067591
30
0.0000000000
10
15.3086838077
20
-24.8949061807
30
0.0000000000
10
15.3325124679
20
-24.9263581331
30
0.0000000000
10
15.3593206094
20
-24.9538203385
30
0.0000000000
10
15.3889164030
20
-24.9770748419
30
0.0000000000
10
15.4210779965
20
-24.9959339845
30
0.0000000000
10
15.4555557681
20
-25.0102476484
30
0.0000000000
10
15.4920790390
20
-25.0199087088
30
0.0000000000
10
15.5303639649
20
-25.0248543686
30
0.0000000000
10
15.5701219097
20
-25.0250622423
30
0.0000000000
10
15.6110506382
20
-25.0205491989
30
0.0000000000
10
15.6383610856
20
-25.0145478716
30
0.0000000000
10
15.6520952550
20
-25.0108316689
30
0.0000000000
11
15.2363068729
21
-24.6379569537
31
0.0000000000
11
15.2397617451
21
-24.6875319365
31
0.0000000000
11
15.2468135986
21
-24.7348469050
31
0.0000000000
11
15.2574114317
21
-24.7795488346
31
0.0000000000
11
15.2714788943
21
-24.8213149185
31
0.0000000000
11
15.2889148863
21
-24.8598449400
31
0.0000000000
11
15.3095941347
21
-24.8948617330
31
0.0000000000
11
15.3333677872
21
-24.9261129746
31
0.0000000000
11
15.3600647128
21
-24.9533735859
31
0.0000000000
11
15.3894928931
21
-24.9764473943
31
0.0000000000
11
15.4214406934
21
-24.9951683147
31
0.0000000000
11
15.4556781890
21
-25.0094014661
31
0.0000000000
11
15.4919587508
21
-25.0190442503
31
0.0000000000
11
15.5300214093
21
-25.0240272810
31
0.0000000000
11
15.5695925553
21
-25.0243145824
31
0.0000000000
11
15.6103864111
21
-25.0199041814
31
0.0000000000
11
15.6520952550
21
-25.0108316689
31
0.0000000000
0
SPLINE
5
262
100
AcDbEntity
8
0
100
AcDbSpline
62
0
6
CONTINUOUS
70
0
71
3
72
17
73
13
74
11
42
0.0000001000
43
0.0000001000
44
0.0000000001
12
0.0194142297
22
-0.5992949210
32
0.0000000000
13
0.5354605699
23
-0.2708583045
33
0.0000000000
40
0.0000000000
40
0.0000000000
40
0.0000000000
40
0.0000000000
40
0.1184036412
40
0.2323158793
40
0.3416720333
40
0.4465308315
40
0.5471004101
40
0.6437472083
40
0.7370021052
40
0.8275585634
40
0.9162542853
40
1.0000000000
40
1.0000000000
40
1.0000000000
40
1.0000000000
10
14.8159350444
20
-24.6460597868
30
0.0000000000
10
14.8167012829
20
-24.6697126871
30
0.0000000000
10
14.8198520600
20
-24.7160896557
30
0.0000000000
10
14.8297745122
20
-24.7837272110
30
0.0000000000
10
14.8447414775
20
-24.8476665313
30
0.0000000000
10
14.8646570098
20
-24.9074479339
30
0.0000000000
10
14.8893929405
20
-24.9626431115
30
0.0000000000
10
14.9187891249
20
-25.0128496791
30
0.0000000000
10
14.9526516610
20
-25.0576929373
30
0.0000000000
10
14.9907495423
20
-25.0968274219
30
0.0000000000
10
15.0321752041
20
-25.1294417092
30
0.0000000000
10
15.0619325379
20
-25.1470306748
30
0.0000000000
10
15.0768800473
20
-25.1545917489
30
0.0000000000
11
14.8159350444
21
-24.6460597868
31
0.0000000000
11
14.8208470398
21
-24.7168855844
31
0.0000000000
11
14.8308699880
21
-24.7844490222
31
0.0000000000
11
14.8459321629
21
-24.8482665952
31
0.0000000000
11
14.8659249676
21
-24.9078775565
31
0.0000000000
11
14.8907047346
21
-24.9628534531
31
0.0000000000
11
14.9200934157
21
-25.0127988725
31
0.0000000000
11
14.9538794751
21
-25.0573539795
31
0.0000000000
11
14.9918198006
21
-25.0961980038
31
0.0000000000
11
15.0336415626
21
-25.1290514404
31
0.0000000000
11
15.0768800473
21
-25.1545917489
31
0.0000000000
0
SPLINE
5
263
100
AcDbEntity
8
0
100
AcDbSpline
62
0
6
CONTINUOUS
70
0
71
3
72
20
73
16
74
14
42
0.0000001000
43
0.0000001000
44
0.0000000001
12
-0.3833260216
22
-0.2028951461
32
0.0000000000
13
-0.3880466945
23
0.1937138148
33
0.0000000000
40
0.0000000000
40
0.0000000000
40
0.0000000000
40
0.0000000000
40
0.0693298542
40
0.1426100115
40
0.2192587048
40
0.2985874184
40
0.3798295827
40
0.4621660391
40
0.5447485968
40
0.6267226334
40
0.7072494937
40
0.7855293967
40
0.8608256691
40
0.9324913931
40
1.0000000000
40
1.0000000000
40
1.0000000000
40
1.0000000000
10
15.2363068729
20
-24.6379569537
30
0.0000000000
10
15.2274482271
20
-24.6426458506
30
0.0000000000
10
15.2087515011
20
-24.6514114356
30
0.0000000000
10
15.1790042724
20
-24.6624482726
30
0.0000000000
10
15.1471234735
20
-24.6716178315
30
0.0000000000
10
15.1135604583
20
-24.6787895693
30
0.0000000000
10
15.0787871171
20
-24.6838627051
30
0.0000000000
10
15.0432947382
20
-24.6867652155
30
0.0000000000
10
15.0075849298
20
-24.6874559820
30
0.0000000000
10
14.9721626293
20
-24.6859252743
30
0.0000000000
10
14.9375282799
20
-24.6821948686
30
0.0000000000
10
14.9041708959
20
-24.6763178191
30
0.0000000000
10
14.8725587700
20
-24.6683764538
30
0.0000000000
10
14.8431390656
20
-24.6584836890
30
0.0000000000
10
14.8246672398
20
-24.6504188861
30
0.0000000000
10
14.8159350759
20
-24.6460597695
30
0.0000000000
11
15.2363068729
21
-24.6379569537
31
0.0000000000
11
15.2091154399
21
-24.6507935500
31
0.0000000000
11
15.1793398962
21
-24.6619083534
31
0.0000000000
11
15.1474048593
21
-24.6711428599
31
0.0000000000
11
15.1137657429
21
-24.6783653796
31
0.0000000000
11
15.0789022615
21
-24.6834729151
31
0.0000000000
11
15.0433115901
21
-24.6863926296
31
0.0000000000
11
15.0075012737
21
-24.6870828861
31
0.0000000000
11
14.9719819897
21
-24.6855338413
31
0.0000000000
11
14.9372602653
21
-24.6817675855
31
0.0000000000
11
14.9038312536
21
-24.6758378277
31
0.0000000000
11
14.8721716732
21
-24.6678291301
31
0.0000000000
11
14.8427330095
21
-24.6578557016
31
0.0000000000
11
14.8159350759
21
-24.6460597695
31
0.0000000000
0
SPLINE
5
264
100
AcDbEntity
8
0
100
AcDbSpline
62
0
6
CONTINUOUS
70
0
71
3
72
15
73
11
74
9
42
0.0000001000
43
0.0000001000
44
0.0000000001
12
-0.8948768322
22
-28.3511172262
32
0.0000000000
13
0.9229818724
23
-28.3502161717
33
0.0000000000
40
0.0000000000
40
0.0000000000
40
0.0000000000
40
0.0000000000
40
0.1266784366
40
0.2528848670
40
0.3786153386
40
0.5038660480
40
0.6286333287
40
0.7529136520
40
0.8767036283
40
1.0000000000
40
1.0000000000
40
1.0000000000
40
1.0000000000
10
15.2363068729
20
3.7225024460
30
0.0000000000
10
15.1985196735
20
2.5253440442
30
0.0000000000
10
15.1323538377
20
0.1351846735
30
0.0000000000
10
15.0613082008
20
-3.4439832513
30
0.0000000000
10
15.0186561382
20
-7.0101045371
30
0.0000000000
10
15.0044017381
20
-10.5628448935
30
0.0000000000
10
15.0185463182
20
-14.1018747300
30
0.0000000000
10
15.0610886294
20
-17.6268658580
30
0.0000000000
10
15.1320246374
20
-21.1374875150
30
0.0000000000
10
15.1983734342
20
-23.4727973564
30
0.0000000000
10
15.2363068729
20
-24.6379569537
30
0.0000000000
11
15.2363068729
21
3.7225024460
31
0.0000000000
11
15.1369260735
21
0.1306131855
31
0.0000000000
11
15.0659331823
21
-3.4485580815
31
0.0000000000
11
15.0233348092
21
-7.0146782529
31
0.0000000000
11
15.0091349115
21
-10.5674158933
31
0.0000000000
11
15.0233348081
21
-14.1064408524
31
0.0000000000
11
15.0659331802
21
-17.6314242537
31
0.0000000000
11
15.1369260703
21
-21.1420384833
31
0.0000000000
11
15.2363068729
21
-24.6379569537
31
0.0000000000
0
SPLINE
5
265
100
AcDbEntity
8
0
100
AcDbSpline
62
0
6
CONTINUOUS
70
0
71
3
72
8
73
4
74
2
42
0.0000001000
43
0.0000001000
44
0.0000000001
12
-0.0368055399
22
-0.0184027742
32
0.0000000000
13
-0.0382741215
23
-0.0151148299
33
0.0000000000
40
0.0000000000
40
0.0000000000
40
0.0000000000
40
0.0000000000
40
1.0000000000
40
1.0000000000
40
1.0000000000
40
1.0000000000
10
-1.6802940570
20
-2.8586532834
30
0.0000000000
10
-1.6925625703
20
-2.8647875415
30
0.0000000000
10
-1.7051014731
20
-2.8703810198
30
0.0000000000
10
-1.7178595136
20
-2.8754192964
30
0.0000000000
11
-1.6802940570
21
-2.8586532834
31
0.0000000000
11
-1.7178595136
21
-2.8754192964
31
0.0000000000
0
SPLINE
5
266
100
AcDbEntity
8
0
100
AcDbSpline
62
0
6
CONTINUOUS
70
0
71
3
72
15
73
11
74
9
42
0.0000001000
43
0.0000001000
44
0.0000000001
12
-0.4656110957
22
-0.1838744363
32
0.0000000000
13
-0.4562005672
23
0.2055834520
33
0.0000000000
40
0.0000000000
40
0.0000000000
40
0.0000000000
40
0.0000000000
40
0.0412139995
40
0.1659267687
40
0.2931990441
40
0.4241368388
40
0.5596661111
40
0.7005099158
40
0.8471831790
40
1.0000000000
40
1.0000000000
40
1.0000000000
40
1.0000000000
10
-1.7178595136
20
-2.8754192964
30
0.0000000000
10
-1.7242560788
20
-2.8779453634
30
0.0000000000
10
-1.7502303029
20
-2.8875533745
30
0.0000000000
10
-1.7975204872
20
-2.9004817509
30
0.0000000000
10
-1.8609055021
20
-2.9094333379
30
0.0000000000
10
-1.9266962429
20
-2.9107455534
30
0.0000000000
10
-1.9944546622
20
-2.9044336819
30
0.0000000000
10
-2.0637402123
20
-2.8905612236
30
0.0000000000
10
-2.1341094313
20
-2.8692361808
30
0.0000000000
10
-2.1804822787
20
-2.8505405169
30
0.0000000000
10
-2.2037206522
20
-2.8400683137
30
0.0000000000
11
-1.7178595136
21
-2.8754192964
31
0.0000000000
11
-1.7372080081
21
-2.8825769847
31
0.0000000000
11
-1.7973693131
21
-2.8990901638
31
0.0000000000
11
-1.8603967798
21
-2.9080902147
31
0.0000000000
11
-1.9258816510
21
-2.9095187687
31
0.0000000000
11
-1.9933992321
21
-2.9033665611
31
0.0000000000
11
-2.0625116457
21
-2.8896734913
31
0.0000000000
11
-2.1327706714
21
-2.8685283641
31
0.0000000000
11
-2.2037206522
21
-2.8400683137
31
0.0000000000
0
SPLINE
5
267
100
AcDbEntity
8
0
100
AcDbSpline
62
0
6
CONTINUOUS
70
0
71
3
72
9
73
5
74
3
42
0.0000001000
43
0.0000001000
44
0.0000000001
12
-0.1479954772
22
0.0666930803
32
0.0000000000
13
-0.1361734249
23
0.0883372239
33
0.0000000000
40
0.0000000000
40
0.0000000000
40
0.0000000000
40
0.0000000000
40
0.4903949261
40
1.0000000000
40
1.0000000000
40
1.0000000000
40
1.0000000000
10
-2.2037206522
20
-2.8400683137
30
0.0000000000
10
-2.2279127292
20
-2.8291663310
30
0.0000000000
10
-2.2763082240
20
-2.8048742399
30
0.0000000000
10
-2.3227198752
20
-2.7769936833
30
0.0000000000
10
-2.3458514313
20
-2.7619879841
30
0.0000000000
11
-2.2037206522
21
-2.8400683137
31
0.0000000000
11
-2.2749014505
21
-2.8044779146
31
0.0000000000
11
-2.3458514313
21
-2.7619879841
31
0.0000000000
0
SPLINE
5
268
100
AcDbEntity
8
0
100
AcDbSpline
62
0
6
CONTINUOUS
70
0
71
3
72
12
73
8
74
6
42
0.0000001000
43
0.0000001000
44
0.0000000001
12
-0.0881007290
22
0.3632213439
32
0.0000000000
13
0.0000000000
23
0.3737093116
33
0.0000000000
40
0.0000000000
40
0.0000000000
40
0.0000000000
40
0.0000000000
40
0.0121788287
40
0.2682855934
40
0.5188130750
40
0.7629519194
40
1.0000000000
40
1.0000000000
40
1.0000000000
40
1.0000000000
10
-3.0766393378
20
-1.6686495687
30
0.0000000000
10
-3.0769969924
20
-1.6671750318
30
0.0000000000
10
-3.0848349061
20
-1.6346827551
30
0.0000000000
10
-3.0982487282
20
-1.5714291999
30
0.0000000000
10
-3.1125421286
20
-1.4789522690
30
0.0000000000
10
-3.1211943006
20
-1.3881628601
30
0.0000000000
10
-3.1231945278
20
-1.3282065814
30
0.0000000000
10
-3.1231945278
20
-1.2986775564
30
0.0000000000
11
-3.0766393378
21
-1.6686495687
31
0.0000000000
11
-3.0777067392
21
-1.6642246097
31
0.0000000000
11
-3.0975104804
21
-1.5705863862
31
0.0000000000
11
-3.1117484689
21
-1.4780508912
31
0.0000000000
11
-3.1203283661
21
-1.3872182532
31
0.0000000000
11
-3.1231945278
21
-1.2986775564
31
0.0000000000
0
SPLINE
5
269
100
AcDbEntity
8
0
100
AcDbSpline
62
0
6
CONTINUOUS
70
0
71
3
72
18
73
14
74
12
42
0.0000001000
43
0.0000001000
44
0.0000000001
12
-0.7065058727
22
-0.3532530173
32
0.0000000000
13
-0.0000000000
23
-0.7893393667
33
0.0000000000
40
0.0000000000
40
0.0000000000
40
0.0000000000
40
0.0000000000
40
0.0781888391
40
0.1572247044
40
0.2378824034
40
0.3208629013
40
0.4067530610
40
0.4960111590
40
0.5889635701
40
0.6858093939
40
0.7866298176
40
0.8913997356
40
1.0000000000
40
1.0000000000
40
1.0000000000
40
1.0000000000
10
-2.7983280457
20
-0.6225853059
30
0.0000000000
10
-2.8167416704
20
-0.6317921204
30
0.0000000000
10
-2.8525436189
20
-0.6527550449
30
0.0000000000
10
-2.9021112362
20
-0.6912557064
30
0.0000000000
10
-2.9473049892
20
-0.7365905928
30
0.0000000000
10
-2.9878307686
20
-0.7884337934
30
0.0000000000
10
-3.0234379609
20
-0.8464257150
30
0.0000000000
10
-3.0539130262
20
-0.9101758105
30
0.0000000000
10
-3.0790762781
20
-0.9792645919
30
0.0000000000
10
-3.0987802681
20
-1.0532437388
30
0.0000000000
10
-3.1129096275
20
-1.1316384709
30
0.0000000000
10
-3.1213818012
20
-1.2139415409
30
0.0000000000
10
-3.1231945278
20
-1.2701034018
30
0.0000000000
10
-3.1231945278
20
-1.2986775564
30
0.0000000000
11
-2.7983280457
21
-0.6225853059
31
0.0000000000
11
-2.8515986612
21
-0.6537509389
31
0.0000000000
11
-2.9009073336
21
-0.6919698187
31
0.0000000000
11
-2.9459253003
21
-0.7369895928
31
0.0000000000
11
-2.9863606024
21
-0.7885182905
31
0.0000000000
11
-3.0219510016
21
-0.8462217287
31
0.0000000000
11
-3.0524656803
21
-0.9097256782
31
0.0000000000
11
-3.0777067392
21
-0.9786182917
31
0.0000000000
11
-3.0975104804
21
-1.0524527742
31
0.0000000000
11
-3.1117484689
21
-1.1307502805
31
0.0000000000
11
-3.1203283661
21
-1.2130030215
31
0.0000000000
11
-3.1231945278
21
-1.2986775564
31
0.0000000000
0
SPLINE
5
26A
100
AcDbEntity
8
0
100
AcDbSpline
62
0
6
CONTINUOUS
70
0
71
3
72
15
73
11
74
9
42
0.0000001000
43
0.0000001000
44
0.0000000001
12
-0.8954980168
22
-28.3711441455
32
0.0000000000
13
0.9236229265
23
-28.3702424649
33
0.0000000000
40
0.0000000000
40
0.0000000000
40
0.0000000000
40
0.0000000000
40
0.1266784699
40
0.2528849118
40
0.3786153894
40
0.5038660989
40
0.6286333736
40
0.7529136847
40
0.8767036424
40
1.0000000000
40
1.0000000000
40
1.0000000000
40
1.0000000000
10
14.8159350444
20
3.7344329019
30
0.0000000000
10
14.7781216049
20
2.5364285258
30
0.0000000000
10
14.7119098365
20
0.1445803555
30
0.0000000000
10
14.6408148742
20
-3.4371163078
30
0.0000000000
10
14.5981332027
20
-7.0057567912
30
0.0000000000
10
14.5838689068
20
-10.5610067217
30
0.0000000000
10
14.5980233061
20
-14.1025362761
30
0.0000000000
10
14.6405951498
20
-17.6300170340
30
0.0000000000
10
14.7115804058
20
-21.1431181042
30
0.0000000000
10
14.7779752635
20
-23.4800772668
30
0.0000000000
10
14.8159350444
20
-24.6460597868
30
0.0000000000
11
14.8159350444
21
3.7344329019
31
0.0000000000
11
14.7164852401
21
0.1400054358
31
0.0000000000
11
14.6454430656
21
-3.4416944213
31
0.0000000000
11
14.6028151208
21
-7.0103337923
31
0.0000000000
11
14.5886053660
21
-10.5655810075
31
0.0000000000
11
14.6028151208
21
-14.1071056838
31
0.0000000000
11
14.6454430656
21
-17.6345787123
31
0.0000000000
11
14.7164852401
21
-21.1476722477
31
0.0000000000
11
14.8159350444
21
-24.6460597868
31
0.0000000000
0
SPLINE
5
26B
100
AcDbEntity
8
0
100
AcDbSpline
62
0
6
CONTINUOUS
70
0
71
3
72
20
73
16
74
14
42
0.0000001000
43
0.0000001000
44
0.0000000001
12
-0.3955767551
22
-0.1726244986
32
0.0000000000
13
-0.3859052316
23
0.1932804670
33
0.0000000000
40
0.0000000000
40
0.0000000000
40
0.0000000000
40
0.0000000000
40
0.0674920152
40
0.1394044241
40
0.2151271677
40
0.2939358978
40
0.3750218711
40
0.4575179020
40
0.5405220316
40
0.6231200140
40
0.7044074150
40
0.7835120186
40
0.8596173175
40
0.9319881405
40
1.0000000000
40
1.0000000000
40
1.0000000000
40
1.0000000000
10
15.2363068729
20
3.7225024460
30
0.0000000000
10
15.2274074487
20
3.7186188543
30
0.0000000000
10
15.2086372120
20
3.7114701829
30
0.0000000000
10
15.1789011940
20
3.7027915253
30
0.0000000000
10
15.1470321444
20
3.6959098469
30
0.0000000000
10
15.1134808794
20
3.6909237783
30
0.0000000000
10
15.0787191686
20
3.6879039025
30
0.0000000000
10
15.0432384107
20
3.6868935583
30
0.0000000000
10
15.0075404596
20
3.6879073152
30
0.0000000000
10
14.9721305930
20
3.6909308411
30
0.0000000000
10
14.9375096943
20
3.6959211176
30
0.0000000000
10
14.9041672228
20
3.7028069696
30
0.0000000000
10
14.8725721812
20
3.7114910594
30
0.0000000000
10
14.8431715709
20
3.7218492269
30
0.0000000000
10
14.8246837552
20
3.7300511139
30
0.0000000000
10
14.8159350444
20
3.7344329019
30
0.0000000000
11
15.2363068729
21
3.7225024460
31
0.0000000000
11
15.2091154402
21
3.7120542740
31
0.0000000000
11
15.1793398958
21
3.7032938345
31
0.0000000000
11
15.1474048576
21
3.6963460569
31
0.0000000000
11
15.1137657391
21
3.6913100208
31
0.0000000000
11
15.0789022551
21
3.6882575433
31
0.0000000000
11
15.0433115807
21
3.6872321545
31
0.0000000000
11
15.0075012611
21
3.6882484772
31
0.0000000000
11
14.9719819736
21
3.6912920180
31
0.0000000000
11
14.9372602456
21
3.6963193741
31
0.0000000000
11
14.9038312306
21
3.7032588522
31
0.0000000000
11
14.8721716470
21
3.7120114911
31
0.0000000000
11
14.8427329804
21
3.7224524726
31
0.0000000000
11
14.8159350444
21
3.7344329019
31
0.0000000000
0
SPLINE
5
26C
100
AcDbEntity
8
0
100
AcDbSpline
62
0
6
CONTINUOUS
70
0
71
3
72
23
73
19
74
17
42
0.0000001000
43
0.0000001000
44
0.0000000001
12
-0.7453997028
22
-0.5181322716
32
0.0000000000
13
-0.0286468612
23
-0.9073373822
33
0.0000000000
40
0.0000000000
40
0.0000000000
40
0.0000000000
40
0.0000000000
40
0.0573867067
40
0.1165859472
40
0.1774047308
40
0.2396317013
40
0.3030320595
40
0.3673507987
40
0.4323170611
40
0.4976498146
40
0.5630627020
40
0.6282681712
40
0.6929816207
40
0.7569259513
40
0.8198372523
40
0.8814690617
40
0.9415953554
40
1.0000000000
40
1.0000000000
40
1.0000000000
40
1.0000000000
10
15.6520952550
20
4.4968993346
30
0.0000000000
10
15.6378365770
20
4.4869880331
30
0.0000000000
10
15.6095860653
20
4.4658028489
30
0.0000000000
10
15.5688429155
20
4.4307956485
30
0.0000000000
10
15.5293218734
20
4.3922847189
30
0.0000000000
10
15.4913110504
20
4.3505504200
30
0.0000000000
10
15.4550808510
20
4.3058910132
30
0.0000000000
10
15.4208902962
20
4.2586261882
30
0.0000000000
10
15.3889838558
20
4.2090943717
30
0.0000000000
10
15.3595898847
20
4.1576503823
30
0.0000000000
10
15.3329186978
20
4.1046625742
30
0.0000000000
10
15.3091611613
20
4.0505102687
30
0.0000000000
10
15.2884873699
20
3.9955812150
30
0.0000000000
10
15.2710453491
20
3.9402684403
30
0.0000000000
10
15.2569599241
20
3.8849676513
30
0.0000000000
10
15.2463322537
20
3.8300731649
30
0.0000000000
10
15.2392393555
20
3.7759863376
30
0.0000000000
10
15.2368645761
20
3.7401666852
30
0.0000000000
10
15.2363068729
20
3.7225024460
30
0.0000000000
11
15.6520952550
21
4.4968993346
31
0.0000000000
11
15.6103826751
21
4.4656910848
31
0.0000000000
11
15.5695887856
21
4.4307068826
31
0.0000000000
11
15.5300176365
21
4.3922057092
31
0.0000000000
11
15.4919550011
21
4.3504655392
31
0.0000000000
11
15.4556745084
21
4.3057865800
31
0.0000000000
11
15.4214371160
21
4.2584902271
31
0.0000000000
11
15.3894894607
21
4.2089172567
31
0.0000000000
11
15.3600615339
21
4.1574247142
31
0.0000000000
11
15.3333649668
21
4.1043831065
31
0.0000000000
11
15.3095917358
21
4.0501740132
31
0.0000000000
11
15.2889129016
21
3.9951876457
31
0.0000000000
11
15.2714773118
21
3.9398200601
31
0.0000000000
11
15.2574102378
21
3.8844694101
31
0.0000000000
11
15.2468127818
21
3.8295335204
31
0.0000000000
11
15.2397612675
21
3.7754089159
31
0.0000000000
11
15.2363068729
21
3.7225024460
31
0.0000000000
0
SPLINE
5
26D
100
AcDbEntity
8
0
100
AcDbSpline
62
0
6
CONTINUOUS
70
0
71
3
72
23
73
19
74
17
42
0.0000001000
43
0.0000001000
44
0.0000000001
12
-1.0613681206
22
-0.7443201164
32
0.0000000000
13
-0.0406890306
23
-1.2957079632
33
0.0000000000
40
0.0000000000
40
0.0000000000
40
0.0000000000
40
0.0000000000
40
0.0573049430
40
0.1164250039
40
0.1771826981
40
0.2393657456
40
0.3027382377
40
0.3670438524
40
0.4320102594
40
0.4973549195
40
0.5627897102
40
0.6280251304
40
0.6927744838
40
0.7567584363
40
0.8197106999
40
0.8813823135
40
0.9415445770
40
1.0000000000
40
1.0000000000
40
1.0000000000
40
1.0000000000
10
15.4068614027
20
4.8422426937
30
0.0000000000
10
15.3865875228
20
4.8280249530
30
0.0000000000
10
15.3464265852
20
4.7976467726
30
0.0000000000
10
15.2885202599
20
4.7474830439
30
0.0000000000
10
15.2323561705
20
4.6923236497
30
0.0000000000
10
15.1783382882
20
4.6325657402
30
0.0000000000
10
15.1268509072
20
4.5686362731
30
0.0000000000
10
15.0782620606
20
4.5009928588
30
0.0000000000
10
15.0329191024
20
4.4301197407
30
0.0000000000
10
14.9911464851
20
4.3565245052
30
0.0000000000
10
14.9532430474
20
4.2807340052
30
0.0000000000
10
14.9194800233
20
4.2032907458
30
0.0000000000
10
14.8900991477
20
4.1247492129
30
0.0000000000
10
14.8653107597
20
4.0456713678
30
0.0000000000
10
14.8452923157
20
3.9666228927
30
0.0000000000
10
14.8301873966
20
3.8881674716
30
0.0000000000
10
14.8201046411
20
3.8108694458
30
0.0000000000
10
14.8167278759
20
3.7596799543
30
0.0000000000
10
14.8159350444
20
3.7344329019
30
0.0000000000
11
15.4068614027
21
4.8422426937
31
0.0000000000
11
15.3475641982
21
4.7974943894
31
0.0000000000
11
15.2895897892
21
4.7473678293
31
0.0000000000
11
15.2333531846
21
4.6922220222
31
0.0000000000
11
15.1792604669
21
4.6324551673
31
0.0000000000
11
15.1277004664
21
4.5684970894
31
0.0000000000
11
15.0790440003
21
4.5008078503
31
0.0000000000
11
15.0336415240
21
4.4298751159
31
0.0000000000
11
14.9918197632
21
4.3562095780
31
0.0000000000
11
14.9538794441
21
4.2803411922
31
0.0000000000
11
14.9200933915
21
4.2028156996
31
0.0000000000
11
14.8907047123
21
4.1241910988
31
0.0000000000
11
14.8659249463
21
4.0450336607
31
0.0000000000
11
14.8459321481
21
3.9659125709
31
0.0000000000
11
14.8308699775
21
3.8873964551
31
0.0000000000
11
14.8208470317
21
3.8100520298
31
0.0000000000
11
14.8159350444
21
3.7344329019
31
0.0000000000
0
SPLINE
5
26E
100
AcDbEntity
8
0
100
AcDbSpline
62
0
6
CONTINUOUS
70
0
71
3
72
20
73
16
74
14
42
0.0000001000
43
0.0000001000
44
0.0000000001
12
-0.0679212356
22
0.4310246399
32
0.0000000000
13
-0.3869823151
23
0.2015942020
33
0.0000000000
40
0.0000000000
40
0.0000000000
40
0.0000000000
40
0.0000000000
40
0.0687513670
40
0.1416690499
40
0.2181477329
40
0.2974695616
40
0.3788343854
40
0.4613863666
40
0.5442384756
40
0.6264959226
40
0.7072793413
40
0.7857484735
40
0.8611272272
40
0.9327312875
40
1.0000000000
40
1.0000000000
40
1.0000000000
40
1.0000000000
10
15.6520952550
20
4.4968993346
30
0.0000000000
10
15.6505386957
20
4.5067771790
30
0.0000000000
10
15.6463393272
20
4.5269831498
30
0.0000000000
10
15.6373310281
20
4.5574376989
30
0.0000000000
10
15.6255406899
20
4.5885755490
30
0.0000000000
10
15.6111374621
20
4.6199473386
30
0.0000000000
10
15.5943274717
20
4.6511037577
30
0.0000000000
10
15.5753522685
20
4.6815961220
30
0.0000000000
10
15.5544849346
20
4.7109853024
30
0.0000000000
10
15.5320261221
20
4.7388479334
30
0.0000000000
10
15.5082992845
20
4.7647830847
30
0.0000000000
10
15.4836461470
20
4.7884179968
30
0.0000000000
10
15.4584193495
20
4.8094146953
30
0.0000000000
10
15.4329829236
20
4.8274713164
30
0.0000000000
10
15.4155386700
20
4.8377223662
30
0.0000000000
10
15.4068614027
20
4.8422426937
30
0.0000000000
11
15.6520952550
21
4.4968993346
31
0.0000000000
11
15.6460740468
21
4.5262880609
31
0.0000000000
11
15.6371130993
21
4.5568172647
31
0.0000000000
11
15.6253425799
21
4.5880434756
31
0.0000000000
11
15.6109334684
21
4.6195130986
31
0.0000000000
11
15.5940950729
21
4.6507690025
31
0.0000000000
11
15.5750719895
21
4.6813571608
31
0.0000000000
11
15.5541405496
21
4.7108332465
31
0.0000000000
11
15.5316048054
21
4.7387690868
31
0.0000000000
11
15.5077921134
21
4.7647588826
31
0.0000000000
11
15.4830483795
21
4.7884251031
31
0.0000000000
11
15.4577330338
21
4.8094239702
31
0.0000000000
11
15.4322138099
21
4.8274504520
31
0.0000000000
11
15.4068614027
21
4.8422426937
31
0.0000000000
0
SPLINE
5
26F
100
AcDbEntity
8
0
100
AcDbSpline
62
0
6
CONTINUOUS
70
0
71
3
72
53
73
49
74
47
42
0.0000001000
43
0.0000001000
44
0.0000000001
12
0.0000000000
22
-6.4026688544
32
0.0000000000
13
-0.0000000000
23
6.4026688544
33
0.0000000000
40
0.0000000000
40
0.0000000000
40
0.0000000000
40
0.0000000000
40
0.0225968977
40
0.0445305054
40
0.0657561097
40
0.0862973137
40
0.1061237234
40
0.1252862529
40
0.1437938476
40
0.1617095855
40
0.1791005766
40
0.1960369476
40
0.2126410175
40
0.2289983810
40
0.2452591103
40
0.2615264646
40
0.2779444530
40
0.2946277291
40
0.3116812729
40
0.3292194649
40
0.3472984144
40
0.3660121694
40
0.3853769337
40
0.4054502202
40
0.4262272857
40
0.4477145841
40
0.4699068831
40
0.4927575655
40
0.5162647217
40
0.5403463159
40
0.5649905926
40
0.5901051866
40
0.6156508845
40
0.6415515144
40
0.6677243097
40
0.6941228768
40
0.7206325740
40
0.7472210018
40
0.7737684825
40
0.8002338087
40
0.8265214665
40
0.8525585009
40
0.8782926265
40
0.9036244475
40
0.9285322615
40
0.9529172880
40
0.9767639876
40
1.0000000000
40
1.0000000000
40
1.0000000000
40
1.0000000000
10
-0.8825476025
20
-2.8300045232
30
0.0000000000
10
-0.8825476025
20
-2.8782313409
30
0.0000000000
10
-0.8851456240
20
-2.9732944354
30
0.0000000000
10
-0.8972225184
20
-3.1131948102
30
0.0000000000
10
-0.9173781570
20
-3.2477398712
30
0.0000000000
10
-0.9455226324
20
-3.3762526234
30
0.0000000000
10
-0.9815560750
20
-3.4982078884
30
0.0000000000
10
-1.0253157700
20
-3.6129896706
30
0.0000000000
10
-1.0766404535
20
-3.7201053207
30
0.0000000000
10
-1.1353082166
20
-3.8190285124
30
0.0000000000
10
-1.2010750263
20
-3.9092830646
30
0.0000000000
10
-1.2736711310
20
-3.9904420310
30
0.0000000000
10
-1.3527523863
20
-4.0620691515
30
0.0000000000
10
-1.4379954443
20
-4.1238284957
30
0.0000000000
10
-1.5289597727
20
-4.1753693704
30
0.0000000000
10
-1.6252445597
20
-4.2164444043
30
0.0000000000
10
-1.7263528150
20
-4.2468343011
30
0.0000000000
10
-1.8317985486
20
-4.2663941658
30
0.0000000000
10
-1.9410788260
20
-4.2750417261
30
0.0000000000
10
-2.0536411594
20
-4.2727463847
30
0.0000000000
10
-2.1689999400
20
-4.2595341974
30
0.0000000000
10
-2.2865619608
20
-4.2354872256
30
0.0000000000
10
-2.4058358757
20
-4.2007196768
30
0.0000000000
10
-2.5262227620
20
-4.1554171407
30
0.0000000000
10
-2.6471920026
20
-4.0997885040
30
0.0000000000
10
-2.7681708948
20
-4.0341059664
30
0.0000000000
10
-2.8885794156
20
-3.9586907146
30
0.0000000000
10
-3.0078877194
20
-3.8738820046
30
0.0000000000
10
-3.1254883951
20
-3.7801165817
30
0.0000000000
10
-3.2408861094
20
-3.6777949508
30
0.0000000000
10
-3.3534858797
20
-3.5674487641
30
0.0000000000
10
-3.4628033089
20
-3.4495567672
30
0.0000000000
10
-3.5682988446
20
-3.3247050013
30
0.0000000000
10
-3.6694840821
20
-3.1934744379
30
0.0000000000
10
-3.7658973079
20
-3.0564694481
30
0.0000000000
10
-3.8570616098
20
-2.9143716679
30
0.0000000000
10
-3.9425920574
20
-2.7677863644
30
0.0000000000
10
-4.0220529173
20
-2.6174647872
30
0.0000000000
10
-4.0951140712
20
-2.4640357349
30
0.0000000000
10
-4.1614141487
20
-2.3082629811
30
0.0000000000
10
-4.2206609638
20
-2.1508358390
30
0.0000000000
10
-4.2725828859
20
-1.9924833209
30
0.0000000000
10
-4.3169336870
20
-1.8339610448
30
0.0000000000
10
-4.3535273862
20
-1.6759408133
30
0.0000000000
10
-4.3821823880
20
-1.5192132606
30
0.0000000000
10
-4.4027819009
20
-1.3644168687
30
0.0000000000
10
-4.4152234895
20
-1.2123323443
30
0.0000000000
10
-4.4180815084
20
-1.1118284012
30
0.0000000000
10
-4.4180815084
20
-1.0622375702
30
0.0000000000
11
-0.8825476025
21
-2.8300045232
31
0.0000000000
11
-0.8866213274
21
-2.9746276135
31
0.0000000000
11
-0.8988322889
21
-3.1145293502
31
0.0000000000
11
-0.9191105461
21
-3.2489084500
31
0.0000000000
11
-0.9473999402
21
-3.3773484484
31
0.0000000000
11
-0.9835285609
21
-3.4990405924
31
0.0000000000
11
-1.0273958822
21
-3.6136216587
31
0.0000000000
11
-1.0787560053
21
-3.7204107677
31
0.0000000000
11
-1.1374136926
21
-3.8189872567
31
0.0000000000
11
-1.2031143767
21
-3.9088870110
31
0.0000000000
11
-1.2755087978
21
-3.9896201654
31
0.0000000000
11
-1.3543723968
21
-4.0609112979
31
0.0000000000
11
-1.4392206646
21
-4.1223059892
31
0.0000000000
11
-1.5298123046
21
-4.1736136581
31
0.0000000000
11
-1.6256029461
21
-4.2145075357
31
0.0000000000
11
-1.7262523138
21
-4.2448340430
31
0.0000000000
11
-1.8312581329
21
-4.2644236971
31
0.0000000000
11
-1.9400950015
21
-4.2731757097
31
0.0000000000
11
-2.0523660432
21
-4.2710462053
31
0.0000000000
11
-2.1673871055
21
-4.2580448877
31
0.0000000000
11
-2.2848095640
21
-4.2342055567
31
0.0000000000
11
-2.4038901206
21
-4.1996745242
31
0.0000000000
11
-2.5242363984
21
-4.1545653943
31
0.0000000000
11
-2.6451636857
21
-4.0991287791
31
0.0000000000
11
-2.7661387050
21
-4.0336137735
31
0.0000000000
11
-2.8866292858
21
-3.9583039370
31
0.0000000000
11
-3.0059462998
21
-3.8736357239
31
0.0000000000
11
-3.1236938518
21
-3.7798896107
31
0.0000000000
11
-3.2391222875
21
-3.6776656184
31
0.0000000000
11
-3.3518748028
21
-3.5672831738
31
0.0000000000
11
-3.4612593760
21
-3.4494197234
31
0.0000000000
11
-3.5668670818
21
-3.3245233788
31
0.0000000000
11
-3.6681633456
21
-3.1932233308
31
0.0000000000
11
-3.7646317508
21
-3.0561996980
31
0.0000000000
11
-3.8559206566
21
-2.9139515703
31
0.0000000000
11
-3.9414721067
21
-2.7673562872
31
0.0000000000
11
-4.0210315288
21
-2.6168541277
31
0.0000000000
11
-4.0941022964
21
-2.4633872870
31
0.0000000000
11
-4.1604460321
21
-2.3074662257
31
0.0000000000
11
-4.2197031485
21
-2.1499313304
31
0.0000000000
11
-4.2716065165
21
-1.9915106856
31
0.0000000000
11
-4.3159518657
21
-1.8328233136
31
0.0000000000
11
-4.3524840436
21
-1.6747998807
31
0.0000000000
11
-4.3810950616
21
-1.5179108790
31
0.0000000000
11
-4.4016074556
21
-1.3631349627
31
0.0000000000
11
-4.4139603415
21
-1.2109529716
31
0.0000000000
11
-4.4180815084
21
-1.0622375702
31
0.0000000000
0
SPLINE
5
270
100
AcDbEntity
8
0
100
AcDbSpline
62
0
6
CONTINUOUS
70
0
71
3
72
10
73
6
74
4
42
0.0000001000
43
0.0000001000
44
0.0000000001
12
0.1399056737
22
0.1451952227
32
0.0000000000
13
0.1627516860
23
0.1189716112
33
0.0000000000
40
0.0000000000
40
0.0000000000
40
0.0000000000
40
0.0000000000
40
0.2577248208
40
0.6349717661
40
1.0000000000
40
1.0000000000
40
1.0000000000
40
1.0000000000
10
-19.2442788769
20
21.9592174131
30
0.0000000000
10
-19.2322598220
20
21.9716908840
30
0.0000000000
10
-19.2020410334
20
22.0018374749
30
0.0000000000
10
-19.1520647189
20
22.0468254543
30
0.0000000000
10
-19.1128421842
20
22.0777169947
30
0.0000000000
10
-19.0930391974
20
22.0921929937
30
0.0000000000
11
-19.2442788769
21
21.9592174131
31
0.0000000000
11
-19.2074796379
21
21.9959025428
31
0.0000000000
11
-19.1509048383
21
22.0467289077
31
0.0000000000
11
-19.0930391974
21
22.0921929937
31
0.0000000000
0
SPLINE
5
271
100
AcDbEntity
8
0
100
AcDbSpline
62
0
6
CONTINUOUS
70
0
71
3
72
8
73
4
74
2
42
0.0000001000
43
0.0000001000
44
0.0000000001
12
-0.0034324707
22
0.1091150950
32
0.0000000000
13
-0.0034052033
23
0.1091159794
33
0.0000000000
40
0.0000000000
40
0.0000000000
40
0.0000000000
40
0.0000000000
40
1.0000000000
40
1.0000000000
40
1.0000000000
40
1.0000000000
10
-19.6696993469
20
-7.4032425912
30
0.0000000000
10
-19.6708435038
20
-7.3668708928
30
0.0000000000
10
-19.6719831152
20
-7.3304990464
30
0.0000000000
10
-19.6731181830
20
-7.2941270533
30
0.0000000000
11
-19.6696993469
21
-7.4032425912
31
0.0000000000
11
-19.6731181830
21
-7.2941270533
31
0.0000000000
0
SPLINE
5
272
100
AcDbEntity
8
0
100
AcDbSpline
62
0
6
CONTINUOUS
70
0
71
3
72
53
73
49
74
47
42
0.0000001000
43
0.0000001000
44
0.0000000001
12
0.0000000000
22
6.4119640463
32
0.0000000000
13
-0.0000000000
23
-6.4119640463
33
0.0000000000
40
0.0000000000
40
0.0000000000
40
0.0000000000
40
0.0000000000
40
0.0225680711
40
0.0444828864
40
0.0657012630
40
0.0862480831
40
0.1060939152
40
0.1252902644
40
0.1438460838
40
0.1618239030
40
0.1792895614
40
0.1963110868
40
0.2130081471
40
0.2294627904
40
0.2458214339
40
0.2621832400
40
0.2786885515
40
0.2954487006
40
0.3125660737
40
0.3301533590
40
0.3482656876
40
0.3669970188
40
0.3863640410
40
0.4064253140
40
0.4271775336
40
0.4486288579
40
0.4707759108
40
0.4935740746
40
0.5170233191
40
0.5410435988
40
0.5656248448
40
0.5906764134
40
0.6161604772
40
0.6420021180
40
0.6681195890
40
0.6944671838
40
0.7209308170
40
0.7474782286
40
0.7739897587
40
0.8004238419
40
0.8266844326
40
0.8526977812
40
0.8784105795
40
0.9037222604
40
0.9286097276
40
0.9529727446
40
0.9767941567
40
1.0000000000
40
1.0000000000
40
1.0000000000
40
1.0000000000
10
-4.4180815084
20
-1.0622375702
30
0.0000000000
10
-4.4180815084
20
-1.0140023501
30
0.0000000000
10
-4.4154513673
20
-0.9189025086
30
0.0000000000
10
-4.4032307823
20
-0.7789259843
30
0.0000000000
10
-4.3828384069
20
-0.6442591956
30
0.0000000000
10
-4.3543685530
20
-0.5155818697
30
0.0000000000
10
-4.3179269864
20
-0.3934224614
30
0.0000000000
10
-4.2736843169
20
-0.2784011994
30
0.0000000000
10
-4.2218109860
20
-0.1710154612
30
0.0000000000
10
-4.1625397679
20
-0.0717967613
30
0.0000000000
10
-4.0961267179
20
0.0187732996
30
0.0000000000
10
-4.0228542613
20
0.1002625818
30
0.0000000000
10
-3.9430799149
20
0.1722295656
30
0.0000000000
10
-3.8571396207
20
0.2343334849
30
0.0000000000
10
-3.7654865455
20
0.2862183080
30
0.0000000000
10
-3.6685328033
20
0.3276311415
30
0.0000000000
10
-3.5667866320
20
0.3583462672
30
0.0000000000
10
-3.4607446731
20
0.3782120059
30
0.0000000000
10
-3.3509204179
20
0.3871392222
30
0.0000000000
10
-3.2378766639
20
0.3850908445
30
0.0000000000
10
-3.1221083651
20
0.3720874769
30
0.0000000000
10
-3.0042172802
20
0.3482066465
30
0.0000000000
10
-2.8847014804
20
0.3135593201
30
0.0000000000
10
-2.7641651290
20
0.2683288664
30
0.0000000000
10
-2.6431420060
20
0.2127230213
30
0.0000000000
10
-2.5222061191
20
0.1470138472
30
0.0000000000
10
-2.4019367691
20
0.0715232854
30
0.0000000000
10
-2.2828612580
20
-0.0134077479
30
0.0000000000
10
-2.1655824719
20
-0.1073399638
30
0.0000000000
10
-2.0505897651
20
-0.2098696308
30
0.0000000000
10
-1.9384702275
20
-0.3204609736
30
0.0000000000
10
-1.8296993255
20
-0.4386306426
30
0.0000000000
10
-1.7248061229
20
-0.5637872608
30
0.0000000000
10
-1.6242676953
20
-0.6953441057
30
0.0000000000
10
-1.5285336254
20
-0.8326907118
30
0.0000000000
10
-1.4380678913
20
-0.9751389332
30
0.0000000000
10
-1.3532426192
20
-1.1220771018
30
0.0000000000
10
-1.2744800521
20
-1.2727472266
30
0.0000000000
10
-1.2020976104
20
-1.4265141747
30
0.0000000000
10
-1.1364438077
20
-1.5826077925
30
0.0000000000
10
-1.0777989511
20
-1.7403328572
30
0.0000000000
10
-1.0264234914
20
-1.8989548499
30
0.0000000000
10
-0.9825534354
20
-2.0577131106
30
0.0000000000
10
-0.9463660160
20
-2.2159315670
30
0.0000000000
10
-0.9180351196
20
-2.3728158595
30
0.0000000000
10
-0.8976716457
20
-2.5277246731
30
0.0000000000
10
-0.8853735035
20
-2.6798753541
30
0.0000000000
10
-0.8825476025
20
-2.7804061788
30
0.0000000000
10
-0.8825476025
20
-2.8300045232
30
0.0000000000
11
-4.4180815084
21
-1.0622375702
31
0.0000000000
11
-4.4139600526
21
-0.9175906146
31
0.0000000000
11
-4.4016066857
21
-0.7776176751
31
0.0000000000
11
-4.3810941527
21
-0.6431214375
31
0.0000000000
11
-4.3524825401
21
-0.5145203297
31
0.0000000000
11
-4.3159502187
21
-0.3926263354
31
0.0000000000
11
-4.2716044926
21
-0.2778060667
31
0.0000000000
11
-4.2197006443
21
-0.1707450951
31
0.0000000000
11
-4.1604435963
21
-0.0718689258
31
0.0000000000
11
-4.0940989434
21
0.0183528129
31
0.0000000000
11
-4.0210283965
21
0.0994240302
31
0.0000000000
11
-3.9414681386
21
0.1710634922
31
0.0000000000
11
-3.8559167544
21
0.2328097417
31
0.0000000000
11
-3.7646274596
21
0.2844662379
31
0.0000000000
11
-3.6681586710
21
0.3256991891
31
0.0000000000
11
-3.5668626385
21
0.3563490289
31
0.0000000000
11
-3.4612540478
21
0.3762400687
31
0.0000000000
11
-3.3518698073
21
0.3852657673
31
0.0000000000
11
-3.2391165784
21
0.3833773565
31
0.0000000000
11
-3.1236882601
21
0.3705796669
31
0.0000000000
11
-3.0059404997
21
0.3469029869
31
0.0000000000
11
-2.8866232754
21
0.3124902882
31
0.0000000000
11
-2.7661330853
21
0.2674531145
31
0.0000000000
11
-2.6451575455
21
0.2120406254
31
0.0000000000
11
-2.5242307831
21
0.1465014914
31
0.0000000000
11
-2.4038841197
21
0.0711196962
31
0.0000000000
11
-2.2848037777
21
-0.0136668528
31
0.0000000000
11
-2.1673815314
21
-0.1075756189
31
0.0000000000
11
-2.0523603564
21
-0.2100032415
31
0.0000000000
11
-1.9400900292
21
-0.3206267802
31
0.0000000000
11
-1.8312528333
21
-0.4387639192
31
0.0000000000
11
-1.7262478973
21
-0.5639616488
31
0.0000000000
11
-1.6255983029
21
-0.6955850315
31
0.0000000000
11
-1.5298080449
21
-0.8329477379
31
0.0000000000
11
-1.4392167933
21
-0.9755446927
31
0.0000000000
11
-1.3543684625
21
-1.1224915353
31
0.0000000000
11
-1.2755056937
21
-1.2733420216
31
0.0000000000
11
-1.2031110556
21
-1.4271469270
31
0.0000000000
11
-1.1374112809
21
-1.5833899689
31
0.0000000000
11
-1.0787535269
21
-1.7412245454
31
0.0000000000
11
-1.0273938798
21
-1.8999170506
31
0.0000000000
11
-0.9835269319
21
-2.0588436232
31
0.0000000000
11
-0.9473984534
21
-2.2170689058
31
0.0000000000
11
-0.9191096475
21
-2.3741190135
31
0.0000000000
11
-0.8988315279
21
-2.5290120671
31
0.0000000000
11
-0.8866210418
21
-2.6812652581
31
0.0000000000
11
-0.8825476025
21
-2.8300045232
31
0.0000000000
0
SPLINE
5
273
100
AcDbEntity
8
0
100
AcDbSpline
62
0
6
CONTINUOUS
70
0
71
3
72
17
73
13
74
11
42
0.0000001000
43
0.0000001000
44
0.0000000001
12
-0.5322307118
22
0.2667966561
32
0.0000000000
13
-0.0188038536
23
0.5945829032
33
0.0000000000
40
0.0000000000
40
0.0000000000
40
0.0000000000
40
0.0000000000
40
0.0847528219
40
0.1722955541
40
0.2619470619
40
0.3545710398
40
0.4508700651
40
0.5513700040
40
0.6564217236
40
0.7662106058
40
0.8807681528
40
1.0000000000
40
1.0000000000
40
1.0000000000
40
1.0000000000
10
-19.4138319528
20
-7.9092401884
30
0.0000000000
10
-19.4288679710
20
-7.9017029319
30
0.0000000000
10
-19.4583738455
20
-7.8842636145
30
0.0000000000
10
-19.4991653037
20
-7.8518456616
30
0.0000000000
10
-19.5363408130
20
-7.8131574389
30
0.0000000000
10
-19.5693775362
20
-7.7687155201
30
0.0000000000
10
-19.5980531586
20
-7.7188626806
30
0.0000000000
10
-19.6221809220
20
-7.6639700817
30
0.0000000000
10
-19.6416060307
20
-7.6044365096
30
0.0000000000
10
-19.6562040376
20
-7.5406872562
30
0.0000000000
10
-19.6658814226
20
-7.4731794622
30
0.0000000000
10
-19.6689520075
20
-7.4268736638
30
0.0000000000
10
-19.6696993469
20
-7.4032425912
30
0.0000000000
11
-19.4138319528
21
-7.9092401884
31
0.0000000000
11
-19.4572487257
21
-7.8836062962
31
0.0000000000
11
-19.4980608211
21
-7.8512576930
31
0.0000000000
11
-19.5350851860
21
-7.8128716489
31
0.0000000000
11
-19.5680555778
21
-7.7687243757
31
0.0000000000
11
-19.5967347537
21
-7.7191337089
31
0.0000000000
11
-19.6209162842
21
-7.6644569306
31
0.0000000000
11
-19.6404264212
21
-7.6050873031
31
0.0000000000
11
-19.6551249626
21
-7.5414515469
31
0.0000000000
11
-19.6649059371
21
-7.4740090960
31
0.0000000000
11
-19.6696993469
21
-7.4032425912
31
0.0000000000
0
SPLINE
5
274
100
AcDbEntity
8
0
100
AcDbSpline
62
0
6
CONTINUOUS
70
0
71
3
72
14
73
10
74
8
42
0.0000001000
43
0.0000001000
44
0.0000000001
12
0.0121532849
22
-0.1399754641
32
0.0000000000
13
0.1253613369
23
-0.0627806604
33
0.0000000000
40
0.0000000000
40
0.0000000000
40
0.0000000000
40
0.0000000000
40
0.0260917608
40
0.1620961209
40
0.3049279520
40
0.4582561187
40
0.6245278252
40
0.8050162278
40
1.0000000000
40
1.0000000000
40
1.0000000000
40
1.0000000000
10
-19.7573051159
20
-7.3012351343
30
0.0000000000
10
-19.7571994157
20
-7.3024525365
30
0.0000000000
10
-19.7563747816
20
-7.3100006503
30
0.0000000000
10
-19.7528592642
20
-7.3239334801
30
0.0000000000
10
-19.7438137988
20
-7.3421438805
30
0.0000000000
10
-19.7306923226
20
-7.3594515787
30
0.0000000000
10
-19.7137276360
20
-7.3756489623
30
0.0000000000
10
-19.6931768593
20
-7.3905439256
30
0.0000000000
10
-19.6778471556
20
-7.3991621878
30
0.0000000000
10
-19.6696993468
20
-7.4032425912
30
0.0000000000
11
-19.7573051159
21
-7.3012351343
31
0.0000000000
11
-19.7569068875
21
-7.3048788285
31
0.0000000000
11
-19.7523143030
21
-7.3233857207
31
0.0000000000
11
-19.7435206917
21
-7.3413771352
31
0.0000000000
11
-19.7306514562
21
-7.3585965030
31
0.0000000000
11
-19.7138901196
21
-7.3747982654
31
0.0000000000
11
-19.6934757090
21
-7.3897513750
31
0.0000000000
11
-19.6696993468
21
-7.4032425912
31
0.0000000000
0
SPLINE
5
275
100
AcDbEntity
8
0
100
AcDbSpline
62
0
6
CONTINUOUS
70
0
71
3
72
14
73
10
74
8
42
0.0000001000
43
0.0000001000
44
0.0000000001
12
-0.0040837929
22
-0.1444082447
32
0.0000000000
13
0.1289185874
23
-0.0643497743
33
0.0000000000
40
0.0000000000
40
0.0000000000
40
0.0000000000
40
0.0000000000
40
0.0818124566
40
0.2041098228
40
0.3352849481
40
0.4789285844
40
0.6371740402
40
0.8109001159
40
1.0000000000
40
1.0000000000
40
1.0000000000
40
1.0000000000
10
-19.7575871227
20
21.0822375812
30
0.0000000000
10
-19.7576984911
20
21.0782994501
30
0.0000000000
10
-19.7571257433
20
21.0684478613
30
0.0000000000
10
-19.7527851729
20
21.0527828258
30
0.0000000000
10
-19.7437013439
20
21.0358613640
30
0.0000000000
10
-19.7305726189
20
21.0196020789
30
0.0000000000
10
-19.7136217300
20
21.0041801761
30
0.0000000000
10
-19.6930931643
20
20.9897729000
30
0.0000000000
10
-19.6778254578
20
20.9813062995
30
0.0000000000
10
-19.6696992945
20
20.9772501212
30
0.0000000000
11
-19.7575871227
21
21.0822375812
31
0.0000000000
11
-19.7569068361
21
21.0704525607
31
0.0000000000
11
-19.7523142484
21
21.0534401682
31
0.0000000000
11
-19.7435206352
21
21.0367098573
31
0.0000000000
11
-19.7306513989
21
21.0205002127
31
0.0000000000
11
-19.7138900628
21
21.0050423939
31
0.0000000000
11
-19.6934756540
21
20.9905568391
31
0.0000000000
11
-19.6696992945
21
20.9772501212
31
0.0000000000
0
SPLINE
5
276
100
AcDbEntity
8
0
100
AcDbSpline
62
0
6
CONTINUOUS
70
0
71
3
72
16
73
12
74
10
42
0.0000001000
43
0.0000001000
44
0.0000000001
12
-0.0320443416
22
-0.2342965924
32
0.0000000000
13
-0.2285757625
23
-0.0618362805
33
0.0000000000
40
0.0000000000
40
0.0000000000
40
0.0000000000
40
0.0000000000
40
0.1384183407
40
0.2713841348
40
0.3985280733
40
0.5197895362
40
0.6354648679
40
0.7462417898
40
0.8532034335
40
0.9577820007
40
1.0000000000
40
1.0000000000
40
1.0000000000
40
1.0000000000
10
15.6520952550
20
-25.0108316689
30
0.0000000000
10
15.6506167468
20
-25.0216419841
30
0.0000000000
10
15.6467137019
20
-25.0427172841
30
0.0000000000
10
15.6378139463
20
-25.0729056994
30
0.0000000000
10
15.6260944761
20
-25.1006656132
30
0.0000000000
10
15.6117110974
20
-25.1255931868
30
0.0000000000
10
15.5948538233
20
-25.1473236055
30
0.0000000000
10
15.5757484421
20
-25.1655266196
30
0.0000000000
10
15.5546605760
20
-25.1799111737
30
0.0000000000
10
15.5363497973
20
-25.1882166678
30
0.0000000000
10
15.5252741395
20
-25.1916449676
30
0.0000000000
10
15.5220574691
20
-25.1925151690
30
0.0000000000
11
15.6520952550
21
-25.0108316689
31
0.0000000000
11
15.6460740461
21
-25.0430059622
31
0.0000000000
11
15.6371130975
21
-25.0731455074
31
0.0000000000
11
15.6253425769
21
-25.1008124941
31
0.0000000000
11
15.6109334642
21
-25.1256050289
31
0.0000000000
11
15.5940950676
21
-25.1471629727
31
0.0000000000
11
15.5750719835
21
-25.1651731725
31
0.0000000000
11
15.5541405433
21
-25.1793740102
31
0.0000000000
11
15.5316047992
21
-25.1895592030
31
0.0000000000
11
15.5220574691
21
-25.1925151690
31
0.0000000000
0
SPLINE
5
277
100
AcDbEntity
8
CURVE
100
AcDbSpline
6
CONTINUOUS
70
0
71
3
72
8
73
4
74
2
42
0.0000001000
43
0.0000001000
44
0.0000000001
12
0.4049732836
22
0.2395200652
32
0.5851542071
13
0.4053772489
23
0.2397209143
33
0.5847757173
40
0.0000000000
40
0.0000000000
40
0.0000000000
40
0.0000000000
40
1.0000000000
40
1.0000000000
40
1.0000000000
40
1.0000000000
10
-4.3210341499
20
8.3393604957
30
6.5565175730
10
-4.1860430554
20
8.4192005174
30
6.7515689754
10
-4.0509845865
20
8.4990740417
30
6.9465573636
10
-3.9158588369
20
8.5789810131
30
7.1414826027
11
-4.3210341499
21
8.3393604957
31
6.5565175730
11
-3.9158588369
21
8.5789810131
31
7.1414826027
0
SPLINE
5
278
100
AcDbEntity
8
CURVE
100
AcDbSpline
6
CONTINUOUS
70
0
71
3
72
47
73
43
74
41
42
0.0000001000
43
0.0000001000
44
0.0000000001
12
0.0446342183
22
2.5912833506
32
1.4445389841
13
0.0348317144
23
1.7785764972
33
0.9866414201
40
0.0000000000
40
0.0000000000
40
0.0000000000
40
0.0000000000
40
0.0625000000
40
0.1250000000
40
0.1875000000
40
0.2500000000
40
0.3125000000
40
0.3437500000
40
0.3750000000
40
0.4062500000
40
0.4218750000
40
0.4375000000
40
0.4531250000
40
0.4687500000
40
0.4765625000
40
0.4843750000
40
0.4882812500
40
0.4921875000
40
0.4960937500
40
0.4980468750
40
0.4990234375
40
0.5000000000
40
0.5009765625
40
0.5019531250
40
0.5039062500
40
0.5078125000
40
0.5117187500
40
0.5156250000
40
0.5234375000
40
0.5312500000
40
0.5468750000
40
0.5625000000
40
0.5781250000
40
0.5937500000
40
0.6250000000
40
0.6562500000
40
0.6875000000
40
0.7500000000
40
0.8125000000
40
0.8750000000
40
0.9375000000
40
1.0000000000
40
1.0000000000
40
1.0000000000
40
1.0000000000
10
-4.3607671178
20
6.1544304958
30
5.3409273289
10
-4.3598372382
20
6.2084155656
30
5.3710218910
10
-4.3579774791
20
6.3163857052
30
5.4312110154
10
-4.3551878405
20
6.4783409147
30
5.5214947019
10
-4.3523982019
20
6.6402961240
30
5.6117783884
10
-4.3496085632
20
6.8022513335
30
5.7020620749
10
-4.3472838643
20
6.9372140078
30
5.7772984802
10
-4.3454241052
20
7.0451841479
30
5.8374876048
10
-4.3440292859
20
7.1261617512
30
5.8826294473
10
-4.3428669364
20
7.1936430929
30
5.9202476525
10
-4.3419370570
20
7.2476281536
30
5.9503422095
10
-4.3412396470
20
7.2881169835
30
5.9729131467
10
-4.3405422386
20
7.3286056824
30
5.9954840100
10
-4.3399610600
20
7.3623466730
30
6.0142932928
10
-4.3394961281
20
7.3893385514
30
6.0293402040
10
-4.3392055206
20
7.4062105563
30
6.0387456959
10
-4.3389730921
20
7.4197033946
30
6.0462674044
10
-4.3387986133
20
7.4298360718
30
6.0519160376
10
-4.3386537150
20
7.4382384600
30
6.0565998445
10
-4.3385513036
20
7.4442015930
30
6.0599244065
10
-4.3384943170
20
7.4474819026
30
6.0617524916
10
-4.3384472553
20
7.4503004451
30
6.0633254356
10
-4.3384167136
20
7.4517493438
30
6.0641266912
10
-4.3383702289
20
7.4541589559
30
6.0654642056
10
-4.3382915656
20
7.4581531859
30
6.0676794427
10
-4.3381777857
20
7.4639756019
30
6.0709096345
10
-4.3380418507
20
7.4709126897
30
6.0747577997
10
-4.3378603942
20
7.4801795381
30
6.0798984892
10
-4.3376336453
20
7.4917571416
30
6.0863209947
10
-4.3372708071
20
7.5102846366
30
6.0965988794
10
-4.3368172730
20
7.5334428628
30
6.1094455915
10
-4.3362730262
20
7.5612332240
30
6.1248619220
10
-4.3357287810
20
7.5890234542
30
6.1402781786
10
-4.3350031202
20
7.6260771403
30
6.1608332133
10
-4.3340960443
20
7.6723942321
30
6.1865269978
10
-4.3330075533
20
7.7279747491
30
6.2173595430
10
-4.3315562318
20
7.8020821027
30
6.2584696019
10
-4.3297420800
20
7.8947162955
30
6.3098571760
10
-4.3275650979
20
8.0058773265
30
6.3715222647
10
-4.3253881157
20
8.1170383576
30
6.4331873534
10
-4.3232111336
20
8.2281993887
30
6.4948524422
10
-4.3217598122
20
8.3023067427
30
6.5359625014
10
-4.3210341514
20
8.3393604197
30
6.5565175310
11
-4.3607671178
21
6.1544304958
31
5.3409273289
11
-4.3579774791
21
6.3163857052
31
5.4312110154
11
-4.3551878405
21
6.4783409147
31
5.5214947019
11
-4.3523982019
21
6.6402961241
31
5.6117783884
11
-4.3496085632
21
6.8022513335
31
5.7020620749
11
-4.3468189246
21
6.9642065429
31
5.7923457614
11
-4.3454241052
21
7.0451841476
31
5.8374876046
11
-4.3440292859
21
7.1261617523
31
5.8826294479
11
-4.3426344666
21
7.2071393570
31
5.9277712911
11
-4.3419370569
21
7.2476281594
31
5.9503422128
11
-4.3412396473
21
7.2881169617
31
5.9729131344
11
-4.3405422376
21
7.3286057641
31
5.9954840560
11
-4.3398448279
21
7.3690945664
31
6.0180549777
11
-4.3394961231
21
7.3893389676
31
6.0293404385
11
-4.3391474183
21
7.4095833688
31
6.0406258993
11
-4.3389730659
21
7.4197055694
31
6.0462686297
11
-4.3387987135
21
7.4298277699
31
6.0519113601
11
-4.3386243610
21
7.4399499705
31
6.0575540905
11
-4.3385371848
21
7.4450110708
31
6.0603754557
11
-4.3384935967
21
7.4475416210
31
6.0617861383
11
-4.3384500086
21
7.4500721711
31
6.0631968209
11
-4.3384159933
21
7.4518090622
31
6.0641603379
11
-4.3383819779
21
7.4535459533
31
6.0651238549
11
-4.3383139472
21
7.4570197356
31
6.0670508890
11
-4.3381778859
21
7.4639673000
31
6.0709049570
11
-4.3380418245
21
7.4709148644
31
6.0747590250
11
-4.3379057631
21
7.4778624289
31
6.0786130931
11
-4.3376336403
21
7.4917575578
31
6.0863212292
11
-4.3373615176
21
7.5056526867
31
6.0940293653
11
-4.3368172720
21
7.5334429444
31
6.1094456375
11
-4.3362730265
21
7.5612332022
31
6.1248619097
11
-4.3357287809
21
7.5890234600
31
6.1402781818
11
-4.3351845354
21
7.6168137177
31
6.1556944540
11
-4.3340960443
21
7.6723942333
31
6.1865269984
11
-4.3330075533
21
7.7279747488
31
6.2173595428
11
-4.3319190622
21
7.7835552643
31
6.2481920872
11
-4.3297420800
21
7.8947162954
31
6.3098571759
11
-4.3275650979
21
8.0058773265
31
6.3715222647
11
-4.3253881157
21
8.1170383576
31
6.4331873534
11
-4.3232111336
21
8.2281993887
31
6.4948524422
11
-4.3210341514
21
8.3393604197
31
6.5565175310
0
SPLINE
5
279
100
AcDbEntity
8
CURVE
100
AcDbSpline
6
CONTINUOUS
70
0
71
3
72
8
73
4
74
2
42
0.0000001000
43
0.0000001000
44
0.0000000001
12
-0.3894942735
22
0.6342545439
32
-0.0985500197
13
-0.3890694265
23
0.6344484877
33
-0.0989082319
40
0.0000000000
40
0.0000000000
40
0.0000000000
40
0.0000000000
40
1.0000000000
40
1.0000000000
40
1.0000000000
40
1.0000000000
10
-3.9714852229
20
5.5200789069
30
5.4396564661
10
-4.1013166474
20
5.7314970882
30
5.4068064595
10
-4.2310773089
20
5.9429476666
30
5.3738967395
10
-4.3607671178
20
6.1544304958
30
5.3409273289
11
-3.9714852229
21
5.5200789069
31
5.4396564661
11
-4.3607671178
21
6.1544304958
31
5.3409273289
0
SPLINE
5
27A
100
AcDbEntity
8
CURVE
100
AcDbSpline
6
CONTINUOUS
70
0
71
3
72
51
73
47
74
45
42
0.0000001000
43
0.0000001000
44
0.0000000001
12
-0.0521222988
22
2.5426935623
32
1.5282104591
13
-0.0591304726
23
3.4638578459
33
2.0681372483
40
0.0000000000
40
0.0000000000
40
0.0000000000
40
0.0000000000
40
0.0625000000
40
0.1250000000
40
0.1875000000
40
0.2500000000
40
0.2812500000
40
0.3125000000
40
0.3437500000
40
0.3750000000
40
0.4062500000
40
0.4218750000
40
0.4375000000
40
0.4531250000
40
0.4609375000
40
0.4687500000
40
0.4765625000
40
0.4843750000
40
0.4882812500
40
0.4921875000
40
0.4960937500
40
0.4980468750
40
0.4990234375
40
0.5000000000
40
0.5009765625
40
0.5019531250
40
0.5039062500
40
0.5078125000
40
0.5117187500
40
0.5156250000
40
0.5234375000
40
0.5312500000
40
0.5390625000
40
0.5468750000
40
0.5625000000
40
0.5781250000
40
0.5937500000
40
0.6250000000
40
0.6562500000
40
0.6875000000
40
0.7187500000
40
0.7500000000
40
0.8125000000
40
0.8750000000
40
0.9375000000
40
1.0000000000
40
1.0000000000
40
1.0000000000
40
1.0000000000
10
-1.0732895942
20
-12.4144777338
30
-1.6967802211
10
-1.0743754755
20
-12.3615049512
30
-1.6649425032
10
-1.0765472379
20
-12.2555593861
30
-1.6012670674
10
-1.0798048816
20
-12.0966410385
30
-1.5057539137
10
-1.0830625253
20
-11.9377226908
30
-1.4102407600
10
-1.0857772283
20
-11.8052907345
30
-1.3306464653
10
-1.0879489908
20
-11.6993451694
30
-1.2669710295
10
-1.0895778126
20
-11.6198859956
30
-1.2192144526
10
-1.0912066344
20
-11.5404268216
30
-1.1714578757
10
-1.0928354563
20
-11.4609676483
30
-1.1237012991
10
-1.0941928078
20
-11.3947516687
30
-1.0839041510
10
-1.0952786890
20
-11.3417788889
30
-1.0520664347
10
-1.0960931000
20
-11.3020492936
30
-1.0281881414
10
-1.0967717756
20
-11.2689413307
30
-1.0082895830
10
-1.0973147166
20
-11.2424548860
30
-0.9923706927
10
-1.0977219208
20
-11.2225902558
30
-0.9804316442
10
-1.0981291309
20
-11.2027248495
30
-0.9684921408
10
-1.0984684543
20
-11.1861727618
30
-0.9585439716
10
-1.0987399542
20
-11.1729256776
30
-0.9505822629
10
-1.0989434666
20
-11.1630051560
30
-0.9446196512
10
-1.0991134182
20
-11.1546910052
30
-0.9396232308
10
-1.0992316818
20
-11.1489634322
30
-0.9361798559
10
-1.0993003579
20
-11.1455463639
30
-0.9341277103
10
-1.0993487752
20
-11.1433896902
30
-0.9328266468
10
-1.0994090032
20
-11.1396805910
30
-0.9306156520
10
-1.0994851875
20
-11.1352766289
30
-0.9279850532
10
-1.0996204295
20
-11.1273173986
30
-0.9232336254
10
-1.0998126289
20
-11.1160789731
30
-0.9165231848
10
-1.1000436976
20
-11.1025364032
30
-0.9084375632
10
-1.1003516392
20
-11.0844993655
30
-0.8976682943
10
-1.1007366178
20
-11.0619463009
30
-0.8842027414
10
-1.1011985699
20
-11.0348855243
30
-0.8680457784
10
-1.1016605280
20
-11.0078239716
30
-0.8518883604
10
-1.1022764700
20
-10.9717421725
30
-0.8303452954
10
-1.1030463982
20
-10.9266398306
30
-0.8034164096
10
-1.1039703118
20
-10.8725170602
30
-0.7711017700
10
-1.1052021967
20
-10.8003533523
30
-0.7280155758
10
-1.1067420527
20
-10.7101487222
30
-0.6741578357
10
-1.1085898800
20
-10.6019031641
30
-0.6095285464
10
-1.1104377072
20
-10.4936576066
30
-0.5448992575
10
-1.1122855345
20
-10.3854120488
30
-0.4802699685
10
-1.1147493042
20
-10.2410846386
30
-0.3940975831
10
-1.1178290163
20
-10.0606753758
30
-0.2863821014
10
-1.1215246709
20
-9.8441842604
30
-0.1571235234
10
-1.1252203254
20
-9.6276931451
30
-0.0278649454
10
-1.1276840951
20
-9.4833657348
30
0.0583074399
10
-1.1289159799
20
-9.4112020297
30
0.1013936326
11
-1.0732895942
21
-12.4144777338
31
-1.6967802211
11
-1.0765472379
21
-12.2555593861
31
-1.6012670674
11
-1.0798048816
21
-12.0966410385
31
-1.5057539137
11
-1.0830625253
21
-11.9377226908
31
-1.4102407600
11
-1.0863201689
21
-11.7788043432
31
-1.3147276063
11
-1.0879489908
21
-11.6993451694
31
-1.2669710295
11
-1.0895778126
21
-11.6198859956
31
-1.2192144526
11
-1.0912066344
21
-11.5404268217
31
-1.1714578758
11
-1.0928354563
21
-11.4609676479
31
-1.1237012989
11
-1.0944642781
21
-11.3815084741
31
-1.0759447221
11
-1.0952786890
21
-11.3417788872
31
-1.0520664337
11
-1.0960931000
21
-11.3020493003
31
-1.0281881452
11
-1.0969075109
21
-11.2623197134
31
-1.0043098568
11
-1.0973147163
21
-11.2424549199
31
-0.9923707126
11
-1.0977219218
21
-11.2225901265
31
-0.9804315684
11
-1.0981291272
21
-11.2027253330
31
-0.9684924242
11
-1.0985363327
21
-11.1828605395
31
-0.9565532800
11
-1.0987399354
21
-11.1729281428
31
-0.9505837079
11
-1.0989435382
21
-11.1629957461
31
-0.9446141358
11
-1.0991471409
21
-11.1530633494
31
-0.9386445637
11
-1.0992489423
21
-11.1480971510
31
-0.9356597776
11
-1.0992998429
21
-11.1456140518
31
-0.9341673846
11
-1.0993507436
21
-11.1431309526
31
-0.9326749915
11
-1.0994084882
21
-11.1397482790
31
-0.9306553263
11
-1.0994662328
21
-11.1363656053
31
-0.9286356610
11
-1.0995817220
21
-11.1296002579
31
-0.9245963304
11
-1.0998127004
21
-11.1160695632
31
-0.9165176693
11
-1.1000436789
21
-11.1025388685
31
-0.9084390082
11
-1.1002746573
21
-11.0890081738
31
-0.9003603470
11
-1.1007366141
21
-11.0619467844
31
-0.8842030248
11
-1.1011985709
21
-11.0348853949
31
-0.8680457025
11
-1.1016605277
21
-11.0078240055
31
-0.8518883803
11
-1.1021224845
21
-10.9807626161
31
-0.8357310580
11
-1.1030463982
21
-10.9266398373
31
-0.8034164135
11
-1.1039703118
21
-10.8725170584
31
-0.7711017690
11
-1.1048942254
21
-10.8183942796
31
-0.7387871245
11
-1.1067420527
21
-10.7101487219
31
-0.6741578355
11
-1.1085898800
21
-10.6019031642
31
-0.6095285465
11
-1.1104377072
21
-10.4936576065
31
-0.5448992575
11
-1.1122855345
21
-10.3854120488
31
-0.4802699685
11
-1.1141333618
21
-10.2771664912
31
-0.4156406795
11
-1.1178290163
21
-10.0606753758
31
-0.2863821014
11
-1.1215246709
21
-9.8441842604
31
-0.1571235234
11
-1.1252203254
21
-9.6276931451
31
-0.0278649454
11
-1.1289159799
21
-9.4112020297
31
0.1013936326
0
SPLINE
5
27B
100
AcDbEntity
8
CURVE
100
AcDbSpline
6
CONTINUOUS
70
0
71
3
72
51
73
47
74
45
42
0.0000001000
43
0.0000001000
44
0.0000000001
12
-0.0521222988
22
2.5426935623
32
1.5282104591
13
-0.0591304726
23
3.4638578459
33
2.0681372483
40
0.0000000000
40
0.0000000000
40
0.0000000000
40
0.0000000000
40
0.0625000000
40
0.1250000000
40
0.1875000000
40
0.2500000000
40
0.2812500000
40
0.3125000000
40
0.3437500000
40
0.3750000000
40
0.4062500000
40
0.4218750000
40
0.4375000000
40
0.4531250000
40
0.4609375000
40
0.4687500000
40
0.4765625000
40
0.4843750000
40
0.4882812500
40
0.4921875000
40
0.4960937500
40
0.4980468750
40
0.4990234375
40
0.5000000000
40
0.5009765625
40
0.5019531250
40
0.5039062500
40
0.5078125000
40
0.5117187500
40
0.5156250000
40
0.5234375000
40
0.5312500000
40
0.5390625000
40
0.5468750000
40
0.5625000000
40
0.5781250000
40
0.5937500000
40
0.6250000000
40
0.6562500000
40
0.6875000000
40
0.7187500000
40
0.7500000000
40
0.8125000000
40
0.8750000000
40
0.9375000000
40
1.0000000000
40
1.0000000000
40
1.0000000000
40
1.0000000000
10
-3.0531886288
20
-11.4245282165
30
-3.4114230819
10
-3.0542745100
20
-11.3715554339
30
-3.3795853640
10
-3.0564462724
20
-11.2656098689
30
-3.3159099282
10
-3.0597039161
20
-11.1066915212
30
-3.2203967745
10
-3.0629615598
20
-10.9477731736
30
-3.1248836208
10
-3.0656762628
20
-10.8153412172
30
-3.0452893261
10
-3.0678480253
20
-10.7093956521
30
-2.9816138903
10
-3.0694768471
20
-10.6299364783
30
-2.9338573135
10
-3.0711056690
20
-10.5504773044
30
-2.8861007366
10
-3.0727344908
20
-10.4710181310
30
-2.8383441600
10
-3.0740918423
20
-10.4048021515
30
-2.7985470118
10
-3.0751777235
20
-10.3518293717
30
-2.7667092955
10
-3.0759921345
20
-10.3120997764
30
-2.7428310022
10
-3.0766708101
20
-10.2789918135
30
-2.7229324439
10
-3.0772137511
20
-10.2525053688
30
-2.7070135536
10
-3.0776209553
20
-10.2326407385
30
-2.6950745050
10
-3.0780281655
20
-10.2127753322
30
-2.6831350016
10
-3.0783674888
20
-10.1962232445
30
-2.6731868324
10
-3.0786389887
20
-10.1829761603
30
-2.6652251237
10
-3.0788425011
20
-10.1730556387
30
-2.6592625121
10
-3.0790124527
20
-10.1647414880
30
-2.6542660917
10
-3.0791307164
20
-10.1590139149
30
-2.6508227167
10
-3.0791993924
20
-10.1555968466
30
-2.6487705711
10
-3.0792478097
20
-10.1534401730
30
-2.6474695076
10
-3.0793080377
20
-10.1497310738
30
-2.6452585128
10
-3.0793842220
20
-10.1453271116
30
-2.6426279140
10
-3.0795194640
20
-10.1373678813
30
-2.6378764862
10
-3.0797116634
20
-10.1261294558
30
-2.6311660456
10
-3.0799427321
20
-10.1125868860
30
-2.6230804240
10
-3.0802506738
20
-10.0945498483
30
-2.6123111551
10
-3.0806356523
20
-10.0719967836
30
-2.5988456022
10
-3.0810976044
20
-10.0449360070
30
-2.5826886392
10
-3.0815595625
20
-10.0178744544
30
-2.5665312213
10
-3.0821755045
20
-9.9817926553
30
-2.5449881562
10
-3.0829454327
20
-9.9366903134
30
-2.5180592705
10
-3.0838693463
20
-9.8825675429
30
-2.4857446309
10
-3.0851012312
20
-9.8104038350
30
-2.4426584366
10
-3.0866410872
20
-9.7201992050
30
-2.3888006965
10
-3.0884889145
20
-9.6119536469
30
-2.3241714073
10
-3.0903367418
20
-9.5037080893
30
-2.2595421183
10
-3.0921845690
20
-9.3954625316
30
-2.1949128293
10
-3.0946483387
20
-9.2511351213
30
-2.1087404440
10
-3.0977280509
20
-9.0707258585
30
-2.0010249623
10
-3.1014237054
20
-8.8542347432
30
-1.8717663843
10
-3.1051193599
20
-8.6377436278
30
-1.7425078062
10
-3.1075831296
20
-8.4934162176
30
-1.6563354209
10
-3.1088150145
20
-8.4212525124
30
-1.6132492282
11
-3.0531886288
21
-11.4245282165
31
-3.4114230819
11
-3.0564462724
21
-11.2656098689
31
-3.3159099282
11
-3.0597039161
21
-11.1066915212
31
-3.2203967745
11
-3.0629615598
21
-10.9477731736
31
-3.1248836209
11
-3.0662192035
21
-10.7888548259
31
-3.0293704672
11
-3.0678480253
21
-10.7093956521
31
-2.9816138903
11
-3.0694768471
21
-10.6299364783
31
-2.9338573135
11
-3.0711056690
21
-10.5504773045
31
-2.8861007366
11
-3.0727344908
21
-10.4710181307
31
-2.8383441598
11
-3.0743633126
21
-10.3915589568
31
-2.7905875829
11
-3.0751777236
21
-10.3518293699
31
-2.7667092945
11
-3.0759921345
21
-10.3120997830
31
-2.7428310061
11
-3.0768065454
21
-10.2723701961
31
-2.7189527176
11
-3.0772137509
21
-10.2525054026
31
-2.7070135734
11
-3.0776209563
21
-10.2326406092
31
-2.6950744292
11
-3.0780281618
21
-10.2127758157
31
-2.6831352850
11
-3.0784353672
21
-10.1929110223
31
-2.6711961408
11
-3.0786389700
21
-10.1829786256
31
-2.6652265687
11
-3.0788425727
21
-10.1730462288
31
-2.6592569966
11
-3.0790461754
21
-10.1631138321
31
-2.6532874245
11
-3.0791479768
21
-10.1581476337
31
-2.6503026384
11
-3.0791988775
21
-10.1556645346
31
-2.6488102454
11
-3.0792497782
21
-10.1531814354
31
-2.6473178524
11
-3.0793075228
21
-10.1497987617
31
-2.6452981871
11
-3.0793652674
21
-10.1464160880
31
-2.6432785218
11
-3.0794807566
21
-10.1396507407
31
-2.6392391913
11
-3.0797117350
21
-10.1261200459
31
-2.6311605301
11
-3.0799427134
21
-10.1125893512
31
-2.6230818690
11
-3.0801736918
21
-10.0990586565
31
-2.6150032079
11
-3.0806356486
21
-10.0719972671
31
-2.5988458856
11
-3.0810976054
21
-10.0449358777
31
-2.5826885634
11
-3.0815595622
21
-10.0178744883
31
-2.5665312411
11
-3.0820215191
21
-9.9908130988
31
-2.5503739189
11
-3.0829454327
21
-9.9366903200
31
-2.5180592744
11
-3.0838693463
21
-9.8825675412
31
-2.4857446299
11
-3.0847932600
21
-9.8284447623
31
-2.4534299853
11
-3.0866410872
21
-9.7201992046
31
-2.3888006963
11
-3.0884889145
21
-9.6119536470
31
-2.3241714073
11
-3.0903367418
21
-9.5037080893
31
-2.2595421183
11
-3.0921845690
21
-9.3954625316
31
-2.1949128293
11
-3.0940323963
21
-9.2872169739
31
-2.1302835403
11
-3.0977280509
21
-9.0707258585
31
-2.0010249623
11
-3.1014237054
21
-8.8542347432
31
-1.8717663843
11
-3.1051193599
21
-8.6377436278
31
-1.7425078062
11
-3.1088150145
21
-8.4212525124
31
-1.6132492282
0
SPLINE
5
27C
100
AcDbEntity
8
CURVE
100
AcDbSpline
6
CONTINUOUS
70
0
71
3
72
8
73
4
74
2
42
0.0000001000
43
0.0000001000
44
0.0000000001
12
-0.3869983337
22
-0.2305326767
32
-0.6007209249
13
-0.3865701273
23
-0.2303174400
33
-0.6010631169
40
0.0000000000
40
0.0000000000
40
0.0000000000
40
0.0000000000
40
1.0000000000
40
1.0000000000
40
1.0000000000
40
1.0000000000
10
-3.8543436752
20
-10.6001334708
30
-3.8393166223
10
-3.9833431198
20
-10.6769776963
30
-4.0395569306
10
-4.1122712413
20
-10.7537860757
30
-4.2398543403
10
-4.2411279503
20
-10.8305585557
30
-4.4402087126
11
-3.8543436752
21
-10.6001334708
31
-3.8393166223
11
-4.2411279503
21
-10.8305585557
31
-4.4402087126
0
SPLINE
5
27D
100
AcDbEntity
8
CURVE
100
AcDbSpline
6
CONTINUOUS
70
0
71
3
72
47
73
43
74
41
42
0.0000001000
43
0.0000001000
44
0.0000000001
12
0.0446342181
22
-2.5466491324
32
-1.5218477177
13
0.0348317142
23
-1.7437447830
33
-1.0469717190
40
0.0000000000
40
0.0000000000
40
0.0000000000
40
0.0000000000
40
0.0625000000
40
0.1250000000
40
0.1875000000
40
0.2500000000
40
0.3125000000
40
0.3437500000
40
0.3750000000
40
0.4062500000
40
0.4218750000
40
0.4375000000
40
0.4531250000
40
0.4687500000
40
0.4765625000
40
0.4843750000
40
0.4882812500
40
0.4921875000
40
0.4960937500
40
0.4980468750
40
0.4990234375
40
0.5000000000
40
0.5009765625
40
0.5019531250
40
0.5039062500
40
0.5078125000
40
0.5117187500
40
0.5156250000
40
0.5234375000
40
0.5312500000
40
0.5468750000
40
0.5625000000
40
0.5781250000
40
0.5937500000
40
0.6250000000
40
0.6562500000
40
0.6875000000
40
0.7500000000
40
0.8125000000
40
0.8750000000
40
0.9375000000
40
1.0000000000
40
1.0000000000
40
1.0000000000
40
1.0000000000
10
-3.8940766429
20
-8.4549364387
30
-2.5549068592
10
-3.8931467634
20
-8.5079916289
30
-2.5866120200
10
-3.8912870043
20
-8.6141020095
30
-2.6500223416
10
-3.8884973657
20
-8.7732675802
30
-2.7451378239
10
-3.8857077270
20
-8.9324331510
30
-2.8402533063
10
-3.8829180884
20
-9.0915987218
30
-2.9353687887
10
-3.8805933896
20
-9.2242366973
30
-3.0146316905
10
-3.8787336305
20
-9.3303470782
30
-3.0780420124
10
-3.8773388112
20
-9.4099298622
30
-3.1255997527
10
-3.8761764617
20
-9.4762488544
30
-3.1652312063
10
-3.8752465822
20
-9.5293040358
30
-3.1969363618
10
-3.8745491723
20
-9.5690954557
30
-3.2207152485
10
-3.8738517638
20
-9.6088867462
30
-3.2444940586
10
-3.8732705852
20
-9.6420465581
30
-3.2643099722
10
-3.8728056534
20
-9.6685735047
30
-3.2801621690
10
-3.8725150459
20
-9.6851549021
30
-3.2900710079
10
-3.8722826174
20
-9.6984153118
30
-3.2979952944
10
-3.8721081386
20
-9.7083735103
30
-3.3039461337
10
-3.8719632403
20
-9.7166310002
30
-3.3088809119
10
-3.8718608289
20
-9.7224917218
30
-3.3123828555
10
-3.8718038423
20
-9.7257150448
30
-3.3143096444
10
-3.8717567806
20
-9.7284865255
30
-3.3159641018
10
-3.8717262388
20
-9.7299048826
30
-3.3168182571
10
-3.8716797542
20
-9.7322680100
30
-3.3182362852
10
-3.8716010908
20
-9.7361835766
30
-3.3205877713
10
-3.8714873110
20
-9.7418922128
30
-3.3240150356
10
-3.8713513760
20
-9.7486933655
30
-3.3280986472
10
-3.8711699194
20
-9.7577787574
30
-3.3335536286
10
-3.8709431706
20
-9.7691296121
30
-3.3403688746
10
-3.8705803323
20
-9.7872942688
30
-3.3512752136
10
-3.8701267983
20
-9.8099989609
30
-3.3649074697
10
-3.8695825515
20
-9.8372450754
30
-3.3812664633
10
-3.8690383063
20
-9.8644910604
30
-3.3976253803
10
-3.8683126455
20
-9.9008190856
30
-3.4194372964
10
-3.8674055696
20
-9.9462291016
30
-3.4467021823
10
-3.8663170785
20
-10.0007211275
30
-3.4794200494
10
-3.8648657571
20
-10.0733771597
30
-3.5230438707
10
-3.8630516053
20
-10.1641972007
30
-3.5775736479
10
-3.8608746232
20
-10.2731812495
30
-3.6430093803
10
-3.8586976411
20
-10.3821652985
30
-3.7084451127
10
-3.8565206589
20
-10.4911493474
30
-3.7738808451
10
-3.8550693375
20
-10.5638053800
30
-3.8175046668
10
-3.8543436768
20
-10.6001333964
30
-3.8393165776
11
-3.8940766429
21
-8.4549364387
31
-2.5549068592
11
-3.8912870043
21
-8.6141020095
31
-2.6500223416
11
-3.8884973657
21
-8.7732675802
31
-2.7451378239
11
-3.8857077270
21
-8.9324331510
31
-2.8402533063
11
-3.8829180884
21
-9.0915987218
31
-2.9353687887
11
-3.8801284498
21
-9.2507642926
31
-3.0304842710
11
-3.8787336305
21
-9.3303470779
31
-3.0780420122
11
-3.8773388111
21
-9.4099298633
31
-3.1255997534
11
-3.8759439918
21
-9.4895126487
31
-3.1731574946
11
-3.8752465822
21
-9.5293040414
31
-3.1969363651
11
-3.8745491725
21
-9.5690954341
31
-3.2207152357
11
-3.8738517629
21
-9.6088868268
31
-3.2444941063
11
-3.8731543532
21
-9.6486782195
31
-3.2682729769
11
-3.8728056484
21
-9.6685739158
31
-3.2801624122
11
-3.8724569435
21
-9.6884696122
31
-3.2920518475
11
-3.8722825911
21
-9.6984174604
31
-3.2979965652
11
-3.8721082387
21
-9.7083653085
31
-3.3039412828
11
-3.8719338863
21
-9.7183131567
31
-3.3098860004
11
-3.8718467101
21
-9.7232870808
31
-3.3128583593
11
-3.8718031220
21
-9.7257740428
31
-3.3143445387
11
-3.8717595339
21
-9.7282610049
31
-3.3158307181
11
-3.8717255185
21
-9.7299638806
31
-3.3168531514
11
-3.8716915032
21
-9.7316667564
31
-3.3178755847
11
-3.8716234725
21
-9.7350725079
31
-3.3199204514
11
-3.8714874111
21
-9.7418840110
31
-3.3240101847
11
-3.8713513497
21
-9.7486955141
31
-3.3280999179
11
-3.8712152884
21
-9.7555070171
31
-3.3321896512
11
-3.8709431656
21
-9.7691300232
31
-3.3403691178
11
-3.8706710428
21
-9.7827530294
31
-3.3485485843
11
-3.8701267973
21
-9.8099990416
31
-3.3649075174
11
-3.8695825518
21
-9.8372450538
31
-3.3812664505
11
-3.8690383062
21
-9.8644910661
31
-3.3976253836
11
-3.8684940607
21
-9.8917370783
31
-3.4139843167
11
-3.8674055696
21
-9.9462291028
31
-3.4467021830
11
-3.8663170785
21
-10.0007211272
31
-3.4794200492
11
-3.8652285875
21
-10.0552131517
31
-3.5121379154
11
-3.8630516053
21
-10.1641972006
31
-3.5775736478
11
-3.8608746232
21
-10.2731812496
31
-3.6430093803
11
-3.8586976411
21
-10.3821652985
31
-3.7084451127
11
-3.8565206589
21
-10.4911493474
31
-3.7738808451
11
-3.8543436768
21
-10.6001333964
31
-3.8393165776
0
SPLINE
5
27E
100
AcDbEntity
8
CURVE
100
AcDbSpline
6
CONTINUOUS
70
0
71
3
72
8
73
4
74
2
42
0.0000001000
43
0.0000001000
44
0.0000000001
12
0.4024740506
22
-0.6277645689
32
0.0873091576
13
0.4028812433
23
-0.6275424928
33
0.0869468023
40
0.0000000000
40
0.0000000000
40
0.0000000000
40
0.0000000000
40
1.0000000000
40
1.0000000000
40
1.0000000000
40
1.0000000000
10
-4.2967543363
20
-7.8272828354
30
-2.6420348492
10
-4.1625963194
20
-8.0365376917
30
-2.6129317967
10
-4.0283703907
20
-8.2457556078
30
-2.5838891267
10
-3.8940766429
20
-8.4549364387
30
-2.5549068592
11
-4.2967543363
21
-7.8272828354
31
-2.6420348492
11
-3.8940766429
21
-8.4549364387
31
-2.5549068592
0
SPLINE
5
27F
100
AcDbEntity
8
CURVE
100
AcDbSpline
6
CONTINUOUS
70
0
71
3
72
8
73
4
74
2
42
0.0000001000
43
0.0000001000
44
0.0000000001
12
0.3890694273
22
0.2315671575
32
0.5989025969
13
0.3894942742
23
0.2317804065
33
0.5985555307
40
0.0000000000
40
0.0000000000
40
0.0000000000
40
0.0000000000
40
1.0000000000
40
1.0000000000
40
1.0000000000
40
1.0000000000
10
-5.2800059340
20
-7.7619717931
30
-3.7551568332
10
-5.1503161249
20
-7.6847827406
30
-3.5555226342
10
-5.0205554631
20
-7.6075581199
30
-3.3559462105
10
-4.8907240384
20
-7.5302979844
30
-3.1564277003
11
-5.2800059340
21
-7.7619717931
31
-3.7551568332
11
-4.8907240384
21
-7.5302979844
31
-3.1564277003
0
SPLINE
5
280
100
AcDbEntity
8
CURVE
100
AcDbSpline
6
CONTINUOUS
70
0
71
3
72
47
73
43
74
41
42
0.0000001000
43
0.0000001000
44
0.0000000001
12
-0.0496539234
22
2.5440010983
32
1.5261151309
13
-0.0298120096
23
1.7463928167
33
1.0427043064
40
0.0000000000
40
0.0000000000
40
0.0000000000
40
0.0000000000
40
0.0625000000
40
0.1250000000
40
0.1875000000
40
0.2500000000
40
0.3125000000
40
0.3437500000
40
0.3750000000
40
0.4062500000
40
0.4218750000
40
0.4375000000
40
0.4531250000
40
0.4687500000
40
0.4765625000
40
0.4843750000
40
0.4882812500
40
0.4921875000
40
0.4960937500
40
0.4980468750
40
0.4990234375
40
0.5000000000
40
0.5009765625
40
0.5019531250
40
0.5039062500
40
0.5078125000
40
0.5117187500
40
0.5156250000
40
0.5234375000
40
0.5312500000
40
0.5468750000
40
0.5625000000
40
0.5781250000
40
0.5937500000
40
0.6250000000
40
0.6562500000
40
0.6875000000
40
0.7500000000
40
0.8125000000
40
0.8750000000
40
0.9375000000
40
1.0000000000
40
1.0000000000
40
1.0000000000
40
1.0000000000
10
-5.2402729664
20
-9.9071688252
30
-5.0395665963
10
-5.2413074231
20
-9.8541688023
30
-5.0077725311
10
-5.2433763366
20
-9.7481687566
30
-4.9441844006
10
-5.2464797068
20
-9.5891686879
30
-4.8488022049
10
-5.2495830770
20
-9.4301686193
30
-4.7534200093
10
-5.2526864472
20
-9.2711685506
30
-4.6580378135
10
-5.2552725890
20
-9.1386684936
30
-4.5785526506
10
-5.2573415025
20
-9.0326684474
30
-4.5149645199
10
-5.2588931876
20
-8.9531684144
30
-4.4672734229
10
-5.2601862586
20
-8.8869183815
30
-4.4275308387
10
-5.2612207151
20
-8.8339183675
30
-4.3957367788
10
-5.2619965584
20
-8.7941683233
30
-4.3718912135
10
-5.2627723984
20
-8.7544184077
30
-4.3480457262
10
-5.2634189417
20
-8.7212930774
30
-4.3281742439
10
-5.2639361540
20
-8.6947937103
30
-4.3122776018
10
-5.2642594626
20
-8.6782295635
30
-4.3023409627
10
-5.2645179930
20
-8.6649829233
30
-4.2943944861
10
-5.2647122094
20
-8.6550351370
30
-4.2884268672
10
-5.2648730430
20
-8.6467860534
30
-4.2834785419
10
-5.2649876154
20
-8.6409317470
30
-4.2799662598
10
-5.2650499799
20
-8.6377112611
30
-4.2780348991
10
-5.2651055013
20
-8.6349442430
30
-4.2763732499
10
-5.2651275833
20
-8.6335214233
30
-4.2755262863
10
-5.2651686901
20
-8.6311554588
30
-4.2741128301
10
-5.2652351925
20
-8.6272334770
30
-4.2717716825
10
-5.2653330370
20
-8.6215164345
30
-4.2683579653
10
-5.2654492344
20
-8.6147048696
30
-4.2642911333
10
-5.2656045890
20
-8.6056057082
30
-4.2588583420
10
-5.2657986369
20
-8.5942376029
30
-4.2520708962
10
-5.2661091946
20
-8.5760453668
30
-4.2412090025
10
-5.2664973640
20
-8.5533061929
30
-4.2276323150
10
-5.2669631792
20
-8.5260187036
30
-4.2113399987
10
-5.2674289911
20
-8.4987313429
30
-4.1950477603
10
-5.2680500749
20
-8.4623481503
30
-4.1733247486
10
-5.2688264292
20
-8.4168691751
30
-4.1461709932
10
-5.2697580545
20
-8.3622943982
30
-4.1135864828
10
-5.2710002216
20
-8.2895280313
30
-4.0701404703
10
-5.2725529304
20
-8.1985700718
30
-4.0158329542
10
-5.2744161810
20
-8.0894205209
30
-3.9506639351
10
-5.2762794316
20
-7.9802709698
30
-3.8854949159
10
-5.2781426822
20
-7.8711214188
30
-3.8203258968
10
-5.2793848493
20
-7.7983550514
30
-3.7768798840
10
-5.2800059328
20
-7.7619718677
30
-3.7551568776
11
-5.2402729664
21
-9.9071688252
31
-5.0395665963
11
-5.2433763366
21
-9.7481687566
31
-4.9441844006
11
-5.2464797068
21
-9.5891686879
31
-4.8488022049
11
-5.2495830770
21
-9.4301686193
31
-4.7534200093
11
-5.2526864472
21
-9.2711685506
31
-4.6580378136
11
-5.2557898174
21
-9.1121684820
31
-4.5626556179
11
-5.2573415025
21
-9.0326684477
31
-4.5149645200
11
-5.2588931876
21
-8.9531684133
31
-4.4672734222
11
-5.2604448727
21
-8.8736683790
31
-4.4195823244
11
-5.2612207153
21
-8.8339183619
31
-4.3957367754
11
-5.2619965578
21
-8.7941683447
31
-4.3718912265
11
-5.2627724004
21
-8.7544183275
31
-4.3480456776
11
-5.2635482429
21
-8.7146683104
31
-4.3242001287
11
-5.2639361642
21
-8.6947933018
31
-4.3122773542
11
-5.2643240855
21
-8.6749182932
31
-4.3003545798
11
-5.2645180461
21
-8.6649807889
31
-4.2943931925
11
-5.2647120068
21
-8.6550432846
31
-4.2884318053
11
-5.2649059674
21
-8.6451057804
31
-4.2824704181
11
-5.2650029477
21
-8.6401370282
31
-4.2794897245
11
-5.2650514379
21
-8.6376526521
31
-4.2779993776
11
-5.2650999280
21
-8.6351682761
31
-4.2765090308
11
-5.2651290413
21
-8.6334628143
31
-4.2754907649
11
-5.2651581546
21
-8.6317573526
31
-4.2744724990
11
-5.2652163812
21
-8.6283464291
31
-4.2724359671
11
-5.2653328344
21
-8.6215245822
31
-4.2683629034
11
-5.2654492875
21
-8.6147027352
31
-4.2642898397
11
-5.2655657407
21
-8.6078808883
31
-4.2602167760
11
-5.2657986470
21
-8.5942371944
31
-4.2520706487
11
-5.2660315533
21
-8.5805935005
31
-4.2439245213
11
-5.2664973660
21
-8.5533061128
31
-4.2276322665
11
-5.2669631786
21
-8.5260187250
31
-4.2113400117
11
-5.2674289913
21
-8.4987313373
31
-4.1950477569
11
-5.2678948039
21
-8.4714439495
31
-4.1787555021
11
-5.2688264292
21
-8.4168691740
31
-4.1461709925
11
-5.2697580545
21
-8.3622943985
31
-4.1135864830
11
-5.2706896798
21
-8.3077196229
31
-4.0810019734
11
-5.2725529304
21
-8.1985700719
31
-4.0158329542
11
-5.2744161810
21
-8.0894205208
31
-3.9506639351
11
-5.2762794316
21
-7.9802709698
31
-3.8854949159
11
-5.2781426822
21
-7.8711214188
31
-3.8203258968
11
-5.2800059328
21
-7.7619718677
31
-3.7551568776
0
SPLINE
5
281
100
AcDbEntity
8
CURVE
100
AcDbSpline
6
CONTINUOUS
70
0
71
3
72
8
73
4
74
2
42
0.0000001000
43
0.0000001000
44
0.0000000001
12
-0.4053772498
22
0.6262911285
32
-0.0847834301
13
-0.4049732845
23
0.6265184858
33
-0.0851466155
40
0.0000000000
40
0.0000000000
40
0.0000000000
40
0.0000000000
40
1.0000000000
40
1.0000000000
40
1.0000000000
40
1.0000000000
10
-4.8350976524
20
-10.5335737047
30
-4.9546015637
10
-4.9702234024
20
-10.3248099951
30
-4.9828627071
10
-5.1052818715
20
-10.1160083205
30
-5.0111843911
10
-5.2402729664
20
-9.9071688252
30
-5.0395665963
11
-4.8350976524
21
-10.5335737047
31
-4.9546015637
11
-5.2402729664
21
-9.9071688252
31
-5.0395665963
0
SPLINE
5
282
100
AcDbEntity
8
CURVE
100
AcDbSpline
6
CONTINUOUS
70
0
71
3
72
51
73
47
74
45
42
0.0000001000
43
0.0000001000
44
0.0000000001
12
0.0421660365
22
2.5901118051
32
1.4467126028
13
0.0690867347
23
3.5276923743
33
1.9569396522
40
0.0000000000
40
0.0000000000
40
0.0000000000
40
0.0000000000
40
0.0625000000
40
0.1250000000
40
0.1875000000
40
0.2500000000
40
0.2812500000
40
0.3125000000
40
0.3437500000
40
0.3750000000
40
0.4062500000
40
0.4218750000
40
0.4375000000
40
0.4531250000
40
0.4609375000
40
0.4687500000
40
0.4765625000
40
0.4843750000
40
0.4882812500
40
0.4921875000
40
0.4960937500
40
0.4980468750
40
0.4990234375
40
0.5000000000
40
0.5009765625
40
0.5019531250
40
0.5039062500
40
0.5078125000
40
0.5117187500
40
0.5156250000
40
0.5234375000
40
0.5312500000
40
0.5390625000
40
0.5468750000
40
0.5625000000
40
0.5781250000
40
0.5937500000
40
0.6250000000
40
0.6562500000
40
0.6875000000
40
0.7187500000
40
0.7500000000
40
0.8125000000
40
0.8750000000
40
0.9375000000
40
1.0000000000
40
1.0000000000
40
1.0000000000
40
1.0000000000
10
-0.8036469080
20
3.9361597495
30
8.1830849218
10
-0.8027684490
20
3.9901204121
30
8.2132247677
10
-0.8010115308
20
4.0980417373
30
8.2735044595
10
-0.7983761535
20
4.2599237251
30
8.3639239972
10
-0.7957407762
20
4.4218057129
30
8.4543435348
10
-0.7935446285
20
4.5567073694
30
8.5296931496
10
-0.7917877103
20
4.6646286947
30
8.5899728413
10
-0.7904700216
20
4.7455696886
30
8.6351826102
10
-0.7891523330
20
4.8265106826
30
8.6803923791
10
-0.7878346444
20
4.9074516760
30
8.7256021477
10
-0.7867365704
20
4.9749025057
30
8.7632769558
10
-0.7858581114
20
5.0288631655
30
8.7934168002
10
-0.7851992669
20
5.0693336710
30
8.8160216892
10
-0.7846502307
20
5.1030590584
30
8.8348590784
10
-0.7842109996
20
5.1300394441
30
8.8499290309
10
-0.7838815822
20
5.1502745265
30
8.8612313827
10
-0.7835521421
20
5.1705103987
30
8.8725341644
10
-0.7832776794
20
5.1873711650
30
8.8819518101
10
-0.7830579510
20
5.2008652885
30
8.8894889254
10
-0.7828935869
20
5.2109708260
30
8.8951335689
10
-0.7827552419
20
5.2194399951
30
8.8998634989
10
-0.7826610988
20
5.2252744355
30
8.9031233075
10
-0.7826030894
20
5.2287551402
30
8.9050659098
10
-0.7825714513
20
5.2309523034
30
8.9062979101
10
-0.7824944441
20
5.2347295583
30
8.9083897890
10
-0.7824075931
20
5.2392147445
30
8.9108790256
10
-0.7822482306
20
5.2473206131
30
8.9153749350
10
-0.7820244247
20
5.2587661711
30
8.9217246022
10
-0.7817542076
20
5.2725583062
30
8.9293754753
10
-0.7813944945
20
5.2909277462
30
8.9395657154
10
-0.7809446553
20
5.3138964342
30
8.9523072641
10
-0.7804049331
20
5.3414559071
30
8.9675955157
10
-0.7798651882
20
5.3690161699
30
8.9828841971
10
-0.7791455363
20
5.4057629111
30
9.0032689556
10
-0.7782459687
20
5.4516964322
30
9.0287499552
10
-0.7771664887
20
5.5068166170
30
9.0593271326
10
-0.7757271816
20
5.5803102109
30
9.1000967102
10
-0.7739280480
20
5.6721771985
30
9.1510586795
10
-0.7717690875
20
5.7824175856
30
9.2122130439
10
-0.7696101270
20
5.8926579722
30
9.2733674080
10
-0.7674511666
20
6.0028983589
30
9.3345217721
10
-0.7645725526
20
6.1498855412
30
9.4160609243
10
-0.7609742852
20
6.3336195190
30
9.5179848645
10
-0.7566563643
20
6.5541002924
30
9.6402935928
10
-0.7523384434
20
6.7745810658
30
9.7626023211
10
-0.7494598294
20
6.9215682481
30
9.8441414732
10
-0.7480205224
20
6.9950618392
30
9.8849110493
11
-0.8036469080
21
3.9361597495
31
8.1830849218
11
-0.8010115308
21
4.0980417373
31
8.2735044595
11
-0.7983761535
21
4.2599237251
31
8.3639239972
11
-0.7957407762
21
4.4218057129
31
8.4543435348
11
-0.7931053989
21
4.5836877008
31
8.5447630725
11
-0.7917877103
21
4.6646286947
31
8.5899728413
11
-0.7904700216
21
4.7455696886
31
8.6351826102
11
-0.7891523330
21
4.8265106825
31
8.6803923790
11
-0.7878346443
21
4.9074516764
31
8.7256021479
11
-0.7865169557
21
4.9883926703
31
8.7708119167
11
-0.7858581114
21
5.0288631673
31
8.7934168011
11
-0.7851992671
21
5.0693336642
31
8.8160216855
11
-0.7845404227
21
5.1098041612
31
8.8386265700
11
-0.7842110006
21
5.1300394096
31
8.8499290122
11
-0.7838815784
21
5.1502746581
31
8.8612314544
11
-0.7835521563
21
5.1705099066
31
8.8725338966
11
-0.7832227341
21
5.1907451551
31
8.8838363388
11
-0.7830580230
21
5.2008627793
31
8.8894875599
11
-0.7828933119
21
5.2109804036
31
8.8951387810
11
-0.7827286009
21
5.2210980278
31
8.9007900021
11
-0.7826462453
21
5.2261568399
31
8.9036156127
11
-0.7826050675
21
5.2286862460
31
8.9050284179
11
-0.7825638898
21
5.2312156520
31
8.9064412232
11
-0.7824964223
21
5.2346606641
31
8.9083522971
11
-0.7824289548
21
5.2381056762
31
8.9102633710
11
-0.7822940197
21
5.2449957004
31
8.9140855187
11
-0.7820241497
21
5.2587757487
31
8.9217298142
11
-0.7817542796
21
5.2725557970
31
8.9293741098
11
-0.7814844096
21
5.2863358454
31
8.9370184053
11
-0.7809446694
21
5.3138959421
31
8.9523069963
11
-0.7804049293
21
5.3414560387
31
8.9675955873
11
-0.7798651892
21
5.3690161354
31
8.9828841784
11
-0.7793254491
21
5.3965762321
31
8.9981727694
11
-0.7782459689
21
5.4516964254
31
9.0287499515
11
-0.7771664886
21
5.5068166188
31
9.0593271335
11
-0.7760870084
21
5.5619368121
31
9.0899043156
11
-0.7739280479
21
5.6721771988
31
9.1510586797
11
-0.7717690875
21
5.7824175855
31
9.2122130439
11
-0.7696101270
21
5.8926579722
31
9.2733674080
11
-0.7674511666
21
6.0028983589
31
9.3345217721
11
-0.7652922061
21
6.1131387456
31
9.3956761363
11
-0.7609742852
21
6.3336195190
31
9.5179848645
11
-0.7566563643
21
6.5541002924
31
9.6402935928
11
-0.7523384434
21
6.7745810658
31
9.7626023211
11
-0.7480205224
21
6.9950618392
31
9.8849110493
0
SPLINE
5
283
100
AcDbEntity
8
CURVE
100
AcDbSpline
6
CONTINUOUS
70
0
71
3
72
8
73
4
74
2
42
0.0000001000
43
0.0000001000
44
0.0000000001
12
1.3199738231
22
-3.7565974166
32
-0.4926948127
13
1.3406169427
23
-3.7470936566
33
-0.5104518403
40
0.0000000000
40
0.0000000000
40
0.0000000000
40
0.0000000000
40
1.0000000000
40
1.0000000000
40
1.0000000000
40
1.0000000000
10
-2.1339498132
20
7.6880265013
30
8.6846610845
10
-1.6939585389
20
6.4358273624
30
8.5204294802
10
-1.2505192223
20
5.1851909683
30
8.3532355352
10
-0.8036469080
20
3.9361597495
30
8.1830849218
11
-2.1339498132
21
7.6880265013
31
8.6846610845
11
-0.8036469080
21
3.9361597495
31
8.1830849218
0
SPLINE
5
284
100
AcDbEntity
8
CURVE
100
AcDbSpline
6
CONTINUOUS
70
0
71
3
72
51
73
47
74
45
42
0.0000001000
43
0.0000001000
44
0.0000000001
12
0.0421660365
22
2.5901118051
32
1.4467126028
13
0.0690867347
23
3.5276923743
33
1.9569396522
40
0.0000000000
40
0.0000000000
40
0.0000000000
40
0.0000000000
40
0.0625000000
40
0.1250000000
40
0.1875000000
40
0.2500000000
40
0.2812500000
40
0.3125000000
40
0.3437500000
40
0.3750000000
40
0.4062500000
40
0.4218750000
40
0.4375000000
40
0.4531250000
40
0.4609375000
40
0.4687500000
40
0.4765625000
40
0.4843750000
40
0.4882812500
40
0.4921875000
40
0.4960937500
40
0.4980468750
40
0.4990234375
40
0.5000000000
40
0.5009765625
40
0.5019531250
40
0.5039062500
40
0.5078125000
40
0.5117187500
40
0.5156250000
40
0.5234375000
40
0.5312500000
40
0.5390625000
40
0.5468750000
40
0.5625000000
40
0.5781250000
40
0.5937500000
40
0.6250000000
40
0.6562500000
40
0.6875000000
40
0.7187500000
40
0.7500000000
40
0.8125000000
40
0.8750000000
40
0.9375000000
40
1.0000000000
40
1.0000000000
40
1.0000000000
40
1.0000000000
10
-2.1895761992
20
4.6291243950
30
6.9828349478
10
-2.1886977401
20
4.6830850576
30
7.0129747937
10
-2.1869408219
20
4.7910063829
30
7.0732544855
10
-2.1843054446
20
4.9528883707
30
7.1636740232
10
-2.1816700673
20
5.1147703585
30
7.2540935609
10
-2.1794739196
20
5.2496720150
30
7.3294431756
10
-2.1777170014
20
5.3575933402
30
7.3897228674
10
-2.1763993128
20
5.4385343341
30
7.4349326362
10
-2.1750816241
20
5.5194753281
30
7.4801424051
10
-2.1737639355
20
5.6004163216
30
7.5253521737
10
-2.1726658616
20
5.6678671512
30
7.5630269818
10
-2.1717874026
20
5.7218278111
30
7.5931668262
10
-2.1711285580
20
5.7622983165
30
7.6157717152
10
-2.1705795218
20
5.7960237040
30
7.6346091044
10
-2.1701402907
20
5.8230040897
30
7.6496790570
10
-2.1698108733
20
5.8432391720
30
7.6609814088
10
-2.1694814333
20
5.8634750443
30
7.6722841904
10
-2.1692069705
20
5.8803358106
30
7.6817018361
10
-2.1689872421
20
5.8938299341
30
7.6892389514
10
-2.1688228781
20
5.9039354715
30
7.6948835950
10
-2.1686845330
20
5.9124046407
30
7.6996135250
10
-2.1685903899
20
5.9182390811
30
7.7028733336
10
-2.1685323805
20
5.9217197857
30
7.7048159359
10
-2.1685007424
20
5.9239169490
30
7.7060479361
10
-2.1684237352
20
5.9276942039
30
7.7081398150
10
-2.1683368842
20
5.9321793901
30
7.7106290516
10
-2.1681775217
20
5.9402852587
30
7.7151249610
10
-2.1679537158
20
5.9517308167
30
7.7214746282
10
-2.1676834987
20
5.9655229518
30
7.7291255013
10
-2.1673237856
20
5.9838923917
30
7.7393157415
10
-2.1668739464
20
6.0068610797
30
7.7520572902
10
-2.1663342242
20
6.0344205526
30
7.7673455417
10
-2.1657944793
20
6.0619808155
30
7.7826342232
10
-2.1650748274
20
6.0987275566
30
7.8030189816
10
-2.1641752598
20
6.1446610777
30
7.8284999812
10
-2.1630957798
20
6.1997812626
30
7.8590771586
10
-2.1616564728
20
6.2732748565
30
7.8998467362
10
-2.1598573391
20
6.3651418440
30
7.9508087056
10
-2.1576983786
20
6.4753822312
30
8.0119630700
10
-2.1555394182
20
6.5856226178
30
8.0731174340
10
-2.1533804577
20
6.6958630045
30
8.1342717982
10
-2.1505018438
20
6.8428501867
30
8.2158109503
10
-2.1469035763
20
7.0265841646
30
8.3177348906
10
-2.1425856554
20
7.2470649380
30
8.4400436188
10
-2.1382677345
20
7.4675457114
30
8.5623523471
10
-2.1353891205
20
7.6145328936
30
8.6438914993
10
-2.1339498136
20
7.6880264848
30
8.6846610754
11
-2.1895761992
21
4.6291243950
31
6.9828349478
11
-2.1869408219
21
4.7910063829
31
7.0732544855
11
-2.1843054446
21
4.9528883707
31
7.1636740232
11
-2.1816700673
21
5.1147703585
31
7.2540935609
11
-2.1790346900
21
5.2766523463
31
7.3445130985
11
-2.1777170014
21
5.3575933402
31
7.3897228674
11
-2.1763993128
21
5.4385343341
31
7.4349326362
11
-2.1750816241
21
5.5194753280
31
7.4801424051
11
-2.1737639355
21
5.6004163220
31
7.5253521739
11
-2.1724462468
21
5.6813573159
31
7.5705619427
11
-2.1717874025
21
5.7218278128
31
7.5931668272
11
-2.1711285582
21
5.7622983098
31
7.6157717116
11
-2.1704697139
21
5.8027688067
31
7.6383765960
11
-2.1701402917
21
5.8230040552
31
7.6496790382
11
-2.1698108695
21
5.8432393037
31
7.6609814804
11
-2.1694814474
21
5.8634745522
31
7.6722839226
11
-2.1691520252
21
5.8837098006
31
7.6835863648
11
-2.1689873141
21
5.8938274249
31
7.6892375859
11
-2.1688226031
21
5.9039450491
31
7.6948888070
11
-2.1686578920
21
5.9140626734
31
7.7005400281
11
-2.1685755364
21
5.9191214855
31
7.7033656387
11
-2.1685343587
21
5.9216508915
31
7.7047784440
11
-2.1684931809
21
5.9241802976
31
7.7061912492
11
-2.1684257134
21
5.9276253097
31
7.7081023231
11
-2.1683582459
21
5.9310703218
31
7.7100133970
11
-2.1682233108
21
5.9379603459
31
7.7138355448
11
-2.1679534408
21
5.9517403943
31
7.7214798403
11
-2.1676835707
21
5.9655204426
31
7.7291241358
11
-2.1674137007
21
5.9793004909
31
7.7367684313
11
-2.1668739606
21
6.0068605876
31
7.7520570223
11
-2.1663342204
21
6.0344206843
31
7.7673456134
11
-2.1657944803
21
6.0619807810
31
7.7826342044
11
-2.1652547402
21
6.0895408776
31
7.7979227954
11
-2.1641752600
21
6.1446610710
31
7.8284999775
11
-2.1630957798
21
6.1997812643
31
7.8590771596
11
-2.1620162995
21
6.2549014577
31
7.8896543416
11
-2.1598573391
21
6.3651418444
31
7.9508087058
11
-2.1576983786
21
6.4753822311
31
8.0119630699
11
-2.1555394182
21
6.5856226178
31
8.0731174340
11
-2.1533804577
21
6.6958630045
31
8.1342717982
11
-2.1512214972
21
6.8061033912
31
8.1954261623
11
-2.1469035763
21
7.0265841646
31
8.3177348906
11
-2.1425856554
21
7.2470649380
31
8.4400436188
11
-2.1382677345
21
7.4675457114
31
8.5623523471
11
-2.1339498136
21
7.6880264848
31
8.6846610754
0
SPLINE
5
285
100
AcDbEntity
8
CURVE
100
AcDbSpline
6
CONTINUOUS
70
0
71
3
72
8
73
4
74
2
42
0.0000001000
43
0.0000001000
44
0.0000000001
12
-0.4028812440
22
-0.2384731524
32
-0.5869411673
13
-0.4024740512
23
-0.2382703815
33
-0.5873146685
40
0.0000000000
40
0.0000000000
40
0.0000000000
40
0.0000000000
40
1.0000000000
40
1.0000000000
40
1.0000000000
40
1.0000000000
10
-2.9748378267
20
5.4614658503
30
6.5411773028
10
-3.1091315747
20
5.3819747995
30
6.3455302471
10
-3.2433575037
20
5.3025175163
30
6.1498208733
10
-3.3775155208
20
5.2230940558
30
5.9540493172
11
-2.9748378267
21
5.4614658503
31
6.5411773028
11
-3.3775155208
21
5.2230940558
31
5.9540493172
0
SPLINE
5
286
100
AcDbEntity
8
CURVE
100
AcDbSpline
6
CONTINUOUS
70
0
71
3
72
47
73
43
74
41
42
0.0000001000
43
0.0000001000
44
0.0000000001
12
-0.0496539236
22
-2.5936550217
32
-1.4401120127
13
-0.0298120098
23
-1.7762048264
33
-0.9910683909
40
0.0000000000
40
0.0000000000
40
0.0000000000
40
0.0000000000
40
0.0625000000
40
0.1250000000
40
0.1875000000
40
0.2500000000
40
0.3125000000
40
0.3437500000
40
0.3750000000
40
0.4062500000
40
0.4218750000
40
0.4375000000
40
0.4531250000
40
0.4687500000
40
0.4765625000
40
0.4843750000
40
0.4882812500
40
0.4921875000
40
0.4960937500
40
0.4980468750
40
0.4990234375
40
0.5000000000
40
0.5009765625
40
0.5019531250
40
0.5039062500
40
0.5078125000
40
0.5117187500
40
0.5156250000
40
0.5234375000
40
0.5312500000
40
0.5468750000
40
0.5625000000
40
0.5781250000
40
0.5937500000
40
0.6250000000
40
0.6562500000
40
0.6875000000
40
0.7500000000
40
0.8125000000
40
0.8750000000
40
0.9375000000
40
1.0000000000
40
1.0000000000
40
1.0000000000
40
1.0000000000
10
-2.9351048588
20
7.6463958501
30
7.7567675470
10
-2.9361393155
20
7.5923613705
30
7.7267652134
10
-2.9382082290
20
7.4842924113
30
7.6667605462
10
-2.9413115992
20
7.3221889724
30
7.5767535454
10
-2.9444149694
20
7.1600855336
30
7.4867465446
10
-2.9475183397
20
6.9979820946
30
7.3967395438
10
-2.9501044815
20
6.8628958958
30
7.3217337099
10
-2.9521733950
20
6.7548269361
30
7.2617290425
10
-2.9537250801
20
6.6737752181
30
7.2167255429
10
-2.9550181511
20
6.6062321141
30
7.1792226234
10
-2.9560526076
20
6.5521976436
30
7.1492202948
10
-2.9568284509
20
6.5116717562
30
7.1267185294
10
-2.9576042909
20
6.4711460005
30
7.1042168363
10
-2.9582508342
20
6.4373741270
30
7.0854652000
10
-2.9587680466
20
6.4103575475
30
7.0704643959
10
-2.9590913551
20
6.3934700922
30
7.0610877436
10
-2.9593498855
20
6.3799649215
30
7.0535890549
10
-2.9595441020
20
6.3698229188
30
7.0479578287
10
-2.9597049355
20
6.3614130016
30
7.0432880754
10
-2.9598195079
20
6.3554441229
30
7.0399742384
10
-2.9598818724
20
6.3521612724
30
7.0381508961
10
-2.9599373938
20
6.3493387330
30
7.0365854128
10
-2.9599594758
20
6.3478938312
30
7.0357766965
10
-2.9600005826
20
6.3454867600
30
7.0344344393
10
-2.9600670850
20
6.3414982757
30
7.0322084772
10
-2.9601649296
20
6.3356833887
30
7.0289642318
10
-2.9602811270
20
6.3287556264
30
7.0250986596
10
-2.9604364816
20
6.3195011104
30
7.0199349503
10
-2.9606305294
20
6.3079389573
30
7.0134836052
10
-2.9609410872
20
6.2894361634
30
7.0031596134
10
-2.9613292565
20
6.2663088201
30
6.9902552549
10
-2.9617950717
20
6.2385555157
30
6.9747697542
10
-2.9622608837
20
6.2108023430
30
6.9592843258
10
-2.9628819674
20
6.1737980667
30
6.9386370626
10
-2.9636583218
20
6.1275427371
30
6.9128279924
10
-2.9645899471
20
6.0720363348
30
6.8818571044
10
-2.9658321142
20
5.9980278009
30
6.8405625884
10
-2.9673848230
20
5.9055171326
30
6.7889444429
10
-2.9692480736
20
5.7945043310
30
6.7270026685
10
-2.9711113242
20
5.6834915294
30
6.6650608941
10
-2.9729745748
20
5.5724787277
30
6.6031191196
10
-2.9742167419
20
5.4984701933
30
6.5618246034
10
-2.9748378255
20
5.4614659261
30
6.5411773452
11
-2.9351048588
21
7.6463958501
31
7.7567675470
11
-2.9382082290
21
7.4842924113
31
7.6667605462
11
-2.9413115992
21
7.3221889724
31
7.5767535454
11
-2.9444149694
21
7.1600855336
31
7.4867465446
11
-2.9475183397
21
6.9979820947
31
7.3967395438
11
-2.9506217099
21
6.8358786558
31
7.3067325430
11
-2.9521733950
21
6.7548269364
31
7.2617290426
11
-2.9537250801
21
6.6737752170
31
7.2167255422
11
-2.9552767652
21
6.5927234976
31
7.1717220418
11
-2.9560526078
21
6.5521976378
31
7.1492202916
11
-2.9568284503
21
6.5116717781
31
7.1267185414
11
-2.9576042929
21
6.4711459184
31
7.1042167912
11
-2.9583801354
21
6.4306200587
31
7.0817150410
11
-2.9587680567
21
6.4103571288
31
7.0704641659
11
-2.9591559780
21
6.3900941990
31
7.0592132909
11
-2.9593499386
21
6.3799627341
31
7.0535878533
11
-2.9595438993
21
6.3698312691
31
7.0479624158
11
-2.9597378599
21
6.3596998042
31
7.0423369782
11
-2.9598348402
21
6.3546340717
31
7.0395242594
11
-2.9598833304
21
6.3521012055
31
7.0381179000
11
-2.9599318206
21
6.3495683393
31
7.0367115407
11
-2.9599609338
21
6.3478337642
31
7.0357437004
11
-2.9599900471
21
6.3460991892
31
7.0347758602
11
-2.9600482737
21
6.3426300392
31
7.0328401798
11
-2.9601647269
21
6.3356917391
31
7.0289688188
11
-2.9602811800
21
6.3287534390
31
7.0250974579
11
-2.9603976332
21
6.3218151389
31
7.0212260970
11
-2.9606305395
21
6.3079385386
31
7.0134833752
11
-2.9608634459
21
6.2940619384
31
7.0057406534
11
-2.9613292585
21
6.2663087380
31
6.9902552098
11
-2.9617950712
21
6.2385555376
31
6.9747697662
11
-2.9622608838
21
6.2108023372
31
6.9592843226
11
-2.9627266965
21
6.1830491368
31
6.9437988790
11
-2.9636583218
21
6.1275427360
31
6.9128279918
11
-2.9645899471
21
6.0720363351
31
6.8818571046
11
-2.9655215724
21
6.0165299343
31
6.8508862174
11
-2.9673848230
21
5.9055171327
31
6.7889444429
11
-2.9692480736
21
5.7945043310
31
6.7270026685
11
-2.9711113242
21
5.6834915294
31
6.6650608941
11
-2.9729745748
21
5.5724787277
31
6.6031191196
11
-2.9748378255
21
5.4614659261
31
6.5411773452
0
SPLINE
5
287
100
AcDbEntity
8
CURVE
100
AcDbSpline
6
CONTINUOUS
70
0
71
3
72
8
73
4
74
2
42
0.0000001000
43
0.0000001000
44
0.0000000001
12
0.3865701282
22
-0.6356946029
32
0.1010708297
13
0.3869983346
23
-0.6355058743
33
0.1007133333
40
0.0000000000
40
0.0000000000
40
0.0000000000
40
0.0000000000
40
1.0000000000
40
1.0000000000
40
1.0000000000
40
1.0000000000
10
-3.3218891348
20
8.2819961621
30
7.6558754538
10
-3.1930324254
20
8.0700979611
30
7.6895657304
10
-3.0641043036
20
7.8582311416
30
7.7231964359
10
-2.9351048588
20
7.6463958501
30
7.7567675470
11
-3.3218891348
21
8.2819961621
31
7.6558754538
11
-2.9351048588
21
7.6463958501
31
7.7567675470
0
ENDSEC
0
SECTION
2
OBJECTS
0
DICTIONARY
5
C
100
AcDbDictionary
280
0
281
1
3
ACAD_GROUP
350
D
3
ACAD_MLINESTYLE
350
17
3
ACAD_LAYOUT
350
1A
3
ACAD_PLOTSETTINGS
350
19
3
ACAD_PLOTSTYLENAME
350
E
0
DICTIONARY
5
D
102
{ACAD_REACTORS
330
C
102
}
100
AcDbDictionary
280
0
281
1
0
ACDBDICTIONARYWDFLT
5
E
102
{ACAD_REACTORS
330
C
102
}
100
AcDbDictionary
281
1
3
Normal
350
F
100
AcDbDictionaryWithDefault
340
F
0
DICTIONARY
5
17
102
{ACAD_REACTORS
330
C
102
}
100
AcDbDictionary
280
0
281
1
3
Standard
350
18
0
DICTIONARY
5
19
102
{ACAD_REACTORS
330
C
102
}
100
AcDbDictionary
281
1
0
DICTIONARY
5
1A
102
{ACAD_REACTORS
330
C
102
}
100
AcDbDictionary
281
1
3
Layout1
350
1E
3
Model
350
22
0
ACDBPLACEHOLDER
5
F
102
{ACAD_REACTORS
330
E
102
}
0
MLINESTYLE
5
18
102
{ACAD_REACTORS
330
17
102
}
100
AcDbMlineStyle
2
STANDARD
70
0
3

62
256
51
90.0
52
90.0
71
2
49
0.5
62
256
6
BYLAYER
49
-0.5
62
256
6
BYLAYER
0
LAYOUT
5
1E
102
{ACAD_REACTORS
330
1A
102
}
100
AcDbPlotSettings
1

2

4

6

40
0.0
41
0.0
42
0.0
43
0.0
44
0.0
45
0.0
46
0.0
47
0.0
48
0.0
49
0.0
140
0.0
141
0.0
142
1.0
143
1.0
70
0
72
0
73
0
74
0
7

75
0
147
1.0
148
0.0
149
0.0
100
AcDbLayout
1
Layout1
70
0
71
0
10
0.0
20
0.0
11
0.0
21
0.0
12
0.0
22
0.0
32
0.0
14
0.0
24
0.0
34
0.0
15
0.0
25
0.0
35
0.0
146
0.0
13
0.0
23
0.0
33
0.0
16
0.0
26
0.0
36
0.0
17
0.0
27
0.0
37
0.0
76
0
330
1B
331
0
345
0
346
0
0
LAYOUT
5
22
102
{ACAD_REACTORS
330
1A
102
}
100
AcDbPlotSettings
1

2

4

6

40
0.0
41
0.0
42
0.0
43
0.0
44
0.0
45
0.0
46
0.0
47
0.0
48
0.0
49
0.0
140
0.0
141
0.0
142
1.0
143
1.0
70
0
72
0
73
0
74
0
7

75
0
147
1.0
148
0.0
149
0.0
100
AcDbLayout
1
Model
70
0
71
0
10
0.0
20
0.0
11
0.0
21
0.0
12
0.0
22
0.0
32
0.0
14
0.0
24
0.0
34
0.0
15
0.0
25
0.0
35
0.0
146
0.0
13
0.0
23
0.0
33
0.0
16
0.0
26
0.0
36
0.0
17
0.0
27
0.0
37
0.0
76
0
330
1F
331
0
345
0
346
0
0
ENDSEC
0
EOF
