0
SECTION
2
HEADER
9
$ACADVER
1
AC1015
9
$DWGCODEPAGE
3
ANSI_1252
9
$EXTMAX
10
558.8000000000
20
431.8000000000
30
0.0000000000
9
$EXTMIN
10
0.0000000000
20
0.0000000000
30
0.0000000000
9
$LIMMIN
10
0.0000000000
20
0.0000000000
9
$LIMMAX
10
558.8000000000
20
431.8000000000
9
$VIEWCTR
10
279.4000000000
20
215.9000000000
9
$VIEWSIZE
40
431.8000000000
9
$CLAYER
8
0
9
$LTSCALE
40
30.7340000000
9
$CELTYPE
6
BYLAYER
9
$DIMSCALE
40
1
9
$DIMASZ
40
3.0000000000
9
$DIMEXO
40
3.4925000000
9
$DIMDLI
40
21.2344000000
9
$DIMEXE
40
10.0584000000
9
$DIMCEN
40
5.0292000000
9
$DIMLFAC
40
1.0000000000
9
$DIMBLK
1
_FILLED
9
$DIMTXT
40
3.0000000000
9
$DIMTOL
70
1
9
$DIMLIM
70
0
9
$DIMTFAC
40
1.0000000000
9
$DIMTP
40
0.0100000000
9
$DIMTM
40
0.0100000000
9
$PDMODE
70
3
9
$PDSIZE
40
3.0000000000
9
$HANDSEED
5
275
9
$MEASUREMENT
70
1
9
$INSUNITS
70
4
0
ENDSEC
0
SECTION
2
CLASSES
0
CLASS
1
ACDBDICTIONARYWDFLT
2
AcDbDictionaryWithDefault
3
AutoCAD 2000
90
0
280
0
281
0
0
CLASS
1
ACDBPLACEHOLDER
2
AcDbPlaceHolder
3
AutoCAD 2000
90
0
280
0
281
0
0
CLASS
1
LAYOUT
2
AcDbLayout
3
AutoCAD 2000
90
0
280
0
281
0
0
ENDSEC
0
SECTION
2
TABLES
0
TABLE
2
VPORT
5
8
100
AcDbSymbolTable
70
2
0
VPORT
5
1F4
100
AcDbSymbolTableRecord
100
AcDbViewportTableRecord
2
*ACTIVE
70
0
10
0.0
20
0.0
11
1.0
21
1.0
12
279.4000000000
22
215.9000000000
13
0.0
23
0.0
14
1.0
24
1.0
15
0.0
25
0.0
16
0.0
26
0.0
36
1.0
17
0.0
27
0.0
37
0.0
40
431.8000000000
41
1.2941176471
42
50.0
43
0.0
44
0.0
50
0.0
51
0.0
71
0
72
100
73
1
74
1
75
0
76
0
77
0
78
0
0
ENDTAB
0
TABLE
2
LTYPE
5
5
100
AcDbSymbolTable
70
6
0
LTYPE
5
14
100
AcDbSymbolTableRecord
100
AcDbLinetypeTableRecord
2
BYBLOCK
70
0
3

72
65
73
0
40
0.0
0
LTYPE
5
15
100
AcDbSymbolTableRecord
100
AcDbLinetypeTableRecord
2
BYLAYER
70
0
3

72
65
73
0
40
0.0
0
LTYPE
5
16
100
AcDbSymbolTableRecord
100
AcDbLinetypeTableRecord
2
CONTINUOUS
70
64
3
Solid line
72
65
73
0
40
0
0
LTYPE
5
1F5
100
AcDbSymbolTableRecord
100
AcDbLinetypeTableRecord
2
CENTER
70
64
3
____ _ ____ _ ____ _ ____ _ ____ _ ____ _ ____
72
65
73
4
40
0.6
49
0.375
74
0
49
-0.075
74
0
49
0.075
74
0
49
-0.075
74
0
0
LTYPE
5
1F6
100
AcDbSymbolTableRecord
100
AcDbLinetypeTableRecord
2
HIDDEN
70
64
3
- - - - - - - - - - - - - - - - - - - -
72
65
73
2
40
0.2
49
0.1
74
0
49
-0.1
74
0
0
LTYPE
5
1F7
100
AcDbSymbolTableRecord
100
AcDbLinetypeTableRecord
2
PHANTOM
70
64
3
_____ _ _ _____ _ _ _____ _ _ _____
72
65
73
6
40
0.8
49
0.45
74
0
49
-0.05
74
0
49
0.1
74
0
49
-0.05
74
0
49
0.1
74
0
49
-0.05
74
0
0
LTYPE
5
1F8
100
AcDbSymbolTableRecord
100
AcDbLinetypeTableRecord
2
DOT
70
64
3
. . . . . . . . . . . . . . . . . . . .
72
65
73
2
40
0.2
49
0.1
74
0
49
-0.1
74
0
0
LTYPE
5
1F9
100
AcDbSymbolTableRecord
100
AcDbLinetypeTableRecord
2
DASHED
70
64
3
- - - - - - - - - - - - - - - - - - - -
72
65
73
2
40
0.2
49
0.1
74
0
49
-0.1
74
0
0
ENDTAB
0
TABLE
2
LAYER
5
2
100
AcDbSymbolTable
70
36
0
LAYER
5
10
100
AcDbSymbolTableRecord
100
AcDbLayerTableRecord
2
0
70
0
62
7
6
CONTINUOUS
370
-3
390
F
0
LAYER
5
1FA
100
AcDbSymbolTableRecord
100
AcDbLayerTableRecord
2
DEFAULT_1
70
0
62
7
6
CENTER
370
-3
390
F
0
LAYER
5
1FB
100
AcDbSymbolTableRecord
100
AcDbLayerTableRecord
2
DEFAULT_2
70
0
62
0
6
HIDDEN
370
-3
390
F
0
LAYER
5
1FC
100
AcDbSymbolTableRecord
100
AcDbLayerTableRecord
2
DEFAULT_3
70
0
62
7
6
PHANTOM
370
-3
390
F
0
LAYER
5
1FD
100
AcDbSymbolTableRecord
100
AcDbLayerTableRecord
2
ASSI
70
0
62
7
6
CONTINUOUS
370
-3
390
F
0
LAYER
5
1FE
100
AcDbSymbolTableRecord
100
AcDbLayerTableRecord
2
COORDINATE
70
0
62
7
6
CONTINUOUS
370
-3
390
F
0
LAYER
5
1FF
100
AcDbSymbolTableRecord
100
AcDbLayerTableRecord
2
COORD_ORIGINE
70
0
62
7
6
CONTINUOUS
370
-3
390
F
0
LAYER
5
200
100
AcDbSymbolTableRecord
100
AcDbLayerTableRecord
2
CURVE
70
0
62
7
6
CONTINUOUS
370
-3
390
F
0
LAYER
5
201
100
AcDbSymbolTableRecord
100
AcDbLayerTableRecord
2
CURVE_LED_TASTO
70
0
62
7
6
CONTINUOUS
370
-3
390
F
0
LAYER
5
202
100
AcDbSymbolTableRecord
100
AcDbLayerTableRecord
2
DRAFT
70
0
62
7
6
CONTINUOUS
370
-3
390
F
0
LAYER
5
203
100
AcDbSymbolTableRecord
100
AcDbLayerTableRecord
2
PIANI
70
0
62
7
6
CONTINUOUS
370
-3
390
F
0
LAYER
5
204
100
AcDbSymbolTableRecord
100
AcDbLayerTableRecord
2
PIANI_ORIGINE
70
0
62
7
6
CONTINUOUS
370
-3
390
F
0
LAYER
5
205
100
AcDbSymbolTableRecord
100
AcDbLayerTableRecord
2
PIANI_RIFERIMENTO
70
0
62
7
6
CONTINUOUS
370
-3
390
F
0
LAYER
5
206
100
AcDbSymbolTableRecord
100
AcDbLayerTableRecord
2
PUNTI
70
0
62
7
6
CONTINUOUS
370
-3
390
F
0
LAYER
5
207
100
AcDbSymbolTableRecord
100
AcDbLayerTableRecord
2
RACCORDO
70
0
62
7
6
CONTINUOUS
370
-3
390
F
0
LAYER
5
208
100
AcDbSymbolTableRecord
100
AcDbLayerTableRecord
2
SCRITTE
70
0
62
7
6
CONTINUOUS
370
-3
390
F
0
LAYER
5
209
100
AcDbSymbolTableRecord
100
AcDbLayerTableRecord
2
SUPERFICI
70
0
62
7
6
CONTINUOUS
370
-3
390
F
0
LAYER
5
20A
100
AcDbSymbolTableRecord
100
AcDbLayerTableRecord
2
TRASH
70
0
62
7
6
CONTINUOUS
370
-3
390
F
0
ENDTAB
0
TABLE
2
STYLE
5
3
100
AcDbSymbolTable
70
1
0
STYLE
5
11
100
AcDbSymbolTableRecord
100
AcDbTextStyleTableRecord
2
STANDARD
70
0
40
0.0
41
0.8000000000
50
0.0
71
0
42
0.2
3
txt
4

0
ENDTAB
0
TABLE
2
VIEW
5
6
100
AcDbSymbolTable
70
0
0
ENDTAB
0
TABLE
2
UCS
5
7
100
AcDbSymbolTable
70
0
0
ENDTAB
0
TABLE
2
APPID
5
9
100
AcDbSymbolTable
70
1
0
APPID
5
20B
100
AcDbSymbolTableRecord
100
AcDbRegAppTableRecord
2
ACAD
70
0
0
ENDTAB
0
TABLE
2
BLOCK_RECORD
5
1
100
AcDbSymbolTable
70
0
0
BLOCK_RECORD
5
1F
100
AcDbSymbolTableRecord
100
AcDbBlockTableRecord
2
*MODEL_SPACE
0
BLOCK_RECORD
5
1B
100
AcDbSymbolTableRecord
100
AcDbBlockTableRecord
2
*PAPER_SPACE
0
ENDTAB
0
TABLE
2
DIMSTYLE
5
A
100
AcDbSymbolTable
70
1
100
AcDbDimStyleTable
71
0
0
DIMSTYLE
105
20C
100
AcDbSymbolTableRecord
100
AcDbDimStyleTableRecord
2
STANDARD
70
0
3

4

40
1.0
41
3.0000000000
42
0.0625
43
0.38
44
0.18
45
0.0
46
0.0
47
0.0100000000
48
0.0100000000
140
3.0000000000
141
0.09
142
0.0
143
25.4
144
1.0000000000
145
0.0
146
1.0000000000
147
0.09
71
1
72
0
73
0
74
0
75
0
76
0
77
1
78
8
170
0
171
2
172
0
173
0
174
0
175
0
176
0
177
0
178
0
270
2
271
2
272
2
273
2
274
2
275
0
280
0
281
0
282
0
283
1
284
8
285
0
286
0
287
3
288
0
340
11
0
ENDTAB
0
ENDSEC
0
SECTION
2
BLOCKS
0
BLOCK
5
20
100
AcDbEntity
8
0
100
AcDbBlockBegin
2
*MODEL_SPACE
70
0
10
0.0
20
0.0
30
0.0
3
*MODEL_SPACE
1

0
ENDBLK
5
21
100
AcDbEntity
8
0
100
AcDbBlockEnd
0
BLOCK
5
1C
100
AcDbEntity
8
0
100
AcDbBlockBegin
2
*PAPER_SPACE
70
0
10
0.0
20
0.0
30
0.0
3
*PAPER_SPACE
1

0
ENDBLK
5
1D
100
AcDbEntity
8
0
100
AcDbBlockEnd
0
ENDSEC
0
SECTION
2
ENTITIES
0
LWPOLYLINE
5
20D
100
AcDbEntity
8
0
100
AcDbPolyline
62
0
6
CONTINUOUS
90
38
70
0
10
-19.2931533042
20
22.0324723783
10
-19.3139910361
20
22.0142253754
10
-19.3344686820
20
21.9953840036
10
-19.3545716961
20
21.9759732702
10
-19.3742941610
20
21.9560107334
10
-19.3936291182
20
21.9355141259
10
-19.4125589436
20
21.9145125065
10
-19.4310770635
20
21.8930242878
10
-19.4491769863
20
21.8710666633
10
-19.4668412236
20
21.8486708927
10
-19.4840612669
20
21.8258582910
10
-19.5008326077
20
21.8026439555
10
-19.5171439059
20
21.7790530042
10
-19.5329855558
20
21.7551082818
10
-19.5483540574
20
21.7308231940
10
-19.5632464088
20
21.7062097710
10
-19.5776549556
20
21.6812859603
10
-19.5915728173
20
21.6560687725
10
-19.6049963737
20
21.6305684534
10
-19.6179175292
20
21.6048020225
10
-19.6303285502
20
21.5787865538
10
-19.6422245101
20
21.5525315953
10
-19.6535968938
20
21.5260535473
10
-19.6644370216
20
21.4993694987
10
-19.6747384003
20
21.4724891731
10
-19.6844929583
20
21.4454258576
10
-19.6936899141
20
21.4181993100
10
-19.7023187920
20
21.3908280676
10
-19.7103707899
20
21.3633263775
10
-19.7178351029
20
21.3357129888
10
-19.7246998889
20
21.3080118915
10
-19.7309555990
20
21.2802390354
10
-19.7365918516
20
21.2524111498
10
-19.7415974421
20
21.2245515730
10
-19.7459621590
20
21.1966771318
10
-19.7496755324
20
21.1688034890
10
-19.7527267257
20
21.1409493003
10
-19.7551045712
20
21.1131303669
0
LWPOLYLINE
5
20E
100
AcDbEntity
8
0
100
AcDbPolyline
62
0
6
CONTINUOUS
90
14
70
0
10
-19.2340931109
20
22.0794035514
10
-19.2980677066
20
22.0282510208
10
-19.3603866675
20
21.9701840268
10
-19.4192321896
20
21.9068791712
10
-19.4743845173
20
21.8388007293
10
-19.5255057015
20
21.7665462542
10
-19.5723461331
20
21.6906028802
10
-19.6146391496
20
21.6114606228
10
-19.6520036182
20
21.5298515751
10
-19.6841913482
20
21.4462889129
10
-19.7109441813
20
21.3612837995
10
-19.7319500126
20
21.2755485340
10
-19.7469662371
20
21.1896047392
10
-19.7557457340
20
21.1038639120
0
LWPOLYLINE
5
20F
100
AcDbEntity
8
0
100
AcDbPolyline
62
0
6
CONTINUOUS
90
4
70
0
10
-19.2342720932
20
22.0792719199
10
-19.2504257297
20
22.0671091278
10
-19.2719633912
20
22.0501057421
10
-19.2931533042
20
22.0324723783
0
LINE
5
210
100
AcDbEntity
8
0
100
AcDbLine
62
0
6
CONTINUOUS
10
-19.2342744455
20
22.0792702471
11
-15.0331271582
21
25.1778567053
0
LINE
5
211
100
AcDbEntity
8
0
100
AcDbLine
62
0
6
CONTINUOUS
10
-19.0930391974
20
22.0752783612
11
-14.8838725370
21
25.1797795658
0
LINE
5
212
100
AcDbEntity
8
0
100
AcDbLine
62
0
6
CONTINUOUS
10
15.6520952550
20
-25.0277463014
11
19.9771024425
21
-23.8574267246
0
LINE
5
213
100
AcDbEntity
8
0
100
AcDbLine
62
0
6
CONTINUOUS
10
19.8770902925
20
-24.0309864931
11
15.5216792823
21
-25.2095325771
0
LWPOLYLINE
5
214
100
AcDbEntity
8
0
100
AcDbPolyline
62
0
6
CONTINUOUS
90
3
70
0
10
-19.7575782423
20
-7.3135349967
10
-19.7519301642
20
-7.3925040722
10
-19.7398070331
20
-7.4696749972
0
LWPOLYLINE
5
215
100
AcDbEntity
8
0
100
AcDbPolyline
62
0
6
CONTINUOUS
90
4
70
0
10
-19.7575766894
20
-7.3135848614
10
-19.7568314389
20
-7.3319604031
10
-19.7552567542
20
-7.3571536028
10
-19.7530525245
20
-7.3820551520
0
LINE
5
216
100
AcDbEntity
8
0
100
AcDbLine
62
0
6
CONTINUOUS
10
-19.8426480483
20
-4.2736965955
11
-19.7575767082
21
-7.3135858505
0
LWPOLYLINE
5
217
100
AcDbEntity
8
0
100
AcDbPolyline
62
0
6
CONTINUOUS
90
4
70
0
10
-19.8534854616
20
-3.8224220180
10
-19.8244919727
20
-4.9902178624
10
-19.7924476573
20
-6.1563148748
10
-19.7575767085
20
-7.3135858409
0
LWPOLYLINE
5
218
100
AcDbEntity
8
0
100
AcDbPolyline
62
0
6
CONTINUOUS
90
20
70
0
10
-19.8245130644
20
18.6722995003
10
-19.8535036592
20
17.4745349208
10
-19.8794433352
20
16.2782387974
10
-19.9023318396
20
15.0834232402
10
-19.9221689489
20
13.8900997136
10
-19.9389544428
20
12.6982802001
10
-19.9526881514
20
11.5079770257
10
-19.9633699213
20
10.3192021733
10
-19.9709996095
20
9.1319678349
10
-19.9755771368
20
7.9462864585
10
-19.9771024424
20
6.7621704123
10
-19.9755754820
20
5.5796319129
10
-19.9709962723
20
4.3986831455
10
-19.9633648468
20
3.2193364297
10
-19.9526812569
20
2.0416041455
10
-19.9389456181
20
0.8654983509
10
-19.9221580564
20
-0.3089691169
10
-19.9023187141
20
-1.4817860929
10
-19.8794277839
20
-2.6529408084
10
-19.8534854616
20
-3.8224220180
0
LWPOLYLINE
5
219
100
AcDbEntity
8
0
100
AcDbPolyline
62
0
6
CONTINUOUS
90
9
70
0
10
-19.7575859125
20
21.0654411232
10
-19.8428266320
20
17.9303491445
10
-19.9086094350
20
14.7249154747
10
-19.9524592316
20
11.5302315102
10
-19.9743725716
20
8.3465338222
10
-19.9743475863
20
5.1740586842
10
-19.9523840125
20
2.0130390581
10
-19.9084831922
20
-1.1362904571
10
-19.8426480483
20
-4.2736965955
0
LWPOLYLINE
5
21A
100
AcDbEntity
8
0
100
AcDbPolyline
62
0
6
CONTINUOUS
90
3
70
0
10
-19.7575859127
20
21.0654411157
10
-19.7924719190
20
19.8715187009
10
-19.8245130644
20
18.6722995003
0
LINE
5
21B
100
AcDbEntity
8
0
100
AcDbLine
62
0
6
CONTINUOUS
10
-19.7557457340
20
21.1038639120
11
-19.7575893979
21
21.0653223334
0
LWPOLYLINE
5
21C
100
AcDbEntity
8
0
100
AcDbPolyline
62
0
6
CONTINUOUS
90
3
70
0
10
-19.7551045712
20
21.1131303669
10
-19.7567978952
20
21.0853638825
10
-19.7575859725
20
21.0654381878
0
LWPOLYLINE
5
21D
100
AcDbEntity
8
0
100
AcDbPolyline
62
0
6
CONTINUOUS
90
20
70
0
10
15.1437505808
20
-25.2000360234
10
15.1620358530
20
-25.2061603693
10
15.1805963672
20
-25.2116953163
10
15.1994163916
20
-25.2166310950
10
15.2184965942
20
-25.2209620966
10
15.2378218380
20
-25.2246783600
10
15.2573768688
20
-25.2277708951
10
15.2771636189
20
-25.2302335424
10
15.2971673518
20
-25.2320571657
10
15.3173728616
20
-25.2332331021
10
15.3377829905
20
-25.2337538667
10
15.3583837868
20
-25.2336108854
10
15.3791599758
20
-25.2327959538
10
15.4001142373
20
-25.2312998322
10
15.4212326241
20
-25.2291139995
10
15.4425018461
20
-25.2262303131
10
15.4639276605
20
-25.2226372918
10
15.4855031679
20
-25.2183243569
10
15.5072071696
20
-25.2132843555
10
15.5220524374
20
-25.2094321399
0
LWPOLYLINE
5
21E
100
AcDbEntity
8
0
100
AcDbPolyline
62
0
6
CONTINUOUS
90
10
70
0
10
-19.7398070331
20
-7.4696749972
10
-19.7212956847
20
-7.5432937634
10
-19.6965027130
20
-7.6128327441
10
-19.6658241142
20
-7.6773699018
10
-19.6297330443
20
-7.7363493692
10
-19.5884857906
20
-7.7897134384
10
-19.5424371759
20
-7.8372125335
10
-19.4921450741
20
-7.8784600679
10
-19.4382027504
20
-7.9131789608
10
-19.4138322916
20
-7.9261546545
0
LWPOLYLINE
5
21F
100
AcDbEntity
8
0
100
AcDbPolyline
62
0
6
CONTINUOUS
90
32
70
0
10
-19.7530525245
20
-7.3820551520
10
-19.7502177536
20
-7.4066685961
10
-19.7467546756
20
-7.4309693837
10
-19.7426719215
20
-7.4549042699
10
-19.7379731788
20
-7.4784657943
10
-19.7326626085
20
-7.5016447448
10
-19.7267560514
20
-7.5243877988
10
-19.7202606776
20
-7.5466879590
10
-19.7131842599
20
-7.5685376733
10
-19.7055508441
20
-7.5898852481
10
-19.6973730151
20
-7.6107219632
10
-19.6886617662
20
-7.6310450831
10
-19.6794460660
20
-7.6508139553
10
-19.6697490976
20
-7.6700094061
10
-19.6595799627
20
-7.6886428552
10
-19.6489498267
20
-7.7067190501
10
-19.6378776967
20
-7.7242285999
10
-19.6263772503
20
-7.7411717835
10
-19.6144506630
20
-7.7575644343
10
-19.6021135466
20
-7.7734010940
10
-19.5893823543
20
-7.7886758399
10
-19.5762588878
20
-7.8033998980
10
-19.5627598408
20
-7.8175664537
10
-19.5489013371
20
-7.8311700977
10
-19.5346829950
20
-7.8442206701
10
-19.5201218056
20
-7.8567107559
10
-19.5052340774
20
-7.8686348904
10
-19.4900167827
20
-7.8800021909
10
-19.4744860472
20
-7.8908056183
10
-19.4586590147
20
-7.9010385895
10
-19.4425325818
20
-7.9107075152
10
-19.4261164385
20
-7.9198091707
0
LINE
5
220
100
AcDbEntity
8
0
100
AcDbLine
62
0
6
CONTINUOUS
10
15.1257549613
20
-25.1933327036
11
15.1437505808
21
-25.2000360234
0
LWPOLYLINE
5
221
100
AcDbEntity
8
0
100
AcDbPolyline
62
0
6
CONTINUOUS
90
3
70
0
10
15.0906377696
20
-25.1782110758
10
15.1080474963
20
-25.1860550412
10
15.1257549613
20
-25.1933327036
0
LWPOLYLINE
5
222
100
AcDbEntity
8
0
100
AcDbPolyline
62
0
6
CONTINUOUS
90
8
70
0
10
15.0768790991
20
-25.1715059244
10
15.0949220164
20
-25.1802053358
10
15.1602142450
20
-25.2055805527
10
15.2295739180
20
-25.2231734596
10
15.3020895444
20
-25.2324048160
10
15.3765088763
20
-25.2329371438
10
15.4519978209
20
-25.2247225400
10
15.5216792727
20
-25.2095325412
0
LINE
5
223
100
AcDbEntity
8
0
100
AcDbLine
62
0
6
CONTINUOUS
10
14.8159350444
20
-24.6629744193
11
-19.6696993469
21
-7.4201572236
0
LINE
5
224
100
AcDbEntity
8
0
100
AcDbLine
62
0
6
CONTINUOUS
10
15.0784718445
20
-25.1723069353
11
-19.4138330609
21
-7.9261542718
0
LINE
5
225
100
AcDbEntity
8
0
100
AcDbLine
62
0
6
CONTINUOUS
10
-19.4261164385
20
-7.9198091707
11
-19.4134638258
21
-7.9263390965
0
LINE
5
226
100
AcDbEntity
8
CURVE
100
AcDbLine
6
CONTINUOUS
10
-6.1365216355
20
-6.8390009224
11
0.9345461764
21
-10.3745348283
0
LINE
5
227
100
AcDbEntity
8
0
100
AcDbLine
62
0
6
CONTINUOUS
10
-2.7358796543
20
-0.6362265924
11
-2.6512099609
21
-0.5938917457
0
LINE
5
228
100
AcDbEntity
8
0
100
AcDbLine
62
0
6
CONTINUOUS
10
-1.6402063453
20
-2.8275732103
11
-1.5555367855
21
-2.7852384305
0
LINE
5
229
100
AcDbEntity
8
CURVE
100
AcDbLine
6
CONTINUOUS
10
0.9345461764
20
2.9622563899
11
-6.1365216355
21
6.4977902959
0
LINE
5
22A
100
AcDbEntity
8
0
100
AcDbLine
62
0
6
CONTINUOUS
10
19.7655810752
20
7.8550527596
11
15.4068614027
21
4.8253280612
0
LINE
5
22B
100
AcDbEntity
8
0
100
AcDbLine
62
0
6
CONTINUOUS
10
19.9771024425
20
7.4862760173
11
15.6520952550
21
4.4799847022
0
LINE
5
22C
100
AcDbEntity
8
0
100
AcDbLine
62
0
6
CONTINUOUS
10
14.8159350444
20
3.7175182694
11
-19.6696993469
21
20.9603354650
0
LINE
5
22D
100
AcDbEntity
8
0
100
AcDbLine
62
0
6
CONTINUOUS
10
15.4068614027
20
4.8253280612
11
-19.0930391974
21
22.0752783612
0
LINE
5
22E
100
AcDbEntity
8
0
100
AcDbLine
62
0
6
CONTINUOUS
10
-14.8838725370
20
25.1797795658
11
19.7655810752
21
7.8550527596
0
LINE
5
22F
100
AcDbEntity
8
0
100
AcDbLine
62
0
6
CONTINUOUS
10
19.9771024425
20
-23.8574267246
11
19.9771024425
21
7.4862760173
0
SPLINE
5
230
100
AcDbEntity
8
0
100
AcDbSpline
62
0
6
CONTINUOUS
70
0
71
3
72
19
73
15
74
13
42
0.0000001000
43
0.0000001000
44
0.0000000001
12
-2.1887593801
22
1.0943796900
32
0.0000000000
13
1.8503277559
23
1.6133349320
33
0.0000000000
40
0.0000000000
40
0.0000000000
40
0.0000000000
40
0.0000000000
40
0.0819421360
40
0.1689308428
40
0.2592380105
40
0.3512445928
40
0.4438148780
40
0.5354834059
40
0.6248978875
40
0.7108486177
40
0.7920796060
40
0.8674322556
40
0.9359271922
40
1.0000000000
40
1.0000000000
40
1.0000000000
40
1.0000000000
10
-2.2774857062
20
-2.7984613721
30
0.0000000000
10
-2.3372695791
20
-2.7685694356
30
0.0000000000
10
-2.4546827270
20
-2.6948478581
30
0.0000000000
10
-2.6140108977
20
-2.5547131324
30
0.0000000000
10
-2.7575059760
20
-2.3875123907
30
0.0000000000
10
-2.8810805191
20
-2.1997416895
30
0.0000000000
10
-2.9816088353
20
-1.9974681476
30
0.0000000000
10
-3.0563342633
20
-1.7865307117
30
0.0000000000
10
-3.1026669431
20
-1.5730470558
30
0.0000000000
10
-3.1182674846
20
-1.3635530540
30
0.0000000000
10
-3.1013734212
20
-1.1654593595
30
0.0000000000
10
-3.0518760693
20
-0.9873755560
30
0.0000000000
10
-2.9720644444
20
-0.8360708880
30
0.0000000000
10
-2.8997937509
20
-0.7542145887
30
0.0000000000
10
-2.8602751860
20
-0.7197576224
30
0.0000000000
11
-2.2774857062
21
-2.7984613721
31
0.0000000000
11
-2.4479781201
21
-2.6929100065
31
0.0000000000
11
-2.6084817395
21
-2.5530796599
31
0.0000000000
11
-2.7528747506
21
-2.3857840260
31
0.0000000000
11
-2.8768993206
21
-2.1978733491
31
0.0000000000
11
-2.9777117133
21
-1.9950126992
31
0.0000000000
11
-3.0523298288
21
-1.7834640652
31
0.0000000000
11
-3.0981294220
21
-1.5695041869
31
0.0000000000
11
-3.1127898371
21
-1.3596850710
31
0.0000000000
11
-3.0946321717
21
-1.1617351641
31
0.0000000000
11
-3.0438966548
21
-0.9844562840
31
0.0000000000
11
-2.9646584582
21
-0.8367541613
31
0.0000000000
11
-2.8602751860
21
-0.7197576224
31
0.0000000000
0
SPLINE
5
231
100
AcDbEntity
8
0
100
AcDbSpline
62
0
6
CONTINUOUS
70
0
71
3
72
8
73
4
74
2
42
0.0000001000
43
0.0000001000
44
0.0000000001
12
0.0726165102
22
0.0633156760
32
0.0000000000
13
0.0817814414
23
0.0508222288
33
0.0000000000
40
0.0000000000
40
0.0000000000
40
0.0000000000
40
0.0000000000
40
1.0000000000
40
1.0000000000
40
1.0000000000
40
1.0000000000
10
-2.8602751860
20
-0.7197576224
30
0.0000000000
10
-2.8360696826
20
-0.6986523970
30
0.0000000000
10
-2.8101426817
20
-0.6794627510
30
0.0000000000
10
-2.7828822012
20
-0.6625220081
30
0.0000000000
11
-2.8602751860
21
-0.7197576224
31
0.0000000000
11
-2.7828822012
21
-0.6625220081
31
0.0000000000
0
SPLINE
5
232
100
AcDbEntity
8
0
100
AcDbSpline
62
0
6
CONTINUOUS
70
0
71
3
72
8
73
4
74
2
42
0.0000001000
43
0.0000001000
44
0.0000000001
12
0.0036902994
22
0.0022932983
32
0.0000000000
13
0.0037064836
23
0.0022657316
33
0.0000000000
40
0.0000000000
40
0.0000000000
40
0.0000000000
40
0.0000000000
40
1.0000000000
40
1.0000000000
40
1.0000000000
40
1.0000000000
10
-2.7828822012
20
-0.6625220081
30
0.0000000000
10
-2.7816521014
20
-0.6617575753
30
0.0000000000
10
-2.7804192865
20
-0.6609977217
30
0.0000000000
10
-2.7791837919
20
-0.6602424778
30
0.0000000000
11
-2.7828822012
21
-0.6625220081
31
0.0000000000
11
-2.7791837919
21
-0.6602424778
31
0.0000000000
0
SPLINE
5
233
100
AcDbEntity
8
0
100
AcDbSpline
62
0
6
CONTINUOUS
70
0
71
3
72
8
73
4
74
2
42
0.0000001000
43
0.0000001000
44
0.0000000001
12
0.0423097190
22
0.0258634533
32
0.0000000000
13
0.0442455536
23
0.0221227768
33
0.0000000000
40
0.0000000000
40
0.0000000000
40
0.0000000000
40
0.0000000000
40
1.0000000000
40
1.0000000000
40
1.0000000000
40
1.0000000000
10
-2.7791837919
20
-0.6602424778
30
0.0000000000
10
-2.7650805523
20
-0.6516213267
30
0.0000000000
10
-2.7506281594
20
-0.6436008450
30
0.0000000000
10
-2.7358796416
20
-0.6362265860
30
0.0000000000
11
-2.7791837919
21
-0.6602424778
31
0.0000000000
11
-2.7358796416
21
-0.6362265860
31
0.0000000000
0
SPLINE
5
234
100
AcDbEntity
8
0
100
AcDbSpline
62
0
6
CONTINUOUS
70
0
71
3
72
8
73
4
74
2
42
0.0000001000
43
0.0000001000
44
0.0000000001
12
-0.0880173021
22
-0.0440086510
32
0.0000000000
13
-0.0944562500
23
-0.0288203622
33
0.0000000000
40
0.0000000000
40
0.0000000000
40
0.0000000000
40
0.0000000000
40
1.0000000000
40
1.0000000000
40
1.0000000000
40
1.0000000000
10
-1.6402063326
20
-2.8275732040
30
0.0000000000
10
-1.6695454333
20
-2.8422427543
30
0.0000000000
10
-1.7002256099
20
-2.8544411272
30
0.0000000000
10
-1.7317110266
20
-2.8640479146
30
0.0000000000
11
-1.6402063326
21
-2.8275732040
31
0.0000000000
11
-1.7317110266
21
-2.8640479146
31
0.0000000000
0
SPLINE
5
235
100
AcDbEntity
8
0
100
AcDbSpline
62
0
6
CONTINUOUS
70
0
71
3
72
11
73
7
74
5
42
0.0000001000
43
0.0000001000
44
0.0000000001
12
-0.5394789979
22
-0.1646050961
32
0.0000000000
13
-0.5027034836
23
0.2513517418
33
0.0000000000
40
0.0000000000
40
0.0000000000
40
0.0000000000
40
0.0000000000
40
0.0892212629
40
0.3671962248
40
0.6694772325
40
1.0000000000
40
1.0000000000
40
1.0000000000
40
1.0000000000
10
-1.7317110266
20
-2.8640479146
30
0.0000000000
10
-1.7477553591
20
-2.8689433395
30
0.0000000000
10
-1.8146474665
20
-2.8863211786
30
0.0000000000
10
-1.9408737189
20
-2.8967306721
30
0.0000000000
10
-2.1108557763
20
-2.8697858343
30
0.0000000000
10
-2.2221007240
20
-2.8261538632
30
0.0000000000
10
-2.2774857062
20
-2.7984613721
30
0.0000000000
11
-1.7317110266
21
-2.8640479146
31
0.0000000000
11
-1.7804004143
21
-2.8766993731
31
0.0000000000
11
-1.9360365020
21
-2.8903425750
31
0.0000000000
11
-2.1040201221
21
-2.8649371121
31
0.0000000000
11
-2.2774857062
21
-2.7984613721
31
0.0000000000
0
SPLINE
5
236
100
AcDbEntity
8
0
100
AcDbSpline
62
0
6
CONTINUOUS
70
0
71
3
72
34
73
30
74
28
42
0.0000001000
43
0.0000001000
44
0.0000000001
12
2.4019409704
22
-1.2009704852
32
0.0000000000
13
-2.4019409704
23
1.2009704852
33
0.0000000000
40
0.0000000000
40
0.0000000000
40
0.0000000000
40
0.0000000000
40
0.0153048710
40
0.0330120685
40
0.0524794322
40
0.0731906595
40
0.0947523794
40
0.1171264962
40
0.1408256661
40
0.1666058854
40
0.1952732083
40
0.2277807460
40
0.2655723659
40
0.3102621641
40
0.3622425989
40
0.4204942649
40
0.4834030620
40
0.5495979048
40
0.6174538788
40
0.6816012235
40
0.7380531441
40
0.7879082838
40
0.8312708013
40
0.8691003444
40
0.9026576495
40
0.9325675625
40
0.9588414541
40
0.9813767196
40
1.0000000000
40
1.0000000000
40
1.0000000000
40
1.0000000000
10
-2.3286886801
20
-2.7080146179
30
0.0000000000
10
-2.3164348812
20
-2.7141415174
30
0.0000000000
10
-2.2896773309
20
-2.7267160530
30
0.0000000000
10
-2.2460711631
20
-2.7442718806
30
0.0000000000
10
-2.1967236704
20
-2.7602424903
30
0.0000000000
10
-2.1428297015
20
-2.7728241275
30
0.0000000000
10
-2.0853470696
20
-2.7803862373
30
0.0000000000
10
-2.0246571392
20
-2.7813472338
30
0.0000000000
10
-1.9605659735
20
-2.7736984934
30
0.0000000000
10
-1.8929620000
20
-2.7544278269
30
0.0000000000
10
-1.8228841429
20
-2.7193902055
30
0.0000000000
10
-1.7530631503
20
-2.6637403323
30
0.0000000000
10
-1.6880844547
20
-2.5828260856
30
0.0000000000
10
-1.6343694644
20
-2.4741144974
30
0.0000000000
10
-1.5985563778
20
-2.3392981677
30
0.0000000000
10
-1.5851368040
20
-2.1842225859
30
0.0000000000
10
-1.5956145473
20
-2.0163028177
30
0.0000000000
10
-1.6293461064
20
-1.8428009400
30
0.0000000000
10
-1.6833842533
20
-1.6734188965
30
0.0000000000
10
-1.7514764964
20
-1.5187619370
30
0.0000000000
10
-1.8259581449
20
-1.3853641418
30
0.0000000000
10
-1.9010572446
20
-1.2742340159
30
0.0000000000
10
-1.9742338025
20
-1.1824060390
30
0.0000000000
10
-2.0440379807
20
-1.1069321696
30
0.0000000000
10
-2.1101905797
20
-1.0448101238
30
0.0000000000
10
-2.1724390247
20
-0.9939344883
30
0.0000000000
10
-2.2299171139
20
-0.9530810364
30
0.0000000000
10
-2.2813064125
20
-0.9213419171
30
0.0000000000
10
-2.3137780067
20
-0.9038862018
30
0.0000000000
10
-2.3286886801
20
-0.8964308651
30
0.0000000000
11
-2.3286886801
21
-2.7080146179
31
0.0000000000
11
-2.2914798959
21
-2.7254719013
31
0.0000000000
11
-2.2473517187
21
-2.7431885549
31
0.0000000000
11
-2.1975914881
21
-2.7592190924
31
0.0000000000
11
-2.1434070889
21
-2.7717699486
31
0.0000000000
11
-2.0859833092
21
-2.7792037791
31
0.0000000000
11
-2.0259042097
21
-2.7800174224
31
0.0000000000
11
-1.9627273213
21
-2.7723291831
31
0.0000000000
11
-1.8961820137
21
-2.7532313536
31
0.0000000000
11
-1.8273278645
21
-2.7187966091
31
0.0000000000
11
-1.7589018025
21
-2.6645867055
31
0.0000000000
11
-1.6948500564
21
-2.5858650423
31
0.0000000000
11
-1.6407592251
21
-2.4787336639
31
0.0000000000
11
-1.6037725916
21
-2.3441319529
31
0.0000000000
11
-1.5892346750
21
-2.1883769220
31
0.0000000000
11
-1.5989662891
21
-2.0197189145
31
0.0000000000
11
-1.6323756443
21
-1.8451236205
31
0.0000000000
11
-1.6874883432
21
-1.6714338003
31
0.0000000000
11
-1.7568379007
21
-1.5137450923
31
0.0000000000
11
-1.8307834096
21
-1.3814035299
31
0.0000000000
11
-1.9058250584
21
-1.2705272006
31
0.0000000000
11
-1.9784794963
21
-1.1795246935
31
0.0000000000
11
-2.0475337294
21
-1.1050134806
31
0.0000000000
11
-2.1132926727
21
-1.0433957188
31
0.0000000000
11
-2.1755426730
21
-0.9926364743
31
0.0000000000
11
-2.2330983653
21
-0.9518238538
31
0.0000000000
11
-2.2846190154
21
-0.9200752450
31
0.0000000000
11
-2.3286886801
21
-0.8964308651
31
0.0000000000
0
SPLINE
5
237
100
AcDbEntity
8
0
100
AcDbSpline
62
0
6
CONTINUOUS
70
0
71
3
72
34
73
30
74
28
42
0.0000001000
43
0.0000001000
44
0.0000000001
12
-2.4019410392
22
1.2009705196
32
0.0000000000
13
2.4019410392
23
-1.2009705196
33
0.0000000000
40
0.0000000000
40
0.0000000000
40
0.0000000000
40
0.0000000000
40
0.0153048713
40
0.0330120699
40
0.0524794339
40
0.0731906623
40
0.0947523827
40
0.1171265012
40
0.1408256748
40
0.1666059007
40
0.1952732320
40
0.2277807782
40
0.2655724096
40
0.3102622080
40
0.3622426321
40
0.4204942873
40
0.4834030767
40
0.5495979159
40
0.6174538871
40
0.6816012301
40
0.7380531491
40
0.7879082869
40
0.8312708034
40
0.8691003455
40
0.9026576497
40
0.9325675621
40
0.9588414530
40
0.9813767194
40
1.0000000000
40
1.0000000000
40
1.0000000000
40
1.0000000000
10
-2.3286886801
20
-0.8964308651
30
0.0000000000
10
-2.3409424796
20
-0.8903039654
30
0.0000000000
10
-2.3677000328
20
-0.8777294309
30
0.0000000000
10
-2.4113062055
20
-0.8601736080
30
0.0000000000
10
-2.4606537019
20
-0.8442029975
30
0.0000000000
10
-2.5145476753
20
-0.8316213647
30
0.0000000000
10
-2.5720303117
20
-0.8240592550
30
0.0000000000
10
-2.6327202494
20
-0.8230982624
30
0.0000000000
10
-2.6968114271
20
-0.8307470085
30
0.0000000000
10
-2.7644154172
20
-0.8500176848
30
0.0000000000
10
-2.8344932953
20
-0.8850553161
30
0.0000000000
10
-2.9043143115
20
-0.9407052036
30
0.0000000000
10
-2.9692930372
20
-1.0216194530
30
0.0000000000
10
-3.0230080356
20
-1.1303310449
30
0.0000000000
10
-3.0588210856
20
-1.2651473699
30
0.0000000000
10
-3.0722406175
20
-1.4202229335
30
0.0000000000
10
-3.0617628325
20
-1.5881426828
30
0.0000000000
10
-3.0280312698
20
-1.7616445519
30
0.0000000000
10
-2.9739930967
20
-1.9310265841
30
0.0000000000
10
-2.9059008770
20
-2.0856835528
30
0.0000000000
10
-2.8314192204
20
-2.2190813433
30
0.0000000000
10
-2.7563201350
20
-2.3302114784
30
0.0000000000
10
-2.6831435704
20
-2.4220394503
30
0.0000000000
10
-2.6133393919
20
-2.4975133197
30
0.0000000000
10
-2.5471867928
20
-2.5596353661
30
0.0000000000
10
-2.4849383453
20
-2.6105109988
30
0.0000000000
10
-2.4274602567
20
-2.6513644546
30
0.0000000000
10
-2.3760709511
20
-2.6831035669
30
0.0000000000
10
-2.3435993541
20
-2.7005592809
30
0.0000000000
10
-2.3286886801
20
-2.7080146179
30
0.0000000000
11
-2.3286886801
21
-0.8964308651
31
0.0000000000
11
-2.3658974671
21
-0.8789735831
31
0.0000000000
11
-2.4100256501
21
-0.8612569324
31
0.0000000000
11
-2.4597858836
21
-0.8452263963
31
0.0000000000
11
-2.5139702881
21
-0.8326755428
31
0.0000000000
11
-2.5713940711
21
-0.8252417139
31
0.0000000000
11
-2.6314731770
21
-0.8244280738
31
0.0000000000
11
-2.6946500763
21
-0.8321163186
31
0.0000000000
11
-2.7611954021
21
-0.8512141571
31
0.0000000000
11
-2.8300495733
21
-0.8856489128
31
0.0000000000
11
-2.8984756584
21
-0.9398588280
31
0.0000000000
11
-2.9625274376
21
-1.0185805079
31
0.0000000000
11
-3.0166182730
21
-1.1257118885
31
0.0000000000
11
-3.0536048733
21
-1.2603135831
31
0.0000000000
11
-3.0681427481
21
-1.4160685932
31
0.0000000000
11
-3.0584110983
21
-1.5847265828
31
0.0000000000
11
-3.0250017286
21
-1.7593218695
31
0.0000000000
11
-2.9698890157
21
-1.9330116827
31
0.0000000000
11
-2.9005394678
21
-2.0907003953
31
0.0000000000
11
-2.8265939595
21
-2.2230419580
31
0.0000000000
11
-2.7515523183
21
-2.3339182909
31
0.0000000000
11
-2.6788978775
21
-2.4249207965
31
0.0000000000
11
-2.6098436432
21
-2.4994320089
31
0.0000000000
11
-2.5440846995
21
-2.5610497704
31
0.0000000000
11
-2.4818346975
21
-2.6118090140
31
0.0000000000
11
-2.4242790050
21
-2.6526216344
31
0.0000000000
11
-2.3727583479
21
-2.6843702397
31
0.0000000000
11
-2.3286886801
21
-2.7080146179
31
0.0000000000
0
SPLINE
5
238
100
AcDbEntity
8
0
100
AcDbSpline
62
0
6
CONTINUOUS
70
0
71
3
72
10
73
6
74
4
42
0.0000001000
43
0.0000001000
44
0.0000000001
12
-0.1602109067
22
-0.0151764679
32
0.0000000000
13
-0.1464690624
23
-0.0669401575
33
0.0000000000
40
0.0000000000
40
0.0000000000
40
0.0000000000
40
0.0000000000
40
0.3157230060
40
0.8200216775
40
1.0000000000
40
1.0000000000
40
1.0000000000
40
1.0000000000
10
-2.5664016254
20
-0.5883967032
30
0.0000000000
10
-2.5832623817
20
-0.5899938899
30
0.0000000000
10
-2.6268545991
20
-0.5962714835
30
0.0000000000
10
-2.6786509418
20
-0.6110360480
30
0.0000000000
10
-2.7125362079
20
-0.6252543945
30
0.0000000000
10
-2.7213232933
20
-0.6292703203
30
0.0000000000
11
-2.5664016254
21
-0.5883967032
31
0.0000000000
11
-2.6166642030
21
-0.5956920444
31
0.0000000000
11
-2.6946034574
21
-0.6180596778
31
0.0000000000
11
-2.7213232933
21
-0.6292703203
31
0.0000000000
0
SPLINE
5
239
100
AcDbEntity
8
0
100
AcDbSpline
62
0
6
CONTINUOUS
70
0
71
3
72
8
73
4
74
2
42
0.0000001000
43
0.0000001000
44
0.0000000001
12
-0.0134967813
22
-0.0061683789
32
0.0000000000
13
-0.0132924361
23
-0.0065994132
33
0.0000000000
40
0.0000000000
40
0.0000000000
40
0.0000000000
40
0.0000000000
40
1.0000000000
40
1.0000000000
40
1.0000000000
40
1.0000000000
10
-2.7213232933
20
-0.6292703203
30
0.0000000000
10
-2.7258222204
20
-0.6313264465
30
0.0000000000
10
-2.7302882738
20
-0.6334549805
30
0.0000000000
10
-2.7347190858
20
-0.6356547849
30
0.0000000000
11
-2.7213232933
21
-0.6292703203
31
0.0000000000
11
-2.7347190858
21
-0.6356547849
31
0.0000000000
0
SPLINE
5
23A
100
AcDbEntity
8
0
100
AcDbSpline
62
0
6
CONTINUOUS
70
0
71
3
72
10
73
6
74
4
42
0.0000001000
43
0.0000001000
44
0.0000000001
12
0.1598742593
22
0.0799334231
32
0.0000000000
13
0.1198233755
23
0.1326712732
33
0.0000000000
40
0.0000000000
40
0.0000000000
40
0.0000000000
40
0.0000000000
40
0.2528417082
40
0.8257992741
40
1.0000000000
40
1.0000000000
40
1.0000000000
40
1.0000000000
10
-1.6402089145
20
-2.8275680717
30
0.0000000000
10
-1.6267346209
20
-2.8208312373
30
0.0000000000
10
-1.5838002697
20
-2.7966725644
30
0.0000000000
10
-1.5369190948
20
-2.7593066742
30
0.0000000000
10
-1.5060952818
20
-2.7271562988
30
0.0000000000
10
-1.4991375089
20
-2.7194524881
30
0.0000000000
11
-1.6402089145
21
-2.8275680717
31
0.0000000000
11
-1.6008390948
21
-2.8054096116
31
0.0000000000
11
-1.5206970079
21
-2.7419180285
31
0.0000000000
11
-1.4991375089
21
-2.7194524881
31
0.0000000000
0
SPLINE
5
23B
100
AcDbEntity
8
0
100
AcDbSpline
62
0
6
CONTINUOUS
70
0
71
3
72
17
73
13
74
11
42
0.0000001000
43
0.0000001000
44
0.0000000001
12
0.0000000000
22
-0.2154394529
32
0.0000000000
13
-0.2082294736
23
-0.0563493225
33
0.0000000000
40
0.0000000000
40
0.0000000000
40
0.0000000000
40
0.0000000000
40
0.1347234188
40
0.2631784264
40
0.3842185495
40
0.4978384289
40
0.6056821031
40
0.7081794316
40
0.8061541748
40
0.9020227845
40
0.9981906251
40
1.0000000000
40
1.0000000000
40
1.0000000000
40
1.0000000000
10
19.9771024425
20
-23.8574267246
30
0.0000000000
10
19.9771024425
20
-23.8671016378
30
0.0000000000
10
19.9762683809
20
-23.8860159177
30
0.0000000000
10
19.9723082086
20
-23.9133718491
30
0.0000000000
10
19.9657157392
20
-23.9386637287
30
0.0000000000
10
19.9565801352
20
-23.9615764976
30
0.0000000000
10
19.9449953058
20
-23.9818497419
30
0.0000000000
10
19.9310867612
20
-23.9992050174
30
0.0000000000
10
19.9150636737
20
-24.0133776580
30
0.0000000000
10
19.8971319824
20
-24.0241997292
30
0.0000000000
10
19.8840174870
20
-24.0290995667
30
0.0000000000
10
19.8772199850
20
-24.0309514078
30
0.0000000000
10
19.8770943966
20
-24.0309853935
30
0.0000000000
11
19.9771024425
21
-23.8574267246
31
0.0000000000
11
19.9757562421
21
-23.8864202283
31
0.0000000000
11
19.9717127292
21
-23.9137975106
31
0.0000000000
11
19.9650492307
21
-23.9390085840
31
0.0000000000
11
19.9558963729
21
-23.9617111763
31
0.0000000000
11
19.9442870592
21
-23.9818365948
31
0.0000000000
11
19.9304132751
21
-23.9990159848
31
0.0000000000
11
19.9145654632
21
-24.0129579608
31
0.0000000000
11
19.8968717868
21
-24.0236123781
31
0.0000000000
11
19.8774709904
21
-24.0308827977
31
0.0000000000
11
19.8770943966
21
-24.0309853935
31
0.0000000000
0
SPLINE
5
23C
100
AcDbEntity
8
0
100
AcDbSpline
62
0
6
CONTINUOUS
70
0
71
3
72
15
73
11
74
9
42
0.0000001000
43
0.0000001000
44
0.0000000001
12
0.1266924923
22
0.0934381720
32
0.0000000000
13
0.1406209414
23
-0.0703104707
33
0.0000000000
40
0.0000000000
40
0.0000000000
40
0.0000000000
40
0.0000000000
40
0.0021041616
40
0.1334743006
40
0.2652544799
40
0.3993387494
40
0.5375968285
40
0.6833590792
40
0.8376333894
40
1.0000000000
40
1.0000000000
40
1.0000000000
40
1.0000000000
10
-15.0331237900
20
25.1778592006
30
0.0000000000
10
-15.0330349295
20
25.1779247369
30
0.0000000000
10
-15.0273921996
20
25.1820738543
30
0.0000000000
10
-15.0154234442
20
25.1892971954
30
0.0000000000
10
-14.9958114408
20
25.1966246316
30
0.0000000000
10
-14.9748524859
20
25.2003554371
30
0.0000000000
10
-14.9528461941
20
25.2004998389
30
0.0000000000
10
-14.9300458665
20
25.1970994180
30
0.0000000000
10
-14.9067396000
20
25.1902218356
30
0.0000000000
10
-14.8914832522
20
25.1835849234
30
0.0000000000
10
-14.8838725370
20
25.1797795658
30
0.0000000000
11
-15.0331237900
21
25.1778592006
31
0.0000000000
11
-15.0328569250
21
25.1780554270
31
0.0000000000
11
-15.0151632486
21
25.1887098443
31
0.0000000000
11
-14.9957624522
21
25.1959802638
31
0.0000000000
11
-14.9750180815
21
25.1997302660
31
0.0000000000
11
-14.9532824151
21
25.1999518493
31
0.0000000000
11
-14.9306032496
21
25.1966616005
31
0.0000000000
11
-14.9073143868
21
25.1898846770
31
0.0000000000
11
-14.8838725370
21
25.1797795658
31
0.0000000000
0
SPLINE
5
23D
100
AcDbEntity
8
0
100
AcDbSpline
62
0
6
CONTINUOUS
70
0
71
3
72
35
73
31
74
29
42
0.0000001000
43
0.0000001000
44
0.0000000001
12
2.1674675363
22
1.0837340164
32
0.0000000000
13
0.0000000000
23
-2.4215898531
33
0.0000000000
40
0.0000000000
40
0.0000000000
40
0.0000000000
40
0.0000000000
40
0.0254946956
40
0.0512572905
40
0.0775486165
40
0.1045971488
40
0.1325941675
40
0.1616890381
40
0.1919881317
40
0.2235563334
40
0.2564200951
40
0.2905712227
40
0.3259708695
40
0.3625534375
40
0.4002302479
40
0.4388929399
40
0.4784166059
40
0.5186626968
40
0.5594817393
40
0.6007159048
40
0.6422014706
40
0.6837712063
40
0.7252567173
40
0.7664907741
40
0.8073096553
40
0.8475555349
40
0.8870789425
40
0.9257413330
40
0.9634178039
40
1.0000000000
40
1.0000000000
40
1.0000000000
40
1.0000000000
10
-2.7983280457
20
-0.6394999384
30
0.0000000000
10
-2.7799084040
20
-0.6302901155
30
0.0000000000
10
-2.7416501769
20
-0.6142244746
30
0.0000000000
10
-2.6811016155
20
-0.5976714709
30
0.0000000000
10
-2.6177166006
20
-0.5887198840
30
0.0000000000
10
-2.5519258598
20
-0.5874076685
30
0.0000000000
10
-2.4841674405
20
-0.5937195399
30
0.0000000000
10
-2.4148818904
20
-0.6075919982
30
0.0000000000
10
-2.3445126714
20
-0.6289170411
30
0.0000000000
10
-2.2735066765
20
-0.6575437975
30
0.0000000000
10
-2.2023138787
20
-0.6932789819
30
0.0000000000
10
-2.1313859434
20
-0.7358870397
30
0.0000000000
10
-2.0611740268
20
-0.7850905274
30
0.0000000000
10
-1.9921260644
20
-0.8405709621
30
0.0000000000
10
-1.9246838053
20
-0.9019701914
30
0.0000000000
10
-1.8592797659
20
-0.9688922476
30
0.0000000000
10
-1.7963342110
20
-1.0409056195
30
0.0000000000
10
-1.7362522240
20
-1.1175458799
30
0.0000000000
10
-1.6794209038
20
-1.1983186088
30
0.0000000000
10
-1.6262067118
20
-1.2827025676
30
0.0000000000
10
-1.5769529841
20
-1.3701530829
30
0.0000000000
10
-1.5319776227
20
-1.4601056081
30
0.0000000000
10
-1.4915709784
20
-1.5519794276
30
0.0000000000
10
-1.4559939379
20
-1.6451814965
30
0.0000000000
10
-1.4254762279
20
-1.7391103090
30
0.0000000000
10
-1.4002149513
20
-1.8331600655
30
0.0000000000
10
-1.3803733744
20
-1.9267240220
30
0.0000000000
10
-1.3660799741
20
-2.0192009529
30
0.0000000000
10
-1.3574278021
20
-2.1099903617
30
0.0000000000
10
-1.3554275749
20
-2.1699466404
30
0.0000000000
10
-1.3554275749
20
-2.1994756654
30
0.0000000000
11
-2.7983280457
21
-0.6394999384
31
0.0000000000
11
-2.7414140945
21
-0.6155762371
31
0.0000000000
11
-2.6812527896
21
-0.5990630580
31
0.0000000000
11
-2.6182253229
21
-0.5900630071
31
0.0000000000
11
-2.5527404517
21
-0.5886344531
31
0.0000000000
11
-2.4852228706
21
-0.5947866607
31
0.0000000000
11
-2.4161104569
21
-0.6084797305
31
0.0000000000
11
-2.3458514313
21
-0.6296248577
31
0.0000000000
11
-2.2749014505
21
-0.6580849081
31
0.0000000000
11
-2.2037206522
21
-0.6936753072
31
0.0000000000
11
-2.1327706714
21
-0.7361652377
31
0.0000000000
11
-2.0625116457
21
-0.7852791361
31
0.0000000000
11
-1.9933992321
21
-0.8406984799
31
0.0000000000
11
-1.9258816510
21
-0.9020638534
31
0.0000000000
11
-1.8603967798
21
-0.9689772786
31
0.0000000000
11
-1.7973693131
21
-1.0410047963
31
0.0000000000
11
-1.7372080081
21
-1.1176792803
31
0.0000000000
11
-1.6803030341
21
-1.1985034672
31
0.0000000000
11
-1.6270234415
21
-1.2829531812
31
0.0000000000
11
-1.5777147691
21
-1.3704807335
31
0.0000000000
11
-1.5326968024
21
-1.4605184742
31
0.0000000000
11
-1.4922615002
21
-1.5524824741
31
0.0000000000
11
-1.4566711011
21
-1.6457763114
31
0.0000000000
11
-1.4261564224
21
-1.7397949397
31
0.0000000000
11
-1.4009153635
21
-1.8339286121
31
0.0000000000
11
-1.3811116223
21
-1.9275668357
31
0.0000000000
11
-1.3668736337
21
-2.0201023306
31
0.0000000000
11
-1.3582937366
21
-2.1109349687
31
0.0000000000
11
-1.3554275749
21
-2.1994756654
31
0.0000000000
0
SPLINE
5
23E
100
AcDbEntity
8
0
100
AcDbSpline
62
0
6
CONTINUOUS
70
0
71
3
72
18
73
14
74
12
42
0.0000001000
43
0.0000001000
44
0.0000000001
12
0.7065058727
22
0.3532530173
32
0.0000000000
13
0.0000000000
23
0.7893393667
33
0.0000000000
40
0.0000000000
40
0.0000000000
40
0.0000000000
40
0.0000000000
40
0.0781888391
40
0.1572247044
40
0.2378824034
40
0.3208629013
40
0.4067530610
40
0.4960111590
40
0.5889635701
40
0.6858093939
40
0.7866298176
40
0.8913997356
40
1.0000000000
40
1.0000000000
40
1.0000000000
40
1.0000000000
10
-1.6802940570
20
-2.8755679159
30
0.0000000000
10
-1.6618804323
20
-2.8663611015
30
0.0000000000
10
-1.6260784838
20
-2.8453981769
30
0.0000000000
10
-1.5765108664
20
-2.8068975155
30
0.0000000000
10
-1.5313171135
20
-2.7615626291
30
0.0000000000
10
-1.4907913340
20
-2.7097194285
30
0.0000000000
10
-1.4551841418
20
-2.6517275068
30
0.0000000000
10
-1.4247090765
20
-2.5879774114
30
0.0000000000
10
-1.3995458245
20
-2.5188886300
30
0.0000000000
10
-1.3798418346
20
-2.4449094830
30
0.0000000000
10
-1.3657124752
20
-2.3665147510
30
0.0000000000
10
-1.3572403014
20
-2.2842116810
30
0.0000000000
10
-1.3554275749
20
-2.2280498200
30
0.0000000000
10
-1.3554275749
20
-2.1994756654
30
0.0000000000
11
-1.6802940570
21
-2.8755679159
31
0.0000000000
11
-1.6270234415
21
-2.8444022829
31
0.0000000000
11
-1.5777147691
21
-2.8061834031
31
0.0000000000
11
-1.5326968024
21
-2.7611636291
31
0.0000000000
11
-1.4922615002
21
-2.7096349313
31
0.0000000000
11
-1.4566711011
21
-2.6519314932
31
0.0000000000
11
-1.4261564224
21
-2.5884275436
31
0.0000000000
11
-1.4009153635
21
-2.5195349301
31
0.0000000000
11
-1.3811116223
21
-2.4457004477
31
0.0000000000
11
-1.3668736337
21
-2.3674029413
31
0.0000000000
11
-1.3582937366
21
-2.2851502003
31
0.0000000000
11
-1.3554275749
21
-2.1994756654
31
0.0000000000
0
SPLINE
5
23F
100
AcDbEntity
8
0
100
AcDbSpline
62
0
6
CONTINUOUS
70
0
71
3
72
14
73
10
74
8
42
0.0000001000
43
0.0000001000
44
0.0000000001
12
0.3279906272
22
-0.3984503239
32
0.0000000000
13
0.4460197188
23
-0.2597292487
33
0.0000000000
40
0.0000000000
40
0.0000000000
40
0.0000000000
40
0.0000000000
40
0.0109691524
40
0.1964462986
40
0.3778830556
40
0.5546932553
40
0.7263683806
40
0.8924922791
40
1.0000000000
40
1.0000000000
40
1.0000000000
40
1.0000000000
10
-2.6848573991
20
-2.4696980217
30
0.0000000000
10
-2.6836581394
20
-2.4711549091
30
0.0000000000
10
-2.6621398554
20
-2.4972127588
30
0.0000000000
10
-2.6193423368
20
-2.5461756067
30
0.0000000000
10
-2.5539382974
20
-2.6130976629
30
0.0000000000
10
-2.4864960383
20
-2.6744968922
30
0.0000000000
10
-2.4174480759
20
-2.7299773269
30
0.0000000000
10
-2.3546733139
20
-2.7739689650
30
0.0000000000
10
-2.3145835173
20
-2.7986757268
30
0.0000000000
10
-2.2985999962
20
-2.8079833600
30
0.0000000000
11
-2.6848573991
21
-2.4696980217
31
0.0000000000
11
-2.6812527896
21
-2.4740630580
31
0.0000000000
11
-2.6182253229
21
-2.5460905757
31
0.0000000000
11
-2.5527404517
21
-2.6130040009
31
0.0000000000
11
-2.4852228706
21
-2.6743693744
31
0.0000000000
11
-2.4161104569
21
-2.7297887182
31
0.0000000000
11
-2.3458514313
21
-2.7789026166
31
0.0000000000
11
-2.2985999962
21
-2.8079833600
31
0.0000000000
0
SPLINE
5
240
100
AcDbEntity
8
0
100
AcDbSpline
62
0
6
CONTINUOUS
70
0
71
3
72
8
73
4
74
2
42
0.0000001000
43
0.0000001000
44
0.0000000001
12
0.0118281931
22
-0.0068878742
32
0.0000000000
13
0.0119130303
23
-0.0067402098
33
0.0000000000
40
0.0000000000
40
0.0000000000
40
0.0000000000
40
0.0000000000
40
1.0000000000
40
1.0000000000
40
1.0000000000
40
1.0000000000
10
-2.2985999962
20
-2.8079833600
30
0.0000000000
10
-2.2946572651
20
-2.8102793180
30
0.0000000000
10
-2.2907003836
20
-2.8125509696
30
0.0000000000
10
-2.2867293735
20
-2.8147977062
30
0.0000000000
11
-2.2985999962
21
-2.8079833600
31
0.0000000000
11
-2.2867293735
21
-2.8147977062
31
0.0000000000
0
SPLINE
5
241
100
AcDbEntity
8
0
100
AcDbSpline
62
0
6
CONTINUOUS
70
0
71
3
72
17
73
13
74
11
42
0.0000001000
43
0.0000001000
44
0.0000000001
12
0.5523455048
22
-0.3125086112
32
0.0000000000
13
0.5679006156
23
0.2839503728
33
0.0000000000
40
0.0000000000
40
0.0000000000
40
0.0000000000
40
0.0000000000
40
0.0213389165
40
0.1467677937
40
0.2672519955
40
0.3828924788
40
0.4939368866
40
0.6007911981
40
0.7040254859
40
0.8043697963
40
0.9026961347
40
1.0000000000
40
1.0000000000
40
1.0000000000
40
1.0000000000
10
-2.2867293735
20
-2.8147977062
30
0.0000000000
10
-2.2828005553
20
-2.8170205712
30
0.0000000000
10
-2.2556832570
20
-2.8321415629
30
0.0000000000
10
-2.2051154262
20
-2.8575240568
30
0.0000000000
10
-2.1341094313
20
-2.8861508132
30
0.0000000000
10
-2.0637402123
20
-2.9074758561
30
0.0000000000
10
-1.9944546622
20
-2.9213483144
30
0.0000000000
10
-1.9266962429
20
-2.9276601858
30
0.0000000000
10
-1.8609055021
20
-2.9263479703
30
0.0000000000
10
-1.7975204872
20
-2.9173963834
30
0.0000000000
10
-1.7369719258
20
-2.9008433797
30
0.0000000000
10
-1.6987136986
20
-2.8847777388
30
0.0000000000
10
-1.6802940570
20
-2.8755679159
30
0.0000000000
11
-2.2867293735
21
-2.8147977062
31
0.0000000000
11
-2.2749014505
21
-2.8213925471
31
0.0000000000
11
-2.2037206522
21
-2.8569829462
31
0.0000000000
11
-2.1327706714
21
-2.8854429966
31
0.0000000000
11
-2.0625116457
21
-2.9065881238
31
0.0000000000
11
-1.9933992321
21
-2.9202811936
31
0.0000000000
11
-1.9258816510
21
-2.9264334012
31
0.0000000000
11
-1.8603967798
21
-2.9250048472
31
0.0000000000
11
-1.7973693131
21
-2.9160047963
31
0.0000000000
11
-1.7372080081
21
-2.8994916172
31
0.0000000000
11
-1.6802940570
21
-2.8755679159
31
0.0000000000
0
SPLINE
5
242
100
AcDbEntity
8
0
100
AcDbSpline
62
0
6
CONTINUOUS
70
0
71
3
72
16
73
12
74
10
42
0.0000001000
43
0.0000001000
44
0.0000000001
12
-0.0320443416
22
-0.2342965924
32
0.0000000000
13
-0.2285757625
23
-0.0618362805
33
0.0000000000
40
0.0000000000
40
0.0000000000
40
0.0000000000
40
0.0000000000
40
0.1384183407
40
0.2713841348
40
0.3985280733
40
0.5197895362
40
0.6354648679
40
0.7462417898
40
0.8532034335
40
0.9577820007
40
1.0000000000
40
1.0000000000
40
1.0000000000
40
1.0000000000
10
15.6520952550
20
-25.0277463014
30
0.0000000000
10
15.6506167468
20
-25.0385566166
30
0.0000000000
10
15.6467137019
20
-25.0596319166
30
0.0000000000
10
15.6378139463
20
-25.0898203318
30
0.0000000000
10
15.6260944761
20
-25.1175802457
30
0.0000000000
10
15.6117110974
20
-25.1425078193
30
0.0000000000
10
15.5948538233
20
-25.1642382380
30
0.0000000000
10
15.5757484421
20
-25.1824412520
30
0.0000000000
10
15.5546605760
20
-25.1968258061
30
0.0000000000
10
15.5363497973
20
-25.2051313003
30
0.0000000000
10
15.5252741395
20
-25.2085596001
30
0.0000000000
10
15.5220574691
20
-25.2094298015
30
0.0000000000
11
15.6520952550
21
-25.0277463014
31
0.0000000000
11
15.6460740461
21
-25.0599205947
31
0.0000000000
11
15.6371130975
21
-25.0900601399
31
0.0000000000
11
15.6253425769
21
-25.1177271266
31
0.0000000000
11
15.6109334642
21
-25.1425196614
31
0.0000000000
11
15.5940950676
21
-25.1640776051
31
0.0000000000
11
15.5750719835
21
-25.1820878049
31
0.0000000000
11
15.5541405433
21
-25.1962886427
31
0.0000000000
11
15.5316047992
21
-25.2064738355
31
0.0000000000
11
15.5220574691
21
-25.2094298015
31
0.0000000000
0
SPLINE
5
243
100
AcDbEntity
8
0
100
AcDbSpline
62
0
6
CONTINUOUS
70
0
71
3
72
23
73
19
74
17
42
0.0000001000
43
0.0000001000
44
0.0000000001
12
0.0214375929
22
-0.6582948365
32
0.0000000000
13
0.6357806487
23
0.1720308950
33
0.0000000000
40
0.0000000000
40
0.0000000000
40
0.0000000000
40
0.0000000000
40
0.0754441409
40
0.1480746055
40
0.2178255654
40
0.2847381255
40
0.3489482339
40
0.4106918305
40
0.4703084113
40
0.5282393779
40
0.5850159718
40
0.6412360322
40
0.6975308813
40
0.7545271037
40
0.8128097329
40
0.8728910622
40
0.9351881140
40
1.0000000000
40
1.0000000000
40
1.0000000000
40
1.0000000000
10
15.2363068729
20
-24.6548715861
30
0.0000000000
10
15.2368459865
20
-24.6714264156
30
0.0000000000
10
15.2390627050
20
-24.7038962981
30
0.0000000000
10
15.2460435393
20
-24.7512583185
30
0.0000000000
10
15.2565751136
20
-24.7960468120
30
0.0000000000
10
15.2705892991
20
-24.8379333157
30
0.0000000000
10
15.2879956837
20
-24.8766175348
30
0.0000000000
10
15.3086814125
20
-24.9118172095
30
0.0000000000
10
15.3325096621
20
-24.9432694917
30
0.0000000000
10
15.3593174422
20
-24.9707321225
30
0.0000000000
10
15.3889129696
20
-24.9939871399
30
0.0000000000
10
15.4210743908
20
-25.0128468333
30
0.0000000000
10
15.4555520588
20
-25.0271610384
30
0.0000000000
10
15.4920752681
20
-25.0368226205
30
0.0000000000
10
15.5303601705
20
-25.0417687551
30
0.0000000000
10
15.5701181284
20
-25.0419771053
30
0.0000000000
10
15.6110481512
20
-25.0374642988
30
0.0000000000
10
15.6383598740
20
-25.0314628503
30
0.0000000000
10
15.6520952550
20
-25.0277463014
30
0.0000000000
11
15.2363068729
21
-24.6548715861
31
0.0000000000
11
15.2397612675
21
-24.7044421858
31
0.0000000000
11
15.2468127818
21
-24.7517572221
31
0.0000000000
11
15.2574102378
21
-24.7964592675
31
0.0000000000
11
15.2714773118
21
-24.8382255021
31
0.0000000000
11
15.2889129016
21
-24.8767557344
31
0.0000000000
11
15.3095917358
21
-24.9117727838
31
0.0000000000
11
15.3333649668
21
-24.9430243348
31
0.0000000000
11
15.3600615339
21
-24.9702853673
31
0.0000000000
11
15.3894894607
21
-24.9933596913
31
0.0000000000
11
15.4214371160
21
-25.0120811695
31
0.0000000000
11
15.4556745084
21
-25.0263148569
31
0.0000000000
11
15.4919550011
21
-25.0359581516
31
0.0000000000
11
15.5300176365
21
-25.0409416618
31
0.0000000000
11
15.5695887856
21
-25.0412294207
31
0.0000000000
11
15.6103826751
21
-25.0368194217
31
0.0000000000
11
15.6520952550
21
-25.0277463014
31
0.0000000000
0
SPLINE
5
244
100
AcDbEntity
8
0
100
AcDbSpline
62
0
6
CONTINUOUS
70
0
71
3
72
17
73
13
74
11
42
0.0000001000
43
0.0000001000
44
0.0000000001
12
0.0194145068
22
-0.5992929428
32
0.0000000000
13
0.5354574206
23
-0.2708601678
33
0.0000000000
40
0.0000000000
40
0.0000000000
40
0.0000000000
40
0.0000000000
40
0.1184039089
40
0.2323165470
40
0.3416730661
40
0.4465322011
40
0.5471021266
40
0.6437492503
40
0.7370044464
40
0.8275611972
40
0.9162572158
40
1.0000000000
40
1.0000000000
40
1.0000000000
40
1.0000000000
10
14.8159350444
20
-24.6629744193
30
0.0000000000
10
14.8167012955
20
-24.6866272949
30
0.0000000000
10
14.8198520497
20
-24.7330042453
30
0.0000000000
10
14.8297745025
20
-24.8006417835
30
0.0000000000
10
14.8447414616
20
-24.8645811099
30
0.0000000000
10
14.8646569905
20
-24.9243625171
30
0.0000000000
10
14.8893929173
20
-24.9795577003
30
0.0000000000
10
14.9187890990
20
-25.0297642736
30
0.0000000000
10
14.9526516303
20
-25.0746075346
30
0.0000000000
10
14.9907495063
20
-25.1137420225
30
0.0000000000
10
15.0321746596
20
-25.1463559173
30
0.0000000000
10
15.0619313909
20
-25.1639446306
30
0.0000000000
10
15.0768782893
20
-25.1715054922
30
0.0000000000
11
14.8159350444
21
-24.6629744193
31
0.0000000000
11
14.8208470317
21
-24.7338001447
31
0.0000000000
11
14.8308699775
21
-24.8013635987
31
0.0000000000
11
14.8459321481
21
-24.8651811764
31
0.0000000000
11
14.8659249463
21
-24.9247921353
31
0.0000000000
11
14.8907047123
21
-24.9797680434
31
0.0000000000
11
14.9200933915
21
-25.0297134696
31
0.0000000000
11
14.9538794441
21
-25.0742685766
31
0.0000000000
11
14.9918197632
21
-25.1131126033
31
0.0000000000
11
15.0336415240
21
-25.1459660468
31
0.0000000000
11
15.0768782893
21
-25.1715054922
31
0.0000000000
0
SPLINE
5
245
100
AcDbEntity
8
0
100
AcDbSpline
62
0
6
CONTINUOUS
70
0
71
3
72
8
73
4
74
2
42
0.0000001000
43
0.0000001000
44
0.0000000001
12
0.0008410686
22
-0.0004254530
32
0.0000000000
13
0.0008421131
23
-0.0004233808
33
0.0000000000
40
0.0000000000
40
0.0000000000
40
0.0000000000
40
0.0000000000
40
1.0000000000
40
1.0000000000
40
1.0000000000
40
1.0000000000
10
15.0768782893
20
-25.1715054922
30
0.0000000000
10
15.0771586455
20
-25.1716473098
30
0.0000000000
10
15.0774391762
20
-25.1717887824
30
0.0000000000
10
15.0777198806
20
-25.1719299094
30
0.0000000000
11
15.0768782893
21
-25.1715054922
31
0.0000000000
11
15.0777198806
21
-25.1719299094
31
0.0000000000
0
SPLINE
5
246
100
AcDbEntity
8
0
100
AcDbSpline
62
0
6
CONTINUOUS
70
0
71
3
72
8
73
4
74
2
42
0.0000001000
43
0.0000001000
44
0.0000000001
12
0.0007171735
22
-0.0003605661
32
0.0000000000
13
0.0007179280
23
-0.0003590609
33
0.0000000000
40
0.0000000000
40
0.0000000000
40
0.0000000000
40
0.0000000000
40
1.0000000000
40
1.0000000000
40
1.0000000000
40
1.0000000000
10
15.0777198806
20
-25.1719299094
30
0.0000000000
10
15.0779589384
20
-25.1720500981
30
0.0000000000
10
15.0781981222
20
-25.1721700361
30
0.0000000000
10
15.0784374315
20
-25.1722897231
30
0.0000000000
11
15.0777198806
21
-25.1719299094
31
0.0000000000
11
15.0784374315
21
-25.1722897231
31
0.0000000000
0
SPLINE
5
247
100
AcDbEntity
8
0
100
AcDbSpline
62
0
6
CONTINUOUS
70
0
71
3
72
53
73
49
74
47
42
0.0000001000
43
0.0000001000
44
0.0000000001
12
0.0000000000
22
6.4119640463
32
0.0000000000
13
-0.0000000000
23
-6.4119640463
33
0.0000000000
40
0.0000000000
40
0.0000000000
40
0.0000000000
40
0.0000000000
40
0.0225680711
40
0.0444828864
40
0.0657012630
40
0.0862480831
40
0.1060939152
40
0.1252902644
40
0.1438460838
40
0.1618239030
40
0.1792895614
40
0.1963110868
40
0.2130081471
40
0.2294627904
40
0.2458214339
40
0.2621832400
40
0.2786885515
40
0.2954487006
40
0.3125660737
40
0.3301533590
40
0.3482656876
40
0.3669970188
40
0.3863640410
40
0.4064253140
40
0.4271775336
40
0.4486288579
40
0.4707759108
40
0.4935740746
40
0.5170233191
40
0.5410435988
40
0.5656248448
40
0.5906764134
40
0.6161604772
40
0.6420021180
40
0.6681195890
40
0.6944671838
40
0.7209308170
40
0.7474782286
40
0.7739897587
40
0.8004238419
40
0.8266844326
40
0.8526977812
40
0.8784105795
40
0.9037222604
40
0.9286097276
40
0.9529727446
40
0.9767941567
40
1.0000000000
40
1.0000000000
40
1.0000000000
40
1.0000000000
10
-4.4180815084
20
-1.0791522027
30
0.0000000000
10
-4.4180815084
20
-1.0309169825
30
0.0000000000
10
-4.4154513673
20
-0.9358171411
30
0.0000000000
10
-4.4032307823
20
-0.7958406168
30
0.0000000000
10
-4.3828384069
20
-0.6611738281
30
0.0000000000
10
-4.3543685530
20
-0.5324965021
30
0.0000000000
10
-4.3179269864
20
-0.4103370939
30
0.0000000000
10
-4.2736843169
20
-0.2953158319
30
0.0000000000
10
-4.2218109860
20
-0.1879300937
30
0.0000000000
10
-4.1625397679
20
-0.0887113938
30
0.0000000000
10
-4.0961267179
20
0.0018586672
30
0.0000000000
10
-4.0228542613
20
0.0833479493
30
0.0000000000
10
-3.9430799149
20
0.1553149331
30
0.0000000000
10
-3.8571396207
20
0.2174188524
30
0.0000000000
10
-3.7654865455
20
0.2693036755
30
0.0000000000
10
-3.6685328033
20
0.3107165091
30
0.0000000000
10
-3.5667866320
20
0.3414316348
30
0.0000000000
10
-3.4607446731
20
0.3612973734
30
0.0000000000
10
-3.3509204179
20
0.3702245898
30
0.0000000000
10
-3.2378766639
20
0.3681762120
30
0.0000000000
10
-3.1221083651
20
0.3551728444
30
0.0000000000
10
-3.0042172802
20
0.3312920140
30
0.0000000000
10
-2.8847014804
20
0.2966446876
30
0.0000000000
10
-2.7641651290
20
0.2514142339
30
0.0000000000
10
-2.6431420060
20
0.1958083889
30
0.0000000000
10
-2.5222061191
20
0.1300992147
30
0.0000000000
10
-2.4019367691
20
0.0546086529
30
0.0000000000
10
-2.2828612580
20
-0.0303223804
30
0.0000000000
10
-2.1655824719
20
-0.1242545963
30
0.0000000000
10
-2.0505897651
20
-0.2267842633
30
0.0000000000
10
-1.9384702275
20
-0.3373756061
30
0.0000000000
10
-1.8296993255
20
-0.4555452751
30
0.0000000000
10
-1.7248061229
20
-0.5807018933
30
0.0000000000
10
-1.6242676953
20
-0.7122587381
30
0.0000000000
10
-1.5285336254
20
-0.8496053443
30
0.0000000000
10
-1.4380678913
20
-0.9920535657
30
0.0000000000
10
-1.3532426192
20
-1.1389917343
30
0.0000000000
10
-1.2744800521
20
-1.2896618591
30
0.0000000000
10
-1.2020976104
20
-1.4434288071
30
0.0000000000
10
-1.1364438077
20
-1.5995224249
30
0.0000000000
10
-1.0777989511
20
-1.7572474897
30
0.0000000000
10
-1.0264234914
20
-1.9158694823
30
0.0000000000
10
-0.9825534354
20
-2.0746277431
30
0.0000000000
10
-0.9463660160
20
-2.2328461994
30
0.0000000000
10
-0.9180351196
20
-2.3897304919
30
0.0000000000
10
-0.8976716457
20
-2.5446393056
30
0.0000000000
10
-0.8853735035
20
-2.6967899866
30
0.0000000000
10
-0.8825476025
20
-2.7973208113
30
0.0000000000
10
-0.8825476025
20
-2.8469191557
30
0.0000000000
11
-4.4180815084
21
-1.0791522027
31
0.0000000000
11
-4.4139600526
21
-0.9345052470
31
0.0000000000
11
-4.4016066857
21
-0.7945323076
31
0.0000000000
11
-4.3810941527
21
-0.6600360699
31
0.0000000000
11
-4.3524825401
21
-0.5314349622
31
0.0000000000
11
-4.3159502187
21
-0.4095409679
31
0.0000000000
11
-4.2716044926
21
-0.2947206991
31
0.0000000000
11
-4.2197006443
21
-0.1876597276
31
0.0000000000
11
-4.1604435963
21
-0.0887835583
31
0.0000000000
11
-4.0940989434
21
0.0014381804
31
0.0000000000
11
-4.0210283965
21
0.0825093978
31
0.0000000000
11
-3.9414681386
21
0.1541488598
31
0.0000000000
11
-3.8559167544
21
0.2158951093
31
0.0000000000
11
-3.7646274596
21
0.2675516055
31
0.0000000000
11
-3.6681586710
21
0.3087845567
31
0.0000000000
11
-3.5668626385
21
0.3394343964
31
0.0000000000
11
-3.4612540478
21
0.3593254363
31
0.0000000000
11
-3.3518698073
21
0.3683511349
31
0.0000000000
11
-3.2391165784
21
0.3664627240
31
0.0000000000
11
-3.1236882601
21
0.3536650344
31
0.0000000000
11
-3.0059404997
21
0.3299883544
31
0.0000000000
11
-2.8866232754
21
0.2955756557
31
0.0000000000
11
-2.7661330853
21
0.2505384820
31
0.0000000000
11
-2.6451575455
21
0.1951259929
31
0.0000000000
11
-2.5242307831
21
0.1295868589
31
0.0000000000
11
-2.4038841197
21
0.0542050638
31
0.0000000000
11
-2.2848037777
21
-0.0305814853
31
0.0000000000
11
-2.1673815314
21
-0.1244902514
31
0.0000000000
11
-2.0523603564
21
-0.2269178740
31
0.0000000000
11
-1.9400900292
21
-0.3375414127
31
0.0000000000
11
-1.8312528333
21
-0.4556785517
31
0.0000000000
11
-1.7262478973
21
-0.5808762813
31
0.0000000000
11
-1.6255983029
21
-0.7124996640
31
0.0000000000
11
-1.5298080449
21
-0.8498623703
31
0.0000000000
11
-1.4392167933
21
-0.9924593252
31
0.0000000000
11
-1.3543684625
21
-1.1394061678
31
0.0000000000
11
-1.2755056937
21
-1.2902566541
31
0.0000000000
11
-1.2031110556
21
-1.4440615595
31
0.0000000000
11
-1.1374112809
21
-1.6003046013
31
0.0000000000
11
-1.0787535269
21
-1.7581391778
31
0.0000000000
11
-1.0273938798
21
-1.9168316831
31
0.0000000000
11
-0.9835269319
21
-2.0757582557
31
0.0000000000
11
-0.9473984534
21
-2.2339835383
31
0.0000000000
11
-0.9191096475
21
-2.3910336460
31
0.0000000000
11
-0.8988315279
21
-2.5459266995
31
0.0000000000
11
-0.8866210418
21
-2.6981798905
31
0.0000000000
11
-0.8825476025
21
-2.8469191557
31
0.0000000000
0
SPLINE
5
248
100
AcDbEntity
8
0
100
AcDbSpline
62
0
6
CONTINUOUS
70
0
71
3
72
53
73
49
74
47
42
0.0000001000
43
0.0000001000
44
0.0000000001
12
0.0000000000
22
-6.4026688544
32
0.0000000000
13
0.0000000000
23
6.4026688544
33
0.0000000000
40
0.0000000000
40
0.0000000000
40
0.0000000000
40
0.0000000000
40
0.0225968977
40
0.0445305054
40
0.0657561097
40
0.0862973137
40
0.1061237234
40
0.1252862529
40
0.1437938476
40
0.1617095855
40
0.1791005766
40
0.1960369476
40
0.2126410175
40
0.2289983810
40
0.2452591103
40
0.2615264646
40
0.2779444530
40
0.2946277291
40
0.3116812729
40
0.3292194649
40
0.3472984144
40
0.3660121694
40
0.3853769337
40
0.4054502202
40
0.4262272857
40
0.4477145841
40
0.4699068831
40
0.4927575655
40
0.5162647217
40
0.5403463159
40
0.5649905926
40
0.5901051866
40
0.6156508845
40
0.6415515144
40
0.6677243097
40
0.6941228768
40
0.7206325740
40
0.7472210018
40
0.7737684825
40
0.8002338087
40
0.8265214665
40
0.8525585009
40
0.8782926265
40
0.9036244475
40
0.9285322615
40
0.9529172880
40
0.9767639876
40
1.0000000000
40
1.0000000000
40
1.0000000000
40
1.0000000000
10
-0.8825476025
20
-2.8469191557
30
0.0000000000
10
-0.8825476025
20
-2.8951459733
30
0.0000000000
10
-0.8851456240
20
-2.9902090678
30
0.0000000000
10
-0.8972225184
20
-3.1301094426
30
0.0000000000
10
-0.9173781570
20
-3.2646545036
30
0.0000000000
10
-0.9455226324
20
-3.3931672559
30
0.0000000000
10
-0.9815560750
20
-3.5151225208
30
0.0000000000
10
-1.0253157700
20
-3.6299043031
30
0.0000000000
10
-1.0766404535
20
-3.7370199531
30
0.0000000000
10
-1.1353082166
20
-3.8359431449
30
0.0000000000
10
-1.2010750263
20
-3.9261976971
30
0.0000000000
10
-1.2736711310
20
-4.0073566635
30
0.0000000000
10
-1.3527523863
20
-4.0789837840
30
0.0000000000
10
-1.4379954443
20
-4.1407431281
30
0.0000000000
10
-1.5289597727
20
-4.1922840029
30
0.0000000000
10
-1.6252445597
20
-4.2333590367
30
0.0000000000
10
-1.7263528150
20
-4.2637489335
30
0.0000000000
10
-1.8317985486
20
-4.2833087983
30
0.0000000000
10
-1.9410788260
20
-4.2919563586
30
0.0000000000
10
-2.0536411594
20
-4.2896610171
30
0.0000000000
10
-2.1689999400
20
-4.2764488299
30
0.0000000000
10
-2.2865619608
20
-4.2524018581
30
0.0000000000
10
-2.4058358757
20
-4.2176343093
30
0.0000000000
10
-2.5262227620
20
-4.1723317731
30
0.0000000000
10
-2.6471920026
20
-4.1167031365
30
0.0000000000
10
-2.7681708948
20
-4.0510205988
30
0.0000000000
10
-2.8885794156
20
-3.9756053470
30
0.0000000000
10
-3.0078877194
20
-3.8907966370
30
0.0000000000
10
-3.1254883951
20
-3.7970312141
30
0.0000000000
10
-3.2408861094
20
-3.6947095833
30
0.0000000000
10
-3.3534858797
20
-3.5843633966
30
0.0000000000
10
-3.4628033089
20
-3.4664713997
30
0.0000000000
10
-3.5682988446
20
-3.3416196338
30
0.0000000000
10
-3.6694840821
20
-3.2103890703
30
0.0000000000
10
-3.7658973079
20
-3.0733840806
30
0.0000000000
10
-3.8570616098
20
-2.9312863003
30
0.0000000000
10
-3.9425920574
20
-2.7847009969
30
0.0000000000
10
-4.0220529173
20
-2.6343794196
30
0.0000000000
10
-4.0951140712
20
-2.4809503674
30
0.0000000000
10
-4.1614141487
20
-2.3251776136
30
0.0000000000
10
-4.2206609638
20
-2.1677504714
30
0.0000000000
10
-4.2725828859
20
-2.0093979533
30
0.0000000000
10
-4.3169336870
20
-1.8508756772
30
0.0000000000
10
-4.3535273862
20
-1.6928554458
30
0.0000000000
10
-4.3821823880
20
-1.5361278931
30
0.0000000000
10
-4.4027819009
20
-1.3813315011
30
0.0000000000
10
-4.4152234895
20
-1.2292469767
30
0.0000000000
10
-4.4180815084
20
-1.1287430337
30
0.0000000000
10
-4.4180815084
20
-1.0791522027
30
0.0000000000
11
-0.8825476025
21
-2.8469191557
31
0.0000000000
11
-0.8866213274
21
-2.9915422459
31
0.0000000000
11
-0.8988322889
21
-3.1314439826
31
0.0000000000
11
-0.9191105461
21
-3.2658230824
31
0.0000000000
11
-0.9473999402
21
-3.3942630809
31
0.0000000000
11
-0.9835285609
21
-3.5159552249
31
0.0000000000
11
-1.0273958822
21
-3.6305362912
31
0.0000000000
11
-1.0787560053
21
-3.7373254001
31
0.0000000000
11
-1.1374136926
21
-3.8359018891
31
0.0000000000
11
-1.2031143767
21
-3.9258016435
31
0.0000000000
11
-1.2755087978
21
-4.0065347979
31
0.0000000000
11
-1.3543723968
21
-4.0778259304
31
0.0000000000
11
-1.4392206646
21
-4.1392206217
31
0.0000000000
11
-1.5298123046
21
-4.1905282905
31
0.0000000000
11
-1.6256029461
21
-4.2314221682
31
0.0000000000
11
-1.7262523138
21
-4.2617486755
31
0.0000000000
11
-1.8312581329
21
-4.2813383296
31
0.0000000000
11
-1.9400950015
21
-4.2900903422
31
0.0000000000
11
-2.0523660432
21
-4.2879608377
31
0.0000000000
11
-2.1673871055
21
-4.2749595202
31
0.0000000000
11
-2.2848095640
21
-4.2511201892
31
0.0000000000
11
-2.4038901206
21
-4.2165891567
31
0.0000000000
11
-2.5242363984
21
-4.1714800268
31
0.0000000000
11
-2.6451636857
21
-4.1160434115
31
0.0000000000
11
-2.7661387050
21
-4.0505284060
31
0.0000000000
11
-2.8866292858
21
-3.9752185695
31
0.0000000000
11
-3.0059462998
21
-3.8905503564
31
0.0000000000
11
-3.1236938518
21
-3.7968042432
31
0.0000000000
11
-3.2391222875
21
-3.6945802509
31
0.0000000000
11
-3.3518748028
21
-3.5841978062
31
0.0000000000
11
-3.4612593760
21
-3.4663343559
31
0.0000000000
11
-3.5668670818
21
-3.3414380112
31
0.0000000000
11
-3.6681633456
21
-3.2101379632
31
0.0000000000
11
-3.7646317508
21
-3.0731143305
31
0.0000000000
11
-3.8559206566
21
-2.9308662027
31
0.0000000000
11
-3.9414721067
21
-2.7842709197
31
0.0000000000
11
-4.0210315288
21
-2.6337687601
31
0.0000000000
11
-4.0941022964
21
-2.4803019195
31
0.0000000000
11
-4.1604460321
21
-2.3243808581
31
0.0000000000
11
-4.2197031485
21
-2.1668459628
31
0.0000000000
11
-4.2716065165
21
-2.0084253180
31
0.0000000000
11
-4.3159518657
21
-1.8497379461
31
0.0000000000
11
-4.3524840436
21
-1.6917145132
31
0.0000000000
11
-4.3810950616
21
-1.5348255115
31
0.0000000000
11
-4.4016074556
21
-1.3800495951
31
0.0000000000
11
-4.4139603415
21
-1.2278676041
31
0.0000000000
11
-4.4180815084
21
-1.0791522027
31
0.0000000000
0
SPLINE
5
249
100
AcDbEntity
8
0
100
AcDbSpline
62
0
6
CONTINUOUS
70
0
71
3
72
8
73
4
74
2
42
0.0000001000
43
0.0000001000
44
0.0000000001
12
0.0001433500
22
-0.0045736129
32
0.0000000000
13
0.0003959417
23
-0.0045582375
33
0.0000000000
40
0.0000000000
40
0.0000000000
40
0.0000000000
40
0.0000000000
40
1.0000000000
40
1.0000000000
40
1.0000000000
40
1.0000000000
10
-19.7575744720
20
-7.3135857708
30
0.0000000000
10
-19.7575266887
20
-7.3151103085
30
0.0000000000
10
-19.7574368237
20
-7.3166334952
30
0.0000000000
10
-19.7573048431
20
-7.3181529077
30
0.0000000000
11
-19.7575744720
21
-7.3135857708
31
0.0000000000
11
-19.7573048431
21
-7.3181529077
31
0.0000000000
0
SPLINE
5
24A
100
AcDbEntity
8
0
100
AcDbSpline
62
0
6
CONTINUOUS
70
0
71
3
72
14
73
10
74
8
42
0.0000001000
43
0.0000001000
44
0.0000000001
12
-0.0043310569
22
-0.1445156031
32
0.0000000000
13
0.1290214173
23
-0.0644011021
33
0.0000000000
40
0.0000000000
40
0.0000000000
40
0.0000000000
40
0.0000000000
40
0.0825442194
40
0.2047441192
40
0.3358147016
40
0.4793438580
40
0.6374631973
40
0.8110508200
40
1.0000000000
40
1.0000000000
40
1.0000000000
40
1.0000000000
10
-19.7575837872
20
21.0654381223
30
0.0000000000
10
-19.7577029551
20
21.0614618131
30
0.0000000000
10
-19.7571360894
20
21.0515704900
30
0.0000000000
10
-19.7527851944
20
21.0358681885
30
0.0000000000
10
-19.7437013662
20
21.0189467255
30
0.0000000000
10
-19.7305726416
20
21.0026874394
30
0.0000000000
10
-19.7136217524
20
20.9872655357
30
0.0000000000
10
-19.6930931861
20
20.9728582587
30
0.0000000000
10
-19.6778254790
20
20.9643916578
30
0.0000000000
10
-19.6696993153
20
20.9603354793
30
0.0000000000
11
-19.7575837872
21
21.0654381223
31
0.0000000000
11
-19.7569068562
21
21.0535379244
31
0.0000000000
11
-19.7523142698
21
21.0365255308
31
0.0000000000
11
-19.7435206574
21
21.0197952189
31
0.0000000000
11
-19.7306514215
21
21.0035855733
31
0.0000000000
11
-19.7138900852
21
20.9881277536
31
0.0000000000
11
-19.6934756758
21
20.9736421979
31
0.0000000000
11
-19.6696993153
21
20.9603354793
31
0.0000000000
0
SPLINE
5
24B
100
AcDbEntity
8
0
100
AcDbSpline
62
0
6
CONTINUOUS
70
0
71
3
72
14
73
10
74
8
42
0.0000001000
43
0.0000001000
44
0.0000000001
12
0.1195138338
22
0.0881487945
32
0.0000000000
13
0.1335921005
23
-0.0640918904
33
0.0000000000
40
0.0000000000
40
0.0000000000
40
0.0000000000
40
0.0000000000
40
0.0617131784
40
0.1925474849
40
0.3301226697
40
0.4779143633
40
0.6382115555
40
0.8121721683
40
1.0000000000
40
1.0000000000
40
1.0000000000
40
1.0000000000
10
-19.2342707243
20
22.0792700639
30
0.0000000000
10
-19.2318121981
20
22.0810833780
30
0.0000000000
10
-19.2238325397
20
22.0863218731
30
0.0000000000
10
-19.2087514855
20
22.0928691372
30
0.0000000000
10
-19.1884533546
20
22.0968991969
30
0.0000000000
10
-19.1663336974
20
22.0970970641
30
0.0000000000
10
-19.1427093429
20
22.0935203967
30
0.0000000000
10
-19.1179012222
20
22.0862567340
30
0.0000000000
10
-19.1014033022
20
22.0792911082
30
0.0000000000
10
-19.0930391974
20
22.0752783612
30
0.0000000000
11
-19.2342707243
21
22.0792700639
31
0.0000000000
11
-19.2266132172
21
22.0842955027
31
0.0000000000
11
-19.2088625709
21
22.0920881467
31
0.0000000000
11
-19.1888943733
21
22.0961874965
31
0.0000000000
11
-19.1669986847
21
22.0965340046
31
0.0000000000
11
-19.1434935640
21
22.0931226376
31
0.0000000000
11
-19.1187204493
21
22.0860029494
31
0.0000000000
11
-19.0930391974
21
22.0752783612
31
0.0000000000
0
SPLINE
5
24C
100
AcDbEntity
8
0
100
AcDbSpline
62
0
6
CONTINUOUS
70
0
71
3
72
8
73
4
74
2
42
0.0000001000
43
0.0000001000
44
0.0000000001
12
-0.0026927462
22
0.0013463984
32
0.0000000000
13
-0.0026815369
23
0.0013685894
33
0.0000000000
40
0.0000000000
40
0.0000000000
40
0.0000000000
40
0.0000000000
40
1.0000000000
40
1.0000000000
40
1.0000000000
40
1.0000000000
10
-19.4135009875
20
-7.9263205168
30
0.0000000000
10
-19.4143985695
20
-7.9258717173
30
0.0000000000
10
-19.4152942967
20
-7.9254192086
30
0.0000000000
10
-19.4161881423
20
-7.9249630121
30
0.0000000000
11
-19.4135009875
21
-7.9263205168
31
0.0000000000
11
-19.4161881423
21
-7.9249630121
31
0.0000000000
0
SPLINE
5
24D
100
AcDbEntity
8
0
100
AcDbSpline
62
0
6
CONTINUOUS
70
0
71
3
72
8
73
4
74
2
42
0.0000001000
43
0.0000001000
44
0.0000000001
12
-0.0128749916
22
0.0065710737
32
0.0000000000
13
-0.0126059006
23
0.0070739907
33
0.0000000000
40
0.0000000000
40
0.0000000000
40
0.0000000000
40
0.0000000000
40
1.0000000000
40
1.0000000000
40
1.0000000000
40
1.0000000000
10
-19.4161881423
20
-7.9249630121
30
0.0000000000
10
-19.4204798062
20
-7.9227726543
30
0.0000000000
10
-19.4247280953
20
-7.9204972837
30
0.0000000000
10
-19.4289300622
20
-7.9181392868
30
0.0000000000
11
-19.4161881423
21
-7.9249630121
31
0.0000000000
11
-19.4289300622
21
-7.9181392868
31
0.0000000000
0
SPLINE
5
24E
100
AcDbEntity
8
0
100
AcDbSpline
62
0
6
CONTINUOUS
70
0
71
3
72
17
73
13
74
11
42
0.0000001000
43
0.0000001000
44
0.0000000001
12
-0.5042931336
22
0.2829916765
32
0.0000000000
13
-0.0182642024
23
0.5775097510
33
0.0000000000
40
0.0000000000
40
0.0000000000
40
0.0000000000
40
0.0000000000
40
0.0576950913
40
0.1478258892
40
0.2401277953
40
0.3354900456
40
0.4346360054
40
0.5381070810
40
0.6462644778
40
0.7592990985
40
0.8772433808
40
1.0000000000
40
1.0000000000
40
1.0000000000
40
1.0000000000
10
-19.4289300622
20
-7.9181392868
30
0.0000000000
10
-19.4386284749
20
-7.9126968766
30
0.0000000000
10
-19.4628454060
20
-7.8976245929
30
0.0000000000
10
-19.4991653359
20
-7.8687602640
30
0.0000000000
10
-19.5363408405
20
-7.8300720377
30
0.0000000000
10
-19.5693775595
20
-7.7856301158
30
0.0000000000
10
-19.5980531799
20
-7.7357772703
30
0.0000000000
10
-19.6221809401
20
-7.6808846657
30
0.0000000000
10
-19.6416060453
20
-7.6213510885
30
0.0000000000
10
-19.6562040478
20
-7.5576018292
30
0.0000000000
10
-19.6658814311
20
-7.4900940518
30
0.0000000000
10
-19.6689519963
20
-7.4437882718
30
0.0000000000
10
-19.6696993469
20
-7.4201572236
30
0.0000000000
11
-19.4289300622
21
-7.9181392868
31
0.0000000000
11
-19.4572487604
21
-7.9005209046
31
0.0000000000
11
-19.4980608548
21
-7.8681722943
31
0.0000000000
11
-19.5350852140
21
-7.8297862476
31
0.0000000000
11
-19.5680555996
21
-7.7856389741
31
0.0000000000
11
-19.5967347741
21
-7.7360483002
31
0.0000000000
11
-19.6209163042
21
-7.6813715101
31
0.0000000000
11
-19.6404264350
21
-7.6220018849
31
0.0000000000
11
-19.6551249731
21
-7.5583661235
31
0.0000000000
11
-19.6649059445
21
-7.4909236566
31
0.0000000000
11
-19.6696993469
21
-7.4201572236
31
0.0000000000
0
SPLINE
5
24F
100
AcDbEntity
8
0
100
AcDbSpline
62
0
6
CONTINUOUS
70
0
71
3
72
18
73
14
74
12
42
0.0000001000
43
0.0000001000
44
0.0000000001
12
0.0000000000
22
0.7893393667
32
0.0000000000
13
0.7065058727
23
0.3532530173
33
0.0000000000
40
0.0000000000
40
0.0000000000
40
0.0000000000
40
0.0000000000
40
0.1086002644
40
0.2133701824
40
0.3141906061
40
0.4110364299
40
0.5039888410
40
0.5932469390
40
0.6791370987
40
0.7621175966
40
0.8427752956
40
0.9218111609
40
1.0000000000
40
1.0000000000
40
1.0000000000
40
1.0000000000
10
-3.1231945278
20
-1.3155921889
30
0.0000000000
10
-3.1231945278
20
-1.2870180343
30
0.0000000000
10
-3.1213818012
20
-1.2308561733
30
0.0000000000
10
-3.1129096275
20
-1.1485531033
30
0.0000000000
10
-3.0987802681
20
-1.0701583713
30
0.0000000000
10
-3.0790762781
20
-0.9961792243
30
0.0000000000
10
-3.0539130262
20
-0.9270904429
30
0.0000000000
10
-3.0234379609
20
-0.8633403474
30
0.0000000000
10
-2.9878307686
20
-0.8053484258
30
0.0000000000
10
-2.9473049892
20
-0.7535052252
30
0.0000000000
10
-2.9021112362
20
-0.7081703388
30
0.0000000000
10
-2.8525436189
20
-0.6696696774
30
0.0000000000
10
-2.8167416704
20
-0.6487067528
30
0.0000000000
10
-2.7983280457
20
-0.6394999384
30
0.0000000000
11
-3.1231945278
21
-1.3155921889
31
0.0000000000
11
-3.1203283661
21
-1.2299176540
31
0.0000000000
11
-3.1117484689
21
-1.1476649130
31
0.0000000000
11
-3.0975104804
21
-1.0693674066
31
0.0000000000
11
-3.0777067392
21
-0.9955329242
31
0.0000000000
11
-3.0524656803
21
-0.9266403107
31
0.0000000000
11
-3.0219510016
21
-0.8631363611
31
0.0000000000
11
-2.9863606024
21
-0.8054329230
31
0.0000000000
11
-2.9459253003
21
-0.7539042252
31
0.0000000000
11
-2.9009073336
21
-0.7088844512
31
0.0000000000
11
-2.8515986612
21
-0.6706655714
31
0.0000000000
11
-2.7983280457
21
-0.6394999384
31
0.0000000000
0
SPLINE
5
250
100
AcDbEntity
8
0
100
AcDbSpline
62
0
6
CONTINUOUS
70
0
71
3
72
22
73
18
74
16
42
0.0000001000
43
0.0000001000
44
0.0000000001
12
0.0364919259
22
1.1912793506
32
0.0000000000
13
0.8927686109
23
0.7898835029
33
0.0000000000
40
0.0000000000
40
0.0000000000
40
0.0000000000
40
0.0000000000
40
0.0636245400
40
0.1291371630
40
0.1963097072
40
0.2648805960
40
0.3345668497
40
0.4050673539
40
0.4760674566
40
0.5472451544
40
0.6182760828
40
0.6888380889
40
0.7586158261
40
0.8273058035
40
0.8946227555
40
0.9603045800
40
1.0000000000
40
1.0000000000
40
1.0000000000
40
1.0000000000
10
-19.6696993469
20
20.9603354650
30
0.0000000000
10
-19.6689254195
20
20.9856003320
30
0.0000000000
10
-19.6656285776
20
21.0368399294
30
0.0000000000
10
-19.6557894779
20
21.1142515659
30
0.0000000000
10
-19.6410503001
20
21.1928817898
30
0.0000000000
10
-19.6215168999
20
21.2721651605
30
0.0000000000
10
-19.5973292783
20
21.3515361323
30
0.0000000000
10
-19.5686605257
20
21.4304268311
30
0.0000000000
10
-19.5357158544
20
21.5082726978
30
0.0000000000
10
-19.4987311391
20
21.5845162773
30
0.0000000000
10
-19.4579710600
20
21.6586117573
30
0.0000000000
10
-19.4137272417
20
21.7300286780
30
0.0000000000
10
-19.3663163008
20
21.7982555610
30
0.0000000000
10
-19.3160772109
20
21.8628040263
30
0.0000000000
10
-19.2633690814
20
21.9232120951
30
0.0000000000
10
-19.2152820275
20
21.9722065123
30
0.0000000000
10
-19.1844814321
20
22.0005813329
30
0.0000000000
10
-19.1726684904
20
22.0110329187
30
0.0000000000
11
-19.6696993469
21
20.9603354650
31
0.0000000000
11
-19.6649059371
21
21.0360139653
31
0.0000000000
11
-19.6551249626
21
21.1134793644
31
0.0000000000
11
-19.6404264212
21
21.1921772955
31
0.0000000000
11
-19.6209162842
21
21.2715397277
31
0.0000000000
11
-19.5967347537
21
21.3509962730
31
0.0000000000
11
-19.5680555778
21
21.4299756209
31
0.0000000000
11
-19.5350851860
21
21.5079089535
31
0.0000000000
11
-19.4980608211
21
21.5842353230
31
0.0000000000
11
-19.4572487257
21
21.6584056884
31
0.0000000000
11
-19.4129423633
21
21.7298864709
31
0.0000000000
11
-19.3654605619
21
21.7981630477
31
0.0000000000
11
-19.3151453203
21
21.8627435167
31
0.0000000000
11
-19.2623585159
21
21.9231633177
31
0.0000000000
11
-19.2074795863
21
21.9789879611
31
0.0000000000
11
-19.1726684904
21
22.0110329187
31
0.0000000000
0
SPLINE
5
251
100
AcDbEntity
8
0
100
AcDbSpline
62
0
6
CONTINUOUS
70
0
71
3
72
9
73
5
74
3
42
0.0000001000
43
0.0000001000
44
0.0000000001
12
0.0766534795
22
0.0678197219
32
0.0000000000
13
0.0826125562
23
0.0603899399
33
0.0000000000
40
0.0000000000
40
0.0000000000
40
0.0000000000
40
0.0000000000
40
0.2808737116
40
1.0000000000
40
1.0000000000
40
1.0000000000
40
1.0000000000
10
-19.1726684904
20
22.0110329187
30
0.0000000000
10
-19.1654918413
20
22.0173825110
30
0.0000000000
10
-19.1396641865
20
22.0396774438
30
0.0000000000
10
-19.1128421510
20
22.0608023634
30
0.0000000000
10
-19.0930391974
20
22.0752783612
30
0.0000000000
11
-19.1726684904
21
22.0110329187
31
0.0000000000
11
-19.1509047760
21
22.0298143297
31
0.0000000000
11
-19.0930391974
21
22.0752783612
31
0.0000000000
0
SPLINE
5
252
100
AcDbEntity
8
0
100
AcDbSpline
62
0
6
CONTINUOUS
70
0
71
3
72
15
73
11
74
9
42
0.0000001000
43
0.0000001000
44
0.0000000001
12
-0.8924736101
22
28.3709171702
32
0.0000000000
13
0.8643456163
23
28.3717880451
33
0.0000000000
40
0.0000000000
40
0.0000000000
40
0.0000000000
40
0.0000000000
40
0.1232343594
40
0.2469811173
40
0.3712364829
40
0.4959965236
40
0.6212571692
40
0.7470142135
40
0.8732633147
40
1.0000000000
40
1.0000000000
40
1.0000000000
40
1.0000000000
10
-19.6696993469
20
-7.4201572236
30
0.0000000000
10
-19.7063604847
20
-6.2547332891
30
0.0000000000
10
-19.7704822441
20
-3.9187349740
30
0.0000000000
10
-19.8390313374
20
-0.4068594784
30
0.0000000000
10
-19.8801413911
20
3.1198827085
30
0.0000000000
10
-19.8938085147
20
6.6611609690
30
0.0000000000
10
-19.8800314943
20
10.2166468659
30
0.0000000000
10
-19.8388116031
20
13.7860105183
30
0.0000000000
10
-19.7701527761
20
17.3689176784
30
0.0000000000
10
-19.7062141130
20
19.7617533404
30
0.0000000000
10
-19.6696993469
20
20.9603354650
30
0.0000000000
11
-19.6696993469
21
-7.4201572236
31
0.0000000000
11
-19.7657392738
21
-3.9234746232
31
0.0000000000
11
-19.8343455955
21
-0.4115990141
31
0.0000000000
11
-19.8755119379
21
3.1151432132
31
0.0000000000
11
-19.8892344769
21
6.6564242816
31
0.0000000000
11
-19.8755119379
21
10.2119151047
31
0.0000000000
11
-19.8343455955
21
13.7812852768
31
0.0000000000
11
-19.7657392738
21
17.3642030604
31
0.0000000000
11
-19.6696993469
21
20.9603354650
31
0.0000000000
0
SPLINE
5
253
100
AcDbEntity
8
0
100
AcDbSpline
62
0
6
CONTINUOUS
70
0
71
3
72
17
73
13
74
11
42
0.0000001000
43
0.0000001000
44
0.0000000001
12
0.0000000000
22
-0.2154394529
32
0.0000000000
13
-0.2082294736
23
-0.0563493225
33
0.0000000000
40
0.0000000000
40
0.0000000000
40
0.0000000000
40
0.0000000000
40
0.1347234188
40
0.2631784264
40
0.3842185495
40
0.4978384289
40
0.6056821031
40
0.7081794316
40
0.8061541748
40
0.9020227845
40
0.9981906251
40
1.0000000000
40
1.0000000000
40
1.0000000000
40
1.0000000000
10
19.9771024425
20
-23.8574267246
30
0.0000000000
10
19.9771024425
20
-23.8671016378
30
0.0000000000
10
19.9762683809
20
-23.8860159177
30
0.0000000000
10
19.9723082086
20
-23.9133718491
30
0.0000000000
10
19.9657157392
20
-23.9386637287
30
0.0000000000
10
19.9565801352
20
-23.9615764976
30
0.0000000000
10
19.9449953058
20
-23.9818497419
30
0.0000000000
10
19.9310867612
20
-23.9992050174
30
0.0000000000
10
19.9150636737
20
-24.0133776580
30
0.0000000000
10
19.8971319824
20
-24.0241997292
30
0.0000000000
10
19.8840174870
20
-24.0290995667
30
0.0000000000
10
19.8772199850
20
-24.0309514078
30
0.0000000000
10
19.8770943966
20
-24.0309853935
30
0.0000000000
11
19.9771024425
21
-23.8574267246
31
0.0000000000
11
19.9757562421
21
-23.8864202283
31
0.0000000000
11
19.9717127292
21
-23.9137975106
31
0.0000000000
11
19.9650492307
21
-23.9390085840
31
0.0000000000
11
19.9558963729
21
-23.9617111763
31
0.0000000000
11
19.9442870592
21
-23.9818365948
31
0.0000000000
11
19.9304132751
21
-23.9990159848
31
0.0000000000
11
19.9145654632
21
-24.0129579608
31
0.0000000000
11
19.8968717868
21
-24.0236123781
31
0.0000000000
11
19.8774709904
21
-24.0308827977
31
0.0000000000
11
19.8770943966
21
-24.0309853935
31
0.0000000000
0
SPLINE
5
254
100
AcDbEntity
8
0
100
AcDbSpline
62
0
6
CONTINUOUS
70
0
71
3
72
21
73
17
74
15
42
0.0000001000
43
0.0000001000
44
0.0000000001
12
0.3971717296
22
-0.1985858648
32
0.0000000000
13
-0.0000000000
23
-0.4440514931
33
0.0000000000
40
0.0000000000
40
0.0000000000
40
0.0000000000
40
0.0000000000
40
0.0607365341
40
0.1250274388
40
0.1922211560
40
0.2617985700
40
0.3340837376
40
0.4083565972
40
0.4836108680
40
0.5595996212
40
0.6361931951
40
0.7122914821
40
0.7869321461
40
0.8602651691
40
0.9316080320
40
1.0000000000
40
1.0000000000
40
1.0000000000
40
1.0000000000
10
19.7655810752
20
7.8550527596
30
0.0000000000
10
19.7736220200
20
7.8510322873
30
0.0000000000
10
19.7897169356
20
7.8418169858
30
0.0000000000
10
19.8129213092
20
7.8252845514
30
0.0000000000
10
19.8355357186
20
7.8058802189
30
0.0000000000
10
19.8572972333
20
7.7838355219
30
0.0000000000
10
19.8779667735
20
7.7593777190
30
0.0000000000
10
19.8972773132
20
7.7327899405
30
0.0000000000
10
19.9149536689
20
7.7044424463
30
0.0000000000
10
19.9308001204
20
7.6746438752
30
0.0000000000
10
19.9446218602
20
7.6437165046
30
0.0000000000
10
19.9562040164
20
7.6120942764
30
0.0000000000
10
19.9653925398
20
7.5801966309
30
0.0000000000
10
19.9720738834
20
7.5483969599
30
0.0000000000
10
19.9761471544
20
7.5170912835
30
0.0000000000
10
19.9771024425
20
7.4963992025
30
0.0000000000
10
19.9771024425
20
7.4862760173
30
0.0000000000
11
19.7655810752
21
7.8550527596
31
0.0000000000
11
19.7890229250
21
7.8417160210
31
0.0000000000
11
19.8123117878
21
7.8252040818
31
0.0000000000
11
19.8349909533
21
7.8058151650
31
0.0000000000
11
19.8567266198
21
7.7838579153
31
0.0000000000
11
19.8774709904
21
7.7593635425
31
0.0000000000
11
19.8968717868
21
7.7326923266
31
0.0000000000
11
19.9145654632
21
7.7043442329
31
0.0000000000
11
19.9304132751
21
7.6745544450
31
0.0000000000
11
19.9442870592
21
7.6435012708
31
0.0000000000
11
19.9558963729
21
7.6117665387
31
0.0000000000
11
19.9650492307
21
7.5799110885
31
0.0000000000
11
19.9717127292
21
7.5480365167
31
0.0000000000
11
19.9757562421
21
7.5166157215
31
0.0000000000
11
19.9771024425
21
7.4862760173
31
0.0000000000
0
SPLINE
5
255
100
AcDbEntity
8
0
100
AcDbSpline
62
0
6
CONTINUOUS
70
0
71
3
72
15
73
11
74
9
42
0.0000001000
43
0.0000001000
44
0.0000000001
12
0.1266924923
22
0.0934381720
32
0.0000000000
13
0.1406209414
23
-0.0703104707
33
0.0000000000
40
0.0000000000
40
0.0000000000
40
0.0000000000
40
0.0000000000
40
0.0021041616
40
0.1334743006
40
0.2652544799
40
0.3993387494
40
0.5375968285
40
0.6833590792
40
0.8376333894
40
1.0000000000
40
1.0000000000
40
1.0000000000
40
1.0000000000
10
-15.0331237900
20
25.1778592006
30
0.0000000000
10
-15.0330349295
20
25.1779247369
30
0.0000000000
10
-15.0273921996
20
25.1820738543
30
0.0000000000
10
-15.0154234442
20
25.1892971954
30
0.0000000000
10
-14.9958114408
20
25.1966246316
30
0.0000000000
10
-14.9748524859
20
25.2003554371
30
0.0000000000
10
-14.9528461941
20
25.2004998389
30
0.0000000000
10
-14.9300458665
20
25.1970994180
30
0.0000000000
10
-14.9067396000
20
25.1902218356
30
0.0000000000
10
-14.8914832522
20
25.1835849234
30
0.0000000000
10
-14.8838725370
20
25.1797795658
30
0.0000000000
11
-15.0331237900
21
25.1778592006
31
0.0000000000
11
-15.0328569250
21
25.1780554270
31
0.0000000000
11
-15.0151632486
21
25.1887098443
31
0.0000000000
11
-14.9957624522
21
25.1959802638
31
0.0000000000
11
-14.9750180815
21
25.1997302660
31
0.0000000000
11
-14.9532824151
21
25.1999518493
31
0.0000000000
11
-14.9306032496
21
25.1966616005
31
0.0000000000
11
-14.9073143868
21
25.1898846770
31
0.0000000000
11
-14.8838725370
21
25.1797795658
31
0.0000000000
0
SPLINE
5
256
100
AcDbEntity
8
0
100
AcDbSpline
62
0
6
CONTINUOUS
70
0
71
3
72
10
73
6
74
4
42
0.0000001000
43
0.0000001000
44
0.0000000001
12
0.1299409033
22
0.0649704665
32
0.0000000000
13
0.1433538128
23
0.0234939821
33
0.0000000000
40
0.0000000000
40
0.0000000000
40
0.0000000000
40
0.0000000000
40
0.4252619737
40
0.8549926181
40
1.0000000000
40
1.0000000000
40
1.0000000000
40
1.0000000000
10
-2.7983280457
20
-0.6394999384
30
0.0000000000
10
-2.7799084040
20
-0.6302901155
30
0.0000000000
10
-2.7416501769
20
-0.6142244746
30
0.0000000000
10
-2.6948418568
20
-0.6014278321
30
0.0000000000
10
-2.6674713122
20
-0.5963604265
30
0.0000000000
10
-2.6605421918
20
-0.5952248262
30
0.0000000000
11
-2.7983280457
21
-0.6394999384
31
0.0000000000
11
-2.7414140945
21
-0.6155762371
31
0.0000000000
11
-2.6812527896
21
-0.5990630580
31
0.0000000000
11
-2.6605421918
21
-0.5952248262
31
0.0000000000
0
SPLINE
5
257
100
AcDbEntity
8
0
100
AcDbSpline
62
0
6
CONTINUOUS
70
0
71
3
72
33
73
29
74
27
42
0.0000001000
43
0.0000001000
44
0.0000000001
12
2.2478465523
22
0.3683952711
32
0.0000000000
13
-0.0000000000
23
-2.2764141733
33
0.0000000000
40
0.0000000000
40
0.0000000000
40
0.0000000000
40
0.0000000000
40
0.0187203469
40
0.0474938680
40
0.0772763643
40
0.1082267266
40
0.1404581098
40
0.1740395370
40
0.2089991471
40
0.2453282233
40
0.2829854417
40
0.3219010206
40
0.3619806260
40
0.4031089864
40
0.4451532284
40
0.4879659673
40
0.5313881970
40
0.5752520236
40
0.6193832834
40
0.6636040809
40
0.7077352824
40
0.7515989934
40
0.7950210515
40
0.8378335655
40
0.8798775327
40
0.9210055725
40
0.9610848166
40
1.0000000000
40
1.0000000000
40
1.0000000000
40
1.0000000000
10
-2.6605421918
20
-0.5952248262
30
0.0000000000
10
-2.6465153694
20
-0.5929259971
30
0.0000000000
10
-2.6106848951
20
-0.5885796346
30
0.0000000000
10
-2.5519258598
20
-0.5874076685
30
0.0000000000
10
-2.4841674405
20
-0.5937195399
30
0.0000000000
10
-2.4148818904
20
-0.6075919982
30
0.0000000000
10
-2.3445126714
20
-0.6289170411
30
0.0000000000
10
-2.2735066765
20
-0.6575437975
30
0.0000000000
10
-2.2023138787
20
-0.6932789819
30
0.0000000000
10
-2.1313859434
20
-0.7358870397
30
0.0000000000
10
-2.0611740268
20
-0.7850905274
30
0.0000000000
10
-1.9921260644
20
-0.8405709621
30
0.0000000000
10
-1.9246838053
20
-0.9019701914
30
0.0000000000
10
-1.8592797659
20
-0.9688922476
30
0.0000000000
10
-1.7963342110
20
-1.0409056195
30
0.0000000000
10
-1.7362522240
20
-1.1175458799
30
0.0000000000
10
-1.6794209038
20
-1.1983186088
30
0.0000000000
10
-1.6262067118
20
-1.2827025676
30
0.0000000000
10
-1.5769529841
20
-1.3701530829
30
0.0000000000
10
-1.5319776227
20
-1.4601056081
30
0.0000000000
10
-1.4915709784
20
-1.5519794276
30
0.0000000000
10
-1.4559939379
20
-1.6451814965
30
0.0000000000
10
-1.4254762279
20
-1.7391103090
30
0.0000000000
10
-1.4002149513
20
-1.8331600655
30
0.0000000000
10
-1.3803733744
20
-1.9267240220
30
0.0000000000
10
-1.3660799741
20
-2.0192009529
30
0.0000000000
10
-1.3574278021
20
-2.1099903617
30
0.0000000000
10
-1.3554275749
20
-2.1699466404
30
0.0000000000
10
-1.3554275749
20
-2.1994756654
30
0.0000000000
11
-2.6605421918
21
-0.5952248262
31
0.0000000000
11
-2.6182253229
21
-0.5900630071
31
0.0000000000
11
-2.5527404517
21
-0.5886344531
31
0.0000000000
11
-2.4852228706
21
-0.5947866607
31
0.0000000000
11
-2.4161104569
21
-0.6084797305
31
0.0000000000
11
-2.3458514313
21
-0.6296248577
31
0.0000000000
11
-2.2749014505
21
-0.6580849081
31
0.0000000000
11
-2.2037206522
21
-0.6936753072
31
0.0000000000
11
-2.1327706714
21
-0.7361652377
31
0.0000000000
11
-2.0625116457
21
-0.7852791361
31
0.0000000000
11
-1.9933992321
21
-0.8406984799
31
0.0000000000
11
-1.9258816510
21
-0.9020638534
31
0.0000000000
11
-1.8603967798
21
-0.9689772786
31
0.0000000000
11
-1.7973693131
21
-1.0410047963
31
0.0000000000
11
-1.7372080081
21
-1.1176792803
31
0.0000000000
11
-1.6803030341
21
-1.1985034672
31
0.0000000000
11
-1.6270234415
21
-1.2829531812
31
0.0000000000
11
-1.5777147691
21
-1.3704807335
31
0.0000000000
11
-1.5326968024
21
-1.4605184742
31
0.0000000000
11
-1.4922615002
21
-1.5524824741
31
0.0000000000
11
-1.4566711011
21
-1.6457763114
31
0.0000000000
11
-1.4261564224
21
-1.7397949397
31
0.0000000000
11
-1.4009153635
21
-1.8339286121
31
0.0000000000
11
-1.3811116223
21
-1.9275668357
31
0.0000000000
11
-1.3668736337
21
-2.0201023306
31
0.0000000000
11
-1.3582937366
21
-2.1109349687
31
0.0000000000
11
-1.3554275749
21
-2.1994756654
31
0.0000000000
0
SPLINE
5
258
100
AcDbEntity
8
0
100
AcDbSpline
62
0
6
CONTINUOUS
70
0
71
3
72
8
73
4
74
2
42
0.0000001000
43
0.0000001000
44
0.0000000001
12
0.0534935023
22
0.0267467573
32
0.0000000000
13
0.0496769712
23
0.0333028552
33
0.0000000000
40
0.0000000000
40
0.0000000000
40
0.0000000000
40
0.0000000000
40
1.0000000000
40
1.0000000000
40
1.0000000000
40
1.0000000000
10
-1.6802940570
20
-2.8755679159
30
0.0000000000
10
-1.6624628895
20
-2.8666523301
30
0.0000000000
10
-1.6452028877
20
-2.8565944117
30
0.0000000000
10
-1.6286438972
20
-2.8454934600
30
0.0000000000
11
-1.6802940570
21
-2.8755679159
31
0.0000000000
11
-1.6286438972
21
-2.8454934600
31
0.0000000000
0
SPLINE
5
259
100
AcDbEntity
8
0
100
AcDbSpline
62
0
6
CONTINUOUS
70
0
71
3
72
10
73
6
74
4
42
0.0000001000
43
0.0000001000
44
0.0000000001
12
0.0709760552
22
0.0475815097
32
0.0000000000
13
0.0616482888
23
0.0591607935
33
0.0000000000
40
0.0000000000
40
0.0000000000
40
0.0000000000
40
0.0000000000
40
0.0228626994
40
0.7534669706
40
1.0000000000
40
1.0000000000
40
1.0000000000
40
1.0000000000
10
-1.6286438972
20
-2.8454934600
30
0.0000000000
10
-1.6281029958
20
-2.8451308461
30
0.0000000000
10
-1.6103016088
20
-2.8331438029
30
0.0000000000
10
-1.5877603726
20
-2.8156353457
30
0.0000000000
10
-1.5672834668
20
-2.7967802939
30
0.0000000000
10
-1.5622173537
20
-2.7919185973
30
0.0000000000
11
-1.6286438972
21
-2.8454934600
31
0.0000000000
11
-1.6270234415
21
-2.8444022829
31
0.0000000000
11
-1.5777147691
21
-2.8061834031
31
0.0000000000
11
-1.5622173537
21
-2.7919185973
31
0.0000000000
0
SPLINE
5
25A
100
AcDbEntity
8
0
100
AcDbSpline
62
0
6
CONTINUOUS
70
0
71
3
72
16
73
12
74
10
42
0.0000001000
43
0.0000001000
44
0.0000000001
12
0.4650775858
22
0.4463118043
32
0.0000000000
13
0.0000000000
23
0.6441843231
33
0.0000000000
40
0.0000000000
40
0.0000000000
40
0.0000000000
40
0.0000000000
40
0.0661532740
40
0.1678318950
40
0.2730758165
40
0.3824465788
40
0.4963440996
40
0.6150123417
40
0.7385507864
40
0.8669286711
40
1.0000000000
40
1.0000000000
40
1.0000000000
40
1.0000000000
10
-1.5622173537
20
-2.7919185973
30
0.0000000000
10
-1.5519618853
20
-2.7820769350
30
0.0000000000
10
-1.5269857105
20
-2.7560216180
30
0.0000000000
10
-1.4907913340
20
-2.7097194285
30
0.0000000000
10
-1.4551841418
20
-2.6517275068
30
0.0000000000
10
-1.4247090765
20
-2.5879774114
30
0.0000000000
10
-1.3995458245
20
-2.5188886300
30
0.0000000000
10
-1.3798418346
20
-2.4449094830
30
0.0000000000
10
-1.3657124752
20
-2.3665147510
30
0.0000000000
10
-1.3572403014
20
-2.2842116810
30
0.0000000000
10
-1.3554275749
20
-2.2280498200
30
0.0000000000
10
-1.3554275749
20
-2.1994756654
30
0.0000000000
11
-1.5622173537
21
-2.7919185973
31
0.0000000000
11
-1.5326968024
21
-2.7611636291
31
0.0000000000
11
-1.4922615002
21
-2.7096349313
31
0.0000000000
11
-1.4566711011
21
-2.6519314932
31
0.0000000000
11
-1.4261564224
21
-2.5884275436
31
0.0000000000
11
-1.4009153635
21
-2.5195349301
31
0.0000000000
11
-1.3811116223
21
-2.4457004477
31
0.0000000000
11
-1.3668736337
21
-2.3674029413
31
0.0000000000
11
-1.3582937366
21
-2.2851502003
31
0.0000000000
11
-1.3554275749
21
-2.1994756654
31
0.0000000000
0
SPLINE
5
25B
100
AcDbEntity
8
0
100
AcDbSpline
62
0
6
CONTINUOUS
70
0
71
3
72
10
73
6
74
4
42
0.0000001000
43
0.0000001000
44
0.0000000001
12
0.1399056360
22
0.1451951595
32
0.0000000000
13
0.1627515386
23
0.1189716926
33
0.0000000000
40
0.0000000000
40
0.0000000000
40
0.0000000000
40
0.0000000000
40
0.2577249178
40
0.6349720474
40
1.0000000000
40
1.0000000000
40
1.0000000000
40
1.0000000000
10
-19.2442788282
20
21.9423028324
30
0.0000000000
10
-19.2322597720
20
21.9547763026
30
0.0000000000
10
-19.2020409784
20
21.9849228939
30
0.0000000000
10
-19.1520646858
20
22.0299108639
30
0.0000000000
10
-19.1128421510
20
22.0608023634
30
0.0000000000
10
-19.0930391974
20
22.0752783612
30
0.0000000000
11
-19.2442788282
21
21.9423028324
31
0.0000000000
11
-19.2074795863
21
21.9789879611
31
0.0000000000
11
-19.1509047760
21
22.0298143297
31
0.0000000000
11
-19.0930391974
21
22.0752783612
31
0.0000000000
0
SPLINE
5
25C
100
AcDbEntity
8
0
100
AcDbSpline
62
0
6
CONTINUOUS
70
0
71
3
72
8
73
4
74
2
42
0.0000001000
43
0.0000001000
44
0.0000000001
12
-0.0034324707
22
0.1091150950
32
0.0000000000
13
-0.0034052033
23
0.1091159794
33
0.0000000000
40
0.0000000000
40
0.0000000000
40
0.0000000000
40
0.0000000000
40
1.0000000000
40
1.0000000000
40
1.0000000000
40
1.0000000000
10
-19.6696993469
20
-7.4201572236
30
0.0000000000
10
-19.6708435038
20
-7.3837855253
30
0.0000000000
10
-19.6719831152
20
-7.3474136789
30
0.0000000000
10
-19.6731181830
20
-7.3110416857
30
0.0000000000
11
-19.6696993469
21
-7.4201572236
31
0.0000000000
11
-19.6731181830
21
-7.3110416857
31
0.0000000000
0
SPLINE
5
25D
100
AcDbEntity
8
0
100
AcDbSpline
62
0
6
CONTINUOUS
70
0
71
3
72
16
73
12
74
10
42
0.0000001000
43
0.0000001000
44
0.0000000001
12
-0.0320443416
22
-0.2342965924
32
0.0000000000
13
-0.2285757625
23
-0.0618362805
33
0.0000000000
40
0.0000000000
40
0.0000000000
40
0.0000000000
40
0.0000000000
40
0.1384183407
40
0.2713841348
40
0.3985280733
40
0.5197895362
40
0.6354648679
40
0.7462417898
40
0.8532034335
40
0.9577820007
40
1.0000000000
40
1.0000000000
40
1.0000000000
40
1.0000000000
10
15.6520952550
20
-25.0277463014
30
0.0000000000
10
15.6506167468
20
-25.0385566166
30
0.0000000000
10
15.6467137019
20
-25.0596319166
30
0.0000000000
10
15.6378139463
20
-25.0898203318
30
0.0000000000
10
15.6260944761
20
-25.1175802457
30
0.0000000000
10
15.6117110974
20
-25.1425078193
30
0.0000000000
10
15.5948538233
20
-25.1642382380
30
0.0000000000
10
15.5757484421
20
-25.1824412520
30
0.0000000000
10
15.5546605760
20
-25.1968258061
30
0.0000000000
10
15.5363497973
20
-25.2051313003
30
0.0000000000
10
15.5252741395
20
-25.2085596001
30
0.0000000000
10
15.5220574691
20
-25.2094298015
30
0.0000000000
11
15.6520952550
21
-25.0277463014
31
0.0000000000
11
15.6460740461
21
-25.0599205947
31
0.0000000000
11
15.6371130975
21
-25.0900601399
31
0.0000000000
11
15.6253425769
21
-25.1177271266
31
0.0000000000
11
15.6109334642
21
-25.1425196614
31
0.0000000000
11
15.5940950676
21
-25.1640776051
31
0.0000000000
11
15.5750719835
21
-25.1820878049
31
0.0000000000
11
15.5541405433
21
-25.1962886427
31
0.0000000000
11
15.5316047992
21
-25.2064738355
31
0.0000000000
11
15.5220574691
21
-25.2094298015
31
0.0000000000
0
SPLINE
5
25E
100
AcDbEntity
8
0
100
AcDbSpline
62
0
6
CONTINUOUS
70
0
71
3
72
23
73
19
74
17
42
0.0000001000
43
0.0000001000
44
0.0000000001
12
0.0214375929
22
-0.6582948365
32
0.0000000000
13
0.6357806487
23
0.1720308950
33
0.0000000000
40
0.0000000000
40
0.0000000000
40
0.0000000000
40
0.0000000000
40
0.0754441409
40
0.1480746055
40
0.2178255654
40
0.2847381255
40
0.3489482339
40
0.4106918305
40
0.4703084113
40
0.5282393779
40
0.5850159718
40
0.6412360322
40
0.6975308813
40
0.7545271037
40
0.8128097329
40
0.8728910622
40
0.9351881140
40
1.0000000000
40
1.0000000000
40
1.0000000000
40
1.0000000000
10
15.2363068729
20
-24.6548715861
30
0.0000000000
10
15.2368459865
20
-24.6714264156
30
0.0000000000
10
15.2390627050
20
-24.7038962981
30
0.0000000000
10
15.2460435393
20
-24.7512583185
30
0.0000000000
10
15.2565751136
20
-24.7960468120
30
0.0000000000
10
15.2705892991
20
-24.8379333157
30
0.0000000000
10
15.2879956837
20
-24.8766175348
30
0.0000000000
10
15.3086814125
20
-24.9118172095
30
0.0000000000
10
15.3325096621
20
-24.9432694917
30
0.0000000000
10
15.3593174422
20
-24.9707321225
30
0.0000000000
10
15.3889129696
20
-24.9939871399
30
0.0000000000
10
15.4210743908
20
-25.0128468333
30
0.0000000000
10
15.4555520588
20
-25.0271610384
30
0.0000000000
10
15.4920752681
20
-25.0368226205
30
0.0000000000
10
15.5303601705
20
-25.0417687551
30
0.0000000000
10
15.5701181284
20
-25.0419771053
30
0.0000000000
10
15.6110481512
20
-25.0374642988
30
0.0000000000
10
15.6383598740
20
-25.0314628503
30
0.0000000000
10
15.6520952550
20
-25.0277463014
30
0.0000000000
11
15.2363068729
21
-24.6548715861
31
0.0000000000
11
15.2397612675
21
-24.7044421858
31
0.0000000000
11
15.2468127818
21
-24.7517572221
31
0.0000000000
11
15.2574102378
21
-24.7964592675
31
0.0000000000
11
15.2714773118
21
-24.8382255021
31
0.0000000000
11
15.2889129016
21
-24.8767557344
31
0.0000000000
11
15.3095917358
21
-24.9117727838
31
0.0000000000
11
15.3333649668
21
-24.9430243348
31
0.0000000000
11
15.3600615339
21
-24.9702853673
31
0.0000000000
11
15.3894894607
21
-24.9933596913
31
0.0000000000
11
15.4214371160
21
-25.0120811695
31
0.0000000000
11
15.4556745084
21
-25.0263148569
31
0.0000000000
11
15.4919550011
21
-25.0359581516
31
0.0000000000
11
15.5300176365
21
-25.0409416618
31
0.0000000000
11
15.5695887856
21
-25.0412294207
31
0.0000000000
11
15.6103826751
21
-25.0368194217
31
0.0000000000
11
15.6520952550
21
-25.0277463014
31
0.0000000000
0
SPLINE
5
25F
100
AcDbEntity
8
0
100
AcDbSpline
62
0
6
CONTINUOUS
70
0
71
3
72
17
73
13
74
11
42
0.0000001000
43
0.0000001000
44
0.0000000001
12
0.0194144875
22
-0.5992923474
32
0.0000000000
13
0.5354564672
23
-0.2708607324
33
0.0000000000
40
0.0000000000
40
0.0000000000
40
0.0000000000
40
0.0000000000
40
0.1184040265
40
0.2323167778
40
0.3416734055
40
0.4465326447
40
0.5471026701
40
0.6437498898
40
0.7370051785
40
0.8275620194
40
0.9162581261
40
1.0000000000
40
1.0000000000
40
1.0000000000
40
1.0000000000
10
14.8159350444
20
-24.6629744193
30
0.0000000000
10
14.8167012955
20
-24.6866272949
30
0.0000000000
10
14.8198520497
20
-24.7330042453
30
0.0000000000
10
14.8297745025
20
-24.8006417835
30
0.0000000000
10
14.8447414616
20
-24.8645811099
30
0.0000000000
10
14.8646569905
20
-24.9243625171
30
0.0000000000
10
14.8893929173
20
-24.9795577003
30
0.0000000000
10
14.9187890990
20
-25.0297642736
30
0.0000000000
10
14.9526516303
20
-25.0746075346
30
0.0000000000
10
14.9907495063
20
-25.1137420225
30
0.0000000000
10
15.0321745031
20
-25.1463557941
30
0.0000000000
10
15.0619310480
20
-25.1639444280
30
0.0000000000
10
15.0768777574
20
-25.1715052231
30
0.0000000000
11
14.8159350444
21
-24.6629744193
31
0.0000000000
11
14.8208470317
21
-24.7338001447
31
0.0000000000
11
14.8308699775
21
-24.8013635987
31
0.0000000000
11
14.8459321481
21
-24.8651811764
31
0.0000000000
11
14.8659249463
21
-24.9247921353
31
0.0000000000
11
14.8907047123
21
-24.9797680434
31
0.0000000000
11
14.9200933915
21
-25.0297134696
31
0.0000000000
11
14.9538794441
21
-25.0742685766
31
0.0000000000
11
14.9918197632
21
-25.1131126033
31
0.0000000000
11
15.0336415240
21
-25.1459660468
31
0.0000000000
11
15.0768777574
21
-25.1715052231
31
0.0000000000
0
SPLINE
5
260
100
AcDbEntity
8
0
100
AcDbSpline
62
0
6
CONTINUOUS
70
0
71
3
72
20
73
16
74
14
42
0.0000001000
43
0.0000001000
44
0.0000000001
12
-0.3833260135
22
-0.2028951119
32
0.0000000000
13
-0.3880466734
23
0.1937138052
33
0.0000000000
40
0.0000000000
40
0.0000000000
40
0.0000000000
40
0.0000000000
40
0.0693298557
40
0.1426100141
40
0.2192587080
40
0.2985874218
40
0.3798295860
40
0.4621660421
40
0.5447485992
40
0.6267226352
40
0.7072494948
40
0.7855293972
40
0.8608256692
40
0.9324913931
40
1.0000000000
40
1.0000000000
40
1.0000000000
40
1.0000000000
10
15.2363068729
20
-24.6548715861
30
0.0000000000
10
15.2274482271
20
-24.6595604824
30
0.0000000000
10
15.2087515012
20
-24.6683260660
30
0.0000000000
10
15.1790042732
20
-24.6793629012
30
0.0000000000
10
15.1471234753
20
-24.6885324583
30
0.0000000000
10
15.1135604616
20
-24.6957041946
30
0.0000000000
10
15.0787871221
20
-24.7007773289
30
0.0000000000
10
15.0432947452
20
-24.7036798381
30
0.0000000000
10
15.0075849389
20
-24.7043706037
30
0.0000000000
10
14.9721626406
20
-24.7028398953
30
0.0000000000
10
14.9375282934
20
-24.6991094891
30
0.0000000000
10
14.9041709115
20
-24.6932324393
30
0.0000000000
10
14.8725587876
20
-24.6852910740
30
0.0000000000
10
14.8431390849
20
-24.6753983095
30
0.0000000000
10
14.8246672602
20
-24.6673335069
30
0.0000000000
10
14.8159350968
20
-24.6629743906
30
0.0000000000
11
15.2363068729
21
-24.6548715861
31
0.0000000000
11
15.2091154401
21
-24.6677081805
31
0.0000000000
11
15.1793398969
21
-24.6788229821
31
0.0000000000
11
15.1474048611
21
-24.6880574868
31
0.0000000000
11
15.1137657461
21
-24.6952800050
31
0.0000000000
11
15.0789022665
21
-24.7003875390
31
0.0000000000
11
15.0433115970
21
-24.7033072523
31
0.0000000000
11
15.0075012828
21
-24.7039975079
31
0.0000000000
11
14.9719820011
21
-24.7024484623
31
0.0000000000
11
14.9372602788
21
-24.6986822060
31
0.0000000000
11
14.9038312693
21
-24.6927524480
31
0.0000000000
11
14.8721716909
21
-24.6847437504
31
0.0000000000
11
14.8427330289
21
-24.6747703222
31
0.0000000000
11
14.8159350968
21
-24.6629743906
31
0.0000000000
0
SPLINE
5
261
100
AcDbEntity
8
0
100
AcDbSpline
62
0
6
CONTINUOUS
70
0
71
3
72
15
73
11
74
9
42
0.0000001000
43
0.0000001000
44
0.0000000001
12
-0.8948768342
22
-28.3511172262
32
0.0000000000
13
0.9229818703
23
-28.3502161718
33
0.0000000000
40
0.0000000000
40
0.0000000000
40
0.0000000000
40
0.0000000000
40
0.1266784413
40
0.2528848717
40
0.3786153434
40
0.5038660528
40
0.6286333334
40
0.7529136566
40
0.8767036329
40
1.0000000000
40
1.0000000000
40
1.0000000000
40
1.0000000000
10
15.2363068729
20
3.7055878136
30
0.0000000000
10
15.1985196720
20
2.5084293667
30
0.0000000000
10
15.1323538355
20
0.1182699510
30
0.0000000000
10
15.0613081986
20
-3.4608980187
30
0.0000000000
10
15.0186561372
20
-7.0270193041
30
0.0000000000
10
15.0044017381
20
-10.5797596601
30
0.0000000000
10
15.0185463192
20
-14.1187894960
30
0.0000000000
10
15.0610886316
20
-17.6437806233
30
0.0000000000
10
15.1320246396
20
-21.1544022358
30
0.0000000000
10
15.1983734357
20
-23.4897120329
30
0.0000000000
10
15.2363068729
20
-24.6548715861
30
0.0000000000
11
15.2363068729
21
3.7055878136
31
0.0000000000
11
15.1369260703
21
0.1136984178
31
0.0000000000
11
15.0659331802
21
-3.4654728489
31
0.0000000000
11
15.0233348081
21
-7.0315930200
31
0.0000000000
11
15.0091349115
21
-10.5843306599
31
0.0000000000
11
15.0233348092
21
-14.1233556184
31
0.0000000000
11
15.0659331823
21
-17.6483390190
31
0.0000000000
11
15.1369260735
21
-21.1589532479
31
0.0000000000
11
15.2363068729
21
-24.6548715861
31
0.0000000000
0
SPLINE
5
262
100
AcDbEntity
8
0
100
AcDbSpline
62
0
6
CONTINUOUS
70
0
71
3
72
15
73
11
74
9
42
0.0000001000
43
0.0000001000
44
0.0000000001
12
-0.8954980178
22
-28.3711441455
32
0.0000000000
13
0.9236229254
23
-28.3702424649
33
0.0000000000
40
0.0000000000
40
0.0000000000
40
0.0000000000
40
0.0000000000
40
0.1266784699
40
0.2528849118
40
0.3786153894
40
0.5038660989
40
0.6286333736
40
0.7529136847
40
0.8767036424
40
1.0000000000
40
1.0000000000
40
1.0000000000
40
1.0000000000
10
14.8159350444
20
3.7175182694
30
0.0000000000
10
14.7781216048
20
2.5195138933
30
0.0000000000
10
14.7119098366
20
0.1276657231
30
0.0000000000
10
14.6408148742
20
-3.4540309402
30
0.0000000000
10
14.5981332027
20
-7.0226714236
30
0.0000000000
10
14.5838689068
20
-10.5779213541
30
0.0000000000
10
14.5980233061
20
-14.1194509085
30
0.0000000000
10
14.6405951498
20
-17.6469316664
30
0.0000000000
10
14.7115804058
20
-21.1600327366
30
0.0000000000
10
14.7779752635
20
-23.4969918992
30
0.0000000000
10
14.8159350444
20
-24.6629744193
30
0.0000000000
11
14.8159350444
21
3.7175182694
31
0.0000000000
11
14.7164852401
21
0.1230908034
31
0.0000000000
11
14.6454430656
21
-3.4586090537
31
0.0000000000
11
14.6028151208
21
-7.0272484246
31
0.0000000000
11
14.5886053660
21
-10.5824956399
31
0.0000000000
11
14.6028151208
21
-14.1240203162
31
0.0000000000
11
14.6454430656
21
-17.6514933447
31
0.0000000000
11
14.7164852401
21
-21.1645868801
31
0.0000000000
11
14.8159350444
21
-24.6629744193
31
0.0000000000
0
SPLINE
5
263
100
AcDbEntity
8
0
100
AcDbSpline
62
0
6
CONTINUOUS
70
0
71
3
72
20
73
16
74
14
42
0.0000001000
43
0.0000001000
44
0.0000000001
12
-0.3955767551
22
-0.1726244986
32
0.0000000000
13
-0.3859052316
23
0.1932804670
33
0.0000000000
40
0.0000000000
40
0.0000000000
40
0.0000000000
40
0.0000000000
40
0.0674920152
40
0.1394044241
40
0.2151271677
40
0.2939358978
40
0.3750218711
40
0.4575179020
40
0.5405220316
40
0.6231200140
40
0.7044074150
40
0.7835120186
40
0.8596173175
40
0.9319881405
40
1.0000000000
40
1.0000000000
40
1.0000000000
40
1.0000000000
10
15.2363068729
20
3.7055878136
30
0.0000000000
10
15.2274074487
20
3.7017042218
30
0.0000000000
10
15.2086372120
20
3.6945555505
30
0.0000000000
10
15.1789011940
20
3.6858768928
30
0.0000000000
10
15.1470321444
20
3.6789952144
30
0.0000000000
10
15.1134808794
20
3.6740091459
30
0.0000000000
10
15.0787191686
20
3.6709892700
30
0.0000000000
10
15.0432384107
20
3.6699789259
30
0.0000000000
10
15.0075404595
20
3.6709926828
30
0.0000000000
10
14.9721305930
20
3.6740162086
30
0.0000000000
10
14.9375096943
20
3.6790064851
30
0.0000000000
10
14.9041672228
20
3.6858923371
30
0.0000000000
10
14.8725721812
20
3.6945764269
30
0.0000000000
10
14.8431715709
20
3.7049345944
30
0.0000000000
10
14.8246837552
20
3.7131364815
30
0.0000000000
10
14.8159350444
20
3.7175182694
30
0.0000000000
11
15.2363068729
21
3.7055878136
31
0.0000000000
11
15.2091154402
21
3.6951396415
31
0.0000000000
11
15.1793398958
21
3.6863792020
31
0.0000000000
11
15.1474048576
21
3.6794314244
31
0.0000000000
11
15.1137657391
21
3.6743953883
31
0.0000000000
11
15.0789022551
21
3.6713429108
31
0.0000000000
11
15.0433115807
21
3.6703175221
31
0.0000000000
11
15.0075012611
21
3.6713338448
31
0.0000000000
11
14.9719819736
21
3.6743773856
31
0.0000000000
11
14.9372602456
21
3.6794047416
31
0.0000000000
11
14.9038312306
21
3.6863442197
31
0.0000000000
11
14.8721716470
21
3.6950968586
31
0.0000000000
11
14.8427329804
21
3.7055378401
31
0.0000000000
11
14.8159350444
21
3.7175182694
31
0.0000000000
0
SPLINE
5
264
100
AcDbEntity
8
0
100
AcDbSpline
62
0
6
CONTINUOUS
70
0
71
3
72
23
73
19
74
17
42
0.0000001000
43
0.0000001000
44
0.0000000001
12
-0.7453992358
22
-0.5181329436
32
0.0000000000
13
-0.0286460724
23
-0.9073374072
33
0.0000000000
40
0.0000000000
40
0.0000000000
40
0.0000000000
40
0.0000000000
40
0.0573814316
40
0.1165803324
40
0.1773987598
40
0.2396253753
40
0.3030254020
40
0.3673438185
40
0.4323097806
40
0.4976424136
40
0.5630554048
40
0.6282611589
40
0.6929749171
40
0.7569195674
40
0.8198312137
40
0.8814633703
40
0.9415899961
40
1.0000000000
40
1.0000000000
40
1.0000000000
40
1.0000000000
10
15.6520952550
20
4.4799847022
30
0.0000000000
10
15.6378378966
20
4.4700742988
30
0.0000000000
10
15.6095886624
20
4.4488902571
30
0.0000000000
10
15.5688466966
20
4.4138844495
30
0.0000000000
10
15.5293256453
20
4.3753739869
30
0.0000000000
10
15.4913147996
20
4.3336401347
30
0.0000000000
10
15.4550845323
20
4.2889811767
30
0.0000000000
10
15.4208938736
20
4.2417167835
30
0.0000000000
10
15.3889872629
20
4.1921853446
30
0.0000000000
10
15.3595930328
20
4.1407416137
30
0.0000000000
10
15.3329214944
20
4.0877538918
30
0.0000000000
10
15.3091635559
20
4.0336015317
30
0.0000000000
10
15.2884893536
20
3.9786723373
30
0.0000000000
10
15.2710469270
20
3.9233593812
30
0.0000000000
10
15.2569611225
20
3.8680583731
30
0.0000000000
10
15.2463330631
20
3.8131636451
30
0.0000000000
10
15.2392396498
20
3.7590750433
30
0.0000000000
10
15.2368646119
20
3.7232536741
30
0.0000000000
10
15.2363068729
20
3.7055878136
30
0.0000000000
11
15.6520952550
21
4.4799847022
31
0.0000000000
11
15.6103864111
21
4.4487794523
31
0.0000000000
11
15.5695925553
21
4.4137956847
31
0.0000000000
11
15.5300214093
21
4.3752949718
31
0.0000000000
11
15.4919587508
21
4.3335552589
31
0.0000000000
11
15.4556781890
21
4.2888767435
31
0.0000000000
11
15.4214406934
21
4.2415808269
31
0.0000000000
11
15.3894928931
21
4.1920082743
31
0.0000000000
11
15.3600647128
21
4.1405160026
31
0.0000000000
11
15.3333677872
21
4.0874744699
31
0.0000000000
11
15.3095941347
21
4.0332652791
31
0.0000000000
11
15.2889148863
21
3.9782787679
31
0.0000000000
11
15.2714788943
21
3.9229110047
31
0.0000000000
11
15.2574114317
21
3.8675601300
31
0.0000000000
11
15.2468135986
21
3.8126239921
31
0.0000000000
11
15.2397617451
21
3.7584991277
31
0.0000000000
11
15.2363068729
21
3.7055878136
31
0.0000000000
0
SPLINE
5
265
100
AcDbEntity
8
0
100
AcDbSpline
62
0
6
CONTINUOUS
70
0
71
3
72
23
73
19
74
17
42
0.0000001000
43
0.0000001000
44
0.0000000001
12
-1.0613678907
22
-0.7443204426
32
0.0000000000
13
-0.0406883362
23
-1.2957079841
33
0.0000000000
40
0.0000000000
40
0.0000000000
40
0.0000000000
40
0.0000000000
40
0.0573048776
40
0.1164249471
40
0.1771826415
40
0.2393656825
40
0.3027381836
40
0.3670438024
40
0.4320102038
40
0.4973548604
40
0.5627896557
40
0.6280250824
40
0.6927744325
40
0.7567583771
40
0.8197106484
40
0.8813822616
40
0.9415445153
40
1.0000000000
40
1.0000000000
40
1.0000000000
40
1.0000000000
10
15.4068614027
20
4.8253280612
30
0.0000000000
10
15.3865875503
20
4.8111103306
30
0.0000000000
10
15.3464266263
20
4.7807321739
30
0.0000000000
10
15.2885203175
20
4.7305684629
30
0.0000000000
10
15.2323562245
20
4.6754090712
30
0.0000000000
10
15.1783383380
20
4.6156511640
30
0.0000000000
10
15.1268509521
20
4.5517216971
30
0.0000000000
10
15.0782621007
20
4.4840782824
30
0.0000000000
10
15.0329191407
20
4.4132051681
30
0.0000000000
10
14.9911465208
20
4.3396099363
30
0.0000000000
10
14.9532430780
20
4.2638194353
30
0.0000000000
10
14.9194800491
20
4.1863761744
30
0.0000000000
10
14.8900991709
20
4.1078346448
30
0.0000000000
10
14.8653107790
20
4.0287568025
30
0.0000000000
10
14.8452923320
20
3.9497083287
30
0.0000000000
10
14.8301874059
20
3.8712529096
30
0.0000000000
10
14.8201046523
20
3.7939548621
30
0.0000000000
10
14.8167278632
20
3.7427653488
30
0.0000000000
10
14.8159350444
20
3.7175182694
30
0.0000000000
11
15.4068614027
21
4.8253280612
31
0.0000000000
11
15.3475642652
21
4.7805798091
31
0.0000000000
11
15.2895898440
21
4.7304532460
31
0.0000000000
11
15.2333532365
21
4.6753074415
31
0.0000000000
11
15.1792605212
21
4.6155405960
31
0.0000000000
11
15.1277005101
21
4.5515825117
31
0.0000000000
11
15.0790440380
21
4.4838932703
31
0.0000000000
11
15.0336415626
21
4.4129605442
31
0.0000000000
11
14.9918198006
21
4.3392950122
31
0.0000000000
11
14.9538794751
21
4.2634266230
31
0.0000000000
11
14.9200934157
21
4.1859011242
31
0.0000000000
11
14.8907047346
21
4.1072765288
31
0.0000000000
11
14.8659249676
21
4.0281191018
31
0.0000000000
11
14.8459321629
21
3.9489980034
31
0.0000000000
11
14.8308699880
21
3.8704818891
31
0.0000000000
11
14.8208470398
21
3.7931374768
31
0.0000000000
11
14.8159350444
21
3.7175182694
31
0.0000000000
0
SPLINE
5
266
100
AcDbEntity
8
0
100
AcDbSpline
62
0
6
CONTINUOUS
70
0
71
3
72
20
73
16
74
14
42
0.0000001000
43
0.0000001000
44
0.0000000001
12
-0.0679212356
22
0.4310246399
32
0.0000000000
13
-0.3869823151
23
0.2015942020
33
0.0000000000
40
0.0000000000
40
0.0000000000
40
0.0000000000
40
0.0000000000
40
0.0687513624
40
0.1416690409
40
0.2181477201
40
0.2974695460
40
0.3788343678
40
0.4613863484
40
0.5442384578
40
0.6264959064
40
0.7072793276
40
0.7857484630
40
0.8611272202
40
0.9327312841
40
1.0000000000
40
1.0000000000
40
1.0000000000
40
1.0000000000
10
15.6520952550
20
4.4799847022
30
0.0000000000
10
15.6505386958
20
4.4898625459
30
0.0000000000
10
15.6463393276
20
4.5100685154
30
0.0000000000
10
15.6373310293
20
4.5405230628
30
0.0000000000
10
15.6255406920
20
4.5716609115
30
0.0000000000
10
15.6111374651
20
4.6030327001
30
0.0000000000
10
15.5943274754
20
4.6341891188
30
0.0000000000
10
15.5753522728
20
4.6646814830
30
0.0000000000
10
15.5544849392
20
4.6940706639
30
0.0000000000
10
15.5320261266
20
4.7219332957
30
0.0000000000
10
15.5082992886
20
4.7478684481
30
0.0000000000
10
15.4836461504
20
4.7715033613
30
0.0000000000
10
15.4584193519
20
4.7925000610
30
0.0000000000
10
15.4329829249
20
4.8105566831
30
0.0000000000
10
15.4155386705
20
4.8208077335
30
0.0000000000
10
15.4068614027
20
4.8253280612
30
0.0000000000
11
15.6520952550
21
4.4799847022
31
0.0000000000
11
15.6460740473
21
4.5093734265
31
0.0000000000
11
15.6371131005
21
4.5399026285
31
0.0000000000
11
15.6253425820
21
4.5711288380
31
0.0000000000
11
15.6109334714
21
4.6025984600
31
0.0000000000
11
15.5940950767
21
4.6338543634
31
0.0000000000
11
15.5750719939
21
4.6644425217
31
0.0000000000
11
15.5541405543
21
4.6939186078
31
0.0000000000
11
15.5316048100
21
4.7218544490
31
0.0000000000
11
15.5077921176
21
4.7478442458
31
0.0000000000
11
15.4830483829
21
4.7715104676
31
0.0000000000
11
15.4577330363
21
4.7925093359
31
0.0000000000
11
15.4322138111
21
4.8105358187
31
0.0000000000
11
15.4068614027
21
4.8253280612
31
0.0000000000
0
SPLINE
5
267
100
AcDbEntity
8
0
100
AcDbSpline
62
0
6
CONTINUOUS
70
0
71
3
72
12
73
8
74
6
42
0.0000001000
43
0.0000001000
44
0.0000000001
12
0.0000000000
22
-0.3737093116
32
0.0000000000
13
0.0881007290
23
-0.3632213439
33
0.0000000000
40
0.0000000000
40
0.0000000000
40
0.0000000000
40
0.0000000000
40
0.2370480806
40
0.4811869250
40
0.7317144066
40
0.9878211713
40
1.0000000000
40
1.0000000000
40
1.0000000000
40
1.0000000000
10
-3.1231945278
20
-1.3155921889
30
0.0000000000
10
-3.1231945278
20
-1.3451212139
30
0.0000000000
10
-3.1211943006
20
-1.4050774926
30
0.0000000000
10
-3.1125421286
20
-1.4958669014
30
0.0000000000
10
-3.0982487282
20
-1.5883438323
30
0.0000000000
10
-3.0848349061
20
-1.6515973875
30
0.0000000000
10
-3.0769969924
20
-1.6840896643
30
0.0000000000
10
-3.0766393378
20
-1.6855642011
30
0.0000000000
11
-3.1231945278
21
-1.3155921889
31
0.0000000000
11
-3.1203283661
21
-1.4041328856
31
0.0000000000
11
-3.1117484689
21
-1.4949655237
31
0.0000000000
11
-3.0975104804
21
-1.5875010186
31
0.0000000000
11
-3.0777067392
21
-1.6811392422
31
0.0000000000
11
-3.0766393378
21
-1.6855642011
31
0.0000000000
0
SPLINE
5
268
100
AcDbEntity
8
0
100
AcDbSpline
62
0
6
CONTINUOUS
70
0
71
3
72
9
73
5
74
3
42
0.0000001000
43
0.0000001000
44
0.0000000001
12
0.1361734249
22
-0.0883372239
32
0.0000000000
13
0.1479954772
23
-0.0666930803
33
0.0000000000
40
0.0000000000
40
0.0000000000
40
0.0000000000
40
0.0000000000
40
0.5096050739
40
1.0000000000
40
1.0000000000
40
1.0000000000
40
1.0000000000
10
-2.3458514313
20
-2.7789026166
30
0.0000000000
10
-2.3227198752
20
-2.7939083157
30
0.0000000000
10
-2.2763082240
20
-2.8217888724
30
0.0000000000
10
-2.2279127292
20
-2.8460809635
30
0.0000000000
10
-2.2037206522
20
-2.8569829462
30
0.0000000000
11
-2.3458514313
21
-2.7789026166
31
0.0000000000
11
-2.2749014505
21
-2.8213925471
31
0.0000000000
11
-2.2037206522
21
-2.8569829462
31
0.0000000000
0
SPLINE
5
269
100
AcDbEntity
8
0
100
AcDbSpline
62
0
6
CONTINUOUS
70
0
71
3
72
15
73
11
74
9
42
0.0000001000
43
0.0000001000
44
0.0000000001
12
0.4562005672
22
-0.2055834520
32
0.0000000000
13
0.4656110957
23
0.1838744363
33
0.0000000000
40
0.0000000000
40
0.0000000000
40
0.0000000000
40
0.0000000000
40
0.1528168210
40
0.2994900842
40
0.4403338889
40
0.5758631612
40
0.7068009559
40
0.8340732313
40
0.9587860005
40
1.0000000000
40
1.0000000000
40
1.0000000000
40
1.0000000000
10
-2.2037206522
20
-2.8569829462
30
0.0000000000
10
-2.1804822787
20
-2.8674551494
30
0.0000000000
10
-2.1341094313
20
-2.8861508132
30
0.0000000000
10
-2.0637402123
20
-2.9074758561
30
0.0000000000
10
-1.9944546622
20
-2.9213483144
30
0.0000000000
10
-1.9266962429
20
-2.9276601858
30
0.0000000000
10
-1.8609055021
20
-2.9263479703
30
0.0000000000
10
-1.7975204872
20
-2.9173963834
30
0.0000000000
10
-1.7502303029
20
-2.9044680070
30
0.0000000000
10
-1.7242560788
20
-2.8948599959
30
0.0000000000
10
-1.7178595136
20
-2.8923339289
30
0.0000000000
11
-2.2037206522
21
-2.8569829462
31
0.0000000000
11
-2.1327706714
21
-2.8854429966
31
0.0000000000
11
-2.0625116457
21
-2.9065881238
31
0.0000000000
11
-1.9933992321
21
-2.9202811936
31
0.0000000000
11
-1.9258816510
21
-2.9264334012
31
0.0000000000
11
-1.8603967798
21
-2.9250048472
31
0.0000000000
11
-1.7973693131
21
-2.9160047963
31
0.0000000000
11
-1.7372080081
21
-2.8994916172
31
0.0000000000
11
-1.7178595136
21
-2.8923339289
31
0.0000000000
0
SPLINE
5
26A
100
AcDbEntity
8
0
100
AcDbSpline
62
0
6
CONTINUOUS
70
0
71
3
72
8
73
4
74
2
42
0.0000001000
43
0.0000001000
44
0.0000000001
12
0.0382741215
22
0.0151148299
32
0.0000000000
13
0.0368055399
23
0.0184027742
33
0.0000000000
40
0.0000000000
40
0.0000000000
40
0.0000000000
40
0.0000000000
40
1.0000000000
40
1.0000000000
40
1.0000000000
40
1.0000000000
10
-1.7178595136
20
-2.8923339289
30
0.0000000000
10
-1.7051014731
20
-2.8872956523
30
0.0000000000
10
-1.6925625703
20
-2.8817021740
30
0.0000000000
10
-1.6802940570
20
-2.8755679159
30
0.0000000000
11
-1.7178595136
21
-2.8923339289
31
0.0000000000
11
-1.6802940570
21
-2.8755679159
31
0.0000000000
0
SPLINE
5
26B
100
AcDbEntity
8
0
100
AcDbSpline
62
0
6
CONTINUOUS
70
0
71
3
72
53
73
49
74
47
42
0.0000001000
43
0.0000001000
44
0.0000000001
12
0.0000000000
22
6.4119640463
32
0.0000000000
13
-0.0000000000
23
-6.4119640463
33
0.0000000000
40
0.0000000000
40
0.0000000000
40
0.0000000000
40
0.0000000000
40
0.0225680711
40
0.0444828864
40
0.0657012630
40
0.0862480831
40
0.1060939152
40
0.1252902644
40
0.1438460838
40
0.1618239030
40
0.1792895614
40
0.1963110868
40
0.2130081471
40
0.2294627904
40
0.2458214339
40
0.2621832400
40
0.2786885515
40
0.2954487006
40
0.3125660737
40
0.3301533590
40
0.3482656876
40
0.3669970188
40
0.3863640410
40
0.4064253140
40
0.4271775336
40
0.4486288579
40
0.4707759108
40
0.4935740746
40
0.5170233191
40
0.5410435988
40
0.5656248448
40
0.5906764134
40
0.6161604772
40
0.6420021180
40
0.6681195890
40
0.6944671838
40
0.7209308170
40
0.7474782286
40
0.7739897587
40
0.8004238419
40
0.8266844326
40
0.8526977812
40
0.8784105795
40
0.9037222604
40
0.9286097276
40
0.9529727446
40
0.9767941567
40
1.0000000000
40
1.0000000000
40
1.0000000000
40
1.0000000000
10
-4.4180815084
20
-1.0791522027
30
0.0000000000
10
-4.4180815084
20
-1.0309169825
30
0.0000000000
10
-4.4154513673
20
-0.9358171411
30
0.0000000000
10
-4.4032307823
20
-0.7958406168
30
0.0000000000
10
-4.3828384069
20
-0.6611738281
30
0.0000000000
10
-4.3543685530
20
-0.5324965021
30
0.0000000000
10
-4.3179269864
20
-0.4103370939
30
0.0000000000
10
-4.2736843169
20
-0.2953158319
30
0.0000000000
10
-4.2218109860
20
-0.1879300937
30
0.0000000000
10
-4.1625397679
20
-0.0887113938
30
0.0000000000
10
-4.0961267179
20
0.0018586672
30
0.0000000000
10
-4.0228542613
20
0.0833479493
30
0.0000000000
10
-3.9430799149
20
0.1553149331
30
0.0000000000
10
-3.8571396207
20
0.2174188524
30
0.0000000000
10
-3.7654865455
20
0.2693036755
30
0.0000000000
10
-3.6685328033
20
0.3107165091
30
0.0000000000
10
-3.5667866320
20
0.3414316348
30
0.0000000000
10
-3.4607446731
20
0.3612973734
30
0.0000000000
10
-3.3509204179
20
0.3702245898
30
0.0000000000
10
-3.2378766639
20
0.3681762120
30
0.0000000000
10
-3.1221083651
20
0.3551728444
30
0.0000000000
10
-3.0042172802
20
0.3312920140
30
0.0000000000
10
-2.8847014804
20
0.2966446876
30
0.0000000000
10
-2.7641651290
20
0.2514142339
30
0.0000000000
10
-2.6431420060
20
0.1958083889
30
0.0000000000
10
-2.5222061191
20
0.1300992147
30
0.0000000000
10
-2.4019367691
20
0.0546086529
30
0.0000000000
10
-2.2828612580
20
-0.0303223804
30
0.0000000000
10
-2.1655824719
20
-0.1242545963
30
0.0000000000
10
-2.0505897651
20
-0.2267842633
30
0.0000000000
10
-1.9384702275
20
-0.3373756061
30
0.0000000000
10
-1.8296993255
20
-0.4555452751
30
0.0000000000
10
-1.7248061229
20
-0.5807018933
30
0.0000000000
10
-1.6242676953
20
-0.7122587381
30
0.0000000000
10
-1.5285336254
20
-0.8496053443
30
0.0000000000
10
-1.4380678913
20
-0.9920535657
30
0.0000000000
10
-1.3532426192
20
-1.1389917343
30
0.0000000000
10
-1.2744800521
20
-1.2896618591
30
0.0000000000
10
-1.2020976104
20
-1.4434288071
30
0.0000000000
10
-1.1364438077
20
-1.5995224249
30
0.0000000000
10
-1.0777989511
20
-1.7572474897
30
0.0000000000
10
-1.0264234914
20
-1.9158694823
30
0.0000000000
10
-0.9825534354
20
-2.0746277431
30
0.0000000000
10
-0.9463660160
20
-2.2328461994
30
0.0000000000
10
-0.9180351196
20
-2.3897304919
30
0.0000000000
10
-0.8976716457
20
-2.5446393056
30
0.0000000000
10
-0.8853735035
20
-2.6967899866
30
0.0000000000
10
-0.8825476025
20
-2.7973208113
30
0.0000000000
10
-0.8825476025
20
-2.8469191557
30
0.0000000000
11
-4.4180815084
21
-1.0791522027
31
0.0000000000
11
-4.4139600526
21
-0.9345052470
31
0.0000000000
11
-4.4016066857
21
-0.7945323076
31
0.0000000000
11
-4.3810941527
21
-0.6600360699
31
0.0000000000
11
-4.3524825401
21
-0.5314349622
31
0.0000000000
11
-4.3159502187
21
-0.4095409679
31
0.0000000000
11
-4.2716044926
21
-0.2947206991
31
0.0000000000
11
-4.2197006443
21
-0.1876597276
31
0.0000000000
11
-4.1604435963
21
-0.0887835583
31
0.0000000000
11
-4.0940989434
21
0.0014381804
31
0.0000000000
11
-4.0210283965
21
0.0825093978
31
0.0000000000
11
-3.9414681386
21
0.1541488598
31
0.0000000000
11
-3.8559167544
21
0.2158951093
31
0.0000000000
11
-3.7646274596
21
0.2675516055
31
0.0000000000
11
-3.6681586710
21
0.3087845567
31
0.0000000000
11
-3.5668626385
21
0.3394343964
31
0.0000000000
11
-3.4612540478
21
0.3593254363
31
0.0000000000
11
-3.3518698073
21
0.3683511349
31
0.0000000000
11
-3.2391165784
21
0.3664627240
31
0.0000000000
11
-3.1236882601
21
0.3536650344
31
0.0000000000
11
-3.0059404997
21
0.3299883544
31
0.0000000000
11
-2.8866232754
21
0.2955756557
31
0.0000000000
11
-2.7661330853
21
0.2505384820
31
0.0000000000
11
-2.6451575455
21
0.1951259929
31
0.0000000000
11
-2.5242307831
21
0.1295868589
31
0.0000000000
11
-2.4038841197
21
0.0542050638
31
0.0000000000
11
-2.2848037777
21
-0.0305814853
31
0.0000000000
11
-2.1673815314
21
-0.1244902514
31
0.0000000000
11
-2.0523603564
21
-0.2269178740
31
0.0000000000
11
-1.9400900292
21
-0.3375414127
31
0.0000000000
11
-1.8312528333
21
-0.4556785517
31
0.0000000000
11
-1.7262478973
21
-0.5808762813
31
0.0000000000
11
-1.6255983029
21
-0.7124996640
31
0.0000000000
11
-1.5298080449
21
-0.8498623703
31
0.0000000000
11
-1.4392167933
21
-0.9924593252
31
0.0000000000
11
-1.3543684625
21
-1.1394061678
31
0.0000000000
11
-1.2755056937
21
-1.2902566541
31
0.0000000000
11
-1.2031110556
21
-1.4440615595
31
0.0000000000
11
-1.1374112809
21
-1.6003046013
31
0.0000000000
11
-1.0787535269
21
-1.7581391778
31
0.0000000000
11
-1.0273938798
21
-1.9168316831
31
0.0000000000
11
-0.9835269319
21
-2.0757582557
31
0.0000000000
11
-0.9473984534
21
-2.2339835383
31
0.0000000000
11
-0.9191096475
21
-2.3910336460
31
0.0000000000
11
-0.8988315279
21
-2.5459266995
31
0.0000000000
11
-0.8866210418
21
-2.6981798905
31
0.0000000000
11
-0.8825476025
21
-2.8469191557
31
0.0000000000
0
SPLINE
5
26C
100
AcDbEntity
8
0
100
AcDbSpline
62
0
6
CONTINUOUS
70
0
71
3
72
53
73
49
74
47
42
0.0000001000
43
0.0000001000
44
0.0000000001
12
0.0000000000
22
-6.4026688544
32
0.0000000000
13
0.0000000000
23
6.4026688544
33
0.0000000000
40
0.0000000000
40
0.0000000000
40
0.0000000000
40
0.0000000000
40
0.0225968977
40
0.0445305054
40
0.0657561097
40
0.0862973137
40
0.1061237234
40
0.1252862529
40
0.1437938476
40
0.1617095855
40
0.1791005766
40
0.1960369476
40
0.2126410175
40
0.2289983810
40
0.2452591103
40
0.2615264646
40
0.2779444530
40
0.2946277291
40
0.3116812729
40
0.3292194649
40
0.3472984144
40
0.3660121694
40
0.3853769337
40
0.4054502202
40
0.4262272857
40
0.4477145841
40
0.4699068831
40
0.4927575655
40
0.5162647217
40
0.5403463159
40
0.5649905926
40
0.5901051866
40
0.6156508845
40
0.6415515144
40
0.6677243097
40
0.6941228768
40
0.7206325740
40
0.7472210018
40
0.7737684825
40
0.8002338087
40
0.8265214665
40
0.8525585009
40
0.8782926265
40
0.9036244475
40
0.9285322615
40
0.9529172880
40
0.9767639876
40
1.0000000000
40
1.0000000000
40
1.0000000000
40
1.0000000000
10
-0.8825476025
20
-2.8469191557
30
0.0000000000
10
-0.8825476025
20
-2.8951459733
30
0.0000000000
10
-0.8851456240
20
-2.9902090678
30
0.0000000000
10
-0.8972225184
20
-3.1301094426
30
0.0000000000
10
-0.9173781570
20
-3.2646545036
30
0.0000000000
10
-0.9455226324
20
-3.3931672559
30
0.0000000000
10
-0.9815560750
20
-3.5151225208
30
0.0000000000
10
-1.0253157700
20
-3.6299043031
30
0.0000000000
10
-1.0766404535
20
-3.7370199531
30
0.0000000000
10
-1.1353082166
20
-3.8359431449
30
0.0000000000
10
-1.2010750263
20
-3.9261976971
30
0.0000000000
10
-1.2736711310
20
-4.0073566635
30
0.0000000000
10
-1.3527523863
20
-4.0789837840
30
0.0000000000
10
-1.4379954443
20
-4.1407431281
30
0.0000000000
10
-1.5289597727
20
-4.1922840029
30
0.0000000000
10
-1.6252445597
20
-4.2333590367
30
0.0000000000
10
-1.7263528150
20
-4.2637489335
30
0.0000000000
10
-1.8317985486
20
-4.2833087983
30
0.0000000000
10
-1.9410788260
20
-4.2919563586
30
0.0000000000
10
-2.0536411594
20
-4.2896610171
30
0.0000000000
10
-2.1689999400
20
-4.2764488299
30
0.0000000000
10
-2.2865619608
20
-4.2524018581
30
0.0000000000
10
-2.4058358757
20
-4.2176343093
30
0.0000000000
10
-2.5262227620
20
-4.1723317731
30
0.0000000000
10
-2.6471920026
20
-4.1167031365
30
0.0000000000
10
-2.7681708948
20
-4.0510205988
30
0.0000000000
10
-2.8885794156
20
-3.9756053470
30
0.0000000000
10
-3.0078877194
20
-3.8907966370
30
0.0000000000
10
-3.1254883951
20
-3.7970312141
30
0.0000000000
10
-3.2408861094
20
-3.6947095833
30
0.0000000000
10
-3.3534858797
20
-3.5843633966
30
0.0000000000
10
-3.4628033089
20
-3.4664713997
30
0.0000000000
10
-3.5682988446
20
-3.3416196338
30
0.0000000000
10
-3.6694840821
20
-3.2103890703
30
0.0000000000
10
-3.7658973079
20
-3.0733840806
30
0.0000000000
10
-3.8570616098
20
-2.9312863003
30
0.0000000000
10
-3.9425920574
20
-2.7847009969
30
0.0000000000
10
-4.0220529173
20
-2.6343794196
30
0.0000000000
10
-4.0951140712
20
-2.4809503674
30
0.0000000000
10
-4.1614141487
20
-2.3251776136
30
0.0000000000
10
-4.2206609638
20
-2.1677504714
30
0.0000000000
10
-4.2725828859
20
-2.0093979533
30
0.0000000000
10
-4.3169336870
20
-1.8508756772
30
0.0000000000
10
-4.3535273862
20
-1.6928554458
30
0.0000000000
10
-4.3821823880
20
-1.5361278931
30
0.0000000000
10
-4.4027819009
20
-1.3813315011
30
0.0000000000
10
-4.4152234895
20
-1.2292469767
30
0.0000000000
10
-4.4180815084
20
-1.1287430337
30
0.0000000000
10
-4.4180815084
20
-1.0791522027
30
0.0000000000
11
-0.8825476025
21
-2.8469191557
31
0.0000000000
11
-0.8866213274
21
-2.9915422459
31
0.0000000000
11
-0.8988322889
21
-3.1314439826
31
0.0000000000
11
-0.9191105461
21
-3.2658230824
31
0.0000000000
11
-0.9473999402
21
-3.3942630809
31
0.0000000000
11
-0.9835285609
21
-3.5159552249
31
0.0000000000
11
-1.0273958822
21
-3.6305362912
31
0.0000000000
11
-1.0787560053
21
-3.7373254001
31
0.0000000000
11
-1.1374136926
21
-3.8359018891
31
0.0000000000
11
-1.2031143767
21
-3.9258016435
31
0.0000000000
11
-1.2755087978
21
-4.0065347979
31
0.0000000000
11
-1.3543723968
21
-4.0778259304
31
0.0000000000
11
-1.4392206646
21
-4.1392206217
31
0.0000000000
11
-1.5298123046
21
-4.1905282905
31
0.0000000000
11
-1.6256029461
21
-4.2314221682
31
0.0000000000
11
-1.7262523138
21
-4.2617486755
31
0.0000000000
11
-1.8312581329
21
-4.2813383296
31
0.0000000000
11
-1.9400950015
21
-4.2900903422
31
0.0000000000
11
-2.0523660432
21
-4.2879608377
31
0.0000000000
11
-2.1673871055
21
-4.2749595202
31
0.0000000000
11
-2.2848095640
21
-4.2511201892
31
0.0000000000
11
-2.4038901206
21
-4.2165891567
31
0.0000000000
11
-2.5242363984
21
-4.1714800268
31
0.0000000000
11
-2.6451636857
21
-4.1160434115
31
0.0000000000
11
-2.7661387050
21
-4.0505284060
31
0.0000000000
11
-2.8866292858
21
-3.9752185695
31
0.0000000000
11
-3.0059462998
21
-3.8905503564
31
0.0000000000
11
-3.1236938518
21
-3.7968042432
31
0.0000000000
11
-3.2391222875
21
-3.6945802509
31
0.0000000000
11
-3.3518748028
21
-3.5841978062
31
0.0000000000
11
-3.4612593760
21
-3.4663343559
31
0.0000000000
11
-3.5668670818
21
-3.3414380112
31
0.0000000000
11
-3.6681633456
21
-3.2101379632
31
0.0000000000
11
-3.7646317508
21
-3.0731143305
31
0.0000000000
11
-3.8559206566
21
-2.9308662027
31
0.0000000000
11
-3.9414721067
21
-2.7842709197
31
0.0000000000
11
-4.0210315288
21
-2.6337687601
31
0.0000000000
11
-4.0941022964
21
-2.4803019195
31
0.0000000000
11
-4.1604460321
21
-2.3243808581
31
0.0000000000
11
-4.2197031485
21
-2.1668459628
31
0.0000000000
11
-4.2716065165
21
-2.0084253180
31
0.0000000000
11
-4.3159518657
21
-1.8497379461
31
0.0000000000
11
-4.3524840436
21
-1.6917145132
31
0.0000000000
11
-4.3810950616
21
-1.5348255115
31
0.0000000000
11
-4.4016074556
21
-1.3800495951
31
0.0000000000
11
-4.4139603415
21
-1.2278676041
31
0.0000000000
11
-4.4180815084
21
-1.0791522027
31
0.0000000000
0
SPLINE
5
26D
100
AcDbEntity
8
0
100
AcDbSpline
62
0
6
CONTINUOUS
70
0
71
3
72
17
73
13
74
11
42
0.0000001000
43
0.0000001000
44
0.0000000001
12
-0.5322286991
22
0.2667979107
32
0.0000000000
13
-0.0188041149
23
0.5945816583
33
0.0000000000
40
0.0000000000
40
0.0000000000
40
0.0000000000
40
0.0000000000
40
0.0847509916
40
0.1722939118
40
0.2619456023
40
0.3545697669
40
0.4508690015
40
0.5513691670
40
0.6564210980
40
0.7662102156
40
0.8807680264
40
1.0000000000
40
1.0000000000
40
1.0000000000
40
1.0000000000
10
-19.4138330583
20
-7.9261542666
30
0.0000000000
10
-19.4288686950
20
-7.9186171375
30
0.0000000000
10
-19.4583741937
20
-7.9011779738
30
0.0000000000
10
-19.4991653359
20
-7.8687602640
30
0.0000000000
10
-19.5363408405
20
-7.8300720377
30
0.0000000000
10
-19.5693775595
20
-7.7856301158
30
0.0000000000
10
-19.5980531799
20
-7.7357772703
30
0.0000000000
10
-19.6221809401
20
-7.6808846657
30
0.0000000000
10
-19.6416060453
20
-7.6213510885
30
0.0000000000
10
-19.6562040478
20
-7.5576018292
30
0.0000000000
10
-19.6658814311
20
-7.4900940518
30
0.0000000000
10
-19.6689519963
20
-7.4437882718
30
0.0000000000
10
-19.6696993469
20
-7.4201572236
30
0.0000000000
11
-19.4138330583
21
-7.9261542666
31
0.0000000000
11
-19.4572487604
21
-7.9005209046
31
0.0000000000
11
-19.4980608548
21
-7.8681722943
31
0.0000000000
11
-19.5350852140
21
-7.8297862476
31
0.0000000000
11
-19.5680555996
21
-7.7856389741
31
0.0000000000
11
-19.5967347741
21
-7.7360483002
31
0.0000000000
11
-19.6209163042
21
-7.6813715101
31
0.0000000000
11
-19.6404264350
21
-7.6220018849
31
0.0000000000
11
-19.6551249731
21
-7.5583661235
31
0.0000000000
11
-19.6649059445
21
-7.4909236566
31
0.0000000000
11
-19.6696993469
21
-7.4201572236
31
0.0000000000
0
SPLINE
5
26E
100
AcDbEntity
8
0
100
AcDbSpline
62
0
6
CONTINUOUS
70
0
71
3
72
14
73
10
74
8
42
0.0000001000
43
0.0000001000
44
0.0000000001
12
0.0121583591
22
-0.1399718441
32
0.0000000000
13
0.1253585239
23
-0.0627792517
33
0.0000000000
40
0.0000000000
40
0.0000000000
40
0.0000000000
40
0.0000000000
40
0.0260699067
40
0.1620773187
40
0.3049123548
40
0.4582439622
40
0.6245193997
40
0.8050118524
40
1.0000000000
40
1.0000000000
40
1.0000000000
40
1.0000000000
10
-19.7573048431
20
-7.3181529077
30
0.0000000000
10
-19.7571991873
20
-7.3193692587
30
0.0000000000
10
-19.7563745229
20
-7.3269163080
30
0.0000000000
10
-19.7528592642
20
-7.3408481126
30
0.0000000000
10
-19.7438137988
20
-7.3590585129
30
0.0000000000
10
-19.7306923225
20
-7.3763662111
30
0.0000000000
10
-19.7137276360
20
-7.3925635947
30
0.0000000000
10
-19.6931768593
20
-7.4074585581
30
0.0000000000
10
-19.6778471556
20
-7.4160768203
30
0.0000000000
10
-19.6696993468
20
-7.4201572236
30
0.0000000000
11
-19.7573048431
21
-7.3181529077
31
0.0000000000
11
-19.7569068875
21
-7.3217934609
31
0.0000000000
11
-19.7523143030
21
-7.3403003532
31
0.0000000000
11
-19.7435206917
21
-7.3582917676
31
0.0000000000
11
-19.7306514561
21
-7.3755111355
31
0.0000000000
11
-19.7138901195
21
-7.3917128978
31
0.0000000000
11
-19.6934757090
21
-7.4066660074
31
0.0000000000
11
-19.6696993468
21
-7.4201572236
31
0.0000000000
0
SPLINE
5
26F
100
AcDbEntity
8
0
100
AcDbSpline
62
0
6
CONTINUOUS
70
0
71
3
72
14
73
10
74
8
42
0.0000001000
43
0.0000001000
44
0.0000000001
12
-0.0040823602
22
-0.1444076188
32
0.0000000000
13
0.1289179891
23
-0.0643494759
33
0.0000000000
40
0.0000000000
40
0.0000000000
40
0.0000000000
40
0.0000000000
40
0.0818081637
40
0.2041061019
40
0.3352818395
40
0.4789261464
40
0.6371723416
40
0.8108992300
40
1.0000000000
40
1.0000000000
40
1.0000000000
40
1.0000000000
10
-19.7575871607
20
21.0653222702
30
0.0000000000
10
-19.7576984842
20
21.0613843628
30
0.0000000000
10
-19.7571257032
20
21.0515330064
30
0.0000000000
10
-19.7527851944
20
21.0358681885
30
0.0000000000
10
-19.7437013662
20
21.0189467255
30
0.0000000000
10
-19.7305726416
20
21.0026874394
30
0.0000000000
10
-19.7136217524
20
20.9872655357
30
0.0000000000
10
-19.6930931861
20
20.9728582587
30
0.0000000000
10
-19.6778254790
20
20.9643916578
30
0.0000000000
10
-19.6696993153
20
20.9603354793
30
0.0000000000
11
-19.7575871607
21
21.0653222702
31
0.0000000000
11
-19.7569068562
21
21.0535379244
31
0.0000000000
11
-19.7523142698
21
21.0365255308
31
0.0000000000
11
-19.7435206574
21
21.0197952189
31
0.0000000000
11
-19.7306514215
21
21.0035855733
31
0.0000000000
11
-19.7138900852
21
20.9881277536
31
0.0000000000
11
-19.6934756758
21
20.9736421979
31
0.0000000000
11
-19.6696993153
21
20.9603354793
31
0.0000000000
0
SPLINE
5
270
100
AcDbEntity
8
0
100
AcDbSpline
62
0
6
CONTINUOUS
70
0
71
3
72
18
73
14
74
12
42
0.0000001000
43
0.0000001000
44
0.0000000001
12
0.0000000000
22
0.7893393667
32
0.0000000000
13
0.7065058727
23
0.3532530173
33
0.0000000000
40
0.0000000000
40
0.0000000000
40
0.0000000000
40
0.0000000000
40
0.1086002644
40
0.2133701824
40
0.3141906061
40
0.4110364299
40
0.5039888410
40
0.5932469390
40
0.6791370987
40
0.7621175966
40
0.8427752956
40
0.9218111609
40
1.0000000000
40
1.0000000000
40
1.0000000000
40
1.0000000000
10
-3.1231945278
20
-1.3155921889
30
0.0000000000
10
-3.1231945278
20
-1.2870180343
30
0.0000000000
10
-3.1213818012
20
-1.2308561733
30
0.0000000000
10
-3.1129096275
20
-1.1485531033
30
0.0000000000
10
-3.0987802681
20
-1.0701583713
30
0.0000000000
10
-3.0790762781
20
-0.9961792243
30
0.0000000000
10
-3.0539130262
20
-0.9270904429
30
0.0000000000
10
-3.0234379609
20
-0.8633403474
30
0.0000000000
10
-2.9878307686
20
-0.8053484258
30
0.0000000000
10
-2.9473049892
20
-0.7535052252
30
0.0000000000
10
-2.9021112362
20
-0.7081703388
30
0.0000000000
10
-2.8525436189
20
-0.6696696774
30
0.0000000000
10
-2.8167416704
20
-0.6487067528
30
0.0000000000
10
-2.7983280457
20
-0.6394999384
30
0.0000000000
11
-3.1231945278
21
-1.3155921889
31
0.0000000000
11
-3.1203283661
21
-1.2299176540
31
0.0000000000
11
-3.1117484689
21
-1.1476649130
31
0.0000000000
11
-3.0975104804
21
-1.0693674066
31
0.0000000000
11
-3.0777067392
21
-0.9955329242
31
0.0000000000
11
-3.0524656803
21
-0.9266403107
31
0.0000000000
11
-3.0219510016
21
-0.8631363611
31
0.0000000000
11
-2.9863606024
21
-0.8054329230
31
0.0000000000
11
-2.9459253003
21
-0.7539042252
31
0.0000000000
11
-2.9009073336
21
-0.7088844512
31
0.0000000000
11
-2.8515986612
21
-0.6706655714
31
0.0000000000
11
-2.7983280457
21
-0.6394999384
31
0.0000000000
0
SPLINE
5
271
100
AcDbEntity
8
CURVE
100
AcDbSpline
6
CONTINUOUS
70
0
71
3
72
8
73
4
74
2
42
0.0000001000
43
0.0000001000
44
0.0000000001
12
3.6000669181
22
2.5947296469
32
5.5070936223
13
3.6406747928
23
2.6148090940
33
5.4694897778
40
0.0000000000
40
0.0000000000
40
0.0000000000
40
0.0000000000
40
1.0000000000
40
1.0000000000
40
1.0000000000
40
1.0000000000
10
-6.1365216355
20
6.4977902959
30
3.5169136682
10
-4.9364993294
20
7.3627001782
30
5.3526115423
10
-3.7296672617
20
8.2309866965
30
7.1821054492
10
-2.5161089974
20
9.1025897279
30
9.0052687084
11
-6.1365216355
21
6.4977902959
31
3.5169136682
11
-2.5161089974
21
9.1025897279
31
9.0052687084
0
SPLINE
5
272
100
AcDbEntity
8
CURVE
100
AcDbSpline
6
CONTINUOUS
70
0
71
3
72
8
73
4
74
2
42
0.0000001000
43
0.0000001000
44
0.0000000001
12
3.4293125463
22
-6.1498027635
32
0.6532988623
13
3.4719181545
23
-6.1307221832
33
0.6174251058
40
0.0000000000
40
0.0000000000
40
0.0000000000
40
0.0000000000
40
1.0000000000
40
1.0000000000
40
1.0000000000
40
1.0000000000
10
-2.5161089974
20
9.1025897279
30
9.0052687084
10
-1.3730048153
20
7.0526554734
30
9.2230349958
10
-0.2227598751
20
5.0058304510
30
9.4348296565
10
0.9345461764
20
2.9622563899
30
9.6406380251
11
-2.5161089974
21
9.1025897279
31
9.0052687084
11
0.9345461764
21
2.9622563899
31
9.6406380251
0
SPLINE
5
273
100
AcDbEntity
8
CURVE
100
AcDbSpline
6
CONTINUOUS
70
0
71
3
72
8
73
4
74
2
42
0.0000001000
43
0.0000001000
44
0.0000000001
12
-3.6406747928
22
6.0441216403
32
-0.4702537874
13
-3.6000669181
23
6.0666478014
33
-0.5064450210
40
0.0000000000
40
0.0000000000
40
0.0000000000
40
0.0000000000
40
1.0000000000
40
1.0000000000
40
1.0000000000
40
1.0000000000
10
-2.5161089974
20
-12.8944555282
30
-3.6947312916
10
-3.7296672617
20
-10.8797483148
30
-3.8514825541
10
-4.9364993294
20
-8.8612168562
30
-4.0142713248
10
-6.1365216355
20
-6.8390009224
30
-4.1830863318
11
-2.5161089974
21
-12.8944555282
31
-3.6947312916
11
-6.1365216355
21
-6.8390009224
31
-4.1830863318
0
SPLINE
5
274
100
AcDbEntity
8
CURVE
100
AcDbSpline
6
CONTINUOUS
70
0
71
3
72
8
73
4
74
2
42
0.0000001000
43
0.0000001000
44
0.0000000001
12
-3.4719181545
22
-2.5306552651
32
-5.6180737071
13
-3.4293125463
23
-2.5091279708
33
-5.6525348526
40
0.0000000000
40
0.0000000000
40
0.0000000000
40
0.0000000000
40
1.0000000000
40
1.0000000000
40
1.0000000000
40
1.0000000000
10
0.9345461764
20
-10.3745348283
30
1.9406380251
10
-0.2227598751
20
-11.2180865834
30
0.0679467894
10
-1.3730048153
20
-12.0580795380
30
-1.8105530074
10
-2.5161089974
20
-12.8944555282
30
-3.6947312916
11
0.9345461764
21
-10.3745348283
31
1.9406380251
11
-2.5161089974
21
-12.8944555282
31
-3.6947312916
0
ENDSEC
0
SECTION
2
OBJECTS
0
DICTIONARY
5
C
100
AcDbDictionary
280
0
281
1
3
ACAD_GROUP
350
D
3
ACAD_MLINESTYLE
350
17
3
ACAD_LAYOUT
350
1A
3
ACAD_PLOTSETTINGS
350
19
3
ACAD_PLOTSTYLENAME
350
E
0
DICTIONARY
5
D
102
{ACAD_REACTORS
330
C
102
}
100
AcDbDictionary
280
0
281
1
0
ACDBDICTIONARYWDFLT
5
E
102
{ACAD_REACTORS
330
C
102
}
100
AcDbDictionary
281
1
3
Normal
350
F
100
AcDbDictionaryWithDefault
340
F
0
DICTIONARY
5
17
102
{ACAD_REACTORS
330
C
102
}
100
AcDbDictionary
280
0
281
1
3
Standard
350
18
0
DICTIONARY
5
19
102
{ACAD_REACTORS
330
C
102
}
100
AcDbDictionary
281
1
0
DICTIONARY
5
1A
102
{ACAD_REACTORS
330
C
102
}
100
AcDbDictionary
281
1
3
Layout1
350
1E
3
Model
350
22
0
ACDBPLACEHOLDER
5
F
102
{ACAD_REACTORS
330
E
102
}
0
MLINESTYLE
5
18
102
{ACAD_REACTORS
330
17
102
}
100
AcDbMlineStyle
2
STANDARD
70
0
3

62
256
51
90.0
52
90.0
71
2
49
0.5
62
256
6
BYLAYER
49
-0.5
62
256
6
BYLAYER
0
LAYOUT
5
1E
102
{ACAD_REACTORS
330
1A
102
}
100
AcDbPlotSettings
1

2

4

6

40
0.0
41
0.0
42
0.0
43
0.0
44
0.0
45
0.0
46
0.0
47
0.0
48
0.0
49
0.0
140
0.0
141
0.0
142
1.0
143
1.0
70
0
72
0
73
0
74
0
7

75
0
147
1.0
148
0.0
149
0.0
100
AcDbLayout
1
Layout1
70
0
71
0
10
0.0
20
0.0
11
0.0
21
0.0
12
0.0
22
0.0
32
0.0
14
0.0
24
0.0
34
0.0
15
0.0
25
0.0
35
0.0
146
0.0
13
0.0
23
0.0
33
0.0
16
0.0
26
0.0
36
0.0
17
0.0
27
0.0
37
0.0
76
0
330
1B
331
0
345
0
346
0
0
LAYOUT
5
22
102
{ACAD_REACTORS
330
1A
102
}
100
AcDbPlotSettings
1

2

4

6

40
0.0
41
0.0
42
0.0
43
0.0
44
0.0
45
0.0
46
0.0
47
0.0
48
0.0
49
0.0
140
0.0
141
0.0
142
1.0
143
1.0
70
0
72
0
73
0
74
0
7

75
0
147
1.0
148
0.0
149
0.0
100
AcDbLayout
1
Model
70
0
71
0
10
0.0
20
0.0
11
0.0
21
0.0
12
0.0
22
0.0
32
0.0
14
0.0
24
0.0
34
0.0
15
0.0
25
0.0
35
0.0
146
0.0
13
0.0
23
0.0
33
0.0
16
0.0
26
0.0
36
0.0
17
0.0
27
0.0
37
0.0
76
0
330
1F
331
0
345
0
346
0
0
ENDSEC
0
EOF
