  0
SECTION
  2
HEADER
  9
$ACADVER
  1
AC1024
  9
$DWGCODEPAGE
  3
ANSI_1252
  9
$EXTMAX
 10
297.0
 20
210.0
 30
0.0
  9
$EXTMIN
 10
0.0
 20
0.0
 30
0.0
  9
$LIMMIN
 10
0.0
 20
0.0
  9
$LIMMAX
 10
297.0
 20
210.0
  9
$VIEWCTR
 10
148.5
 20
105.0
  9
$VIEWSIZE
 40
210.0
  9
$CLAYER
  8
0
  9
$LTSCALE
 40
16.335
  9
$CELTYPE
  6
BYLAYER
  9
$DIMSCALE
 40
1.0
  9
$DIMASZ
 40
3.0
  9
$DIMEXO
 40
0.5
  9
$DIMDLI
 40
11.286
  9
$DIMEXE
 40
1.5
  9
$DIMCEN
 40
2.673
  9
$DIMLFAC
 40
1.0
  9
$DIMBLK
  1
_FILLED
  9
$DIMALT
 70
0
  9
$DIMALTF
 40
0.0393700787
  9
$DIMTXT
 40
3.0
  9
$DIMTOL
 70
1
  9
$DIMLIM
 70
0
  9
$DIMTFAC
 40
1.0
  9
$DIMTP
 40
0.01
  9
$DIMTM
 40
0.01
  9
$DIMGAP
 40
0.625
  9
$DIMDSEP
 70
44
  9
$AUNITS
 70
0
  9
$PDMODE
 70
3
  9
$PDSIZE
 40
3.0
  9
$HANDSEED
  5
57D
  9
$TILEMODE
 70
1
  9
$MEASUREMENT
 70
1
  9
$INSUNITS
 70
4
  0
ENDSEC
  0
SECTION
  2
CLASSES
  0
CLASS
  1
ACDBDICTIONARYWDFLT
  2
AcDbDictionaryWithDefault
  3
AutoCAD 2000
 90
0
 91
1
280
0
281
0
  0
CLASS
  1
ACDBPLACEHOLDER
  2
AcDbPlaceHolder
  3
AutoCAD 2000
 90
0
 91
1
280
0
281
0
  0
CLASS
  1
LAYOUT
  2
AcDbLayout
  3
AutoCAD 2000
 90
0
 91
0
280
0
281
0
  0
ENDSEC
  0
SECTION
  2
TABLES
  0
TABLE
  2
VPORT
  5
8
100
AcDbSymbolTable
 70
2
  0
VPORT
  5
1F4
100
AcDbSymbolTableRecord
100
AcDbViewportTableRecord
  2
*ACTIVE
 70
0
 10
0.0
 20
0.0
 11
1.0
 21
1.0
 12
148.5
 22
105.0
 13
0.0
 23
0.0
 14
1.0
 24
1.0
 15
0.0
 25
0.0
 16
0.0
 26
0.0
 36
1.0
 17
0.0
 27
0.0
 37
0.0
 40
210.0
 41
1.4142857143
 42
50.0
 43
0.0
 44
0.0
 50
0.0
 51
0.0
 71
0
 72
100
 73
1
 74
1
 75
0
 76
0
 77
0
 78
0
  0
ENDTAB
  0
TABLE
  2
LTYPE
  5
5
100
AcDbSymbolTable
 70
6
  0
LTYPE
  5
14
100
AcDbSymbolTableRecord
100
AcDbLinetypeTableRecord
  2
BYBLOCK
 70
0
  3

 72
65
 73
0
 40
0.0
  0
LTYPE
  5
15
100
AcDbSymbolTableRecord
100
AcDbLinetypeTableRecord
  2
BYLAYER
 70
0
  3

 72
65
 73
0
 40
0.0
  0
LTYPE
  5
16
100
AcDbSymbolTableRecord
100
AcDbLinetypeTableRecord
  2
CONTINUOUS
 70
64
  3
Solid line
 72
65
 73
0
 40
0.0
  0
LTYPE
  5
1F5
100
AcDbSymbolTableRecord
100
AcDbLinetypeTableRecord
  2
CENTER
 70
64
  3
____ _ ____ _ ____ _ ____ _ ____ _ ____ _ ____
 72
65
 73
4
 40
0.6
 49
0.375
 74
0
 49
-0.075
 74
0
 49
0.075
 74
0
 49
-0.075
 74
0
  0
LTYPE
  5
1F6
100
AcDbSymbolTableRecord
100
AcDbLinetypeTableRecord
  2
HIDDEN
 70
64
  3
- - - - - - - - - - - - - - - - - - - -
 72
65
 73
2
 40
0.2
 49
0.1
 74
0
 49
-0.1
 74
0
  0
LTYPE
  5
1F7
100
AcDbSymbolTableRecord
100
AcDbLinetypeTableRecord
  2
PHANTOM
 70
64
  3
_____ _ _ _____ _ _ _____ _ _ _____
 72
65
 73
6
 40
0.8
 49
0.45
 74
0
 49
-0.05
 74
0
 49
0.1
 74
0
 49
-0.05
 74
0
 49
0.1
 74
0
 49
-0.05
 74
0
  0
LTYPE
  5
1F8
100
AcDbSymbolTableRecord
100
AcDbLinetypeTableRecord
  2
DOT
 70
64
  3
. . . . . . . . . . . . . . . . . . . .
 72
65
 73
2
 40
0.2
 49
0.1
 74
0
 49
-0.1
 74
0
  0
LTYPE
  5
1F9
100
AcDbSymbolTableRecord
100
AcDbLinetypeTableRecord
  2
DASHED
 70
64
  3
- - - - - - - - - - - - - - - - - - - -
 72
65
 73
2
 40
0.2
 49
0.1
 74
0
 49
-0.1
 74
0
  0
ENDTAB
  0
TABLE
  2
LAYER
  5
2
100
AcDbSymbolTable
 70
36
  0
LAYER
  5
10
100
AcDbSymbolTableRecord
100
AcDbLayerTableRecord
  2
0
 70
0
 62
7
  6
CONTINUOUS
370
-3
390
F
  0
LAYER
  5
1FA
100
AcDbSymbolTableRecord
100
AcDbLayerTableRecord
  2
DEFAULT_1
 70
0
 62
7
  6
CENTER
370
-3
390
F
  0
LAYER
  5
1FB
100
AcDbSymbolTableRecord
100
AcDbLayerTableRecord
  2
DEFAULT_2
 70
0
 62
7
  6
HIDDEN
370
-3
390
F
  0
LAYER
  5
1FC
100
AcDbSymbolTableRecord
100
AcDbLayerTableRecord
  2
DEFAULT_3
 70
0
 62
7
  6
PHANTOM
370
-3
390
F
  0
LAYER
  5
1FD
100
AcDbSymbolTableRecord
100
AcDbLayerTableRecord
  2
ASSI
 70
0
 62
7
  6
CONTINUOUS
370
-3
390
F
  0
LAYER
  5
1FE
100
AcDbSymbolTableRecord
100
AcDbLayerTableRecord
  2
COORDINATE
 70
0
 62
7
  6
CONTINUOUS
370
-3
390
F
  0
LAYER
  5
1FF
100
AcDbSymbolTableRecord
100
AcDbLayerTableRecord
  2
COORD_ORIGINE
 70
0
 62
7
  6
CONTINUOUS
370
-3
390
F
  0
LAYER
  5
200
100
AcDbSymbolTableRecord
100
AcDbLayerTableRecord
  2
COPY_PUBLISH
 70
0
 62
7
  6
CONTINUOUS
370
-3
390
F
  0
LAYER
  5
201
100
AcDbSymbolTableRecord
100
AcDbLayerTableRecord
  2
COSMETICHE
 70
0
 62
7
  6
CONTINUOUS
370
-3
390
F
  0
LAYER
  5
202
100
AcDbSymbolTableRecord
100
AcDbLayerTableRecord
  2
COSMETICI
 70
0
 62
7
  6
CONTINUOUS
370
-3
390
F
  0
LAYER
  5
203
100
AcDbSymbolTableRecord
100
AcDbLayerTableRecord
  2
CURVE
 70
0
 62
7
  6
CONTINUOUS
370
-3
390
F
  0
LAYER
  5
204
100
AcDbSymbolTableRecord
100
AcDbLayerTableRecord
  2
DRAFT
 70
0
 62
7
  6
CONTINUOUS
370
-3
390
F
  0
LAYER
  5
205
100
AcDbSymbolTableRecord
100
AcDbLayerTableRecord
  2
IGES
 70
0
 62
7
  6
CONTINUOUS
370
-3
390
F
  0
LAYER
  5
206
100
AcDbSymbolTableRecord
100
AcDbLayerTableRecord
  2
IMPORT_IGES
 70
0
 62
7
  6
CONTINUOUS
370
-3
390
F
  0
LAYER
  5
207
100
AcDbSymbolTableRecord
100
AcDbLayerTableRecord
  2
INTF_1
 70
0
 62
7
  6
CONTINUOUS
370
-3
390
F
  0
LAYER
  5
208
100
AcDbSymbolTableRecord
100
AcDbLayerTableRecord
  2
INTF_12
 70
0
 62
7
  6
CONTINUOUS
370
-3
390
F
  0
LAYER
  5
209
100
AcDbSymbolTableRecord
100
AcDbLayerTableRecord
  2
INTF_13
 70
0
 62
7
  6
CONTINUOUS
370
-3
390
F
  0
LAYER
  5
20A
100
AcDbSymbolTableRecord
100
AcDbLayerTableRecord
  2
INTF_2
 70
0
 62
7
  6
CONTINUOUS
370
-3
390
F
  0
LAYER
  5
20B
100
AcDbSymbolTableRecord
100
AcDbLayerTableRecord
  2
NOTE
 70
0
 62
7
  6
CONTINUOUS
370
-3
390
F
  0
LAYER
  5
20C
100
AcDbSymbolTableRecord
100
AcDbLayerTableRecord
  2
PIANI
 70
0
 62
7
  6
CONTINUOUS
370
-3
390
F
  0
LAYER
  5
20D
100
AcDbSymbolTableRecord
100
AcDbLayerTableRecord
  2
PIANI_ORIGINE
 70
0
 62
7
  6
CONTINUOUS
370
-3
390
F
  0
LAYER
  5
20E
100
AcDbSymbolTableRecord
100
AcDbLayerTableRecord
  2
PIANI_SFORMI
 70
0
 62
7
  6
CONTINUOUS
370
-3
390
F
  0
LAYER
  5
20F
100
AcDbSymbolTableRecord
100
AcDbLayerTableRecord
  2
PUNTI
 70
0
 62
7
  6
CONTINUOUS
370
-3
390
F
  0
LAYER
  5
210
100
AcDbSymbolTableRecord
100
AcDbLayerTableRecord
  2
RACCORDO
 70
0
 62
7
  6
CONTINUOUS
370
-3
390
F
  0
LAYER
  5
211
100
AcDbSymbolTableRecord
100
AcDbLayerTableRecord
  2
RGB__255__255__255__
 70
0
 62
7
  6
CONTINUOUS
370
-3
390
F
  0
LAYER
  5
212
100
AcDbSymbolTableRecord
100
AcDbLayerTableRecord
  2
RIFERIMENTI
 70
0
 62
7
  6
CONTINUOUS
370
-3
390
F
  0
LAYER
  5
213
100
AcDbSymbolTableRecord
100
AcDbLayerTableRecord
  2
SIMBOLI
 70
0
 62
7
  6
CONTINUOUS
370
-3
390
F
  0
LAYER
  5
214
100
AcDbSymbolTableRecord
100
AcDbLayerTableRecord
  2
SMUSSO
 70
0
 62
7
  6
CONTINUOUS
370
-3
390
F
  0
LAYER
  5
215
100
AcDbSymbolTableRecord
100
AcDbLayerTableRecord
  2
SNAPLINE
 70
0
 62
7
  6
CONTINUOUS
370
-3
390
F
  0
LAYER
  5
216
100
AcDbSymbolTableRecord
100
AcDbLayerTableRecord
  2
SUPERFICI
 70
0
 62
7
  6
CONTINUOUS
370
-3
390
F
  0
LAYER
  5
217
100
AcDbSymbolTableRecord
100
AcDbLayerTableRecord
  2
TRACCIABILITA
 70
0
 62
7
  6
CONTINUOUS
370
-3
390
F
  0
LAYER
  5
218
100
AcDbSymbolTableRecord
100
AcDbLayerTableRecord
  2
TRASH
 70
0
 62
7
  6
CONTINUOUS
370
-3
390
F
  0
LAYER
  5
219
100
AcDbSymbolTableRecord
100
AcDbLayerTableRecord
  2
XSEC_DATUMS
 70
0
 62
7
  6
CONTINUOUS
370
-3
390
F
  0
ENDTAB
  0
TABLE
  2
STYLE
  5
3
100
AcDbSymbolTable
 70
1
  0
STYLE
  5
11
100
AcDbSymbolTableRecord
100
AcDbTextStyleTableRecord
  2
STANDARD
 70
0
 40
0.0
 41
0.8
 50
0.0
 71
0
 42
0.2
  3
txt
  4

  0
STYLE
  5
21A
100
AcDbSymbolTableRecord
100
AcDbTextStyleTableRecord
  2
TEXTSTYLE_1
 70
0
 40
0.0
 41
0.8
 50
0.0
 71
0
 42
0.2
  3
gdt
  4

  0
ENDTAB
  0
TABLE
  2
VIEW
  5
6
100
AcDbSymbolTable
 70
0
  0
ENDTAB
  0
TABLE
  2
UCS
  5
7
100
AcDbSymbolTable
 70
0
  0
ENDTAB
  0
TABLE
  2
APPID
  5
9
100
AcDbSymbolTable
 70
1
  0
APPID
  5
21B
100
AcDbSymbolTableRecord
100
AcDbRegAppTableRecord
  2
ACAD
 70
0
  0
ENDTAB
  0
TABLE
  2
BLOCK_RECORD
  5
1
100
AcDbSymbolTable
 70
0
  0
BLOCK_RECORD
  5
21C
100
AcDbSymbolTableRecord
100
AcDbBlockTableRecord
  2
*Model_Space
  0
BLOCK_RECORD
  5
21D
100
AcDbSymbolTableRecord
100
AcDbBlockTableRecord
  2
*Paper_Space
  0
BLOCK_RECORD
  5
21E
100
AcDbSymbolTableRecord
100
AcDbBlockTableRecord
  2
_FILLED
  0
ENDTAB
  0
TABLE
  2
DIMSTYLE
  5
A
100
AcDbSymbolTable
 70
1
100
AcDbDimStyleTable
 71
0
  0
DIMSTYLE
105
21F
100
AcDbSymbolTableRecord
100
AcDbDimStyleTableRecord
  2
STANDARD
 70
0
  3

  4

 40
1.0
 41
3.0
 42
0.5
 43
0.38
 44
1.5
 45
0.0
 46
0.0
 47
0.01
 48
0.01
140
3.0
141
0.09
142
0.0
143
25.4
144
1.0
145
0.0
146
1.0
147
0.625
 71
1
 72
0
 73
0
 74
0
 75
0
 76
0
 77
1
 78
8
 79
2
170
0
171
1
172
0
173
0
174
0
175
0
176
0
177
0
178
0
270
2
179
2
271
2
272
2
273
2
274
2
275
0
280
0
281
0
282
0
283
1
284
8
285
0
286
0
287
3
288
0
340
11
278
44
341
21E
342
21E
343
21E
344
21E
  0
ENDTAB
  0
ENDSEC
  0
SECTION
  2
BLOCKS
  0
BLOCK
  5
20
100
AcDbEntity
  8
0
100
AcDbBlockBegin
  2
*Model_Space
 70
0
 10
0.0
 20
0.0
 30
0.0
  3
*Model_Space
  1

  0
ENDBLK
  5
21
100
AcDbEntity
  8
0
100
AcDbBlockEnd
  0
BLOCK
  5
1C
100
AcDbEntity
  8
0
100
AcDbBlockBegin
  2
*Paper_Space
 70
0
 10
0.0
 20
0.0
 30
0.0
  3
*Paper_Space
  1

  0
ENDBLK
  5
1D
100
AcDbEntity
  8
0
100
AcDbBlockEnd
  0
BLOCK
  5
220
100
AcDbEntity
  8
0
100
AcDbBlockBegin
  2
_FILLED
 70
64
 10
0.0
 20
0.0
  3
_FILLED
  1

  0
SOLID
  5
221
100
AcDbEntity
  8
0
  6
BYBLOCK
 62
0
100
AcDbTrace
 10
0.0
 20
0.0
 11
-1.0
 21
0.3166666667
 12
-1.0
 22
-0.3166666667
 13
-1.0
 23
-0.3166666667
  0
ENDBLK
  5
222
100
AcDbEntity
  8
0
  6
BYBLOCK
 62
0
100
AcDbBlockEnd
  0
ENDSEC
  0
SECTION
  2
ENTITIES
  0
LWPOLYLINE
  5
223
100
AcDbEntity
  8
ASSI
100
AcDbPolyline
 62
250
  6
CONTINUOUS
 90
13
 70
0
 10
-7.7802912331
 20
-27.3666207514
 10
-7.7558533829
 20
-27.3819069998
 10
-7.7288479139
 20
-27.395072495
 10
-7.6997317886
 20
-27.4058944623
 10
-7.668997684
 20
-27.4141897821
 10
-7.6371656554
 20
-27.4198180882
 10
-7.6047743359
 20
-27.4226841436
 10
-7.5723718226
 20
-27.4227394514
 10
-7.5405064019
 20
-27.4199830756
 10
-7.509717272
 20
-27.4144616574
 10
-7.4805254193
 20
-27.4062686251
 10
-7.4534248021
 20
-27.3955426139
 10
-7.4288739931
 20
-27.38246512
  0
LWPOLYLINE
  5
224
100
AcDbEntity
  8
RACCORDO
100
AcDbPolyline
 62
250
  6
CONTINUOUS
 90
13
 70
0
 10
-7.7802912331
 20
-27.3666207514
 10
-7.7558533829
 20
-27.3819069998
 10
-7.7288479139
 20
-27.395072495
 10
-7.6997317886
 20
-27.4058944623
 10
-7.668997684
 20
-27.4141897821
 10
-7.6371656554
 20
-27.4198180882
 10
-7.6047743359
 20
-27.4226841436
 10
-7.5723718226
 20
-27.4227394514
 10
-7.5405064019
 20
-27.4199830756
 10
-7.509717272
 20
-27.4144616574
 10
-7.4805254193
 20
-27.4062686251
 10
-7.4534248021
 20
-27.3955426139
 10
-7.4288739931
 20
-27.38246512
  0
LWPOLYLINE
  5
225
100
AcDbEntity
  8
ASSI
100
AcDbPolyline
 62
7
  6
CONTINUOUS
 90
12
 70
0
 10
-7.6512479263
 20
-27.7441158321
 10
-7.6225584023
 20
-27.7627315398
 10
-7.5740322397
 20
-27.7877031769
 10
-7.5221209285
 20
-27.8068534656
 10
-7.4673975786
 20
-27.819899079
 10
-7.410273761
 20
-27.8266768955
 10
-7.351463786
 20
-27.8270763169
 10
-7.2913500576
 20
-27.8211546475
 10
-7.2300601758
 20
-27.8089663596
 10
-7.1677017105
 20
-27.7905036712
 10
-7.1043599983
 20
-27.7657282168
 10
-7.035586512
 20
-27.7321807529
  0
LWPOLYLINE
  5
226
100
AcDbEntity
  8
RACCORDO
100
AcDbPolyline
 62
7
  6
CONTINUOUS
 90
12
 70
0
 10
-7.6512479263
 20
-27.7441158321
 10
-7.6225584023
 20
-27.7627315398
 10
-7.5740322397
 20
-27.7877031769
 10
-7.5221209285
 20
-27.8068534656
 10
-7.4673975786
 20
-27.819899079
 10
-7.410273761
 20
-27.8266768955
 10
-7.351463786
 20
-27.8270763169
 10
-7.2913500576
 20
-27.8211546475
 10
-7.2300601758
 20
-27.8089663596
 10
-7.1677017105
 20
-27.7905036712
 10
-7.1043599983
 20
-27.7657282168
 10
-7.035586512
 20
-27.7321807529
  0
LINE
  5
227
100
AcDbEntity
  8
ASSI
100
AcDbLine
 62
7
  6
CONTINUOUS
 10
-7.6513282917
 20
-27.7440655455
 11
-7.6517275012
 21
-27.7437838377
  0
LINE
  5
228
100
AcDbEntity
  8
RACCORDO
100
AcDbLine
 62
7
  6
CONTINUOUS
 10
-7.6513282917
 20
-27.7440655455
 11
-7.6517275012
 21
-27.7437838377
  0
LINE
  5
229
100
AcDbEntity
  8
ASSI
100
AcDbLine
 62
7
  6
CONTINUOUS
 10
-22.4603725412
 20
-17.2724905097
 11
-7.651728163
 21
-27.7437833697
  0
LINE
  5
22A
100
AcDbEntity
  8
RACCORDO
100
AcDbLine
 62
7
  6
CONTINUOUS
 10
-22.4603725412
 20
-17.2724905097
 11
-7.651728163
 21
-27.7437833697
  0
LINE
  5
22B
100
AcDbEntity
  8
ASSI
100
AcDbLine
 62
250
  6
CONTINUOUS
 10
-22.586535684
 20
-16.8970248787
 11
-7.7802912339
 21
-27.3666207333
  0
LINE
  5
22C
100
AcDbEntity
  8
RACCORDO
100
AcDbLine
 62
250
  6
CONTINUOUS
 10
-22.586535684
 20
-16.8970248787
 11
-7.7802912339
 21
-27.3666207333
  0
LWPOLYLINE
  5
22D
100
AcDbEntity
  8
ASSI
100
AcDbPolyline
 62
250
  6
CONTINUOUS
 90
10
 70
0
 10
-7.6517275012
 20
-27.7437838377
 10
-7.6649393738
 20
-27.7337793936
 10
-7.6954359201
 20
-27.7046467118
 10
-7.7216198995
 20
-27.6701652416
 10
-7.7433114608
 20
-27.6305725002
 10
-7.7603627574
 20
-27.5861405338
 10
-7.772654039
 20
-27.5371774637
 10
-7.780100263
 20
-27.4840213933
 10
-7.78265172
 20
-27.4270381245
 10
-7.7802912339
 20
-27.3666207333
  0
LWPOLYLINE
  5
22E
100
AcDbEntity
  8
RACCORDO
100
AcDbPolyline
 62
250
  6
CONTINUOUS
 90
10
 70
0
 10
-7.6517275012
 20
-27.7437838377
 10
-7.6649393738
 20
-27.7337793936
 10
-7.6954359201
 20
-27.7046467118
 10
-7.7216198995
 20
-27.6701652416
 10
-7.7433114608
 20
-27.6305725002
 10
-7.7603627574
 20
-27.5861405338
 10
-7.772654039
 20
-27.5371774637
 10
-7.780100263
 20
-27.4840213933
 10
-7.78265172
 20
-27.4270381245
 10
-7.7802912339
 20
-27.3666207333
  0
LINE
  5
22F
100
AcDbEntity
  8
ASSI
100
AcDbLine
 62
250
  6
CONTINUOUS
 10
-22.4733832741
 20
-17.2626282928
 11
-22.4603725412
 21
-17.2724905097
  0
LINE
  5
230
100
AcDbEntity
  8
RACCORDO
100
AcDbLine
 62
250
  6
CONTINUOUS
 10
-22.4733832741
 20
-17.2626282928
 11
-22.4603725412
 21
-17.2724905097
  0
LWPOLYLINE
  5
231
100
AcDbEntity
  8
ASSI
100
AcDbPolyline
 62
250
  6
CONTINUOUS
 90
8
 70
0
 10
-22.5865196406
 20
-16.8970148712
 10
-22.6079741574
 20
-16.8798505638
 10
-22.6260848717
 20
-16.8611147806
 10
-22.6405453592
 20
-16.8411245223
 10
-22.6511109553
 20
-16.8202180144
 10
-22.6576028952
 20
-16.7987489849
 10
-22.6599113386
 20
-16.7770806786
 10
-22.6595947148
 20
-16.7674680852
  0
LWPOLYLINE
  5
232
100
AcDbEntity
  8
RACCORDO
100
AcDbPolyline
 62
250
  6
CONTINUOUS
 90
8
 70
0
 10
-22.5865196406
 20
-16.8970148712
 10
-22.6079741574
 20
-16.8798505638
 10
-22.6260848717
 20
-16.8611147806
 10
-22.6405453592
 20
-16.8411245223
 10
-22.6511109553
 20
-16.8202180144
 10
-22.6576028952
 20
-16.7987489849
 10
-22.6599113386
 20
-16.7770806786
 10
-22.6595947148
 20
-16.7674680852
  0
LWPOLYLINE
  5
233
100
AcDbEntity
  8
ASSI
100
AcDbPolyline
 62
250
  6
CONTINUOUS
 90
16
 70
0
 10
-7.1061297625
 20
-27.6899155766
 10
-7.1461366256
 20
-27.6986316283
 10
-7.1847846923
 20
-27.7030207912
 10
-7.2211926661
 20
-27.7029411775
 10
-7.2552884314
 20
-27.698283436
 10
-7.2871441037
 20
-27.689156918
 10
-7.3160947338
 20
-27.6757477899
 10
-7.3420764727
 20
-27.657964063
 10
-7.3651531693
 20
-27.6358977261
 10
-7.3848514208
 20
-27.6100109114
 10
-7.4010976035
 20
-27.5801954087
 10
-7.4139653412
 20
-27.5465594281
 10
-7.4232021022
 20
-27.5098897327
 10
-7.4287237092
 20
-27.4704485767
 10
-7.4306143395
 20
-27.4279737058
 10
-7.4288739931
 20
-27.38246512
  0
LWPOLYLINE
  5
234
100
AcDbEntity
  8
RACCORDO
100
AcDbPolyline
 62
250
  6
CONTINUOUS
 90
16
 70
0
 10
-7.1061297625
 20
-27.6899155766
 10
-7.1461366256
 20
-27.6986316283
 10
-7.1847846923
 20
-27.7030207912
 10
-7.2211926661
 20
-27.7029411775
 10
-7.2552884314
 20
-27.698283436
 10
-7.2871441037
 20
-27.689156918
 10
-7.3160947338
 20
-27.6757477899
 10
-7.3420764727
 20
-27.657964063
 10
-7.3651531693
 20
-27.6358977261
 10
-7.3848514208
 20
-27.6100109114
 10
-7.4010976035
 20
-27.5801954087
 10
-7.4139653412
 20
-27.5465594281
 10
-7.4232021022
 20
-27.5098897327
 10
-7.4287237092
 20
-27.4704485767
 10
-7.4306143395
 20
-27.4279737058
 10
-7.4288739931
 20
-27.38246512
  0
LINE
  5
235
100
AcDbEntity
  8
RACCORDO
100
AcDbLine
 62
7
  6
CONTINUOUS
 10
-2.3390823291
 20
-28.111736295
 11
-4.67271602
 21
-26.4616080873
  0
LWPOLYLINE
  5
236
100
AcDbEntity
  8
ASSI
100
AcDbPolyline
 62
250
  6
CONTINUOUS
 90
9
 70
0
 10
-22.586535684
 20
-16.8970248787
 10
-22.5889608724
 20
-16.9573965185
 10
-22.5865350887
 20
-17.0142909228
 10
-22.5792755091
 20
-17.0673150158
 10
-22.5672339654
 20
-17.1161014945
 10
-22.5504933778
 20
-17.1603137564
 10
-22.529167129
 20
-17.1996481829
 10
-22.5034041833
 20
-17.2338319373
 10
-22.4733832741
 20
-17.2626282928
  0
LWPOLYLINE
  5
237
100
AcDbEntity
  8
RACCORDO
100
AcDbPolyline
 62
250
  6
CONTINUOUS
 90
9
 70
0
 10
-22.586535684
 20
-16.8970248787
 10
-22.5889608724
 20
-16.9573965185
 10
-22.5865350887
 20
-17.0142909228
 10
-22.5792755091
 20
-17.0673150158
 10
-22.5672339654
 20
-17.1161014945
 10
-22.5504933778
 20
-17.1603137564
 10
-22.529167129
 20
-17.1996481829
 10
-22.5034041833
 20
-17.2338319373
 10
-22.4733832741
 20
-17.2626282928
  0
LWPOLYLINE
  5
238
100
AcDbEntity
  8
ASSI
100
AcDbPolyline
 62
7
  6
CONTINUOUS
 90
12
 70
0
 10
-22.659573733
 20
-16.7673814217
 10
-22.6621434847
 20
-16.8269656709
 10
-22.6601966257
 20
-16.8870707715
 10
-22.6534802466
 20
-16.9447231528
 10
-22.6419788836
 20
-16.9997591879
 10
-22.625759634
 20
-17.0518668805
 10
-22.6048345334
 20
-17.1009432142
 10
-22.5793106626
 20
-17.1466255316
 10
-22.5496972361
 20
-17.188153435
 10
-22.5165340274
 20
-17.2251595886
 10
-22.4801564715
 20
-17.2576222015
 10
-22.4596122782
 20
-17.273019984
  0
LWPOLYLINE
  5
239
100
AcDbEntity
  8
RACCORDO
100
AcDbPolyline
 62
7
  6
CONTINUOUS
 90
12
 70
0
 10
-22.659573733
 20
-16.7673814217
 10
-22.6621434847
 20
-16.8269656709
 10
-22.6601966257
 20
-16.8870707715
 10
-22.6534802466
 20
-16.9447231528
 10
-22.6419788836
 20
-16.9997591879
 10
-22.625759634
 20
-17.0518668805
 10
-22.6048345334
 20
-17.1009432142
 10
-22.5793106626
 20
-17.1466255316
 10
-22.5496972361
 20
-17.188153435
 10
-22.5165340274
 20
-17.2251595886
 10
-22.4801564715
 20
-17.2576222015
 10
-22.4596122782
 20
-17.273019984
  0
LINE
  5
23A
100
AcDbEntity
  8
RACCORDO
100
AcDbLine
 62
7
  6
CONTINUOUS
 10
-17.3611032534
 20
14.0683742472
 11
-13.6788530654
 21
16.8300459216
  0
LINE
  5
23B
100
AcDbEntity
  8
RACCORDO
100
AcDbLine
 62
250
  6
CONTINUOUS
 10
-17.2153716946
 20
14.042055026
 11
-13.5331215066
 21
16.8037267004
  0
LINE
  5
23C
100
AcDbEntity
  8
DRAFT
100
AcDbLine
 62
7
  6
CONTINUOUS
 10
-2.7197242607
 20
-25.4114256352
 11
-2.1623325577
 21
-25.8055610881
  0
LWPOLYLINE
  5
23D
100
AcDbEntity
  8
ASSI
100
AcDbPolyline
 62
250
  6
CONTINUOUS
 90
10
 70
0
 10
-19.7486816189
 20
8.3851021651
 10
-20.1528101804
 20
5.5239077441
 10
-20.534797111
 20
2.6752342444
 10
-20.8946136438
 20
-0.1607041539
 10
-21.2322326944
 20
-2.9836942104
 10
-21.5476288614
 20
-5.7935236628
 10
-21.8407784271
 20
-8.5899812426
 10
-22.1116593629
 20
-11.372856661
 10
-22.3602513311
 20
-14.1419406258
 10
-22.586535684
 20
-16.8970248787
  0
LWPOLYLINE
  5
23E
100
AcDbEntity
  8
RACCORDO
100
AcDbPolyline
 62
250
  6
CONTINUOUS
 90
10
 70
0
 10
-19.7486816189
 20
8.3851021651
 10
-20.1528101804
 20
5.5239077441
 10
-20.534797111
 20
2.6752342444
 10
-20.8946136438
 20
-0.1607041539
 10
-21.2322326944
 20
-2.9836942104
 10
-21.5476288614
 20
-5.7935236628
 10
-21.8407784271
 20
-8.5899812426
 10
-22.1116593629
 20
-11.372856661
 10
-22.3602513311
 20
-14.1419406258
 10
-22.586535684
 20
-16.8970248787
  0
LWPOLYLINE
  5
23F
100
AcDbEntity
  8
ASSI
100
AcDbPolyline
 62
7
  6
CONTINUOUS
 90
10
 70
0
 10
-19.8215921341
 20
8.5161015156
 10
-20.2189540775
 20
5.7040273822
 10
-20.6030633539
 20
2.8418052103
 10
-20.9647998159
 20
-0.0075982443
 10
-21.3041308071
 20
-2.8439375199
 10
-21.6210323856
 20
-5.667010139
 10
-21.9154831906
 20
-8.4766299747
 10
-22.1874608817
 20
-11.2725955383
 10
-22.436942737
 20
-14.0546672995
 10
-22.6595947148
 20
-16.7674680852
  0
LWPOLYLINE
  5
240
100
AcDbEntity
  8
RACCORDO
100
AcDbPolyline
 62
7
  6
CONTINUOUS
 90
10
 70
0
 10
-19.8215921341
 20
8.5161015156
 10
-20.2189540775
 20
5.7040273822
 10
-20.6030633539
 20
2.8418052103
 10
-20.9647998159
 20
-0.0075982443
 10
-21.3041308071
 20
-2.8439375199
 10
-21.6210323856
 20
-5.667010139
 10
-21.9154831906
 20
-8.4766299747
 10
-22.1874608817
 20
-11.2725955383
 10
-22.436942737
 20
-14.0546672995
 10
-22.6595947148
 20
-16.7674680852
  0
LWPOLYLINE
  5
241
100
AcDbEntity
  8
ASSI
100
AcDbPolyline
 62
250
  6
CONTINUOUS
 90
15
 70
0
 10
-19.2332370423
 20
9.3246932503
 10
-19.2885652987
 20
9.2679709668
 10
-19.3423113552
 20
9.2078669458
 10
-19.3941040183
 20
9.1447893276
 10
-19.4435946299
 20
9.0791633192
 10
-19.4904582621
 20
9.0114271664
 10
-19.5343798738
 20
8.942029897
 10
-19.5750519621
 20
8.871448979
 10
-19.6121920639
 20
8.8001822782
 10
-19.6455446197
 20
8.7287220397
 10
-19.6748878204
 20
8.6575429749
 10
-19.7000293197
 20
8.5871193544
 10
-19.7207993397
 20
8.5179258861
 10
-19.7370537713
 20
8.4504342453
 10
-19.7486816189
 20
8.3851021651
  0
LWPOLYLINE
  5
242
100
AcDbEntity
  8
RACCORDO
100
AcDbPolyline
 62
250
  6
CONTINUOUS
 90
15
 70
0
 10
-19.2332370423
 20
9.3246932503
 10
-19.2885652987
 20
9.2679709668
 10
-19.3423113552
 20
9.2078669458
 10
-19.3941040183
 20
9.1447893276
 10
-19.4435946299
 20
9.0791633192
 10
-19.4904582621
 20
9.0114271664
 10
-19.5343798738
 20
8.942029897
 10
-19.5750519621
 20
8.871448979
 10
-19.6121920639
 20
8.8001822782
 10
-19.6455446197
 20
8.7287220397
 10
-19.6748878204
 20
8.6575429749
 10
-19.7000293197
 20
8.5871193544
 10
-19.7207993397
 20
8.5179258861
 10
-19.7370537713
 20
8.4504342453
 10
-19.7486816189
 20
8.3851021651
  0
LWPOLYLINE
  5
243
100
AcDbEntity
  8
ASSI
100
AcDbPolyline
 62
7
  6
CONTINUOUS
 90
15
 70
0
 10
-19.3128999775
 20
9.4113880951
 10
-19.3730644293
 20
9.3543336594
 10
-19.4281312328
 20
9.29641983
 10
-19.4810899203
 20
9.2349875876
 10
-19.5316036559
 20
9.1704366212
 10
-19.5792548746
 20
9.1032981797
 10
-19.6237551223
 20
9.0339244728
 10
-19.6647990336
 20
8.9627466189
 10
-19.7019657731
 20
8.8904121259
 10
-19.734972159
 20
8.8173209238
 10
-19.7635781094
 20
8.7438426723
 10
-19.7874895843
 20
8.6704450221
 10
-19.806451322
 20
8.5974332945
 10
-19.820228434
 20
8.5251171002
 10
-19.8216135643
 20
8.5158569027
  0
LWPOLYLINE
  5
244
100
AcDbEntity
  8
RACCORDO
100
AcDbPolyline
 62
7
  6
CONTINUOUS
 90
15
 70
0
 10
-19.3128999775
 20
9.4113880951
 10
-19.3730644293
 20
9.3543336594
 10
-19.4281312328
 20
9.29641983
 10
-19.4810899203
 20
9.2349875876
 10
-19.5316036559
 20
9.1704366212
 10
-19.5792548746
 20
9.1032981797
 10
-19.6237551223
 20
9.0339244728
 10
-19.6647990336
 20
8.9627466189
 10
-19.7019657731
 20
8.8904121259
 10
-19.734972159
 20
8.8173209238
 10
-19.7635781094
 20
8.7438426723
 10
-19.7874895843
 20
8.6704450221
 10
-19.806451322
 20
8.5974332945
 10
-19.820228434
 20
8.5251171002
 10
-19.8216135643
 20
8.5158569027
  0
LINE
  5
245
100
AcDbEntity
  8
ASSI
100
AcDbLine
 62
250
  6
CONTINUOUS
 10
-19.1767042201
 20
9.3776503038
 11
-19.2332370423
 21
9.3246932503
  0
LINE
  5
246
100
AcDbEntity
  8
RACCORDO
100
AcDbLine
 62
250
  6
CONTINUOUS
 10
-19.1767042201
 20
9.3776503038
 11
-19.2332370423
 21
9.3246932503
  0
LINE
  5
247
100
AcDbEntity
  8
ASSI
100
AcDbLine
 62
7
  6
CONTINUOUS
 10
-17.0407684885
 20
11.4495666412
 11
-19.3129426312
 21
9.4113635864
  0
LINE
  5
248
100
AcDbEntity
  8
RACCORDO
100
AcDbLine
 62
7
  6
CONTINUOUS
 10
-17.0407684885
 20
11.4495666412
 11
-19.3129426312
 21
9.4113635864
  0
LINE
  5
249
100
AcDbEntity
  8
ASSI
100
AcDbLine
 62
250
  6
CONTINUOUS
 10
-16.9199606523
 20
11.4020117061
 11
-19.1767042201
 21
9.3776503038
  0
LINE
  5
24A
100
AcDbEntity
  8
RACCORDO
100
AcDbLine
 62
250
  6
CONTINUOUS
 10
-16.9199606523
 20
11.4020117061
 11
-19.1767042201
 21
9.3776503038
  0
LINE
  5
24B
100
AcDbEntity
  8
ASSI
100
AcDbLine
 62
7
  6
CONTINUOUS
 10
-17.0407550555
 20
11.4495751034
 11
-17.0323528394
 21
11.4558436525
  0
LINE
  5
24C
100
AcDbEntity
  8
RACCORDO
100
AcDbLine
 62
7
  6
CONTINUOUS
 10
-17.0407550555
 20
11.4495751034
 11
-17.0323528394
 21
11.4558436525
  0
LINE
  5
24D
100
AcDbEntity
  8
RACCORDO
100
AcDbLine
 62
7
  6
CONTINUOUS
 10
-11.6689618581
 20
16.0345533152
 11
-11.6592616125
 21
16.041621669
  0
LINE
  5
24E
100
AcDbEntity
  8
DRAFT
100
AcDbLine
 62
7
  6
CONTINUOUS
 10
-12.2561022373
 20
15.9007377154
 11
-12.1813900679
 21
15.9537415987
  0
LINE
  5
24F
100
AcDbEntity
  8
0
100
AcDbLine
 62
7
  6
CONTINUOUS
 10
-9.5650949775
 20
16.8281842343
 11
-9.2015268449
 21
17.0852657263
  0
LINE
  5
250
100
AcDbEntity
  8
RACCORDO
100
AcDbLine
 62
7
  6
CONTINUOUS
 10
-11.0876238246
 20
15.6374127128
 11
-9.8886751236
 21
16.4785703174
  0
LINE
  5
251
100
AcDbEntity
  8
RACCORDO
100
AcDbLine
 62
7
  6
CONTINUOUS
 10
-8.7316378462
 20
17.2903237343
 11
-3.6858200661
 21
20.8303651003
  0
LINE
  5
252
100
AcDbEntity
  8
RACCORDO
100
AcDbLine
 62
7
  6
CONTINUOUS
 10
-10.6964658274
 20
16.3886658392
 11
-4.6638393819
 21
20.6160079605
  0
LWPOLYLINE
  5
253
100
AcDbEntity
  8
0
100
AcDbPolyline
 62
7
  6
CONTINUOUS
 90
10
 70
0
 10
-9.2015268449
 20
17.0852657263
 10
-9.1842175436
 20
17.0972006693
 10
-9.166971227
 20
17.1084918155
 10
-9.1497878952
 20
17.1191391649
 10
-9.1326467833
 20
17.1291541117
 10
-9.1155686561
 20
17.1385252616
 10
-9.0986158084
 20
17.1472184322
 10
-9.0818090049
 20
17.1552222294
 10
-9.0651274809
 20
17.1625480473
 10
-9.0485712363
 20
17.1691958858
  0
LINE
  5
254
100
AcDbEntity
  8
RACCORDO
100
AcDbLine
 62
7
  6
CONTINUOUS
 10
-4.1953331781
 20
20.8759415793
 11
0.7282676204
 21
24.2546175296
  0
LINE
  5
255
100
AcDbEntity
  8
ASSI
100
AcDbLine
 62
7
  6
CONTINUOUS
 10
-4.1953331781
 20
20.8759415793
 11
0.7282676204
 21
24.2546175296
  0
LINE
  5
256
100
AcDbEntity
  8
RACCORDO
100
AcDbLine
 62
250
  6
CONTINUOUS
 10
-3.5335267704
 20
21.0772880461
 11
1.0142590361
 21
24.1980720333
  0
LINE
  5
257
100
AcDbEntity
  8
ASSI
100
AcDbLine
 62
250
  6
CONTINUOUS
 10
-3.5335267704
 20
21.0772880461
 11
1.0142590361
 21
24.1980720333
  0
LINE
  5
258
100
AcDbEntity
  8
DRAFT
100
AcDbLine
 62
7
  6
CONTINUOUS
 10
-11.1914405742
 20
16.2436910923
 11
-4.7814673122
 21
20.6000721785
  0
LINE
  5
259
100
AcDbEntity
  8
ASSI
100
AcDbLine
 62
7
  6
CONTINUOUS
 10
-11.1914405742
 20
16.2436910923
 11
-4.7814673122
 21
20.6000721785
  0
LINE
  5
25A
100
AcDbEntity
  8
DRAFT
100
AcDbLine
 62
7
  6
CONTINUOUS
 10
-5.7618915907
 20
20.3129125558
 11
-12.1813900679
 21
15.9537415987
  0
LINE
  5
25B
100
AcDbEntity
  8
ASSI
100
AcDbLine
 62
7
  6
CONTINUOUS
 10
-5.7618915907
 20
20.3129125558
 11
-12.1813900679
 21
15.9537415987
  0
LWPOLYLINE
  5
25C
100
AcDbEntity
  8
RACCORDO
100
AcDbPolyline
 62
250
  6
CONTINUOUS
 90
10
 70
0
 10
1.0142590361
 20
24.1980720333
 10
1.0511078645
 20
24.2218790176
 10
1.0875212874
 20
24.2415479442
 10
1.1231022835
 20
24.256864359
 10
1.1574672007
 20
24.267662348
 10
1.190236652
 20
24.2738219105
 10
1.2210418695
 20
24.2752762171
 10
1.2495425638
 20
24.2720162669
 10
1.275439536
 20
24.2640839094
 10
1.2998488745
 20
24.2505987615
  0
LWPOLYLINE
  5
25D
100
AcDbEntity
  8
ASSI
100
AcDbPolyline
 62
250
  6
CONTINUOUS
 90
10
 70
0
 10
1.0142590361
 20
24.1980720333
 10
1.0511078645
 20
24.2218790176
 10
1.0875212874
 20
24.2415479442
 10
1.1231022835
 20
24.256864359
 10
1.1574672007
 20
24.267662348
 10
1.190236652
 20
24.2738219105
 10
1.2210418695
 20
24.2752762171
 10
1.2495425638
 20
24.2720162669
 10
1.275439536
 20
24.2640839094
 10
1.2998488745
 20
24.2505987615
  0
LINE
  5
25E
100
AcDbEntity
  8
0
100
AcDbLine
 62
7
  6
CONTINUOUS
 10
-9.0485712363
 20
17.1691958858
 11
-4.4032154748
 21
18.9445908629
  0
LINE
  5
25F
100
AcDbEntity
  8
RACCORDO
100
AcDbLine
 62
7
  6
CONTINUOUS
 10
-2.8336809385
 20
20.0048834685
 11
-4.5788877566
 21
19.3734776166
  0
LINE
  5
260
100
AcDbEntity
  8
RACCORDO
100
AcDbLine
 62
7
  6
CONTINUOUS
 10
-3.9579688864
 20
20.9669488134
 11
-3.6850591666
 21
21.0468822196
  0
LINE
  5
261
100
AcDbEntity
  8
DRAFT
100
AcDbLine
 62
7
  6
CONTINUOUS
 10
-5.7618915907
 20
20.3129125558
 11
-4.7814673122
 21
20.6000721785
  0
LINE
  5
262
100
AcDbEntity
  8
ASSI
100
AcDbLine
 62
7
  6
CONTINUOUS
 10
-5.7618915907
 20
20.3129125558
 11
-4.7814673122
 21
20.6000721785
  0
LINE
  5
263
100
AcDbEntity
  8
RACCORDO
100
AcDbLine
 62
7
  6
CONTINUOUS
 10
-17.3921214659
 20
11.7358798192
 11
-17.3921214659
 21
13.9902862166
  0
LINE
  5
264
100
AcDbEntity
  8
RACCORDO
100
AcDbLine
 62
7
  6
CONTINUOUS
 10
-4.5788877566
 20
19.3734776166
 11
-3.1243647737
 21
20.4333562557
  0
LINE
  5
265
100
AcDbEntity
  8
RACCORDO
100
AcDbLine
 62
7
  6
CONTINUOUS
 10
-9.5046519269
 20
15.3783377621
 11
-10.5261115499
 21
14.6633153174
  0
LINE
  5
266
100
AcDbEntity
  8
RACCORDO
100
AcDbLine
 62
7
  6
CONTINUOUS
 10
-10.5261115499
 20
15.2264361124
 11
-9.8956251533
 21
15.6547975818
  0
LINE
  5
267
100
AcDbEntity
  8
RACCORDO
100
AcDbLine
 62
7
  6
CONTINUOUS
 10
-5.889715856
 20
18.3764696154
 11
-4.5446368311
 21
19.2903355304
  0
LINE
  5
268
100
AcDbEntity
  8
RACCORDO
100
AcDbLine
 62
7
  6
CONTINUOUS
 10
-17.0129378342
 20
11.4677565019
 11
-17.0175232912
 21
11.4649429122
  0
LWPOLYLINE
  5
269
100
AcDbEntity
  8
ASSI
100
AcDbPolyline
 62
7
  6
CONTINUOUS
 90
3
 70
0
 10
-17.0323528394
 20
11.4558436525
 10
-17.0174961306
 20
11.4624059182
 10
-17.0077246343
 20
11.4640702129
  0
LWPOLYLINE
  5
26A
100
AcDbEntity
  8
RACCORDO
100
AcDbPolyline
 62
7
  6
CONTINUOUS
 90
3
 70
0
 10
-17.0323528394
 20
11.4558436525
 10
-17.0174961306
 20
11.4624059182
 10
-17.0077246343
 20
11.4640702129
  0
LINE
  5
26B
100
AcDbEntity
  8
RACCORDO
100
AcDbLine
 62
7
  6
CONTINUOUS
 10
-7.6628283221
 20
16.5434383115
 11
-5.7125826374
 21
17.2887970247
  0
LINE
  5
26C
100
AcDbEntity
  8
RACCORDO
100
AcDbLine
 62
7
  6
CONTINUOUS
 10
-7.5243085604
 20
16.2989803479
 11
-5.7999858423
 21
16.957994221
  0
LINE
  5
26D
100
AcDbEntity
  8
RACCORDO
100
AcDbLine
 62
7
  6
CONTINUOUS
 10
-1.3427758
 20
18.3811954521
 11
-2.6777255148
 21
17.8709949121
  0
LINE
  5
26E
100
AcDbEntity
  8
ASSI
100
AcDbLine
 62
7
  6
CONTINUOUS
 10
-1.497479122
 20
18.7385435453
 11
-3.0040584102
 21
18.2160385798
  0
LWPOLYLINE
  5
26F
100
AcDbEntity
  8
RACCORDO
100
AcDbPolyline
 62
7
  6
CONTINUOUS
 90
25
 70
0
 10
-5.7125826374
 20
17.2887970247
 10
-5.7034105327
 20
17.2919609549
 10
-5.6937582121
 20
17.294663275
 10
-5.6836256755
 20
17.2969039852
 10
-5.6729655566
 20
17.2986887111
 10
-5.6618252218
 20
17.3000118269
 10
-5.6503467699
 20
17.3008564559
 10
-5.6385258697
 20
17.3012164689
 10
-5.6263668524
 20
17.301097995
 10
-5.6140248104
 20
17.3005025455
 10
-5.6014973994
 20
17.2994240105
 10
-5.5887869638
 20
17.2978684998
 10
-5.5760556296
 20
17.2958558546
 10
-5.5633031291
 20
17.293380219
 10
-5.5505297301
 20
17.290447449
 10
-5.5378983616
 20
17.2870949528
 10
-5.5254108432
 20
17.2833173541
 10
-5.5130653553
 20
17.2791200293
 10
-5.501019369
 20
17.2745565169
 10
-5.4892767209
 20
17.2696221259
 10
-5.4778335744
 20
17.2643215473
 10
-5.4668358908
 20
17.2587223917
 10
-5.4563323239
 20
17.252847196
 10
-5.4462742199
 20
17.2466734234
 10
-5.4366615788
 20
17.2402010739
  0
LWPOLYLINE
  5
270
100
AcDbEntity
  8
RACCORDO
100
AcDbPolyline
 62
7
  6
CONTINUOUS
 90
25
 70
0
 10
-2.6777255148
 20
17.8709949121
 10
-2.6868976195
 20
17.8678309819
 10
-2.6965499401
 20
17.8651286617
 10
-2.7066824767
 20
17.8628879515
 10
-2.7173425956
 20
17.8611032257
 10
-2.7284829304
 20
17.8597801099
 10
-2.7399613823
 20
17.8589354808
 10
-2.7517822825
 20
17.8585754679
 10
-2.7639412998
 20
17.8586939418
 10
-2.7762833417
 20
17.8592893913
 10
-2.7888107528
 20
17.8603679263
 10
-2.8015211884
 20
17.861923437
 10
-2.8142525226
 20
17.8639360822
 10
-2.8270050231
 20
17.8664117177
 10
-2.8397784221
 20
17.8693444878
 10
-2.8524097906
 20
17.8726969839
 10
-2.864897309
 20
17.8764745827
 10
-2.8772427969
 20
17.8806719074
 10
-2.8892887831
 20
17.8852354199
 10
-2.9010314313
 20
17.8901698109
 10
-2.9124745778
 20
17.8954703895
 10
-2.9234722614
 20
17.9010695451
 10
-2.9339758283
 20
17.9069447407
 10
-2.9440339323
 20
17.9131185133
 10
-2.9536465734
 20
17.9195908629
  0
LINE
  5
271
100
AcDbEntity
  8
ASSI
100
AcDbLine
 62
7
  6
CONTINUOUS
 10
-12.1813900679
 20
15.9537415987
 11
-11.1914405742
 21
16.2436910923
  0
LINE
  5
272
100
AcDbEntity
  8
DRAFT
100
AcDbLine
 62
7
  6
CONTINUOUS
 10
-10.6964658274
 20
16.3886658392
 11
-12.1813900679
 21
15.9537415987
  0
LINE
  5
273
100
AcDbEntity
  8
CURVE
100
AcDbLine
 62
250
  6
CONTINUOUS
 10
8.1500490276
 20
-16.5512171925
 11
7.9698152275
 21
-16.579082373
  0
LINE
  5
274
100
AcDbEntity
  8
CURVE
100
AcDbLine
 62
250
  6
CONTINUOUS
 10
8.6907504654
 20
-15.4493880899
 11
8.8709842843
 21
-15.4215228959
  0
LINE
  5
275
100
AcDbEntity
  8
RACCORDO
100
AcDbLine
 62
250
  6
CONTINUOUS
 10
1.9839184463
 20
-22.9031825087
 11
0.1979469601
 21
-21.6403099599
  0
LWPOLYLINE
  5
276
100
AcDbEntity
  8
CURVE
100
AcDbPolyline
 62
250
  6
CONTINUOUS
 90
78
 70
0
 10
-16.1187801384
 20
-15.5489842201
 10
-16.1129612479
 20
-15.4966027686
 10
-16.1054562639
 20
-15.4458181097
 10
-16.0962684026
 20
-15.3965987055
 10
-16.0854008804
 20
-15.348913018
 10
-16.0728569134
 20
-15.3027295094
 10
-16.058639718
 20
-15.2580166418
 10
-16.0393801921
 20
-15.206288286
 10
-16.0177528559
 20
-15.1567592101
 10
-15.9937947166
 20
-15.1095563853
 10
-15.9675427815
 20
-15.0648067831
 10
-15.939034058
 20
-15.0226373749
 10
-15.9083132439
 20
-14.9831638354
 10
-15.8754558004
 20
-14.9464566528
 10
-15.8405448795
 20
-14.9125750183
 10
-15.8036636332
 20
-14.8815781233
 10
-15.7648952133
 20
-14.8535251593
 10
-15.7243160976
 20
-14.8284701393
 10
-15.681976067
 20
-14.8064463635
 10
-15.6379182282
 20
-14.7874819537
 10
-15.5921856879
 20
-14.7716050319
 10
-15.5448215528
 20
-14.7588437197
 10
-15.4958850083
 20
-14.749222219
 10
-15.4454995549
 20
-14.7427490513
 10
-15.3938047717
 20
-14.7394288176
 10
-15.3409402379
 20
-14.7392661194
 10
-15.2870455327
 20
-14.7422655578
 10
-15.232243901
 20
-14.7484299554
 10
-15.176593251
 20
-14.7577550202
 10
-15.1201351568
 20
-14.7702346811
 10
-15.0629111924
 20
-14.7858628674
 10
-15.0049629319
 20
-14.8046335082
 10
-14.9463532548
 20
-14.8265281793
 10
-14.8872302626
 20
-14.8514790426
 10
-14.8277633623
 20
-14.879405907
 10
-14.7681219609
 20
-14.9102285809
 10
-14.7084754654
 20
-14.9438668732
 10
-14.64897157
 20
-14.9802492744
 10
-14.5896711173
 20
-15.0193390032
 10
-14.5306132372
 20
-15.0611079602
 10
-14.4718370593
 20
-15.105528046
 10
-14.4133817136
 20
-15.1525711614
 10
-14.3553064732
 20
-15.2021885984
 10
-14.2977511849
 20
-15.2542492151
 10
-14.2408758389
 20
-15.3086012612
 10
-14.1848404254
 20
-15.3650929861
 10
-14.1298049346
 20
-15.4235726396
 10
-14.0759091735
 20
-15.483904956
 10
-14.0232122168
 20
-15.5460206097
 10
-13.9717529559
 20
-15.6098667597
 10
-13.9215702825
 20
-15.6753905651
 10
-13.8727030878
 20
-15.7425391849
 10
-13.8252031898
 20
-15.8112382
 10
-13.7791741113
 20
-15.8813268769
 10
-13.7347323012
 20
-15.952622904
 10
-13.6919942087
 20
-16.0249439696
 10
-13.651076283
 20
-16.0981077621
 10
-13.612081264
 20
-16.1719478013
 10
-13.5750570563
 20
-16.2463609334
 10
-13.5400378553
 20
-16.3212598363
 10
-13.5070578564
 20
-16.3965571879
 10
-13.4761512553
 20
-16.472165666
 10
-13.4473563039
 20
-16.5479868664
 10
-13.4207274803
 20
-16.6238780572
 10
-13.396323319
 20
-16.6996854245
 10
-13.3742023549
 20
-16.7752551544
 10
-13.3544231223
 20
-16.8504334329
 10
-13.3370361808
 20
-16.9250641678
 10
-13.3220601888
 20
-16.9989821531
 10
-13.3095058294
 20
-17.0720199044
 10
-13.2993837858
 20
-17.1440099375
 10
-13.2917047413
 20
-17.2147847679
 10
-13.2871795386
 20
-17.272735123
 10
-13.2843651475
 20
-17.3297510019
 10
-13.2832684338
 20
-17.3858581279
 10
-13.2838962632
 20
-17.4410822241
 10
-13.2862555012
 20
-17.4954490138
 10
-13.2903530136
 20
-17.5489842201
  0
LWPOLYLINE
  5
277
100
AcDbEntity
  8
CURVE
100
AcDbPolyline
 62
250
  6
CONTINUOUS
 90
86
 70
0
 10
-17.5329937007
 20
-14.5489842201
 10
-17.5205818335
 20
-14.4383550111
 10
-17.5043630072
 20
-14.33117945
 10
-17.4843293727
 20
-14.2273740199
 10
-17.4604730806
 20
-14.1268552036
 10
-17.4327862818
 20
-14.0295394841
 10
-17.4012762679
 20
-13.9353926099
 10
-17.366010894
 20
-13.8445773922
 10
-17.3270731561
 20
-13.7573059076
 10
-17.2845460502
 20
-13.6737902327
 10
-17.2385125724
 20
-13.5942424442
 10
-17.1890482449
 20
-13.518846483
 10
-17.1361986952
 20
-13.4476737477
 10
-17.0800020769
 20
-13.3807675008
 10
-17.0204965439
 20
-13.3181710051
 10
-16.9577202497
 20
-13.2599275234
 10
-16.8917318095
 20
-13.2060888599
 10
-16.8226716833
 20
-13.1567409851
 10
-16.7507007927
 20
-13.1119784111
 10
-16.6759800591
 20
-13.07189565
 10
-16.5986704039
 20
-13.0365872137
 10
-16.5189118199
 20
-13.0061343286
 10
-16.4367605846
 20
-12.9805650776
 10
-16.3522520465
 20
-12.9598942579
 10
-16.2654215545
 20
-12.9441366665
 10
-16.1763044572
 20
-12.9333071008
 10
-16.0849692456
 20
-12.9274157477
 10
-15.9916169801
 20
-12.9264543544
 10
-15.896481863
 20
-12.9304100576
 10
-15.799798097
 20
-12.9392699944
 10
-15.7017998846
 20
-12.9530213018
 10
-15.6026860786
 20
-12.9716528924
 10
-15.5025141322
 20
-12.9951607819
 10
-15.4013061489
 20
-13.0235427621
 10
-15.2990842321
 20
-13.0567966244
 10
-15.1958704852
 20
-13.0949201604
 10
-15.0917285599
 20
-13.1378889805
 10
-14.9868883006
 20
-13.1855899704
 10
-14.8816211
 20
-13.2378878346
 10
-14.7761983505
 20
-13.2946472776
 10
-14.6708914449
 20
-13.355733004
 10
-14.5659290426
 20
-13.4210304641
 10
-14.4613688702
 20
-13.4905080909
 10
-14.3572259211
 20
-13.5641550633
 10
-14.253515189
 20
-13.6419605603
 10
-14.1502516671
 20
-13.7239137607
 10
-14.0474909167
 20
-13.8099658503
 10
-13.94545077
 20
-13.8999160429
 10
-13.8443896267
 20
-13.9935255593
 10
-13.7445658868
 20
-14.0905556203
 10
-13.6462379501
 20
-14.1907674466
 10
-13.5496242896
 20
-14.2939574029
 10
-13.4547836721
 20
-14.4000624294
 10
-13.3617349372
 20
-14.5090546103
 10
-13.2704969249
 20
-14.6209060296
 10
-13.1810884748
 20
-14.7355887715
 10
-13.093558649
 20
-14.8530308528
 10
-13.0080773968
 20
-14.9729840215
 10
-12.9248448898
 20
-15.0951559581
 10
-12.8440612995
 20
-15.2192543431
 10
-12.7659267975
 20
-15.3449868572
 10
-12.6906126317
 20
-15.4720996676
 10
-12.618174356
 20
-15.6004928874
 10
-12.5486386007
 20
-15.7301051164
 10
-12.4820319961
 20
-15.8608749545
 10
-12.4183811726
 20
-15.9927410013
 10
-12.3577278509
 20
-16.1256041035
 10
-12.3001741125
 20
-16.2592140939
 10
-12.2458371298
 20
-16.3932830525
 10
-12.1948340745
 20
-16.5275230591
 10
-12.1472821189
 20
-16.6616461932
 10
-12.1032828868
 20
-16.795397557
 10
-12.062875809
 20
-16.9286543411
 10
-12.0260847681
 20
-17.0613267581
 10
-11.9929336468
 20
-17.1933250208
 10
-11.9634463278
 20
-17.3245593421
 10
-11.9376480282
 20
-17.4549058937
 10
-11.9155693038
 20
-17.5841046834
 10
-11.8972420452
 20
-17.711861678
 10
-11.8826981427
 20
-17.8378828444
 10
-11.8719694866
 20
-17.9618741493
 10
-11.8650837146
 20
-18.0836047007
 10
-11.8620514523
 20
-18.2030961705
 10
-11.8628790724
 20
-18.3204333717
 10
-11.8675729478
 20
-18.4357011172
 10
-11.8761394512
 20
-18.5489842201
  0
LINE
  5
278
100
AcDbEntity
  8
RACCORDO
100
AcDbLine
 62
7
  6
CONTINUOUS
 10
-4.8371089241
 20
16.4236471235
 11
-6.2464685307
 21
15.3954109976
  0
LINE
  5
279
100
AcDbEntity
  8
RACCORDO
100
AcDbLine
 62
7
  6
CONTINUOUS
 10
-8.4012897863
 20
13.8233033187
 11
-8.852557984
 21
13.4940684938
  0
LINE
  5
27A
100
AcDbEntity
  8
ASSI
100
AcDbLine
 62
7
  6
CONTINUOUS
 10
-4.066656843
 20
15.8788552324
 11
-5.4561570564
 21
14.8848387924
  0
LINE
  5
27B
100
AcDbEntity
  8
RACCORDO
100
AcDbLine
 62
7
  6
CONTINUOUS
 10
-3.3791302595
 20
15.6387970247
 11
-5.3293759442
 21
14.8934383115
  0
LWPOLYLINE
  5
27C
100
AcDbEntity
  8
RACCORDO
100
AcDbPolyline
 62
7
  6
CONTINUOUS
 90
25
 70
0
 10
-5.3293759442
 20
14.8934383115
 10
-5.3385480489
 20
14.8902743814
 10
-5.3482003696
 20
14.8875720612
 10
-5.3583329062
 20
14.885331351
 10
-5.368993025
 20
14.8835466252
 10
-5.3801333598
 20
14.8822235093
 10
-5.3916118117
 20
14.8813788803
 10
-5.4034327119
 20
14.8810188674
 10
-5.4155917293
 20
14.8811373412
 10
-5.4279337712
 20
14.8817327907
 10
-5.4404611822
 20
14.8828113258
 10
-5.4531716179
 20
14.8843668364
 10
-5.4659029521
 20
14.8863794816
 10
-5.4786554525
 20
14.8888551172
 10
-5.4914288516
 20
14.8917878873
 10
-5.50406022
 20
14.8951403834
 10
-5.5165477385
 20
14.8989179821
 10
-5.5288932263
 20
14.9031153069
 10
-5.5409392126
 20
14.9076788194
 10
-5.5526818607
 20
14.9126132103
 10
-5.5641250072
 20
14.9179137889
 10
-5.5751226908
 20
14.9235129445
 10
-5.5856262578
 20
14.9293881402
 10
-5.5956843618
 20
14.9355619128
 10
-5.6052970028
 20
14.9420342623
  0
LWPOLYLINE
  5
27D
100
AcDbEntity
  8
RACCORDO
100
AcDbPolyline
 62
7
  6
CONTINUOUS
 90
25
 70
0
 10
-1.6820739847
 20
14.4387970247
 10
-1.67290188
 20
14.4419609549
 10
-1.6632495593
 20
14.444663275
 10
-1.6531170227
 20
14.4469039852
 10
-1.6424569039
 20
14.4486887111
 10
-1.6313165691
 20
14.4500118269
 10
-1.6198381171
 20
14.4508564559
 10
-1.6080172169
 20
14.4512164689
 10
-1.5958581996
 20
14.451097995
 10
-1.5835161577
 20
14.4505025455
 10
-1.5709887466
 20
14.4494240105
 10
-1.558278311
 20
14.4478684998
 10
-1.5455469768
 20
14.4458558546
 10
-1.5327944763
 20
14.443380219
 10
-1.5200210773
 20
14.440447449
 10
-1.5073897089
 20
14.4370949528
 10
-1.4949021904
 20
14.4333173541
 10
-1.4825567025
 20
14.4291200293
 10
-1.4705107163
 20
14.4245565169
 10
-1.4587680682
 20
14.4196221259
 10
-1.4473249216
 20
14.4143215473
 10
-1.436327238
 20
14.4087223917
 10
-1.4258236711
 20
14.402847196
 10
-1.4157655671
 20
14.3966734234
 10
-1.406152926
 20
14.3902010739
  0
LINE
  5
27E
100
AcDbEntity
  8
CURVE
100
AcDbLine
 62
250
  6
CONTINUOUS
 10
5.4064899288
 20
-19.3399516372
 11
5.7849809315
 21
-19.4952681773
  0
LINE
  5
27F
100
AcDbEntity
  8
RACCORDO
100
AcDbLine
 62
250
  6
CONTINUOUS
 10
2.514088386
 20
-22.0109092591
 11
0.7208404105
 21
-20.7428914553
  0
LINE
  5
280
100
AcDbEntity
  8
DRAFT
100
AcDbLine
 62
7
  6
CONTINUOUS
 10
0.1916108331
 20
-19.7007042662
 11
0.7208404105
 21
-20.0749260891
  0
LINE
  5
281
100
AcDbEntity
  8
ASSI
100
AcDbLine
 62
7
  6
CONTINUOUS
 10
0.1916108331
 20
-19.7007042662
 11
0.7208404105
 21
-20.0749260891
  0
LINE
  5
282
100
AcDbEntity
  8
RACCORDO
100
AcDbLine
 62
7
  6
CONTINUOUS
 10
0.6287743033
 20
-19.4441400955
 11
0.7208404105
 21
-19.5092406642
  0
LINE
  5
283
100
AcDbEntity
  8
ASSI
100
AcDbLine
 62
7
  6
CONTINUOUS
 10
0.6287743033
 20
-19.4441400955
 11
0.7208404105
 21
-19.5092406642
  0
LINE
  5
284
100
AcDbEntity
  8
RACCORDO
100
AcDbLine
 62
7
  6
CONTINUOUS
 10
-11.8934900178
 20
15.6429570069
 11
-11.8934900178
 21
15.0716647051
  0
LWPOLYLINE
  5
285
100
AcDbEntity
  8
RACCORDO
100
AcDbPolyline
 62
7
  6
CONTINUOUS
 90
11
 70
0
 10
-7.7147746087
 20
16.4945162351
 10
-7.7137185571
 20
16.4980267132
 10
-7.7111303909
 20
16.5043282954
 10
-7.7077210662
 20
16.5103967885
 10
-7.7035340701
 20
16.5161547868
 10
-7.6985594408
 20
16.5215983129
 10
-7.6928071401
 20
16.5267313442
 10
-7.6863505407
 20
16.5314884071
 10
-7.6792140999
 20
16.535847677
 10
-7.6713733604
 20
16.5398309785
 10
-7.6628283221
 20
16.5434383115
  0
LWPOLYLINE
  5
286
100
AcDbEntity
  8
RACCORDO
100
AcDbPolyline
 62
250
  6
CONTINUOUS
 90
10
 70
0
 10
10.1234780078
 20
19.6228029239
 10
10.146542494
 20
19.6349546587
 10
10.1731604425
 20
19.6429080789
 10
10.2022772871
 20
19.646086033
 10
10.2335366228
 20
19.6444696325
 10
10.2666142701
 20
19.6380923011
 10
10.301203066
 20
19.6270169311
 10
10.3369472657
 20
19.6113459222
 10
10.3734381178
 20
19.5912452217
 10
10.4102770446
 20
19.5669266617
  0
LWPOLYLINE
  5
287
100
AcDbEntity
  8
ASSI
100
AcDbPolyline
 62
250
  6
CONTINUOUS
 90
10
 70
0
 10
10.1234780078
 20
19.6228029239
 10
10.146542494
 20
19.6349546587
 10
10.1731604425
 20
19.6429080789
 10
10.2022772871
 20
19.646086033
 10
10.2335366228
 20
19.6444696325
 10
10.2666142701
 20
19.6380923011
 10
10.301203066
 20
19.6270169311
 10
10.3369472657
 20
19.6113459222
 10
10.3734381178
 20
19.5912452217
 10
10.4102770446
 20
19.5669266617
  0
LINE
  5
288
100
AcDbEntity
  8
RACCORDO
100
AcDbLine
 62
7
  6
CONTINUOUS
 10
-3.6323196694
 20
13.6934383115
 11
-1.6820739847
 21
14.4387970247
  0
LINE
  5
289
100
AcDbEntity
  8
RACCORDO
100
AcDbLine
 62
7
  6
CONTINUOUS
 10
-3.4937999077
 20
13.4489803479
 11
-1.7694771896
 21
14.107994221
  0
LINE
  5
28A
100
AcDbEntity
  8
RACCORDO
100
AcDbLine
 62
7
  6
CONTINUOUS
 10
2.6829088348
 20
14.1429070317
 11
2.6255753441
 21
14.1209949121
  0
LWPOLYLINE
  5
28B
100
AcDbEntity
  8
RACCORDO
100
AcDbPolyline
 62
7
  6
CONTINUOUS
 90
25
 70
0
 10
-1.2988672914
 20
12.0434383115
 10
-1.3080393961
 20
12.0402743814
 10
-1.3176917168
 20
12.0375720612
 10
-1.3278242534
 20
12.035331351
 10
-1.3384843722
 20
12.0335466252
 10
-1.349624707
 20
12.0322235093
 10
-1.361103159
 20
12.0313788803
 10
-1.3729240592
 20
12.0310188674
 10
-1.3850830765
 20
12.0311373412
 10
-1.3974251184
 20
12.0317327907
 10
-1.4099525295
 20
12.0328113258
 10
-1.4226629651
 20
12.0343668364
 10
-1.4353942993
 20
12.0363794816
 10
-1.4481467998
 20
12.0388551172
 10
-1.4609201988
 20
12.0417878873
 10
-1.4735515672
 20
12.0451403834
 10
-1.4860390857
 20
12.0489179821
 10
-1.4983845736
 20
12.0531153069
 10
-1.5104305598
 20
12.0576788194
 10
-1.5221732079
 20
12.0626132103
 10
-1.5336163545
 20
12.0679137889
 10
-1.5446140381
 20
12.0735129445
 10
-1.555117605
 20
12.0793881402
 10
-1.565175709
 20
12.0855619128
 10
-1.5747883501
 20
12.0920342623
  0
LINE
  5
28C
100
AcDbEntity
  8
ASSI
100
AcDbLine
 62
7
  6
CONTINUOUS
 10
4.2000429167
 20
14.7097870757
 11
2.6829088348
 21
14.1947454764
  0
LINE
  5
28D
100
AcDbEntity
  8
CURVE
100
AcDbLine
 62
250
  6
CONTINUOUS
 10
8.1500490276
 20
-10.9509315219
 11
7.9698152275
 21
-10.9787963625
  0
LINE
  5
28E
100
AcDbEntity
  8
CURVE
100
AcDbLine
 62
250
  6
CONTINUOUS
 10
7.7895814274
 20
-13.1449527891
 11
8.0599321651
 21
-13.1540666554
  0
LINE
  5
28F
100
AcDbEntity
  8
CURVE
100
AcDbLine
 62
250
  6
CONTINUOUS
 10
9.0512181032
 20
-12.4407798323
 11
8.1500490276
 21
-12.3764587928
  0
LINE
  5
290
100
AcDbEntity
  8
CURVE
100
AcDbLine
 62
250
  6
CONTINUOUS
 10
8.1500490276
 20
-17.3658042409
 11
7.7895814274
 21
-17.2178877334
  0
LINE
  5
291
100
AcDbEntity
  8
CURVE
100
AcDbLine
 62
250
  6
CONTINUOUS
 10
7.9698152275
 20
-16.579082373
 11
7.7895814274
 21
-16.5051241405
  0
LINE
  5
292
100
AcDbEntity
  8
RACCORDO
100
AcDbLine
 62
250
  6
CONTINUOUS
 10
-11.6591754428
 20
15.2435353605
 11
-11.6591754428
 21
14.6687726553
  0
LINE
  5
293
100
AcDbEntity
  8
RACCORDO
100
AcDbLine
 62
250
  6
CONTINUOUS
 10
-11.6475236712
 20
15.2352963138
 11
-11.6475236712
 21
14.6605336086
  0
LINE
  5
294
100
AcDbEntity
  8
RACCORDO
100
AcDbLine
 62
250
  6
CONTINUOUS
 10
-10.5261115499
 20
15.2264361124
 11
-10.5261115499
 21
14.6633153174
  0
LINE
  5
295
100
AcDbEntity
  8
0
100
AcDbLine
 62
7
  6
CONTINUOUS
 10
-10.0600697243
 20
15.7710774531
 11
-10.0600697243
 21
15.9832094874
  0
LWPOLYLINE
  5
296
100
AcDbEntity
  8
0
100
AcDbPolyline
 62
7
  6
CONTINUOUS
 90
19
 70
0
 10
-10.0600697243
 20
15.9832094874
 10
-10.0580680315
 20
16.0282979073
 10
-10.0524460796
 20
16.0749761913
 10
-10.0432038688
 20
16.1232443396
 10
-10.0302165911
 20
16.1734919173
 10
-10.0136090545
 20
16.2253293593
 10
-9.9937556825
 20
16.2775879695
 10
-9.9705827422
 20
16.3302773154
 10
-9.9441639666
 20
16.3833878295
 10
-9.9150949775
 20
16.435722114
 10
-9.8833155723
 20
16.4872625361
 10
-9.8488859536
 20
16.5380267286
 10
-9.8125823509
 20
16.5868701924
 10
-9.7743621947
 20
16.6337492961
 10
-9.7342680545
 20
16.6787076712
 10
-9.6932038688
 20
16.720731713
 10
-9.6514709505
 20
16.7594835533
 10
-9.6087679867
 20
16.7953010604
 10
-9.5650949775
 20
16.8281842343
  0
LWPOLYLINE
  5
297
100
AcDbEntity
  8
CURVE
100
AcDbPolyline
 62
250
  6
CONTINUOUS
 90
78
 70
0
 10
-13.2903530136
 20
-17.5489842201
 10
-13.2961643849
 20
-17.6013654288
 10
-13.3036460673
 20
-17.652139987
 10
-13.3127950593
 20
-17.7013395999
 10
-13.3236083592
 20
-17.7489959727
 10
-13.3360829655
 20
-17.7951408106
 10
-13.3502158765
 20
-17.8398058187
 10
-13.3693549711
 20
-17.8914649002
 10
-13.3908417071
 20
-17.9409123057
 10
-13.4146400897
 20
-17.9880216584
 10
-13.4407141238
 20
-18.0326665817
 10
-13.4690278143
 20
-18.074720699
 10
-13.4995375985
 20
-18.1140690219
 10
-13.5321696419
 20
-18.1506421148
 10
-13.5668425421
 20
-18.1843819308
 10
-13.6034748968
 20
-18.2152304225
 10
-13.6419853037
 20
-18.2431295429
 10
-13.6822990318
 20
-18.2680264217
 10
-13.7243680354
 20
-18.2898888965
 10
-13.7681509402
 20
-18.3086899818
 10
-13.8136063717
 20
-18.3244026922
 10
-13.8606929555
 20
-18.3370000422
 10
-13.9093533174
 20
-18.3464589858
 10
-13.9594660825
 20
-18.3527722349
 10
-14.0108938762
 20
-18.3559364407
 10
-14.0634993236
 20
-18.3559482546
 10
-14.11714505
 20
-18.3528043279
 10
-14.1717098792
 20
-18.3465029889
 10
-14.2271374292
 20
-18.3370492732
 10
-14.2833875166
 20
-18.3244498938
 10
-14.3404199577
 20
-18.3087115632
 10
-14.3981945692
 20
-18.2898409943
 10
-14.4566497643
 20
-18.2678572331
 10
-14.5156383436
 20
-18.2428286601
 10
-14.5749917044
 20
-18.214835989
 10
-14.6345412441
 20
-18.1839599337
 10
-14.6941183601
 20
-18.1502812079
 10
-14.7535760236
 20
-18.1138717583
 10
-14.8128535021
 20
-18.0747684627
 10
-14.871911637
 20
-18.0329994318
 10
-14.9307112697
 20
-17.9885927762
 10
-14.9892132416
 20
-17.9415766065
 10
-15.0473580899
 20
-17.891999576
 10
-15.1050051341
 20
-17.8399925085
 10
-15.16199339
 20
-17.7857067705
 10
-15.2181618728
 20
-17.7292937283
 10
-15.2733495981
 20
-17.6709047484
 10
-15.3274157325
 20
-17.6106746439
 10
-15.380300048
 20
-17.5486720141
 10
-15.4319624675
 20
-17.4849489049
 10
-15.4823629144
 20
-17.4195573623
 10
-15.5314613116
 20
-17.3525494322
 10
-15.5792045294
 20
-17.2839986386
 10
-15.6254872255
 20
-17.2140644173
 10
-15.670191005
 20
-17.142927682
 10
-15.7131974727
 20
-17.0707693464
 10
-15.7543882337
 20
-16.9977703242
 10
-15.7936586242
 20
-16.9240957451
 10
-15.8309589067
 20
-16.8498476014
 10
-15.866253075
 20
-16.7751121015
 10
-15.8995051228
 20
-16.6999754536
 10
-15.9306790441
 20
-16.6245238659
 10
-15.9597347626
 20
-16.5488546434
 10
-15.9866159216
 20
-16.4731094776
 10
-16.0112620942
 20
-16.3974411569
 10
-16.0336128538
 20
-16.3220024696
 10
-16.0536077734
 20
-16.2469462039
 10
-16.0711945233
 20
-16.1724275118
 10
-16.0863531609
 20
-16.098611
 10
-16.0990718408
 20
-16.0256636388
 10
-16.1093387174
 20
-15.9537523984
 10
-16.1171419452
 20
-15.8830442493
 10
-16.1217540953
 20
-15.8251398658
 10
-16.1246400575
 20
-15.7681610509
 10
-16.1257927374
 20
-15.7120819418
 10
-16.1252050405
 20
-15.6568766756
 10
-16.1228698724
 20
-15.6025193893
 10
-16.1187801384
 20
-15.5489842201
  0
LWPOLYLINE
  5
298
100
AcDbEntity
  8
CURVE
100
AcDbPolyline
 62
250
  6
CONTINUOUS
 90
86
 70
0
 10
-11.8761394512
 20
-18.5489842201
 10
-11.888517541
 20
-18.6596104378
 10
-11.9046319623
 20
-18.7667392894
 10
-11.9244913049
 20
-18.8704548878
 10
-11.9481041586
 20
-18.9708413462
 10
-11.9754791133
 20
-19.0679827775
 10
-12.006609987
 20
-19.1619142036
 10
-12.0414315101
 20
-19.2524742811
 10
-12.0798636413
 20
-19.3394525758
 10
-12.1218263391
 20
-19.4226386531
 10
-12.167239562
 20
-19.5018220786
 10
-12.2160308385
 20
-19.5768206666
 10
-12.2681579763
 20
-19.6475652262
 10
-12.3235863529
 20
-19.714014815
 10
-12.3822813457
 20
-19.776128491
 10
-12.4442083323
 20
-19.8338653119
 10
-12.5093125875
 20
-19.8871760276
 10
-12.5774589758
 20
-19.9359781567
 10
-12.6484922591
 20
-19.9801809099
 10
-12.7222571992
 20
-20.0196934979
 10
-12.798598558
 20
-20.0544251314
 10
-12.8773818401
 20
-20.084298177
 10
-12.9585555214
 20
-20.1092876251
 10
-13.0420888202
 20
-20.1293816218
 10
-13.1279509551
 20
-20.1445683135
 10
-13.2161111447
 20
-20.1548358464
 10
-13.3065057364
 20
-20.1601770284
 10
-13.3989395932
 20
-20.1606033138
 10
-13.4931847074
 20
-20.1561308185
 10
-13.589013071
 20
-20.1467756585
 10
-13.686196676
 20
-20.1325539498
 10
-13.7845423436
 20
-20.1134797295
 10
-13.8839962111
 20
-20.0895587198
 10
-13.9845392449
 20
-20.0607945641
 10
-14.0861524114
 20
-20.0271909057
 10
-14.1888166769
 20
-19.9887513881
 10
-14.2924712896
 20
-19.9455018264
 10
-14.3968886245
 20
-19.8975567231
 10
-14.5017993387
 20
-19.8450527523
 10
-14.6069340889
 20
-19.7881265883
 10
-14.712023532
 20
-19.7269149053
 10
-14.8168407039
 20
-19.6615334091
 10
-14.9213281565
 20
-19.5920139311
 10
-15.0254708207
 20
-19.5183673347
 10
-15.1292536274
 20
-19.4406044828
 10
-15.2326615077
 20
-19.3587362386
 10
-15.335638409
 20
-19.2728112828
 10
-15.4379643466
 20
-19.1830295662
 10
-15.539378352
 20
-19.0896288572
 10
-15.639619457
 20
-18.9928469243
 10
-15.7384266934
 20
-18.8929215359
 10
-15.835578976
 20
-18.7900552159
 10
-15.9310147518
 20
-18.6843095105
 10
-16.0247123509
 20
-18.5757107215
 10
-16.1166501034
 20
-18.4642851506
 10
-16.2068063393
 20
-18.3500590996
 10
-16.2951287841
 20
-18.2331025472
 10
-16.3814427436
 20
-18.1136601809
 10
-16.4655429193
 20
-17.9920203647
 10
-16.5472240124
 20
-17.8684714631
 10
-16.6262807242
 20
-17.7433018403
 10
-16.7025367794
 20
-17.6167615313
 10
-16.7759319974
 20
-17.4889472535
 10
-16.8464352209
 20
-17.3599173952
 10
-16.9140152926
 20
-17.2297303445
 10
-16.9786410553
 20
-17.0984444895
 10
-17.0402660083
 20
-16.9661559012
 10
-17.0987822771
 20
-16.8331113817
 10
-17.1540666435
 20
-16.6995954158
 10
-17.2059958896
 20
-16.5658924884
 10
-17.2544467973
 20
-16.4322870844
 10
-17.2993120259
 20
-16.2990309077
 10
-17.3405477437
 20
-16.1662445387
 10
-17.3781259964
 20
-16.0340157767
 10
-17.4120188297
 20
-15.902432421
 10
-17.4421982891
 20
-15.7715822712
 10
-17.4686352236
 20
-15.6415872622
 10
-17.4912956955
 20
-15.5127058726
 10
-17.5101445702
 20
-15.3852307164
 10
-17.5251467132
 20
-15.2594544078
 10
-17.53626699
 20
-15.135669561
 10
-17.5434749303
 20
-15.0141057939
 10
-17.5467587207
 20
-14.8947407395
 10
-17.546111212
 20
-14.7774890346
 10
-17.5415252551
 20
-14.6622653158
 10
-17.5329937007
 20
-14.5489842201
  0
LINE
  5
299
100
AcDbEntity
  8
RACCORDO
100
AcDbLine
 62
250
  6
CONTINUOUS
 10
-7.6628283221
 20
16.5434383115
 11
-7.6937584452
 21
16.4263742812
  0
LINE
  5
29A
100
AcDbEntity
  8
RACCORDO
100
AcDbLine
 62
250
  6
CONTINUOUS
 10
-5.7125826374
 20
17.2887970247
 11
-5.7999858423
 21
16.957994221
  0
LINE
  5
29B
100
AcDbEntity
  8
RACCORDO
100
AcDbLine
 62
250
  6
CONTINUOUS
 10
-5.4366615788
 20
17.2402010739
 11
-5.5240647837
 21
16.9093982702
  0
LINE
  5
29C
100
AcDbEntity
  8
RACCORDO
100
AcDbLine
 62
250
  6
CONTINUOUS
 10
10.6342041261
 20
19.4085863039
 11
9.4038854483
 21
18.5201795452
  0
LINE
  5
29D
100
AcDbEntity
  8
ASSI
100
AcDbLine
 62
250
  6
CONTINUOUS
 10
10.6342041261
 20
19.4085863039
 11
9.4038854483
 21
18.5201795452
  0
LINE
  5
29E
100
AcDbEntity
  8
RACCORDO
100
AcDbLine
 62
7
  6
CONTINUOUS
 10
-3.2065641591
 20
9.5017479737
 11
-2.2090309241
 21
10.2195546781
  0
LINE
  5
29F
100
AcDbEntity
  8
RACCORDO
100
AcDbLine
 62
250
  6
CONTINUOUS
 10
-3.1770730156
 20
10.7749681326
 11
-3.0947988155
 21
10.8331447774
  0
LINE
  5
2A0
100
AcDbEntity
  8
0
100
AcDbLine
 62
7
  6
CONTINUOUS
 10
-1.0798136032
 20
10.8281842343
 11
-0.7162454706
 21
11.0852657263
  0
LWPOLYLINE
  5
2A1
100
AcDbEntity
  8
0
100
AcDbPolyline
 62
7
  6
CONTINUOUS
 90
10
 70
0
 10
-0.7162454706
 20
11.0852657263
 10
-0.6989361693
 20
11.0972006693
 10
-0.6816898528
 20
11.1084918155
 10
-0.664506521
 20
11.1191391649
 10
-0.6473654091
 20
11.1291541117
 10
-0.6302872819
 20
11.1385252616
 10
-0.6133344341
 20
11.1472184322
 10
-0.5965276307
 20
11.1552222294
 10
-0.5798461067
 20
11.1625480473
 10
-0.5632898621
 20
11.1691958858
  0
LINE
  5
2A2
100
AcDbEntity
  8
RACCORDO
100
AcDbLine
 62
250
  6
CONTINUOUS
 10
0.0307772043
 20
12.9815318321
 11
-1.3720125112
 21
12.0310466291
  0
LINE
  5
2A3
100
AcDbEntity
  8
ASSI
100
AcDbLine
 62
250
  6
CONTINUOUS
 10
0.0307772043
 20
12.9815318321
 11
-1.3720125112
 21
12.0310466291
  0
LINE
  5
2A4
100
AcDbEntity
  8
RACCORDO
100
AcDbLine
 62
250
  6
CONTINUOUS
 10
0.250028609
 20
12.8264976771
 11
-0.3969037002
 21
12.3881571472
  0
LINE
  5
2A5
100
AcDbEntity
  8
ASSI
100
AcDbLine
 62
250
  6
CONTINUOUS
 10
0.250028609
 20
12.8264976771
 11
-0.3969037002
 21
12.3881571472
  0
LWPOLYLINE
  5
2A6
100
AcDbEntity
  8
RACCORDO
100
AcDbPolyline
 62
7
  6
CONTINUOUS
 90
17
 70
0
 10
-3.1516676579
 20
10.8263167835
 10
-3.1493193385
 20
10.8278805245
 10
-3.1438658123
 20
10.8308402273
 10
-3.1379812623
 20
10.8331718225
 10
-3.1317326938
 20
10.8348487611
 10
-3.125115946
 20
10.8358635605
 10
-3.1181351796
 20
10.8362237033
 10
-3.110869882
 20
10.8359250887
 10
-3.103316801
 20
10.8349601872
 10
-3.0954791888
 20
10.8333365284
 10
-3.0874462893
 20
10.8310726002
 10
-3.0792158704
 20
10.8281610843
 10
-3.0707901642
 20
10.8246092991
 10
-3.0622651111
 20
10.8204576873
 10
-3.0536726911
 20
10.81571973
 10
-3.0449809242
 20
10.8103819461
 10
-3.0361898103
 20
10.8044443357
  0
LINE
  5
2A7
100
AcDbEntity
  8
RACCORDO
100
AcDbLine
 62
7
  6
CONTINUOUS
 10
10.1234772932
 20
19.6228024521
 11
8.9449645728
 21
18.8446856083
  0
LINE
  5
2A8
100
AcDbEntity
  8
ASSI
100
AcDbLine
 62
7
  6
CONTINUOUS
 10
10.1234772932
 20
19.6228024521
 11
8.9449645728
 21
18.8446856083
  0
LINE
  5
2A9
100
AcDbEntity
  8
RACCORDO
100
AcDbLine
 62
250
  6
CONTINUOUS
 10
10.4102770446
 20
19.5669266617
 11
9.1243147453
 21
18.7178658851
  0
LINE
  5
2AA
100
AcDbEntity
  8
ASSI
100
AcDbLine
 62
250
  6
CONTINUOUS
 10
10.4102770446
 20
19.5669266617
 11
9.1243147453
 21
18.7178658851
  0
LINE
  5
2AB
100
AcDbEntity
  8
RACCORDO
100
AcDbLine
 62
7
  6
CONTINUOUS
 10
0.6513783933
 20
12.7887970247
 11
-1.2988672914
 21
12.0434383115
  0
LINE
  5
2AC
100
AcDbEntity
  8
0
100
AcDbLine
 62
7
  6
CONTINUOUS
 10
-0.5632898621
 20
11.1691958858
 11
3.9588474204
 21
12.8974983516
  0
LINE
  5
2AD
100
AcDbEntity
  8
0
100
AcDbLine
 62
7
  6
CONTINUOUS
 10
-0.650693067
 20
10.8383930822
 11
3.1005317548
 21
12.2720627618
  0
LINE
  5
2AE
100
AcDbEntity
  8
CURVE
100
AcDbLine
 62
250
  6
CONTINUOUS
 10
8.6907504654
 20
-9.8491023343
 11
8.8709842843
 21
-9.8212374802
  0
LINE
  5
2AF
100
AcDbEntity
  8
CURVE
100
AcDbLine
 62
250
  6
CONTINUOUS
 10
8.8709842843
 20
-15.4215228959
 11
9.0512181032
 21
-15.4954811149
  0
LINE
  5
2B0
100
AcDbEntity
  8
RACCORDO
100
AcDbLine
 62
7
  6
CONTINUOUS
 10
-8.4577850588
 20
14.5089954278
 11
-8.3445682937
 21
13.134865539
  0
LINE
  5
2B1
100
AcDbEntity
  8
RACCORDO
100
AcDbLine
 62
250
  6
CONTINUOUS
 10
-3.3860519134
 20
15.7902010739
 11
-3.4313259007
 21
15.6188485247
  0
LINE
  5
2B2
100
AcDbEntity
  8
RACCORDO
100
AcDbLine
 62
250
  6
CONTINUOUS
 10
-3.6323196694
 20
13.6934383115
 11
-3.6632497924
 21
13.5763742812
  0
LWPOLYLINE
  5
2B3
100
AcDbEntity
  8
RACCORDO
100
AcDbPolyline
 62
7
  6
CONTINUOUS
 90
11
 70
0
 10
-3.3271839729
 20
15.6877191011
 10
-3.3282400245
 20
15.6842086231
 10
-3.3308281907
 20
15.6779070409
 10
-3.3342375154
 20
15.6718385477
 10
-3.3384245115
 20
15.6660805494
 10
-3.3433991408
 20
15.6606370233
 10
-3.3491514415
 20
15.655503992
 10
-3.355608041
 20
15.6507469292
 10
-3.3627444817
 20
15.6463876593
 10
-3.3705852212
 20
15.6424043578
 10
-3.3791302595
 20
15.6387970247
  0
LWPOLYLINE
  5
2B4
100
AcDbEntity
  8
RACCORDO
100
AcDbPolyline
 62
7
  6
CONTINUOUS
 90
11
 70
0
 10
-3.684265956
 20
13.6445162351
 10
-3.6832099044
 20
13.6480267132
 10
-3.6806217382
 20
13.6543282954
 10
-3.6772124135
 20
13.6603967885
 10
-3.6730254174
 20
13.6661547868
 10
-3.6680507881
 20
13.6715983129
 10
-3.6622984874
 20
13.6767313442
 10
-3.6558418879
 20
13.6814884071
 10
-3.6487054472
 20
13.685847677
 10
-3.6408647077
 20
13.6898309785
 10
-3.6323196694
 20
13.6934383115
  0
LINE
  5
2B5
100
AcDbEntity
  8
RACCORDO
100
AcDbLine
 62
7
  6
CONTINUOUS
 10
4.2234872557
 20
13.0903355304
 11
-1.5527557371
 21
8.8813153672
  0
LINE
  5
2B6
100
AcDbEntity
  8
RACCORDO
100
AcDbLine
 62
250
  6
CONTINUOUS
 10
10.9875421415
 20
18.8054005817
 11
10.0044510152
 21
18.0955155603
  0
LINE
  5
2B7
100
AcDbEntity
  8
ASSI
100
AcDbLine
 62
250
  6
CONTINUOUS
 10
10.9875421415
 20
18.8054005817
 11
10.0044510152
 21
18.0955155603
  0
LINE
  5
2B8
100
AcDbEntity
  8
0
100
AcDbLine
 62
7
  6
CONTINUOUS
 10
-1.0798136032
 20
10.5453415218
 11
-0.7162454706
 21
10.8024230138
  0
LINE
  5
2B9
100
AcDbEntity
  8
0
100
AcDbLine
 62
250
  6
CONTINUOUS
 10
-1.2919456376
 20
10.1832094874
 11
-1.5747883501
 21
9.9832094874
  0
LINE
  5
2BA
100
AcDbEntity
  8
0
100
AcDbLine
 62
7
  6
CONTINUOUS
 10
-1.2919456376
 20
9.9710774531
 11
-1.5747883501
 21
9.7710774531
  0
LINE
  5
2BB
100
AcDbEntity
  8
RACCORDO
100
AcDbLine
 62
7
  6
CONTINUOUS
 10
-0.9714983185
 20
8.4842317681
 11
6.4089320447
 21
13.6922974283
  0
LWPOLYLINE
  5
2BC
100
AcDbEntity
  8
0
100
AcDbPolyline
 62
7
  6
CONTINUOUS
 90
10
 70
0
 10
-0.7162454706
 20
10.8024230138
 10
-0.7088271987
 20
10.8075379894
 10
-0.7014359201
 20
10.812377052
 10
-0.6940716351
 20
10.8169402018
 10
-0.6867254442
 20
10.8212323218
 10
-0.6794062469
 20
10.8252485289
 10
-0.6721407407
 20
10.8289741735
 10
-0.6649378249
 20
10.8324043723
 10
-0.6577886004
 20
10.8355440085
 10
-0.650693067
 20
10.8383930822
  0
LINE
  5
2BD
100
AcDbEntity
  8
RACCORDO
100
AcDbLine
 62
7
  6
CONTINUOUS
 10
5.8474767524
 20
14.0893062729
 11
4.3412741115
 21
13.0659706704
  0
LINE
  5
2BE
100
AcDbEntity
  8
RACCORDO
100
AcDbLine
 62
7
  6
CONTINUOUS
 10
-0.4099054289
 20
8.0731981644
 11
-0.3998605306
 21
8.0800228119
  0
LINE
  5
2BF
100
AcDbEntity
  8
0
100
AcDbLine
 62
250
  6
CONTINUOUS
 10
14.644816172
 20
-4.5645357863
 11
15.5348823481
 21
-4.3293244275
  0
LINE
  5
2C0
100
AcDbEntity
  8
0
100
AcDbLine
 62
250
  6
CONTINUOUS
 10
12.9574392908
 20
-5.0104464214
 11
13.8166775026
 21
-4.7833818956
  0
LINE
  5
2C1
100
AcDbEntity
  8
0
100
AcDbLine
 62
250
  6
CONTINUOUS
 10
15.5348823481
 20
-3.6104330494
 11
15.1417989522
 21
-3.7020861574
  0
LINE
  5
2C2
100
AcDbEntity
  8
0
100
AcDbLine
 62
250
  6
CONTINUOUS
 10
14.4859851051
 20
-3.854999035
 11
14.1509181828
 21
-3.9331243238
  0
LINE
  5
2C3
100
AcDbEntity
  8
CURVE
100
AcDbLine
 62
250
  6
CONTINUOUS
 10
7.9698152275
 20
-10.9787963625
 11
7.7895814274
 21
-10.904838215
  0
LINE
  5
2C4
100
AcDbEntity
  8
RACCORDO
100
AcDbLine
 62
7
  6
CONTINUOUS
 10
-4.5446368311
 20
18.9893261501
 11
-4.5446368311
 21
19.2903355304
  0
LWPOLYLINE
  5
2C5
100
AcDbEntity
  8
ASSI
100
AcDbPolyline
 62
250
  6
CONTINUOUS
 90
10
 70
0
 10
-7.7802912339
 20
-27.3666207333
 10
-7.5556223122
 20
-24.610394198
 10
-7.3082516434
 20
-21.8404466441
 10
-7.0381978751
 20
-19.0569863299
 10
-6.7454813479
 20
-16.2602225457
 10
-6.4301240876
 20
-13.4503655821
 10
-6.0921498029
 20
-10.627626714
 10
-5.7315838925
 20
-7.7922182058
 10
-5.3484534436
 20
-4.9443532957
 10
-4.942787223
 20
-2.0842461638
  0
LWPOLYLINE
  5
2C6
100
AcDbEntity
  8
RACCORDO
100
AcDbPolyline
 62
250
  6
CONTINUOUS
 90
10
 70
0
 10
-7.7802912339
 20
-27.3666207333
 10
-7.5556223122
 20
-24.610394198
 10
-7.3082516434
 20
-21.8404466441
 10
-7.0381978751
 20
-19.0569863299
 10
-6.7454813479
 20
-16.2602225457
 10
-6.4301240876
 20
-13.4503655821
 10
-6.0921498029
 20
-10.627626714
 10
-5.7315838925
 20
-7.7922182058
 10
-5.3484534436
 20
-4.9443532957
 10
-4.942787223
 20
-2.0842461638
  0
LWPOLYLINE
  5
2C7
100
AcDbEntity
  8
ASSI
100
AcDbPolyline
 62
250
  6
CONTINUOUS
 90
5
 70
0
 10
-7.4288739931
 20
-27.38246512
 10
-7.2043042545
 20
-24.6275149878
 10
-6.9570858632
 20
-21.8592678489
 10
-6.6872188192
 20
-19.0777237032
 10
-6.3946792576
 20
-16.2826699308
  0
LWPOLYLINE
  5
2C8
100
AcDbEntity
  8
RACCORDO
100
AcDbPolyline
 62
250
  6
CONTINUOUS
 90
5
 70
0
 10
-7.4288739931
 20
-27.38246512
 10
-7.2043042545
 20
-24.6275149878
 10
-6.9570858632
 20
-21.8592678489
 10
-6.6872188192
 20
-19.0777237032
 10
-6.3946792576
 20
-16.2826699308
  0
LWPOLYLINE
  5
2C9
100
AcDbEntity
  8
ASSI
100
AcDbPolyline
 62
250
  6
CONTINUOUS
 90
6
 70
0
 10
-6.3946792576
 20
-16.2826699308
 10
-6.0794910433
 20
-13.4743191516
 10
-5.741725771
 20
-10.6533092251
 10
-5.3814073055
 20
-7.8198527714
 10
-4.9985117821
 20
-4.9737371704
 10
-4.5930392006
 20
-2.1149624222
  0
LWPOLYLINE
  5
2CA
100
AcDbEntity
  8
RACCORDO
100
AcDbPolyline
 62
250
  6
CONTINUOUS
 90
6
 70
0
 10
-6.3946792576
 20
-16.2826699308
 10
-6.0794910433
 20
-13.4743191516
 10
-5.741725771
 20
-10.6533092251
 10
-5.3814073055
 20
-7.8198527714
 10
-4.9985117821
 20
-4.9737371704
 10
-4.5930392006
 20
-2.1149624222
  0
LWPOLYLINE
  5
2CB
100
AcDbEntity
  8
RACCORDO
100
AcDbPolyline
 62
7
  6
CONTINUOUS
 90
10
 70
0
 10
-3.1770730156
 20
10.7749681326
 10
-3.1760292341
 20
10.782963443
 10
-3.1744665488
 20
10.7904467084
 10
-3.1723849597
 20
10.7974179288
 10
-3.1697725819
 20
10.8038997628
 10
-3.1666413004
 20
10.8098695518
 10
-3.1630267698
 20
10.81525932
 10
-3.1589234667
 20
10.8200624379
 10
-3.1543369144
 20
10.824285535
 10
-3.1516676579
 20
10.8263167835
  0
LWPOLYLINE
  5
2CC
100
AcDbEntity
  8
ASSI
100
AcDbPolyline
 62
250
  6
CONTINUOUS
 90
16
 70
0
 10
-4.942787223
 20
-2.0842461638
 10
-4.9310968677
 20
-2.0189582831
 10
-4.9147199423
 20
-1.9515532585
 10
-4.8937674424
 20
-1.882488823
 10
-4.8683814599
 20
-1.8122380783
 10
-4.8387337899
 20
-1.7412743058
 10
-4.8050228308
 20
-1.6700674967
 10
-4.7674692209
 20
-1.5990931903
 10
-4.7263296906
 20
-1.5288428036
 10
-4.6818962666
 20
-1.4598074403
 10
-4.6344756441
 20
-1.3924651391
 10
-4.5843836719
 20
-1.3272643568
 10
-4.531957265
 20
-1.2646348632
 10
-4.4775490774
 20
-1.2049990396
 10
-4.4215263066
 20
-1.1487678519
 10
-4.364266587
 20
-1.0963247925
  0
LWPOLYLINE
  5
2CD
100
AcDbEntity
  8
RACCORDO
100
AcDbPolyline
 62
250
  6
CONTINUOUS
 90
16
 70
0
 10
-4.942787223
 20
-2.0842461638
 10
-4.9310968677
 20
-2.0189582831
 10
-4.9147199423
 20
-1.9515532585
 10
-4.8937674424
 20
-1.882488823
 10
-4.8683814599
 20
-1.8122380783
 10
-4.8387337899
 20
-1.7412743058
 10
-4.8050228308
 20
-1.6700674967
 10
-4.7674692209
 20
-1.5990931903
 10
-4.7263296906
 20
-1.5288428036
 10
-4.6818962666
 20
-1.4598074403
 10
-4.6344756441
 20
-1.3924651391
 10
-4.5843836719
 20
-1.3272643568
 10
-4.531957265
 20
-1.2646348632
 10
-4.4775490774
 20
-1.2049990396
 10
-4.4215263066
 20
-1.1487678519
 10
-4.364266587
 20
-1.0963247925
  0
LINE
  5
2CE
100
AcDbEntity
  8
RACCORDO
100
AcDbLine
 62
250
  6
CONTINUOUS
 10
-1.6820739847
 20
14.4387970247
 11
-1.7694771896
 21
14.107994221
  0
LINE
  5
2CF
100
AcDbEntity
  8
RACCORDO
100
AcDbLine
 62
250
  6
CONTINUOUS
 10
-1.406152926
 20
14.3902010739
 11
-1.4935561309
 21
14.0593982702
  0
LINE
  5
2D0
100
AcDbEntity
  8
RACCORDO
100
AcDbLine
 62
7
  6
CONTINUOUS
 10
1.9529230986
 20
7.2398875746
 11
7.7392706195
 21
11.380386834
  0
LINE
  5
2D1
100
AcDbEntity
  8
RACCORDO
100
AcDbLine
 62
7
  6
CONTINUOUS
 10
1.7486135215
 20
7.5886658392
 11
7.7392706195
 21
11.8456847707
  0
LINE
  5
2D2
100
AcDbEntity
  8
RACCORDO
100
AcDbLine
 62
7
  6
CONTINUOUS
 10
-0.3998605306
 20
7.5171088051
 11
-0.4099054289
 21
7.5100773693
  0
LINE
  5
2D3
100
AcDbEntity
  8
DRAFT
100
AcDbLine
 62
7
  6
CONTINUOUS
 10
2.0375480256
 20
7.0954237879
 11
2.3765180296
 21
7.3291950329
  0
LINE
  5
2D4
100
AcDbEntity
  8
ASSI
100
AcDbLine
 62
7
  6
CONTINUOUS
 10
2.0375480256
 20
7.0954237879
 11
2.3765180296
 21
7.3291950329
  0
LINE
  5
2D5
100
AcDbEntity
  8
0
100
AcDbLine
 62
250
  6
CONTINUOUS
 10
16.488487282
 20
-9.3622475541
 11
12.9767370151
 21
-8.3984263871
  0
LINE
  5
2D6
100
AcDbEntity
  8
CURVE
100
AcDbLine
 62
250
  6
CONTINUOUS
 10
9.0512181032
 20
-10.9134288936
 11
8.8709842843
 21
-10.8394707596
  0
LINE
  5
2D7
100
AcDbEntity
  8
CURVE
100
AcDbLine
 62
250
  6
CONTINUOUS
 10
8.8709842843
 20
-9.8212374802
 11
9.0512181032
 21
-9.8951956142
  0
LINE
  5
2D8
100
AcDbEntity
  8
CURVE
100
AcDbLine
 62
250
  6
CONTINUOUS
 10
11.0840204445
 20
-14.0461252832
 11
10.6012567315
 21
-13.7660515467
  0
LINE
  5
2D9
100
AcDbEntity
  8
ASSI
100
AcDbLine
 62
250
  6
CONTINUOUS
 10
-4.942787223
 20
-2.0842461638
 11
-19.7486816189
 21
8.3851021651
  0
LINE
  5
2DA
100
AcDbEntity
  8
RACCORDO
100
AcDbLine
 62
250
  6
CONTINUOUS
 10
-4.942787223
 20
-2.0842461638
 11
-19.7486816189
 21
8.3851021651
  0
LWPOLYLINE
  5
2DB
100
AcDbEntity
  8
ASSI
100
AcDbPolyline
 62
250
  6
CONTINUOUS
 90
8
 70
0
 10
-19.7486816133
 20
8.3851021874
 10
-19.7701530081
 20
8.4021247124
 10
-19.7883081963
 20
8.42046964
 10
-19.8028399722
 20
8.4398265539
 10
-19.8135024424
 20
8.459867914
 10
-19.820115186
 20
8.4802545985
 10
-19.8225663082
 20
8.5006416422
 10
-19.8216269582
 20
8.5158588165
  0
LWPOLYLINE
  5
2DC
100
AcDbEntity
  8
RACCORDO
100
AcDbPolyline
 62
250
  6
CONTINUOUS
 90
8
 70
0
 10
-19.7486816133
 20
8.3851021874
 10
-19.7701530081
 20
8.4021247124
 10
-19.7883081963
 20
8.42046964
 10
-19.8028399722
 20
8.4398265539
 10
-19.8135024424
 20
8.459867914
 10
-19.820115186
 20
8.4802545985
 10
-19.8225663082
 20
8.5006416422
 10
-19.8216269582
 20
8.5158588165
  0
LINE
  5
2DD
100
AcDbEntity
  8
CURVE
100
AcDbLine
 62
250
  6
CONTINUOUS
 10
6.738217531
 20
-15.758965011
 11
5.4065406369
 21
-14.3901669744
  0
LINE
  5
2DE
100
AcDbEntity
  8
RACCORDO
100
AcDbLine
 62
7
  6
CONTINUOUS
 10
-3.0040584102
 20
17.9552374146
 11
-3.0040584102
 21
18.2160385798
  0
LINE
  5
2DF
100
AcDbEntity
  8
RACCORDO
100
AcDbLine
 62
7
  6
CONTINUOUS
 10
-2.6051105186
 20
20.2832432073
 11
-2.6051105186
 21
19.9523906264
  0
LINE
  5
2E0
100
AcDbEntity
  8
RACCORDO
100
AcDbLine
 62
7
  6
CONTINUOUS
 10
-2.1623325577
 20
3.2211992035
 11
-2.1623325577
 21
0.9667928062
  0
LINE
  5
2E1
100
AcDbEntity
  8
RACCORDO
100
AcDbLine
 62
7
  6
CONTINUOUS
 10
-2.1623325577
 20
-25.8055610881
 11
-2.1623325577
 21
-28.0599674855
  0
LINE
  5
2E2
100
AcDbEntity
  8
ASSI
100
AcDbLine
 62
7
  6
CONTINUOUS
 10
-1.3538469633
 20
18.9584828296
 11
-1.3526803507
 21
18.9832878207
  0
LINE
  5
2E3
100
AcDbEntity
  8
RACCORDO
100
AcDbLine
 62
7
  6
CONTINUOUS
 10
-3.2902897807
 20
9.5609509285
 11
-3.1770730156
 21
10.7749681326
  0
LINE
  5
2E4
100
AcDbEntity
  8
RACCORDO
100
AcDbLine
 62
7
  6
CONTINUOUS
 10
-3.0190353633
 20
9.6366902715
 11
-2.9179313607
 21
10.720822984
  0
LWPOLYLINE
  5
2E5
100
AcDbEntity
  8
ASSI
100
AcDbPolyline
 62
250
  6
CONTINUOUS
 90
16
 70
0
 10
-4.5930392006
 20
-2.1149624222
 10
-4.5841989606
 20
-2.0657678633
 10
-4.5720058441
 20
-2.0155695533
 10
-4.5564598513
 20
-1.9643674921
 10
-4.5374085242
 20
-1.911769998
 10
-4.5150043207
 20
-1.8581687527
 10
-4.4897046146
 20
-1.8047388017
 10
-4.4614453575
 20
-1.7515024964
 10
-4.4302905978
 20
-1.6984374854
 10
-4.396889855
 20
-1.6466517599
 10
-4.3611740047
 20
-1.5961597847
 10
-4.3232121712
 20
-1.5469470951
 10
-4.283861247
 20
-1.5000782877
 10
-4.2434068626
 20
-1.455908228
 10
-4.2015633874
 20
-1.4140820506
 10
-4.1583308213
 20
-1.3745997554
  0
LWPOLYLINE
  5
2E6
100
AcDbEntity
  8
RACCORDO
100
AcDbPolyline
 62
250
  6
CONTINUOUS
 90
16
 70
0
 10
-4.5930392006
 20
-2.1149624222
 10
-4.5841989606
 20
-2.0657678633
 10
-4.5720058441
 20
-2.0155695533
 10
-4.5564598513
 20
-1.9643674921
 10
-4.5374085242
 20
-1.911769998
 10
-4.5150043207
 20
-1.8581687527
 10
-4.4897046146
 20
-1.8047388017
 10
-4.4614453575
 20
-1.7515024964
 10
-4.4302905978
 20
-1.6984374854
 10
-4.396889855
 20
-1.6466517599
 10
-4.3611740047
 20
-1.5961597847
 10
-4.3232121712
 20
-1.5469470951
 10
-4.283861247
 20
-1.5000782877
 10
-4.2434068626
 20
-1.455908228
 10
-4.2015633874
 20
-1.4140820506
 10
-4.1583308213
 20
-1.3745997554
  0
LINE
  5
2E7
100
AcDbEntity
  8
0
100
AcDbLine
 62
250
  6
CONTINUOUS
 10
-0.650693067
 20
10.8383930822
 11
-0.5632898621
 21
11.1691958858
  0
LINE
  5
2E8
100
AcDbEntity
  8
RACCORDO
100
AcDbLine
 62
250
  6
CONTINUOUS
 10
0.6444567394
 20
12.9402010739
 11
0.599182752
 21
12.7688485247
  0
LWPOLYLINE
  5
2E9
100
AcDbEntity
  8
RACCORDO
100
AcDbPolyline
 62
7
  6
CONTINUOUS
 90
11
 70
0
 10
0.7033246799
 20
12.8377191011
 10
0.7022686283
 20
12.8342086231
 10
0.6996804621
 20
12.8279070409
 10
0.6962711374
 20
12.8218385477
 10
0.6920841413
 20
12.8160805494
 10
0.687109512
 20
12.8106370233
 10
0.6813572113
 20
12.805503992
 10
0.6749006118
 20
12.8007469292
 10
0.6677641711
 20
12.7963876593
 10
0.6599234316
 20
12.7924043578
 10
0.6513783933
 20
12.7887970247
  0
LINE
  5
2EA
100
AcDbEntity
  8
RACCORDO
100
AcDbLine
 62
250
  6
CONTINUOUS
 10
15.4999033732
 20
13.9551746927
 11
9.4472111094
 21
9.6532031375
  0
LINE
  5
2EB
100
AcDbEntity
  8
ASSI
100
AcDbLine
 62
250
  6
CONTINUOUS
 10
15.4999033732
 20
13.9551746927
 11
9.4472111094
 21
9.6532031375
  0
LINE
  5
2EC
100
AcDbEntity
  8
DRAFT
100
AcDbLine
 62
7
  6
CONTINUOUS
 10
9.5419613461
 20
9.4914543659
 11
3.233537762
 21
5.0537415987
  0
LINE
  5
2ED
100
AcDbEntity
  8
ASSI
100
AcDbLine
 62
7
  6
CONTINUOUS
 10
9.5419613461
 20
9.4914543659
 11
3.233537762
 21
5.0537415987
  0
LINE
  5
2EE
100
AcDbEntity
  8
RACCORDO
100
AcDbLine
 62
250
  6
CONTINUOUS
 10
-2.3390823291
 20
3.5229299368
 11
1.4739993635
 21
6.192089767
  0
LINE
  5
2EF
100
AcDbEntity
  8
RACCORDO
100
AcDbLine
 62
250
  6
CONTINUOUS
 10
-2.1623325577
 20
3.2211992035
 11
1.6507491349
 21
5.8903590338
  0
LINE
  5
2F0
100
AcDbEntity
  8
DRAFT
100
AcDbLine
 62
7
  6
CONTINUOUS
 10
2.2435882683
 20
6.7436910923
 11
8.5615370677
 21
11.1651433002
  0
LINE
  5
2F1
100
AcDbEntity
  8
ASSI
100
AcDbLine
 62
7
  6
CONTINUOUS
 10
2.2435882683
 20
6.7436910923
 11
8.5615370677
 21
11.1651433002
  0
LINE
  5
2F2
100
AcDbEntity
  8
DRAFT
100
AcDbLine
 62
7
  6
CONTINUOUS
 10
1.6507491349
 20
4.0077753585
 11
3.233537762
 21
5.0537415987
  0
LWPOLYLINE
  5
2F3
100
AcDbEntity
  8
RACCORDO
100
AcDbPolyline
 62
250
  6
CONTINUOUS
 90
10
 70
0
 10
15.4999033732
 20
13.9551746927
 10
15.5366370834
 20
13.9789133435
 10
15.5729393578
 20
13.9985405727
 10
15.6084168642
 20
14.0138437208
 10
15.6426852064
 20
14.0246569794
 10
15.6753730898
 20
14.0308631877
 10
15.7061263436
 20
14.0323951019
 10
15.7346117587
 20
14.0292361238
 10
15.760520698
 20
14.0214204807
 10
15.7854932115
 20
14.0077014209
  0
LWPOLYLINE
  5
2F4
100
AcDbEntity
  8
ASSI
100
AcDbPolyline
 62
250
  6
CONTINUOUS
 90
10
 70
0
 10
15.4999033732
 20
13.9551746927
 10
15.5366370834
 20
13.9789133435
 10
15.5729393578
 20
13.9985405727
 10
15.6084168642
 20
14.0138437208
 10
15.6426852064
 20
14.0246569794
 10
15.6753730898
 20
14.0308631877
 10
15.7061263436
 20
14.0323951019
 10
15.7346117587
 20
14.0292361238
 10
15.760520698
 20
14.0214204807
 10
15.7854932115
 20
14.0077014209
  0
LINE
  5
2F5
100
AcDbEntity
  8
CURVE
100
AcDbLine
 62
250
  6
CONTINUOUS
 10
7.2651829381
 20
6.47152742
 11
5.5367069808
 21
5.6805684429
  0
LINE
  5
2F6
100
AcDbEntity
  8
CURVE
100
AcDbLine
 62
250
  6
CONTINUOUS
 10
6.2385371498
 20
5.3049388735
 11
7.0630091538
 21
5.6822212167
  0
LINE
  5
2F7
100
AcDbEntity
  8
CURVE
100
AcDbLine
 62
250
  6
CONTINUOUS
 10
5.3796868555
 20
4.9119250999
 11
5.9575827623
 21
5.1763732405
  0
LWPOLYLINE
  5
2F8
100
AcDbEntity
  8
CURVE
100
AcDbPolyline
 62
250
  6
CONTINUOUS
 90
47
 70
0
 10
5.5731411072
 20
4.6874563246
 10
5.562113011
 20
4.6832617695
 10
5.5511216064
 20
4.6792205777
 10
5.5401792155
 20
4.6754138076
 10
5.5292981604
 20
4.6719225176
 10
5.5217582857
 20
4.6697188554
 10
5.514278421
 20
4.6677392194
 10
5.5068827738
 20
4.6660148943
 10
5.4995955518
 20
4.6645771648
 10
5.4924409628
 20
4.6634573154
 10
5.4854432145
 20
4.662686631
 10
5.4786265144
 20
4.662296396
 10
5.4720150704
 20
4.6623178952
 10
5.4656330901
 20
4.6627824132
 10
5.4595047812
 20
4.6637212346
 10
5.4536482528
 20
4.6651548398
 10
5.4480574803
 20
4.6670604237
 10
5.4427203363
 20
4.6694043693
 10
5.4376246933
 20
4.6721530597
 10
5.432758424
 20
4.6752728779
 10
5.428109401
 20
4.678730207
 10
5.4236654969
 20
4.68249143
 10
5.4194145844
 20
4.6865229299
 10
5.415344536
 20
4.6907910899
 10
5.4114432244
 20
4.6952622929
 10
5.4061347853
 20
4.7019682783
 10
5.4011556032
 20
4.7090326831
 10
5.3965139452
 20
4.7164666677
 10
5.3922180787
 20
4.7242813923
 10
5.3882762708
 20
4.7324880173
 10
5.3846967889
 20
4.741097703
 10
5.3814879
 20
4.7501216097
 10
5.378853261
 20
4.7588561495
 10
5.3765501078
 20
4.7679422278
 10
5.3745848409
 20
4.7773663802
 10
5.3729638608
 20
4.7871151421
 10
5.3716935683
 20
4.797175049
 10
5.3707803637
 20
4.8075326364
 10
5.3702306477
 20
4.8181744399
 10
5.3700508208
 20
4.8290869949
 10
5.3702472836
 20
4.840256837
 10
5.3708264366
 20
4.8516705015
 10
5.3717946804
 20
4.8633145241
 10
5.3731584155
 20
4.8751754402
 10
5.3749240425
 20
4.8872397854
 10
5.3770979619
 20
4.899494095
 10
5.3796865743
 20
4.9119249047
  0
LWPOLYLINE
  5
2F9
100
AcDbEntity
  8
ASSI
100
AcDbPolyline
 62
250
  6
CONTINUOUS
 90
13
 70
0
 10
-4.9427711445
 20
-2.0842373808
 10
-4.918350572
 20
-2.0996656075
 10
-4.8913906249
 20
-2.1132225357
 10
-4.8623474516
 20
-2.1246787891
 10
-4.8317124479
 20
-2.1338405336
 10
-4.8000039426
 20
-2.1405527573
 10
-4.7677584273
 20
-2.1447018935
 10
-4.73552148
 20
-2.1462177412
 10
-4.7038385331
 20
-2.1450746528
 10
-4.6732456461
 20
-2.1412919687
 10
-4.6442604348
 20
-2.1349336902
 10
-4.6173733144
 20
-2.1261073957
 10
-4.5930392011
 20
-2.1149624218
  0
LWPOLYLINE
  5
2FA
100
AcDbEntity
  8
RACCORDO
100
AcDbPolyline
 62
250
  6
CONTINUOUS
 90
13
 70
0
 10
-4.9427711445
 20
-2.0842373808
 10
-4.918350572
 20
-2.0996656075
 10
-4.8913906249
 20
-2.1132225357
 10
-4.8623474516
 20
-2.1246787891
 10
-4.8317124479
 20
-2.1338405336
 10
-4.8000039426
 20
-2.1405527573
 10
-4.7677584273
 20
-2.1447018935
 10
-4.73552148
 20
-2.1462177412
 10
-4.7038385331
 20
-2.1450746528
 10
-4.6732456461
 20
-2.1412919687
 10
-4.6442604348
 20
-2.1349336902
 10
-4.6173733144
 20
-2.1261073957
 10
-4.5930392011
 20
-2.1149624218
  0
LWPOLYLINE
  5
2FB
100
AcDbEntity
  8
ASSI
100
AcDbPolyline
 62
250
  6
CONTINUOUS
 90
9
 70
0
 10
-19.1767042201
 20
9.3776503038
 10
-19.1996686708
 20
9.3924730258
 10
-19.2217177279
 20
9.4044437431
 10
-19.2424753412
 20
9.4133583357
 10
-19.2615875226
 20
9.4190648192
 10
-19.2787283046
 20
9.4214659111
 10
-19.2936053266
 20
9.4205207307
 10
-19.3059649181
 20
9.4162455046
 10
-19.3129067846
 20
9.4113956972
  0
LWPOLYLINE
  5
2FC
100
AcDbEntity
  8
RACCORDO
100
AcDbPolyline
 62
250
  6
CONTINUOUS
 90
9
 70
0
 10
-19.1767042201
 20
9.3776503038
 10
-19.1996686708
 20
9.3924730258
 10
-19.2217177279
 20
9.4044437431
 10
-19.2424753412
 20
9.4133583357
 10
-19.2615875226
 20
9.4190648192
 10
-19.2787283046
 20
9.4214659111
 10
-19.2936053266
 20
9.4205207307
 10
-19.3059649181
 20
9.4162455046
 10
-19.3129067846
 20
9.4113956972
  0
LINE
  5
2FD
100
AcDbEntity
  8
ASSI
100
AcDbLine
 62
250
  6
CONTINUOUS
 10
-4.364266587
 20
-1.0963247925
 11
-19.1767042201
 21
9.3776503038
  0
LINE
  5
2FE
100
AcDbEntity
  8
RACCORDO
100
AcDbLine
 62
250
  6
CONTINUOUS
 10
-4.364266587
 20
-1.0963247925
 11
-19.1767042201
 21
9.3776503038
  0
LWPOLYLINE
  5
2FF
100
AcDbEntity
  8
ASSI
100
AcDbPolyline
 62
250
  6
CONTINUOUS
 90
13
 70
0
 10
-4.364266587
 20
-1.0963247925
 10
-4.3411582227
 20
-1.114080354
 10
-4.3179204375
 20
-1.1341319975
 10
-4.2949495474
 20
-1.1561377459
 10
-4.2726373172
 20
-1.1797222954
 10
-4.2513642775
 20
-1.2044834154
 10
-4.2314932353
 20
-1.2299988088
 10
-4.2133630872
 20
-1.2558333148
 10
-4.1972830398
 20
-1.281546331
 10
-4.1835273354
 20
-1.3066993264
 10
-4.1723305748
 20
-1.3308633213
 10
-4.1638837169
 20
-1.3536262033
 10
-4.1583308213
 20
-1.3745997554
  0
LWPOLYLINE
  5
300
100
AcDbEntity
  8
RACCORDO
100
AcDbPolyline
 62
250
  6
CONTINUOUS
 90
13
 70
0
 10
-4.364266587
 20
-1.0963247925
 10
-4.3411582227
 20
-1.114080354
 10
-4.3179204375
 20
-1.1341319975
 10
-4.2949495474
 20
-1.1561377459
 10
-4.2726373172
 20
-1.1797222954
 10
-4.2513642775
 20
-1.2044834154
 10
-4.2314932353
 20
-1.2299988088
 10
-4.2133630872
 20
-1.2558333148
 10
-4.1972830398
 20
-1.281546331
 10
-4.1835273354
 20
-1.3066993264
 10
-4.1723305748
 20
-1.3308633213
 10
-4.1638837169
 20
-1.3536262033
 10
-4.1583308213
 20
-1.3745997554
  0
LWPOLYLINE
  5
301
100
AcDbEntity
  8
ASSI
100
AcDbPolyline
 62
7
  6
CONTINUOUS
 90
13
 70
0
 10
-1.8604819861
 20
0.6246857313
 10
-1.8627171012
 20
0.6484232403
 10
-1.8679838283
 20
0.6738166672
 10
-1.8761457314
 20
0.7004854938
 10
-1.8869718683
 20
0.7280588185
 10
-1.9002815532
 20
0.7560774175
 10
-1.9159517201
 20
0.7840014668
 10
-1.9337027264
 20
0.8113890035
 10
-1.9531803949
 20
0.8378031932
 10
-1.9741031489
 20
0.8627177552
 10
-1.9961150975
 20
0.8856927534
 10
-2.0187953162
 20
0.9063794777
 10
-2.0417435093
 20
0.924428971
  0
LWPOLYLINE
  5
302
100
AcDbEntity
  8
RACCORDO
100
AcDbPolyline
 62
7
  6
CONTINUOUS
 90
13
 70
0
 10
-1.8604819861
 20
0.6246857313
 10
-1.8627171012
 20
0.6484232403
 10
-1.8679838283
 20
0.6738166672
 10
-1.8761457314
 20
0.7004854938
 10
-1.8869718683
 20
0.7280588185
 10
-1.9002815532
 20
0.7560774175
 10
-1.9159517201
 20
0.7840014668
 10
-1.9337027264
 20
0.8113890035
 10
-1.9531803949
 20
0.8378031932
 10
-1.9741031489
 20
0.8627177552
 10
-1.9961150975
 20
0.8856927534
 10
-2.0187953162
 20
0.9063794777
 10
-2.0417435093
 20
0.924428971
  0
LWPOLYLINE
  5
303
100
AcDbEntity
  8
ASSI
100
AcDbPolyline
 62
7
  6
CONTINUOUS
 90
8
 70
0
 10
-1.3526803507
 20
18.9832878207
 10
-1.3539023205
 20
19.0062579971
 10
-1.3576689857
 20
19.0280011495
 10
-1.3641809234
 20
19.0482694254
 10
-1.373533526
 20
19.067034233
 10
-1.3857371983
 20
19.0842253567
 10
-1.4009520226
 20
19.0998139657
 10
-1.4145197936
 20
19.1105158507
  0
LINE
  5
304
100
AcDbEntity
  8
RACCORDO
100
AcDbLine
 62
7
  6
CONTINUOUS
 10
-1.7772838968
 20
8.4897190588
 11
-1.7772838968
 21
7.9184267571
  0
LINE
  5
305
100
AcDbEntity
  8
0
100
AcDbLine
 62
7
  6
CONTINUOUS
 10
-1.5747883501
 20
9.7710774531
 11
-1.5747883501
 21
9.9832094874
  0
LINE
  5
306
100
AcDbEntity
  8
RACCORDO
100
AcDbLine
 62
250
  6
CONTINUOUS
 10
-1.5429693218
 20
8.0902974124
 11
-1.5429693218
 21
7.5155347072
  0
LINE
  5
307
100
AcDbEntity
  8
RACCORDO
100
AcDbLine
 62
250
  6
CONTINUOUS
 10
-1.5313175502
 20
7.5072956605
 11
-1.5313175502
 21
8.0820583657
  0
LINE
  5
308
100
AcDbEntity
  8
ASSI
100
AcDbLine
 62
7
  6
CONTINUOUS
 10
-1.497479122
 20
18.7385435453
 11
-1.497479122
 21
18.3220698405
  0
LINE
  5
309
100
AcDbEntity
  8
ASSI
100
AcDbLine
 62
7
  6
CONTINUOUS
 10
-1.3526058094
 20
18.983267525
 11
-1.3526058094
 21
18.3774385495
  0
LINE
  5
30A
100
AcDbEntity
  8
0
100
AcDbLine
 62
7
  6
CONTINUOUS
 10
-1.2919456376
 20
9.9710774531
 11
-1.2919456376
 21
10.1832094874
  0
LINE
  5
30B
100
AcDbEntity
  8
0
100
AcDbLine
 62
250
  6
CONTINUOUS
 10
-1.0798136032
 20
10.5453415218
 11
-1.0798136032
 21
10.8281842343
  0
LINE
  5
30C
100
AcDbEntity
  8
0
100
AcDbLine
 62
250
  6
CONTINUOUS
 10
-0.7162454706
 20
10.8024230138
 11
-0.7162454706
 21
11.0852657263
  0
LINE
  5
30D
100
AcDbEntity
  8
RACCORDO
100
AcDbLine
 62
250
  6
CONTINUOUS
 10
-0.4099054289
 20
7.5100773693
 11
-0.4099054289
 21
8.0731981644
  0
LINE
  5
30E
100
AcDbEntity
  8
DRAFT
100
AcDbLine
 62
7
  6
CONTINUOUS
 10
-0.3998605306
 20
8.0800228119
 11
-0.3998605306
 21
7.5171088051
  0
LWPOLYLINE
  5
30F
100
AcDbEntity
  8
0
100
AcDbPolyline
 62
7
  6
CONTINUOUS
 90
19
 70
0
 10
-1.5747883501
 20
9.9832094874
 10
-1.5727866572
 20
10.0282979073
 10
-1.5671647054
 20
10.0749761913
 10
-1.5579224946
 20
10.1232443396
 10
-1.5449352169
 20
10.1734919173
 10
-1.5283276803
 20
10.2253293593
 10
-1.5084743082
 20
10.2775879695
 10
-1.485301368
 20
10.3302773154
 10
-1.4588825924
 20
10.3833878295
 10
-1.4298136032
 20
10.435722114
 10
-1.398034198
 20
10.4872625361
 10
-1.3636045793
 20
10.5380267286
 10
-1.3273009767
 20
10.5868701924
 10
-1.2890808204
 20
10.6337492961
 10
-1.2489866802
 20
10.6787076712
 10
-1.2079224946
 20
10.720731713
 10
-1.1661895763
 20
10.7594835533
 10
-1.1234866125
 20
10.7953010604
 10
-1.0798136032
 20
10.8281842343
  0
LWPOLYLINE
  5
310
100
AcDbEntity
  8
0
100
AcDbPolyline
 62
7
  6
CONTINUOUS
 90
16
 70
0
 10
-1.2919456376
 20
10.1832094874
 10
-1.2906791053
 20
10.2066688318
 10
-1.2872182784
 20
10.2309668072
 10
-1.2815631568
 20
10.2561034137
 10
-1.2736045019
 20
10.2823702877
 10
-1.2634515522
 20
10.3094757928
 10
-1.2514320241
 20
10.3365450196
 10
-1.2374850128
 20
10.3635767843
 10
-1.221671423
 20
10.3905722707
 10
-1.2045016846
 20
10.4166601204
 10
-1.1859315477
 20
10.4418107183
 10
-1.1660052621
 20
10.4660536796
 10
-1.1453660069
 20
10.4886064919
 10
-1.1242281752
 20
10.5092083176
 10
-1.102377374
 20
10.5281199942
 10
-1.0798136032
 20
10.5453415218
  0
LINE
  5
311
100
AcDbEntity
  8
RACCORDO
100
AcDbLine
 62
250
  6
CONTINUOUS
 10
2.6255753441
 20
14.1209949121
 11
2.5946452211
 21
14.0039308818
  0
LWPOLYLINE
  5
312
100
AcDbEntity
  8
RACCORDO
100
AcDbPolyline
 62
7
  6
CONTINUOUS
 90
11
 70
0
 10
2.5736290575
 20
14.0720728357
 10
2.5746851091
 20
14.0755833137
 10
2.5772732753
 20
14.0818848959
 10
2.5806826
 20
14.087953389
 10
2.5848695961
 20
14.0937113873
 10
2.5898442254
 20
14.0991549134
 10
2.5955965261
 20
14.1042879447
 10
2.6020531256
 20
14.1090450076
 10
2.6091895663
 20
14.1134042775
 10
2.6170303058
 20
14.117387579
 10
2.6255753441
 20
14.1209949121
  0
LINE
  5
313
100
AcDbEntity
  8
ASSI
100
AcDbLine
 62
250
  6
CONTINUOUS
 10
-4.364266587
 20
-1.0963247925
 11
-2.0417435093
 21
0.924428971
  0
LINE
  5
314
100
AcDbEntity
  8
RACCORDO
100
AcDbLine
 62
250
  6
CONTINUOUS
 10
-4.364266587
 20
-1.0963247925
 11
-2.0417435093
 21
0.924428971
  0
LINE
  5
315
100
AcDbEntity
  8
ASSI
100
AcDbLine
 62
250
  6
CONTINUOUS
 10
-4.1583308213
 20
-1.3745997554
 11
-1.8604819861
 21
0.6246857313
  0
LINE
  5
316
100
AcDbEntity
  8
RACCORDO
100
AcDbLine
 62
250
  6
CONTINUOUS
 10
-4.1583308213
 20
-1.3745997554
 11
-1.8604819861
 21
0.6246857313
  0
LWPOLYLINE
  5
317
100
AcDbEntity
  8
CURVE
100
AcDbPolyline
 62
250
  6
CONTINUOUS
 90
40
 70
0
 10
5.5367069808
 20
5.6805684429
 10
5.5241592621
 20
5.6702812666
 10
5.5116353479
 20
5.6596390886
 10
5.4991474731
 20
5.6486539342
 10
5.4867078726
 20
5.6373378289
 10
5.4743287811
 20
5.6257027983
 10
5.4620224336
 20
5.6137608679
 10
5.4498010649
 20
5.6015240631
 10
5.4376769099
 20
5.5890044095
 10
5.4256622033
 20
5.5762139326
 10
5.4137691802
 20
5.5631646578
 10
5.4020100753
 20
5.5498686107
 10
5.3903971235
 20
5.5363378168
 10
5.3789425597
 20
5.5225843015
 10
5.3676578804
 20
5.5086200167
 10
5.3565516285
 20
5.4944566192
 10
5.345631609
 20
5.4801056922
 10
5.3349056265
 20
5.4655788188
 10
5.3243814858
 20
5.4508875822
 10
5.3140669915
 20
5.4360435656
 10
5.3039699485
 20
5.4210583521
 10
5.2940981615
 20
5.4059435249
 10
5.2844594351
 20
5.3907106671
 10
5.2750615742
 20
5.3753713619
 10
5.2659123835
 20
5.3599371924
 10
5.2570196677
 20
5.3444197418
 10
5.2483912315
 20
5.3288305933
 10
5.2400346428
 20
5.3131820004
 10
5.2319565212
 20
5.2974888979
 10
5.2241632496
 20
5.2817668913
 10
5.2166612107
 20
5.2660315858
 10
5.2094567873
 20
5.2502985867
 10
5.2025563623
 20
5.2345834994
 10
5.1959663184
 20
5.218901929
 10
5.1896930384
 20
5.203269481
 10
5.183742905
 20
5.1877017606
 10
5.1781223012
 20
5.1722143731
 10
5.1728376096
 20
5.1568229238
 10
5.167895213
 20
5.141543018
 10
5.1633014943
 20
5.1263902611
  0
LWPOLYLINE
  5
318
100
AcDbEntity
  8
RACCORDO
100
AcDbPolyline
 62
250
  6
CONTINUOUS
 90
9
 70
0
 10
15.8534433015
 20
13.3516442835
 10
15.8880430578
 20
13.3792906741
 10
15.9183772291
 20
13.4093375324
 10
15.9441150763
 20
13.4414572533
 10
15.9649783166
 20
13.4753040466
 10
15.9807358291
 20
13.5105048052
 10
15.991212775
 20
13.5466616421
 10
15.9963004849
 20
13.5833701563
 10
15.9968180663
 20
13.5993800376
  0
LWPOLYLINE
  5
319
100
AcDbEntity
  8
ASSI
100
AcDbPolyline
 62
250
  6
CONTINUOUS
 90
9
 70
0
 10
15.8534433015
 20
13.3516442835
 10
15.8880430578
 20
13.3792906741
 10
15.9183772291
 20
13.4093375324
 10
15.9441150763
 20
13.4414572533
 10
15.9649783166
 20
13.4753040466
 10
15.9807358291
 20
13.5105048052
 10
15.991212775
 20
13.5466616421
 10
15.9963004849
 20
13.5833701563
 10
15.9968180663
 20
13.5993800376
  0
LINE
  5
31A
100
AcDbEntity
  8
CURVE
100
AcDbLine
 62
250
  6
CONTINUOUS
 10
11.6447692075
 20
9.5252141358
 11
10.7335871639
 21
8.8695666378
  0
LINE
  5
31B
100
AcDbEntity
  8
CURVE
100
AcDbLine
 62
250
  6
CONTINUOUS
 10
14.1580375708
 20
11.2080586442
 11
14.8088818896
 21
11.6763782871
  0
LINE
  5
31C
100
AcDbEntity
  8
CURVE
100
AcDbLine
 62
250
  6
CONTINUOUS
 10
8.5418390742
 20
7.0550927092
 11
9.1426184495
 21
7.4873877672
  0
LINE
  5
31D
100
AcDbEntity
  8
CURVE
100
AcDbLine
 62
250
  6
CONTINUOUS
 10
12.616095904
 20
9.9672237106
 11
13.2669402228
 21
10.4355433535
  0
LINE
  5
31E
100
AcDbEntity
  8
CURVE
100
AcDbLine
 62
250
  6
CONTINUOUS
 10
11.2542626135
 20
8.7189428371
 11
11.5146003383
 21
8.9062706923
  0
LINE
  5
31F
100
AcDbEntity
  8
CURVE
100
AcDbLine
 62
250
  6
CONTINUOUS
 10
14.8088818896
 20
11.2397398497
 11
14.1580375708
 21
10.7714202068
  0
LINE
  5
320
100
AcDbEntity
  8
CURVE
100
AcDbLine
 62
250
  6
CONTINUOUS
 10
13.2669402228
 20
9.9299620049
 11
12.616095904
 21
9.461642362
  0
LINE
  5
321
100
AcDbEntity
  8
CURVE
100
AcDbLine
 62
250
  6
CONTINUOUS
 10
9.1426184495
 20
6.780280986
 11
8.5418390742
 21
6.347985928
  0
LINE
  5
322
100
AcDbEntity
  8
CURVE
100
AcDbLine
 62
250
  6
CONTINUOUS
 10
11.5146003383
 20
8.4466512845
 11
11.1891781857
 21
8.212491468
  0
LINE
  5
323
100
AcDbEntity
  8
CURVE
100
AcDbLine
 62
250
  6
CONTINUOUS
 10
14.9390507588
 20
10.8343882467
 11
14.0278687152
 21
10.1787407487
  0
LINE
  5
324
100
AcDbEntity
  8
CURVE
100
AcDbLine
 62
250
  6
CONTINUOUS
 10
10.8637560195
 20
7.7156921053
 11
10.9939248751
 21
7.809356028
  0
LINE
  5
325
100
AcDbEntity
  8
CURVE
100
AcDbLine
 62
250
  6
CONTINUOUS
 10
8.1413195185
 20
5.6557284176
 11
9.5431380471
 21
6.6644168762
  0
LINE
  5
326
100
AcDbEntity
  8
CURVE
100
AcDbLine
 62
250
  6
CONTINUOUS
 10
12.4859270484
 20
8.7179451047
 11
13.397109092
 21
9.3735926028
  0
LINE
  5
327
100
AcDbEntity
  8
RACCORDO
100
AcDbLine
 62
250
  6
CONTINUOUS
 10
15.8534433015
 20
13.3516442835
 11
9.5419613461
 21
8.8657370773
  0
LINE
  5
328
100
AcDbEntity
  8
ASSI
100
AcDbLine
 62
250
  6
CONTINUOUS
 10
15.8534433015
 20
13.3516442835
 11
9.5419613461
 21
8.8657370773
  0
LINE
  5
329
100
AcDbEntity
  8
RACCORDO
100
AcDbLine
 62
7
  6
CONTINUOUS
 10
-2.1623325577
 20
0.9667928062
 11
1.9839184463
 21
3.7269084336
  0
LINE
  5
32A
100
AcDbEntity
  8
ASSI
100
AcDbLine
 62
250
  6
CONTINUOUS
 10
-2.0421676292
 20
0.924728869
 11
1.9459337918
 21
3.2801687129
  0
LINE
  5
32B
100
AcDbEntity
  8
RACCORDO
100
AcDbLine
 62
250
  6
CONTINUOUS
 10
-2.0421676292
 20
0.924728869
 11
1.9459337918
 21
3.2801687129
  0
LINE
  5
32C
100
AcDbEntity
  8
ASSI
100
AcDbLine
 62
250
  6
CONTINUOUS
 10
-1.8604819861
 20
0.6246857313
 11
2.1011466346
 21
2.9644902936
  0
LINE
  5
32D
100
AcDbEntity
  8
RACCORDO
100
AcDbLine
 62
250
  6
CONTINUOUS
 10
-1.8604819861
 20
0.6246857313
 11
2.1011466346
 21
2.9644902936
  0
LWPOLYLINE
  5
32E
100
AcDbEntity
  8
CURVE
100
AcDbPolyline
 62
250
  6
CONTINUOUS
 90
83
 70
0
 10
6.9583363763
 20
3.681315006
 10
6.965324623
 20
3.6849676375
 10
6.9722922884
 20
3.6884985397
 10
6.9792352994
 20
3.6918371132
 10
6.9861495827
 20
3.6949127586
 10
6.9906398483
 20
3.696742542
 10
6.9950955126
 20
3.6984022007
 10
6.9994959356
 20
3.6998635718
 10
7.0038204772
 20
3.7010984926
 10
7.0080484973
 20
3.7020788002
 10
7.012159356
 20
3.7027763318
 10
7.0161324133
 20
3.7031629248
 10
7.019947029
 20
3.7032104162
 10
7.0235825632
 20
3.7028906432
 10
7.0270717878
 20
3.7021683909
 10
7.0303468407
 20
3.701052086
 10
7.0333994642
 20
3.699555363
 10
7.0362214003
 20
3.6976918563
 10
7.0388043911
 20
3.6954752002
 10
7.0411401787
 20
3.6929190292
 10
7.0432205053
 20
3.6900369775
 10
7.045037113
 20
3.6868426796
 10
7.0465817439
 20
3.68334977
 10
7.047827936
 20
3.6796399447
 10
7.0488023297
 20
3.6756724744
 10
7.0495038083
 20
3.6714649769
 10
7.049931255
 20
3.66703507
 10
7.0500835531
 20
3.6624003713
 10
7.0499595858
 20
3.6575784986
 10
7.0495582364
 20
3.6525870697
 10
7.0488783881
 20
3.6474437024
 10
7.0479189243
 20
3.6421660143
 10
7.0466673483
 20
3.6367072637
 10
7.0451561856
 20
3.6311441139
 10
7.0434131991
 20
3.6254916193
 10
7.0414661517
 20
3.6197648344
 10
7.0393428063
 20
3.6139788139
 10
7.0370709257
 20
3.6081486123
 10
7.0346782729
 20
3.602289284
 10
7.0321926106
 20
3.5964158837
 10
7.0296417019
 20
3.5905434659
 10
7.0236769762
 20
3.5772029827
 10
7.0175338948
 20
3.5639214319
 10
7.0112290021
 20
3.5506743599
 10
7.0047788425
 20
3.5374373132
 10
6.9996726698
 20
3.5271489381
 10
6.9944610684
 20
3.5168586464
 10
6.9891162854
 20
3.5065732281
 10
6.9836105684
 20
3.4962994732
 10
6.9779161646
 20
3.4860441718
 10
6.9719519754
 20
3.4757154151
 10
6.9657760419
 20
3.4654331328
 10
6.9593973601
 20
3.4552180539
 10
6.9528249258
 20
3.4450909077
 10
6.9460677348
 20
3.4350724234
 10
6.939134783
 20
3.4251833303
 10
6.9320350664
 20
3.4154443576
 10
6.9247775807
 20
3.4058762344
 10
6.9173713218
 20
3.39649969
 10
6.9098252855
 20
3.3873354537
 10
6.9021843955
 20
3.3784382607
 10
6.8944256783
 20
3.3697543889
 10
6.886560893
 20
3.3612662521
 10
6.8786017985
 20
3.3529562641
 10
6.8705601539
 20
3.3448068386
 10
6.8624477181
 20
3.3368003895
 10
6.8542762502
 20
3.3289193306
 10
6.8460575091
 20
3.3211460756
 10
6.8378032539
 20
3.3134630385
 10
6.8295252436
 20
3.305852633
 10
6.8219884612
 20
3.2989895193
 10
6.8144422711
 20
3.2921976249
 10
6.806887178
 20
3.2855026866
 10
6.7993236862
 20
3.2789304412
 10
6.7917523003
 20
3.2725066255
 10
6.7841735247
 20
3.2662569763
 10
6.776587864
 20
3.2602072304
 10
6.7689958226
 20
3.2543831245
 10
6.761397905
 20
3.2488103955
 10
6.7537946156
 20
3.24351478
 10
6.746186459
 20
3.238522015
 10
6.7386109503
 20
3.2338754735
 10
6.7310514686
 20
3.2295665402
  0
LINE
  5
32F
100
AcDbEntity
  8
CURVE
100
AcDbLine
 62
250
  6
CONTINUOUS
 10
10.7335871639
 20
5.2582712597
 11
11.6447692075
 21
5.7169388863
  0
LWPOLYLINE
  5
330
100
AcDbEntity
  8
CURVE
100
AcDbPolyline
 62
250
  6
CONTINUOUS
 90
53
 70
0
 10
6.8442686081
 20
4.6035086113
 10
6.8556583231
 20
4.6089395648
 10
6.8671623938
 20
4.6148585114
 10
6.8787636663
 20
4.6212542088
 10
6.8904449867
 20
4.6281154145
 10
6.902189201
 20
4.6354308859
 10
6.9139791554
 20
4.6431893806
 10
6.925797696
 20
4.6513796562
 10
6.9376276688
 20
4.65999047
 10
6.9494519199
 20
4.6690105798
 10
6.9612532954
 20
4.6784287429
 10
6.9730146415
 20
4.6882337169
 10
6.9847188042
 20
4.6984142594
 10
6.9963486296
 20
4.7089591278
 10
7.0078877133
 20
4.7198563462
 10
7.0193226484
 20
4.7310910039
 10
7.030640778
 20
4.7426474572
 10
7.0418294445
 20
4.7545100618
 10
7.0528759909
 20
4.7666631738
 10
7.0637677599
 20
4.7790911491
 10
7.0744920941
 20
4.7917783438
 10
7.0850363365
 20
4.8047091137
 10
7.0953878297
 20
4.817867815
 10
7.1055339165
 20
4.8312388035
 10
7.1154619396
 20
4.8448064352
 10
7.1251592418
 20
4.8585550661
 10
7.1346131659
 20
4.8724690522
 10
7.1438115888
 20
4.886532437
 10
7.1527445245
 20
4.9007280147
 10
7.161402521
 20
4.915038267
 10
7.1697761265
 20
4.9294456755
 10
7.1778558891
 20
4.9439327219
 10
7.1856323569
 20
4.9584818881
 10
7.193096078
 20
4.9730756556
 10
7.2002376006
 20
4.9876965061
 10
7.2070474728
 20
5.0023269215
 10
7.2135162427
 20
5.0169493833
 10
7.2196344585
 20
5.0315463734
 10
7.2253926682
 20
5.0461003733
 10
7.23078142
 20
5.0605938648
 10
7.2357922948
 20
5.0750090211
 10
7.2404210048
 20
5.0893267811
 10
7.2446642951
 20
5.1035277752
 10
7.2485189107
 20
5.1175926339
 10
7.2519815966
 20
5.1315019876
 10
7.2550490979
 20
5.1452364667
 10
7.2577181596
 20
5.1587767016
 10
7.2599855267
 20
5.1721033228
 10
7.2618479443
 20
5.1851969606
 10
7.2633021573
 20
5.1980382455
 10
7.2643449109
 20
5.2106078079
 10
7.26497295
 20
5.2228862783
 10
7.2651830197
 20
5.234854287
  0
LWPOLYLINE
  5
331
100
AcDbEntity
  8
CURVE
100
AcDbPolyline
 62
250
  6
CONTINUOUS
 90
53
 70
0
 10
5.6249950562
 20
3.7274649829
 10
5.6125327895
 20
3.7215915723
 10
5.5999425322
 20
3.7151809512
 10
5.5872431804
 20
3.7082454146
 10
5.5744536301
 20
3.7007972574
 10
5.5615927775
 20
3.6928487746
 10
5.5486795186
 20
3.6844122612
 10
5.5357327496
 20
3.675500012
 10
5.5227713667
 20
3.6661243221
 10
5.5098142658
 20
3.6562974865
 10
5.4968803431
 20
3.6460318
 10
5.4839884947
 20
3.6353395576
 10
5.4711576168
 20
3.6242330543
 10
5.4584066053
 20
3.612724585
 10
5.4457535356
 20
3.600827264
 10
5.4332131993
 20
3.5885574828
 10
5.4207995669
 20
3.5759324521
 10
5.4085266093
 20
3.5629693828
 10
5.3964082972
 20
3.5496854856
 10
5.3844586012
 20
3.5360979712
 10
5.3726914921
 20
3.5222240506
 10
5.3611209406
 20
3.5080809344
 10
5.3497609174
 20
3.4936858335
 10
5.3386253931
 20
3.4790559586
 10
5.3277283386
 20
3.4642085205
 10
5.3170837244
 20
3.44916073
 10
5.3067055213
 20
3.4339297979
 10
5.2966071116
 20
3.4185332832
 10
5.2867995233
 20
3.4029901381
 10
5.2772931961
 20
3.3873196632
 10
5.2680985697
 20
3.3715411588
 10
5.2592260837
 20
3.3556739255
 10
5.2506861778
 20
3.3397372637
 10
5.2424892915
 20
3.3237504739
 10
5.2346458646
 20
3.3077328566
 10
5.2271663367
 20
3.2917037122
 10
5.2200611475
 20
3.2756823412
 10
5.2133407365
 20
3.2596880442
 10
5.2070155436
 20
3.2437401215
 10
5.2010960082
 20
3.2278578736
 10
5.1955914296
 20
3.2120609425
 10
5.1905065455
 20
3.1963703356
 10
5.185844953
 20
3.1808074018
 10
5.1816102493
 20
3.16539349
 10
5.1778060316
 20
3.1501499492
 10
5.1744358971
 20
3.1350981282
 10
5.171503443
 20
3.1202593759
 10
5.1690122665
 20
3.1056550412
 10
5.1669659647
 20
3.0913064731
 10
5.1653681349
 20
3.0772350204
 10
5.1642223742
 20
3.063462032
 10
5.1635322799
 20
3.0500088569
 10
5.163301449
 20
3.0368968439
  0
LINE
  5
332
100
AcDbEntity
  8
CURVE
100
AcDbLine
 62
250
  6
CONTINUOUS
 10
6.391200589
 20
5.0600369967
 11
6.765313485
 21
5.2312325327
  0
LINE
  5
333
100
AcDbEntity
  8
CURVE
100
AcDbLine
 62
250
  6
CONTINUOUS
 10
6.8442686081
 20
4.6035086113
 11
6.4322246479
 21
4.4149557737
  0
LINE
  5
334
100
AcDbEntity
  8
CURVE
100
AcDbLine
 62
250
  6
CONTINUOUS
 10
6.0295514878
 20
4.2306899799
 11
5.4636133387
 21
3.9717143526
  0
LINE
  5
335
100
AcDbEntity
  8
CURVE
100
AcDbLine
 62
250
  6
CONTINUOUS
 10
5.6249950562
 20
3.7274649829
 11
6.1838332648
 21
3.9831921957
  0
LINE
  5
336
100
AcDbEntity
  8
CURVE
100
AcDbLine
 62
250
  6
CONTINUOUS
 10
6.5865064249
 20
4.1674572824
 11
7.0145010707
 21
4.363309962
  0
LINE
  5
337
100
AcDbEntity
  8
CURVE
100
AcDbLine
 62
250
  6
CONTINUOUS
 10
5.3897690514
 20
2.951604285
 11
6.193579037
 21
3.3194320288
  0
LINE
  5
338
100
AcDbEntity
  8
CURVE
100
AcDbLine
 62
250
  6
CONTINUOUS
 10
5.5310424478
 20
2.6950446274
 11
6.3493684124
 21
3.0695146265
  0
LINE
  5
339
100
AcDbEntity
  8
CURVE
100
AcDbLine
 62
250
  6
CONTINUOUS
 10
8.1413195185
 20
3.7364384866
 11
9.5431380471
 21
4.3410659515
  0
LINE
  5
33A
100
AcDbEntity
  8
CURVE
100
AcDbLine
 62
250
  6
CONTINUOUS
 10
10.9939248751
 20
5.0516395814
 11
11.6447692075
 21
5.3229794722
  0
LINE
  5
33B
100
AcDbEntity
  8
DRAFT
100
AcDbLine
 62
7
  6
CONTINUOUS
 10
-17.3921214659
 20
11.7358798192
 11
-2.1623325577
 21
0.9667928062
  0
LINE
  5
33C
100
AcDbEntity
  8
ASSI
100
AcDbLine
 62
7
  6
CONTINUOUS
 10
-2.1310784669
 20
0.9875983253
 11
-2.0417435093
 21
0.924428971
  0
LINE
  5
33D
100
AcDbEntity
  8
RACCORDO
100
AcDbLine
 62
7
  6
CONTINUOUS
 10
-2.1310784669
 20
0.9875983253
 11
-2.0417435093
 21
0.924428971
  0
LINE
  5
33E
100
AcDbEntity
  8
DRAFT
100
AcDbLine
 62
7
  6
CONTINUOUS
 10
1.6444403955
 20
-1.0780236127
 11
1.8875665994
 21
-1.2499398002
  0
LINE
  5
33F
100
AcDbEntity
  8
RACCORDO
100
AcDbLine
 62
7
  6
CONTINUOUS
 10
0.7208404105
 20
-20.7428914553
 11
0.7208404105
 21
-19.3901079861
  0
LINE
  5
340
100
AcDbEntity
  8
RACCORDO
100
AcDbLine
 62
7
  6
CONTINUOUS
 10
1.0751595223
 20
-6.1169866242
 11
1.0751595223
 21
-19.0615078116
  0
LINE
  5
341
100
AcDbEntity
  8
RACCORDO
100
AcDbLine
 62
7
  6
CONTINUOUS
 10
1.6507491349
 20
5.8903590338
 11
1.6507491349
 21
4.0077753585
  0
LINE
  5
342
100
AcDbEntity
  8
RACCORDO
100
AcDbLine
 62
7
  6
CONTINUOUS
 10
1.6507491349
 20
-23.6390554846
 11
1.6507491349
 21
-25.5216391599
  0
LINE
  5
343
100
AcDbEntity
  8
DRAFT
100
AcDbLine
 62
7
  6
CONTINUOUS
 10
1.8875665994
 20
-1.2499398002
 11
1.8875665994
 21
1.0739966055
  0
LINE
  5
344
100
AcDbEntity
  8
RACCORDO
100
AcDbLine
 62
7
  6
CONTINUOUS
 10
2.514088386
 20
3.5586830551
 11
2.514088386
 21
-22.0109092591
  0
LINE
  5
345
100
AcDbEntity
  8
RACCORDO
100
AcDbLine
 62
7
  6
CONTINUOUS
 10
2.6829088348
 20
13.9339443112
 11
2.6829088348
 21
14.1947454764
  0
LWPOLYLINE
  5
346
100
AcDbEntity
  8
RACCORDO
100
AcDbPolyline
 62
7
  6
CONTINUOUS
 90
8
 70
0
 10
1.0751595223
 20
-19.0615078116
 10
1.0730456102
 20
-19.097625795
 10
1.0672835383
 20
-19.129960683
 10
1.0578733065
 20
-19.1585124758
 10
1.0446329217
 20
-19.1835053221
 10
1.0277443771
 20
-19.2047150731
 10
1.0077536522
 20
-19.2214692819
 10
1.001470686
 20
-19.2253959979
  0
LINE
  5
347
100
AcDbEntity
  8
ASSI
100
AcDbLine
 62
7
  6
CONTINUOUS
 10
2.1011466346
 20
2.9644902936
 11
-0.9925163437
 21
-24.4189228043
  0
LINE
  5
348
100
AcDbEntity
  8
RACCORDO
100
AcDbLine
 62
7
  6
CONTINUOUS
 10
2.1011466346
 20
2.9644902936
 11
-0.9925163437
 21
-24.4189228043
  0
LINE
  5
349
100
AcDbEntity
  8
CURVE
100
AcDbLine
 62
250
  6
CONTINUOUS
 10
8.3415792963
 20
6.8099791603
 11
8.5418390742
 21
7.0550927092
  0
LINE
  5
34A
100
AcDbEntity
  8
CURVE
100
AcDbLine
 62
7
  6
CONTINUOUS
 10
5.1629970458
 20
4.2293987695
 11
5.6464031052
 21
4.7128048289
  0
LINE
  5
34B
100
AcDbEntity
  8
CURVE
100
AcDbLine
 62
7
  6
CONTINUOUS
 10
6.0160994392
 20
5.0825011629
 11
7.2651829381
 21
6.3315846618
  0
LWPOLYLINE
  5
34C
100
AcDbEntity
  8
CURVE
100
AcDbPolyline
 62
250
  6
CONTINUOUS
 90
43
 70
0
 10
6.9162807883
 20
2.6807199
 10
6.9275063022
 20
2.6901668521
 10
6.9387053973
 20
2.6999135898
 10
6.9498681318
 20
2.7099500526
 10
6.9609845638
 20
2.7202661798
 10
6.9720447516
 20
2.7308519109
 10
6.9830387534
 20
2.741697185
 10
6.9939566273
 20
2.7527919418
 10
7.0047884314
 20
2.7641261204
 10
7.0155242241
 20
2.7756896602
 10
7.0261540635
 20
2.7874725008
 10
7.0366680077
 20
2.7994645813
 10
7.0470561149
 20
2.8116558411
 10
7.0573084434
 20
2.8240362197
 10
7.0674150513
 20
2.8365956564
 10
7.0773666187
 20
2.8493241665
 10
7.0871563134
 20
2.8622120687
 10
7.0967779253
 20
2.8752497579
 10
7.106225244
 20
2.8884276286
 10
7.1154920593
 20
2.9017360756
 10
7.1245721611
 20
2.9151654937
 10
7.1334593389
 20
2.9287062774
 10
7.1421473826
 20
2.9423488216
 10
7.1506300819
 20
2.956083521
 10
7.1589012267
 20
2.9699007702
 10
7.1669546066
 20
2.983790964
 10
7.1747840114
 20
2.997744497
 10
7.1823832309
 20
3.011751764
 10
7.1897460547
 20
3.0258031597
 10
7.1968665121
 20
3.0398885629
 10
7.2037395889
 20
3.0539957883
 10
7.2103605105
 20
3.0681121349
 10
7.2167245024
 20
3.0822249015
 10
7.2228267898
 20
3.096321387
 10
7.228662598
 20
3.1103888903
 10
7.2342271524
 20
3.1244147103
 10
7.2395156784
 20
3.1383861458
 10
7.2445234012
 20
3.1522904957
 10
7.2492455462
 20
3.1661150589
 10
7.2536773387
 20
3.1798471343
 10
7.2578140041
 20
3.1934740208
 10
7.2616507677
 20
3.2069830171
 10
7.2651828549
 20
3.2203614223
  0
LINE
  5
34D
100
AcDbEntity
  8
CURVE
100
AcDbLine
 62
250
  6
CONTINUOUS
 10
13.2669402228
 20
8.9910251803
 11
12.4859270484
 21
8.4290416147
  0
LINE
  5
34E
100
AcDbEntity
  8
CURVE
100
AcDbLine
 62
250
  6
CONTINUOUS
 10
14.9390507588
 20
10.0858651517
 11
14.0278687152
 21
9.4302176537
  0
LINE
  5
34F
100
AcDbEntity
  8
CURVE
100
AcDbLine
 62
250
  6
CONTINUOUS
 10
10.8637560195
 20
6.9934331612
 11
10.9939248751
 21
7.0870970839
  0
LINE
  5
350
100
AcDbEntity
  8
CURVE
100
AcDbLine
 62
250
  6
CONTINUOUS
 10
8.5418390742
 20
5.1358029468
 11
9.1426184495
 21
5.5680980048
  0
LINE
  5
351
100
AcDbEntity
  8
CURVE
100
AcDbLine
 62
250
  6
CONTINUOUS
 10
12.4859270484
 20
7.9234602662
 11
13.2669402228
 21
8.4854438318
  0
LINE
  5
352
100
AcDbEntity
  8
CURVE
100
AcDbLine
 62
250
  6
CONTINUOUS
 10
14.1580375708
 20
9.0248662491
 11
14.8088818896
 21
9.493185892
  0
LINE
  5
353
100
AcDbEntity
  8
CURVE
100
AcDbLine
 62
250
  6
CONTINUOUS
 10
12.616095904
 20
7.6078439233
 11
13.2669402228
 21
8.0761635662
  0
LINE
  5
354
100
AcDbEntity
  8
CURVE
100
AcDbLine
 62
250
  6
CONTINUOUS
 10
10.8637560195
 20
6.2711739979
 11
10.9939248751
 21
6.3648379206
  0
LINE
  5
355
100
AcDbEntity
  8
CURVE
100
AcDbLine
 62
250
  6
CONTINUOUS
 10
14.8088818896
 20
9.0565474546
 11
14.1580375708
 21
8.5882278117
  0
LINE
  5
356
100
AcDbEntity
  8
CURVE
100
AcDbLine
 62
250
  6
CONTINUOUS
 10
9.1426184495
 20
4.8609912236
 11
8.5418390742
 21
4.4286961656
  0
LINE
  5
357
100
AcDbEntity
  8
CURVE
100
AcDbLine
 62
250
  6
CONTINUOUS
 10
14.1580375708
 20
8.2347586997
 11
14.8088818896
 21
8.7030783425
  0
LINE
  5
358
100
AcDbEntity
  8
CURVE
100
AcDbLine
 62
250
  6
CONTINUOUS
 10
13.397109092
 20
7.6642462707
 11
12.4859270484
 21
7.0085987726
  0
LINE
  5
359
100
AcDbEntity
  8
CURVE
100
AcDbLine
 62
250
  6
CONTINUOUS
 10
12.616095904
 20
6.8133589642
 11
13.2669402228
 21
7.2816786071
  0
LINE
  5
35A
100
AcDbEntity
  8
CURVE
100
AcDbLine
 62
250
  6
CONTINUOUS
 10
14.9390507588
 20
8.3601038376
 11
14.0278687152
 21
7.7044563396
  0
LINE
  5
35B
100
AcDbEntity
  8
CURVE
100
AcDbLine
 62
250
  6
CONTINUOUS
 10
13.2669402228
 20
6.7760973188
 11
12.616095904
 21
6.307777676
  0
LINE
  5
35C
100
AcDbEntity
  8
CURVE
100
AcDbLine
 62
250
  6
CONTINUOUS
 10
14.9390507588
 20
7.9650499588
 11
14.0278687152
 21
7.3094024607
  0
LINE
  5
35D
100
AcDbEntity
  8
CURVE
100
AcDbLine
 62
250
  6
CONTINUOUS
 10
8.441709227
 20
3.2454793338
 11
8.1413195185
 21
3.0293317897
  0
LINE
  5
35E
100
AcDbEntity
  8
CURVE
100
AcDbLine
 62
250
  6
CONTINUOUS
 10
12.4859270484
 20
5.9252101427
 11
13.397109092
 21
6.5808576408
  0
LINE
  5
35F
100
AcDbEntity
  8
CURVE
100
AcDbLine
 62
250
  6
CONTINUOUS
 10
14.1580375708
 20
6.9872202774
 11
14.4183752821
 21
7.1745481228
  0
LINE
  5
360
100
AcDbEntity
  8
CURVE
100
AcDbLine
 62
250
  6
CONTINUOUS
 10
8.1413195185
 20
2.6252707539
 11
9.5431380471
 21
3.6339592124
  0
LINE
  5
361
100
AcDbEntity
  8
RACCORDO
100
AcDbLine
 62
7
  6
CONTINUOUS
 10
1.7922284981
 20
0.230115863
 11
1.8875665994
 21
0.2978777419
  0
LWPOLYLINE
  5
362
100
AcDbEntity
  8
CURVE
100
AcDbPolyline
 62
250
  6
CONTINUOUS
 90
25
 70
0
 10
6.7310514686
 20
3.2295665402
 10
6.7282249485
 20
3.2280401634
 10
6.7254046174
 20
3.2265635682
 10
6.7225915483
 20
3.2251373834
 10
6.7197868144
 20
3.2237622378
 10
6.7169914891
 20
3.2224387601
 10
6.7142066454
 20
3.2211675791
 10
6.7114333566
 20
3.2199493236
 10
6.7086726959
 20
3.2187846223
 10
6.7059257365
 20
3.217674104
 10
6.7031935516
 20
3.2166183974
 10
6.7004772144
 20
3.2156181314
 10
6.6977777981
 20
3.2146739346
 10
6.6950963759
 20
3.2137864359
 10
6.692434021
 20
3.212956264
 10
6.6897918066
 20
3.2121840477
 10
6.687170806
 20
3.2114704157
 10
6.6845720922
 20
3.2108159969
 10
6.6819967386
 20
3.2102214199
 10
6.6794458183
 20
3.2096873136
 10
6.6769204046
 20
3.2092143067
 10
6.6744215706
 20
3.2088030279
 10
6.6719503895
 20
3.2084541061
 10
6.6695079346
 20
3.20816817
 10
6.667095279
 20
3.2079458484
  0
LINE
  5
363
100
AcDbEntity
  8
CURVE
100
AcDbLine
 62
250
  6
CONTINUOUS
 10
5.3549821465
 20
1.9662620081
 11
6.9162807883
 21
2.6807199
  0
LINE
  5
364
100
AcDbEntity
  8
CURVE
100
AcDbLine
 62
250
  6
CONTINUOUS
 10
4.1125962908
 20
1.0528101321
 11
7.2651829381
 21
2.4954490188
  0
LINE
  5
365
100
AcDbEntity
  8
CURVE
100
AcDbLine
 62
250
  6
CONTINUOUS
 10
5.3837435639
 20
0.9722705726
 11
7.043448222
 21
1.7317596333
  0
LINE
  5
366
100
AcDbEntity
  8
CURVE
100
AcDbLine
 62
250
  6
CONTINUOUS
 10
5.4884266845
 20
0.6786715762
 11
6.8143219982
 21
1.2854079959
  0
LINE
  5
367
100
AcDbEntity
  8
CURVE
100
AcDbLine
 62
250
  6
CONTINUOUS
 10
6.832516209
 20
0.6482662936
 11
5.3863403338
 21
-0.0135108856
  0
LINE
  5
368
100
AcDbEntity
  8
CURVE
100
AcDbLine
 62
250
  6
CONTINUOUS
 10
5.1633012753
 20
-0.492273226
 11
7.2651829381
 21
0.4695583922
  0
LINE
  5
369
100
AcDbEntity
  8
CURVE
100
AcDbLine
 62
250
  6
CONTINUOUS
 10
4.1125962908
 20
-0.9730812016
 11
4.7387024055
 21
-0.6865712841
  0
LINE
  5
36A
100
AcDbEntity
  8
CURVE
100
AcDbLine
 62
250
  6
CONTINUOUS
 10
5.1633012753
 20
0.8836321194
 11
4.423605925
 21
0.5538902265
  0
LWPOLYLINE
  5
36B
100
AcDbEntity
  8
CURVE
100
AcDbPolyline
 62
250
  6
CONTINUOUS
 90
10
 70
0
 10
6.9045093647
 20
3.6573186294
 10
6.9092457387
 20
3.6585852634
 10
6.9140795899
 20
3.6601565575
 10
6.9189963596
 20
3.661995811
 10
6.9239814891
 20
3.6640663235
 10
6.9290204197
 20
3.6663313945
 10
6.9340985929
 20
3.6687543233
 10
6.9392014498
 20
3.6712984096
 10
6.9443144319
 20
3.6739269527
 10
6.9583363763
 20
3.681315006
  0
LINE
  5
36C
100
AcDbEntity
  8
CURVE
100
AcDbLine
 62
250
  6
CONTINUOUS
 10
8.5418390742
 20
4.4286961656
 11
8.3415792963
 21
4.3856131979
  0
LWPOLYLINE
  5
36D
100
AcDbEntity
  8
CURVE
100
AcDbPolyline
 62
250
  6
CONTINUOUS
 90
46
 70
0
 10
5.5310424396
 20
2.6950446072
 10
5.523271858
 20
2.6941951288
 10
5.5156323597
 20
2.6936814709
 10
5.5081309928
 20
2.6935023502
 10
5.5007748057
 20
2.6936564837
 10
5.4935708468
 20
2.6941425881
 10
5.4865261644
 20
2.6949593801
 10
5.4796478069
 20
2.6961055766
 10
5.4729428225
 20
2.6975798945
 10
5.4664182596
 20
2.6993810504
 10
5.4600811665
 20
2.7015077612
 10
5.4539385916
 20
2.7039587437
 10
5.4479975833
 20
2.7067327147
 10
5.4422651897
 20
2.709828391
 10
5.4367484594
 20
2.7132444894
 10
5.4314544406
 20
2.7169797267
 10
5.4263894631
 20
2.7210322049
 10
5.421556983
 20
2.7253975675
 10
5.4169597377
 20
2.7300708429
 10
5.4126004647
 20
2.7350470598
 10
5.4084819015
 20
2.7403212467
 10
5.4046067856
 20
2.7458884322
 10
5.4009778544
 20
2.751743645
 10
5.3975978455
 20
2.7578819135
 10
5.3944694964
 20
2.7642982664
 10
5.3915955444
 20
2.7709877323
 10
5.3889787272
 20
2.7779453397
 10
5.3866217822
 20
2.7851661173
 10
5.3845274469
 20
2.7926450936
 10
5.3826984587
 20
2.8003772972
 10
5.3811375552
 20
2.8083577567
 10
5.3798468852
 20
2.8165806502
 10
5.378826243
 20
2.8250367536
 10
5.3780748346
 20
2.8337159924
 10
5.3775918655
 20
2.842608292
 10
5.3773765416
 20
2.851703578
 10
5.3774280686
 20
2.8609917757
 10
5.3777456522
 20
2.8704628106
 10
5.3783284983
 20
2.8801066083
 10
5.3791758125
 20
2.889913094
 10
5.3802868007
 20
2.8998721934
 10
5.3816606685
 20
2.9099738318
 10
5.3832966217
 20
2.9202079347
 10
5.3851938661
 20
2.9305644276
 10
5.3873516074
 20
2.9410332359
 10
5.3897690514
 20
2.951604285
  0
LWPOLYLINE
  5
36E
100
AcDbEntity
  8
CURVE
100
AcDbPolyline
 62
250
  6
CONTINUOUS
 90
43
 70
0
 10
5.4884266232
 20
0.6786714507
 10
5.4808477855
 20
0.6792323594
 10
5.4734444905
 20
0.6801644802
 10
5.4662238856
 20
0.6814648341
 10
5.459193118
 20
0.6831304421
 10
5.4523593348
 20
0.6851583253
 10
5.4457296834
 20
0.6875455047
 10
5.4393113111
 20
0.6902890013
 10
5.433111365
 20
0.6933858361
 10
5.4271369924
 20
0.6968330301
 10
5.4213953406
 20
0.7006276044
 10
5.4158935568
 20
0.7047665799
 10
5.4106387883
 20
0.7092469778
 10
5.4056381824
 20
0.7140658189
 10
5.4008988862
 20
0.7192201243
 10
5.3964272416
 20
0.7247063296
 10
5.3922263688
 20
0.7305185284
 10
5.3882985823
 20
0.736650229
 10
5.3846461968
 20
0.7430949394
 10
5.3812715271
 20
0.7498461678
 10
5.3781768876
 20
0.7568974225
 10
5.3753645933
 20
0.7642422117
 10
5.3728369585
 20
0.7718740434
 10
5.3705962982
 20
0.779786426
 10
5.3686449269
 20
0.7879728675
 10
5.3669851592
 20
0.7964268762
 10
5.3656193099
 20
0.8051419602
 10
5.3645496936
 20
0.8141116278
 10
5.3637786249
 20
0.823329387
 10
5.3633077321
 20
0.8327878272
 10
5.3631358971
 20
0.8424758616
 10
5.3632613156
 20
0.8523814846
 10
5.3636821829
 20
0.8624926906
 10
5.3643966947
 20
0.8727974739
 10
5.3654030465
 20
0.8832838289
 10
5.3666994338
 20
0.89393975
 10
5.3682840522
 20
0.9047532314
 10
5.3701550971
 20
0.9157122676
 10
5.3723107641
 20
0.9268048529
 10
5.3747492488
 20
0.9380189817
 10
5.3774687466
 20
0.9493426484
 10
5.3804674531
 20
0.9607638472
 10
5.3837435639
 20
0.9722705726
  0
LINE
  5
36F
100
AcDbEntity
  8
DRAFT
100
AcDbLine
 62
7
  6
CONTINUOUS
 10
1.7488004374
 20
-0.1542855843
 11
1.8875665994
 21
-0.2524080785
  0
LINE
  5
370
100
AcDbEntity
  8
RACCORDO
100
AcDbLine
 62
7
  6
CONTINUOUS
 10
-17.2153716946
 20
14.042055026
 11
-2.3390823291
 21
3.5229299368
  0
LWPOLYLINE
  5
371
100
AcDbEntity
  8
CURVE
100
AcDbPolyline
 62
250
  6
CONTINUOUS
 90
11
 70
0
 10
5.0929467805
 20
-6.7069082052
 10
5.0927691706
 20
-6.6971869428
 10
5.0926670453
 20
-6.6874123
 10
5.0926404458
 20
-6.6775849451
 10
5.092689413
 20
-6.6677055467
 10
5.092813988
 20
-6.6577747733
 10
5.0930142119
 20
-6.6477932933
 10
5.0932901257
 20
-6.6377617753
 10
5.0936417705
 20
-6.6276808877
 10
5.0940691873
 20
-6.617551299
 10
5.0945724171
 20
-6.6073736778
  0
LINE
  5
372
100
AcDbEntity
  8
DRAFT
100
AcDbLine
 62
7
  6
CONTINUOUS
 10
3.233537762
 20
5.0537415987
 11
3.233537762
 21
-22.5234228676
  0
LINE
  5
373
100
AcDbEntity
  8
ASSI
100
AcDbLine
 62
7
  6
CONTINUOUS
 10
3.233537762
 20
-22.5234228676
 11
3.233537762
 21
5.0537415987
  0
LINE
  5
374
100
AcDbEntity
  8
CURVE
100
AcDbLine
 62
250
  6
CONTINUOUS
 10
4.6706139323
 20
-15.3761096159
 11
4.6706139323
 21
-16.7903231782
  0
LWPOLYLINE
  5
375
100
AcDbEntity
  8
CURVE
100
AcDbPolyline
 62
250
  6
CONTINUOUS
 90
78
 70
0
 10
4.5683378642
 20
-3.8852863418
 10
4.566977588
 20
-3.9605454787
 10
4.5686624991
 20
-4.0336936309
 10
4.5733828366
 20
-4.1045881016
 10
4.5811288399
 20
-4.173086194
 10
4.5918907484
 20
-4.2390452114
 10
4.6056588013
 20
-4.3023224571
 10
4.6224179703
 20
-4.362784967
 10
4.6421321566
 20
-4.4203387076
 10
4.6647599938
 20
-4.4748993783
 10
4.6902601154
 20
-4.5263826781
 10
4.718591155
 20
-4.5747043065
 10
4.7497117461
 20
-4.6197799625
 10
4.7835759127
 20
-4.6615296675
 10
4.8201192405
 20
-4.699890731
 10
4.8592727054
 20
-4.7348047845
 10
4.9009672835
 20
-4.7662134595
 10
4.9451339509
 20
-4.7940583876
 10
4.9917036836
 20
-4.8182812003
 10
5.0406034867
 20
-4.8388301246
 10
5.0917444815
 20
-4.8556797689
 10
5.1450338185
 20
-4.868811337
 10
5.2003786481
 20
-4.8782060328
 10
5.2576861206
 20
-4.8838450601
 10
5.3168633865
 20
-4.8857096228
 10
5.3778145868
 20
-4.8837872614
 10
5.4404318255
 20
-4.8780908633
 10
5.5046041969
 20
-4.8686396528
 10
5.5702207958
 20
-4.855452854
 10
5.6371707166
 20
-4.838549691
 10
5.7053430538
 20
-4.8179493881
 10
5.7746250164
 20
-4.7936774305
 10
5.8448962708
 20
-4.7657843481
 10
5.9160345979
 20
-4.734326932
 10
5.9879177785
 20
-4.6993619732
 10
6.0604235934
 20
-4.6609462628
 10
6.1334298235
 20
-4.6191365919
 10
6.2068136087
 20
-4.5739954046
 10
6.2804495252
 20
-4.5256077586
 10
6.3542115083
 20
-4.4740643643
 10
6.4279734933
 20
-4.4194559326
 10
6.5016094153
 20
-4.3618731741
 10
6.5749932098
 20
-4.3014067995
 10
6.6479994529
 20
-4.2381522504
 10
6.7205052845
 20
-4.1722238921
 10
6.7923884854
 20
-4.1037408206
 10
6.8635268364
 20
-4.0328221322
 10
6.9337981182
 20
-3.959586923
 10
7.0030801118
 20
-3.8841542892
 10
7.0712524835
 20
-3.8066468744
 10
7.1382024421
 20
-3.7272015126
 10
7.2038190822
 20
-3.645958585
 10
7.2679914981
 20
-3.5630584731
 10
7.3306087844
 20
-3.4786415582
 10
7.3915600356
 20
-3.3928482218
 10
7.4507373553
 20
-3.3058208511
 10
7.5080448845
 20
-3.2177098574
 10
7.5633897737
 20
-3.1286676582
 10
7.616679173
 20
-3.0388466705
 10
7.6678202329
 20
-2.9483993119
 10
7.7167201034
 20
-2.8574779994
 10
7.763289906
 20
-2.7662360313
 10
7.8074566456
 20
-2.6748302285
 10
7.8491512981
 20
-2.5834182929
 10
7.8883048394
 20
-2.4921579263
 10
7.9248482454
 20
-2.4012068306
 10
7.9587124921
 20
-2.3107227075
 10
7.9898331649
 20
-2.2208609472
 10
8.0181642877
 20
-2.1317676932
 10
8.0436644939
 20
-2.0435867774
 10
8.0662924169
 20
-1.9564620316
 10
8.0860066901
 20
-1.8705372878
 10
8.1027659469
 20
-1.7859563776
 10
8.1165340884
 20
-1.702865285
 10
8.1272960861
 20
-1.6214186016
 10
8.1350421792
 20
-1.541773071
 10
8.1397626067
 20
-1.4640854368
 10
8.1414476077
 20
-1.3885124425
  0
LWPOLYLINE
  5
376
100
AcDbEntity
  8
CURVE
100
AcDbPolyline
 62
250
  6
CONTINUOUS
 90
78
 70
0
 10
4.5683378642
 20
-6.9860294804
 10
4.5669776746
 20
-7.0612885262
 10
4.5686626699
 20
-7.1344365852
 10
4.5733830893
 20
-7.205330961
 10
4.5811291719
 20
-7.2738289571
 10
4.5918911568
 20
-7.3397878771
 10
4.6056592834
 20
-7.4030650245
 10
4.6224185229
 20
-7.4635274356
 10
4.6421327767
 20
-7.5210810771
 10
4.6647606782
 20
-7.5756416484
 10
4.6902608607
 20
-7.6271248492
 10
4.718591958
 20
-7.6754463787
 10
4.7497126033
 20
-7.7205219365
 10
4.7835768207
 20
-7.7622715441
 10
4.8201201957
 20
-7.8006325111
 10
4.8592737043
 20
-7.8355464694
 10
4.9009683226
 20
-7.8669550506
 10
4.9451350267
 20
-7.8947998866
 10
4.9917047924
 20
-7.9190226089
 10
5.0406046249
 20
-7.9395714449
 10
5.0917456456
 20
-7.956421003
 10
5.1450350049
 20
-7.9695524873
 10
5.2003798533
 20
-7.9789471018
 10
5.2576873411
 20
-7.9845860505
 10
5.3168646188
 20
-7.9864505373
 10
5.3778158276
 20
-7.984528103
 10
5.4404330714
 20
-7.9788316351
 10
5.5046054447
 20
-7.9693803579
 10
5.5702220423
 20
-7.9561934956
 10
5.6371719586
 20
-7.9392902726
 10
5.7053442884
 20
-7.918689913
 10
5.7746262407
 20
-7.8944179023
 10
5.844897482
 20
-7.8665247703
 10
5.9160357932
 20
-7.8350673083
 10
5.9879189554
 20
-7.8001023073
 10
6.0604247495
 20
-7.7616865583
 10
6.1334309564
 20
-7.7198768524
 10
6.2068147162
 20
-7.674735634
 10
6.2804506052
 20
-7.6263479605
 10
6.3542125588
 20
-7.5748045425
 10
6.4279745125
 20
-7.5201960907
 10
6.5016104018
 20
-7.4626133157
 10
6.5749941619
 20
-7.4021469283
 10
6.6480003693
 20
-7.3388923699
 10
6.720506164
 20
-7.2729640057
 10
6.7923893269
 20
-7.2044809318
 10
6.8635276391
 20
-7.1335622443
 10
6.9337988814
 20
-7.0603270392
 10
7.0030808348
 20
-6.9848944127
 10
7.0712531659
 20
-6.9073870082
 10
7.1382030837
 20
-6.8279416596
 10
7.2038196828
 20
-6.7466987481
 10
7.2679920579
 20
-6.6637986549
 10
7.3306093034
 20
-6.5793817612
 10
7.3915605141
 20
-6.4935884484
 10
7.4507377939
 20
-6.4065611035
 10
7.5080452839
 20
-6.3184501378
 10
7.5633901345
 20
-6.2294079685
 10
7.6166794961
 20
-6.1395870125
 10
7.6678205193
 20
-6.0491396871
 10
7.7167203544
 20
-5.9582184094
 10
7.7632901227
 20
-5.8669764772
 10
7.8074568295
 20
-5.7755707115
 10
7.8491514506
 20
-5.6841588139
 10
7.8883049621
 20
-5.5928984861
 10
7.9248483401
 20
-5.5019474296
 10
7.9587125605
 20
-5.4114633461
 10
7.9898332089
 20
-5.3216016257
 10
8.0181643093
 20
-5.2325084115
 10
8.043664495
 20
-5.1443275354
 10
8.0662923997
 20
-5.057202829
 10
8.0860066568
 20
-4.971278124
 10
8.1027658997
 20
-4.8866972521
 10
8.1165340295
 20
-4.8036061969
 10
8.1272960179
 20
-4.7221595498
 10
8.1350421039
 20
-4.6425140544
 10
8.1397625266
 20
-4.5648264539
 10
8.1414475253
 20
-4.4892534919
  0
LINE
  5
377
100
AcDbEntity
  8
CURVE
100
AcDbLine
 62
250
  6
CONTINUOUS
 10
8.1413195185
 20
6.4638504051
 11
8.3415792963
 21
6.8099791603
  0
LINE
  5
378
100
AcDbEntity
  8
CURVE
100
AcDbLine
 62
250
  6
CONTINUOUS
 10
9.5431380471
 20
7.3715236574
 11
9.3428782483
 21
7.0253948871
  0
LINE
  5
379
100
AcDbEntity
  8
CURVE
100
AcDbLine
 62
250
  6
CONTINUOUS
 10
8.1413195185
 20
4.5445606427
 11
8.3415792963
 21
4.8906893979
  0
LINE
  5
37A
100
AcDbEntity
  8
CURVE
100
AcDbLine
 62
250
  6
CONTINUOUS
 10
9.3428782483
 20
7.0253948871
 11
9.1426184495
 21
6.780280986
  0
LINE
  5
37B
100
AcDbEntity
  8
CURVE
100
AcDbLine
 62
250
  6
CONTINUOUS
 10
8.3415792963
 20
4.8906893979
 11
8.5418390742
 21
5.1358029468
  0
LINE
  5
37C
100
AcDbEntity
  8
CURVE
100
AcDbLine
 62
250
  6
CONTINUOUS
 10
9.3428782483
 20
5.1061049562
 11
9.1426184495
 21
4.8609912236
  0
LINE
  5
37D
100
AcDbEntity
  8
CURVE
100
AcDbLine
 62
250
  6
CONTINUOUS
 10
11.6447692075
 20
5.7169388863
 11
10.9939248751
 21
5.0516395814
  0
LINE
  5
37E
100
AcDbEntity
  8
CURVE
100
AcDbLine
 62
250
  6
CONTINUOUS
 10
11.6447692075
 20
5.3229794722
 11
10.7335871639
 21
4.4703522123
  0
LWPOLYLINE
  5
37F
100
AcDbEntity
  8
CURVE
100
AcDbPolyline
 62
250
  6
CONTINUOUS
 90
81
 70
0
 10
9.5419613461
 20
1.7784433957
 10
9.5025150298
 20
1.7489844697
 10
9.4630718985
 20
1.7174265749
 10
9.4237209826
 20
1.6839070313
 10
9.3845513124
 20
1.6485631586
 10
9.3456519179
 20
1.6115322766
 10
9.3071118296
 20
1.5729517053
 10
9.2690200775
 20
1.5329587643
 10
9.2314656919
 20
1.4916907735
 10
9.1945377031
 20
1.4492850528
 10
9.1583251413
 20
1.4058789219
 10
9.1229170368
 20
1.3616097007
 10
9.0884024197
 20
1.316614709
 10
9.0545229975
 20
1.2705529031
 10
9.0216491026
 20
1.2239328751
 10
8.989783846
 20
1.1767967713
 10
8.958930339
 20
1.1291867378
 10
8.9290916925
 20
1.081144921
 10
8.9002710177
 20
1.032713467
 10
8.867215032
 20
0.9744766695
 10
8.8356159241
 20
0.9158663548
 10
8.8054765539
 20
0.8570038314
 10
8.7767997814
 20
0.798010408
 10
8.7495884663
 20
0.7390073931
 10
8.7237687329
 20
0.6799364217
 10
8.6993960041
 20
0.6210280489
 10
8.6764405814
 20
0.5623325182
 10
8.6548727661
 20
0.5039000733
 10
8.6346628597
 20
0.4457809575
 10
8.6113439525
 20
0.3738694475
 10
8.5900870582
 20
0.3026001461
 10
8.5708917572
 20
0.2320507096
 10
8.5537576302
 20
0.1622987943
 10
8.5387442858
 20
0.0937205216
 10
8.5257640238
 20
0.0260781218
 10
8.5148071959
 20
-0.0405600554
 10
8.505864154
 20
-0.10612566
 10
8.4989252498
 20
-0.1705503423
 10
8.493980835
 20
-0.2337657524
 10
8.4910212615
 20
-0.2957035405
 10
8.4900368811
 20
-0.3562953567
 10
8.4910212615
 20
-0.4154705371
 10
8.493980835
 20
-0.473149161
 10
8.4989252498
 20
-0.5292489937
 10
8.505864154
 20
-0.5836878006
 10
8.5148071959
 20
-0.6363833468
 10
8.5257640238
 20
-0.6872533977
 10
8.5387442858
 20
-0.7362157184
 10
8.5537576302
 20
-0.7831880744
 10
8.5708917572
 20
-0.8282820246
 10
8.5900870582
 20
-0.8712072313
 10
8.6113439525
 20
-0.9118854347
 10
8.6346628597
 20
-0.9502383749
 10
8.6548727661
 20
-0.9792731278
 10
8.6764405814
 20
-1.0066670241
 10
8.6993960041
 20
-1.0323270805
 10
8.7237687329
 20
-1.0561603138
 10
8.7495884663
 20
-1.0780737408
 10
8.7767997814
 20
-1.0979165664
 10
8.8054765539
 20
-1.1156408399
 10
8.8356159241
 20
-1.1311293683
 10
8.867215032
 20
-1.1442649589
 10
8.9002710177
 20
-1.1549304188
 10
8.9290916925
 20
-1.1618856312
 10
8.958930339
 20
-1.1669862289
 10
8.989783846
 20
-1.1701945429
 10
9.0216491026
 20
-1.1714729043
 10
9.0545229975
 20
-1.1707836441
 10
9.0884024197
 20
-1.1680890933
 10
9.1229170368
 20
-1.1634136102
 10
9.1583251413
 20
-1.1567265261
 10
9.1945377031
 20
-1.148018646
 10
9.2314656919
 20
-1.1372807745
 10
9.2690200775
 20
-1.1245037167
 10
9.3071118296
 20
-1.1096782772
 10
9.3456519179
 20
-1.0927952611
 10
9.3845513124
 20
-1.0738454731
 10
9.4237209826
 20
-1.052819718
 10
9.4630718985
 20
-1.0297088007
 10
9.5025150298
 20
-1.0045035261
 10
9.5419613461
 20
-0.9771946991
  0
LINE
  5
380
100
AcDbEntity
  8
CURVE
100
AcDbLine
 62
250
  6
CONTINUOUS
 10
11.3844314691
 20
4.6760321995
 11
11.5146003383
 21
4.769696132
  0
LINE
  5
381
100
AcDbEntity
  8
CURVE
100
AcDbLine
 62
250
  6
CONTINUOUS
 10
14.9390507588
 20
7.1125654154
 11
14.0278687152
 21
6.4569179173
  0
LINE
  5
382
100
AcDbEntity
  8
CURVE
100
AcDbLine
 62
250
  6
CONTINUOUS
 10
13.397109092
 20
6.0030503595
 11
12.4859270484
 21
5.3474028614
  0
LINE
  5
383
100
AcDbEntity
  8
CURVE
100
AcDbLine
 62
250
  6
CONTINUOUS
 10
10.8637560195
 20
3.8417570813
 11
10.9939248751
 21
3.935421004
  0
LINE
  5
384
100
AcDbEntity
  8
CURVE
100
AcDbLine
 62
250
  6
CONTINUOUS
 10
10.7335871639
 20
3.4854535127
 11
11.6447692075
 21
4.1411010107
  0
LINE
  5
385
100
AcDbEntity
  8
CURVE
100
AcDbLine
 62
250
  6
CONTINUOUS
 10
10.7335871639
 20
3.0258341049
 11
11.6447692075
 21
3.681481603
  0
LINE
  5
386
100
AcDbEntity
  8
CURVE
100
AcDbLine
 62
250
  6
CONTINUOUS
 10
11.8936035484
 20
2.5446438736
 11
11.3959348666
 21
2.1865428461
  0
LWPOLYLINE
  5
387
100
AcDbEntity
  8
CURVE
100
AcDbPolyline
 62
250
  6
CONTINUOUS
 90
49
 70
0
 10
6.832516209
 20
0.6482662936
 10
6.8442813884
 20
0.6551470277
 10
6.856114894
 20
0.662452203
 10
6.8680030314
 20
0.6701709124
 10
6.879932106
 20
0.6782922489
 10
6.8918884233
 20
0.6868053057
 10
6.9038582888
 20
0.6956991755
 10
6.9158280081
 20
0.7049629516
 10
6.9277838866
 20
0.7145857269
 10
6.9397122298
 20
0.7245565943
 10
6.9515993432
 20
0.734864647
 10
6.9634315324
 20
0.745498978
 10
6.9751951028
 20
0.7564486802
 10
6.9868763599
 20
0.7677028466
 10
6.9984616092
 20
0.7792505703
 10
7.0099371563
 20
0.7910809443
 10
7.0212893065
 20
0.8031830616
 10
7.0325051494
 20
0.8155457269
 10
7.0435749104
 20
0.8281565919
 10
7.0544895985
 20
0.8410030199
 10
7.0652402232
 20
0.8540723744
 10
7.0758177937
 20
0.8673520186
 10
7.0862133193
 20
0.8808293159
 10
7.0964178091
 20
0.8944916297
 10
7.1064222726
 20
0.9083263234
 10
7.1162177189
 20
0.9223207603
 10
7.1257951574
 20
0.9364623038
 10
7.1351455973
 20
0.9507383173
 10
7.1442600478
 20
0.9651361641
 10
7.1531295183
 20
0.9796432076
 10
7.161745018
 20
0.9942468111
 10
7.1700975562
 20
1.008934338
 10
7.1781781421
 20
1.0236931518
 10
7.1859782825
 20
1.0385099246
 10
7.1934914736
 20
1.0533685648
 10
7.2007117092
 20
1.0682522896
 10
7.207632983
 20
1.0831443161
 10
7.2142492887
 20
1.0980278616
 10
7.2205546202
 20
1.1128861433
 10
7.2265429711
 20
1.1277023784
 10
7.2322083352
 20
1.1424597841
 10
7.2375447062
 20
1.1571415776
 10
7.2425460778
 20
1.1717309761
 10
7.2472064438
 20
1.1862111968
 10
7.251519798
 20
1.200565457
 10
7.2554801339
 20
1.2147769738
 10
7.2590814455
 20
1.2288289644
 10
7.2623177264
 20
1.2427046461
 10
7.2651829704
 20
1.256387236
  0
LINE
  5
388
100
AcDbEntity
  8
CURVE
100
AcDbLine
 62
250
  6
CONTINUOUS
 10
5.0587968797
 20
-1.2000655087
 11
4.4315910802
 21
-1.484809107
  0
LINE
  5
389
100
AcDbEntity
  8
CURVE
100
AcDbLine
 62
250
  6
CONTINUOUS
 10
7.2651829381
 20
-0.2072128009
 11
5.4884266845
 21
-1.0138372949
  0
LINE
  5
38A
100
AcDbEntity
  8
CURVE
100
AcDbLine
 62
250
  6
CONTINUOUS
 10
9.1426184495
 20
5.5680980048
 11
9.3428782483
 21
5.6111811562
  0
LINE
  5
38B
100
AcDbEntity
  8
CURVE
100
AcDbLine
 62
250
  6
CONTINUOUS
 10
8.5418390742
 20
6.347985928
 11
8.3415792963
 21
6.3049031289
  0
LINE
  5
38C
100
AcDbEntity
  8
CURVE
100
AcDbLine
 62
250
  6
CONTINUOUS
 10
13.006602498
 20
6.0109622125
 11
12.4859270484
 21
5.9252101427
  0
LINE
  5
38D
100
AcDbEntity
  8
CURVE
100
AcDbLine
 62
250
  6
CONTINUOUS
 10
8.5418390742
 20
2.5094064032
 11
8.1413195185
 21
2.6252707539
  0
LINE
  5
38E
100
AcDbEntity
  8
ASSI
100
AcDbLine
 62
7
  6
CONTINUOUS
 10
1.9459337918
 20
3.2801687129
 11
1.6389299401
 21
3.4972532183
  0
LINE
  5
38F
100
AcDbEntity
  8
RACCORDO
100
AcDbLine
 62
7
  6
CONTINUOUS
 10
1.9459337918
 20
3.2801687129
 11
1.6389299401
 21
3.4972532183
  0
LINE
  5
390
100
AcDbEntity
  8
RACCORDO
100
AcDbLine
 62
250
  6
CONTINUOUS
 10
2.1547726124
 20
3.8127576753
 11
2.514088386
 21
3.5586830551
  0
LINE
  5
391
100
AcDbEntity
  8
CURVE
100
AcDbLine
 62
250
  6
CONTINUOUS
 10
4.4315910802
 20
-1.484809107
 11
4.1125962908
 21
-0.9730812016
  0
LINE
  5
392
100
AcDbEntity
  8
CURVE
100
AcDbLine
 62
250
  6
CONTINUOUS
 10
5.0587968797
 20
-1.2000655087
 11
4.7387024055
 21
-0.6865712841
  0
LINE
  5
393
100
AcDbEntity
  8
CURVE
100
AcDbLine
 62
250
  6
CONTINUOUS
 10
4.1125962908
 20
1.0528101321
 11
4.423605925
 21
0.5538902265
  0
LINE
  5
394
100
AcDbEntity
  8
CURVE
100
AcDbLine
 62
250
  6
CONTINUOUS
 10
5.1633012753
 20
-0.492273226
 11
5.4884266845
 21
-1.0138372949
  0
LINE
  5
395
100
AcDbEntity
  8
CURVE
100
AcDbLine
 62
250
  6
CONTINUOUS
 10
8.6607114987
 20
-8.241543159
 11
8.5705945987
 21
-8.0687997613
  0
LINE
  5
396
100
AcDbEntity
  8
CURVE
100
AcDbLine
 62
250
  6
CONTINUOUS
 10
8.7508284176
 20
-7.6675819117
 11
8.6607114987
 21
-7.4608968518
  0
LINE
  5
397
100
AcDbEntity
  8
DRAFT
100
AcDbLine
 62
7
  6
CONTINUOUS
 10
-4.5446368311
 20
19.2903355304
 11
-4.5788877566
 21
19.3734776166
  0
LWPOLYLINE
  5
398
100
AcDbEntity
  8
CURVE
100
AcDbPolyline
 62
250
  6
CONTINUOUS
 90
49
 70
0
 10
7.0434475941
 20
1.7317591209
 10
7.0440963999
 20
1.7239147179
 10
7.0444704533
 20
1.7158364943
 10
7.0445712279
 20
1.7075360367
 10
7.0444001969
 20
1.6990249317
 10
7.043958834
 20
1.690314766
 10
7.0432486124
 20
1.6814171261
 10
7.0422710057
 20
1.6723435987
 10
7.0410274873
 20
1.6631057705
 10
7.0395195306
 20
1.6537152281
 10
7.037748609
 20
1.644183558
 10
7.0357161961
 20
1.634522347
 10
7.0334237652
 20
1.6247431816
 10
7.0308727898
 20
1.6148576485
 10
7.0280647432
 20
1.6048773343
 10
7.0250010991
 20
1.5948138257
 10
7.0216833307
 20
1.5846787093
 10
7.0181135527
 20
1.5744833679
 10
7.0142964441
 20
1.5642383694
 10
7.0102373252
 20
1.553954078
 10
7.0059415161
 20
1.5436408576
 10
7.0014143371
 20
1.5333090725
 10
6.9966611083
 20
1.5229690866
 10
6.99168715
 20
1.5126312642
 10
6.9864977824
 20
1.5023059692
 10
6.9810983256
 20
1.4920035659
 10
6.9754941
 20
1.4817344182
 10
6.9696904256
 20
1.4715088903
 10
6.9636926228
 20
1.4613373464
 10
6.9575060116
 20
1.4512301504
 10
6.9511359124
 20
1.4411976665
 10
6.9445876453
 20
1.4312502587
 10
6.9378665305
 20
1.4213982913
 10
6.9309786596
 20
1.4116521781
 10
6.9239332092
 20
1.4020225325
 10
6.9167401276
 20
1.3925200177
 10
6.9094093628
 20
1.3831552969
 10
6.9019508628
 20
1.3739390334
 10
6.8943745759
 20
1.3648818904
 10
6.8866904499
 20
1.3559945312
 10
6.8789084331
 20
1.3472876188
 10
6.8710384736
 20
1.3387718166
 10
6.8630905193
 20
1.3304577877
 10
6.8550745185
 20
1.3223561955
 10
6.8470004191
 20
1.3144777031
 10
6.8388781693
 20
1.3068329737
 10
6.8307177172
 20
1.2994326705
 10
6.8225290108
 20
1.2922874569
 10
6.8143219982
 20
1.2854079959
  0
LWPOLYLINE
  5
399
100
AcDbEntity
  8
CURVE
100
AcDbPolyline
 62
250
  6
CONTINUOUS
 90
41
 70
0
 10
5.1664237046
 20
0.2631800461
 10
5.1674252943
 20
0.2423879322
 10
5.1686721503
 20
0.2217783983
 10
5.1702427049
 20
0.2014095726
 10
5.1714448005
 20
0.1886194589
 10
5.1728300184
 20
0.1759735202
 10
5.1744191071
 20
0.1634952661
 10
5.1762328151
 20
0.1512082066
 10
5.1782918909
 20
0.1391358513
 10
5.180617083
 20
0.1273017101
 10
5.18322914
 20
0.1157292928
 10
5.1861488104
 20
0.1044421092
 10
5.1893968428
 20
0.0934636692
 10
5.1929939855
 20
0.0828174824
 10
5.1969609872
 20
0.0725270587
 10
5.2006068483
 20
0.064145494
 10
5.2045343469
 20
0.0560516556
 10
5.2087474628
 20
0.0482636689
 10
5.2132501756
 20
0.0407996595
 10
5.2180464652
 20
0.0336777528
 10
5.2231403114
 20
0.0269160743
 10
5.2285356937
 20
0.0205327495
 10
5.234236592
 20
0.014545904
 10
5.2402469861
 20
0.0089736632
 10
5.2465708557
 20
0.0038341527
 10
5.2532121805
 20
-0.0008545022
 10
5.2601749403
 20
-0.0050741758
 10
5.2674631148
 20
-0.0088067427
 10
5.2750819619
 20
-0.0120398481
 10
5.2830144114
 20
-0.0147729677
 10
5.2912442783
 20
-0.0170119504
 10
5.2997553776
 20
-0.0187626452
 10
5.3085315244
 20
-0.0200309009
 10
5.3175565336
 20
-0.0208225666
 10
5.3268142205
 20
-0.0211434912
 10
5.3362883999
 20
-0.0209995235
 10
5.3459628869
 20
-0.0203965127
 10
5.3558214965
 20
-0.0193403075
 10
5.3658480439
 20
-0.017836757
 10
5.376026344
 20
-0.0158917101
 10
5.3863402118
 20
-0.0135110157
  0
LWPOLYLINE
  5
39A
100
AcDbEntity
  8
CURVE
100
AcDbPolyline
 62
250
  6
CONTINUOUS
 90
46
 70
0
 10
7.6138505385
 20
-1.6938662753
 10
7.6154230596
 20
-1.7326570646
 10
7.6157447918
 20
-1.7724224543
 10
7.614818779
 20
-1.8131133915
 10
7.6126480651
 20
-1.8546808234
 10
7.6092356939
 20
-1.897075697
 10
7.6045847094
 20
-1.9402489596
 10
7.5986981553
 20
-1.9841515582
 10
7.5915790756
 20
-2.0287344399
 10
7.5832305141
 20
-2.0739485519
 10
7.573657378
 20
-2.1197454452
 10
7.5628720272
 20
-2.1660790867
 10
7.5508886848
 20
-2.2129040469
 10
7.5377215739
 20
-2.2601748966
 10
7.5233849178
 20
-2.3078462065
 10
7.5078929396
 20
-2.3558725472
 10
7.4912598624
 20
-2.4042084895
 10
7.4734999094
 20
-2.4528086041
 10
7.4546273037
 20
-2.5016274617
 10
7.4346579729
 20
-2.5506188944
 10
7.4136146617
 20
-2.5997337803
 10
7.3915218195
 20
-2.648922259
 10
7.3684038955
 20
-2.6981344701
 10
7.3442853388
 20
-2.7473205531
 10
7.3191905987
 20
-2.7964306477
 10
7.2931441244
 20
-2.8454148934
 10
7.2661703652
 20
-2.8942234298
 10
7.2382937702
 20
-2.9428063965
 10
7.2095397025
 20
-2.9911148068
 10
7.17993718
 20
-3.039103169
 10
7.1495161346
 20
-3.0867268654
 10
7.1183064979
 20
-3.1339412781
 10
7.0863382017
 20
-3.1807017893
 10
7.0536411778
 20
-3.2269637811
 10
7.020245358
 20
-3.2726826356
 10
6.986180674
 20
-3.3178137351
 10
6.9514770576
 20
-3.3623124617
 10
6.9161667894
 20
-3.4061338111
 10
6.880291545
 20
-3.4492312339
 10
6.8438953491
 20
-3.4915577941
 10
6.8070222262
 20
-3.5330665556
 10
6.7697162009
 20
-3.5737105827
 10
6.7320212976
 20
-3.6134429394
 10
6.693981541
 20
-3.6522166896
 10
6.6556409556
 20
-3.6899848976
 10
6.617043566
 20
-3.7267006274
  0
LWPOLYLINE
  5
39B
100
AcDbEntity
  8
CURVE
100
AcDbPolyline
 62
250
  6
CONTINUOUS
 90
83
 70
0
 10
7.6138527873
 20
-4.7946077088
 10
7.6156112134
 20
-4.8424782263
 10
7.6154784179
 20
-4.8918027639
 10
7.6134595323
 20
-4.9424903756
 10
7.609559688
 20
-4.9944501153
 10
7.6037840165
 20
-5.0475910369
 10
7.5961376492
 20
-5.1018221946
 10
7.5866257176
 20
-5.1570526421
 10
7.5752567417
 20
-5.2131925323
 10
7.5620527959
 20
-5.2701564123
 10
7.5470393432
 20
-5.3278599283
 10
7.5302418466
 20
-5.3862187262
 10
7.5116857691
 20
-5.4451484522
 10
7.4913965736
 20
-5.5045647521
 10
7.4693997231
 20
-5.5643832721
 10
7.4457235643
 20
-5.6245183879
 10
7.4204079785
 20
-5.684879394
 10
7.3934957307
 20
-5.7453743149
 10
7.3650295858
 20
-5.8059111749
 10
7.3350523087
 20
-5.8663979983
 10
7.3036066646
 20
-5.9267428095
 10
7.2707354183
 20
-5.9868536327
 10
7.2364837502
 20
-6.0466392515
 10
7.2009065025
 20
-6.1060114858
 10
7.1640609324
 20
-6.1648829146
 10
7.1260042976
 20
-6.2231661169
 10
7.0867938556
 20
-6.2807736717
 10
7.0464868637
 20
-6.3376181581
 10
7.0051405794
 20
-6.3936121551
 10
6.9628139648
 20
-6.4486698206
 10
6.9195728001
 20
-6.5027116285
 10
6.87548457
 20
-6.5556596316
 10
6.8306167593
 20
-6.6074358827
 10
6.7850368528
 20
-6.6579624347
 10
6.7388123352
 20
-6.7071613402
 10
6.6920106912
 20
-6.7549546522
 10
6.6447002926
 20
-6.8012670178
 10
6.5969530584
 20
-6.8460334615
 10
6.5488417945
 20
-6.8891916023
 10
6.5004393069
 20
-6.9306790591
 10
6.4518184015
 20
-6.9704334508
 10
6.4030518842
 20
-7.0083923963
 10
6.3542125611
 20
-7.0444935146
 10
6.3053732381
 20
-7.0786777555
 10
6.256606721
 20
-7.1108993931
 10
6.2079858159
 20
-7.1411160324
 10
6.1595833287
 20
-7.1692852784
 10
6.1114720653
 20
-7.1953647361
 10
6.0637248317
 20
-7.2193120107
 10
6.0164144338
 20
-7.2410847069
 10
5.9696127908
 20
-7.2606443007
 10
5.9233882741
 20
-7.2779677501
 10
5.8778083687
 20
-7.2930358842
 10
5.8329405592
 20
-7.3058295318
 10
5.7888523304
 20
-7.3163295219
 10
5.7456111671
 20
-7.3245166835
 10
5.703284554
 20
-7.3303718454
 10
5.6619382713
 20
-7.3338798685
 10
5.6216312811
 20
-7.3350417419
 10
5.5824208408
 20
-7.3338624864
 10
5.544364208
 20
-7.330347123
 10
5.5075186399
 20
-7.3245006726
 10
5.4719413942
 20
-7.3163281562
 10
5.4376897283
 20
-7.3058345948
 10
5.4048184842
 20
-7.2930292444
 10
5.3733728424
 20
-7.2779383019
 10
5.3433955677
 20
-7.2605921993
 10
5.3149294253
 20
-7.2410213685
 10
5.2880171799
 20
-7.2192562415
 10
5.2627015967
 20
-7.1953272503
 10
5.2390254406
 20
-7.1692648269
 10
5.2170285928
 20
-7.141102283
 10
5.1967394
 20
-7.1108844487
 10
5.1781833253
 20
-7.0786590338
 10
5.1613858315
 20
-7.0444737483
 10
5.1463723817
 20
-7.0083763019
 10
5.1331684388
 20
-6.9704144045
 10
5.1217994659
 20
-6.9306357659
 10
5.1122875372
 20
-6.8890940712
 10
5.1046411729
 20
-6.8458669066
 10
5.0988655044
 20
-6.8010378331
 10
5.0949656631
 20
-6.7546904122
 10
5.0929467805
 20
-6.7069082052
  0
LINE
  5
39C
100
AcDbEntity
  8
CURVE
100
AcDbLine
 62
250
  6
CONTINUOUS
 10
5.163301362
 20
0.3470117384
 11
5.1664237046
 21
0.2631800461
  0
LINE
  5
39D
100
AcDbEntity
  8
CURVE
100
AcDbLine
 62
250
  6
CONTINUOUS
 10
5.1633012753
 20
0.3470116116
 11
5.1633012753
 21
0.8836321194
  0
LINE
  5
39E
100
AcDbEntity
  8
CURVE
100
AcDbLine
 62
250
  6
CONTINUOUS
 10
5.1633012753
 20
2.2033882366
 11
5.1633012753
 21
3.0368967189
  0
LINE
  5
39F
100
AcDbEntity
  8
CURVE
100
AcDbLine
 62
250
  6
CONTINUOUS
 10
5.1633012753
 20
4.1471151765
 11
5.1633012753
 21
5.1263901862
  0
LINE
  5
3A0
100
AcDbEntity
  8
CURVE
100
AcDbLine
 62
250
  6
CONTINUOUS
 10
6.0913816341
 20
-4.1049436893
 11
6.0913816341
 21
-3.0722142354
  0
LINE
  5
3A1
100
AcDbEntity
  8
CURVE
100
AcDbLine
 62
250
  6
CONTINUOUS
 10
6.617043566
 20
-2.6939704663
 11
6.617043566
 21
-3.7266999203
  0
LINE
  5
3A2
100
AcDbEntity
  8
CURVE
100
AcDbLine
 62
250
  6
CONTINUOUS
 10
6.738217531
 20
-17.8802853546
 11
6.738217531
 21
-15.758965011
  0
LINE
  5
3A3
100
AcDbEntity
  8
CURVE
100
AcDbLine
 62
250
  6
CONTINUOUS
 10
6.738217531
 20
-13.6376446674
 11
6.738217531
 21
-11.5163243239
  0
LINE
  5
3A4
100
AcDbEntity
  8
CURVE
100
AcDbLine
 62
250
  6
CONTINUOUS
 10
6.738217531
 20
-10.8092175427
 11
6.738217531
 21
-10.3260051681
  0
LINE
  5
3A5
100
AcDbEntity
  8
CURVE
100
AcDbLine
 62
250
  6
CONTINUOUS
 10
7.2651829381
 20
6.47152742
 11
7.2651829381
 21
5.2348542282
  0
LINE
  5
3A6
100
AcDbEntity
  8
CURVE
100
AcDbLine
 62
250
  6
CONTINUOUS
 10
7.2651829381
 20
4.27450776
 11
7.2651829381
 21
3.2203614558
  0
LINE
  5
3A7
100
AcDbEntity
  8
CURVE
100
AcDbLine
 62
250
  6
CONTINUOUS
 10
7.2651829381
 20
-0.2072128009
 11
7.2651829381
 21
0.4695583922
  0
LINE
  5
3A8
100
AcDbEntity
  8
CURVE
100
AcDbLine
 62
250
  6
CONTINUOUS
 10
7.2651829381
 20
1.2563872203
 11
7.2651829381
 21
2.4954490188
  0
LWPOLYLINE
  5
3A9
100
AcDbEntity
  8
CURVE
100
AcDbPolyline
 62
250
  6
CONTINUOUS
 90
49
 70
0
 10
5.4105373204
 20
-11.727145869
 10
5.410718469
 20
-11.7018218738
 10
5.4119468614
 20
-11.6772811859
 10
5.4141610883
 20
-11.6534844932
 10
5.4173052468
 20
-11.6303909367
 10
5.421329372
 20
-11.6079580785
 10
5.4261898714
 20
-11.5861419077
 10
5.4318499529
 20
-11.5648968984
 10
5.4382800285
 20
-11.5441761337
 10
5.4454580776
 20
-11.5239315101
 10
5.453369948
 20
-11.5041140302
 10
5.4620095723
 20
-11.4846741856
 10
5.4713790822
 20
-11.465562427
 10
5.4814888065
 20
-11.4467297036
 10
5.4923571466
 20
-11.4281280513
 10
5.5040103334
 20
-11.4097111982
 10
5.5164820785
 20
-11.3914351538
 10
5.5298131422
 20
-11.3732587503
 10
5.5440508429
 20
-11.3551441074
 10
5.5592485401
 20
-11.3370570014
 10
5.575465115
 20
-11.3189671288
 10
5.5927644744
 20
-11.3008482627
 10
5.611215095
 20
-11.2826783109
 10
5.6308896183
 20
-11.2644392876
 10
5.6518645026
 20
-11.2461172148
 10
5.6742197323
 20
-11.2277019717
 10
5.6980385816
 20
-11.2091871066
 10
5.7234074277
 20
-11.1905696273
 10
5.7504156065
 20
-11.1718497806
 10
5.7791553047
 20
-11.1530308317
 10
5.8097214821
 20
-11.1341188482
 10
5.8422118174
 20
-11.1151224952
 10
5.8767266731
 20
-11.0960528441
 10
5.9133690746
 20
-11.076923196
 10
5.9522447013
 20
-11.0577489205
 10
5.9934618842
 20
-11.0385473111
 10
6.037131611
 20
-11.0193374539
 10
6.083367534
 20
-11.0001401118
 10
6.1322859815
 20
-10.9809776206
 10
6.1840059708
 20
-10.9618737974
 10
6.2386492216
 20
-10.9428538593
 10
6.2963401709
 20
-10.9239443518
 10
6.3572059863
 20
-10.9051730858
 10
6.421376581
 20
-10.8865690816
 10
6.4889846261
 20
-10.8681625203
 10
6.5601655647
 20
-10.8499847
 10
6.635057623
 20
-10.8320679986
 10
6.7138018225
 20
-10.8144458396
 10
6.738217531
 20
-10.8092175427
  0
LWPOLYLINE
  5
3AA
100
AcDbEntity
  8
CURVE
100
AcDbPolyline
 62
250
  6
CONTINUOUS
 90
48
 70
0
 10
7.0630095522
 20
5.6822214306
 10
7.061355581
 20
5.6725607537
 10
7.0594400832
 20
5.6627509126
 10
7.0572666717
 20
5.6528031904
 10
7.0548389593
 20
5.64272887
 10
7.0521605588
 20
5.6325392344
 10
7.049235083
 20
5.6222455665
 10
7.0460661449
 20
5.6118591495
 10
7.0426573571
 20
5.6013912661
 10
7.0390123325
 20
5.5908531995
 10
7.035134684
 20
5.5802562326
 10
7.0310280244
 20
5.5696116484
 10
7.0266959665
 20
5.5589307298
 10
7.0221421231
 20
5.5482247598
 10
7.0173701072
 20
5.5375050215
 10
7.0123835314
 20
5.5267827977
 10
7.0071860086
 20
5.5160693715
 10
7.0014139842
 20
5.5046636174
 10
6.995413082
 20
5.493291349
 10
6.9891903245
 20
5.4819632048
 10
6.9827527342
 20
5.4706898234
 10
6.9761073335
 20
5.4594818433
 10
6.9692611448
 20
5.448349903
 10
6.9622211907
 20
5.437304641
 10
6.9549944934
 20
5.4263566959
 10
6.9475880756
 20
5.4155167061
 10
6.9400089596
 20
5.4047953101
 10
6.9322641679
 20
5.3942031466
 10
6.9243607229
 20
5.383750854
 10
6.916305647
 20
5.3734490708
 10
6.9081059628
 20
5.3633084355
 10
6.8997686927
 20
5.3533395868
 10
6.8918343619
 20
5.3441591655
 10
6.8837944905
 20
5.335147225
 10
6.8756582908
 20
5.3263119118
 10
6.8674349754
 20
5.3176613723
 10
6.8591337567
 20
5.3092037528
 10
6.850763847
 20
5.3009471998
 10
6.8423344589
 20
5.2928998596
 10
6.8338548047
 20
5.2850698787
 10
6.8253340969
 20
5.2774654035
 10
6.8167815479
 20
5.2700945803
 10
6.8082063701
 20
5.2629655556
 10
6.799617776
 20
5.2560864757
 10
6.791024978
 20
5.249465487
 10
6.7824371886
 20
5.2431107361
 10
6.7738636201
 20
5.2370303691
 10
6.765313485
 20
5.2312325327
  0
LINE
  5
3AB
100
AcDbEntity
  8
CURVE
100
AcDbLine
 62
250
  6
CONTINUOUS
 10
12.4859270484
 20
9.7291080429
 11
12.616095904
 21
9.9672237106
  0
LINE
  5
3AC
100
AcDbEntity
  8
CURVE
100
AcDbLine
 62
250
  6
CONTINUOUS
 10
13.397109092
 20
10.1680776824
 11
13.2669402228
 21
9.9299620049
  0
LINE
  5
3AD
100
AcDbEntity
  8
CURVE
100
AcDbLine
 62
250
  6
CONTINUOUS
 10
12.4859270484
 20
7.3697282556
 11
12.616095904
 21
7.6078439233
  0
LINE
  5
3AE
100
AcDbEntity
  8
CURVE
100
AcDbLine
 62
250
  6
CONTINUOUS
 10
11.1240937308
 20
8.4939591267
 11
11.2542626135
 21
8.7189428371
  0
LINE
  5
3AF
100
AcDbEntity
  8
CURVE
100
AcDbLine
 62
250
  6
CONTINUOUS
 10
9.5431380471
 20
5.4522337264
 11
9.3428782483
 21
5.1061049562
  0
LINE
  5
3B0
100
AcDbEntity
  8
CURVE
100
AcDbLine
 62
250
  6
CONTINUOUS
 10
10.7335871639
 20
7.4907084144
 11
10.8637560195
 21
7.7156921053
  0
LINE
  5
3B1
100
AcDbEntity
  8
CURVE
100
AcDbLine
 62
250
  6
CONTINUOUS
 10
11.6447692075
 20
8.6716349852
 11
11.5146003383
 21
8.4466512845
  0
LINE
  5
3B2
100
AcDbEntity
  8
CURVE
100
AcDbLine
 62
250
  6
CONTINUOUS
 10
10.7335871639
 20
6.7684494703
 11
10.8637560195
 21
6.9934331612
  0
LINE
  5
3B3
100
AcDbEntity
  8
CURVE
100
AcDbLine
 62
250
  6
CONTINUOUS
 10
10.7335871639
 20
6.046190307
 11
10.8637560195
 21
6.2711739979
  0
LINE
  5
3B4
100
AcDbEntity
  8
CURVE
100
AcDbLine
 62
250
  6
CONTINUOUS
 10
10.7986716189
 20
4.2545445473
 11
10.7335871639
 21
4.1420526823
  0
LINE
  5
3B5
100
AcDbEntity
  8
CURVE
100
AcDbLine
 62
250
  6
CONTINUOUS
 10
14.0278687152
 20
10.9896409417
 11
14.1580375708
 21
11.2080586442
  0
LINE
  5
3B6
100
AcDbEntity
  8
CURVE
100
AcDbLine
 62
250
  6
CONTINUOUS
 10
14.9390507588
 20
11.458157562
 11
14.8088818896
 21
11.2397398497
  0
LINE
  5
3B7
100
AcDbEntity
  8
CURVE
100
AcDbLine
 62
250
  6
CONTINUOUS
 10
14.0278687152
 20
8.8064485466
 11
14.1580375708
 21
9.0248662491
  0
LINE
  5
3B8
100
AcDbEntity
  8
CURVE
100
AcDbLine
 62
250
  6
CONTINUOUS
 10
12.4859270484
 20
5.3474028614
 11
13.006602498
 21
6.0109622125
  0
LINE
  5
3B9
100
AcDbEntity
  8
CURVE
100
AcDbLine
 62
250
  6
CONTINUOUS
 10
11.6447692075
 20
4.1411010107
 11
10.7335871639
 21
3.0258341049
  0
LWPOLYLINE
  5
3BA
100
AcDbEntity
  8
CURVE
100
AcDbPolyline
 62
250
  6
CONTINUOUS
 90
81
 70
0
 10
9.5419613461
 20
-0.9771946991
 10
9.5814076625
 20
-0.947735773
 10
9.6208507938
 20
-0.9161778783
 10
9.6602017096
 20
-0.8826583347
 10
9.6993713799
 20
-0.847314462
 10
9.7382707743
 20
-0.81028358
 10
9.7768108627
 20
-0.7717030086
 10
9.8149026148
 20
-0.7317100676
 10
9.8524570003
 20
-0.6904420769
 10
9.8893849891
 20
-0.6480363561
 10
9.9255975509
 20
-0.6046302253
 10
9.9610056555
 20
-0.5603610041
 10
9.9955202726
 20
-0.5153660124
 10
10.0293996948
 20
-0.4693042065
 10
10.0622735897
 20
-0.4226841785
 10
10.0941388462
 20
-0.3755480747
 10
10.1249923533
 20
-0.3279380412
 10
10.1548309998
 20
-0.2798962244
 10
10.1836516746
 20
-0.2314647704
 10
10.2167076603
 20
-0.1732279729
 10
10.2483067682
 20
-0.1146176581
 10
10.2784461383
 20
-0.0557551348
 10
10.3071229109
 20
0.0032382886
 10
10.334334226
 20
0.0622413035
 10
10.3601539594
 20
0.1213122749
 10
10.3845266882
 20
0.1802206477
 10
10.4074821109
 20
0.2389161784
 10
10.4290499262
 20
0.2973486234
 10
10.4492598326
 20
0.3554677391
 10
10.4725787397
 20
0.4273792491
 10
10.4938356341
 20
0.4986485505
 10
10.513030935
 20
0.569197987
 10
10.5301650621
 20
0.6389499023
 10
10.5451784065
 20
0.707528175
 10
10.5581586685
 20
0.7751705748
 10
10.5691154963
 20
0.841808752
 10
10.5780585383
 20
0.9073743566
 10
10.5849974425
 20
0.9717990389
 10
10.5899418572
 20
1.0350144491
 10
10.5929014307
 20
1.0969522371
 10
10.5938858112
 20
1.1575440533
 10
10.5929014307
 20
1.2167192337
 10
10.5899418572
 20
1.2743978576
 10
10.5849974425
 20
1.3304976904
 10
10.5780585383
 20
1.3849364972
 10
10.5691154963
 20
1.4376320434
 10
10.5581586685
 20
1.4885020943
 10
10.5451784065
 20
1.5374644151
 10
10.5301650621
 20
1.584436771
 10
10.513030935
 20
1.6295307212
 10
10.4938356341
 20
1.672455928
 10
10.4725787397
 20
1.7131341314
 10
10.4492598326
 20
1.7514870715
 10
10.4290499262
 20
1.7805218245
 10
10.4074821109
 20
1.8079157207
 10
10.3845266882
 20
1.8335757771
 10
10.3601539594
 20
1.8574090104
 10
10.334334226
 20
1.8793224374
 10
10.3071229109
 20
1.899165263
 10
10.2784461383
 20
1.9168895365
 10
10.2483067682
 20
1.932378065
 10
10.2167076603
 20
1.9455136556
 10
10.1836516746
 20
1.9561791154
 10
10.1548309998
 20
1.9631343278
 10
10.1249923533
 20
1.9682349255
 10
10.0941388462
 20
1.9714432395
 10
10.0622735897
 20
1.9727216009
 10
10.0293996948
 20
1.9720323407
 10
9.9955202726
 20
1.9693377899
 10
9.9610056555
 20
1.9646623068
 10
9.9255975509
 20
1.9579752227
 10
9.8893849891
 20
1.9492673426
 10
9.8524570003
 20
1.9385294711
 10
9.8149026148
 20
1.9257524133
 10
9.7768108627
 20
1.9109269739
 10
9.7382707743
 20
1.8940439577
 10
9.6993713799
 20
1.8750941697
 10
9.6602017096
 20
1.8540684146
 10
9.6208507938
 20
1.8309574974
 10
9.5814076625
 20
1.8057522228
 10
9.5419613461
 20
1.7784433957
  0
LINE
  5
3BB
100
AcDbEntity
  8
CURVE
100
AcDbLine
 62
250
  6
CONTINUOUS
 10
11.8936035484
 20
1.5480002
 11
11.3959348666
 21
1.1898991725
  0
LINE
  5
3BC
100
AcDbEntity
  8
CURVE
100
AcDbLine
 62
250
  6
CONTINUOUS
 10
4.5683357616
 20
-3.8852899761
 11
5.0945724171
 21
-3.5066326605
  0
LINE
  5
3BD
100
AcDbEntity
  8
CURVE
100
AcDbLine
 62
250
  6
CONTINUOUS
 10
7.613852783
 20
-1.6938666162
 11
8.1400894385
 21
-1.3152093007
  0
LINE
  5
3BE
100
AcDbEntity
  8
CURVE
100
AcDbLine
 62
250
  6
CONTINUOUS
 10
6.0913816341
 20
-3.0722142354
 11
6.617043566
 21
-2.6939704663
  0
LINE
  5
3BF
100
AcDbEntity
  8
0
100
AcDbLine
 62
250
  6
CONTINUOUS
 10
11.9928380634
 20
0.0437753216
 11
11.6033618213
 21
-0.2364750691
  0
LINE
  5
3C0
100
AcDbEntity
  8
0
100
AcDbLine
 62
250
  6
CONTINUOUS
 10
8.8777528392
 20
-2.1977063316
 11
8.4883971489
 21
-2.4778699784
  0
LINE
  5
3C1
100
AcDbEntity
  8
0
100
AcDbLine
 62
250
  6
CONTINUOUS
 10
11.6033618213
 20
-0.6294100647
 11
8.8777528392
 21
-2.5906413273
  0
LWPOLYLINE
  5
3C2
100
AcDbEntity
  8
CURVE
100
AcDbPolyline
 62
250
  6
CONTINUOUS
 90
46
 70
0
 10
6.0913818601
 20
-4.1049464829
 10
6.0527844298
 20
-4.1237768463
 10
6.0144438032
 20
-4.1411851611
 10
5.9764040046
 20
-4.1571550066
 10
5.9387090588
 20
-4.1716699626
 10
5.9014029902
 20
-4.1847136084
 10
5.8645298233
 20
-4.1962695237
 10
5.8281335827
 20
-4.2063212881
 10
5.792258293
 20
-4.214852481
 10
5.7569479785
 20
-4.2218466821
 10
5.7222443152
 20
-4.2272904647
 10
5.6881795836
 20
-4.2311823776
 10
5.6547837153
 20
-4.2335239633
 10
5.6220866422
 20
-4.2343167644
 10
5.5901182961
 20
-4.2335623236
 10
5.5589086087
 20
-4.2312621834
 10
5.5284875117
 20
-4.2274178863
 10
5.498884937
 20
-4.2220309749
 10
5.4701308163
 20
-4.2151029919
 10
5.4422541676
 20
-4.2066376685
 10
5.4152803539
 20
-4.1966474912
 10
5.3892338244
 20
-4.185147135
 10
5.3641390284
 20
-4.1721512752
 10
5.3400204152
 20
-4.1576745868
 10
5.3169024339
 20
-4.141731745
 10
5.2948095339
 20
-4.124337425
 10
5.2737661643
 20
-4.1055063018
 10
5.2537967743
 20
-4.0852530507
 10
5.234924109
 20
-4.063594061
 10
5.2171640959
 20
-4.0405525789
 10
5.200530958
 20
-4.016153565
 10
5.1850389186
 20
-3.9904219798
 10
5.1707022009
 20
-3.9633827837
 10
5.1575350281
 20
-3.9350609373
 10
5.1455516234
 20
-3.9054814011
 10
5.1347662099
 20
-3.8746691355
 10
5.1251930108
 20
-3.8426491011
 10
5.1168443862
 20
-3.8094495436
 10
5.1097252431
 20
-3.7751118501
 10
5.1038386256
 20
-3.7396806929
 10
5.0991875775
 20
-3.7032007443
 10
5.0957751428
 20
-3.6657166765
 10
5.0936043655
 20
-3.627273162
 10
5.0926782895
 20
-3.5879148729
 10
5.0929999587
 20
-3.5476864817
 10
5.0945724171
 20
-3.5066326605
  0
LINE
  5
3C3
100
AcDbEntity
  8
CURVE
100
AcDbLine
 62
250
  6
CONTINUOUS
 10
9.1426184495
 20
7.4873877672
 11
9.3428782483
 21
7.5304709186
  0
LINE
  5
3C4
100
AcDbEntity
  8
CURVE
100
AcDbLine
 62
250
  6
CONTINUOUS
 10
11.1891781857
 20
8.212491468
 11
10.9288404745
 21
8.1564833907
  0
LINE
  5
3C5
100
AcDbEntity
  8
CURVE
100
AcDbLine
 62
250
  6
CONTINUOUS
 10
10.9288404745
 20
5.858386571
 11
10.7335871639
 21
5.8492104356
  0
LINE
  5
3C6
100
AcDbEntity
  8
CURVE
100
AcDbLine
 62
250
  6
CONTINUOUS
 10
10.9288404745
 20
6.5806455152
 11
10.7335871639
 21
6.5714695989
  0
LINE
  5
3C7
100
AcDbEntity
  8
CURVE
100
AcDbLine
 62
250
  6
CONTINUOUS
 10
10.9288404745
 20
7.3029046784
 11
10.7335871639
 21
7.293728543
  0
LINE
  5
3C8
100
AcDbEntity
  8
CURVE
100
AcDbLine
 62
250
  6
CONTINUOUS
 10
10.9939248751
 20
6.3648379206
 11
11.6447692075
 21
6.3735381655
  0
LINE
  5
3C9
100
AcDbEntity
  8
CURVE
100
AcDbLine
 62
250
  6
CONTINUOUS
 10
10.9939248751
 20
7.0870970839
 11
11.6447692075
 21
7.0957971096
  0
LINE
  5
3CA
100
AcDbEntity
  8
CURVE
100
AcDbLine
 62
250
  6
CONTINUOUS
 10
8.3415792963
 20
4.3856131979
 11
8.1413195185
 21
4.4435452678
  0
LINE
  5
3CB
100
AcDbEntity
  8
CURVE
100
AcDbLine
 62
250
  6
CONTINUOUS
 10
10.7335871639
 20
3.8794129816
 11
10.8637560195
 21
3.8417570813
  0
LWPOLYLINE
  5
3CC
100
AcDbEntity
  8
RACCORDO
100
AcDbPolyline
 62
250
  6
CONTINUOUS
 90
10
 70
0
 10
18.0544449512
 20
-3.8865901359
 10
18.0394614431
 20
-3.8783587
 10
18.0239160795
 20
-3.8736693141
 10
18.0068248304
 20
-3.8717739273
 10
17.9883728781
 20
-3.8726930758
 10
17.9687601481
 20
-3.8764168008
 10
17.9481991428
 20
-3.8829047559
 10
17.926912639
 20
-3.8920866448
 10
17.9051312743
 20
-3.9038629823
 10
17.8830910481
 20
-3.9181061728
  0
LWPOLYLINE
  5
3CD
100
AcDbEntity
  8
ASSI
100
AcDbPolyline
 62
250
  6
CONTINUOUS
 90
10
 70
0
 10
18.0544449512
 20
-3.8865901359
 10
18.0394614431
 20
-3.8783587
 10
18.0239160795
 20
-3.8736693141
 10
18.0068248304
 20
-3.8717739273
 10
17.9883728781
 20
-3.8726930758
 10
17.9687601481
 20
-3.8764168008
 10
17.9481991428
 20
-3.8829047559
 10
17.926912639
 20
-3.8920866448
 10
17.9051312743
 20
-3.9038629823
 10
17.8830910481
 20
-3.9181061728
  0
LWPOLYLINE
  5
3CE
100
AcDbEntity
  8
CURVE
100
AcDbPolyline
 62
250
  6
CONTINUOUS
 90
21
 70
0
 10
5.7367732694
 20
4.7003629269
 10
5.7315139635
 20
4.7040106946
 10
5.7259889101
 20
4.707308631
 10
5.7202007984
 20
4.7102301265
 10
5.7141523173
 20
4.7127485719
 10
5.7078461558
 20
4.7148373575
 10
5.701285003
 20
4.7164698741
 10
5.6944715478
 20
4.7176195121
 10
5.6874084793
 20
4.7182596622
 10
5.6800984865
 20
4.7183637148
 10
5.6725303628
 20
4.7179163447
 10
5.6647432862
 20
4.7169550142
 10
5.6567636766
 20
4.7155310898
 10
5.6486179535
 20
4.7136959376
 10
5.6403325366
 20
4.7115009241
 10
5.6319338455
 20
4.7089974156
 10
5.6234482999
 20
4.7062367785
 10
5.6149023195
 20
4.7032703791
 10
5.6063223238
 20
4.7001495838
 10
5.5952580857
 20
4.6959812902
 10
5.5731411072
 20
4.6874563246
  0
LINE
  5
3CF
100
AcDbEntity
  8
RACCORDO
100
AcDbLine
 62
7
  6
CONTINUOUS
 10
-11.6591754428
 20
14.6687726553
 11
-11.6475236712
 21
14.6605336086
  0
LINE
  5
3D0
100
AcDbEntity
  8
RACCORDO
100
AcDbLine
 62
7
  6
CONTINUOUS
 10
-1.5429693218
 20
7.5155347072
 11
-1.5313175502
 21
7.5072956605
  0
LINE
  5
3D1
100
AcDbEntity
  8
RACCORDO
100
AcDbLine
 62
7
  6
CONTINUOUS
 10
-11.6591754428
 20
15.2435353605
 11
-11.6475236712
 21
15.2352963138
  0
LINE
  5
3D2
100
AcDbEntity
  8
RACCORDO
100
AcDbLine
 62
7
  6
CONTINUOUS
 10
-1.5429693218
 20
8.0902974124
 11
-1.5313175502
 21
8.0820583657
  0
LINE
  5
3D3
100
AcDbEntity
  8
RACCORDO
100
AcDbLine
 62
7
  6
CONTINUOUS
 10
-13.5331215066
 20
16.8037267004
 11
-11.8928417663
 21
15.643873773
  0
LINE
  5
3D4
100
AcDbEntity
  8
DRAFT
100
AcDbLine
 62
7
  6
CONTINUOUS
 10
-8.852557984
 20
13.4940684938
 11
-3.2065641591
 21
9.5017479737
  0
LINE
  5
3D5
100
AcDbEntity
  8
RACCORDO
100
AcDbLine
 62
7
  6
CONTINUOUS
 10
-0.3998605306
 20
7.5171088051
 11
1.4739993635
 21
6.192089767
  0
LINE
  5
3D6
100
AcDbEntity
  8
DRAFT
100
AcDbLine
 62
7
  6
CONTINUOUS
 10
-11.6592616125
 20
16.041621669
 11
-11.0876238246
 21
15.6374127128
  0
LINE
  5
3D7
100
AcDbEntity
  8
DRAFT
100
AcDbLine
 62
7
  6
CONTINUOUS
 10
-0.9714983185
 20
8.4842317681
 11
-0.3998605306
 21
8.0800228119
  0
LINE
  5
3D8
100
AcDbEntity
  8
ASSI
100
AcDbLine
 62
7
  6
CONTINUOUS
 10
-2.9409182808
 20
10.4743354913
 11
-2.8122252171
 21
10.3833357533
  0
LINE
  5
3D9
100
AcDbEntity
  8
RACCORDO
100
AcDbLine
 62
7
  6
CONTINUOUS
 10
-1.5747883501
 20
9.7710774531
 11
-3.0361898103
 21
10.8044443357
  0
LINE
  5
3DA
100
AcDbEntity
  8
RACCORDO
100
AcDbLine
 62
7
  6
CONTINUOUS
 10
-8.598668264
 20
14.7377105705
 11
-10.0600697243
 21
15.7710774531
  0
LINE
  5
3DB
100
AcDbEntity
  8
RACCORDO
100
AcDbLine
 62
250
  6
CONTINUOUS
 10
15.9968180769
 20
-2.5843097637
 11
17.8830910481
 21
-3.9181061728
  0
LINE
  5
3DC
100
AcDbEntity
  8
ASSI
100
AcDbLine
 62
250
  6
CONTINUOUS
 10
15.9968180769
 20
-2.5843097637
 11
17.8830910481
 21
-3.9181061728
  0
LINE
  5
3DD
100
AcDbEntity
  8
0
100
AcDbLine
 62
250
  6
CONTINUOUS
 10
-1.5747883501
 20
9.9832094874
 11
-10.0600697243
 21
15.9832094874
  0
LINE
  5
3DE
100
AcDbEntity
  8
RACCORDO
100
AcDbLine
 62
7
  6
CONTINUOUS
 10
15.9968180769
 20
-2.43162822
 11
18.0544449512
 21
-3.8865901359
  0
LINE
  5
3DF
100
AcDbEntity
  8
ASSI
100
AcDbLine
 62
7
  6
CONTINUOUS
 10
15.9968180769
 20
-2.43162822
 11
18.0544449512
 21
-3.8865901359
  0
LINE
  5
3E0
100
AcDbEntity
  8
DRAFT
100
AcDbLine
 62
7
  6
CONTINUOUS
 10
2.2262361096
 20
7.4354603976
 11
2.3765180296
 21
7.3291950329
  0
LINE
  5
3E1
100
AcDbEntity
  8
ASSI
100
AcDbLine
 62
7
  6
CONTINUOUS
 10
2.2262361096
 20
7.4354603976
 11
2.3765180296
 21
7.3291950329
  0
LWPOLYLINE
  5
3E2
100
AcDbEntity
  8
RACCORDO
100
AcDbPolyline
 62
7
  6
CONTINUOUS
 90
25
 70
0
 10
-8.598668264
 20
14.7377105705
 10
-8.5898771502
 20
14.7312156684
 10
-8.5811853833
 20
14.7242614377
 10
-8.5725929633
 20
14.7168478782
 10
-8.5640679102
 20
14.7089432442
 10
-8.555642204
 20
14.7005792815
 10
-8.5474117851
 20
14.6918512273
 10
-8.5393788856
 20
14.6827549201
 10
-8.5315412734
 20
14.6732945215
 10
-8.5239881924
 20
14.6635777534
 10
-8.5167228948
 20
14.6536016856
 10
-8.5097421284
 20
14.6433692482
 10
-8.5031253806
 20
14.6329969544
 10
-8.4968768121
 20
14.6224832054
 10
-8.4909922621
 20
14.6118295998
 10
-8.4855387359
 20
14.6011574463
 10
-8.4805211599
 20
14.5904665328
 10
-8.4759346077
 20
14.5797570714
 10
-8.4718313046
 20
14.5691510065
 10
-8.468216774
 20
14.5586495201
 10
-8.4650854924
 20
14.5482514303
 10
-8.4624731147
 20
14.5380751363
 10
-8.4603915256
 20
14.5281601044
 10
-8.4588288403
 20
14.5184668682
 10
-8.4577850588
 20
14.5089954278
  0
LINE
  5
3E3
100
AcDbEntity
  8
CURVE
100
AcDbLine
 62
250
  6
CONTINUOUS
 10
6.193579037
 20
3.3194320288
 11
6.3493684124
 21
3.0695146265
  0
LINE
  5
3E4
100
AcDbEntity
  8
CURVE
100
AcDbLine
 62
250
  6
CONTINUOUS
 10
6.6670953052
 20
3.2079457944
 11
6.1838332648
 21
3.9831921957
  0
LINE
  5
3E5
100
AcDbEntity
  8
CURVE
100
AcDbLine
 62
250
  6
CONTINUOUS
 10
6.0295514878
 20
4.2306899799
 11
5.7367732112
 21
4.7003627923
  0
LINE
  5
3E6
100
AcDbEntity
  8
DRAFT
100
AcDbLine
 62
7
  6
CONTINUOUS
 10
1.7486135215
 20
7.5886658392
 11
3.233537762
 21
5.0537415987
  0
LINE
  5
3E7
100
AcDbEntity
  8
ASSI
100
AcDbLine
 62
7
  6
CONTINUOUS
 10
2.2435882683
 20
6.7436910923
 11
3.233537762
 21
5.0537415987
  0
LWPOLYLINE
  5
3E8
100
AcDbEntity
  8
CURVE
100
AcDbPolyline
 62
250
  6
CONTINUOUS
 90
40
 70
0
 10
5.170150208
 20
2.1702175851
 10
5.1725256306
 20
2.1592255017
 10
5.1749757124
 20
2.1482979276
 10
5.1775175067
 20
2.13745409
 10
5.1801680669
 20
2.1267132161
 10
5.1829444462
 20
2.116094533
 10
5.1858636981
 20
2.1056172679
 10
5.1889428759
 20
2.0953006481
 10
5.1921990328
 20
2.0851639006
 10
5.1956492222
 20
2.0752262527
 10
5.1993104975
 20
2.0655069315
 10
5.203199912
 20
2.0560251643
 10
5.207334519
 20
2.0468001781
 10
5.2117313718
 20
2.0378512003
 10
5.2164075238
 20
2.0291974579
 10
5.2198950778
 20
2.0232641127
 10
5.2235393871
 20
2.0175050516
 10
5.2273488
 20
2.0119370825
 10
5.2313316648
 20
2.0065770133
 10
5.2354963297
 20
2.0014416518
 10
5.2398511431
 20
1.996547806
 10
5.2444044532
 20
1.9919122837
 10
5.2491646084
 20
1.9875518929
 10
5.2541399569
 20
1.9834834415
 10
5.259338847
 20
1.9797237373
 10
5.264769627
 20
1.9762895883
 10
5.2704406453
 20
1.9731978023
 10
5.2758688391
 20
1.9706717405
 10
5.2815003669
 20
1.9684551562
 10
5.2873286382
 20
1.9665542175
 10
5.2933470629
 20
1.9649750923
 10
5.2995490506
 20
1.9637239486
 10
5.3059280111
 20
1.9628069543
 10
5.3124773541
 20
1.9622302774
 10
5.3191904892
 20
1.9620000859
 10
5.3260608262
 20
1.9621225478
 10
5.3330817748
 20
1.962603831
 10
5.3402467448
 20
1.9634501035
 10
5.3475491458
 20
1.9646675333
 10
5.3549823875
 20
1.9662622882
  0
LWPOLYLINE
  5
3E9
100
AcDbEntity
  8
CURVE
100
AcDbPolyline
 62
250
  6
CONTINUOUS
 90
3
 70
0
 10
5.163301362
 20
2.2033886193
 10
5.165555127
 20
2.1923183711
 10
5.170150208
 20
2.1702175851
  0
LWPOLYLINE
  5
3EA
100
AcDbEntity
  8
CURVE
100
AcDbPolyline
 62
250
  6
CONTINUOUS
 90
9
 70
0
 10
8.1414475253
 20
-4.4892534919
 10
8.1414442358
 20
-4.4799633637
 10
8.1413933462
 20
-4.470709032
 10
8.1412948374
 20
-4.4614908029
 10
8.1411486904
 20
-4.4523089826
 10
8.1409548862
 20
-4.4431638772
 10
8.1407134056
 20
-4.4340557928
 10
8.1404242296
 20
-4.4249850356
 10
8.1400873391
 20
-4.4159519117
  0
LWPOLYLINE
  5
3EB
100
AcDbEntity
  8
CURVE
100
AcDbPolyline
 62
250
  6
CONTINUOUS
 90
9
 70
0
 10
8.1414476077
 20
-1.3885124425
 10
8.1414443183
 20
-1.3792223104
 10
8.1413934288
 20
-1.3699679749
 10
8.1412949201
 20
-1.3607497419
 10
8.1411487731
 20
-1.3515679178
 10
8.1409549688
 20
-1.3424228086
 10
8.1407134882
 20
-1.3333147204
 10
8.1404243121
 20
-1.3242439595
 10
8.1400874215
 20
-1.3152108319
  0
LINE
  5
3EC
100
AcDbEntity
  8
RACCORDO
100
AcDbLine
 62
250
  6
CONTINUOUS
 10
7.7392706195
 20
11.8456847707
 11
7.7392706195
 21
11.380386834
  0
LINE
  5
3ED
100
AcDbEntity
  8
CURVE
100
AcDbLine
 62
250
  6
CONTINUOUS
 10
7.7895814274
 20
-12.8394824654
 11
7.7895814274
 21
-13.1449527891
  0
LINE
  5
3EE
100
AcDbEntity
  8
CURVE
100
AcDbLine
 62
250
  6
CONTINUOUS
 10
7.7895814274
 20
-16.5051241405
 11
7.7895814274
 21
-16.4033007276
  0
LINE
  5
3EF
100
AcDbEntity
  8
CURVE
100
AcDbLine
 62
250
  6
CONTINUOUS
 10
7.7895814274
 20
-12.2285421579
 11
7.7895814274
 21
-11.6176018504
  0
LINE
  5
3F0
100
AcDbEntity
  8
CURVE
100
AcDbLine
 62
250
  6
CONTINUOUS
 10
7.7895814274
 20
-10.904838215
 11
7.7895814274
 21
-10.8030152269
  0
LINE
  5
3F1
100
AcDbEntity
  8
RACCORDO
100
AcDbLine
 62
7
  6
CONTINUOUS
 10
7.8844852513
 20
12.1971337745
 11
7.8844852513
 21
11.6303810083
  0
LINE
  5
3F2
100
AcDbEntity
  8
CURVE
100
AcDbLine
 62
250
  6
CONTINUOUS
 10
8.1413195185
 20
3.0293317897
 11
8.1413195185
 21
3.7364384866
  0
LINE
  5
3F3
100
AcDbEntity
  8
CURVE
100
AcDbLine
 62
250
  6
CONTINUOUS
 10
8.1413195185
 20
4.4435452678
 11
8.1413195185
 21
4.5445606427
  0
LINE
  5
3F4
100
AcDbEntity
  8
CURVE
100
AcDbLine
 62
250
  6
CONTINUOUS
 10
8.1413195185
 20
6.3628351988
 11
8.1413195185
 21
6.4638504051
  0
LINE
  5
3F5
100
AcDbEntity
  8
CURVE
100
AcDbLine
 62
250
  6
CONTINUOUS
 10
8.3302828276
 20
-11.4321829812
 11
8.3302828276
 21
-11.8394766328
  0
LINE
  5
3F6
100
AcDbEntity
  8
0
100
AcDbLine
 62
250
  6
CONTINUOUS
 10
8.4883971489
 20
-2.4778699784
 11
8.4883971489
 21
-3.263496725
  0
LINE
  5
3F7
100
AcDbEntity
  8
0
100
AcDbLine
 62
250
  6
CONTINUOUS
 10
8.4883971489
 20
-5.2276837996
 11
8.4883971489
 21
-6.0133098391
  0
LINE
  5
3F8
100
AcDbEntity
  8
0
100
AcDbLine
 62
250
  6
CONTINUOUS
 10
8.4883971489
 20
-4.8349927558
 11
8.4883971489
 21
-3.6564317207
  0
LINE
  5
3F9
100
AcDbEntity
  8
CURVE
100
AcDbLine
 62
250
  6
CONTINUOUS
 10
8.6907504654
 20
-14.9063301143
 11
8.6907504654
 21
-14.3632719688
  0
LINE
  5
3FA
100
AcDbEntity
  8
0
100
AcDbLine
 62
250
  6
CONTINUOUS
 10
8.8777528392
 20
-5.3404551485
 11
8.8777528392
 21
-4.9475201529
  0
LINE
  5
3FB
100
AcDbEntity
  8
0
100
AcDbLine
 62
250
  6
CONTINUOUS
 10
8.8777528392
 20
-4.1618941134
 11
8.8777528392
 21
-3.7689591177
  0
LINE
  5
3FC
100
AcDbEntity
  8
0
100
AcDbLine
 62
250
  6
CONTINUOUS
 10
8.8777528392
 20
-2.5906413273
 11
8.8777528392
 21
-2.1977063316
  0
LINE
  5
3FD
100
AcDbEntity
  8
CURVE
100
AcDbLine
 62
250
  6
CONTINUOUS
 10
9.0512181032
 20
-9.8951956142
 11
9.0512181032
 21
-9.9970186023
  0
LINE
  5
3FE
100
AcDbEntity
  8
CURVE
100
AcDbLine
 62
250
  6
CONTINUOUS
 10
9.0512181032
 20
-11.7280161968
 11
9.0512181032
 21
-12.4407798323
  0
LINE
  5
3FF
100
AcDbEntity
  8
CURVE
100
AcDbLine
 62
250
  6
CONTINUOUS
 10
9.0512181032
 20
-15.4954811149
 11
9.0512181032
 21
-15.5973045278
  0
LINE
  5
400
100
AcDbEntity
  8
CURVE
100
AcDbLine
 62
250
  6
CONTINUOUS
 10
9.0512181032
 20
-11.3207225452
 11
9.0512181032
 21
-10.9134288936
  0
LINE
  5
401
100
AcDbEntity
  8
RACCORDO
100
AcDbLine
 62
7
  6
CONTINUOUS
 10
9.5419613461
 20
-17.8825938247
 11
9.5419613461
 21
-17.2568765361
  0
LINE
  5
402
100
AcDbEntity
  8
ASSI
100
AcDbLine
 62
7
  6
CONTINUOUS
 10
9.5419613461
 20
-17.8825938247
 11
9.5419613461
 21
-17.2568765361
  0
LINE
  5
403
100
AcDbEntity
  8
RACCORDO
100
AcDbLine
 62
7
  6
CONTINUOUS
 10
9.5419613461
 20
8.8657370773
 11
9.5419613461
 21
9.4914543659
  0
LINE
  5
404
100
AcDbEntity
  8
ASSI
100
AcDbLine
 62
7
  6
CONTINUOUS
 10
9.5419613461
 20
8.8657370773
 11
9.5419613461
 21
9.4914543659
  0
LINE
  5
405
100
AcDbEntity
  8
CURVE
100
AcDbLine
 62
250
  6
CONTINUOUS
 10
9.5431380471
 20
7.4725388637
 11
9.5431380471
 21
7.3715236574
  0
LINE
  5
406
100
AcDbEntity
  8
CURVE
100
AcDbLine
 62
250
  6
CONTINUOUS
 10
9.5431380471
 20
5.5532491013
 11
9.5431380471
 21
5.4522337264
  0
LWPOLYLINE
  5
407
100
AcDbEntity
  8
RACCORDO
100
AcDbPolyline
 62
250
  6
CONTINUOUS
 90
7
 70
0
 10
11.068136031
 20
18.950074281
 10
11.066305115
 20
18.9266734547
 10
11.059642054
 20
18.8999532343
 10
11.0482101593
 20
18.8740529591
 10
11.0321964487
 20
18.8493963393
 10
11.0118628952
 20
18.8263867399
 10
10.9875421415
 20
18.8054005817
  0
LWPOLYLINE
  5
408
100
AcDbEntity
  8
ASSI
100
AcDbPolyline
 62
250
  6
CONTINUOUS
 90
7
 70
0
 10
11.068136031
 20
18.950074281
 10
11.066305115
 20
18.9266734547
 10
11.059642054
 20
18.8999532343
 10
11.0482101593
 20
18.8740529591
 10
11.0321964487
 20
18.8493963393
 10
11.0118628952
 20
18.8263867399
 10
10.9875421415
 20
18.8054005817
  0
LINE
  5
409
100
AcDbEntity
  8
CURVE
100
AcDbLine
 62
250
  6
CONTINUOUS
 10
11.6447692075
 20
3.3446647228
 11
10.8037094156
 21
1.3085241152
  0
LINE
  5
40A
100
AcDbEntity
  8
CURVE
100
AcDbLine
 62
250
  6
CONTINUOUS
 10
11.7498763621
 20
2.1133463217
 11
11.5396620529
 21
1.7140829783
  0
LINE
  5
40B
100
AcDbEntity
  8
CURVE
100
AcDbLine
 62
250
  6
CONTINUOUS
 10
10.9939248751
 20
3.935421004
 11
11.3844314691
 21
4.6760321995
  0
LINE
  5
40C
100
AcDbEntity
  8
CURVE
100
AcDbLine
 62
250
  6
CONTINUOUS
 10
13.2669402228
 20
8.4854438318
 11
13.397109092
 21
8.7235595092
  0
LINE
  5
40D
100
AcDbEntity
  8
CURVE
100
AcDbLine
 62
250
  6
CONTINUOUS
 10
12.4859270484
 20
6.5752432965
 11
12.616095904
 21
6.8133589642
  0
LINE
  5
40E
100
AcDbEntity
  8
CURVE
100
AcDbLine
 62
250
  6
CONTINUOUS
 10
13.397109092
 20
7.0142130566
 11
13.2669402228
 21
6.7760973188
  0
LINE
  5
40F
100
AcDbEntity
  8
CURVE
100
AcDbLine
 62
250
  6
CONTINUOUS
 10
11.6447692075
 20
4.4694005955
 11
11.5796847729
 21
4.3569086904
  0
LINE
  5
410
100
AcDbEntity
  8
CURVE
100
AcDbLine
 62
250
  6
CONTINUOUS
 10
14.0278687152
 20
8.0163408931
 11
14.1580375708
 21
8.2347586997
  0
LINE
  5
411
100
AcDbEntity
  8
CURVE
100
AcDbLine
 62
250
  6
CONTINUOUS
 10
14.9390507588
 20
9.274965375
 11
14.8088818896
 21
9.0565474546
  0
LINE
  5
412
100
AcDbEntity
  8
CURVE
100
AcDbLine
 62
250
  6
CONTINUOUS
 10
14.0278687152
 20
6.7688025229
 11
14.1580375708
 21
6.9872202774
  0
LINE
  5
413
100
AcDbEntity
  8
CURVE
100
AcDbLine
 62
250
  6
CONTINUOUS
 10
14.5485441648
 20
7.0187043884
 11
14.9390507588
 21
7.5492038527
  0
LINE
  5
414
100
AcDbEntity
  8
CURVE
100
AcDbLine
 62
7
  6
CONTINUOUS
 10
4.5716566917
 20
-7.1302894032
 11
5.0945724171
 21
-6.6073736778
  0
LINE
  5
415
100
AcDbEntity
  8
0
100
AcDbLine
 62
250
  6
CONTINUOUS
 10
8.4883971489
 20
-3.263496725
 11
11.9928380634
 21
-0.741851425
  0
LINE
  5
416
100
AcDbEntity
  8
0
100
AcDbLine
 62
250
  6
CONTINUOUS
 10
8.4883971489
 20
-3.6564317207
 11
11.9928380634
 21
-1.1347864207
  0
LINE
  5
417
100
AcDbEntity
  8
0
100
AcDbLine
 62
250
  6
CONTINUOUS
 10
11.9928380634
 20
-1.5274774645
 11
10.4352954513
 21
-2.6482182911
  0
LINE
  5
418
100
AcDbEntity
  8
0
100
AcDbLine
 62
250
  6
CONTINUOUS
 10
8.8777528392
 20
-3.7689591177
 11
10.0458192092
 21
-2.9284686818
  0
LINE
  5
419
100
AcDbEntity
  8
CURVE
100
AcDbLine
 62
250
  6
CONTINUOUS
 10
4.5683357616
 20
-6.9860309933
 11
5.0945724171
 21
-6.6073736778
  0
LINE
  5
41A
100
AcDbEntity
  8
CURVE
100
AcDbLine
 62
250
  6
CONTINUOUS
 10
7.613852783
 20
-4.7946076335
 11
8.1400894385
 21
-4.4159503179
  0
LINE
  5
41B
100
AcDbEntity
  8
0
100
AcDbLine
 62
250
  6
CONTINUOUS
 10
10.0458192092
 20
-3.3214036774
 11
8.8777528392
 21
-4.1618941134
  0
LINE
  5
41C
100
AcDbEntity
  8
0
100
AcDbLine
 62
250
  6
CONTINUOUS
 10
10.4352954513
 20
-3.0411532868
 11
11.9928380634
 21
-1.9204124602
  0
LINE
  5
41D
100
AcDbEntity
  8
0
100
AcDbLine
 62
250
  6
CONTINUOUS
 10
11.9928380634
 20
-2.3133474558
 11
8.4883971489
 21
-4.8349927558
  0
LINE
  5
41E
100
AcDbEntity
  8
0
100
AcDbLine
 62
250
  6
CONTINUOUS
 10
11.9928380634
 20
-2.7060384996
 11
11.6033618213
 21
-2.9862888903
  0
LINE
  5
41F
100
AcDbEntity
  8
0
100
AcDbLine
 62
250
  6
CONTINUOUS
 10
10.4352954513
 20
-3.8267793263
 11
10.0458192092
 21
-4.1070297169
  0
LINE
  5
420
100
AcDbEntity
  8
0
100
AcDbLine
 62
250
  6
CONTINUOUS
 10
8.8777528392
 20
-4.9475201529
 11
8.4883971489
 21
-5.2276837996
  0
LINE
  5
421
100
AcDbEntity
  8
0
100
AcDbLine
 62
250
  6
CONTINUOUS
 10
11.6033618213
 20
-3.379223886
 11
10.4352954513
 21
-4.2197143219
  0
LINE
  5
422
100
AcDbEntity
  8
0
100
AcDbLine
 62
250
  6
CONTINUOUS
 10
10.0458192092
 20
-4.4999647126
 11
8.8777528392
 21
-5.3404551485
  0
LINE
  5
423
100
AcDbEntity
  8
0
100
AcDbLine
 62
250
  6
CONTINUOUS
 10
8.4883971489
 20
-6.0133098391
 11
11.9928380634
 21
-3.4916645391
  0
LINE
  5
424
100
AcDbEntity
  8
CURVE
100
AcDbLine
 62
250
  6
CONTINUOUS
 10
10.9939248751
 20
7.809356028
 11
11.6447692075
 21
7.8180562729
  0
LINE
  5
425
100
AcDbEntity
  8
CURVE
100
AcDbLine
 62
250
  6
CONTINUOUS
 10
8.5418390742
 20
5.5398639406
 11
8.1413195185
 21
5.6557284176
  0
LINE
  5
426
100
AcDbEntity
  8
CURVE
100
AcDbLine
 62
250
  6
CONTINUOUS
 10
11.5146003383
 20
4.769696132
 11
11.6447692075
 21
4.7320402963
  0
LINE
  5
427
100
AcDbEntity
  8
CURVE
100
AcDbLine
 62
250
  6
CONTINUOUS
 10
9.3428782483
 20
5.6111811562
 11
9.5431380471
 21
5.5532491013
  0
LINE
  5
428
100
AcDbEntity
  8
CURVE
100
AcDbLine
 62
250
  6
CONTINUOUS
 10
8.3415792963
 20
6.3049031289
 11
8.1413195185
 21
6.3628351988
  0
LINE
  5
429
100
AcDbEntity
  8
CURVE
100
AcDbLine
 62
250
  6
CONTINUOUS
 10
9.3428782483
 20
7.5304709186
 11
9.5431380471
 21
7.4725388637
  0
LINE
  5
42A
100
AcDbEntity
  8
0
100
AcDbLine
 62
250
  6
CONTINUOUS
 10
-1.0798136032
 20
10.8281842343
 11
-9.5650949775
 21
16.8281842343
  0
LINE
  5
42B
100
AcDbEntity
  8
0
100
AcDbLine
 62
250
  6
CONTINUOUS
 10
-0.7162454706
 20
11.0852657263
 11
-9.2015268449
 21
17.0852657263
  0
LINE
  5
42C
100
AcDbEntity
  8
0
100
AcDbLine
 62
250
  6
CONTINUOUS
 10
-0.5632898621
 20
11.1691958858
 11
-9.0485712363
 21
17.1691958858
  0
LINE
  5
42D
100
AcDbEntity
  8
CURVE
100
AcDbLine
 62
250
  6
CONTINUOUS
 10
-8.8579881963
 20
17.2420342623
 11
-0.3727068221
 21
11.2420342623
  0
LINE
  5
42E
100
AcDbEntity
  8
RACCORDO
100
AcDbLine
 62
7
  6
CONTINUOUS
 10
-1.5747883501
 20
12.0920342623
 11
-3.6253980155
 21
13.5420342623
  0
LINE
  5
42F
100
AcDbEntity
  8
RACCORDO
100
AcDbLine
 62
7
  6
CONTINUOUS
 10
-5.6052970028
 20
14.9420342623
 11
-7.6559066683
 21
16.3920342623
  0
LWPOLYLINE
  5
430
100
AcDbEntity
  8
RACCORDO
100
AcDbPolyline
 62
7
  6
CONTINUOUS
 90
16
 70
0
 10
-7.6559066683
 20
16.3920342623
 10
-7.6649229338
 20
16.3987345389
 10
-7.6732581217
 20
16.4055667878
 10
-7.6809122321
 20
16.4125310089
 10
-7.6879121313
 20
16.4196580661
 10
-7.6942309528
 20
16.4269170956
 10
-7.6997880981
 20
16.4342155058
 10
-7.7045738101
 20
16.4415538013
 10
-7.7085978457
 20
16.4489314777
 10
-7.7118088771
 20
16.45625443
 10
-7.7141964898
 20
16.4635219572
 10
-7.7157710981
 20
16.4707347605
 10
-7.7165126175
 20
16.4778008379
 10
-7.7164103762
 20
16.4847183099
 10
-7.7154750459
 20
16.4914890561
 10
-7.7147746087
 20
16.4945162351
  0
LWPOLYLINE
  5
431
100
AcDbEntity
  8
RACCORDO
100
AcDbPolyline
 62
7
  6
CONTINUOUS
 90
16
 70
0
 10
-3.6253980155
 20
13.5420342623
 10
-3.634414281
 20
13.5487345389
 10
-3.642749469
 20
13.5555667878
 10
-3.6504035794
 20
13.5625310089
 10
-3.6574034785
 20
13.5696580661
 10
-3.6637223001
 20
13.5769170956
 10
-3.6692794453
 20
13.5842155058
 10
-3.6740651573
 20
13.5915538013
 10
-3.678089193
 20
13.5989314777
 10
-3.6813002244
 20
13.60625443
 10
-3.683687837
 20
13.6135219572
 10
-3.6852624454
 20
13.6207347605
 10
-3.6860039647
 20
13.6278008379
 10
-3.6859017234
 20
13.6347183099
 10
-3.6849663932
 20
13.6414890561
 10
-3.684265956
 20
13.6445162351
  0
LINE
  5
432
100
AcDbEntity
  8
CURVE
100
AcDbLine
 62
250
  6
CONTINUOUS
 10
10.8037094156
 20
1.3085241152
 11
11.6447692075
 21
0.4827645772
  0
LINE
  5
433
100
AcDbEntity
  8
CURVE
100
AcDbLine
 62
250
  6
CONTINUOUS
 10
6.5865064249
 20
4.1674572824
 11
6.9045094654
 21
3.6573188039
  0
LINE
  5
434
100
AcDbEntity
  8
CURVE
100
AcDbLine
 62
250
  6
CONTINUOUS
 10
5.9575827623
 20
5.1763732405
 11
6.4322246479
 21
4.4149557737
  0
LINE
  5
435
100
AcDbEntity
  8
CURVE
100
AcDbLine
 62
250
  6
CONTINUOUS
 10
6.2385371498
 20
5.3049388735
 11
6.391200589
 21
5.0600369967
  0
LWPOLYLINE
  5
436
100
AcDbEntity
  8
CURVE
100
AcDbPolyline
 62
250
  6
CONTINUOUS
 90
37
 70
0
 10
7.2651829381
 20
4.27450776
 10
7.2622415537
 20
4.2826019873
 10
7.2590226965
 20
4.2904238491
 10
7.255530077
 20
4.2979675525
 10
7.2517674057
 20
4.3052273048
 10
7.2477383932
 20
4.3121973135
 10
7.2434467499
 20
4.3188717857
 10
7.2388961863
 20
4.3252449287
 10
7.2340904131
 20
4.3313109499
 10
7.2290331408
 20
4.3370640565
 10
7.2237280798
 20
4.3424984559
 10
7.2181789407
 20
4.3476083553
 10
7.212389434
 20
4.3523879621
 10
7.206363456
 20
4.3568321641
 10
7.200105646
 20
4.3609385716
 10
7.1936208287
 20
4.3647054753
 10
7.1869138293
 20
4.368131166
 10
7.1799894726
 20
4.3712139346
 10
7.1728525837
 20
4.3739520719
 10
7.1655079874
 20
4.3763438686
 10
7.1579605087
 20
4.3783876156
 10
7.1502149725
 20
4.3800816037
 10
7.1422762039
 20
4.3814241237
 10
7.1341490277
 20
4.3824134664
 10
7.125838269
 20
4.3830479225
 10
7.1173493053
 20
4.3833263336
 10
7.1086897247
 20
4.3832497434
 10
7.099867668
 20
4.3828197466
 10
7.090891276
 20
4.3820379375
 10
7.0817686894
 20
4.3809059106
 10
7.0725080491
 20
4.3794252605
 10
7.0631174958
 20
4.3775975816
 10
7.0536051703
 20
4.3754244684
 10
7.0439792133
 20
4.3729075155
 10
7.0342477656
 20
4.3700483172
 10
7.024418968
 20
4.3668484681
 10
7.0145009613
 20
4.3633095626
  0
LWPOLYLINE
  5
437
100
AcDbEntity
  8
RACCORDO
100
AcDbPolyline
 62
7
  6
CONTINUOUS
 90
13
 70
0
 10
11.0681171166
 20
18.9504557507
 10
11.065891952
 20
18.9949869093
 10
11.0584830402
 20
19.0443029902
 10
11.0457235826
 20
19.094814697
 10
11.0285250589
 20
19.143646784
 10
11.00750033
 20
19.1904504414
 10
10.9826190831
 20
19.2359736697
 10
10.9546319314
 20
19.2791052355
 10
10.9238190576
 20
19.3197386741
 10
10.8901076889
 20
19.357959322
 10
10.8539966457
 20
19.3930886351
 10
10.8154906743
 20
19.4249438412
 10
10.7997267618
 20
19.436481228
  0
LWPOLYLINE
  5
438
100
AcDbEntity
  8
ASSI
100
AcDbPolyline
 62
7
  6
CONTINUOUS
 90
13
 70
0
 10
11.0681171166
 20
18.9504557507
 10
11.065891952
 20
18.9949869093
 10
11.0584830402
 20
19.0443029902
 10
11.0457235826
 20
19.094814697
 10
11.0285250589
 20
19.143646784
 10
11.00750033
 20
19.1904504414
 10
10.9826190831
 20
19.2359736697
 10
10.9546319314
 20
19.2791052355
 10
10.9238190576
 20
19.3197386741
 10
10.8901076889
 20
19.357959322
 10
10.8539966457
 20
19.3930886351
 10
10.8154906743
 20
19.4249438412
 10
10.7997267618
 20
19.436481228
  0
LWPOLYLINE
  5
439
100
AcDbEntity
  8
0
100
AcDbPolyline
 62
250
  6
CONTINUOUS
 90
65
 70
0
 10
11.259335837
 20
-5.2491485433
 10
11.260747757
 20
-5.3260509263
 10
11.2649741102
 20
-5.4009723495
 10
11.2720007862
 20
-5.4738014116
 10
11.2818136745
 20
-5.5444267116
 10
11.2943986647
 20
-5.6127368483
 10
11.3097416463
 20
-5.6786204206
 10
11.3278285089
 20
-5.7419660273
 10
11.3486451421
 20
-5.8026622673
 10
11.3721774355
 20
-5.8605977395
 10
11.3984112786
 20
-5.9156610427
 10
11.427332561
 20
-5.9677407758
 10
11.4577811325
 20
-6.01509542
 10
11.49065839
 20
-6.0595365236
 10
11.5259014869
 20
-6.1010350477
 10
11.5634475763
 20
-6.1395619536
 10
11.6032338117
 20
-6.1750882025
 10
11.6451973463
 20
-6.2075847556
 10
11.6892753334
 20
-6.2370225743
 10
11.7354049262
 20
-6.2633726196
 10
11.7835232782
 20
-6.2866058529
 10
11.8335675424
 20
-6.3066932354
 10
11.8854748724
 20
-6.3236057283
 10
11.9447099051
 20
-6.3385265339
 10
12.0060466975
 20
-6.3495595523
 10
12.0694044302
 20
-6.3567014279
 10
12.1347022837
 20
-6.3599488052
 10
12.2018594386
 20
-6.3592983287
 10
12.2596074425
 20
-6.3557414782
 10
12.3185470909
 20
-6.3494392507
 10
12.3786168261
 20
-6.3403952444
 10
12.439755091
 20
-6.3286130574
 10
12.5019003281
 20
-6.314096288
 10
12.5649909799
 20
-6.2968485341
 10
12.6300534487
 20
-6.276516872
 10
12.6959498629
 20
-6.2533995033
 10
12.762600125
 20
-6.2275312543
 10
12.8299241374
 20
-6.198946951
 10
12.8978418025
 20
-6.1676814196
 10
12.9662730225
 20
-6.1337694861
 10
13.0366637776
 20
-6.0964134208
 10
13.1074399285
 20
-6.056379235
 10
13.1785340837
 20
-6.0137168489
 10
13.2512516324
 20
-5.9675834614
 10
13.324139861
 20
-5.9188448511
 10
13.3971090925
 20
-5.8675743264
 10
13.4548059099
 20
-5.8252877491
 10
13.5124571021
 20
-5.7814883578
 10
13.5700224676
 20
-5.7362005322
 10
13.6265648024
 20
-5.6901911465
 10
13.6829512578
 20
-5.6427844015
 10
13.739148069
 20
-5.5940015253
 10
13.8050106409
 20
-5.5348455195
 10
13.8704916589
 20
-5.4738783883
 10
13.9355191629
 20
-5.4111665931
 10
14.0000211931
 20
-5.3467765955
 10
14.0639257895
 20
-5.2807748569
 10
14.141526807
 20
-5.1975689836
 10
14.2180127905
 20
-5.1121536214
 10
14.2932793089
 20
-5.0246522348
 10
14.3672219314
 20
-4.9351882882
 10
14.4390102893
 20
-4.8448215133
 10
14.5092828572
 20
-4.7528153156
 10
14.5779235224
 20
-4.6593324787
 10
14.644816172
 20
-4.5645357863
  0
LWPOLYLINE
  5
43A
100
AcDbEntity
  8
0
100
AcDbPolyline
 62
250
  6
CONTINUOUS
 90
42
 70
0
 10
12.3282224647
 20
-4.4800235938
 10
12.3286064155
 20
-4.5086729585
 10
12.3297574299
 20
-4.5367805361
 10
12.331674251
 20
-4.5643221331
 10
12.3343556219
 20
-4.5912735561
 10
12.3378002858
 20
-4.6176106116
 10
12.3420069857
 20
-4.6433091062
 10
12.3469744649
 20
-4.6683448466
 10
12.3527014663
 20
-4.6926936392
 10
12.3591867332
 20
-4.7163312906
 10
12.3664290086
 20
-4.7392336075
 10
12.3744270356
 20
-4.7613763964
 10
12.3837484887
 20
-4.7840435283
 10
12.3939092001
 20
-4.8058135338
 10
12.4048969069
 20
-4.8266737925
 10
12.4166993463
 20
-4.8466116842
 10
12.4293042554
 20
-4.865614589
 10
12.4426993712
 20
-4.8836698864
 10
12.4568724309
 20
-4.9007649565
 10
12.4718111717
 20
-4.916887179
 10
12.4875033305
 20
-4.9320239337
 10
12.5039366445
 20
-4.9461626005
 10
12.5208945396
 20
-4.9591445938
 10
12.5385495461
 20
-4.971132463
 10
12.5568867434
 20
-4.982119413
 10
12.5758912109
 20
-4.9920986487
 10
12.595548028
 20
-5.0010633752
 10
12.615842274
 20
-5.0090067972
 10
12.6367590285
 20
-5.0159221197
 10
12.6582833706
 20
-5.0218025477
 10
12.68040038
 20
-5.026641286
 10
12.7030951358
 20
-5.0304315396
 10
12.726452913
 20
-5.0331774218
 10
12.750354311
 20
-5.0348603461
 10
12.7747752509
 20
-5.0354817732
 10
12.7996916535
 20
-5.0350431639
 10
12.8250794396
 20
-5.0335459791
 10
12.8509145301
 20
-5.0309916794
 10
12.8771728459
 20
-5.0273817256
 10
12.9038303079
 20
-5.0227175785
 10
12.9308628369
 20
-5.0170006989
 10
12.9582463538
 20
-5.0102325475
  0
LINE
  5
43B
100
AcDbEntity
  8
0
100
AcDbLine
 62
250
  6
CONTINUOUS
 10
10.0458192092
 20
-2.9284686818
 11
10.0458192092
 21
-3.3214036774
  0
LINE
  5
43C
100
AcDbEntity
  8
0
100
AcDbLine
 62
250
  6
CONTINUOUS
 10
10.0458192092
 20
-4.1070297169
 11
10.0458192092
 21
-4.4999647126
  0
LINE
  5
43D
100
AcDbEntity
  8
CURVE
100
AcDbLine
 62
250
  6
CONTINUOUS
 10
10.3198684977
 20
-14.7127853235
 11
10.3198684977
 21
-14.4791671425
  0
LINE
  5
43E
100
AcDbEntity
  8
0
100
AcDbLine
 62
250
  6
CONTINUOUS
 10
10.4352954513
 20
-2.6482182911
 11
10.4352954513
 21
-3.0411532868
  0
LINE
  5
43F
100
AcDbEntity
  8
0
100
AcDbLine
 62
250
  6
CONTINUOUS
 10
10.4352954513
 20
-4.2197143219
 11
10.4352954513
 21
-3.8267793263
  0
LINE
  5
440
100
AcDbEntity
  8
CURVE
100
AcDbLine
 62
250
  6
CONTINUOUS
 10
10.7335871639
 20
4.1420526823
 11
10.7335871639
 21
3.8794129816
  0
LINE
  5
441
100
AcDbEntity
  8
CURVE
100
AcDbLine
 62
250
  6
CONTINUOUS
 10
10.7335871639
 20
5.8492104356
 11
10.7335871639
 21
6.046190307
  0
LINE
  5
442
100
AcDbEntity
  8
CURVE
100
AcDbLine
 62
250
  6
CONTINUOUS
 10
10.7335871639
 20
6.5714695989
 11
10.7335871639
 21
6.7684494703
  0
LINE
  5
443
100
AcDbEntity
  8
CURVE
100
AcDbLine
 62
250
  6
CONTINUOUS
 10
10.7335871639
 20
7.293728543
 11
10.7335871639
 21
7.4907084144
  0
LINE
  5
444
100
AcDbEntity
  8
RACCORDO
100
AcDbLine
 62
250
  6
CONTINUOUS
 10
10.9875421415
 20
18.8054005817
 11
10.9875421415
 21
17.4003651583
  0
LINE
  5
445
100
AcDbEntity
  8
ASSI
100
AcDbLine
 62
250
  6
CONTINUOUS
 10
10.9875421415
 20
18.8054005817
 11
10.9875421415
 21
17.4003651583
  0
LINE
  5
446
100
AcDbEntity
  8
RACCORDO
100
AcDbLine
 62
7
  6
CONTINUOUS
 10
11.0681355459
 20
18.950455775
 11
11.068136031
 21
17.3433766725
  0
LINE
  5
447
100
AcDbEntity
  8
ASSI
100
AcDbLine
 62
7
  6
CONTINUOUS
 10
11.0681355459
 20
18.950455775
 11
11.068136031
 21
17.3433766725
  0
LINE
  5
448
100
AcDbEntity
  8
CURVE
100
AcDbLine
 62
250
  6
CONTINUOUS
 10
11.1240937308
 20
8.2094330354
 11
11.1240937308
 21
8.4939591267
  0
LINE
  5
449
100
AcDbEntity
  8
CURVE
100
AcDbLine
 62
250
  6
CONTINUOUS
 10
11.3959348666
 20
1.0141682881
 11
11.3959348666
 21
1.3656293498
  0
LINE
  5
44A
100
AcDbEntity
  8
CURVE
100
AcDbLine
 62
250
  6
CONTINUOUS
 10
11.3959348666
 20
2.1865428461
 11
11.3959348666
 21
2.4877964978
  0
LINE
  5
44B
100
AcDbEntity
  8
0
100
AcDbLine
 62
250
  6
CONTINUOUS
 10
11.6033618213
 20
-0.2364750691
 11
11.6033618213
 21
-0.6294100647
  0
LINE
  5
44C
100
AcDbEntity
  8
0
100
AcDbLine
 62
250
  6
CONTINUOUS
 10
11.6033618213
 20
-2.9862888903
 11
11.6033618213
 21
-3.379223886
  0
LINE
  5
44D
100
AcDbEntity
  8
CURVE
100
AcDbLine
 62
250
  6
CONTINUOUS
 10
11.6447692075
 20
8.8686148566
 11
11.6447692075
 21
8.6716349852
  0
LINE
  5
44E
100
AcDbEntity
  8
CURVE
100
AcDbLine
 62
250
  6
CONTINUOUS
 10
11.6447692075
 20
4.7320402963
 11
11.6447692075
 21
4.4694005955
  0
LINE
  5
44F
100
AcDbEntity
  8
CURVE
100
AcDbLine
 62
250
  6
CONTINUOUS
 10
11.6447692075
 20
2.3655933598
 11
11.6447692075
 21
2.5513665747
  0
LINE
  5
450
100
AcDbEntity
  8
CURVE
100
AcDbLine
 62
250
  6
CONTINUOUS
 10
11.6447692075
 20
6.3735381655
 11
11.6447692075
 21
6.8331575733
  0
LINE
  5
451
100
AcDbEntity
  8
CURVE
100
AcDbLine
 62
250
  6
CONTINUOUS
 10
11.6447692075
 20
7.0957971096
 11
11.6447692075
 21
7.5554167366
  0
LINE
  5
452
100
AcDbEntity
  8
CURVE
100
AcDbLine
 62
250
  6
CONTINUOUS
 10
11.6447692075
 20
7.8180562729
 11
11.6447692075
 21
8.2776756807
  0
LINE
  5
453
100
AcDbEntity
  8
CURVE
100
AcDbLine
 62
250
  6
CONTINUOUS
 10
11.8481723913
 20
-13.613083424
 11
11.8481723913
 21
-13.379465243
  0
LINE
  5
454
100
AcDbEntity
  8
CURVE
100
AcDbLine
 62
250
  6
CONTINUOUS
 10
11.8936035484
 20
2.8458975253
 11
11.8936035484
 21
2.5446438736
  0
LINE
  5
455
100
AcDbEntity
  8
0
100
AcDbLine
 62
250
  6
CONTINUOUS
 10
11.9928380634
 20
-1.1347864207
 11
11.9928380634
 21
-1.5274774645
  0
LINE
  5
456
100
AcDbEntity
  8
0
100
AcDbLine
 62
250
  6
CONTINUOUS
 10
11.9928380634
 20
-1.9204124602
 11
11.9928380634
 21
-2.3133474558
  0
LINE
  5
457
100
AcDbEntity
  8
0
100
AcDbLine
 62
250
  6
CONTINUOUS
 10
11.9928380634
 20
-3.4916645391
 11
11.9928380634
 21
-2.7060384996
  0
LINE
  5
458
100
AcDbEntity
  8
0
100
AcDbLine
 62
250
  6
CONTINUOUS
 10
11.9928380634
 20
-0.741851425
 11
11.9928380634
 21
0.0437753216
  0
LINE
  5
459
100
AcDbEntity
  8
CURVE
100
AcDbLine
 62
250
  6
CONTINUOUS
 10
12.1353078623
 20
-13.0373569568
 11
12.1353078623
 21
-13.28966397
  0
LINE
  5
45A
100
AcDbEntity
  8
CURVE
100
AcDbLine
 62
250
  6
CONTINUOUS
 10
11.6447692075
 20
0.4827645772
 11
12.4858289994
 21
2.5189051848
  0
LINE
  5
45B
100
AcDbEntity
  8
CURVE
100
AcDbLine
 62
250
  6
CONTINUOUS
 10
8.5705945987
 20
-8.0687997613
 11
8.7508284176
 21
-7.6675819117
  0
LINE
  5
45C
100
AcDbEntity
  8
CURVE
100
AcDbLine
 62
250
  6
CONTINUOUS
 10
7.7895814274
 20
-10.8030152269
 11
7.9698152275
 21
-10.4696800627
  0
LWPOLYLINE
  5
45D
100
AcDbEntity
  8
0
100
AcDbPolyline
 62
250
  6
CONTINUOUS
 90
17
 70
0
 10
13.3971083911
 20
-3.3514538436
 10
13.3279036029
 20
-3.4080962272
 10
13.2613348036
 20
-3.4762722955
 10
13.199937578
 20
-3.5533852432
 10
13.145169562
 20
-3.6380174253
 10
13.1010325228
 20
-3.7239849714
 10
13.0681729215
 20
-3.8094540981
 10
13.04784237
 20
-3.8911693128
 10
13.040813082
 20
-3.9672743701
 10
13.0475986709
 20
-4.0322084561
 10
13.0676969763
 20
-4.0849039859
 10
13.1003424602
 20
-4.1233538032
 10
13.145169562
 20
-4.1463504253
 10
13.1989028728
 20
-4.1522135443
 10
13.2601857703
 20
-4.1412671505
 10
13.3266840079
 20
-4.1139281888
 10
13.3971084222
 20
-4.070345244
  0
LWPOLYLINE
  5
45E
100
AcDbEntity
  8
0
100
AcDbPolyline
 62
250
  6
CONTINUOUS
 90
17
 70
0
 10
13.3971083911
 20
-4.0703452664
 10
13.4663131793
 20
-4.0137028828
 10
13.5328819786
 20
-3.9455268145
 10
13.5942792042
 20
-3.8684138668
 10
13.6490472202
 20
-3.7837816847
 10
13.6931842594
 20
-3.6978141386
 10
13.7260438607
 20
-3.6123450119
 10
13.7463744122
 20
-3.5306297972
 10
13.7534037001
 20
-3.4545247399
 10
13.7466181113
 20
-3.3895906539
 10
13.7265198059
 20
-3.336895124
 10
13.693874322
 20
-3.2984453068
 10
13.6490472202
 20
-3.2754486847
 10
13.5953139093
 20
-3.2695855657
 10
13.5340310118
 20
-3.2805319594
 10
13.4675327743
 20
-3.3078709212
 10
13.3971083599
 20
-3.351453866
  0
LINE
  5
45F
100
AcDbEntity
  8
0
100
AcDbLine
 62
250
  6
CONTINUOUS
 10
15.5348823481
 20
-2.1726487454
 11
14.8222910072
 21
-2.6853988957
  0
LINE
  5
460
100
AcDbEntity
  8
0
100
AcDbLine
 62
250
  6
CONTINUOUS
 10
11.9719264107
 20
-4.736398945
 11
11.259335837
 21
-5.2491485433
  0
LINE
  5
461
100
AcDbEntity
  8
CURVE
100
AcDbLine
 62
250
  6
CONTINUOUS
 10
9.0512181032
 20
-8.7751379873
 11
7.7895814274
 21
-9.2756642882
  0
LWPOLYLINE
  5
462
100
AcDbEntity
  8
ASSI
100
AcDbPolyline
 62
7
  6
CONTINUOUS
 90
16
 70
0
 10
-2.3155009897
 20
10.2948403834
 10
-2.3292006986
 20
10.2918581854
 10
-2.3657891889
 20
10.2859530772
 10
-2.4026895885
 20
10.2820054322
 10
-2.4399071108
 20
10.2800479689
 10
-2.4774365423
 20
10.2800479689
 10
-2.5146540646
 20
10.2820054322
 10
-2.5515544642
 20
10.2859530772
 10
-2.5881429545
 20
10.2918581854
 10
-2.6238113575
 20
10.2996226015
 10
-2.6585442943
 20
10.3092774033
 10
-2.6923571437
 20
10.320791513
 10
-2.7246878648
 20
10.3339735417
 10
-2.7553491106
 20
10.3487596932
 10
-2.784528228
 20
10.3652137637
 10
-2.8122252171
 20
10.3833357533
  0
LINE
  5
463
100
AcDbEntity
  8
CURVE
100
AcDbLine
 62
250
  6
CONTINUOUS
 10
14.4183752821
 20
7.1745481228
 11
14.5485441648
 21
7.1434582332
  0
LINE
  5
464
100
AcDbEntity
  8
CURVE
100
AcDbLine
 62
250
  6
CONTINUOUS
 10
14.1580375708
 20
8.5882278117
 11
14.0278687152
 21
8.619317877
  0
LINE
  5
465
100
AcDbEntity
  8
CURVE
100
AcDbLine
 62
250
  6
CONTINUOUS
 10
14.8088818896
 20
8.7030783425
 11
14.9390507588
 21
8.6719883911
  0
LINE
  5
466
100
AcDbEntity
  8
CURVE
100
AcDbLine
 62
250
  6
CONTINUOUS
 10
10.9288404745
 20
8.1564833907
 11
10.7335871639
 21
8.2129673586
  0
LINE
  5
467
100
AcDbEntity
  8
CURVE
100
AcDbLine
 62
250
  6
CONTINUOUS
 10
10.7335871639
 20
8.8695666378
 11
10.9939248751
 21
8.7942549468
  0
LINE
  5
468
100
AcDbEntity
  8
CURVE
100
AcDbLine
 62
250
  6
CONTINUOUS
 10
11.5146003383
 20
8.9062706923
 11
11.6447692075
 21
8.8686148566
  0
LINE
  5
469
100
AcDbEntity
  8
CURVE
100
AcDbLine
 62
250
  6
CONTINUOUS
 10
12.616095904
 20
6.307777676
 11
12.4859270484
 21
6.3585655585
  0
LINE
  5
46A
100
AcDbEntity
  8
CURVE
100
AcDbLine
 62
250
  6
CONTINUOUS
 10
13.2669402228
 20
7.2816786071
 11
13.397109092
 21
7.2308907946
  0
LINE
  5
46B
100
AcDbEntity
  8
CURVE
100
AcDbLine
 62
250
  6
CONTINUOUS
 10
13.2669402228
 20
8.0761635662
 11
13.397109092
 21
8.0253757537
  0
LWPOLYLINE
  5
46C
100
AcDbEntity
  8
RACCORDO
100
AcDbPolyline
 62
7
  6
CONTINUOUS
 90
25
 70
0
 10
-1.4935561309
 20
14.0593982702
 10
-1.503168772
 20
14.0658706198
 10
-1.513226876
 20
14.0720443924
 10
-1.5237304429
 20
14.077919588
 10
-1.5347281265
 20
14.0835187436
 10
-1.546171273
 20
14.0888193223
 10
-1.5579139212
 20
14.0937537132
 10
-1.5699599074
 20
14.0983172257
 10
-1.5823053953
 20
14.1025145504
 10
-1.5947929137
 20
14.1062921492
 10
-1.6074242822
 20
14.1096446453
 10
-1.6201976812
 20
14.1125774154
 10
-1.6329501817
 20
14.1150530509
 10
-1.6456815159
 20
14.1170656961
 10
-1.6583919515
 20
14.1186212068
 10
-1.6709193626
 20
14.1196997418
 10
-1.6832614045
 20
14.1202951913
 10
-1.6954204218
 20
14.1204136652
 10
-1.707241322
 20
14.1200536523
 10
-1.7187197739
 20
14.1192090232
 10
-1.7298601087
 20
14.1178859074
 10
-1.7405202276
 20
14.1161011816
 10
-1.7506527642
 20
14.1138604714
 10
-1.7603050849
 20
14.1111581512
 10
-1.7694771896
 20
14.107994221
  0
LWPOLYLINE
  5
46D
100
AcDbEntity
  8
RACCORDO
100
AcDbPolyline
 62
7
  6
CONTINUOUS
 90
25
 70
0
 10
-5.5240647837
 20
16.9093982702
 10
-5.5336774248
 20
16.9158706198
 10
-5.5437355288
 20
16.9220443924
 10
-5.5542390957
 20
16.927919588
 10
-5.5652367793
 20
16.9335187436
 10
-5.5766799258
 20
16.9388193223
 10
-5.5884225739
 20
16.9437537132
 10
-5.6004685602
 20
16.9483172257
 10
-5.6128140481
 20
16.9525145504
 10
-5.6253015665
 20
16.9562921492
 10
-5.6379329349
 20
16.9596446453
 10
-5.650706334
 20
16.9625774154
 10
-5.6634588344
 20
16.9650530509
 10
-5.6761901686
 20
16.9670656961
 10
-5.6889006043
 20
16.9686212068
 10
-5.7014280153
 20
16.9696997418
 10
-5.7137700572
 20
16.9702951913
 10
-5.7259290746
 20
16.9704136652
 10
-5.7377499748
 20
16.9700536523
 10
-5.7492284267
 20
16.9692090232
 10
-5.7603687615
 20
16.9678859074
 10
-5.7710288804
 20
16.9661011816
 10
-5.781161417
 20
16.9638604714
 10
-5.7908137376
 20
16.9611581512
 10
-5.7999858423
 20
16.957994221
  0
LINE
  5
46E
100
AcDbEntity
  8
RACCORDO
100
AcDbLine
 62
7
  6
CONTINUOUS
 10
-5.5240647837
 20
16.9093982702
 11
-3.6050532261
 21
15.5524521847
  0
LINE
  5
46F
100
AcDbEntity
  8
RACCORDO
100
AcDbLine
 62
7
  6
CONTINUOUS
 10
-1.4935561309
 20
14.0593982702
 11
0.4254554267
 21
12.7024521847
  0
LINE
  5
470
100
AcDbEntity
  8
RACCORDO
100
AcDbLine
 62
7
  6
CONTINUOUS
 10
-5.4366615788
 20
17.2402010739
 11
-3.3860519134
 21
15.7902010739
  0
LINE
  5
471
100
AcDbEntity
  8
RACCORDO
100
AcDbLine
 62
7
  6
CONTINUOUS
 10
-1.406152926
 20
14.3902010739
 11
0.6444567394
 21
12.9402010739
  0
LINE
  5
472
100
AcDbEntity
  8
CURVE
100
AcDbLine
 62
250
  6
CONTINUOUS
 10
1.8465382674
 20
12.0902010739
 11
-6.6387431068
 21
18.0902010739
  0
LWPOLYLINE
  5
473
100
AcDbEntity
  8
RACCORDO
100
AcDbPolyline
 62
7
  6
CONTINUOUS
 90
16
 70
0
 10
-3.3860519134
 20
15.7902010739
 10
-3.3770356479
 20
15.7835007973
 10
-3.3687004599
 20
15.7766685484
 10
-3.3610463495
 20
15.7697043273
 10
-3.3540464504
 20
15.7625772701
 10
-3.3477276288
 20
15.7553182406
 10
-3.3421704836
 20
15.7480198304
 10
-3.3373847716
 20
15.7406815349
 10
-3.3333607359
 20
15.7333038585
 10
-3.3301497045
 20
15.7259809062
 10
-3.3277620919
 20
15.718713379
 10
-3.3261874835
 20
15.7115005757
 10
-3.3254459641
 20
15.7044344983
 10
-3.3255482054
 20
15.6975170263
 10
-3.3264835357
 20
15.6907462801
 10
-3.3271839729
 20
15.6877191011
  0
LWPOLYLINE
  5
474
100
AcDbEntity
  8
RACCORDO
100
AcDbPolyline
 62
7
  6
CONTINUOUS
 90
16
 70
0
 10
0.6444567394
 20
12.9402010739
 10
0.6534730049
 20
12.9335007973
 10
0.6618081929
 20
12.9266685484
 10
0.6694623033
 20
12.9197043273
 10
0.6764622024
 20
12.9125772701
 10
0.682781024
 20
12.9053182406
 10
0.6883381692
 20
12.8980198304
 10
0.6931238812
 20
12.8906815349
 10
0.6971479169
 20
12.8833038585
 10
0.7003589483
 20
12.8759809062
 10
0.7027465609
 20
12.868713379
 10
0.7043211693
 20
12.8615005757
 10
0.7050626886
 20
12.8544344983
 10
0.7049604473
 20
12.8475170263
 10
0.7040251171
 20
12.8407462801
 10
0.7033246799
 20
12.8377191011
  0
LINE
  5
475
100
AcDbEntity
  8
CURVE
100
AcDbLine
 62
250
  6
CONTINUOUS
 10
12.4858289994
 20
2.5189051848
 11
11.6447692075
 21
3.3446647228
  0
LWPOLYLINE
  5
476
100
AcDbEntity
  8
0
100
AcDbPolyline
 62
250
  6
CONTINUOUS
 90
57
 70
0
 10
13.3081855589
 20
-10.0818021547
 10
13.3093598018
 20
-10.1074530409
 10
13.3109959021
 20
-10.1328264363
 10
13.3130847609
 20
-10.1578905021
 10
13.3156172791
 20
-10.1826133993
 10
13.3185843578
 20
-10.2069632891
 10
13.3219768981
 20
-10.2309083325
 10
13.3257858007
 20
-10.2544166906
 10
13.3300019669
 20
-10.2774565246
 10
13.3346162975
 20
-10.2999959956
 10
13.3396196936
 20
-10.3220032645
 10
13.3430386275
 20
-10.3358395522
 10
13.3466446875
 20
-10.3494423094
 10
13.350468353
 20
-10.3628105394
 10
13.3545401034
 20
-10.3759432459
 10
13.358890418
 20
-10.3888394324
 10
13.3635497761
 20
-10.4014981025
 10
13.3685486572
 20
-10.4139182597
 10
13.3739175406
 20
-10.4260989075
 10
13.3796869056
 20
-10.4380390495
 10
13.3858872317
 20
-10.4497376892
 10
13.3925489982
 20
-10.4611938302
 10
13.3997026843
 20
-10.4724064759
 10
13.4073787696
 20
-10.48337463
 10
13.4114361149
 20
-10.4887828012
 10
13.415632426
 20
-10.4941117445
 10
13.4199674691
 20
-10.4993440395
 10
13.4244410105
 20
-10.5044622654
 10
13.4290528162
 20
-10.5094490017
 10
13.4338026525
 20
-10.5142868277
 10
13.4386902857
 20
-10.5189583229
 10
13.4437154819
 20
-10.5234460666
 10
13.4488780073
 20
-10.5277326382
 10
13.4541776281
 20
-10.531800617
 10
13.4596141105
 20
-10.5356325826
 10
13.4651872207
 20
-10.5392111141
 10
13.470896725
 20
-10.5425187911
 10
13.4767423895
 20
-10.5455381929
 10
13.4827239804
 20
-10.5482518989
 10
13.488841264
 20
-10.5506424884
 10
13.4950940063
 20
-10.5526925409
 10
13.5014819737
 20
-10.5543846357
 10
13.5080049324
 20
-10.5557013523
 10
13.5146626484
 20
-10.5566252699
 10
13.5214548881
 20
-10.5571389681
 10
13.5283814176
 20
-10.5572250261
 10
13.5354420032
 20
-10.5568660233
 10
13.542636411
 20
-10.5560445392
 10
13.5499644072
 20
-10.5547431531
 10
13.5574257581
 20
-10.5529444444
 10
13.5650202298
 20
-10.5506309924
 10
13.5727475886
 20
-10.5477853766
 10
13.5806076006
 20
-10.5443901764
 10
13.588600032
 20
-10.540427971
 10
13.5967246491
 20
-10.53588134
 10
13.6049812181
 20
-10.5307328627
 10
13.613369505
 20
-10.5249651184
  0
LINE
  5
477
100
AcDbEntity
  8
CURVE
100
AcDbLine
 62
250
  6
CONTINUOUS
 10
12.4859270484
 20
6.3585655585
 11
12.4859270484
 21
6.5752432965
  0
LINE
  5
478
100
AcDbEntity
  8
CURVE
100
AcDbLine
 62
250
  6
CONTINUOUS
 10
12.4859270484
 20
7.0085987726
 11
12.4859270484
 21
7.3697282556
  0
LINE
  5
479
100
AcDbEntity
  8
CURVE
100
AcDbLine
 62
250
  6
CONTINUOUS
 10
12.4859270484
 20
9.5124301843
 11
12.4859270484
 21
9.7291080429
  0
LINE
  5
47A
100
AcDbEntity
  8
0
100
AcDbLine
 62
250
  6
CONTINUOUS
 10
13.3367779833
 20
-10.503068662
 11
13.3367779833
 21
-10.4328006327
  0
LINE
  5
47B
100
AcDbEntity
  8
CURVE
100
AcDbLine
 62
250
  6
CONTINUOUS
 10
13.397109092
 20
10.384755541
 11
13.397109092
 21
10.1680776824
  0
LINE
  5
47C
100
AcDbEntity
  8
CURVE
100
AcDbLine
 62
250
  6
CONTINUOUS
 10
13.397109092
 20
8.0253757537
 11
13.397109092
 21
7.6642462707
  0
LINE
  5
47D
100
AcDbEntity
  8
CURVE
100
AcDbLine
 62
250
  6
CONTINUOUS
 10
13.397109092
 20
7.2308907946
 11
13.397109092
 21
7.0142130566
  0
LINE
  5
47E
100
AcDbEntity
  8
CURVE
100
AcDbLine
 62
250
  6
CONTINUOUS
 10
13.397109092
 20
8.7235595092
 11
13.397109092
 21
8.9402371267
  0
LINE
  5
47F
100
AcDbEntity
  8
CURVE
100
AcDbLine
 62
250
  6
CONTINUOUS
 10
13.397109092
 20
9.3735926028
 11
13.397109092
 21
9.7347222063
  0
LINE
  5
480
100
AcDbEntity
  8
0
100
AcDbLine
 62
250
  6
CONTINUOUS
 10
13.6133693953
 20
-10.6775313745
 11
13.6133693953
 21
-8.9536708029
  0
LINE
  5
481
100
AcDbEntity
  8
0
100
AcDbLine
 62
250
  6
CONTINUOUS
 10
13.8677363764
 20
-8.8130988796
 11
13.8677363764
 21
-8.5655690797
  0
LINE
  5
482
100
AcDbEntity
  8
CURVE
100
AcDbLine
 62
250
  6
CONTINUOUS
 10
14.0278687152
 20
6.4569179173
 11
14.0278687152
 21
6.7688025229
  0
LINE
  5
483
100
AcDbEntity
  8
CURVE
100
AcDbLine
 62
250
  6
CONTINUOUS
 10
14.0278687152
 20
7.7044563396
 11
14.0278687152
 21
8.0163408931
  0
LINE
  5
484
100
AcDbEntity
  8
CURVE
100
AcDbLine
 62
250
  6
CONTINUOUS
 10
14.0278687152
 20
8.619317877
 11
14.0278687152
 21
8.8064485466
  0
LINE
  5
485
100
AcDbEntity
  8
CURVE
100
AcDbLine
 62
250
  6
CONTINUOUS
 10
14.0278687152
 20
9.1807100941
 11
14.0278687152
 21
9.6797254214
  0
LINE
  5
486
100
AcDbEntity
  8
CURVE
100
AcDbLine
 62
250
  6
CONTINUOUS
 10
14.0278687152
 20
9.9292331891
 11
14.0278687152
 21
10.4282483082
  0
LINE
  5
487
100
AcDbEntity
  8
CURVE
100
AcDbLine
 62
250
  6
CONTINUOUS
 10
14.0278687152
 20
10.8025100639
 11
14.0278687152
 21
10.9896409417
  0
LINE
  5
488
100
AcDbEntity
  8
0
100
AcDbLine
 62
250
  6
CONTINUOUS
 10
14.1287998447
 20
-8.3777190107
 11
14.1287998447
 21
-8.6252488106
  0
LINE
  5
489
100
AcDbEntity
  8
0
100
AcDbLine
 62
250
  6
CONTINUOUS
 10
14.1935750752
 20
-9.4836066136
 11
14.1935750752
 21
-8.9014173164
  0
LINE
  5
48A
100
AcDbEntity
  8
0
100
AcDbLine
 62
250
  6
CONTINUOUS
 10
14.3447163454
 20
-8.7926625442
 11
14.3447163454
 21
-9.3748518414
  0
LINE
  5
48B
100
AcDbEntity
  8
CURVE
100
AcDbLine
 62
250
  6
CONTINUOUS
 10
14.5485441648
 20
7.1434582332
 11
14.5485441648
 21
6.8315736277
  0
LINE
  5
48C
100
AcDbEntity
  8
0
100
AcDbLine
 62
250
  6
CONTINUOUS
 10
13.2716116453
 20
-10.1081189404
 11
13.2720027527
 21
-9.7026632093
  0
LINE
  5
48D
100
AcDbEntity
  8
0
100
AcDbLine
 62
250
  6
CONTINUOUS
 10
13.4244463122
 20
-9.5929713655
 11
13.4240552049
 21
-9.9984270965
  0
LINE
  5
48E
100
AcDbEntity
  8
0
100
AcDbLine
 62
250
  6
CONTINUOUS
 10
13.319706127
 20
-9.6373538797
 11
13.3152796409
 21
-9.6715227079
  0
LINE
  5
48F
100
AcDbEntity
  8
0
100
AcDbLine
 62
250
  6
CONTINUOUS
 10
13.3227809689
 20
-9.6145313089
 11
13.319706127
 21
-9.6373538797
  0
LINE
  5
490
100
AcDbEntity
  8
CURVE
100
AcDbLine
 62
250
  6
CONTINUOUS
 10
9.0512181032
 20
-9.9970186023
 11
8.8709842843
 21
-10.3303537801
  0
LINE
  5
491
100
AcDbEntity
  8
CURVE
100
AcDbLine
 62
250
  6
CONTINUOUS
 10
8.5105166653
 20
-11.0988477899
 11
8.3302828276
 21
-11.4321829812
  0
LINE
  5
492
100
AcDbEntity
  8
CURVE
100
AcDbLine
 62
250
  6
CONTINUOUS
 10
7.9698152275
 20
-12.5061473012
 11
7.7895814274
 21
-12.8394824654
  0
LINE
  5
493
100
AcDbEntity
  8
CURVE
100
AcDbLine
 62
250
  6
CONTINUOUS
 10
7.7895814274
 20
-16.4033007276
 11
7.9698152275
 21
-16.0699654784
  0
LWPOLYLINE
  5
494
100
AcDbEntity
  8
0
100
AcDbPolyline
 62
250
  6
CONTINUOUS
 90
33
 70
0
 10
12.609566647
 20
-3.5484319355
 10
12.5932382002
 20
-3.578517004
 10
12.5773309667
 20
-3.6086680186
 10
12.5618523168
 20
-3.6388700605
 10
12.546809621
 20
-3.6691082106
 10
12.5322102497
 20
-3.6993675502
 10
12.5180615734
 20
-3.7296331602
 10
12.5043709625
 20
-3.7598901219
 10
12.4911457874
 20
-3.7901235162
 10
12.4783934185
 20
-3.8203184244
 10
12.4661212264
 20
-3.8504599275
 10
12.4543365813
 20
-3.8805331066
 10
12.4430468538
 20
-3.9105230428
 10
12.4322594142
 20
-3.9404148173
 10
12.421981633
 20
-3.970193511
 10
12.4122208807
 20
-3.9998442052
 10
12.4027305828
 20
-4.0301822222
 10
12.3937970754
 20
-4.0603507358
 10
12.3854227308
 20
-4.0903313425
 10
12.3776099212
 20
-4.1201056387
 10
12.3703610188
 20
-4.1496552206
 10
12.3636783961
 20
-4.1789616849
 10
12.3575644251
 20
-4.2080066278
 10
12.3520214783
 20
-4.2367716458
 10
12.3470519278
 20
-4.2652383353
 10
12.3426581459
 20
-4.2933882927
 10
12.3388425049
 20
-4.3212031144
 10
12.3356073771
 20
-4.3486643968
 10
12.3329551347
 20
-4.3757537364
 10
12.33088815
 20
-4.4024527294
 10
12.3294087953
 20
-4.4287429724
 10
12.3285194427
 20
-4.4546060617
 10
12.3282224647
 20
-4.4800235938
  0
LWPOLYLINE
  5
495
100
AcDbEntity
  8
0
100
AcDbPolyline
 62
250
  6
CONTINUOUS
 90
79
 70
0
 10
14.1509181828
 20
-3.9331243238
 10
14.1825584529
 20
-3.877020611
 10
14.2128234437
 20
-3.8204792584
 10
14.2416515218
 20
-3.7636348705
 10
14.2689810541
 20
-3.7066220519
 10
14.2947504074
 20
-3.6495754072
 10
14.3188979485
 20
-3.592629541
 10
14.3413620441
 20
-3.5359190579
 10
14.3620810612
 20
-3.4795785625
 10
14.3809933664
 20
-3.4237426594
 10
14.3968085372
 20
-3.3727314146
 10
14.4110217323
 20
-3.3223225288
 10
14.4236246065
 20
-3.2725731493
 10
14.4346088143
 20
-3.2235404232
 10
14.4439660106
 20
-3.1752814979
 10
14.4506351166
 20
-3.1349044093
 10
14.456113074
 20
-3.0951779732
 10
14.4603909028
 20
-3.0561521651
 10
14.4635050203
 20
-3.0172078216
 10
14.4653717615
 20
-2.9790714211
 10
14.4659957203
 20
-2.9417736949
 10
14.4651298685
 20
-2.898668608
 10
14.4625236918
 20
-2.8568665263
 10
14.4581788431
 20
-2.8164473093
 10
14.4520969753
 20
-2.7774908166
 10
14.4442797413
 20
-2.7400769077
 10
14.4350389237
 20
-2.7053188029
 10
14.4241780116
 20
-2.6721340546
 10
14.4117092646
 20
-2.6405684297
 10
14.3976449423
 20
-2.610667695
 10
14.3819973044
 20
-2.5824776175
 10
14.3632738897
 20
-2.553912239
 10
14.3427545041
 20
-2.5274501537
 10
14.3204878909
 20
-2.5031322834
 10
14.2965227934
 20
-2.48099955
 10
14.270907955
 20
-2.4610928756
 10
14.243692119
 20
-2.443453182
 10
14.2149240288
 20
-2.4281213912
 10
14.1846524276
 20
-2.4151384252
 10
14.1529260588
 20
-2.4045452059
 10
14.1197980568
 20
-2.3963750103
 10
14.0853391208
 20
-2.3906305359
 10
14.0496243408
 20
-2.3873068351
 10
14.012728807
 20
-2.3863989604
 10
13.9747276096
 20
-2.3879019643
 10
13.9356958388
 20
-2.3918108993
 10
13.8957085846
 20
-2.3981208179
 10
13.8548409373
 20
-2.4068267726
 10
13.813167987
 20
-2.4179238159
 10
13.774059975
 20
-2.4302779861
 10
13.7343859737
 20
-2.4446366698
 10
13.6942018814
 20
-2.4609722172
 10
13.6535635965
 20
-2.4792569781
 10
13.6125270174
 20
-2.4994633027
 10
13.5698798256
 20
-2.5222653771
 10
13.5269417073
 20
-2.5470275648
 10
13.4837853924
 20
-2.5736984654
 10
13.4404836108
 20
-2.6022266784
 10
13.3971090925
 20
-2.6325608033
 10
13.3537345688
 20
-2.6646490652
 10
13.3104327763
 20
-2.6984381918
 10
13.2672764533
 20
-2.7338745363
 10
13.2243383377
 20
-2.770904452
 10
13.1816911677
 20
-2.8094742922
 10
13.1406546305
 20
-2.8483206462
 10
13.1000163899
 20
-2.8885153929
 10
13.0598323209
 20
-2.9300075402
 10
13.0201582986
 20
-2.9727460963
 10
12.9810501981
 20
-3.0166800691
 10
12.9393770611
 20
-3.0655702359
 10
12.8985091664
 20
-3.115697379
 10
12.8585216501
 20
-3.1669547055
 10
12.8194896485
 20
-3.2192354227
 10
12.7814882977
 20
-3.2724327375
 10
12.7445927339
 20
-3.3264398572
 10
12.7088780933
 20
-3.3811499889
 10
12.674419512
 20
-3.4364563397
 10
12.6412921263
 20
-3.4922521167
 10
12.609566647
 20
-3.5484319355
  0
LINE
  5
496
100
AcDbEntity
  8
CURVE
100
AcDbLine
 62
250
  6
CONTINUOUS
 10
7.9698152275
 20
-10.4696800627
 11
8.1500490276
 21
-10.2381678865
  0
LINE
  5
497
100
AcDbEntity
  8
CURVE
100
AcDbLine
 62
250
  6
CONTINUOUS
 10
8.8709842843
 20
-10.3303537801
 11
8.6907504654
 21
-10.5618659698
  0
LINE
  5
498
100
AcDbEntity
  8
CURVE
100
AcDbLine
 62
250
  6
CONTINUOUS
 10
7.7895814274
 20
-10.0902515915
 11
9.0512181032
 21
-8.7751379873
  0
LWPOLYLINE
  5
499
100
AcDbEntity
  8
0
100
AcDbPolyline
 62
250
  6
CONTINUOUS
 90
58
 70
0
 10
13.8166775026
 20
-4.7833818956
 10
13.776336248
 20
-4.8242699866
 10
13.7356418782
 20
-4.8642059562
 10
13.6946415884
 20
-4.9031456116
 10
13.6533825736
 20
-4.9410447602
 10
13.6119120287
 20
-4.9778592095
 10
13.5765769529
 20
-5.0082279835
 10
13.5411409686
 20
-5.0377733712
 10
13.5056215788
 20
-5.0664854093
 10
13.4694968727
 20
-5.0947692489
 10
13.4333205965
 20
-5.1221723343
 10
13.3971090925
 20
-5.1486829484
 10
13.3489533887
 20
-5.1825169867
 10
13.3008274813
 20
-5.2147083928
 10
13.2527945345
 20
-5.2452120988
 10
13.2049177123
 20
-5.273983037
 10
13.1572601785
 20
-5.3009761399
 10
13.1098850973
 20
-5.3261463396
 10
13.06424281
 20
-5.3487877637
 10
13.0189673956
 20
-5.3696490608
 10
12.9741003162
 20
-5.3887088663
 10
12.9296830344
 20
-5.4059458158
 10
12.8857570122
 20
-5.4213385449
 10
12.8423637121
 20
-5.434865689
 10
12.7968299042
 20
-5.447189124
 10
12.752001076
 20
-5.4573756224
 10
12.7079323007
 20
-5.4654240441
 10
12.6646786516
 20
-5.4713332489
 10
12.6222952017
 20
-5.4751020967
 10
12.5808370244
 20
-5.4767294473
 10
12.5403591927
 20
-5.4762141606
 10
12.5009167798
 20
-5.4735550963
 10
12.4625648589
 20
-5.4687511144
 10
12.4253585032
 20
-5.4618010746
 10
12.3893527859
 20
-5.4527038367
 10
12.3545995055
 20
-5.4414619177
 10
12.3211373616
 20
-5.4280924624
 10
12.2890017793
 20
-5.4126162726
 10
12.2582281837
 20
-5.3950541503
 10
12.2288519997
 20
-5.3754268973
 10
12.2009086525
 20
-5.3537553155
 10
12.1744335669
 20
-5.3300602067
 10
12.1494621681
 20
-5.3043623728
 10
12.1260298811
 20
-5.2766826157
 10
12.1041721309
 20
-5.2470417373
 10
12.0839243426
 20
-5.2154605394
 10
12.0662174461
 20
-5.1837031075
 10
12.0500030201
 20
-5.1502718718
 10
12.0352900728
 20
-5.1152236443
 10
12.0220876122
 20
-5.078615237
 10
12.0104046462
 20
-5.0405034619
 10
12.0002501829
 20
-5.0009451311
 10
11.9916332305
 20
-4.9599970563
 10
11.9845627968
 20
-4.9177160498
 10
11.9790478899
 20
-4.8741589234
 10
11.9750975179
 20
-4.8293824891
 10
11.9727206888
 20
-4.783443559
 10
11.9719264107
 20
-4.736398945
  0
LWPOLYLINE
  5
49A
100
AcDbEntity
  8
CURVE
100
AcDbPolyline
 62
250
  6
CONTINUOUS
 90
47
 70
0
 10
5.5667612189
 20
-11.9067056767
 10
5.5607904168
 20
-11.9113873421
 10
5.5549829574
 20
-11.915682431
 10
5.5493316239
 20
-11.9196036924
 10
5.543829232
 20
-11.9231628873
 10
5.5384686772
 20
-11.9263707049
 10
5.5332429837
 20
-11.9292366829
 10
5.5281453567
 20
-11.9317691333
 10
5.5231692355
 20
-11.9339750745
 10
5.5183083481
 20
-11.9358601724
 10
5.5135567651
 20
-11.9374286905
 10
5.5089089528
 20
-11.9386834507
 10
5.5043598235
 20
-11.9396258054
 10
5.4999047822
 20
-11.9402556223
 10
5.4955397686
 20
-11.9405712805
 10
5.491261294
 20
-11.940569679
 10
5.4870664713
 20
-11.9402462565
 10
5.4829530389
 20
-11.9395950214
 10
5.4789193778
 20
-11.9386085907
 10
5.4749645219
 20
-11.9372782372
 10
5.4710881627
 20
-11.9355939427
 10
5.4672906468
 20
-11.933544456
 10
5.4635729704
 20
-11.9311173553
 10
5.4599367672
 20
-11.9282991116
 10
5.4563842944
 20
-11.9250751551
 10
5.4529184142
 20
-11.9214299406
 10
5.4495425745
 20
-11.917347014
 10
5.446260786
 20
-11.9128090775
 10
5.4430776002
 20
-11.907798054
 10
5.4399980845
 20
-11.9022951506
 10
5.4370277983
 20
-11.8962809207
 10
5.4341727686
 20
-11.889735325
 10
5.4314394649
 20
-11.8826377921
 10
5.428834775
 20
-11.8749672771
 10
5.4263659809
 20
-11.8667023206
 10
5.4240407347
 20
-11.8578211067
 10
5.4218670347
 20
-11.8483015209
 10
5.4198532021
 20
-11.8381212079
 10
5.4180078578
 20
-11.8272576298
 10
5.4163398987
 20
-11.8156881245
 10
5.4148584752
 20
-11.8033899645
 10
5.4135729676
 20
-11.7903404167
 10
5.4124929632
 20
-11.7765168027
 10
5.4116282327
 20
-11.7618965606
 10
5.4109887066
 20
-11.7464573067
 10
5.4105844516
 20
-11.7301768997
 10
5.4105373204
 20
-11.727145869
  0
LINE
  5
49B
100
AcDbEntity
  8
CURVE
100
AcDbLine
 62
250
  6
CONTINUOUS
 10
8.1500490276
 20
-10.2381678865
 11
8.6907504654
 21
-9.8491023343
  0
LINE
  5
49C
100
AcDbEntity
  8
CURVE
100
AcDbLine
 62
250
  6
CONTINUOUS
 10
8.6907504654
 20
-10.5618659698
 11
8.1500490276
 21
-10.9509315219
  0
LINE
  5
49D
100
AcDbEntity
  8
CURVE
100
AcDbLine
 62
250
  6
CONTINUOUS
 10
8.8709842843
 20
-10.8394707596
 11
8.5105166653
 21
-11.0988477899
  0
LINE
  5
49E
100
AcDbEntity
  8
CURVE
100
AcDbLine
 62
250
  6
CONTINUOUS
 10
8.3302828276
 20
-11.8394766328
 11
7.7895814274
 21
-12.2285421579
  0
LINE
  5
49F
100
AcDbEntity
  8
0
100
AcDbLine
 62
250
  6
CONTINUOUS
 10
17.2389578404
 20
-5.6628993598
 11
17.9531927917
 21
-5.148966538
  0
LINE
  5
4A0
100
AcDbEntity
  8
RACCORDO
100
AcDbLine
 62
250
  6
CONTINUOUS
 10
15.9968180769
 20
-5.2587810847
 11
17.8830910481
 21
-3.9181061728
  0
LINE
  5
4A1
100
AcDbEntity
  8
ASSI
100
AcDbLine
 62
250
  6
CONTINUOUS
 10
15.9968180769
 20
-5.2587810847
 11
17.8830910481
 21
-3.9181061728
  0
LINE
  5
4A2
100
AcDbEntity
  8
RACCORDO
100
AcDbLine
 62
250
  6
CONTINUOUS
 10
15.8534433015
 20
-5.87357126
 11
18.0952150052
 21
-4.2802244183
  0
LINE
  5
4A3
100
AcDbEntity
  8
ASSI
100
AcDbLine
 62
250
  6
CONTINUOUS
 10
15.8534433015
 20
-5.87357126
 11
18.0952150052
 21
-4.2802244183
  0
LINE
  5
4A4
100
AcDbEntity
  8
DRAFT
100
AcDbLine
 62
7
  6
CONTINUOUS
 10
4.3412741115
 20
13.0659706704
 11
4.2234872557
 21
13.0903355304
  0
LINE
  5
4A5
100
AcDbEntity
  8
CURVE
100
AcDbLine
 62
250
  6
CONTINUOUS
 10
14.8088818896
 20
9.493185892
 11
14.9390507588
 21
9.4620960447
  0
LINE
  5
4A6
100
AcDbEntity
  8
CURVE
100
AcDbLine
 62
250
  6
CONTINUOUS
 10
14.1580375708
 20
10.7714202068
 11
14.0278687152
 21
10.8025100639
  0
LINE
  5
4A7
100
AcDbEntity
  8
CURVE
100
AcDbLine
 62
250
  6
CONTINUOUS
 10
13.397109092
 20
8.9402371267
 11
13.2669402228
 21
8.9910251803
  0
LINE
  5
4A8
100
AcDbEntity
  8
CURVE
100
AcDbLine
 62
250
  6
CONTINUOUS
 10
12.616095904
 20
9.461642362
 11
12.4859270484
 21
9.5124301843
  0
LINE
  5
4A9
100
AcDbEntity
  8
CURVE
100
AcDbLine
 62
250
  6
CONTINUOUS
 10
13.2669402228
 20
10.4355433535
 11
13.397109092
 21
10.384755541
  0
LINE
  5
4AA
100
AcDbEntity
  8
DRAFT
100
AcDbLine
 62
7
  6
CONTINUOUS
 10
-3.0040584102
 20
18.2160385798
 11
-4.5446368311
 21
19.2903355304
  0
LINE
  5
4AB
100
AcDbEntity
  8
RACCORDO
100
AcDbLine
 62
250
  6
CONTINUOUS
 10
-4.4539499134
 20
18.9252008157
 11
-4.5446368311
 21
18.9893261501
  0
LINE
  5
4AC
100
AcDbEntity
  8
RACCORDO
100
AcDbLine
 62
7
  6
CONTINUOUS
 10
-4.4032154748
 20
18.9445908629
 11
-2.9536465734
 21
17.9195908629
  0
LINE
  5
4AD
100
AcDbEntity
  8
RACCORDO
100
AcDbLine
 62
7
  6
CONTINUOUS
 10
4.0523301984
 20
12.9656171787
 11
2.632496998
 21
13.9695908629
  0
LINE
  5
4AE
100
AcDbEntity
  8
DRAFT
100
AcDbLine
 62
7
  6
CONTINUOUS
 10
-4.7814673122
 20
20.6000721785
 11
-4.7342382562
 21
20.5666761928
  0
LINE
  5
4AF
100
AcDbEntity
  8
ASSI
100
AcDbLine
 62
7
  6
CONTINUOUS
 10
-4.7814673122
 20
20.6000721785
 11
-4.7342382562
 21
20.5666761928
  0
LINE
  5
4B0
100
AcDbEntity
  8
DRAFT
100
AcDbLine
 62
7
  6
CONTINUOUS
 10
7.8844852513
 20
11.6438912307
 11
8.5615370677
 21
11.1651433002
  0
LINE
  5
4B1
100
AcDbEntity
  8
ASSI
100
AcDbLine
 62
7
  6
CONTINUOUS
 10
7.8844852513
 20
11.6438912307
 11
8.5615370677
 21
11.1651433002
  0
LINE
  5
4B2
100
AcDbEntity
  8
0
100
AcDbLine
 62
250
  6
CONTINUOUS
 10
3.9605250589
 20
14.6311954521
 11
-1.3427758
 21
18.3811954521
  0
LINE
  5
4B3
100
AcDbEntity
  8
0
100
AcDbLine
 62
7
  6
CONTINUOUS
 10
-1.0198177687
 20
18.3717360667
 11
4.172286206
 21
14.7003641375
  0
LINE
  5
4B4
100
AcDbEntity
  8
ASSI
100
AcDbLine
 62
250
  6
CONTINUOUS
 10
5.6866942873
 20
13.9800683681
 11
4.6686547002
 21
14.6999310636
  0
LINE
  5
4B5
100
AcDbEntity
  8
ASSI
100
AcDbLine
 62
250
  6
CONTINUOUS
 10
-1.3538469633
 20
18.9584828296
 11
-2.8336809385
 21
20.0048834685
  0
LINE
  5
4B6
100
AcDbEntity
  8
DRAFT
100
AcDbLine
 62
7
  6
CONTINUOUS
 10
4.2234872557
 20
13.0903355304
 11
2.6829088348
 21
14.1947454764
  0
LWPOLYLINE
  5
4B7
100
AcDbEntity
  8
RACCORDO
100
AcDbPolyline
 62
7
  6
CONTINUOUS
 90
16
 70
0
 10
2.632496998
 20
13.9695908629
 10
2.6234807325
 20
13.9762911395
 10
2.6151455445
 20
13.9831233884
 10
2.6074914341
 20
13.9900876095
 10
2.600491535
 20
13.9972146667
 10
2.5941727134
 20
14.0044736961
 10
2.5886155682
 20
14.0117721064
 10
2.5838298562
 20
14.0191104019
 10
2.5798058205
 20
14.0264880782
 10
2.5765947891
 20
14.0338110305
 10
2.5742071765
 20
14.0410785578
 10
2.5726325681
 20
14.048291361
 10
2.5718910488
 20
14.0553574384
 10
2.5719932901
 20
14.0622749104
 10
2.5729286203
 20
14.0690456566
 10
2.5736290575
 20
14.0720728357
  0
LINE
  5
4B8
100
AcDbEntity
  8
DRAFT
100
AcDbLine
 62
7
  6
CONTINUOUS
 10
8.5615370677
 20
11.1651433002
 11
9.5419613461
 21
9.4914543659
  0
LINE
  5
4B9
100
AcDbEntity
  8
ASSI
100
AcDbLine
 62
7
  6
CONTINUOUS
 10
8.5615370677
 20
11.1651433002
 11
9.5419613461
 21
9.4914543659
  0
LINE
  5
4BA
100
AcDbEntity
  8
RACCORDO
100
AcDbLine
 62
7
  6
CONTINUOUS
 10
7.7380386419
 20
12.6966225774
 11
7.4651289221
 21
13.1625086106
  0
LWPOLYLINE
  5
4BB
100
AcDbEntity
  8
RACCORDO
100
AcDbPolyline
 62
250
  6
CONTINUOUS
 90
16
 70
0
 10
15.8534433015
 20
13.3516442835
 10
15.8518095075
 20
13.3901848796
 10
15.8462867299
 20
13.4310180404
 10
15.8369354715
 20
13.4736964324
 10
15.8238581767
 20
13.5177525077
 10
15.8071981092
 20
13.5627036255
 10
15.7871377826
 20
13.6080573394
 10
15.7638969606
 20
13.653316793
 10
15.7377302499
 20
13.6979861622
 10
15.7089243108
 20
13.7415760875
 10
15.6777947165
 20
13.7836090347
 10
15.6446824963
 20
13.8236245268
 10
15.6099503995
 20
13.861184188
 10
15.5739789214
 20
13.8958765468
 10
15.5371621348
 20
13.9273215432
 10
15.4999033732
 20
13.9551746927
  0
LWPOLYLINE
  5
4BC
100
AcDbEntity
  8
ASSI
100
AcDbPolyline
 62
250
  6
CONTINUOUS
 90
16
 70
0
 10
15.8534433015
 20
13.3516442835
 10
15.8518095075
 20
13.3901848796
 10
15.8462867299
 20
13.4310180404
 10
15.8369354715
 20
13.4736964324
 10
15.8238581767
 20
13.5177525077
 10
15.8071981092
 20
13.5627036255
 10
15.7871377826
 20
13.6080573394
 10
15.7638969606
 20
13.653316793
 10
15.7377302499
 20
13.6979861622
 10
15.7089243108
 20
13.7415760875
 10
15.6777947165
 20
13.7836090347
 10
15.6446824963
 20
13.8236245268
 10
15.6099503995
 20
13.861184188
 10
15.5739789214
 20
13.8958765468
 10
15.5371621348
 20
13.9273215432
 10
15.4999033732
 20
13.9551746927
  0
LINE
  5
4BD
100
AcDbEntity
  8
CURVE
100
AcDbLine
 62
250
  6
CONTINUOUS
 10
14.9390507588
 20
11.6452884398
 11
14.9390507588
 21
11.458157562
  0
LINE
  5
4BE
100
AcDbEntity
  8
CURVE
100
AcDbLine
 62
250
  6
CONTINUOUS
 10
14.9390507588
 20
9.4620960447
 11
14.9390507588
 21
9.274965375
  0
LINE
  5
4BF
100
AcDbEntity
  8
CURVE
100
AcDbLine
 62
250
  6
CONTINUOUS
 10
14.9390507588
 20
8.6719883911
 11
14.9390507588
 21
8.3601038376
  0
LINE
  5
4C0
100
AcDbEntity
  8
0
100
AcDbLine
 62
250
  6
CONTINUOUS
 10
15.5348823481
 20
-4.3293244275
 11
15.5348823481
 21
-3.6104330494
  0
LINE
  5
4C1
100
AcDbEntity
  8
RACCORDO
100
AcDbLine
 62
250
  6
CONTINUOUS
 10
15.8534433015
 20
-12.6598405868
 11
15.8534433015
 21
-10.1223450793
  0
LINE
  5
4C2
100
AcDbEntity
  8
ASSI
100
AcDbLine
 62
250
  6
CONTINUOUS
 10
15.8534433015
 20
-12.6598405868
 11
15.8534433015
 21
-10.1223450793
  0
LINE
  5
4C3
100
AcDbEntity
  8
RACCORDO
100
AcDbLine
 62
250
  6
CONTINUOUS
 10
15.8534433015
 20
-5.87357126
 11
15.8534433015
 21
13.3516442835
  0
LINE
  5
4C4
100
AcDbEntity
  8
ASSI
100
AcDbLine
 62
250
  6
CONTINUOUS
 10
15.8534433015
 20
-5.87357126
 11
15.8534433015
 21
13.3516442835
  0
LINE
  5
4C5
100
AcDbEntity
  8
0
100
AcDbLine
 62
250
  6
CONTINUOUS
 10
15.9699812429
 20
-8.603408543
 11
15.9699812429
 21
-7.6517368607
  0
LINE
  5
4C6
100
AcDbEntity
  8
RACCORDO
100
AcDbLine
 62
7
  6
CONTINUOUS
 10
15.9968180769
 20
-12.4120317399
 11
15.9968180769
 21
-10.0845213891
  0
LINE
  5
4C7
100
AcDbEntity
  8
ASSI
100
AcDbLine
 62
7
  6
CONTINUOUS
 10
15.9968180769
 20
-12.4120317399
 11
15.9968180769
 21
-10.0845213891
  0
LINE
  5
4C8
100
AcDbEntity
  8
RACCORDO
100
AcDbLine
 62
7
  6
CONTINUOUS
 10
15.9968180769
 20
-5.4469918932
 11
15.9968180769
 21
13.5994531304
  0
LINE
  5
4C9
100
AcDbEntity
  8
ASSI
100
AcDbLine
 62
7
  6
CONTINUOUS
 10
15.9968180769
 20
-5.4469918932
 11
15.9968180769
 21
13.5994531304
  0
LINE
  5
4CA
100
AcDbEntity
  8
0
100
AcDbLine
 62
250
  6
CONTINUOUS
 10
16.107673466
 20
-8.3810619098
 11
16.107673466
 21
-8.4642318094
  0
LWPOLYLINE
  5
4CB
100
AcDbEntity
  8
0
100
AcDbPolyline
 62
250
  6
CONTINUOUS
 90
32
 70
0
 10
14.8222910072
 20
-2.6853988957
 10
14.8219381406
 20
-2.7175773216
 10
14.8208804423
 20
-2.7502799228
 10
14.8191192645
 20
-2.7834873033
 10
14.8166559593
 20
-2.8171800668
 10
14.8134918791
 20
-2.8513388169
 10
14.809628376
 20
-2.8859441575
 10
14.8050668022
 20
-2.9209766923
 10
14.79980851
 20
-2.956417025
 10
14.7938548515
 20
-2.9922457594
 10
14.7872071789
 20
-3.0284434992
 10
14.7798668445
 20
-3.0649908482
 10
14.7718352005
 20
-3.1018684101
 10
14.7631135991
 20
-3.1390567886
 10
14.7537033924
 20
-3.1765365876
 10
14.7436059328
 20
-3.2142884108
 10
14.7328225723
 20
-3.2522928618
 10
14.7210091949
 20
-3.2916564487
 10
14.7084821408
 20
-3.3312428035
 10
14.6952530853
 20
-3.3710275602
 10
14.6813337038
 20
-3.4109863529
 10
14.6667356717
 20
-3.4510948156
 10
14.6514706644
 20
-3.4913285824
 10
14.6355503571
 20
-3.5316632875
 10
14.6189864254
 20
-3.5720745649
 10
14.6017905445
 20
-3.6125380486
 10
14.5839743898
 20
-3.6530293728
 10
14.5655496366
 20
-3.6935241714
 10
14.5465279604
 20
-3.7339980787
 10
14.5269210365
 20
-3.7744267287
 10
14.5067405402
 20
-3.8147857554
 10
14.485998147
 20
-3.8550507929
  0
LWPOLYLINE
  5
4CC
100
AcDbEntity
  8
0
100
AcDbPolyline
 62
250
  6
CONTINUOUS
 90
8
 70
0
 10
13.3372434433
 20
-9.5218392933
 10
13.3351753479
 20
-9.5336123504
 10
13.3331951465
 20
-9.5453199339
 10
13.3312960758
 20
-9.5569681299
 10
13.3294713725
 20
-9.5685630244
 10
13.3277142734
 20
-9.5801107036
 10
13.3260180153
 20
-9.5916172533
 10
13.3227809689
 20
-9.6145313089
  0
LWPOLYLINE
  5
4CD
100
AcDbEntity
  8
0
100
AcDbPolyline
 62
250
  6
CONTINUOUS
 90
30
 70
0
 10
15.1417989522
 20
-3.7020861574
 10
15.1680454185
 20
-3.6450108872
 10
15.1934864352
 20
-3.5879200934
 10
15.218108875
 20
-3.5308443212
 10
15.2418996108
 20
-3.4738141158
 10
15.2648455151
 20
-3.4168600222
 10
15.2869334607
 20
-3.3600125858
 10
15.3081503202
 20
-3.3033023516
 10
15.3284829665
 20
-3.2467598648
 10
15.3479182721
 20
-3.1904156707
 10
15.3664431099
 20
-3.1343003143
 10
15.3840443524
 20
-3.0784443409
 10
15.4007088724
 20
-3.0228782955
 10
15.4164235426
 20
-2.9676327235
 10
15.4311752357
 20
-2.91273817
 10
15.4445108823
 20
-2.8600287424
 10
15.4569332419
 20
-2.8076993534
 10
15.468441364
 20
-2.755773405
 10
15.4790342983
 20
-2.7042742993
 10
15.4887110943
 20
-2.6532254384
 10
15.4974708015
 20
-2.6026502243
 10
15.5053124695
 20
-2.552572059
 10
15.5122351478
 20
-2.5030143448
 10
15.518237886
 20
-2.4540004835
 10
15.5233197337
 20
-2.4055538774
 10
15.5274797404
 20
-2.3576979284
 10
15.5307169556
 20
-2.3104560386
 10
15.5330304289
 20
-2.2638516102
 10
15.5344192099
 20
-2.2179080451
 10
15.5348823481
 20
-2.1726487454
  0
LINE
  5
4CE
100
AcDbEntity
  8
CURVE
100
AcDbLine
 62
250
  6
CONTINUOUS
 10
10.6012567315
 20
-15.0209511228
 11
11.0840204445
 21
-14.0461252832
  0
LWPOLYLINE
  5
4CF
100
AcDbEntity
  8
CURVE
100
AcDbPolyline
 62
250
  6
CONTINUOUS
 90
49
 70
0
 10
11.6842955809
 20
-14.1281515386
 10
11.6678683075
 20
-14.1588730247
 10
11.6508212838
 20
-14.1895275145
 10
11.6331772572
 20
-14.2200789726
 10
11.6149589748
 20
-14.2504913637
 10
11.596189184
 20
-14.2807286525
 10
11.5768906319
 20
-14.3107548035
 10
11.5570860658
 20
-14.3405337815
 10
11.5367982329
 20
-14.3700295511
 10
11.5160498806
 20
-14.3992060769
 10
11.4948637559
 20
-14.4280273237
 10
11.4732626063
 20
-14.456457256
 10
11.4512691788
 20
-14.4844598386
 10
11.4289064107
 20
-14.5120011232
 10
11.4061979982
 20
-14.5390555103
 10
11.3831678276
 20
-14.5655994876
 10
11.3598397852
 20
-14.5916095426
 10
11.3362377571
 20
-14.6170621632
 10
11.3123856296
 20
-14.6419338368
 10
11.2883072888
 20
-14.6662010511
 10
11.2640266211
 20
-14.6898402938
 10
11.2395675126
 20
-14.7128280525
 10
11.2149538495
 20
-14.7351408148
 10
11.1902095182
 20
-14.7567550684
 10
11.1653584047
 20
-14.7776473009
 10
11.140424525
 20
-14.797795167
 10
11.1154324143
 20
-14.8171809892
 10
11.0904067371
 20
-14.8357882569
 10
11.0653721584
 20
-14.8536004598
 10
11.0403533428
 20
-14.8706010873
 10
11.0153749551
 20
-14.8867736289
 10
10.99046166
 20
-14.9021015742
 10
10.9656381224
 20
-14.9165684126
 10
10.940929007
 20
-14.9301576338
 10
10.9163589785
 20
-14.9428527272
 10
10.8919527018
 20
-14.9546371822
 10
10.8677348414
 20
-14.9654944886
 10
10.8437303296
 20
-14.975410159
 10
10.819965167
 20
-14.9843777999
 10
10.7964656218
 20
-14.992393041
 10
10.7732579621
 20
-14.999451512
 10
10.750368456
 20
-15.0055488427
 10
10.7278233715
 20
-15.0106806627
 10
10.7056489767
 20
-15.0148426017
 10
10.6838715397
 20
-15.0180302895
 10
10.6625173286
 20
-15.0202393558
 10
10.6416126115
 20
-15.0214654303
 10
10.6211836565
 20
-15.0217041428
 10
10.6012567315
 20
-15.0209511228
  0
LINE
  5
4D0
100
AcDbEntity
  8
CURVE
100
AcDbLine
 62
250
  6
CONTINUOUS
 10
9.0512181032
 20
-15.5973045278
 11
8.8709842843
 21
-15.9306397905
  0
LWPOLYLINE
  5
4D1
100
AcDbEntity
  8
0
100
AcDbPolyline
 62
250
  6
CONTINUOUS
 90
35
 70
0
 10
13.5060022988
 20
-9.0481746768
 10
13.4979257665
 20
-9.062283921
 10
13.4900650767
 20
-9.0764424029
 10
13.482417554
 20
-9.0906452209
 10
13.4749805227
 20
-9.1048874735
 10
13.4677513073
 20
-9.1191642591
 10
13.4607272324
 20
-9.1334706761
 10
13.4539056222
 20
-9.1478018229
 10
13.4472838013
 20
-9.162152798
 10
13.4408590942
 20
-9.1765186998
 10
13.4346288252
 20
-9.1908946267
 10
13.4285903188
 20
-9.2052756771
 10
13.4227408995
 20
-9.2196569495
 10
13.4170778917
 20
-9.2340335422
 10
13.4115986199
 20
-9.2484005538
 10
13.4063004085
 20
-9.2627530826
 10
13.401180582
 20
-9.277086227
 10
13.3962364647
 20
-9.2913950855
 10
13.3914653813
 20
-9.3056747565
 10
13.386864656
 20
-9.3199203384
 10
13.3824316135
 20
-9.3341269296
 10
13.378163578
 20
-9.3482896286
 10
13.3740578741
 20
-9.3624035338
 10
13.3701118262
 20
-9.3764637436
 10
13.3663227588
 20
-9.3904653564
 10
13.3626879963
 20
-9.4044034707
 10
13.3592048632
 20
-9.4182731849
 10
13.3558706839
 20
-9.4320695973
 10
13.3526827828
 20
-9.4457878065
 10
13.3496384844
 20
-9.4594229108
 10
13.3467351132
 20
-9.4729700087
 10
13.3439699936
 20
-9.4864241986
 10
13.3413404501
 20
-9.4997805789
 10
13.3392484303
 20
-9.5108432235
 10
13.3372434433
 20
-9.5218392933
  0
LWPOLYLINE
  5
4D2
100
AcDbEntity
  8
CURVE
100
AcDbPolyline
 62
250
  6
CONTINUOUS
 90
34
 70
0
 10
12.2788759483
 20
-12.5958628556
 10
12.2707736248
 20
-12.609680676
 10
12.2628620685
 20
-12.6235673845
 10
12.2551464547
 20
-12.6375128817
 10
12.2476319589
 20
-12.6515070681
 10
12.2403237564
 20
-12.6655398444
 10
12.2332270226
 20
-12.6796011111
 10
12.226346933
 20
-12.6936807689
 10
12.2196886628
 20
-12.7077687183
 10
12.2132573876
 20
-12.7218548599
 10
12.2070582828
 20
-12.7359290944
 10
12.2010965236
 20
-12.7499813224
 10
12.1953768318
 20
-12.7640018704
 10
12.1899021142
 20
-12.7779827691
 10
12.1846748236
 20
-12.791916475
 10
12.1796974132
 20
-12.805795445
 10
12.1749723359
 20
-12.8196121355
 10
12.1705020446
 20
-12.8333590032
 10
12.1662889925
 20
-12.8470285049
 10
12.1623356325
 20
-12.8606130969
 10
12.1586444175
 20
-12.8741052362
 10
12.1552178007
 20
-12.8874973792
 10
12.152058235
 20
-12.9007819825
 10
12.1491679316
 20
-12.9139512769
 10
12.1465481353
 20
-12.9269965883
 10
12.144199849
 20
-12.9399090167
 10
12.1421240756
 20
-12.9526796624
 10
12.1403218179
 20
-12.9652996252
 10
12.1387940791
 20
-12.9777600052
 10
12.1375418619
 20
-12.9900519024
 10
12.1365661694
 20
-13.0021664169
 10
12.1358680044
 20
-13.0140946486
 10
12.13544837
 20
-13.0258276977
 10
12.1353082689
 20
-13.0373566642
  0
LWPOLYLINE
  5
4D3
100
AcDbEntity
  8
RACCORDO
100
AcDbPolyline
 62
7
  6
CONTINUOUS
 90
11
 70
0
 10
15.8534433015
 20
-5.87357126
 10
15.8831396297
 20
-5.8265209267
 10
15.9089491671
 20
-5.7792957474
 10
15.9310712059
 20
-5.73229937
 10
15.9498031137
 20
-5.6860066527
 10
15.9653205269
 20
-5.640673896
 10
15.9775781539
 20
-5.596320866
 10
15.9867413733
 20
-5.5531625442
 10
15.9929969282
 20
-5.5115505365
 10
15.9962325971
 20
-5.4716875286
 10
15.9967630402
 20
-5.4469835094
  0
LWPOLYLINE
  5
4D4
100
AcDbEntity
  8
ASSI
100
AcDbPolyline
 62
7
  6
CONTINUOUS
 90
11
 70
0
 10
15.8534433015
 20
-5.87357126
 10
15.8831396297
 20
-5.8265209267
 10
15.9089491671
 20
-5.7792957474
 10
15.9310712059
 20
-5.73229937
 10
15.9498031137
 20
-5.6860066527
 10
15.9653205269
 20
-5.640673896
 10
15.9775781539
 20
-5.596320866
 10
15.9867413733
 20
-5.5531625442
 10
15.9929969282
 20
-5.5115505365
 10
15.9962325971
 20
-5.4716875286
 10
15.9967630402
 20
-5.4469835094
  0
LWPOLYLINE
  5
4D5
100
AcDbEntity
  8
CURVE
100
AcDbPolyline
 62
250
  6
CONTINUOUS
 90
49
 70
0
 10
10.601256771
 20
-13.7660515696
 10
10.6211836943
 20
-13.7366214319
 10
10.6416126477
 20
-13.7074605479
 10
10.6625173631
 20
-13.67860235
 10
10.6838715724
 20
-13.6500802708
 10
10.7056490076
 20
-13.6219277426
 10
10.7278234006
 20
-13.594178198
 10
10.7503684832
 20
-13.5668650695
 10
10.7732579875
 20
-13.5400217896
 10
10.7964656453
 20
-13.5136817907
 10
10.8199651886
 20
-13.4878785053
 10
10.8437303492
 20
-13.4626453659
 10
10.8677348591
 20
-13.438015805
 10
10.8919527174
 20
-13.4140208472
 10
10.9163589922
 20
-13.3906818853
 10
10.9409290187
 20
-13.3680179042
 10
10.9656381321
 20
-13.3460478889
 10
10.9904616677
 20
-13.3247908242
 10
11.0153749607
 20
-13.3042656951
 10
11.0403533463
 20
-13.2844914865
 10
11.0653721599
 20
-13.2654871834
 10
11.0904067366
 20
-13.2472717705
 10
11.1154324117
 20
-13.229864233
 10
11.1404245204
 20
-13.2132835556
 10
11.165358398
 20
-13.1975487233
 10
11.1902095095
 20
-13.1826773673
 10
11.2149538388
 20
-13.168681704
 10
11.2395674999
 20
-13.1555725959
 10
11.2640266064
 20
-13.1433609058
 10
11.2883072721
 20
-13.1320574963
 10
11.3123856109
 20
-13.12167323
 10
11.3362377365
 20
-13.1122189695
 10
11.3598397627
 20
-13.1037055775
 10
11.3831678032
 20
-13.0961439166
 10
11.4061979719
 20
-13.0895448495
 10
11.4289063825
 20
-13.0839192388
 10
11.4512691488
 20
-13.0792779471
 10
11.4732625745
 20
-13.0756294767
 10
11.4948637224
 20
-13.0729728885
 10
11.5160498453
 20
-13.0713048831
 10
11.5367981959
 20
-13.070622161
 10
11.5570860271
 20
-13.0709214227
 10
11.5768905916
 20
-13.0721993687
 10
11.5961891421
 20
-13.0744526997
 10
11.6149589314
 20
-13.0776781161
 10
11.6331772123
 20
-13.0818723184
 10
11.6508212375
 20
-13.0870320073
 10
11.6678682598
 20
-13.0931538832
 10
11.6842955318
 20
-13.1002346467
  0
LINE
  5
4D6
100
AcDbEntity
  8
CURVE
100
AcDbLine
 62
250
  6
CONTINUOUS
 10
7.9698152275
 20
-16.0699654784
 11
8.1500490276
 21
-15.8384536421
  0
LINE
  5
4D7
100
AcDbEntity
  8
CURVE
100
AcDbLine
 62
250
  6
CONTINUOUS
 10
8.8709842843
 20
-15.9306397905
 11
8.6907504654
 21
-16.1621516404
  0
LINE
  5
4D8
100
AcDbEntity
  8
CURVE
100
AcDbLine
 62
250
  6
CONTINUOUS
 10
7.7895814274
 20
-15.2832435255
 11
9.0512181032
 21
-13.9681304311
  0
LWPOLYLINE
  5
4D9
100
AcDbEntity
  8
0
100
AcDbPolyline
 62
250
  6
CONTINUOUS
 90
17
 70
0
 10
13.5401404981
 20
-8.7556506875
 10
13.5139222583
 20
-8.7771096593
 10
13.488702663
 20
-8.8029381686
 10
13.4654423189
 20
-8.8321524153
 10
13.4446934514
 20
-8.8642153247
 10
13.4279721304
 20
-8.8967841368
 10
13.4155232677
 20
-8.9291641226
 10
13.4078210365
 20
-8.9601219386
 10
13.4051579902
 20
-8.988954346
 10
13.4077287111
 20
-9.01355463
 10
13.4153429558
 20
-9.0335183359
 10
13.4277107002
 20
-9.0480850524
 10
13.4446934514
 20
-9.0567973247
 10
13.4650503208
 20
-9.0590185678
 10
13.4882673517
 20
-9.0548715256
 10
13.5134602146
 20
-9.0445141576
 10
13.5401405099
 20
-9.0280027553
  0
LWPOLYLINE
  5
4DA
100
AcDbEntity
  8
0
100
AcDbPolyline
 62
250
  6
CONTINUOUS
 90
17
 70
0
 10
13.5401404981
 20
-9.0280027638
 10
13.566358738
 20
-9.006543792
 10
13.5915783332
 20
-8.9807152827
 10
13.6148386773
 20
-8.951501036
 10
13.6355875448
 20
-8.9194381267
 10
13.6523088659
 20
-8.8868693146
 10
13.6647577286
 20
-8.8544893287
 10
13.6724599597
 20
-8.8235315127
 10
13.6751230061
 20
-8.7946991053
 10
13.6725522852
 20
-8.7700988213
 10
13.6649380405
 20
-8.7501351154
 10
13.6525702961
 20
-8.7355683989
 10
13.6355875448
 20
-8.7268561267
 10
13.6152306755
 20
-8.7246348835
 10
13.5920136446
 20
-8.7287819257
 10
13.5668207817
 20
-8.7391392937
 10
13.5401404863
 20
-8.755650696
  0
LWPOLYLINE
  5
4DB
100
AcDbEntity
  8
0
100
AcDbPolyline
 62
250
  6
CONTINUOUS
 90
17
 70
0
 10
15.885070291
 20
-7.2806154109
 10
15.8418331077
 20
-7.3160039611
 10
15.8002428153
 20
-7.3585984295
 10
15.761883575
 20
-7.4067764059
 10
15.7276660763
 20
-7.4596521861
 10
15.7000905097
 20
-7.5133622637
 10
15.6795607654
 20
-7.5667609431
 10
15.6668588151
 20
-7.6178142851
 10
15.6624671159
 20
-7.6653625602
 10
15.6667065588
 20
-7.7059315303
 10
15.6792634084
 20
-7.7388541985
 10
15.6996593782
 20
-7.7628765507
 10
15.7276660763
 20
-7.7772441861
 10
15.7612371207
 20
-7.7809072961
 10
15.799524932
 20
-7.7740683006
 10
15.8410711394
 20
-7.7569876949
 10
15.8850703104
 20
-7.7297583106
  0
LWPOLYLINE
  5
4DC
100
AcDbEntity
  8
0
100
AcDbPolyline
 62
250
  6
CONTINUOUS
 90
17
 70
0
 10
15.885070291
 20
-7.4058312939
 10
15.8659411673
 20
-7.4214880019
 10
15.8475406661
 20
-7.4403327736
 10
15.8305696566
 20
-7.4616478177
 10
15.8154310488
 20
-7.4850412781
 10
15.8032309843
 20
-7.5088038508
 10
15.7941481536
 20
-7.5324286538
 10
15.7885285189
 20
-7.5550158257
 10
15.7865855302
 20
-7.5760522754
 10
15.7884611572
 20
-7.5940009202
 10
15.7940165961
 20
-7.6085666652
 10
15.8030402419
 20
-7.619194706
 10
15.8154310488
 20
-7.6255512781
 10
15.8302836504
 20
-7.6271719221
 10
15.8472230581
 20
-7.6241461933
 10
15.8656040551
 20
-7.6165893408
 10
15.8850702996
 20
-7.6045424354
  0
LWPOLYLINE
  5
4DD
100
AcDbEntity
  8
0
100
AcDbPolyline
 62
250
  6
CONTINUOUS
 90
17
 70
0
 10
15.885070291
 20
-7.6045424416
 10
15.9041994146
 20
-7.5888857336
 10
15.9225999158
 20
-7.5700409619
 10
15.9395709253
 20
-7.5487259178
 10
15.9547095331
 20
-7.5253324575
 10
15.9669095976
 20
-7.5015698847
 10
15.9759924283
 20
-7.4779450817
 10
15.981612063
 20
-7.4553579098
 10
15.9835550517
 20
-7.4343214601
 10
15.9816794247
 20
-7.4163728154
 10
15.9761239859
 20
-7.4018070703
 10
15.96710034
 20
-7.3911790296
 10
15.9547095331
 20
-7.3848224575
 10
15.9398569315
 20
-7.3832018134
 10
15.9229175239
 20
-7.3862275422
 10
15.9045365268
 20
-7.3937843947
 10
15.8850702823
 20
-7.4058313001
  0
LWPOLYLINE
  5
4DE
100
AcDbEntity
  8
0
100
AcDbPolyline
 62
250
  6
CONTINUOUS
 90
17
 70
0
 10
15.885070291
 20
-7.7297583246
 10
15.9283074742
 20
-7.6943697744
 10
15.9698977667
 20
-7.651775306
 10
16.0082570069
 20
-7.6035973296
 10
16.0424745056
 20
-7.5507215494
 10
16.0700500722
 20
-7.4970114718
 10
16.0905798165
 20
-7.4436127924
 10
16.1032817668
 20
-7.3925594504
 10
16.107673466
 20
-7.3450111753
 10
16.1034340231
 20
-7.3044422052
 10
16.0908771735
 20
-7.271519537
 10
16.0704812037
 20
-7.2474971848
 10
16.0424745056
 20
-7.2331295494
 10
16.0089034612
 20
-7.2294664394
 10
15.9706156499
 20
-7.2363054349
 10
15.9290694425
 20
-7.2533860406
 10
15.8850702715
 20
-7.2806154249
  0
LWPOLYLINE
  5
4DF
100
AcDbEntity
  8
CURVE
100
AcDbPolyline
 62
250
  6
CONTINUOUS
 90
17
 70
0
 10
11.0840204445
 20
-12.985501881
 10
10.8798165395
 20
-13.1526376562
 10
10.6833906978
 20
-13.3538060975
 10
10.5022247186
 20
-13.5813447615
 10
10.3406196759
 20
-13.8310705756
 10
10.2103836621
 20
-14.0847366741
 10
10.1134242019
 20
-14.3369320767
 10
10.053434451
 20
-14.578050739
 10
10.0326929953
 20
-14.8026154012
 10
10.0527153633
 20
-14.9942176629
 10
10.1120198213
 20
-15.1497073804
 10
10.2083474811
 20
-15.2631619986
 10
10.3406196759
 20
-15.3310185756
 10
10.4991715941
 20
-15.348318994
 10
10.6800002232
 20
-15.3160192587
 10
10.876217857
 20
-15.2353496563
 10
11.0840205364
 20
-15.1067486193
  0
LINE
  5
4E0
100
AcDbEntity
  8
0
100
AcDbLine
 62
250
  6
CONTINUOUS
 10
13.6133693953
 20
-10.5070500509
 11
15.9699812429
 21
-8.603408543
  0
LINE
  5
4E1
100
AcDbEntity
  8
CURVE
100
AcDbLine
 62
250
  6
CONTINUOUS
 10
8.1500490276
 20
-12.3764587928
 11
7.9698152275
 21
-12.5061473012
  0
LINE
  5
4E2
100
AcDbEntity
  8
0
100
AcDbLine
 62
250
  6
CONTINUOUS
 10
13.8677363764
 20
-8.5655690797
 11
14.1287998447
 21
-8.3777190107
  0
LINE
  5
4E3
100
AcDbEntity
  8
CURVE
100
AcDbLine
 62
250
  6
CONTINUOUS
 10
5.3714965081
 20
-14.8717845905
 11
4.6706139323
 21
-15.3761096159
  0
LINE
  5
4E4
100
AcDbEntity
  8
0
100
AcDbLine
 62
250
  6
CONTINUOUS
 10
14.1287998447
 20
-8.6252488106
 11
13.8677363764
 21
-8.8130988796
  0
LINE
  5
4E5
100
AcDbEntity
  8
0
100
AcDbLine
 62
250
  6
CONTINUOUS
 10
14.1935750752
 20
-8.9014173164
 11
14.3447163454
 21
-8.7926625442
  0
LINE
  5
4E6
100
AcDbEntity
  8
0
100
AcDbLine
 62
250
  6
CONTINUOUS
 10
13.2720027527
 20
-9.7026632093
 11
13.4244463122
 21
-9.5929713655
  0
LINE
  5
4E7
100
AcDbEntity
  8
CURVE
100
AcDbLine
 62
250
  6
CONTINUOUS
 10
4.6706139323
 20
-16.083216397
 11
6.0723790839
 21
-15.0745663462
  0
LINE
  5
4E8
100
AcDbEntity
  8
0
100
AcDbLine
 62
250
  6
CONTINUOUS
 10
13.4240552049
 20
-9.9984270965
 11
13.2716116453
 21
-10.1081189404
  0
LINE
  5
4E9
100
AcDbEntity
  8
0
100
AcDbLine
 62
250
  6
CONTINUOUS
 10
14.3447163454
 20
-9.3748518414
 11
14.1935750752
 21
-9.4836066136
  0
LINE
  5
4EA
100
AcDbEntity
  8
0
100
AcDbLine
 62
250
  6
CONTINUOUS
 10
15.9699812429
 20
-8.4801393249
 11
16.107673466
 21
-8.3810619098
  0
LINE
  5
4EB
100
AcDbEntity
  8
0
100
AcDbLine
 62
250
  6
CONTINUOUS
 10
13.3367779833
 20
-10.4328006327
 11
13.6133693953
 21
-10.2337773216
  0
LINE
  5
4EC
100
AcDbEntity
  8
0
100
AcDbLine
 62
250
  6
CONTINUOUS
 10
16.107673466
 20
-8.4642318094
 11
15.9699812429
 21
-8.5633092245
  0
LINE
  5
4ED
100
AcDbEntity
  8
0
100
AcDbLine
 62
250
  6
CONTINUOUS
 10
13.6133693953
 20
-10.3040453509
 11
13.3367779833
 21
-10.503068662
  0
LINE
  5
4EE
100
AcDbEntity
  8
CURVE
100
AcDbLine
 62
250
  6
CONTINUOUS
 10
4.6706139323
 20
-16.7903231782
 11
5.3714965081
 21
-16.2859981528
  0
LINE
  5
4EF
100
AcDbEntity
  8
0
100
AcDbLine
 62
250
  6
CONTINUOUS
 10
17.9531927917
 20
-8.1080132558
 11
17.2389578404
 21
-8.6219460776
  0
LINE
  5
4F0
100
AcDbEntity
  8
RACCORDO
100
AcDbLine
 62
7
  6
CONTINUOUS
 10
0.443026668
 20
-19.8784821079
 11
-0.5598351528
 21
-20.5890654879
  0
LWPOLYLINE
  5
4F1
100
AcDbEntity
  8
RACCORDO
100
AcDbPolyline
 62
7
  6
CONTINUOUS
 90
8
 70
0
 10
15.9732154691
 20
-10.1017126022
 10
15.9652494305
 20
-10.1067492836
 10
15.9526182163
 20
-10.1124834245
 10
15.9376472593
 20
-10.1170618154
 10
15.9203700624
 20
-10.1203308966
 10
15.9006902069
 20
-10.1222404743
 10
15.8784223213
 20
-10.122889018
 10
15.8534433015
 20
-10.1223450793
  0
LWPOLYLINE
  5
4F2
100
AcDbEntity
  8
ASSI
100
AcDbPolyline
 62
7
  6
CONTINUOUS
 90
8
 70
0
 10
15.9732154691
 20
-10.1017126022
 10
15.9652494305
 20
-10.1067492836
 10
15.9526182163
 20
-10.1124834245
 10
15.9376472593
 20
-10.1170618154
 10
15.9203700624
 20
-10.1203308966
 10
15.9006902069
 20
-10.1222404743
 10
15.8784223213
 20
-10.122889018
 10
15.8534433015
 20
-10.1223450793
  0
LINE
  5
4F3
100
AcDbEntity
  8
0
100
AcDbLine
 62
250
  6
CONTINUOUS
 10
15.6628820542
 20
-7.6538259404
 11
13.6326808474
 21
-8.9242859367
  0
LINE
  5
4F4
100
AcDbEntity
  8
RACCORDO
100
AcDbLine
 62
250
  6
CONTINUOUS
 10
-0.4911073441
 20
-19.9807245053
 11
1.0751595223
 21
-19.0615078116
  0
LINE
  5
4F5
100
AcDbEntity
  8
RACCORDO
100
AcDbLine
 62
7
  6
CONTINUOUS
 10
-0.505706534
 20
-20.1099485517
 11
1.0014777503
 21
-19.22540647
  0
LINE
  5
4F6
100
AcDbEntity
  8
CURVE
100
AcDbLine
 62
250
  6
CONTINUOUS
 10
9.0512181032
 20
-14.7827175644
 11
7.7895814274
 21
-15.2832435255
  0
LINE
  5
4F7
100
AcDbEntity
  8
CURVE
100
AcDbLine
 62
250
  6
CONTINUOUS
 10
14.8088818896
 20
11.6763782871
 11
14.9390507588
 21
11.6452884398
  0
LWPOLYLINE
  5
4F8
100
AcDbEntity
  8
0
100
AcDbPolyline
 62
7
  6
CONTINUOUS
 90
9
 70
0
 10
-1.0198479053
 20
18.3717573728
 10
-1.044222768
 20
18.3867425188
 10
-1.0697531137
 20
18.3984221199
 10
-1.0970889109
 20
18.4071796765
 10
-1.1262031398
 20
18.4130483989
 10
-1.15674543
 20
18.4159684607
 10
-1.1885989915
 20
18.4159199198
 10
-1.2218806144
 20
18.4129227184
 10
-1.2565902985
 20
18.4069768564
  0
LWPOLYLINE
  5
4F9
100
AcDbEntity
  8
ASSI
100
AcDbPolyline
 62
7
  6
CONTINUOUS
 90
9
 70
0
 10
5.064817824
 20
14.5289322837
 10
5.025310418
 20
14.555739572
 10
4.973356173
 20
14.5876180565
 10
4.921504367
 20
14.6156986042
 10
4.8699306753
 20
14.6400033988
 10
4.8187184437
 20
14.660552002
 10
4.7679872253
 20
14.6773566604
 10
4.7179140608
 20
14.6904641951
 10
4.6686547002
 20
14.6999310636
  0
LINE
  5
4FA
100
AcDbEntity
  8
RACCORDO
100
AcDbLine
 62
7
  6
CONTINUOUS
 10
5.7654026848
 20
14.0335439783
 11
5.0648146729
 21
14.5289345123
  0
LINE
  5
4FB
100
AcDbEntity
  8
RACCORDO
100
AcDbLine
 62
7
  6
CONTINUOUS
 10
-1.4145014294
 20
19.1105028657
 11
-2.6688563204
 21
19.9974657152
  0
LINE
  5
4FC
100
AcDbEntity
  8
RACCORDO
100
AcDbLine
 62
250
  6
CONTINUOUS
 10
6.4089320447
 20
13.6922974283
 11
5.8474767524
 21
14.0893062729
  0
LINE
  5
4FD
100
AcDbEntity
  8
RACCORDO
100
AcDbLine
 62
250
  6
CONTINUOUS
 10
-3.1243647737
 20
20.4333562557
 11
-3.6858200661
 21
20.8303651003
  0
LINE
  5
4FE
100
AcDbEntity
  8
RACCORDO
100
AcDbLine
 62
7
  6
CONTINUOUS
 10
7.0621057331
 20
13.6160476941
 11
6.2861642088
 21
14.1647212076
  0
LINE
  5
4FF
100
AcDbEntity
  8
RACCORDO
100
AcDbLine
 62
7
  6
CONTINUOUS
 10
-2.7007292213
 20
20.5194144939
 11
-3.4766707456
 21
21.0680880075
  0
LWPOLYLINE
  5
500
100
AcDbEntity
  8
RACCORDO
100
AcDbPolyline
 62
250
  6
CONTINUOUS
 90
13
 70
0
 10
18.0952150052
 20
-4.2802244183
 10
18.0936240842
 20
-4.2510937944
 10
18.0883995623
 20
-4.2199177547
 10
18.0796308238
 20
-4.1872296783
 10
18.0674678898
 20
-4.1535888132
 10
18.0521188512
 20
-4.119570708
 10
18.033846309
 20
-4.0857573657
 10
18.0129628811
 20
-4.0527272858
 10
17.9898258541
 20
-4.0210455676
 10
17.9648310708
 20
-3.9912542415
 10
17.9384061573
 20
-3.963862996
 10
17.9110032076
 20
-3.9393404575
 10
17.8830910481
 20
-3.9181061728
  0
LWPOLYLINE
  5
501
100
AcDbEntity
  8
ASSI
100
AcDbPolyline
 62
250
  6
CONTINUOUS
 90
13
 70
0
 10
18.0952150052
 20
-4.2802244183
 10
18.0936240842
 20
-4.2510937944
 10
18.0883995623
 20
-4.2199177547
 10
18.0796308238
 20
-4.1872296783
 10
18.0674678898
 20
-4.1535888132
 10
18.0521188512
 20
-4.119570708
 10
18.033846309
 20
-4.0857573657
 10
18.0129628811
 20
-4.0527272858
 10
17.9898258541
 20
-4.0210455676
 10
17.9648310708
 20
-3.9912542415
 10
17.9384061573
 20
-3.963862996
 10
17.9110032076
 20
-3.9393404575
 10
17.8830910481
 20
-3.9181061728
  0
LINE
  5
502
100
AcDbEntity
  8
0
100
AcDbLine
 62
250
  6
CONTINUOUS
 10
17.2389578404
 20
-8.6219460776
 11
17.2389578404
 21
-5.6628993598
  0
LINE
  5
503
100
AcDbEntity
  8
0
100
AcDbLine
 62
250
  6
CONTINUOUS
 10
17.9531927917
 20
-5.148966538
 11
17.9531927917
 21
-8.1080132558
  0
LINE
  5
504
100
AcDbEntity
  8
RACCORDO
100
AcDbLine
 62
250
  6
CONTINUOUS
 10
18.0952150052
 20
-4.2802244183
 11
18.0952150052
 21
-8.4895264822
  0
LINE
  5
505
100
AcDbEntity
  8
ASSI
100
AcDbLine
 62
250
  6
CONTINUOUS
 10
18.0952150052
 20
-4.2802244183
 11
18.0952150052
 21
-8.4895264822
  0
LINE
  5
506
100
AcDbEntity
  8
RACCORDO
100
AcDbLine
 62
7
  6
CONTINUOUS
 10
18.1812398704
 20
-4.1315391102
 11
18.1812398704
 21
-8.3408411741
  0
LINE
  5
507
100
AcDbEntity
  8
ASSI
100
AcDbLine
 62
7
  6
CONTINUOUS
 10
18.1812398704
 20
-4.1315391102
 11
18.1812398704
 21
-8.3408411741
  0
LWPOLYLINE
  5
508
100
AcDbEntity
  8
RACCORDO
100
AcDbPolyline
 62
250
  6
CONTINUOUS
 90
9
 70
0
 10
18.1812398704
 20
-8.3408411741
 10
18.1809310707
 20
-8.3504636604
 10
18.177881386
 20
-8.3724940668
 10
18.1715964324
 20
-8.3941940883
 10
18.1621414856
 20
-8.4153203074
 10
18.1496221517
 20
-8.4356329223
 10
18.1341778476
 20
-8.4549077768
 10
18.1159758417
 20
-8.4729377746
 10
18.0952150052
 20
-8.4895264822
  0
LWPOLYLINE
  5
509
100
AcDbEntity
  8
ASSI
100
AcDbPolyline
 62
250
  6
CONTINUOUS
 90
9
 70
0
 10
18.1812398704
 20
-8.3408411741
 10
18.1809310707
 20
-8.3504636604
 10
18.177881386
 20
-8.3724940668
 10
18.1715964324
 20
-8.3941940883
 10
18.1621414856
 20
-8.4153203074
 10
18.1496221517
 20
-8.4356329223
 10
18.1341778476
 20
-8.4549077768
 10
18.1159758417
 20
-8.4729377746
 10
18.0952150052
 20
-8.4895264822
  0
LWPOLYLINE
  5
50A
100
AcDbEntity
  8
RACCORDO
100
AcDbPolyline
 62
250
  6
CONTINUOUS
 90
9
 70
0
 10
18.1812398049
 20
-4.1316792994
 10
18.1809310707
 20
-4.1411615965
 10
18.177881386
 20
-4.1631920029
 10
18.1715964324
 20
-4.1848920244
 10
18.1621414856
 20
-4.2060182435
 10
18.1496221517
 20
-4.2263308584
 10
18.1341778476
 20
-4.2456057129
 10
18.1159758417
 20
-4.2636357107
 10
18.0952150052
 20
-4.2802244183
  0
LWPOLYLINE
  5
50B
100
AcDbEntity
  8
ASSI
100
AcDbPolyline
 62
250
  6
CONTINUOUS
 90
9
 70
0
 10
18.1812398049
 20
-4.1316792994
 10
18.1809310707
 20
-4.1411615965
 10
18.177881386
 20
-4.1631920029
 10
18.1715964324
 20
-4.1848920244
 10
18.1621414856
 20
-4.2060182435
 10
18.1496221517
 20
-4.2263308584
 10
18.1341778476
 20
-4.2456057129
 10
18.1159758417
 20
-4.2636357107
 10
18.0952150052
 20
-4.2802244183
  0
LWPOLYLINE
  5
50C
100
AcDbEntity
  8
RACCORDO
100
AcDbPolyline
 62
250
  6
CONTINUOUS
 90
3
 70
0
 10
15.9910650203
 20
-12.4655105158
 10
15.9962492272
 20
-12.4288918432
 10
15.9968180769
 20
-12.4120317399
  0
LWPOLYLINE
  5
50D
100
AcDbEntity
  8
ASSI
100
AcDbPolyline
 62
250
  6
CONTINUOUS
 90
3
 70
0
 10
15.9910650203
 20
-12.4655105158
 10
15.9962492272
 20
-12.4288918432
 10
15.9968180769
 20
-12.4120317399
  0
LINE
  5
50E
100
AcDbEntity
  8
0
100
AcDbLine
 62
250
  6
CONTINUOUS
 10
12.993331042
 20
-11.965252452
 11
16.4819569104
 21
-6.1091797234
  0
LWPOLYLINE
  5
50F
100
AcDbEntity
  8
RACCORDO
100
AcDbPolyline
 62
250
  6
CONTINUOUS
 90
6
 70
0
 10
18.0578639064
 20
-8.5833364316
 10
18.0674678898
 20
-8.5750055083
 10
18.0796308238
 20
-8.5588769285
 10
18.0883995623
 20
-8.5390180578
 10
18.0936240842
 20
-8.515768654
 10
18.0952150052
 20
-8.4895264822
  0
LWPOLYLINE
  5
510
100
AcDbEntity
  8
ASSI
100
AcDbPolyline
 62
250
  6
CONTINUOUS
 90
6
 70
0
 10
18.0578639064
 20
-8.5833364316
 10
18.0674678898
 20
-8.5750055083
 10
18.0796308238
 20
-8.5588769285
 10
18.0883995623
 20
-8.5390180578
 10
18.0936240842
 20
-8.515768654
 10
18.0952150052
 20
-8.4895264822
  0
LWPOLYLINE
  5
511
100
AcDbEntity
  8
CURVE
100
AcDbPolyline
 62
250
  6
CONTINUOUS
 90
17
 70
0
 10
11.0840204445
 20
-15.1067486855
 10
11.2882243495
 20
-14.9396129102
 10
11.4846501912
 20
-14.7384444689
 10
11.6658161703
 20
-14.5109058049
 10
11.827421213
 20
-14.2611799909
 10
11.9576572269
 20
-14.0075138923
 10
12.0546166871
 20
-13.7553184897
 10
12.114606438
 20
-13.5141998275
 10
12.1353478936
 20
-13.2896351652
 10
12.1153255257
 20
-13.0980329036
 10
12.0560210676
 20
-12.9425431861
 10
11.9596934078
 20
-12.8290885678
 10
11.827421213
 20
-12.7612319909
 10
11.6688692949
 20
-12.7439315724
 10
11.4880406658
 20
-12.7762313078
 10
11.291823032
 20
-12.8569009101
 10
11.0840203526
 20
-12.9855019471
  0
LINE
  5
512
100
AcDbEntity
  8
RACCORDO
100
AcDbLine
 62
250
  6
CONTINUOUS
 10
18.0952150052
 20
-8.4895264822
 11
15.8534433015
 21
-10.1223450793
  0
LINE
  5
513
100
AcDbEntity
  8
ASSI
100
AcDbLine
 62
250
  6
CONTINUOUS
 10
18.0952150052
 20
-8.4895264822
 11
15.8534433015
 21
-10.1223450793
  0
LINE
  5
514
100
AcDbEntity
  8
RACCORDO
100
AcDbLine
 62
7
  6
CONTINUOUS
 10
18.0578639064
 20
-8.5833364316
 11
15.9732368844
 21
-10.101697005
  0
LINE
  5
515
100
AcDbEntity
  8
ASSI
100
AcDbLine
 62
7
  6
CONTINUOUS
 10
18.0578639064
 20
-8.5833364316
 11
15.9732368844
 21
-10.101697005
  0
LINE
  5
516
100
AcDbEntity
  8
RACCORDO
100
AcDbLine
 62
250
  6
CONTINUOUS
 10
9.5419613461
 20
-17.2568765361
 11
15.8534433015
 21
-12.6598405868
  0
LINE
  5
517
100
AcDbEntity
  8
ASSI
100
AcDbLine
 62
250
  6
CONTINUOUS
 10
9.5419613461
 20
-17.2568765361
 11
15.8534433015
 21
-12.6598405868
  0
LINE
  5
518
100
AcDbEntity
  8
RACCORDO
100
AcDbLine
 62
7
  6
CONTINUOUS
 10
-0.7561651922
 20
-22.3268716459
 11
0.1979469601
 21
-21.6403099599
  0
LINE
  5
519
100
AcDbEntity
  8
CURVE
100
AcDbLine
 62
250
  6
CONTINUOUS
 10
8.1500490276
 20
-15.8384536421
 11
8.6907504654
 21
-15.4493880899
  0
LINE
  5
51A
100
AcDbEntity
  8
CURVE
100
AcDbLine
 62
250
  6
CONTINUOUS
 10
10.3198684977
 20
-14.595976233
 11
11.8481723913
 21
-13.4962743335
  0
LINE
  5
51B
100
AcDbEntity
  8
CURVE
100
AcDbLine
 62
250
  6
CONTINUOUS
 10
8.6907504654
 20
-16.1621516404
 11
8.1500490276
 21
-16.5512171925
  0
LINE
  5
51C
100
AcDbEntity
  8
CURVE
100
AcDbLine
 62
250
  6
CONTINUOUS
 10
7.7895814274
 20
-17.2178877334
 11
9.0512181032
 21
-16.3100681207
  0
LINE
  5
51D
100
AcDbEntity
  8
CURVE
100
AcDbLine
 62
250
  6
CONTINUOUS
 10
6.738217531
 20
-18.3816976015
 11
5.4064899288
 21
-19.3399516372
  0
LWPOLYLINE
  5
51E
100
AcDbEntity
  8
0
100
AcDbPolyline
 62
7
  6
CONTINUOUS
 90
7
 70
0
 10
-1.2565902985
 20
18.4069768564
 10
-1.2705388412
 20
18.4038267791
 10
-1.2846536669
 20
18.4002179725
 10
-1.2989347756
 20
18.3961504364
 10
-1.3133821674
 20
18.391624171
 10
-1.3279958422
 20
18.3866391763
 10
-1.3427758
 20
18.3811954521
  0
LWPOLYLINE
  5
51F
100
AcDbEntity
  8
RACCORDO
100
AcDbPolyline
 62
250
  6
CONTINUOUS
 90
7
 70
0
 10
15.7911914703
 20
-12.8161905024
 10
15.8071981092
 20
-12.8023056302
 10
15.8238581767
 20
-12.7813145332
 10
15.8369354715
 20
-12.7562778886
 10
15.8462867299
 20
-12.7274699764
 10
15.8518095075
 20
-12.6952063917
 10
15.8534433015
 20
-12.6598405868
  0
LWPOLYLINE
  5
520
100
AcDbEntity
  8
ASSI
100
AcDbPolyline
 62
250
  6
CONTINUOUS
 90
7
 70
0
 10
15.7911914703
 20
-12.8161905024
 10
15.8071981092
 20
-12.8023056302
 10
15.8238581767
 20
-12.7813145332
 10
15.8369354715
 20
-12.7562778886
 10
15.8462867299
 20
-12.7274699764
 10
15.8518095075
 20
-12.6952063917
 10
15.8534433015
 20
-12.6598405868
  0
LWPOLYLINE
  5
521
100
AcDbEntity
  8
RACCORDO
100
AcDbPolyline
 62
250
  6
CONTINUOUS
 90
7
 70
0
 10
15.8534433015
 20
-12.6598405868
 10
15.887941007
 20
-12.6322848371
 10
15.9182009262
 20
-12.6023426623
 10
15.9438951954
 20
-12.5703384836
 10
15.964745419
 20
-12.5366190638
 10
15.9805256867
 20
-12.5015497501
 10
15.9910650203
 20
-12.4655105158
  0
LWPOLYLINE
  5
522
100
AcDbEntity
  8
ASSI
100
AcDbPolyline
 62
250
  6
CONTINUOUS
 90
7
 70
0
 10
15.8534433015
 20
-12.6598405868
 10
15.887941007
 20
-12.6322848371
 10
15.9182009262
 20
-12.6023426623
 10
15.9438951954
 20
-12.5703384836
 10
15.964745419
 20
-12.5366190638
 10
15.9805256867
 20
-12.5015497501
 10
15.9910650203
 20
-12.4655105158
  0
LINE
  5
523
100
AcDbEntity
  8
DRAFT
100
AcDbLine
 62
7
  6
CONTINUOUS
 10
9.5419613461
 20
-17.8825938247
 11
3.233537762
 21
-22.5234228676
  0
LINE
  5
524
100
AcDbEntity
  8
ASSI
100
AcDbLine
 62
7
  6
CONTINUOUS
 10
9.5419613461
 20
-17.8825938247
 11
3.233537762
 21
-22.5234228676
  0
LINE
  5
525
100
AcDbEntity
  8
RACCORDO
100
AcDbLine
 62
7
  6
CONTINUOUS
 10
9.5419613461
 20
-17.367884659
 11
15.7911914703
 21
-12.8161905024
  0
LINE
  5
526
100
AcDbEntity
  8
ASSI
100
AcDbLine
 62
7
  6
CONTINUOUS
 10
9.5419613461
 20
-17.367884659
 11
15.7911914703
 21
-12.8161905024
  0
LINE
  5
527
100
AcDbEntity
  8
DRAFT
100
AcDbLine
 62
7
  6
CONTINUOUS
 10
1.6507491349
 20
-23.6390554846
 11
3.233537762
 21
-22.5234228676
  0
LINE
  5
528
100
AcDbEntity
  8
RACCORDO
100
AcDbLine
 62
7
  6
CONTINUOUS
 10
-2.1623325577
 20
-25.8055610881
 11
1.9839184463
 21
-22.9031825087
  0
LWPOLYLINE
  5
529
100
AcDbEntity
  8
ASSI
100
AcDbPolyline
 62
250
  6
CONTINUOUS
 90
7
 70
0
 10
-7.0355807449
 20
-27.7321914953
 10
-7.0318982984
 20
-27.7300922644
 10
-7.0161553625
 20
-27.7181272842
 10
-7.0027714597
 20
-27.7026380287
 10
-6.991975417
 20
-27.6838895236
 10
-6.9839517842
 20
-27.6622025115
 10
-6.9788376918
 20
-27.6379479756
  0
LWPOLYLINE
  5
52A
100
AcDbEntity
  8
RACCORDO
100
AcDbPolyline
 62
250
  6
CONTINUOUS
 90
7
 70
0
 10
-7.0355807449
 20
-27.7321914953
 10
-7.0318982984
 20
-27.7300922644
 10
-7.0161553625
 20
-27.7181272842
 10
-7.0027714597
 20
-27.7026380287
 10
-6.991975417
 20
-27.6838895236
 10
-6.9839517842
 20
-27.6622025115
 10
-6.9788376918
 20
-27.6379479756
  0
LINE
  5
52B
100
AcDbEntity
  8
ASSI
100
AcDbLine
 62
250
  6
CONTINUOUS
 10
-0.9925163437
 20
-24.4189228043
 11
-6.9788376918
 21
-27.6379479756
  0
LINE
  5
52C
100
AcDbEntity
  8
RACCORDO
100
AcDbLine
 62
250
  6
CONTINUOUS
 10
-0.9925163437
 20
-24.4189228043
 11
-6.9788376918
 21
-27.6379479756
  0
LINE
  5
52D
100
AcDbEntity
  8
ASSI
100
AcDbLine
 62
7
  6
CONTINUOUS
 10
-1.0458170983
 20
-24.511315371
 11
-7.0356764243
 21
-27.7322430194
  0
LINE
  5
52E
100
AcDbEntity
  8
RACCORDO
100
AcDbLine
 62
7
  6
CONTINUOUS
 10
-1.0458170983
 20
-24.511315371
 11
-7.0356764243
 21
-27.7322430194
  0
LWPOLYLINE
  5
52F
100
AcDbEntity
  8
ASSI
100
AcDbPolyline
 62
250
  6
CONTINUOUS
 90
4
 70
0
 10
-6.9788376918
 20
-27.6379479756
 10
-7.0226271784
 20
-27.6595973981
 10
-7.0650578686
 20
-27.6769199318
 10
-7.1061297625
 20
-27.6899155766
  0
LWPOLYLINE
  5
530
100
AcDbEntity
  8
RACCORDO
100
AcDbPolyline
 62
250
  6
CONTINUOUS
 90
4
 70
0
 10
-6.9788376918
 20
-27.6379479756
 10
-7.0226271784
 20
-27.6595973981
 10
-7.0650578686
 20
-27.6769199318
 10
-7.1061297625
 20
-27.6899155766
  0
LWPOLYLINE
  5
531
100
AcDbEntity
  8
RACCORDO
100
AcDbPolyline
 62
250
  6
CONTINUOUS
 90
10
 70
0
 10
1.0142590361
 20
24.1980720333
 10
0.9776113968
 20
24.2224786011
 10
0.941331438
 20
24.2427208091
 10
0.9058166119
 20
24.2585769008
 10
0.8714559887
 20
24.2698731703
 10
0.8386259941
 20
24.2764858655
 10
0.8076862856
 20
24.2783425431
 10
0.7789758123
 20
24.2754228631
 10
0.7528091017
 20
24.267758811
 10
0.7282739363
 20
24.2546218633
  0
LWPOLYLINE
  5
532
100
AcDbEntity
  8
ASSI
100
AcDbPolyline
 62
250
  6
CONTINUOUS
 90
10
 70
0
 10
1.0142590361
 20
24.1980720333
 10
0.9776113968
 20
24.2224786011
 10
0.941331438
 20
24.2427208091
 10
0.9058166119
 20
24.2585769008
 10
0.8714559887
 20
24.2698731703
 10
0.8386259941
 20
24.2764858655
 10
0.8076862856
 20
24.2783425431
 10
0.7789758123
 20
24.2754228631
 10
0.7528091017
 20
24.267758811
 10
0.7282739363
 20
24.2546218633
  0
LINE
  5
533
100
AcDbEntity
  8
RACCORDO
100
AcDbLine
 62
250
  6
CONTINUOUS
 10
15.4999033732
 20
13.9551746927
 11
1.0142590361
 21
24.1980720333
  0
LINE
  5
534
100
AcDbEntity
  8
ASSI
100
AcDbLine
 62
250
  6
CONTINUOUS
 10
15.4999033732
 20
13.9551746927
 11
1.0142590361
 21
24.1980720333
  0
LINE
  5
535
100
AcDbEntity
  8
RACCORDO
100
AcDbLine
 62
7
  6
CONTINUOUS
 10
15.7854932115
 20
14.0077014209
 11
1.2998488745
 21
24.2505987615
  0
LINE
  5
536
100
AcDbEntity
  8
ASSI
100
AcDbLine
 62
7
  6
CONTINUOUS
 10
15.7854932115
 20
14.0077014209
 11
1.2998488745
 21
24.2505987615
  0
LINE
  5
537
100
AcDbEntity
  8
RACCORDO
100
AcDbLine
 62
250
  6
CONTINUOUS
 10
10.4102770446
 20
19.5669266617
 11
10.6342041261
 21
19.4085863039
  0
LINE
  5
538
100
AcDbEntity
  8
ASSI
100
AcDbLine
 62
250
  6
CONTINUOUS
 10
10.4102770446
 20
19.5669266617
 11
10.6342041261
 21
19.4085863039
  0
LINE
  5
539
100
AcDbEntity
  8
RACCORDO
100
AcDbLine
 62
250
  6
CONTINUOUS
 10
10.6342041261
 20
19.4085863039
 11
10.6718416726
 21
19.3810384187
  0
LINE
  5
53A
100
AcDbEntity
  8
ASSI
100
AcDbLine
 62
250
  6
CONTINUOUS
 10
10.6342041261
 20
19.4085863039
 11
10.6718416726
 21
19.3810384187
  0
LWPOLYLINE
  5
53B
100
AcDbEntity
  8
RACCORDO
100
AcDbPolyline
 62
250
  6
CONTINUOUS
 90
3
 70
0
 10
10.6718416726
 20
19.3810384187
 10
10.7089959682
 20
19.34987371
 10
10.7452560247
 20
19.3154288232
  0
LWPOLYLINE
  5
53C
100
AcDbEntity
  8
ASSI
100
AcDbPolyline
 62
250
  6
CONTINUOUS
 90
3
 70
0
 10
10.6718416726
 20
19.3810384187
 10
10.7089959682
 20
19.34987371
 10
10.7452560247
 20
19.3154288232
  0
LWPOLYLINE
  5
53D
100
AcDbEntity
  8
RACCORDO
100
AcDbPolyline
 62
250
  6
CONTINUOUS
 90
13
 70
0
 10
10.7452560247
 20
19.3154288232
 10
10.7802159195
 20
19.2780785074
 10
10.8134952751
 20
19.2382272543
 10
10.8447418538
 20
19.1963029059
 10
10.8736256193
 20
19.1527414794
 10
10.8998080966
 20
19.108036808
 10
10.9229727323
 20
19.0627334803
 10
10.9428603074
 20
19.0173732031
 10
10.9592851411
 20
18.9724085854
 10
10.9720902831
 20
18.9282558817
 10
10.9811325509
 20
18.8853773682
 10
10.9863033173
 20
18.8442730753
 10
10.9875421415
 20
18.8054005817
  0
LWPOLYLINE
  5
53E
100
AcDbEntity
  8
ASSI
100
AcDbPolyline
 62
250
  6
CONTINUOUS
 90
13
 70
0
 10
10.7452560247
 20
19.3154288232
 10
10.7802159195
 20
19.2780785074
 10
10.8134952751
 20
19.2382272543
 10
10.8447418538
 20
19.1963029059
 10
10.8736256193
 20
19.1527414794
 10
10.8998080966
 20
19.108036808
 10
10.9229727323
 20
19.0627334803
 10
10.9428603074
 20
19.0173732031
 10
10.9592851411
 20
18.9724085854
 10
10.9720902831
 20
18.9282558817
 10
10.9811325509
 20
18.8853773682
 10
10.9863033173
 20
18.8442730753
 10
10.9875421415
 20
18.8054005817
  0
LINE
  5
53F
100
AcDbEntity
  8
RACCORDO
100
AcDbLine
 62
250
  6
CONTINUOUS
 10
-2.1623325577
 20
-28.0599674855
 11
1.6507491349
 21
-25.5216391599
  0
LINE
  5
540
100
AcDbEntity
  8
RACCORDO
100
AcDbLine
 62
7
  6
CONTINUOUS
 10
-2.1962171243
 20
-28.1400820436
 11
1.6168645683
 21
-25.601753718
  0
LWPOLYLINE
  5
541
100
AcDbEntity
  8
RACCORDO
100
AcDbPolyline
 62
250
  6
CONTINUOUS
 90
8
 70
0
 10
10.5730297685
 20
19.5966838735
 10
10.5554687592
 20
19.604949191
 10
10.5354114028
 20
19.6090386301
 10
10.5131858235
 20
19.6088852905
 10
10.489155616
 20
19.6044916806
 10
10.4637138974
 20
19.5959296769
 10
10.4372768766
 20
19.5833393476
 10
10.4102770446
 20
19.5669266617
  0
LWPOLYLINE
  5
542
100
AcDbEntity
  8
ASSI
100
AcDbPolyline
 62
250
  6
CONTINUOUS
 90
8
 70
0
 10
10.5730297685
 20
19.5966838735
 10
10.5554687592
 20
19.604949191
 10
10.5354114028
 20
19.6090386301
 10
10.5131858235
 20
19.6088852905
 10
10.489155616
 20
19.6044916806
 10
10.4637138974
 20
19.5959296769
 10
10.4372768766
 20
19.5833393476
 10
10.4102770446
 20
19.5669266617
  0
LWPOLYLINE
  5
543
100
AcDbEntity
  8
RACCORDO
100
AcDbPolyline
 62
7
  6
CONTINUOUS
 90
13
 70
0
 10
10.5759935445
 20
19.5946810478
 10
10.5482796
 20
19.6130429752
 10
10.5053803813
 20
19.6368337954
 10
10.4611253513
 20
19.655823853
 10
10.4157892985
 20
19.6697561846
 10
10.3707102985
 20
19.6782392337
 10
10.326970267
 20
19.6813971729
 10
10.2844157506
 20
19.6796158329
 10
10.2430125958
 20
19.6730817871
 10
10.2034364589
 20
19.6620520069
 10
10.1660293519
 20
19.6468110485
 10
10.1304724411
 20
19.6272864424
 10
10.1235393777
 20
19.622825074
  0
LWPOLYLINE
  5
544
100
AcDbEntity
  8
ASSI
100
AcDbPolyline
 62
7
  6
CONTINUOUS
 90
13
 70
0
 10
10.5759935445
 20
19.5946810478
 10
10.5482796
 20
19.6130429752
 10
10.5053803813
 20
19.6368337954
 10
10.4611253513
 20
19.655823853
 10
10.4157892985
 20
19.6697561846
 10
10.3707102985
 20
19.6782392337
 10
10.326970267
 20
19.6813971729
 10
10.2844157506
 20
19.6796158329
 10
10.2430125958
 20
19.6730817871
 10
10.2034364589
 20
19.6620520069
 10
10.1660293519
 20
19.6468110485
 10
10.1304724411
 20
19.6272864424
 10
10.1235393777
 20
19.622825074
  0
LWPOLYLINE
  5
545
100
AcDbEntity
  8
RACCORDO
100
AcDbPolyline
 62
250
  6
CONTINUOUS
 90
9
 70
0
 10
10.7997327639
 20
19.4364897741
 10
10.7969587853
 20
19.4383422868
 10
10.7793981316
 20
19.4466080932
 10
10.7593409463
 20
19.4506980618
 10
10.7371153103
 20
19.45054519
 10
10.7130848246
 20
19.446151899
 10
10.6876426118
 20
19.4375899986
 10
10.6612048765
 20
19.4249994924
 10
10.6342041335
 20
19.4085862988
  0
LWPOLYLINE
  5
546
100
AcDbEntity
  8
ASSI
100
AcDbPolyline
 62
250
  6
CONTINUOUS
 90
9
 70
0
 10
10.7997327639
 20
19.4364897741
 10
10.7969587853
 20
19.4383422868
 10
10.7793981316
 20
19.4466080932
 10
10.7593409463
 20
19.4506980618
 10
10.7371153103
 20
19.45054519
 10
10.7130848246
 20
19.446151899
 10
10.6876426118
 20
19.4375899986
 10
10.6612048765
 20
19.4249994924
 10
10.6342041335
 20
19.4085862988
  0
LINE
  5
547
100
AcDbEntity
  8
RACCORDO
100
AcDbLine
 62
250
  6
CONTINUOUS
 10
10.5760015715
 20
19.594692455
 11
10.5730297685
 21
19.5966838735
  0
LINE
  5
548
100
AcDbEntity
  8
ASSI
100
AcDbLine
 62
250
  6
CONTINUOUS
 10
10.5760015715
 20
19.594692455
 11
10.5730297685
 21
19.5966838735
  0
LINE
  5
549
100
AcDbEntity
  8
RACCORDO
100
AcDbLine
 62
7
  6
CONTINUOUS
 10
10.5760015715
 20
19.594692455
 11
10.8000058734
 21
19.4362975672
  0
LINE
  5
54A
100
AcDbEntity
  8
ASSI
100
AcDbLine
 62
7
  6
CONTINUOUS
 10
10.5760015715
 20
19.594692455
 11
10.8000058734
 21
19.4362975672
  0
ARC
  5
54B
100
AcDbEntity
  8
RACCORDO
100
AcDbCircle
 62
7
  6
CONTINUOUS
 10
15.4968180769
 20
-12.4120317399
 40
0.5
100
AcDbArc
 50
306.0476509141
 51
360.0
  0
ARC
  5
54C
100
AcDbEntity
  8
RACCORDO
100
AcDbCircle
 62
7
  6
CONTINUOUS
 10
1.0111737399
 20
23.842350471
 40
0.5
100
AcDbArc
 50
54.7348269431
 51
124.4578359189
  0
ARC
  5
54D
100
AcDbEntity
  8
RACCORDO
100
AcDbCircle
 62
7
  6
CONTINUOUS
 10
15.4968180769
 20
13.5994531304
 40
0.5
100
AcDbArc
 50
359.9916241796
 51
54.7356103172
  0
ARC
  5
54E
100
AcDbEntity
  8
ASSI
100
AcDbCircle
 62
7
  6
CONTINUOUS
 10
15.4968180769
 20
-12.4120317399
 40
0.5
100
AcDbArc
 50
306.0476509141
 51
360.0
  0
ARC
  5
54F
100
AcDbEntity
  8
ASSI
100
AcDbCircle
 62
7
  6
CONTINUOUS
 10
1.0111737399
 20
23.842350471
 40
0.5
100
AcDbArc
 50
54.7348269431
 51
124.4578359189
  0
ARC
  5
550
100
AcDbEntity
  8
ASSI
100
AcDbCircle
 62
7
  6
CONTINUOUS
 10
15.4968180769
 20
13.5994531304
 40
0.5
100
AcDbArc
 50
359.9916241796
 51
54.7356103172
  0
ARC
  5
551
100
AcDbEntity
  8
RACCORDO
100
AcDbCircle
 62
7
  6
CONTINUOUS
 10
17.8812398704
 20
-8.3408411741
 40
0.3
100
AcDbArc
 50
306.0552652923
 51
0.0266630812
  0
ARC
  5
552
100
AcDbEntity
  8
RACCORDO
100
AcDbCircle
 62
7
  6
CONTINUOUS
 10
17.8812398704
 20
-4.1315391102
 40
0.3
100
AcDbArc
 50
359.9732258299
 51
54.7356103172
  0
ARC
  5
553
100
AcDbEntity
  8
ASSI
100
AcDbCircle
 62
7
  6
CONTINUOUS
 10
17.8812398704
 20
-8.3408411741
 40
0.3
100
AcDbArc
 50
306.0552652923
 51
0.0266630812
  0
ARC
  5
554
100
AcDbEntity
  8
ASSI
100
AcDbCircle
 62
7
  6
CONTINUOUS
 10
17.8812398704
 20
-4.1315391102
 40
0.3
100
AcDbArc
 50
359.9732258299
 51
54.7356103172
  0
ELLIPSE
  5
555
100
AcDbEntity
  8
ASSI
100
AcDbEllipse
 62
7
  6
CONTINUOUS
 10
-1.1692932052
 20
-24.2938599333
 30
0.0
 11
-0.1260581489
 21
0.2160083935
 31
0.0
 40
0.582356386
 41
-3.1619144975
 42
-2.4785882443
  0
ELLIPSE
  5
556
100
AcDbEntity
  8
ASSI
100
AcDbEllipse
 62
7
  6
CONTINUOUS
 10
1.9243599264
 20
3.0894660066
 30
0.0
 11
-0.1261138817
 21
0.2158615722
 31
0.0
 40
0.5825499497
 41
-2.4789214683
 42
-0.9082774405
  0
ELLIPSE
  5
557
100
AcDbEntity
  8
RACCORDO
100
AcDbEllipse
 62
7
  6
CONTINUOUS
 10
-1.1692932052
 20
-24.2938599333
 30
0.0
 11
-0.1260581489
 21
0.2160083935
 31
0.0
 40
0.582356386
 41
-3.1619144975
 42
-2.4785882443
  0
ELLIPSE
  5
558
100
AcDbEntity
  8
RACCORDO
100
AcDbEllipse
 62
7
  6
CONTINUOUS
 10
1.9243599264
 20
3.0894660066
 30
0.0
 11
-0.1261138817
 21
0.2158615722
 31
0.0
 40
0.5825499497
 41
-2.4789214683
 42
-0.9082774405
  0
ELLIPSE
  5
559
100
AcDbEntity
  8
RACCORDO
100
AcDbEllipse
 62
7
  6
CONTINUOUS
 10
7.3844852513
 20
11.6295083401
 30
0.0
 11
0.4999984542
 21
0.0017539895
 31
0.0
 40
0.7088477775
 41
-0.7843941306
 42
-0.0024866399
  0
ELLIPSE
  5
55A
100
AcDbEntity
  8
RACCORDO
100
AcDbEllipse
 62
7
  6
CONTINUOUS
 10
-13.5330676546
 20
16.626884998
 30
0.0
 11
-0.1443664662
 21
0.204194318
 31
0.0
 40
0.4998564329
 41
-0.9550797507
 42
0.0140418426
  0
ELLIPSE
  5
55B
100
AcDbEntity
  8
RACCORDO
100
AcDbEllipse
 62
7
  6
CONTINUOUS
 10
0.1886591158
 20
-21.116582453
 30
0.0
 11
0.4350321504
 21
0.6109432118
 31
0.0
 40
0.5017412511
 41
-2.1671676412
 42
-0.613824607
  0
ELLIPSE
  5
55C
100
AcDbEntity
  8
RACCORDO
100
AcDbEllipse
 62
7
  6
CONTINUOUS
 10
5.8455932421
 20
13.5576932723
 30
0.0
 11
0.4431934625
 21
0.6051406104
 31
0.0
 40
0.5086230016
 41
0.0084688338
 42
0.9602948729
  0
ELLIPSE
  5
55D
100
AcDbEntity
  8
ASSI
100
AcDbEllipse
 62
7
  6
CONTINUOUS
 10
4.7184620025
 20
14.1663969686
 30
0.0
 11
0.9923713396
 21
-0.2453362965
 31
0.0
 40
0.502513206
 41
1.7442234332
 42
2.2393966784
  0
ELLIPSE
  5
55E
100
AcDbEntity
  8
RACCORDO
100
AcDbEllipse
 62
7
  6
CONTINUOUS
 10
-4.311522277
 20
20.7186941497
 30
0.0
 11
0.4982513854
 21
0.2564456383
 31
0.0
 40
0.1629189856
 41
0.7017408913
 42
2.2690465596
  0
ELLIPSE
  5
55F
100
AcDbEntity
  8
RACCORDO
100
AcDbEllipse
 62
7
  6
CONTINUOUS
 10
1.4739455115
 20
6.0153242228
 30
0.0
 11
-0.1443526478
 21
0.2041161491
 31
0.0
 40
0.5001435998
 41
-2.5260452923
 42
-0.955553552
  0
ELLIPSE
  5
560
100
AcDbEntity
  8
RACCORDO
100
AcDbEllipse
 62
7
  6
CONTINUOUS
 10
1.4739455115
 20
-25.3965662669
 30
0.0
 11
-0.1443664662
 21
0.204194318
 31
0.0
 40
0.4998564329
 41
-3.1556345303
 42
-2.526180664
  0
ELLIPSE
  5
561
100
AcDbEntity
  8
RACCORDO
100
AcDbEllipse
 62
7
  6
CONTINUOUS
 10
-3.1261836584
 20
19.9016975579
 30
0.0
 11
0.423037069
 21
0.619396951
 31
0.0
 40
0.4911738445
 41
5.6597153096
 42
7.2270209779
  0
ELLIPSE
  5
562
100
AcDbEntity
  8
RACCORDO
100
AcDbEllipse
 62
7
  6
CONTINUOUS
 10
6.9374168407
 20
12.7856574018
 30
0.0
 11
-0.4812353963
 21
0.9352893846
 31
0.0
 40
0.6124706173
 41
4.8015483854
 42
6.3688540537
  0
ELLIPSE
  5
563
100
AcDbEntity
  8
RACCORDO
100
AcDbEllipse
 62
7
  6
CONTINUOUS
 10
-11.0934900178
 20
15.6415607378
 30
0.0
 11
0.7999975989
 21
-0.0027788122
 31
0.0
 40
0.7053571686
 41
2.376097854
 42
3.9294408883
  0
ELLIPSE
  5
564
100
AcDbEntity
  8
RACCORDO
100
AcDbEllipse
 62
7
  6
CONTINUOUS
 10
1.9745013541
 20
3.1902287045
 30
0.0
 11
0.4431934625
 21
0.6051406104
 31
0.0
 40
0.5086230016
 41
-0.6070107954
 42
0.9463322389
  0
ELLIPSE
  5
565
100
AcDbEntity
  8
RACCORDO
100
AcDbEllipse
 62
7
  6
CONTINUOUS
 10
-0.9772838968
 20
8.4883227898
 30
0.0
 11
0.7999975989
 21
-0.0027788122
 31
0.0
 40
0.7053571686
 41
2.376097854
 42
3.9294408883
  0
ELLIPSE
  5
566
100
AcDbEntity
  8
RACCORDO
100
AcDbEllipse
 62
7
  6
CONTINUOUS
 10
-2.3391361811
 20
3.3461643926
 30
0.0
 11
-0.1443526478
 21
0.2041161491
 31
0.0
 40
0.5001435998
 41
-2.5260452923
 42
-0.955553552
  0
ELLIPSE
  5
567
100
AcDbEntity
  8
RACCORDO
100
AcDbEllipse
 62
7
  6
CONTINUOUS
 10
-17.2153178426
 20
13.8652133236
 30
0.0
 11
-0.1443664662
 21
0.204194318
 31
0.0
 40
0.4998564329
 41
-0.9550797507
 42
0.6154119896
  0
ELLIPSE
  5
568
100
AcDbEntity
  8
RACCORDO
100
AcDbEllipse
 62
7
  6
CONTINUOUS
 10
-2.9524926118
 20
19.5856544245
 30
0.0
 11
0.2820247126
 21
0.4129313007
 31
0.0
 40
0.4911738445
 41
-0.0079902892
 42
0.5982604788
  0
ELLIPSE
  5
569
100
AcDbEntity
  8
RACCORDO
100
AcDbEllipse
 62
7
  6
CONTINUOUS
 10
-11.0818382463
 20
15.0704076844
 30
0.0
 11
0.7999343791
 21
0.0143161941
 31
0.0
 40
0.715722522
 41
-2.3690028686
 42
-0.8156598343
  0
ELLIPSE
  5
56A
100
AcDbEntity
  8
RACCORDO
100
AcDbEllipse
 62
7
  6
CONTINUOUS
 10
-11.0934900178
 20
15.0786467311
 30
0.0
 11
0.7999343791
 21
0.0143161941
 31
0.0
 40
0.715722522
 41
3.1287842759
 42
3.9141824386
  0
ELLIPSE
  5
56B
100
AcDbEntity
  8
RACCORDO
100
AcDbEllipse
 62
7
  6
CONTINUOUS
 10
-0.9772838968
 20
7.9254087831
 30
0.0
 11
0.7999343791
 21
0.0143161941
 31
0.0
 40
0.715722522
 41
3.1287842759
 42
3.9141824386
  0
ELLIPSE
  5
56C
100
AcDbEntity
  8
RACCORDO
100
AcDbEllipse
 62
7
  6
CONTINUOUS
 10
-0.9656321253
 20
7.9171697364
 30
0.0
 11
0.7999343791
 21
0.0143161941
 31
0.0
 40
0.715722522
 41
-2.3690028686
 42
-0.8156598343
  0
ELLIPSE
  5
56D
100
AcDbEntity
  8
RACCORDO
100
AcDbEllipse
 62
7
  6
CONTINUOUS
 10
-2.3391361811
 20
-27.9348945925
 30
0.0
 11
-0.1443664662
 21
0.204194318
 31
0.0
 40
0.4998564329
 41
2.1865129029
 42
3.7570046432
  0
ELLIPSE
  5
56E
100
AcDbEntity
  8
RACCORDO
100
AcDbEllipse
 62
7
  6
CONTINUOUS
 10
1.9745013541
 20
-22.3793636098
 30
0.0
 11
0.4431934625
 21
0.6051406104
 31
0.0
 40
0.5086230016
 41
-2.1603538297
 42
-0.6070107954
  0
ELLIPSE
  5
56F
100
AcDbEntity
  8
RACCORDO
100
AcDbEllipse
 62
7
  6
CONTINUOUS
 10
-0.9656321253
 20
8.4800837431
 30
0.0
 11
0.7999975989
 21
-0.0027788122
 31
0.0
 40
0.7053571686
 41
-2.3537444189
 42
-0.8004013846
  0
ELLIPSE
  5
570
100
AcDbEntity
  8
RACCORDO
100
AcDbEllipse
 62
7
  6
CONTINUOUS
 10
-11.0818382463
 20
15.6333216911
 30
0.0
 11
0.7999975989
 21
-0.0027788122
 31
0.0
 40
0.7053571686
 41
-2.3537444189
 42
-0.8004013846
  0
ELLIPSE
  5
571
100
AcDbEntity
  8
RACCORDO
100
AcDbEllipse
 62
7
  6
CONTINUOUS
 10
-4.6885267062
 20
18.8910716566
 30
0.0
 11
0.1181849233
 21
0.1613708294
 31
0.0
 40
0.5086230016
 41
-1.2895259192
 42
-0.6070107954
  0
ELLIPSE
  5
572
100
AcDbEntity
  8
ASSI
100
AcDbEllipse
 62
7
  6
CONTINUOUS
 10
-2.3526058094
 20
19.1663969686
 30
0.0
 11
0.9923713396
 21
-0.2453362965
 31
0.0
 40
0.502513206
 41
-0.4214019761
 42
0.0737712691
  0
ELLIPSE
  5
573
100
AcDbEntity
  8
RACCORDO
100
AcDbEllipse
 62
7
  6
CONTINUOUS
 10
-4.218007257
 20
20.6737334284
 30
0.0
 11
0.7492511846
 21
0.3855014265
 31
0.0
 40
0.1621281577
 41
-0.8675944857
 42
0.6997111826
  0
ELLIPSE
  5
574
100
AcDbEntity
  8
RACCORDO
100
AcDbEllipse
 62
7
  6
CONTINUOUS
 10
7.3844852513
 20
12.4483679137
 30
0.0
 11
-0.3236603149
 21
0.6217275068
 31
0.0
 40
0.6129838311
 41
-3.0567677693
 42
-1.489462101
  0
ELLIPSE
  5
575
100
AcDbEntity
  8
CURVE
100
AcDbEllipse
 62
250
  6
CONTINUOUS
 10
5.5643687134
 20
4.4357060945
 30
0.0
 11
0.326785345
 21
0.4703051622
 31
0.0
 40
0.4956238384
 41
-3.7611860153
 42
-2.4444273692
  0
ELLIPSE
  5
576
100
AcDbEntity
  8
CURVE
100
AcDbEllipse
 62
250
  6
CONTINUOUS
 10
9.5419613461
 20
0.1204014665
 30
0.0
 11
0.4212445495
 21
0.6062496044
 31
0.0
 40
0.4956238384
 41
-3.7611860153
 42
-0.6195933617
  0
ELLIPSE
  5
577
100
AcDbEntity
  8
CURVE
100
AcDbEllipse
 62
250
  6
CONTINUOUS
 10
9.5419613461
 20
0.5666820119
 30
0.0
 11
0.4212445495
 21
0.6062496044
 31
0.0
 40
0.4956238384
 41
-3.7611860153
 42
-0.6195933617
  0
ELLIPSE
  5
578
100
AcDbEntity
  8
CURVE
100
AcDbEllipse
 62
250
  6
CONTINUOUS
 10
9.5419613461
 20
1.0129625574
 30
0.0
 11
0.4212445495
 21
0.6062496044
 31
0.0
 40
0.4956238384
 41
-3.7611860153
 42
-0.6195933617
  0
ELLIPSE
  5
579
100
AcDbEntity
  8
CURVE
100
AcDbEllipse
 62
250
  6
CONTINUOUS
 10
11.3959348666
 20
1.7346641362
 30
0.0
 11
0.1539601041
 21
0.2215773529
 31
0.0
 40
0.4956238384
 41
0.951202965
 42
4.9561105302
  0
ELLIPSE
  5
57A
100
AcDbEntity
  8
CURVE
100
AcDbEllipse
 62
250
  6
CONTINUOUS
 10
11.8936035484
 20
2.0927651638
 30
0.0
 11
0.1539601041
 21
0.2215773529
 31
0.0
 40
0.4956238384
 41
4.0927956186
 42
8.0977031838
  0
ENDSEC
  0
SECTION
  2
OBJECTS
  0
DICTIONARY
  5
C
100
AcDbDictionary
280
0
281
1
  3
ACAD_GROUP
350
D
  3
ACAD_MLINESTYLE
350
17
  3
ACAD_LAYOUT
350
1A
  3
ACAD_PLOTSETTINGS
350
19
  3
ACAD_PLOTSTYLENAME
350
E
  0
DICTIONARY
  5
D
102
{ACAD_REACTORS
330
C
102
}
100
AcDbDictionary
280
0
281
1
  0
ACDBDICTIONARYWDFLT
  5
E
102
{ACAD_REACTORS
330
C
102
}
100
AcDbDictionary
281
1
  3
Normal
350
F
100
AcDbDictionaryWithDefault
340
F
  0
DICTIONARY
  5
17
102
{ACAD_REACTORS
330
C
102
}
100
AcDbDictionary
280
0
281
1
  3
Standard
350
18
  0
DICTIONARY
  5
19
102
{ACAD_REACTORS
330
C
102
}
100
AcDbDictionary
281
1
  0
DICTIONARY
  5
1A
102
{ACAD_REACTORS
330
C
102
}
100
AcDbDictionary
281
1
  3
Model
350
57B
  3
Layout1
350
57C
  0
ACDBPLACEHOLDER
  5
F
102
{ACAD_REACTORS
330
E
102
}
  0
MLINESTYLE
  5
18
102
{ACAD_REACTORS
330
17
102
}
100
AcDbMlineStyle
  2
STANDARD
 70
0
  3

 62
256
 51
90.0
 52
90.0
 71
2
 49
0.5
 62
256
  6
BYLAYER
 49
-0.5
 62
256
  6
BYLAYER
  0
LAYOUT
  5
57B
102
{ACAD_REACTORS
330
1A
102
}
100
AcDbPlotSettings
  1

  2
none_device
  4
ISO_A4_(297.00_x_210.00_MM)
  6

 40
0.0
 41
0.0
 42
0.0
 43
0.0
 44
297.0
 45
210.0
 46
0.0
 47
0.0
 48
0.0
 49
0.0
140
0.0
141
0.0
142
1.0
143
1.0
 70
1024
 72
1
 73
0
 74
0
  7

 75
0
147
1.0
148
0.0
149
0.0
100
AcDbLayout
  1
Model
 70
0
 71
0
 10
0.0
 20
0.0
 11
297.0
 21
210.0
 12
0.0
 22
0.0
 32
0.0
 14
0.0
 24
0.0
 34
0.0
 15
0.0
 25
0.0
 35
0.0
146
0.0
 13
0.0
 23
0.0
 33
0.0
 16
1.0
 26
0.0
 36
0.0
 17
0.0
 27
1.0
 37
0.0
 76
0
330
21C
345
0
346
0
  0
LAYOUT
  5
57C
102
{ACAD_REACTORS
330
1A
102
}
100
AcDbPlotSettings
  1

  2
none_device
  4
ISO_A4_(297.00_x_210.00_MM)
  6

 40
0.0
 41
0.0
 42
0.0
 43
0.0
 44
297.0
 45
210.0
 46
0.0
 47
0.0
 48
0.0
 49
0.0
140
0.0
141
0.0
142
1.0
143
1.0
 70
0
 72
1
 73
0
 74
0
  7

 75
0
147
1.0
148
0.0
149
0.0
100
AcDbLayout
  1
Layout1
 70
0
 71
1
 10
0.0
 20
0.0
 11
297.0
 21
210.0
 12
0.0
 22
0.0
 32
0.0
 14
0.0
 24
0.0
 34
0.0
 15
0.0
 25
0.0
 35
0.0
146
0.0
 13
0.0
 23
0.0
 33
0.0
 16
1.0
 26
0.0
 36
0.0
 17
0.0
 27
1.0
 37
0.0
 76
0
330
21D
345
0
346
0
  0
ENDSEC
  0
EOF
