  0
SECTION
  2
HEADER
  9
$ACADVER
  1
AC1024
  9
$DWGCODEPAGE
  3
ANSI_1252
  9
$EXTMAX
 10
297.0
 20
210.0
 30
0.0
  9
$EXTMIN
 10
0.0
 20
0.0
 30
0.0
  9
$LIMMIN
 10
0.0
 20
0.0
  9
$LIMMAX
 10
297.0
 20
210.0
  9
$VIEWCTR
 10
148.5
 20
105.0
  9
$VIEWSIZE
 40
210.0
  9
$CLAYER
  8
0
  9
$LTSCALE
 40
16.335
  9
$CELTYPE
  6
BYLAYER
  9
$DIMSCALE
 40
1.0
  9
$DIMASZ
 40
3.0
  9
$DIMEXO
 40
0.5
  9
$DIMDLI
 40
11.286
  9
$DIMEXE
 40
1.5
  9
$DIMCEN
 40
2.673
  9
$DIMLFAC
 40
1.0
  9
$DIMBLK
  1
_FILLED
  9
$DIMALT
 70
0
  9
$DIMALTF
 40
0.0393700787
  9
$DIMTXT
 40
3.0
  9
$DIMTOL
 70
1
  9
$DIMLIM
 70
0
  9
$DIMTFAC
 40
1.0
  9
$DIMTP
 40
0.01
  9
$DIMTM
 40
0.01
  9
$DIMGAP
 40
0.625
  9
$DIMDSEP
 70
44
  9
$AUNITS
 70
0
  9
$PDMODE
 70
3
  9
$PDSIZE
 40
3.0
  9
$HANDSEED
  5
4D4
  9
$TILEMODE
 70
1
  9
$MEASUREMENT
 70
1
  9
$INSUNITS
 70
4
  0
ENDSEC
  0
SECTION
  2
CLASSES
  0
CLASS
  1
ACDBDICTIONARYWDFLT
  2
AcDbDictionaryWithDefault
  3
AutoCAD 2000
 90
0
 91
1
280
0
281
0
  0
CLASS
  1
ACDBPLACEHOLDER
  2
AcDbPlaceHolder
  3
AutoCAD 2000
 90
0
 91
1
280
0
281
0
  0
CLASS
  1
LAYOUT
  2
AcDbLayout
  3
AutoCAD 2000
 90
0
 91
0
280
0
281
0
  0
ENDSEC
  0
SECTION
  2
TABLES
  0
TABLE
  2
VPORT
  5
8
100
AcDbSymbolTable
 70
2
  0
VPORT
  5
1F4
100
AcDbSymbolTableRecord
100
AcDbViewportTableRecord
  2
*ACTIVE
 70
0
 10
0.0
 20
0.0
 11
1.0
 21
1.0
 12
148.5
 22
105.0
 13
0.0
 23
0.0
 14
1.0
 24
1.0
 15
0.0
 25
0.0
 16
0.0
 26
0.0
 36
1.0
 17
0.0
 27
0.0
 37
0.0
 40
210.0
 41
1.4142857143
 42
50.0
 43
0.0
 44
0.0
 50
0.0
 51
0.0
 71
0
 72
100
 73
1
 74
1
 75
0
 76
0
 77
0
 78
0
  0
ENDTAB
  0
TABLE
  2
LTYPE
  5
5
100
AcDbSymbolTable
 70
6
  0
LTYPE
  5
14
100
AcDbSymbolTableRecord
100
AcDbLinetypeTableRecord
  2
BYBLOCK
 70
0
  3

 72
65
 73
0
 40
0.0
  0
LTYPE
  5
15
100
AcDbSymbolTableRecord
100
AcDbLinetypeTableRecord
  2
BYLAYER
 70
0
  3

 72
65
 73
0
 40
0.0
  0
LTYPE
  5
16
100
AcDbSymbolTableRecord
100
AcDbLinetypeTableRecord
  2
CONTINUOUS
 70
64
  3
Solid line
 72
65
 73
0
 40
0.0
  0
LTYPE
  5
1F5
100
AcDbSymbolTableRecord
100
AcDbLinetypeTableRecord
  2
CENTER
 70
64
  3
____ _ ____ _ ____ _ ____ _ ____ _ ____ _ ____
 72
65
 73
4
 40
0.6
 49
0.375
 74
0
 49
-0.075
 74
0
 49
0.075
 74
0
 49
-0.075
 74
0
  0
LTYPE
  5
1F6
100
AcDbSymbolTableRecord
100
AcDbLinetypeTableRecord
  2
HIDDEN
 70
64
  3
- - - - - - - - - - - - - - - - - - - -
 72
65
 73
2
 40
0.2
 49
0.1
 74
0
 49
-0.1
 74
0
  0
LTYPE
  5
1F7
100
AcDbSymbolTableRecord
100
AcDbLinetypeTableRecord
  2
PHANTOM
 70
64
  3
_____ _ _ _____ _ _ _____ _ _ _____
 72
65
 73
6
 40
0.8
 49
0.45
 74
0
 49
-0.05
 74
0
 49
0.1
 74
0
 49
-0.05
 74
0
 49
0.1
 74
0
 49
-0.05
 74
0
  0
LTYPE
  5
1F8
100
AcDbSymbolTableRecord
100
AcDbLinetypeTableRecord
  2
DOT
 70
64
  3
. . . . . . . . . . . . . . . . . . . .
 72
65
 73
2
 40
0.2
 49
0.1
 74
0
 49
-0.1
 74
0
  0
LTYPE
  5
1F9
100
AcDbSymbolTableRecord
100
AcDbLinetypeTableRecord
  2
DASHED
 70
64
  3
- - - - - - - - - - - - - - - - - - - -
 72
65
 73
2
 40
0.2
 49
0.1
 74
0
 49
-0.1
 74
0
  0
ENDTAB
  0
TABLE
  2
LAYER
  5
2
100
AcDbSymbolTable
 70
36
  0
LAYER
  5
10
100
AcDbSymbolTableRecord
100
AcDbLayerTableRecord
  2
0
 70
0
 62
7
  6
CONTINUOUS
370
-3
390
F
  0
LAYER
  5
1FA
100
AcDbSymbolTableRecord
100
AcDbLayerTableRecord
  2
DEFAULT_1
 70
0
 62
7
  6
CENTER
370
-3
390
F
  0
LAYER
  5
1FB
100
AcDbSymbolTableRecord
100
AcDbLayerTableRecord
  2
DEFAULT_2
 70
0
 62
7
  6
HIDDEN
370
-3
390
F
  0
LAYER
  5
1FC
100
AcDbSymbolTableRecord
100
AcDbLayerTableRecord
  2
DEFAULT_3
 70
0
 62
7
  6
PHANTOM
370
-3
390
F
  0
LAYER
  5
1FD
100
AcDbSymbolTableRecord
100
AcDbLayerTableRecord
  2
ASSI
 70
0
 62
7
  6
CONTINUOUS
370
-3
390
F
  0
LAYER
  5
1FE
100
AcDbSymbolTableRecord
100
AcDbLayerTableRecord
  2
COORDINATE
 70
0
 62
7
  6
CONTINUOUS
370
-3
390
F
  0
LAYER
  5
1FF
100
AcDbSymbolTableRecord
100
AcDbLayerTableRecord
  2
COORD_ORIGINE
 70
0
 62
7
  6
CONTINUOUS
370
-3
390
F
  0
LAYER
  5
200
100
AcDbSymbolTableRecord
100
AcDbLayerTableRecord
  2
COPY_PUBLISH
 70
0
 62
7
  6
CONTINUOUS
370
-3
390
F
  0
LAYER
  5
201
100
AcDbSymbolTableRecord
100
AcDbLayerTableRecord
  2
COSMETIC
 70
0
 62
7
  6
CONTINUOUS
370
-3
390
F
  0
LAYER
  5
202
100
AcDbSymbolTableRecord
100
AcDbLayerTableRecord
  2
COSMETICHE
 70
0
 62
7
  6
CONTINUOUS
370
-3
390
F
  0
LAYER
  5
203
100
AcDbSymbolTableRecord
100
AcDbLayerTableRecord
  2
COSMETICI
 70
0
 62
7
  6
CONTINUOUS
370
-3
390
F
  0
LAYER
  5
204
100
AcDbSymbolTableRecord
100
AcDbLayerTableRecord
  2
CURVE
 70
0
 62
7
  6
CONTINUOUS
370
-3
390
F
  0
LAYER
  5
205
100
AcDbSymbolTableRecord
100
AcDbLayerTableRecord
  2
CURVE1
 70
0
 62
7
  6
CONTINUOUS
370
-3
390
F
  0
LAYER
  5
206
100
AcDbSymbolTableRecord
100
AcDbLayerTableRecord
  2
DRAFT
 70
0
 62
7
  6
CONTINUOUS
370
-3
390
F
  0
LAYER
  5
207
100
AcDbSymbolTableRecord
100
AcDbLayerTableRecord
  2
IGES
 70
0
 62
7
  6
CONTINUOUS
370
-3
390
F
  0
LAYER
  5
208
100
AcDbSymbolTableRecord
100
AcDbLayerTableRecord
  2
IMPORT
 70
0
 62
7
  6
CONTINUOUS
370
-3
390
F
  0
LAYER
  5
209
100
AcDbSymbolTableRecord
100
AcDbLayerTableRecord
  2
IMPORT_IGES
 70
0
 62
7
  6
CONTINUOUS
370
-3
390
F
  0
LAYER
  5
20A
100
AcDbSymbolTableRecord
100
AcDbLayerTableRecord
  2
INCISIONI
 70
0
 62
7
  6
CONTINUOUS
370
-3
390
F
  0
LAYER
  5
20B
100
AcDbSymbolTableRecord
100
AcDbLayerTableRecord
  2
INTF_1
 70
0
 62
7
  6
CONTINUOUS
370
-3
390
F
  0
LAYER
  5
20C
100
AcDbSymbolTableRecord
100
AcDbLayerTableRecord
  2
INTF_11
 70
0
 62
7
  6
CONTINUOUS
370
-3
390
F
  0
LAYER
  5
20D
100
AcDbSymbolTableRecord
100
AcDbLayerTableRecord
  2
INTF_2
 70
0
 62
7
  6
CONTINUOUS
370
-3
390
F
  0
LAYER
  5
20E
100
AcDbSymbolTableRecord
100
AcDbLayerTableRecord
  2
LAY0001
 70
0
 62
7
  6
CONTINUOUS
370
-3
390
F
  0
LAYER
  5
20F
100
AcDbSymbolTableRecord
100
AcDbLayerTableRecord
  2
LAYER_PIANI_CONTATTI
 70
0
 62
7
  6
CONTINUOUS
370
-3
390
F
  0
LAYER
  5
210
100
AcDbSymbolTableRecord
100
AcDbLayerTableRecord
  2
NOTE
 70
0
 62
7
  6
CONTINUOUS
370
-3
390
F
  0
LAYER
  5
211
100
AcDbSymbolTableRecord
100
AcDbLayerTableRecord
  2
PIANI
 70
0
 62
7
  6
CONTINUOUS
370
-3
390
F
  0
LAYER
  5
212
100
AcDbSymbolTableRecord
100
AcDbLayerTableRecord
  2
PIANI_DI_RIFERIMENTO
 70
0
 62
7
  6
CONTINUOUS
370
-3
390
F
  0
LAYER
  5
213
100
AcDbSymbolTableRecord
100
AcDbLayerTableRecord
  2
PIANI_ORIGINE
 70
0
 62
7
  6
CONTINUOUS
370
-3
390
F
  0
LAYER
  5
214
100
AcDbSymbolTableRecord
100
AcDbLayerTableRecord
  2
PIANI_QUOTA
 70
0
 62
7
  6
CONTINUOUS
370
-3
390
F
  0
LAYER
  5
215
100
AcDbSymbolTableRecord
100
AcDbLayerTableRecord
  2
PUNTI
 70
0
 62
7
  6
CONTINUOUS
370
-3
390
F
  0
LAYER
  5
216
100
AcDbSymbolTableRecord
100
AcDbLayerTableRecord
  2
RACCORDO
 70
0
 62
7
  6
CONTINUOUS
370
-3
390
F
  0
LAYER
  5
217
100
AcDbSymbolTableRecord
100
AcDbLayerTableRecord
  2
RGB__255__255__255__
 70
0
 62
7
  6
CONTINUOUS
370
-3
390
F
  0
LAYER
  5
218
100
AcDbSymbolTableRecord
100
AcDbLayerTableRecord
  2
RGB____0____0____0__
 70
0
 62
7
  6
CONTINUOUS
370
-3
390
F
  0
LAYER
  5
219
100
AcDbSymbolTableRecord
100
AcDbLayerTableRecord
  2
SIMBOLI
 70
0
 62
7
  6
CONTINUOUS
370
-3
390
F
  0
LAYER
  5
21A
100
AcDbSymbolTableRecord
100
AcDbLayerTableRecord
  2
SMUSSO
 70
0
 62
7
  6
CONTINUOUS
370
-3
390
F
  0
LAYER
  5
21B
100
AcDbSymbolTableRecord
100
AcDbLayerTableRecord
  2
SNAPLINE
 70
0
 62
7
  6
CONTINUOUS
370
-3
390
F
  0
LAYER
  5
21C
100
AcDbSymbolTableRecord
100
AcDbLayerTableRecord
  2
SUPERFICI
 70
0
 62
7
  6
CONTINUOUS
370
-3
390
F
  0
LAYER
  5
21D
100
AcDbSymbolTableRecord
100
AcDbLayerTableRecord
  2
TRASH
 70
0
 62
7
  6
CONTINUOUS
370
-3
390
F
  0
LAYER
  5
21E
100
AcDbSymbolTableRecord
100
AcDbLayerTableRecord
  2
XSEC_DATUMS
 70
0
 62
7
  6
CONTINUOUS
370
-3
390
F
  0
ENDTAB
  0
TABLE
  2
STYLE
  5
3
100
AcDbSymbolTable
 70
1
  0
STYLE
  5
11
100
AcDbSymbolTableRecord
100
AcDbTextStyleTableRecord
  2
STANDARD
 70
0
 40
0.0
 41
0.8
 50
0.0
 71
0
 42
0.2
  3
txt
  4

  0
STYLE
  5
21F
100
AcDbSymbolTableRecord
100
AcDbTextStyleTableRecord
  2
TEXTSTYLE_1
 70
0
 40
0.0
 41
0.8
 50
0.0
 71
0
 42
0.2
  3
gdt
  4

  0
ENDTAB
  0
TABLE
  2
VIEW
  5
6
100
AcDbSymbolTable
 70
0
  0
ENDTAB
  0
TABLE
  2
UCS
  5
7
100
AcDbSymbolTable
 70
0
  0
ENDTAB
  0
TABLE
  2
APPID
  5
9
100
AcDbSymbolTable
 70
1
  0
APPID
  5
220
100
AcDbSymbolTableRecord
100
AcDbRegAppTableRecord
  2
ACAD
 70
0
  0
ENDTAB
  0
TABLE
  2
BLOCK_RECORD
  5
1
100
AcDbSymbolTable
 70
0
  0
BLOCK_RECORD
  5
221
100
AcDbSymbolTableRecord
100
AcDbBlockTableRecord
  2
*Model_Space
  0
BLOCK_RECORD
  5
222
100
AcDbSymbolTableRecord
100
AcDbBlockTableRecord
  2
*Paper_Space
  0
BLOCK_RECORD
  5
223
100
AcDbSymbolTableRecord
100
AcDbBlockTableRecord
  2
_FILLED
  0
ENDTAB
  0
TABLE
  2
DIMSTYLE
  5
A
100
AcDbSymbolTable
 70
1
100
AcDbDimStyleTable
 71
0
  0
DIMSTYLE
105
224
100
AcDbSymbolTableRecord
100
AcDbDimStyleTableRecord
  2
STANDARD
 70
0
  3

  4

 40
1.0
 41
3.0
 42
0.5
 43
0.38
 44
1.5
 45
0.0
 46
0.0
 47
0.01
 48
0.01
140
3.0
141
0.09
142
0.0
143
25.4
144
1.0
145
0.0
146
1.0
147
0.625
 71
1
 72
0
 73
0
 74
0
 75
0
 76
0
 77
1
 78
8
 79
2
170
0
171
1
172
0
173
0
174
0
175
0
176
0
177
0
178
0
270
2
179
2
271
2
272
2
273
2
274
2
275
0
280
0
281
0
282
0
283
1
284
8
285
0
286
0
287
3
288
0
340
11
278
44
341
223
342
223
343
223
344
223
  0
ENDTAB
  0
ENDSEC
  0
SECTION
  2
BLOCKS
  0
BLOCK
  5
20
100
AcDbEntity
  8
0
100
AcDbBlockBegin
  2
*Model_Space
 70
0
 10
0.0
 20
0.0
 30
0.0
  3
*Model_Space
  1

  0
ENDBLK
  5
21
100
AcDbEntity
  8
0
100
AcDbBlockEnd
  0
BLOCK
  5
1C
100
AcDbEntity
  8
0
100
AcDbBlockBegin
  2
*Paper_Space
 70
0
 10
0.0
 20
0.0
 30
0.0
  3
*Paper_Space
  1

  0
ENDBLK
  5
1D
100
AcDbEntity
  8
0
100
AcDbBlockEnd
  0
BLOCK
  5
225
100
AcDbEntity
  8
0
100
AcDbBlockBegin
  2
_FILLED
 70
64
 10
0.0
 20
0.0
  3
_FILLED
  1

  0
SOLID
  5
226
100
AcDbEntity
  8
0
  6
BYBLOCK
 62
0
100
AcDbTrace
 10
0.0
 20
0.0
 11
-1.0
 21
0.3166666667
 12
-1.0
 22
-0.3166666667
 13
-1.0
 23
-0.3166666667
  0
ENDBLK
  5
227
100
AcDbEntity
  8
0
  6
BYBLOCK
 62
0
100
AcDbBlockEnd
  0
ENDSEC
  0
SECTION
  2
ENTITIES
  0
LINE
  5
228
100
AcDbEntity
  8
RACCORDO
100
AcDbLine
 62
7
  6
CONTINUOUS
 10
-16.8333060274
 20
20.4920854875
 11
-13.2902549889
 21
22.3712131237
  0
LINE
  5
229
100
AcDbEntity
  8
RACCORDO
100
AcDbLine
 62
250
  6
CONTINUOUS
 10
-16.7192540212
 20
20.4861568621
 11
-13.1764691997
 21
22.3651433048
  0
LINE
  5
22A
100
AcDbEntity
  8
RACCORDO
100
AcDbLine
 62
250
  6
CONTINUOUS
 10
-16.8333060274
 20
20.4920854875
 11
-16.8329827133
 21
20.4922561474
  0
LWPOLYLINE
  5
22B
100
AcDbEntity
  8
RACCORDO
100
AcDbPolyline
 62
250
  6
CONTINUOUS
 90
7
 70
0
 10
-19.3109059924
 20
14.9116318598
 10
-19.2573509784
 20
15.0120973157
 10
-19.1995064316
 20
15.1046702562
 10
-19.1387252005
 20
15.1886963501
 10
-19.0759189445
 20
15.2641461014
 10
-19.0120282465
 20
15.3309400575
 10
-18.9480757988
 20
15.3889970005
  0
LINE
  5
22C
100
AcDbEntity
  8
RACCORDO
100
AcDbLine
 62
7
  6
CONTINUOUS
 10
-11.3413337004
 20
22.0055842599
 11
-11.4101746495
 21
21.941579685
  0
LWPOLYLINE
  5
22D
100
AcDbEntity
  8
RACCORDO
100
AcDbPolyline
 62
7
  6
CONTINUOUS
 90
8
 70
0
 10
-19.0004131461
 20
15.4433955141
 10
-19.1346851425
 20
15.3281563584
 10
-19.2495200008
 20
15.1960517986
 10
-19.3494946491
 20
15.045388094
 10
-19.4304615953
 20
14.8826590337
 10
-19.4900906919
 20
14.7135786518
 10
-19.5268338362
 20
14.5413981413
 10
-19.5380801203
 20
14.4133473122
  0
LINE
  5
22E
100
AcDbEntity
  8
RACCORDO
100
AcDbLine
 62
250
  6
CONTINUOUS
 10
-18.9480757988
 20
15.3889970005
 11
-18.8848733388
 21
15.4385052516
  0
LINE
  5
22F
100
AcDbEntity
  8
RACCORDO
100
AcDbLine
 62
7
  6
CONTINUOUS
 10
-19.0011383119
 20
15.4428794997
 11
-16.6651765644
 21
17.1403305588
  0
LINE
  5
230
100
AcDbEntity
  8
RACCORDO
100
AcDbLine
 62
250
  6
CONTINUOUS
 10
-18.8848733388
 20
15.4385052516
 11
-16.5412027422
 21
17.1415580266
  0
LINE
  5
231
100
AcDbEntity
  8
RACCORDO
100
AcDbLine
 62
250
  6
CONTINUOUS
 10
-19.0011383119
 20
15.4428794997
 11
-19.0004149025
 21
15.4433979717
  0
LINE
  5
232
100
AcDbEntity
  8
RACCORDO
100
AcDbLine
 62
7
  6
CONTINUOUS
 10
-11.256311766
 20
22.0631820993
 11
-11.3413337004
 21
22.0055842599
  0
LWPOLYLINE
  5
233
100
AcDbEntity
  8
RACCORDO
100
AcDbPolyline
 62
250
  6
CONTINUOUS
 90
27
 70
0
 10
-11.1391063899
 20
22.0587193285
 10
-11.1621497711
 20
22.0438006772
 10
-11.1829929105
 20
22.0287839536
 10
-11.2016358083
 20
22.0136691577
 10
-11.2179477502
 20
21.9984675604
 10
-11.2320594503
 20
21.9831678908
 10
-11.2443630514
 20
21.9677363358
 10
-11.2549527941
 20
21.9521615341
 10
-11.2637344376
 20
21.9364548471
 10
-11.2708174032
 20
21.9206165462
 10
-11.2762456003
 20
21.904625222
 10
-11.2799751194
 20
21.8885022839
 10
-11.2819836527
 20
21.8723122313
 10
-11.2822794898
 20
21.8560383319
 10
-11.2808543412
 20
21.839697318
 10
-11.2776610302
 20
21.8234038851
 10
-11.2726803948
 20
21.8071383666
 10
-11.2659315971
 20
21.7909204292
 10
-11.2574249463
 20
21.774923768
 10
-11.2471240937
 20
21.7591429679
 10
-11.235065388
 20
21.7435834441
 10
-11.2213681857
 20
21.7284351365
 10
-11.2060119766
 20
21.7137131202
 10
-11.1890172708
 20
21.6994023203
 10
-11.1705649551
 20
21.6856474523
 10
-11.150715325
 20
21.6724967549
 10
-11.129408085
 20
21.6599019895
  0
LWPOLYLINE
  5
234
100
AcDbEntity
  8
RACCORDO
100
AcDbPolyline
 62
250
  6
CONTINUOUS
 90
10
 70
0
 10
-11.106643235
 20
21.6478631561
 10
-11.1371470285
 20
21.6290322411
 10
-11.1666878689
 20
21.6042848668
 10
-11.1943780933
 20
21.5743646589
 10
-11.2193856473
 20
21.5401706799
 10
-11.2409590869
 20
21.5027304135
 10
-11.258450159
 20
21.4631688899
 10
-11.2713332802
 20
21.4226748804
 10
-11.2792213298
 20
21.3824651761
 10
-11.2818772822
 20
21.3437480254
  0
LWPOLYLINE
  5
235
100
AcDbEntity
  8
RACCORDO
100
AcDbPolyline
 62
250
  6
CONTINUOUS
 90
10
 70
0
 10
-11.0858240056
 20
21.6374535413
 10
-11.1163274457
 20
21.6186228855
 10
-11.1458680575
 20
21.5938758135
 10
-11.1735581868
 20
21.5639558764
 10
-11.1985657769
 20
21.5297620618
 10
-11.2201393471
 20
21.4923218179
 10
-11.2376305874
 20
21.4527601923
 10
-11.2505138734
 20
21.4122659711
 10
-11.2584020506
 20
21.37205595
 10
-11.2610580526
 20
21.3333384106
  0
LWPOLYLINE
  5
236
100
AcDbEntity
  8
RACCORDO
100
AcDbPolyline
 62
7
  6
CONTINUOUS
 90
6
 70
0
 10
-11.2561548046
 20
22.0628880086
 10
-11.2529690844
 20
22.0646964836
 10
-11.2281330383
 20
22.0739288457
 10
-11.2011816995
 20
22.0757682498
 10
-11.1715061501
 20
22.0706984108
 10
-11.1391063899
 20
22.0587193285
  0
LINE
  5
237
100
AcDbEntity
  8
RACCORDO
100
AcDbLine
 62
250
  6
CONTINUOUS
 10
-10.2410143783
 20
21.640105483
 11
-9.0506465488
 21
22.2376038902
  0
LINE
  5
238
100
AcDbEntity
  8
RACCORDO
100
AcDbLine
 62
250
  6
CONTINUOUS
 10
-5.3096167084
 20
24.1153926844
 11
-4.3511833315
 21
24.5964729035
  0
LINE
  5
239
100
AcDbEntity
  8
RACCORDO
100
AcDbLine
 62
250
  6
CONTINUOUS
 10
-10.0641921891
 20
21.3352486079
 11
-8.657798609
 21
22.0411799203
  0
LINE
  5
23A
100
AcDbEntity
  8
RACCORDO
100
AcDbLine
 62
250
  6
CONTINUOUS
 10
-4.3253118704
 20
24.2158471632
 11
-4.1744133673
 21
24.2915898143
  0
LINE
  5
23B
100
AcDbEntity
  8
0
100
AcDbLine
 62
7
  6
CONTINUOUS
 10
-8.9827394794
 20
23.5646505061
 11
-8.6191713467
 21
23.7464345724
  0
LINE
  5
23C
100
AcDbEntity
  8
RACCORDO
100
AcDbLine
 62
7
  6
CONTINUOUS
 10
-4.8089043216
 20
24.7799033607
 11
-6.3907643055
 21
24.005054795
  0
LINE
  5
23D
100
AcDbEntity
  8
RACCORDO
100
AcDbLine
 62
7
  6
CONTINUOUS
 10
-9.4942368832
 20
22.4848688747
 11
-10.7556448456
 21
21.8669885563
  0
LINE
  5
23E
100
AcDbEntity
  8
RACCORDO
100
AcDbLine
 62
250
  6
CONTINUOUS
 10
-4.7004732125
 20
24.771117844
 11
-6.2311399555
 21
24.0213454605
  0
LINE
  5
23F
100
AcDbEntity
  8
RACCORDO
100
AcDbLine
 62
250
  6
CONTINUOUS
 10
-9.469783951
 20
22.4349480042
 11
-10.6931103664
 21
21.8357213167
  0
LINE
  5
240
100
AcDbEntity
  8
RACCORDO
100
AcDbLine
 62
250
  6
CONTINUOUS
 10
-4.2062945655
 20
24.6673753474
 11
-2.8262825387
 21
25.3426315348
  0
LINE
  5
241
100
AcDbEntity
  8
RACCORDO
100
AcDbLine
 62
250
  6
CONTINUOUS
 10
-3.5318775387
 20
24.6059736977
 11
-2.6510484915
 21
25.0369737561
  0
LINE
  5
242
100
AcDbEntity
  8
RACCORDO
100
AcDbLine
 62
250
  6
CONTINUOUS
 10
-3.1700915504
 20
25.5145360407
 11
-4.7005112902
 21
24.7711368828
  0
LWPOLYLINE
  5
243
100
AcDbEntity
  8
0
100
AcDbPolyline
 62
7
  6
CONTINUOUS
 90
10
 70
0
 10
-8.6191713467
 20
23.7464345724
 10
-8.6018620454
 20
23.7547161887
 10
-8.5846157289
 20
23.7622323721
 10
-8.5674323971
 20
23.7689831228
 10
-8.5502912852
 20
23.774974795
 10
-8.533213158
 20
23.7802010344
 10
-8.5162603102
 20
23.7846427776
 10
-8.4994535068
 20
23.7882936701
 10
-8.4827719828
 20
23.7911600664
 10
-8.4662157382
 20
23.7932419665
  0
LINE
  5
244
100
AcDbEntity
  8
RACCORDO
100
AcDbLine
 62
250
  6
CONTINUOUS
 10
-10.2666363338
 20
21.627969278
 11
-10.2410143783
 21
21.640105483
  0
LINE
  5
245
100
AcDbEntity
  8
RACCORDO
100
AcDbLine
 62
250
  6
CONTINUOUS
 10
-3.1387352245
 20
25.5293313638
 11
-3.1700915504
 21
25.5145360407
  0
LWPOLYLINE
  5
246
100
AcDbEntity
  8
RACCORDO
100
AcDbPolyline
 62
250
  6
CONTINUOUS
 90
24
 70
0
 10
-2.6510484915
 20
25.0369737561
 10
-2.6300804851
 20
25.0465534227
 10
-2.6091002738
 20
25.0545093196
 10
-2.5881078575
 20
25.060841447
 10
-2.5670118416
 20
25.0656263178
 10
-2.5459036209
 20
25.0687874189
 10
-2.5250573789
 20
25.0700952112
 10
-2.5044497605
 20
25.0695266444
 10
-2.4841041209
 20
25.0671047687
 10
-2.4643647099
 20
25.0626691954
 10
-2.4452185584
 20
25.0561672307
 10
-2.4266786356
 20
25.0476515683
 10
-2.4091280982
 20
25.0371199011
 10
-2.3925860069
 20
25.0245032958
 10
-2.377033301
 20
25.0098706857
 10
-2.3627959556
 20
24.9934265627
 10
-2.3499165696
 20
24.9751102671
 10
-2.3383525441
 20
24.9549824586
 10
-2.3283020578
 20
24.9334296089
 10
-2.3198163341
 20
24.9104230608
 10
-2.3128441496
 20
24.8859914715
 10
-2.3074300128
 20
24.8606072852
 10
-2.3035887599
 20
24.8344279835
 10
-2.3013055547
 20
24.8072960848
  0
LWPOLYLINE
  5
247
100
AcDbEntity
  8
RACCORDO
100
AcDbPolyline
 62
250
  6
CONTINUOUS
 90
5
 70
0
 10
-2.8262825387
 20
25.3426315348
 10
-2.7950394293
 20
25.3567903272
 10
-2.7635248914
 20
25.3687704693
 10
-2.7318582617
 20
25.3784386768
 10
-2.7001705748
 20
25.3856656848
  0
LINE
  5
248
100
AcDbEntity
  8
RACCORDO
100
AcDbLine
 62
250
  6
CONTINUOUS
 10
-3.1089779218
 20
25.54218591
 11
-3.1387352245
 21
25.5293313638
  0
LWPOLYLINE
  5
249
100
AcDbEntity
  8
RACCORDO
100
AcDbPolyline
 62
250
  6
CONTINUOUS
 90
4
 70
0
 10
-16.8329827133
 20
20.4922561474
 10
-16.8061302259
 20
20.5015196701
 10
-16.7783685776
 20
20.5030487445
 10
-16.7491109748
 20
20.4977996892
  0
LWPOLYLINE
  5
24A
100
AcDbEntity
  8
RACCORDO
100
AcDbPolyline
 62
7
  6
CONTINUOUS
 90
6
 70
0
 10
-3.1251854896
 20
25.5859346212
 10
-3.1582828144
 20
25.5752558574
 10
-3.1921224652
 20
25.5622512184
 10
-3.2288991318
 20
25.5464648558
 10
-3.2706229302
 20
25.5270811071
 10
-4.8086645487
 20
24.7800149086
  0
LINE
  5
24B
100
AcDbEntity
  8
RACCORDO
100
AcDbLine
 62
250
  6
CONTINUOUS
 10
-1.8526588229
 20
-25.4618135268
 11
-1.8891126165
 21
-25.4510574041
  0
LINE
  5
24C
100
AcDbEntity
  8
RACCORDO
100
AcDbLine
 62
250
  6
CONTINUOUS
 10
-1.8891126165
 20
-25.4510574041
 11
-1.9210615584
 21
-25.4375574281
  0
LINE
  5
24D
100
AcDbEntity
  8
RACCORDO
100
AcDbLine
 62
7
  6
CONTINUOUS
 10
-16.8279722413
 20
-18.086833889
 11
-1.856088262
 21
-25.5727758787
  0
LINE
  5
24E
100
AcDbEntity
  8
RACCORDO
100
AcDbLine
 62
250
  6
CONTINUOUS
 10
-16.8929455377
 20
-17.9516154389
 11
-1.9210615584
 21
-25.4375574286
  0
LWPOLYLINE
  5
24F
100
AcDbEntity
  8
RACCORDO
100
AcDbPolyline
 62
250
  6
CONTINUOUS
 90
8
 70
0
 10
-16.8279720131
 20
-18.0868340031
 10
-16.8324223654
 20
-18.0844571063
 10
-16.848783794
 20
-18.0726948783
 10
-16.8633014984
 20
-18.0568054603
 10
-16.8755093632
 20
-18.0366564858
 10
-16.8848752995
 20
-18.0122492268
 10
-16.8908524775
 20
-17.983785599
 10
-16.8929455377
 20
-17.9516154389
  0
LWPOLYLINE
  5
250
100
AcDbEntity
  8
RACCORDO
100
AcDbPolyline
 62
250
  6
CONTINUOUS
 90
4
 70
0
 10
-19.432313875
 20
14.5709056889
 10
-19.3998163443
 20
14.6900684435
 10
-19.358810057
 20
14.8040903996
 10
-19.3109059924
 20
14.9116318598
  0
LWPOLYLINE
  5
251
100
AcDbEntity
  8
RACCORDO
100
AcDbPolyline
 62
7
  6
CONTINUOUS
 90
5
 70
0
 10
-11.4101746495
 20
21.941579685
 10
-11.4645736694
 20
21.8702092229
 10
-11.5033114116
 20
21.792798093
 10
-11.5255284093
 20
21.7107632269
 10
-11.5308293325
 20
21.6441038155
  0
LWPOLYLINE
  5
252
100
AcDbEntity
  8
RACCORDO
100
AcDbPolyline
 62
250
  6
CONTINUOUS
 90
6
 70
0
 10
-19.0004149025
 20
15.4433979717
 10
-18.9922002715
 20
15.4483776499
 10
-18.9698236336
 20
15.4556645887
 10
-18.9439398719
 20
15.4564305783
 10
-18.9153339387
 20
15.4506523894
 10
-18.8848733388
 20
15.4385052516
  0
LWPOLYLINE
  5
253
100
AcDbEntity
  8
RACCORDO
100
AcDbPolyline
 62
250
  6
CONTINUOUS
 90
5
 70
0
 10
-1.2919002237
 20
24.0461239502
 10
-1.3174302851
 20
24.0319480747
 10
-1.3483454761
 20
24.0203784064
 10
-1.3846457968
 20
24.0114149454
 10
-1.4263312471
 20
24.0050576917
  0
LINE
  5
254
100
AcDbEntity
  8
RACCORDO
100
AcDbLine
 62
7
  6
CONTINUOUS
 10
-8.5112138766
 20
20.0325156432
 11
-7.8007639392
 21
20.4093169078
  0
LINE
  5
255
100
AcDbEntity
  8
RACCORDO
100
AcDbLine
 62
7
  6
CONTINUOUS
 10
-4.5125383595
 20
22.15329279
 11
-3.8359815522
 21
22.5121181584
  0
LINE
  5
256
100
AcDbEntity
  8
RACCORDO
100
AcDbLine
 62
7
  6
CONTINUOUS
 10
-5.7095126609
 20
23.0717664917
 11
-6.2449319514
 21
22.797341787
  0
LINE
  5
257
100
AcDbEntity
  8
RACCORDO
100
AcDbLine
 62
7
  6
CONTINUOUS
 10
-8.1832177788
 20
21.8038895052
 11
-10.0642444141
 21
20.8397849462
  0
LINE
  5
258
100
AcDbEntity
  8
RACCORDO
100
AcDbLine
 62
250
  6
CONTINUOUS
 10
-2.7265844111
 20
23.9275202702
 11
-2.8702154243
 21
23.8559889499
  0
LINE
  5
259
100
AcDbEntity
  8
RACCORDO
100
AcDbLine
 62
250
  6
CONTINUOUS
 10
-2.5799240067
 20
23.6076419756
 11
-2.6934454601
 21
23.5511058607
  0
LINE
  5
25A
100
AcDbEntity
  8
RACCORDO
100
AcDbLine
 62
250
  6
CONTINUOUS
 10
-1.2567568692
 20
24.0701167283
 11
-1.2717550102
 21
24.0629058919
  0
LWPOLYLINE
  5
25B
100
AcDbEntity
  8
RACCORDO
100
AcDbPolyline
 62
7
  6
CONTINUOUS
 90
10
 70
0
 10
-1.9210615584
 20
-22.6516084364
 10
-1.8858645194
 20
-22.6659140195
 10
-1.8487412635
 20
-22.6766666064
 10
-1.8096917907
 20
-22.683866197
 10
-1.7674526511
 20
-22.6875155478
 10
-1.7232872947
 20
-22.6876119023
 10
-1.6809860711
 20
-22.6841469911
 10
-1.6418124302
 20
-22.677118058
 10
-1.6045029222
 20
-22.6665278592
 10
-1.569057547
 20
-22.6523763948
  0
LWPOLYLINE
  5
25C
100
AcDbEntity
  8
RACCORDO
100
AcDbPolyline
 62
7
  6
CONTINUOUS
 90
6
 70
0
 10
-4.2797883552
 20
-22.6817016899
 10
-4.213769317
 20
-22.7098439948
 10
-4.1298860524
 20
-22.7318061613
 10
-4.0408770699
 20
-22.7406278917
 10
-3.9485169947
 20
-22.7356751642
 10
-3.854942561
 20
-22.7168137397
  0
LINE
  5
25D
100
AcDbEntity
  8
ASSI
100
AcDbLine
 62
7
  6
CONTINUOUS
 10
-19.2071766621
 20
-15.2180814939
 11
-4.2771823547
 21
-22.6830786476
  0
LINE
  5
25E
100
AcDbEntity
  8
RACCORDO
100
AcDbLine
 62
250
  6
CONTINUOUS
 10
-19.4648289999
 20
-14.711694189
 11
-4.5382235589
 21
-22.1752426926
  0
LINE
  5
25F
100
AcDbEntity
  8
RACCORDO
100
AcDbLine
 62
250
  6
CONTINUOUS
 10
-19.207178393
 20
-15.2180806285
 11
-19.2088498315
 21
-15.2172396214
  0
LINE
  5
260
100
AcDbEntity
  8
RACCORDO
100
AcDbLine
 62
250
  6
CONTINUOUS
 10
-4.2801355205
 20
-22.6815860062
 11
-4.2771870648
 21
-22.6830762925
  0
LWPOLYLINE
  5
261
100
AcDbEntity
  8
RACCORDO
100
AcDbPolyline
 62
250
  6
CONTINUOUS
 90
9
 70
0
 10
-19.2088498315
 20
-15.2172396214
 10
-19.2720196858
 20
-15.1768013593
 10
-19.3237487835
 20
-15.1277727423
 10
-19.3668077492
 20
-15.0704997601
 10
-19.4014114562
 20
-15.0067009364
 10
-19.4280667832
 20
-14.9376122412
 10
-19.4472034567
 20
-14.8645046767
 10
-19.4592681737
 20
-14.7888015617
 10
-19.4648289999
 20
-14.711694189
  0
LWPOLYLINE
  5
262
100
AcDbEntity
  8
RACCORDO
100
AcDbPolyline
 62
250
  6
CONTINUOUS
 90
5
 70
0
 10
-19.5370400972
 20
-14.6329247717
 10
-19.5293561436
 20
-14.6550996521
 10
-19.5144251648
 20
-14.6760721006
 10
-19.4926958206
 20
-14.6952119178
 10
-19.4648210547
 20
-14.7119439727
  0
LWPOLYLINE
  5
263
100
AcDbEntity
  8
RACCORDO
100
AcDbPolyline
 62
7
  6
CONTINUOUS
 90
7
 70
0
 10
-19.5380437787
 20
-14.6232880949
 10
-19.5238457196
 20
-14.7593519301
 10
-19.4877951358
 20
-14.8922761896
 10
-19.431100191
 20
-15.0095587045
 10
-19.355483988
 20
-15.1080809897
 10
-19.2628421913
 20
-15.1857589166
 10
-19.2085079643
 20
-15.2173454831
  0
LWPOLYLINE
  5
264
100
AcDbEntity
  8
RACCORDO
100
AcDbPolyline
 62
250
  6
CONTINUOUS
 90
10
 70
0
 10
-19.4648292296
 20
-14.711694106
 10
-19.5564196382
 20
-11.5331270947
 10
-19.6251196203
 20
-8.3420169582
 10
-19.6709232419
 20
-5.1386087264
 10
-19.6938263767
 20
-1.9231389974
 10
-19.6938264761
 20
1.3041360074
 10
-19.6709232418
 20
4.5429401252
 10
-19.6251186199
 20
7.793014874
 10
-19.5564161271
 20
11.0541198084
 10
-19.4648210916
 20
14.3260042283
  0
LWPOLYLINE
  5
265
100
AcDbEntity
  8
RACCORDO
100
AcDbPolyline
 62
7
  6
CONTINUOUS
 90
10
 70
0
 10
-19.5380584882
 20
14.4136397538
 10
-19.623953862
 20
11.3716935206
 10
-19.6955092957
 20
8.0407217261
 10
-19.7431850315
 20
4.7212181644
 10
-19.7669751753
 20
1.4134848869
 10
-19.766878533
 20
-1.8822278385
 10
-19.7428948638
 20
-5.1656895108
 10
-19.6950247773
 20
-8.4366517263
 10
-19.6232735919
 20
-11.6948190933
 10
-19.5380501845
 20
-14.6231996836
  0
LWPOLYLINE
  5
266
100
AcDbEntity
  8
RACCORDO
100
AcDbPolyline
 62
250
  6
CONTINUOUS
 90
3
 70
0
 10
-19.4648210915
 20
14.3260042282
 10
-19.4545267854
 20
14.4487597844
 10
-19.432313875
 20
14.5709056889
  0
LINE
  5
267
100
AcDbEntity
  8
RACCORDO
100
AcDbLine
 62
250
  6
CONTINUOUS
 10
-1.2717552919
 20
24.062906033
 11
-1.2919002237
 21
24.0461239502
  0
LINE
  5
268
100
AcDbEntity
  8
ASSI
100
AcDbLine
 62
7
  6
CONTINUOUS
 10
0.5818274507
 20
23.0189753457
 11
2.7217888068
 21
24.0072804158
  0
LINE
  5
269
100
AcDbEntity
  8
ASSI
100
AcDbLine
 62
250
  6
CONTINUOUS
 10
0.7040575189
 20
22.9578603117
 11
2.9375985193
 21
23.9893835627
  0
LINE
  5
26A
100
AcDbEntity
  8
RACCORDO
100
AcDbLine
 62
7
  6
CONTINUOUS
 10
-3.853141685
 20
-22.7163210462
 11
-1.4721057033
 21
-22.0561517303
  0
LINE
  5
26B
100
AcDbEntity
  8
RACCORDO
100
AcDbLine
 62
250
  6
CONTINUOUS
 10
-3.7447098314
 20
-22.5645658205
 11
-1.3891820343
 21
-21.911468939
  0
LINE
  5
26C
100
AcDbEntity
  8
RACCORDO
100
AcDbLine
 62
250
  6
CONTINUOUS
 10
-3.7946603469
 20
-22.5762805105
 11
-3.7447098314
 21
-22.5645658205
  0
LINE
  5
26D
100
AcDbEntity
  8
RACCORDO
100
AcDbLine
 62
7
  6
CONTINUOUS
 10
-2.5270077702
 20
-22.3486353304
 11
-1.9210615584
 21
-22.6516084364
  0
LINE
  5
26E
100
AcDbEntity
  8
DRAFT
100
AcDbLine
 62
7
  6
CONTINUOUS
 10
-2.0721371169
 20
-22.2225172665
 11
-1.3891820343
 21
-22.5639948078
  0
LWPOLYLINE
  5
26F
100
AcDbEntity
  8
RACCORDO
100
AcDbPolyline
 62
250
  6
CONTINUOUS
 90
7
 70
0
 10
-4.0698203005
 20
-22.4894178755
 10
-4.0295139549
 20
-22.5247510308
 10
-3.9861074344
 20
-22.5508429178
 10
-3.9393411415
 20
-22.5679362087
 10
-3.891581584
 20
-22.5776893045
 10
-3.8436175978
 20
-22.5806550051
 10
-3.7946603469
 20
-22.5762805105
  0
LWPOLYLINE
  5
270
100
AcDbEntity
  8
RACCORDO
100
AcDbPolyline
 62
250
  6
CONTINUOUS
 90
6
 70
0
 10
-16.9661688424
 20
-17.8632270912
 10
-16.9648518609
 20
-17.87604072
 10
-16.9566488975
 20
-17.8973933873
 10
-16.9414577845
 20
-17.917414019
 10
-16.9199455323
 20
-17.9356409378
 10
-16.8929455377
 20
-17.9516154389
  0
LWPOLYLINE
  5
271
100
AcDbEntity
  8
RACCORDO
100
AcDbPolyline
 62
250
  6
CONTINUOUS
 90
6
 70
0
 10
-19.5380801203
 20
14.4133473122
 10
-19.5370543482
 20
14.4009716588
 10
-19.5293714756
 20
14.3805070303
 10
-19.5144408677
 20
14.3608018279
 10
-19.4927112093
 20
14.3424482191
 10
-19.4648355064
 20
14.3259977546
  0
LINE
  5
272
100
AcDbEntity
  8
RACCORDO
100
AcDbLine
 62
7
  6
CONTINUOUS
 10
-16.9661688424
 20
-17.8632270912
 11
-16.9661688424
 21
-16.3385854037
  0
LINE
  5
273
100
AcDbEntity
  8
RACCORDO
100
AcDbLine
 62
7
  6
CONTINUOUS
 10
-16.9661688424
 20
17.4852770833
 11
-16.9661688424
 21
20.2712260755
  0
LWPOLYLINE
  5
274
100
AcDbEntity
  8
RACCORDO
100
AcDbPolyline
 62
250
  6
CONTINUOUS
 90
16
 70
0
 10
-16.8929455377
 20
20.1828377278
 10
-16.8923087321
 20
20.2015163861
 10
-16.8903307004
 20
20.2212458983
 10
-16.8869165389
 20
20.2419133833
 10
-16.8819887766
 20
20.2633540381
 10
-16.8754746748
 20
20.2854220511
 10
-16.8672936723
 20
20.307989651
 10
-16.857400391
 20
20.3308244771
 10
-16.8457753211
 20
20.3536591904
 10
-16.8323881895
 20
20.376257106
 10
-16.8172720856
 20
20.3982762239
 10
-16.8004984204
 20
20.4193448123
 10
-16.7821313241
 20
20.4391138656
 10
-16.7623095618
 20
20.4571568533
 10
-16.7412610005
 20
20.4729940732
 10
-16.7192540212
 20
20.4861568621
  0
LINE
  5
275
100
AcDbEntity
  8
ASSI
100
AcDbLine
 62
250
  6
CONTINUOUS
 10
-0.5681687832
 20
18.8170682212
 11
-0.677797599
 21
18.7618311245
  0
LINE
  5
276
100
AcDbEntity
  8
RACCORDO
100
AcDbLine
 62
250
  6
CONTINUOUS
 10
-2.5947175175
 20
18.8515301113
 11
-2.4366082542
 21
18.9305847429
  0
LINE
  5
277
100
AcDbEntity
  8
0
100
AcDbLine
 62
7
  6
CONTINUOUS
 10
-0.4974581051
 20
19.322009819
 11
-0.1338899725
 21
19.5037938853
  0
LINE
  5
278
100
AcDbEntity
  8
0
100
AcDbLine
 62
7
  6
CONTINUOUS
 10
-0.4974581051
 20
18.9755996575
 11
-0.1338899725
 21
19.1573837238
  0
LINE
  5
279
100
AcDbEntity
  8
0
100
AcDbLine
 62
250
  6
CONTINUOUS
 10
-0.7095901395
 20
18.6097260191
 11
-0.9924328519
 21
18.4683046629
  0
LINE
  5
27A
100
AcDbEntity
  8
ASSI
100
AcDbLine
 62
250
  6
CONTINUOUS
 10
0.217118789
 20
19.2065766462
 11
-0.5681687832
 21
18.8170682212
  0
LINE
  5
27B
100
AcDbEntity
  8
RACCORDO
100
AcDbLine
 62
7
  6
CONTINUOUS
 10
3.1790183697
 20
20.7838665396
 11
3.3190835996
 21
20.8512033069
  0
LINE
  5
27C
100
AcDbEntity
  8
RACCORDO
100
AcDbLine
 62
250
  6
CONTINUOUS
 10
3.2895127765
 20
20.7761248495
 11
3.4356727574
 21
20.846391686
  0
LWPOLYLINE
  5
27D
100
AcDbEntity
  8
0
100
AcDbPolyline
 62
7
  6
CONTINUOUS
 90
10
 70
0
 10
-0.1338899725
 20
19.5037938853
 10
-0.1165806712
 20
19.5120755016
 10
-0.0993343547
 20
19.519591685
 10
-0.0821510229
 20
19.5263424357
 10
-0.0650099109
 20
19.5323341079
 10
-0.0479317837
 20
19.5375603473
 10
-0.030978936
 20
19.5420020905
 10
-0.0141721325
 20
19.545652983
 10
0.0025093915
 20
19.5485193793
 10
0.019065636
 20
19.5506012794
  0
LWPOLYLINE
  5
27E
100
AcDbEntity
  8
0
100
AcDbPolyline
 62
7
  6
CONTINUOUS
 90
10
 70
0
 10
-0.1338899725
 20
19.1573837238
 10
-0.1264717005
 20
19.1609329879
 10
-0.119080422
 20
19.1641542094
 10
-0.1117161369
 20
19.1670473882
 10
-0.1043699461
 20
19.1696152477
 10
-0.0970507488
 20
19.1718550646
 10
-0.0897852426
 20
19.1737586689
 10
-0.0825823268
 20
19.1753233371
 10
-0.0754331022
 20
19.1765517926
 10
-0.0683375688
 20
19.1774440355
  0
LWPOLYLINE
  5
27F
100
AcDbEntity
  8
RACCORDO
100
AcDbPolyline
 62
7
  6
CONTINUOUS
 90
12
 70
0
 10
-2.5432674803
 20
18.944882904
 10
-2.5357796814
 20
18.9481253025
 10
-2.5285143838
 20
18.9504188594
 10
-2.5209613028
 20
18.9520017208
 10
-2.5131236906
 20
18.9528819181
 10
-2.5050907911
 20
18.9530494289
 10
-2.4968603722
 20
18.9524961072
 10
-2.4884346661
 20
18.9512300989
 10
-2.4799096129
 20
18.9492658197
 10
-2.471317193
 20
18.9466080747
 10
-2.4626254261
 20
18.9432520588
 10
-2.4538343122
 20
18.9391977719
  0
LWPOLYLINE
  5
280
100
AcDbEntity
  8
RACCORDO
100
AcDbPolyline
 62
250
  6
CONTINUOUS
 90
5
 70
0
 10
6.183973113
 20
20.7890819685
 10
6.2067999298
 20
20.7968783887
 10
6.2348407305
 20
20.7989204407
 10
6.2646745622
 20
20.7938404577
 10
6.2953949385
 20
20.7817927961
  0
LWPOLYLINE
  5
281
100
AcDbEntity
  8
RACCORDO
100
AcDbPolyline
 62
250
  6
CONTINUOUS
 90
43
 70
0
 10
-11.8273364091
 20
-14.0063500292
 10
-11.8959107922
 20
-13.9703036839
 10
-11.9637889668
 20
-13.9311397844
 10
-12.0308521432
 20
-13.8890313453
 10
-12.0968744964
 20
-13.8442365669
 10
-12.1618687944
 20
-13.7968561155
 10
-12.2260769974
 20
-13.7467779436
 10
-12.2893964426
 20
-13.6941291655
 10
-12.3517339134
 20
-13.6390381877
 10
-12.4133295973
 20
-13.5813044157
 10
-12.4740651502
 20
-13.5210311984
 10
-12.5338516517
 20
-13.4583028162
 10
-12.5929404637
 20
-13.3928082017
 10
-12.6510255521
 20
-13.3248257683
 10
-12.7081696232
 20
-13.2542271097
 10
-12.7650851377
 20
-13.1799610734
 10
-12.8215997988
 20
-13.1019723548
 10
-12.8774537393
 20
-13.0203334898
 10
-12.9330668507
 20
-12.9340434653
 10
-12.9882639084
 20
-12.8428358427
 10
-13.0425156374
 20
-12.7470031845
 10
-13.0955766484
 20
-12.6463495234
 10
-13.1470139933
 20
-12.5409939288
 10
-13.1963700072
 20
-12.4310878484
 10
-13.2432684445
 20
-12.316537004
 10
-13.2871465169
 20
-12.1976901871
 10
-13.3274652573
 20
-12.0748155707
 10
-13.363751
 20
-11.9477917225
 10
-13.3953288105
 20
-11.8171485692
 10
-13.4215026564
 20
-11.683470098
 10
-13.4415888745
 20
-11.5468778615
 10
-13.4547848034
 20
-11.4082772292
 10
-13.4602836683
 20
-11.2685890225
 10
-13.4571848925
 20
-11.1282257569
 10
-13.4445873485
 20
-10.9885105933
 10
-13.4216086166
 20
-10.8509339681
 10
-13.3871755843
 20
-10.716552188
 10
-13.3405049802
 20
-10.5874931875
 10
-13.2807653418
 20
-10.4656027612
 10
-13.2065480941
 20
-10.3521832995
 10
-13.1168176869
 20
-10.2497138447
 10
-13.0112722523
 20
-10.1615193678
 10
-12.9141968668
 20
-10.1027368789
  0
LWPOLYLINE
  5
282
100
AcDbEntity
  8
RACCORDO
100
AcDbPolyline
 62
250
  6
CONTINUOUS
 90
47
 70
0
 10
-12.1125316889
 20
-14.505250642
 10
-12.1935279402
 20
-14.4624381401
 10
-12.273430765
 20
-14.4163446445
 10
-12.3522399995
 20
-14.3669700674
 10
-12.4299431932
 20
-14.3142376361
 10
-12.5065521546
 20
-14.2582237801
 10
-12.5821029851
 20
-14.1991581482
 10
-12.6565922931
 20
-14.1371076998
 10
-12.7300223256
 20
-14.0720048638
 10
-12.8024375481
 20
-14.0038774435
 10
-12.873843293
 20
-13.9327922781
 10
-12.9442325818
 20
-13.8586816492
 10
-13.01363125
 20
-13.7813714361
 10
-13.0819021598
 20
-13.7011844031
 10
-13.14918022
 20
-13.6177965969
 10
-13.2158988285
 20
-13.5300635506
 10
-13.2822574361
 20
-13.4379826217
 10
-13.348052973
 20
-13.3415545245
 10
-13.4131139677
 20
-13.2396392472
 10
-13.4777861407
 20
-13.1318684999
 10
-13.5417178157
 20
-13.0186074045
 10
-13.6036901602
 20
-12.8998153945
 10
-13.6638299346
 20
-12.7753359432
 10
-13.7220021136
 20
-12.6453211917
 10
-13.7765941138
 20
-12.5101930086
 10
-13.827732216
 20
-12.369790736
 10
-13.8752794581
 20
-12.2242693812
 10
-13.9172275463
 20
-12.074523868
 10
-13.9537500924
 20
-11.9202148279
 10
-13.9846605082
 20
-11.7616747908
 10
-14.0074102338
 20
-11.6008065537
 10
-14.0221565817
 20
-11.4371561865
 10
-14.0287285291
 20
-11.2711704313
 10
-14.0240871761
 20
-11.1061042465
 10
-14.0083005151
 20
-10.9412766661
 10
-13.9812891977
 20
-10.7773627513
 10
-13.9397995171
 20
-10.6196547765
 10
-13.8838498117
 20
-10.4674800641
 10
-13.8134188295
 20
-10.3215098517
 10
-13.7252049533
 20
-10.1890583094
 10
-13.618273527
 20
-10.0690924549
 10
-13.4935693045
 20
-9.9626506359
 10
-13.3506282454
 20
-9.8801636618
 10
-13.1861160718
 20
-9.8229643841
 10
-13.003396782
 20
-9.7897354993
 10
-12.8120725903
 20
-9.786942389
 10
-12.6153581735
 20
-9.8167474352
  0
LWPOLYLINE
  5
283
100
AcDbEntity
  8
DRAFT
100
AcDbPolyline
 62
7
  6
CONTINUOUS
 90
5
 70
0
 10
-11.174770501
 20
-13.6870418213
 10
-11.4233897198
 20
-13.5355466592
 10
-11.6557876558
 20
-13.3536623467
 10
-11.8719643091
 20
-13.1413888838
 10
-12.0756943215
 20
-12.8926716019
  0
LWPOLYLINE
  5
284
100
AcDbEntity
  8
DRAFT
100
AcDbPolyline
 62
7
  6
CONTINUOUS
 90
11
 70
0
 10
-12.0756943215
 20
-12.8926716019
 10
-12.2632030512
 20
-12.6135651695
 10
-12.4231665726
 20
-12.3222335929
 10
-12.5538616707
 20
-12.0181248096
 10
-12.6570115605
 20
-11.7017908821
 10
-12.7264619625
 20
-11.393052004
 10
-12.7601614503
 20
-11.0923451103
 10
-12.7601614503
 20
-10.7992332661
 10
-12.7264619625
 20
-10.5322258601
 10
-12.6570115605
 20
-10.2929373841
 10
-12.5538616707
 20
-10.0797533464
  0
LINE
  5
285
100
AcDbEntity
  8
RACCORDO
100
AcDbLine
 62
250
  6
CONTINUOUS
 10
-16.8929455377
 20
-17.9516154389
 11
-16.8929455377
 21
-16.3751970561
  0
LINE
  5
286
100
AcDbEntity
  8
RACCORDO
100
AcDbLine
 62
250
  6
CONTINUOUS
 10
-16.8929455377
 20
17.3968887356
 11
-16.8929455377
 21
20.1828377278
  0
LINE
  5
287
100
AcDbEntity
  8
RACCORDO
100
AcDbLine
 62
7
  6
CONTINUOUS
 10
-16.7177182806
 20
17.1021505706
 11
-16.7177182806
 21
17.3092751071
  0
LWPOLYLINE
  5
288
100
AcDbEntity
  8
RACCORDO
100
AcDbPolyline
 62
250
  6
CONTINUOUS
 90
6
 70
0
 10
-1.0866808285
 20
23.8056971755
 10
-1.1119844233
 20
23.7763141582
 10
-1.1467468147
 20
23.7499407762
 10
-1.1897171872
 20
23.7269237088
 10
-1.2396470483
 20
23.7075085952
 10
-1.29531558
 20
23.6918484453
  0
LINE
  5
289
100
AcDbEntity
  8
RACCORDO
100
AcDbLine
 62
250
  6
CONTINUOUS
 10
-1.0406349779
 20
17.0155631645
 11
-1.0174401663
 21
17.028318377
  0
LWPOLYLINE
  5
28A
100
AcDbEntity
  8
RACCORDO
100
AcDbPolyline
 62
7
  6
CONTINUOUS
 90
7
 70
0
 10
-1.1314817764
 20
17.0342662049
 10
-1.153517833
 20
17.0223731401
 10
-1.2678169795
 20
16.9431303831
 10
-1.353636302
 20
16.8505122953
 10
-1.4106805679
 20
16.7456167768
 10
-1.4366419392
 20
16.6315711659
 10
-1.4379103355
 20
16.5953054806
  0
LINE
  5
28B
100
AcDbEntity
  8
RACCORDO
100
AcDbLine
 62
250
  6
CONTINUOUS
 10
-0.6255648492
 20
16.8019485581
 11
5.1197705646
 21
19.8609959554
  0
LINE
  5
28C
100
AcDbEntity
  8
RACCORDO
100
AcDbLine
 62
250
  6
CONTINUOUS
 10
-0.4390542624
 20
16.7086932647
 11
5.2463409545
 21
19.735826093
  0
LINE
  5
28D
100
AcDbEntity
  8
RACCORDO
100
AcDbLine
 62
7
  6
CONTINUOUS
 10
-1.131482178
 20
17.0342669691
 11
4.6573818011
 21
20.0420802996
  0
LINE
  5
28E
100
AcDbEntity
  8
RACCORDO
100
AcDbLine
 62
250
  6
CONTINUOUS
 10
-1.0174401663
 20
17.028318377
 11
4.7704806836
 21
20.0356408959
  0
LINE
  5
28F
100
AcDbEntity
  8
RACCORDO
100
AcDbLine
 62
7
  6
CONTINUOUS
 10
-2.8074613389
 20
17.1806393744
 11
1.3760244706
 21
19.3248502355
  0
LINE
  5
290
100
AcDbEntity
  8
0
100
AcDbLine
 62
7
  6
CONTINUOUS
 10
-0.7095901395
 20
18.349918398
 11
-0.9924328519
 21
18.2084970418
  0
LINE
  5
291
100
AcDbEntity
  8
RACCORDO
100
AcDbLine
 62
250
  6
CONTINUOUS
 10
5.1198086423
 20
19.8609769166
 11
6.6392039503
 21
20.6098882903
  0
LINE
  5
292
100
AcDbEntity
  8
RACCORDO
100
AcDbLine
 62
250
  6
CONTINUOUS
 10
5.2463409545
 20
19.735826093
 11
6.7641991907
 21
20.4839798427
  0
LINE
  5
293
100
AcDbEntity
  8
RACCORDO
100
AcDbLine
 62
7
  6
CONTINUOUS
 10
4.9148179243
 20
20.1680693416
 11
6.183973113
 21
20.7890819685
  0
LINE
  5
294
100
AcDbEntity
  8
RACCORDO
100
AcDbLine
 62
250
  6
CONTINUOUS
 10
4.9153829118
 20
20.1065366088
 11
6.2953949386
 21
20.7817927962
  0
LWPOLYLINE
  5
295
100
AcDbEntity
  8
RACCORDO
100
AcDbPolyline
 62
250
  6
CONTINUOUS
 90
4
 70
0
 10
6.2953949386
 20
20.7817927962
 10
6.3262692485
 20
20.7957976524
 10
6.3573917157
 20
20.8076699851
 10
6.3886478058
 20
20.8172853241
  0
LWPOLYLINE
  5
296
100
AcDbEntity
  8
RACCORDO
100
AcDbPolyline
 62
250
  6
CONTINUOUS
 90
10
 70
0
 10
6.7641991907
 20
20.4839798427
 10
6.7836300149
 20
20.4926286961
 10
6.8044036152
 20
20.4993499643
 10
6.8265199914
 20
20.5041436473
 10
6.8500493817
 20
20.5071196125
 10
6.8749215481
 20
20.5081679925
 10
6.900925776
 20
20.5069591847
 10
6.9279918275
 20
20.5033833216
 10
6.9561899405
 20
20.4975502707
 10
6.9855201152
 20
20.489460032
  0
LWPOLYLINE
  5
297
100
AcDbEntity
  8
RACCORDO
100
AcDbPolyline
 62
250
  6
CONTINUOUS
 90
7
 70
0
 10
6.6392039503
 20
20.6098882903
 10
6.6680039671
 20
20.6226983531
 10
6.6984396958
 20
20.6332103063
 10
6.7304160469
 20
20.6412725218
 10
6.7638282906
 20
20.6467581197
 10
6.7985599579
 20
20.6494875335
 10
6.8344881081
 20
20.6492567436
  0
LWPOLYLINE
  5
298
100
AcDbEntity
  8
RACCORDO
100
AcDbPolyline
 62
7
  6
CONTINUOUS
 90
10
 70
0
 10
6.183973113
 20
20.7890819685
 10
6.2353201048
 20
20.8114410038
 10
6.2869067107
 20
20.8284606847
 10
6.3384281463
 20
20.8401234786
 10
6.3895677697
 20
20.8464369232
 10
6.4399995163
 20
20.8474363988
 10
6.4893066393
 20
20.8431963835
 10
6.5370392963
 20
20.8338613024
 10
6.5827947908
 20
20.8196396015
 10
6.6261771909
 20
20.8008048961
  0
LWPOLYLINE
  5
299
100
AcDbEntity
  8
RACCORDO
100
AcDbPolyline
 62
250
  6
CONTINUOUS
 90
28
 70
0
 10
-0.0024833583
 20
16.27400436
 10
-0.0287934094
 20
16.2625992428
 10
-0.0568033845
 20
16.2514307835
 10
-0.0865425007
 20
16.2405682494
 10
-0.1180236561
 20
16.2300864839
 10
-0.1512661829
 20
16.2200595268
 10
-0.186297017
 20
16.2105622827
 10
-0.2230569258
 20
16.2016906185
 10
-0.2615741501
 20
16.1935181159
 10
-0.3020008425
 20
16.1861055918
 10
-0.344234464
 20
16.1795679064
 10
-0.3882765994
 20
16.1740027502
 10
-0.4344333446
 20
16.1694929358
 10
-0.4827451424
 20
16.1661762804
 10
-0.5329588848
 20
16.1642165555
 10
-0.5849093713
 20
16.1637689484
 10
-0.6388162983
 20
16.1649986884
 10
-0.6940334278
 20
16.1680631598
 10
-0.7490693323
 20
16.1729805037
 10
-0.8036470411
 20
16.1797625118
 10
-0.8575347
 20
16.1884147405
 10
-0.9094003247
 20
16.1987015014
 10
-0.9587636047
 20
16.2104248928
 10
-1.0058194728
 20
16.2235252781
 10
-1.0503660821
 20
16.2378521194
 10
-1.0922940376
 20
16.2532671764
 10
-1.1315742661
 20
16.2696550976
 10
-1.1681687832
 20
16.2868937759
  0
LWPOLYLINE
  5
29A
100
AcDbEntity
  8
RACCORDO
100
AcDbPolyline
 62
250
  6
CONTINUOUS
 90
28
 70
0
 10
-0.1795688256
 20
16.5789505463
 10
-0.1983649356
 20
16.5709937403
 10
-0.2183481711
 20
16.563318873
 10
-0.239518532
 20
16.5559259444
 10
-0.2618693164
 20
16.5487622559
 10
-0.2854072262
 20
16.5418805061
 10
-0.3101523677
 20
16.5354387911
 10
-0.3360866921
 20
16.5294321077
 10
-0.3632282482
 20
16.523865459
 10
-0.3916512882
 20
16.518911951
 10
-0.4213547728
 20
16.5145502804
 10
-0.4523397413
 20
16.5108017505
 10
-0.4846835649
 20
16.5079033774
 10
-0.5185474554
 20
16.5058343869
 10
-0.5537702009
 20
16.5046155533
 10
-0.5899455367
 20
16.5045462147
 10
-0.6273763133
 20
16.505693819
 10
-0.6657596802
 20
16.5079909184
 10
-0.7037808219
 20
16.5115345076
 10
-0.7413767096
 20
16.5164363798
 10
-0.7786103721
 20
16.5225847419
 10
-0.8143560807
 20
16.5297412093
 10
-0.8483273739
 20
16.5379138966
 10
-0.8808107131
 20
16.5470946894
 10
-0.9115397535
 20
16.5570208595
 10
-0.9404257132
 20
16.5676048311
 10
-0.9675573741
 20
16.5789341801
 10
-0.992934736
 20
16.5910089066
  0
LWPOLYLINE
  5
29B
100
AcDbEntity
  8
RACCORDO
100
AcDbPolyline
 62
250
  6
CONTINUOUS
 90
5
 70
0
 10
-1.1311633983
 20
17.0344333775
 10
-1.1063858379
 20
17.0432158957
 10
-1.0783307718
 20
17.0452683329
 10
-1.0483788863
 20
17.0402516889
 10
-1.0174401663
 20
17.028318377
  0
LWPOLYLINE
  5
29C
100
AcDbEntity
  8
RACCORDO
100
AcDbPolyline
 62
7
  6
CONTINUOUS
 90
19
 70
0
 10
-12.0911430734
 20
-10.179059396
 10
-11.8991980554
 20
-10.2896749299
 10
-11.6785129832
 20
-10.4525303772
 10
-11.4603295196
 20
-10.6528441625
 10
-11.2508900694
 20
-10.8865056686
 10
-11.0555676716
 20
-11.1487350628
 10
-10.8789363564
 20
-11.4345167902
 10
-10.7259126261
 20
-11.7367403408
 10
-10.6007875253
 20
-12.0467438297
 10
-10.506263935
 20
-12.3561251934
 10
-10.4434027874
 20
-12.6584368185
 10
-10.4126613244
 20
-12.9469882478
 10
-10.4135072179
 20
-13.2125277011
 10
-10.4439053485
 20
-13.4509999645
 10
-10.5022908295
 20
-13.660350532
 10
-10.5853579632
 20
-13.8337340226
 10
-10.6882215174
 20
-13.9667285113
 10
-10.8107688708
 20
-14.0617406463
 10
-10.8528766051
 20
-14.0836160333
  0
LINE
  5
29D
100
AcDbEntity
  8
RACCORDO
100
AcDbLine
 62
250
  6
CONTINUOUS
 10
-11.8791147518
 20
-10.1589133507
 11
-11.8027075154
 21
-10.2150037798
  0
LWPOLYLINE
  5
29E
100
AcDbEntity
  8
RACCORDO
100
AcDbPolyline
 62
250
  6
CONTINUOUS
 90
4
 70
0
 10
-11.8027075154
 20
-10.2150037798
 10
-11.7273955706
 20
-10.2741589227
 10
-11.6531803555
 20
-10.3363096899
 10
-11.5800592893
 20
-10.4015245766
  0
LWPOLYLINE
  5
29F
100
AcDbEntity
  8
RACCORDO
100
AcDbPolyline
 62
250
  6
CONTINUOUS
 90
27
 70
0
 10
-11.5800592893
 20
-10.4015245766
 10
-11.5079792685
 20
-10.4697810474
 10
-11.4369330041
 20
-10.5410090767
 10
-11.3669261405
 20
-10.6152778339
 10
-11.2979248083
 20
-10.6927734892
 10
-11.2300587171
 20
-10.7731729197
 10
-11.1631959241
 20
-10.8567980841
 10
-11.0969095672
 20
-10.9448025073
 10
-11.0309918376
 20
-11.0371930305
 10
-10.9656469109
 20
-11.133960916
 10
-10.9010648123
 20
-11.2362357507
 10
-10.8368987044
 20
-11.3443803722
 10
-10.7734894559
 20
-11.458028822
 10
-10.7120573878
 20
-11.5772168311
 10
-10.6524687805
 20
-11.7020965797
 10
-10.594849073
 20
-11.8325115472
 10
-10.5408062514
 20
-11.9680338487
 10
-10.4902040145
 20
-12.1088198579
 10
-10.4431679641
 20
-12.2547075752
 10
-10.4016980965
 20
-12.4047911075
 10
-10.3656094196
 20
-12.5594042698
 10
-10.3350739352
 20
-12.7182063904
 10
-10.3126271743
 20
-12.8792798603
 10
-10.298099631
 20
-13.0430711193
 10
-10.2916471028
 20
-13.2091264546
 10
-10.2962952537
 20
-13.3741791661
 10
-10.3119657009
 20
-13.5389050932
  0
LWPOLYLINE
  5
2A0
100
AcDbEntity
  8
RACCORDO
100
AcDbPolyline
 62
250
  6
CONTINUOUS
 90
5
 70
0
 10
-16.9661688424
 20
20.2712260755
 10
-16.9648518524
 20
20.2584124057
 10
-16.9566488634
 20
20.2370597195
 10
-16.9414577344
 20
20.2170390955
 10
-16.9199454894
 20
20.1988121985
  0
LWPOLYLINE
  5
2A1
100
AcDbEntity
  8
RACCORDO
100
AcDbPolyline
 62
7
  6
CONTINUOUS
 90
12
 70
0
 10
-7.1337809087
 20
23.2709898275
 10
-7.1331195478
 20
23.2731240472
 10
-7.131363059
 20
23.2765456585
 10
-7.1287748928
 20
23.2797459881
 10
-7.1253655681
 20
23.2827278347
 10
-7.121178572
 20
23.2854531638
 10
-7.1162039427
 20
23.2879186895
 10
-7.110451642
 20
23.2901276977
 10
-7.1039950425
 20
23.2920520117
 10
-7.0968586018
 20
23.2936822394
 10
-7.0890178623
 20
23.2950277729
 10
-7.080472824
 20
23.2960886122
  0
LINE
  5
2A2
100
AcDbEntity
  8
DRAFT
100
AcDbLine
 62
7
  6
CONTINUOUS
 10
-12.6570115605
 20
6.1615452878
 11
-12.5538616707
 21
6.3747293256
  0
LINE
  5
2A3
100
AcDbEntity
  8
DRAFT
100
AcDbLine
 62
7
  6
CONTINUOUS
 10
-12.5538616707
 20
6.3747293256
 11
-12.4950986827
 21
6.4526993983
  0
LINE
  5
2A4
100
AcDbEntity
  8
RACCORDO
100
AcDbLine
 62
250
  6
CONTINUOUS
 10
8.0499939993
 20
18.70245232
 11
2.0670622615
 21
15.6849536425
  0
LINE
  5
2A5
100
AcDbEntity
  8
RACCORDO
100
AcDbLine
 62
250
  6
CONTINUOUS
 10
8.0798509638
 20
18.5123420612
 11
2.1495211723
 21
15.5214541881
  0
LINE
  5
2A6
100
AcDbEntity
  8
ASSI
100
AcDbLine
 62
7
  6
CONTINUOUS
 10
11.2508469908
 20
19.8327593269
 11
8.2002479637
 21
18.3896383588
  0
LWPOLYLINE
  5
2A7
100
AcDbEntity
  8
DRAFT
100
AcDbPolyline
 62
7
  6
CONTINUOUS
 90
4
 70
0
 10
-10.5875720511
 20
-13.8365966641
 10
-10.6937533463
 20
-13.8346795015
 10
-10.9261512823
 20
-13.7841658779
 10
-11.174770501
 20
-13.6870418213
  0
LINE
  5
2A8
100
AcDbEntity
  8
RACCORDO
100
AcDbLine
 62
250
  6
CONTINUOUS
 10
-12.6153581735
 20
-9.8167474352
 11
-12.4100701734
 21
-9.8770045611
  0
LINE
  5
2A9
100
AcDbEntity
  8
RACCORDO
100
AcDbLine
 62
250
  6
CONTINUOUS
 10
-12.4100701734
 20
-9.8770045611
 11
-12.1962161744
 21
-9.9677177109
  0
LINE
  5
2AA
100
AcDbEntity
  8
RACCORDO
100
AcDbLine
 62
250
  6
CONTINUOUS
 10
6.9862365472
 20
-19.503491261
 11
6.9855201152
 21
-19.5031158056
  0
LWPOLYLINE
  5
2AB
100
AcDbEntity
  8
RACCORDO
100
AcDbPolyline
 62
250
  6
CONTINUOUS
 90
5
 70
0
 10
-12.1962161744
 20
-9.9677177109
 10
-12.1152225129
 20
-10.0105566725
 10
-12.0353719299
 20
-10.0566896304
 10
-11.9566642614
 20
-10.1061164993
 10
-11.8791147518
 20
-10.1589133507
  0
LWPOLYLINE
  5
2AC
100
AcDbEntity
  8
RACCORDO
100
AcDbPolyline
 62
250
  6
CONTINUOUS
 90
6
 70
0
 10
-12.229519103
 20
-1.7497351831
 10
-12.2255105582
 20
-1.8085302673
 10
-12.2128564556
 20
-1.8611982043
 10
-12.1919493058
 20
-1.9061053103
 10
-12.1634376321
 20
-1.941858622
 10
-12.1261120268
 20
-1.9684269341
  0
LWPOLYLINE
  5
2AD
100
AcDbEntity
  8
RACCORDO
100
AcDbPolyline
 62
7
  6
CONTINUOUS
 90
21
 70
0
 10
-12.3793549825
 20
-2.1415203265
 10
-12.371617985
 20
-2.2955766184
 10
-12.3562960818
 20
-2.4536319723
 10
-12.3333566851
 20
-2.6149981441
 10
-12.3027846894
 20
-2.7791048019
 10
-12.2645959417
 20
-2.9453297805
 10
-12.218885874
 20
-3.1128631659
 10
-12.1658119449
 20
-3.280872048
 10
-12.1055461507
 20
-3.4486344542
 10
-12.0383092426
 20
-3.6154011879
 10
-11.9644144191
 20
-3.780316852
 10
-11.8841804138
 20
-3.9426387602
 10
-11.7979367871
 20
-4.1016873132
 10
-11.706083774
 20
-4.2567302471
 10
-11.6090188761
 20
-4.4071196931
 10
-11.5071903899
 20
-4.5521965144
 10
-11.401138838
 20
-4.6912522245
 10
-11.2913878515
 20
-4.8236880866
 10
-11.1784356614
 20
-4.9490005707
 10
-11.0628457841
 20
-5.0666718333
 10
-10.9451975509
 20
-5.1762354563
  0
LINE
  5
2AE
100
AcDbEntity
  8
ASSI
100
AcDbLine
 62
7
  6
CONTINUOUS
 10
-11.9525879603
 20
-13.0429620729
 11
-11.9525879603
 21
-10.2589069897
  0
LINE
  5
2AF
100
AcDbEntity
  8
0
100
AcDbLine
 62
7
  6
CONTINUOUS
 10
-11.9525879603
 20
5.5217571195
 11
-11.9525879603
 21
6.2862343154
  0
LINE
  5
2B0
100
AcDbEntity
  8
RACCORDO
100
AcDbLine
 62
7
  6
CONTINUOUS
 10
-11.5308365182
 20
21.144352479
 11
-11.5308365182
 21
21.6455965507
  0
LINE
  5
2B1
100
AcDbEntity
  8
RACCORDO
100
AcDbLine
 62
250
  6
CONTINUOUS
 10
-11.2818634373
 20
21.343741103
 11
-11.2818772822
 21
20.8400686974
  0
LINE
  5
2B2
100
AcDbEntity
  8
RACCORDO
100
AcDbLine
 62
250
  6
CONTINUOUS
 10
-11.2610580527
 20
21.3333384107
 11
-11.2610580527
 21
20.8296590826
  0
LWPOLYLINE
  5
2B3
100
AcDbEntity
  8
RACCORDO
100
AcDbPolyline
 62
250
  6
CONTINUOUS
 90
9
 70
0
 10
-11.9747876581
 20
5.6787312012
 10
-11.9750060773
 20
5.6639811089
 10
-11.9790027141
 20
5.6486998257
 10
-11.9867643108
 20
5.6333234198
 10
-11.9982058289
 20
5.6180203584
 10
-12.0132019125
 20
5.6029583042
 10
-12.0315882612
 20
5.5883022798
 10
-12.05316343
 20
5.5742128598
 10
-12.0776910364
 20
5.5608444106
  0
LWPOLYLINE
  5
2B4
100
AcDbEntity
  8
RACCORDO
100
AcDbPolyline
 62
7
  6
CONTINUOUS
 90
3
 70
0
 10
-12.3736951134
 20
-1.8734267133
 10
-12.3795860757
 20
-1.9921297008
 10
-12.3793549825
 20
-2.1415203265
  0
LWPOLYLINE
  5
2B5
100
AcDbEntity
  8
RACCORDO
100
AcDbPolyline
 62
250
  6
CONTINUOUS
 90
3
 70
0
 10
-12.2295190635
 20
-6.3275000531
 10
-12.2255104313
 20
-6.2646963921
 10
-12.2128562278
 20
-6.1993743163
  0
LWPOLYLINE
  5
2B6
100
AcDbEntity
  8
RACCORDO
100
AcDbPolyline
 62
250
  6
CONTINUOUS
 90
28
 70
0
 10
-12.4651222988
 20
-1.8699299288
 10
-12.4779598164
 20
-2.0163935635
 10
-12.4828642763
 20
-2.1675739906
 10
-12.479806479
 20
-2.3228681323
 10
-12.4687892429
 20
-2.481656122
 10
-12.44999491
 20
-2.6422517419
 10
-12.4236389322
 20
-2.8039795261
 10
-12.3899653039
 20
-2.9661633732
 10
-12.3495408604
 20
-3.1270557635
 10
-12.302784696
 20
-3.2860615914
 10
-12.2501432395
 20
-3.4425665099
 10
-12.1925326633
 20
-3.5948559028
 10
-12.1305274731
 20
-3.7424915766
 10
-12.0646952119
 20
-3.8850835839
 10
-11.996190397
 20
-4.0211572167
 10
-11.925809566
 20
-4.1502406463
 10
-11.8540005152
 20
-4.2725228256
 10
-11.7814855657
 20
-4.3876972291
 10
-11.7089429429
 20
-4.4955856811
 10
-11.6367198366
 20
-4.596502081
 10
-11.5649725209
 20
-4.6909446285
 10
-11.4940998927
 20
-4.7790266009
 10
-11.4244201509
 20
-4.8609499026
 10
-11.3558636326
 20
-4.9373201039
 10
-11.2886842228
 20
-5.0083147469
 10
-11.2231090662
 20
-5.0741288294
 10
-11.1589476902
 20
-5.1353360789
 10
-11.0963692014
 20
-5.1921106577
  0
LINE
  5
2B7
100
AcDbEntity
  8
RACCORDO
100
AcDbLine
 62
7
  6
CONTINUOUS
 10
-10.6237660572
 20
4.5920783516
 11
-10.7626850589
 21
3.3909477115
  0
LINE
  5
2B8
100
AcDbEntity
  8
ASSI
100
AcDbLine
 62
7
  6
CONTINUOUS
 10
-12.5373104442
 20
-10.5667173485
 11
-12.6714295631
 21
-11.6376962504
  0
LINE
  5
2B9
100
AcDbEntity
  8
RACCORDO
100
AcDbLine
 62
250
  6
CONTINUOUS
 10
-12.0776910364
 20
-10.3369076446
 11
-12.3443013382
 21
-12.4658659216
  0
LINE
  5
2BA
100
AcDbEntity
  8
RACCORDO
100
AcDbLine
 62
7
  6
CONTINUOUS
 10
-11.9789927352
 20
-10.2436902453
 11
-12.2734386488
 21
-12.5949237145
  0
LINE
  5
2BB
100
AcDbEntity
  8
RACCORDO
100
AcDbLine
 62
250
  6
CONTINUOUS
 10
-12.0715601182
 20
-10.2921583729
 11
-12.0776910364
 21
-10.3369076446
  0
LINE
  5
2BC
100
AcDbEntity
  8
RACCORDO
100
AcDbLine
 62
250
  6
CONTINUOUS
 10
-12.4623723528
 20
-1.8511598396
 11
-12.4651222988
 21
-1.8699299288
  0
LINE
  5
2BD
100
AcDbEntity
  8
RACCORDO
100
AcDbLine
 62
250
  6
CONTINUOUS
 10
-7.080472824
 20
23.2960886122
 11
-7.0971578575
 21
23.224853912
  0
LINE
  5
2BE
100
AcDbEntity
  8
RACCORDO
100
AcDbLine
 62
250
  6
CONTINUOUS
 10
-10.4065134885
 20
2.598782121
 11
-10.4684785996
 21
2.4435997058
  0
LWPOLYLINE
  5
2BF
100
AcDbEntity
  8
DRAFT
100
AcDbPolyline
 62
7
  6
CONTINUOUS
 90
3
 70
0
 10
-12.6570115605
 20
-2.0656960481
 10
-12.5538616707
 20
-1.8525120104
 10
-12.5423552491
 20
-1.8372446363
  0
LINE
  5
2C0
100
AcDbEntity
  8
ASSI
100
AcDbLine
 62
250
  6
CONTINUOUS
 10
-1.4000423291
 20
18.4123017803
 11
-1.8346979571
 21
17.6792211561
  0
LWPOLYLINE
  5
2C1
100
AcDbEntity
  8
RACCORDO
100
AcDbPolyline
 62
250
  6
CONTINUOUS
 90
13
 70
0
 10
-1.7473700418
 20
13.0002148724
 10
-1.7662823523
 20
12.9891090793
 10
-1.7855879331
 20
12.9751467374
 10
-1.8050089657
 20
12.9582544311
 10
-1.824197727
 20
12.9384496503
 10
-1.8428194949
 20
12.9157709938
 10
-1.8605389436
 20
12.8902602991
 10
-1.8769004818
 20
12.8621365877
 10
-1.8914183367
 20
12.83172939
 10
-1.9036262267
 20
12.7993725382
 10
-1.9129920074
 20
12.7655994207
 10
-1.9189689044
 20
12.7311587554
 10
-1.9210615584
 20
12.6968957381
  0
LINE
  5
2C2
100
AcDbEntity
  8
ASSI
100
AcDbLine
 62
250
  6
CONTINUOUS
 10
4.2211027282
 20
15.7295857624
 11
2.5882256613
 21
14.7860797416
  0
LINE
  5
2C3
100
AcDbEntity
  8
ASSI
100
AcDbLine
 62
250
  6
CONTINUOUS
 10
4.3246914689
 20
15.630487066
 11
2.6572592337
 21
14.6670144415
  0
LWPOLYLINE
  5
2C4
100
AcDbEntity
  8
RACCORDO
100
AcDbPolyline
 62
7
  6
CONTINUOUS
 90
7
 70
0
 10
8.0189673353
 20
18.1936412575
 10
8.0342048279
 20
18.2020031401
 10
8.111277356
 20
18.2579794365
 10
8.1691821571
 20
18.3257313567
 10
8.2070782589
 20
18.4036892959
 10
8.222871924
 20
18.4884411422
 10
8.223215876
 20
18.5046149333
  0
LWPOLYLINE
  5
2C5
100
AcDbEntity
  8
RACCORDO
100
AcDbPolyline
 62
250
  6
CONTINUOUS
 90
8
 70
0
 10
8.0798509638
 20
18.3267090695
 10
8.0972251566
 20
18.3361081758
 10
8.114226641
 20
18.3463134793
 10
8.130692033
 20
18.3573454507
 10
8.146418592
 20
18.369196551
 10
8.1612541229
 20
18.3818944532
 10
8.1750711896
 20
18.3955088519
 10
8.1876361655
 20
18.4100334559
  0
LINE
  5
2C6
100
AcDbEntity
  8
RACCORDO
100
AcDbLine
 62
250
  6
CONTINUOUS
 10
8.0189674598
 20
18.1936410272
 11
8.0168042317
 21
18.1924809442
  0
LINE
  5
2C7
100
AcDbEntity
  8
RACCORDO
100
AcDbLine
 62
250
  6
CONTINUOUS
 10
8.1016389241
 20
18.5239121396
 11
8.0798509638
 21
18.5123420612
  0
LINE
  5
2C8
100
AcDbEntity
  8
ASSI
100
AcDbLine
 62
7
  6
CONTINUOUS
 10
2.4593970534
 20
15.0082762223
 11
2.7551577013
 21
15.1624793177
  0
LINE
  5
2C9
100
AcDbEntity
  8
RACCORDO
100
AcDbLine
 62
250
  6
CONTINUOUS
 10
2.264429993
 20
15.3050978734
 11
8.0798509638
 21
18.3267090695
  0
LINE
  5
2CA
100
AcDbEntity
  8
RACCORDO
100
AcDbLine
 62
7
  6
CONTINUOUS
 10
2.3272178452
 20
15.2362516337
 11
8.0168042317
 21
18.1924809442
  0
LINE
  5
2CB
100
AcDbEntity
  8
RACCORDO
100
AcDbLine
 62
250
  6
CONTINUOUS
 10
1.8577939842
 20
14.8480117128
 11
-1.7473700418
 21
13.0002148724
  0
LINE
  5
2CC
100
AcDbEntity
  8
RACCORDO
100
AcDbLine
 62
250
  6
CONTINUOUS
 10
2.0345504869
 20
14.5431271093
 11
-1.569057547
 21
12.6961277797
  0
LINE
  5
2CD
100
AcDbEntity
  8
RACCORDO
100
AcDbLine
 62
7
  6
CONTINUOUS
 10
-12.8501255961
 20
6.3846704358
 11
-12.8469921704
 21
6.3862727536
  0
LINE
  5
2CE
100
AcDbEntity
  8
ASSI
100
AcDbLine
 62
7
  6
CONTINUOUS
 10
11.9644459423
 20
19.0432736326
 11
8.8442316205
 21
17.4694922164
  0
LINE
  5
2CF
100
AcDbEntity
  8
ASSI
100
AcDbLine
 62
250
  6
CONTINUOUS
 10
8.3959228266
 20
17.80015567
 11
4.2212750546
 21
15.7294995992
  0
LINE
  5
2D0
100
AcDbEntity
  8
ASSI
100
AcDbLine
 62
250
  6
CONTINUOUS
 10
8.4984201361
 20
17.7006872541
 11
4.3246914689
 21
15.630487066
  0
LINE
  5
2D1
100
AcDbEntity
  8
ASSI
100
AcDbLine
 62
7
  6
CONTINUOUS
 10
11.9644459423
 20
18.5989243969
 11
9.029434953
 21
17.1500637185
  0
LWPOLYLINE
  5
2D2
100
AcDbEntity
  8
RACCORDO
100
AcDbPolyline
 62
250
  6
CONTINUOUS
 90
10
 70
0
 10
-1.569057547
 20
12.6961277797
 10
-1.6029260573
 20
12.6821849975
 10
-1.6411364765
 20
12.6714196814
 10
-1.6825096271
 20
12.6641603678
 10
-1.7259328116
 20
12.6606213385
 10
-1.7699121206
 20
12.6609425766
 10
-1.8126174551
 20
12.6650440583
 10
-1.8526587187
 20
12.6726396148
 10
-1.8891125561
 20
12.6833957409
 10
-1.9210615584
 20
12.6968957381
  0
LWPOLYLINE
  5
2D3
100
AcDbEntity
  8
RACCORDO
100
AcDbPolyline
 62
7
  6
CONTINUOUS
 90
6
 70
0
 10
-12.8473437917
 20
6.3859988235
 10
-12.7246228365
 20
6.4331538523
 10
-12.5714618855
 20
6.456857556
 10
-12.3981272158
 20
6.4474190716
 10
-12.2050877783
 20
6.4006001645
 10
-12.008655612
 20
6.3185931896
  0
LWPOLYLINE
  5
2D4
100
AcDbEntity
  8
RACCORDO
100
AcDbPolyline
 62
250
  6
CONTINUOUS
 90
30
 70
0
 10
-11.9443141196
 20
-5.8363472689
 10
-12.1612723683
 20
-5.7097997426
 10
-12.3663126747
 20
-5.5558721847
 10
-12.5565164517
 20
-5.3808199887
 10
-12.7295491685
 20
-5.1909866766
 10
-12.8845141633
 20
-4.9914740297
 10
-13.0216134765
 20
-4.7857089793
 10
-13.1406217723
 20
-4.577756785
 10
-13.2418322471
 20
-4.3711376539
 10
-13.3264196573
 20
-4.1672452208
 10
-13.3950667556
 20
-3.9683317491
 10
-13.4486034578
 20
-3.7765491136
 10
-13.4882759197
 20
-3.59238079
 10
-13.5150613279
 20
-3.4170166958
 10
-13.5300261085
 20
-3.2514857582
 10
-13.5343170936
 20
-3.0956342638
 10
-13.5289421466
 20
-2.9499286083
 10
-13.5149376651
 20
-2.8147078227
 10
-13.4932323653
 20
-2.6894613274
 10
-13.4647230916
 20
-2.5742054836
 10
-13.4303076068
 20
-2.4688999973
 10
-13.3906749693
 20
-2.3729224035
 10
-13.3465707374
 20
-2.2860581969
 10
-13.2987268567
 20
-2.2080532474
 10
-13.2476118467
 20
-2.1382732151
 10
-13.1937668279
 20
-2.0763450769
 10
-13.1378066885
 20
-2.021986289
 10
-13.0801801367
 20
-1.9747391808
 10
-13.0214414626
 20
-1.9342564924
 10
-12.9569174938
 20
-1.8974486175
  0
LWPOLYLINE
  5
2D5
100
AcDbEntity
  8
RACCORDO
100
AcDbPolyline
 62
250
  6
CONTINUOUS
 90
40
 70
0
 10
-12.2296195998
 20
-6.3275512234
 10
-12.4879321824
 20
-6.1681741717
 10
-12.7274506748
 20
-5.9901114599
 10
-12.9481640727
 20
-5.7933575063
 10
-13.1507750665
 20
-5.5726924751
 10
-13.3345399078
 20
-5.333315406
 10
-13.4972841617
 20
-5.0908522004
 10
-13.6375127478
 20
-4.8475678747
 10
-13.7566915267
 20
-4.60118271
 10
-13.8571121761
 20
-4.3605180184
 10
-13.9383481899
 20
-4.1270013704
 10
-14.0008179347
 20
-3.8992011999
 10
-14.0481009107
 20
-3.6816604594
 10
-14.0801462356
 20
-3.4753550161
 10
-14.0970126542
 20
-3.2793130534
 10
-14.1024566648
 20
-3.0951622973
 10
-14.0966226412
 20
-2.9234938202
 10
-14.0793815541
 20
-2.7637243049
 10
-14.0540854859
 20
-2.6157227266
 10
-14.02094924
 20
-2.4797945246
 10
-13.9797745181
 20
-2.3556425409
 10
-13.9332951736
 20
-2.2422325533
 10
-13.8817302503
 20
-2.1396997521
 10
-13.8248751296
 20
-2.0479161486
 10
-13.7648275175
 20
-1.9654524184
 10
-13.7017072943
 20
-1.8923054594
 10
-13.6354057495
 20
-1.828483929
 10
-13.5676764518
 20
-1.7725755146
 10
-13.4987599939
 20
-1.7246362563
 10
-13.4284240625
 20
-1.6846142194
 10
-13.3577114776
 20
-1.6509344383
 10
-13.2869955916
 20
-1.6235092227
 10
-13.2159084458
 20
-1.6024289316
 10
-13.1443794864
 20
-1.586384976
 10
-13.0724810988
 20
-1.5751347073
 10
-13.0001440019
 20
-1.5689223076
 10
-12.9270842042
 20
-1.5671689707
 10
-12.8532706803
 20
-1.5697145127
 10
-12.7787363918
 20
-1.5767200726
 10
-12.7032929209
 20
-1.5880886286
  0
LWPOLYLINE
  5
2D6
100
AcDbEntity
  8
RACCORDO
100
AcDbPolyline
 62
250
  6
CONTINUOUS
 90
6
 70
0
 10
-10.8620435162
 20
-5.3805256182
 10
-10.8071295562
 20
-5.4194081833
 10
-10.7535925326
 20
-5.4554538964
 10
-10.7014788166
 20
-5.4887961335
 10
-10.6503716734
 20
-5.5198374502
 10
-10.6232328831
 20
-5.5354631609
  0
LWPOLYLINE
  5
2D7
100
AcDbEntity
  8
RACCORDO
100
AcDbPolyline
 62
7
  6
CONTINUOUS
 90
5
 70
0
 10
-10.9451975509
 20
-5.1762354563
 10
-10.8260501919
 20
-5.2773052976
 10
-10.7059949026
 20
-5.3695246542
 10
-10.5856483855
 20
-5.4525800223
 10
-10.5855405606
 20
-5.4526461818
  0
LWPOLYLINE
  5
2D8
100
AcDbEntity
  8
RACCORDO
100
AcDbPolyline
 62
250
  6
CONTINUOUS
 90
5
 70
0
 10
-11.0963692014
 20
-5.1921106577
 10
-11.0355181973
 20
-5.2446408906
 10
-10.9761111696
 20
-5.2934501373
 10
-10.9182557397
 20
-5.338691641
 10
-10.8620435162
 20
-5.3805256182
  0
LWPOLYLINE
  5
2D9
100
AcDbEntity
  8
0
100
AcDbPolyline
 62
7
  6
CONTINUOUS
 90
18
 70
0
 10
-10.526229684
 20
-5.2476128142
 10
-10.6613710584
 20
-5.1044335909
 10
-10.7974365586
 20
-4.9505755069
 10
-10.929967313
 20
-4.7907722943
 10
-11.0586275611
 20
-4.6254184025
 10
-11.1830883082
 20
-4.4549313064
 10
-11.3030296607
 20
-4.2797502343
 10
-11.418155704
 20
-4.1003142617
 10
-11.5281782606
 20
-3.9170851075
 10
-11.6328152342
 20
-3.7305539782
 10
-11.7318180327
 20
-3.5411938875
 10
-11.8249479921
 20
-3.349498687
 10
-11.9119686128
 20
-3.1560064475
 10
-11.9926832437
 20
-2.9612210053
 10
-12.0669157155
 20
-2.765646056
 10
-12.1344946706
 20
-2.5698311163
 10
-12.1952848577
 20
-2.374290626
 10
-12.2491745325
 20
-2.179529189
  0
LWPOLYLINE
  5
2DA
100
AcDbEntity
  8
0
100
AcDbPolyline
 62
7
  6
CONTINUOUS
 90
3
 70
0
 10
-12.2491745325
 20
-2.179529189
 10
-12.296063377
 20
-1.9860889304
 10
-12.3164170251
 20
-1.8881485959
  0
LWPOLYLINE
  5
2DB
100
AcDbEntity
  8
ASSI
100
AcDbPolyline
 62
7
  6
CONTINUOUS
 90
19
 70
0
 10
-12.5373104442
 20
5.3310347067
 10
-12.5179805243
 20
5.1900533006
 10
-12.4917622804
 20
5.0486811877
 10
-12.4586557124
 20
4.9069183679
 10
-12.4184449493
 20
4.7641085046
 10
-12.371345862
 20
4.6209079345
 10
-12.3180060638
 20
4.4792856674
 10
-12.2583393496
 20
4.3392635047
 10
-12.1924319245
 20
4.2008196451
 10
-12.1211900163
 20
4.0658576933
 10
-12.0445399382
 20
3.9344257462
 10
-11.9625553772
 20
3.8064757071
 10
-11.8763636219
 20
3.6837668906
 10
-11.7859065572
 20
3.5663716956
 10
-11.6912422984
 20
3.4542177233
 10
-11.5936724802
 20
3.3488470924
 10
-11.4931569674
 20
3.2503535033
 10
-11.3897358952
 20
3.1586432557
 10
-11.284831305
 20
3.0749773666
  0
LWPOLYLINE
  5
2DC
100
AcDbEntity
  8
RACCORDO
100
AcDbPolyline
 62
7
  6
CONTINUOUS
 90
24
 70
0
 10
-11.9747876581
 20
5.6787312012
 10
-11.9572252187
 20
5.5477143532
 10
-11.9333956082
 20
5.4143271842
 10
-11.9033314546
 20
5.279169782
 10
-11.8671062969
 20
5.1428646222
 10
-11.8248292344
 20
5.0060313263
 10
-11.7766365192
 20
4.8692686868
 10
-11.7226891249
 20
4.7331607396
 10
-11.6632099343
 20
4.5983637388
 10
-11.5984802238
 20
4.4655649388
 10
-11.5287767918
 20
4.3353521828
 10
-11.4544165331
 20
4.2083207019
 10
-11.3758055905
 20
4.0851378532
 10
-11.2933268151
 20
3.9663504803
 10
-11.207373121
 20
3.8524605275
 10
-11.1184274471
 20
3.744024972
 10
-11.0269568393
 20
3.6415079957
 10
-10.9334063938
 20
3.5452933906
 10
-10.838281093
 20
3.4557744962
 10
-10.7421292641
 20
3.3733202513
 10
-10.6454039275
 20
3.2981602859
 10
-10.5485221875
 20
3.2304646673
 10
-10.4521674013
 20
3.170534518
 10
-10.4354992063
 20
3.1614323157
  0
LWPOLYLINE
  5
2DD
100
AcDbEntity
  8
RACCORDO
100
AcDbPolyline
 62
250
  6
CONTINUOUS
 90
35
 70
0
 10
-12.0776910364
 20
5.5608444106
 10
-12.0716091356
 20
5.5103425002
 10
-12.0643979778
 20
5.4583723193
 10
-12.0559939239
 20
5.4049481222
 10
-12.0463638787
 20
5.3502543158
 10
-12.035419832
 20
5.294149689
 10
-12.0229861316
 20
5.236161907
 10
-12.0089656147
 20
5.1763070675
 10
-11.9932671142
 20
5.1146370757
 10
-11.9756651476
 20
5.0507381342
 10
-11.9560358994
 20
4.9846642586
 10
-11.9342569469
 20
4.9164861161
 10
-11.9100461392
 20
4.8458339772
 10
-11.8832504871
 20
4.7728058667
 10
-11.8537216546
 20
4.6975266513
 10
-11.8211260724
 20
4.6197050546
 10
-11.7852884586
 20
4.539512535
 10
-11.7460428116
 20
4.4571566292
 10
-11.7030160437
 20
4.3724638223
 10
-11.6560259612
 20
4.2857165299
 10
-11.6049072326
 20
4.1972436714
 10
-11.5492704768
 20
4.1070376018
 10
-11.4888963074
 20
4.0154516787
 10
-11.4237071831
 20
3.9230749204
 10
-11.3535273635
 20
3.830364865
 10
-11.2781536198
 20
3.7377875151
 10
-11.1976799417
 20
3.6461940783
 10
-11.1124619574
 20
3.5566662836
 10
-11.0225020588
 20
3.4698548985
 10
-10.9280496547
 20
3.3866514296
 10
-10.8299793982
 20
3.3083876167
 10
-10.728197755
 20
3.2355211838
 10
-10.6234534797
 20
3.1691245678
 10
-10.5180404281
 20
3.1109141077
 10
-10.4490045451
 20
3.0784066949
  0
LINE
  5
2DE
100
AcDbEntity
  8
ASSI
100
AcDbLine
 62
7
  6
CONTINUOUS
 10
-12.6348402658
 20
6.2073675967
 11
-12.5373104442
 21
5.3310347067
  0
LINE
  5
2DF
100
AcDbEntity
  8
RACCORDO
100
AcDbLine
 62
250
  6
CONTINUOUS
 10
-12.1694963948
 20
6.3857413878
 11
-12.0776910364
 21
5.5608444106
  0
LINE
  5
2E0
100
AcDbEntity
  8
RACCORDO
100
AcDbLine
 62
7
  6
CONTINUOUS
 10
-12.047819567
 20
6.334943452
 11
-11.9747876581
 21
5.6787312012
  0
LWPOLYLINE
  5
2E1
100
AcDbEntity
  8
RACCORDO
100
AcDbPolyline
 62
250
  6
CONTINUOUS
 90
14
 70
0
 10
-11.5308314202
 20
21.6441137633
 10
-11.5291600689
 20
21.6187220538
 10
-11.5249698827
 20
21.5953957259
 10
-11.5182042552
 20
21.5720950022
 10
-11.5088517237
 20
21.5489199531
 10
-11.4969244369
 20
21.5259786606
 10
-11.4824267588
 20
21.5033329243
 10
-11.4653854818
 20
21.4810684168
 10
-11.4458921108
 20
21.4593239731
 10
-11.4240197342
 20
21.4381798906
 10
-11.3998246977
 20
21.4176891152
 10
-11.3734151655
 20
21.397940116
 10
-11.3448924964
 20
21.3789996982
 10
-11.3143415694
 20
21.3609156052
  0
LINE
  5
2E2
100
AcDbEntity
  8
0
100
AcDbLine
 62
7
  6
CONTINUOUS
 10
-9.4777142262
 20
22.4511377289
 11
-9.4777142262
 21
22.71094535
  0
LINE
  5
2E3
100
AcDbEntity
  8
RACCORDO
100
AcDbLine
 62
250
  6
CONTINUOUS
 10
-10.0641921891
 20
21.3352486079
 11
-10.0642444141
 21
20.8397849462
  0
LWPOLYLINE
  5
2E4
100
AcDbEntity
  8
0
100
AcDbPolyline
 62
7
  6
CONTINUOUS
 90
19
 70
0
 10
-9.4777142262
 20
22.71094535
 10
-9.4757125333
 20
22.7654344905
 10
-9.4700905815
 20
22.8205457023
 10
-9.4608483707
 20
22.8762789854
 10
-9.447861093
 20
22.933065775
 10
-9.4312535564
 20
22.9904746359
 10
-9.4114001843
 20
23.0472112623
 10
-9.3882272441
 20
23.1032603836
 10
-9.3618084685
 20
23.1586372703
 10
-9.3327394794
 20
23.2120934284
 10
-9.3009600741
 20
23.2635852264
 10
-9.2665304554
 20
23.3131562957
 10
-9.2302268528
 20
23.3596890367
 10
-9.1920066965
 20
23.4031144304
 10
-9.1519125563
 20
23.4435014959
 10
-9.1108483707
 20
23.4799396904
 10
-9.0691154524
 20
23.5121254998
 10
-9.0264124886
 20
23.5403624384
 10
-8.9827394794
 20
23.5646505061
  0
LINE
  5
2E5
100
AcDbEntity
  8
ASSI
100
AcDbLine
 62
7
  6
CONTINUOUS
 10
-11.8265535783
 20
-13.1859796984
 11
-11.5504631298
 21
-10.570092682
  0
LINE
  5
2E6
100
AcDbEntity
  8
ASSI
100
AcDbLine
 62
7
  6
CONTINUOUS
 10
-11.2641701002
 20
-13.6325665203
 11
-10.9703794874
 21
-11.2865658116
  0
LINE
  5
2E7
100
AcDbEntity
  8
RACCORDO
100
AcDbLine
 62
250
  6
CONTINUOUS
 10
-10.3912163404
 20
-5.3194073665
 11
-10.4162074156
 21
-5.4672381093
  0
LWPOLYLINE
  5
2E8
100
AcDbEntity
  8
RACCORDO
100
AcDbPolyline
 62
250
  6
CONTINUOUS
 90
4
 70
0
 10
-12.0553605738
 20
-10.1996804068
 10
-12.0557648171
 20
-10.2015645243
 10
-12.0642741963
 20
-10.2470165828
 10
-12.0715601182
 20
-10.2921583729
  0
LINE
  5
2E9
100
AcDbEntity
  8
RACCORDO
100
AcDbLine
 62
250
  6
CONTINUOUS
 10
-5.1302271393
 20
23.4951234093
 11
-5.2176303442
 21
23.1219661655
  0
LINE
  5
2EA
100
AcDbEntity
  8
RACCORDO
100
AcDbLine
 62
250
  6
CONTINUOUS
 10
-4.8543060807
 20
23.4381392689
 11
-4.9417092856
 21
23.0649820251
  0
LWPOLYLINE
  5
2EB
100
AcDbEntity
  8
RACCORDO
100
AcDbPolyline
 62
250
  6
CONTINUOUS
 90
4
 70
0
 10
-10.4162074156
 20
-5.4672381093
 10
-10.4489467287
 20
-5.6029496523
 10
-10.4896480465
 20
-5.7268477725
 10
-10.5355949755
 20
-5.8399769206
  0
LWPOLYLINE
  5
2EC
100
AcDbEntity
  8
RACCORDO
100
AcDbPolyline
 62
7
  6
CONTINUOUS
 90
12
 70
0
 10
-3.1032722559
 20
21.2557355011
 10
-3.102610895
 20
21.2578697208
 10
-3.1008544062
 20
21.2612913321
 10
-3.09826624
 20
21.2644916617
 10
-3.0948569153
 20
21.2674735083
 10
-3.0906699192
 20
21.2701988374
 10
-3.0856952899
 20
21.2726643631
 10
-3.0799429893
 20
21.2748733713
 10
-3.0734863898
 20
21.2767976853
 10
-3.066349949
 20
21.278427913
 10
-3.0585092095
 20
21.2797734465
 10
-3.0499641712
 20
21.2808342859
  0
LWPOLYLINE
  5
2ED
100
AcDbEntity
  8
RACCORDO
100
AcDbPolyline
 62
7
  6
CONTINUOUS
 90
12
 70
0
 10
-2.7434666767
 20
22.3534960051
 10
-2.7441280376
 20
22.3513617855
 10
-2.7458845264
 20
22.3479401741
 10
-2.7484726926
 20
22.3447398445
 10
-2.7518820173
 20
22.3417579979
 10
-2.7560690134
 20
22.3390326688
 10
-2.7610436427
 20
22.3365671431
 10
-2.7667959434
 20
22.3343581349
 10
-2.7732525428
 20
22.3324338209
 10
-2.7803889836
 20
22.3308035932
 10
-2.7882297231
 20
22.3294580597
 10
-2.7967747614
 20
22.3283972204
  0
LWPOLYLINE
  5
2EE
100
AcDbEntity
  8
RACCORDO
100
AcDbPolyline
 62
250
  6
CONTINUOUS
 90
4
 70
0
 10
-12.2128562278
 20
-6.1993743163
 10
-12.191948965
 20
-6.1335600194
 10
-12.1634371433
 20
-6.0692949755
 10
-12.1282051642
 20
-6.0085725807
  0
LWPOLYLINE
  5
2EF
100
AcDbEntity
  8
RACCORDO
100
AcDbPolyline
 62
250
  6
CONTINUOUS
 90
12
 70
0
 10
-10.4684785996
 20
2.4435997058
 10
-10.5448069594
 20
2.2946808046
 10
-10.6386205382
 20
2.159429411
 10
-10.7509113416
 20
2.0367838679
 10
-10.8806974616
 20
1.9278011002
 10
-11.0281584589
 20
1.8430541569
 10
-11.1966699873
 20
1.7838552019
 10
-11.3828861133
 20
1.748877899
 10
-11.5769228572
 20
1.7447285125
 10
-11.7754994982
 20
1.7736024467
 10
-11.9819280758
 20
1.8332892839
 10
-12.1962161744
 20
1.9237853838
  0
LINE
  5
2F0
100
AcDbEntity
  8
ASSI
100
AcDbLine
 62
250
  6
CONTINUOUS
 10
-1.1497035019
 20
18.2871323667
 11
-1.3684556762
 21
17.9181897598
  0
LWPOLYLINE
  5
2F1
100
AcDbEntity
  8
RACCORDO
100
AcDbPolyline
 62
250
  6
CONTINUOUS
 90
5
 70
0
 10
8.1714071289
 20
18.5720198037
 10
8.1566683997
 20
18.5598575073
 10
8.1401311804
 20
18.5477606703
 10
8.1217505827
 20
18.535738981
 10
8.1016389241
 20
18.5239121396
  0
LWPOLYLINE
  5
2F2
100
AcDbEntity
  8
RACCORDO
100
AcDbPolyline
 62
250
  6
CONTINUOUS
 90
13
 70
0
 10
-3.9506340985
 20
7.9713856314
 10
-4.0446816959
 20
7.8966580656
 10
-4.131725422
 20
7.8118178657
 10
-4.2107369498
 20
7.719561277
 10
-4.2808983242
 20
7.6226311217
 10
-4.3420441792
 20
7.5231128833
 10
-4.3944649197
 20
7.4222754654
 10
-4.4382245546
 20
7.3216780415
 10
-4.4734638851
 20
7.222895461
 10
-4.5006432239
 20
7.1267592485
 10
-4.5201797732
 20
7.0341517883
 10
-4.5325167718
 20
6.9460255773
 10
-4.5382134241
 20
6.8630140756
  0
LINE
  5
2F3
100
AcDbEntity
  8
RACCORDO
100
AcDbLine
 62
250
  6
CONTINUOUS
 10
-1.5656975727
 20
9.6538054418
 11
-3.9506340985
 21
7.9713856314
  0
LINE
  5
2F4
100
AcDbEntity
  8
RACCORDO
100
AcDbLine
 62
250
  6
CONTINUOUS
 10
-1.3891820343
 20
9.3460345056
 11
-3.7447098314
 21
7.6843606678
  0
LWPOLYLINE
  5
2F5
100
AcDbEntity
  8
ASSI
100
AcDbPolyline
 62
7
  6
CONTINUOUS
 90
9
 70
0
 10
9.5178293916
 20
15.9424663688
 10
9.5526814817
 20
15.9615708103
 10
9.5828908303
 20
15.9800973282
 10
9.608144847
 20
15.9979124678
 10
9.6281220507
 20
16.0150628504
 10
9.6426720534
 20
16.031329634
 10
9.6518532057
 20
16.0462513999
 10
9.6555807361
 20
16.0598688777
 10
9.6556662706
 20
16.0623375126
  0
LINE
  5
2F6
100
AcDbEntity
  8
RACCORDO
100
AcDbLine
 62
250
  6
CONTINUOUS
 10
-12.5373104442
 20
5.3310347067
 11
-12.0776910364
 21
5.5608444106
  0
LINE
  5
2F7
100
AcDbEntity
  8
RACCORDO
100
AcDbLine
 62
250
  6
CONTINUOUS
 10
-11.3457793207
 20
5.7971288723
 11
-11.9479906026
 21
5.4960232314
  0
LINE
  5
2F8
100
AcDbEntity
  8
RACCORDO
100
AcDbLine
 62
7
  6
CONTINUOUS
 10
11.221569709
 20
16.1096866735
 11
10.0992566309
 21
15.5485301345
  0
LINE
  5
2F9
100
AcDbEntity
  8
RACCORDO
100
AcDbLine
 62
7
  6
CONTINUOUS
 10
11.9287005664
 20
15.756145321
 11
10.992412884
 21
15.2880014799
  0
LINE
  5
2FA
100
AcDbEntity
  8
ASSI
100
AcDbLine
 62
7
  6
CONTINUOUS
 10
3.6037612258
 20
13.0090449595
 11
9.5178293916
 21
15.9424663688
  0
LINE
  5
2FB
100
AcDbEntity
  8
RACCORDO
100
AcDbLine
 62
7
  6
CONTINUOUS
 10
-1.569057547
 20
9.9101787874
 11
-1.3891820343
 21
9.9985603745
  0
LINE
  5
2FC
100
AcDbEntity
  8
ASSI
100
AcDbLine
 62
7
  6
CONTINUOUS
 10
15.9094274051
 20
17.5034691198
 11
12.0262266787
 21
15.6230431185
  0
LINE
  5
2FD
100
AcDbEntity
  8
DRAFT
100
AcDbLine
 62
7
  6
CONTINUOUS
 10
3.6037612258
 20
13.034539985
 11
2.0345504869
 21
12.3036513625
  0
LWPOLYLINE
  5
2FE
100
AcDbEntity
  8
RACCORDO
100
AcDbPolyline
 62
7
  6
CONTINUOUS
 90
11
 70
0
 10
11.9281395928
 20
15.7558648342
 10
11.9401432083
 20
15.7612869013
 10
11.9519654216
 20
15.7654451791
 10
11.9636062329
 20
15.7683396679
 10
11.9751847094
 20
15.7699739881
 10
11.9865817838
 20
15.7703445192
 10
11.9974402543
 20
15.7694403995
 10
12.0076834077
 20
15.7672292874
 10
12.0173879571
 20
15.7637435245
 10
12.0264268399
 20
15.7590692738
 10
12.0337295005
 20
15.7540479073
  0
LWPOLYLINE
  5
2FF
100
AcDbEntity
  8
RACCORDO
100
AcDbPolyline
 62
7
  6
CONTINUOUS
 90
10
 70
0
 10
-1.569057547
 20
9.9101787874
 10
-1.6045029222
 20
9.8960273231
 10
-1.6418124302
 20
9.8854371243
 10
-1.6809860711
 20
9.8784081912
 10
-1.7232872947
 20
9.87494328
 10
-1.7674526511
 20
9.8750396345
 10
-1.8096917907
 20
9.8786889853
 10
-1.8487412635
 20
9.8858885759
 10
-1.8858645194
 20
9.8966411628
 10
-1.9210615584
 20
9.9109467459
  0
LWPOLYLINE
  5
300
100
AcDbEntity
  8
DRAFT
100
AcDbPolyline
 62
7
  6
CONTINUOUS
 90
14
 70
0
 10
-11.174770501
 20
-5.4598004854
 10
-11.4233897198
 20
-5.3083053233
 10
-11.6557876558
 20
-5.1264210108
 10
-11.8719643091
 20
-4.9141475479
 10
-12.0756943215
 20
-4.6654302659
 10
-12.2632030512
 20
-4.3863238336
 10
-12.4231665726
 20
-4.094992257
 10
-12.5538616707
 20
-3.7908834737
 10
-12.6570115605
 20
-3.4745495462
 10
-12.7264619625
 20
-3.1658106681
 10
-12.7601614503
 20
-2.8651037744
 10
-12.7601614503
 20
-2.5719919301
 10
-12.7264619625
 20
-2.3049845242
 10
-12.6570115605
 20
-2.0656960481
  0
LINE
  5
301
100
AcDbEntity
  8
RACCORDO
100
AcDbLine
 62
250
  6
CONTINUOUS
 10
-11.9715871155
 20
-1.9093343877
 11
-11.7326255683
 21
-2.0877097632
  0
LWPOLYLINE
  5
302
100
AcDbEntity
  8
RACCORDO
100
AcDbPolyline
 62
250
  6
CONTINUOUS
 90
16
 70
0
 10
-11.7326255683
 20
-2.0877097632
 10
-11.5127239498
 20
-2.2849052312
 10
-11.3111892437
 20
-2.5061489591
 10
-11.1286733919
 20
-2.7461925094
 10
-10.9671890576
 20
-2.9893186098
 10
-10.8281940814
 20
-3.2332389496
 10
-10.7102014065
 20
-3.4802273238
 10
-10.6108310647
 20
-3.7214218139
 10
-10.5304945717
 20
-3.9553890422
 10
-10.4687722799
 20
-4.1835582463
 10
-10.4220579972
 20
-4.4013716016
 10
-10.3904082455
 20
-4.6078524766
 10
-10.3737743865
 20
-4.8039813251
 10
-10.3684050405
 20
-4.9881422072
 10
-10.3741707635
 20
-5.1597549764
 10
-10.3912163404
 20
-5.3194073665
  0
LWPOLYLINE
  5
303
100
AcDbEntity
  8
RACCORDO
100
AcDbPolyline
 62
7
  6
CONTINUOUS
 90
3
 70
0
 10
-16.9574610591
 20
17.4525736194
 10
-16.9647597606
 20
17.4736931892
 10
-16.9661688412
 20
17.4852647943
  0
LWPOLYLINE
  5
304
100
AcDbEntity
  8
RACCORDO
100
AcDbPolyline
 62
250
  6
CONTINUOUS
 90
8
 70
0
 10
-4.5382235589
 20
-22.1752426926
 10
-4.5277955497
 20
-22.2873750561
 10
-4.5053953792
 20
-22.3869531315
 10
-4.4726556635
 20
-22.4732506304
 10
-4.4313513111
 20
-22.5458558362
 10
-4.3830936012
 20
-22.6050996304
 10
-4.3290932234
 20
-22.6517308081
 10
-4.2801355205
 20
-22.6815860062
  0
LINE
  5
305
100
AcDbEntity
  8
RACCORDO
100
AcDbLine
 62
7
  6
CONTINUOUS
 10
-7.8754295606
 20
21.4918861328
 11
-7.7484722347
 21
19.6511448223
  0
LWPOLYLINE
  5
306
100
AcDbEntity
  8
RACCORDO
100
AcDbPolyline
 62
250
  6
CONTINUOUS
 90
4
 70
0
 10
-10.3119657009
 20
-13.5389050932
 10
-10.3387254902
 20
-13.7026223324
 10
-10.3798246548
 20
-13.8600308511
 10
-10.435237779
 20
-14.0117974146
  0
LINE
  5
307
100
AcDbEntity
  8
RACCORDO
100
AcDbLine
 62
250
  6
CONTINUOUS
 10
-2.8036964152
 20
22.4128344362
 11
-2.8241276748
 21
22.3256056841
  0
LINE
  5
308
100
AcDbEntity
  8
RACCORDO
100
AcDbLine
 62
250
  6
CONTINUOUS
 10
-3.0499641712
 20
21.2808342859
 11
-3.0666492047
 21
21.2095995856
  0
LWPOLYLINE
  5
309
100
AcDbEntity
  8
RACCORDO
100
AcDbPolyline
 62
250
  6
CONTINUOUS
 90
6
 70
0
 10
-11.9825010669
 20
-10.2416684373
 10
-11.9867642896
 20
-10.2528260611
 10
-11.9982058044
 20
-10.2722444857
 10
-12.0132018883
 20
-10.2905550994
 10
-12.0315882409
 20
-10.3075572875
 10
-12.0531634177
 20
-10.3230647703
  0
LWPOLYLINE
  5
30A
100
AcDbEntity
  8
ASSI
100
AcDbPolyline
 62
7
  6
CONTINUOUS
 90
6
 70
0
 10
-12.394220979
 20
-10.0692297926
 10
-12.4184449493
 20
-10.1186566414
 10
-12.4586557124
 20
-10.2212557415
 10
-12.4917622804
 20
-10.3299119933
 10
-12.5179805243
 20
-10.4450658623
 10
-12.5373104442
 20
-10.5667173485
  0
LWPOLYLINE
  5
30B
100
AcDbEntity
  8
RACCORDO
100
AcDbPolyline
 62
250
  6
CONTINUOUS
 90
25
 70
0
 10
-10.5355949755
 20
-5.8399769206
 10
-10.5865847206
 20
-5.9422109554
 10
-10.642834497
 20
-6.0336832391
 10
-10.7022572719
 20
-6.1158271577
 10
-10.7647449205
 20
-6.1886513046
 10
-10.830416736
 20
-6.2521527002
 10
-10.8975255613
 20
-6.3077467457
 10
-10.9658405844
 20
-6.3553823537
 10
-11.0356008954
 20
-6.3951147852
 10
-11.1057628018
 20
-6.428518265
 10
-11.1759593681
 20
-6.4556837674
 10
-11.2465629226
 20
-6.476523043
 10
-11.3176372603
 20
-6.4923407713
 10
-11.3891115553
 20
-6.5033803436
 10
-11.4610597372
 20
-6.5093999391
 10
-11.5337617975
 20
-6.5109759449
 10
-11.6072491514
 20
-6.5082687179
 10
-11.6814923197
 20
-6.5011188822
 10
-11.7566795453
 20
-6.4896230187
 10
-11.8328152536
 20
-6.473889012
 10
-11.9098962676
 20
-6.4538096109
 10
-11.9880992546
 20
-6.4291586062
 10
-12.0674833338
 20
-6.3998607119
 10
-12.1479900582
 20
-6.3659915552
 10
-12.2296195998
 20
-6.3275512234
  0
LWPOLYLINE
  5
30C
100
AcDbEntity
  8
RACCORDO
100
AcDbPolyline
 62
250
  6
CONTINUOUS
 90
5
 70
0
 10
-12.1282051642
 20
-6.0085725807
 10
-12.0873458899
 20
-5.9532763261
 10
-12.0421267137
 20
-5.9051214196
 10
-11.993950256
 20
-5.8656015766
 10
-11.9443108799
 20
-5.8359426564
  0
LWPOLYLINE
  5
30D
100
AcDbEntity
  8
RACCORDO
100
AcDbPolyline
 62
250
  6
CONTINUOUS
 90
13
 70
0
 10
-3.7447098314
 20
7.6843606678
 10
-3.8161529701
 20
7.6253802444
 10
-3.8812349244
 20
7.5626039544
 10
-3.9399556942
 20
7.4960317977
 10
-3.9923437261
 20
7.4243621517
 10
-4.0383705736
 20
7.3488966389
 10
-4.0779508973
 20
7.2735401275
 10
-4.1108165481
 20
7.1987857822
 10
-4.1372356753
 20
7.1241404382
 10
-4.157927387
 20
7.0520294694
 10
-4.1731313862
 20
6.9832613337
 10
-4.18260797
 20
6.9170275732
 10
-4.1863571385
 20
6.8533281879
  0
LINE
  5
30E
100
AcDbEntity
  8
ASSI
100
AcDbLine
 62
250
  6
CONTINUOUS
 10
17.1516080647
 20
16.88237879
 11
9.6556495636
 21
13.1643281124
  0
LINE
  5
30F
100
AcDbEntity
  8
ASSI
100
AcDbLine
 62
250
  6
CONTINUOUS
 10
17.5051076074
 20
16.2726822667
 11
9.5153194637
 21
12.3096884459
  0
LINE
  5
310
100
AcDbEntity
  8
RACCORDO
100
AcDbLine
 62
250
  6
CONTINUOUS
 10
-10.910104233
 20
2.3428739658
 11
-10.91801554
 21
2.3390762041
  0
LWPOLYLINE
  5
311
100
AcDbEntity
  8
ASSI
100
AcDbPolyline
 62
250
  6
CONTINUOUS
 90
5
 70
0
 10
17.7659830562
 20
13.76631297
 10
17.7295194309
 20
13.7517593051
 10
17.6937485375
 20
13.7432859516
 10
17.6592689192
 20
13.7410346916
 10
17.6454377073
 20
13.7427347855
  0
LWPOLYLINE
  5
312
100
AcDbEntity
  8
RACCORDO
100
AcDbPolyline
 62
250
  6
CONTINUOUS
 90
10
 70
0
 10
-4.1863571385
 20
6.8533281879
 10
-4.2197593743
 20
6.8410241073
 10
-4.2574233011
 20
6.8317688029
 10
-4.2982171583
 20
6.8258403866
 10
-4.3409151342
 20
6.823417001
 10
-4.3842342004
 20
6.8245714662
 10
-4.4268726654
 20
6.8292690918
 10
-4.4675492891
 20
6.8373687191
 10
-4.5050417824
 20
6.848626963
 10
-4.5382235362
 20
6.8627055253
  0
LWPOLYLINE
  5
313
100
AcDbEntity
  8
RACCORDO
100
AcDbPolyline
 62
7
  6
CONTINUOUS
 90
19
 70
0
 10
-12.124610067
 20
-1.9691747141
 10
-11.9401198448
 20
-2.0753089855
 10
-11.7223059507
 20
-2.2356785435
 10
-11.5072232237
 20
-2.4339635863
 10
-11.3009484721
 20
-2.6662493464
 10
-11.1087314578
 20
-2.9279476235
 10
-10.9350871647
 20
-3.2145206495
 10
-10.7850586526
 20
-3.5187196717
 10
-10.6633406235
 20
-3.8313616218
 10
-10.5725660105
 20
-4.143849198
 10
-10.513731103
 20
-4.4497263609
 10
-10.4872309031
 20
-4.7421900869
 10
-10.4924146464
 20
-5.0117106506
 10
-10.5272016951
 20
-5.2543938068
 10
-10.5902670251
 20
-5.468708078
 10
-10.6787733184
 20
-5.6479312288
 10
-10.7879225278
 20
-5.7866280765
 10
-10.9168871398
 20
-5.8860738229
 10
-10.9608043143
 20
-5.9089677738
  0
LINE
  5
314
100
AcDbEntity
  8
RACCORDO
100
AcDbLine
 62
250
  6
CONTINUOUS
 10
-12.2296195998
 20
-1.7497845291
 11
-11.9715871155
 21
-1.9093343877
  0
LWPOLYLINE
  5
315
100
AcDbEntity
  8
RACCORDO
100
AcDbPolyline
 62
250
  6
CONTINUOUS
 90
6
 70
0
 10
-4.1863571385
 20
-22.1675389406
 10
-4.1764792898
 20
-22.2518967377
 10
-4.1600963684
 20
-22.3263255554
 10
-4.1372083741
 20
-22.3908253935
 10
-4.1067668737
 20
-22.4450861243
 10
-4.0698203005
 20
-22.4894178755
  0
LWPOLYLINE
  5
316
100
AcDbEntity
  8
RACCORDO
100
AcDbPolyline
 62
250
  6
CONTINUOUS
 90
5
 70
0
 10
-4.7712586122
 20
-9.3844153443
 10
-4.7479524776
 20
-12.6000941086
 10
-4.7013419073
 20
-15.8039612647
 10
-4.6314304917
 20
-18.99575925
 10
-4.5382235589
 20
-22.1752426926
  0
LINE
  5
317
100
AcDbEntity
  8
RACCORDO
100
AcDbLine
 62
250
  6
CONTINUOUS
 10
-4.7712587351
 20
-6.1571610221
 11
-4.7712586122
 21
-9.3844153443
  0
LWPOLYLINE
  5
318
100
AcDbEntity
  8
RACCORDO
100
AcDbPolyline
 62
250
  6
CONTINUOUS
 90
6
 70
0
 10
-4.4192532649
 20
-6.1587739763
 10
-4.4192532067
 20
-9.3843192268
 10
-4.3959635606
 20
-12.5980436828
 10
-4.3493843411
 20
-15.7996962298
 10
-4.2795155338
 20
-18.9895279824
 10
-4.1863571385
 20
-22.1675389406
  0
LINE
  5
319
100
AcDbEntity
  8
RACCORDO
100
AcDbLine
 62
7
  6
CONTINUOUS
 10
-4.1744133673
 20
24.2312473013
 11
-4.1744133673
 21
24.2915898143
  0
LINE
  5
31A
100
AcDbEntity
  8
RACCORDO
100
AcDbLine
 62
250
  6
CONTINUOUS
 10
-4.747952477
 20
-2.9185452572
 11
-4.7712587351
 21
-6.1571610221
  0
LINE
  5
31B
100
AcDbEntity
  8
RACCORDO
100
AcDbLine
 62
250
  6
CONTINUOUS
 10
-4.3959636915
 20
-2.9221612753
 11
-4.4192532649
 21
-6.1587739763
  0
LINE
  5
31C
100
AcDbEntity
  8
RACCORDO
100
AcDbLine
 62
250
  6
CONTINUOUS
 10
-4.7013406846
 20
0.3311946733
 11
-4.747952477
 21
-2.9185452572
  0
LINE
  5
31D
100
AcDbEntity
  8
RACCORDO
100
AcDbLine
 62
250
  6
CONTINUOUS
 10
-4.3493844721
 20
0.3252677618
 11
-4.3959636915
 21
-2.9221612753
  0
LINE
  5
31E
100
AcDbEntity
  8
RACCORDO
100
AcDbLine
 62
250
  6
CONTINUOUS
 10
-4.6314262269
 20
3.5917979458
 11
-4.7013406846
 21
0.3311946733
  0
LINE
  5
31F
100
AcDbEntity
  8
RACCORDO
100
AcDbLine
 62
250
  6
CONTINUOUS
 10
-4.2795156211
 20
3.5837642496
 11
-4.3493844721
 21
0.3252677618
  0
LINE
  5
320
100
AcDbEntity
  8
RACCORDO
100
AcDbLine
 62
250
  6
CONTINUOUS
 10
-4.5382137073
 20
6.8630141758
 11
-4.6314262269
 21
3.5917979458
  0
LINE
  5
321
100
AcDbEntity
  8
RACCORDO
100
AcDbLine
 62
250
  6
CONTINUOUS
 10
-4.1863571385
 20
6.8533281879
 11
-4.2795156211
 21
3.5837642496
  0
LWPOLYLINE
  5
322
100
AcDbEntity
  8
RACCORDO
100
AcDbPolyline
 62
7
  6
CONTINUOUS
 90
6
 70
0
 10
-2.5799240067
 20
23.6076419756
 10
-2.5769006343
 20
23.6489624411
 10
-2.5795656024
 20
23.6916349614
 10
-2.5877321171
 20
23.7344651694
 10
-2.6009426434
 20
23.7762875742
 10
-2.6188204959
 20
23.815833283
  0
LWPOLYLINE
  5
323
100
AcDbEntity
  8
RACCORDO
100
AcDbPolyline
 62
250
  6
CONTINUOUS
 90
6
 70
0
 10
-2.2273570924
 20
24.8675999368
 10
-2.2283084179
 20
24.856705469
 10
-2.2358756359
 20
24.8352475562
 10
-2.2507801457
 20
24.8147726541
 10
-2.2725690814
 20
24.7959028823
 10
-2.3005803971
 20
24.7792115892
  0
LWPOLYLINE
  5
324
100
AcDbEntity
  8
RACCORDO
100
AcDbPolyline
 62
7
  6
CONTINUOUS
 90
14
 70
0
 10
-2.5947175175
 20
18.8515301113
 10
-2.593673736
 20
18.8617043772
 10
-2.5921110507
 20
18.8714414507
 10
-2.5900294616
 20
18.8807413316
 10
-2.5874170838
 20
18.8896361212
 10
-2.5842858023
 20
18.8980937182
 10
-2.5806712717
 20
18.9060178192
 10
-2.5765679685
 20
18.9134023264
 10
-2.5719814163
 20
18.9202533375
 10
-2.5669638404
 20
18.9264928428
 10
-2.5615103141
 20
18.9321138527
 10
-2.5556257642
 20
18.9371233567
 10
-2.5493771956
 20
18.9414643135
 10
-2.5432674803
 20
18.944882904
  0
LWPOLYLINE
  5
325
100
AcDbEntity
  8
RACCORDO
100
AcDbPolyline
 62
250
  6
CONTINUOUS
 90
10
 70
0
 10
-1.3555504054
 20
23.6800129715
 10
-1.3478620827
 20
23.7218862718
 10
-1.3458039019
 20
23.7651441066
 10
-1.3494381633
 20
23.8084770859
 10
-1.3586548596
 20
23.8505735453
 10
-1.3731750067
 20
23.8901592488
 10
-1.3925590882
 20
23.92603596
 10
-1.416220359
 20
23.9571177112
 10
-1.4434426059
 20
23.9824636756
 10
-1.4734018271
 20
24.0013066452
  0
LINE
  5
326
100
AcDbEntity
  8
RACCORDO
100
AcDbLine
 62
250
  6
CONTINUOUS
 10
-1.0997184865
 20
21.4798690829
 11
-1.1871216914
 21
21.1067118391
  0
LINE
  5
327
100
AcDbEntity
  8
RACCORDO
100
AcDbLine
 62
250
  6
CONTINUOUS
 10
-0.8237974279
 20
21.4228849426
 11
-0.9112006328
 21
21.0497276987
  0
LINE
  5
328
100
AcDbEntity
  8
0
100
AcDbLine
 62
250
  6
CONTINUOUS
 10
-0.0683375688
 20
19.1774440355
 11
0.019065636
 21
19.5506012794
  0
LWPOLYLINE
  5
329
100
AcDbEntity
  8
RACCORDO
100
AcDbPolyline
 62
7
  6
CONTINUOUS
 90
12
 70
0
 10
1.2870419761
 20
20.3382416787
 10
1.2863806152
 20
20.3361074591
 10
1.2846241264
 20
20.3326858478
 10
1.2820359602
 20
20.3294855182
 10
1.2786266355
 20
20.3265036716
 10
1.2744396394
 20
20.3237783424
 10
1.2694650101
 20
20.3213128167
 10
1.2637127094
 20
20.3191038086
 10
1.2572561099
 20
20.3171794945
 10
1.2501196692
 20
20.3155492668
 10
1.2422789297
 20
20.3142037333
 10
1.2337338914
 20
20.313142894
  0
LWPOLYLINE
  5
32A
100
AcDbEntity
  8
ASSI
100
AcDbPolyline
 62
7
  6
CONTINUOUS
 90
3
 70
0
 10
1.1897766916
 20
19.2346381383
 10
1.2059166785
 20
19.2859629266
 10
1.2109170602
 20
19.3079999893
  0
LINE
  5
32B
100
AcDbEntity
  8
ASSI
100
AcDbLine
 62
7
  6
CONTINUOUS
 10
1.1871024997
 20
19.2280198504
 11
1.1897766916
 21
19.2346381383
  0
LWPOLYLINE
  5
32C
100
AcDbEntity
  8
RACCORDO
100
AcDbPolyline
 62
250
  6
CONTINUOUS
 90
7
 70
0
 10
8.1876361655
 20
18.4100334559
 10
8.1987098052
 20
18.4254555022
 10
8.2080838326
 20
18.4418305385
 10
8.2154663716
 20
18.4591281396
 10
8.2205503423
 20
18.4772839247
 10
8.2230333225
 20
18.4962832912
 10
8.2232257392
 20
18.5032554093
  0
LINE
  5
32D
100
AcDbEntity
  8
RACCORDO
100
AcDbLine
 62
7
  6
CONTINUOUS
 10
-12.9569174938
 20
-1.8974486175
 11
-12.9558411436
 21
-1.8968964777
  0
LINE
  5
32E
100
AcDbEntity
  8
ASSI
100
AcDbLine
 62
250
  6
CONTINUOUS
 10
17.7659830562
 20
13.76631297
 11
19.3041645119
 21
14.5292623117
  0
LWPOLYLINE
  5
32F
100
AcDbEntity
  8
ASSI
100
AcDbPolyline
 62
250
  6
CONTINUOUS
 90
5
 70
0
 10
17.7719642215
 20
13.7631767031
 10
17.7355600702
 20
13.7486125559
 10
17.699929907
 20
13.7400858372
 10
17.6656696924
 20
13.7377391676
 10
17.6454377073
 20
13.7401636029
  0
LWPOLYLINE
  5
330
100
AcDbEntity
  8
RACCORDO
100
AcDbPolyline
 62
250
  6
CONTINUOUS
 90
7
 70
0
 10
-10.91801554
 20
2.3390762041
 10
-11.0614935199
 20
2.2859417353
 10
-11.2194380507
 20
2.257235631
 10
-11.3860315902
 20
2.2552995896
 10
-11.5573853099
 20
2.2799100872
 10
-11.7330830551
 20
2.3307210466
 10
-11.9109421327
 20
2.4072233745
  0
LWPOLYLINE
  5
331
100
AcDbEntity
  8
DRAFT
100
AcDbPolyline
 62
7
  6
CONTINUOUS
 90
4
 70
0
 10
-10.6590856227
 20
-5.6080641106
 10
-10.6937533463
 20
-5.6074381655
 10
-10.9261512823
 20
-5.556924542
 10
-11.174770501
 20
-5.4598004854
  0
LINE
  5
332
100
AcDbEntity
  8
RACCORDO
100
AcDbLine
 62
250
  6
CONTINUOUS
 10
-12.7032929209
 20
-1.5880886286
 11
-12.6269360964
 21
-1.6037124386
  0
LWPOLYLINE
  5
333
100
AcDbEntity
  8
RACCORDO
100
AcDbPolyline
 62
250
  6
CONTINUOUS
 90
3
 70
0
 10
-12.6269360964
 20
-1.6037124386
 10
-12.549671338
 20
-1.6236998599
 10
-12.4713244416
 20
-1.6482779336
  0
LWPOLYLINE
  5
334
100
AcDbEntity
  8
RACCORDO
100
AcDbPolyline
 62
250
  6
CONTINUOUS
 90
4
 70
0
 10
-12.4713244416
 20
-1.6482779336
 10
-12.3918375694
 20
-1.6775224536
 10
-12.3112692315
 20
-1.7113579572
 10
-12.2296195998
 20
-1.7497845291
  0
LWPOLYLINE
  5
335
100
AcDbEntity
  8
RACCORDO
100
AcDbPolyline
 62
250
  6
CONTINUOUS
 90
11
 70
0
 10
-1.9210615584
 20
-25.4375574286
 10
-1.9204247879
 20
-25.4555992987
 10
-1.918446738
 20
-25.4733507702
 10
-1.9150325051
 20
-25.490604058
 10
-1.9101045911
 20
-25.5071168746
 10
-1.9035902843
 20
-25.5226706833
 10
-1.8954091047
 20
-25.5370571922
 10
-1.8855156601
 20
-25.5499986554
 10
-1.8738904549
 20
-25.5612082311
 10
-1.8605033382
 20
-25.5704190225
 10
-1.8560878554
 20
-25.572776082
  0
LINE
  5
336
100
AcDbEntity
  8
RACCORDO
100
AcDbLine
 62
250
  6
CONTINUOUS
 10
-2.3005803971
 20
24.7792115892
 11
-2.3005803971
 21
24.6232690211
  0
LINE
  5
337
100
AcDbEntity
  8
RACCORDO
100
AcDbLine
 62
7
  6
CONTINUOUS
 10
-2.2273570924
 20
24.8675999368
 11
-2.2273570924
 21
24.5875065515
  0
LINE
  5
338
100
AcDbEntity
  8
RACCORDO
100
AcDbLine
 62
250
  6
CONTINUOUS
 10
-1.9210615584
 20
12.6968957381
 11
-1.9210615584
 21
9.9109467459
  0
LINE
  5
339
100
AcDbEntity
  8
RACCORDO
100
AcDbLine
 62
250
  6
CONTINUOUS
 10
-1.9210615584
 20
-22.6516084364
 11
-1.9210615584
 21
-25.4375574286
  0
LWPOLYLINE
  5
33A
100
AcDbEntity
  8
RACCORDO
100
AcDbPolyline
 62
250
  6
CONTINUOUS
 90
6
 70
0
 10
-1.0688103613
 20
23.8506691778
 10
-1.0688803356
 20
23.8490773723
 10
-1.0704110085
 20
23.8398676787
 10
-1.0738919262
 20
23.8295088597
 10
-1.0793180288
 20
23.818104359
 10
-1.0866808285
 20
23.8056971755
  0
LWPOLYLINE
  5
33B
100
AcDbEntity
  8
RACCORDO
100
AcDbPolyline
 62
250
  6
CONTINUOUS
 90
10
 70
0
 10
-1.1889880127
 20
16.2973033907
 10
-1.1863320566
 20
16.3360205686
 10
-1.178443998
 20
16.376230295
 10
-1.1655608652
 20
16.4167243193
 10
-1.1480697812
 20
16.45628585
 10
-1.1264963324
 20
16.4937261148
 10
-1.101488776
 20
16.5279200823
 10
-1.0737985584
 20
16.5578402712
 10
-1.0442577341
 20
16.5825876244
 10
-1.0137539655
 20
16.6014185213
  0
LWPOLYLINE
  5
33C
100
AcDbEntity
  8
RACCORDO
100
AcDbPolyline
 62
250
  6
CONTINUOUS
 90
10
 70
0
 10
-1.1681687832
 20
16.2868937759
 10
-1.1655128308
 20
16.3256109267
 10
-1.1576247813
 20
16.3658206309
 10
-1.1447416601
 20
16.4063146404
 10
-1.1272505879
 20
16.445876164
 10
-1.1056771483
 20
16.4833164304
 10
-1.0806695944
 20
16.5175104094
 10
-1.0529793699
 20
16.5474306173
 10
-1.0234385295
 20
16.5721779916
 10
-0.992934736
 20
16.5910089066
  0
LINE
  5
33D
100
AcDbEntity
  8
RACCORDO
100
AcDbLine
 62
7
  6
CONTINUOUS
 10
-2.7149861002
 20
17.228036789
 11
-2.5947175175
 21
18.8515301113
  0
LINE
  5
33E
100
AcDbEntity
  8
RACCORDO
100
AcDbLine
 62
7
  6
CONTINUOUS
 10
-2.4318702299
 20
17.3731454738
 11
-2.3207850385
 21
18.8726731351
  0
LINE
  5
33F
100
AcDbEntity
  8
RACCORDO
100
AcDbLine
 62
250
  6
CONTINUOUS
 10
1.2268122375
 20
20.3975801098
 11
1.206380978
 21
20.3103513577
  0
LWPOLYLINE
  5
340
100
AcDbEntity
  8
RACCORDO
100
AcDbPolyline
 62
7
  6
CONTINUOUS
 90
12
 70
0
 10
3.1546227576
 20
20.8088118357
 10
3.1552841185
 20
20.8109460554
 10
3.1570406073
 20
20.8143676667
 10
3.1596287735
 20
20.8175679963
 10
3.1630380982
 20
20.8205498429
 10
3.1672250943
 20
20.823275172
 10
3.1721997236
 20
20.8257406977
 10
3.1779520243
 20
20.8279497059
 10
3.1844086237
 20
20.82987402
 10
3.1915450645
 20
20.8315042476
 10
3.199385804
 20
20.8328497811
 10
3.2079308423
 20
20.8339106205
  0
LINE
  5
341
100
AcDbEntity
  8
0
100
AcDbLine
 62
250
  6
CONTINUOUS
 10
4.6290660585
 20
20.9701801666
 11
4.6164195833
 21
20.9326384449
  0
LWPOLYLINE
  5
342
100
AcDbEntity
  8
RACCORDO
100
AcDbPolyline
 62
250
  6
CONTINUOUS
 90
12
 70
0
 10
-10.435237779
 20
-14.0117974146
 10
-10.5049874217
 20
-14.157253654
 10
-10.5924070654
 20
-14.2891029222
 10
-10.6984517255
 20
-14.4083824219
 10
-10.8221765184
 20
-14.5140602545
 10
-10.9640835709
 20
-14.5957459667
 10
-11.1275667312
 20
-14.6520753471
 10
-11.3092619704
 20
-14.6844284621
 10
-11.4995533919
 20
-14.6865413171
 10
-11.695249577
 20
-14.6563333309
 10
-11.8995731616
 20
-14.5959017612
 10
-12.1125316889
 20
-14.505250642
  0
LINE
  5
343
100
AcDbEntity
  8
DRAFT
100
AcDbLine
 62
7
  6
CONTINUOUS
 10
-12.5538616707
 20
-10.0797533464
 11
-12.5277523647
 21
-10.0451100351
  0
LINE
  5
344
100
AcDbEntity
  8
ASSI
100
AcDbLine
 62
250
  6
CONTINUOUS
 10
17.5051076074
 20
12.8518819217
 11
19.6576640546
 21
13.9195657884
  0
LWPOLYLINE
  5
345
100
AcDbEntity
  8
RACCORDO
100
AcDbPolyline
 62
7
  6
CONTINUOUS
 90
6
 70
0
 10
-12.9558451085
 20
-1.8969022465
 10
-12.8284696353
 20
-1.8489503355
 10
-12.6792008474
 20
-1.8281837046
 10
-12.508991597
 20
-1.8394537374
 10
-12.3184259666
 20
-1.8873048079
 10
-12.1259692787
 20
-1.9681397386
  0
LWPOLYLINE
  5
346
100
AcDbEntity
  8
RACCORDO
100
AcDbPolyline
 62
250
  6
CONTINUOUS
 90
43
 70
0
 10
-11.9109421327
 20
2.4072233745
 10
-11.979443225
 20
2.4433203842
 10
-12.0470964908
 20
2.4826028006
 10
-12.1137832336
 20
2.5248962619
 10
-12.1792728303
 20
2.5699414745
 10
-12.2435833416
 20
2.617636272
 10
-12.3069719418
 20
2.6680916809
 10
-12.3693387577
 20
2.7211792066
 10
-12.4305882841
 20
2.776771424
 10
-12.4909679792
 20
2.8350729875
 10
-12.5503614401
 20
2.8959790141
 10
-12.6086778776
 20
2.9594077423
 10
-12.6661695441
 20
3.0256819415
 10
-12.722541151
 20
3.0945220083
 10
-12.7778433648
 20
3.1660601876
 10
-12.8327546669
 20
3.2413679114
 10
-12.8871086671
 20
3.3205048753
 10
-12.9406370434
 20
3.4033968049
 10
-12.9937046909
 20
3.491055103
 10
-13.0461265586
 20
3.5837462813
 10
-13.0973820743
 20
3.6811777138
 10
-13.1471996752
 20
3.7835545466
 10
-13.1951422386
 20
3.8907584282
 10
-13.2407551589
 20
4.0026365768
 10
-13.2836470929
 20
4.1192891348
 10
-13.3232514336
 20
4.2403689735
 10
-13.3590317439
 20
4.3656050433
 10
-13.3905090131
 20
4.4951176313
 10
-13.4169988563
 20
4.6283808606
 10
-13.4378138075
 20
4.7648047626
 10
-13.4522925329
 20
4.9042514056
 10
-13.4596189244
 20
5.0458204396
 10
-13.4590000546
 20
5.188583792
 10
-13.4495992464
 20
5.3320939496
 10
-13.4304919738
 20
5.4750398626
 10
-13.4008202985
 20
5.615916431
 10
-13.3596481177
 20
5.7535923734
 10
-13.3061727767
 20
5.8859471809
 10
-13.2395874321
 20
6.0111280974
 10
-13.1586855218
 20
6.1277335004
 10
-13.0623622872
 20
6.2333219934
 10
-12.9503838292
 20
6.3245201867
 10
-12.8501255961
 20
6.3846704358
  0
LWPOLYLINE
  5
347
100
AcDbEntity
  8
RACCORDO
100
AcDbPolyline
 62
250
  6
CONTINUOUS
 90
46
 70
0
 10
-12.1962161744
 20
1.9237853838
 10
-12.2771472042
 20
1.9666556613
 10
-12.3568316633
 20
2.0128716811
 10
-12.4352693876
 20
2.0624335221
 10
-12.5124423429
 20
2.1154186507
 10
-12.5883679222
 20
2.1717499083
 10
-12.6630989799
 20
2.2311954948
 10
-12.7366348595
 20
2.2936859298
 10
-12.8089750749
 20
2.3592912418
 10
-12.8801726421
 20
2.4279889395
 10
-12.9502352929
 20
2.4997087756
 10
-13.0191536511
 20
2.5745217854
 10
-13.0869549036
 20
2.6526174806
 10
-13.1535144024
 20
2.7336702073
 10
-13.2189545622
 20
2.8180066882
 10
-13.2836726514
 20
2.9067952453
 10
-13.3478757289
 20
3.0000430946
 10
-13.4113531026
 20
3.0977447565
 10
-13.4738743243
 20
3.2010500297
 10
-13.5357748112
 20
3.3103274618
 10
-13.5967131776
 20
3.4252113526
 10
-13.6554425079
 20
3.5457507306
 10
-13.7120857878
 20
3.6721031429
 10
-13.7665117512
 20
3.8041149824
 10
-13.8170910324
 20
3.9413690541
 10
-13.8639465556
 20
4.0840284202
 10
-13.906944697
 20
4.231935092
 10
-13.9440704259
 20
4.3841906936
 10
-13.9754876931
 20
4.5411395608
 10
-14.0010195574
 20
4.7024434914
 10
-14.0181396934
 20
4.8661802738
 10
-14.026990957
 20
5.0328096727
 10
-14.0274167839
 20
5.2018783586
 10
-14.0164438964
 20
5.3700934384
 10
-13.9941149726
 20
5.5381486038
 10
-13.9603759975
 20
5.7053554359
 10
-13.9121148802
 20
5.8663449309
 10
-13.8493275302
 20
6.0217986073
 10
-13.7720151812
 20
6.1710361999
 10
-13.6770852173
 20
6.3066406282
 10
-13.563527674
 20
6.4296765695
 10
-13.4323626476
 20
6.5390745188
 10
-13.283561106
 20
6.6242074755
 10
-13.1137461179
 20
6.6837027699
 10
-12.926324434
 20
6.7189191072
 10
-12.7314613373
 20
6.7233177998
  0
LWPOLYLINE
  5
348
100
AcDbEntity
  8
DRAFT
100
AcDbPolyline
 62
7
  6
CONTINUOUS
 90
14
 70
0
 10
-11.174770501
 20
2.7674408506
 10
-11.4233897198
 20
2.9189360127
 10
-11.6557876558
 20
3.1008203252
 10
-11.8719643091
 20
3.3130937881
 10
-12.0756943215
 20
3.56181107
 10
-12.2632030512
 20
3.8409175024
 10
-12.4231665726
 20
4.132249079
 10
-12.5538616707
 20
4.4363578623
 10
-12.6570115605
 20
4.7526917898
 10
-12.7264619625
 20
5.0614306679
 10
-12.7601614503
 20
5.3621375616
 10
-12.7601614503
 20
5.6552494059
 10
-12.7264619625
 20
5.9222568118
 10
-12.6570115605
 20
6.1615452878
  0
LWPOLYLINE
  5
349
100
AcDbEntity
  8
ASSI
100
AcDbPolyline
 62
7
  6
CONTINUOUS
 90
5
 70
0
 10
-11.284831305
 20
3.0749773666
 10
-11.1784227043
 20
2.9994669554
 10
-11.0705305855
 20
2.9320009027
 10
-10.9626384667
 20
2.8735068678
 10
-10.8547463479
 20
2.8241087839
  0
LWPOLYLINE
  5
34A
100
AcDbEntity
  8
RACCORDO
100
AcDbPolyline
 62
250
  6
CONTINUOUS
 90
3
 70
0
 10
-11.7966630736
 20
6.3532183501
 10
-11.7208977425
 20
6.2967826788
 10
-11.6463591457
 20
6.2372109301
  0
LWPOLYLINE
  5
34B
100
AcDbEntity
  8
RACCORDO
100
AcDbPolyline
 62
250
  6
CONTINUOUS
 90
3
 70
0
 10
-11.6463591457
 20
6.2372109301
 10
-11.5730464931
 20
6.1745721541
 10
-11.5009594304
 20
6.1087978332
  0
LWPOLYLINE
  5
34C
100
AcDbEntity
  8
RACCORDO
100
AcDbPolyline
 62
250
  6
CONTINUOUS
 90
29
 70
0
 10
-11.5009594304
 20
6.1087978332
 10
-11.4300496832
 20
6.0399176752
 10
-11.360307048
 20
5.968000955
 10
-11.2917400821
 20
5.8929791645
 10
-11.224328489
 20
5.8146754139
 10
-11.1581953887
 20
5.7334194762
 10
-11.0932154322
 20
5.6488826181
 10
-11.0289951112
 20
5.559900428
 10
-10.9653269723
 20
5.4664742648
 10
-10.9024148499
 20
5.3686044604
 10
-10.8404810803
 20
5.2651255705
 10
-10.7791828737
 20
5.15566784
 10
-10.7188570639
 20
5.040603812
 10
-10.660744157
 20
4.9198820832
 10
-10.6047133187
 20
4.7933481638
 10
-10.5508871184
 20
4.661160423
 10
-10.5008850952
 20
4.5237372514
 10
-10.4545745192
 20
4.3809212157
 10
-10.4120774391
 20
4.23287478
 10
-10.3753947149
 20
4.0804965847
 10
-10.3443500922
 20
3.923448583
 10
-10.3191068489
 20
3.7620749596
 10
-10.3021751786
 20
3.5982976949
 10
-10.2933985568
 20
3.4316624645
 10
-10.2929197976
 20
3.2626301153
 10
-10.3037002646
 20
3.0944943735
 10
-10.3256840383
 20
2.9265682367
 10
-10.3589156822
 20
2.7595441587
 10
-10.4065134885
 20
2.598782121
  0
LWPOLYLINE
  5
34D
100
AcDbEntity
  8
RACCORDO
100
AcDbPolyline
 62
250
  6
CONTINUOUS
 90
10
 70
0
 10
-3.7447098314
 20
7.6843606678
 10
-3.752731055
 20
7.7200381454
 10
-3.7658190119
 20
7.757342037
 10
-3.7835798044
 20
7.7951427406
 10
-3.8054779199
 20
7.8322951716
 10
-3.8308512109
 20
7.8676716286
 10
-3.8589303052
 20
7.9001963925
 10
-3.8888637222
 20
7.9288809888
 10
-3.9197441338
 20
7.9528538691
 10
-3.950634421
 20
7.9713854035
  0
LWPOLYLINE
  5
34E
100
AcDbEntity
  8
RACCORDO
100
AcDbPolyline
 62
250
  6
CONTINUOUS
 90
10
 70
0
 10
-1.569057547
 20
12.6961277797
 10
-1.5723314968
 20
12.7352892779
 10
-1.5809546272
 20
12.7759957049
 10
-1.5946544281
 20
12.8169799646
 10
-1.613076338
 20
12.857111689
 10
-1.6355989148
 20
12.8949850503
 10
-1.6612138901
 20
12.929061515
 10
-1.6889299861
 20
12.9583294569
 10
-1.7179429368
 20
12.9822156729
 10
-1.7473700419
 20
13.0002148724
  0
LINE
  5
34F
100
AcDbEntity
  8
RACCORDO
100
AcDbLine
 62
250
  6
CONTINUOUS
 10
-2.6534662465
 20
25.0760449971
 11
-2.6510484915
 21
25.0369737561
  0
LWPOLYLINE
  5
350
100
AcDbEntity
  8
RACCORDO
100
AcDbPolyline
 62
7
  6
CONTINUOUS
 90
7
 70
0
 10
-1.0688114025
 20
23.8506522466
 10
-1.0698692019
 20
23.8747427333
 10
-1.0805990444
 20
23.9280785483
 10
-1.1030661389
 20
23.9789275865
 10
-1.1365269655
 20
24.024107492
 10
-1.1781813141
 20
24.0601280294
 10
-1.2086003226
 20
24.0781278058
  0
LINE
  5
351
100
AcDbEntity
  8
RACCORDO
100
AcDbLine
 62
250
  6
CONTINUOUS
 10
-2.3013055547
 20
24.8072960848
 11
-2.3005803971
 21
24.7792115892
  0
LWPOLYLINE
  5
352
100
AcDbEntity
  8
RACCORDO
100
AcDbPolyline
 62
250
  6
CONTINUOUS
 90
9
 70
0
 10
-1.0867624346
 20
23.8057050018
 10
-1.0875601639
 20
23.8429786355
 10
-1.0940783827
 20
23.879931374
 10
-1.1061647357
 20
23.9156995378
 10
-1.1235367241
 20
23.9494471354
 10
-1.1457883085
 20
23.9803854025
 10
-1.1723993987
 20
24.0077912378
 10
-1.20274801
 20
24.0310241043
 10
-1.2361248002
 20
24.0495410003
  0
LINE
  5
353
100
AcDbEntity
  8
RACCORDO
100
AcDbLine
 62
250
  6
CONTINUOUS
 10
-1.4379127937
 20
16.5952966609
 11
-1.4379472487
 21
16.5991520838
  0
LINE
  5
354
100
AcDbEntity
  8
RACCORDO
100
AcDbLine
 62
250
  6
CONTINUOUS
 10
-1.3555057619
 20
23.5610688349
 11
-1.3555504054
 21
23.6800129715
  0
LINE
  5
355
100
AcDbEntity
  8
RACCORDO
100
AcDbLine
 62
250
  6
CONTINUOUS
 10
-1.569057547
 20
12.6961277797
 11
-1.569057547
 21
9.9101787874
  0
LINE
  5
356
100
AcDbEntity
  8
RACCORDO
100
AcDbLine
 62
250
  6
CONTINUOUS
 10
-1.569057547
 20
-22.6523763948
 11
-1.569057547
 21
-25.4383253871
  0
LINE
  5
357
100
AcDbEntity
  8
RACCORDO
100
AcDbLine
 62
7
  6
CONTINUOUS
 10
-1.4379472487
 20
16.5991519842
 11
-1.4379472487
 21
16.0979078443
  0
LINE
  5
358
100
AcDbEntity
  8
RACCORDO
100
AcDbLine
 62
7
  6
CONTINUOUS
 10
-1.3891820343
 20
9.9985603745
 11
-1.3891820343
 21
9.3460345056
  0
LINE
  5
359
100
AcDbEntity
  8
RACCORDO
100
AcDbLine
 62
7
  6
CONTINUOUS
 10
-1.3891820343
 20
-21.911468939
 11
-1.3891820343
 21
-22.5639948078
  0
LINE
  5
35A
100
AcDbEntity
  8
RACCORDO
100
AcDbLine
 62
250
  6
CONTINUOUS
 10
-1.1889880127
 20
16.2973033907
 11
-1.1889880127
 21
15.7936240626
  0
LINE
  5
35B
100
AcDbEntity
  8
RACCORDO
100
AcDbLine
 62
250
  6
CONTINUOUS
 10
-1.1681687832
 20
15.7832144479
 11
-1.1681687832
 21
16.2868937759
  0
LINE
  5
35C
100
AcDbEntity
  8
ASSI
100
AcDbLine
 62
7
  6
CONTINUOUS
 10
-1.0688008546
 20
23.5903288679
 11
-1.0688008546
 21
23.8514781656
  0
LINE
  5
35D
100
AcDbEntity
  8
0
100
AcDbLine
 62
7
  6
CONTINUOUS
 10
-0.9924328519
 20
18.2084970418
 11
-0.9924328519
 21
18.4683046629
  0
LINE
  5
35E
100
AcDbEntity
  8
0
100
AcDbLine
 62
7
  6
CONTINUOUS
 10
-0.7095901395
 20
18.349918398
 11
-0.7095901395
 21
18.6097260191
  0
LINE
  5
35F
100
AcDbEntity
  8
ASSI
100
AcDbLine
 62
7
  6
CONTINUOUS
 10
-0.5681687832
 20
18.8170682212
 11
-0.5681687832
 21
18.3283701515
  0
LINE
  5
360
100
AcDbEntity
  8
0
100
AcDbLine
 62
250
  6
CONTINUOUS
 10
-0.4974581051
 20
18.9755996575
 11
-0.4974581051
 21
19.322009819
  0
LINE
  5
361
100
AcDbEntity
  8
0
100
AcDbLine
 62
250
  6
CONTINUOUS
 10
-0.1338899725
 20
19.1573837238
 11
-0.1338899725
 21
19.5037938853
  0
LINE
  5
362
100
AcDbEntity
  8
RACCORDO
100
AcDbLine
 62
7
  6
CONTINUOUS
 10
-0.0024833583
 20
16.27400436
 11
-0.0024833583
 21
15.7781503841
  0
LINE
  5
363
100
AcDbEntity
  8
RACCORDO
100
AcDbLine
 62
250
  6
CONTINUOUS
 10
-1.0688008546
 20
23.8514962474
 11
-1.0688103613
 21
23.8506691778
  0
LWPOLYLINE
  5
364
100
AcDbEntity
  8
0
100
AcDbPolyline
 62
7
  6
CONTINUOUS
 90
19
 70
0
 10
-0.9924328519
 20
18.4683046629
 10
-0.9904311591
 20
18.5227938034
 10
-0.9848092073
 20
18.5779050152
 10
-0.9755669964
 20
18.6336382983
 10
-0.9625797188
 20
18.6904250879
 10
-0.9459721821
 20
18.7478339488
 10
-0.9261188101
 20
18.8045705752
 10
-0.9029458699
 20
18.8606196964
 10
-0.8765270943
 20
18.9159965832
 10
-0.8474581051
 20
18.9694527413
 10
-0.8156786999
 20
19.0209445393
 10
-0.7812490812
 20
19.0705156086
 10
-0.7449454785
 20
19.1170483496
 10
-0.7067253223
 20
19.1604737433
 10
-0.6666311821
 20
19.2008608087
 10
-0.6255669964
 20
19.2372990033
 10
-0.5838340781
 20
19.2694848127
 10
-0.5411311144
 20
19.2977217513
 10
-0.4974581051
 20
19.322009819
  0
LWPOLYLINE
  5
365
100
AcDbEntity
  8
0
100
AcDbPolyline
 62
7
  6
CONTINUOUS
 90
16
 70
0
 10
-0.7095901395
 20
18.6097260191
 10
-0.7083236072
 20
18.6379941478
 10
-0.7048627803
 20
18.666486218
 10
-0.6992076587
 20
18.6952022297
 10
-0.6912490037
 20
18.7244593791
 10
-0.6810960541
 20
18.75394047
 10
-0.669076526
 20
18.782693914
 10
-0.6551295147
 20
18.8106959688
 10
-0.6393159249
 20
18.8379703767
 10
-0.6221461864
 20
18.8636367764
 10
-0.6035760495
 20
18.8876427003
 10
-0.5836497639
 20
18.9100406161
 10
-0.5630105088
 20
18.9301075656
 10
-0.5418726771
 20
18.9476025625
 10
-0.5200218759
 20
18.9627665932
 10
-0.4974581051
 20
18.9755996575
  0
LINE
  5
366
100
AcDbEntity
  8
RACCORDO
100
AcDbLine
 62
7
  6
CONTINUOUS
 10
3.1543487882
 20
20.8073059611
 11
3.1546227576
 21
20.8088118357
  0
LINE
  5
367
100
AcDbEntity
  8
RACCORDO
100
AcDbLine
 62
250
  6
CONTINUOUS
 10
3.2079308423
 20
20.8339106205
 11
3.1983906178
 21
20.7931798043
  0
LINE
  5
368
100
AcDbEntity
  8
0
100
AcDbLine
 62
250
  6
CONTINUOUS
 10
4.542880557
 20
20.9701506069
 11
4.5312386838
 21
20.9204470596
  0
LWPOLYLINE
  5
369
100
AcDbEntity
  8
ASSI
100
AcDbPolyline
 62
7
  6
CONTINUOUS
 90
4
 70
0
 10
-10.8547463479
 20
2.8241087839
 10
-10.7468542291
 20
2.7836827178
 10
-10.6404456284
 20
2.7527845283
 10
-10.557243785
 20
2.7359397069
  0
LWPOLYLINE
  5
36A
100
AcDbEntity
  8
RACCORDO
100
AcDbPolyline
 62
250
  6
CONTINUOUS
 90
5
 70
0
 10
-12.1125316889
 20
6.5450028004
 10
-12.0316461303
 20
6.5021349523
 10
-11.9520369466
 20
6.455894636
 10
-11.8737039738
 20
6.4062819281
 10
-11.7966630736
 20
6.3532183501
  0
LWPOLYLINE
  5
36B
100
AcDbEntity
  8
RACCORDO
100
AcDbPolyline
 62
7
  6
CONTINUOUS
 90
19
 70
0
 10
-12.0075836553
 20
6.3181424236
 10
-11.8156494325
 20
6.2067835629
 10
-11.5983396157
 20
6.0436051676
 10
-11.3854756261
 20
5.8429817783
 10
-11.1829646255
 20
5.6090628335
 10
-10.995563303
 20
5.3461583589
 10
-10.8276126333
 20
5.0590630627
 10
-10.6839241637
 20
4.7549768039
 10
-10.5684534565
 20
4.4423007476
 10
-10.4837312609
 20
4.1294766121
 10
-10.4306827492
 20
3.8229018809
 10
-10.4096414714
 20
3.5287450963
 10
-10.4200805256
 20
3.256220425
 10
-10.4601671083
 20
3.0097835562
 10
-10.5287343833
 20
2.791403044
 10
-10.6231051436
 20
2.6078103699
 10
-10.7385929831
 20
2.4648098445
 10
-10.8739182119
 20
2.3620439061
 10
-10.9178040108
 20
2.3392818325
  0
LWPOLYLINE
  5
36C
100
AcDbEntity
  8
ASSI
100
AcDbPolyline
 62
7
  6
CONTINUOUS
 90
5
 70
0
 10
-0.5681687832
 20
18.8170682212
 10
-0.5693724001
 20
18.8402808571
 10
-0.5729816302
 20
18.8643020617
 10
-0.5789305396
 20
18.8887232752
 10
-0.5854127649
 20
18.9080589348
  0
LINE
  5
36D
100
AcDbEntity
  8
ASSI
100
AcDbLine
 62
7
  6
CONTINUOUS
 10
1.1687416828
 20
19.2186091664
 11
1.1687416828
 21
19.3036957277
  0
LINE
  5
36E
100
AcDbEntity
  8
RACCORDO
100
AcDbLine
 62
7
  6
CONTINUOUS
 10
2.0345504869
 20
-23.7440689644
 11
2.0345504869
 21
-21.5045932176
  0
LINE
  5
36F
100
AcDbEntity
  8
RACCORDO
100
AcDbLine
 62
7
  6
CONTINUOUS
 10
2.0345504869
 20
12.3036513625
 11
2.0345504869
 21
14.5431271093
  0
LWPOLYLINE
  5
370
100
AcDbEntity
  8
RACCORDO
100
AcDbPolyline
 62
250
  6
CONTINUOUS
 90
6
 70
0
 10
-1.569057547
 20
-25.4383253871
 10
-1.5723314981
 20
-25.4752492118
 10
-1.5809546306
 20
-25.5082402625
 10
-1.5946544322
 20
-25.5362758313
 10
-1.6130763373
 20
-25.5585586403
 10
-1.6379157489
 20
-25.5754114544
  0
LWPOLYLINE
  5
371
100
AcDbEntity
  8
RACCORDO
100
AcDbPolyline
 62
250
  6
CONTINUOUS
 90
7
 70
0
 10
-3.7447098314
 20
-22.5645658205
 10
-3.7527382579
 20
-22.6028426504
 10
-3.7658371657
 20
-22.6372549369
 10
-3.7836093168
 20
-22.6667590917
 10
-3.8055157522
 20
-22.6904603702
 10
-3.8308921363
 20
-22.7076400063
 10
-3.8531255538
 20
-22.7163165725
  0
LWPOLYLINE
  5
372
100
AcDbEntity
  8
ASSI
100
AcDbPolyline
 62
7
  6
CONTINUOUS
 90
11
 70
0
 10
19.5347569632
 20
9.5015781161
 10
19.5597055402
 20
9.5161006232
 10
19.6008842629
 20
9.5453658827
 10
19.6383191352
 20
9.5790776536
 10
19.6719834746
 20
9.6172360867
 10
19.7013462002
 20
9.6594097157
 10
19.7258351958
 20
9.7049044852
 10
19.7452585753
 20
9.7535895425
 10
19.7592934461
 20
9.8051104875
 10
19.7675700232
 20
9.8586703321
 10
19.7699161731
 20
9.9071238871
  0
LINE
  5
373
100
AcDbEntity
  8
ASSI
100
AcDbLine
 62
250
  6
CONTINUOUS
 10
19.6576640546
 20
9.7682863531
 11
17.5051076074
 21
8.6069327666
  0
LINE
  5
374
100
AcDbEntity
  8
ASSI
100
AcDbLine
 62
7
  6
CONTINUOUS
 10
19.5349101147
 20
9.5016429338
 11
17.851137427
 21
8.5932089402
  0
LWPOLYLINE
  5
375
100
AcDbEntity
  8
ASSI
100
AcDbPolyline
 62
250
  6
CONTINUOUS
 90
15
 70
0
 10
17.851099311
 20
8.593188377
 10
17.8497295598
 20
8.5924795132
 10
17.8398620248
 20
8.5886579445
 10
17.8272744098
 20
8.5856145539
 10
17.811888223
 20
8.5832822562
 10
17.7938868879
 20
8.5817822555
 10
17.7732406839
 20
8.5810814558
 10
17.7498491926
 20
8.5811216868
 10
17.7237377703
 20
8.5820463574
 10
17.6947950281
 20
8.5838233342
 10
17.6629406233
 20
8.5864222236
 10
17.6281712493
 20
8.5900482138
 10
17.5903792909
 20
8.5947563685
 10
17.5494002917
 20
8.6004102719
 10
17.5051084096
 20
8.6069331993
  0
LINE
  5
376
100
AcDbEntity
  8
RACCORDO
100
AcDbLine
 62
250
  6
CONTINUOUS
 10
-10.95294525
 20
-5.9051999731
 11
-10.9607818638
 21
-5.9089602866
  0
LWPOLYLINE
  5
377
100
AcDbEntity
  8
RACCORDO
100
AcDbPolyline
 62
250
  6
CONTINUOUS
 90
17
 70
0
 10
-10.9607818638
 20
-5.9089602866
 10
-10.9909833543
 20
-5.9225311297
 10
-11.0506898678
 20
-5.9453032538
 10
-11.1103828067
 20
-5.9631148831
 10
-11.1706621394
 20
-5.976506387
 10
-11.2313807685
 20
-5.9856846217
 10
-11.2922860334
 20
-5.9908406703
 10
-11.3539590815
 20
-5.9921799384
 10
-11.416348669
 20
-5.9897743156
 10
-11.4792407712
 20
-5.9837034398
 10
-11.5430445168
 20
-5.9739615725
 10
-11.6076695105
 20
-5.960548034
 10
-11.6729847203
 20
-5.9434759207
 10
-11.7393691745
 20
-5.9225966867
 10
-11.8068792356
 20
-5.8977897279
 10
-11.8752352716
 20
-5.86905312
 10
-11.9443141196
 20
-5.8363472689
  0
LWPOLYLINE
  5
378
100
AcDbEntity
  8
ASSI
100
AcDbPolyline
 62
250
  6
CONTINUOUS
 90
5
 70
0
 10
17.7719642215
 20
5.709140448
 10
17.7355600702
 20
5.6945763007
 10
17.699929907
 20
5.686049582
 10
17.6656696924
 20
5.6837029124
 10
17.6454377073
 20
5.6861273477
  0
LWPOLYLINE
  5
379
100
AcDbEntity
  8
ASSI
100
AcDbPolyline
 62
250
  6
CONTINUOUS
 90
5
 70
0
 10
17.7659830562
 20
5.7122767148
 10
17.7295194309
 20
5.6977230499
 10
17.6937485375
 20
5.6892496964
 10
17.6592689192
 20
5.6869984364
 10
17.6454377073
 20
5.6886985303
  0
LWPOLYLINE
  5
37A
100
AcDbEntity
  8
DRAFT
100
AcDbPolyline
 62
7
  6
CONTINUOUS
 90
4
 70
0
 10
-10.6176469156
 20
2.6184290263
 10
-10.6937533463
 20
2.6198031704
 10
-10.9261512823
 20
2.670316794
 10
-11.174770501
 20
2.7674408506
  0
LINE
  5
37B
100
AcDbEntity
  8
RACCORDO
100
AcDbLine
 62
250
  6
CONTINUOUS
 10
-12.3262467385
 20
6.6352756585
 11
-12.1125316889
 21
6.5450028004
  0
LINE
  5
37C
100
AcDbEntity
  8
ASSI
100
AcDbLine
 62
7
  6
CONTINUOUS
 10
3.6037612258
 20
-20.6679277163
 11
3.6037612258
 21
13.0090449595
  0
LINE
  5
37D
100
AcDbEntity
  8
DRAFT
100
AcDbLine
 62
7
  6
CONTINUOUS
 10
3.6037612258
 20
-20.6934227417
 11
3.6037612258
 21
13.034539985
  0
LWPOLYLINE
  5
37E
100
AcDbEntity
  8
RACCORDO
100
AcDbPolyline
 62
250
  6
CONTINUOUS
 90
5
 70
0
 10
8.0774077563
 20
18.2905823319
 10
8.0696213508
 20
18.2582150416
 10
8.0567283164
 20
18.230590565
 10
8.0391203688
 20
18.208548172
 10
8.0189674598
 20
18.1936410272
  0
LWPOLYLINE
  5
37F
100
AcDbEntity
  8
ASSI
100
AcDbPolyline
 62
250
  6
CONTINUOUS
 90
3
 70
0
 10
19.5688642051
 20
9.5250486022
 10
19.5426880184
 20
9.5060809554
 10
19.5349106886
 20
9.5016432435
  0
LINE
  5
380
100
AcDbEntity
  8
RACCORDO
100
AcDbLine
 62
250
  6
CONTINUOUS
 10
-12.0531634177
 20
-10.3230647703
 11
-12.0776910364
 21
-10.3369076446
  0
LINE
  5
381
100
AcDbEntity
  8
RACCORDO
100
AcDbLine
 62
7
  6
CONTINUOUS
 10
-12.9141968668
 20
-10.1027368789
 11
-12.9134193362
 21
-10.1023378535
  0
LINE
  5
382
100
AcDbEntity
  8
RACCORDO
100
AcDbLine
 62
250
  6
CONTINUOUS
 10
-12.5373104442
 20
-10.5667173485
 11
-12.0776910364
 21
-10.3369076446
  0
LINE
  5
383
100
AcDbEntity
  8
RACCORDO
100
AcDbLine
 62
250
  6
CONTINUOUS
 10
-11.6308225953
 20
-10.4963148233
 11
-11.9525879603
 21
-10.6571975058
  0
LINE
  5
384
100
AcDbEntity
  8
ASSI
100
AcDbLine
 62
250
  6
CONTINUOUS
 10
17.7659830562
 20
5.7122767148
 11
19.3041645119
 21
6.4752260565
  0
LINE
  5
385
100
AcDbEntity
  8
ASSI
100
AcDbLine
 62
250
  6
CONTINUOUS
 10
17.5051076074
 20
4.7978456665
 11
19.6576640546
 21
5.8655295332
  0
LINE
  5
386
100
AcDbEntity
  8
RACCORDO
100
AcDbLine
 62
250
  6
CONTINUOUS
 10
-19.4648210916
 20
14.3260042283
 11
-4.5382137073
 21
6.8630141758
  0
LWPOLYLINE
  5
387
100
AcDbEntity
  8
ASSI
100
AcDbPolyline
 62
250
  6
CONTINUOUS
 90
25
 70
0
 10
17.5051084076
 20
12.8518823186
 10
17.5494002509
 20
12.9061635194
 10
17.5903792253
 20
12.9597656144
 10
17.6281711718
 20
13.0124864489
 10
17.6629405499
 20
13.0640559936
 10
17.6947949696
 20
13.1143941457
 10
17.7237377251
 20
13.163614689
 10
17.7498491544
 20
13.2115773447
 10
17.7732406508
 20
13.2581703046
 10
17.7938868601
 20
13.3035628897
 10
17.8118882036
 20
13.3477033608
 10
17.8272743994
 20
13.3904221388
 10
17.8398620186
 20
13.4317012185
 10
17.8497295432
 20
13.4714846051
 10
17.8569128373
 20
13.5096040446
 10
17.8611454512
 20
13.545859621
 10
17.8624677547
 20
13.5801877703
 10
17.86097084
 20
13.6124252718
 10
17.8564729769
 20
13.642232394
 10
17.8489391403
 20
13.6695401279
 10
17.8385742254
 20
13.694234044
 10
17.8255830171
 20
13.715977843
 10
17.8101062834
 20
13.7346739496
 10
17.7922030987
 20
13.7504062691
 10
17.7719642189
 20
13.7631766091
  0
LINE
  5
388
100
AcDbEntity
  8
RACCORDO
100
AcDbLine
 62
7
  6
CONTINUOUS
 10
-11.6151405215
 20
-11.1828945738
 11
-11.9525879603
 21
-11.3516182932
  0
LINE
  5
389
100
AcDbEntity
  8
0
100
AcDbLine
 62
7
  6
CONTINUOUS
 10
-11.9525879603
 20
-13.0348349454
 11
-11.8026908493
 21
-12.9598863899
  0
LWPOLYLINE
  5
38A
100
AcDbEntity
  8
RACCORDO
100
AcDbPolyline
 62
7
  6
CONTINUOUS
 90
6
 70
0
 10
-12.9137401657
 20
-10.102595574
 10
-12.7828892016
 20
-10.054498001
 10
-12.6371041504
 20
-10.0364751221
 10
-12.4694346451
 20
-10.0497150667
 10
-12.2807576467
 20
-10.0986686692
 10
-12.0927763484
 20
-10.1783265332
  0
LWPOLYLINE
  5
38B
100
AcDbEntity
  8
RACCORDO
100
AcDbPolyline
 62
250
  6
CONTINUOUS
 90
3
 70
0
 10
-12.7314613373
 20
6.7233177998
 10
-12.5325591357
 20
6.6947128219
 10
-12.3262467385
 20
6.6352756585
  0
LINE
  5
38C
100
AcDbEntity
  8
RACCORDO
100
AcDbLine
 62
250
  6
CONTINUOUS
 10
-18.8848733388
 20
15.4385052516
 11
-3.9506340985
 21
7.9713856314
  0
LWPOLYLINE
  5
38D
100
AcDbEntity
  8
RACCORDO
100
AcDbPolyline
 62
7
  6
CONTINUOUS
 90
4
 70
0
 10
-16.8929455377
 20
17.3968887356
 10
-16.9215567041
 20
17.4144872551
 10
-16.9430618779
 20
17.4330488831
 10
-16.9574610591
 20
17.4525736194
  0
LWPOLYLINE
  5
38E
100
AcDbEntity
  8
RACCORDO
100
AcDbPolyline
 62
250
  6
CONTINUOUS
 90
3
 70
0
 10
-2.673960744
 20
25.1574502385
 10
-2.6611818073
 20
25.1166147211
 10
-2.6534662465
 20
25.0760449971
  0
LWPOLYLINE
  5
38F
100
AcDbEntity
  8
RACCORDO
100
AcDbPolyline
 62
250
  6
CONTINUOUS
 90
10
 70
0
 10
8.0798509638
 20
18.5123420612
 10
8.0792276855
 20
18.5315724098
 10
8.0772521927
 20
18.5513231548
 10
8.0739395188
 20
18.5714439933
 10
8.0693148732
 20
18.5917818059
 10
8.0634134495
 20
18.6121818218
 10
8.0562801574
 20
18.6324887972
 10
8.0479692813
 20
18.6525481962
 10
8.0385440669
 20
18.6722073667
 10
8.02807624
 20
18.6913167027
  0
LINE
  5
390
100
AcDbEntity
  8
RACCORDO
100
AcDbLine
 62
250
  6
CONTINUOUS
 10
8.0798509638
 20
18.5123420612
 11
8.0798509638
 21
18.3267090695
  0
LINE
  5
391
100
AcDbEntity
  8
RACCORDO
100
AcDbLine
 62
250
  6
CONTINUOUS
 10
8.0798509638
 20
-18.4187123819
 11
8.0798509638
 21
-18.6203286834
  0
LINE
  5
392
100
AcDbEntity
  8
RACCORDO
100
AcDbLine
 62
7
  6
CONTINUOUS
 10
8.223223578
 20
18.6618592157
 11
8.2232257392
 21
18.5032560205
  0
LINE
  5
393
100
AcDbEntity
  8
RACCORDO
100
AcDbLine
 62
7
  6
CONTINUOUS
 10
8.2232257392
 20
-18.3651936671
 11
8.2232257392
 21
-18.4188383582
  0
LWPOLYLINE
  5
394
100
AcDbEntity
  8
RACCORDO
100
AcDbPolyline
 62
250
  6
CONTINUOUS
 90
9
 70
0
 10
8.2232257392
 20
18.6613102054
 10
8.2232093869
 20
18.659795899
 10
8.221879955
 20
18.6474435273
 10
8.2184167313
 20
18.6348768347
 10
8.212872507
 20
18.6222182975
 10
8.2053251111
 20
18.6095501742
 10
8.1958309049
 20
18.596915094
 10
8.1844752812
 20
18.5843679513
 10
8.1714071289
 20
18.5720198037
  0
LWPOLYLINE
  5
395
100
AcDbEntity
  8
RACCORDO
100
AcDbPolyline
 62
250
  6
CONTINUOUS
 90
10
 70
0
 10
8.0798509638
 20
-18.6203286834
 10
8.0792276967
 20
-18.6388359842
 10
8.0772522305
 20
-18.6565357448
 10
8.073939592
 20
-18.6732932675
 10
8.0693149856
 20
-18.6889810186
 10
8.0634135974
 20
-18.703479616
 10
8.0562803224
 20
-18.7166787339
 10
8.0479694317
 20
-18.7284779201
 10
8.0385441648
 20
-18.7387873652
 10
8.0280762403
 20
-18.7475286009
  0
LINE
  5
396
100
AcDbEntity
  8
RACCORDO
100
AcDbLine
 62
250
  6
CONTINUOUS
 10
8.0798509638
 20
18.3267090695
 11
8.0774077563
 21
18.2905823319
  0
LWPOLYLINE
  5
397
100
AcDbEntity
  8
ASSI
100
AcDbPolyline
 62
7
  6
CONTINUOUS
 90
11
 70
0
 10
19.5347569632
 20
1.4475418609
 10
19.5597055402
 20
1.462064368
 10
19.6008842629
 20
1.4913296275
 10
19.6383191352
 20
1.5250413984
 10
19.6719834746
 20
1.5631998315
 10
19.7013462002
 20
1.6053734606
 10
19.7258351958
 20
1.65086823
 10
19.7452585753
 20
1.6995532873
 10
19.7592934461
 20
1.7510742323
 10
19.7675700232
 20
1.8046340769
 10
19.7699161731
 20
1.8530876319
  0
LINE
  5
398
100
AcDbEntity
  8
ASSI
100
AcDbLine
 62
250
  6
CONTINUOUS
 10
19.6576640546
 20
1.7142500979
 11
17.5051076074
 21
0.5528965114
  0
LINE
  5
399
100
AcDbEntity
  8
ASSI
100
AcDbLine
 62
7
  6
CONTINUOUS
 10
19.5349101147
 20
1.4476066786
 11
17.851137427
 21
0.539172685
  0
LWPOLYLINE
  5
39A
100
AcDbEntity
  8
ASSI
100
AcDbPolyline
 62
250
  6
CONTINUOUS
 90
15
 70
0
 10
17.851099311
 20
0.5391521218
 10
17.8497295598
 20
0.538443258
 10
17.8398620248
 20
0.5346216893
 10
17.8272744098
 20
0.5315782987
 10
17.811888223
 20
0.529246001
 10
17.7938868879
 20
0.5277460003
 10
17.7732406839
 20
0.5270452006
 10
17.7498491926
 20
0.5270854316
 10
17.7237377703
 20
0.5280101022
 10
17.6947950281
 20
0.529787079
 10
17.6629406233
 20
0.5323859684
 10
17.6281712493
 20
0.5360119586
 10
17.5903792909
 20
0.5407201133
 10
17.5494002917
 20
0.5463740167
 10
17.5051084096
 20
0.5528969441
  0
LINE
  5
39B
100
AcDbEntity
  8
RACCORDO
100
AcDbLine
 62
250
  6
CONTINUOUS
 10
-10.8446227076
 20
-14.0797665438
 11
-10.8531014468
 21
-14.0838281064
  0
LINE
  5
39C
100
AcDbEntity
  8
RACCORDO
100
AcDbLine
 62
7
  6
CONTINUOUS
 10
-16.5412027422
 20
17.1415580266
 11
-1.5656975727
 21
9.6538054418
  0
LINE
  5
39D
100
AcDbEntity
  8
RACCORDO
100
AcDbLine
 62
7
  6
CONTINUOUS
 10
-16.8929455377
 20
17.3968887356
 11
-1.9210615584
 21
9.9109467459
  0
LINE
  5
39E
100
AcDbEntity
  8
RACCORDO
100
AcDbLine
 62
250
  6
CONTINUOUS
 10
-16.9199454894
 20
20.1988121985
 11
-16.8929455377
 21
20.1828377274
  0
LINE
  5
39F
100
AcDbEntity
  8
RACCORDO
100
AcDbLine
 62
7
  6
CONTINUOUS
 10
-0.0024833583
 20
15.8170150398
 11
0.0292495002
 21
15.7622839548
  0
LINE
  5
3A0
100
AcDbEntity
  8
RACCORDO
100
AcDbLine
 62
7
  6
CONTINUOUS
 10
8.2232196059
 20
18.6618512013
 11
8.2202414835
 21
18.70090733
  0
LINE
  5
3A1
100
AcDbEntity
  8
ASSI
100
AcDbLine
 62
250
  6
CONTINUOUS
 10
9.5153194637
 20
15.9412214261
 11
9.5153194637
 21
12.3096884459
  0
LINE
  5
3A2
100
AcDbEntity
  8
ASSI
100
AcDbLine
 62
250
  6
CONTINUOUS
 10
9.5153194637
 20
-7.9863173603
 11
9.5153194637
 21
-17.4785064257
  0
LINE
  5
3A3
100
AcDbEntity
  8
ASSI
100
AcDbLine
 62
7
  6
CONTINUOUS
 10
9.6556495636
 20
16.0623640901
 11
9.6556495636
 21
12.7789451298
  0
LINE
  5
3A4
100
AcDbEntity
  8
ASSI
100
AcDbLine
 62
7
  6
CONTINUOUS
 10
9.6556495353
 20
-7.812568646
 11
9.6556495636
 21
-17.2523199045
  0
LINE
  5
3A5
100
AcDbEntity
  8
ASSI
100
AcDbLine
 62
7
  6
CONTINUOUS
 10
10.0384329346
 20
16.3446866277
 11
10.0384329346
 21
16.3055441033
  0
LINE
  5
3A6
100
AcDbEntity
  8
0
100
AcDbLine
 62
7
  6
CONTINUOUS
 10
10.0384329346
 20
15.5320648957
 11
10.0384329346
 21
15.1724663034
  0
LINE
  5
3A7
100
AcDbEntity
  8
0
100
AcDbLine
 62
7
  6
CONTINUOUS
 10
10.0992566309
 20
15.5485301345
 11
10.0992566309
 21
15.1755552099
  0
LWPOLYLINE
  5
3A8
100
AcDbEntity
  8
ASSI
100
AcDbPolyline
 62
7
  6
CONTINUOUS
 90
22
 70
0
 10
9.6556495681
 20
-7.8125686448
 10
9.6556869262
 20
-7.8060360431
 10
9.6571943204
 20
-7.7689441492
 10
9.6611846663
 20
-7.7278521484
 10
9.6679641473
 20
-7.6833319086
 10
9.677668102
 20
-7.6363135675
 10
9.6903824497
 20
-7.5874006389
 10
9.7061473673
 20
-7.5371350196
 10
9.7248175988
 20
-7.4863828302
 10
9.7462390194
 20
-7.4357737609
 10
9.7702267168
 20
-7.3858749338
 10
9.7964358694
 20
-7.3374161907
 10
9.8245371795
 20
-7.2909313681
 10
9.8541629198
 20
-7.2469247404
 10
9.8847685961
 20
-7.206018415
 10
9.9159296889
 20
-7.1685296757
 10
9.947097401
 20
-7.1348436774
 10
9.9773898449
 20
-7.105528545
 10
10.0062709518
 20
-7.0806243523
 10
10.0331748439
 20
-7.0601138566
 10
10.0571343446
 20
-7.0441305031
 10
10.0756830367
 20
-7.0333626522
  0
LWPOLYLINE
  5
3A9
100
AcDbEntity
  8
ASSI
100
AcDbPolyline
 62
7
  6
CONTINUOUS
 90
8
 70
0
 10
9.6556495635
 20
-17.2523381845
 10
9.6555502646
 20
-17.2598484938
 10
9.6518085768
 20
-17.2979640044
 10
9.6426217164
 20
-17.3344150028
 10
9.6279709586
 20
-17.3689734795
 10
9.6078270501
 20
-17.4010119925
 10
9.5822221695
 20
-17.4301052364
 10
9.5517503855
 20
-17.4557263265
  0
LWPOLYLINE
  5
3AA
100
AcDbEntity
  8
ASSI
100
AcDbPolyline
 62
7
  6
CONTINUOUS
 90
10
 70
0
 10
9.6556495618
 20
12.7789753374
 10
9.6552363426
 20
12.7561694403
 10
9.6517170526
 20
12.7069770398
 10
9.6444770856
 20
12.6554403622
 10
9.6333536686
 20
12.6015743082
 10
9.6182618535
 20
12.5457286301
 10
9.5990005915
 20
12.4883496749
 10
9.5754219243
 20
12.4297542175
 10
9.5475225144
 20
12.3701124764
 10
9.5153194637
 20
12.3096884459
  0
LWPOLYLINE
  5
3AB
100
AcDbEntity
  8
ASSI
100
AcDbPolyline
 62
250
  6
CONTINUOUS
 90
9
 70
0
 10
9.6556495636
 20
-7.8126527676
 10
9.6551862782
 20
-7.823412307
 10
9.65028573
 20
-7.8491735248
 10
9.6400854982
 20
-7.8745434479
 10
9.624694871
 20
-7.8992502553
 10
9.6042787484
 20
-7.9230292307
 10
9.579055875
 20
-7.9456255988
 10
9.5492964964
 20
-7.9667972552
 10
9.5153194637
 20
-7.9863173603
  0
LWPOLYLINE
  5
3AC
100
AcDbEntity
  8
ASSI
100
AcDbPolyline
 62
250
  6
CONTINUOUS
 90
25
 70
0
 10
17.5051084076
 20
4.7978460634
 10
17.5494002509
 20
4.8521272642
 10
17.5903792253
 20
4.9057293592
 10
17.6281711718
 20
4.9584501937
 10
17.6629405499
 20
5.0100197384
 10
17.6947949696
 20
5.0603578905
 10
17.7237377251
 20
5.1095784338
 10
17.7498491544
 20
5.1575410895
 10
17.7732406508
 20
5.2041340494
 10
17.7938868601
 20
5.2495266345
 10
17.8118882036
 20
5.2936671056
 10
17.8272743994
 20
5.3363858836
 10
17.8398620186
 20
5.3776649633
 10
17.8497295432
 20
5.4174483499
 10
17.8569128373
 20
5.4555677894
 10
17.8611454512
 20
5.4918233658
 10
17.8624677547
 20
5.5261515151
 10
17.86097084
 20
5.5583890166
 10
17.8564729769
 20
5.5881961388
 10
17.8489391403
 20
5.6155038727
 10
17.8385742254
 20
5.6401977888
 10
17.8255830171
 20
5.6619415878
 10
17.8101062834
 20
5.6806376944
 10
17.7922030987
 20
5.6963700139
 10
17.7719642189
 20
5.7091403539
  0
LWPOLYLINE
  5
3AD
100
AcDbEntity
  8
ASSI
100
AcDbPolyline
 62
250
  6
CONTINUOUS
 90
3
 70
0
 10
19.5688642051
 20
1.471012347
 10
19.5426880184
 20
1.4520447002
 10
19.5349106886
 20
1.4476069883
  0
LWPOLYLINE
  5
3AE
100
AcDbEntity
  8
ASSI
100
AcDbPolyline
 62
250
  6
CONTINUOUS
 90
6
 70
0
 10
10.1979583432
 20
-6.7669772298
 10
10.1519252663
 20
-6.793101417
 10
10.1051887825
 20
-6.8242808857
 10
10.0577488917
 20
-6.8605156357
 10
10.009042589
 20
-6.9019971315
 10
9.9596328794
 20
-6.9485339087
  0
LINE
  5
3AF
100
AcDbEntity
  8
ASSI
100
AcDbLine
 62
250
  6
CONTINUOUS
 10
17.5051076074
 20
-2.8246025634
 11
10.1979583432
 21
-6.7669772298
  0
LINE
  5
3B0
100
AcDbEntity
  8
ASSI
100
AcDbLine
 62
7
  6
CONTINUOUS
 10
17.3828496175
 20
-3.0909784063
 11
10.0757003532
 21
-7.0333530728
  0
LWPOLYLINE
  5
3B1
100
AcDbEntity
  8
RACCORDO
100
AcDbPolyline
 62
250
  6
CONTINUOUS
 90
7
 70
0
 10
-10.8531014468
 20
-14.0838281064
 10
-10.9921912297
 20
-14.1344678919
 10
-11.1456001175
 20
-14.1606263705
 10
-11.3084738731
 20
-14.1605112999
 10
-11.4770136876
 20
-14.1344932635
 10
-11.6506926004
 20
-14.0829160191
 10
-11.8273364091
 20
-14.0063500292
  0
LINE
  5
3B2
100
AcDbEntity
  8
RACCORDO
100
AcDbLine
 62
250
  6
CONTINUOUS
 10
-1.9210615584
 20
12.6968957381
 11
-16.8929455377
 21
20.1828377278
  0
LINE
  5
3B3
100
AcDbEntity
  8
RACCORDO
100
AcDbLine
 62
250
  6
CONTINUOUS
 10
-1.7473700418
 20
13.0002148724
 11
-16.7192540212
 21
20.4861568621
  0
LWPOLYLINE
  5
3B4
100
AcDbEntity
  8
RACCORDO
100
AcDbPolyline
 62
7
  6
CONTINUOUS
 90
5
 70
0
 10
-2.6188204959
 20
23.815833283
 10
-2.6410827049
 20
23.8517669727
 10
-2.6670975188
 20
23.882949076
 10
-2.6959046758
 20
23.9084714277
 10
-2.7265844111
 20
23.9275202702
  0
LINE
  5
3B5
100
AcDbEntity
  8
RACCORDO
100
AcDbLine
 62
7
  6
CONTINUOUS
 10
3.6037612258
 20
13.034539985
 11
2.0670622615
 21
15.6849536425
  0
LWPOLYLINE
  5
3B6
100
AcDbEntity
  8
RACCORDO
100
AcDbPolyline
 62
250
  6
CONTINUOUS
 90
14
 70
0
 10
8.1876363426
 20
18.7937374735
 10
8.187950517
 20
18.7909752821
 10
8.1863044115
 20
18.7873725475
 10
8.182677772
 20
18.7829635712
 10
8.1770923639
 20
18.7777354195
 10
8.1696097929
 20
18.7717799759
 10
8.1603157768
 20
18.7651520824
 10
8.1492756877
 20
18.7578632555
 10
8.1365735511
 20
18.7499733034
 10
8.1223673635
 20
18.7415628721
 10
8.1066907401
 20
18.7326467326
 10
8.0893990348
 20
18.7231588487
 10
8.070456513
 20
18.7130753197
 10
8.0499939993
 20
18.70245232
  0
LINE
  5
3B7
100
AcDbEntity
  8
RACCORDO
100
AcDbLine
 62
7
  6
CONTINUOUS
 10
11.405342478
 20
15.4944662769
 11
11.3652864499
 21
16.0234357807
  0
LINE
  5
3B8
100
AcDbEntity
  8
ASSI
100
AcDbLine
 62
7
  6
CONTINUOUS
 10
11.9644459423
 20
19.0432736326
 11
11.9644459423
 21
18.5989243969
  0
LWPOLYLINE
  5
3B9
100
AcDbEntity
  8
ASSI
100
AcDbPolyline
 62
250
  6
CONTINUOUS
 90
13
 70
0
 10
17.5051076074
 20
12.851882918
 10
17.5293336635
 20
12.9212309982
 10
17.5511033747
 20
12.9892567484
 10
17.5704327172
 20
13.0558405288
 10
17.5873109164
 20
13.120843925
 10
17.6018508392
 20
13.1841828967
 10
17.6142268879
 20
13.2458427791
 10
17.624466815
 20
13.3057227828
 10
17.6326109512
 20
13.3637646823
 10
17.6387589695
 20
13.4200442229
 10
17.6429163415
 20
13.474581219
 10
17.6450844837
 20
13.52722709
 10
17.645437685
 20
13.5574701243
  0
LWPOLYLINE
  5
3BA
100
AcDbEntity
  8
ASSI
100
AcDbPolyline
 62
250
  6
CONTINUOUS
 90
17
 70
0
 10
9.9596328794
 20
-6.9485339087
 10
9.911208778
 20
-6.9995515742
 10
9.8638196525
 20
-7.0553477793
 10
9.8174161353
 20
-7.1156248728
 10
9.7735391384
 20
-7.1789155081
 10
9.7323504295
 20
-7.2453887326
 10
9.6936882409
 20
-7.3148754988
 10
9.658608181
 20
-7.385401318
 10
9.6273244138
 20
-7.4570269847
 10
9.5996227752
 20
-7.5296917043
 10
9.5759163817
 20
-7.6012386044
 10
9.5564571953
 20
-7.6715566788
 10
9.540993254
 20
-7.7407569336
 10
9.5291817872
 20
-7.8070155145
 10
9.5209085382
 20
-7.8697244703
 10
9.5162877637
 20
-7.9294917522
 10
9.5153194637
 20
-7.9863173603
  0
LWPOLYLINE
  5
3BB
100
AcDbEntity
  8
ASSI
100
AcDbPolyline
 62
250
  6
CONTINUOUS
 90
9
 70
0
 10
17.3906506608
 20
-3.0865266143
 10
17.4168135695
 20
-3.0675651804
 10
17.4400043793
 20
-3.0440408601
 10
17.4599691053
 20
-3.0162112908
 10
17.4764890946
 20
-2.9843812611
 10
17.4893834208
 20
-2.9488993723
 10
17.4985108657
 20
-2.9101542207
 10
17.5037714659
 20
-2.868570142
 10
17.5051076074
 20
-2.8246025634
  0
LWPOLYLINE
  5
3BC
100
AcDbEntity
  8
ASSI
100
AcDbPolyline
 62
250
  6
CONTINUOUS
 90
10
 70
0
 10
10.0757003532
 20
-7.0333530728
 10
10.0835011041
 20
-7.0289014569
 10
10.1096640354
 20
-7.009940079
 10
10.1328548822
 20
-6.9864158035
 10
10.1528196551
 20
-6.9585862611
 10
10.1693396958
 20
-6.9267562352
 10
10.1822340727
 20
-6.891274321
 10
10.1913615613
 20
-6.8525291106
 10
10.1966221915
 20
-6.8109449379
 10
10.1979583431
 20
-6.7669772299
  0
LINE
  5
3BD
100
AcDbEntity
  8
ASSI
100
AcDbLine
 62
250
  6
CONTINUOUS
 10
17.3828496175
 20
-3.0909784063
 11
17.3906506608
 21
-3.0865266143
  0
LINE
  5
3BE
100
AcDbEntity
  8
0
100
AcDbLine
 62
7
  6
CONTINUOUS
 10
10.0992566309
 20
15.5485301345
 11
10.0384329346
 21
15.5320648957
  0
LINE
  5
3BF
100
AcDbEntity
  8
RACCORDO
100
AcDbLine
 62
250
  6
CONTINUOUS
 10
-16.7491109748
 20
20.4977996892
 11
-16.7192540212
 21
20.4861568621
  0
LINE
  5
3C0
100
AcDbEntity
  8
ASSI
100
AcDbLine
 62
250
  6
CONTINUOUS
 10
17.7659830562
 20
5.7122767148
 11
17.6454377073
 21
5.7725493893
  0
LWPOLYLINE
  5
3C1
100
AcDbEntity
  8
RACCORDO
100
AcDbPolyline
 62
250
  6
CONTINUOUS
 90
10
 70
0
 10
-10.2410143783
 20
21.640105483
 10
-10.2105644798
 20
21.6213444856
 10
-10.1809928285
 20
21.5965993613
 10
-10.1531978573
 20
21.5666219054
 10
-10.1280240204
 20
21.5323228797
 10
-10.1062361384
 20
21.4947443419
 10
-10.0884961609
 20
21.4550279864
 10
-10.075343056
 20
21.414380458
 10
-10.0671764355
 20
21.3740366917
 10
-10.0642444141
 20
21.3352223939
  0
LWPOLYLINE
  5
3C2
100
AcDbEntity
  8
ASSI
100
AcDbPolyline
 62
7
  6
CONTINUOUS
 90
10
 70
0
 10
4.3246914689
 20
15.630487066
 10
4.3152673197
 20
15.6451053485
 10
4.3051339593
 20
15.6590430937
 10
4.2943671538
 20
15.6721937288
 10
4.2830454597
 20
15.6844559062
 10
4.2712554369
 20
15.6957372338
 10
4.2590909877
 20
15.7059549506
 10
4.2466448998
 20
15.7150325882
 10
4.2340081553
 20
15.7229005538
 10
4.2212750546
 20
15.7294995992
  0
LINE
  5
3C3
100
AcDbEntity
  8
RACCORDO
100
AcDbLine
 62
7
  6
CONTINUOUS
 10
8.2202414835
 20
18.70090733
 11
8.2039474991
 21
18.7603832927
  0
LWPOLYLINE
  5
3C4
100
AcDbEntity
  8
ASSI
100
AcDbPolyline
 62
7
  6
CONTINUOUS
 90
3
 70
0
 10
9.6556662706
 20
16.0623375126
 10
9.6538861395
 20
16.0722169597
 10
9.6517758192
 20
16.0766844998
  0
LWPOLYLINE
  5
3C5
100
AcDbEntity
  8
RACCORDO
100
AcDbPolyline
 62
7
  6
CONTINUOUS
 90
12
 70
0
 10
11.3652864499
 20
16.0234357807
 10
11.3638284763
 20
16.0365978427
 10
11.3614223051
 20
16.0490363712
 10
11.3580679363
 20
16.060751366
 10
11.3537175742
 20
16.0718622519
 10
11.3484190145
 20
16.0822496041
 10
11.3423156443
 20
16.0915551488
 10
11.3354088783
 20
16.0996950216
 10
11.3276973018
 20
16.1067530869
 10
11.3193200587
 20
16.1126226644
 10
11.310281176
 20
16.1172969151
 10
11.3030203223
 20
16.1200395821
  0
LWPOLYLINE
  5
3C6
100
AcDbEntity
  8
ASSI
100
AcDbPolyline
 62
250
  6
CONTINUOUS
 90
13
 70
0
 10
17.5051076074
 20
4.7978466628
 10
17.5293336635
 20
4.867194743
 10
17.5511033747
 20
4.9352204932
 10
17.5704327172
 20
5.0018042736
 10
17.5873109164
 20
5.0668076699
 10
17.6018508392
 20
5.1301466415
 10
17.6142268879
 20
5.1918065239
 10
17.624466815
 20
5.2516865276
 10
17.6326109512
 20
5.3097284271
 10
17.6387589695
 20
5.3660079677
 10
17.6429163415
 20
5.4205449638
 10
17.6450844837
 20
5.4731908348
 10
17.645437685
 20
5.5034338691
  0
LWPOLYLINE
  5
3C7
100
AcDbEntity
  8
RACCORDO
100
AcDbPolyline
 62
250
  6
CONTINUOUS
 90
5
 70
0
 10
8.2075523706
 20
-18.4947232586
 10
8.2147168099
 20
-18.4753341882
 10
8.2198566653
 20
-18.4547279633
 10
8.2227065445
 20
-18.4330529345
 10
8.2232257392
 20
-18.4188404739
  0
LWPOLYLINE
  5
3C8
100
AcDbEntity
  8
RACCORDO
100
AcDbPolyline
 62
250
  6
CONTINUOUS
 90
18
 70
0
 10
9.5501877068
 20
16.251898077
 10
9.5722404954
 20
16.2545507571
 10
9.6829067644
 20
16.2649210728
 10
9.7949928073
 20
16.2724898501
 10
9.9082982117
 20
16.2772638221
 10
10.0216708656
 20
16.2791559369
 10
10.1353556216
 20
16.2780776969
 10
10.2491076272
 20
16.2741175997
 10
10.3610402136
 20
16.2674540863
 10
10.4711113096
 20
16.2579602783
 10
10.5793629864
 20
16.2457630541
 10
10.6840347886
 20
16.2314214898
 10
10.7849768462
 20
16.2148172199
 10
10.8823390291
 20
16.1960686099
 10
10.9748104915
 20
16.1760898329
 10
11.0619542846
 20
16.1551856134
 10
11.1442073571
 20
16.1330512269
 10
11.221569709
 20
16.1096866735
  0
LWPOLYLINE
  5
3C9
100
AcDbEntity
  8
RACCORDO
100
AcDbPolyline
 62
250
  6
CONTINUOUS
 90
27
 70
0
 10
-11.0858240056
 20
21.6374535413
 10
-11.0590387018
 20
21.6249899563
 10
-11.0315503739
 20
21.6135374355
 10
-11.0033590219
 20
21.603095979
 10
-10.9744749297
 20
21.593701126
 10
-10.9448878134
 20
21.5853173373
 10
-10.9145668217
 20
21.5778379949
 10
-10.8834504008
 20
21.5712187261
 10
-10.8516001044
 20
21.5655039036
 10
-10.8191697434
 20
21.5607200269
 10
-10.7861355588
 20
21.5568585555
 10
-10.7525213095
 20
21.5539280301
 10
-10.7185520828
 20
21.5519805723
 10
-10.6841716881
 20
21.5510210501
 10
-10.6494363159
 20
21.5510445956
 10
-10.6147396252
 20
21.5520887267
 10
-10.5800564163
 20
21.5541745338
 10
-10.5454118888
 20
21.5572809265
 10
-10.5112753007
 20
21.5613821504
 10
-10.4776791267
 20
21.5664942289
 10
-10.444590892
 20
21.5726011387
 10
-10.4123824296
 20
21.5796290559
 10
-10.3810790229
 20
21.5875861351
 10
-10.3506553885
 20
21.5964642218
 10
-10.3214075086
 20
21.6061650286
 10
-10.293434044
 20
21.6166557932
 10
-10.2666363338
 20
21.627969278
  0
LWPOLYLINE
  5
3CA
100
AcDbEntity
  8
RACCORDO
100
AcDbPolyline
 62
250
  6
CONTINUOUS
 90
28
 70
0
 10
-11.2610580527
 20
21.3333384107
 10
-11.2234625973
 20
21.3156590478
 10
-11.1844263494
 20
21.2994175124
 10
-11.144181743
 20
21.2846162394
 10
-11.1031486249
 20
21.2713092655
 10
-11.0613589548
 20
21.2594113005
 10
-11.0183913284
 20
21.2487549478
 10
-10.9742510974
 20
21.2393370737
 10
-10.9292214092
 20
21.2312146279
 10
-10.8832280842
 20
21.2243730418
 10
-10.8363791538
 20
21.2188400561
 10
-10.7888533339
 20
21.2146484555
 10
-10.740671477
 20
21.2118147465
 10
-10.6919179615
 20
21.2103682338
 10
-10.6428181536
 20
21.2103397597
 10
-10.5936088375
 20
21.2117463155
 10
-10.5444259059
 20
21.2146008224
 10
-10.495470222
 20
21.2189081539
 10
-10.4470752249
 20
21.2246451227
 10
-10.3994416346
 20
21.2317872055
 10
-10.3526948766
 20
21.2403145487
 10
-10.3070437597
 20
21.2501849224
 10
-10.2626618072
 20
21.2613553507
 10
-10.2196718457
 20
21.2737892055
 10
-10.1781976457
 20
21.2874445253
 10
-10.1383706005
 20
21.3022748933
 10
-10.1003273358
 20
21.3182278933
 10
-10.0641921913
 20
21.335248444
  0
LWPOLYLINE
  5
3CB
100
AcDbEntity
  8
ASSI
100
AcDbPolyline
 62
250
  6
CONTINUOUS
 90
7
 70
0
 10
19.4781135988
 20
6.484171421
 10
19.4736907665
 20
6.4862931736
 10
19.4434931999
 20
6.4964951367
 10
19.410881447
 20
6.5005042853
 10
19.3764011841
 20
6.4982534279
 10
19.3406293467
 20
6.489780124
 10
19.3041645111
 20
6.475226057
  0
LINE
  5
3CC
100
AcDbEntity
  8
RACCORDO
100
AcDbLine
 62
7
  6
CONTINUOUS
 10
-11.2818772822
 20
20.8400686974
 11
-11.2610580527
 21
20.8296590826
  0
LINE
  5
3CD
100
AcDbEntity
  8
RACCORDO
100
AcDbLine
 62
7
  6
CONTINUOUS
 10
-1.1889880127
 20
15.7936240626
 11
-1.1681687832
 21
15.7832144479
  0
LINE
  5
3CE
100
AcDbEntity
  8
RACCORDO
100
AcDbLine
 62
250
  6
CONTINUOUS
 10
-11.2818634373
 20
21.343741103
 11
-11.2610580527
 21
21.3333384107
  0
LINE
  5
3CF
100
AcDbEntity
  8
RACCORDO
100
AcDbLine
 62
250
  6
CONTINUOUS
 10
-1.1681687832
 20
16.2868937759
 11
-1.1889880127
 21
16.2973033907
  0
LINE
  5
3D0
100
AcDbEntity
  8
RACCORDO
100
AcDbLine
 62
7
  6
CONTINUOUS
 10
1.8577939842
 20
14.8480117128
 11
-0.0024833583
 21
15.7781503841
  0
LINE
  5
3D1
100
AcDbEntity
  8
DRAFT
100
AcDbLine
 62
7
  6
CONTINUOUS
 10
-2.8074613389
 20
17.1806393744
 11
-8.5112138766
 21
20.0325156432
  0
LINE
  5
3D2
100
AcDbEntity
  8
RACCORDO
100
AcDbLine
 62
7
  6
CONTINUOUS
 10
-11.5195587705
 20
21.5366880902
 11
-13.1764691997
 21
22.3651433048
  0
LINE
  5
3D3
100
AcDbEntity
  8
RACCORDO
100
AcDbLine
 62
250
  6
CONTINUOUS
 10
-11.106643235
 20
21.6478631561
 11
-11.0858240056
 21
21.6374535413
  0
LINE
  5
3D4
100
AcDbEntity
  8
RACCORDO
100
AcDbLine
 62
250
  6
CONTINUOUS
 10
-0.992934736
 20
16.5910089066
 11
-1.0137539655
 21
16.6014185213
  0
LINE
  5
3D5
100
AcDbEntity
  8
ASSI
100
AcDbLine
 62
250
  6
CONTINUOUS
 10
17.6454377073
 20
7.3045894588
 11
19.3041645119
 21
6.4752260565
  0
LINE
  5
3D6
100
AcDbEntity
  8
ASSI
100
AcDbLine
 62
7
  6
CONTINUOUS
 10
17.6454377073
 20
7.4005093668
 11
19.4781135988
 21
6.484171421
  0
LINE
  5
3D7
100
AcDbEntity
  8
ASSI
100
AcDbLine
 62
7
  6
CONTINUOUS
 10
-2.4177260789
 20
17.5640759255
 11
-2.236320229
 21
17.4733730006
  0
LINE
  5
3D8
100
AcDbEntity
  8
RACCORDO
100
AcDbLine
 62
7
  6
CONTINUOUS
 10
-0.1795688256
 20
16.5789505463
 11
-0.6255648492
 21
16.8019485581
  0
LINE
  5
3D9
100
AcDbEntity
  8
RACCORDO
100
AcDbLine
 62
7
  6
CONTINUOUS
 10
-10.6931103664
 20
21.8357213167
 11
-11.1391063899
 21
22.0587193285
  0
LINE
  5
3DA
100
AcDbEntity
  8
ASSI
100
AcDbLine
 62
7
  6
CONTINUOUS
 10
2.464722298
 20
15.3076970193
 11
2.7551577013
 21
15.1624793177
  0
LWPOLYLINE
  5
3DB
100
AcDbEntity
  8
RACCORDO
100
AcDbPolyline
 62
250
  6
CONTINUOUS
 90
30
 70
0
 10
-1.0137539655
 20
16.6014185213
 10
-1.0296576514
 20
16.6095623928
 10
-1.0452675886
 20
16.6183538907
 10
-1.0605837772
 20
16.627793015
 10
-1.0757134642
 20
16.6378583519
 10
-1.0905494026
 20
16.6485713152
 10
-1.1047698511
 20
16.6599961465
 10
-1.118415431
 20
16.6721627578
 10
-1.131445521
 20
16.6850412371
 10
-1.1434165171
 20
16.6986060895
 10
-1.1543376193
 20
16.7129120214
 10
-1.1641996275
 20
16.7279043263
 10
-1.1725313368
 20
16.7433933907
 10
-1.1792754749
 20
16.7594099954
 10
-1.184489314
 20
16.7759233594
 10
-1.187873467
 20
16.7926515265
 10
-1.1893567931
 20
16.8095842472
 10
-1.1890104331
 20
16.8267317709
 10
-1.1867484216
 20
16.8438428887
 10
-1.182526862
 20
16.8609015652
 10
-1.176389651
 20
16.8779238359
 10
-1.1683825132
 20
16.8947065981
 10
-1.1584770761
 20
16.9112410038
 10
-1.1467017123
 20
16.9275359009
 10
-1.1331872633
 20
16.9434147315
 10
-1.1179181316
 20
16.9588660066
 10
-1.1009099148
 20
16.973901215
 10
-1.0823402465
 20
16.9883782655
 10
-1.0622683379
 20
17.002249794
 10
-1.0406349779
 20
17.0155631645
  0
LWPOLYLINE
  5
3DC
100
AcDbEntity
  8
RACCORDO
100
AcDbPolyline
 62
250
  6
CONTINUOUS
 90
18
 70
0
 10
-1.1889880127
 20
16.2973033907
 10
-1.2112631305
 20
16.3088719457
 10
-1.2334156899
 20
16.321308425
 10
-1.2553083575
 20
16.3346397638
 10
-1.2767758284
 20
16.3488758712
 10
-1.2976828901
 20
16.3640492061
 10
-1.3179132605
 20
16.3802180538
 10
-1.3373079157
 20
16.397420244
 10
-1.3556403034
 20
16.4156389487
 10
-1.3726773716
 20
16.4348421593
 10
-1.3882494123
 20
16.4550669473
 10
-1.4021029701
 20
16.4762487363
 10
-1.413934124
 20
16.4981791107
 10
-1.4235863344
 20
16.5208260003
 10
-1.4308928745
 20
16.5441253509
 10
-1.4356638799
 20
16.5677948388
 10
-1.437819692
 20
16.5917343389
 10
-1.4379127937
 20
16.5952966609
  0
LINE
  5
3DD
100
AcDbEntity
  8
ASSI
100
AcDbLine
 62
250
  6
CONTINUOUS
 10
17.7719642189
 20
5.7091403539
 11
17.7659830562
 21
5.7122767148
  0
LINE
  5
3DE
100
AcDbEntity
  8
RACCORDO
100
AcDbLine
 62
250
  6
CONTINUOUS
 10
-11.3143415694
 20
21.3609156052
 11
-11.2818634371
 21
21.3437410943
  0
LINE
  5
3DF
100
AcDbEntity
  8
RACCORDO
100
AcDbLine
 62
250
  6
CONTINUOUS
 10
-11.129408085
 20
21.6599019895
 11
-11.106643235
 21
21.6478631561
  0
LWPOLYLINE
  5
3E0
100
AcDbEntity
  8
RACCORDO
100
AcDbPolyline
 62
7
  6
CONTINUOUS
 90
25
 70
0
 10
-8.0163127659
 20
21.7204369988
 10
-8.0075216521
 20
21.7157001718
 10
-7.9988298852
 20
21.7103644208
 10
-7.9902374652
 20
21.7044297458
 10
-7.9817124121
 20
21.6978689719
 10
-7.9732867059
 20
21.690709274
 10
-7.965056287
 20
21.6830321768
 10
-7.9570233875
 20
21.6748317665
 10
-7.9491857753
 20
21.666113957
 10
-7.9416326943
 20
21.6569780146
 10
-7.9343673967
 20
21.6474191602
 10
-7.9273866303
 20
21.6374421729
 10
-7.9207698825
 20
21.6271606569
 10
-7.914521314
 20
21.6165711316
 10
-7.908636764
 20
21.6056770776
 10
-7.9031832378
 20
21.5946025415
 10
-7.8981656618
 20
21.5833454603
 10
-7.8935791096
 20
21.5719078969
 10
-7.8894758064
 20
21.5604200866
 10
-7.8858612758
 20
21.548881455
 10
-7.8827299943
 20
21.5372925764
 10
-7.8801176166
 20
21.5257854091
 10
-7.8780360275
 20
21.5144039391
 10
-7.8764733422
 20
21.5031041803
 10
-7.8754295606
 20
21.4918861328
  0
LWPOLYLINE
  5
3E1
100
AcDbEntity
  8
ASSI
100
AcDbPolyline
 62
250
  6
CONTINUOUS
 90
16
 70
0
 10
19.3041645119
 20
6.4752260565
 10
19.3416102244
 20
6.4546069436
 10
19.3785859013
 20
6.4294481539
 10
19.4146857279
 20
6.4000273689
 10
19.4495082217
 20
6.3666739001
 10
19.4826786456
 20
6.3297506567
 10
19.5138503009
 20
6.2896448311
 10
19.5426880183
 20
6.2467809333
 10
19.5688642051
 20
6.2016368681
 10
19.5920819102
 20
6.1547232415
 10
19.6120857979
 20
6.1065619896
 10
19.6286610428
 20
6.0576743396
 10
19.6416267315
 20
6.008592198
 10
19.65084163
 20
5.9598521676
 10
19.6562064648
 20
5.9119897565
 10
19.6576640546
 20
5.8655295332
  0
LWPOLYLINE
  5
3E2
100
AcDbEntity
  8
RACCORDO
100
AcDbPolyline
 62
7
  6
CONTINUOUS
 90
10
 70
0
 10
-0.1795688256
 20
16.5789505463
 10
-0.1474895995
 20
16.5588581823
 10
-0.1180312331
 20
16.5345144426
 10
-0.0911937266
 20
16.505919327
 10
-0.0663372053
 20
16.4720011832
 10
-0.0441015439
 20
16.4338316636
 10
-0.026406366
 20
16.3946257257
 10
-0.0138915465
 20
16.3554550221
 10
-0.0059172106
 20
16.3152479002
 10
-0.0024833583
 20
16.27400436
  0
LINE
  5
3E3
100
AcDbEntity
  8
ASSI
100
AcDbLine
 62
250
  6
CONTINUOUS
 10
17.5051076074
 20
-2.8246025634
 11
17.5051076074
 21
0.5528965114
  0
LINE
  5
3E4
100
AcDbEntity
  8
ASSI
100
AcDbLine
 62
250
  6
CONTINUOUS
 10
17.5051076074
 20
4.7978456665
 11
17.5051076074
 21
8.6069327666
  0
LINE
  5
3E5
100
AcDbEntity
  8
ASSI
100
AcDbLine
 62
250
  6
CONTINUOUS
 10
17.5051076074
 20
12.8518819217
 11
17.5051076074
 21
16.2726822667
  0
LWPOLYLINE
  5
3E6
100
AcDbEntity
  8
ASSI
100
AcDbPolyline
 62
7
  6
CONTINUOUS
 90
13
 70
0
 10
17.6454288244
 20
8.248501358
 10
17.6457594549
 20
8.2645340625
 10
17.6488836275
 20
8.300259297
 10
17.6554720491
 20
8.3364259681
 10
17.6657322269
 20
8.3727444928
 10
17.67968669
 20
8.4084731793
 10
17.6973745729
 20
8.443219632
 10
17.718767217
 20
8.4765280998
 10
17.7435112385
 20
8.507635726
 10
17.7713925696
 20
8.5361897376
 10
17.8021405182
 20
8.5618400383
 10
17.8350490179
 20
8.5840281394
 10
17.851138843
 20
8.5932090529
  0
LWPOLYLINE
  5
3E7
100
AcDbEntity
  8
ASSI
100
AcDbPolyline
 62
250
  6
CONTINUOUS
 90
9
 70
0
 10
17.6454377073
 20
16.4463468593
 10
17.6449744219
 20
16.4355873199
 10
17.6400738738
 20
16.4098261021
 10
17.6298736419
 20
16.3844561789
 10
17.6144830147
 20
16.3597493715
 10
17.5940668921
 20
16.3359703961
 10
17.5688440187
 20
16.313374028
 10
17.5390846401
 20
16.2922023716
 10
17.5051076074
 20
16.2726822667
  0
LINE
  5
3E8
100
AcDbEntity
  8
RACCORDO
100
AcDbLine
 62
7
  6
CONTINUOUS
 10
-0.9924328519
 20
18.2084970418
 11
-2.4538343122
 21
18.9391977719
  0
LINE
  5
3E9
100
AcDbEntity
  8
RACCORDO
100
AcDbLine
 62
7
  6
CONTINUOUS
 10
-8.0163127659
 20
21.7204369988
 11
-9.4777142262
 21
22.4511377289
  0
LINE
  5
3EA
100
AcDbEntity
  8
ASSI
100
AcDbLine
 62
7
  6
CONTINUOUS
 10
3.7398270812
 20
15.9702235859
 11
4.2211027282
 21
15.7295857624
  0
LINE
  5
3EB
100
AcDbEntity
  8
0
100
AcDbLine
 62
250
  6
CONTINUOUS
 10
-0.9924328519
 20
18.4683046629
 11
-9.4777142262
 21
22.71094535
  0
LINE
  5
3EC
100
AcDbEntity
  8
0
100
AcDbLine
 62
250
  6
CONTINUOUS
 10
-0.4974581051
 20
19.322009819
 11
-8.9827394794
 21
23.5646505061
  0
LINE
  5
3ED
100
AcDbEntity
  8
0
100
AcDbLine
 62
250
  6
CONTINUOUS
 10
-0.1338899725
 20
19.5037938853
 11
-8.6191713467
 21
23.7464345724
  0
LINE
  5
3EE
100
AcDbEntity
  8
0
100
AcDbLine
 62
250
  6
CONTINUOUS
 10
0.019065636
 20
19.5506012794
 11
-8.4662157382
 21
23.7932419665
  0
LWPOLYLINE
  5
3EF
100
AcDbEntity
  8
RACCORDO
100
AcDbPolyline
 62
7
  6
CONTINUOUS
 90
15
 70
0
 10
-7.0735511701
 20
23.2116513964
 10
-7.0825674356
 20
23.216339055
 10
-7.0909026236
 20
23.2210252951
 10
-7.098556734
 20
23.2257101169
 10
-7.1055566331
 20
23.2304135121
 10
-7.1118754547
 20
23.2351154889
 10
-7.1174325999
 20
23.2397560719
 10
-7.1222183119
 20
23.2443344747
 10
-7.1262423476
 20
23.2488514837
 10
-7.129453379
 20
23.253249483
 10
-7.1318409916
 20
23.257526948
 10
-7.1334156
 20
23.2616854033
 10
-7.1341571194
 20
23.2656718062
 10
-7.1340548781
 20
23.2694839528
 10
-7.1337809087
 20
23.2709898275
  0
LWPOLYLINE
  5
3F0
100
AcDbEntity
  8
RACCORDO
100
AcDbPolyline
 62
7
  6
CONTINUOUS
 90
15
 70
0
 10
-3.0430425174
 20
21.19639707
 10
-3.0520587829
 20
21.2010847286
 10
-3.0603939708
 20
21.2057709688
 10
-3.0680480812
 20
21.2104557905
 10
-3.0750479804
 20
21.2151591857
 10
-3.0813668019
 20
21.2198611625
 10
-3.0869239472
 20
21.2245017455
 10
-3.0917096592
 20
21.2290801483
 10
-3.0957336949
 20
21.2335971574
 10
-3.0989447262
 20
21.2379951567
 10
-3.1013323389
 20
21.2422726217
 10
-3.1029069472
 20
21.2464310769
 10
-3.1036484666
 20
21.2504174798
 10
-3.1035462253
 20
21.2542296265
 10
-3.1032722559
 20
21.2557355011
  0
LWPOLYLINE
  5
3F1
100
AcDbEntity
  8
RACCORDO
100
AcDbPolyline
 62
7
  6
CONTINUOUS
 90
5
 70
0
 10
7.2648289735
 20
20.3853317701
 10
7.2217496701
 20
20.44864046
 10
7.15325657
 20
20.5192626448
 10
7.0721151839
 20
20.5764628386
 10
7.0304647146
 20
20.5985620233
  0
LWPOLYLINE
  5
3F2
100
AcDbEntity
  8
ASSI
100
AcDbPolyline
 62
250
  6
CONTINUOUS
 90
12
 70
0
 10
8.696238997
 20
17.7247415929
 10
8.6936766599
 20
17.7285767808
 10
8.6851373938
 20
17.7366726118
 10
8.6738051018
 20
17.7423042293
 10
8.6597560114
 20
17.7455110077
 10
8.6431600248
 20
17.7462230539
 10
8.624166212
 20
17.7444766472
 10
8.6029038965
 20
17.7403468347
 10
8.5795269521
 20
17.7338309782
 10
8.5541968805
 20
17.7249772976
 10
8.5270976012
 20
17.7138945636
 10
8.4984256765
 20
17.7006776982
  0
LWPOLYLINE
  5
3F3
100
AcDbEntity
  8
ASSI
100
AcDbPolyline
 62
7
  6
CONTINUOUS
 90
6
 70
0
 10
8.6962455451
 20
17.724731724
 10
8.6820717114
 20
17.7464589738
 10
8.6610273888
 20
17.7715798308
 10
8.636538804
 20
17.7938796505
 10
8.6087159072
 20
17.8129904555
 10
8.5939937143
 20
17.8210173441
  0
LWPOLYLINE
  5
3F4
100
AcDbEntity
  8
ASSI
100
AcDbPolyline
 62
250
  6
CONTINUOUS
 90
10
 70
0
 10
8.4984201361
 20
17.7006872541
 10
8.4891492239
 20
17.715353251
 10
8.4791585867
 20
17.7293415889
 10
8.4685229764
 20
17.7425452294
 10
8.4573207578
 20
17.7548624379
 10
8.4456371387
 20
17.7661995354
 10
8.4335635255
 20
17.7764716012
 10
8.4211917464
 20
17.7856004939
 10
8.4086133691
 20
17.7935154659
 10
8.3959228266
 20
17.80015567
  0
LINE
  5
3F5
100
AcDbEntity
  8
ASSI
100
AcDbLine
 62
250
  6
CONTINUOUS
 10
9.5178293916
 20
15.9424663688
 11
8.4984201361
 21
17.7006872541
  0
LINE
  5
3F6
100
AcDbEntity
  8
RACCORDO
100
AcDbLine
 62
250
  6
CONTINUOUS
 10
6.9855201152
 20
20.489460032
 11
8.02807624
 21
18.6913167027
  0
LINE
  5
3F7
100
AcDbEntity
  8
ASSI
100
AcDbLine
 62
7
  6
CONTINUOUS
 10
9.6518178529
 20
16.0766120038
 11
8.6962773785
 21
17.7246755365
  0
LINE
  5
3F8
100
AcDbEntity
  8
RACCORDO
100
AcDbLine
 62
7
  6
CONTINUOUS
 10
7.2640452187
 20
20.386700283
 11
8.1875852265
 21
18.793829391
  0
LINE
  5
3F9
100
AcDbEntity
  8
RACCORDO
100
AcDbLine
 62
250
  6
CONTINUOUS
 10
8.1875804961
 20
18.7938375497
 11
8.1876363426
 21
18.7937374735
  0
LINE
  5
3FA
100
AcDbEntity
  8
RACCORDO
100
AcDbLine
 62
7
  6
CONTINUOUS
 10
8.2039474991
 20
18.7603832927
 11
8.1876396435
 21
18.7937321727
  0
LWPOLYLINE
  5
3FB
100
AcDbEntity
  8
ASSI
100
AcDbPolyline
 62
250
  6
CONTINUOUS
 90
13
 70
0
 10
17.6454377059
 20
0.1944211803
 10
17.6450844854
 20
0.2060895884
 10
17.6429163458
 20
0.2273765121
 10
17.6387589764
 20
0.2506131767
 10
17.6326109617
 20
0.2758163188
 10
17.6244668301
 20
0.3030979679
 10
17.6142269078
 20
0.3323777463
 10
17.6018508637
 20
0.3637505839
 10
17.587310945
 20
0.3972805658
 10
17.5704327467
 20
0.4328676113
 10
17.5511034
 20
0.4705575125
 10
17.5293336793
 20
0.5105269328
 10
17.5051076074
 20
0.5528955126
  0
LWPOLYLINE
  5
3FC
100
AcDbEntity
  8
ASSI
100
AcDbPolyline
 62
250
  6
CONTINUOUS
 90
13
 70
0
 10
17.6454377059
 20
8.2484574355
 10
17.6450844854
 20
8.2601258436
 10
17.6429163458
 20
8.2814127673
 10
17.6387589764
 20
8.3046494319
 10
17.6326109617
 20
8.329852574
 10
17.6244668301
 20
8.3571342231
 10
17.6142269078
 20
8.3864140015
 10
17.6018508637
 20
8.4177868391
 10
17.587310945
 20
8.451316821
 10
17.5704327467
 20
8.4869038665
 10
17.5511034
 20
8.5245937677
 10
17.5293336793
 20
8.564563188
 10
17.5051076074
 20
8.6069317678
  0
LWPOLYLINE
  5
3FD
100
AcDbEntity
  8
ASSI
100
AcDbPolyline
 62
250
  6
CONTINUOUS
 90
16
 70
0
 10
17.5051076074
 20
16.2726822667
 10
17.5037714659
 20
16.3192077232
 10
17.4985108657
 20
16.3671256032
 10
17.4893834208
 20
16.4159111115
 10
17.4764890946
 20
16.465029951
 10
17.4599691053
 20
16.513944174
 10
17.4400043793
 20
16.5621180735
 10
17.4168135695
 20
16.6090240509
 10
17.3906506608
 20
16.6541483934
 10
17.3618021886
 20
16.6969969008
 10
17.3305841002
 20
16.7371002979
 10
17.2973382951
 20
16.7740193736
 10
17.2624288801
 20
16.8073497915
 10
17.226238182
 20
16.836726518
 10
17.1891625599
 20
16.8618278204
 10
17.1516080647
 20
16.88237879
  0
LINE
  5
3FE
100
AcDbEntity
  8
ASSI
100
AcDbLine
 62
7
  6
CONTINUOUS
 10
17.6454377073
 20
16.4463468593
 11
17.6454377073
 21
13.557650395
  0
LINE
  5
3FF
100
AcDbEntity
  8
ASSI
100
AcDbLine
 62
7
  6
CONTINUOUS
 10
17.6454377073
 20
8.2484934797
 11
17.6454377073
 21
5.5036141398
  0
LINE
  5
400
100
AcDbEntity
  8
ASSI
100
AcDbLine
 62
7
  6
CONTINUOUS
 10
17.6454377073
 20
0.1944572245
 11
17.6454377073
 21
-2.6509379708
  0
LINE
  5
401
100
AcDbEntity
  8
ASSI
100
AcDbLine
 62
250
  6
CONTINUOUS
 10
19.6576640546
 20
13.9195657884
 11
19.6576640546
 21
9.7682863531
  0
LINE
  5
402
100
AcDbEntity
  8
ASSI
100
AcDbLine
 62
250
  6
CONTINUOUS
 10
19.6576640546
 20
5.8655295332
 11
19.6576640546
 21
1.7142500979
  0
LWPOLYLINE
  5
403
100
AcDbEntity
  8
ASSI
100
AcDbPolyline
 62
7
  6
CONTINUOUS
 90
13
 70
0
 10
17.6454288244
 20
0.1944651028
 10
17.6457594549
 20
0.2104978073
 10
17.6488836275
 20
0.2462230418
 10
17.6554720491
 20
0.2823897129
 10
17.6657322269
 20
0.3187082376
 10
17.67968669
 20
0.3544369241
 10
17.6973745729
 20
0.3891833768
 10
17.718767217
 20
0.4224918446
 10
17.7435112385
 20
0.4535994708
 10
17.7713925696
 20
0.4821534824
 10
17.8021405182
 20
0.5078037831
 10
17.8350490179
 20
0.5299918842
 10
17.851138843
 20
0.5391727977
  0
LWPOLYLINE
  5
404
100
AcDbEntity
  8
ASSI
100
AcDbPolyline
 62
250
  6
CONTINUOUS
 90
8
 70
0
 10
19.6576640546
 20
9.7682863531
 10
19.6562064648
 20
9.7242574408
 10
19.65084163
 20
9.6826190577
 10
19.6416267315
 20
9.6438268227
 10
19.6286610427
 20
9.6083057654
 10
19.6120857978
 20
9.5764442999
 10
19.5920819101
 20
9.5485907671
 10
19.5688642051
 20
9.5250486022
  0
LWPOLYLINE
  5
405
100
AcDbEntity
  8
ASSI
100
AcDbPolyline
 62
250
  6
CONTINUOUS
 90
8
 70
0
 10
19.6576640546
 20
1.7142500979
 10
19.6562064648
 20
1.6702211856
 10
19.65084163
 20
1.6285828025
 10
19.6416267315
 20
1.5897905676
 10
19.6286610427
 20
1.5542695102
 10
19.6120857978
 20
1.5224080447
 10
19.5920819101
 20
1.4945545119
 10
19.5688642051
 20
1.471012347
  0
LWPOLYLINE
  5
406
100
AcDbEntity
  8
ASSI
100
AcDbPolyline
 62
250
  6
CONTINUOUS
 90
9
 70
0
 10
17.6454376783
 20
-2.6510230554
 10
17.6450188033
 20
-2.6611693992
 10
17.6402109276
 20
-2.6869916128
 10
17.6300709553
 20
-2.7124412531
 10
17.6147028741
 20
-2.7372371643
 10
17.594275127
 20
-2.761102587
 10
17.569011337
 20
-2.783777517
 10
17.5391816474
 20
-2.8050205052
 10
17.5051076074
 20
-2.8246025634
  0
LWPOLYLINE
  5
407
100
AcDbEntity
  8
ASSI
100
AcDbPolyline
 62
250
  6
CONTINUOUS
 90
7
 70
0
 10
19.7699281345
 20
14.0584974641
 10
19.7670170759
 20
14.034412342
 10
19.7574768823
 20
14.0089849215
 10
19.7414519558
 20
13.9843859785
 10
19.7192104365
 20
13.9610271192
 10
19.691124485
 20
13.9392992003
 10
19.6576640546
 20
13.9195657884
  0
LWPOLYLINE
  5
408
100
AcDbEntity
  8
ASSI
100
AcDbPolyline
 62
250
  6
CONTINUOUS
 90
7
 70
0
 10
19.7699281345
 20
6.0044612089
 10
19.7670170759
 20
5.9803760868
 10
19.7574768823
 20
5.9549486663
 10
19.7414519558
 20
5.9303497233
 10
19.7192104365
 20
5.906990864
 10
19.691124485
 20
5.8852629451
 10
19.6576640546
 20
5.8655295332
  0
LWPOLYLINE
  5
409
100
AcDbEntity
  8
ASSI
100
AcDbPolyline
 62
250
  6
CONTINUOUS
 90
7
 70
0
 10
19.7699280901
 20
9.907123886
 10
19.76701759
 20
9.8831351359
 10
19.7574778336
 20
9.857707445
 10
19.7414531413
 20
9.8331081074
 10
19.7192115821
 20
9.8097487651
 10
19.6911252504
 20
9.7880203066
 10
19.6576640546
 20
9.7682863446
  0
LWPOLYLINE
  5
40A
100
AcDbEntity
  8
ASSI
100
AcDbPolyline
 62
250
  6
CONTINUOUS
 90
7
 70
0
 10
19.7699280901
 20
1.8530876308
 10
19.76701759
 20
1.8290988807
 10
19.7574778336
 20
1.8036711898
 10
19.7414531413
 20
1.7790718522
 10
19.7192115821
 20
1.7557125099
 10
19.6911252504
 20
1.7339840514
 10
19.6576640546
 20
1.7142500894
  0
LWPOLYLINE
  5
40B
100
AcDbEntity
  8
RACCORDO
100
AcDbPolyline
 62
7
  6
CONTINUOUS
 90
9
 70
0
 10
8.0663491202
 20
-18.7242402876
 10
8.1035744336
 20
-18.6938963892
 10
8.1347709054
 20
-18.6614047913
 10
8.1613321931
 20
-18.6261400303
 10
8.1832860682
 20
-18.58839662
 10
8.2007729312
 20
-18.547897049
 10
8.2134761917
 20
-18.5049015258
 10
8.2210060824
 20
-18.4602778684
 10
8.2232266111
 20
-18.4187123819
  0
LINE
  5
40C
100
AcDbEntity
  8
ASSI
100
AcDbLine
 62
7
  6
CONTINUOUS
 10
3.5916469318
 20
-20.6767074887
 11
3.6037612258
 21
-20.6679277163
  0
LINE
  5
40D
100
AcDbEntity
  8
RACCORDO
100
AcDbLine
 62
7
  6
CONTINUOUS
 10
2.0670622615
 20
-21.807137435
 11
3.6037612258
 21
-20.6934227417
  0
LINE
  5
40E
100
AcDbEntity
  8
ASSI
100
AcDbLine
 62
7
  6
CONTINUOUS
 10
4.3246914689
 20
-20.4677862602
 11
4.3159139763
 21
-20.4732780036
  0
LINE
  5
40F
100
AcDbEntity
  8
RACCORDO
100
AcDbLine
 62
7
  6
CONTINUOUS
 10
-1.3891820343
 20
-22.5639948078
 11
-1.569057547
 21
-22.6523763948
  0
LWPOLYLINE
  5
410
100
AcDbEntity
  8
RACCORDO
100
AcDbPolyline
 62
250
  6
CONTINUOUS
 90
10
 70
0
 10
-4.1863571948
 20
-22.1675389118
 10
-4.2197563772
 20
-22.1827685529
 10
-4.2574087313
 20
-22.194862404
 10
-4.2981839923
 20
-22.2034574299
 10
-4.3408581479
 20
-22.2082956341
 10
-4.3841501871
 20
-22.2092317755
 10
-4.4267605542
 20
-22.2062377226
 10
-4.4674101513
 20
-22.1994033395
 10
-4.5048787348
 20
-22.1889337921
 10
-4.538041551
 20
-22.175143359
  0
LWPOLYLINE
  5
411
100
AcDbEntity
  8
RACCORDO
100
AcDbPolyline
 62
250
  6
CONTINUOUS
 90
9
 70
0
 10
6.3886478058
 20
20.8172853241
 10
6.4198841683
 20
20.8245177982
 10
6.4510053318
 20
20.829264808
 10
6.4819686065
 20
20.8314218507
 10
6.51265164
 20
20.8308639461
 10
6.5428724569
 20
20.8274733667
 10
6.5724811735
 20
20.8211421302
 10
6.6013613354
 20
20.8117526915
 10
6.6261771909
 20
20.8008048961
  0
LINE
  5
412
100
AcDbEntity
  8
0
100
AcDbLine
 62
7
  6
CONTINUOUS
 10
-0.0683375688
 20
19.1774440355
 11
3.7416458181
 21
19.5662767228
  0
LINE
  5
413
100
AcDbEntity
  8
0
100
AcDbLine
 62
7
  6
CONTINUOUS
 10
0.019065636
 20
19.5506012794
 11
4.6140081676
 21
20.0195439678
  0
LWPOLYLINE
  5
414
100
AcDbEntity
  8
0
100
AcDbPolyline
 62
7
  6
CONTINUOUS
 90
5
 70
0
 10
11.3734275294
 20
15.9159690318
 10
11.3962993038
 20
15.911459303
 10
11.5416249852
 20
15.8789202735
 10
11.6838200559
 20
15.8430898768
 10
11.822903835
 20
15.8039884242
  0
LWPOLYLINE
  5
415
100
AcDbEntity
  8
RACCORDO
100
AcDbPolyline
 62
7
  6
CONTINUOUS
 90
8
 70
0
 10
11.3005766265
 20
16.120782678
 10
11.2903334731
 20
16.1229937901
 10
11.2794750027
 20
16.1238979098
 10
11.2680779283
 20
16.1235273787
 10
11.2564994518
 20
16.1218930585
 10
11.2448586405
 20
16.1189985697
 10
11.2330364271
 20
16.1148402918
 10
11.2210328116
 20
16.1094182248
  0
LINE
  5
416
100
AcDbEntity
  8
0
100
AcDbLine
 62
7
  6
CONTINUOUS
 10
10.0384329346
 20
15.5320648957
 11
9.6556495636
 21
15.6356860168
  0
LWPOLYLINE
  5
417
100
AcDbEntity
  8
RACCORDO
100
AcDbPolyline
 62
7
  6
CONTINUOUS
 90
16
 70
0
 10
11.3030203223
 20
16.1200395821
 10
11.2067159549
 20
16.1493268779
 10
11.0918880537
 20
16.1803277062
 10
10.9742939519
 20
16.2079973113
 10
10.8542705958
 20
16.2322910813
 10
10.7321458162
 20
16.2531732431
 10
10.6082468445
 20
16.2706139434
 10
10.4829424748
 20
16.284584833
 10
10.3565545762
 20
16.295070871
 10
10.2293508145
 20
16.3020638135
 10
10.1016750033
 20
16.3055530128
 10
9.9738787662
 20
16.3055350088
 10
9.8462436175
 20
16.3020113611
 10
9.7191178479
 20
16.2949884697
 10
9.5928467712
 20
16.2844801127
 10
9.5350412814
 20
16.2780217965
  0
LINE
  5
418
100
AcDbEntity
  8
0
100
AcDbLine
 62
7
  6
CONTINUOUS
 10
11.822903835
 20
15.8039884242
 11
11.9494023301
 21
15.764543652
  0
LWPOLYLINE
  5
419
100
AcDbEntity
  8
0
100
AcDbPolyline
 62
7
  6
CONTINUOUS
 90
3
 70
0
 10
12.0727838902
 20
15.7223119142
 10
12.089127332
 20
15.7166804258
 10
12.162299997
 20
15.6889361341
  0
LWPOLYLINE
  5
41A
100
AcDbEntity
  8
RACCORDO
100
AcDbPolyline
 62
7
  6
CONTINUOUS
 90
25
 70
0
 10
-0.9112006328
 20
21.0497276987
 10
-0.9208132739
 20
21.0543544934
 10
-0.9308713779
 20
21.0588648992
 10
-0.9413749448
 20
21.0632589161
 10
-0.9523726284
 20
21.0675543123
 10
-0.9638157749
 20
21.0717333196
 10
-0.975558423
 20
21.0757426332
 10
-0.9876044093
 20
21.0795800795
 10
-0.9999498972
 20
21.0832478323
 10
-1.0124374156
 20
21.0866991079
 10
-1.0250687841
 20
21.0899311334
 10
-1.0378421831
 20
21.0929466819
 10
-1.0505946836
 20
21.0957072889
 10
-1.0633260178
 20
21.0982096887
 10
-1.0760364534
 20
21.100457147
 10
-1.0885638644
 20
21.1024209969
 10
-1.1009059064
 20
21.1040976051
 10
-1.1130649237
 20
21.1054906048
 10
-1.1248858239
 20
21.1065822278
 10
-1.1363642758
 20
21.1073686134
 10
-1.1475046106
 20
21.1078536223
 10
-1.1581647295
 20
21.1080310679
 10
-1.1682972661
 20
21.1078988882
 10
-1.1779495867
 20
21.1074591452
 10
-1.1871216914
 20
21.1067118391
  0
LWPOLYLINE
  5
41B
100
AcDbEntity
  8
RACCORDO
100
AcDbPolyline
 62
7
  6
CONTINUOUS
 90
25
 70
0
 10
-4.9417092856
 20
23.0649820251
 10
-4.9513219266
 20
23.0696088198
 10
-4.9613800306
 20
23.0741192256
 10
-4.9718835976
 20
23.0785132425
 10
-4.9828812812
 20
23.0828086387
 10
-4.9943244277
 20
23.0869876459
 10
-5.0060670758
 20
23.0909969596
 10
-5.0181130621
 20
23.0948344059
 10
-5.0304585499
 20
23.0985021586
 10
-5.0429460684
 20
23.1019534343
 10
-5.0555774368
 20
23.1051854598
 10
-5.0683508359
 20
23.1082010083
 10
-5.0811033363
 20
23.1109616153
 10
-5.0938346705
 20
23.1134640151
 10
-5.1065451062
 20
23.1157114734
 10
-5.1190725172
 20
23.1176753232
 10
-5.1314145591
 20
23.1193519315
 10
-5.1435735764
 20
23.1207449312
 10
-5.1553944767
 20
23.1218365542
 10
-5.1668729286
 20
23.1226229398
 10
-5.1780132634
 20
23.1231079486
 10
-5.1886733822
 20
23.1232853943
 10
-5.1988059188
 20
23.1231532146
 10
-5.2084582395
 20
23.1227134716
 10
-5.2176303442
 20
23.1219661655
  0
LINE
  5
41C
100
AcDbEntity
  8
RACCORDO
100
AcDbLine
 62
7
  6
CONTINUOUS
 10
-0.9924328519
 20
20.1710922373
 11
-3.0430425174
 21
21.19639707
  0
LINE
  5
41D
100
AcDbEntity
  8
RACCORDO
100
AcDbLine
 62
7
  6
CONTINUOUS
 10
-5.0229415047
 20
22.1863465637
 11
-7.0735511701
 21
23.2116513964
  0
LINE
  5
41E
100
AcDbEntity
  8
ASSI
100
AcDbLine
 62
7
  6
CONTINUOUS
 10
1.3252561896
 20
19.2988293753
 11
1.2906420846
 21
19.3161364278
  0
LINE
  5
41F
100
AcDbEntity
  8
ASSI
100
AcDbLine
 62
250
  6
CONTINUOUS
 10
-1.5361988263
 20
21.0710863293
 11
0.1922649185
 21
20.2068544569
  0
LINE
  5
420
100
AcDbEntity
  8
ASSI
100
AcDbLine
 62
7
  6
CONTINUOUS
 10
-1.4565385744
 20
21.0792161574
 11
0.2719251704
 21
20.214984285
  0
LINE
  5
421
100
AcDbEntity
  8
RACCORDO
100
AcDbLine
 62
7
  6
CONTINUOUS
 10
-4.9417092856
 20
23.0649820251
 11
-3.354666897
 21
22.2714608308
  0
LINE
  5
422
100
AcDbEntity
  8
RACCORDO
100
AcDbLine
 62
7
  6
CONTINUOUS
 10
-0.9112006328
 20
21.0497276987
 11
0.6758417557
 21
20.2562065044
  0
LINE
  5
423
100
AcDbEntity
  8
RACCORDO
100
AcDbLine
 62
7
  6
CONTINUOUS
 10
-4.8543060807
 20
23.4381392689
 11
-2.8036964152
 21
22.4128344362
  0
LINE
  5
424
100
AcDbEntity
  8
RACCORDO
100
AcDbLine
 62
7
  6
CONTINUOUS
 10
-0.8237974279
 20
21.4228849426
 11
1.2268122375
 21
20.3975801098
  0
LINE
  5
425
100
AcDbEntity
  8
ASSI
100
AcDbLine
 62
250
  6
CONTINUOUS
 10
7.8179333361
 20
18.0891504153
 11
8.3959228266
 21
17.80015567
  0
LWPOLYLINE
  5
426
100
AcDbEntity
  8
RACCORDO
100
AcDbPolyline
 62
7
  6
CONTINUOUS
 90
15
 70
0
 10
-2.8036964152
 20
22.4128344362
 10
-2.7946801497
 20
22.4081467776
 10
-2.7863449618
 20
22.4034605375
 10
-2.7786908514
 20
22.3987757157
 10
-2.7716909522
 20
22.3940723205
 10
-2.7653721307
 20
22.3893703438
 10
-2.7598149854
 20
22.3847297607
 10
-2.7550292734
 20
22.3801513579
 10
-2.7510052378
 20
22.3756343489
 10
-2.7477942064
 20
22.3712363496
 10
-2.7454065937
 20
22.3669588846
 10
-2.7438319854
 20
22.3628004293
 10
-2.743090466
 20
22.3588140264
 10
-2.7431927073
 20
22.3550018798
 10
-2.7434666767
 20
22.3534960051
  0
LWPOLYLINE
  5
427
100
AcDbEntity
  8
RACCORDO
100
AcDbPolyline
 62
7
  6
CONTINUOUS
 90
15
 70
0
 10
1.2268122375
 20
20.3975801098
 10
1.235828503
 20
20.3928924513
 10
1.244163691
 20
20.3882062111
 10
1.2518178014
 20
20.3835213893
 10
1.2588177005
 20
20.3788179941
 10
1.2651365221
 20
20.3741160174
 10
1.2706936673
 20
20.3694754344
 10
1.2754793793
 20
20.3648970315
 10
1.279503415
 20
20.3603800225
 10
1.2827144464
 20
20.3559820232
 10
1.285102059
 20
20.3517045582
 10
1.2866766674
 20
20.3475461029
 10
1.2874181868
 20
20.3435597
 10
1.2873159455
 20
20.3397475534
 10
1.2870419761
 20
20.3382416787
  0
LWPOLYLINE
  5
428
100
AcDbEntity
  8
RACCORDO
100
AcDbPolyline
 62
250
  6
CONTINUOUS
 90
3
 70
0
 10
5.0943732994
 20
20.8798476962
 10
5.0845511169
 20
20.889214945
 10
5.0758206195
 20
20.8926244782
  0
LWPOLYLINE
  5
429
100
AcDbEntity
  8
RACCORDO
100
AcDbPolyline
 62
250
  6
CONTINUOUS
 90
6
 70
0
 10
6.6997878926
 20
20.5666640207
 10
6.7140351873
 20
20.5523126325
 10
6.7277012805
 20
20.5367459813
 10
6.7406821739
 20
20.5200825294
 10
6.7528790832
 20
20.5024490863
 10
6.7641991907
 20
20.4839798427
  0
LINE
  5
42A
100
AcDbEntity
  8
RACCORDO
100
AcDbLine
 62
250
  6
CONTINUOUS
 10
12.0196153333
 20
15.6763920829
 11
12.0566619272
 21
15.6377812783
  0
LINE
  5
42B
100
AcDbEntity
  8
ASSI
100
AcDbLine
 62
7
  6
CONTINUOUS
 10
11.8008092689
 20
19.4722144691
 11
11.9644459423
 21
19.0432736326
  0
LWPOLYLINE
  5
42C
100
AcDbEntity
  8
ASSI
100
AcDbPolyline
 62
7
  6
CONTINUOUS
 90
13
 70
0
 10
19.7699159765
 20
6.0046944107
 10
19.7698496914
 20
6.0128360397
 10
19.7661227631
 20
6.0668145437
 10
19.7564897494
 20
6.121737249
 10
19.740869357
 20
6.1765653151
 10
19.7201337206
 20
6.2285783255
 10
19.694276237
 20
6.2783738555
 10
19.6628968918
 20
6.3262431985
 10
19.6275906752
 20
6.3696740296
 10
19.588632866
 20
6.4085798677
 10
19.5454909476
 20
6.443371648
 10
19.4999580263
 20
6.4725222231
 10
19.4783973284
 20
6.4840078208
  0
LWPOLYLINE
  5
42D
100
AcDbEntity
  8
ASSI
100
AcDbPolyline
 62
7
  6
CONTINUOUS
 90
13
 70
0
 10
19.7699159765
 20
14.0587306659
 10
19.7698496914
 20
14.0668722949
 10
19.7661227631
 20
14.1208507989
 10
19.7564897494
 20
14.1757735042
 10
19.740869357
 20
14.2306015703
 10
19.7201337206
 20
14.2826145807
 10
19.694276237
 20
14.3324101107
 10
19.6628968918
 20
14.3802794537
 10
19.6275906752
 20
14.4237102848
 10
19.588632866
 20
14.4626161229
 10
19.5454909476
 20
14.4974079032
 10
19.4999580263
 20
14.5265584783
 10
19.4783973284
 20
14.538044076
  0
LINE
  5
42E
100
AcDbEntity
  8
ASSI
100
AcDbLine
 62
7
  6
CONTINUOUS
 10
19.7699278626
 20
14.058730671
 11
19.7699281345
 21
9.907218145
  0
LINE
  5
42F
100
AcDbEntity
  8
ASSI
100
AcDbLine
 62
7
  6
CONTINUOUS
 10
19.7699278626
 20
6.0046944158
 11
19.7699281345
 21
1.8531818898
  0
LINE
  5
430
100
AcDbEntity
  8
ASSI
100
AcDbLine
 62
7
  6
CONTINUOUS
 10
19.7699281345
 20
9.907218145
 11
19.7699280901
 21
9.907123886
  0
LINE
  5
431
100
AcDbEntity
  8
ASSI
100
AcDbLine
 62
7
  6
CONTINUOUS
 10
19.7699281345
 20
1.8531818898
 11
19.7699280901
 21
1.8530876308
  0
LINE
  5
432
100
AcDbEntity
  8
ASSI
100
AcDbLine
 62
250
  6
CONTINUOUS
 10
8.4984201361
 20
-18.2159638918
 11
9.5178293916
 21
-17.4771522621
  0
LINE
  5
433
100
AcDbEntity
  8
ASSI
100
AcDbLine
 62
7
  6
CONTINUOUS
 10
8.5337025117
 20
-18.1937524554
 11
9.5517581369
 21
-17.4559218622
  0
LINE
  5
434
100
AcDbEntity
  8
RACCORDO
100
AcDbLine
 62
250
  6
CONTINUOUS
 10
8.02807624
 20
-18.7475286011
 11
6.9855201152
 21
-19.5031158056
  0
LINE
  5
435
100
AcDbEntity
  8
RACCORDO
100
AcDbLine
 62
7
  6
CONTINUOUS
 10
8.0679905637
 20
-18.7230644756
 11
7.0382628962
 21
-19.4693543216
  0
LINE
  5
436
100
AcDbEntity
  8
ASSI
100
AcDbLine
 62
250
  6
CONTINUOUS
 10
8.5270976006
 20
-18.1984147174
 11
8.5337025117
 21
-18.1937524554
  0
LWPOLYLINE
  5
437
100
AcDbEntity
  8
RACCORDO
100
AcDbPolyline
 62
250
  6
CONTINUOUS
 90
3
 70
0
 10
7.0382509176
 20
-19.4693630024
 10
7.0234607334
 20
-19.4797125413
 10
6.9855201152
 20
-19.5031158056
  0
LINE
  5
438
100
AcDbEntity
  8
ASSI
100
AcDbLine
 62
250
  6
CONTINUOUS
 10
8.4984201361
 20
-18.2159638918
 11
8.4897741869
 21
-18.2213846645
  0
LINE
  5
439
100
AcDbEntity
  8
ASSI
100
AcDbLine
 62
7
  6
CONTINUOUS
 10
9.5517503855
 20
-17.4557263265
 11
9.5153194637
 21
-17.4785064257
  0
LINE
  5
43A
100
AcDbEntity
  8
RACCORDO
100
AcDbLine
 62
250
  6
CONTINUOUS
 10
6.7520104626
 20
-19.6342849083
 11
6.7641991907
 21
-19.6267827862
  0
LINE
  5
43B
100
AcDbEntity
  8
RACCORDO
100
AcDbLine
 62
7
  6
CONTINUOUS
 10
5.2352851803
 20
-20.4144248457
 11
5.2478511012
 21
-20.4067294652
  0
LINE
  5
43C
100
AcDbEntity
  8
ASSI
100
AcDbLine
 62
250
  6
CONTINUOUS
 10
8.4984256765
 20
-18.2159598764
 11
8.5270976006
 21
-18.1984147174
  0
LWPOLYLINE
  5
43D
100
AcDbEntity
  8
RACCORDO
100
AcDbPolyline
 62
7
  6
CONTINUOUS
 90
3
 70
0
 10
6.9862338067
 20
-19.5034813449
 10
7.0011571219
 20
-19.4943899576
 10
7.03860124
 20
-19.4691066244
  0
LWPOLYLINE
  5
43E
100
AcDbEntity
  8
ASSI
100
AcDbPolyline
 62
7
  6
CONTINUOUS
 90
3
 70
0
 10
8.489762774
 20
-18.2213653613
 10
8.5205341049
 20
-18.2028916784
 10
8.5342408382
 20
-18.1933615483
  0
LWPOLYLINE
  5
43F
100
AcDbEntity
  8
RACCORDO
100
AcDbPolyline
 62
250
  6
CONTINUOUS
 90
8
 70
0
 10
6.9855201152
 20
-19.5031158056
 10
6.9594512405
 20
-19.518463927
 10
6.933619877
 20
-19.5334897999
 10
6.9080260246
 20
-19.5481934243
 10
6.8824938115
 20
-19.5626809175
 10
6.8571991095
 20
-19.5768461621
 10
6.8326695348
 20
-19.5903708065
 10
6.8090809595
 20
-19.6031487334
  0
LWPOLYLINE
  5
440
100
AcDbEntity
  8
RACCORDO
100
AcDbPolyline
 62
250
  6
CONTINUOUS
 90
3
 70
0
 10
8.02807624
 20
-18.7475286011
 10
8.0520072559
 20
-18.7338827355
 10
8.0663847156
 20
-18.7242205048
  0
LWPOLYLINE
  5
441
100
AcDbEntity
  8
RACCORDO
100
AcDbPolyline
 62
250
  6
CONTINUOUS
 90
9
 70
0
 10
8.0798509638
 20
-18.6203286834
 10
8.1036382093
 20
-18.607004264
 10
8.1250349671
 20
-18.592863277
 10
8.1440763163
 20
-18.5780235744
 10
8.1606488674
 20
-18.5627473047
 10
8.1750297827
 20
-18.5469951403
 10
8.1876893028
 20
-18.5303760298
 10
8.198567989
 20
-18.5129309784
 10
8.2075523706
 20
-18.4947232586
  0
LINE
  5
442
100
AcDbEntity
  8
ASSI
100
AcDbLine
 62
7
  6
CONTINUOUS
 10
3.6037612258
 20
-20.6679277163
 11
9.5178293916
 21
-17.4771522621
  0
LINE
  5
443
100
AcDbEntity
  8
ASSI
100
AcDbLine
 62
250
  6
CONTINUOUS
 10
4.3246914689
 20
-20.4677862602
 11
8.4984201361
 21
-18.2159638918
  0
LINE
  5
444
100
AcDbEntity
  8
ASSI
100
AcDbLine
 62
7
  6
CONTINUOUS
 10
4.3159175084
 20
-20.4732760979
 11
8.4897741869
 21
-18.2213846645
  0
LINE
  5
445
100
AcDbEntity
  8
ASSI
100
AcDbLine
 62
250
  6
CONTINUOUS
 10
2.7789420051
 20
-21.2912062417
 11
4.3246914689
 21
-20.4677862602
  0
LINE
  5
446
100
AcDbEntity
  8
ASSI
100
AcDbLine
 62
7
  6
CONTINUOUS
 10
2.7746866003
 20
-21.2942903245
 11
4.3155425276
 21
-20.4734771275
  0
LINE
  5
447
100
AcDbEntity
  8
RACCORDO
100
AcDbLine
 62
250
  6
CONTINUOUS
 10
6.8090809595
 20
-19.6031487334
 11
6.7862575114
 21
-19.6152860599
  0
LWPOLYLINE
  5
448
100
AcDbEntity
  8
RACCORDO
100
AcDbPolyline
 62
7
  6
CONTINUOUS
 90
6
 70
0
 10
6.7516699438
 20
-19.6344565478
 10
6.7810533575
 20
-19.6191303806
 10
6.8392177497
 20
-19.5876875518
 10
6.9007761099
 20
-19.5531498761
 10
6.9637701708
 20
-19.5167186801
 10
6.9862365472
 20
-19.503491261
  0
LINE
  5
449
100
AcDbEntity
  8
RACCORDO
100
AcDbLine
 62
250
  6
CONTINUOUS
 10
6.7862575114
 20
-19.6152860599
 11
6.7641991907
 21
-19.6267827862
  0
LINE
  5
44A
100
AcDbEntity
  8
DRAFT
100
AcDbLine
 62
7
  6
CONTINUOUS
 10
3.6037612258
 20
-20.6934227417
 11
2.0345504869
 21
-21.5045932176
  0
LINE
  5
44B
100
AcDbEntity
  8
RACCORDO
100
AcDbLine
 62
250
  6
CONTINUOUS
 10
6.7641991907
 20
-19.6267827862
 11
5.2463409545
 21
-20.4075005518
  0
LINE
  5
44C
100
AcDbEntity
  8
RACCORDO
100
AcDbLine
 62
7
  6
CONTINUOUS
 10
6.7520104627
 20
-19.6342849082
 11
5.2352785941
 21
-20.4144233212
  0
LINE
  5
44D
100
AcDbEntity
  8
RACCORDO
100
AcDbLine
 62
250
  6
CONTINUOUS
 10
2.5428892327
 20
-21.4622842779
 11
8.0798509638
 21
-18.6203286834
  0
LINE
  5
44E
100
AcDbEntity
  8
RACCORDO
100
AcDbLine
 62
250
  6
CONTINUOUS
 10
2.0670622615
 20
-21.807137435
 11
8.02807624
 21
-18.7475286011
  0
LINE
  5
44F
100
AcDbEntity
  8
RACCORDO
100
AcDbLine
 62
250
  6
CONTINUOUS
 10
5.2463409545
 20
-20.4075005518
 11
2.0345504869
 21
-22.0474527804
  0
LINE
  5
450
100
AcDbEntity
  8
RACCORDO
100
AcDbLine
 62
7
  6
CONTINUOUS
 10
5.2350013757
 20
-20.4145703339
 11
2.0345504869
 21
-22.0487325311
  0
LWPOLYLINE
  5
451
100
AcDbEntity
  8
RACCORDO
100
AcDbPolyline
 62
7
  6
CONTINUOUS
 90
3
 70
0
 10
3.3645654584
 20
20.8627364124
 10
3.3430301217
 20
20.8597105594
 10
3.3191007548
 20
20.8512115542
  0
LINE
  5
452
100
AcDbEntity
  8
RACCORDO
100
AcDbLine
 62
7
  6
CONTINUOUS
 10
1.2337338914
 20
20.313142894
 11
-0.7165117933
 21
20.1141080969
  0
LINE
  5
453
100
AcDbEntity
  8
RACCORDO
100
AcDbLine
 62
7
  6
CONTINUOUS
 10
4.542880557
 20
20.9701506069
 11
3.6092741751
 21
20.8748702234
  0
LINE
  5
454
100
AcDbEntity
  8
RACCORDO
100
AcDbLine
 62
7
  6
CONTINUOUS
 10
3.3033748501
 20
20.8436512798
 11
3.2079308423
 21
20.8339106205
  0
LINE
  5
455
100
AcDbEntity
  8
RACCORDO
100
AcDbLine
 62
7
  6
CONTINUOUS
 10
-2.5794752405
 20
20.9646134315
 11
-1.1871216914
 21
21.1067118391
  0
LINE
  5
456
100
AcDbEntity
  8
RACCORDO
100
AcDbLine
 62
7
  6
CONTINUOUS
 10
-3.0499641712
 20
21.2808342859
 11
-1.0997184865
 21
21.4798690829
  0
LWPOLYLINE
  5
457
100
AcDbEntity
  8
RACCORDO
100
AcDbPolyline
 62
7
  6
CONTINUOUS
 90
25
 70
0
 10
-0.7165117933
 20
20.1141080969
 10
-0.725683898
 20
20.1133607907
 10
-0.7353362187
 20
20.1129210478
 10
-0.7454687553
 20
20.1127888681
 10
-0.7561288741
 20
20.1129663137
 10
-0.7672692089
 20
20.1134513226
 10
-0.7787476608
 20
20.1142377082
 10
-0.7905685611
 20
20.1153293312
 10
-0.8027275784
 20
20.1167223309
 10
-0.8150696203
 20
20.1183989391
 10
-0.8275970313
 20
20.1203627889
 10
-0.840307467
 20
20.1226102473
 10
-0.8530388012
 20
20.1251126471
 10
-0.8657913016
 20
20.1278732541
 10
-0.8785647007
 20
20.1308888026
 10
-0.8911960691
 20
20.1341208281
 10
-0.9036835876
 20
20.1375721037
 10
-0.9160290754
 20
20.1412398564
 10
-0.9280750617
 20
20.1450773027
 10
-0.9398177098
 20
20.1490866164
 10
-0.9512608563
 20
20.1532656237
 10
-0.9622585399
 20
20.1575610199
 10
-0.9727621069
 20
20.1619550368
 10
-0.9828202109
 20
20.1664654426
 10
-0.9924328519
 20
20.1710922373
  0
LWPOLYLINE
  5
458
100
AcDbEntity
  8
RACCORDO
100
AcDbPolyline
 62
7
  6
CONTINUOUS
 90
25
 70
0
 10
-1.0997184865
 20
21.4798690829
 10
-1.0905463818
 20
21.4806163891
 10
-1.0808940612
 20
21.481056132
 10
-1.0707615246
 20
21.4811883118
 10
-1.0601014057
 20
21.4810108661
 10
-1.0489610709
 20
21.4805258573
 10
-1.037482619
 20
21.4797394716
 10
-1.0256617188
 20
21.4786478487
 10
-1.0135027015
 20
21.477254849
 10
-1.0011606595
 20
21.4755782407
 10
-0.9886332485
 20
21.4736143909
 10
-0.9759228129
 20
21.4713669325
 10
-0.9631914787
 20
21.4688645327
 10
-0.9504389782
 20
21.4661039257
 10
-0.9376655792
 20
21.4630883773
 10
-0.9250342107
 20
21.4598563518
 10
-0.9125466923
 20
21.4564050761
 10
-0.9002012044
 20
21.4527373234
 10
-0.8881552181
 20
21.4488998771
 10
-0.87641257
 20
21.4448905634
 10
-0.8649694235
 20
21.4407115561
 10
-0.8539717399
 20
21.4364161599
 10
-0.843468173
 20
21.4320221431
 10
-0.833410069
 20
21.4275117373
 10
-0.8237974279
 20
21.4228849426
  0
LINE
  5
459
100
AcDbEntity
  8
RACCORDO
100
AcDbLine
 62
250
  6
CONTINUOUS
 10
4.7098832177
 20
20.9096641228
 11
3.435158583
 21
20.8466487732
  0
LINE
  5
45A
100
AcDbEntity
  8
RACCORDO
100
AcDbLine
 62
7
  6
CONTINUOUS
 10
4.6370784802
 20
20.9256791949
 11
3.3646453924
 21
20.8627771267
  0
LINE
  5
45B
100
AcDbEntity
  8
RACCORDO
100
AcDbLine
 62
250
  6
CONTINUOUS
 10
4.7421712748
 20
20.9108839253
 11
4.7098832177
 21
20.9096641228
  0
LWPOLYLINE
  5
45C
100
AcDbEntity
  8
RACCORDO
100
AcDbPolyline
 62
250
  6
CONTINUOUS
 90
13
 70
0
 10
6.9855201152
 20
20.489460032
 10
7.012174157
 20
20.4890606093
 10
7.038626198
 20
20.4878074667
 10
7.0647127964
 20
20.4856029464
 10
7.0902563446
 20
20.4823621329
 10
7.1150763059
 20
20.4779610919
 10
7.138994285
 20
20.4722403154
 10
7.1618583594
 20
20.4650708623
 10
7.1834175101
 20
20.4563587535
 10
7.2033769465
 20
20.4460208686
 10
7.2215751973
 20
20.4339628842
 10
7.2378471805
 20
20.4201171755
 10
7.2519726884
 20
20.404492511
  0
LWPOLYLINE
  5
45D
100
AcDbEntity
  8
RACCORDO
100
AcDbPolyline
 62
250
  6
CONTINUOUS
 90
4
 70
0
 10
4.8548437894
 20
20.908158038
 10
4.8146371289
 20
20.9100932635
 10
4.7770892452
 20
20.9110269722
 10
4.7421712748
 20
20.9108839253
  0
LWPOLYLINE
  5
45E
100
AcDbEntity
  8
0
100
AcDbPolyline
 62
7
  6
CONTINUOUS
 90
7
 70
0
 10
4.6290660585
 20
20.9701801666
 10
4.6151175158
 20
20.9714276466
 10
4.6010026902
 20
20.9721741639
 10
4.5867215814
 20
20.9724197186
 10
4.5722741897
 20
20.9721643106
 10
4.5576605149
 20
20.9714079401
 10
4.542880557
 20
20.9701506069
  0
LWPOLYLINE
  5
45F
100
AcDbEntity
  8
RACCORDO
100
AcDbPolyline
 62
250
  6
CONTINUOUS
 90
3
 70
0
 10
6.8344881081
 20
20.6492567436
 10
6.8714859678
 20
20.6459320123
 10
6.909417987
 20
20.6394242001
  0
LINE
  5
460
100
AcDbEntity
  8
0
100
AcDbLine
 62
7
  6
CONTINUOUS
 10
4.6637757427
 20
20.9647577044
 11
4.6290660585
 21
20.9701801666
  0
LWPOLYLINE
  5
461
100
AcDbEntity
  8
RACCORDO
100
AcDbPolyline
 62
250
  6
CONTINUOUS
 90
6
 70
0
 10
5.0943732996
 20
20.8798476969
 10
5.0413922967
 20
20.8881448045
 10
4.9909546169
 20
20.8951394402
 10
4.9430602602
 20
20.900831604
 10
4.8976803632
 20
20.905146057
 10
4.8548437894
 20
20.908158038
  0
LWPOLYLINE
  5
462
100
AcDbEntity
  8
RACCORDO
100
AcDbPolyline
 62
7
  6
CONTINUOUS
 90
6
 70
0
 10
5.0758206195
 20
20.8926244782
 10
5.0324706744
 20
20.8996463914
 10
4.9142504651
 20
20.9151929771
 10
4.8010043367
 20
20.9245290185
 10
4.6935998161
 20
20.9272536802
 10
4.6355422188
 20
20.9255927129
  0
LINE
  5
463
100
AcDbEntity
  8
RACCORDO
100
AcDbLine
 62
7
  6
CONTINUOUS
 10
5.0758206195
 20
20.8926244782
 11
5.0757541128
 21
20.8926358521
  0
LINE
  5
464
100
AcDbEntity
  8
RACCORDO
100
AcDbLine
 62
250
  6
CONTINUOUS
 10
6.909417987
 20
20.6394242001
 11
6.9481418985
 21
20.6296302936
  0
LWPOLYLINE
  5
465
100
AcDbEntity
  8
RACCORDO
100
AcDbPolyline
 62
250
  6
CONTINUOUS
 90
5
 70
0
 10
6.9481418985
 20
20.6296302936
 10
6.969855031
 20
20.6228214195
 10
6.991653854
 20
20.6150726645
 10
7.0134632949
 20
20.606264869
 10
7.0304266083
 20
20.5985823449
  0
LWPOLYLINE
  5
466
100
AcDbEntity
  8
RACCORDO
100
AcDbPolyline
 62
250
  6
CONTINUOUS
 90
5
 70
0
 10
5.2536374273
 20
20.8412153374
 10
5.2139268472
 20
20.8545189533
 10
5.1740866346
 20
20.865415179
 10
5.134211456
 20
20.8738665709
 10
5.0943732996
 20
20.8798476969
  0
LWPOLYLINE
  5
467
100
AcDbEntity
  8
RACCORDO
100
AcDbPolyline
 62
250
  6
CONTINUOUS
 90
4
 70
0
 10
4.7098832177
 20
20.9096641228
 10
4.6785660677
 20
20.9214593388
 10
4.6463667442
 20
20.9258241596
 10
4.6370784802
 20
20.9256791949
  0
LWPOLYLINE
  5
468
100
AcDbEntity
  8
RACCORDO
100
AcDbPolyline
 62
7
  6
CONTINUOUS
 90
4
 70
0
 10
3.4356727574
 20
20.846391686
 10
3.4042897367
 20
20.8583742215
 10
3.3731058828
 20
20.8628473752
 10
3.3645654584
 20
20.8627364124
  0
LWPOLYLINE
  5
469
100
AcDbEntity
  8
ASSI
100
AcDbPolyline
 62
250
  6
CONTINUOUS
 90
9
 70
0
 10
8.5935444736
 20
17.8212447315
 10
8.5771614633
 20
17.8279974063
 10
8.5557240596
 20
17.8332388148
 10
8.5325085105
 20
17.8353618119
 10
8.507719242
 20
17.8343701814
 10
8.4814648633
 20
17.8303079948
 10
8.4539204337
 20
17.8232125962
 10
8.4253322748
 20
17.813135812
 10
8.39591499
 20
17.8001595883
  0
LWPOLYLINE
  5
46A
100
AcDbEntity
  8
RACCORDO
100
AcDbPolyline
 62
250
  6
CONTINUOUS
 90
3
 70
0
 10
5.3325720703
 20
20.8075035636
 10
5.2931821976
 20
20.8255407257
 10
5.2536374273
 20
20.8412153374
  0
LWPOLYLINE
  5
46B
100
AcDbEntity
  8
0
100
AcDbPolyline
 62
7
  6
CONTINUOUS
 90
4
 70
0
 10
4.7487653704
 20
20.9355063807
 10
4.728910927
 20
20.9446468295
 10
4.6970573655
 20
20.9562465921
 10
4.6637757427
 20
20.9647577044
  0
LWPOLYLINE
  5
46C
100
AcDbEntity
  8
0
100
AcDbPolyline
 62
7
  6
CONTINUOUS
 90
5
 70
0
 10
-0.5545354885
 20
23.5871568102
 10
-0.5743899319
 20
23.596297259
 10
-0.6062434934
 20
23.6078970215
 10
-0.6395251162
 20
23.6164081339
 10
-0.6742348004
 20
23.6218305961
  0
LWPOLYLINE
  5
46D
100
AcDbEntity
  8
RACCORDO
100
AcDbPolyline
 62
7
  6
CONTINUOUS
 90
9
 70
0
 10
-4.7004732125
 20
24.771117844
 10
-4.7155500893
 20
24.7781659312
 10
-4.7305004062
 20
24.783517782
 10
-4.7452103294
 20
24.7871326462
 10
-4.7595678504
 20
24.7889830021
 10
-4.7734636534
 20
24.7890547581
 10
-4.7867919478
 20
24.7873473608
 10
-4.7994512543
 20
24.7838738083
 10
-4.8086616264
 20
24.7800217822
  0
LWPOLYLINE
  5
46E
100
AcDbEntity
  8
ASSI
100
AcDbPolyline
 62
250
  6
CONTINUOUS
 90
7
 70
0
 10
19.4781135988
 20
14.5382076762
 10
19.4736907665
 20
14.5403294288
 10
19.4434931999
 20
14.5505313919
 10
19.410881447
 20
14.5545405405
 10
19.3764011841
 20
14.5522896831
 10
19.3406293467
 20
14.5438163792
 10
19.3041645111
 20
14.5292623121
  0
LINE
  5
46F
100
AcDbEntity
  8
RACCORDO
100
AcDbLine
 62
250
  6
CONTINUOUS
 10
7.0304266083
 20
20.5985823449
 11
7.0385721746
 21
20.5946074043
  0
LWPOLYLINE
  5
470
100
AcDbEntity
  8
RACCORDO
100
AcDbPolyline
 62
7
  6
CONTINUOUS
 90
4
 70
0
 10
5.340622264
 20
20.803518821
 10
5.3224740671
 20
20.812411522
 10
5.201729209
 20
20.8611687924
 10
5.0775907383
 20
20.8923262857
  0
LINE
  5
471
100
AcDbEntity
  8
ASSI
100
AcDbLine
 62
7
  6
CONTINUOUS
 10
7.9355299758
 20
18.1502519804
 11
8.5935479852
 21
17.8212429757
  0
LINE
  5
472
100
AcDbEntity
  8
RACCORDO
100
AcDbLine
 62
7
  6
CONTINUOUS
 10
5.1197705646
 20
19.8609959554
 11
3.2895127765
 21
20.7761248495
  0
LINE
  5
473
100
AcDbEntity
  8
RACCORDO
100
AcDbLine
 62
7
  6
CONTINUOUS
 10
-2.8702154243
 20
23.8559889499
 11
-4.7004732125
 21
24.771117844
  0
LINE
  5
474
100
AcDbEntity
  8
RACCORDO
100
AcDbLine
 62
7
  6
CONTINUOUS
 10
4.9153829118
 20
20.1065366088
 11
3.435158583
 21
20.8466487732
  0
LINE
  5
475
100
AcDbEntity
  8
RACCORDO
100
AcDbLine
 62
7
  6
CONTINUOUS
 10
-2.7260702368
 20
23.9272631831
 11
-4.2062945655
 21
24.6673753474
  0
LINE
  5
476
100
AcDbEntity
  8
ASSI
100
AcDbLine
 62
250
  6
CONTINUOUS
 10
17.7659830562
 20
13.76631297
 11
17.6454377073
 21
13.8265856445
  0
LINE
  5
477
100
AcDbEntity
  8
0
100
AcDbLine
 62
250
  6
CONTINUOUS
 10
4.542880557
 20
20.9701506069
 11
-0.7604203019
 21
23.6218010363
  0
LINE
  5
478
100
AcDbEntity
  8
0
100
AcDbLine
 62
7
  6
CONTINUOUS
 10
-0.5545852769
 20
23.5871817096
 11
4.748715582
 21
20.9355312801
  0
LINE
  5
479
100
AcDbEntity
  8
RACCORDO
100
AcDbLine
 62
250
  6
CONTINUOUS
 10
-2.4727502157
 20
24.6634094546
 11
-1.2717552919
 21
24.062906033
  0
LINE
  5
47A
100
AcDbEntity
  8
RACCORDO
100
AcDbLine
 62
250
  6
CONTINUOUS
 10
5.0943732996
 20
20.8798476969
 11
5.7250337047
 21
20.5645174943
  0
LINE
  5
47B
100
AcDbEntity
  8
RACCORDO
100
AcDbLine
 62
7
  6
CONTINUOUS
 10
-2.3187235911
 20
24.6331898008
 11
-1.2088564739
 21
24.0782562422
  0
LINE
  5
47C
100
AcDbEntity
  8
RACCORDO
100
AcDbLine
 62
7
  6
CONTINUOUS
 10
5.3395271596
 20
20.8040644255
 11
5.772332906
 21
20.5876615523
  0
LINE
  5
47D
100
AcDbEntity
  8
RACCORDO
100
AcDbLine
 62
250
  6
CONTINUOUS
 10
6.6392039503
 20
20.6098882903
 11
6.2953949386
 21
20.7817927962
  0
LINE
  5
47E
100
AcDbEntity
  8
RACCORDO
100
AcDbLine
 62
250
  6
CONTINUOUS
 10
-2.8262825387
 20
25.3426315348
 11
-3.1700915504
 21
25.5145360407
  0
LINE
  5
47F
100
AcDbEntity
  8
RACCORDO
100
AcDbLine
 62
7
  6
CONTINUOUS
 10
7.0385824751
 20
20.594602254
 11
6.6261771909
 21
20.8008048961
  0
LINE
  5
480
100
AcDbEntity
  8
RACCORDO
100
AcDbLine
 62
7
  6
CONTINUOUS
 10
-2.4955002864
 20
25.3616436348
 11
-2.9078996838
 21
25.5678433335
  0
LINE
  5
481
100
AcDbEntity
  8
ASSI
100
AcDbLine
 62
250
  6
CONTINUOUS
 10
17.6454377073
 20
15.358625714
 11
19.3041645119
 21
14.5292623117
  0
LINE
  5
482
100
AcDbEntity
  8
ASSI
100
AcDbLine
 62
7
  6
CONTINUOUS
 10
17.6454377073
 20
15.454545622
 11
19.4781135988
 21
14.5382076762
  0
LINE
  5
483
100
AcDbEntity
  8
RACCORDO
100
AcDbLine
 62
7
  6
CONTINUOUS
 10
-1.2086037452
 20
24.0781269628
 11
-1.2088556977
 21
24.0782558541
  0
LINE
  5
484
100
AcDbEntity
  8
ASSI
100
AcDbLine
 62
250
  6
CONTINUOUS
 10
17.7719642189
 20
13.7631766091
 11
17.7659830562
 21
13.76631297
  0
LWPOLYLINE
  5
485
100
AcDbEntity
  8
RACCORDO
100
AcDbPolyline
 62
7
  6
CONTINUOUS
 90
10
 70
0
 10
5.1198086423
 20
19.8609769166
 10
5.1352648621
 20
19.8524742705
 10
5.1505917154
 20
19.842382908
 10
5.1656725651
 20
19.8307796244
 10
5.1803926445
 20
19.8177527197
 10
5.1946399354
 20
19.8034013294
 10
5.2083060207
 20
19.7878346699
 10
5.2212869031
 20
19.7711712043
 10
5.2334837965
 20
19.7535377404
 10
5.2448038827
 20
19.7350684689
  0
LWPOLYLINE
  5
486
100
AcDbEntity
  8
RACCORDO
100
AcDbPolyline
 62
250
  6
CONTINUOUS
 90
5
 70
0
 10
6.6392039503
 20
20.6098882903
 10
6.6546601442
 20
20.6013856165
 10
6.6699869788
 20
20.5912942317
 10
6.6850678167
 20
20.5796909323
 10
6.6997878926
 20
20.5666640207
  0
LWPOLYLINE
  5
487
100
AcDbEntity
  8
RACCORDO
100
AcDbPolyline
 62
7
  6
CONTINUOUS
 90
10
 70
0
 10
-2.4955002864
 20
25.3616436348
 10
-2.4445769817
 20
25.3317280029
 10
-2.3972998259
 20
25.2945595504
 10
-2.3545378785
 20
25.2504392046
 10
-2.3170084615
 20
25.1997029314
 10
-2.2854426974
 20
25.1429460052
 10
-2.2604122225
 20
25.080904921
 10
-2.2422224704
 20
25.0140729833
 10
-2.2311174719
 20
24.9428262101
 10
-2.2273570924
 20
24.8675999368
  0
LWPOLYLINE
  5
488
100
AcDbEntity
  8
RACCORDO
100
AcDbPolyline
 62
250
  6
CONTINUOUS
 90
7
 70
0
 10
-2.8262825387
 20
25.3426315348
 10
-2.7956090372
 20
25.3239822579
 10
-2.7659143999
 20
25.2992980074
 10
-2.738100884
 20
25.2693287977
 10
-2.7130135872
 20
25.2349852198
 10
-2.691414781
 20
25.1973107882
 10
-2.673960744
 20
25.1574502385
  0
LWPOLYLINE
  5
489
100
AcDbEntity
  8
0
100
AcDbPolyline
 62
7
  6
CONTINUOUS
 90
3
 70
0
 10
4.7667857855
 20
20.9253970823
 10
4.7594532172
 20
20.9298912447
 10
4.7487653704
 20
20.9355063807
  0
LWPOLYLINE
  5
48A
100
AcDbEntity
  8
RACCORDO
100
AcDbPolyline
 62
250
  6
CONTINUOUS
 90
3
 70
0
 10
11.9287005664
 20
15.756145321
 10
11.9753824739
 20
15.7174925092
 10
12.0196153333
 20
15.6763920829
  0
LWPOLYLINE
  5
48B
100
AcDbEntity
  8
RACCORDO
100
AcDbPolyline
 62
250
  6
CONTINUOUS
 90
10
 70
0
 10
6.9481414557
 20
20.6296291436
 10
6.9568510504
 20
20.6219307173
 10
6.9645643164
 20
20.6119536169
 10
6.9712027306
 20
20.5997994119
 10
6.9766987122
 20
20.5855918352
 10
6.9809963106
 20
20.5694755239
 10
6.9840517751
 20
20.551614546
 10
6.9858340001
 20
20.5321907312
 10
6.986324842
 20
20.511401819
 10
6.9855193038
 20
20.4894594461
  0
LWPOLYLINE
  5
48C
100
AcDbEntity
  8
RACCORDO
100
AcDbPolyline
 62
7
  6
CONTINUOUS
 90
3
 70
0
 10
12.12935144
 20
15.6729809137
 10
12.0919210526
 20
15.7067576421
 10
12.0337321406
 20
15.7540523324
  0
LINE
  5
48D
100
AcDbEntity
  8
RACCORDO
100
AcDbLine
 62
250
  6
CONTINUOUS
 10
-1.569057547
 20
-25.4383253871
 11
2.0345504869
 21
-23.7440689644
  0
LINE
  5
48E
100
AcDbEntity
  8
RACCORDO
100
AcDbLine
 62
7
  6
CONTINUOUS
 10
-1.6379157489
 20
-25.5754114544
 11
1.9675416729
 21
-23.8802855317
  0
LWPOLYLINE
  5
48F
100
AcDbEntity
  8
RACCORDO
100
AcDbPolyline
 62
250
  6
CONTINUOUS
 90
8
 70
0
 10
-1.569057547
 20
-25.4383253871
 10
-1.602926026
 20
-25.4522681585
 10
-1.6411364287
 20
-25.4630334745
 10
-1.682509585
 20
-25.4702927935
 10
-1.7259328194
 20
-25.4738318285
 10
-1.7699122027
 20
-25.4735105859
 10
-1.8126175751
 20
-25.4694090914
 10
-1.8526588229
 20
-25.4618135268
  0
LINE
  5
490
100
AcDbEntity
  8
RACCORDO
100
AcDbLine
 62
250
  6
CONTINUOUS
 10
-1.29531558
 20
23.6918484453
 11
-1.3555504054
 21
23.6800129715
  0
LINE
  5
491
100
AcDbEntity
  8
RACCORDO
100
AcDbLine
 62
7
  6
CONTINUOUS
 10
-2.7967747614
 20
22.3283972204
 11
-4.7470204461
 21
22.1293624233
  0
LINE
  5
492
100
AcDbEntity
  8
RACCORDO
100
AcDbLine
 62
7
  6
CONTINUOUS
 10
-6.6099838932
 20
22.9798677579
 11
-5.2176303442
 21
23.1219661655
  0
LINE
  5
493
100
AcDbEntity
  8
RACCORDO
100
AcDbLine
 62
7
  6
CONTINUOUS
 10
-0.7604203019
 20
23.6218010363
 11
-2.0953700166
 21
23.4855610499
  0
LINE
  5
494
100
AcDbEntity
  8
RACCORDO
100
AcDbLine
 62
7
  6
CONTINUOUS
 10
-7.080472824
 20
23.2960886122
 11
-5.1302271393
 21
23.4951234093
  0
LWPOLYLINE
  5
495
100
AcDbEntity
  8
RACCORDO
100
AcDbPolyline
 62
7
  6
CONTINUOUS
 90
25
 70
0
 10
-4.7470204461
 20
22.1293624233
 10
-4.7561925508
 20
22.1286151171
 10
-4.7658448714
 20
22.1281753742
 10
-4.775977408
 20
22.1280431945
 10
-4.7866375269
 20
22.1282206401
 10
-4.7977778617
 20
22.128705649
 10
-4.8092563136
 20
22.1294920346
 10
-4.8210772138
 20
22.1305836575
 10
-4.8332362311
 20
22.1319766572
 10
-4.8455782731
 20
22.1336532655
 10
-4.8581056841
 20
22.1356171153
 10
-4.8708161197
 20
22.1378645737
 10
-4.8835474539
 20
22.1403669735
 10
-4.8962999544
 20
22.1431275805
 10
-4.9090733534
 20
22.1461431289
 10
-4.9217047219
 20
22.1493751545
 10
-4.9341922403
 20
22.1528264301
 10
-4.9465377282
 20
22.1564941828
 10
-4.9585837145
 20
22.1603316291
 10
-4.9703263626
 20
22.1643409428
 10
-4.9817695091
 20
22.1685199501
 10
-4.9927671927
 20
22.1728153463
 10
-5.0032707596
 20
22.1772093632
 10
-5.0133288636
 20
22.181719769
 10
-5.0229415047
 20
22.1863465637
  0
LWPOLYLINE
  5
496
100
AcDbEntity
  8
RACCORDO
100
AcDbPolyline
 62
7
  6
CONTINUOUS
 90
25
 70
0
 10
-2.0953700166
 20
23.4855610499
 10
-2.1045421213
 20
23.4848137438
 10
-2.114194442
 20
23.4843740008
 10
-2.1243269786
 20
23.4842418211
 10
-2.1349870974
 20
23.4844192668
 10
-2.1461274322
 20
23.4849042756
 10
-2.1576058841
 20
23.4856906612
 10
-2.1694267844
 20
23.4867822842
 10
-2.1815858017
 20
23.4881752839
 10
-2.1939278436
 20
23.4898518922
 10
-2.2064552547
 20
23.491815742
 10
-2.2191656903
 20
23.4940632003
 10
-2.2318970245
 20
23.4965656001
 10
-2.244649525
 20
23.4993262071
 10
-2.257422924
 20
23.5023417556
 10
-2.2700542924
 20
23.5055737811
 10
-2.2825418109
 20
23.5090250568
 10
-2.2948872988
 20
23.5126928095
 10
-2.306933285
 20
23.5165302558
 10
-2.3186759331
 20
23.5205395694
 10
-2.3301190797
 20
23.5247185767
 10
-2.3411167633
 20
23.5290139729
 10
-2.3516203302
 20
23.5334079898
 10
-2.3616784342
 20
23.5379183956
 10
-2.3712910753
 20
23.5425451903
  0
LWPOLYLINE
  5
497
100
AcDbEntity
  8
RACCORDO
100
AcDbPolyline
 62
7
  6
CONTINUOUS
 90
25
 70
0
 10
-5.1302271393
 20
23.4951234093
 10
-5.1210550346
 20
23.4958707155
 10
-5.1114027139
 20
23.4963104584
 10
-5.1012701773
 20
23.4964426381
 10
-5.0906100585
 20
23.4962651925
 10
-5.0794697237
 20
23.4957801836
 10
-5.0679912718
 20
23.494993798
 10
-5.0561703716
 20
23.4939021751
 10
-5.0440113542
 20
23.4925091754
 10
-5.0316693123
 20
23.4908325671
 10
-5.0191419013
 20
23.4888687173
 10
-5.0064314656
 20
23.4866212589
 10
-4.9937001314
 20
23.4841188591
 10
-4.980947631
 20
23.4813582521
 10
-4.9681742319
 20
23.4783427037
 10
-4.9555428635
 20
23.4751106781
 10
-4.943055345
 20
23.4716594025
 10
-4.9307098572
 20
23.4679916498
 10
-4.9186638709
 20
23.4641542035
 10
-4.9069212228
 20
23.4601448898
 10
-4.8954780763
 20
23.4559658825
 10
-4.8844803927
 20
23.4516704863
 10
-4.8739768257
 20
23.4472764694
 10
-4.8639187217
 20
23.4427660637
 10
-4.8543060807
 20
23.4381392689
  0
LINE
  5
498
100
AcDbEntity
  8
RACCORDO
100
AcDbLine
 62
250
  6
CONTINUOUS
 10
-1.3555504054
 20
23.6800129715
 11
-2.5799240067
 21
23.6076419756
  0
LWPOLYLINE
  5
499
100
AcDbEntity
  8
0
100
AcDbPolyline
 62
7
  6
CONTINUOUS
 90
7
 70
0
 10
-0.6742348004
 20
23.6218305961
 10
-0.6881833431
 20
23.623078076
 10
-0.7022981687
 20
23.6238245933
 10
-0.7165792775
 20
23.624070148
 10
-0.7310266692
 20
23.6238147401
 10
-0.745640344
 20
23.6230583695
 10
-0.7604203019
 20
23.6218010363
  0
LWPOLYLINE
  5
49A
100
AcDbEntity
  8
RACCORDO
100
AcDbPolyline
 62
250
  6
CONTINUOUS
 90
3
 70
0
 10
-2.9239547302
 20
25.5746006667
 10
-2.9386638922
 20
25.5785598526
 10
-2.953327357
 20
25.5803649213
  0
LWPOLYLINE
  5
49B
100
AcDbEntity
  8
RACCORDO
100
AcDbPolyline
 62
250
  6
CONTINUOUS
 90
6
 70
0
 10
-1.2088556977
 20
24.0782558541
 10
-1.2142590532
 20
24.0799415986
 10
-1.2221096447
 20
24.0802061255
 10
-1.2318348019
 20
24.0786980536
 10
-1.2434245608
 20
24.075362223
 10
-1.2567568692
 20
24.0701167283
  0
LWPOLYLINE
  5
49C
100
AcDbEntity
  8
ASSI
100
AcDbPolyline
 62
250
  6
CONTINUOUS
 90
7
 70
0
 10
3.142225488
 20
24.0063804591
 10
3.1117554488
 20
24.015970782
 10
3.0793533278
 20
24.0206044614
 10
3.0453662911
 20
24.0202318505
 10
3.0101584863
 20
24.0148569416
 10
2.9741071407
 20
24.0045373231
 10
2.9375985193
 20
23.9893835627
  0
LWPOLYLINE
  5
49D
100
AcDbEntity
  8
RACCORDO
100
AcDbPolyline
 62
250
  6
CONTINUOUS
 90
4
 70
0
 10
-2.953327472
 20
25.5803646227
 10
-2.9765637372
 20
25.5886391687
 10
-3.000471121
 20
25.5944724241
 10
-3.0248062393
 20
25.5978050045
  0
LINE
  5
49E
100
AcDbEntity
  8
RACCORDO
100
AcDbLine
 62
250
  6
CONTINUOUS
 10
-1.2361248002
 20
24.0495410003
 11
-1.2717496491
 21
24.0629091509
  0
LWPOLYLINE
  5
49F
100
AcDbEntity
  8
RACCORDO
100
AcDbPolyline
 62
7
  6
CONTINUOUS
 90
6
 70
0
 10
-2.9079789249
 20
25.5678777548
 10
-2.9444164884
 20
25.5832352348
 10
-2.984861299
 20
25.5940768407
 10
-3.025845254
 20
25.5988980918
 10
-3.0664196238
 20
25.5977270044
 10
-3.0809400044
 20
25.5958488021
  0
LINE
  5
4A0
100
AcDbEntity
  8
RACCORDO
100
AcDbLine
 62
250
  6
CONTINUOUS
 10
-2.5174109995
 20
25.371454755
 11
-2.4955002864
 21
25.3616436348
  0
LWPOLYLINE
  5
4A1
100
AcDbEntity
  8
RACCORDO
100
AcDbPolyline
 62
250
  6
CONTINUOUS
 90
9
 70
0
 10
-3.1700915504
 20
25.5145360407
 10
-3.1854481217
 20
25.5214397726
 10
-3.2006995685
 20
25.5266375481
 10
-3.2157298273
 20
25.5300898123
 10
-3.2304245178
 20
25.5317702937
 10
-3.2446718138
 20
25.5316662039
 10
-3.2583632943
 20
25.529778335
 10
-3.2713947675
 20
25.5261210534
 10
-3.2808664221
 20
25.5221406217
  0
LWPOLYLINE
  5
4A2
100
AcDbEntity
  8
ASSI
100
AcDbPolyline
 62
250
  6
CONTINUOUS
 90
8
 70
0
 10
2.9375985193
 20
23.9893835627
 10
2.9012657606
 20
24.00577622
 10
2.8652633395
 20
24.0172139393
 10
2.8299855532
 20
24.023571455
 10
2.7958187627
 20
24.0247791398
 10
2.7631371615
 20
24.0208237672
 10
2.7322986775
 20
24.0117486564
 10
2.7218007207
 20
24.0072859176
  0
LINE
  5
4A3
100
AcDbEntity
  8
ASSI
100
AcDbLine
 62
250
  6
CONTINUOUS
 10
3.1550349596
 20
24.0005652275
 11
3.142225488
 21
24.0063804591
  0
LWPOLYLINE
  5
4A4
100
AcDbEntity
  8
ASSI
100
AcDbPolyline
 62
250
  6
CONTINUOUS
 90
8
 70
0
 10
17.3689855266
 20
16.893589931
 10
17.3567706754
 20
16.8991553386
 10
17.326251049
 20
16.9088554022
 10
17.2937710971
 20
16.9135731021
 10
17.2596918009
 20
16.9132531188
 10
17.2243849759
 20
16.9078998619
 10
17.1882271429
 20
16.8975713065
 10
17.1516080647
 20
16.88237879
  0
LINE
  5
4A5
100
AcDbEntity
  8
ASSI
100
AcDbLine
 62
250
  6
CONTINUOUS
 10
17.369044505
 20
16.8935604548
 11
17.3689855266
 21
16.893589931
  0
LINE
  5
4A6
100
AcDbEntity
  8
ASSI
100
AcDbLine
 62
7
  6
CONTINUOUS
 10
11.9644459423
 20
18.5989243969
 11
15.0183543489
 21
17.0719701935
  0
LINE
  5
4A7
100
AcDbEntity
  8
ASSI
100
AcDbLine
 62
250
  6
CONTINUOUS
 10
2.9375985193
 20
23.9893835627
 11
11.2508469908
 21
19.8327593269
  0
LINE
  5
4A8
100
AcDbEntity
  8
ASSI
100
AcDbLine
 62
250
  6
CONTINUOUS
 10
15.9094274051
 20
17.5034691198
 11
17.1516080647
 21
16.88237879
  0
LINE
  5
4A9
100
AcDbEntity
  8
ASSI
100
AcDbLine
 62
7
  6
CONTINUOUS
 10
3.1550349596
 20
24.0005652275
 11
11.4682834311
 21
19.8439409917
  0
LINE
  5
4AA
100
AcDbEntity
  8
ASSI
100
AcDbLine
 62
7
  6
CONTINUOUS
 10
16.081832986
 20
17.5371662143
 11
17.369044505
 21
16.8935604548
  0
LWPOLYLINE
  5
4AB
100
AcDbEntity
  8
ASSI
100
AcDbPolyline
 62
250
  6
CONTINUOUS
 90
16
 70
0
 10
19.3041645119
 20
14.5292623117
 10
19.3416102244
 20
14.5086431988
 10
19.3785859013
 20
14.4834844091
 10
19.4146857279
 20
14.4540636241
 10
19.4495082217
 20
14.4207101553
 10
19.4826786456
 20
14.3837869119
 10
19.5138503009
 20
14.3436810863
 10
19.5426880183
 20
14.3008171885
 10
19.5688642051
 20
14.2556731233
 10
19.5920819102
 20
14.2087594967
 10
19.6120857979
 20
14.1605982447
 10
19.6286610428
 20
14.1117105948
 10
19.6416267315
 20
14.0626284532
 10
19.65084163
 20
14.0138884228
 10
19.6562064648
 20
13.9660260117
 10
19.6576640546
 20
13.9195657884
  0
LWPOLYLINE
  5
4AC
100
AcDbEntity
  8
RACCORDO
100
AcDbPolyline
 62
7
  6
CONTINUOUS
 90
3
 70
0
 10
-3.07988116
 20
25.596019802
 10
-3.0918616006
 20
25.5939387637
 10
-3.1251854896
 20
25.5859346212
  0
LINE
  5
4AD
100
AcDbEntity
  8
RACCORDO
100
AcDbLine
 62
250
  6
CONTINUOUS
 10
-3.07988116
 20
25.596019802
 11
-3.0809414055
 21
25.5958577907
  0
LWPOLYLINE
  5
4AE
100
AcDbEntity
  8
RACCORDO
100
AcDbPolyline
 62
250
  6
CONTINUOUS
 90
7
 70
0
 10
-2.7001705748
 20
25.3856656848
 10
-2.668592454
 20
25.390330286
 10
-2.6372544237
 20
25.3923172914
 10
-2.6062872407
 20
25.3915153506
 10
-2.5758664019
 20
25.3878220376
 10
-2.5461953743
 20
25.3811597738
 10
-2.5174109995
 20
25.371454755
  0
LINE
  5
4AF
100
AcDbEntity
  8
0
100
AcDbLine
 62
7
  6
CONTINUOUS
 10
-8.4662157382
 20
23.7932419665
 11
-3.8208599767
 21
24.267329641
  0
LINE
  5
4B0
100
AcDbEntity
  8
RACCORDO
100
AcDbLine
 62
250
  6
CONTINUOUS
 10
-1.4263312471
 20
24.0050576917
 11
-1.4734018271
 21
24.0013066452
  0
LINE
  5
4B1
100
AcDbEntity
  8
RACCORDO
100
AcDbLine
 62
250
  6
CONTINUOUS
 10
-1.4734018271
 20
24.0013066452
 11
-2.7260702368
 21
23.9272631831
  0
LINE
  5
4B2
100
AcDbEntity
  8
RACCORDO
100
AcDbLine
 62
7
  6
CONTINUOUS
 10
-3.5318775387
 20
24.6059736977
 11
-2.4727502157
 21
24.6634094546
  0
LWPOLYLINE
  5
4B3
100
AcDbEntity
  8
RACCORDO
100
AcDbPolyline
 62
250
  6
CONTINUOUS
 90
8
 70
0
 10
-2.953327357
 20
25.5803649213
 10
-2.9694276082
 20
25.5801189485
 10
-2.9876634893
 20
25.5783097461
 10
-3.0079910244
 20
25.5748177788
 10
-3.0303519552
 20
25.5694826227
 10
-3.0546877648
 20
25.5622287529
 10
-3.0809275121
 20
25.5531234476
 10
-3.1089779218
 20
25.54218591
  0
LWPOLYLINE
  5
4B4
100
AcDbEntity
  8
RACCORDO
100
AcDbPolyline
 62
7
  6
CONTINUOUS
 90
7
 70
0
 10
-2.4727502157
 20
24.6634094546
 10
-2.4403552572
 20
24.6634481758
 10
-2.4094402941
 20
24.6607953796
 10
-2.3800053266
 20
24.6554510661
 10
-2.3520503546
 20
24.6474152352
 10
-2.3255753781
 20
24.6366878868
 10
-2.3185651696
 20
24.6331105277
  0
LWPOLYLINE
  5
4B5
100
AcDbEntity
  8
RACCORDO
100
AcDbPolyline
 62
250
  6
CONTINUOUS
 90
4
 70
0
 10
-3.0248062393
 20
25.5978050045
 10
-3.0493213537
 20
25.5986029834
 10
-3.0737668932
 20
25.596858237
 10
-3.07988116
 20
25.596019802
  0
ARC
  5
4B6
100
AcDbEntity
  8
ASSI
100
AcDbCircle
 62
7
  6
CONTINUOUS
 10
2.9314281619
 20
23.553351632
 40
0.5
100
AcDbArc
 50
63.4349488229
 51
114.7875540508
  0
ARC
  5
4B7
100
AcDbEntity
  8
ASSI
100
AcDbCircle
 62
7
  6
CONTINUOUS
 10
17.1454377073
 20
16.4463468593
 40
0.5
100
AcDbArc
 50
0.0
 51
63.4425043173
  0
ARC
  5
4B8
100
AcDbEntity
  8
ASSI
100
AcDbCircle
 62
7
  6
CONTINUOUS
 10
17.1454377073
 20
-2.6509379708
 40
0.5
100
AcDbArc
 50
298.3311194876
 51
359.9902500228
  0
ARC
  5
4B9
100
AcDbEntity
  8
RACCORDO
100
AcDbCircle
 62
7
  6
CONTINUOUS
 10
-16.7161688424
 20
20.2712260755
 40
0.25
100
AcDbArc
 50
117.8563459593
 51
179.9323944977
  0
ARC
  5
4BA
100
AcDbEntity
  8
RACCORDO
100
AcDbCircle
 62
7
  6
CONTINUOUS
 10
-1.7442848631
 20
-25.3491690809
 40
0.25
100
AcDbArc
 50
243.4349523892
 51
295.1787812818
  0
ARC
  5
4BB
100
AcDbEntity
  8
RACCORDO
100
AcDbCircle
 62
7
  6
CONTINUOUS
 10
-16.7161688424
 20
-17.8632270912
 40
0.25
100
AcDbArc
 50
179.9784921316
 51
243.4349363412
  0
ELLIPSE
  5
4BC
100
AcDbEntity
  8
ASSI
100
AcDbEllipse
 62
7
  6
CONTINUOUS
 10
-14.6695159785
 20
10.3152475461
 30
0.0
 11
-2.3586293233
 21
6.6665561141
 31
0.0
 40
0.6490743087
 41
-2.9197395381
 42
-2.7171571463
  0
ELLIPSE
  5
4BD
100
AcDbEntity
  8
ASSI
100
AcDbEllipse
 62
7
  6
CONTINUOUS
 10
10.3197363448
 20
14.9860305728
 30
0.0
 11
2.7591298705
 21
-0.0195214664
 31
0.0
 40
0.4946372042
 41
0.6849179697
 42
1.8668672599
  0
ELLIPSE
  5
4BE
100
AcDbEntity
  8
ASSI
100
AcDbEllipse
 62
7
  6
CONTINUOUS
 10
15.6991351252
 20
17.1694981503
 30
0.0
 11
0.3966041207
 21
0.3572178376
 31
0.0
 40
0.2863875241
 41
0.1119137016
 42
0.7791795353
  0
ELLIPSE
  5
4BF
100
AcDbEntity
  8
ASSI
100
AcDbEllipse
 62
7
  6
CONTINUOUS
 10
9.6611791852
 20
16.7924147063
 30
0.0
 11
3.3257364767
 21
-0.0466285414
 31
0.0
 40
0.4892378494
 41
-1.5656005081
 42
-0.7728496356
  0
ELLIPSE
  5
4C0
100
AcDbEntity
  8
ASSI
100
AcDbEllipse
 62
7
  6
CONTINUOUS
 10
10.3197363448
 20
15.8520559766
 30
0.0
 11
2.7591298705
 21
-0.0195214664
 31
0.0
 40
0.4946372042
 41
0.2016768662
 42
2.0435469908
  0
ELLIPSE
  5
4C1
100
AcDbEntity
  8
ASSI
100
AcDbEllipse
 62
7
  6
CONTINUOUS
 10
11.4487985558
 20
19.294666435
 30
0.0
 11
-0.1563696105
 21
0.5536907188
 31
0.0
 40
0.6784825036
 41
4.8434577994
 42
6.3968008337
  0
ELLIPSE
  5
4C2
100
AcDbEntity
  8
RACCORDO
100
AcDbEllipse
 62
7
  6
CONTINUOUS
 10
-13.1764422758
 20
22.1485905119
 30
0.0
 11
-0.1118058166
 21
0.2236562478
 31
0.0
 40
0.6122670695
 41
-0.6845534703
 42
0.0147344867
  0
ELLIPSE
  5
4C3
100
AcDbEntity
  8
RACCORDO
100
AcDbEllipse
 62
7
  6
CONTINUOUS
 10
1.8577670602
 20
-23.6556442723
 30
0.0
 11
-0.1118058166
 21
0.2236562478
 31
0.0
 40
0.6122670695
 41
-3.1563479361
 42
-2.2555020961
  0
ELLIPSE
  5
4C4
100
AcDbEntity
  8
RACCORDO
100
AcDbEllipse
 62
7
  6
CONTINUOUS
 10
1.8577670602
 20
14.6314858439
 30
0.0
 11
-0.1117757714
 21
0.2236295575
 31
0.0
 40
0.612449815
 41
-2.2552827073
 42
-0.6846386796
  0
ELLIPSE
  5
4C5
100
AcDbEntity
  8
RACCORDO
100
AcDbEllipse
 62
7
  6
CONTINUOUS
 10
-16.540934854
 20
16.921577772
 30
0.0
 11
-0.1097114968
 21
0.227450088
 31
0.0
 40
0.6094565619
 41
-0.6679901581
 42
0.1098078852
  0
ELLIPSE
  5
4C6
100
AcDbEntity
  8
RACCORDO
100
AcDbEllipse
 62
7
  6
CONTINUOUS
 10
-2.8702288868
 20
23.639481086
 30
0.0
 11
-0.1118001475
 21
0.2236086385
 31
0.0
 40
0.6124181287
 41
4.0277246096
 42
5.598444784
  0
ELLIPSE
  5
4C7
100
AcDbEntity
  8
RACCORDO
100
AcDbEllipse
 62
7
  6
CONTINUOUS
 10
3.2895262389
 20
20.5596035231
 30
0.0
 11
-0.1118151638
 21
0.2236219863
 31
0.0
 40
0.6123267458
 41
5.5984874293
 42
7.1692076037
  0
ELLIPSE
  5
4C8
100
AcDbEntity
  8
RACCORDO
100
AcDbEllipse
 62
7
  6
CONTINUOUS
 10
4.7704941461
 20
19.8191195695
 30
0.0
 11
-0.1118151638
 21
0.2236219863
 31
0.0
 40
0.6123267458
 41
-0.6846978779
 42
0.0094998514
  0
ELLIPSE
  5
4C9
100
AcDbEntity
  8
RACCORDO
100
AcDbEllipse
 62
7
  6
CONTINUOUS
 10
-4.351196794
 20
24.3799650395
 30
0.0
 11
-0.1118001475
 21
0.2236086385
 31
0.0
 40
0.6124181287
 41
-2.2554606976
 42
-0.6847405232
  0
ELLIPSE
  5
4CA
100
AcDbEntity
  8
RACCORDO
100
AcDbEllipse
 62
7
  6
CONTINUOUS
 10
-3.708654234
 20
24.6943620453
 30
0.0
 11
0.5281054229
 21
-0.0042880254
 31
0.0
 40
0.1748075536
 41
-2.7988469795
 42
-1.2280506527
  0
ELLIPSE
  5
4CB
100
AcDbEntity
  8
RACCORDO
100
AcDbEllipse
 62
7
  6
CONTINUOUS
 10
5.4130232433
 20
20.1335233067
 30
0.0
 11
0.5281054229
 21
-0.0042880254
 31
0.0
 40
0.1748075536
 41
2.8048946034
 42
3.4843383277
  0
ELLIPSE
  5
4CC
100
AcDbEntity
  8
RACCORDO
100
AcDbEllipse
 62
7
  6
CONTINUOUS
 10
-0.5879472487
 20
16.1069934948
 30
0.0
 11
0.8499768337
 21
0.0122902429
 31
0.0
 40
0.5106100819
 41
3.1342088931
 42
3.9196077829
  0
ELLIPSE
  5
4CD
100
AcDbEntity
  8
RACCORDO
100
AcDbEllipse
 62
7
  6
CONTINUOUS
 10
-0.5671280192
 20
16.0965838801
 30
0.0
 11
0.8499768337
 21
0.0122902429
 31
0.0
 40
0.5106100819
 41
-2.3635775243
 42
-0.8516387034
  0
ELLIPSE
  5
4CE
100
AcDbEntity
  8
RACCORDO
100
AcDbEllipse
 62
7
  6
CONTINUOUS
 10
-10.6600172887
 20
21.1430285148
 30
0.0
 11
0.8499768337
 21
0.0122902429
 31
0.0
 40
0.5106100819
 41
-2.3635775243
 42
-0.8015078437
  0
ELLIPSE
  5
4CF
100
AcDbEntity
  8
RACCORDO
100
AcDbEllipse
 62
7
  6
CONTINUOUS
 10
-10.6808365182
 20
21.1534381296
 30
0.0
 11
0.8499768337
 21
0.0122902429
 31
0.0
 40
0.5106100819
 41
3.1342058158
 42
3.9196077829
  0
ELLIPSE
  5
4D0
100
AcDbEntity
  8
RACCORDO
100
AcDbEllipse
 62
7
  6
CONTINUOUS
 10
-1.565965461
 20
9.4340930755
 30
0.0
 11
-0.1093945794
 21
0.227189921
 31
0.0
 40
0.6112559224
 41
-2.2380176789
 42
-0.6687366997
  0
ELLIPSE
  5
4D1
100
AcDbEntity
  8
RACCORDO
100
AcDbEllipse
 62
7
  6
CONTINUOUS
 10
-1.565965461
 20
-21.8227440822
 30
0.0
 11
-0.1097114968
 21
0.227450088
 31
0.0
 40
0.6094565619
 41
-3.2514009562
 42
-2.2403018325
  0
ENDSEC
  0
SECTION
  2
OBJECTS
  0
DICTIONARY
  5
C
100
AcDbDictionary
280
0
281
1
  3
ACAD_GROUP
350
D
  3
ACAD_MLINESTYLE
350
17
  3
ACAD_LAYOUT
350
1A
  3
ACAD_PLOTSETTINGS
350
19
  3
ACAD_PLOTSTYLENAME
350
E
  0
DICTIONARY
  5
D
102
{ACAD_REACTORS
330
C
102
}
100
AcDbDictionary
280
0
281
1
  0
ACDBDICTIONARYWDFLT
  5
E
102
{ACAD_REACTORS
330
C
102
}
100
AcDbDictionary
281
1
  3
Normal
350
F
100
AcDbDictionaryWithDefault
340
F
  0
DICTIONARY
  5
17
102
{ACAD_REACTORS
330
C
102
}
100
AcDbDictionary
280
0
281
1
  3
Standard
350
18
  0
DICTIONARY
  5
19
102
{ACAD_REACTORS
330
C
102
}
100
AcDbDictionary
281
1
  0
DICTIONARY
  5
1A
102
{ACAD_REACTORS
330
C
102
}
100
AcDbDictionary
281
1
  3
Model
350
4D2
  3
Layout1
350
4D3
  0
ACDBPLACEHOLDER
  5
F
102
{ACAD_REACTORS
330
E
102
}
  0
MLINESTYLE
  5
18
102
{ACAD_REACTORS
330
17
102
}
100
AcDbMlineStyle
  2
STANDARD
 70
0
  3

 62
256
 51
90.0
 52
90.0
 71
2
 49
0.5
 62
256
  6
BYLAYER
 49
-0.5
 62
256
  6
BYLAYER
  0
LAYOUT
  5
4D2
102
{ACAD_REACTORS
330
1A
102
}
100
AcDbPlotSettings
  1

  2
none_device
  4
ISO_A4_(297.00_x_210.00_MM)
  6

 40
0.0
 41
0.0
 42
0.0
 43
0.0
 44
297.0
 45
210.0
 46
0.0
 47
0.0
 48
0.0
 49
0.0
140
0.0
141
0.0
142
1.0
143
1.0
 70
1024
 72
1
 73
0
 74
0
  7

 75
0
147
1.0
148
0.0
149
0.0
100
AcDbLayout
  1
Model
 70
0
 71
0
 10
0.0
 20
0.0
 11
297.0
 21
210.0
 12
0.0
 22
0.0
 32
0.0
 14
0.0
 24
0.0
 34
0.0
 15
0.0
 25
0.0
 35
0.0
146
0.0
 13
0.0
 23
0.0
 33
0.0
 16
1.0
 26
0.0
 36
0.0
 17
0.0
 27
1.0
 37
0.0
 76
0
330
221
345
0
346
0
  0
LAYOUT
  5
4D3
102
{ACAD_REACTORS
330
1A
102
}
100
AcDbPlotSettings
  1

  2
none_device
  4
ISO_A4_(297.00_x_210.00_MM)
  6

 40
0.0
 41
0.0
 42
0.0
 43
0.0
 44
297.0
 45
210.0
 46
0.0
 47
0.0
 48
0.0
 49
0.0
140
0.0
141
0.0
142
1.0
143
1.0
 70
0
 72
1
 73
0
 74
0
  7

 75
0
147
1.0
148
0.0
149
0.0
100
AcDbLayout
  1
Layout1
 70
0
 71
1
 10
0.0
 20
0.0
 11
297.0
 21
210.0
 12
0.0
 22
0.0
 32
0.0
 14
0.0
 24
0.0
 34
0.0
 15
0.0
 25
0.0
 35
0.0
146
0.0
 13
0.0
 23
0.0
 33
0.0
 16
1.0
 26
0.0
 36
0.0
 17
0.0
 27
1.0
 37
0.0
 76
0
330
222
345
0
346
0
  0
ENDSEC
  0
EOF
