  0
SECTION
  2
HEADER
  9
$ACADVER
  1
AC1024
  9
$DWGCODEPAGE
  3
ANSI_1252
  9
$EXTMAX
 10
297.0
 20
210.0
 30
0.0
  9
$EXTMIN
 10
0.0
 20
0.0
 30
0.0
  9
$LIMMIN
 10
0.0
 20
0.0
  9
$LIMMAX
 10
297.0
 20
210.0
  9
$VIEWCTR
 10
148.5
 20
105.0
  9
$VIEWSIZE
 40
210.0
  9
$CLAYER
  8
0
  9
$LTSCALE
 40
16.335
  9
$CELTYPE
  6
BYLAYER
  9
$DIMSCALE
 40
1.0
  9
$DIMASZ
 40
3.0
  9
$DIMEXO
 40
0.5
  9
$DIMDLI
 40
11.286
  9
$DIMEXE
 40
1.5
  9
$DIMCEN
 40
2.673
  9
$DIMLFAC
 40
1.0
  9
$DIMBLK
  1
_FILLED
  9
$DIMALT
 70
0
  9
$DIMALTF
 40
0.0393700787
  9
$DIMTXT
 40
3.0
  9
$DIMTOL
 70
1
  9
$DIMLIM
 70
0
  9
$DIMTFAC
 40
1.0
  9
$DIMTP
 40
0.01
  9
$DIMTM
 40
0.01
  9
$DIMGAP
 40
0.625
  9
$DIMDSEP
 70
44
  9
$AUNITS
 70
0
  9
$PDMODE
 70
3
  9
$PDSIZE
 40
3.0
  9
$HANDSEED
  5
4E4
  9
$TILEMODE
 70
1
  9
$MEASUREMENT
 70
1
  9
$INSUNITS
 70
4
  0
ENDSEC
  0
SECTION
  2
CLASSES
  0
CLASS
  1
ACDBDICTIONARYWDFLT
  2
AcDbDictionaryWithDefault
  3
AutoCAD 2000
 90
0
 91
1
280
0
281
0
  0
CLASS
  1
ACDBPLACEHOLDER
  2
AcDbPlaceHolder
  3
AutoCAD 2000
 90
0
 91
1
280
0
281
0
  0
CLASS
  1
LAYOUT
  2
AcDbLayout
  3
AutoCAD 2000
 90
0
 91
0
280
0
281
0
  0
ENDSEC
  0
SECTION
  2
TABLES
  0
TABLE
  2
VPORT
  5
8
100
AcDbSymbolTable
 70
2
  0
VPORT
  5
1F4
100
AcDbSymbolTableRecord
100
AcDbViewportTableRecord
  2
*ACTIVE
 70
0
 10
0.0
 20
0.0
 11
1.0
 21
1.0
 12
148.5
 22
105.0
 13
0.0
 23
0.0
 14
1.0
 24
1.0
 15
0.0
 25
0.0
 16
0.0
 26
0.0
 36
1.0
 17
0.0
 27
0.0
 37
0.0
 40
210.0
 41
1.4142857143
 42
50.0
 43
0.0
 44
0.0
 50
0.0
 51
0.0
 71
0
 72
100
 73
1
 74
1
 75
0
 76
0
 77
0
 78
0
  0
ENDTAB
  0
TABLE
  2
LTYPE
  5
5
100
AcDbSymbolTable
 70
6
  0
LTYPE
  5
14
100
AcDbSymbolTableRecord
100
AcDbLinetypeTableRecord
  2
BYBLOCK
 70
0
  3

 72
65
 73
0
 40
0.0
  0
LTYPE
  5
15
100
AcDbSymbolTableRecord
100
AcDbLinetypeTableRecord
  2
BYLAYER
 70
0
  3

 72
65
 73
0
 40
0.0
  0
LTYPE
  5
16
100
AcDbSymbolTableRecord
100
AcDbLinetypeTableRecord
  2
CONTINUOUS
 70
64
  3
Solid line
 72
65
 73
0
 40
0.0
  0
LTYPE
  5
1F5
100
AcDbSymbolTableRecord
100
AcDbLinetypeTableRecord
  2
CENTER
 70
64
  3
____ _ ____ _ ____ _ ____ _ ____ _ ____ _ ____
 72
65
 73
4
 40
0.6
 49
0.375
 74
0
 49
-0.075
 74
0
 49
0.075
 74
0
 49
-0.075
 74
0
  0
LTYPE
  5
1F6
100
AcDbSymbolTableRecord
100
AcDbLinetypeTableRecord
  2
HIDDEN
 70
64
  3
- - - - - - - - - - - - - - - - - - - -
 72
65
 73
2
 40
0.2
 49
0.1
 74
0
 49
-0.1
 74
0
  0
LTYPE
  5
1F7
100
AcDbSymbolTableRecord
100
AcDbLinetypeTableRecord
  2
PHANTOM
 70
64
  3
_____ _ _ _____ _ _ _____ _ _ _____
 72
65
 73
6
 40
0.8
 49
0.45
 74
0
 49
-0.05
 74
0
 49
0.1
 74
0
 49
-0.05
 74
0
 49
0.1
 74
0
 49
-0.05
 74
0
  0
LTYPE
  5
1F8
100
AcDbSymbolTableRecord
100
AcDbLinetypeTableRecord
  2
DOT
 70
64
  3
. . . . . . . . . . . . . . . . . . . .
 72
65
 73
2
 40
0.2
 49
0.1
 74
0
 49
-0.1
 74
0
  0
LTYPE
  5
1F9
100
AcDbSymbolTableRecord
100
AcDbLinetypeTableRecord
  2
DASHED
 70
64
  3
- - - - - - - - - - - - - - - - - - - -
 72
65
 73
2
 40
0.2
 49
0.1
 74
0
 49
-0.1
 74
0
  0
ENDTAB
  0
TABLE
  2
LAYER
  5
2
100
AcDbSymbolTable
 70
36
  0
LAYER
  5
10
100
AcDbSymbolTableRecord
100
AcDbLayerTableRecord
  2
0
 70
0
 62
7
  6
CONTINUOUS
370
-3
390
F
  0
LAYER
  5
1FA
100
AcDbSymbolTableRecord
100
AcDbLayerTableRecord
  2
DEFAULT_1
 70
0
 62
7
  6
CENTER
370
-3
390
F
  0
LAYER
  5
1FB
100
AcDbSymbolTableRecord
100
AcDbLayerTableRecord
  2
DEFAULT_2
 70
0
 62
7
  6
HIDDEN
370
-3
390
F
  0
LAYER
  5
1FC
100
AcDbSymbolTableRecord
100
AcDbLayerTableRecord
  2
DEFAULT_3
 70
0
 62
7
  6
PHANTOM
370
-3
390
F
  0
LAYER
  5
1FD
100
AcDbSymbolTableRecord
100
AcDbLayerTableRecord
  2
ASSI
 70
0
 62
7
  6
CONTINUOUS
370
-3
390
F
  0
LAYER
  5
1FE
100
AcDbSymbolTableRecord
100
AcDbLayerTableRecord
  2
COORDINATE
 70
0
 62
7
  6
CONTINUOUS
370
-3
390
F
  0
LAYER
  5
1FF
100
AcDbSymbolTableRecord
100
AcDbLayerTableRecord
  2
COORD_ORIGINE
 70
0
 62
7
  6
CONTINUOUS
370
-3
390
F
  0
LAYER
  5
200
100
AcDbSymbolTableRecord
100
AcDbLayerTableRecord
  2
COPY_PUBLISH
 70
0
 62
7
  6
CONTINUOUS
370
-3
390
F
  0
LAYER
  5
201
100
AcDbSymbolTableRecord
100
AcDbLayerTableRecord
  2
COSMETIC
 70
0
 62
7
  6
CONTINUOUS
370
-3
390
F
  0
LAYER
  5
202
100
AcDbSymbolTableRecord
100
AcDbLayerTableRecord
  2
COSMETICHE
 70
0
 62
7
  6
CONTINUOUS
370
-3
390
F
  0
LAYER
  5
203
100
AcDbSymbolTableRecord
100
AcDbLayerTableRecord
  2
COSMETICI
 70
0
 62
7
  6
CONTINUOUS
370
-3
390
F
  0
LAYER
  5
204
100
AcDbSymbolTableRecord
100
AcDbLayerTableRecord
  2
CURVE
 70
0
 62
7
  6
CONTINUOUS
370
-3
390
F
  0
LAYER
  5
205
100
AcDbSymbolTableRecord
100
AcDbLayerTableRecord
  2
CURVE1
 70
0
 62
7
  6
CONTINUOUS
370
-3
390
F
  0
LAYER
  5
206
100
AcDbSymbolTableRecord
100
AcDbLayerTableRecord
  2
DRAFT
 70
0
 62
7
  6
CONTINUOUS
370
-3
390
F
  0
LAYER
  5
207
100
AcDbSymbolTableRecord
100
AcDbLayerTableRecord
  2
IGES
 70
0
 62
7
  6
CONTINUOUS
370
-3
390
F
  0
LAYER
  5
208
100
AcDbSymbolTableRecord
100
AcDbLayerTableRecord
  2
IMPORT
 70
0
 62
7
  6
CONTINUOUS
370
-3
390
F
  0
LAYER
  5
209
100
AcDbSymbolTableRecord
100
AcDbLayerTableRecord
  2
IMPORT_IGES
 70
0
 62
7
  6
CONTINUOUS
370
-3
390
F
  0
LAYER
  5
20A
100
AcDbSymbolTableRecord
100
AcDbLayerTableRecord
  2
INCISIONI
 70
0
 62
7
  6
CONTINUOUS
370
-3
390
F
  0
LAYER
  5
20B
100
AcDbSymbolTableRecord
100
AcDbLayerTableRecord
  2
INTF_1
 70
0
 62
7
  6
CONTINUOUS
370
-3
390
F
  0
LAYER
  5
20C
100
AcDbSymbolTableRecord
100
AcDbLayerTableRecord
  2
INTF_11
 70
0
 62
7
  6
CONTINUOUS
370
-3
390
F
  0
LAYER
  5
20D
100
AcDbSymbolTableRecord
100
AcDbLayerTableRecord
  2
INTF_2
 70
0
 62
7
  6
CONTINUOUS
370
-3
390
F
  0
LAYER
  5
20E
100
AcDbSymbolTableRecord
100
AcDbLayerTableRecord
  2
LAY0001
 70
0
 62
7
  6
CONTINUOUS
370
-3
390
F
  0
LAYER
  5
20F
100
AcDbSymbolTableRecord
100
AcDbLayerTableRecord
  2
LAYER_PIANI_CONTATTI
 70
0
 62
7
  6
CONTINUOUS
370
-3
390
F
  0
LAYER
  5
210
100
AcDbSymbolTableRecord
100
AcDbLayerTableRecord
  2
NOTE
 70
0
 62
7
  6
CONTINUOUS
370
-3
390
F
  0
LAYER
  5
211
100
AcDbSymbolTableRecord
100
AcDbLayerTableRecord
  2
PIANI
 70
0
 62
7
  6
CONTINUOUS
370
-3
390
F
  0
LAYER
  5
212
100
AcDbSymbolTableRecord
100
AcDbLayerTableRecord
  2
PIANI_DI_RIFERIMENTO
 70
0
 62
7
  6
CONTINUOUS
370
-3
390
F
  0
LAYER
  5
213
100
AcDbSymbolTableRecord
100
AcDbLayerTableRecord
  2
PIANI_ORIGINE
 70
0
 62
7
  6
CONTINUOUS
370
-3
390
F
  0
LAYER
  5
214
100
AcDbSymbolTableRecord
100
AcDbLayerTableRecord
  2
PIANI_QUOTA
 70
0
 62
7
  6
CONTINUOUS
370
-3
390
F
  0
LAYER
  5
215
100
AcDbSymbolTableRecord
100
AcDbLayerTableRecord
  2
PUNTI
 70
0
 62
7
  6
CONTINUOUS
370
-3
390
F
  0
LAYER
  5
216
100
AcDbSymbolTableRecord
100
AcDbLayerTableRecord
  2
RACCORDO
 70
0
 62
7
  6
CONTINUOUS
370
-3
390
F
  0
LAYER
  5
217
100
AcDbSymbolTableRecord
100
AcDbLayerTableRecord
  2
RGB__255__255__255__
 70
0
 62
7
  6
CONTINUOUS
370
-3
390
F
  0
LAYER
  5
218
100
AcDbSymbolTableRecord
100
AcDbLayerTableRecord
  2
RGB____0____0____0__
 70
0
 62
7
  6
CONTINUOUS
370
-3
390
F
  0
LAYER
  5
219
100
AcDbSymbolTableRecord
100
AcDbLayerTableRecord
  2
SIMBOLI
 70
0
 62
7
  6
CONTINUOUS
370
-3
390
F
  0
LAYER
  5
21A
100
AcDbSymbolTableRecord
100
AcDbLayerTableRecord
  2
SMUSSO
 70
0
 62
7
  6
CONTINUOUS
370
-3
390
F
  0
LAYER
  5
21B
100
AcDbSymbolTableRecord
100
AcDbLayerTableRecord
  2
SNAPLINE
 70
0
 62
7
  6
CONTINUOUS
370
-3
390
F
  0
LAYER
  5
21C
100
AcDbSymbolTableRecord
100
AcDbLayerTableRecord
  2
SUPERFICI
 70
0
 62
7
  6
CONTINUOUS
370
-3
390
F
  0
LAYER
  5
21D
100
AcDbSymbolTableRecord
100
AcDbLayerTableRecord
  2
TRASH
 70
0
 62
7
  6
CONTINUOUS
370
-3
390
F
  0
LAYER
  5
21E
100
AcDbSymbolTableRecord
100
AcDbLayerTableRecord
  2
XSEC_DATUMS
 70
0
 62
7
  6
CONTINUOUS
370
-3
390
F
  0
ENDTAB
  0
TABLE
  2
STYLE
  5
3
100
AcDbSymbolTable
 70
1
  0
STYLE
  5
11
100
AcDbSymbolTableRecord
100
AcDbTextStyleTableRecord
  2
STANDARD
 70
0
 40
0.0
 41
0.8
 50
0.0
 71
0
 42
0.2
  3
txt
  4

  0
STYLE
  5
21F
100
AcDbSymbolTableRecord
100
AcDbTextStyleTableRecord
  2
TEXTSTYLE_1
 70
0
 40
0.0
 41
0.8
 50
0.0
 71
0
 42
0.2
  3
gdt
  4

  0
ENDTAB
  0
TABLE
  2
VIEW
  5
6
100
AcDbSymbolTable
 70
0
  0
ENDTAB
  0
TABLE
  2
UCS
  5
7
100
AcDbSymbolTable
 70
0
  0
ENDTAB
  0
TABLE
  2
APPID
  5
9
100
AcDbSymbolTable
 70
1
  0
APPID
  5
220
100
AcDbSymbolTableRecord
100
AcDbRegAppTableRecord
  2
ACAD
 70
0
  0
ENDTAB
  0
TABLE
  2
BLOCK_RECORD
  5
1
100
AcDbSymbolTable
 70
0
  0
BLOCK_RECORD
  5
221
100
AcDbSymbolTableRecord
100
AcDbBlockTableRecord
  2
*Model_Space
  0
BLOCK_RECORD
  5
222
100
AcDbSymbolTableRecord
100
AcDbBlockTableRecord
  2
*Paper_Space
  0
BLOCK_RECORD
  5
223
100
AcDbSymbolTableRecord
100
AcDbBlockTableRecord
  2
_FILLED
  0
ENDTAB
  0
TABLE
  2
DIMSTYLE
  5
A
100
AcDbSymbolTable
 70
1
100
AcDbDimStyleTable
 71
0
  0
DIMSTYLE
105
224
100
AcDbSymbolTableRecord
100
AcDbDimStyleTableRecord
  2
STANDARD
 70
0
  3

  4

 40
1.0
 41
3.0
 42
0.5
 43
0.38
 44
1.5
 45
0.0
 46
0.0
 47
0.01
 48
0.01
140
3.0
141
0.09
142
0.0
143
25.4
144
1.0
145
0.0
146
1.0
147
0.625
 71
1
 72
0
 73
0
 74
0
 75
0
 76
0
 77
1
 78
8
 79
2
170
0
171
1
172
0
173
0
174
0
175
0
176
0
177
0
178
0
270
2
179
2
271
2
272
2
273
2
274
2
275
0
280
0
281
0
282
0
283
1
284
8
285
0
286
0
287
3
288
0
340
11
278
44
341
223
342
223
343
223
344
223
  0
ENDTAB
  0
ENDSEC
  0
SECTION
  2
BLOCKS
  0
BLOCK
  5
20
100
AcDbEntity
  8
0
100
AcDbBlockBegin
  2
*Model_Space
 70
0
 10
0.0
 20
0.0
 30
0.0
  3
*Model_Space
  1

  0
ENDBLK
  5
21
100
AcDbEntity
  8
0
100
AcDbBlockEnd
  0
BLOCK
  5
1C
100
AcDbEntity
  8
0
100
AcDbBlockBegin
  2
*Paper_Space
 70
0
 10
0.0
 20
0.0
 30
0.0
  3
*Paper_Space
  1

  0
ENDBLK
  5
1D
100
AcDbEntity
  8
0
100
AcDbBlockEnd
  0
BLOCK
  5
225
100
AcDbEntity
  8
0
100
AcDbBlockBegin
  2
_FILLED
 70
64
 10
0.0
 20
0.0
  3
_FILLED
  1

  0
SOLID
  5
226
100
AcDbEntity
  8
0
  6
BYBLOCK
 62
0
100
AcDbTrace
 10
0.0
 20
0.0
 11
-1.0
 21
0.3166666667
 12
-1.0
 22
-0.3166666667
 13
-1.0
 23
-0.3166666667
  0
ENDBLK
  5
227
100
AcDbEntity
  8
0
  6
BYBLOCK
 62
0
100
AcDbBlockEnd
  0
ENDSEC
  0
SECTION
  2
ENTITIES
  0
LINE
  5
228
100
AcDbEntity
  8
RACCORDO
100
AcDbLine
 62
7
  6
CONTINUOUS
 10
-16.8648528133
 20
16.7750653967
 11
-13.3217862125
 21
19.3868948637
  0
LINE
  5
229
100
AcDbEntity
  8
RACCORDO
100
AcDbLine
 62
250
  6
CONTINUOUS
 10
-16.7192540212
 20
16.7486547418
 11
-13.1764691997
 21
19.3602746275
  0
LWPOLYLINE
  5
22A
100
AcDbEntity
  8
RACCORDO
100
AcDbPolyline
 62
7
  6
CONTINUOUS
 90
5
 70
0
 10
-4.0993062327
 20
23.251934872
 10
-4.1197695759
 20
23.2454493772
 10
-4.1581865846
 20
23.2302687218
 10
-4.1946792092
 20
23.211784349
 10
-4.2272163419
 20
23.1913724992
  0
LWPOLYLINE
  5
22B
100
AcDbEntity
  8
RACCORDO
100
AcDbPolyline
 62
250
  6
CONTINUOUS
 90
5
 70
0
 10
-3.0886935332
 20
23.5479371511
 10
-3.0955972252
 20
23.5457642108
 10
-3.1198219231
 20
23.5358708502
 10
-3.1433734229
 20
23.5224982186
 10
-3.165939621
 20
23.5055662237
  0
LINE
  5
22C
100
AcDbEntity
  8
RACCORDO
100
AcDbLine
 62
7
  6
CONTINUOUS
 10
-4.1000454518
 20
23.2517194104
 11
-3.0883272489
 21
23.5480448114
  0
LINE
  5
22D
100
AcDbEntity
  8
RACCORDO
100
AcDbLine
 62
250
  6
CONTINUOUS
 10
-4.2084957457
 20
23.2002086045
 11
-3.165939621
 21
23.5055662237
  0
LINE
  5
22E
100
AcDbEntity
  8
ASSI
100
AcDbLine
 62
7
  6
CONTINUOUS
 10
-4.5693957443
 20
22.9576542791
 11
-5.5821604073
 21
22.6610223771
  0
LWPOLYLINE
  5
22F
100
AcDbEntity
  8
RACCORDO
100
AcDbPolyline
 62
250
  6
CONTINUOUS
 90
3
 70
0
 10
-1.8126175751
 20
-25.3193298474
 10
-1.8526588229
 20
-25.308588097
 10
-1.8891126165
 20
-25.2933766425
  0
LWPOLYLINE
  5
230
100
AcDbEntity
  8
RACCORDO
100
AcDbPolyline
 62
250
  6
CONTINUOUS
 90
4
 70
0
 10
-19.3998163443
 20
11.2017812636
 10
-19.358810057
 20
11.3072936573
 10
-19.3109059924
 20
11.4096101241
 10
-19.2573509784
 20
11.5078549169
  0
LWPOLYLINE
  5
231
100
AcDbEntity
  8
RACCORDO
100
AcDbPolyline
 62
250
  6
CONTINUOUS
 90
6
 70
0
 10
-19.2573509784
 20
11.5078549169
 10
-19.1995064316
 20
11.6009531307
 10
-19.1387252005
 20
11.6879675518
 10
-19.0759189445
 20
11.7685888144
 10
-19.0120282465
 20
11.8424666698
 10
-18.9480757988
 20
11.9092334384
  0
LINE
  5
232
100
AcDbEntity
  8
RACCORDO
100
AcDbLine
 62
250
  6
CONTINUOUS
 10
-18.9480757988
 20
11.9092334384
 11
-18.8848733388
 21
11.9688002894
  0
LWPOLYLINE
  5
233
100
AcDbEntity
  8
RACCORDO
100
AcDbPolyline
 62
7
  6
CONTINUOUS
 90
9
 70
0
 10
-19.0207619894
 20
12.0028194013
 10
-19.0348658762
 20
11.9900038572
 10
-19.1514273679
 20
11.8705494478
 10
-19.2571213815
 20
11.7376709878
 10
-19.3495957163
 20
11.594964266
 10
-19.4263933918
 20
11.4459607413
 10
-19.4853089536
 20
11.2937763388
 10
-19.5236805441
 20
11.1414202854
 10
-19.5380375698
 20
11.0116132519
  0
LWPOLYLINE
  5
234
100
AcDbEntity
  8
RACCORDO
100
AcDbPolyline
 62
250
  6
CONTINUOUS
 90
25
 70
0
 10
-11.1391063899
 20
18.5011973241
 10
-11.1621497711
 20
18.4802662933
 10
-11.1829929105
 20
18.4591902333
 10
-11.2016358083
 20
18.4379691442
 10
-11.2179477502
 20
18.4166184812
 10
-11.2320594503
 20
18.3951227891
 10
-11.2443630514
 20
18.3734357022
 10
-11.2549527941
 20
18.3515415225
 10
-11.2637344376
 20
18.3294559481
 10
-11.2708174032
 20
18.3071797068
 10
-11.2762456003
 20
18.2846827953
 10
-11.2799751194
 20
18.261995217
 10
-11.2819836527
 20
18.2392077094
 10
-11.2822794898
 20
18.2162967417
 10
-11.2808543412
 20
18.1932858448
 10
-11.2776610302
 20
18.1703363486
 10
-11.2726803948
 20
18.1474205042
 10
-11.2659315971
 20
18.1245660605
 10
-11.2574249463
 20
18.1020175943
 10
-11.2471240937
 20
18.0797673669
 10
-11.235065388
 20
18.057823117
 10
-11.2213681857
 20
18.0364526371
 10
-11.2060119766
 20
18.0156770862
 10
-11.1890172708
 20
17.9954753053
 10
-11.1705649551
 20
17.9760516103
  0
LINE
  5
235
100
AcDbEntity
  8
RACCORDO
100
AcDbLine
 62
7
  6
CONTINUOUS
 10
-11.2869855464
 20
18.5263115281
 11
-11.3472464279
 21
18.4720408521
  0
LINE
  5
236
100
AcDbEntity
  8
RACCORDO
100
AcDbLine
 62
7
  6
CONTINUOUS
 10
-19.0211538747
 20
12.0024757763
 11
-16.7411589806
 21
14.0486261817
  0
LINE
  5
237
100
AcDbEntity
  8
RACCORDO
100
AcDbLine
 62
250
  6
CONTINUOUS
 10
-18.8848733388
 20
11.9688002894
 11
-16.6324727132
 21
13.9901865939
  0
LINE
  5
238
100
AcDbEntity
  8
RACCORDO
100
AcDbLine
 62
250
  6
CONTINUOUS
 10
-19.0211538747
 20
12.0024757763
 11
-19.0207633997
 21
12.0028209815
  0
LINE
  5
239
100
AcDbEntity
  8
0
100
AcDbLine
 62
7
  6
CONTINUOUS
 10
-8.9827394794
 20
19.6357810715
 11
-8.6191713467
 21
19.8928625635
  0
LINE
  5
23A
100
AcDbEntity
  8
DRAFT
100
AcDbLine
 62
7
  6
CONTINUOUS
 10
-11.8111666041
 20
18.5567839877
 11
-11.926381452
 21
18.476329104
  0
LINE
  5
23B
100
AcDbEntity
  8
RACCORDO
100
AcDbLine
 62
7
  6
CONTINUOUS
 10
-10.293260387
 20
18.9979892852
 11
-4.2272039114
 21
23.1913836662
  0
LINE
  5
23C
100
AcDbEntity
  8
RACCORDO
100
AcDbLine
 62
250
  6
CONTINUOUS
 10
-10.2744676398
 20
19.0068726937
 11
-4.2084957457
 21
23.2002086045
  0
LWPOLYLINE
  5
23D
100
AcDbEntity
  8
0
100
AcDbPolyline
 62
7
  6
CONTINUOUS
 90
10
 70
0
 10
-8.6191713467
 20
19.8928625635
 10
-8.6018620454
 20
19.9047975065
 10
-8.5846157289
 20
19.9160886527
 10
-8.5674323971
 20
19.9267360021
 10
-8.5502912852
 20
19.9367509489
 10
-8.533213158
 20
19.9461220988
 10
-8.5162603102
 20
19.9548152694
 10
-8.4994535068
 20
19.9628190666
 10
-8.4827719828
 20
19.9701448845
 10
-8.4662157382
 20
19.976792723
  0
LINE
  5
23E
100
AcDbEntity
  8
ASSI
100
AcDbLine
 62
7
  6
CONTINUOUS
 10
-11.7553275201
 20
18.5731388767
 11
-5.6869697406
 21
22.6127807422
  0
LINE
  5
23F
100
AcDbEntity
  8
ASSI
100
AcDbLine
 62
250
  6
CONTINUOUS
 10
-8.9895830416
 20
20.0342339014
 11
-4.6675604851
 21
22.9113588003
  0
LWPOLYLINE
  5
240
100
AcDbEntity
  8
RACCORDO
100
AcDbPolyline
 62
250
  6
CONTINUOUS
 90
3
 70
0
 10
-3.0079910244
 20
23.471217517
 10
-3.0303519552
 20
23.4563708169
 10
-3.1089779218
 20
23.4030199744
  0
LINE
  5
241
100
AcDbEntity
  8
ASSI
100
AcDbLine
 62
250
  6
CONTINUOUS
 10
-10.7958371657
 20
18.8541670951
 11
-8.9895830416
 21
20.0342339014
  0
LINE
  5
242
100
AcDbEntity
  8
ASSI
100
AcDbLine
 62
250
  6
CONTINUOUS
 10
-10.5325632012
 20
18.9312782539
 11
-8.8929742006
 21
20.0024589532
  0
LINE
  5
243
100
AcDbEntity
  8
RACCORDO
100
AcDbLine
 62
250
  6
CONTINUOUS
 10
-2.953327357
 20
23.5067857792
 11
-3.0079910244
 21
23.471217517
  0
LWPOLYLINE
  5
244
100
AcDbEntity
  8
RACCORDO
100
AcDbPolyline
 62
250
  6
CONTINUOUS
 90
3
 70
0
 10
-4.2084957457
 20
23.2002086045
 10
-4.1826279352
 20
23.216549075
 10
-4.1561171741
 20
23.2304227984
  0
LWPOLYLINE
  5
245
100
AcDbEntity
  8
RACCORDO
100
AcDbPolyline
 62
7
  6
CONTINUOUS
 90
7
 70
0
 10
-11.286941438
 20
18.5262507034
 10
-11.2750809198
 20
18.5335352281
 10
-11.2529690844
 20
18.5401064839
 10
-11.2281330383
 20
18.5402222127
 10
-11.2011816995
 20
18.5336694435
 10
-11.1715061501
 20
18.5206611473
 10
-11.1391063899
 20
18.5011973241
  0
LWPOLYLINE
  5
246
100
AcDbEntity
  8
ASSI
100
AcDbPolyline
 62
250
  6
CONTINUOUS
 90
4
 70
0
 10
-4.6675660255
 20
22.9113571775
 10
-4.6368039999
 20
22.9298642714
 10
-4.6049298126
 20
22.9450627878
 10
-4.5699232766
 20
22.9574992953
  0
LWPOLYLINE
  5
247
100
AcDbEntity
  8
RACCORDO
100
AcDbPolyline
 62
250
  6
CONTINUOUS
 90
6
 70
0
 10
-16.8645108185
 20
16.7753193668
 10
-16.8537307999
 20
16.7816713849
 10
-16.8315822757
 20
16.787626886
 10
-16.8061302259
 20
16.7869469251
 10
-16.7783685776
 20
16.7799122185
 10
-16.7491109748
 20
16.7669556143
  0
LWPOLYLINE
  5
248
100
AcDbEntity
  8
RACCORDO
100
AcDbPolyline
 62
250
  6
CONTINUOUS
 90
3
 70
0
 10
-4.2272039114
 20
23.1913836662
 10
-4.2188640335
 20
23.1962405202
 10
-4.2084957454
 20
23.2002086047
  0
LWPOLYLINE
  5
249
100
AcDbEntity
  8
RACCORDO
100
AcDbPolyline
 62
250
  6
CONTINUOUS
 90
3
 70
0
 10
-4.1561171741
 20
23.2304227984
 10
-4.1291603598
 20
23.2419236148
 10
-4.100063865
 20
23.2517140173
  0
LINE
  5
24A
100
AcDbEntity
  8
RACCORDO
100
AcDbLine
 62
7
  6
CONTINUOUS
 10
-3.5318775387
 20
22.1995842159
 11
-2.4727502157
 21
22.5630095083
  0
LWPOLYLINE
  5
24B
100
AcDbEntity
  8
ASSI
100
AcDbPolyline
 62
7
  6
CONTINUOUS
 90
4
 70
0
 10
-5.5821721614
 20
22.6609338213
 10
-5.603076415
 20
22.6541488832
 10
-5.647934753
 20
22.635158226
 10
-5.6895688469
 20
22.6110505444
  0
LWPOLYLINE
  5
24C
100
AcDbEntity
  8
RACCORDO
100
AcDbPolyline
 62
7
  6
CONTINUOUS
 90
7
 70
0
 10
-2.4727502157
 20
22.5630095083
 10
-2.4403552572
 20
22.5727226324
 10
-2.4094402941
 20
22.5797958327
 10
-2.3800053266
 20
22.5842291089
 10
-2.3520503546
 20
22.5860224611
 10
-2.3255753781
 20
22.5851758894
 10
-2.3005803971
 20
22.5816893938
  0
LINE
  5
24D
100
AcDbEntity
  8
ASSI
100
AcDbLine
 62
250
  6
CONTINUOUS
 10
-4.6675604851
 20
22.9113588003
 11
-5.6869697406
 21
22.6127807422
  0
LWPOLYLINE
  5
24E
100
AcDbEntity
  8
RACCORDO
100
AcDbPolyline
 62
250
  6
CONTINUOUS
 90
3
 70
0
 10
-3.891581584
 20
-23.6217673648
 10
-3.8436175978
 20
-23.6101024299
 10
-3.7946603469
 20
-23.5921525412
  0
LINE
  5
24F
100
AcDbEntity
  8
RACCORDO
100
AcDbLine
 62
250
  6
CONTINUOUS
 10
-1.8891126165
 20
-25.2933766425
 11
-1.9210615584
 21
-25.2742847935
  0
LWPOLYLINE
  5
250
100
AcDbEntity
  8
RACCORDO
100
AcDbPolyline
 62
7
  6
CONTINUOUS
 90
7
 70
0
 10
-4.4138050946
 20
-23.6647385097
 10
-4.3649225109
 20
-23.6957640507
 10
-4.2451140196
 20
-23.7405472318
 10
-4.111920985
 20
-23.7521841883
 10
-3.9743606986
 20
-23.7306939861
 10
-3.835850748
 20
-23.6791775601
 10
-3.8038685334
 20
-23.6632486598
  0
LINE
  5
251
100
AcDbEntity
  8
ASSI
100
AcDbLine
 62
7
  6
CONTINUOUS
 10
-19.3364603637
 20
-13.1129390909
 11
-4.4081721228
 21
-23.6688329376
  0
LINE
  5
252
100
AcDbEntity
  8
RACCORDO
100
AcDbLine
 62
7
  6
CONTINUOUS
 10
-4.1589009693
 20
-23.748079589
 11
-1.8886224304
 21
-25.3534089391
  0
LINE
  5
253
100
AcDbEntity
  8
RACCORDO
100
AcDbLine
 62
250
  6
CONTINUOUS
 10
-4.0805645735
 20
-23.7472855679
 11
-1.9210615584
 21
-25.2742847939
  0
LINE
  5
254
100
AcDbEntity
  8
RACCORDO
100
AcDbLine
 62
250
  6
CONTINUOUS
 10
-19.4648289999
 20
-12.8243430784
 11
-4.5382235589
 21
-23.3792428125
  0
LINE
  5
255
100
AcDbEntity
  8
RACCORDO
100
AcDbLine
 62
250
  6
CONTINUOUS
 10
-4.4136329791
 20
-23.66486137
 11
-4.4081731492
 21
-23.6688322118
  0
LWPOLYLINE
  5
256
100
AcDbEntity
  8
RACCORDO
100
AcDbPolyline
 62
250
  6
CONTINUOUS
 90
7
 70
0
 10
-19.3364604084
 20
-13.1129390593
 10
-19.3668077492
 20
-13.0876257611
 10
-19.4014114562
 20
-13.0460113313
 10
-19.4280667832
 20
-12.9976727649
 10
-19.4472034567
 20
-12.9437776897
 10
-19.4592681737
 20
-12.8856203082
 10
-19.4648289999
 20
-12.8243430784
  0
LWPOLYLINE
  5
257
100
AcDbEntity
  8
RACCORDO
100
AcDbPolyline
 62
250
  6
CONTINUOUS
 90
6
 70
0
 10
-19.5379732668
 20
-12.7028801299
 10
-19.5370400972
 20
-12.7140045786
 10
-19.5293561436
 20
-12.7448531591
 10
-19.5144251648
 20
-12.7741336453
 10
-19.4926958206
 20
-12.8009661898
 10
-19.4648210547
 20
-12.8245445037
  0
LWPOLYLINE
  5
258
100
AcDbEntity
  8
RACCORDO
100
AcDbPolyline
 62
7
  6
CONTINUOUS
 90
9
 70
0
 10
-19.5379697421
 20
-12.7028799651
 10
-19.5338169606
 20
-12.7561277626
 10
-19.5223064792
 20
-12.8234809928
 10
-19.5040108351
 20
-12.8866668557
 10
-19.4788809113
 20
-12.9456212547
 10
-19.4471695761
 20
-12.9996456467
 10
-19.4098486268
 20
-13.0474436626
 10
-19.3679395016
 20
-13.0884356955
 10
-19.3352689019
 20
-13.1137701428
  0
LINE
  5
259
100
AcDbEntity
  8
RACCORDO
100
AcDbLine
 62
7
  6
CONTINUOUS
 10
-19.5379795131
 20
-12.7027272196
 11
-19.5379732668
 21
-12.7028801299
  0
LWPOLYLINE
  5
25A
100
AcDbEntity
  8
RACCORDO
100
AcDbPolyline
 62
250
  6
CONTINUOUS
 90
10
 70
0
 10
-19.4648292296
 20
-12.8243429601
 10
-19.5564196382
 20
-10.2569081509
 10
-19.6251196203
 20
-7.6722704954
 10
-19.6709232419
 20
-5.0706282863
 10
-19.6938263767
 20
-2.4521734729
 10
-19.6938264761
 20
0.1828855035
 10
-19.6709232418
 20
2.8343232493
 10
-19.6251186199
 20
5.5019281342
 10
-19.5564161271
 20
8.1855027833
 10
-19.4648210916
 20
10.8848409085
  0
LWPOLYLINE
  5
25B
100
AcDbEntity
  8
RACCORDO
100
AcDbPolyline
 62
7
  6
CONTINUOUS
 90
10
 70
0
 10
-19.5380010727
 20
11.0122789856
 10
-19.6239174579
 20
8.5018014498
 10
-19.6954906884
 20
5.7596224513
 10
-19.7431784646
 20
3.0340532433
 10
-19.7669745715
 20
0.3253423411
 10
-19.7668774916
 20
-2.3663059343
 10
-19.7428866371
 20
-5.0407041922
 10
-19.6950022456
 20
-7.6976501846
 10
-19.6232292615
 20
-10.336904213
 10
-19.5379795131
 20
-12.7027272196
  0
LWPOLYLINE
  5
25C
100
AcDbEntity
  8
RACCORDO
100
AcDbPolyline
 62
250
  6
CONTINUOUS
 90
4
 70
0
 10
-19.4648210915
 20
10.8848409084
 10
-19.4545267854
 20
10.9881983405
 10
-19.432313875
 20
11.0946538866
 10
-19.3998163443
 20
11.2017812636
  0
LWPOLYLINE
  5
25D
100
AcDbEntity
  8
RACCORDO
100
AcDbPolyline
 62
7
  6
CONTINUOUS
 90
6
 70
0
 10
-11.3472464279
 20
18.4720408521
 10
-11.4143764349
 20
18.393673249
 10
-11.467068311
 20
18.308370318
 10
-11.504311831
 20
18.217999224
 10
-11.5255560273
 20
18.1243767662
 10
-11.5308323807
 20
18.0467284357
  0
LWPOLYLINE
  5
25E
100
AcDbEntity
  8
RACCORDO
100
AcDbPolyline
 62
250
  6
CONTINUOUS
 90
10
 70
0
 10
-11.106643235
 20
17.9226533557
 10
-11.1371470285
 20
17.8981616603
 10
-11.1666878689
 20
17.8691269828
 10
-11.1943780933
 20
17.8364217767
 10
-11.2193856473
 20
17.8010287899
 10
-11.2409590869
 20
17.7640115348
 10
-11.258450159
 20
17.7264823306
 10
-11.2713332802
 20
17.6895688802
 10
-11.2792213298
 20
17.6543803836
 10
-11.2818772822
 20
17.6219742085
  0
LWPOLYLINE
  5
25F
100
AcDbEntity
  8
RACCORDO
100
AcDbPolyline
 62
250
  6
CONTINUOUS
 90
10
 70
0
 10
-11.0858240056
 20
17.9079319374
 10
-11.1163274457
 20
17.8834405604
 10
-11.1458680575
 20
17.8544061991
 10
-11.1735581868
 20
17.8217012432
 10
-11.1985657769
 20
17.7863083801
 10
-11.2201393471
 20
17.7492911044
 10
-11.2376305874
 20
17.7117617663
 10
-11.2505138734
 20
17.6748480931
 10
-11.2584020506
 20
17.6396592986
 10
-11.2610580526
 20
17.60725279
  0
LINE
  5
260
100
AcDbEntity
  8
RACCORDO
100
AcDbLine
 62
7
  6
CONTINUOUS
 10
-8.8025462899
 20
18.1012584641
 11
-10.0642444141
 21
17.2027073997
  0
LINE
  5
261
100
AcDbEntity
  8
RACCORDO
100
AcDbLine
 62
250
  6
CONTINUOUS
 10
-3.2743083092
 20
23.4120115827
 11
-3.2950867908
 21
23.3973182526
  0
LINE
  5
262
100
AcDbEntity
  8
RACCORDO
100
AcDbLine
 62
250
  6
CONTINUOUS
 10
-10.2410143783
 20
17.9089955863
 11
-9.3836574695
 21
18.5121661198
  0
LINE
  5
263
100
AcDbEntity
  8
RACCORDO
100
AcDbLine
 62
250
  6
CONTINUOUS
 10
-5.9169074287
 20
20.9511054345
 11
-4.3511833315
 21
22.0526287667
  0
LINE
  5
264
100
AcDbEntity
  8
RACCORDO
100
AcDbLine
 62
250
  6
CONTINUOUS
 10
-10.0641921891
 20
17.6072671232
 11
-9.0815747314
 21
18.2985613673
  0
LINE
  5
265
100
AcDbEntity
  8
RACCORDO
100
AcDbLine
 62
250
  6
CONTINUOUS
 10
-4.5907978555
 20
21.4579273866
 11
-4.1744133673
 21
21.7508635621
  0
LINE
  5
266
100
AcDbEntity
  8
RACCORDO
100
AcDbLine
 62
250
  6
CONTINUOUS
 10
-4.2062945655
 20
22.153825631
 11
-2.8262825387
 21
23.1175983107
  0
LINE
  5
267
100
AcDbEntity
  8
RACCORDO
100
AcDbLine
 62
250
  6
CONTINUOUS
 10
-3.5318775387
 20
22.1995842159
 11
-2.6510484915
 21
22.8147375296
  0
LINE
  5
268
100
AcDbEntity
  8
RACCORDO
100
AcDbLine
 62
250
  6
CONTINUOUS
 10
-3.2950867908
 20
23.3973182526
 11
-4.8239583061
 21
22.3373246048
  0
LINE
  5
269
100
AcDbEntity
  8
RACCORDO
100
AcDbLine
 62
250
  6
CONTINUOUS
 10
-3.1387352245
 20
23.3825440073
 11
-4.7005112902
 21
22.2996409351
  0
LINE
  5
26A
100
AcDbEntity
  8
RACCORDO
100
AcDbLine
 62
250
  6
CONTINUOUS
 10
-3.1089779218
 20
23.4030199744
 11
-3.1387352245
 21
23.3825440073
  0
LINE
  5
26B
100
AcDbEntity
  8
RACCORDO
100
AcDbLine
 62
250
  6
CONTINUOUS
 10
-4.8239583061
 20
22.3373246048
 11
-8.0068469634
 21
20.152357536
  0
LINE
  5
26C
100
AcDbEntity
  8
RACCORDO
100
AcDbLine
 62
250
  6
CONTINUOUS
 10
-9.3337726341
 20
19.2414589136
 11
-10.7809989669
 21
18.2479771369
  0
LINE
  5
26D
100
AcDbEntity
  8
RACCORDO
100
AcDbLine
 62
250
  6
CONTINUOUS
 10
-4.7004732125
 20
22.2996140101
 11
-7.6043315126
 21
20.3061937428
  0
LINE
  5
26E
100
AcDbEntity
  8
RACCORDO
100
AcDbLine
 62
250
  6
CONTINUOUS
 10
-9.4214193696
 20
19.0588120226
 11
-10.6931103664
 21
18.1858305115
  0
LWPOLYLINE
  5
26F
100
AcDbEntity
  8
RACCORDO
100
AcDbPolyline
 62
250
  6
CONTINUOUS
 90
24
 70
0
 10
-2.6510484915
 20
22.8147375296
 10
-2.6300804851
 20
22.8288257614
 10
-2.6091002738
 20
22.8415918383
 10
-2.5881078575
 20
22.8530357605
 10
-2.5670118416
 20
22.8632473146
 10
-2.5459036209
 20
22.8721367139
 10
-2.5250573789
 20
22.8794345982
 10
-2.5044497605
 20
22.8851291271
 10
-2.4841041209
 20
22.8892321411
 10
-2.4643647099
 20
22.8915098012
 10
-2.4452185584
 20
22.8919229592
 10
-2.4266786356
 20
22.8905107633
 10
-2.4091280982
 20
22.8871568201
 10
-2.3925860069
 20
22.8817991495
 10
-2.377033301
 20
22.8744997316
 10
-2.3627959556
 20
22.865328113
 10
-2.3499165696
 20
22.854222034
 10
-2.3383525441
 20
22.8412437544
 10
-2.3283020578
 20
22.8266495996
 10
-2.3198163341
 20
22.8104008622
 10
-2.3128441496
 20
22.7925362496
 10
-2.3074300128
 20
22.7734282091
 10
-2.3035887599
 20
22.7532008898
 10
-2.3013055547
 20
22.7317301425
  0
LWPOLYLINE
  5
270
100
AcDbEntity
  8
RACCORDO
100
AcDbPolyline
 62
250
  6
CONTINUOUS
 90
16
 70
0
 10
-2.8262825387
 20
23.1175983107
 10
-2.7950394293
 20
23.1384961848
 10
-2.7635248914
 20
23.1576963171
 10
-2.7318582617
 20
23.1750542167
 10
-2.7001705748
 20
23.1904251782
 10
-2.668592454
 20
23.2036711987
 10
-2.6372544237
 20
23.2146592183
 10
-2.6062872407
 20
23.2232592419
 10
-2.5758664019
 20
23.2293351904
 10
-2.5461953743
 20
23.2327629134
 10
-2.5174109995
 20
23.2334412535
 10
-2.4897045142
 20
23.2312757689
 10
-2.4633438411
 20
23.226213681
 10
-2.4384679464
 20
23.2182203047
 10
-2.4152311378
 20
23.2072793451
 10
-2.3978977811
 20
23.1963884031
  0
LINE
  5
271
100
AcDbEntity
  8
ASSI
100
AcDbLine
 62
7
  6
CONTINUOUS
 10
-1.8723178497
 20
22.3021359884
 11
2.6543597043
 21
25.3154975637
  0
LINE
  5
272
100
AcDbEntity
  8
ASSI
100
AcDbLine
 62
250
  6
CONTINUOUS
 10
-1.6924665266
 20
22.1749618982
 11
2.9375985193
 21
25.2571474382
  0
LWPOLYLINE
  5
273
100
AcDbEntity
  8
RACCORDO
100
AcDbPolyline
 62
250
  6
CONTINUOUS
 90
7
 70
0
 10
-19.0207633997
 20
12.0028209815
 10
-19.0103911908
 20
12.0091372585
 10
-18.9922002715
 20
12.0126469713
 10
-18.9698236336
 20
12.0102057517
 10
-18.9439398719
 20
12.0018876322
 10
-18.9153339387
 20
11.9879448685
 10
-18.8848733388
 20
11.9688002894
  0
LINE
  5
274
100
AcDbEntity
  8
RACCORDO
100
AcDbLine
 62
250
  6
CONTINUOUS
 10
-1.29531558
 20
21.2455103194
 11
-1.3555504054
 21
21.2157947871
  0
LINE
  5
275
100
AcDbEntity
  8
RACCORDO
100
AcDbLine
 62
250
  6
CONTINUOUS
 10
-1.4263312471
 20
21.5669901202
 11
-1.4734018271
 21
21.5485674845
  0
LINE
  5
276
100
AcDbEntity
  8
RACCORDO
100
AcDbLine
 62
7
  6
CONTINUOUS
 10
-7.080472824
 20
19.3510351487
 11
-5.1302271393
 21
20.0963938619
  0
LINE
  5
277
100
AcDbEntity
  8
RACCORDO
100
AcDbLine
 62
7
  6
CONTINUOUS
 10
-6.9419530623
 20
19.1065771851
 11
-5.2176303442
 21
19.7655910582
  0
LINE
  5
278
100
AcDbEntity
  8
RACCORDO
100
AcDbLine
 62
250
  6
CONTINUOUS
 10
-1.4734018271
 20
21.5485674845
 11
-2.7260702368
 21
21.1071489704
  0
LINE
  5
279
100
AcDbEntity
  8
RACCORDO
100
AcDbLine
 62
250
  6
CONTINUOUS
 10
-1.3555504054
 20
21.2157947871
 11
-2.5799240067
 21
20.7843468703
  0
LWPOLYLINE
  5
27A
100
AcDbEntity
  8
RACCORDO
100
AcDbPolyline
 62
7
  6
CONTINUOUS
 90
25
 70
0
 10
-5.1302271393
 20
20.0963938619
 10
-5.1210550346
 20
20.0995577921
 10
-5.1114027139
 20
20.1022601123
 10
-5.1012701773
 20
20.1045008225
 10
-5.0906100585
 20
20.1062855483
 10
-5.0794697237
 20
20.1076086641
 10
-5.0679912718
 20
20.1084532931
 10
-5.0561703716
 20
20.1088133061
 10
-5.0440113542
 20
20.1086948322
 10
-5.0316693123
 20
20.1080993827
 10
-5.0191419013
 20
20.1070208477
 10
-5.0064314656
 20
20.105465337
 10
-4.9937001314
 20
20.1034526918
 10
-4.980947631
 20
20.1009770562
 10
-4.9681742319
 20
20.0980442862
 10
-4.9555428635
 20
20.0946917901
 10
-4.943055345
 20
20.0909141913
 10
-4.9307098572
 20
20.0867168665
 10
-4.9186638709
 20
20.0821533541
 10
-4.9069212228
 20
20.0772189631
 10
-4.8954780763
 20
20.0719183845
 10
-4.8844803927
 20
20.0663192289
 10
-4.8739768257
 20
20.0604440333
 10
-4.8639187217
 20
20.0542702607
 10
-4.8543060807
 20
20.0477979111
  0
LINE
  5
27B
100
AcDbEntity
  8
RACCORDO
100
AcDbLine
 62
7
  6
CONTINUOUS
 10
-10.2744676398
 20
19.0068726937
 11
-11.8111666041
 21
18.5567839877
  0
LWPOLYLINE
  5
27C
100
AcDbEntity
  8
RACCORDO
100
AcDbPolyline
 62
7
  6
CONTINUOUS
 90
10
 70
0
 10
-1.9210615584
 20
-22.9995669671
 10
-1.8858645194
 20
-23.0197981168
 10
-1.8487412635
 20
-23.035004571
 10
-1.8096917907
 20
-23.0451863297
 10
-1.7674526511
 20
-23.0503472911
 10
-1.7232872947
 20
-23.0504835569
 10
-1.6809860711
 20
-23.0455834326
 10
-1.6418124302
 20
-23.0356430199
 10
-1.6045029222
 20
-23.0206662172
 10
-1.569057547
 20
-23.0006530244
  0
LINE
  5
27D
100
AcDbEntity
  8
RACCORDO
100
AcDbLine
 62
7
  6
CONTINUOUS
 10
-2.1781582198
 20
-22.8177721744
 11
-1.9210615584
 21
-22.9995669671
  0
LINE
  5
27E
100
AcDbEntity
  8
DRAFT
100
AcDbLine
 62
7
  6
CONTINUOUS
 10
-1.7707190881
 20
-22.6058751473
 11
-1.3891820343
 21
-22.8756625854
  0
LWPOLYLINE
  5
27F
100
AcDbEntity
  8
RACCORDO
100
AcDbPolyline
 62
250
  6
CONTINUOUS
 90
46
 70
0
 10
-12.1125316889
 20
-14.9194264131
 10
-12.1935279402
 20
-14.8602968157
 10
-12.273430765
 20
-14.7988697537
 10
-12.3522399995
 20
-14.7351451062
 10
-12.4299431932
 20
-14.6690649293
 10
-12.5065521546
 20
-14.6006866948
 10
-12.5821029851
 20
-14.5301833158
 10
-12.6565922931
 20
-14.4576092282
 10
-12.7300223256
 20
-14.3829091544
 10
-12.8024375481
 20
-14.3060913686
 10
-12.873843293
 20
-14.2272073954
 10
-12.9442325818
 20
-14.1462045003
 10
-13.01363125
 20
-14.0629344487
 10
-13.0819021598
 20
-13.9776975719
 10
-13.14918022
 20
-13.8901919015
 10
-13.2158988285
 20
-13.7993653809
 10
-13.2822574361
 20
-13.7051538534
 10
-13.348052973
 20
-13.6076188198
 10
-13.4131139677
 20
-13.5058959115
 10
-13.4777861407
 20
-13.3995819752
 10
-13.5417178157
 20
-13.2890757976
 10
-13.6036901602
 20
-13.174714992
 10
-13.6638299346
 20
-13.0563326538
 10
-13.7220021136
 20
-12.9340896367
 10
-13.7765941138
 20
-12.8088144081
 10
-13.827732216
 20
-12.6803361237
 10
-13.8752794581
 20
-12.5488178219
 10
-13.9172275463
 20
-12.4155881788
 10
-13.9537500924
 20
-12.280317426
 10
-13.9846605082
 20
-12.1433258702
 10
-14.0074102338
 20
-12.0069173312
 10
-14.0221565817
 20
-11.8706743979
 10
-14.0287285291
 20
-11.7350045151
 10
-14.0240871761
 20
-11.6034503737
 10
-14.0083005151
 20
-11.4754392552
 10
-13.9812891977
 20
-11.3515356632
 10
-13.9397995171
 20
-11.2369926495
 10
-13.8838498117
 20
-11.1312613167
 10
-13.8134188295
 20
-11.0348885158
 10
-13.7252049533
 20
-10.954779269
 10
-13.618273527
 20
-10.890386619
 10
-13.4935693045
 20
-10.8422649216
 10
-13.3506282454
 20
-10.8189845603
 10
-13.1861160718
 20
-10.8226426468
 10
-13.003396782
 20
-10.8511636463
 10
-12.8120725903
 20
-10.9068726097
  0
LWPOLYLINE
  5
280
100
AcDbEntity
  8
RACCORDO
100
AcDbPolyline
 62
250
  6
CONTINUOUS
 90
6
 70
0
 10
-19.5380375698
 20
11.0116132519
 10
-19.5370543482
 20
10.9920706052
 10
-19.5293714756
 20
10.9626177708
 10
-19.5144408677
 20
10.9343713427
 10
-19.4927112093
 20
10.9081801639
 10
-19.4648355064
 20
10.8848313148
  0
LINE
  5
281
100
AcDbEntity
  8
RACCORDO
100
AcDbLine
 62
7
  6
CONTINUOUS
 10
-16.9661688424
 20
14.2993686945
 11
-16.9661688424
 21
16.5740865212
  0
LINE
  5
282
100
AcDbEntity
  8
RACCORDO
100
AcDbLine
 62
250
  6
CONTINUOUS
 10
-16.8929455377
 20
14.1743686945
 11
-16.8929455377
 21
16.4490865212
  0
LWPOLYLINE
  5
283
100
AcDbEntity
  8
RACCORDO
100
AcDbPolyline
 62
250
  6
CONTINUOUS
 90
16
 70
0
 10
-16.8929455377
 20
16.4490865212
 10
-16.8923087321
 20
16.4645278861
 10
-16.8903307004
 20
16.4812281224
 10
-16.8869165389
 20
16.4991234257
 10
-16.8819887766
 20
16.518102396
 10
-16.8754746748
 20
16.5380677091
 10
-16.8672936723
 20
16.5589390922
 10
-16.857400391
 20
16.5805403896
 10
-16.8457753211
 20
16.6026591462
 10
-16.8323881895
 20
16.6251111205
 10
-16.8172720856
 20
16.6476071404
 10
-16.8004984204
 20
16.6698223877
 10
-16.7821313241
 20
16.6914528215
 10
-16.7623095618
 20
16.7121087387
 10
-16.7412610005
 20
16.7313303355
 10
-16.7192540212
 20
16.7486547418
  0
LWPOLYLINE
  5
284
100
AcDbEntity
  8
RACCORDO
100
AcDbPolyline
 62
250
  6
CONTINUOUS
 90
9
 70
0
 10
-3.165939621
 20
23.5055662237
 10
-3.1736938675
 20
23.4964987763
 10
-3.1831178042
 20
23.4866545118
 10
-3.194211431
 20
23.4760334301
 10
-3.2070025217
 20
23.4645864768
 10
-3.2214633026
 20
23.4523627063
 10
-3.2375104521
 20
23.4395092822
 10
-3.2551161963
 20
23.4260752592
 10
-3.2743083092
 20
23.4120115827
  0
LINE
  5
285
100
AcDbEntity
  8
RACCORDO
100
AcDbLine
 62
250
  6
CONTINUOUS
 10
-7.9732083985
 20
15.6810136307
 11
-7.7549732352
 21
15.8545946809
  0
LWPOLYLINE
  5
286
100
AcDbEntity
  8
RACCORDO
100
AcDbPolyline
 62
7
  6
CONTINUOUS
 90
3
 70
0
 10
-7.9324877196
 20
15.6522197625
 10
-7.8463688932
 20
15.7194673538
 10
-7.7498792573
 20
15.7927682602
  0
LINE
  5
287
100
AcDbEntity
  8
RACCORDO
100
AcDbLine
 62
7
  6
CONTINUOUS
 10
-8.5112138766
 20
16.0614409525
 11
-7.814341088
 21
16.5751517547
  0
LINE
  5
288
100
AcDbEntity
  8
RACCORDO
100
AcDbLine
 62
7
  6
CONTINUOUS
 10
-5.6344915832
 20
18.1820623071
 11
-4.2325375088
 21
19.2155349351
  0
LWPOLYLINE
  5
289
100
AcDbEntity
  8
RACCORDO
100
AcDbPolyline
 62
7
  6
CONTINUOUS
 90
3
 70
0
 10
-5.0540830447
 20
17.7922750745
 10
-4.2941932219
 20
18.347198468
 10
-3.6625304591
 20
18.8124790849
  0
LWPOLYLINE
  5
28A
100
AcDbEntity
  8
RACCORDO
100
AcDbPolyline
 62
250
  6
CONTINUOUS
 90
4
 70
0
 10
-5.131435332
 20
17.8263478205
 10
-4.6963808608
 20
18.1439604088
 10
-4.1839679958
 20
18.5212474605
 10
-3.729067305
 20
18.8595277398
  0
LINE
  5
28B
100
AcDbEntity
  8
RACCORDO
100
AcDbLine
 62
250
  6
CONTINUOUS
 10
-2.7265844111
 20
21.1075125466
 11
-2.8702154243
 21
21.0054263168
  0
LINE
  5
28C
100
AcDbEntity
  8
RACCORDO
100
AcDbLine
 62
250
  6
CONTINUOUS
 10
-2.5799240067
 20
20.7843468703
 11
-2.6934454601
 21
20.7036611122
  0
LINE
  5
28D
100
AcDbEntity
  8
ASSI
100
AcDbLine
 62
7
  6
CONTINUOUS
 10
-7.7806579513
 20
15.7159325905
 11
-7.9278487373
 21
15.6558422038
  0
LINE
  5
28E
100
AcDbEntity
  8
RACCORDO
100
AcDbLine
 62
7
  6
CONTINUOUS
 10
-2.7967747614
 20
18.4463938619
 11
-4.7470204461
 21
17.7010351487
  0
LWPOLYLINE
  5
28F
100
AcDbEntity
  8
RACCORDO
100
AcDbPolyline
 62
7
  6
CONTINUOUS
 90
25
 70
0
 10
-4.7470204461
 20
17.7010351487
 10
-4.7561925508
 20
17.6978712186
 10
-4.7658448714
 20
17.6951688984
 10
-4.775977408
 20
17.6929281882
 10
-4.7866375269
 20
17.6911434624
 10
-4.7977778617
 20
17.6898203465
 10
-4.8092563136
 20
17.6889757175
 10
-4.8210772138
 20
17.6886157046
 10
-4.8332362311
 20
17.6887341784
 10
-4.8455782731
 20
17.6893296279
 10
-4.8581056841
 20
17.690408163
 10
-4.8708161197
 20
17.6919636736
 10
-4.8835474539
 20
17.6939763188
 10
-4.8962999544
 20
17.6964519544
 10
-4.9090733534
 20
17.6993847245
 10
-4.9217047219
 20
17.7027372206
 10
-4.9341922403
 20
17.7065148193
 10
-4.9465377282
 20
17.7107121441
 10
-4.9585837145
 20
17.7152756566
 10
-4.9703263626
 20
17.7202100475
 10
-4.9817695091
 20
17.7255106261
 10
-4.9927671927
 20
17.7311097817
 10
-5.0032707596
 20
17.7369849774
 10
-5.0133288636
 20
17.74315875
 10
-5.0229415047
 20
17.7496310995
  0
LINE
  5
290
100
AcDbEntity
  8
ASSI
100
AcDbLine
 62
7
  6
CONTINUOUS
 10
-11.3869025354
 20
-13.4606222103
 11
-11.9525879603
 21
-13.0606222103
  0
LWPOLYLINE
  5
291
100
AcDbEntity
  8
RACCORDO
100
AcDbPolyline
 62
250
  6
CONTINUOUS
 90
40
 70
0
 10
-11.8273364091
 20
-14.4268427376
 10
-11.8959107922
 20
-14.3769503418
 10
-11.9637889668
 20
-14.3247748531
 10
-12.0308521432
 20
-14.2704930385
 10
-12.0968744964
 20
-14.2143846516
 10
-12.1618687944
 20
-14.1565266263
 10
-12.2260769974
 20
-14.0967508317
 10
-12.2893964426
 20
-14.0351909495
 10
-12.3517339134
 20
-13.9719804701
 10
-12.4133295973
 20
-13.9068818594
 10
-12.4740651502
 20
-13.840014058
 10
-12.5338516517
 20
-13.7714732667
 10
-12.5929404637
 20
-13.7009308451
 10
-12.6510255521
 20
-13.6287023639
 10
-12.7081696232
 20
-13.5546674533
 10
-12.7650851377
 20
-13.4777650339
 10
-12.8215997988
 20
-13.3980007057
 10
-12.8774537393
 20
-13.3155120938
 10
-12.9330668507
 20
-13.2293687036
 10
-12.9882639084
 20
-13.1394087113
 10
-13.0425156374
 20
-13.0460258162
 10
-13.0955766484
 20
-12.9491356002
 10
-13.1470139933
 20
-12.848966613
 10
-13.1963700072
 20
-12.7457773481
 10
-13.2432684445
 20
-12.6395997044
 10
-13.2871465169
 20
-12.5308885424
 10
-13.3274652573
 20
-12.4200220198
 10
-13.363751
 20
-12.3070333406
 10
-13.3953288105
 20
-12.1925602464
 10
-13.4215026564
 20
-12.0772842274
 10
-13.4415888745
 20
-11.9614895982
 10
-13.4547848034
 20
-11.8461591569
 10
-13.4602836683
 20
-11.7322821775
 10
-13.4571848925
 20
-11.6204343165
 10
-13.4445873485
 20
-11.5119699218
 10
-13.4216086166
 20
-11.4083649661
 10
-13.3871755843
 20
-11.3107582779
 10
-13.3405049802
 20
-11.2211234829
 10
-13.2807653418
 20
-11.1412140685
 10
-13.2010130619
 20
-11.0682982078
  0
LWPOLYLINE
  5
292
100
AcDbEntity
  8
DRAFT
100
AcDbPolyline
 62
7
  6
CONTINUOUS
 90
3
 70
0
 10
-11.174770501
 20
-13.9711038153
 10
-11.4233897198
 20
-13.7731065689
 10
-11.6557876558
 20
-13.5551445532
  0
LWPOLYLINE
  5
293
100
AcDbEntity
  8
DRAFT
100
AcDbPolyline
 62
7
  6
CONTINUOUS
 90
4
 70
0
 10
-11.6557876558
 20
-13.5551445532
 10
-11.8719643091
 20
-13.3172177682
 10
-12.0756943215
 20
-13.0532545139
 10
-12.2632030512
 20
-12.7693264902
  0
LWPOLYLINE
  5
294
100
AcDbEntity
  8
DRAFT
100
AcDbPolyline
 62
7
  6
CONTINUOUS
 90
8
 70
0
 10
-12.2632030512
 20
-12.7693264902
 10
-12.4231665726
 20
-12.4836487974
 10
-12.5538616707
 20
-12.1962856758
 10
-12.6570115605
 20
-11.9071728852
 10
-12.7264619625
 20
-11.6343328045
 10
-12.7601614503
 20
-11.3787352759
 10
-12.7601614503
 20
-11.1394104572
 10
-12.7463589547
 20
-11.0542435641
  0
LWPOLYLINE
  5
295
100
AcDbEntity
  8
RACCORDO
100
AcDbPolyline
 62
250
  6
CONTINUOUS
 90
6
 70
0
 10
-16.9661649448
 20
16.5730994073
 10
-16.9648518524
 20
16.5559652556
 10
-16.9566488634
 20
16.5257679972
 10
-16.9414577344
 20
16.4974545593
 10
-16.9199454894
 20
16.4716778345
 10
-16.8929455377
 20
16.4490865209
  0
LWPOLYLINE
  5
296
100
AcDbEntity
  8
RACCORDO
100
AcDbPolyline
 62
250
  6
CONTINUOUS
 90
4
 70
0
 10
-1.1467468147
 20
21.366686769
 10
-1.1897171872
 20
21.3211137988
 10
-1.2396470483
 20
21.2806495194
 10
-1.29531558
 20
21.2455103194
  0
LINE
  5
297
100
AcDbEntity
  8
RACCORDO
100
AcDbLine
 62
7
  6
CONTINUOUS
 10
-3.0499641712
 20
16.5010351487
 11
-1.0997184865
 21
17.2463938619
  0
LINE
  5
298
100
AcDbEntity
  8
RACCORDO
100
AcDbLine
 62
7
  6
CONTINUOUS
 10
-2.9114444095
 20
16.2565771851
 11
-1.1871216914
 21
16.9155910582
  0
LWPOLYLINE
  5
299
100
AcDbEntity
  8
RACCORDO
100
AcDbPolyline
 62
7
  6
CONTINUOUS
 90
25
 70
0
 10
-1.0997184865
 20
17.2463938619
 10
-1.0905463818
 20
17.2495577921
 10
-1.0808940612
 20
17.2522601123
 10
-1.0707615246
 20
17.2545008225
 10
-1.0601014057
 20
17.2562855483
 10
-1.0489610709
 20
17.2576086641
 10
-1.037482619
 20
17.2584532931
 10
-1.0256617188
 20
17.2588133061
 10
-1.0135027015
 20
17.2586948322
 10
-1.0011606595
 20
17.2580993827
 10
-0.9886332485
 20
17.2570208477
 10
-0.9759228129
 20
17.255465337
 10
-0.9631914787
 20
17.2534526918
 10
-0.9504389782
 20
17.2509770562
 10
-0.9376655792
 20
17.2480442862
 10
-0.9250342107
 20
17.2446917901
 10
-0.9125466923
 20
17.2409141913
 10
-0.9002012044
 20
17.2367168665
 10
-0.8881552181
 20
17.2321533541
 10
-0.87641257
 20
17.2272189631
 10
-0.8649694235
 20
17.2219183845
 10
-0.8539717399
 20
17.2163192289
 10
-0.843468173
 20
17.2104440333
 10
-0.833410069
 20
17.2042702607
 10
-0.8237974279
 20
17.1977979111
  0
LINE
  5
29A
100
AcDbEntity
  8
RACCORDO
100
AcDbLine
 62
7
  6
CONTINUOUS
 10
4.570212052
 20
17.2045761838
 11
3.3037318393
 21
16.7815078293
  0
LINE
  5
29B
100
AcDbEntity
  8
RACCORDO
100
AcDbLine
 62
250
  6
CONTINUOUS
 10
4.7098832177
 20
17.1763246994
 11
3.435158583
 21
16.7505022915
  0
LINE
  5
29C
100
AcDbEntity
  8
RACCORDO
100
AcDbLine
 62
250
  6
CONTINUOUS
 10
4.7421712748
 20
17.1863973896
 11
4.7098832177
 21
17.1763246994
  0
LWPOLYLINE
  5
29D
100
AcDbEntity
  8
DRAFT
100
AcDbPolyline
 62
7
  6
CONTINUOUS
 90
5
 70
0
 10
-10.4125842204
 20
-14.3109042983
 10
-10.477576693
 20
-14.3031987071
 10
-10.6937533463
 20
-14.2354055372
 10
-10.9261512823
 20
-14.1247072399
 10
-11.174770501
 20
-13.9711038153
  0
LINE
  5
29E
100
AcDbEntity
  8
RACCORDO
100
AcDbLine
 62
250
  6
CONTINUOUS
 10
-12.8120725903
 20
-10.9068726097
 11
-12.6153581735
 21
-10.9905546433
  0
LWPOLYLINE
  5
29F
100
AcDbEntity
  8
RACCORDO
100
AcDbPolyline
 62
250
  6
CONTINUOUS
 90
3
 70
0
 10
-12.6153581735
 20
-10.9905546433
 10
-12.4100701734
 20
-11.1014473137
 10
-12.1962161744
 20
-11.239556108
  0
LWPOLYLINE
  5
2A0
100
AcDbEntity
  8
RACCORDO
100
AcDbPolyline
 62
250
  6
CONTINUOUS
 90
4
 70
0
 10
-12.1962161744
 20
-11.239556108
 10
-12.1152225129
 20
-11.2987208991
 10
-12.0353719299
 20
-11.3602026787
 10
-11.9566642614
 20
-11.4240013281
  0
LWPOLYLINE
  5
2A1
100
AcDbEntity
  8
RACCORDO
100
AcDbPolyline
 62
7
  6
CONTINUOUS
 90
19
 70
0
 10
-12.1439047524
 20
-11.3619247612
 10
-11.9862268323
 20
-11.4807679937
 10
-11.7728078094
 20
-11.664974181
 10
-11.5600566862
 20
-11.8764376852
 10
-11.353477958
 20
-12.1110904658
 10
-11.1594400958
 20
-12.3623275194
 10
-10.9818102747
 20
-12.6251167825
 10
-10.8239647683
 20
-12.8942208607
 10
-10.6899815786
 20
-13.1616309703
 10
-10.5820104713
 20
-13.4205805455
 10
-10.500230995
 20
-13.667336932
 10
-10.4447787411
 20
-13.8974261354
 10
-10.4151751985
 20
-14.1065388035
 10
-10.4102123788
 20
-14.2893245667
 10
-10.4266077521
 20
-14.4384946317
 10
-10.4573877042
 20
-14.5483031639
 10
-10.4955033517
 20
-14.6237855638
 10
-10.5407875155
 20
-14.6759785882
 10
-10.5661830255
 20
-14.694996297
  0
LWPOLYLINE
  5
2A2
100
AcDbEntity
  8
RACCORDO
100
AcDbPolyline
 62
250
  6
CONTINUOUS
 90
5
 70
0
 10
-11.9566642614
 20
-11.4240013281
 10
-11.8791147518
 20
-11.4901735697
 10
-11.8027075154
 20
-11.5586622173
 10
-11.7273955706
 20
-11.6292962003
 10
-11.6531803555
 20
-11.7020189112
  0
LWPOLYLINE
  5
2A3
100
AcDbEntity
  8
RACCORDO
100
AcDbPolyline
 62
250
  6
CONTINUOUS
 90
24
 70
0
 10
-11.6531803555
 20
-11.7020189112
 10
-11.5800592893
 20
-11.7768861308
 10
-11.5079792685
 20
-11.8538953034
 10
-11.4369330041
 20
-11.9329915638
 10
-11.3669261405
 20
-12.0142285866
 10
-11.2979248083
 20
-12.0977665042
 10
-11.2300587171
 20
-12.1833042357
 10
-11.1631959241
 20
-12.2711412439
 10
-11.0969095672
 20
-12.362338105
 10
-11.0309918376
 20
-12.4569622862
 10
-10.9656469109
 20
-12.5549436859
 10
-10.9010648123
 20
-12.6571357367
 10
-10.8368987044
 20
-12.7639349365
 10
-10.7734894559
 20
-12.8749404554
 10
-10.7120573878
 20
-12.9898088163
 10
-10.6524687805
 20
-13.1087010293
 10
-10.594849073
 20
-13.2314500656
 10
-10.5408062514
 20
-13.357219609
 10
-10.4902040145
 20
-13.4861740751
 10
-10.4431679641
 20
-13.6181412572
 10
-10.4016980965
 20
-13.7517792875
 10
-10.3656094196
 20
-13.8874097229
 10
-10.3350739352
 20
-14.0247015258
 10
-10.3126271743
 20
-14.1613339613
  0
LWPOLYLINE
  5
2A4
100
AcDbEntity
  8
RACCORDO
100
AcDbPolyline
 62
250
  6
CONTINUOUS
 90
5
 70
0
 10
-1.2919002237
 20
21.6771228373
 10
-1.3174302851
 20
21.6441233319
 10
-1.3483454761
 20
21.6147680439
 10
-1.3846457968
 20
21.5890569734
 10
-1.4263312471
 20
21.5669901202
  0
LINE
  5
2A5
100
AcDbEntity
  8
RACCORDO
100
AcDbLine
 62
250
  6
CONTINUOUS
 10
-2.5947175175
 20
13.5825649698
 11
-2.5124433174
 21
13.6407416146
  0
LINE
  5
2A6
100
AcDbEntity
  8
ASSI
100
AcDbLine
 62
250
  6
CONTINUOUS
 10
-0.7095686003
 20
14.9230241412
 11
-0.827591936
 21
14.8404077243
  0
LWPOLYLINE
  5
2A7
100
AcDbEntity
  8
RACCORDO
100
AcDbPolyline
 62
7
  6
CONTINUOUS
 90
17
 70
0
 10
-2.5693121598
 20
13.6339136207
 10
-2.5669638404
 20
13.6354773617
 10
-2.5615103141
 20
13.6384370645
 10
-2.5556257642
 20
13.6407686597
 10
-2.5493771956
 20
13.6424455983
 10
-2.5427604478
 20
13.6434603977
 10
-2.5357796814
 20
13.6438205405
 10
-2.5285143838
 20
13.6435219259
 10
-2.5209613028
 20
13.6425570244
 10
-2.5131236906
 20
13.6409333656
 10
-2.5050907911
 20
13.6386694374
 10
-2.4968603722
 20
13.6357579215
 10
-2.4884346661
 20
13.6322061363
 10
-2.4799096129
 20
13.6280545245
 10
-2.471317193
 20
13.6233165672
 10
-2.4626254261
 20
13.6179787833
 10
-2.4538343122
 20
13.6120411729
  0
LWPOLYLINE
  5
2A8
100
AcDbEntity
  8
RACCORDO
100
AcDbPolyline
 62
7
  6
CONTINUOUS
 90
3
 70
0
 10
3.3037078452
 20
16.7814904201
 10
3.289230012
 20
16.7752848825
 10
3.2798375332
 20
16.7696007234
  0
LINE
  5
2A9
100
AcDbEntity
  8
RACCORDO
100
AcDbLine
 62
7
  6
CONTINUOUS
 10
4.542880557
 20
17.4387922893
 11
3.2079308423
 21
16.9285917493
  0
LINE
  5
2AA
100
AcDbEntity
  8
RACCORDO
100
AcDbLine
 62
7
  6
CONTINUOUS
 10
1.2337338914
 20
15.5963938619
 11
-0.7165117933
 21
14.8510351487
  0
LINE
  5
2AB
100
AcDbEntity
  8
0
100
AcDbLine
 62
7
  6
CONTINUOUS
 10
0.019065636
 20
13.976792723
 11
4.5894830938
 21
15.7235472482
  0
LINE
  5
2AC
100
AcDbEntity
  8
0
100
AcDbLine
 62
7
  6
CONTINUOUS
 10
-0.0683375688
 20
13.6459899194
 11
4.0777759181
 21
15.2305809468
  0
LWPOLYLINE
  5
2AD
100
AcDbEntity
  8
RACCORDO
100
AcDbPolyline
 62
7
  6
CONTINUOUS
 90
25
 70
0
 10
-0.7165117933
 20
14.8510351487
 10
-0.725683898
 20
14.8478712186
 10
-0.7353362187
 20
14.8451688984
 10
-0.7454687553
 20
14.8429281882
 10
-0.7561288741
 20
14.8411434624
 10
-0.7672692089
 20
14.8398203465
 10
-0.7787476608
 20
14.8389757175
 10
-0.7905685611
 20
14.8386157046
 10
-0.8027275784
 20
14.8387341784
 10
-0.8150696203
 20
14.8393296279
 10
-0.8275970313
 20
14.840408163
 10
-0.840307467
 20
14.8419636736
 10
-0.8530388012
 20
14.8439763188
 10
-0.8657913016
 20
14.8464519544
 10
-0.8785647007
 20
14.8493847245
 10
-0.8911960691
 20
14.8527372206
 10
-0.9036835876
 20
14.8565148193
 10
-0.9160290754
 20
14.8607121441
 10
-0.9280750617
 20
14.8652756566
 10
-0.9398177098
 20
14.8702100475
 10
-0.9512608563
 20
14.8755106261
 10
-0.9622585399
 20
14.8811097817
 10
-0.9727621069
 20
14.8869849774
 10
-0.9828202109
 20
14.89315875
 10
-0.9924328519
 20
14.8996310995
  0
LINE
  5
2AE
100
AcDbEntity
  8
RACCORDO
100
AcDbLine
 62
250
  6
CONTINUOUS
 10
-11.9443141196
 20
-7.7910231997
 11
-12.1612723683
 21
-7.6229671987
  0
LINE
  5
2AF
100
AcDbEntity
  8
DRAFT
100
AcDbLine
 62
7
  6
CONTINUOUS
 10
-11.174770501
 20
-7.253589394
 11
-11.4233897198
 21
-7.0555921476
  0
LWPOLYLINE
  5
2B0
100
AcDbEntity
  8
RACCORDO
100
AcDbPolyline
 62
250
  6
CONTINUOUS
 90
40
 70
0
 10
-12.2296195998
 20
-8.2773555143
 10
-12.4879321824
 20
-8.0701173621
 10
-12.7274506748
 20
-7.8533208273
 10
-12.9481640727
 20
-7.626958064
 10
-13.1507750665
 20
-7.3865602405
 10
-13.3345399078
 20
-7.1365669379
 10
-13.4972841617
 20
-6.8903373783
 10
-13.6375127478
 20
-6.6501559336
 10
-13.7566915267
 20
-6.4137174948
 10
-13.8571121761
 20
-6.1875146627
 10
-13.9383481899
 20
-5.972836264
 10
-14.0008179347
 20
-5.7683877771
 10
-14.0481009107
 20
-5.5768013579
 10
-14.0801462356
 20
-5.3988906867
 10
-14.0970126542
 20
-5.2338477404
 10
-14.1024566648
 20
-5.081881016
 10
-14.0966226412
 20
-4.943434655
 10
-14.0793815541
 20
-4.8180754338
 10
-14.0540854859
 20
-4.7046998153
 10
-14.02094924
 20
-4.6034983278
 10
-13.9797745181
 20
-4.5142921373
 10
-13.9332951736
 20
-4.4354246585
 10
-13.8817302503
 20
-4.3669455536
 10
-13.8248751296
 20
-4.3088153516
 10
-13.7648275175
 20
-4.2592432993
 10
-13.7017072943
 20
-4.2181945831
 10
-13.6354057495
 20
-4.1857118907
 10
-13.5676764518
 20
-4.1601198358
 10
-13.4987599939
 20
-4.1413952146
 10
-13.4284240625
 20
-4.1295670573
 10
-13.3577114776
 20
-4.1230373499
 10
-13.2869955916
 20
-4.1216248337
 10
-13.2159084458
 20
-4.1255145583
 10
-13.1443794864
 20
-4.133656982
 10
-13.0724810988
 20
-4.1458327741
 10
-13.0001440019
 20
-4.162263445
 10
-12.9270842042
 20
-4.1825600572
 10
-12.8532706803
 20
-4.2066012086
 10
-12.7787363918
 20
-4.2345096597
 10
-12.7032929209
 20
-4.2662624307
  0
LWPOLYLINE
  5
2B1
100
AcDbEntity
  8
RACCORDO
100
AcDbPolyline
 62
250
  6
CONTINUOUS
 90
24
 70
0
 10
-12.1612723683
 20
-7.6229671987
 10
-12.3663126747
 20
-7.4361799545
 10
-12.5565164517
 20
-7.236641219
 10
-12.7295491685
 20
-7.0302510113
 10
-12.8845141633
 20
-6.8214200327
 10
-13.0216134765
 20
-6.6128173972
 10
-13.1406217723
 20
-6.407818927
 10
-13.2418322471
 20
-6.2092220268
 10
-13.3264196573
 20
-6.0177773027
 10
-13.3950667556
 20
-5.8351102725
 10
-13.4486034578
 20
-5.6627393082
 10
-13.4882759197
 20
-5.5006787389
 10
-13.5150613279
 20
-5.3496025601
 10
-13.5300261085
 20
-5.2100377042
 10
-13.5343170936
 20
-5.081524503
 10
-13.5289421466
 20
-4.9641406107
 10
-13.5149376651
 20
-4.8578550564
 10
-13.4932323653
 20
-4.7619878214
 10
-13.4647230916
 20
-4.6762843902
 10
-13.4303076068
 20
-4.6004434034
 10
-13.3906749693
 20
-4.5337646459
 10
-13.3465707374
 20
-4.4758512094
 10
-13.2987268567
 20
-4.4262757984
 10
-13.2515717287
 20
-4.3872947412
  0
LINE
  5
2B2
100
AcDbEntity
  8
DRAFT
100
AcDbLine
 62
7
  6
CONTINUOUS
 10
-11.4233897198
 20
-7.0555921476
 11
-11.6557876558
 21
-6.8376301319
  0
LWPOLYLINE
  5
2B3
100
AcDbEntity
  8
DRAFT
100
AcDbPolyline
 62
7
  6
CONTINUOUS
 90
8
 70
0
 10
-11.6557876558
 20
-6.8376301319
 10
-11.8719643091
 20
-6.599703347
 10
-12.0756943215
 20
-6.3357400926
 10
-12.2632030512
 20
-6.0518120689
 10
-12.4231665726
 20
-5.7661343761
 10
-12.5538616707
 20
-5.4787712546
 10
-12.6570115605
 20
-5.1896584639
 10
-12.7264619625
 20
-4.9168183832
  0
LWPOLYLINE
  5
2B4
100
AcDbEntity
  8
RACCORDO
100
AcDbPolyline
 62
7
  6
CONTINUOUS
 90
16
 70
0
 10
-12.0784411179
 20
-4.8753815014
 10
-12.010102991
 20
-5.0276833807
 10
-11.935309303
 20
-5.180765262
 10
-11.8543079275
 20
-5.3339845946
 10
-11.7673780062
 20
-5.4867003947
 10
-11.6749322137
 20
-5.6381106339
 10
-11.5773296038
 20
-5.7875817778
 10
-11.4749518457
 20
-5.9344957235
 10
-11.3683117491
 20
-6.078106743
 10
-11.2578509912
 20
-6.2178320689
 10
-11.1440333393
 20
-6.3531050834
 10
-11.0274611077
 20
-6.4832507661
 10
-10.9086354732
 20
-6.60776994
 10
-10.7880767365
 20
-6.7261848308
 10
-10.6664665204
 20
-6.8379157704
 10
-10.5906698067
 20
-6.9028774351
  0
LWPOLYLINE
  5
2B5
100
AcDbEntity
  8
RACCORDO
100
AcDbPolyline
 62
250
  6
CONTINUOUS
 90
29
 70
0
 10
-12.2501432395
 20
-4.8836232323
 10
-12.1925326633
 20
-5.0251844107
 10
-12.1305274731
 20
-5.1642592111
 10
-12.0646952119
 20
-5.3003596278
 10
-11.996190397
 20
-5.4319365293
 10
-11.925809566
 20
-5.5583666171
 10
-11.8540005152
 20
-5.679670343
 10
-11.7814855657
 20
-5.795381558
 10
-11.7089429429
 20
-5.905152089
 10
-11.6367198366
 20
-6.009134473
 10
-11.5649725209
 20
-6.1076887846
 10
-11.4940998927
 20
-6.2007883006
 10
-11.4244201509
 20
-6.2885027788
 10
-11.3558636326
 20
-6.3713474847
 10
-11.2886842228
 20
-6.4493915049
 10
-11.2231090662
 20
-6.5227261706
 10
-11.1589476902
 20
-6.5918768526
 10
-11.0963692014
 20
-6.6569352148
 10
-11.0355181973
 20
-6.7180118095
 10
-10.9761111696
 20
-6.7756186872
 10
-10.9182557397
 20
-6.8298488068
 10
-10.8620435162
 20
-6.8808056064
 10
-10.8071295562
 20
-6.928964591
 10
-10.7535925326
 20
-6.9743957867
 10
-10.7014788166
 20
-7.0171942357
 10
-10.6503716734
 20
-7.0578131684
 10
-10.6001570147
 20
-7.0964268858
 10
-10.5510283258
 20
-7.1329682873
 10
-10.5281110772
 20
-7.1494511227
  0
LWPOLYLINE
  5
2B6
100
AcDbEntity
  8
RACCORDO
100
AcDbPolyline
 62
7
  6
CONTINUOUS
 90
3
 70
0
 10
-12.154123994
 20
-4.6864540238
 10
-12.1400372101
 20
-4.7246861611
 10
-12.0784411179
 20
-4.8753815014
  0
LWPOLYLINE
  5
2B7
100
AcDbEntity
  8
RACCORDO
100
AcDbPolyline
 62
250
  6
CONTINUOUS
 90
4
 70
0
 10
-12.3628136319
 20
-4.549204504
 10
-12.3495408604
 20
-4.5963039636
 10
-12.302784696
 20
-4.7401051551
 10
-12.2501432395
 20
-4.8836232323
  0
LWPOLYLINE
  5
2B8
100
AcDbEntity
  8
DRAFT
100
AcDbPolyline
 62
7
  6
CONTINUOUS
 90
3
 70
0
 10
-12.7264619625
 20
-4.9168183832
 10
-12.7601614503
 20
-4.6612208546
 10
-12.7601614503
 20
-4.4218960359
  0
LWPOLYLINE
  5
2B9
100
AcDbEntity
  8
RACCORDO
100
AcDbPolyline
 62
250
  6
CONTINUOUS
 90
10
 70
0
 10
-10.3126271743
 20
-14.1613339613
 10
-10.298099631
 20
-14.2977142395
 10
-10.2916471028
 20
-14.433425115
 10
-10.2962952537
 20
-14.564910749
 10
-10.3119657009
 20
-14.6927357168
 10
-10.3387254902
 20
-14.8163271037
 10
-10.3798246548
 20
-14.9304273763
 10
-10.435237779
 20
-15.0355797239
 10
-10.5049874217
 20
-15.1312387941
 10
-10.5924070654
 20
-15.210522645
  0
LWPOLYLINE
  5
2BA
100
AcDbEntity
  8
RACCORDO
100
AcDbPolyline
 62
250
  6
CONTINUOUS
 90
5
 70
0
 10
-12.229519103
 20
-4.539554316
 10
-12.2255105582
 20
-4.5863622921
 10
-12.2128564556
 20
-4.62558367
 10
-12.1919493058
 20
-4.6560018579
 10
-12.1787290714
 20
-4.667505269
  0
LWPOLYLINE
  5
2BB
100
AcDbEntity
  8
RACCORDO
100
AcDbPolyline
 62
250
  6
CONTINUOUS
 90
12
 70
0
 10
-10.3737743865
 20
-7.5914555794
 10
-10.3684050405
 20
-7.7434456702
 10
-10.3741707635
 20
-7.8818205568
 10
-10.3912163404
 20
-8.0070213417
 10
-10.4162074156
 20
-8.1201630423
 10
-10.4489467287
 20
-8.2210669965
 10
-10.4896480465
 20
-8.3099235146
 10
-10.5355949755
 20
-8.38840209
 10
-10.5865847206
 20
-8.4564650753
 10
-10.642834497
 20
-8.5141603234
 10
-10.7022572719
 20
-8.5632851202
 10
-10.7647449205
 20
-8.6038823428
  0
LWPOLYLINE
  5
2BC
100
AcDbEntity
  8
RACCORDO
100
AcDbPolyline
 62
250
  6
CONTINUOUS
 90
15
 70
0
 10
-11.5308344963
 20
18.0467421884
 10
-11.5308070275
 20
18.0430304404
 10
-11.5291600689
 20
18.0101689907
 10
-11.5249698827
 20
17.9772754787
 10
-11.5182042552
 20
17.9444122742
 10
-11.5088517237
 20
17.9117208221
 10
-11.4969244369
 20
17.8793528624
 10
-11.4824267588
 20
17.847395711
 10
-11.4653854818
 20
17.8159706092
 10
-11.4458921108
 20
17.7852730345
 10
-11.4240197342
 20
17.7554163767
 10
-11.3998246977
 20
17.7264756803
 10
-11.3734151655
 20
17.6985756983
 10
-11.3448924964
 20
17.6718107867
 10
-11.3143415694
 20
17.6462485853
  0
LINE
  5
2BD
100
AcDbEntity
  8
ASSI
100
AcDbLine
 62
7
  6
CONTINUOUS
 10
-11.9525879603
 20
-13.2127575509
 11
-11.9525879603
 21
-11.5098023706
  0
LINE
  5
2BE
100
AcDbEntity
  8
RACCORDO
100
AcDbLine
 62
7
  6
CONTINUOUS
 10
-11.5308365182
 20
17.6387945622
 11
-11.5308365182
 21
18.0480586329
  0
LINE
  5
2BF
100
AcDbEntity
  8
ASSI
100
AcDbLine
 62
7
  6
CONTINUOUS
 10
-11.3869025354
 20
-13.8021645077
 11
-11.3869025354
 21
-13.4606222103
  0
LINE
  5
2C0
100
AcDbEntity
  8
RACCORDO
100
AcDbLine
 62
250
  6
CONTINUOUS
 10
-11.2818634373
 20
17.6219644186
 11
-11.2818772822
 21
17.2107217592
  0
LINE
  5
2C1
100
AcDbEntity
  8
RACCORDO
100
AcDbLine
 62
250
  6
CONTINUOUS
 10
-11.2610580527
 20
17.6072527901
 11
-11.2610580527
 21
17.1960003409
  0
LWPOLYLINE
  5
2C2
100
AcDbEntity
  8
RACCORDO
100
AcDbPolyline
 62
250
  6
CONTINUOUS
 90
10
 70
0
 10
-12.2295190635
 20
-8.2772837067
 10
-12.2255104313
 20
-8.2248067399
 10
-12.2128562278
 20
-8.1676896988
 10
-12.191948965
 20
-8.1077042688
 10
-12.1634371433
 20
-8.0467111229
 10
-12.1282051642
 20
-7.9866021662
 10
-12.0873458899
 20
-7.9292418538
 10
-12.0421267137
 20
-7.8764094132
 10
-11.993950256
 20
-7.8297436505
 10
-11.9443108799
 20
-7.7906920791
  0
LINE
  5
2C3
100
AcDbEntity
  8
RACCORDO
100
AcDbLine
 62
7
  6
CONTINUOUS
 10
-12.3270030615
 20
-12.5882849894
 11
-12.3337500173
 21
-12.643337175
  0
LINE
  5
2C4
100
AcDbEntity
  8
RACCORDO
100
AcDbLine
 62
7
  6
CONTINUOUS
 10
-10.8433172009
 20
0.7114609139
 11
-10.8484011155
 21
0.674228555
  0
LINE
  5
2C5
100
AcDbEntity
  8
ASSI
100
AcDbLine
 62
7
  6
CONTINUOUS
 10
-12.5739766995
 20
-11.1174723124
 11
-12.683922096
 21
-11.8014532282
  0
LINE
  5
2C6
100
AcDbEntity
  8
DRAFT
100
AcDbLine
 62
7
  6
CONTINUOUS
 10
-12.7601614503
 20
-4.4218960359
 11
-12.7520817068
 21
-4.3720408017
  0
LINE
  5
2C7
100
AcDbEntity
  8
RACCORDO
100
AcDbLine
 62
250
  6
CONTINUOUS
 10
-7.080472824
 20
19.3510351487
 11
-7.111402947
 21
19.2339711184
  0
LWPOLYLINE
  5
2C8
100
AcDbEntity
  8
RACCORDO
100
AcDbPolyline
 62
7
  6
CONTINUOUS
 90
11
 70
0
 10
-7.1324191106
 20
19.3021130724
 10
-7.131363059
 20
19.3056235504
 10
-7.1287748928
 20
19.3119251326
 10
-7.1253655681
 20
19.3179936257
 10
-7.121178572
 20
19.323751624
 10
-7.1162039427
 20
19.3291951501
 10
-7.110451642
 20
19.3343281814
 10
-7.1039950425
 20
19.3390852443
 10
-7.0968586018
 20
19.3434445142
 10
-7.0890178623
 20
19.3474278157
 10
-7.080472824
 20
19.3510351487
  0
LINE
  5
2C9
100
AcDbEntity
  8
RACCORDO
100
AcDbLine
 62
250
  6
CONTINUOUS
 10
-1.2717552919
 20
21.7137665602
 11
-1.2919002237
 21
21.6771228373
  0
LINE
  5
2CA
100
AcDbEntity
  8
ASSI
100
AcDbLine
 62
250
  6
CONTINUOUS
 10
0.5576168974
 20
15.8283842715
 11
-0.7095686003
 21
14.9230241412
  0
LINE
  5
2CB
100
AcDbEntity
  8
ASSI
100
AcDbLine
 62
250
  6
CONTINUOUS
 10
0.7984839269
 20
15.6580655616
 11
0.1122560307
 21
15.1677795075
  0
LINE
  5
2CC
100
AcDbEntity
  8
RACCORDO
100
AcDbLine
 62
7
  6
CONTINUOUS
 10
-2.8074613389
 20
12.0282788549
 11
-1.5153901103
 21
12.9484609139
  0
LINE
  5
2CD
100
AcDbEntity
  8
0
100
AcDbLine
 62
7
  6
CONTINUOUS
 10
-0.4974581051
 20
13.6357810715
 11
-0.1338899725
 21
13.8928625635
  0
LINE
  5
2CE
100
AcDbEntity
  8
0
100
AcDbLine
 62
7
  6
CONTINUOUS
 10
-0.4974581051
 20
13.352938359
 11
-0.1338899725
 21
13.610019851
  0
LINE
  5
2CF
100
AcDbEntity
  8
0
100
AcDbLine
 62
250
  6
CONTINUOUS
 10
-0.7095901395
 20
12.9908063246
 11
-0.9924328519
 21
12.7908063246
  0
LINE
  5
2D0
100
AcDbEntity
  8
0
100
AcDbLine
 62
7
  6
CONTINUOUS
 10
-0.7095901395
 20
12.7786742903
 11
-0.9924328519
 21
12.5786742903
  0
LWPOLYLINE
  5
2D1
100
AcDbEntity
  8
0
100
AcDbPolyline
 62
7
  6
CONTINUOUS
 90
10
 70
0
 10
-0.1338899725
 20
13.8928625635
 10
-0.1165806712
 20
13.9047975065
 10
-0.0993343547
 20
13.9160886527
 10
-0.0821510229
 20
13.9267360021
 10
-0.0650099109
 20
13.9367509489
 10
-0.0479317837
 20
13.9461220988
 10
-0.030978936
 20
13.9548152694
 10
-0.0141721325
 20
13.9628190666
 10
0.0025093915
 20
13.9701448845
 10
0.019065636
 20
13.976792723
  0
LWPOLYLINE
  5
2D2
100
AcDbEntity
  8
0
100
AcDbPolyline
 62
7
  6
CONTINUOUS
 90
10
 70
0
 10
-0.1338899725
 20
13.610019851
 10
-0.1264717005
 20
13.6151348266
 10
-0.119080422
 20
13.6199738892
 10
-0.1117161369
 20
13.624537039
 10
-0.1043699461
 20
13.628829159
 10
-0.0970507488
 20
13.6328453661
 10
-0.0897852426
 20
13.6365710107
 10
-0.0825823268
 20
13.6400012095
 10
-0.0754331022
 20
13.6431408457
 10
-0.0683375688
 20
13.6459899194
  0
LINE
  5
2D3
100
AcDbEntity
  8
RACCORDO
100
AcDbLine
 62
7
  6
CONTINUOUS
 10
3.1459017147
 20
16.6776912155
 11
3.2799006846
 21
16.7696440596
  0
LINE
  5
2D4
100
AcDbEntity
  8
RACCORDO
100
AcDbLine
 62
250
  6
CONTINUOUS
 10
3.2895127765
 20
16.6498407358
 11
3.4356727574
 21
16.7501387153
  0
LWPOLYLINE
  5
2D5
100
AcDbEntity
  8
RACCORDO
100
AcDbPolyline
 62
7
  6
CONTINUOUS
 90
10
 70
0
 10
6.1507096478
 20
16.6947013895
 10
6.2180677814
 20
16.7371898166
 10
6.2853917972
 20
16.7707130741
 10
6.3525699963
 20
16.7952933722
 10
6.4196288695
 20
16.8108198368
 10
6.4861602443
 20
16.8169418218
 10
6.5509133802
 20
16.8133780014
 10
6.6127006374
 20
16.8002184387
 10
6.6707011084
 20
16.7777195047
 10
6.7237796962
 20
16.7463884031
  0
LWPOLYLINE
  5
2D6
100
AcDbEntity
  8
RACCORDO
100
AcDbPolyline
 62
250
  6
CONTINUOUS
 90
7
 70
0
 10
6.1507096478
 20
16.6947013895
 10
6.1594250757
 20
16.699819789
 10
6.1814041638
 20
16.7063352446
 10
6.2067999298
 20
16.7062694826
 10
6.2348407305
 20
16.6996245057
 10
6.2646745622
 20
16.6866022222
 10
6.2953949385
 20
16.6675983107
  0
LWPOLYLINE
  5
2D7
100
AcDbEntity
  8
RACCORDO
100
AcDbPolyline
 62
250
  6
CONTINUOUS
 90
14
 70
0
 10
6.3573917157
 20
16.7072552102
 10
6.3886478058
 20
16.7244472496
 10
6.4198841683
 20
16.7396877921
 10
6.4510053318
 20
16.7528645333
 10
6.4819686065
 20
16.7638793888
 10
6.51265164
 20
16.7725937468
 10
6.5428724569
 20
16.778857098
 10
6.5724811735
 20
16.7825364814
 10
6.6013613354
 20
16.7835011184
 10
6.6292759033
 20
16.7816201426
 10
6.6559066191
 20
16.7768163351
 10
6.6811052295
 20
16.7690338307
 10
6.7046996863
 20
16.7582369395
 10
6.7237796962
 20
16.7463884031
  0
LWPOLYLINE
  5
2D8
100
AcDbEntity
  8
RACCORDO
100
AcDbPolyline
 62
250
  6
CONTINUOUS
 90
3
 70
0
 10
-11.5337617975
 20
-8.6355677957
 10
-11.6072491514
 20
-8.6112979614
 10
-11.6814923197
 20
-8.5831851728
  0
LWPOLYLINE
  5
2D9
100
AcDbEntity
  8
RACCORDO
100
AcDbPolyline
 62
250
  6
CONTINUOUS
 90
8
 70
0
 10
-11.6814923197
 20
-8.5831851728
 10
-11.7566795453
 20
-8.5512519592
 10
-11.8328152536
 20
-8.5155851649
 10
-11.9098962676
 20
-8.4760988357
 10
-11.9880992546
 20
-8.4325561798
 10
-12.0674833338
 20
-8.3848784309
 10
-12.1479900582
 20
-8.3331448348
 10
-12.2296195998
 20
-8.2773555143
  0
LINE
  5
2DA
100
AcDbEntity
  8
RACCORDO
100
AcDbLine
 62
7
  6
CONTINUOUS
 10
-12.1787290714
 20
-4.667505269
 11
-12.1771002951
 21
-4.6686655816
  0
LWPOLYLINE
  5
2DB
100
AcDbEntity
  8
RACCORDO
100
AcDbPolyline
 62
7
  6
CONTINUOUS
 90
6
 70
0
 10
-12.1771002951
 20
-4.6686655816
 10
-11.9585620149
 20
-4.8378597236
 10
-11.7142234334
 20
-5.0619789255
 10
-11.4743138604
 20
-5.3213815253
 10
-11.2470905584
 20
-5.6091123889
 10
-11.0418435361
 20
-5.9140850473
  0
LINE
  5
2DC
100
AcDbEntity
  8
RACCORDO
100
AcDbLine
 62
250
  6
CONTINUOUS
 10
-12.2296195998
 20
-4.5396246601
 11
-11.9715871155
 21
-4.7471033662
  0
LINE
  5
2DD
100
AcDbEntity
  8
RACCORDO
100
AcDbLine
 62
250
  6
CONTINUOUS
 10
-11.9715871155
 20
-4.7471033662
 11
-11.7326255683
 21
-4.9643351668
  0
LWPOLYLINE
  5
2DE
100
AcDbEntity
  8
RACCORDO
100
AcDbPolyline
 62
250
  6
CONTINUOUS
 90
5
 70
0
 10
-11.7326255683
 20
-4.9643351668
 10
-11.5127239498
 20
-5.1913123428
 10
-11.3111892437
 20
-5.4325139432
 10
-11.1286733919
 20
-5.6834320931
 10
-10.9671890576
 20
-5.9305830493
  0
LWPOLYLINE
  5
2DF
100
AcDbEntity
  8
RACCORDO
100
AcDbPolyline
 62
250
  6
CONTINUOUS
 90
5
 70
0
 10
-10.9671890576
 20
-5.9305830493
 10
-10.8281940814
 20
-6.1716508975
 10
-10.7102014065
 20
-6.4089309685
 10
-10.6108310647
 20
-6.6358737286
 10
-10.5304945717
 20
-6.851181604
  0
LWPOLYLINE
  5
2E0
100
AcDbEntity
  8
RACCORDO
100
AcDbPolyline
 62
7
  6
CONTINUOUS
 90
11
 70
0
 10
-11.0418435361
 20
-5.9140850473
 10
-10.8640496912
 20
-6.2274168733
 10
-10.7174961874
 20
-6.5411093736
 10
-10.6063188236
 20
-6.843735022
 10
-10.5317959691
 20
-7.1253796441
 10
-10.4927603719
 20
-7.3803788599
 10
-10.4871821054
 20
-7.6010408821
 10
-10.5101035582
 20
-7.778240454
 10
-10.5536222426
 20
-7.9093279666
 10
-10.6118751983
 20
-7.9998051499
 10
-10.6780327674
 20
-8.0544636139
  0
LWPOLYLINE
  5
2E1
100
AcDbEntity
  8
RACCORDO
100
AcDbPolyline
 62
250
  6
CONTINUOUS
 90
23
 70
0
 10
-11.9342569469
 20
1.8471093561
 10
-11.9100461392
 20
1.7821865208
 10
-11.8832504871
 20
1.7145512101
 10
-11.8537216546
 20
1.6442610458
 10
-11.8211260724
 20
1.5709785116
 10
-11.7852884586
 20
1.4947912184
 10
-11.7460428116
 20
1.415819008
 10
-11.7030160437
 20
1.3338087059
 10
-11.6560259612
 20
1.2489364531
 10
-11.6049072326
 20
1.1614214005
 10
-11.5492704768
 20
1.0711409363
 10
-11.4888963074
 20
0.9783180101
 10
-11.4237071831
 20
0.8834103794
 10
-11.3535273635
 20
0.7867391012
 10
-11.2781536198
 20
0.6886239283
 10
-11.1976799417
 20
0.5897879584
 10
-11.1124619574
 20
0.4912207019
 10
-11.0225020588
 20
0.3934542232
 10
-10.9280496547
 20
0.2972909724
 10
-10.8299793982
 20
0.2040797079
 10
-10.728197755
 20
0.1141662063
 10
-10.6234534797
 20
0.0286498804
 10
-10.5183368033
 20
-0.0501601429
  0
LINE
  5
2E2
100
AcDbEntity
  8
RACCORDO
100
AcDbLine
 62
250
  6
CONTINUOUS
 10
-11.9560358994
 20
1.9092854012
 11
-11.9342569469
 21
1.8471093561
  0
LWPOLYLINE
  5
2E3
100
AcDbEntity
  8
RACCORDO
100
AcDbPolyline
 62
250
  6
CONTINUOUS
 90
5
 70
0
 10
-10.5304945717
 20
-6.851181604
 10
-10.4687722799
 20
-7.0561463579
 10
-10.4220579972
 20
-7.2481168999
 10
-10.3904082455
 20
-7.4262806071
 10
-10.3737743865
 20
-7.5914555794
  0
LWPOLYLINE
  5
2E4
100
AcDbEntity
  8
RACCORDO
100
AcDbPolyline
 62
250
  6
CONTINUOUS
 90
9
 70
0
 10
-4.1764792898
 20
-23.4394297205
 10
-4.1600963684
 20
-23.4953891376
 10
-4.1372083741
 20
-23.541331119
 10
-4.1067668737
 20
-23.5766945343
 10
-4.0698203005
 20
-23.6020405139
 10
-4.0295139549
 20
-23.6190524477
 10
-3.9861074344
 20
-23.6276084351
 10
-3.9393411415
 20
-23.6278303768
 10
-3.891581584
 20
-23.6217673648
  0
LWPOLYLINE
  5
2E5
100
AcDbEntity
  8
RACCORDO
100
AcDbPolyline
 62
250
  6
CONTINUOUS
 90
5
 70
0
 10
-12.0127649609
 20
2.0959584303
 10
-12.0089656147
 20
2.0815795942
 10
-11.9932671142
 20
2.0265346267
 10
-11.9756651476
 20
1.9691008622
 10
-11.9560358994
 20
1.9092854012
  0
LWPOLYLINE
  5
2E6
100
AcDbEntity
  8
ASSI
100
AcDbPolyline
 62
7
  6
CONTINUOUS
 90
20
 70
0
 10
-12.5373104442
 20
2.0910921959
 10
-12.5179805243
 20
1.9702044492
 10
-12.4917622804
 20
1.8469390575
 10
-12.4586557124
 20
1.7212960209
 10
-12.4184449493
 20
1.5926749279
 10
-12.371345862
 20
1.4616761899
 10
-12.3180060638
 20
1.3301010413
 10
-12.2583393496
 20
1.1979415202
 10
-12.1924319245
 20
1.0652055885
 10
-12.1211900163
 20
0.9337183672
 10
-12.0445399382
 20
0.8034971051
 10
-11.9625553772
 20
0.6745245534
 10
-11.8763636219
 20
0.5485740864
 10
-11.7859065572
 20
0.4256874493
 10
-11.6912422984
 20
0.3058228968
 10
-11.5936724802
 20
0.1906285683
 10
-11.4931569674
 20
0.0801689752
 10
-11.3897358952
 20
-0.025620394
 10
-11.284831305
 20
-0.1252849339
 10
-11.1784227043
 20
-0.2187400403
  0
LINE
  5
2E7
100
AcDbEntity
  8
ASSI
100
AcDbLine
 62
7
  6
CONTINUOUS
 10
-12.57912491
 20
2.4103586051
 11
-12.5373104442
 21
2.0910921959
  0
LWPOLYLINE
  5
2E8
100
AcDbEntity
  8
RACCORDO
100
AcDbPolyline
 62
250
  6
CONTINUOUS
 90
9
 70
0
 10
-10.2933985568
 20
-0.8447058025
 10
-10.2929197976
 20
-0.98468422
 10
-10.3037002646
 20
-1.1205793706
 10
-10.3256840383
 20
-1.2529725095
 10
-10.3589156822
 20
-1.3812745365
 10
-10.4065134885
 20
-1.5001366473
 10
-10.4684785996
 20
-1.6101215142
 10
-10.5448069594
 20
-1.7106643908
 10
-10.6386205382
 20
-1.7947332254
  0
LINE
  5
2E9
100
AcDbEntity
  8
0
100
AcDbLine
 62
7
  6
CONTINUOUS
 10
-9.4777142262
 20
18.5786742903
 11
-9.4777142262
 21
18.7908063246
  0
LINE
  5
2EA
100
AcDbEntity
  8
RACCORDO
100
AcDbLine
 62
250
  6
CONTINUOUS
 10
-10.0641921891
 20
17.6072671232
 11
-10.0642444141
 21
17.2027073997
  0
LWPOLYLINE
  5
2EB
100
AcDbEntity
  8
0
100
AcDbPolyline
 62
7
  6
CONTINUOUS
 90
19
 70
0
 10
-9.4777142262
 20
18.7908063246
 10
-9.4757125333
 20
18.8358947445
 10
-9.4700905815
 20
18.8825730285
 10
-9.4608483707
 20
18.9308411768
 10
-9.447861093
 20
18.9810887545
 10
-9.4312535564
 20
19.0329261965
 10
-9.4114001843
 20
19.0851848067
 10
-9.3882272441
 20
19.1378741526
 10
-9.3618084685
 20
19.1909846667
 10
-9.3327394794
 20
19.2433189512
 10
-9.3009600741
 20
19.2948593733
 10
-9.2665304554
 20
19.3456235658
 10
-9.2302268528
 20
19.3944670296
 10
-9.1920066965
 20
19.4413461333
 10
-9.1519125563
 20
19.4863045084
 10
-9.1108483707
 20
19.5283285502
 10
-9.0691154524
 20
19.5670803905
 10
-9.0264124886
 20
19.6028978976
 10
-8.9827394794
 20
19.6357810715
  0
LINE
  5
2EC
100
AcDbEntity
  8
ASSI
100
AcDbLine
 62
7
  6
CONTINUOUS
 10
-11.9451590224
 20
-13.0658752628
 11
-11.7586836058
 21
-11.6790129016
  0
LINE
  5
2ED
100
AcDbEntity
  8
RACCORDO
100
AcDbLine
 62
250
  6
CONTINUOUS
 10
-12.1999468682
 20
-11.324933323
 11
-12.3944471838
 21
-12.5349385456
  0
LINE
  5
2EE
100
AcDbEntity
  8
RACCORDO
100
AcDbLine
 62
7
  6
CONTINUOUS
 10
-12.1313899961
 20
-11.3713572429
 11
-12.3270030615
 21
-12.5882849894
  0
LINE
  5
2EF
100
AcDbEntity
  8
ASSI
100
AcDbLine
 62
7
  6
CONTINUOUS
 10
-11.3869025354
 20
-13.4800181592
 11
-11.1990063383
 21
-12.311097795
  0
LWPOLYLINE
  5
2F0
100
AcDbEntity
  8
RACCORDO
100
AcDbPolyline
 62
250
  6
CONTINUOUS
 90
4
 70
0
 10
-12.3270030615
 20
-12.5882849894
 10
-12.3289298224
 20
-12.5986044429
 10
-12.3366914202
 20
-12.625856549
 10
-12.33968942
 20
-12.6327300388
  0
LINE
  5
2F1
100
AcDbEntity
  8
RACCORDO
100
AcDbLine
 62
250
  6
CONTINUOUS
 10
-5.1302271393
 20
20.0963938619
 11
-5.2176303442
 21
19.7655910582
  0
LINE
  5
2F2
100
AcDbEntity
  8
RACCORDO
100
AcDbLine
 62
250
  6
CONTINUOUS
 10
-4.8543060807
 20
20.0477979111
 11
-4.9417092856
 21
19.7169951074
  0
LWPOLYLINE
  5
2F3
100
AcDbEntity
  8
RACCORDO
100
AcDbPolyline
 62
250
  6
CONTINUOUS
 90
3
 70
0
 10
-1.0866808285
 20
21.471626344
 10
-1.1119844233
 20
21.4170210436
 10
-1.1467468147
 20
21.366686769
  0
LINE
  5
2F4
100
AcDbEntity
  8
ASSI
100
AcDbLine
 62
250
  6
CONTINUOUS
 10
-1.9589761898
 20
13.2621236388
 11
-2.0504690948
 21
13.1097248704
  0
LWPOLYLINE
  5
2F5
100
AcDbEntity
  8
RACCORDO
100
AcDbPolyline
 62
7
  6
CONTINUOUS
 90
6
 70
0
 10
-1.1631485421
 20
11.4132955862
 10
-1.2339733413
 20
11.3550078466
 10
-1.3222356579
 20
11.2558961843
 10
-1.3874585875
 20
11.1439406749
 10
-1.4264787991
 20
11.0235949307
 10
-1.4378632713
 20
10.902957881
  0
LINE
  5
2F6
100
AcDbEntity
  8
RACCORDO
100
AcDbLine
 62
250
  6
CONTINUOUS
 10
-1.0406349779
 20
11.3690590514
 11
-1.0174401663
 21
11.3869437142
  0
LINE
  5
2F7
100
AcDbEntity
  8
RACCORDO
100
AcDbLine
 62
250
  6
CONTINUOUS
 10
-0.6255648492
 20
11.0670008063
 11
5.1197705646
 21
15.3556530424
  0
LINE
  5
2F8
100
AcDbEntity
  8
RACCORDO
100
AcDbLine
 62
250
  6
CONTINUOUS
 10
-0.464866948
 20
10.9533702307
 11
5.2463409545
 21
15.2165477091
  0
LINE
  5
2F9
100
AcDbEntity
  8
RACCORDO
100
AcDbLine
 62
7
  6
CONTINUOUS
 10
-1.1631492317
 20
11.4132965279
 11
4.6254362064
 21
15.6294752242
  0
LINE
  5
2FA
100
AcDbEntity
  8
RACCORDO
100
AcDbLine
 62
250
  6
CONTINUOUS
 10
-1.0174401663
 20
11.3869437142
 11
4.7704806836
 21
15.6026382859
  0
LINE
  5
2FB
100
AcDbEntity
  8
RACCORDO
100
AcDbLine
 62
250
  6
CONTINUOUS
 10
-13.1519178172
 20
2.4022239399
 11
-13.1479261215
 21
2.4051319569
  0
LINE
  5
2FC
100
AcDbEntity
  8
ASSI
100
AcDbLine
 62
7
  6
CONTINUOUS
 10
11.9644459423
 20
18.7285523325
 11
7.731869761
 21
15.7094365516
  0
LINE
  5
2FD
100
AcDbEntity
  8
RACCORDO
100
AcDbLine
 62
250
  6
CONTINUOUS
 10
-12.5373104442
 20
2.0910921959
 11
-12.2822233489
 21
2.2714660107
  0
LINE
  5
2FE
100
AcDbEntity
  8
RACCORDO
100
AcDbLine
 62
250
  6
CONTINUOUS
 10
5.1198086423
 20
15.3556261174
 11
6.6392039503
 21
16.4244886271
  0
LINE
  5
2FF
100
AcDbEntity
  8
RACCORDO
100
AcDbLine
 62
250
  6
CONTINUOUS
 10
5.2463409545
 20
15.2165477091
 11
6.7641991907
 21
16.2843289212
  0
LINE
  5
300
100
AcDbEntity
  8
RACCORDO
100
AcDbLine
 62
7
  6
CONTINUOUS
 10
4.9804805582
 20
15.8774368992
 11
6.1507096478
 21
16.6947013895
  0
LINE
  5
301
100
AcDbEntity
  8
RACCORDO
100
AcDbLine
 62
250
  6
CONTINUOUS
 10
4.9153829118
 20
15.703825631
 11
6.2953949386
 21
16.6675983107
  0
LWPOLYLINE
  5
302
100
AcDbEntity
  8
RACCORDO
100
AcDbPolyline
 62
7
  6
CONTINUOUS
 90
10
 70
0
 10
-13.1518929706
 20
2.4021954609
 10
-13.1307234077
 20
2.4166652223
 10
-13.0594836243
 20
2.4500428079
 10
-12.9755227747
 20
2.4685606807
 10
-12.8679439106
 20
2.4719219385
 10
-12.7325580549
 20
2.4537966773
 10
-12.5752104002
 20
2.409250378
 10
-12.4012801885
 20
2.3364799856
 10
-12.2150468928
 20
2.2347826211
 10
-12.0615949698
 20
2.1338183765
  0
LINE
  5
303
100
AcDbEntity
  8
ASSI
100
AcDbLine
 62
7
  6
CONTINUOUS
 10
11.2508469908
 20
19.3787930703
 11
7.3230106277
 21
16.7011265837
  0
LWPOLYLINE
  5
304
100
AcDbEntity
  8
RACCORDO
100
AcDbPolyline
 62
250
  6
CONTINUOUS
 90
3
 70
0
 10
6.2953949386
 20
16.6675983107
 10
6.3262692485
 20
16.6882602776
 10
6.3573917157
 20
16.7072552102
  0
LWPOLYLINE
  5
305
100
AcDbEntity
  8
RACCORDO
100
AcDbPolyline
 62
250
  6
CONTINUOUS
 90
10
 70
0
 10
6.6392039503
 20
16.4244886271
 10
6.6680039671
 20
16.4433459096
 10
6.6984396958
 20
16.4601180534
 10
6.7304160469
 20
16.4746528365
 10
6.7638282906
 20
16.4868357632
 10
6.7985599579
 20
16.4964650096
 10
6.8344881081
 20
16.50327605
 10
6.8714859678
 20
16.5071013997
 10
6.909417987
 20
16.5078481673
 10
6.9481418985
 20
16.505389725
  0
LWPOLYLINE
  5
306
100
AcDbEntity
  8
RACCORDO
100
AcDbPolyline
 62
250
  6
CONTINUOUS
 90
10
 70
0
 10
6.7641991907
 20
16.2843289212
 10
6.7836300149
 20
16.2969886859
 10
6.8044036152
 20
16.3077783375
 10
6.8265199914
 20
16.3166978762
 10
6.8500493817
 20
16.3238785065
 10
6.8749215481
 20
16.3291890238
 10
6.900925776
 20
16.3322358138
 10
6.9279918275
 20
16.3328876716
 10
6.9561899405
 20
16.3312758021
 10
6.9855201152
 20
16.3274002053
  0
LWPOLYLINE
  5
307
100
AcDbEntity
  8
ASSI
100
AcDbPolyline
 62
250
  6
CONTINUOUS
 90
21
 70
0
 10
12.5752139146
 20
17.9338645258
 10
12.5754241461
 20
17.9339933345
 10
12.6608778006
 20
17.9744043866
 10
12.749440347
 20
18.0037635177
 10
12.840509788
 20
18.0230198382
 10
12.933007687
 20
18.0329737314
 10
13.0259473374
 20
18.0345239373
 10
13.1187848466
 20
18.0285875065
 10
13.211205744
 20
18.0159841627
 10
13.302638817
 20
17.9975047905
 10
13.3926008375
 20
17.9739149119
 10
13.4810557267
 20
17.945816811
 10
13.5676283192
 20
17.9138576481
 10
13.6520005954
 20
17.8786548121
 10
13.7343302807
 20
17.8405867222
 10
13.8143673522
 20
17.8001644348
 10
13.8919286446
 20
17.7578580551
 10
13.9673451399
 20
17.7138180398
 10
14.040645618
 20
17.6683078013
 10
14.1115448505
 20
17.6217743125
 10
14.1799438905
 20
17.5745512604
  0
LWPOLYLINE
  5
308
100
AcDbEntity
  8
RACCORDO
100
AcDbPolyline
 62
250
  6
CONTINUOUS
 90
28
 70
0
 10
-0.0024833583
 20
10.4497229797
 10
-0.0287934094
 20
10.4337040971
 10
-0.0568033845
 20
10.4180220968
 10
-0.0865425007
 20
10.4027749377
 10
-0.1180236561
 20
10.3880687947
 10
-0.1512661829
 20
10.3740080454
 10
-0.186297017
 20
10.3606976299
 10
-0.2230569258
 20
10.3482731096
 10
-0.2615741501
 20
10.3368385595
 10
-0.3020008425
 20
10.3264790402
 10
-0.344234464
 20
10.3173570686
 10
-0.3882765994
 20
10.3096107199
 10
-0.4344333446
 20
10.3033559219
 10
-0.4827451424
 20
10.2987882137
 10
-0.5329588848
 20
10.296138567
 10
-0.5849093713
 20
10.2956233533
 10
-0.6388162983
 20
10.297476923
 10
-0.6940334278
 20
10.3019211701
 10
-0.7490693323
 20
10.3089766109
 10
-0.8036470411
 20
10.3186589852
 10
-0.8575347
 20
10.3309770871
 10
-0.9094003247
 20
10.3455952725
 10
-0.9587636047
 20
10.362232617
 10
-1.0058194728
 20
10.3808058309
 10
-1.0503660821
 20
10.401102838
 10
-1.0922940376
 20
10.4229284089
 10
-1.1315742661
 20
10.4461191402
 10
-1.1681687832
 20
10.4705023459
  0
LWPOLYLINE
  5
309
100
AcDbEntity
  8
RACCORDO
100
AcDbPolyline
 62
250
  6
CONTINUOUS
 90
7
 70
0
 10
-1.1630842148
 20
11.4133439482
 10
-1.1534796102
 20
11.4190973173
 10
-1.1316917282
 20
11.4254788402
 10
-1.1063858379
 20
11.4253522002
 10
-1.0783307718
 20
11.418721245
 10
-1.0483788863
 20
11.4057874332
 10
-1.0174401663
 20
11.3869437142
  0
LWPOLYLINE
  5
30A
100
AcDbEntity
  8
RACCORDO
100
AcDbPolyline
 62
250
  6
CONTINUOUS
 90
28
 70
0
 10
-0.1795688256
 20
10.7516339937
 10
-0.1983649356
 20
10.74049107
 10
-0.2183481711
 20
10.7297488375
 10
-0.239518532
 20
10.7194072964
 10
-0.2618693164
 20
10.7093922314
 10
-0.2854072262
 20
10.6997778577
 10
-0.3101523677
 20
10.6907868212
 10
-0.3360866921
 20
10.6824120207
 10
-0.3632282482
 20
10.6746605574
 10
-0.3916512882
 20
10.6677763805
 10
-0.4213547728
 20
10.6617294938
 10
-0.4523397413
 20
10.6565498934
 10
-0.4846835649
 20
10.6525715172
 10
-0.5185474554
 20
10.6497656268
 10
-0.5537702009
 20
10.6481609606
 10
-0.5899455367
 20
10.6481776706
 10
-0.6273763133
 20
10.6499116733
 10
-0.6657596802
 20
10.6532670522
 10
-0.7037808219
 20
10.6583762102
 10
-0.7413767096
 20
10.6653963407
 10
-0.7786103721
 20
10.6741702503
 10
-0.8143560807
 20
10.6843587613
 10
-0.8483273739
 20
10.6959723929
 10
-0.8808107131
 20
10.709000626
 10
-0.9115397535
 20
10.723072726
 10
-0.9404257132
 20
10.7380651147
 10
-0.9675573741
 20
10.7541013705
 10
-0.992934736
 20
10.7711814931
  0
LINE
  5
30B
100
AcDbEntity
  8
0
100
AcDbLine
 62
7
  6
CONTINUOUS
 10
10.0992566309
 20
14.3556405797
 11
10.0384329346
 21
14.3323552158
  0
LINE
  5
30C
100
AcDbEntity
  8
0
100
AcDbLine
 62
7
  6
CONTINUOUS
 10
10.5618297937
 20
13.8256224187
 11
10.0992566309
 21
13.6485337986
  0
LINE
  5
30D
100
AcDbEntity
  8
0
100
AcDbLine
 62
7
  6
CONTINUOUS
 10
9.9776092382
 20
13.2696228834
 11
10.0384329346
 21
13.2929082474
  0
LINE
  5
30E
100
AcDbEntity
  8
0
100
AcDbLine
 62
7
  6
CONTINUOUS
 10
10.5618297937
 20
13.1892263157
 11
10.4355451446
 21
13.1408802895
  0
LWPOLYLINE
  5
30F
100
AcDbEntity
  8
DRAFT
100
AcDbPolyline
 62
7
  6
CONTINUOUS
 90
4
 70
0
 10
-10.4876501752
 20
-7.5825252339
 10
-10.6937533463
 20
-7.5178911159
 10
-10.9261512823
 20
-7.4071928186
 10
-11.174770501
 20
-7.253589394
  0
LWPOLYLINE
  5
310
100
AcDbEntity
  8
RACCORDO
100
AcDbPolyline
 62
250
  6
CONTINUOUS
 90
7
 70
0
 10
-12.7032929209
 20
-4.2662624307
 10
-12.6269360964
 20
-4.3017728772
 10
-12.549671338
 20
-4.341128519
 10
-12.4713244416
 20
-4.3845675018
 10
-12.3918375694
 20
-4.4321693688
 10
-12.3112692315
 20
-4.4838550481
 10
-12.2296195998
 20
-4.5396246601
  0
LWPOLYLINE
  5
311
100
AcDbEntity
  8
RACCORDO
100
AcDbPolyline
 62
250
  6
CONTINUOUS
 90
45
 70
0
 10
-12.1962161744
 20
-1.5301844891
 10
-12.2771472042
 20
-1.4709754107
 10
-12.3568316633
 20
-1.4093761638
 10
-12.4352693876
 20
-1.345386635
 10
-12.5124423429
 20
-1.2789481293
 10
-12.5883679222
 20
-1.2101188988
 10
-12.6630989799
 20
-1.1390741665
 10
-12.7366348595
 20
-1.0658710928
 10
-12.8089750749
 20
-0.9904517283
 10
-12.8801726421
 20
-0.9128185669
 10
-12.9502352929
 20
-0.8330267866
 10
-13.0191536511
 20
-0.7510200742
 10
-13.0869549036
 20
-0.6666335721
 10
-13.1535144024
 20
-0.5801719403
 10
-13.2189545622
 20
-0.4913289786
 10
-13.2836726514
 20
-0.3990231847
 10
-13.3478757289
 20
-0.3031865614
 10
-13.4113531026
 20
-0.2038846023
 10
-13.4738743243
 20
-0.1002352915
 10
-13.5357748112
 20
0.0081659444
 10
-13.5967131776
 20
0.1209186407
 10
-13.6554425079
 20
0.2376981259
 10
-13.7120857878
 20
0.3586729998
 10
-13.7665117512
 20
0.4836803542
 10
-13.8170910324
 20
0.6118989905
 10
-13.8639465556
 20
0.7435027833
 10
-13.906944697
 20
0.8783251982
 10
-13.9440704259
 20
1.0150349984
 10
-13.9754876931
 20
1.1539686193
 10
-14.0010195574
 20
1.2947985159
 10
-14.0181396934
 20
1.435197444
 10
-14.026990957
 20
1.5755914581
 10
-14.0274167839
 20
1.715563855
 10
-14.0164438964
 20
1.8515217531
 10
-13.9941149726
 20
1.9840549749
 10
-13.9603759975
 20
2.1125813914
 10
-13.9121148802
 20
2.2317459293
 10
-13.8493275302
 20
2.3421126419
 10
-13.7720151812
 20
2.4431193531
 10
-13.6770852173
 20
2.5277138023
 10
-13.563527674
 20
2.5964798807
 10
-13.4323626476
 20
2.6488267274
 10
-13.283561106
 20
2.6759273679
 10
-13.1137461179
 20
2.6756467418
 10
-12.926324434
 20
2.6500995959
  0
LWPOLYLINE
  5
312
100
AcDbEntity
  8
RACCORDO
100
AcDbPolyline
 62
7
  6
CONTINUOUS
 90
4
 70
0
 10
-16.9430618779
 20
14.2255068654
 10
-16.9574610591
 20
14.2531190124
 10
-16.9647597606
 20
14.2829865944
 10
-16.9661688412
 20
14.2993513152
  0
LWPOLYLINE
  5
313
100
AcDbEntity
  8
RACCORDO
100
AcDbPolyline
 62
7
  6
CONTINUOUS
 90
15
 70
0
 10
-11.7887914963
 20
1.9143921391
 10
-11.766042168
 20
1.8564044359
 10
-11.7071987248
 20
1.7214612627
 10
-11.6418480035
 20
1.5852222121
 10
-11.5703565212
 20
1.4486541389
 10
-11.4930305095
 20
1.3124759617
 10
-11.4102018865
 20
1.1773805399
 10
-11.3223785738
 20
1.0442622593
 10
-11.2299903426
 20
0.9138002278
 10
-11.1334971595
 20
0.7866575102
 10
-11.0335348558
 20
0.663653571
 10
-10.9306295156
 20
0.5453878905
 10
-10.8253283346
 20
0.4324310791
 10
-10.7183698787
 20
0.3254877008
 10
-10.6152944664
 20
0.2296344345
  0
LINE
  5
314
100
AcDbEntity
  8
RACCORDO
100
AcDbLine
 62
7
  6
CONTINUOUS
 10
-7.8754295606
 20
17.316592265
 11
-7.7262859987
 21
15.5064131273
  0
LINE
  5
315
100
AcDbEntity
  8
ASSI
100
AcDbLine
 62
7
  6
CONTINUOUS
 10
-7.7806579513
 20
15.5448599037
 11
-7.7806579513
 21
15.7159325905
  0
LINE
  5
316
100
AcDbEntity
  8
RACCORDO
100
AcDbLine
 62
250
  6
CONTINUOUS
 10
-2.8036964152
 20
18.5977979111
 11
-2.8489704026
 21
18.4264453619
  0
LINE
  5
317
100
AcDbEntity
  8
RACCORDO
100
AcDbLine
 62
250
  6
CONTINUOUS
 10
-3.0499641712
 20
16.5010351487
 11
-3.0808942943
 21
16.3839711184
  0
LWPOLYLINE
  5
318
100
AcDbEntity
  8
RACCORDO
100
AcDbPolyline
 62
7
  6
CONTINUOUS
 90
11
 70
0
 10
-2.7448284748
 20
18.4953159383
 10
-2.7458845264
 20
18.4918054603
 10
-2.7484726926
 20
18.4855038781
 10
-2.7518820173
 20
18.4794353849
 10
-2.7560690134
 20
18.4736773866
 10
-2.7610436427
 20
18.4682338605
 10
-2.7667959434
 20
18.4631008292
 10
-2.7732525428
 20
18.4583437664
 10
-2.7803889836
 20
18.4539844965
 10
-2.7882297231
 20
18.450001195
 10
-2.7967747614
 20
18.4463938619
  0
LWPOLYLINE
  5
319
100
AcDbEntity
  8
RACCORDO
100
AcDbPolyline
 62
7
  6
CONTINUOUS
 90
11
 70
0
 10
-3.1019104578
 20
16.4521130724
 10
-3.1008544062
 20
16.4556235504
 10
-3.09826624
 20
16.4619251326
 10
-3.0948569153
 20
16.4679936257
 10
-3.0906699192
 20
16.473751624
 10
-3.0856952899
 20
16.4791951501
 10
-3.0799429893
 20
16.4843281814
 10
-3.0734863898
 20
16.4890852443
 10
-3.066349949
 20
16.4934445142
 10
-3.0585092095
 20
16.4974278157
 10
-3.0499641712
 20
16.5010351487
  0
LWPOLYLINE
  5
31A
100
AcDbEntity
  8
RACCORDO
100
AcDbPolyline
 62
250
  6
CONTINUOUS
 90
3
 70
0
 10
-1.1030866661
 20
21.042733714
 10
-1.0883175329
 20
21.08874507
 10
-1.0776394979
 20
21.1353668056
  0
LINE
  5
31B
100
AcDbEntity
  8
RACCORDO
100
AcDbLine
 62
250
  6
CONTINUOUS
 10
8.3387762695
 20
14.8325841169
 11
8.4139177038
 21
14.8920750801
  0
LINE
  5
31C
100
AcDbEntity
  8
ASSI
100
AcDbLine
 62
7
  6
CONTINUOUS
 10
7.731869761
 20
15.7094365516
 11
7.6614476832
 21
15.6553087206
  0
LWPOLYLINE
  5
31D
100
AcDbEntity
  8
RACCORDO
100
AcDbPolyline
 62
250
  6
CONTINUOUS
 90
9
 70
0
 10
8.0798509638
 20
14.2344713733
 10
8.0972251566
 20
14.2477058578
 10
8.114226641
 20
14.2620789621
 10
8.130692033
 20
14.2776196366
 10
8.146418592
 20
14.2943170053
 10
8.1612541229
 20
14.3122104176
 10
8.1750711896
 20
14.3313990783
 10
8.1876361655
 20
14.3518739065
 10
8.1987098052
 20
14.3736170363
  0
LINE
  5
31E
100
AcDbEntity
  8
RACCORDO
100
AcDbLine
 62
250
  6
CONTINUOUS
 10
8.1016389241
 20
14.402554006
 11
8.0798509638
 21
14.3860400763
  0
LINE
  5
31F
100
AcDbEntity
  8
RACCORDO
100
AcDbLine
 62
250
  6
CONTINUOUS
 10
8.0499939993
 20
14.5637681498
 11
8.02807624
 21
14.547645575
  0
LINE
  5
320
100
AcDbEntity
  8
RACCORDO
100
AcDbLine
 62
250
  6
CONTINUOUS
 10
2.2416083487
 20
9.9821244012
 11
8.0798509638
 21
14.2344713733
  0
LINE
  5
321
100
AcDbEntity
  8
RACCORDO
100
AcDbLine
 62
7
  6
CONTINUOUS
 10
2.2643982483
 20
9.943219609
 11
8.0487250482
 21
14.1562964156
  0
LINE
  5
322
100
AcDbEntity
  8
ASSI
100
AcDbLine
 62
7
  6
CONTINUOUS
 10
2.4104477071
 20
9.6938975875
 11
2.7551577013
 21
9.9436612973
  0
LINE
  5
323
100
AcDbEntity
  8
RACCORDO
100
AcDbLine
 62
250
  6
CONTINUOUS
 10
8.02807624
 20
14.547645575
 11
2.0670622615
 21
10.2800932103
  0
LINE
  5
324
100
AcDbEntity
  8
RACCORDO
100
AcDbLine
 62
250
  6
CONTINUOUS
 10
8.0798509638
 20
14.3860400763
 11
2.1610975939
 21
10.1487425241
  0
LWPOLYLINE
  5
325
100
AcDbEntity
  8
RACCORDO
100
AcDbPolyline
 62
250
  6
CONTINUOUS
 90
29
 70
0
 10
8.4139177038
 20
14.8920750801
 10
8.4930137263
 20
14.9486804088
 10
8.576109208
 20
15.0023850222
 10
8.6631592779
 20
15.0532040012
 10
8.7534688219
 20
15.1007312915
 10
8.8470753166
 20
15.1449385899
 10
8.9439412855
 20
15.1858541997
 10
9.0432591843
 20
15.223156976
 10
9.144987063
 20
15.2568025177
 10
9.2491668715
 20
15.286835226
 10
9.3551169154
 20
15.3130671586
 10
9.4627935877
 20
15.3354862269
 10
9.5722404954
 20
15.3541045195
 10
9.6829067644
 20
15.3687703606
 10
9.7949928073
 20
15.3794742282
 10
9.9082982117
 20
15.3862256441
 10
10.0216708656
 20
15.3889014985
 10
10.1353556216
 20
15.3873766369
 10
10.2491076272
 20
15.3817762137
 10
10.3610402136
 20
15.3723525827
 10
10.4711113096
 20
15.3589263107
 10
10.5793629864
 20
15.3416768307
 10
10.6840347886
 20
15.3213947961
 10
10.7849768462
 20
15.2979128123
 10
10.8823390291
 20
15.2713982738
 10
10.9748104915
 20
15.2431440164
 10
11.0619542846
 20
15.2135809857
 10
11.1442073571
 20
15.1822782361
 10
11.221569709
 20
15.1492357678
  0
LWPOLYLINE
  5
326
100
AcDbEntity
  8
RACCORDO
100
AcDbPolyline
 62
7
  6
CONTINUOUS
 90
3
 70
0
 10
8.3833096954
 20
14.9745172751
 10
8.2920590454
 20
14.9092747059
 10
8.2057066748
 20
14.840623647
  0
LINE
  5
327
100
AcDbEntity
  8
ASSI
100
AcDbLine
 62
250
  6
CONTINUOUS
 10
8.3959228266
 20
13.7119255566
 11
4.2212750546
 21
10.7292843746
  0
LINE
  5
328
100
AcDbEntity
  8
0
100
AcDbLine
 62
7
  6
CONTINUOUS
 10
8.3130923885
 20
14.6826317316
 11
8.8080671353
 21
15.0326317316
  0
LINE
  5
329
100
AcDbEntity
  8
ASSI
100
AcDbLine
 62
7
  6
CONTINUOUS
 10
7.7946338524
 20
15.427945708
 11
11.9644459423
 21
18.3657427008
  0
LINE
  5
32A
100
AcDbEntity
  8
ASSI
100
AcDbLine
 62
7
  6
CONTINUOUS
 10
8.0849181885
 20
14.9323993494
 11
8.4511676392
 21
15.1857278326
  0
LINE
  5
32B
100
AcDbEntity
  8
ASSI
100
AcDbLine
 62
250
  6
CONTINUOUS
 10
14.1799438905
 20
17.5745512604
 11
13.6247998309
 21
17.191695207
  0
LINE
  5
32C
100
AcDbEntity
  8
ASSI
100
AcDbLine
 62
7
  6
CONTINUOUS
 10
9.3232667984
 20
15.5626511897
 11
9.2558365702
 21
15.5171851494
  0
LWPOLYLINE
  5
32D
100
AcDbEntity
  8
RACCORDO
100
AcDbPolyline
 62
250
  6
CONTINUOUS
 90
40
 70
0
 10
-11.9109421327
 20
-1.0502024531
 10
-11.979443225
 20
-1.000238777
 10
-12.0470964908
 20
-0.9478964173
 10
-12.1137832336
 20
-0.8933532133
 10
-12.1792728303
 20
-0.836889393
 10
-12.2435833416
 20
-0.7785833852
 10
-12.3069719418
 20
-0.7182689021
 10
-12.3693387577
 20
-0.6560814041
 10
-12.4305882841
 20
-0.5921527789
 10
-12.4909679792
 20
-0.5262411047
 10
-12.5503614401
 20
-0.458467574
 10
-12.6086778776
 20
-0.3889253101
 10
-12.6661695441
 20
-0.3172722142
 10
-12.722541151
 20
-0.2438273115
 10
-12.7778433648
 20
-0.168465002
 10
-12.8327546669
 20
-0.0900970831
 10
-12.8871086671
 20
-0.0087259848
 10
-12.9406370434
 20
0.0755089018
 10
-12.9937046909
 20
0.1635573795
 10
-13.0461265586
 20
0.2555826691
 10
-13.0973820743
 20
0.351189346
 10
-13.1471996752
 20
0.4504759385
 10
-13.1951422386
 20
0.5532152287
 10
-13.2407551589
 20
0.6591465545
 10
-13.2836470929
 20
0.7682467515
 10
-13.3232514336
 20
0.880063227
 10
-13.3590317439
 20
0.9942141791
 10
-13.3905090131
 20
1.1106661755
 10
-13.4169988563
 20
1.2287874407
 10
-13.4378138075
 20
1.3478886768
 10
-13.4522925329
 20
1.4676647208
 10
-13.4596189244
 20
1.5871410307
 10
-13.4590000546
 20
1.7053183738
 10
-13.4495992464
 20
1.8215729368
 10
-13.4304919738
 20
1.9345675901
 10
-13.4008202985
 20
2.0428073822
 10
-13.3596481177
 20
2.1450515704
 10
-13.3061727767
 20
2.2393411088
 10
-13.2395874321
 20
2.323909874
 10
-13.1519178172
 20
2.4022239399
  0
LWPOLYLINE
  5
32E
100
AcDbEntity
  8
DRAFT
100
AcDbPolyline
 62
7
  6
CONTINUOUS
 90
13
 70
0
 10
-11.174770501
 20
-0.5360749727
 10
-11.4233897198
 20
-0.3380777263
 10
-11.6557876558
 20
-0.1201157107
 10
-11.8719643091
 20
0.1178110743
 10
-12.0756943215
 20
0.3817743287
 10
-12.2632030512
 20
0.6657023524
 10
-12.4231665726
 20
0.9513800452
 10
-12.5538616707
 20
1.2387431667
 10
-12.6570115605
 20
1.5278559574
 10
-12.7264619625
 20
1.800696038
 10
-12.7601614503
 20
2.0562935667
 10
-12.7601614503
 20
2.2956183853
 10
-12.7344846276
 20
2.454054604
  0
LWPOLYLINE
  5
32F
100
AcDbEntity
  8
ASSI
100
AcDbPolyline
 62
7
  6
CONTINUOUS
 90
4
 70
0
 10
-11.1784227043
 20
-0.2187400403
 10
-11.0705305855
 20
-0.3060703174
 10
-10.9626384667
 20
-0.3860749727
 10
-10.8547463479
 20
-0.4586528151
  0
LWPOLYLINE
  5
330
100
AcDbEntity
  8
RACCORDO
100
AcDbPolyline
 62
250
  6
CONTINUOUS
 90
5
 70
0
 10
-11.8737039738
 20
2.0831295684
 10
-11.7966630736
 20
2.0165810792
 10
-11.7208977425
 20
1.947606308
 10
-11.6463591457
 20
1.8763871717
 10
-11.5730464931
 20
1.8029810631
  0
LWPOLYLINE
  5
331
100
AcDbEntity
  8
RACCORDO
100
AcDbPolyline
 62
250
  6
CONTINUOUS
 90
25
 70
0
 10
-11.5730464931
 20
1.8029810631
 10
-11.5009594304
 20
1.7273313663
 10
-11.4300496832
 20
1.6494490487
 10
-11.360307048
 20
1.5693890793
 10
-11.2917400821
 20
1.4870976073
 10
-11.224328489
 20
1.4024224815
 10
-11.1581953887
 20
1.3156739451
 10
-11.0932154322
 20
1.2265432699
 10
-11.0289951112
 20
1.1339501933
 10
-10.9653269723
 20
1.0378362172
 10
-10.9024148499
 20
0.9382623016
 10
-10.8404810803
 20
0.8343281112
 10
-10.7791828737
 20
0.7256284204
 10
-10.7188570639
 20
0.6125725111
 10
-10.660744157
 20
0.495482671
 10
-10.6047133187
 20
0.3741948762
 10
-10.5508871184
 20
0.2488787881
 10
-10.5008850952
 20
0.1203579556
 10
-10.4545745192
 20
-0.0115339053
 10
-10.4120774391
 20
-0.1466232109
 10
-10.3753947149
 20
-0.2835760286
 10
-10.3443500922
 20
-0.4227202581
 10
-10.3191068489
 20
-0.5637191101
 10
-10.3021751786
 20
-0.7042416354
 10
-10.2933985568
 20
-0.8447058025
  0
LINE
  5
332
100
AcDbEntity
  8
RACCORDO
100
AcDbLine
 62
250
  6
CONTINUOUS
 10
-4.1863571385
 20
-23.3734528674
 11
-4.1764792898
 21
-23.4394297205
  0
LWPOLYLINE
  5
333
100
AcDbEntity
  8
RACCORDO
100
AcDbPolyline
 62
250
  6
CONTINUOUS
 90
6
 70
0
 10
-4.5382235589
 20
-23.3792428125
 10
-4.5277955497
 20
-23.4677332274
 10
-4.5053953792
 20
-23.5424288445
 10
-4.4726556635
 20
-23.6032245729
 10
-4.4313513111
 20
-23.6503201798
 10
-4.4136329791
 20
-23.66486137
  0
LWPOLYLINE
  5
334
100
AcDbEntity
  8
RACCORDO
100
AcDbPolyline
 62
250
  6
CONTINUOUS
 90
6
 70
0
 10
-4.7712587351
 20
-10.3689741112
 10
-4.7712586122
 20
-13.0040161956
 10
-4.7479524776
 20
-15.6227621092
 10
-4.7013419073
 20
-18.2250195878
 10
-4.6314304917
 20
-20.8105794066
 10
-4.5382235589
 20
-23.3792428125
  0
LWPOLYLINE
  5
335
100
AcDbEntity
  8
RACCORDO
100
AcDbPolyline
 62
250
  6
CONTINUOUS
 90
6
 70
0
 10
-4.4192532649
 20
-10.3707496719
 10
-4.4192532067
 20
-13.0043963234
 10
-4.3959635606
 20
-15.6215514777
 10
-4.3493843411
 20
-18.2220101048
 10
-4.2795155338
 20
-20.8059772347
 10
-4.1863571385
 20
-23.3734528674
  0
LINE
  5
336
100
AcDbEntity
  8
RACCORDO
100
AcDbLine
 62
7
  6
CONTINUOUS
 10
-4.1744133673
 20
21.6170641604
 11
-4.1744133673
 21
21.7508635621
  0
LINE
  5
337
100
AcDbEntity
  8
RACCORDO
100
AcDbLine
 62
250
  6
CONTINUOUS
 10
-4.747952477
 20
-7.717810574
 11
-4.7712587351
 21
-10.3689741112
  0
LINE
  5
338
100
AcDbEntity
  8
RACCORDO
100
AcDbLine
 62
250
  6
CONTINUOUS
 10
-4.3959636915
 20
-7.721226613
 11
-4.4192532649
 21
-10.3707496719
  0
LINE
  5
339
100
AcDbEntity
  8
RACCORDO
100
AcDbLine
 62
250
  6
CONTINUOUS
 10
-4.7013406846
 20
-5.050719574
 11
-4.747952477
 21
-7.717810574
  0
LINE
  5
33A
100
AcDbEntity
  8
RACCORDO
100
AcDbLine
 62
250
  6
CONTINUOUS
 10
-4.3493844721
 20
-5.0560321766
 11
-4.3959636915
 21
-7.721226613
  0
LINE
  5
33B
100
AcDbEntity
  8
RACCORDO
100
AcDbLine
 62
250
  6
CONTINUOUS
 10
-4.6314262269
 20
-2.3679149292
 11
-4.7013406846
 21
-5.050719574
  0
LINE
  5
33C
100
AcDbEntity
  8
RACCORDO
100
AcDbLine
 62
250
  6
CONTINUOUS
 10
-4.2795156211
 20
-2.3749613327
 11
-4.3493844721
 21
-5.0560321766
  0
LINE
  5
33D
100
AcDbEntity
  8
RACCORDO
100
AcDbLine
 62
250
  6
CONTINUOUS
 10
-4.5382137073
 20
0.3303975468
 11
-4.6314262269
 21
-2.3679149292
  0
LINE
  5
33E
100
AcDbEntity
  8
RACCORDO
100
AcDbLine
 62
250
  6
CONTINUOUS
 10
-4.1863571385
 20
0.3219859186
 11
-4.2795156211
 21
-2.3749613327
  0
LWPOLYLINE
  5
33F
100
AcDbEntity
  8
RACCORDO
100
AcDbPolyline
 62
7
  6
CONTINUOUS
 90
3
 70
0
 10
-2.5799240067
 20
20.7843468703
 10
-2.5769006343
 20
20.8205888458
 10
-2.5795656024
 20
20.8593436836
  0
LWPOLYLINE
  5
340
100
AcDbEntity
  8
RACCORDO
100
AcDbPolyline
 62
7
  6
CONTINUOUS
 90
10
 70
0
 10
-2.5947175175
 20
13.5825649698
 10
-2.593673736
 20
13.5905602802
 10
-2.5921110507
 20
13.5980435456
 10
-2.5900294616
 20
13.605014766
 10
-2.5874170838
 20
13.6114966
 10
-2.5842858023
 20
13.617466389
 10
-2.5806712717
 20
13.6228561572
 10
-2.5765679685
 20
13.6276592751
 10
-2.5719814163
 20
13.6318823722
 10
-2.5693121598
 20
13.6339136207
  0
LWPOLYLINE
  5
341
100
AcDbEntity
  8
RACCORDO
100
AcDbPolyline
 62
250
  6
CONTINUOUS
 90
10
 70
0
 10
-1.3555504054
 20
21.2157947871
 10
-1.3478620827
 20
21.2539356818
 10
-1.3458039019
 20
21.2946725895
 10
-1.3494381633
 20
21.3367724274
 10
-1.3586548596
 20
21.3789608573
 10
-1.3731750067
 20
21.4199608597
 10
-1.3925590882
 20
21.4585313877
 10
-1.416220359
 20
21.4935049336
 10
-1.4434426059
 20
21.523822868
 10
-1.4734018271
 20
21.5485674845
  0
LWPOLYLINE
  5
342
100
AcDbEntity
  8
RACCORDO
100
AcDbPolyline
 62
7
  6
CONTINUOUS
 90
3
 70
0
 10
-1.0876718498
 20
21.0637209742
 10
-1.0782945609
 20
21.1037614605
 10
-1.0688032021
 20
21.2334550332
  0
LINE
  5
343
100
AcDbEntity
  8
RACCORDO
100
AcDbLine
 62
250
  6
CONTINUOUS
 10
-1.0997184865
 20
17.2463938619
 11
-1.1871216914
 21
16.9155910582
  0
LINE
  5
344
100
AcDbEntity
  8
RACCORDO
100
AcDbLine
 62
250
  6
CONTINUOUS
 10
-0.8237974279
 20
17.1977979111
 11
-0.9112006328
 21
16.8669951074
  0
LINE
  5
345
100
AcDbEntity
  8
RACCORDO
100
AcDbLine
 62
250
  6
CONTINUOUS
 10
8.206571934
 20
14.7106666934
 11
8.2681499252
 21
14.7706588163
  0
LINE
  5
346
100
AcDbEntity
  8
RACCORDO
100
AcDbLine
 62
250
  6
CONTINUOUS
 10
8.2681499252
 20
14.7706588163
 11
8.3387762695
 21
14.8325841169
  0
LWPOLYLINE
  5
347
100
AcDbEntity
  8
RACCORDO
100
AcDbPolyline
 62
7
  6
CONTINUOUS
 90
6
 70
0
 10
8.0489737362
 20
14.1564789495
 10
8.0887863042
 20
14.1889910418
 10
8.1472908306
 20
14.2542401991
 10
8.1905173341
 20
14.3292256883
 10
8.2161083679
 20
14.4104265165
 10
8.2231732518
 20
14.4884173379
  0
LINE
  5
348
100
AcDbEntity
  8
ASSI
100
AcDbLine
 62
250
  6
CONTINUOUS
 10
4.2211027282
 20
10.7294062278
 11
2.5775941309
 21
9.408560794
  0
LINE
  5
349
100
AcDbEntity
  8
ASSI
100
AcDbLine
 62
250
  6
CONTINUOUS
 10
4.3246914689
 20
10.6196201085
 11
2.6544776657
 21
9.2773123903
  0
LWPOLYLINE
  5
34A
100
AcDbEntity
  8
RACCORDO
100
AcDbPolyline
 62
250
  6
CONTINUOUS
 90
13
 70
0
 10
-1.7473700418
 20
6.1619340529
 10
-1.7662823523
 20
6.147214194
 10
-1.7855879331
 20
6.1300444166
 10
-1.8050089657
 20
6.1104478055
 10
-1.824197727
 20
6.0885425491
 10
-1.8428194949
 20
6.0644602099
 10
-1.8605389436
 20
6.0383351992
 10
-1.8769004818
 20
6.0104825331
 10
-1.8914183367
 20
5.9813164209
 10
-1.9036262267
 20
5.951248738
 10
-1.9129920074
 20
5.9208740134
 10
-1.9189689044
 20
5.8909669976
 10
-1.9210615584
 20
5.8623658323
  0
LINE
  5
34B
100
AcDbEntity
  8
RACCORDO
100
AcDbLine
 62
250
  6
CONTINUOUS
 10
-13.2515717287
 20
-4.3872947412
 11
-13.2463313568
 21
-4.3834635998
  0
LINE
  5
34C
100
AcDbEntity
  8
ASSI
100
AcDbLine
 62
250
  6
CONTINUOUS
 10
8.4984201361
 20
13.6016046221
 11
4.3246914689
 21
10.6196201085
  0
LINE
  5
34D
100
AcDbEntity
  8
ASSI
100
AcDbLine
 62
7
  6
CONTINUOUS
 10
3.6136077182
 20
7.6430023642
 11
9.5178293916
 21
11.8613641692
  0
LINE
  5
34E
100
AcDbEntity
  8
RACCORDO
100
AcDbLine
 62
250
  6
CONTINUOUS
 10
1.8577939842
 20
8.72944518
 11
-1.7473700418
 21
6.1619340529
  0
LINE
  5
34F
100
AcDbEntity
  8
RACCORDO
100
AcDbLine
 62
250
  6
CONTINUOUS
 10
2.0345504869
 20
8.427682762
 11
-1.569057547
 21
5.861279775
  0
LINE
  5
350
100
AcDbEntity
  8
RACCORDO
100
AcDbLine
 62
7
  6
CONTINUOUS
 10
11.221569709
 20
15.1492357678
 11
10.0992566309
 21
14.3556405797
  0
LINE
  5
351
100
AcDbEntity
  8
RACCORDO
100
AcDbLine
 62
7
  6
CONTINUOUS
 10
9.270502457
 20
13.7696228834
 11
8.8489415365
 21
13.4715342978
  0
LINE
  5
352
100
AcDbEntity
  8
0
100
AcDbLine
 62
7
  6
CONTINUOUS
 10
9.4779129638
 20
13.2154763197
 11
9.3034329346
 21
13.0921003079
  0
LINE
  5
353
100
AcDbEntity
  8
0
100
AcDbLine
 62
7
  6
CONTINUOUS
 10
11.4169303515
 20
14.5802698218
 11
10.0992566309
 21
13.6485337986
  0
LINE
  5
354
100
AcDbEntity
  8
0
100
AcDbLine
 62
7
  6
CONTINUOUS
 10
9.270502457
 20
13.0625161022
 11
9.1418347553
 21
12.9715342978
  0
LINE
  5
355
100
AcDbEntity
  8
0
100
AcDbLine
 62
7
  6
CONTINUOUS
 10
10.9162482978
 20
14.0762341464
 11
10.5618297937
 21
13.8256224187
  0
LINE
  5
356
100
AcDbEntity
  8
RACCORDO
100
AcDbLine
 62
7
  6
CONTINUOUS
 10
11.9287005664
 20
14.6492527923
 11
10.8063634121
 21
13.8556405797
  0
LINE
  5
357
100
AcDbEntity
  8
RACCORDO
100
AcDbLine
 62
7
  6
CONTINUOUS
 10
9.9776092382
 20
13.2696228834
 11
9.2631550988
 21
12.7644275166
  0
LINE
  5
358
100
AcDbEntity
  8
0
100
AcDbLine
 62
7
  6
CONTINUOUS
 10
10.5989529054
 20
13.2154763197
 11
10.5618297937
 21
13.1892263157
  0
LINE
  5
359
100
AcDbEntity
  8
ASSI
100
AcDbLine
 62
7
  6
CONTINUOUS
 10
15.9094274051
 20
16.0846792686
 11
12.0262266787
 21
13.3754506206
  0
LINE
  5
35A
100
AcDbEntity
  8
DRAFT
100
AcDbLine
 62
7
  6
CONTINUOUS
 10
3.6037612258
 20
7.6567839877
 11
2.0345504869
 21
6.5991584717
  0
LWPOLYLINE
  5
35B
100
AcDbEntity
  8
RACCORDO
100
AcDbPolyline
 62
7
  6
CONTINUOUS
 90
14
 70
0
 10
11.9281395928
 20
14.6488561241
 10
11.9401432083
 20
14.6568706057
 10
11.9519654216
 20
14.6637989942
 10
11.9636062329
 20
14.6696412897
 10
11.9751847094
 20
14.6744360325
 10
11.9865817838
 20
14.6781446823
 10
11.9974402543
 20
14.6806516178
 10
12.0076834077
 20
14.6819075057
 10
12.0173879571
 20
14.6819616792
 10
12.0264268399
 20
14.6808465163
 10
12.034804083
 20
14.6785576366
 10
12.0425156595
 20
14.6750994205
 10
12.0494224255
 20
14.6705173879
 10
12.0553093056
 20
14.6649832157
  0
LINE
  5
35C
100
AcDbEntity
  8
RACCORDO
100
AcDbLine
 62
250
  6
CONTINUOUS
 10
-10.6080226306
 20
-1.2890534744
 11
-10.6255354877
 21
-1.3007218282
  0
LWPOLYLINE
  5
35D
100
AcDbEntity
  8
RACCORDO
100
AcDbPolyline
 62
250
  6
CONTINUOUS
 90
10
 70
0
 10
-1.569057547
 20
5.861279775
 10
-1.6029260573
 20
5.8415617034
 10
-1.6411364765
 20
5.8263372474
 10
-1.6825096271
 20
5.8160710276
 10
-1.7259328116
 20
5.8110660844
 10
-1.7699121206
 20
5.8115203836
 10
-1.8126174551
 20
5.8173207547
 10
-1.8526587187
 20
5.8280624936
 10
-1.8891125561
 20
5.8432739531
 10
-1.9210615584
 20
5.8623658323
  0
LWPOLYLINE
  5
35E
100
AcDbEntity
  8
RACCORDO
100
AcDbPolyline
 62
250
  6
CONTINUOUS
 90
10
 70
0
 10
-10.6255354877
 20
-1.3007218282
 10
-10.6818166804
 20
-1.3326481778
 10
-10.7924320106
 20
-1.3751852935
 10
-10.9185428113
 20
-1.3985595436
 10
-11.0614935199
 20
-1.4002161717
 10
-11.2194380507
 20
-1.377492355
 10
-11.3860315902
 20
-1.3301001933
 10
-11.5573853099
 20
-1.259361637
 10
-11.7330830551
 20
-1.1657063938
 10
-11.9109421327
 20
-1.0502024531
  0
LWPOLYLINE
  5
35F
100
AcDbEntity
  8
ASSI
100
AcDbPolyline
 62
7
  6
CONTINUOUS
 90
6
 70
0
 10
-10.8547463479
 20
-0.4586528151
 10
-10.7468542291
 20
-0.5239050357
 10
-10.6404456284
 20
-0.5809344155
 10
-10.5355410381
 20
-0.6296273699
 10
-10.432119966
 20
-0.6700974836
 10
-10.4133130536
 20
-0.6760269788
  0
LINE
  5
360
100
AcDbEntity
  8
RACCORDO
100
AcDbLine
 62
250
  6
CONTINUOUS
 10
-12.3262467385
 20
2.4053854943
 11
-12.1125316889
 21
2.2680335503
  0
LWPOLYLINE
  5
361
100
AcDbEntity
  8
RACCORDO
100
AcDbPolyline
 62
250
  6
CONTINUOUS
 90
4
 70
0
 10
-12.1125316889
 20
2.2680335503
 10
-12.0316461303
 20
2.2088256814
 10
-11.9520369466
 20
2.1471909837
 10
-11.8737039738
 20
2.0831295684
  0
LWPOLYLINE
  5
362
100
AcDbEntity
  8
RACCORDO
100
AcDbPolyline
 62
7
  6
CONTINUOUS
 90
16
 70
0
 10
-12.0601236744
 20
2.1328296186
 10
-11.8361747669
 20
1.9584739042
 10
-11.5934603973
 20
1.7326710479
 10
-11.3567619183
 20
1.4719877337
 10
-11.1341526346
 20
1.1834185119
 10
-10.9342866474
 20
0.8776628697
 10
-10.7625210702
 20
0.5638456931
 10
-10.6222501231
 20
0.2497066491
 10
-10.5167928823
 20
-0.054615497
 10
-10.4475033879
 20
-0.339505237
 10
-10.4135089468
 20
-0.5987168202
 10
-10.4129368326
 20
-0.8245043403
 10
-10.4410541991
 20
-1.0079759001
 10
-10.4904993861
 20
-1.1459655082
 10
-10.555639268
 20
-1.2430421401
 10
-10.6256857937
 20
-1.3007848541
  0
LWPOLYLINE
  5
363
100
AcDbEntity
  8
RACCORDO
100
AcDbPolyline
 62
250
  6
CONTINUOUS
 90
8
 70
0
 10
-1.9210615584
 20
-25.2742847939
 10
-1.9204247879
 20
-25.2888256044
 10
-1.918446738
 20
-25.3027284686
 10
-1.9150325051
 20
-25.3157953679
 10
-1.9101045911
 20
-25.3278053227
 10
-1.9035902843
 20
-25.3385581596
 10
-1.8954091047
 20
-25.3478597329
 10
-1.8886220801
 20
-25.3534091868
  0
LINE
  5
364
100
AcDbEntity
  8
RACCORDO
100
AcDbLine
 62
250
  6
CONTINUOUS
 10
-2.3005803971
 20
22.7090159674
 11
-2.3005803971
 21
22.5816893938
  0
LINE
  5
365
100
AcDbEntity
  8
RACCORDO
100
AcDbLine
 62
7
  6
CONTINUOUS
 10
-2.2273570924
 20
22.8340159674
 11
-2.2273570924
 21
22.5621164354
  0
LINE
  5
366
100
AcDbEntity
  8
RACCORDO
100
AcDbLine
 62
250
  6
CONTINUOUS
 10
-1.9210615584
 20
5.8623658323
 11
-1.9210615584
 21
3.5876480055
  0
LINE
  5
367
100
AcDbEntity
  8
RACCORDO
100
AcDbLine
 62
250
  6
CONTINUOUS
 10
-1.9210615584
 20
-22.9995669671
 11
-1.9210615584
 21
-25.2742847939
  0
LWPOLYLINE
  5
368
100
AcDbEntity
  8
RACCORDO
100
AcDbPolyline
 62
250
  6
CONTINUOUS
 90
6
 70
0
 10
-2.2273570924
 20
22.8340159674
 10
-2.2283084179
 20
22.8186088632
 10
-2.2358756359
 20
22.7882627919
 10
-2.2507801457
 20
22.7593069077
 10
-2.2725690814
 20
22.7326210205
 10
-2.3005803971
 20
22.7090159674
  0
LWPOLYLINE
  5
369
100
AcDbEntity
  8
RACCORDO
100
AcDbPolyline
 62
250
  6
CONTINUOUS
 90
10
 70
0
 10
-1.1889880127
 20
10.4852237642
 10
-1.1863320566
 20
10.5176299626
 10
-1.178443998
 20
10.5528184801
 10
-1.1655608652
 20
10.5897319461
 10
-1.1480697812
 20
10.6272611596
 10
-1.1264963324
 20
10.6642784161
 10
-1.101488776
 20
10.6996713942
 10
-1.0737985584
 20
10.7323765829
 10
-1.0442577341
 20
10.7614112383
 10
-1.0137539655
 20
10.7859029115
  0
LWPOLYLINE
  5
36A
100
AcDbEntity
  8
RACCORDO
100
AcDbPolyline
 62
250
  6
CONTINUOUS
 90
10
 70
0
 10
-1.1681687832
 20
10.4705023459
 10
-1.1655128308
 20
10.502908521
 10
-1.1576247813
 20
10.5380970176
 10
-1.1447416601
 20
10.5750104681
 10
-1.1272505879
 20
10.6125396723
 10
-1.1056771483
 20
10.6495569274
 10
-1.0806695944
 20
10.6849499141
 10
-1.0529793699
 20
10.7176551203
 10
-1.0234385295
 20
10.7466897978
 10
-0.992934736
 20
10.7711814931
  0
LWPOLYLINE
  5
36B
100
AcDbEntity
  8
RACCORDO
100
AcDbPolyline
 62
250
  6
CONTINUOUS
 90
5
 70
0
 10
-1.0690208075
 20
21.5556887946
 10
-1.0704110085
 20
21.5388355731
 10
-1.0738919262
 20
21.5172119645
 10
-1.0793180288
 20
21.4947886182
 10
-1.0866808285
 20
21.471626344
  0
LINE
  5
36C
100
AcDbEntity
  8
RACCORDO
100
AcDbLine
 62
7
  6
CONTINUOUS
 10
-2.7348441153
 20
12.0799950954
 11
-2.5947175175
 21
13.5825649698
  0
LINE
  5
36D
100
AcDbEntity
  8
RACCORDO
100
AcDbLine
 62
7
  6
CONTINUOUS
 10
-2.4518581792
 20
12.2815308742
 11
-2.3355758625
 21
13.5284198212
  0
LWPOLYLINE
  5
36E
100
AcDbEntity
  8
RACCORDO
100
AcDbPolyline
 62
250
  6
CONTINUOUS
 90
3
 70
0
 10
-1.0776394979
 20
21.1353668056
 10
-1.0711192335
 20
21.1824099294
 10
-1.0688008546
 20
21.2318986685
  0
LINE
  5
36F
100
AcDbEntity
  8
0
100
AcDbLine
 62
250
  6
CONTINUOUS
 10
-0.0683375688
 20
13.6459899194
 11
0.019065636
 21
13.976792723
  0
LINE
  5
370
100
AcDbEntity
  8
RACCORDO
100
AcDbLine
 62
250
  6
CONTINUOUS
 10
1.2268122375
 20
15.7477979111
 11
1.1815382501
 21
15.5764453619
  0
LWPOLYLINE
  5
371
100
AcDbEntity
  8
RACCORDO
100
AcDbPolyline
 62
7
  6
CONTINUOUS
 90
11
 70
0
 10
1.285680178
 20
15.6453159383
 10
1.2846241264
 20
15.6418054603
 10
1.2820359602
 20
15.6355038781
 10
1.2786266355
 20
15.6294353849
 10
1.2744396394
 20
15.6236773866
 10
1.2694650101
 20
15.6182338605
 10
1.2637127094
 20
15.6131008292
 10
1.2572561099
 20
15.6083437664
 10
1.2501196692
 20
15.6039844965
 10
1.2422789297
 20
15.600001195
 10
1.2337338914
 20
15.5963938619
  0
LWPOLYLINE
  5
372
100
AcDbEntity
  8
RACCORDO
100
AcDbPolyline
 62
250
  6
CONTINUOUS
 90
13
 70
0
 10
-3.7447098314
 20
1.1302273556
 10
-3.8161529701
 20
1.0610880904
 10
-3.8812349244
 20
0.990717713
 10
-3.9399556942
 20
0.9191162232
 10
-3.9923437261
 20
0.8452124963
 10
-4.0383705736
 20
0.770077657
 10
-4.0779508973
 20
0.6969250799
 10
-4.1108165481
 20
0.6262361843
 10
-4.1372356753
 20
0.5575295508
 10
-4.157927387
 20
0.4925742959
 10
-4.1731313862
 20
0.431960125
 10
-4.18260797
 20
0.3750973325
 10
-4.1863571385
 20
0.3219859186
  0
LWPOLYLINE
  5
373
100
AcDbEntity
  8
RACCORDO
100
AcDbPolyline
 62
250
  6
CONTINUOUS
 90
13
 70
0
 10
-3.9506340985
 20
1.4086984508
 10
-4.0446816959
 20
1.3199467169
 10
-4.131725422
 20
1.2249982047
 10
-4.2107369498
 20
1.1263617133
 10
-4.2808983242
 20
1.0265213427
 10
-4.3420441792
 20
0.9272291619
 10
-4.3944649197
 20
0.8294340105
 10
-4.4382245546
 20
0.7343884131
 10
-4.4734638851
 20
0.6433375548
 10
-4.5006432239
 20
0.5568265954
 10
-4.5201797732
 20
0.4754525777
 10
-4.5325167718
 20
0.3998594831
 10
-4.5382134241
 20
0.3303974063
  0
LINE
  5
374
100
AcDbEntity
  8
RACCORDO
100
AcDbLine
 62
250
  6
CONTINUOUS
 10
-1.5656975727
 20
3.4828143309
 11
-3.9506340985
 21
1.4086984508
  0
LINE
  5
375
100
AcDbEntity
  8
RACCORDO
100
AcDbLine
 62
250
  6
CONTINUOUS
 10
-1.3891820343
 20
3.1787672464
 11
-3.7447098314
 21
1.1302273556
  0
LWPOLYLINE
  5
376
100
AcDbEntity
  8
ASSI
100
AcDbPolyline
 62
7
  6
CONTINUOUS
 90
9
 70
0
 10
9.5178293916
 20
11.8613641692
 10
9.5526814817
 20
11.8892182938
 10
9.5828908303
 20
11.9175477152
 10
9.608144847
 20
11.9460893028
 10
9.6281220507
 20
11.9747612968
 10
9.6426720534
 20
12.003194368
 10
9.6518532057
 20
12.0307507459
 10
9.6555807361
 20
12.0573011171
 10
9.6556662706
 20
12.0622617815
  0
LINE
  5
377
100
AcDbEntity
  8
ASSI
100
AcDbLine
 62
250
  6
CONTINUOUS
 10
17.1516080647
 20
15.2063249008
 11
9.6556495636
 21
9.8507222858
  0
LINE
  5
378
100
AcDbEntity
  8
RACCORDO
100
AcDbLine
 62
7
  6
CONTINUOUS
 10
-1.569057547
 20
3.5865619482
 11
-1.3891820343
 21
3.7115523873
  0
LWPOLYLINE
  5
379
100
AcDbEntity
  8
RACCORDO
100
AcDbPolyline
 62
7
  6
CONTINUOUS
 90
10
 70
0
 10
-13.2515187968
 20
-4.3872589428
 10
-13.2272042592
 20
-4.3708585862
 10
-13.1616876114
 20
-4.3418813344
 10
-13.0828341837
 20
-4.3261313416
 10
-12.9794331819
 20
-4.3246652948
 10
-12.8469868807
 20
-4.3442196135
 10
-12.6916080405
 20
-4.389768489
 10
-12.518938522
 20
-4.4632885603
 10
-12.3332590826
 20
-4.5654684513
 10
-12.1786161351
 20
-4.6673466979
  0
LWPOLYLINE
  5
37A
100
AcDbEntity
  8
RACCORDO
100
AcDbPolyline
 62
250
  6
CONTINUOUS
 90
10
 70
0
 10
-10.6386205382
 20
-1.7947332254
 10
-10.7509113416
 20
-1.8629155273
 10
-10.8806974616
 20
-1.9146306688
 10
-11.0281584589
 20
-1.941107109
 10
-11.1966699873
 20
-1.9402769935
 10
-11.3828861133
 20
-1.9142286306
 10
-11.5769228572
 20
-1.8604377313
 10
-11.7754994982
 20
-1.7780724891
 10
-11.9819280758
 20
-1.6679863287
 10
-12.1962161744
 20
-1.5301844891
  0
LWPOLYLINE
  5
37B
100
AcDbEntity
  8
RACCORDO
100
AcDbPolyline
 62
7
  6
CONTINUOUS
 90
10
 70
0
 10
-1.569057547
 20
3.5865619482
 10
-1.6045029222
 20
3.5665487554
 10
-1.6418124302
 20
3.5515719527
 10
-1.6809860711
 20
3.5416315401
 10
-1.7232872947
 20
3.5367314157
 10
-1.7674526511
 20
3.5368676816
 10
-1.8096917907
 20
3.5420286429
 10
-1.8487412635
 20
3.5522104016
 10
-1.8858645194
 20
3.5674168558
 10
-1.9210615584
 20
3.5876480055
  0
LWPOLYLINE
  5
37C
100
AcDbEntity
  8
RACCORDO
100
AcDbPolyline
 62
250
  6
CONTINUOUS
 90
10
 70
0
 10
-4.1863571385
 20
0.3219859186
 10
-4.2197593743
 20
0.3037037116
 10
-4.2574233011
 20
0.2897596166
 10
-4.2982171583
 20
0.2805726387
 10
-4.3409151342
 20
0.2764188368
 10
-4.3842342004
 20
0.2774230282
 10
-4.4268726654
 20
0.2835550379
 10
-4.4675492891
 20
0.2946306056
 10
-4.5050417824
 20
0.3103169224
 10
-4.5382235362
 20
0.3301426313
  0
LWPOLYLINE
  5
37D
100
AcDbEntity
  8
DRAFT
100
AcDbPolyline
 62
7
  6
CONTINUOUS
 90
5
 70
0
 10
-10.4206627689
 20
-0.8749176526
 10
-10.477576693
 20
-0.8681698646
 10
-10.6937533463
 20
-0.8003766946
 10
-10.9261512823
 20
-0.6896783973
 10
-11.174770501
 20
-0.5360749727
  0
LINE
  5
37E
100
AcDbEntity
  8
RACCORDO
100
AcDbLine
 62
250
  6
CONTINUOUS
 10
-12.7314613373
 20
2.5968209063
 11
-12.5325591357
 21
2.5149795731
  0
LINE
  5
37F
100
AcDbEntity
  8
RACCORDO
100
AcDbLine
 62
250
  6
CONTINUOUS
 10
-12.5325591357
 20
2.5149795731
 11
-12.3262467385
 21
2.4053854943
  0
LINE
  5
380
100
AcDbEntity
  8
RACCORDO
100
AcDbLine
 62
250
  6
CONTINUOUS
 10
-19.4648210916
 20
10.8848409085
 11
-4.5382137073
 21
0.3303975468
  0
LWPOLYLINE
  5
381
100
AcDbEntity
  8
RACCORDO
100
AcDbPolyline
 62
250
  6
CONTINUOUS
 90
10
 70
0
 10
-3.7447098314
 20
1.1302273556
 10
-3.752731055
 20
1.1585883953
 10
-3.7658190119
 20
1.1899149127
 10
-3.7835798044
 20
1.223259169
 10
-3.8054779199
 20
1.2576119644
 10
-3.8308512109
 20
1.2919314825
 10
-3.8589303052
 20
1.3251749324
 10
-3.8888637222
 20
1.3563326716
 10
-3.9197441338
 20
1.384458771
 10
-3.950634421
 20
1.4086981697
  0
LWPOLYLINE
  5
382
100
AcDbEntity
  8
RACCORDO
100
AcDbPolyline
 62
250
  6
CONTINUOUS
 90
10
 70
0
 10
-1.569057547
 20
5.861279775
 10
-1.5723314968
 20
5.8939237544
 10
-1.5809546272
 20
5.9294662191
 10
-1.5946544281
 20
5.9667995523
 10
-1.613076338
 20
6.0049012659
 10
-1.6355989148
 20
6.0424440135
 10
-1.6612138901
 20
6.077873894
 10
-1.6889299861
 20
6.1100678728
 10
-1.7179429368
 20
6.1383147677
 10
-1.7473700419
 20
6.1619340528
  0
LINE
  5
383
100
AcDbEntity
  8
RACCORDO
100
AcDbLine
 62
250
  6
CONTINUOUS
 10
-1.4356638799
 20
10.8670978192
 11
-1.4378657859
 21
10.9029512019
  0
LINE
  5
384
100
AcDbEntity
  8
RACCORDO
100
AcDbLine
 62
250
  6
CONTINUOUS
 10
-2.3013055547
 20
22.7317301425
 11
-2.3005803971
 21
22.7090159674
  0
LWPOLYLINE
  5
385
100
AcDbEntity
  8
RACCORDO
100
AcDbPolyline
 62
250
  6
CONTINUOUS
 90
9
 70
0
 10
-1.0867624346
 20
21.4716374103
 10
-1.0875601639
 20
21.5054624551
 10
-1.0940783827
 20
21.539274812
 10
-1.1061647357
 20
21.5722842094
 10
-1.1235367241
 20
21.6037191453
 10
-1.1457883085
 20
21.6328449193
 10
-1.1723993987
 20
21.6589808053
 10
-1.20274801
 20
21.6815159621
 10
-1.2361248002
 20
21.6999237105
  0
LINE
  5
386
100
AcDbEntity
  8
RACCORDO
100
AcDbLine
 62
250
  6
CONTINUOUS
 10
-1.4378657859
 20
10.9029512019
 11
-1.4379472487
 21
10.9113083255
  0
LINE
  5
387
100
AcDbEntity
  8
RACCORDO
100
AcDbLine
 62
7
  6
CONTINUOUS
 10
-1.0688008546
 20
21.2318986685
 11
-1.0688031751
 21
21.2334642545
  0
LINE
  5
388
100
AcDbEntity
  8
RACCORDO
100
AcDbLine
 62
250
  6
CONTINUOUS
 10
-1.3554334409
 20
20.9613859522
 11
-1.3555504054
 21
21.2157947871
  0
LINE
  5
389
100
AcDbEntity
  8
RACCORDO
100
AcDbLine
 62
250
  6
CONTINUOUS
 10
-1.569057547
 20
5.861279775
 11
-1.569057547
 21
3.5865619482
  0
LINE
  5
38A
100
AcDbEntity
  8
RACCORDO
100
AcDbLine
 62
250
  6
CONTINUOUS
 10
-1.569057547
 20
-23.0006530244
 11
-1.569057547
 21
-25.2753708512
  0
LINE
  5
38B
100
AcDbEntity
  8
RACCORDO
100
AcDbLine
 62
7
  6
CONTINUOUS
 10
-1.4379472487
 20
10.9113082444
 11
-1.4379472487
 21
10.5020441179
  0
LINE
  5
38C
100
AcDbEntity
  8
RACCORDO
100
AcDbLine
 62
7
  6
CONTINUOUS
 10
-1.3891820343
 20
3.7115523873
 11
-1.3891820343
 21
3.1787672464
  0
LINE
  5
38D
100
AcDbEntity
  8
RACCORDO
100
AcDbLine
 62
7
  6
CONTINUOUS
 10
-1.3891820343
 20
-22.3428774445
 11
-1.3891820343
 21
-22.8756625854
  0
LINE
  5
38E
100
AcDbEntity
  8
RACCORDO
100
AcDbLine
 62
250
  6
CONTINUOUS
 10
-1.1889880127
 20
10.4852237642
 11
-1.1889880127
 21
10.073971315
  0
LINE
  5
38F
100
AcDbEntity
  8
RACCORDO
100
AcDbLine
 62
250
  6
CONTINUOUS
 10
-1.1681687832
 20
10.0592498966
 11
-1.1681687832
 21
10.4705023459
  0
LINE
  5
390
100
AcDbEntity
  8
ASSI
100
AcDbLine
 62
7
  6
CONTINUOUS
 10
-1.0688008546
 20
21.2318984124
 11
-1.0688008546
 21
21.5652682166
  0
LINE
  5
391
100
AcDbEntity
  8
0
100
AcDbLine
 62
7
  6
CONTINUOUS
 10
-0.9924328519
 20
12.5786742903
 11
-0.9924328519
 21
12.7908063246
  0
LINE
  5
392
100
AcDbEntity
  8
0
100
AcDbLine
 62
7
  6
CONTINUOUS
 10
-0.7095901395
 20
12.7786742903
 11
-0.7095901395
 21
12.9908063246
  0
LINE
  5
393
100
AcDbEntity
  8
0
100
AcDbLine
 62
250
  6
CONTINUOUS
 10
-0.4974581051
 20
13.352938359
 11
-0.4974581051
 21
13.6357810715
  0
LINE
  5
394
100
AcDbEntity
  8
0
100
AcDbLine
 62
250
  6
CONTINUOUS
 10
-0.1338899725
 20
13.610019851
 11
-0.1338899725
 21
13.8928625635
  0
LINE
  5
395
100
AcDbEntity
  8
RACCORDO
100
AcDbLine
 62
7
  6
CONTINUOUS
 10
-0.0024833583
 20
10.4497229797
 11
-0.0024833583
 21
10.0448599037
  0
LWPOLYLINE
  5
396
100
AcDbEntity
  8
RACCORDO
100
AcDbPolyline
 62
7
  6
CONTINUOUS
 90
6
 70
0
 10
-1.0690222099
 20
21.5556671524
 10
-1.0689980777
 20
21.5731105204
 10
-1.0805752189
 20
21.6536218168
 10
-1.1107413307
 20
21.7268106739
 10
-1.1583187424
 20
21.7902897601
 10
-1.2050062338
 20
21.8302728907
  0
LWPOLYLINE
  5
397
100
AcDbEntity
  8
RACCORDO
100
AcDbPolyline
 62
250
  6
CONTINUOUS
 90
3
 70
0
 10
-1.0688008546
 20
21.5652848405
 10
-1.0688803356
 20
21.559540041
 10
-1.0690208075
 20
21.5556887946
  0
LWPOLYLINE
  5
398
100
AcDbEntity
  8
0
100
AcDbPolyline
 62
7
  6
CONTINUOUS
 90
19
 70
0
 10
-0.9924328519
 20
12.7908063246
 10
-0.9904311591
 20
12.8358947445
 10
-0.9848092073
 20
12.8825730285
 10
-0.9755669964
 20
12.9308411768
 10
-0.9625797188
 20
12.9810887545
 10
-0.9459721821
 20
13.0329261965
 10
-0.9261188101
 20
13.0851848067
 10
-0.9029458699
 20
13.1378741526
 10
-0.8765270943
 20
13.1909846667
 10
-0.8474581051
 20
13.2433189512
 10
-0.8156786999
 20
13.2948593733
 10
-0.7812490812
 20
13.3456235658
 10
-0.7449454785
 20
13.3944670296
 10
-0.7067253223
 20
13.4413461333
 10
-0.6666311821
 20
13.4863045084
 10
-0.6255669964
 20
13.5283285502
 10
-0.5838340781
 20
13.5670803905
 10
-0.5411311144
 20
13.6028978976
 10
-0.4974581051
 20
13.6357810715
  0
LWPOLYLINE
  5
399
100
AcDbEntity
  8
0
100
AcDbPolyline
 62
7
  6
CONTINUOUS
 90
16
 70
0
 10
-0.7095901395
 20
12.9908063246
 10
-0.7083236072
 20
13.014265669
 10
-0.7048627803
 20
13.0385636444
 10
-0.6992076587
 20
13.0637002509
 10
-0.6912490037
 20
13.0899671249
 10
-0.6810960541
 20
13.11707263
 10
-0.669076526
 20
13.1441418568
 10
-0.6551295147
 20
13.1711736215
 10
-0.6393159249
 20
13.1981691079
 10
-0.6221461864
 20
13.2242569576
 10
-0.6035760495
 20
13.2494075555
 10
-0.5836497639
 20
13.2736505168
 10
-0.5630105088
 20
13.2962033291
 10
-0.5418726771
 20
13.3168051548
 10
-0.5200218759
 20
13.3357168314
 10
-0.4974581051
 20
13.352938359
  0
LINE
  5
39A
100
AcDbEntity
  8
RACCORDO
100
AcDbLine
 62
250
  6
CONTINUOUS
 10
3.2079308423
 20
16.9285917493
 11
3.1770007192
 21
16.811527719
  0
LINE
  5
39B
100
AcDbEntity
  8
0
100
AcDbLine
 62
250
  6
CONTINUOUS
 10
4.542880557
 20
17.4387922893
 11
4.4723605473
 21
17.1718888393
  0
LWPOLYLINE
  5
39C
100
AcDbEntity
  8
RACCORDO
100
AcDbPolyline
 62
7
  6
CONTINUOUS
 90
11
 70
0
 10
3.1559845557
 20
16.8796696729
 10
3.1570406073
 20
16.8831801509
 10
3.1596287735
 20
16.8894817331
 10
3.1630380982
 20
16.8955502262
 10
3.1672250943
 20
16.9013082245
 10
3.1721997236
 20
16.9067517507
 10
3.1779520243
 20
16.9118847819
 10
3.1844086237
 20
16.9166418448
 10
3.1915450645
 20
16.9210011147
 10
3.199385804
 20
16.9249844162
 10
3.2079308423
 20
16.9285917493
  0
LINE
  5
39D
100
AcDbEntity
  8
0
100
AcDbLine
 62
250
  6
CONTINUOUS
 10
4.6290660585
 20
17.4645736936
 11
4.5379276605
 21
17.2164338004
  0
LINE
  5
39E
100
AcDbEntity
  8
0
100
AcDbLine
 62
7
  6
CONTINUOUS
 10
9.3034329346
 20
13.8126317316
 11
9.270502457
 21
13.7696228834
  0
LINE
  5
39F
100
AcDbEntity
  8
0
100
AcDbLine
 62
7
  6
CONTINUOUS
 10
9.270502457
 20
13.0625161022
 11
9.1674108028
 21
12.9278732537
  0
LINE
  5
3A0
100
AcDbEntity
  8
0
100
AcDbLine
 62
7
  6
CONTINUOUS
 10
10.7734329346
 20
13.8126317316
 11
10.8063634121
 21
13.8556405797
  0
LINE
  5
3A1
100
AcDbEntity
  8
ASSI
100
AcDbLine
 62
250
  6
CONTINUOUS
 10
17.5051076074
 20
14.6028634343
 11
9.5153194637
 21
8.8944366509
  0
LINE
  5
3A2
100
AcDbEntity
  8
ASSI
100
AcDbLine
 62
250
  6
CONTINUOUS
 10
17.7659830562
 20
12.8522027585
 11
19.3041645119
 21
13.9511801107
  0
LWPOLYLINE
  5
3A3
100
AcDbEntity
  8
ASSI
100
AcDbPolyline
 62
250
  6
CONTINUOUS
 90
5
 70
0
 10
17.7719642215
 20
12.8478043405
 10
17.7355600702
 20
12.8250021917
 10
17.699929907
 20
12.80731293
 10
17.6656696924
 20
12.7950324311
 10
17.6454377073
 20
12.7908590196
  0
LWPOLYLINE
  5
3A4
100
AcDbEntity
  8
ASSI
100
AcDbPolyline
 62
250
  6
CONTINUOUS
 90
5
 70
0
 10
17.7659830562
 20
12.8522027585
 10
17.7295194309
 20
12.8294222768
 10
17.6937485375
 20
12.8118133774
 10
17.6592689192
 20
12.7996707046
 10
17.6454377073
 20
12.7969252503
  0
LINE
  5
3A5
100
AcDbEntity
  8
RACCORDO
100
AcDbLine
 62
250
  6
CONTINUOUS
 10
-12.926324434
 20
2.6500995959
 11
-12.7314613373
 21
2.5968209063
  0
LINE
  5
3A6
100
AcDbEntity
  8
RACCORDO
100
AcDbLine
 62
250
  6
CONTINUOUS
 10
-18.8848733388
 20
11.9688002894
 11
-3.9506340985
 21
1.4086984508
  0
LWPOLYLINE
  5
3A7
100
AcDbEntity
  8
RACCORDO
100
AcDbPolyline
 62
7
  6
CONTINUOUS
 90
3
 70
0
 10
-16.8929455377
 20
14.1743686945
 10
-16.9215567041
 20
14.1992567594
 10
-16.9430618779
 20
14.2255068654
  0
LINE
  5
3A8
100
AcDbEntity
  8
RACCORDO
100
AcDbLine
 62
7
  6
CONTINUOUS
 10
2.0345504869
 20
-22.8336819255
 11
2.0345504869
 21
-21.0051576351
  0
LINE
  5
3A9
100
AcDbEntity
  8
RACCORDO
100
AcDbLine
 62
7
  6
CONTINUOUS
 10
2.0345504869
 20
6.5991584717
 11
2.0345504869
 21
8.427682762
  0
LWPOLYLINE
  5
3AA
100
AcDbEntity
  8
RACCORDO
100
AcDbPolyline
 62
250
  6
CONTINUOUS
 90
5
 70
0
 10
-1.569057547
 20
-25.2753708512
 10
-1.5723314981
 20
-25.3048502776
 10
-1.5809546306
 20
-25.3294815508
 10
-1.5946544322
 20
-25.3485026712
 10
-1.6036979239
 20
-25.3560087272
  0
LWPOLYLINE
  5
3AB
100
AcDbEntity
  8
RACCORDO
100
AcDbPolyline
 62
250
  6
CONTINUOUS
 90
5
 70
0
 10
-3.7447098314
 20
-23.5679176989
 10
-3.7527382579
 20
-23.5999400859
 10
-3.7658371657
 20
-23.6271676688
 10
-3.7836093168
 20
-23.6487747427
 10
-3.8038671758
 20
-23.66325127
  0
LWPOLYLINE
  5
3AC
100
AcDbEntity
  8
RACCORDO
100
AcDbPolyline
 62
250
  6
CONTINUOUS
 90
3
 70
0
 10
8.1987098052
 20
14.3736170363
 10
8.2080838326
 20
14.3967082166
 10
8.2154663716
 20
14.4211041384
  0
LINE
  5
3AD
100
AcDbEntity
  8
RACCORDO
100
AcDbLine
 62
250
  6
CONTINUOUS
 10
-13.2010130619
 20
-11.0682982078
 11
-13.1954869306
 21
-11.0642515244
  0
LINE
  5
3AE
100
AcDbEntity
  8
ASSI
100
AcDbLine
 62
250
  6
CONTINUOUS
 10
17.5051076074
 20
11.8097916486
 11
19.6576640546
 21
13.3477186442
  0
LWPOLYLINE
  5
3AF
100
AcDbEntity
  8
RACCORDO
100
AcDbPolyline
 62
7
  6
CONTINUOUS
 90
10
 70
0
 10
-13.2009983861
 20
-11.068334473
 10
-13.1762279764
 20
-11.0518032894
 10
-13.1170774612
 20
-11.0268008095
 10
-13.0440061515
 20
-11.0134354672
 10
-12.9453793797
 20
-11.0131518516
 10
-12.8160615401
 20
-11.0333216061
 10
-12.6621306147
 20
-11.0795255789
 10
-12.4896992235
 20
-11.1537503939
 10
-12.3031584442
 20
-11.2568372746
 10
-12.1452259305
 20
-11.361036634
  0
LINE
  5
3B0
100
AcDbEntity
  8
RACCORDO
100
AcDbLine
 62
250
  6
CONTINUOUS
 10
-10.6592558686
 20
-8.0420263252
 11
-10.6780514238
 21
-8.0544766459
  0
LWPOLYLINE
  5
3B1
100
AcDbEntity
  8
RACCORDO
100
AcDbPolyline
 62
250
  6
CONTINUOUS
 90
22
 70
0
 10
-10.6780514238
 20
-8.0544766459
 10
-10.7020693705
 20
-8.0688586414
 10
-10.7573942997
 20
-8.0962559171
 10
-10.8144028462
 20
-8.117356514
 10
-10.8725451442
 20
-8.1326113752
 10
-10.9314306197
 20
-8.1425163695
 10
-10.9909833543
 20
-8.1475652035
 10
-11.0506898678
 20
-8.1481617902
 10
-11.1103828067
 20
-8.1447211729
 10
-11.1706621394
 20
-8.1375056557
 10
-11.2313807685
 20
-8.1267281241
 10
-11.2922860334
 20
-8.1126200799
 10
-11.3539590815
 20
-8.0951758757
 10
-11.416348669
 20
-8.0744693319
 10
-11.4792407712
 20
-8.0506296275
 10
-11.5430445168
 20
-8.0235307025
 10
-11.6076695105
 20
-7.9931988912
 10
-11.6729847203
 20
-7.9596841729
 10
-11.7393691745
 20
-7.9227532597
 10
-11.8068792356
 20
-7.8822912594
 10
-11.8752352716
 20
-7.8383797461
 10
-11.9443141196
 20
-7.7910231997
  0
LWPOLYLINE
  5
3B2
100
AcDbEntity
  8
RACCORDO
100
AcDbPolyline
 62
250
  6
CONTINUOUS
 90
3
 70
0
 10
-10.8484030941
 20
0.6742140644
 10
-11.0121428729
 20
0.6702101841
 10
-11.0369632331
 20
0.6678722005
  0
LINE
  5
3B3
100
AcDbEntity
  8
RACCORDO
100
AcDbLine
 62
7
  6
CONTINUOUS
 10
-16.8929455377
 20
14.1743686945
 11
-1.9210615584
 21
3.5876480055
  0
LINE
  5
3B4
100
AcDbEntity
  8
RACCORDO
100
AcDbLine
 62
7
  6
CONTINUOUS
 10
-1.6573571503
 20
3.5476274398
 11
-1.5656975727
 21
3.4828143309
  0
LWPOLYLINE
  5
3B5
100
AcDbEntity
  8
RACCORDO
100
AcDbPolyline
 62
7
  6
CONTINUOUS
 90
5
 70
0
 10
-2.5795656024
 20
20.8593436836
 10
-2.5877321171
 20
20.8995767053
 10
-2.6009426434
 20
20.9402659095
 10
-2.6188204959
 20
20.9801921439
 10
-2.6410827049
 20
21.0179731999
  0
LINE
  5
3B6
100
AcDbEntity
  8
ASSI
100
AcDbLine
 62
7
  6
CONTINUOUS
 10
3.6037612258
 20
-19.8611656592
 11
3.6037612258
 21
7.6359673866
  0
LINE
  5
3B7
100
AcDbEntity
  8
DRAFT
100
AcDbLine
 62
7
  6
CONTINUOUS
 10
3.6037612258
 20
-19.8819822603
 11
3.6037612258
 21
7.6567839877
  0
LWPOLYLINE
  5
3B8
100
AcDbEntity
  8
RACCORDO
100
AcDbPolyline
 62
250
  6
CONTINUOUS
 90
9
 70
0
 10
8.212872507
 20
14.5502387152
 10
8.2053251111
 20
14.5305207648
 10
8.1958309049
 20
14.5110470424
 10
8.1844752812
 20
14.4919057314
 10
8.1714071289
 20
14.4732579254
 10
8.1566683997
 20
14.4550810016
 10
8.1401311804
 20
14.4372031487
 10
8.1217505827
 20
14.4196375505
 10
8.1016389241
 20
14.402554006
  0
LWPOLYLINE
  5
3B9
100
AcDbEntity
  8
ASSI
100
AcDbPolyline
 62
7
  6
CONTINUOUS
 90
11
 70
0
 10
19.597355967
 20
9.8033563072
 10
19.611347907
 20
9.8143051092
 10
19.6432550567
 20
9.8431700323
 10
19.6722863732
 20
9.8753445413
 10
19.6980151447
 20
9.9104575738
 10
19.7201121721
 20
9.9481200387
 10
19.7383185902
 20
9.9878776039
 10
19.7524547803
 20
10.0292383589
 10
19.7624347335
 20
10.0717548962
 10
19.768232468
 20
10.1149685352
 10
19.7699162239
 20
10.1546679911
  0
LINE
  5
3BA
100
AcDbEntity
  8
ASSI
100
AcDbLine
 62
250
  6
CONTINUOUS
 10
19.6576640546
 20
9.9582131789
 11
17.5051076074
 21
8.3438051772
  0
LINE
  5
3BB
100
AcDbEntity
  8
ASSI
100
AcDbLine
 62
7
  6
CONTINUOUS
 10
19.5975203694
 20
9.8034566643
 11
17.7925714249
 21
8.4497533418
  0
LINE
  5
3BC
100
AcDbEntity
  8
ASSI
100
AcDbLine
 62
7
  6
CONTINUOUS
 10
-11.5976668305
 20
-13.6096550727
 11
-11.3869025354
 21
-13.4606222103
  0
LWPOLYLINE
  5
3BD
100
AcDbEntity
  8
ASSI
100
AcDbPolyline
 62
250
  6
CONTINUOUS
 90
10
 70
0
 10
17.7925714249
 20
8.4497533418
 10
17.7732406839
 20
8.4363945402
 10
17.7498491926
 20
8.4225147127
 10
17.7237377703
 20
8.4092120037
 10
17.6947950281
 20
8.3964839891
 10
17.6629406233
 20
8.3843386916
 10
17.6281712493
 20
8.3729709605
 10
17.5903792909
 20
8.3624661497
 10
17.5494002917
 20
8.3527528089
 10
17.5051084096
 20
8.3438057788
  0
LWPOLYLINE
  5
3BE
100
AcDbEntity
  8
ASSI
100
AcDbPolyline
 62
250
  6
CONTINUOUS
 90
5
 70
0
 10
17.7719642215
 20
6.2717112754
 10
17.7355600702
 20
6.2489091266
 10
17.699929907
 20
6.2312198649
 10
17.6656696924
 20
6.2189393661
 10
17.6454377073
 20
6.2147659545
  0
LWPOLYLINE
  5
3BF
100
AcDbEntity
  8
ASSI
100
AcDbPolyline
 62
250
  6
CONTINUOUS
 90
5
 70
0
 10
17.7659830562
 20
6.2761096934
 10
17.7295194309
 20
6.2533292118
 10
17.6937485375
 20
6.2357203124
 10
17.6592689192
 20
6.2235776395
 10
17.6454377073
 20
6.2208321853
  0
LWPOLYLINE
  5
3C0
100
AcDbEntity
  8
RACCORDO
100
AcDbPolyline
 62
250
  6
CONTINUOUS
 90
12
 70
0
 10
-10.7647449205
 20
-8.6038823428
 10
-10.830416736
 20
-8.6359170356
 10
-10.8975255613
 20
-8.6610688516
 10
-10.9658405844
 20
-8.6793680007
 10
-11.0356008954
 20
-8.6907901547
 10
-11.1057628018
 20
-8.6969321738
 10
-11.1759593681
 20
-8.6979799193
 10
-11.2465629226
 20
-8.6937513665
 10
-11.3176372603
 20
-8.6852905468
 10
-11.3891115553
 20
-8.672817779
 10
-11.4610597372
 20
-8.6561149542
 10
-11.5337617975
 20
-8.6355677957
  0
LWPOLYLINE
  5
3C1
100
AcDbEntity
  8
RACCORDO
100
AcDbPolyline
 62
250
  6
CONTINUOUS
 90
4
 70
0
 10
-11.1937568818
 20
1.2606837136
 10
-11.2176644661
 20
1.256701061
 10
-11.3890863712
 20
1.2138664894
 10
-11.4250895252
 20
1.2016626269
  0
LINE
  5
3C2
100
AcDbEntity
  8
RACCORDO
100
AcDbLine
 62
250
  6
CONTINUOUS
 10
-1.9210615584
 20
5.8623658323
 11
-16.8929455377
 21
16.4490865212
  0
LINE
  5
3C3
100
AcDbEntity
  8
RACCORDO
100
AcDbLine
 62
250
  6
CONTINUOUS
 10
-1.7473700418
 20
6.1619340529
 11
-16.7192540212
 21
16.7486547418
  0
LWPOLYLINE
  5
3C4
100
AcDbEntity
  8
RACCORDO
100
AcDbPolyline
 62
250
  6
CONTINUOUS
 90
4
 70
0
 10
8.2154663716
 20
14.4211041384
 10
8.2205503423
 20
14.4467140346
 10
8.2230333225
 20
14.4735192905
 10
8.2232257392
 20
14.4833571992
  0
LINE
  5
3C5
100
AcDbEntity
  8
0
100
AcDbLine
 62
7
  6
CONTINUOUS
 10
10.9162482978
 20
14.0762341464
 11
10.845004367
 21
13.882963861
  0
LINE
  5
3C6
100
AcDbEntity
  8
0
100
AcDbLine
 62
7
  6
CONTINUOUS
 10
10.7734329346
 20
13.6888051303
 11
10.5989529054
 21
13.2154763197
  0
LINE
  5
3C7
100
AcDbEntity
  8
ASSI
100
AcDbLine
 62
250
  6
CONTINUOUS
 10
17.7659830562
 20
6.2761096934
 11
19.3041645119
 21
7.3750870457
  0
LINE
  5
3C8
100
AcDbEntity
  8
ASSI
100
AcDbLine
 62
250
  6
CONTINUOUS
 10
17.5051076074
 20
5.2336985835
 11
19.6576640546
 21
6.7716255792
  0
LINE
  5
3C9
100
AcDbEntity
  8
ASSI
100
AcDbLine
 62
7
  6
CONTINUOUS
 10
-10.5525726396
 20
-13.5094044571
 11
-11.1850183786
 21
-13.9566111279
  0
LINE
  5
3CA
100
AcDbEntity
  8
RACCORDO
100
AcDbLine
 62
250
  6
CONTINUOUS
 10
-10.5590977236
 20
-14.690221479
 11
-10.5661122604
 21
-14.6949910782
  0
LINE
  5
3CB
100
AcDbEntity
  8
RACCORDO
100
AcDbLine
 62
250
  6
CONTINUOUS
 10
-16.7491109748
 20
16.7669556143
 11
-16.7192540212
 21
16.7486547418
  0
LWPOLYLINE
  5
3CC
100
AcDbEntity
  8
RACCORDO
100
AcDbPolyline
 62
250
  6
CONTINUOUS
 90
4
 70
0
 10
-11.1705649551
 20
17.9760516103
 10
-11.150715325
 20
17.9574741063
 10
-11.129408085
 20
17.9396746881
 10
-11.106643235
 20
17.9226533557
  0
LWPOLYLINE
  5
3CD
100
AcDbEntity
  8
RACCORDO
100
AcDbPolyline
 62
250
  6
CONTINUOUS
 90
24
 70
0
 10
-1.1047698511
 20
10.8686615706
 10
-1.118415431
 20
10.8858339793
 10
-1.131445521
 20
10.9040066764
 10
-1.1434165171
 20
10.923142366
 10
-1.1543376193
 20
10.9433180976
 10
-1.1641996275
 20
10.9644568216
 10
-1.1725313368
 20
10.9862900931
 10
-1.1792754749
 20
11.0088610671
 10
-1.184489314
 20
11.0321265886
 10
-1.187873467
 20
11.0556887469
 10
-1.1893567931
 20
11.0795328873
 10
-1.1890104331
 20
11.1036736645
 10
-1.1867484216
 20
11.1277571318
 10
-1.182526862
 20
11.1517605744
 10
-1.176389651
 20
11.175706707
 10
-1.1683825132
 20
11.1993097275
 10
-1.1584770761
 20
11.2225570892
 10
-1.1467017123
 20
11.2454613387
 10
-1.1331872633
 20
11.2677743149
 10
-1.1179181316
 20
11.2894797932
 10
-1.1009099148
 20
11.310593998
 10
-1.0823402465
 20
11.3309174414
 10
-1.0622683379
 20
11.3503836272
 10
-1.0406349779
 20
11.3690590514
  0
LINE
  5
3CE
100
AcDbEntity
  8
RACCORDO
100
AcDbLine
 62
7
  6
CONTINUOUS
 10
-0.0024833583
 20
10.0765927623
 11
0.0292495002
 21
10.0224213843
  0
LWPOLYLINE
  5
3CF
100
AcDbEntity
  8
RACCORDO
100
AcDbPolyline
 62
250
  6
CONTINUOUS
 90
10
 70
0
 10
8.0798509638
 20
14.3860400763
 10
8.0792276855
 20
14.4019576385
 10
8.0772521927
 20
14.41869698
 10
8.0739395188
 20
14.4361307144
 10
8.0693148732
 20
14.4541261711
 10
8.0634134495
 20
14.472546405
 10
8.0562801574
 20
14.4912512381
 10
8.0479692813
 20
14.5100983268
 10
8.0385440669
 20
14.5289442449
 10
8.02807624
 20
14.547645575
  0
LINE
  5
3D0
100
AcDbEntity
  8
ASSI
100
AcDbLine
 62
250
  6
CONTINUOUS
 10
7.731869761
 20
15.7094365516
 11
7.731869761
 21
15.5350907141
  0
LINE
  5
3D1
100
AcDbEntity
  8
RACCORDO
100
AcDbLine
 62
250
  6
CONTINUOUS
 10
8.0798509638
 20
14.3860400763
 11
8.0798509638
 21
14.2344713733
  0
LINE
  5
3D2
100
AcDbEntity
  8
RACCORDO
100
AcDbLine
 62
7
  6
CONTINUOUS
 10
8.2232257392
 20
14.6124059499
 11
8.2232257392
 21
14.4833576976
  0
LINE
  5
3D3
100
AcDbEntity
  8
ASSI
100
AcDbLine
 62
7
  6
CONTINUOUS
 10
8.4511676392
 20
15.1857278326
 11
8.4511676392
 21
15.8928346138
  0
LINE
  5
3D4
100
AcDbEntity
  8
RACCORDO
100
AcDbLine
 62
250
  6
CONTINUOUS
 10
8.2232257392
 20
14.6124085383
 11
8.2232093869
 21
14.6099634619
  0
LWPOLYLINE
  5
3D5
100
AcDbEntity
  8
RACCORDO
100
AcDbPolyline
 62
250
  6
CONTINUOUS
 90
4
 70
0
 10
8.2232093869
 20
14.6099634619
 10
8.221879955
 20
14.5901300804
 10
8.2184167313
 20
14.5701505927
 10
8.212872507
 20
14.5502387152
  0
LWPOLYLINE
  5
3D6
100
AcDbEntity
  8
RACCORDO
100
AcDbPolyline
 62
250
  6
CONTINUOUS
 90
5
 70
0
 10
8.0798509638
 20
14.2344713733
 10
8.0774077563
 20
14.2058502775
 10
8.0696213508
 20
14.1818631654
 10
8.0567283164
 20
14.163238799
 10
8.0489739518
 20
14.156478656
  0
LWPOLYLINE
  5
3D7
100
AcDbEntity
  8
ASSI
100
AcDbPolyline
 62
250
  6
CONTINUOUS
 90
25
 70
0
 10
17.5051084076
 20
11.8097922203
 10
17.5494002509
 20
11.8683856004
 10
17.5903792253
 20
11.9264812517
 10
17.6281711718
 20
11.9838766297
 10
17.6629405499
 20
12.0403113254
 10
17.6947949696
 20
12.0956795395
 10
17.7237377251
 20
12.150046858
 10
17.7498491544
 20
12.2032659032
 10
17.7732406508
 20
12.2552215731
 10
17.7938868601
 20
12.3060598626
 10
17.8118882036
 20
12.3557404492
 10
17.8272743994
 20
12.4040840825
 10
17.8398620186
 20
12.4510344562
 10
17.8497295432
 20
12.4965491639
 10
17.8569128373
 20
12.540453117
 10
17.8611454512
 20
12.5824852684
 10
17.8624677547
 20
12.6225886014
 10
17.86097084
 20
12.6605956748
 10
17.8564729769
 20
12.6960853216
 10
17.8489391403
 20
12.7289739335
 10
17.8385742254
 20
12.7591454792
 10
17.8255830171
 20
12.7861815983
 10
17.8101062834
 20
12.8099341798
 10
17.7922030987
 20
12.8304831815
 10
17.7719642189
 20
12.8478042637
  0
LWPOLYLINE
  5
3D8
100
AcDbEntity
  8
ASSI
100
AcDbPolyline
 62
250
  6
CONTINUOUS
 90
10
 70
0
 10
17.7925714249
 20
1.8736602767
 10
17.7732406839
 20
1.8603014751
 10
17.7498491926
 20
1.8464216476
 10
17.7237377703
 20
1.8331189387
 10
17.6947950281
 20
1.820390924
 10
17.6629406233
 20
1.8082456266
 10
17.6281712493
 20
1.7968778954
 10
17.5903792909
 20
1.7863730846
 10
17.5494002917
 20
1.7766597439
 10
17.5051084096
 20
1.7677127137
  0
LWPOLYLINE
  5
3D9
100
AcDbEntity
  8
RACCORDO
100
AcDbPolyline
 62
250
  6
CONTINUOUS
 90
10
 70
0
 10
-10.5924070654
 20
-15.210522645
 10
-10.6984517255
 20
-15.2739763127
 10
-10.8221765184
 20
-15.3210621199
 10
-10.9640835709
 20
-15.3432876205
 10
-11.1275667312
 20
-15.338529716
 10
-11.3092619704
 20
-15.3089333621
 10
-11.4995533919
 20
-15.25242201
 10
-11.695249577
 20
-15.1683136808
 10
-11.8995731616
 20
-15.0573132992
 10
-12.1125316889
 20
-14.9194264131
  0
LWPOLYLINE
  5
3DA
100
AcDbEntity
  8
RACCORDO
100
AcDbPolyline
 62
250
  6
CONTINUOUS
 90
10
 70
0
 10
-10.5661122604
 20
-14.6949910782
 10
-10.6292078733
 20
-14.7310073449
 10
-10.733733331
 20
-14.7689619704
 10
-10.8542824726
 20
-14.7881079112
 10
-10.9921912297
 20
-14.7858944368
 10
-11.1456001175
 20
-14.7596865715
 10
-11.3084738731
 20
-14.7095534496
 10
-11.4770136876
 20
-14.6369938991
 10
-11.6506926004
 20
-14.542385142
 10
-11.8273364091
 20
-14.4268427376
  0
LWPOLYLINE
  5
3DB
100
AcDbEntity
  8
RACCORDO
100
AcDbPolyline
 62
250
  6
CONTINUOUS
 90
28
 70
0
 10
-11.0858240056
 20
17.9079319374
 10
-11.0590387018
 20
17.8902998938
 10
-11.0315503739
 20
17.8740890982
 10
-11.0033590219
 20
17.8592995506
 10
-10.9744749297
 20
17.8459813191
 10
-10.9448878134
 20
17.8340843356
 10
-10.9145668217
 20
17.8234583958
 10
-10.8834504008
 20
17.8140408336
 10
-10.8516001044
 20
17.8058943151
 10
-10.8191697434
 20
17.7990566351
 10
-10.7861355588
 20
17.7935156944
 10
-10.7525213095
 20
17.7892835922
 10
-10.7185520828
 20
17.7864344218
 10
-10.6841716881
 20
17.7849748593
 10
-10.6494363159
 20
17.7848982285
 10
-10.6147396252
 20
17.7862585948
 10
-10.5800564163
 20
17.7890855719
 10
-10.5454118888
 20
17.793349546
 10
-10.5112753007
 20
17.799015741
 10
-10.4776791267
 20
17.8061068186
 10
-10.444590892
 20
17.8146001173
 10
-10.4123824296
 20
17.824392876
 10
-10.3810790229
 20
17.8354966553
 10
-10.3506553885
 20
17.8478998948
 10
-10.3214075086
 20
17.8614651518
 10
-10.293434044
 20
17.8761466124
 10
-10.2666363338
 20
17.8919900905
 10
-10.2410143783
 20
17.9089955863
  0
LWPOLYLINE
  5
3DC
100
AcDbEntity
  8
RACCORDO
100
AcDbPolyline
 62
250
  6
CONTINUOUS
 90
28
 70
0
 10
-11.2610580527
 20
17.6072527901
 10
-11.2234625973
 20
17.582244508
 10
-11.1844263494
 20
17.5592610098
 10
-11.144181743
 20
17.5383057386
 10
-11.1031486249
 20
17.5194549233
 10
-11.0613589548
 20
17.5025881358
 10
-11.0183913284
 20
17.4874692152
 10
-10.9742510974
 20
17.474093814
 10
-10.9292214092
 20
17.4625423868
 10
-10.8832280842
 20
17.4527946502
 10
-10.8363791538
 20
17.4448898132
 10
-10.7888533339
 20
17.4388742625
 10
-10.740671477
 20
17.4347717285
 10
-10.6919179615
 20
17.4326234451
 10
-10.6428181536
 20
17.4324732391
 10
-10.5936088375
 20
17.4343461539
 10
-10.5444259059
 20
17.4382602517
 10
-10.495470222
 20
17.4442226357
 10
-10.4470752249
 20
17.4522021615
 10
-10.3994416346
 20
17.4621641549
 10
-10.3526948766
 20
17.4740805316
 10
-10.3070437597
 20
17.4878931942
 10
-10.2626618072
 20
17.5035414087
 10
-10.2196718457
 20
17.5209733321
 10
-10.1781976457
 20
17.5401311164
 10
-10.1383706005
 20
17.5609496166
 10
-10.1003273358
 20
17.5833542066
 10
-10.0641921913
 20
17.6072669901
  0
LINE
  5
3DD
100
AcDbEntity
  8
RACCORDO
100
AcDbLine
 62
7
  6
CONTINUOUS
 10
-11.2818772822
 20
17.2107217592
 11
-11.2610580527
 21
17.1960003409
  0
LINE
  5
3DE
100
AcDbEntity
  8
RACCORDO
100
AcDbLine
 62
7
  6
CONTINUOUS
 10
-1.1889880127
 20
10.073971315
 11
-1.1681687832
 21
10.0592498966
  0
LINE
  5
3DF
100
AcDbEntity
  8
RACCORDO
100
AcDbLine
 62
250
  6
CONTINUOUS
 10
-11.2818634373
 20
17.6219644186
 11
-11.2610580527
 21
17.6072527901
  0
LINE
  5
3E0
100
AcDbEntity
  8
RACCORDO
100
AcDbLine
 62
250
  6
CONTINUOUS
 10
-1.1681687832
 20
10.4705023459
 11
-1.1889880127
 21
10.4852237642
  0
LINE
  5
3E1
100
AcDbEntity
  8
RACCORDO
100
AcDbLine
 62
7
  6
CONTINUOUS
 10
1.8577939842
 20
8.72944518
 11
-0.0024833583
 21
10.0448599037
  0
LINE
  5
3E2
100
AcDbEntity
  8
DRAFT
100
AcDbLine
 62
7
  6
CONTINUOUS
 10
-2.8074613389
 20
12.0282788549
 11
-8.5112138766
 21
16.0614409525
  0
LINE
  5
3E3
100
AcDbEntity
  8
RACCORDO
100
AcDbLine
 62
7
  6
CONTINUOUS
 10
-11.5236794556
 20
18.1915757915
 11
-13.1764691997
 21
19.3602746275
  0
LINE
  5
3E4
100
AcDbEntity
  8
RACCORDO
100
AcDbLine
 62
250
  6
CONTINUOUS
 10
-11.106643235
 20
17.9226533557
 11
-11.0858240056
 21
17.9079319374
  0
LINE
  5
3E5
100
AcDbEntity
  8
RACCORDO
100
AcDbLine
 62
250
  6
CONTINUOUS
 10
-0.992934736
 20
10.7711814931
 11
-1.0137539655
 21
10.7859029115
  0
LINE
  5
3E6
100
AcDbEntity
  8
ASSI
100
AcDbLine
 62
7
  6
CONTINUOUS
 10
-7.7412529194
 20
15.6880690252
 11
-7.7806579513
 21
15.7159325905
  0
LINE
  5
3E7
100
AcDbEntity
  8
RACCORDO
100
AcDbLine
 62
7
  6
CONTINUOUS
 10
-0.1795688256
 20
10.7516339937
 11
-0.6255648492
 21
11.0670008063
  0
LINE
  5
3E8
100
AcDbEntity
  8
RACCORDO
100
AcDbLine
 62
7
  6
CONTINUOUS
 10
-10.6931103664
 20
18.1858305115
 11
-11.1391063899
 21
18.5011973241
  0
LWPOLYLINE
  5
3E9
100
AcDbEntity
  8
RACCORDO
100
AcDbPolyline
 62
250
  6
CONTINUOUS
 90
7
 70
0
 10
-1.0137539655
 20
10.7859029115
 10
-1.0296576514
 20
10.7974188711
 10
-1.0452675886
 20
10.8098456909
 10
-1.0605837772
 20
10.8231833707
 10
-1.0757134642
 20
10.8374021011
 10
-1.0905494026
 20
10.8525316917
 10
-1.1047698511
 20
10.8686615706
  0
LWPOLYLINE
  5
3EA
100
AcDbEntity
  8
RACCORDO
100
AcDbPolyline
 62
250
  6
CONTINUOUS
 90
16
 70
0
 10
-1.1889880127
 20
10.4852237642
 10
-1.2112631305
 20
10.501582962
 10
-1.2334156899
 20
10.5191645678
 10
-1.2553083575
 20
10.5380066737
 10
-1.2767758284
 20
10.5581237685
 10
-1.2976828901
 20
10.5795612809
 10
-1.3179132605
 20
10.6024002129
 10
-1.3373079157
 20
10.626694003
 10
-1.3556403034
 20
10.6524189137
 10
-1.3726773716
 20
10.6795284347
 10
-1.3882494123
 20
10.7080746745
 10
-1.4021029701
 20
10.7379666269
 10
-1.413934124
 20
10.7689092611
 10
-1.4235863344
 20
10.8008568466
 10
-1.4308928745
 20
10.8337191737
 10
-1.4356638799
 20
10.8670978192
  0
LINE
  5
3EB
100
AcDbEntity
  8
RACCORDO
100
AcDbLine
 62
250
  6
CONTINUOUS
 10
-11.3143415694
 20
17.6462485853
 11
-11.2818634371
 21
17.6219644116
  0
LWPOLYLINE
  5
3EC
100
AcDbEntity
  8
RACCORDO
100
AcDbPolyline
 62
250
  6
CONTINUOUS
 90
10
 70
0
 10
-10.2410143783
 20
17.9089955863
 10
-10.2105644798
 20
17.8844309969
 10
-10.1809928285
 20
17.8552753122
 10
-10.1531978573
 20
17.8224143272
 10
-10.1280240204
 20
17.7868464098
 10
-10.1062361384
 20
17.7496521686
 10
-10.0884961609
 20
17.7119616226
 10
-10.075343056
 20
17.6749198691
 10
-10.0671764355
 20
17.6396522942
 10
-10.0642444141
 20
17.6072303817
  0
LWPOLYLINE
  5
3ED
100
AcDbEntity
  8
RACCORDO
100
AcDbPolyline
 62
7
  6
CONTINUOUS
 90
10
 70
0
 10
-0.1795688256
 20
10.7516339937
 10
-0.1474895995
 20
10.7256414981
 10
-0.1180312331
 20
10.6969610349
 10
-0.0911937266
 20
10.6655926042
 10
-0.0663372053
 20
10.6304699733
 10
-0.0441015439
 20
10.5926593748
 10
-0.026406366
 20
10.5553595064
 10
-0.0138915465
 20
10.5196366007
 10
-0.0059172106
 20
10.4844244252
 10
-0.0024833583
 20
10.4497229797
  0
LINE
  5
3EE
100
AcDbEntity
  8
RACCORDO
100
AcDbLine
 62
7
  6
CONTINUOUS
 10
3.6037612258
 20
7.6567839877
 11
2.0670622615
 21
10.2800932103
  0
LWPOLYLINE
  5
3EF
100
AcDbEntity
  8
ASSI
100
AcDbPolyline
 62
7
  6
CONTINUOUS
 90
4
 70
0
 10
9.6556662706
 20
12.0622617815
 10
9.6538861395
 20
12.0827486532
 10
9.6470964584
 20
12.1065576745
 10
9.6394554855
 20
12.1220425733
  0
LWPOLYLINE
  5
3F0
100
AcDbEntity
  8
RACCORDO
100
AcDbPolyline
 62
7
  6
CONTINUOUS
 90
3
 70
0
 10
8.2231984002
 20
14.6093587804
 10
8.219665746
 20
14.6593026035
 10
8.2048048735
 20
14.7175984754
  0
LINE
  5
3F1
100
AcDbEntity
  8
0
100
AcDbLine
 62
7
  6
CONTINUOUS
 10
9.270502457
 20
13.7696228834
 11
9.270502457
 21
13.0625161022
  0
LINE
  5
3F2
100
AcDbEntity
  8
0
100
AcDbLine
 62
7
  6
CONTINUOUS
 10
9.3034329346
 20
13.8126317316
 11
9.3034329346
 21
12.7929082474
  0
LINE
  5
3F3
100
AcDbEntity
  8
0
100
AcDbLine
 62
7
  6
CONTINUOUS
 10
9.5150360754
 20
14.5327291999
 11
9.5150360754
 21
13.1892263157
  0
LINE
  5
3F4
100
AcDbEntity
  8
ASSI
100
AcDbLine
 62
250
  6
CONTINUOUS
 10
9.5153194637
 20
11.8595709127
 11
9.5153194637
 21
8.8944366509
  0
LINE
  5
3F5
100
AcDbEntity
  8
ASSI
100
AcDbLine
 62
250
  6
CONTINUOUS
 10
9.5153194637
 20
-7.6771826963
 11
9.5153194637
 21
-15.4275226138
  0
LINE
  5
3F6
100
AcDbEntity
  8
ASSI
100
AcDbLine
 62
7
  6
CONTINUOUS
 10
9.6556495636
 20
12.0622857598
 11
9.6556495636
 21
9.3813854049
  0
LINE
  5
3F7
100
AcDbEntity
  8
ASSI
100
AcDbLine
 62
7
  6
CONTINUOUS
 10
9.6556495636
 20
-7.4315838742
 11
9.6556495636
 21
-15.1390398165
  0
LINE
  5
3F8
100
AcDbEntity
  8
ASSI
100
AcDbLine
 62
7
  6
CONTINUOUS
 10
9.7555902221
 20
15.6500623748
 11
9.7555902221
 21
15.6378702493
  0
LINE
  5
3F9
100
AcDbEntity
  8
0
100
AcDbLine
 62
7
  6
CONTINUOUS
 10
10.0384329346
 20
14.3323552158
 11
10.0384329346
 21
13.2929082474
  0
LINE
  5
3FA
100
AcDbEntity
  8
0
100
AcDbLine
 62
7
  6
CONTINUOUS
 10
10.0992566309
 20
14.3556405797
 11
10.0992566309
 21
13.6485337986
  0
LINE
  5
3FB
100
AcDbEntity
  8
0
100
AcDbLine
 62
7
  6
CONTINUOUS
 10
10.5618297937
 20
13.1892263157
 11
10.5618297937
 21
13.8256224187
  0
LINE
  5
3FC
100
AcDbEntity
  8
0
100
AcDbLine
 62
7
  6
CONTINUOUS
 10
10.7734329346
 20
13.8126317316
 11
10.7734329346
 21
12.9429082474
  0
LWPOLYLINE
  5
3FD
100
AcDbEntity
  8
ASSI
100
AcDbPolyline
 62
7
  6
CONTINUOUS
 90
9
 70
0
 10
9.6556495635
 20
-15.1390524948
 10
9.6555502646
 20
-15.1481648273
 10
9.6518085768
 20
-15.1947944252
 10
9.6426217164
 20
-15.239958842
 10
9.6279709586
 20
-15.2833148857
 10
9.6078270501
 20
-15.3242199713
 10
9.5822221695
 20
-15.3621542106
 10
9.5513142084
 20
-15.3967384172
 10
9.5153194637
 20
-15.4275226138
  0
LWPOLYLINE
  5
3FE
100
AcDbEntity
  8
ASSI
100
AcDbPolyline
 62
7
  6
CONTINUOUS
 90
10
 70
0
 10
9.6556495618
 20
9.3813976635
 10
9.6552363426
 20
9.3567152409
 10
9.6517170526
 20
9.3039192551
 10
9.6444770856
 20
9.2491318202
 10
9.6333536686
 20
9.1924380348
 10
9.6182618535
 20
9.1342684978
 10
9.5990005915
 20
9.0750279003
 10
9.5754219243
 20
9.0150887167
 10
9.5475225144
 20
8.9547671855
 10
9.5153194637
 20
8.8944366509
  0
LWPOLYLINE
  5
3FF
100
AcDbEntity
  8
ASSI
100
AcDbPolyline
 62
7
  6
CONTINUOUS
 90
21
 70
0
 10
9.6556495952
 20
-7.4315813803
 10
9.6560824753
 20
-7.4168474518
 10
9.6580562009
 20
-7.3943065637
 10
9.6622550966
 20
-7.365767013
 10
9.6691309889
 20
-7.3321042852
 10
9.6790949453
 20
-7.2936537279
 10
9.6924818217
 20
-7.2508568412
 10
9.7092391288
 20
-7.2049867732
 10
9.7293397455
 20
-7.1567516099
 10
9.7527980117
 20
-7.106632525
 10
9.7793582334
 20
-7.0555402384
 10
9.8088065661
 20
-7.004088317
 10
9.8408883387
 20
-6.952881882
 10
9.8751469989
 20
-6.9027400783
 10
9.9112016826
 20
-6.8542114216
 10
9.9486137702
 20
-6.8078429161
 10
9.98671725
 20
-6.7643725451
 10
10.0250220538
 20
-6.7241902786
 10
10.0629641146
 20
-6.6876796358
 10
10.0996472492
 20
-6.6554329651
 10
10.1343591632
 20
-6.6277004195
  0
LWPOLYLINE
  5
400
100
AcDbEntity
  8
ASSI
100
AcDbPolyline
 62
250
  6
CONTINUOUS
 90
9
 70
0
 10
9.6556495636
 20
-7.4315838742
 10
9.6551862782
 20
-7.4468001606
 10
9.65028573
 20
-7.4832320242
 10
9.6400854982
 20
-7.5191105136
 10
9.624694871
 20
-7.5540512158
 10
9.6042787484
 20
-7.5876797652
 10
9.579055875
 20
-7.6196358555
 10
9.5492964964
 20
-7.649577099
 10
9.5153194637
 20
-7.6771826963
  0
LWPOLYLINE
  5
401
100
AcDbEntity
  8
ASSI
100
AcDbPolyline
 62
250
  6
CONTINUOUS
 90
25
 70
0
 10
17.5051084076
 20
5.2336991552
 10
17.5494002509
 20
5.2922925354
 10
17.5903792253
 20
5.3503881866
 10
17.6281711718
 20
5.4077835646
 10
17.6629405499
 20
5.4642182603
 10
17.6947949696
 20
5.5195864745
 10
17.7237377251
 20
5.573953793
 10
17.7498491544
 20
5.6271728382
 10
17.7732406508
 20
5.679128508
 10
17.7938868601
 20
5.7299667975
 10
17.8118882036
 20
5.7796473842
 10
17.8272743994
 20
5.8279910175
 10
17.8398620186
 20
5.8749413912
 10
17.8497295432
 20
5.9204560988
 10
17.8569128373
 20
5.9643600519
 10
17.8611454512
 20
6.0063922034
 10
17.8624677547
 20
6.0464955364
 10
17.86097084
 20
6.0845026098
 10
17.8564729769
 20
6.1199922566
 10
17.8489391403
 20
6.1528808685
 10
17.8385742254
 20
6.1830524142
 10
17.8255830171
 20
6.2100885332
 10
17.8101062834
 20
6.2338411147
 10
17.7922030987
 20
6.2543901164
 10
17.7719642189
 20
6.2717111987
  0
LWPOLYLINE
  5
402
100
AcDbEntity
  8
ASSI
100
AcDbPolyline
 62
7
  6
CONTINUOUS
 90
11
 70
0
 10
19.597355967
 20
3.2272632421
 10
19.611347907
 20
3.2382120442
 10
19.6432550567
 20
3.2670769673
 10
19.6722863732
 20
3.2992514763
 10
19.6980151447
 20
3.3343645088
 10
19.7201121721
 20
3.3720269737
 10
19.7383185902
 20
3.4117845389
 10
19.7524547803
 20
3.4531452939
 10
19.7624347335
 20
3.4956618312
 10
19.768232468
 20
3.5388754701
 10
19.7699162239
 20
3.5785749261
  0
LINE
  5
403
100
AcDbEntity
  8
ASSI
100
AcDbLine
 62
250
  6
CONTINUOUS
 10
19.6576640546
 20
3.3821201138
 11
17.5051076074
 21
1.7677121122
  0
LINE
  5
404
100
AcDbEntity
  8
ASSI
100
AcDbLine
 62
7
  6
CONTINUOUS
 10
19.5975203694
 20
3.2273635993
 11
17.7925714249
 21
1.8736602767
  0
LINE
  5
405
100
AcDbEntity
  8
ASSI
100
AcDbLine
 62
7
  6
CONTINUOUS
 10
-2.3585627827
 20
13.2819323285
 11
-2.229869719
 21
13.1909325905
  0
LINE
  5
406
100
AcDbEntity
  8
RACCORDO
100
AcDbLine
 62
7
  6
CONTINUOUS
 10
-0.9924328519
 20
12.5786742903
 11
-2.4538343122
 21
13.6120411729
  0
LINE
  5
407
100
AcDbEntity
  8
RACCORDO
100
AcDbLine
 62
7
  6
CONTINUOUS
 10
-8.0163127659
 20
17.5453074077
 11
-9.4777142262
 21
18.5786742903
  0
LINE
  5
408
100
AcDbEntity
  8
ASSI
100
AcDbLine
 62
7
  6
CONTINUOUS
 10
2.5064524986
 20
10.1195224326
 11
2.7551577013
 21
9.9436612973
  0
LINE
  5
409
100
AcDbEntity
  8
0
100
AcDbLine
 62
250
  6
CONTINUOUS
 10
-0.9924328519
 20
12.7908063246
 11
-9.4777142262
 21
18.7908063246
  0
LINE
  5
40A
100
AcDbEntity
  8
0
100
AcDbLine
 62
250
  6
CONTINUOUS
 10
-0.4974581051
 20
13.6357810715
 11
-8.9827394794
 21
19.6357810715
  0
LWPOLYLINE
  5
40B
100
AcDbEntity
  8
RACCORDO
100
AcDbPolyline
 62
7
  6
CONTINUOUS
 90
25
 70
0
 10
-8.0163127659
 20
17.5453074077
 10
-8.0075216521
 20
17.5388125057
 10
-7.9988298852
 20
17.5318582749
 10
-7.9902374652
 20
17.5244447154
 10
-7.9817124121
 20
17.5165400814
 10
-7.9732867059
 20
17.5081761187
 10
-7.965056287
 20
17.4994480645
 10
-7.9570233875
 20
17.4903517573
 10
-7.9491857753
 20
17.4808913587
 10
-7.9416326943
 20
17.4711745906
 10
-7.9343673967
 20
17.4611985228
 10
-7.9273866303
 20
17.4509660854
 10
-7.9207698825
 20
17.4405937916
 10
-7.914521314
 20
17.4300800426
 10
-7.908636764
 20
17.419426437
 10
-7.9031832378
 20
17.4087542835
 10
-7.8981656618
 20
17.39806337
 10
-7.8935791096
 20
17.3873539086
 10
-7.8894758064
 20
17.3767478437
 10
-7.8858612758
 20
17.3662463573
 10
-7.8827299943
 20
17.3558482675
 10
-7.8801176166
 20
17.3456719735
 10
-7.8780360275
 20
17.3357569416
 10
-7.8764733422
 20
17.3260637054
 10
-7.8754295606
 20
17.316592265
  0
LWPOLYLINE
  5
40C
100
AcDbEntity
  8
ASSI
100
AcDbPolyline
 62
7
  6
CONTINUOUS
 90
3
 70
0
 10
-0.6557155098
 20
14.8742707031
 10
-0.6729663829
 20
14.8923313893
 10
-0.6911058869
 20
14.9087677848
  0
LWPOLYLINE
  5
40D
100
AcDbEntity
  8
RACCORDO
100
AcDbPolyline
 62
7
  6
CONTINUOUS
 90
4
 70
0
 10
-2.6410827049
 20
21.0179731999
 10
-2.6670975188
 20
21.0524216772
 10
-2.6959046758
 20
21.0825801496
 10
-2.7265844111
 20
21.1075125466
  0
LWPOLYLINE
  5
40E
100
AcDbEntity
  8
ASSI
100
AcDbPolyline
 62
7
  6
CONTINUOUS
 90
9
 70
0
 10
4.3246914689
 20
10.6196201085
 10
4.3152673197
 20
10.6341802982
 10
4.3051339593
 20
10.6483850952
 10
4.2943671538
 20
10.6621250388
 10
4.2830454597
 20
10.6752930253
 10
4.2712554369
 20
10.687789376
 10
4.2590909877
 20
10.6995225827
 10
4.2466448998
 20
10.7104043274
 10
4.2340081553
 20
10.7203501596
  0
LWPOLYLINE
  5
40F
100
AcDbEntity
  8
0
100
AcDbPolyline
 62
7
  6
CONTINUOUS
 90
8
 70
0
 10
4.9711180164
 20
17.2563521308
 10
4.9633126509
 20
17.2863332207
 10
4.9525052319
 20
17.3165864843
 10
4.9394464164
 20
17.3443628736
 10
4.9241110143
 20
17.369627327
 10
4.9065242157
 20
17.3924149062
 10
4.8868896739
 20
17.4124731091
 10
4.8658084517
 20
17.42935421
  0
LINE
  5
410
100
AcDbEntity
  8
RACCORDO
100
AcDbLine
 62
7
  6
CONTINUOUS
 10
11.4169303515
 20
14.5802698218
 11
11.3652864499
 21
15.121763177
  0
LINE
  5
411
100
AcDbEntity
  8
0
100
AcDbLine
 62
7
  6
CONTINUOUS
 10
11.0568045405
 20
12.9092852819
 11
11.0568045405
 21
13.4425342632
  0
LINE
  5
412
100
AcDbEntity
  8
ASSI
100
AcDbLine
 62
7
  6
CONTINUOUS
 10
11.9644459423
 20
18.7285523325
 11
11.9644459423
 21
18.3657427008
  0
LWPOLYLINE
  5
413
100
AcDbEntity
  8
ASSI
100
AcDbPolyline
 62
250
  6
CONTINUOUS
 90
7
 70
0
 10
9.5759163817
 20
-7.3440138548
 10
9.5564571953
 20
-7.4074504932
 10
9.540993254
 20
-7.4687379993
 10
9.5291817872
 20
-7.5264932817
 10
9.5209085382
 20
-7.5802553102
 10
9.5162877637
 20
-7.630485115
 10
9.5153194637
 20
-7.6771826963
  0
LWPOLYLINE
  5
414
100
AcDbEntity
  8
ASSI
100
AcDbPolyline
 62
250
  6
CONTINUOUS
 90
13
 70
0
 10
17.5051076074
 20
11.8097924621
 10
17.5293336635
 20
11.8744779972
 10
17.5511033747
 20
11.93840567
 10
17.5704327172
 20
12.0014062842
 10
17.5873109164
 20
12.06327266
 10
17.6018508392
 20
12.1238973786
 10
17.6142268879
 20
12.1832939982
 10
17.624466815
 20
12.241330952
 10
17.6326109512
 20
12.2979149256
 10
17.6387589695
 20
12.3531544224
 10
17.6429163415
 20
12.4070380603
 10
17.6450844837
 20
12.4593951183
 10
17.6454377062
 20
12.4898465298
  0
LWPOLYLINE
  5
415
100
AcDbEntity
  8
ASSI
100
AcDbPolyline
 62
250
  6
CONTINUOUS
 90
12
 70
0
 10
10.009042589
 20
-6.6390429721
 10
9.9596328794
 20
-6.6923312616
 10
9.911208778
 20
-6.748973158
 10
9.8638196525
 20
-6.8091964143
 10
9.8174161353
 20
-6.8727732776
 10
9.7735391384
 20
-6.9380287875
 10
9.7323504295
 20
-7.0050509071
 10
9.6936882409
 20
-7.0737516734
 10
9.658608181
 20
-7.1421922363
 10
9.6273244138
 20
-7.2103559555
 10
9.5996227752
 20
-7.2782594713
 10
9.5759163817
 20
-7.3440138548
  0
LWPOLYLINE
  5
416
100
AcDbEntity
  8
ASSI
100
AcDbPolyline
 62
250
  6
CONTINUOUS
 90
3
 70
0
 10
10.1051887825
 20
-6.545832885
 10
10.0577488917
 20
-6.5900999909
 10
10.009042589
 20
-6.6390429721
  0
LWPOLYLINE
  5
417
100
AcDbEntity
  8
ASSI
100
AcDbPolyline
 62
250
  6
CONTINUOUS
 90
7
 70
0
 10
10.1382873329
 20
-6.6247366086
 10
10.1528196551
 20
-6.6119433858
 10
10.1693396958
 20
-6.5910600497
 10
10.1822340727
 20
-6.5661647216
 10
10.1913615613
 20
-6.5375300489
 10
10.1966221915
 20
-6.5054696339
 10
10.1979583431
 20
-6.4703345982
  0
LWPOLYLINE
  5
418
100
AcDbEntity
  8
ASSI
100
AcDbPolyline
 62
250
  6
CONTINUOUS
 90
7
 70
0
 10
17.4454365972
 20
-1.1444063448
 10
17.4599691053
 20
-1.1316129309
 10
17.4764890946
 20
-1.1107295767
 10
17.4893834208
 20
-1.0858342543
 10
17.4985108657
 20
-1.0571996164
 10
17.5037714659
 20
-1.0251392685
 10
17.5051076074
 20
-0.9900043345
  0
LINE
  5
419
100
AcDbEntity
  8
ASSI
100
AcDbLine
 62
250
  6
CONTINUOUS
 10
10.1519252663
 20
-6.5059110875
 11
10.1051887825
 21
-6.545832885
  0
LINE
  5
41A
100
AcDbEntity
  8
ASSI
100
AcDbLine
 62
250
  6
CONTINUOUS
 10
10.1979583432
 20
-6.4703345981
 11
10.1519252663
 21
-6.5059110875
  0
LINE
  5
41B
100
AcDbEntity
  8
ASSI
100
AcDbLine
 62
250
  6
CONTINUOUS
 10
17.5051076074
 20
-0.9900043345
 11
10.1979583432
 21
-6.4703345981
  0
LINE
  5
41C
100
AcDbEntity
  8
ASSI
100
AcDbLine
 62
7
  6
CONTINUOUS
 10
17.4454365972
 20
-1.1444063448
 11
10.1343591632
 21
-6.6277004195
  0
LINE
  5
41D
100
AcDbEntity
  8
ASSI
100
AcDbLine
 62
7
  6
CONTINUOUS
 10
10.1381699741
 20
-6.624824518
 11
10.1382873329
 21
-6.6247366086
  0
LINE
  5
41E
100
AcDbEntity
  8
ASSI
100
AcDbLine
 62
7
  6
CONTINUOUS
 10
3.7759514711
 20
11.0441757003
 11
4.2340081553
 21
10.7203501596
  0
LINE
  5
41F
100
AcDbEntity
  8
0
100
AcDbLine
 62
250
  6
CONTINUOUS
 10
-0.1338899725
 20
13.8928625635
 11
-8.6191713467
 21
19.8928625635
  0
LINE
  5
420
100
AcDbEntity
  8
0
100
AcDbLine
 62
250
  6
CONTINUOUS
 10
0.019065636
 20
13.976792723
 11
-8.4662157382
 21
19.976792723
  0
LINE
  5
421
100
AcDbEntity
  8
RACCORDO
100
AcDbLine
 62
7
  6
CONTINUOUS
 10
-0.9924328519
 20
14.8996310995
 11
-3.0430425174
 21
16.3496310995
  0
LINE
  5
422
100
AcDbEntity
  8
RACCORDO
100
AcDbLine
 62
7
  6
CONTINUOUS
 10
-5.0229415047
 20
17.7496310995
 11
-7.0735511701
 21
19.1996310995
  0
LINE
  5
423
100
AcDbEntity
  8
ASSI
100
AcDbLine
 62
7
  6
CONTINUOUS
 10
-2.7063498257
 20
16.3349616862
 11
-0.7095686003
 21
14.9230241412
  0
LWPOLYLINE
  5
424
100
AcDbEntity
  8
RACCORDO
100
AcDbPolyline
 62
7
  6
CONTINUOUS
 90
16
 70
0
 10
-7.0735511701
 20
19.1996310995
 10
-7.0825674356
 20
19.2063313761
 10
-7.0909026236
 20
19.213163625
 10
-7.098556734
 20
19.2201278461
 10
-7.1055566331
 20
19.2272549033
 10
-7.1118754547
 20
19.2345139328
 10
-7.1174325999
 20
19.241812343
 10
-7.1222183119
 20
19.2491506386
 10
-7.1262423476
 20
19.2565283149
 10
-7.129453379
 20
19.2638512672
 10
-7.1318409916
 20
19.2711187944
 10
-7.1334156
 20
19.2783315977
 10
-7.1341571194
 20
19.2853976751
 10
-7.1340548781
 20
19.2923151471
 10
-7.1331195478
 20
19.2990858933
 10
-7.1324191106
 20
19.3021130724
  0
LWPOLYLINE
  5
425
100
AcDbEntity
  8
RACCORDO
100
AcDbPolyline
 62
7
  6
CONTINUOUS
 90
16
 70
0
 10
-3.0430425174
 20
16.3496310995
 10
-3.0520587829
 20
16.3563313761
 10
-3.0603939708
 20
16.363163625
 10
-3.0680480812
 20
16.3701278461
 10
-3.0750479804
 20
16.3772549033
 10
-3.0813668019
 20
16.3845139328
 10
-3.0869239472
 20
16.391812343
 10
-3.0917096592
 20
16.3991506386
 10
-3.0957336949
 20
16.4065283149
 10
-3.0989447262
 20
16.4138512672
 10
-3.1013323389
 20
16.4211187944
 10
-3.1029069472
 20
16.4283315977
 10
-3.1036484666
 20
16.4353976751
 10
-3.1035462253
 20
16.4423151471
 10
-3.102610895
 20
16.4490858933
 10
-3.1019104578
 20
16.4521130724
  0
LINE
  5
426
100
AcDbEntity
  8
ASSI
100
AcDbLine
 62
7
  6
CONTINUOUS
 10
-0.6911058869
 20
14.9087677848
 11
-0.7095686003
 21
14.9230241412
  0
LWPOLYLINE
  5
427
100
AcDbEntity
  8
RACCORDO
100
AcDbPolyline
 62
250
  6
CONTINUOUS
 90
5
 70
0
 10
5.0943732994
 20
17.2122451559
 10
5.0845511169
 20
17.2305426008
 10
5.0735449856
 20
17.2435282601
 10
5.0616122443
 20
17.2508985059
 10
5.0541744205
 20
17.2525438583
  0
LINE
  5
428
100
AcDbEntity
  8
ASSI
100
AcDbLine
 62
250
  6
CONTINUOUS
 10
7.3230106277
 20
16.7011265837
 11
7.731869761
 21
15.7094365516
  0
LWPOLYLINE
  5
429
100
AcDbEntity
  8
RACCORDO
100
AcDbPolyline
 62
250
  6
CONTINUOUS
 90
4
 70
0
 10
12.4576049908
 20
13.8337713759
 10
12.462658289
 20
13.7851878406
 10
12.4668508684
 20
13.6962064471
 10
12.466495297
 20
13.6826169089
  0
LWPOLYLINE
  5
42A
100
AcDbEntity
  8
ASSI
100
AcDbPolyline
 62
250
  6
CONTINUOUS
 90
13
 70
0
 10
17.5051076074
 20
5.233699397
 10
17.5293336635
 20
5.2983849322
 10
17.5511033747
 20
5.362312605
 10
17.5704327172
 20
5.4253132192
 10
17.5873109164
 20
5.487179595
 10
17.6018508392
 20
5.5478043135
 10
17.6142268879
 20
5.6072009331
 10
17.624466815
 20
5.665237887
 10
17.6326109512
 20
5.7218218606
 10
17.6387589695
 20
5.7770613574
 10
17.6429163415
 20
5.8309449952
 10
17.6450844837
 20
5.8833020533
 10
17.6454377062
 20
5.9137534647
  0
LWPOLYLINE
  5
42B
100
AcDbEntity
  8
ASSI
100
AcDbPolyline
 62
7
  6
CONTINUOUS
 90
16
 70
0
 10
-1.7331454915
 20
13.1024372206
 10
-1.7468452005
 20
13.0994550226
 10
-1.7834336908
 20
13.0935499144
 10
-1.8203340904
 20
13.0896022694
 10
-1.8575516127
 20
13.0876448061
 10
-1.8950810442
 20
13.0876448061
 10
-1.9322985665
 20
13.0896022694
 10
-1.969198966
 20
13.0935499144
 10
-2.0057874564
 20
13.0994550226
 10
-2.0414558594
 20
13.1072194387
 10
-2.0761887961
 20
13.1168742405
 10
-2.1100016456
 20
13.1283883502
 10
-2.1423323667
 20
13.141570379
 10
-2.1729936125
 20
13.1563565304
 10
-2.2021727299
 20
13.1728106009
 10
-2.229869719
 20
13.1909325905
  0
LWPOLYLINE
  5
42C
100
AcDbEntity
  8
0
100
AcDbPolyline
 62
7
  6
CONTINUOUS
 90
27
 70
0
 10
9.0678097116
 20
15.4831226484
 10
9.2097574629
 20
15.5100308209
 10
9.3652840475
 20
15.5341781698
 10
9.5225258161
 20
15.5533486971
 10
9.6805084133
 20
15.5674236117
 10
9.839236439
 20
15.5763712731
 10
9.9987052932
 20
15.5802233218
 10
10.1579268202
 20
15.5789558885
 10
10.3168994843
 20
15.5725371844
 10
10.4756248211
 20
15.5609989982
 10
10.6331192822
 20
15.5444128269
 10
10.7893752246
 20
15.5227473255
 10
10.9444002913
 20
15.496033839
 10
11.0972338627
 20
15.4644378986
 10
11.2478623309
 20
15.4279291874
 10
11.3962993038
 20
15.3865380223
 10
11.5416249852
 20
15.3405208854
 10
11.6838200559
 20
15.2898490525
 10
11.822903835
 20
15.2345512478
 10
11.9580144839
 20
15.1749701267
 10
12.089127332
 20
15.1110790924
 10
12.2162670497
 20
15.0429047417
 10
12.3386458104
 20
14.9708695199
 10
12.4562340515
 20
14.8949494534
 10
12.5690613355
 20
14.8151685157
 10
12.6764285232
 20
14.7320210731
 10
12.718518086
 20
14.6962686426
  0
LWPOLYLINE
  5
42D
100
AcDbEntity
  8
RACCORDO
100
AcDbPolyline
 62
250
  6
CONTINUOUS
 90
15
 70
0
 10
6.9855201152
 20
16.3274002053
 10
7.012174157
 20
16.3317317626
 10
7.038626198
 20
16.335725686
 10
7.0647127964
 20
16.3392957764
 10
7.0902563446
 20
16.3423661539
 10
7.1150763059
 20
16.3448143337
 10
7.138994285
 20
16.3464731372
 10
7.1618583594
 20
16.3472196387
 10
7.1834175101
 20
16.3469313732
 10
7.2033769465
 20
16.3454502423
 10
7.2215751973
 20
16.3426475163
 10
7.2378471805
 20
16.3384185682
 10
7.2519726884
 20
16.3326761968
 10
7.2638222794
 20
16.3253374582
 10
7.2733362553
 20
16.3163071957
  0
LWPOLYLINE
  5
42E
100
AcDbEntity
  8
RACCORDO
100
AcDbPolyline
 62
7
  6
CONTINUOUS
 90
25
 70
0
 10
-0.9112006328
 20
16.8669951074
 10
-0.9208132739
 20
16.873467457
 10
-0.9308713779
 20
16.8796412296
 10
-0.9413749448
 20
16.8855164252
 10
-0.9523726284
 20
16.8911155808
 10
-0.9638157749
 20
16.8964161595
 10
-0.975558423
 20
16.9013505504
 10
-0.9876044093
 20
16.9059140629
 10
-0.9999498972
 20
16.9101113876
 10
-1.0124374156
 20
16.9138889864
 10
-1.0250687841
 20
16.9172414825
 10
-1.0378421831
 20
16.9201742526
 10
-1.0505946836
 20
16.9226498881
 10
-1.0633260178
 20
16.9246625333
 10
-1.0760364534
 20
16.926218044
 10
-1.0885638644
 20
16.9272965791
 10
-1.1009059064
 20
16.9278920285
 10
-1.1130649237
 20
16.9280105024
 10
-1.1248858239
 20
16.9276504895
 10
-1.1363642758
 20
16.9268058604
 10
-1.1475046106
 20
16.9254827446
 10
-1.1581647295
 20
16.9236980188
 10
-1.1682972661
 20
16.9214573086
 10
-1.1779495867
 20
16.9187549884
 10
-1.1871216914
 20
16.9155910582
  0
LWPOLYLINE
  5
42F
100
AcDbEntity
  8
RACCORDO
100
AcDbPolyline
 62
7
  6
CONTINUOUS
 90
25
 70
0
 10
-4.9417092856
 20
19.7169951074
 10
-4.9513219266
 20
19.723467457
 10
-4.9613800306
 20
19.7296412296
 10
-4.9718835976
 20
19.7355164252
 10
-4.9828812812
 20
19.7411155808
 10
-4.9943244277
 20
19.7464161595
 10
-5.0060670758
 20
19.7513505504
 10
-5.0181130621
 20
19.7559140629
 10
-5.0304585499
 20
19.7601113876
 10
-5.0429460684
 20
19.7638889864
 10
-5.0555774368
 20
19.7672414825
 10
-5.0683508359
 20
19.7701742526
 10
-5.0811033363
 20
19.7726498881
 10
-5.0938346705
 20
19.7746625333
 10
-5.1065451062
 20
19.776218044
 10
-5.1190725172
 20
19.7772965791
 10
-5.1314145591
 20
19.7778920285
 10
-5.1435735764
 20
19.7780105024
 10
-5.1553944767
 20
19.7776504895
 10
-5.1668729286
 20
19.7768058604
 10
-5.1780132634
 20
19.7754827446
 10
-5.1886733822
 20
19.7736980188
 10
-5.1988059188
 20
19.7714573086
 10
-5.2084582395
 20
19.7687549884
 10
-5.2176303442
 20
19.7655910582
  0
LINE
  5
430
100
AcDbEntity
  8
RACCORDO
100
AcDbLine
 62
7
  6
CONTINUOUS
 10
-4.9417092856
 20
19.7169951074
 11
-3.022697728
 21
18.3600490219
  0
LINE
  5
431
100
AcDbEntity
  8
RACCORDO
100
AcDbLine
 62
7
  6
CONTINUOUS
 10
-0.9112006328
 20
16.8669951074
 11
1.0078109248
 21
15.5100490219
  0
LINE
  5
432
100
AcDbEntity
  8
RACCORDO
100
AcDbLine
 62
7
  6
CONTINUOUS
 10
-4.8543060807
 20
20.0477979111
 11
-2.8036964152
 21
18.5977979111
  0
LINE
  5
433
100
AcDbEntity
  8
RACCORDO
100
AcDbLine
 62
7
  6
CONTINUOUS
 10
-0.8237974279
 20
17.1977979111
 11
1.2268122375
 21
15.7477979111
  0
LWPOLYLINE
  5
434
100
AcDbEntity
  8
RACCORDO
100
AcDbPolyline
 62
7
  6
CONTINUOUS
 90
16
 70
0
 10
-2.8036964152
 20
18.5977979111
 10
-2.7946801497
 20
18.5910976345
 10
-2.7863449618
 20
18.5842653856
 10
-2.7786908514
 20
18.5773011645
 10
-2.7716909522
 20
18.5701741073
 10
-2.7653721307
 20
18.5629150779
 10
-2.7598149854
 20
18.5556166676
 10
-2.7550292734
 20
18.5482783721
 10
-2.7510052378
 20
18.5409006957
 10
-2.7477942064
 20
18.5335777434
 10
-2.7454065937
 20
18.5263102162
 10
-2.7438319854
 20
18.5190974129
 10
-2.743090466
 20
18.5120313355
 10
-2.7431927073
 20
18.5051138635
 10
-2.7441280376
 20
18.4983431174
 10
-2.7448284748
 20
18.4953159383
  0
LWPOLYLINE
  5
435
100
AcDbEntity
  8
RACCORDO
100
AcDbPolyline
 62
7
  6
CONTINUOUS
 90
16
 70
0
 10
1.2268122375
 20
15.7477979111
 10
1.235828503
 20
15.7410976345
 10
1.244163691
 20
15.7342653856
 10
1.2518178014
 20
15.7273011645
 10
1.2588177005
 20
15.7201741073
 10
1.2651365221
 20
15.7129150779
 10
1.2706936673
 20
15.7056166676
 10
1.2754793793
 20
15.6982783721
 10
1.279503415
 20
15.6909006957
 10
1.2827144464
 20
15.6835777434
 10
1.285102059
 20
15.6763102162
 10
1.2866766674
 20
15.6690974129
 10
1.2874181868
 20
15.6620313355
 10
1.2873159455
 20
15.6551138635
 10
1.2863806152
 20
15.6483431174
 10
1.285680178
 20
15.6453159383
  0
LWPOLYLINE
  5
436
100
AcDbEntity
  8
RACCORDO
100
AcDbPolyline
 62
250
  6
CONTINUOUS
 90
12
 70
0
 10
-1.2048449932
 20
21.8301614052
 10
-1.2026221638
 20
21.8278606707
 10
-1.2011893093
 20
21.8233703292
 10
-1.2016596841
 20
21.8173699979
 10
-1.2039722294
 20
21.8098382429
 10
-1.2081933961
 20
21.80080523
 10
-1.2142590532
 20
21.7902376461
 10
-1.2221096447
 20
21.7781113165
 10
-1.2318348019
 20
21.7644341925
 10
-1.2434245608
 20
21.74917568
 10
-1.2567568692
 20
21.7322939137
 10
-1.2717550102
 20
21.7137663607
  0
LWPOLYLINE
  5
437
100
AcDbEntity
  8
RACCORDO
100
AcDbPolyline
 62
250
  6
CONTINUOUS
 90
10
 70
0
 10
6.9481414557
 20
16.5053886536
 10
6.9568510504
 20
16.4921585967
 10
6.9645643164
 20
16.4768674421
 10
6.9712027306
 20
16.4596708578
 10
6.9766987122
 20
16.4407439094
 10
6.9809963106
 20
16.4202792783
 10
6.9840517751
 20
16.3984852999
 10
6.9858340001
 20
16.3755838425
 10
6.986324842
 20
16.3518080491
 10
6.9855193038
 20
16.3273999635
  0
LWPOLYLINE
  5
438
100
AcDbEntity
  8
RACCORDO
100
AcDbPolyline
 62
7
  6
CONTINUOUS
 90
4
 70
0
 10
7.2786083212
 20
16.3088531266
 10
7.2564151035
 20
16.3427716312
 10
7.2074272853
 20
16.3987510691
 10
7.1537776115
 20
16.4422540935
  0
LWPOLYLINE
  5
439
100
AcDbEntity
  8
ASSI
100
AcDbPolyline
 62
250
  6
CONTINUOUS
 90
10
 70
0
 10
8.4984201361
 20
13.6016046221
 10
8.4891492239
 20
13.6162426882
 10
8.4791585867
 20
13.6305255523
 10
8.4685229764
 20
13.6443436584
 10
8.4573207578
 20
13.6575900323
 10
8.4456371387
 20
13.6701639245
 10
8.4335635255
 20
13.6819715733
 10
8.4211917464
 20
13.6929231594
 10
8.4086133691
 20
13.7029335075
 10
7.9101883371
 20
14.0553917079
  0
LWPOLYLINE
  5
43A
100
AcDbEntity
  8
ASSI
100
AcDbPolyline
 62
7
  6
CONTINUOUS
 90
6
 70
0
 10
8.7018764388
 20
13.7225736556
 10
8.6999438214
 20
13.7258061286
 10
8.6856345878
 20
13.7464198931
 10
8.6689625033
 20
13.7652284741
 10
8.6501161396
 20
13.7819833846
 10
8.6413068131
 20
13.7885615188
  0
LINE
  5
43B
100
AcDbEntity
  8
ASSI
100
AcDbLine
 62
250
  6
CONTINUOUS
 10
9.5178293916
 20
11.8613641692
 11
8.4984201361
 21
13.6016046221
  0
LINE
  5
43C
100
AcDbEntity
  8
RACCORDO
100
AcDbLine
 62
250
  6
CONTINUOUS
 10
6.9855201152
 20
16.3274002053
 11
8.02807624
 21
14.547645575
  0
LINE
  5
43D
100
AcDbEntity
  8
ASSI
100
AcDbLine
 62
7
  6
CONTINUOUS
 10
9.6394186742
 20
12.1221054156
 11
8.7019011136
 21
13.7225480008
  0
LINE
  5
43E
100
AcDbEntity
  8
RACCORDO
100
AcDbLine
 62
7
  6
CONTINUOUS
 10
7.2786302983
 20
16.3088187198
 11
8.1808229767
 21
14.7686796352
  0
LINE
  5
43F
100
AcDbEntity
  8
RACCORDO
100
AcDbLine
 62
250
  6
CONTINUOUS
 10
8.1808303965
 20
14.7686669687
 11
8.1811010985
 21
14.7681993456
  0
LINE
  5
440
100
AcDbEntity
  8
RACCORDO
100
AcDbLine
 62
7
  6
CONTINUOUS
 10
8.2048048735
 20
14.7175984754
 11
8.1810918276
 21
14.768215219
  0
LWPOLYLINE
  5
441
100
AcDbEntity
  8
RACCORDO
100
AcDbPolyline
 62
250
  6
CONTINUOUS
 90
16
 70
0
 10
8.1811010985
 20
14.7681993456
 10
8.1853618699
 20
14.7585848605
 10
8.1876173026
 20
14.7482914866
 10
8.187950517
 20
14.7371015633
 10
8.1863044115
 20
14.7251607763
 10
8.182677772
 20
14.7125000139
 10
8.1770923639
 20
14.699146976
 10
8.1696097929
 20
14.6852877549
 10
8.1603157768
 20
14.6710239081
 10
8.1492756877
 20
14.6563776458
 10
8.1365735511
 20
14.6414415971
 10
8.1223673635
 20
14.6263495021
 10
8.1066907401
 20
14.6111038274
 10
8.0893990348
 20
14.5955815467
 10
8.070456513
 20
14.5797654588
 10
8.0499939993
 20
14.5637681498
  0
LINE
  5
442
100
AcDbEntity
  8
0
100
AcDbLine
 62
7
  6
CONTINUOUS
 10
9.4779129638
 20
13.2154763197
 11
9.3034329346
 21
13.6888051303
  0
LINE
  5
443
100
AcDbEntity
  8
0
100
AcDbLine
 62
7
  6
CONTINUOUS
 10
9.2154095439
 20
13.9275946754
 11
8.8080671353
 21
15.0326317316
  0
LWPOLYLINE
  5
444
100
AcDbEntity
  8
RACCORDO
100
AcDbPolyline
 62
7
  6
CONTINUOUS
 90
13
 70
0
 10
12.4576049908
 20
13.8337713759
 10
12.4464203149
 20
13.9070740151
 10
12.4310863546
 20
13.9801413478
 10
12.4116000718
 20
14.0528323787
 10
12.3879704871
 20
14.1249975024
 10
12.3602097003
 20
14.1965068686
 10
12.3283261822
 20
14.2672523997
 10
12.2923317859
 20
14.3371225816
 10
12.2522681149
 20
14.4059613585
 10
12.2081986377
 20
14.4736024473
 10
12.1601825343
 20
14.5399103803
 10
12.1082688739
 20
14.604775537
 10
12.055337047
 20
14.6650181769
  0
LWPOLYLINE
  5
445
100
AcDbEntity
  8
RACCORDO
100
AcDbPolyline
 62
7
  6
CONTINUOUS
 90
9
 70
0
 10
11.3652864499
 20
15.121763177
 10
11.3638284763
 20
15.1320742279
 10
11.3614223051
 20
15.1415111392
 10
11.3580679363
 20
15.1500739108
 10
11.3537175742
 20
15.1578457684
 10
11.3484190145
 20
15.1647434864
 10
11.3423156443
 20
15.1705173879
 10
11.3354088783
 20
15.1750994205
 10
11.3319735137
 20
15.1768232148
  0
LINE
  5
446
100
AcDbEntity
  8
0
100
AcDbLine
 62
7
  6
CONTINUOUS
 10
12.4755908007
 20
13.6889626533
 11
12.4576049908
 21
13.8337713759
  0
LWPOLYLINE
  5
447
100
AcDbEntity
  8
ASSI
100
AcDbPolyline
 62
250
  6
CONTINUOUS
 90
9
 70
0
 10
17.6454377073
 20
14.8484622564
 10
17.6449744219
 20
14.83324597
 10
17.6400738738
 20
14.7968141064
 10
17.6298736419
 20
14.7609356169
 10
17.6144830147
 20
14.7259949147
 10
17.5940668921
 20
14.6923663652
 10
17.5688440187
 20
14.660410275
 10
17.5390846401
 20
14.6304690315
 10
17.5051076074
 20
14.6028634343
  0
LWPOLYLINE
  5
448
100
AcDbEntity
  8
ASSI
100
AcDbPolyline
 62
7
  6
CONTINUOUS
 90
10
 70
0
 10
17.6454287976
 20
8.1549163879
 10
17.6467902192
 20
8.1863433632
 10
17.6524554439
 20
8.2261576668
 10
17.6630153282
 20
8.2669926128
 10
17.6784915353
 20
8.3071410343
 10
17.6989634449
 20
8.3460002498
 10
17.7243311521
 20
8.3827533047
 10
17.7534551397
 20
8.415697272
 10
17.7853347017
 20
8.444157155
 10
17.7925668039
 20
8.4497416122
  0
LWPOLYLINE
  5
449
100
AcDbEntity
  8
0
100
AcDbPolyline
 62
7
  6
CONTINUOUS
 90
7
 70
0
 10
4.6290660585
 20
17.4645736936
 10
4.6151175158
 20
17.4614236163
 10
4.6010026902
 20
17.4578148097
 10
4.5867215814
 20
17.4537472736
 10
4.5722741897
 20
17.4492210082
 10
4.5576605149
 20
17.4442360135
 10
4.542880557
 20
17.4387922893
  0
LWPOLYLINE
  5
44A
100
AcDbEntity
  8
RACCORDO
100
AcDbPolyline
 62
250
  6
CONTINUOUS
 90
4
 70
0
 10
4.8548437894
 20
17.2083154874
 10
4.8146371289
 20
17.2023180274
 10
4.7770892452
 20
17.1950618323
 10
4.7421712748
 20
17.1863973896
  0
LWPOLYLINE
  5
44B
100
AcDbEntity
  8
RACCORDO
100
AcDbPolyline
 62
250
  6
CONTINUOUS
 90
11
 70
0
 10
6.9481418985
 20
16.505389725
 10
6.969855031
 20
16.5028053449
 10
6.991653854
 20
16.4996571
 10
7.0134632949
 20
16.4958252611
 10
7.0352237905
 20
16.4911720948
 10
7.0568199938
 20
16.4855831254
 10
7.0780820975
 20
16.4789709628
 10
7.0989304145
 20
16.4711994817
 10
7.1192174325
 20
16.4621389801
 10
7.1386778112
 20
16.4517422265
 10
7.1537558312
 20
16.4422745023
  0
LINE
  5
44C
100
AcDbEntity
  8
0
100
AcDbLine
 62
7
  6
CONTINUOUS
 10
9.7413714071
 20
13.1025775111
 11
9.5150360754
 21
13.1892263157
  0
LINE
  5
44D
100
AcDbEntity
  8
0
100
AcDbLine
 62
7
  6
CONTINUOUS
 10
10.0384329346
 20
13.2929082474
 11
10.5618297937
 21
13.0925342632
  0
LINE
  5
44E
100
AcDbEntity
  8
0
100
AcDbLine
 62
7
  6
CONTINUOUS
 10
10.0384329346
 20
14.3323552158
 11
9.5150360754
 21
14.5327291999
  0
LWPOLYLINE
  5
44F
100
AcDbEntity
  8
ASSI
100
AcDbPolyline
 62
250
  6
CONTINUOUS
 90
13
 70
0
 10
8.701901484
 20
13.7225471159
 10
8.6993464975
 20
13.72379062
 10
8.6936766599
 20
13.7230133458
 10
8.6851373938
 20
13.7199178299
 10
8.6738051018
 20
13.7145802255
 10
8.6597560114
 20
13.707115137
 10
8.6431600248
 20
13.6975291415
 10
8.624166212
 20
13.6859356108
 10
8.6029038965
 20
13.6724693932
 10
8.5795269521
 20
13.6571746398
 10
8.5541968805
 20
13.6401550675
 10
8.5270976012
 20
13.6215801817
 10
8.4984256765
 20
13.601595164
  0
LWPOLYLINE
  5
450
100
AcDbEntity
  8
ASSI
100
AcDbPolyline
 62
250
  6
CONTINUOUS
 90
12
 70
0
 10
8.6412785706
 20
13.7885795359
 10
8.6290703493
 20
13.7950752863
 10
8.6139833513
 20
13.7990401531
 10
8.5966163807
 20
13.8001447669
 10
8.5771614633
 20
13.7983780683
 10
8.5557240596
 20
13.7938225558
 10
8.5325085105
 20
13.7865358125
 10
8.507719242
 20
13.7765735161
 10
8.4814648633
 20
13.7640315799
 10
8.4539204337
 20
13.74900197
 10
8.4253322748
 20
13.7315914611
 10
8.39591499
 20
13.7119310979
  0
LWPOLYLINE
  5
451
100
AcDbEntity
  8
RACCORDO
100
AcDbPolyline
 62
250
  6
CONTINUOUS
 90
6
 70
0
 10
4.7098832177
 20
17.1763246994
 10
4.6785660677
 20
17.1949090204
 10
4.6463667442
 20
17.2066084814
 10
4.6142599023
 20
17.2110689461
 10
4.5832173979
 20
17.208155399
 10
4.570212052
 20
17.2045761838
  0
LWPOLYLINE
  5
452
100
AcDbEntity
  8
RACCORDO
100
AcDbPolyline
 62
7
  6
CONTINUOUS
 90
6
 70
0
 10
3.4356727574
 20
16.7501387153
 10
3.4042897367
 20
16.769091314
 10
3.3731058828
 20
16.7813528921
 10
3.3430301217
 20
16.7865664408
 10
3.3147849103
 20
16.7844995243
 10
3.3037078452
 20
16.7814904201
  0
LWPOLYLINE
  5
453
100
AcDbEntity
  8
0
100
AcDbPolyline
 62
7
  6
CONTINUOUS
 90
9
 70
0
 10
4.8658084517
 20
17.42935421
 10
4.841433589
 20
17.444339356
 10
4.8159032433
 20
17.4560189571
 10
4.7885674461
 20
17.4647765137
 10
4.7594532172
 20
17.4706452361
 10
4.728910927
 20
17.4735652979
 10
4.6970573655
 20
17.473516757
 10
4.6637757427
 20
17.4705195556
 10
4.6290660585
 20
17.4645736936
  0
LWPOLYLINE
  5
454
100
AcDbEntity
  8
RACCORDO
100
AcDbPolyline
 62
7
  6
CONTINUOUS
 90
5
 70
0
 10
5.5299314889
 20
17.0679545892
 10
5.4172959842
 20
17.1384749793
 10
5.2905757752
 20
17.1974401228
 10
5.1635798363
 20
17.2359006002
 10
5.0541334067
 20
17.2525558474
  0
LWPOLYLINE
  5
455
100
AcDbEntity
  8
ASSI
100
AcDbPolyline
 62
250
  6
CONTINUOUS
 90
9
 70
0
 10
19.5301682702
 20
7.4153956074
 10
19.5248711215
 20
7.4188946391
 10
19.5009688682
 20
7.4296932078
 10
19.4736907665
 20
7.4347877083
 10
19.4434931999
 20
7.4340927738
 10
19.410881447
 20
7.4276199251
 10
19.3764011841
 20
7.4154773807
 10
19.3406293467
 20
7.39786823
 10
19.3041645111
 20
7.3750870464
  0
LINE
  5
456
100
AcDbEntity
  8
RACCORDO
100
AcDbLine
 62
7
  6
CONTINUOUS
 10
-1.2050230403
 20
21.8302842683
 11
-1.2048449932
 21
21.8301614052
  0
LWPOLYLINE
  5
457
100
AcDbEntity
  8
RACCORDO
100
AcDbPolyline
 62
7
  6
CONTINUOUS
 90
10
 70
0
 10
-4.7004732125
 20
22.2996140101
 10
-4.7155500893
 20
22.3100720913
 10
-4.7305004062
 20
22.3191129043
 10
-4.7452103294
 20
22.3266676106
 10
-4.7595678504
 20
22.3326786908
 10
-4.7734636534
 20
22.3371003719
 10
-4.7867919478
 20
22.3398989765
 10
-4.7994512543
 20
22.3410531923
 10
-4.8113451781
 20
22.3405542345
 10
-4.8223831567
 20
22.3384059023
  0
LWPOLYLINE
  5
458
100
AcDbEntity
  8
RACCORDO
100
AcDbPolyline
 62
250
  6
CONTINUOUS
 90
13
 70
0
 10
5.5299365409
 20
17.0679510897
 10
5.5261079472
 20
17.0706377916
 10
5.4877787436
 20
17.0959703447
 10
5.4491976799
 20
17.1186988211
 10
5.410459909
 20
17.138854776
 10
5.3716588648
 20
17.1564743803
 10
5.3325720703
 20
17.1716938201
 10
5.2931821976
 20
17.1845372068
 10
5.2536374273
 20
17.194969149
 10
5.2139268472
 20
17.2029689235
 10
5.1740866346
 20
17.208514104
 10
5.134211456
 20
17.2116059319
 10
5.0943732996
 20
17.2122451565
  0
LINE
  5
459
100
AcDbEntity
  8
ASSI
100
AcDbLine
 62
250
  6
CONTINUOUS
 10
17.7659830562
 20
6.2761096934
 11
17.6454377073
 21
6.3613481271
  0
LINE
  5
45A
100
AcDbEntity
  8
RACCORDO
100
AcDbLine
 62
7
  6
CONTINUOUS
 10
5.1197705646
 20
15.3556530424
 11
3.2895127765
 21
16.6498407358
  0
LINE
  5
45B
100
AcDbEntity
  8
RACCORDO
100
AcDbLine
 62
7
  6
CONTINUOUS
 10
-2.8702154243
 20
21.0054263168
 11
-4.7004732125
 21
22.2996140101
  0
LINE
  5
45C
100
AcDbEntity
  8
RACCORDO
100
AcDbLine
 62
7
  6
CONTINUOUS
 10
3.2523031672
 20
16.7507060766
 11
3.2148524961
 21
16.7771877001
  0
LINE
  5
45D
100
AcDbEntity
  8
RACCORDO
100
AcDbLine
 62
7
  6
CONTINUOUS
 10
4.9153829118
 20
15.703825631
 11
3.435158583
 21
16.7505022915
  0
LINE
  5
45E
100
AcDbEntity
  8
RACCORDO
100
AcDbLine
 62
7
  6
CONTINUOUS
 10
-2.7260702368
 20
21.1071489704
 11
-4.2062945655
 21
22.153825631
  0
LINE
  5
45F
100
AcDbEntity
  8
ASSI
100
AcDbLine
 62
7
  6
CONTINUOUS
 10
8.0823938058
 20
14.1837707431
 11
8.6412968765
 21
13.7885665917
  0
LINE
  5
460
100
AcDbEntity
  8
0
100
AcDbLine
 62
7
  6
CONTINUOUS
 10
9.5150360754
 20
13.1892263157
 11
9.4779129638
 21
13.2154763197
  0
LINE
  5
461
100
AcDbEntity
  8
0
100
AcDbLine
 62
7
  6
CONTINUOUS
 10
10.8898440518
 20
12.860593157
 11
10.5618297937
 21
13.0925342632
  0
LINE
  5
462
100
AcDbEntity
  8
0
100
AcDbLine
 62
7
  6
CONTINUOUS
 10
9.0200613286
 20
14.1827291999
 11
8.3130923885
 21
14.6826317316
  0
LINE
  5
463
100
AcDbEntity
  8
0
100
AcDbLine
 62
250
  6
CONTINUOUS
 10
4.542880557
 20
17.4387922893
 11
-0.7604203019
 21
21.1887922893
  0
LINE
  5
464
100
AcDbEntity
  8
0
100
AcDbLine
 62
7
  6
CONTINUOUS
 10
10.5989529054
 20
13.2154763197
 11
10.7734329346
 21
13.0921003079
  0
LINE
  5
465
100
AcDbEntity
  8
RACCORDO
100
AcDbLine
 62
250
  6
CONTINUOUS
 10
-2.4727502157
 20
22.5630095083
 11
-1.2717552919
 21
21.7137665602
  0
LINE
  5
466
100
AcDbEntity
  8
RACCORDO
100
AcDbLine
 62
250
  6
CONTINUOUS
 10
5.0943732996
 20
17.2122451565
 11
5.9874929992
 21
16.5807141605
  0
LINE
  5
467
100
AcDbEntity
  8
0
100
AcDbLine
 62
7
  6
CONTINUOUS
 10
-0.4374622706
 20
21.1793329039
 11
4.8658385883
 21
17.4293329039
  0
LINE
  5
468
100
AcDbEntity
  8
RACCORDO
100
AcDbLine
 62
7
  6
CONTINUOUS
 10
-2.2399857238
 20
22.5621164354
 11
-1.2048314673
 21
21.830151841
  0
LINE
  5
469
100
AcDbEntity
  8
RACCORDO
100
AcDbLine
 62
7
  6
CONTINUOUS
 10
5.5299365409
 20
17.0679510897
 11
6.1197371686
 21
16.6508996893
  0
LINE
  5
46A
100
AcDbEntity
  8
ASSI
100
AcDbLine
 62
250
  6
CONTINUOUS
 10
17.7898356857
 20
8.4458792277
 11
19.3041645119
 21
7.3750870457
  0
LINE
  5
46B
100
AcDbEntity
  8
RACCORDO
100
AcDbLine
 62
250
  6
CONTINUOUS
 10
6.6392039503
 20
16.4244886271
 11
6.2953949386
 21
16.6675983107
  0
LINE
  5
46C
100
AcDbEntity
  8
RACCORDO
100
AcDbLine
 62
250
  6
CONTINUOUS
 10
-2.8262825387
 20
23.1175983107
 11
-3.1700915504
 21
23.3607079943
  0
LINE
  5
46D
100
AcDbEntity
  8
ASSI
100
AcDbLine
 62
7
  6
CONTINUOUS
 10
17.9259246685
 20
8.5497671369
 11
19.5301682702
 21
7.4153956074
  0
LINE
  5
46E
100
AcDbEntity
  8
0
100
AcDbLine
 62
7
  6
CONTINUOUS
 10
11.5427786044
 20
13.0988987072
 11
11.0568045405
 21
13.4425342632
  0
LINE
  5
46F
100
AcDbEntity
  8
0
100
AcDbLine
 62
7
  6
CONTINUOUS
 10
9.5150360754
 20
14.5327291999
 11
8.8080671353
 21
15.0326317316
  0
LINE
  5
470
100
AcDbEntity
  8
ASSI
100
AcDbLine
 62
250
  6
CONTINUOUS
 10
17.7719642189
 20
6.2717111987
 11
17.7659830562
 21
6.2761096934
  0
LWPOLYLINE
  5
471
100
AcDbEntity
  8
ASSI
100
AcDbPolyline
 62
250
  6
CONTINUOUS
 90
16
 70
0
 10
19.3041645119
 20
7.3750870457
 10
19.3416102244
 20
7.3473519184
 10
19.3785859013
 20
7.3160162644
 10
19.4146857279
 20
7.2814246046
 10
19.4495082217
 20
7.2439624741
 10
19.4826786456
 20
7.2040361749
 10
19.5138503009
 20
7.1620647247
 10
19.5426880183
 20
7.1184939525
 10
19.5688642051
 20
7.0738109327
 10
19.5920819102
 20
7.0285213573
 10
19.6120857979
 20
6.9831287254
 10
19.6286610428
 20
6.9381237066
 10
19.6416267315
 20
6.8939954606
 10
19.65084163
 20
6.8512264092
 10
19.6562064648
 20
6.8102868107
 10
19.6576640546
 20
6.7716255792
  0
LWPOLYLINE
  5
472
100
AcDbEntity
  8
RACCORDO
100
AcDbPolyline
 62
7
  6
CONTINUOUS
 90
16
 70
0
 10
3.2148524961
 20
16.7771877001
 10
3.2058362306
 20
16.7838879767
 10
3.1975010427
 20
16.7907202256
 10
3.1898469323
 20
16.7976844467
 10
3.1828470331
 20
16.8048115039
 10
3.1765282116
 20
16.8120705333
 10
3.1709710663
 20
16.8193689436
 10
3.1661853543
 20
16.8267072391
 10
3.1621613186
 20
16.8340849154
 10
3.1589502873
 20
16.8414078677
 10
3.1565626746
 20
16.848675395
 10
3.1549880663
 20
16.8558881982
 10
3.1542465469
 20
16.8629542756
 10
3.1543487882
 20
16.8698717477
 10
3.1552841185
 20
16.8766424938
 10
3.1559845557
 20
16.8796696729
  0
LWPOLYLINE
  5
473
100
AcDbEntity
  8
RACCORDO
100
AcDbPolyline
 62
7
  6
CONTINUOUS
 90
10
 70
0
 10
5.1198086423
 20
15.3556261174
 10
5.1352648621
 20
15.3440942999
 10
5.1505917154
 20
15.3312967164
 10
5.1656725651
 20
15.3173307564
 10
5.1803926445
 20
15.3023026998
 10
5.1946399354
 20
15.286326911
 10
5.2083060207
 20
15.2695249691
 10
5.2212869031
 20
15.252024738
 10
5.2334837965
 20
15.2339593931
 10
5.2448038827
 20
15.2154664115
  0
LWPOLYLINE
  5
474
100
AcDbEntity
  8
RACCORDO
100
AcDbPolyline
 62
250
  6
CONTINUOUS
 90
10
 70
0
 10
6.6392039503
 20
16.4244886271
 10
6.6546601442
 20
16.412956771
 10
6.6699869788
 20
16.4001591578
 10
6.6850678167
 20
16.386193178
 10
6.6997878926
 20
16.371165114
 10
6.7140351873
 20
16.3551893296
 10
6.7277012805
 20
16.3383873998
 10
6.7406821739
 20
16.320887187
 10
6.7528790832
 20
16.3028218684
 10
6.7641991907
 20
16.2843289212
  0
LWPOLYLINE
  5
475
100
AcDbEntity
  8
RACCORDO
100
AcDbPolyline
 62
250
  6
CONTINUOUS
 90
10
 70
0
 10
-2.8262825387
 20
23.1175983107
 10
-2.7956090372
 20
23.0931901953
 10
-2.7659143999
 20
23.0641194955
 10
-2.738100884
 20
23.0312695068
 10
-2.7130135872
 20
22.995638352
 10
-2.691414781
 20
22.9583086697
 10
-2.673960744
 20
22.9204147201
 10
-2.6611818073
 20
22.8831078981
 10
-2.6534662465
 20
22.8475217461
 10
-2.6510484915
 20
22.8147375296
  0
LWPOLYLINE
  5
476
100
AcDbEntity
  8
RACCORDO
100
AcDbPolyline
 62
7
  6
CONTINUOUS
 90
10
 70
0
 10
-2.3978977811
 20
23.1963884031
 10
-2.3640067299
 20
23.1693561325
 10
-2.3331222401
 20
23.1382559514
 10
-2.3056544713
 20
23.1033488744
 10
-2.2818870876
 20
23.0648124744
 10
-2.2622003351
 20
23.0230921518
 10
-2.2469027217
 20
22.9788745876
 10
-2.236028001
 20
22.9325416298
 10
-2.2295205663
 20
22.8841975898
 10
-2.2273570924
 20
22.8340159674
  0
LINE
  5
477
100
AcDbEntity
  8
0
100
AcDbLine
 62
7
  6
CONTINUOUS
 10
9.0200613286
 20
14.1827291999
 11
9.3034329346
 21
13.8126317316
  0
LINE
  5
478
100
AcDbEntity
  8
0
100
AcDbLine
 62
7
  6
CONTINUOUS
 10
11.0568045405
 20
13.4425342632
 11
10.7734329346
 21
13.8126317316
  0
LINE
  5
479
100
AcDbEntity
  8
RACCORDO
100
AcDbLine
 62
250
  6
CONTINUOUS
 10
7.2733362553
 20
16.3163071957
 11
7.2786302983
 21
16.3088187198
  0
LWPOLYLINE
  5
47A
100
AcDbEntity
  8
ASSI
100
AcDbPolyline
 62
250
  6
CONTINUOUS
 90
13
 70
0
 10
17.6454377062
 20
1.5788083942
 10
17.6450844854
 20
1.5827319076
 10
17.6429163458
 20
1.590740723
 10
17.6387589764
 20
1.6003590129
 10
17.6326109617
 20
1.6116498491
 10
17.6244668301
 20
1.6247322627
 10
17.6142269078
 20
1.639493967
 10
17.6018508637
 20
1.6560582455
 10
17.587310945
 20
1.6745266961
 10
17.5704327467
 20
1.6947920701
 10
17.5511034
 20
1.7169305567
 10
17.5293336793
 20
1.7411805666
 10
17.5051076074
 20
1.7677112967
  0
LWPOLYLINE
  5
47B
100
AcDbEntity
  8
ASSI
100
AcDbPolyline
 62
250
  6
CONTINUOUS
 90
13
 70
0
 10
17.6454377062
 20
8.1549014593
 10
17.6450844854
 20
8.1588249727
 10
17.6429163458
 20
8.166833788
 10
17.6387589764
 20
8.1764520779
 10
17.6326109617
 20
8.1877429142
 10
17.6244668301
 20
8.2008253277
 10
17.6142269078
 20
8.215587032
 10
17.6018508637
 20
8.2321513106
 10
17.587310945
 20
8.2506197612
 10
17.5704327467
 20
8.2708851352
 10
17.5511034
 20
8.2930236218
 10
17.5293336793
 20
8.3172736316
 10
17.5051076074
 20
8.3438043617
  0
LWPOLYLINE
  5
47C
100
AcDbEntity
  8
ASSI
100
AcDbPolyline
 62
250
  6
CONTINUOUS
 90
16
 70
0
 10
17.5051076074
 20
14.6028634343
 10
17.5037714659
 20
14.6416157541
 10
17.4985108657
 20
14.6826334494
 10
17.4893834208
 20
14.725467296
 10
17.4764890946
 20
14.769648179
 10
17.4599691053
 20
14.8146922311
 10
17.4400043793
 20
14.8601061312
 10
17.4168135695
 20
14.9053925081
 10
17.3906506608
 20
14.9500553868
 10
17.3618021886
 20
14.9936056212
 10
17.3305841002
 20
15.0355662506
 10
17.2973382951
 20
15.0754777237
 10
17.2624288801
 20
15.1129029314
 10
17.226238182
 20
15.1474319941
 10
17.1891625599
 20
15.1786867509
 10
17.1516080647
 20
15.2063249008
  0
LINE
  5
47D
100
AcDbEntity
  8
ASSI
100
AcDbLine
 62
250
  6
CONTINUOUS
 10
17.5051076074
 20
-0.9900043345
 11
17.5051076074
 21
1.7677121122
  0
LINE
  5
47E
100
AcDbEntity
  8
ASSI
100
AcDbLine
 62
250
  6
CONTINUOUS
 10
17.5051076074
 20
5.2336985835
 11
17.5051076074
 21
8.3438051772
  0
LINE
  5
47F
100
AcDbEntity
  8
ASSI
100
AcDbLine
 62
250
  6
CONTINUOUS
 10
17.5051076074
 20
11.8097916486
 11
17.5051076074
 21
14.6028634343
  0
LINE
  5
480
100
AcDbEntity
  8
ASSI
100
AcDbLine
 62
7
  6
CONTINUOUS
 10
17.6454377073
 20
14.8484622564
 11
17.6454377073
 21
12.4898514701
  0
LINE
  5
481
100
AcDbEntity
  8
ASSI
100
AcDbLine
 62
7
  6
CONTINUOUS
 10
17.6454377073
 20
8.1549430011
 11
17.6454377073
 21
5.913758405
  0
LINE
  5
482
100
AcDbEntity
  8
ASSI
100
AcDbLine
 62
7
  6
CONTINUOUS
 10
17.6454377073
 20
1.578849936
 11
17.6454377073
 21
-0.7444055123
  0
LWPOLYLINE
  5
483
100
AcDbEntity
  8
ASSI
100
AcDbPolyline
 62
250
  6
CONTINUOUS
 90
9
 70
0
 10
17.6454377073
 20
-0.7444055123
 10
17.6450188033
 20
-0.7588749371
 10
17.6402109276
 20
-0.7953930618
 10
17.6300709553
 20
-0.8313842883
 10
17.6147028741
 20
-0.8664510023
 10
17.594275127
 20
-0.9002018066
 10
17.569011337
 20
-0.9322690003
 10
17.5391816474
 20
-0.9623111222
 10
17.5051076074
 20
-0.9900043345
  0
LWPOLYLINE
  5
484
100
AcDbEntity
  8
ASSI
100
AcDbPolyline
 62
250
  6
CONTINUOUS
 90
7
 70
0
 10
19.6576640546
 20
9.9582131789
 10
19.6562064648
 20
9.9229903405
 10
19.65084163
 20
9.8908528466
 10
19.6416267315
 20
9.8621521025
 10
19.6286610427
 20
9.8372021258
 10
19.6120857978
 20
9.816275768
 10
19.5975201345
 20
9.8034564881
  0
LWPOLYLINE
  5
485
100
AcDbEntity
  8
ASSI
100
AcDbPolyline
 62
250
  6
CONTINUOUS
 90
7
 70
0
 10
19.6576640546
 20
3.3821201138
 10
19.6562064648
 20
3.3468972755
 10
19.65084163
 20
3.3147597816
 10
19.6416267315
 20
3.2860590375
 10
19.6286610427
 20
3.2611090608
 10
19.6120857978
 20
3.240182703
 10
19.5975201345
 20
3.2273634231
  0
LWPOLYLINE
  5
486
100
AcDbEntity
  8
ASSI
100
AcDbPolyline
 62
7
  6
CONTINUOUS
 90
10
 70
0
 10
17.6454287976
 20
1.5788233229
 10
17.6467902192
 20
1.6102502982
 10
17.6524554439
 20
1.6500646017
 10
17.6630153282
 20
1.6908995478
 10
17.6784915353
 20
1.7310479693
 10
17.6989634449
 20
1.7699071847
 10
17.7243311521
 20
1.8066602397
 10
17.7534551397
 20
1.8396042069
 10
17.7853347017
 20
1.86806409
 10
17.7925668039
 20
1.8736485472
  0
LWPOLYLINE
  5
487
100
AcDbEntity
  8
ASSI
100
AcDbPolyline
 62
250
  6
CONTINUOUS
 90
7
 70
0
 10
19.7699281345
 20
13.5441977033
 10
19.7670170759
 20
13.5101361965
 10
19.7574768823
 20
13.4741763932
 10
19.7414519558
 20
13.4393882342
 10
19.7192104365
 20
13.4063538189
 10
19.691124485
 20
13.375625902
 10
19.6576640546
 20
13.3477186442
  0
LWPOLYLINE
  5
488
100
AcDbEntity
  8
ASSI
100
AcDbPolyline
 62
250
  6
CONTINUOUS
 90
7
 70
0
 10
19.769928133
 20
10.1546679917
 10
19.76701759
 20
10.1206338178
 10
19.7574778336
 20
10.0846736399
 10
19.7414531413
 20
10.0498849341
 10
19.7192115821
 20
10.0168498498
 10
19.6911252504
 20
9.986121187
 10
19.6576640546
 20
9.958213172
  0
LWPOLYLINE
  5
489
100
AcDbEntity
  8
ASSI
100
AcDbPolyline
 62
250
  6
CONTINUOUS
 90
7
 70
0
 10
19.7699281345
 20
6.9681046383
 10
19.7670170759
 20
6.9340431315
 10
19.7574768823
 20
6.8980833281
 10
19.7414519558
 20
6.8632951692
 10
19.7192104365
 20
6.8302607538
 10
19.691124485
 20
6.799532837
 10
19.6576640546
 20
6.7716255792
  0
LWPOLYLINE
  5
48A
100
AcDbEntity
  8
ASSI
100
AcDbPolyline
 62
250
  6
CONTINUOUS
 90
7
 70
0
 10
19.769928133
 20
3.5785749267
 10
19.76701759
 20
3.5445407527
 10
19.7574778336
 20
3.5085805748
 10
19.7414531413
 20
3.473791869
 10
19.7192115821
 20
3.4407567847
 10
19.6911252504
 20
3.410028122
 10
19.6576640546
 20
3.3821201069
  0
LINE
  5
48B
100
AcDbEntity
  8
ASSI
100
AcDbLine
 62
7
  6
CONTINUOUS
 10
3.6037612258
 20
-19.8611656592
 11
9.5178293916
 21
-15.4256401788
  0
LINE
  5
48C
100
AcDbEntity
  8
DRAFT
100
AcDbLine
 62
7
  6
CONTINUOUS
 10
3.6037612258
 20
-19.8819822603
 11
2.0345504869
 21
-21.0051576351
  0
LINE
  5
48D
100
AcDbEntity
  8
RACCORDO
100
AcDbLine
 62
7
  6
CONTINUOUS
 10
-1.3891820343
 20
-22.8756625854
 11
-1.569057547
 21
-23.0006530244
  0
LWPOLYLINE
  5
48E
100
AcDbEntity
  8
RACCORDO
100
AcDbPolyline
 62
250
  6
CONTINUOUS
 90
10
 70
0
 10
-4.1863571948
 20
-23.3734528268
 10
-4.2197563772
 20
-23.3941099356
 10
-4.2574087313
 20
-23.4103589156
 10
-4.2981839923
 20
-23.4217120001
 10
-4.3408581479
 20
-23.4278283966
 10
-4.3841501871
 20
-23.4285244951
 10
-4.4267605542
 20
-23.4237793748
 10
-4.4674101513
 20
-23.413735465
 10
-4.5048787348
 20
-23.3986942741
 10
-4.538041551
 20
-23.3791073136
  0
LINE
  5
48F
100
AcDbEntity
  8
RACCORDO
100
AcDbLine
 62
250
  6
CONTINUOUS
 10
-3.7447098314
 20
-23.5679176989
 11
-1.3891820343
 21
-22.3428774445
  0
LINE
  5
490
100
AcDbEntity
  8
RACCORDO
100
AcDbLine
 62
7
  6
CONTINUOUS
 10
-3.8045866749
 20
-23.6636294515
 11
-1.429691843
 21
-22.4285169758
  0
LINE
  5
491
100
AcDbEntity
  8
RACCORDO
100
AcDbLine
 62
250
  6
CONTINUOUS
 10
-3.7946603469
 20
-23.5921525412
 11
-3.7447098314
 21
-23.5679176989
  0
LWPOLYLINE
  5
492
100
AcDbEntity
  8
RACCORDO
100
AcDbPolyline
 62
250
  6
CONTINUOUS
 90
6
 70
0
 10
5.0943732996
 20
17.2122451565
 10
5.0413922967
 20
17.2152325988
 10
4.9909546169
 20
17.2163632556
 10
4.9430602602
 20
17.2156371268
 10
4.8976803632
 20
17.2129046999
 10
4.8548437894
 20
17.2083154874
  0
LWPOLYLINE
  5
493
100
AcDbEntity
  8
RACCORDO
100
AcDbPolyline
 62
7
  6
CONTINUOUS
 90
7
 70
0
 10
5.0541744205
 20
17.2525438583
 10
5.0198196803
 20
17.2549660747
 10
4.9240467932
 20
17.2576917843
 10
4.829680673
 20
17.2541489381
 10
4.7373700225
 20
17.2439649091
 10
4.647799325
 20
17.2266738377
 10
4.5701110675
 20
17.2045389254
  0
LINE
  5
494
100
AcDbEntity
  8
RACCORDO
100
AcDbLine
 62
7
  6
CONTINUOUS
 10
5.0541744205
 20
17.2525438583
 11
5.0541327046
 21
17.2525472062
  0
LWPOLYLINE
  5
495
100
AcDbEntity
  8
RACCORDO
100
AcDbPolyline
 62
7
  6
CONTINUOUS
 90
12
 70
0
 10
11.3319735137
 20
15.1768232148
 10
11.3276973018
 20
15.1785576366
 10
11.3193200587
 20
15.1808465163
 10
11.310281176
 20
15.1819616792
 10
11.3005766265
 20
15.1819075057
 10
11.2903334731
 20
15.1806516178
 10
11.2794750027
 20
15.1781446823
 10
11.2680779283
 20
15.1744360325
 10
11.2564994518
 20
15.1696412897
 10
11.2448586405
 20
15.1637989942
 10
11.2330364271
 20
15.1568706057
 10
11.2210328116
 20
15.1488561241
  0
LWPOLYLINE
  5
496
100
AcDbEntity
  8
RACCORDO
100
AcDbPolyline
 62
7
  6
CONTINUOUS
 90
26
 70
0
 10
11.3319767525
 20
15.1768282882
 10
11.2302084613
 20
15.2208651944
 10
11.1170034728
 20
15.2643368325
 10
11.0008913074
 20
15.303369709
 10
10.8821793201
 20
15.3378774095
 10
10.7611832542
 20
15.3677816047
 10
10.6382309799
 20
15.3930121154
 10
10.5136260128
 20
15.4135137366
 10
10.3877183242
 20
15.4292331788
 10
10.2609176827
 20
15.4401266799
 10
10.1335857001
 20
15.4461738846
 10
10.0060333017
 20
15.4473681424
 10
9.8785988966
 20
15.4437105104
 10
9.7516161332
 20
15.4352122762
 10
9.6254214965
 20
15.4218951537
 10
9.5003544476
 20
15.4037921496
 10
9.3767331101
 20
15.3809436215
 10
9.2548946855
 20
15.3534034622
 10
9.1351967032
 20
15.3212441717
 10
9.0179644315
 20
15.2845448825
 10
8.9034957186
 20
15.2433874295
 10
8.7920913818
 20
15.1978642824
 10
8.6839712902
 20
15.1480396319
 10
8.5795072343
 20
15.0940548455
 10
8.479187781
 20
15.036153202
 10
8.3833096954
 20
14.9745172751
  0
LWPOLYLINE
  5
497
100
AcDbEntity
  8
RACCORDO
100
AcDbPolyline
 62
250
  6
CONTINUOUS
 90
9
 70
0
 10
-2.8390193935
 20
23.508011819
 10
-2.8520994878
 20
23.5150044794
 10
-2.8657064778
 20
23.520109617
 10
-2.8798578108
 20
23.5232825411
 10
-2.8944989421
 20
23.5244505726
 10
-2.9092539176
 20
23.523406733
 10
-2.9239547302
 20
23.5200913091
 10
-2.9386638922
 20
23.5145521928
 10
-2.953327357
 20
23.5067857792
  0
LWPOLYLINE
  5
498
100
AcDbEntity
  8
RACCORDO
100
AcDbPolyline
 62
7
  6
CONTINUOUS
 90
7
 70
0
 10
-2.8316108699
 20
23.5030632281
 10
-2.8729751981
 20
23.5279811124
 10
-2.9215335634
 20
23.5472908523
 10
-2.9730400241
 20
23.5578992236
 10
-3.0257170951
 20
23.559156596
 10
-3.0769498897
 20
23.5511239442
 10
-3.0887063962
 20
23.5479283755
  0
LWPOLYLINE
  5
499
100
AcDbEntity
  8
RACCORDO
100
AcDbPolyline
 62
7
  6
CONTINUOUS
 90
4
 70
0
 10
-2.2399608852
 20
22.5622142523
 10
-2.243767516
 20
22.564544252
 10
-2.2580990764
 20
22.5706518005
 10
-2.2770571738
 20
22.5761827728
  0
LWPOLYLINE
  5
49A
100
AcDbEntity
  8
0
100
AcDbPolyline
 62
7
  6
CONTINUOUS
 90
9
 70
0
 10
-0.4374924072
 20
21.17935421
 10
-0.4618672699
 20
21.194339356
 10
-0.4873976156
 20
21.2060189571
 10
-0.5147334128
 20
21.2147765137
 10
-0.5438476417
 20
21.2206452361
 10
-0.5743899319
 20
21.2235652979
 10
-0.6062434934
 20
21.223516757
 10
-0.6395251162
 20
21.2205195556
 10
-0.6742348004
 20
21.2145736936
  0
LINE
  5
49B
100
AcDbEntity
  8
RACCORDO
100
AcDbLine
 62
250
  6
CONTINUOUS
 10
-2.8324865394
 20
23.5036890611
 11
-2.8390193935
 21
23.508011819
  0
LWPOLYLINE
  5
49C
100
AcDbEntity
  8
RACCORDO
100
AcDbPolyline
 62
250
  6
CONTINUOUS
 90
10
 70
0
 10
-3.1700915504
 20
23.3607079943
 10
-3.1854481217
 20
23.3709640854
 10
-3.2006995685
 20
23.3797886083
 10
-3.2157298273
 20
23.3871144084
 10
-3.2304245178
 20
23.3928857367
 10
-3.2446718138
 20
23.3970586734
 10
-3.2583632943
 20
23.3996014626
 10
-3.2713947675
 20
23.4004947534
 10
-3.2836670637
 20
23.3997317479
 10
-3.2950867908
 20
23.3973182526
  0
LINE
  5
49D
100
AcDbEntity
  8
RACCORDO
100
AcDbLine
 62
250
  6
CONTINUOUS
 10
7.1537558312
 20
16.4422745023
 11
7.158384063
 21
16.4390767081
  0
LINE
  5
49E
100
AcDbEntity
  8
RACCORDO
100
AcDbLine
 62
7
  6
CONTINUOUS
 10
7.1583927334
 20
16.4390705773
 11
6.7237796962
 21
16.7463884031
  0
LINE
  5
49F
100
AcDbEntity
  8
RACCORDO
100
AcDbLine
 62
7
  6
CONTINUOUS
 10
-2.3978977811
 20
23.1963884031
 11
-2.8325073145
 21
23.5037037512
  0
LINE
  5
4A0
100
AcDbEntity
  8
0
100
AcDbLine
 62
7
  6
CONTINUOUS
 10
11.0172890618
 20
14.004787537
 11
10.9162482978
 21
14.0762341464
  0
LINE
  5
4A1
100
AcDbEntity
  8
0
100
AcDbLine
 62
250
  6
CONTINUOUS
 10
9.6248706618
 20
15.6293075674
 11
9.7100339924
 21
15.5690879988
  0
LWPOLYLINE
  5
4A2
100
AcDbEntity
  8
RACCORDO
100
AcDbPolyline
 62
250
  6
CONTINUOUS
 90
17
 70
0
 10
11.9287005664
 20
14.6492527923
 10
11.9753824739
 20
14.5945894615
 10
12.0196153333
 20
14.5364646813
 10
12.0613991446
 20
14.4748784516
 10
12.1013454123
 20
14.4095226174
 10
12.138842632
 20
14.3407053337
 10
12.1720562899
 20
14.2693510661
 10
12.2007488334
 20
14.1953517591
 10
12.2251578151
 20
14.1188154682
 10
12.2441613794
 20
14.0409908247
 10
12.2575051654
 20
13.9618505031
 10
12.2654435339
 20
13.8814218289
 10
12.2676177125
 20
13.8010354106
 10
12.2638510468
 20
13.7208629267
 10
12.2543201911
 20
13.6407326987
 10
12.2391963354
 20
13.5614602991
 10
12.2270367763
 20
13.5155516629
  0
LINE
  5
4A3
100
AcDbEntity
  8
ASSI
100
AcDbLine
 62
7
  6
CONTINUOUS
 10
11.8008092689
 20
19.1276852681
 11
11.9644459423
 21
18.7285523325
  0
LWPOLYLINE
  5
4A4
100
AcDbEntity
  8
ASSI
100
AcDbPolyline
 62
7
  6
CONTINUOUS
 90
12
 70
0
 10
19.7699159432
 20
6.9684548298
 10
19.7691001074
 20
6.9960534266
 10
19.7637128093
 20
7.0450718398
 10
19.7535368359
 20
7.0932808607
 10
19.7388871747
 20
7.1403103031
 10
19.7192372135
 20
7.187649118
 10
19.6946556409
 20
7.2344202065
 10
19.6668432196
 20
7.2776132657
 10
19.6356388712
 20
7.3180323413
 10
19.6004113904
 20
7.3562625857
 10
19.5636174314
 20
7.3897126916
 10
19.5303589261
 20
7.4152461651
  0
LWPOLYLINE
  5
4A5
100
AcDbEntity
  8
ASSI
100
AcDbPolyline
 62
7
  6
CONTINUOUS
 90
12
 70
0
 10
19.7699159432
 20
13.5445478948
 10
19.7691001074
 20
13.5721464916
 10
19.7637128093
 20
13.6211649049
 10
19.7535368359
 20
13.6693739257
 10
19.7388871747
 20
13.7164033682
 10
19.7192372135
 20
13.763742183
 10
19.6946556409
 20
13.8105132715
 10
19.6668432196
 20
13.8537063307
 10
19.6356388712
 20
13.8941254063
 10
19.6004113904
 20
13.9323556507
 10
19.5636174314
 20
13.9658057566
 10
19.5303589261
 20
13.9913392301
  0
LINE
  5
4A6
100
AcDbEntity
  8
ASSI
100
AcDbLine
 62
250
  6
CONTINUOUS
 10
19.6576640546
 20
13.3477186442
 11
19.6576640546
 21
9.9582131789
  0
LINE
  5
4A7
100
AcDbEntity
  8
ASSI
100
AcDbLine
 62
250
  6
CONTINUOUS
 10
19.6576640546
 20
6.7716255792
 11
19.6576640546
 21
3.3821201138
  0
LINE
  5
4A8
100
AcDbEntity
  8
ASSI
100
AcDbLine
 62
7
  6
CONTINUOUS
 10
19.7699278279
 20
13.5445479037
 11
19.7699281345
 21
10.1546923328
  0
LINE
  5
4A9
100
AcDbEntity
  8
ASSI
100
AcDbLine
 62
7
  6
CONTINUOUS
 10
19.7699278279
 20
6.9684548387
 11
19.7699281345
 21
3.5785992678
  0
LINE
  5
4AA
100
AcDbEntity
  8
RACCORDO
100
AcDbLine
 62
250
  6
CONTINUOUS
 10
-1.6036979239
 20
-25.3560087272
 11
-1.6040517622
 21
-25.3562501954
  0
LINE
  5
4AB
100
AcDbEntity
  8
RACCORDO
100
AcDbLine
 62
250
  6
CONTINUOUS
 10
-1.569057547
 20
-25.2753708512
 11
2.0345504869
 21
-22.8336819255
  0
LINE
  5
4AC
100
AcDbEntity
  8
RACCORDO
100
AcDbLine
 62
7
  6
CONTINUOUS
 10
-1.6040517622
 20
-25.3562501954
 11
2.0010836061
 21
-22.913526397
  0
LWPOLYLINE
  5
4AD
100
AcDbEntity
  8
RACCORDO
100
AcDbPolyline
 62
250
  6
CONTINUOUS
 90
7
 70
0
 10
-1.569057547
 20
-25.2753708512
 10
-1.602926026
 20
-25.2950889076
 10
-1.6411364287
 20
-25.3103133635
 10
-1.682509585
 20
-25.3205795909
 10
-1.7259328194
 20
-25.3255845422
 10
-1.7699122027
 20
-25.3251302366
 10
-1.8126175751
 20
-25.3193298474
  0
LINE
  5
4AE
100
AcDbEntity
  8
ASSI
100
AcDbLine
 62
7
  6
CONTINUOUS
 10
3.598145903
 20
-19.8628103492
 11
3.6037612258
 21
-19.8611656592
  0
LWPOLYLINE
  5
4AF
100
AcDbEntity
  8
0
100
AcDbPolyline
 62
7
  6
CONTINUOUS
 90
7
 70
0
 10
-0.6742348004
 20
21.2145736936
 10
-0.6881833431
 20
21.2114236163
 10
-0.7022981687
 20
21.2078148097
 10
-0.7165792775
 20
21.2037472736
 10
-0.7310266692
 20
21.1992210082
 10
-0.745640344
 20
21.1942360135
 10
-0.7604203019
 20
21.1887922893
  0
LWPOLYLINE
  5
4B0
100
AcDbEntity
  8
ASSI
100
AcDbPolyline
 62
7
  6
CONTINUOUS
 90
10
 70
0
 10
-8.9895830416
 20
20.0342339014
 10
-8.980801588
 20
20.035920786
 10
-8.9713500391
 20
20.0362769608
 10
-8.9613034948
 20
20.0352996436
 10
-8.950743445
 20
20.0329949006
 10
-8.9397510009
 20
20.0293816144
 10
-8.9284062475
 20
20.0244913046
 10
-8.9167957871
 20
20.0183625008
 10
-8.9050120657
 20
20.0110404561
 10
-8.893146527
 20
20.0025808063
  0
LINE
  5
4B1
100
AcDbEntity
  8
RACCORDO
100
AcDbLine
 62
7
  6
CONTINUOUS
 10
-2.2770571738
 20
22.5761827728
 11
-2.3005803971
 21
22.5816893938
  0
LINE
  5
4B2
100
AcDbEntity
  8
RACCORDO
100
AcDbLine
 62
250
  6
CONTINUOUS
 10
-1.2361248002
 20
21.6999237105
 11
-1.2717496491
 21
21.7137738439
  0
LWPOLYLINE
  5
4B3
100
AcDbEntity
  8
RACCORDO
100
AcDbPolyline
 62
250
  6
CONTINUOUS
 90
5
 70
0
 10
-2.953327472
 20
23.5067855011
 10
-2.9765637372
 20
23.5161445962
 10
-3.000471121
 20
23.5232126241
 10
-3.0248062393
 20
23.5279176303
 10
-3.0493213537
 20
23.5302117163
  0
LINE
  5
4B4
100
AcDbEntity
  8
ASSI
100
AcDbLine
 62
250
  6
CONTINUOUS
 10
17.7659830562
 20
12.8522027585
 11
17.6454377073
 21
12.9374411922
  0
LINE
  5
4B5
100
AcDbEntity
  8
ASSI
100
AcDbLine
 62
250
  6
CONTINUOUS
 10
17.7719642189
 20
12.8478042637
 11
17.7659830562
 21
12.8522027585
  0
LWPOLYLINE
  5
4B6
100
AcDbEntity
  8
RACCORDO
100
AcDbPolyline
 62
250
  6
CONTINUOUS
 90
6
 70
0
 10
-3.0493213537
 20
23.5302117163
 10
-3.0737668932
 20
23.5300715276
 10
-3.0978939951
 20
23.5274984912
 10
-3.1214570387
 20
23.5225188014
 10
-3.1442161454
 20
23.5151831526
 10
-3.165939621
 20
23.5055662237
  0
LWPOLYLINE
  5
4B7
100
AcDbEntity
  8
ASSI
100
AcDbPolyline
 62
250
  6
CONTINUOUS
 90
10
 70
0
 10
3.2201032965
 20
25.3075330843
 10
3.1960876579
 20
25.3208528952
 10
3.1704369798
 20
25.3288174465
 10
3.142225488
 20
25.332179853
 10
3.1117554488
 20
25.330904089
 10
3.0793533278
 20
25.3250038233
 10
3.0453662911
 20
25.3145422733
 10
3.0101584863
 20
25.2996315272
 10
2.9741071407
 20
25.2804313432
 10
2.9375985193
 20
25.2571474382
  0
LWPOLYLINE
  5
4B8
100
AcDbEntity
  8
ASSI
100
AcDbPolyline
 62
250
  6
CONTINUOUS
 90
10
 70
0
 10
17.4339616319
 20
15.2568173007
 10
17.4106361809
 20
15.2698015699
 10
17.3849968269
 20
15.2778781108
 10
17.3567706754
 20
15.2813374835
 10
17.326251049
 20
15.2801365028
 10
17.2937710971
 20
15.2742815792
 10
17.2596918009
 20
15.2638354269
 10
17.2243849759
 20
15.2489127665
 10
17.1882271429
 20
15.229673461
 10
17.1516080647
 20
15.2063249008
  0
LWPOLYLINE
  5
4B9
100
AcDbEntity
  8
ASSI
100
AcDbPolyline
 62
250
  6
CONTINUOUS
 90
9
 70
0
 10
19.5301682702
 20
13.9914886725
 10
19.5248711215
 20
13.9949877041
 10
19.5009688682
 20
14.0057862729
 10
19.4736907665
 20
14.0108807733
 10
19.4434931999
 20
14.0101858388
 10
19.410881447
 20
14.0037129901
 10
19.3764011841
 20
13.9915704458
 10
19.3406293467
 20
13.9739612951
 10
19.3041645111
 20
13.9511801114
  0
LWPOLYLINE
  5
4BA
100
AcDbEntity
  8
ASSI
100
AcDbPolyline
 62
250
  6
CONTINUOUS
 90
9
 70
0
 10
14.4059477122
 20
17.6148597774
 10
14.4006480261
 20
17.6183603717
 10
14.3767452962
 20
17.6291583123
 10
14.3494669522
 20
17.6342521265
 10
14.3192694341
 20
17.6335565811
 10
14.2866580276
 20
17.6270833143
 10
14.2521784092
 20
17.6149406415
 10
14.2164075158
 20
17.5973317421
 10
14.1799438905
 20
17.5745512604
  0
LWPOLYLINE
  5
4BB
100
AcDbEntity
  8
ASSI
100
AcDbPolyline
 62
7
  6
CONTINUOUS
 90
15
 70
0
 10
14.4059477122
 20
17.6148597774
 10
14.2546590803
 20
17.7160817341
 10
14.1031411114
 20
17.8059288409
 10
13.9518173354
 20
17.8840352144
 10
13.8002602577
 20
17.9503448491
 10
13.6497942109
 20
18.0039456548
 10
13.5032950219
 20
18.0438408013
 10
13.3613464879
 20
18.0702083045
 10
13.2238388877
 20
18.0833602756
 10
13.09241327
 20
18.0835414585
 10
12.9682077914
 20
18.0714595854
 10
12.8506040676
 20
18.0477638345
 10
12.7388912023
 20
18.0127109571
 10
12.6338309465
 20
17.9668040746
 10
12.5757791954
 20
17.9334648119
  0
LWPOLYLINE
  5
4BC
100
AcDbEntity
  8
ASSI
100
AcDbPolyline
 62
250
  6
CONTINUOUS
 90
10
 70
0
 10
2.9375985193
 20
25.2571474382
 10
2.9012657606
 20
25.2817554666
 10
2.8652633395
 20
25.3021746897
 10
2.8299855532
 20
25.318181477
 10
2.7958187627
 20
25.3296005226
 10
2.7631371615
 20
25.3363067655
 10
2.7322986775
 20
25.3382267593
 10
2.7036410525
 20
25.3353394762
 10
2.6774781438
 20
25.3276765377
 10
2.6543825726
 20
25.3155127834
  0
LINE
  5
4BD
100
AcDbEntity
  8
ASSI
100
AcDbLine
 62
250
  6
CONTINUOUS
 10
17.4341128419
 20
15.2567105469
 11
17.4339616319
 21
15.2568173007
  0
LINE
  5
4BE
100
AcDbEntity
  8
ASSI
100
AcDbLine
 62
7
  6
CONTINUOUS
 10
11.9644459423
 20
18.3657427008
 11
15.5474792555
 21
15.8321555478
  0
LINE
  5
4BF
100
AcDbEntity
  8
ASSI
100
AcDbLine
 62
250
  6
CONTINUOUS
 10
2.9375985193
 20
25.2571474382
 11
11.2508469908
 21
19.3787930703
  0
LINE
  5
4C0
100
AcDbEntity
  8
ASSI
100
AcDbLine
 62
250
  6
CONTINUOUS
 10
15.9094274051
 20
16.0846792686
 11
17.1516080647
 21
15.2063249008
  0
LINE
  5
4C1
100
AcDbEntity
  8
ASSI
100
AcDbLine
 62
7
  6
CONTINUOUS
 10
3.2201032965
 20
25.3075330843
 11
11.6183618474
 21
19.3690675128
  0
LINE
  5
4C2
100
AcDbEntity
  8
ASSI
100
AcDbLine
 62
7
  6
CONTINUOUS
 10
16.1069221028
 20
16.1951761185
 11
17.4341128419
 21
15.2567105469
  0
LINE
  5
4C3
100
AcDbEntity
  8
ASSI
100
AcDbLine
 62
250
  6
CONTINUOUS
 10
14.1799438905
 20
17.5745512604
 11
19.3041645119
 21
13.9511801107
  0
LINE
  5
4C4
100
AcDbEntity
  8
ASSI
100
AcDbLine
 62
7
  6
CONTINUOUS
 10
14.4059477122
 20
17.6148597774
 11
19.5301682702
 21
13.9914886725
  0
LWPOLYLINE
  5
4C5
100
AcDbEntity
  8
ASSI
100
AcDbPolyline
 62
250
  6
CONTINUOUS
 90
16
 70
0
 10
19.3041645119
 20
13.9511801107
 10
19.3416102244
 20
13.9234449834
 10
19.3785859013
 20
13.8921093295
 10
19.4146857279
 20
13.8575176696
 10
19.4495082217
 20
13.8200555392
 10
19.4826786456
 20
13.7801292399
 10
19.5138503009
 20
13.7381577897
 10
19.5426880183
 20
13.6945870175
 10
19.5688642051
 20
13.6499039977
 10
19.5920819102
 20
13.6046144223
 10
19.6120857979
 20
13.5592217904
 10
19.6286610428
 20
13.5142167716
 10
19.6416267315
 20
13.4700885256
 10
19.65084163
 20
13.4273194743
 10
19.6562064648
 20
13.3863798757
 10
19.6576640546
 20
13.3477186442
  0
ARC
  5
4C6
100
AcDbEntity
  8
ASSI
100
AcDbCircle
 62
7
  6
CONTINUOUS
 10
2.9314281619
 20
24.8992847939
 40
0.5
100
AcDbArc
 50
54.7356103172
 51
123.6481403715
  0
ARC
  5
4C7
100
AcDbEntity
  8
ASSI
100
AcDbCircle
 62
7
  6
CONTINUOUS
 10
17.1454377073
 20
14.8484622564
 40
0.5
100
AcDbArc
 50
0.0
 51
54.7568208449
  0
ARC
  5
4C8
100
AcDbEntity
  8
ASSI
100
AcDbCircle
 62
7
  6
CONTINUOUS
 10
17.1454377073
 20
-0.7444055123
 40
0.5
100
AcDbArc
 50
306.8560177156
 51
0.026892473
  0
ARC
  5
4C9
100
AcDbEntity
  8
RACCORDO
100
AcDbCircle
 62
7
  6
CONTINUOUS
 10
-16.7161688424
 20
16.5740865212
 40
0.25
100
AcDbArc
 50
126.4939988708
 51
180.2262322092
  0
ARC
  5
4CA
100
AcDbEntity
  8
RACCORDO
100
AcDbCircle
 62
7
  6
CONTINUOUS
 10
-1.7442848631
 20
-25.1492847939
 40
0.25
100
AcDbArc
 50
234.7356122866
 51
304.2184813222
  0
ELLIPSE
  5
4CB
100
AcDbEntity
  8
DRAFT
100
AcDbEllipse
 62
7
  6
CONTINUOUS
 10
-8.5726319248
 20
-3.8226093035
 30
0.0
 11
-2.9324605026
 21
5.081549593
 31
0.0
 40
0.5624656838
 41
-0.0765148277
 42
-0.0116098037
  0
ELLIPSE
  5
4CC
100
AcDbEntity
  8
0
100
AcDbEllipse
 62
7
  6
CONTINUOUS
 10
9.6000267302
 20
15.2862504215
 30
0.0
 11
0.7212489168
 21
0.0
 31
0.0
 40
0.5
 41
0.9533798574
 42
1.4302721831
  0
ELLIPSE
  5
4CD
100
AcDbEntity
  8
ASSI
100
AcDbEllipse
 62
7
  6
CONTINUOUS
 10
9.6611791852
 20
15.02902005
 30
0.0
 11
3.3255813644
 21
-0.0564200919
 31
0.0
 40
0.6982762764
 41
-1.6719470218
 42
-0.7678628554
  0
ELLIPSE
  5
4CE
100
AcDbEntity
  8
ASSI
100
AcDbEllipse
 62
7
  6
CONTINUOUS
 10
10.3197363448
 20
13.7509289799
 30
0.0
 11
2.7590961428
 21
-0.0237847462
 31
0.0
 40
0.7027169147
 41
0.1897338822
 42
2.3208412685
  0
ELLIPSE
  5
4CF
100
AcDbEntity
  8
ASSI
100
AcDbEllipse
 62
7
  6
CONTINUOUS
 10
15.6991351252
 20
15.8711526199
 30
0.0
 11
0.408630467
 21
0.323228905
 31
0.0
 40
0.0865053393
 41
0.0254408047
 42
0.9633036713
  0
ELLIPSE
  5
4D0
100
AcDbEntity
  8
ASSI
100
AcDbEllipse
 62
7
  6
CONTINUOUS
 10
9.6611791852
 20
15.02902005
 30
0.0
 11
3.3255813644
 21
-0.0564200919
 31
0.0
 40
0.6982762764
 41
8.6454857863
 42
8.7479951065
  0
ELLIPSE
  5
4D1
100
AcDbEntity
  8
ASSI
100
AcDbEllipse
 62
7
  6
CONTINUOUS
 10
10.3197363448
 20
14.4580357611
 30
0.0
 11
2.7590961428
 21
-0.0237847462
 31
0.0
 40
0.7027169147
 41
6.0952183657
 42
8.588223959
  0
ELLIPSE
  5
4D2
100
AcDbEntity
  8
ASSI
100
AcDbEllipse
 62
7
  6
CONTINUOUS
 10
11.4487985558
 20
18.8765944304
 30
0.0
 11
-0.0502895931
 21
0.5564274608
 31
0.0
 40
0.7256910915
 41
5.1139829116
 42
6.6673259459
  0
ELLIPSE
  5
4D3
100
AcDbEntity
  8
RACCORDO
100
AcDbEllipse
 62
7
  6
CONTINUOUS
 10
-13.1764422758
 20
19.183451966
 30
0.0
 11
-0.1443373591
 21
0.2041695963
 31
0.0
 40
0.4999472377
 41
-0.9551084322
 42
0.0099359348
  0
ELLIPSE
  5
4D4
100
AcDbEntity
  8
RACCORDO
100
AcDbEllipse
 62
7
  6
CONTINUOUS
 10
1.8577670602
 20
-22.7086502387
 30
0.0
 11
-0.1443373591
 21
0.2041695963
 31
0.0
 40
0.4999472377
 41
-3.151516802
 42
-2.5260570581
  0
ELLIPSE
  5
4D5
100
AcDbEntity
  8
RACCORDO
100
AcDbEllipse
 62
7
  6
CONTINUOUS
 10
1.8577670602
 20
8.5526605948
 30
0.0
 11
-0.1443304455
 21
0.2041305154
 31
0.0
 40
0.5000908412
 41
-2.5259893301
 42
-0.9553453023
  0
ELLIPSE
  5
4D6
100
AcDbEntity
  8
RACCORDO
100
AcDbEllipse
 62
7
  6
CONTINUOUS
 10
4.7704941461
 20
15.4258453398
 30
0.0
 11
-0.1443447909
 21
0.2041416883
 31
0.0
 40
0.4999641024
 41
-0.9552573905
 42
0.0070273534
  0
ELLIPSE
  5
4D7
100
AcDbEntity
  8
RACCORDO
100
AcDbEllipse
 62
7
  6
CONTINUOUS
 10
-2.8702288868
 20
20.8286524095
 30
0.0
 11
-0.1443413364
 21
0.2041221469
 31
0.0
 40
0.5000358996
 41
-2.5260960242
 42
-0.9553758499
  0
ELLIPSE
  5
4D8
100
AcDbEntity
  8
RACCORDO
100
AcDbEllipse
 62
7
  6
CONTINUOUS
 10
3.2895262389
 20
16.4730477897
 30
0.0
 11
-0.1443447909
 21
0.2041416883
 31
0.0
 40
0.4999641024
 41
5.3279279166
 42
6.898648091
  0
ELLIPSE
  5
4D9
100
AcDbEntity
  8
RACCORDO
100
AcDbEllipse
 62
7
  6
CONTINUOUS
 10
-4.351196794
 20
21.8758548594
 30
0.0
 11
-0.1443413364
 21
0.2041221469
 31
0.0
 40
0.5000358996
 41
-2.5260960242
 42
-0.9553758499
  0
ELLIPSE
  5
4DA
100
AcDbEntity
  8
RACCORDO
100
AcDbEllipse
 62
7
  6
CONTINUOUS
 10
-3.708654234
 20
22.3245842159
 30
0.0
 11
0.526471031
 21
0.1324525277
 31
0.0
 40
0.3134928611
 41
-2.8789737104
 42
-1.3081773836
  0
ELLIPSE
  5
4DB
100
AcDbEntity
  8
RACCORDO
100
AcDbEllipse
 62
7
  6
CONTINUOUS
 10
5.4130232433
 20
15.8745842159
 30
0.0
 11
0.526471031
 21
0.1324525277
 31
0.0
 40
0.3134928611
 41
2.4518339331
 42
3.4042115968
  0
ELLIPSE
  5
4DC
100
AcDbEntity
  8
RACCORDO
100
AcDbEllipse
 62
7
  6
CONTINUOUS
 10
-0.5879472487
 20
10.5094625205
 30
0.0
 11
0.8499302778
 21
0.0152109563
 31
0.0
 40
0.715722522
 41
3.1287835487
 42
3.9141824386
  0
ELLIPSE
  5
4DD
100
AcDbEntity
  8
RACCORDO
100
AcDbEllipse
 62
7
  6
CONTINUOUS
 10
-0.5671280192
 20
10.4947411022
 30
0.0
 11
0.8499302778
 21
0.0152109563
 31
0.0
 40
0.715722522
 41
-2.3690028686
 42
-0.8570640478
  0
ELLIPSE
  5
4DE
100
AcDbEntity
  8
RACCORDO
100
AcDbEllipse
 62
7
  6
CONTINUOUS
 10
-10.6600172887
 20
17.6314915464
 30
0.0
 11
0.8499302778
 21
0.0152109563
 31
0.0
 40
0.715722522
 41
-2.3690028686
 42
-0.8069331881
  0
ELLIPSE
  5
4DF
100
AcDbEntity
  8
RACCORDO
100
AcDbEllipse
 62
7
  6
CONTINUOUS
 10
-10.6808365182
 20
17.6462129648
 30
0.0
 11
0.8499302778
 21
0.0152109563
 31
0.0
 40
0.715722522
 41
3.1287804714
 42
3.9141824386
  0
ELLIPSE
  5
4E0
100
AcDbEntity
  8
RACCORDO
100
AcDbEllipse
 62
7
  6
CONTINUOUS
 10
-1.565965461
 20
3.3034999957
 30
0.0
 11
-0.143061941
 21
0.2063919605
 31
0.0
 40
0.503188383
 41
-2.5136701915
 42
-0.9443892123
  0
ELLIPSE
  5
4E1
100
AcDbEntity
  8
RACCORDO
100
AcDbEllipse
 62
7
  6
CONTINUOUS
 10
-1.565965461
 20
-22.2176006742
 30
0.0
 11
-0.1431374162
 21
0.2067800447
 31
0.0
 40
0.5017408146
 41
-3.2050078143
 42
-2.5143972985
  0
ENDSEC
  0
SECTION
  2
OBJECTS
  0
DICTIONARY
  5
C
100
AcDbDictionary
280
0
281
1
  3
ACAD_GROUP
350
D
  3
ACAD_MLINESTYLE
350
17
  3
ACAD_LAYOUT
350
1A
  3
ACAD_PLOTSETTINGS
350
19
  3
ACAD_PLOTSTYLENAME
350
E
  0
DICTIONARY
  5
D
102
{ACAD_REACTORS
330
C
102
}
100
AcDbDictionary
280
0
281
1
  0
ACDBDICTIONARYWDFLT
  5
E
102
{ACAD_REACTORS
330
C
102
}
100
AcDbDictionary
281
1
  3
Normal
350
F
100
AcDbDictionaryWithDefault
340
F
  0
DICTIONARY
  5
17
102
{ACAD_REACTORS
330
C
102
}
100
AcDbDictionary
280
0
281
1
  3
Standard
350
18
  0
DICTIONARY
  5
19
102
{ACAD_REACTORS
330
C
102
}
100
AcDbDictionary
281
1
  0
DICTIONARY
  5
1A
102
{ACAD_REACTORS
330
C
102
}
100
AcDbDictionary
281
1
  3
Model
350
4E2
  3
Layout1
350
4E3
  0
ACDBPLACEHOLDER
  5
F
102
{ACAD_REACTORS
330
E
102
}
  0
MLINESTYLE
  5
18
102
{ACAD_REACTORS
330
17
102
}
100
AcDbMlineStyle
  2
STANDARD
 70
0
  3

 62
256
 51
90.0
 52
90.0
 71
2
 49
0.5
 62
256
  6
BYLAYER
 49
-0.5
 62
256
  6
BYLAYER
  0
LAYOUT
  5
4E2
102
{ACAD_REACTORS
330
1A
102
}
100
AcDbPlotSettings
  1

  2
none_device
  4
ISO_A4_(297.00_x_210.00_MM)
  6

 40
0.0
 41
0.0
 42
0.0
 43
0.0
 44
297.0
 45
210.0
 46
0.0
 47
0.0
 48
0.0
 49
0.0
140
0.0
141
0.0
142
1.0
143
1.0
 70
1024
 72
1
 73
0
 74
0
  7

 75
0
147
1.0
148
0.0
149
0.0
100
AcDbLayout
  1
Model
 70
0
 71
0
 10
0.0
 20
0.0
 11
297.0
 21
210.0
 12
0.0
 22
0.0
 32
0.0
 14
0.0
 24
0.0
 34
0.0
 15
0.0
 25
0.0
 35
0.0
146
0.0
 13
0.0
 23
0.0
 33
0.0
 16
1.0
 26
0.0
 36
0.0
 17
0.0
 27
1.0
 37
0.0
 76
0
330
221
345
0
346
0
  0
LAYOUT
  5
4E3
102
{ACAD_REACTORS
330
1A
102
}
100
AcDbPlotSettings
  1

  2
none_device
  4
ISO_A4_(297.00_x_210.00_MM)
  6

 40
0.0
 41
0.0
 42
0.0
 43
0.0
 44
297.0
 45
210.0
 46
0.0
 47
0.0
 48
0.0
 49
0.0
140
0.0
141
0.0
142
1.0
143
1.0
 70
0
 72
1
 73
0
 74
0
  7

 75
0
147
1.0
148
0.0
149
0.0
100
AcDbLayout
  1
Layout1
 70
0
 71
1
 10
0.0
 20
0.0
 11
297.0
 21
210.0
 12
0.0
 22
0.0
 32
0.0
 14
0.0
 24
0.0
 34
0.0
 15
0.0
 25
0.0
 35
0.0
146
0.0
 13
0.0
 23
0.0
 33
0.0
 16
1.0
 26
0.0
 36
0.0
 17
0.0
 27
1.0
 37
0.0
 76
0
330
222
345
0
346
0
  0
ENDSEC
  0
EOF
