  0
SECTION
  2
HEADER
  9
$ACADVER
  1
AC1024
  9
$DWGCODEPAGE
  3
ANSI_1252
  9
$EXTMAX
 10
297.0
 20
210.0
 30
0.0
  9
$EXTMIN
 10
0.0
 20
0.0
 30
0.0
  9
$LIMMIN
 10
0.0
 20
0.0
  9
$LIMMAX
 10
297.0
 20
210.0
  9
$VIEWCTR
 10
148.5
 20
105.0
  9
$VIEWSIZE
 40
210.0
  9
$CLAYER
  8
0
  9
$LTSCALE
 40
16.335
  9
$CELTYPE
  6
BYLAYER
  9
$DIMSCALE
 40
1.0
  9
$DIMASZ
 40
3.0
  9
$DIMEXO
 40
0.5
  9
$DIMDLI
 40
11.286
  9
$DIMEXE
 40
1.5
  9
$DIMCEN
 40
2.673
  9
$DIMLFAC
 40
1.0
  9
$DIMBLK
  1
_FILLED
  9
$DIMALT
 70
0
  9
$DIMALTF
 40
0.0393700787
  9
$DIMTXT
 40
3.0
  9
$DIMTOL
 70
1
  9
$DIMLIM
 70
0
  9
$DIMTFAC
 40
1.0
  9
$DIMTP
 40
0.01
  9
$DIMTM
 40
0.01
  9
$DIMGAP
 40
0.625
  9
$DIMDSEP
 70
44
  9
$AUNITS
 70
0
  9
$PDMODE
 70
3
  9
$PDSIZE
 40
3.0
  9
$HANDSEED
  5
6C9
  9
$TILEMODE
 70
1
  9
$MEASUREMENT
 70
1
  9
$INSUNITS
 70
4
  0
ENDSEC
  0
SECTION
  2
CLASSES
  0
CLASS
  1
ACDBDICTIONARYWDFLT
  2
AcDbDictionaryWithDefault
  3
AutoCAD 2000
 90
0
 91
1
280
0
281
0
  0
CLASS
  1
ACDBPLACEHOLDER
  2
AcDbPlaceHolder
  3
AutoCAD 2000
 90
0
 91
1
280
0
281
0
  0
CLASS
  1
LAYOUT
  2
AcDbLayout
  3
AutoCAD 2000
 90
0
 91
0
280
0
281
0
  0
ENDSEC
  0
SECTION
  2
TABLES
  0
TABLE
  2
VPORT
  5
8
100
AcDbSymbolTable
 70
2
  0
VPORT
  5
1F4
100
AcDbSymbolTableRecord
100
AcDbViewportTableRecord
  2
*ACTIVE
 70
0
 10
0.0
 20
0.0
 11
1.0
 21
1.0
 12
148.5
 22
105.0
 13
0.0
 23
0.0
 14
1.0
 24
1.0
 15
0.0
 25
0.0
 16
0.0
 26
0.0
 36
1.0
 17
0.0
 27
0.0
 37
0.0
 40
210.0
 41
1.4142857143
 42
50.0
 43
0.0
 44
0.0
 50
0.0
 51
0.0
 71
0
 72
100
 73
1
 74
1
 75
0
 76
0
 77
0
 78
0
  0
ENDTAB
  0
TABLE
  2
LTYPE
  5
5
100
AcDbSymbolTable
 70
6
  0
LTYPE
  5
14
100
AcDbSymbolTableRecord
100
AcDbLinetypeTableRecord
  2
BYBLOCK
 70
0
  3

 72
65
 73
0
 40
0.0
  0
LTYPE
  5
15
100
AcDbSymbolTableRecord
100
AcDbLinetypeTableRecord
  2
BYLAYER
 70
0
  3

 72
65
 73
0
 40
0.0
  0
LTYPE
  5
16
100
AcDbSymbolTableRecord
100
AcDbLinetypeTableRecord
  2
CONTINUOUS
 70
64
  3
Solid line
 72
65
 73
0
 40
0.0
  0
LTYPE
  5
1F5
100
AcDbSymbolTableRecord
100
AcDbLinetypeTableRecord
  2
CENTER
 70
64
  3
____ _ ____ _ ____ _ ____ _ ____ _ ____ _ ____
 72
65
 73
4
 40
0.6
 49
0.375
 74
0
 49
-0.075
 74
0
 49
0.075
 74
0
 49
-0.075
 74
0
  0
LTYPE
  5
1F6
100
AcDbSymbolTableRecord
100
AcDbLinetypeTableRecord
  2
HIDDEN
 70
64
  3
- - - - - - - - - - - - - - - - - - - -
 72
65
 73
2
 40
0.2
 49
0.1
 74
0
 49
-0.1
 74
0
  0
LTYPE
  5
1F7
100
AcDbSymbolTableRecord
100
AcDbLinetypeTableRecord
  2
PHANTOM
 70
64
  3
_____ _ _ _____ _ _ _____ _ _ _____
 72
65
 73
6
 40
0.8
 49
0.45
 74
0
 49
-0.05
 74
0
 49
0.1
 74
0
 49
-0.05
 74
0
 49
0.1
 74
0
 49
-0.05
 74
0
  0
LTYPE
  5
1F8
100
AcDbSymbolTableRecord
100
AcDbLinetypeTableRecord
  2
DOT
 70
64
  3
. . . . . . . . . . . . . . . . . . . .
 72
65
 73
2
 40
0.2
 49
0.1
 74
0
 49
-0.1
 74
0
  0
LTYPE
  5
1F9
100
AcDbSymbolTableRecord
100
AcDbLinetypeTableRecord
  2
DASHED
 70
64
  3
- - - - - - - - - - - - - - - - - - - -
 72
65
 73
2
 40
0.2
 49
0.1
 74
0
 49
-0.1
 74
0
  0
ENDTAB
  0
TABLE
  2
LAYER
  5
2
100
AcDbSymbolTable
 70
36
  0
LAYER
  5
10
100
AcDbSymbolTableRecord
100
AcDbLayerTableRecord
  2
0
 70
0
 62
7
  6
CONTINUOUS
370
-3
390
F
  0
LAYER
  5
1FA
100
AcDbSymbolTableRecord
100
AcDbLayerTableRecord
  2
DEFAULT_1
 70
0
 62
7
  6
CENTER
370
-3
390
F
  0
LAYER
  5
1FB
100
AcDbSymbolTableRecord
100
AcDbLayerTableRecord
  2
DEFAULT_2
 70
0
 62
7
  6
HIDDEN
370
-3
390
F
  0
LAYER
  5
1FC
100
AcDbSymbolTableRecord
100
AcDbLayerTableRecord
  2
DEFAULT_3
 70
0
 62
7
  6
PHANTOM
370
-3
390
F
  0
LAYER
  5
1FD
100
AcDbSymbolTableRecord
100
AcDbLayerTableRecord
  2
255013570
 70
0
 62
7
  6
CONTINUOUS
370
-3
390
F
  0
LAYER
  5
1FE
100
AcDbSymbolTableRecord
100
AcDbLayerTableRecord
  2
261013570
 70
0
 62
7
  6
CONTINUOUS
370
-3
390
F
  0
LAYER
  5
1FF
100
AcDbSymbolTableRecord
100
AcDbLayerTableRecord
  2
280013570
 70
0
 62
7
  6
CONTINUOUS
370
-3
390
F
  0
LAYER
  5
200
100
AcDbSymbolTableRecord
100
AcDbLayerTableRecord
  2
ASSI
 70
0
 62
7
  6
CONTINUOUS
370
-3
390
F
  0
LAYER
  5
201
100
AcDbSymbolTableRecord
100
AcDbLayerTableRecord
  2
COORDINATE
 70
0
 62
7
  6
CONTINUOUS
370
-3
390
F
  0
LAYER
  5
202
100
AcDbSymbolTableRecord
100
AcDbLayerTableRecord
  2
COORD_ORIGINE
 70
0
 62
7
  6
CONTINUOUS
370
-3
390
F
  0
LAYER
  5
203
100
AcDbSymbolTableRecord
100
AcDbLayerTableRecord
  2
COPY-PUBBLISH
 70
0
 62
7
  6
CONTINUOUS
370
-3
390
F
  0
LAYER
  5
204
100
AcDbSymbolTableRecord
100
AcDbLayerTableRecord
  2
COPY_PUBLISH
 70
0
 62
7
  6
CONTINUOUS
370
-3
390
F
  0
LAYER
  5
205
100
AcDbSymbolTableRecord
100
AcDbLayerTableRecord
  2
COSMETIC
 70
0
 62
7
  6
CONTINUOUS
370
-3
390
F
  0
LAYER
  5
206
100
AcDbSymbolTableRecord
100
AcDbLayerTableRecord
  2
COSMETICHE
 70
0
 62
7
  6
CONTINUOUS
370
-3
390
F
  0
LAYER
  5
207
100
AcDbSymbolTableRecord
100
AcDbLayerTableRecord
  2
COSMETICI
 70
0
 62
7
  6
CONTINUOUS
370
-3
390
F
  0
LAYER
  5
208
100
AcDbSymbolTableRecord
100
AcDbLayerTableRecord
  2
CURVE
 70
0
 62
7
  6
CONTINUOUS
370
-3
390
F
  0
LAYER
  5
209
100
AcDbSymbolTableRecord
100
AcDbLayerTableRecord
  2
DRAFT
 70
0
 62
7
  6
CONTINUOUS
370
-3
390
F
  0
LAYER
  5
20A
100
AcDbSymbolTableRecord
100
AcDbLayerTableRecord
  2
IGES
 70
0
 62
7
  6
CONTINUOUS
370
-3
390
F
  0
LAYER
  5
20B
100
AcDbSymbolTableRecord
100
AcDbLayerTableRecord
  2
IMPORTED
 70
0
 62
7
  6
CONTINUOUS
370
-3
390
F
  0
LAYER
  5
20C
100
AcDbSymbolTableRecord
100
AcDbLayerTableRecord
  2
IMPORT_IGES
 70
0
 62
7
  6
CONTINUOUS
370
-3
390
F
  0
LAYER
  5
20D
100
AcDbSymbolTableRecord
100
AcDbLayerTableRecord
  2
INTF_1
 70
0
 62
7
  6
CONTINUOUS
370
-3
390
F
  0
LAYER
  5
20E
100
AcDbSymbolTableRecord
100
AcDbLayerTableRecord
  2
INTF_11
 70
0
 62
7
  6
CONTINUOUS
370
-3
390
F
  0
LAYER
  5
20F
100
AcDbSymbolTableRecord
100
AcDbLayerTableRecord
  2
INTF_2
 70
0
 62
7
  6
CONTINUOUS
370
-3
390
F
  0
LAYER
  5
210
100
AcDbSymbolTableRecord
100
AcDbLayerTableRecord
  2
INTF_MAGENTA
 70
0
 62
7
  6
CONTINUOUS
370
-3
390
F
  0
LAYER
  5
211
100
AcDbSymbolTableRecord
100
AcDbLayerTableRecord
  2
NOTE
 70
0
 62
7
  6
CONTINUOUS
370
-3
390
F
  0
LAYER
  5
212
100
AcDbSymbolTableRecord
100
AcDbLayerTableRecord
  2
PIANI
 70
0
 62
7
  6
CONTINUOUS
370
-3
390
F
  0
LAYER
  5
213
100
AcDbSymbolTableRecord
100
AcDbLayerTableRecord
  2
PIANI_ORIGINE
 70
0
 62
7
  6
CONTINUOUS
370
-3
390
F
  0
LAYER
  5
214
100
AcDbSymbolTableRecord
100
AcDbLayerTableRecord
  2
PIANI_RIFERIMENTO
 70
0
 62
7
  6
CONTINUOUS
370
-3
390
F
  0
LAYER
  5
215
100
AcDbSymbolTableRecord
100
AcDbLayerTableRecord
  2
PUNTI
 70
0
 62
7
  6
CONTINUOUS
370
-3
390
F
  0
LAYER
  5
216
100
AcDbSymbolTableRecord
100
AcDbLayerTableRecord
  2
RACCORDO
 70
0
 62
7
  6
CONTINUOUS
370
-3
390
F
  0
LAYER
  5
217
100
AcDbSymbolTableRecord
100
AcDbLayerTableRecord
  2
RGB__255__255__255__
 70
0
 62
7
  6
CONTINUOUS
370
-3
390
F
  0
LAYER
  5
218
100
AcDbSymbolTableRecord
100
AcDbLayerTableRecord
  2
SIMBOLI
 70
0
 62
7
  6
CONTINUOUS
370
-3
390
F
  0
LAYER
  5
219
100
AcDbSymbolTableRecord
100
AcDbLayerTableRecord
  2
SMUSSO
 70
0
 62
7
  6
CONTINUOUS
370
-3
390
F
  0
LAYER
  5
21A
100
AcDbSymbolTableRecord
100
AcDbLayerTableRecord
  2
SNAPLINE
 70
0
 62
7
  6
CONTINUOUS
370
-3
390
F
  0
LAYER
  5
21B
100
AcDbSymbolTableRecord
100
AcDbLayerTableRecord
  2
SUP-SCAVI-INCLINATI
 70
0
 62
7
  6
CONTINUOUS
370
-3
390
F
  0
LAYER
  5
21C
100
AcDbSymbolTableRecord
100
AcDbLayerTableRecord
  2
SUP-SCAVI-INCLINATI-SUP
 70
0
 62
7
  6
CONTINUOUS
370
-3
390
F
  0
LAYER
  5
21D
100
AcDbSymbolTableRecord
100
AcDbLayerTableRecord
  2
SUPERFICI
 70
0
 62
7
  6
CONTINUOUS
370
-3
390
F
  0
LAYER
  5
21E
100
AcDbSymbolTableRecord
100
AcDbLayerTableRecord
  2
SUP_COLORE
 70
0
 62
7
  6
CONTINUOUS
370
-3
390
F
  0
LAYER
  5
21F
100
AcDbSymbolTableRecord
100
AcDbLayerTableRecord
  2
TRASH
 70
0
 62
7
  6
CONTINUOUS
370
-3
390
F
  0
LAYER
  5
220
100
AcDbSymbolTableRecord
100
AcDbLayerTableRecord
  2
XSEC_DATUMS
 70
0
 62
7
  6
CONTINUOUS
370
-3
390
F
  0
ENDTAB
  0
TABLE
  2
STYLE
  5
3
100
AcDbSymbolTable
 70
1
  0
STYLE
  5
11
100
AcDbSymbolTableRecord
100
AcDbTextStyleTableRecord
  2
STANDARD
 70
0
 40
0.0
 41
0.8
 50
0.0
 71
0
 42
0.2
  3
txt
  4

  0
STYLE
  5
221
100
AcDbSymbolTableRecord
100
AcDbTextStyleTableRecord
  2
TEXTSTYLE_1
 70
0
 40
0.0
 41
0.8
 50
0.0
 71
0
 42
0.2
  3
gdt
  4

  0
ENDTAB
  0
TABLE
  2
VIEW
  5
6
100
AcDbSymbolTable
 70
0
  0
ENDTAB
  0
TABLE
  2
UCS
  5
7
100
AcDbSymbolTable
 70
0
  0
ENDTAB
  0
TABLE
  2
APPID
  5
9
100
AcDbSymbolTable
 70
1
  0
APPID
  5
222
100
AcDbSymbolTableRecord
100
AcDbRegAppTableRecord
  2
ACAD
 70
0
  0
ENDTAB
  0
TABLE
  2
BLOCK_RECORD
  5
1
100
AcDbSymbolTable
 70
0
  0
BLOCK_RECORD
  5
223
100
AcDbSymbolTableRecord
100
AcDbBlockTableRecord
  2
*Model_Space
  0
BLOCK_RECORD
  5
224
100
AcDbSymbolTableRecord
100
AcDbBlockTableRecord
  2
*Paper_Space
  0
BLOCK_RECORD
  5
225
100
AcDbSymbolTableRecord
100
AcDbBlockTableRecord
  2
_FILLED
  0
ENDTAB
  0
TABLE
  2
DIMSTYLE
  5
A
100
AcDbSymbolTable
 70
1
100
AcDbDimStyleTable
 71
0
  0
DIMSTYLE
105
226
100
AcDbSymbolTableRecord
100
AcDbDimStyleTableRecord
  2
STANDARD
 70
0
  3

  4

 40
1.0
 41
3.0
 42
0.5
 43
0.38
 44
1.5
 45
0.0
 46
0.0
 47
0.01
 48
0.01
140
3.0
141
0.09
142
0.0
143
25.4
144
1.0
145
0.0
146
1.0
147
0.625
 71
1
 72
0
 73
0
 74
0
 75
0
 76
0
 77
1
 78
8
 79
2
170
0
171
1
172
0
173
0
174
0
175
0
176
0
177
0
178
0
270
2
179
2
271
2
272
2
273
2
274
2
275
0
280
0
281
0
282
0
283
1
284
8
285
0
286
0
287
3
288
0
340
11
278
44
341
225
342
225
343
225
344
225
  0
ENDTAB
  0
ENDSEC
  0
SECTION
  2
BLOCKS
  0
BLOCK
  5
20
100
AcDbEntity
  8
0
100
AcDbBlockBegin
  2
*Model_Space
 70
0
 10
0.0
 20
0.0
 30
0.0
  3
*Model_Space
  1

  0
ENDBLK
  5
21
100
AcDbEntity
  8
0
100
AcDbBlockEnd
  0
BLOCK
  5
1C
100
AcDbEntity
  8
0
100
AcDbBlockBegin
  2
*Paper_Space
 70
0
 10
0.0
 20
0.0
 30
0.0
  3
*Paper_Space
  1

  0
ENDBLK
  5
1D
100
AcDbEntity
  8
0
100
AcDbBlockEnd
  0
BLOCK
  5
227
100
AcDbEntity
  8
0
100
AcDbBlockBegin
  2
_FILLED
 70
64
 10
0.0
 20
0.0
  3
_FILLED
  1

  0
SOLID
  5
228
100
AcDbEntity
  8
0
  6
BYBLOCK
 62
0
100
AcDbTrace
 10
0.0
 20
0.0
 11
-1.0
 21
0.3166666667
 12
-1.0
 22
-0.3166666667
 13
-1.0
 23
-0.3166666667
  0
ENDBLK
  5
229
100
AcDbEntity
  8
0
  6
BYBLOCK
 62
0
100
AcDbBlockEnd
  0
ENDSEC
  0
SECTION
  2
ENTITIES
  0
LWPOLYLINE
  5
22A
100
AcDbEntity
  8
RACCORDO
100
AcDbPolyline
 62
250
  6
CONTINUOUS
 90
4
 70
0
 10
-25.0736040656
 20
22.8631695241
 10
-25.0983779872
 20
22.8290511146
 10
-25.1197365733
 20
22.7917524142
 10
-25.1370451599
 20
22.7523817426
  0
LINE
  5
22B
100
AcDbEntity
  8
RACCORDO
100
AcDbLine
 62
250
  6
CONTINUOUS
 10
-25.0461509582
 20
22.8930938244
 11
-25.0736040656
 21
22.8631695241
  0
LWPOLYLINE
  5
22C
100
AcDbEntity
  8
RACCORDO
100
AcDbPolyline
 62
250
  6
CONTINUOUS
 90
9
 70
0
 10
-27.6856582769
 20
16.8447739596
 10
-27.660755014
 20
16.9503618403
 10
-27.6274866888
 20
17.0563950852
 10
-27.5862501412
 20
17.1614295321
 10
-27.537641039
 20
17.2638653545
 10
-27.4823347441
 20
17.3623506702
 10
-27.4210348958
 20
17.4556804819
 10
-27.3545755057
 20
17.5425835466
 10
-27.2838483184
 20
17.6219554506
  0
LWPOLYLINE
  5
22D
100
AcDbEntity
  8
RACCORDO
100
AcDbPolyline
 62
250
  6
CONTINUOUS
 90
3
 70
0
 10
-25.1370451599
 20
22.7523817426
 10
-25.1497894275
 20
22.7121089876
 10
-25.157590684
 20
22.6721308422
  0
LWPOLYLINE
  5
22E
100
AcDbEntity
  8
RACCORDO
100
AcDbPolyline
 62
7
  6
CONTINUOUS
 90
7
 70
0
 10
-25.2150848104
 20
22.8160495324
 10
-25.2008840384
 20
22.845385901
 10
-25.1829399111
 20
22.8726886158
 10
-25.1616265767
 20
22.8973795001
 10
-25.1371711634
 20
22.9191703246
 10
-25.1100765693
 20
22.9375770319
 10
-25.1021507803
 20
22.9420414347
  0
LWPOLYLINE
  5
22F
100
AcDbEntity
  8
RACCORDO
100
AcDbPolyline
 62
250
  6
CONTINUOUS
 90
3
 70
0
 10
-19.7383766684
 20
24.1991771574
 10
-19.7058490249
 20
24.2312957809
 10
-19.6660055067
 20
24.2616736159
  0
LINE
  5
230
100
AcDbEntity
  8
RACCORDO
100
AcDbLine
 62
250
  6
CONTINUOUS
 10
-27.2838483184
 20
17.6219554506
 11
-27.2097743198
 21
17.6928547077
  0
LWPOLYLINE
  5
231
100
AcDbEntity
  8
RACCORDO
100
AcDbPolyline
 62
7
  6
CONTINUOUS
 90
8
 70
0
 10
-19.7966768364
 20
24.2405894316
 10
-19.8483580995
 20
24.1979596828
 10
-19.8922643487
 20
24.1521519467
 10
-19.9287408558
 20
24.1028694836
 10
-19.9574183249
 20
24.0502300683
 10
-19.9776772068
 20
23.9948671072
 10
-19.9890657358
 20
23.9376283835
 10
-19.9915881041
 20
23.8938870443
  0
LINE
  5
232
100
AcDbEntity
  8
RACCORDO
100
AcDbLine
 62
250
  6
CONTINUOUS
 10
-27.2097743198
 20
17.6928547077
 11
-27.1333196818
 21
17.7544229542
  0
LWPOLYLINE
  5
233
100
AcDbEntity
  8
RACCORDO
100
AcDbPolyline
 62
7
  6
CONTINUOUS
 90
11
 70
0
 10
-27.2507480021
 20
17.7578815897
 10
-27.3117674267
 20
17.7093082352
 10
-27.3919911131
 20
17.6336221913
 10
-27.4669509375
 20
17.5486954142
 10
-27.5359486582
 20
17.4555846891
 10
-27.5979584783
 20
17.3557234541
 10
-27.6523292669
 20
17.2502232614
 10
-27.6983200388
 20
17.1403987858
 10
-27.7349144954
 20
17.0282410507
 10
-27.7615923136
 20
16.9151812846
 10
-27.7778703193
 20
16.8021634362
  0
LINE
  5
234
100
AcDbEntity
  8
RACCORDO
100
AcDbLine
 62
7
  6
CONTINUOUS
 10
-27.2510157133
 20
17.7577495321
 11
-24.9346720947
 21
19.4661854612
  0
LINE
  5
235
100
AcDbEntity
  8
RACCORDO
100
AcDbLine
 62
250
  6
CONTINUOUS
 10
-27.1333196818
 20
17.7544229542
 11
-24.8102851928
 21
19.467793783
  0
LWPOLYLINE
  5
236
100
AcDbEntity
  8
RACCORDO
100
AcDbPolyline
 62
250
  6
CONTINUOUS
 90
3
 70
0
 10
-24.9865256008
 20
22.9369543792
 10
-25.016834426
 20
22.9179348237
 10
-25.0461509582
 20
22.8930938244
  0
LINE
  5
237
100
AcDbEntity
  8
RACCORDO
100
AcDbLine
 62
250
  6
CONTINUOUS
 10
-19.6660055067
 20
24.2616736159
 11
-19.6188461139
 21
24.2903106625
  0
LWPOLYLINE
  5
238
100
AcDbEntity
  8
RACCORDO
100
AcDbPolyline
 62
7
  6
CONTINUOUS
 90
3
 70
0
 10
-19.7112098499
 20
24.294411381
 10
-19.7368958067
 20
24.2799347994
 10
-19.7966768364
 20
24.2405894316
  0
LINE
  5
239
100
AcDbEntity
  8
RACCORDO
100
AcDbLine
 62
7
  6
CONTINUOUS
 10
-21.5893678902
 20
24.8372683932
 11
-25.1021463772
 21
22.9420438104
  0
LINE
  5
23A
100
AcDbEntity
  8
RACCORDO
100
AcDbLine
 62
250
  6
CONTINUOUS
 10
-21.4749351327
 20
24.8315379986
 11
-24.9865256008
 21
22.9369543792
  0
LINE
  5
23B
100
AcDbEntity
  8
RACCORDO
100
AcDbLine
 62
7
  6
CONTINUOUS
 10
-19.7113427355
 20
24.2943822072
 11
-19.5784385651
 21
24.3660870561
  0
LINE
  5
23C
100
AcDbEntity
  8
RACCORDO
100
AcDbLine
 62
250
  6
CONTINUOUS
 10
-19.6188461139
 20
24.2903106625
 11
-19.4868291301
 21
24.361536854
  0
LINE
  5
23D
100
AcDbEntity
  8
0
100
AcDbLine
 62
7
  6
CONTINUOUS
 10
-17.5069086036
 20
25.7629962949
 11
-17.143340471
 21
25.9447803612
  0
LWPOLYLINE
  5
23E
100
AcDbEntity
  8
0
100
AcDbPolyline
 62
7
  6
CONTINUOUS
 90
10
 70
0
 10
-17.143340471
 20
25.9447803612
 10
-17.1260311697
 20
25.9530619774
 10
-17.1087848531
 20
25.9605781609
 10
-17.0916015213
 20
25.9673289115
 10
-17.0744604094
 20
25.9733205838
 10
-17.0573822822
 20
25.9785468232
 10
-17.0404294344
 20
25.9829885664
 10
-17.023622631
 20
25.9866394589
 10
-17.006941107
 20
25.9895058552
 10
-16.9903848624
 20
25.9915877553
  0
LWPOLYLINE
  5
23F
100
AcDbEntity
  8
RACCORDO
100
AcDbPolyline
 62
7
  6
CONTINUOUS
 90
7
 70
0
 10
-27.7403913359
 20
-12.5563745334
 10
-27.7071423682
 20
-12.6386217669
 10
-27.6646669209
 20
-12.7136223277
 10
-27.6131361386
 20
-12.7805291101
 10
-27.5531925229
 20
-12.8382055575
 10
-27.486537752
 20
-12.8851460052
 10
-27.4509266902
 20
-12.9044874004
  0
LWPOLYLINE
  5
240
100
AcDbEntity
  8
RACCORDO
100
AcDbPolyline
 62
250
  6
CONTINUOUS
 90
6
 70
0
 10
-27.782677291
 20
-12.3091223911
 10
-27.7815760367
 20
-12.3193746172
 10
-27.7737908076
 20
-12.341419308
 10
-27.7588446903
 20
-12.3622652154
 10
-27.7371818114
 20
-12.3812928989
 10
-27.7094458872
 20
-12.3979369467
  0
LINE
  5
241
100
AcDbEntity
  8
RACCORDO
100
AcDbLine
 62
250
  6
CONTINUOUS
 10
-27.7019407357
 20
-12.4911150783
 11
-27.7094459972
 21
-12.3979370071
  0
LWPOLYLINE
  5
242
100
AcDbEntity
  8
RACCORDO
100
AcDbPolyline
 62
7
  6
CONTINUOUS
 90
3
 70
0
 10
-27.7826311865
 20
-12.3089418636
 10
-27.7784045927
 20
-12.3740875463
 10
-27.7641686197
 20
-12.4679472393
  0
LWPOLYLINE
  5
243
100
AcDbEntity
  8
RACCORDO
100
AcDbPolyline
 62
250
  6
CONTINUOUS
 90
10
 70
0
 10
-27.7094459972
 20
-12.3979370071
 10
-27.8002349638
 20
-9.219662463
 10
-27.8683329035
 20
-6.0287711667
 10
-27.913734489
 20
-2.8255084906
 10
-27.9364361691
 20
0.3898792178
 10
-27.9364361691
 20
3.6171447728
 10
-27.9137344892
 20
6.8560401709
 10
-27.8683329036
 20
10.1063164522
 10
-27.8002349639
 20
13.3677237176
 10
-27.7094459972
 20
16.6400112675
  0
LWPOLYLINE
  5
244
100
AcDbEntity
  8
RACCORDO
100
AcDbPolyline
 62
7
  6
CONTINUOUS
 90
10
 70
0
 10
-27.7826855193
 20
16.7275764776
 10
-27.8710356603
 20
13.5550505292
 10
-27.9403489904
 20
10.2634765836
 10
-27.9865482523
 20
6.9832142543
 10
-28.0096278507
 20
3.7145517165
 10
-28.0095867759
 20
0.4577295399
 10
-27.9864247877
 20
-2.7870264754
 10
-27.9401423765
 20
-6.0194768943
 10
-27.87074461
 20
-9.2393395119
 10
-27.782677291
 20
-12.3091223911
  0
LINE
  5
245
100
AcDbEntity
  8
RACCORDO
100
AcDbLine
 62
7
  6
CONTINUOUS
 10
-27.7778703193
 20
16.8021634362
 11
-27.78264152
 21
16.7274822759
  0
LINE
  5
246
100
AcDbEntity
  8
RACCORDO
100
AcDbLine
 62
250
  6
CONTINUOUS
 10
-27.7094459972
 20
16.6400112675
 11
-27.7019426459
 21
16.7408878436
  0
LINE
  5
247
100
AcDbEntity
  8
RACCORDO
100
AcDbLine
 62
250
  6
CONTINUOUS
 10
-27.7019426459
 20
16.7408878436
 11
-27.6856582769
 21
16.8447739596
  0
LWPOLYLINE
  5
248
100
AcDbEntity
  8
RACCORDO
100
AcDbPolyline
 62
250
  6
CONTINUOUS
 90
3
 70
0
 10
-19.7820584656
 20
24.1287133931
 10
-19.7638755043
 20
24.1648156694
 10
-19.7383766684
 20
24.1991771574
  0
LWPOLYLINE
  5
249
100
AcDbEntity
  8
RACCORDO
100
AcDbPolyline
 62
250
  6
CONTINUOUS
 90
6
 70
0
 10
-27.2507787019
 20
17.757923567
 10
-27.2415153583
 20
17.7636421619
 10
-27.2189366369
 20
17.7710544987
 10
-27.192837367
 20
17.7719744137
 10
-27.1640075112
 20
17.7663740627
 10
-27.1333196818
 20
17.7544229542
  0
LINE
  5
24A
100
AcDbEntity
  8
RACCORDO
100
AcDbLine
 62
7
  6
CONTINUOUS
 10
-11.0302485102
 20
27.8171377981
 11
-11.0235571623
 21
27.8211895895
  0
LINE
  5
24B
100
AcDbEntity
  8
0
100
AcDbLine
 62
7
  6
CONTINUOUS
 10
-16.7290911443
 20
22.4586160044
 11
-16.329283936
 21
22.6707455549
  0
LINE
  5
24C
100
AcDbEntity
  8
RACCORDO
100
AcDbLine
 62
7
  6
CONTINUOUS
 10
-13.0759410922
 20
24.3476345431
 11
-12.3646922408
 21
24.7127347293
  0
LWPOLYLINE
  5
24D
100
AcDbEntity
  8
RACCORDO
100
AcDbPolyline
 62
7
  6
CONTINUOUS
 90
3
 70
0
 10
-11.0854990951
 20
27.7885636587
 10
-11.0613613678
 20
27.8007422454
 10
-11.0302485102
 20
27.8171377981
  0
LINE
  5
24E
100
AcDbEntity
  8
RACCORDO
100
AcDbLine
 62
250
  6
CONTINUOUS
 10
-12.6278502742
 20
26.926500906
 11
-13.8465907437
 21
26.3124316517
  0
LINE
  5
24F
100
AcDbEntity
  8
RACCORDO
100
AcDbLine
 62
250
  6
CONTINUOUS
 10
-17.5728182046
 20
24.4349509447
 11
-18.7359876834
 21
23.8488814473
  0
LINE
  5
250
100
AcDbEntity
  8
RACCORDO
100
AcDbLine
 62
250
  6
CONTINUOUS
 10
-12.4864504572
 20
26.6826222967
 11
-13.062309509
 21
26.3924724679
  0
LINE
  5
251
100
AcDbEntity
  8
RACCORDO
100
AcDbLine
 62
250
  6
CONTINUOUS
 10
-17.2589048362
 20
24.2779942605
 11
-18.5945878663
 21
23.6050028379
  0
LINE
  5
252
100
AcDbEntity
  8
RACCORDO
100
AcDbLine
 62
7
  6
CONTINUOUS
 10
-17.6384782952
 20
23.735870878
 11
-18.5945878663
 21
23.254129682
  0
LINE
  5
253
100
AcDbEntity
  8
0
100
AcDbLine
 62
7
  6
CONTINUOUS
 10
-10.9125065237
 20
25.9822264904
 11
-10.695868734
 21
26.0909397046
  0
LINE
  5
254
100
AcDbEntity
  8
0
100
AcDbLine
 62
7
  6
CONTINUOUS
 10
-12.4864504572
 20
26.7691984571
 11
-12.2691325649
 21
26.8775716201
  0
LINE
  5
255
100
AcDbEntity
  8
RACCORDO
100
AcDbLine
 62
7
  6
CONTINUOUS
 10
-17.6384782952
 20
23.735870878
 11
-16.8969627596
 21
24.0970232222
  0
LINE
  5
256
100
AcDbEntity
  8
RACCORDO
100
AcDbLine
 62
7
  6
CONTINUOUS
 10
-14.9086109065
 20
25.0654424912
 11
-14.5559028981
 21
25.2372275961
  0
LINE
  5
257
100
AcDbEntity
  8
DRAFT
100
AcDbLine
 62
7
  6
CONTINUOUS
 10
-12.4864504572
 20
26.8558009975
 11
-10.9312768045
 21
27.6090465511
  0
LINE
  5
258
100
AcDbEntity
  8
RACCORDO
100
AcDbLine
 62
7
  6
CONTINUOUS
 10
-11.1500933224
 20
27.757283756
 11
-11.0854990951
 21
27.7885636587
  0
LINE
  5
259
100
AcDbEntity
  8
RACCORDO
100
AcDbLine
 62
7
  6
CONTINUOUS
 10
-12.7632390011
 20
26.9941952695
 11
-11.1500933224
 21
27.757283756
  0
LINE
  5
25A
100
AcDbEntity
  8
DRAFT
100
AcDbLine
 62
7
  6
CONTINUOUS
 10
-12.7666708768
 20
27.0014554252
 11
-11.1191740022
 21
27.7802272034
  0
LINE
  5
25B
100
AcDbEntity
  8
RACCORDO
100
AcDbLine
 62
7
  6
CONTINUOUS
 10
-10.4477696967
 20
27.2169675285
 11
-2.360462423
 21
31.0369227139
  0
LINE
  5
25C
100
AcDbEntity
  8
RACCORDO
100
AcDbLine
 62
250
  6
CONTINUOUS
 10
-10.4477696967
 20
26.9771900144
 11
-1.9271987723
 21
31.0017927633
  0
LINE
  5
25D
100
AcDbEntity
  8
DRAFT
100
AcDbLine
 62
7
  6
CONTINUOUS
 10
-18.9337513672
 20
24.0849979726
 11
-17.8735673169
 21
24.5853255009
  0
LINE
  5
25E
100
AcDbEntity
  8
DRAFT
100
AcDbLine
 62
7
  6
CONTINUOUS
 10
-14.3112553873
 20
26.2650097121
 11
-12.7632390011
 21
26.9941952695
  0
LINE
  5
25F
100
AcDbEntity
  8
RACCORDO
100
AcDbLine
 62
7
  6
CONTINUOUS
 10
-11.0747815534
 20
27.8009263982
 11
-11.1128974899
 21
27.7831890986
  0
LWPOLYLINE
  5
260
100
AcDbEntity
  8
RACCORDO
100
AcDbPolyline
 62
250
  6
CONTINUOUS
 90
23
 70
0
 10
-18.7359876834
 20
23.8488814473
 10
-18.7919410999
 20
23.8239569131
 10
-18.8512434506
 20
23.8028244889
 10
-18.9138947354
 20
23.7854841747
 10
-18.9808031906
 20
23.7718108782
 10
-19.0510605801
 20
23.7619296916
 10
-19.1219421947
 20
23.7562158916
 10
-19.193477147
 20
23.7548309873
 10
-19.2656363244
 20
23.7576134695
 10
-19.3356076808
 20
23.7644540878
 10
-19.4032979677
 20
23.7755121793
 10
-19.4688004334
 20
23.7906284069
 10
-19.5295827767
 20
23.8092155081
 10
-19.5854650195
 20
23.8314105816
 10
-19.6366271398
 20
23.8570765287
 10
-19.6810767699
 20
23.8852147913
 10
-19.7185484236
 20
23.9159217508
 10
-19.7493075872
 20
23.9491010258
 10
-19.7721583526
 20
23.9834649141
 10
-19.7867916428
 20
24.0190572394
 10
-19.7935165349
 20
24.0558341781
 10
-19.7920643512
 20
24.0923765565
 10
-19.7820584656
 20
24.1287133931
  0
LWPOLYLINE
  5
261
100
AcDbEntity
  8
RACCORDO
100
AcDbPolyline
 62
250
  6
CONTINUOUS
 90
18
 70
0
 10
-18.5945878663
 20
23.6050028379
 10
-18.6665505751
 20
23.5729479627
 10
-18.745150223
 20
23.5452788014
 10
-18.8293445172
 20
23.5223478989
 10
-18.9180176219
 20
23.5044332609
 10
-19.0099933484
 20
23.4917714297
 10
-19.1040505817
 20
23.4845541977
 10
-19.1989456927
 20
23.4828684914
 10
-19.2934175202
 20
23.4867229889
 10
-19.3862027397
 20
23.496082454
 10
-19.4760631712
 20
23.5108149316
 10
-19.5618207697
 20
23.5307130798
 10
-19.642358631
 20
23.5555262416
 10
-19.7166161315
 20
23.5849311189
 10
-19.783600674
 20
23.6185304449
 10
-19.8424195842
 20
23.655876846
 10
-19.8922922361
 20
23.6964800053
 10
-19.9325614632
 20
23.7398021023
  0
LWPOLYLINE
  5
262
100
AcDbEntity
  8
RACCORDO
100
AcDbPolyline
 62
250
  6
CONTINUOUS
 90
8
 70
0
 10
-2.360462423
 20
31.0369227139
 10
-2.3366532952
 20
31.0471579518
 10
-2.2753244363
 20
31.0651334501
 10
-2.2102497719
 20
31.0728951561
 10
-2.1421421354
 20
31.0703580476
 10
-2.071747584
 20
31.0575499162
 10
-1.9998372255
 20
31.0346110634
 10
-1.9271987723
 20
31.0017927633
  0
LWPOLYLINE
  5
263
100
AcDbEntity
  8
RACCORDO
100
AcDbPolyline
 62
7
  6
CONTINUOUS
 90
7
 70
0
 10
-2.360462423
 20
31.0369227139
 10
-2.2713727602
 20
31.0738590267
 10
-2.1778196327
 20
31.1023762977
 10
-2.0807764585
 20
31.1217909453
 10
-1.9811204148
 20
31.1315742624
 10
-1.8802852052
 20
31.131305059
 10
-1.7800331243
 20
31.1208891113
  0
LWPOLYLINE
  5
264
100
AcDbEntity
  8
RACCORDO
100
AcDbPolyline
 62
250
  6
CONTINUOUS
 90
5
 70
0
 10
-19.7112276201
 20
24.2944441858
 10
-19.690436526
 20
24.3019838091
 10
-19.6678936569
 20
24.3036815018
 10
-19.6437861155
 20
24.2997506561
 10
-19.6188461139
 20
24.2903106625
  0
LINE
  5
265
100
AcDbEntity
  8
RACCORDO
100
AcDbLine
 62
7
  6
CONTINUOUS
 10
3.3260841666
 20
-28.1153968434
 11
5.7280605247
 21
-27.4654372404
  0
LINE
  5
266
100
AcDbEntity
  8
RACCORDO
100
AcDbLine
 62
250
  6
CONTINUOUS
 10
3.4344487945
 20
-27.9639931329
 11
5.8119276903
 21
-27.3206623881
  0
LWPOLYLINE
  5
267
100
AcDbEntity
  8
RACCORDO
100
AcDbPolyline
 62
250
  6
CONTINUOUS
 90
4
 70
0
 10
5.3897128075
 20
-31.0033418805
 10
5.3589746703
 20
-30.9980718803
 10
5.3298706385
 20
-30.9908550823
 10
5.302889453
 20
-30.9818143468
  0
LWPOLYLINE
  5
268
100
AcDbEntity
  8
RACCORDO
100
AcDbPolyline
 62
7
  6
CONTINUOUS
 90
3
 70
0
 10
-25.1609718267
 20
-15.8393827165
 10
-25.1362830186
 20
-15.8612000472
 10
-25.1089383805
 20
-15.8795820549
  0
LINE
  5
269
100
AcDbEntity
  8
RACCORDO
100
AcDbLine
 62
7
  6
CONTINUOUS
 10
-27.7641686197
 20
-12.4679472393
 11
-27.7403913359
 21
-12.5563745334
  0
LWPOLYLINE
  5
26A
100
AcDbEntity
  8
RACCORDO
100
AcDbPolyline
 62
250
  6
CONTINUOUS
 90
6
 70
0
 10
-27.78264152
 20
16.7274822759
 10
-27.7815252066
 20
16.714482491
 10
-27.7737360766
 20
16.6941562593
 10
-27.7587885697
 20
16.6745920865
 10
-27.7371267248
 20
16.6563711583
 10
-27.7093940412
 20
16.6400347566
  0
LWPOLYLINE
  5
26B
100
AcDbEntity
  8
RACCORDO
100
AcDbPolyline
 62
250
  6
CONTINUOUS
 90
7
 70
0
 10
-25.1602171174
 20
-15.751752314
 10
-25.157590684
 20
-15.7876214778
 10
-25.1497894275
 20
-15.8197983667
 10
-25.1370451599
 20
-15.8473268541
 10
-25.1197365733
 20
-15.8693889391
 10
-25.0983779872
 20
-15.8853290534
 10
-25.0952652462
 20
-15.886960048
  0
LWPOLYLINE
  5
26C
100
AcDbEntity
  8
RACCORDO
100
AcDbPolyline
 62
7
  6
CONTINUOUS
 90
7
 70
0
 10
-25.2334404221
 20
-15.6633639663
 10
-25.231398422
 20
-15.6952475713
 10
-25.2252199965
 20
-15.7269443554
 10
-25.2149110514
 20
-15.7578168529
 10
-25.2005820261
 20
-15.7872571051
 10
-25.1824825473
 20
-15.8146326894
 10
-25.1609718267
 20
-15.8393827165
  0
LINE
  5
26D
100
AcDbEntity
  8
RACCORDO
100
AcDbLine
 62
7
  6
CONTINUOUS
 10
-25.2334404221
 20
22.7220235926
 11
-25.2334404221
 21
19.8235044905
  0
LINE
  5
26E
100
AcDbEntity
  8
RACCORDO
100
AcDbLine
 62
7
  6
CONTINUOUS
 10
-25.2334404221
 20
-15.6633639663
 11
-25.2334404221
 21
-14.0132550827
  0
LINE
  5
26F
100
AcDbEntity
  8
RACCORDO
100
AcDbLine
 62
250
  6
CONTINUOUS
 10
-25.1602171174
 20
22.633635245
 11
-25.1602171174
 21
19.7373401934
  0
LINE
  5
270
100
AcDbEntity
  8
RACCORDO
100
AcDbLine
 62
250
  6
CONTINUOUS
 10
-25.1602171174
 20
-15.751752314
 11
-25.1602171174
 21
-14.0498667351
  0
LINE
  5
271
100
AcDbEntity
  8
RACCORDO
100
AcDbLine
 62
7
  6
CONTINUOUS
 10
-24.9865529988
 20
19.4279203265
 11
-24.9865529988
 21
19.6505081341
  0
LWPOLYLINE
  5
272
100
AcDbEntity
  8
RACCORDO
100
AcDbPolyline
 62
250
  6
CONTINUOUS
 90
22
 70
0
 10
-27.1399267767
 20
1.6023691704
 10
-27.1214510789
 20
2.4657404089
 10
-27.0664500792
 20
3.3071854519
 10
-26.9749544912
 20
4.1266842742
 10
-26.8465366818
 20
4.9265717833
 10
-26.6816754807
 20
5.7044785332
 10
-26.4818046283
 20
6.453307124
 10
-26.2468610218
 20
7.1721588382
 10
-25.977055075
 20
7.8618527164
 10
-25.6743016377
 20
8.5178343253
 10
-25.3386104725
 20
9.1398606099
 10
-24.9701644536
 20
9.7280759956
 10
-24.57118838
 20
10.2784841283
 10
-24.1412037349
 20
10.7911691275
 10
-23.680911785
 20
11.2659371955
 10
-23.1943546305
 20
11.6983536653
 10
-22.6810019761
 20
12.0878687005
 10
-22.1416372213
 20
12.4349116411
 10
-21.5823154605
 20
12.7364978309
 10
-21.0051503145
 20
12.9915882891
 10
-20.4082885744
 20
13.2011012267
 10
-19.7918455364
 20
13.3649836653
  0
LWPOLYLINE
  5
273
100
AcDbEntity
  8
RACCORDO
100
AcDbPolyline
 62
250
  6
CONTINUOUS
 90
6
 70
0
 10
-26.4456934491
 20
1.596158721
 10
-26.4277238022
 20
2.4343738047
 10
-26.3739819521
 20
3.2551044145
 10
-26.284488648
 20
4.0562818039
 10
-26.1592052125
 20
4.8362949218
 10
-25.9984328909
 20
5.5927159311
  0
LWPOLYLINE
  5
274
100
AcDbEntity
  8
RACCORDO
100
AcDbPolyline
 62
7
  6
CONTINUOUS
 90
4
 70
0
 10
-25.2334404221
 20
22.7220235926
 10
-25.2314167894
 20
22.753764121
 10
-25.2252959718
 20
22.7853143952
 10
-25.2150848104
 20
22.8160495324
  0
LINE
  5
275
100
AcDbEntity
  8
RACCORDO
100
AcDbLine
 62
250
  6
CONTINUOUS
 10
-25.157590684
 20
22.6721308422
 11
-25.1602171174
 21
22.633635245
  0
LWPOLYLINE
  5
276
100
AcDbEntity
  8
RACCORDO
100
AcDbPolyline
 62
7
  6
CONTINUOUS
 90
10
 70
0
 10
-23.8200539588
 20
6.8273733146
 10
-23.70559591
 20
7.2567847931
 10
-23.5797893158
 20
7.6750790489
 10
-23.4426341761
 20
8.0822560818
 10
-23.2940433942
 20
8.4785197276
 10
-23.1341040668
 20
8.8636661506
 10
-22.963077485
 20
9.2370838438
 10
-22.7810507455
 20
9.5985689718
 10
-22.5879367515
 20
9.9483253701
 10
-22.3837355031
 20
10.2863530386
  0
LINE
  5
277
100
AcDbEntity
  8
RACCORDO
100
AcDbLine
 62
250
  6
CONTINUOUS
 10
-25.9984328909
 20
5.5927159311
 11
-25.8029804715
 21
6.3224373558
  0
LWPOLYLINE
  5
278
100
AcDbEntity
  8
RACCORDO
100
AcDbPolyline
 62
250
  6
CONTINUOUS
 90
14
 70
0
 10
-25.8029804715
 20
6.3224373558
 10
-25.5734956832
 20
7.0232198095
 10
-25.3104750234
 20
7.6939350229
 10
-25.0146980783
 20
8.3333063084
 10
-24.6868450347
 20
8.9397040132
 10
-24.3276616948
 20
9.511690794
 10
-23.9379722705
 20
10.048216609
 10
-23.5181966929
 20
10.5482475392
 10
-23.0695581703
 20
11.0099384531
 10
-22.5942215594
 20
11.4312085633
 10
-22.0931091578
 20
11.8112076967
 10
-21.5676279571
 20
12.1488449811
 10
-21.0210701364
 20
12.4423583008
 10
-20.768192374
 20
12.5601506605
  0
LWPOLYLINE
  5
279
100
AcDbEntity
  8
RACCORDO
100
AcDbPolyline
 62
7
  6
CONTINUOUS
 90
13
 70
0
 10
-21.5850129231
 20
14.9802695749
 10
-21.6575036796
 20
14.912675136
 10
-21.7241034206
 20
14.8343422174
 10
-21.7838359817
 20
14.7464430811
 10
-21.8355342632
 20
14.6501203085
 10
-21.8786956663
 20
14.5467831204
 10
-21.9134715928
 20
14.4380701919
 10
-21.9392287512
 20
14.3253150644
 10
-21.9555319406
 20
14.2098633719
 10
-21.9629485252
 20
14.0933531985
 10
-21.9614988541
 20
13.9771827316
 10
-21.9506888686
 20
13.862501955
 10
-21.9304480837
 20
13.7505123107
  0
LWPOLYLINE
  5
27A
100
AcDbEntity
  8
RACCORDO
100
AcDbPolyline
 62
7
  6
CONTINUOUS
 90
10
 70
0
 10
-21.5850129231
 20
14.9802695749
 10
-21.5731480679
 20
14.9896655108
 10
-21.5608026283
 20
14.998928482
 10
-21.5479766042
 20
15.0080584884
 10
-21.5346760516
 20
15.0170578261
 10
-21.5208949146
 20
15.025924199
 10
-21.5066150249
 20
15.0346507191
 10
-21.4918303264
 20
15.0432350904
 10
-21.4765468752
 20
15.0516796088
 10
-21.4607646713
 20
15.0599842744
  0
LWPOLYLINE
  5
27B
100
AcDbEntity
  8
0
100
AcDbPolyline
 62
7
  6
CONTINUOUS
 90
5
 70
0
 10
-9.3304658641
 20
26.2710687173
 10
-9.3135888379
 20
26.2829505889
 10
-9.3007586287
 20
26.2916719663
 10
-9.2922270058
 20
26.2972227086
 10
-9.2883660566
 20
26.2996830115
  0
LWPOLYLINE
  5
27C
100
AcDbEntity
  8
RACCORDO
100
AcDbPolyline
 62
250
  6
CONTINUOUS
 90
19
 70
0
 10
-4.447313284
 20
26.7232029125
 10
-4.5657407697
 20
26.6582753078
 10
-4.67075085
 20
26.5898436742
 10
-4.7623435249
 20
26.5179080114
 10
-4.8408655218
 20
26.4418872244
 10
-4.9059701134
 20
26.3623624083
 10
-4.9566171173
 20
26.2810768488
 10
-4.9925628728
 20
26.1980394949
 10
-5.0140510406
 20
26.1132413975
 10
-5.0207724214
 20
26.0283989949
 10
-5.0125050963
 20
25.9435086925
 10
-4.9894709842
 20
25.858574085
 10
-4.9520266421
 20
25.7753223949
 10
-4.8999365863
 20
25.693752979
 10
-4.8334363004
 20
25.6138664805
 10
-4.7535887928
 20
25.5373920522
 10
-4.6607483996
 20
25.4649060781
 10
-4.5545607847
 20
25.3958321743
 10
-4.435025948
 20
25.3301703405
  0
LINE
  5
27D
100
AcDbEntity
  8
RACCORDO
100
AcDbLine
 62
250
  6
CONTINUOUS
 10
-4.447313284
 20
26.7232029125
 11
1.102314236
 21
29.4870362591
  0
LWPOLYLINE
  5
27E
100
AcDbEntity
  8
RACCORDO
100
AcDbPolyline
 62
250
  6
CONTINUOUS
 90
8
 70
0
 10
-4.4350259524
 20
25.3301703427
 10
-4.3615554509
 20
25.3614280957
 10
-4.288948091
 20
25.3829299254
 10
-4.2179906216
 20
25.3944429103
 10
-4.1494517553
 20
25.3958423591
 10
-4.0840743024
 20
25.3871131403
 10
-4.0225670466
 20
25.3683500689
 10
-3.9944091379
 20
25.3557325653
  0
LWPOLYLINE
  5
27F
100
AcDbEntity
  8
RACCORDO
100
AcDbPolyline
 62
250
  6
CONTINUOUS
 90
7
 70
0
 10
1.102314236
 20
29.4870362591
 10
1.1940446428
 20
29.5245937617
 10
1.2841184709
 20
29.5468101268
 10
1.3710115846
 20
29.5533094323
 10
1.4532536692
 20
29.5439817036
 10
1.5294531097
 20
29.518984775
 10
1.5432313096
 20
29.5124486609
  0
LINE
  5
280
100
AcDbEntity
  8
RACCORDO
100
AcDbLine
 62
250
  6
CONTINUOUS
 10
-3.8897085982
 20
-24.9762992837
 11
-3.8377377977
 21
-24.9739153818
  0
LWPOLYLINE
  5
281
100
AcDbEntity
  8
RACCORDO
100
AcDbPolyline
 62
250
  6
CONTINUOUS
 90
3
 70
0
 10
-3.0777022891
 20
-25.5693920508
 10
-2.9947828352
 20
-25.5692170497
 10
-2.9136192952
 20
-25.5590035321
  0
LINE
  5
282
100
AcDbEntity
  8
RACCORDO
100
AcDbLine
 62
250
  6
CONTINUOUS
 10
-10.3457621479
 20
-23.2068971505
 11
-11.0588445064
 21
-22.9424893475
  0
LWPOLYLINE
  5
283
100
AcDbEntity
  8
RACCORDO
100
AcDbPolyline
 62
250
  6
CONTINUOUS
 90
13
 70
0
 10
-11.0588445064
 20
-22.9424893475
 10
-11.776323432
 20
-22.6311242266
 10
-12.4967067971
 20
-22.2731336775
 10
-13.2142264796
 20
-21.871397677
 10
-13.9266891562
 20
-21.427553385
 10
-14.6325877858
 20
-20.9429491617
 10
-15.3273064215
 20
-20.4214080487
 10
-16.0092218834
 20
-19.8650796324
 10
-16.6767874708
 20
-19.2761611152
 10
-17.3258367442
 20
-18.6595502795
 10
-17.9542992775
 20
-18.0188209
 10
-18.5620531995
 20
-17.3557162872
 10
-19.1481797932
 20
-16.6727782583
  0
LINE
  5
284
100
AcDbEntity
  8
RACCORDO
100
AcDbLine
 62
250
  6
CONTINUOUS
 10
5.302889453
 20
-30.9818143468
 11
5.2784850276
 21
-30.9711033865
  0
LINE
  5
285
100
AcDbEntity
  8
RACCORDO
100
AcDbLine
 62
7
  6
CONTINUOUS
 10
5.343458324
 20
-31.1063218366
 11
-4.8599563711
 21
-26.004614489
  0
LINE
  5
286
100
AcDbEntity
  8
RACCORDO
100
AcDbLine
 62
7
  6
CONTINUOUS
 10
-19.5425426517
 20
-18.6633213487
 11
-25.095243821
 21
-15.8869707641
  0
LINE
  5
287
100
AcDbEntity
  8
RACCORDO
100
AcDbLine
 62
250
  6
CONTINUOUS
 10
5.2784850276
 20
-30.9711033865
 11
-4.6995324624
 21
-25.9820946415
  0
LINE
  5
288
100
AcDbEntity
  8
RACCORDO
100
AcDbLine
 62
250
  6
CONTINUOUS
 10
-19.7060180118
 20
-18.4788518668
 11
-25.1602171174
 21
-15.751752314
  0
LWPOLYLINE
  5
289
100
AcDbEntity
  8
RACCORDO
100
AcDbPolyline
 62
250
  6
CONTINUOUS
 90
7
 70
0
 10
5.343458324
 20
-31.1063218366
 10
5.3403241579
 20
-31.1046801259
 10
5.3189655718
 20
-31.0887400116
 10
5.3016569852
 20
-31.0666779266
 10
5.2889127175
 20
-31.0391494392
 10
5.281111461
 20
-31.0069725503
 10
5.2784850276
 20
-30.9711033865
  0
LINE
  5
28A
100
AcDbEntity
  8
RACCORDO
100
AcDbLine
 62
7
  6
CONTINUOUS
 10
-25.1089383805
 20
-15.8795820549
 11
-25.0952652462
 21
-15.886960048
  0
LINE
  5
28B
100
AcDbEntity
  8
RACCORDO
100
AcDbLine
 62
250
  6
CONTINUOUS
 10
-19.7067567344
 20
-17.0862979779
 11
-19.7918454892
 21
-16.9968615629
  0
LINE
  5
28C
100
AcDbEntity
  8
RACCORDO
100
AcDbLine
 62
250
  6
CONTINUOUS
 10
-19.6650603197
 20
-17.1304903094
 11
-19.7067567344
 21
-17.0862979779
  0
LWPOLYLINE
  5
28D
100
AcDbEntity
  8
RACCORDO
100
AcDbPolyline
 62
250
  6
CONTINUOUS
 90
4
 70
0
 10
-21.1130437366
 20
-16.3769835782
 10
-21.0944926424
 20
-16.3968392352
 10
-21.0768336348
 20
-16.4155109427
 10
-21.0600555637
 20
-16.4329926874
  0
LWPOLYLINE
  5
28E
100
AcDbEntity
  8
RACCORDO
100
AcDbPolyline
 62
250
  6
CONTINUOUS
 90
3
 70
0
 10
-21.1741744142
 20
-16.3103826592
 10
-21.1528712454
 20
-16.3337476406
 10
-21.1130437366
 20
-16.3769835782
  0
LINE
  5
28F
100
AcDbEntity
  8
RACCORDO
100
AcDbLine
 62
250
  6
CONTINUOUS
 10
-19.2094719174
 20
-16.5994126701
 11
-19.2721765425
 21
-16.5251832925
  0
LINE
  5
290
100
AcDbEntity
  8
RACCORDO
100
AcDbLine
 62
250
  6
CONTINUOUS
 10
-19.1481797932
 20
-16.6727782583
 11
-19.2094719174
 21
-16.5994126701
  0
LWPOLYLINE
  5
291
100
AcDbEntity
  8
RACCORDO
100
AcDbPolyline
 62
250
  6
CONTINUOUS
 90
17
 70
0
 10
-19.2721765425
 20
-16.5251832925
 10
-19.8720007676
 20
-15.7966317925
 10
-20.4553649455
 20
-15.0406718055
 10
-21.0207262678
 20
-14.2589383574
 10
-21.5672210951
 20
-13.4524996954
 10
-22.0926630241
 20
-12.6237886819
 10
-22.5937594909
 20
-11.7767765987
 10
-23.06910761
 20
-10.9139254255
 10
-23.5177753051
 20
-10.0370390424
 10
-23.9375790561
 20
-9.1493829968
 10
-24.3272901954
 20
-8.2539727628
 10
-24.6864958075
 20
-7.3523154518
 10
-25.0143742889
 20
-6.4454656871
 10
-25.3101761904
 20
-5.5355652323
 10
-25.5732252505
 20
-4.6249649698
 10
-25.8027509227
 20
-3.7150251949
 10
-25.9982555761
 20
-2.8072826445
  0
LWPOLYLINE
  5
292
100
AcDbEntity
  8
RACCORDO
100
AcDbPolyline
 62
250
  6
CONTINUOUS
 90
22
 70
0
 10
-19.791845477
 20
-16.9968615483
 10
-20.408206419
 20
-16.2469802631
 10
-21.0049981445
 20
-15.4723417529
 10
-21.5821053731
 20
-14.6728837082
 10
-22.1413788122
 20
-13.8457070489
 10
-22.6807073929
 20
-12.9935712393
 10
-23.1940435286
 20
-12.1249080751
 10
-23.6806132508
 20
-11.2398134888
 10
-24.1409372141
 20
-10.338058826
 10
-24.5709522221
 20
-9.4276127014
 10
-24.9699495936
 20
-8.509143995
 10
-25.3384152985
 20
-7.5818707752
 10
-25.674125838
 20
-6.6516116796
 10
-25.9768967701
 20
-5.7182326807
 10
-26.2467199399
 20
-4.7817738191
 10
-26.4816863399
 20
-3.8483418595
 10
-26.6815924183
 20
-2.917161878
 10
-26.8464938386
 20
-1.9889408676
 10
-26.9749414052
 20
-1.0720457114
 10
-27.0664513988
 20
-0.1692682352
 10
-27.1214567119
 20
0.722199854
 10
-27.1399267767
 20
1.6023691704
  0
LWPOLYLINE
  5
293
100
AcDbEntity
  8
RACCORDO
100
AcDbPolyline
 62
7
  6
CONTINUOUS
 90
25
 70
0
 10
-21.1545159736
 20
-16.6773440034
 10
-20.4886609678
 20
-17.5399470959
 10
-19.8009053938
 20
-18.3717786897
 10
-19.0928625265
 20
-19.1707510901
 10
-18.3661934278
 20
-19.9348375968
 10
-17.6226042552
 20
-20.6620775064
 10
-16.8638128141
 20
-21.3506077856
 10
-16.0914270766
 20
-21.9987532386
 10
-15.3073746121
 20
-22.6046629997
 10
-14.5138517334
 20
-23.1664410158
 10
-13.7124715933
 20
-23.6827438492
 10
-12.9052784684
 20
-24.152031521
 10
-12.0950948062
 20
-24.5725291591
 10
-11.2835743567
 20
-24.9432939359
 10
-10.472754793
 20
-25.2632860521
 10
-9.6659773295
 20
-25.5312127012
 10
-8.8649838697
 20
-25.746632447
 10
-8.0716591598
 20
-25.9091546595
 10
-7.2894779507
 20
-26.0183364716
 10
-6.5206179483
 20
-26.0743380325
 10
-5.7663936457
 20
-26.0775222109
 10
-5.0289614249
 20
-26.0283389331
 10
-4.3102060705
 20
-25.9274421207
 10
-3.6117001282
 20
-25.7755998045
 10
-2.9351173491
 20
-25.573729374
  0
LWPOLYLINE
  5
294
100
AcDbEntity
  8
RACCORDO
100
AcDbPolyline
 62
250
  6
CONTINUOUS
 90
25
 70
0
 10
-21.0600555637
 20
-16.4329926874
 10
-20.4304651806
 20
-17.249831
 10
-19.7822941169
 20
-18.035828901
 10
-19.1155423725
 20
-18.7909863904
 10
-18.428056537
 20
-19.5177438737
 10
-17.7219900209
 20
-20.2136609454
 10
-17.0038030551
 20
-20.8714163896
 10
-16.2734376188
 20
-21.4903551647
 10
-15.5309517327
 20
-22.0711323123
 10
-14.7829796904
 20
-22.6083917408
 10
-14.0299024615
 20
-23.1014084753
 10
-13.2713390764
 20
-23.5509074906
 10
-12.5127809199
 20
-23.9537076203
 10
-11.7542356826
 20
-24.3095153429
 10
-10.9956956739
 20
-24.6186241798
 10
-10.2426292067
 20
-24.878733529
 10
-9.4946527618
 20
-25.0895053781
 10
-8.7521498583
 20
-25.2512777395
 10
-8.021739367
 20
-25.3627640472
 10
-7.3034718739
 20
-25.4232543564
 10
-6.5972967929
 20
-25.4334586121
 10
-5.9096812366
 20
-25.3942200828
 10
-5.2427809093
 20
-25.3058198583
 10
-4.5944401068
 20
-25.167976849
 10
-3.9646588289
 20
-24.9806910548
  0
LINE
  5
295
100
AcDbEntity
  8
RACCORDO
100
AcDbLine
 62
7
  6
CONTINUOUS
 10
-21.3846087905
 20
-16.3737166074
 11
-21.1958435575
 21
-16.6221672944
  0
LINE
  5
296
100
AcDbEntity
  8
RACCORDO
100
AcDbLine
 62
7
  6
CONTINUOUS
 10
-21.1958435575
 20
-16.6221672944
 11
-21.1545078492
 21
-16.6773452663
  0
LWPOLYLINE
  5
297
100
AcDbEntity
  8
RACCORDO
100
AcDbPolyline
 62
7
  6
CONTINUOUS
 90
5
 70
0
 10
-21.8152760695
 20
-15.7918518252
 10
-21.7085367377
 20
-15.9384536606
 10
-21.6011736516
 20
-16.0843047803
 10
-21.4931950224
 20
-16.2293955278
 10
-21.3846087905
 20
-16.3737166074
  0
LINE
  5
298
100
AcDbEntity
  8
RACCORDO
100
AcDbLine
 62
7
  6
CONTINUOUS
 10
-21.9193834945
 20
-15.6473011135
 11
-21.8152760695
 21
-15.7918518252
  0
LWPOLYLINE
  5
299
100
AcDbEntity
  8
RACCORDO
100
AcDbPolyline
 62
250
  6
CONTINUOUS
 90
10
 70
0
 10
-21.9304026343
 20
-15.2874586885
 10
-21.8487887382
 20
-15.4025078044
 10
-21.7667210459
 20
-15.5171790724
 10
-21.6841998673
 20
-15.6314726593
 10
-21.6010952346
 20
-15.7456478836
 10
-21.5175376613
 20
-15.8594457202
 10
-21.4339184742
 20
-15.9720889823
 10
-21.3503686382
 20
-16.0833188931
 10
-21.2667584252
 20
-16.193394904
 10
-21.183088406
 20
-16.3023173262
  0
LINE
  5
29A
100
AcDbEntity
  8
RACCORDO
100
AcDbLine
 62
250
  6
CONTINUOUS
 10
-21.158330032
 20
-16.671385087
 11
-21.1545159736
 21
-16.6773440034
  0
LWPOLYLINE
  5
29B
100
AcDbEntity
  8
RACCORDO
100
AcDbPolyline
 62
7
  6
CONTINUOUS
 90
3
 70
0
 10
-21.9194619181
 20
-15.6472560991
 10
-21.939191128
 20
-15.6128277346
 10
-21.9554939076
 20
-15.5619924117
  0
LINE
  5
29C
100
AcDbEntity
  8
RACCORDO
100
AcDbLine
 62
250
  6
CONTINUOUS
 10
-25.9982555761
 20
-2.8072826445
 11
-26.1590817836
 21
-1.9047144698
  0
LWPOLYLINE
  5
29D
100
AcDbEntity
  8
RACCORDO
100
AcDbPolyline
 62
250
  6
CONTINUOUS
 90
5
 70
0
 10
-26.1590817836
 20
-1.9047144698
 10
-26.2844137098
 20
-1.0108088398
 10
-26.3739458093
 20
-0.1281535768
 10
-26.4277138661
 20
0.7415330954
 10
-26.4456934491
 20
1.596158721
  0
LWPOLYLINE
  5
29E
100
AcDbEntity
  8
RACCORDO
100
AcDbPolyline
 62
250
  6
CONTINUOUS
 90
7
 70
0
 10
-25.2334404221
 20
-15.6633639663
 10
-25.2310577822
 20
-15.6805805498
 10
-25.2245413571
 20
-15.6964182366
 10
-25.213990665
 20
-15.7117028365
 10
-25.1995822473
 20
-15.7261785972
 10
-25.1815571956
 20
-15.7396033001
 10
-25.1602171174
 20
-15.751752314
  0
LINE
  5
29F
100
AcDbEntity
  8
RACCORDO
100
AcDbLine
 62
250
  6
CONTINUOUS
 10
-22.3837355031
 20
-2.8523409075
 11
-22.3837355031
 21
-7.0294798594
  0
LINE
  5
2A0
100
AcDbEntity
  8
RACCORDO
100
AcDbLine
 62
250
  6
CONTINUOUS
 10
-22.3837355031
 20
6.1092140867
 11
-22.3837355031
 21
10.2863530386
  0
LINE
  5
2A1
100
AcDbEntity
  8
RACCORDO
100
AcDbLine
 62
250
  6
CONTINUOUS
 10
-21.9617044666
 20
-2.8534457923
 11
-21.9617044666
 21
-7.4405227734
  0
LINE
  5
2A2
100
AcDbEntity
  8
RACCORDO
100
AcDbLine
 62
250
  6
CONTINUOUS
 10
-21.9617044666
 20
6.108109202
 11
-21.9617044666
 21
10.695186183
  0
LWPOLYLINE
  5
2A3
100
AcDbEntity
  8
RACCORDO
100
AcDbPolyline
 62
7
  6
CONTINUOUS
 90
12
 70
0
 10
-15.6579438379
 20
25.4693318503
 10
-15.657288672
 20
25.4714698359
 10
-15.6555321832
 20
25.4748914472
 10
-15.652944017
 20
25.4780917768
 10
-15.6495346923
 20
25.4810736234
 10
-15.6453476962
 20
25.4837989525
 10
-15.6403730669
 20
25.4862644782
 10
-15.6346207662
 20
25.4884734864
 10
-15.6281641668
 20
25.4903978005
 10
-15.621027726
 20
25.4920280281
 10
-15.6131869865
 20
25.4933735616
 10
-15.6046419482
 20
25.494434401
  0
LWPOLYLINE
  5
2A4
100
AcDbEntity
  8
RACCORDO
100
AcDbPolyline
 62
7
  6
CONTINUOUS
 90
19
 70
0
 10
-22.3837355031
 20
10.2863530386
 10
-22.3652824412
 20
10.3148949813
 10
-22.3456916719
 20
10.3429616741
 10
-22.3251372334
 20
10.3705793735
 10
-22.3038966641
 20
10.3978180911
 10
-22.2820431688
 20
10.4246269561
 10
-22.2594066176
 20
10.4508772126
 10
-22.2361543545
 20
10.4766497005
 10
-22.2124024516
 20
10.5019259075
 10
-22.1878614468
 20
10.5265105633
 10
-22.1625991343
 20
10.5506784925
 10
-22.1368781546
 20
10.5743016843
 10
-22.1107195481
 20
10.5966484627
 10
-22.0841885708
 20
10.6179028665
 10
-22.057729751
 20
10.6380378469
 10
-22.0319488703
 20
10.6559668317
 10
-22.0072180177
 20
10.671297892
 10
-21.9837091274
 20
10.6843835906
 10
-21.9617044666
 20
10.695186183
  0
LINE
  5
2A5
100
AcDbEntity
  8
RACCORDO
100
AcDbLine
 62
7
  6
CONTINUOUS
 10
-11.0235571623
 20
27.8211895895
 11
-11.0226486581
 21
27.8225922564
  0
LWPOLYLINE
  5
2A6
100
AcDbEntity
  8
RACCORDO
100
AcDbPolyline
 62
250
  6
CONTINUOUS
 90
3
 70
0
 10
-3.8697573322
 20
25.4254936655
 10
-3.8092338689
 20
25.4662954472
 10
-3.7402334272
 20
25.5036705559
  0
LINE
  5
2A7
100
AcDbEntity
  8
RACCORDO
100
AcDbLine
 62
250
  6
CONTINUOUS
 10
-8.6542154253
 20
22.7378653331
 11
-8.6749493706
 21
22.726313941
  0
LWPOLYLINE
  5
2A8
100
AcDbEntity
  8
RACCORDO
100
AcDbPolyline
 62
250
  6
CONTINUOUS
 90
19
 70
0
 10
2.1832810206
 20
25.885801782
 10
2.203036894
 20
25.8960243729
 10
2.2221787927
 20
25.9062152672
 10
2.2407612188
 20
25.9162585132
 10
2.2586736222
 20
25.9261124449
 10
2.2756403347
 20
25.9358108775
 10
2.2916297064
 20
25.9452850675
 10
2.3065942773
 20
25.9544343797
 10
2.3202308584
 20
25.9632546151
 10
2.3324793799
 20
25.9717068487
 10
2.3433004547
 20
25.9796744522
 10
2.3524283595
 20
25.9870845486
 10
2.3597571853
 20
25.9939195251
 10
2.3652993715
 20
26.0001284574
 10
2.3689827487
 20
26.0056520359
 10
2.3707452636
 20
26.010478306
 10
2.3705712533
 20
26.0146170013
 10
2.3684595811
 20
26.0180522909
 10
2.3649913098
 20
26.0204649721
  0
LINE
  5
2A9
100
AcDbEntity
  8
0
100
AcDbLine
 62
7
  6
CONTINUOUS
 10
-10.4011230344
 20
20.1171932476
 11
-11.213658251
 21
19.7008995577
  0
LINE
  5
2AA
100
AcDbEntity
  8
RACCORDO
100
AcDbLine
 62
7
  6
CONTINUOUS
 10
-21.0022368489
 20
15.2943685731
 11
-21.4607646713
 21
15.0599842744
  0
LINE
  5
2AB
100
AcDbEntity
  8
RACCORDO
100
AcDbLine
 62
7
  6
CONTINUOUS
 10
-20.5458299155
 20
15.5265644951
 11
-21.0022368489
 21
15.2943685731
  0
LINE
  5
2AC
100
AcDbEntity
  8
RACCORDO
100
AcDbLine
 62
7
  6
CONTINUOUS
 10
-20.0915467024
 20
15.7565691517
 11
-20.5458299155
 21
15.5265644951
  0
LINE
  5
2AD
100
AcDbEntity
  8
RACCORDO
100
AcDbLine
 62
250
  6
CONTINUOUS
 10
-9.4230705428
 20
22.3551417807
 11
-9.4486199938
 21
22.3422685457
  0
LINE
  5
2AE
100
AcDbEntity
  8
RACCORDO
100
AcDbLine
 62
7
  6
CONTINUOUS
 10
-10.9188197836
 20
20.0739144463
 11
-9.8887540541
 21
20.5929188695
  0
LINE
  5
2AF
100
AcDbEntity
  8
RACCORDO
100
AcDbLine
 62
250
  6
CONTINUOUS
 10
-9.3983891129
 20
22.3674824956
 11
-9.4105575014
 21
22.3613578748
  0
LINE
  5
2B0
100
AcDbEntity
  8
RACCORDO
100
AcDbLine
 62
7
  6
CONTINUOUS
 10
-19.639401827
 20
15.9843704096
 11
-20.0915467024
 21
15.7565691517
  0
LINE
  5
2B1
100
AcDbEntity
  8
RACCORDO
100
AcDbLine
 62
7
  6
CONTINUOUS
 10
-19.1893736486
 20
16.2099736698
 11
-19.639401827
 21
15.9843704096
  0
LINE
  5
2B2
100
AcDbEntity
  8
RACCORDO
100
AcDbLine
 62
250
  6
CONTINUOUS
 10
-11.1188866417
 20
21.0498759
 11
-10.9607773784
 21
21.1289305317
  0
LINE
  5
2B3
100
AcDbEntity
  8
0
100
AcDbLine
 62
7
  6
CONTINUOUS
 10
-9.0216272293
 20
21.5203556077
 11
-8.6580590967
 21
21.702139674
  0
LINE
  5
2B4
100
AcDbEntity
  8
0
100
AcDbLine
 62
7
  6
CONTINUOUS
 10
-9.0216272293
 20
21.1739454462
 11
-8.6580590967
 21
21.3557295125
  0
LINE
  5
2B5
100
AcDbEntity
  8
0
100
AcDbLine
 62
250
  6
CONTINUOUS
 10
-9.2337592637
 20
20.8080718079
 11
-9.5166019762
 21
20.6666504517
  0
LINE
  5
2B6
100
AcDbEntity
  8
0
100
AcDbLine
 62
7
  6
CONTINUOUS
 10
-9.2337592637
 20
20.5482641868
 11
-9.5166019762
 21
20.4068428305
  0
LINE
  5
2B7
100
AcDbEntity
  8
RACCORDO
100
AcDbLine
 62
7
  6
CONTINUOUS
 10
-18.7414572289
 20
16.4333798011
 11
-19.1893736486
 21
16.2099736698
  0
LINE
  5
2B8
100
AcDbEntity
  8
RACCORDO
100
AcDbLine
 62
250
  6
CONTINUOUS
 10
-3.7402334272
 20
25.5036705559
 11
1.8093940927
 21
28.2675039026
  0
LINE
  5
2B9
100
AcDbEntity
  8
RACCORDO
100
AcDbLine
 62
250
  6
CONTINUOUS
 10
-2.2301560999
 20
24.4736063846
 11
1.8093940927
 21
26.4853888849
  0
LINE
  5
2BA
100
AcDbEntity
  8
RACCORDO
100
AcDbLine
 62
250
  6
CONTINUOUS
 10
-1.4427615389
 20
24.0799091041
 11
2.1832810206
 21
25.885801782
  0
LINE
  5
2BB
100
AcDbEntity
  8
RACCORDO
100
AcDbLine
 62
250
  6
CONTINUOUS
 10
-9.4105575014
 20
22.3613578748
 11
-9.4230705428
 21
22.3551417807
  0
LINE
  5
2BC
100
AcDbEntity
  8
RACCORDO
100
AcDbLine
 62
250
  6
CONTINUOUS
 10
-8.6749493706
 20
22.726313941
 11
-9.3983891129
 21
22.3674824956
  0
LINE
  5
2BD
100
AcDbEntity
  8
RACCORDO
100
AcDbLine
 62
250
  6
CONTINUOUS
 10
-8.5334157248
 20
22.4825017117
 11
-8.7818399044
 21
22.3592814873
  0
LINE
  5
2BE
100
AcDbEntity
  8
RACCORDO
100
AcDbLine
 62
7
  6
CONTINUOUS
 10
-9.2116982223
 20
20.9336066473
 11
-8.5335495535
 21
21.2699733864
  0
LINE
  5
2BF
100
AcDbEntity
  8
RACCORDO
100
AcDbLine
 62
7
  6
CONTINUOUS
 10
-10.4011230344
 20
20.1171932476
 11
-9.6658215594
 21
20.4814526221
  0
LINE
  5
2C0
100
AcDbEntity
  8
RACCORDO
100
AcDbLine
 62
7
  6
CONTINUOUS
 10
-9.2337592637
 20
20.695491009
 11
-7.6705614693
 21
21.4698801135
  0
LWPOLYLINE
  5
2C1
100
AcDbEntity
  8
RACCORDO
100
AcDbPolyline
 62
250
  6
CONTINUOUS
 90
23
 70
0
 10
1.8093940927
 20
26.4853888849
 10
1.8298577093
 20
26.4953678681
 10
1.850217763
 20
26.5045490727
 10
1.8703993258
 20
26.5129471144
 10
1.8903256147
 20
26.5206724491
 10
1.9099115573
 20
26.5276395006
 10
1.9290647336
 20
26.5335661254
 10
1.9477135669
 20
26.538452223
 10
1.9657445488
 20
26.5423113317
 10
1.983008114
 20
26.5448750802
 10
1.9994489354
 20
26.5460966158
 10
2.0149364451
 20
26.5460162748
 10
2.0292510891
 20
26.5444814673
 10
2.042321826
 20
26.5414145969
 10
2.0541083708
 20
26.5368554345
 10
2.064498688
 20
26.5308127862
 10
2.0734364317
 20
26.5232646814
 10
2.0809301607
 20
26.5141792706
 10
2.0869750283
 20
26.5035470862
 10
2.0915269434
 20
26.4913659719
 10
2.0945503839
 20
26.4775824339
 10
2.0960111766
 20
26.4621106306
 10
2.0961436069
 20
26.4555337523
  0
LINE
  5
2C2
100
AcDbEntity
  8
0
100
AcDbLine
 62
7
  6
CONTINUOUS
 10
-5.2922703039
 20
23.1721083805
 11
-5.0717291306
 21
23.278869903
  0
LWPOLYLINE
  5
2C3
100
AcDbEntity
  8
0
100
AcDbPolyline
 62
7
  6
CONTINUOUS
 90
10
 70
0
 10
-8.6580590967
 20
21.702139674
 10
-8.6407497954
 20
21.7104212903
 10
-8.6235034789
 20
21.7179374738
 10
-8.6063201471
 20
21.7246882244
 10
-8.5891790352
 20
21.7306798967
 10
-8.572100908
 20
21.7359061361
 10
-8.5551480602
 20
21.7403478793
 10
-8.5383412568
 20
21.7439987718
 10
-8.5216597328
 20
21.7468651681
 10
-8.5051034882
 20
21.7489470681
  0
LWPOLYLINE
  5
2C4
100
AcDbEntity
  8
0
100
AcDbPolyline
 62
7
  6
CONTINUOUS
 90
10
 70
0
 10
-8.6580590967
 20
21.3557295125
 10
-8.6506408248
 20
21.3592787766
 10
-8.6432495462
 20
21.3624999981
 10
-8.6358852612
 20
21.365393177
 10
-8.6285390703
 20
21.3679610365
 10
-8.621219873
 20
21.3702008534
 10
-8.6139543668
 20
21.3721044576
 10
-8.606751451
 20
21.3736691258
 10
-8.5996022265
 20
21.3748975814
 10
-8.5925066931
 20
21.3757898243
  0
LWPOLYLINE
  5
2C5
100
AcDbEntity
  8
RACCORDO
100
AcDbPolyline
 62
7
  6
CONTINUOUS
 90
12
 70
0
 10
-11.0674539284
 20
21.1432155472
 10
-11.0599488057
 20
21.1464710913
 10
-11.0526835081
 20
21.1487646482
 10
-11.0451304271
 20
21.1503475095
 10
-11.0372928149
 20
21.1512277068
 10
-11.0292599154
 20
21.1513952176
 10
-11.0210294965
 20
21.1508418959
 10
-11.0126037903
 20
21.1495758877
 10
-11.0040787372
 20
21.1476116085
 10
-10.9954863172
 20
21.1449538635
 10
-10.9867945503
 20
21.1415978476
 10
-10.9780034364
 20
21.1375435607
  0
LINE
  5
2C6
100
AcDbEntity
  8
RACCORDO
100
AcDbLine
 62
250
  6
CONTINUOUS
 10
-2.9136192952
 20
-25.5590035321
 11
-2.835000434
 21
-25.5388807845
  0
LINE
  5
2C7
100
AcDbEntity
  8
RACCORDO
100
AcDbLine
 62
250
  6
CONTINUOUS
 10
-5.0737336631
 20
-23.6244044775
 11
-5.1543400994
 21
-23.6412369709
  0
LINE
  5
2C8
100
AcDbEntity
  8
RACCORDO
100
AcDbLine
 62
250
  6
CONTINUOUS
 10
-5.1543400994
 20
-23.6412369709
 11
-5.1947221707
 21
-23.6495070695
  0
LWPOLYLINE
  5
2C9
100
AcDbEntity
  8
RACCORDO
100
AcDbPolyline
 62
250
  6
CONTINUOUS
 90
22
 70
0
 10
-5.3596540729
 20
-24.2831934328
 10
-5.9405186725
 20
-24.3837363008
 10
-6.5453665484
 20
-24.4401531451
 10
-7.1741977004
 20
-24.4524439656
 10
-7.8299597724
 20
-24.4221281113
 10
-8.5097051206
 20
-24.3476862331
 10
-9.204590814
 20
-24.2245602844
 10
-9.9150914366
 20
-24.0510192207
 10
-10.6407324043
 20
-23.8287940864
 10
-11.3712470335
 20
-23.5585199685
 10
-12.1064472037
 20
-23.2387879015
 10
-12.8465210354
 20
-22.8710068509
 10
-13.5817662061
 20
-22.4600387993
 10
-14.3116953964
 20
-22.004954081
 10
-15.0367959255
 20
-21.5066823617
 10
-15.748827429
 20
-20.9728746218
 10
-16.4474514837
 20
-20.4026953883
 10
-17.1330065128
 20
-19.7969801341
 10
-17.7982674204
 20
-19.1658862592
 10
-18.4408258415
 20
-18.5127995634
 10
-19.0630901413
 20
-17.8343342468
 10
-19.6650603197
 20
-17.1304903094
  0
LWPOLYLINE
  5
2CA
100
AcDbEntity
  8
RACCORDO
100
AcDbPolyline
 62
250
  6
CONTINUOUS
 90
9
 70
0
 10
-5.1947221707
 20
-23.6495070695
 10
-5.7608076374
 20
-23.7437305357
 10
-6.351462076
 20
-23.7995423377
 10
-6.9661294159
 20
-23.814576198
 10
-7.6057301878
 20
-23.7863811529
 10
-8.2677834562
 20
-23.7125945164
 10
-8.9461384954
 20
-23.5920934812
 10
-9.6392979866
 20
-23.4238400673
 10
-10.3457621479
 20
-23.2068971505
  0
LWPOLYLINE
  5
2CB
100
AcDbEntity
  8
RACCORDO
100
AcDbPolyline
 62
250
  6
CONTINUOUS
 90
5
 70
0
 10
-3.9646588289
 20
-24.9806910548
 10
-3.9495998743
 20
-24.9796699331
 10
-3.9320756156
 20
-24.9785907496
 10
-3.9121047753
 20
-24.9774633771
 10
-3.8897085982
 20
-24.9762992837
  0
LINE
  5
2CC
100
AcDbEntity
  8
RACCORDO
100
AcDbLine
 62
250
  6
CONTINUOUS
 10
-5.2352757505
 20
-24.2751464054
 11
-5.3596540729
 21
-24.2831934328
  0
LWPOLYLINE
  5
2CD
100
AcDbEntity
  8
DRAFT
100
AcDbPolyline
 62
7
  6
CONTINUOUS
 90
10
 70
0
 10
-10.1538679894
 20
-22.5336914315
 10
-10.4205109358
 20
-22.4253861491
 10
-10.6873003666
 20
-22.3107535769
 10
-10.9542362817
 20
-22.1897937148
 10
-11.2214163373
 20
-22.0624577347
 10
-11.4887428772
 20
-21.9287944647
 10
-11.7559229329
 20
-21.7889503892
 10
-12.0228588479
 20
-21.6429743362
 10
-12.2896482787
 20
-21.4908174777
 10
-12.5562912251
 20
-21.3324798136
  0
LWPOLYLINE
  5
2CE
100
AcDbEntity
  8
RACCORDO
100
AcDbPolyline
 62
7
  6
CONTINUOUS
 90
8
 70
0
 10
2.9003611339
 20
-28.0801345389
 10
2.9303642075
 20
-28.0941041597
 10
2.9972465393
 20
-28.1177357304
 10
3.0683173042
 20
-28.1328569733
 10
3.1426019192
 20
-28.1389102407
 10
3.2188107753
 20
-28.1355692447
 10
3.2961242457
 20
-28.1227680861
 10
3.3257848144
 20
-28.1154149107
  0
LINE
  5
2CF
100
AcDbEntity
  8
RACCORDO
100
AcDbLine
 62
7
  6
CONTINUOUS
 10
-19.791845477
 20
-16.9968615483
 11
-21.183088406
 21
-16.3023173262
  0
LINE
  5
2D0
100
AcDbEntity
  8
RACCORDO
100
AcDbLine
 62
250
  6
CONTINUOUS
 10
-3.9646588289
 20
-24.9806910548
 11
-5.3596540729
 21
-24.2831934328
  0
LINE
  5
2D1
100
AcDbEntity
  8
RACCORDO
100
AcDbLine
 62
250
  6
CONTINUOUS
 10
-19.6650603197
 20
-17.1304903094
 11
-21.0600555637
 21
-16.4329926874
  0
LINE
  5
2D2
100
AcDbEntity
  8
RACCORDO
100
AcDbLine
 62
250
  6
CONTINUOUS
 10
-3.8398514114
 20
-24.972858575
 11
-5.2352757505
 21
-24.2751464054
  0
LINE
  5
2D3
100
AcDbEntity
  8
RACCORDO
100
AcDbLine
 62
7
  6
CONTINUOUS
 10
-27.4534580116
 20
-12.9032462845
 11
-21.8935162562
 21
-15.6832171657
  0
LINE
  5
2D4
100
AcDbEntity
  8
RACCORDO
100
AcDbLine
 62
7
  6
CONTINUOUS
 10
-2.7004379954
 20
-25.2797562961
 11
2.9014990068
 21
-28.0807247971
  0
LINE
  5
2D5
100
AcDbEntity
  8
RACCORDO
100
AcDbLine
 62
250
  6
CONTINUOUS
 10
-27.7094459972
 20
-12.3979370071
 11
-21.9304026343
 21
-15.2874586885
  0
LINE
  5
2D6
100
AcDbEntity
  8
RACCORDO
100
AcDbLine
 62
250
  6
CONTINUOUS
 10
-3.1403217924
 20
-24.6824991095
 11
2.638676357
 21
-27.5719981842
  0
LINE
  5
2D7
100
AcDbEntity
  8
RACCORDO
100
AcDbLine
 62
7
  6
CONTINUOUS
 10
4.6455719535
 20
-27.7583517979
 11
5.2784850276
 21
-28.0748083349
  0
LINE
  5
2D8
100
AcDbEntity
  8
DRAFT
100
AcDbLine
 62
7
  6
CONTINUOUS
 10
5.1240011707
 20
-27.6288918791
 11
5.8119276903
 21
-27.9728551389
  0
LINE
  5
2D9
100
AcDbEntity
  8
0
100
AcDbLine
 62
250
  6
CONTINUOUS
 10
-10.709810541
 20
-19.2138888474
 11
-9.7376069738
 21
-19.699990631
  0
LWPOLYLINE
  5
2DA
100
AcDbEntity
  8
RACCORDO
100
AcDbPolyline
 62
7
  6
CONTINUOUS
 90
9
 70
0
 10
-2.6983779394
 20
-25.2807859501
 10
-2.7447340091
 20
-25.2550989775
 10
-2.8204643996
 20
-25.2016394841
 10
-2.8908923306
 20
-25.1369772359
 10
-2.9555081234
 20
-25.0619853994
 10
-3.0130816439
 20
-24.9779706094
 10
-3.063034082
 20
-24.8860518056
 10
-3.1054705503
 20
-24.7871845229
 10
-3.140320569
 20
-24.6824997212
  0
LWPOLYLINE
  5
2DB
100
AcDbEntity
  8
RACCORDO
100
AcDbPolyline
 62
250
  6
CONTINUOUS
 90
8
 70
0
 10
-27.4534580116
 20
-12.9032462845
 10
-27.4825904672
 20
-12.8869840608
 10
-27.5379183672
 20
-12.8451746823
 10
-27.5864445575
 20
-12.7926298813
 10
-27.6275731668
 20
-12.7300286685
 10
-27.6607767859
 20
-12.6582475982
 10
-27.6856599171
 20
-12.578264027
 10
-27.7019407357
 20
-12.4911150783
  0
LWPOLYLINE
  5
2DC
100
AcDbEntity
  8
RACCORDO
100
AcDbPolyline
 62
7
  6
CONTINUOUS
 90
10
 70
0
 10
-22.3837355031
 20
-7.0294798594
 10
-22.5879367515
 20
-6.4872509424
 10
-22.7810507455
 20
-5.9443805501
 10
-22.963077485
 20
-5.4008686827
 10
-23.1341040668
 20
-4.8564244076
 10
-23.2940433942
 20
-4.3113386572
 10
-23.4426341761
 20
-3.7664842295
 10
-23.5797893158
 20
-3.222152057
 10
-23.70559591
 20
-2.678051207
 10
-23.8200539588
 20
-2.1341816797
  0
LINE
  5
2DD
100
AcDbEntity
  8
RACCORDO
100
AcDbLine
 62
250
  6
CONTINUOUS
 10
-21.1654225542
 20
-16.641026295
 11
-21.158330032
 21
-16.671385087
  0
LWPOLYLINE
  5
2DE
100
AcDbEntity
  8
RACCORDO
100
AcDbPolyline
 62
7
  6
CONTINUOUS
 90
19
 70
0
 10
-23.8200539588
 20
-2.1341816797
 10
-23.8544435634
 20
-1.9207906128
 10
-23.872288064
 20
-1.7027246528
 10
-23.873576029
 20
-1.4814651699
 10
-23.8583273196
 20
-1.2576331949
 10
-23.8267236332
 20
-1.0337663199
 10
-23.77964265
 20
-0.8142993046
 10
-23.7181140997
 20
-0.6019643824
 10
-23.6430349513
 20
-0.3970371379
 10
-23.5555696938
 20
-0.2001518855
 10
-23.4567849669
 20
-0.012824821
 10
-23.3475562581
 20
0.1639871289
 10
-23.2285928686
 20
0.330436301
 10
-23.1005703664
 20
0.4856777076
 10
-22.9646723776
 20
0.6282060714
 10
-22.8222998036
 20
0.7571398319
 10
-22.6746304014
 20
0.8715934464
 10
-22.5226078383
 20
0.970676189
 10
-22.3673226116
 20
1.0536527235
  0
LWPOLYLINE
  5
2DF
100
AcDbEntity
  8
RACCORDO
100
AcDbPolyline
 62
7
  6
CONTINUOUS
 90
5
 70
0
 10
-21.9554939076
 20
-15.5619924117
 10
-21.9629101513
 20
-15.5030562828
 10
-21.9614601913
 20
-15.4368387037
 10
-21.950649991
 20
-15.3645947815
 10
-21.930409067
 20
-15.2874554722
  0
LWPOLYLINE
  5
2E0
100
AcDbEntity
  8
RACCORDO
100
AcDbPolyline
 62
250
  6
CONTINUOUS
 90
10
 70
0
 10
-20.4062392523
 20
-0.1866823319
 10
-20.4098173553
 20
-0.1401356978
 10
-20.419663538
 20
-0.0917472788
 10
-20.435478673
 20
-0.0429871267
 10
-20.4567822943
 20
0.0046634134
 10
-20.4829271941
 20
0.0497567044
 10
-20.5131190833
 20
0.0909227976
 10
-20.5464407245
 20
0.1269110548
 10
-20.581879798
 20
0.1566281422
 10
-20.6183596553
 20
0.1791712453
  0
LINE
  5
2E1
100
AcDbEntity
  8
RACCORDO
100
AcDbLine
 62
7
  6
CONTINUOUS
 10
-19.9916138573
 20
23.8949886879
 11
-19.9916138577
 21
23.5421383158
  0
LINE
  5
2E2
100
AcDbEntity
  8
RACCORDO
100
AcDbLine
 62
250
  6
CONTINUOUS
 10
-15.6046419482
 20
25.494434401
 11
-15.6213269817
 21
25.4231997007
  0
LINE
  5
2E3
100
AcDbEntity
  8
RACCORDO
100
AcDbLine
 62
250
  6
CONTINUOUS
 10
-10.7044220915
 20
21.0007528882
 11
-10.8676414762
 21
20.7647651955
  0
LINE
  5
2E4
100
AcDbEntity
  8
RACCORDO
100
AcDbLine
 62
250
  6
CONTINUOUS
 10
-3.9600760783
 20
25.3385663738
 11
-3.9211479674
 21
25.3817241274
  0
LINE
  5
2E5
100
AcDbEntity
  8
RACCORDO
100
AcDbLine
 62
250
  6
CONTINUOUS
 10
-3.9211479674
 20
25.3817241274
 11
-3.8697573322
 21
25.4254936655
  0
LWPOLYLINE
  5
2E6
100
AcDbEntity
  8
RACCORDO
100
AcDbPolyline
 62
7
  6
CONTINUOUS
 90
8
 70
0
 10
-9.6533170069
 20
19.1689095168
 10
-9.70499827
 20
19.1262797681
 10
-9.7489045192
 20
19.0804720319
 10
-9.7853810263
 20
19.0311895689
 10
-9.8140584954
 20
18.9785501536
 10
-9.8343173773
 20
18.9231871925
 10
-9.8457059063
 20
18.8659484687
 10
-9.8482282746
 20
18.8222071296
  0
LINE
  5
2E7
100
AcDbEntity
  8
RACCORDO
100
AcDbLine
 62
250
  6
CONTINUOUS
 10
-9.5226456772
 20
19.1899937011
 11
-9.4754862844
 21
19.2186307478
  0
LWPOLYLINE
  5
2E8
100
AcDbEntity
  8
RACCORDO
100
AcDbPolyline
 62
7
  6
CONTINUOUS
 90
3
 70
0
 10
-9.5678500204
 20
19.2227314662
 10
-9.5935359772
 20
19.2082548847
 10
-9.6533170069
 20
19.1689095168
  0
LINE
  5
2E9
100
AcDbEntity
  8
RACCORDO
100
AcDbLine
 62
7
  6
CONTINUOUS
 10
-9.567982906
 20
19.2227022924
 11
-3.6684737307
 21
22.4056228372
  0
LINE
  5
2EA
100
AcDbEntity
  8
RACCORDO
100
AcDbLine
 62
250
  6
CONTINUOUS
 10
-9.4754862844
 20
19.2186307478
 11
-3.5769265534
 21
22.4010390456
  0
LINE
  5
2EB
100
AcDbEntity
  8
RACCORDO
100
AcDbLine
 62
7
  6
CONTINUOUS
 10
3.6712863966
 20
25.1780047924
 11
0.0799670914
 21
23.3185447889
  0
LINE
  5
2EC
100
AcDbEntity
  8
DRAFT
100
AcDbLine
 62
7
  6
CONTINUOUS
 10
0.4829026509
 20
23.1170770091
 11
3.7014194735
 21
24.7485016451
  0
LINE
  5
2ED
100
AcDbEntity
  8
RACCORDO
100
AcDbLine
 62
250
  6
CONTINUOUS
 10
-2.4844904447
 20
21.8548209913
 11
-8.5926278539
 21
18.7772015325
  0
LINE
  5
2EE
100
AcDbEntity
  8
RACCORDO
100
AcDbLine
 62
250
  6
CONTINUOUS
 10
-0.482299494
 20
22.548512482
 11
-8.4512280369
 21
18.5333229232
  0
LINE
  5
2EF
100
AcDbEntity
  8
RACCORDO
100
AcDbLine
 62
7
  6
CONTINUOUS
 10
-2.3430906277
 20
21.260069226
 11
-8.4512280369
 21
18.1824497673
  0
LINE
  5
2F0
100
AcDbEntity
  8
RACCORDO
100
AcDbLine
 62
7
  6
CONTINUOUS
 10
2.7233686602
 20
25.595405387
 11
-0.8689084958
 21
23.7929825825
  0
LINE
  5
2F1
100
AcDbEntity
  8
DRAFT
100
AcDbLine
 62
7
  6
CONTINUOUS
 10
1.3676871997
 20
22.7582566726
 11
1.4825805224
 21
22.8152136037
  0
LINE
  5
2F2
100
AcDbEntity
  8
RACCORDO
100
AcDbLine
 62
7
  6
CONTINUOUS
 10
8.4994586219
 20
25.6009179687
 11
2.8521166285
 21
22.8859418579
  0
LINE
  5
2F3
100
AcDbEntity
  8
RACCORDO
100
AcDbLine
 62
250
  6
CONTINUOUS
 10
8.9389117033
 20
25.5687375255
 11
3.2915697108
 21
22.8537614151
  0
LINE
  5
2F4
100
AcDbEntity
  8
DRAFT
100
AcDbLine
 62
7
  6
CONTINUOUS
 10
2.4293057863
 20
22.564011734
 11
0.6643420728
 21
21.7192599481
  0
LINE
  5
2F5
100
AcDbEntity
  8
DRAFT
100
AcDbLine
 62
7
  6
CONTINUOUS
 10
-2.1449531849
 20
23.2158847413
 11
-3.7183263704
 21
22.4717389541
  0
LWPOLYLINE
  5
2F6
100
AcDbEntity
  8
RACCORDO
100
AcDbPolyline
 62
7
  6
CONTINUOUS
 90
22
 70
0
 10
2.852004327
 20
22.8858792078
 10
2.8388614508
 20
22.8796764718
 10
2.7821040566
 20
22.8551990931
 10
2.7137659842
 20
22.8297444597
 10
2.6342288207
 20
22.8044570458
 10
2.5451925239
 20
22.7806788781
 10
2.4473544683
 20
22.7592028542
 10
2.3414116983
 20
22.7407148809
 10
2.2296288203
 20
22.7260359109
 10
2.113313375
 20
22.7156064358
 10
1.9936012087
 20
22.7097173055
 10
1.8727031039
 20
22.7085984323
 10
1.7519783631
 20
22.7122944813
 10
1.6327871337
 20
22.7207194238
 10
1.5173330692
 20
22.7335826306
 10
1.40672692
 20
22.7505570579
 10
1.3022610502
 20
22.7711603547
 10
1.2061850147
 20
22.7945031532
 10
1.1191536682
 20
22.8198687034
 10
1.0418148995
 20
22.8464348287
 10
0.9758064465
 20
22.8728059042
 10
0.9166719876
 20
22.9001840707
  0
LWPOLYLINE
  5
2F7
100
AcDbEntity
  8
RACCORDO
100
AcDbPolyline
 62
250
  6
CONTINUOUS
 90
10
 70
0
 10
-21.9304428083
 20
13.750509673
 10
-21.8501572975
 20
13.7882934464
 10
-21.7692916753
 20
13.825310987
 10
-21.687846178
 20
13.8615621851
 10
-21.6058113051
 20
13.8970570454
 10
-21.5231970205
 20
13.9317853481
 10
-21.4400327767
 20
13.9657166379
 10
-21.3563285677
 20
13.9988406816
 10
-21.2720749054
 20
14.031167479
 10
-21.1872720374
 20
14.0626969158
  0
LWPOLYLINE
  5
2F8
100
AcDbEntity
  8
RACCORDO
100
AcDbPolyline
 62
250
  6
CONTINUOUS
 90
23
 70
0
 10
-8.5926278539
 20
18.7772015325
 10
-8.6485812704
 20
18.7522769984
 10
-8.7078836211
 20
18.7311445742
 10
-8.7705349059
 20
18.7138042599
 10
-8.8374433611
 20
18.7001309634
 10
-8.9077007506
 20
18.6902497768
 10
-8.9785823652
 20
18.6845359768
 10
-9.0501173175
 20
18.6831510725
 10
-9.1222764949
 20
18.6859335548
 10
-9.1922478513
 20
18.692774173
 10
-9.2599381382
 20
18.7038322646
 10
-9.325440604
 20
18.7189484922
 10
-9.3862229472
 20
18.7375355934
 10
-9.44210519
 20
18.7597306668
 10
-9.4932673103
 20
18.785396614
 10
-9.5377169405
 20
18.8135348766
 10
-9.5751885941
 20
18.8442418361
 10
-9.6059477577
 20
18.8774211111
 10
-9.6287985231
 20
18.9117849994
 10
-9.6434318134
 20
18.9473773247
 10
-9.6501567054
 20
18.9841542633
 10
-9.6487045217
 20
19.0206966418
 10
-9.6386986361
 20
19.0570334783
  0
LWPOLYLINE
  5
2F9
100
AcDbEntity
  8
RACCORDO
100
AcDbPolyline
 62
250
  6
CONTINUOUS
 90
18
 70
0
 10
-8.4512280369
 20
18.5333229232
 10
-8.5231907456
 20
18.501268048
 10
-8.6017903935
 20
18.4735988867
 10
-8.6859846877
 20
18.4506679842
 10
-8.7746577924
 20
18.4327533461
 10
-8.8666335189
 20
18.4200915149
 10
-8.9606907522
 20
18.4128742829
 10
-9.0555858632
 20
18.4111885767
 10
-9.1500576907
 20
18.4150430742
 10
-9.2428429102
 20
18.4244025393
 10
-9.3327033417
 20
18.4391350168
 10
-9.4184609402
 20
18.4590331651
 10
-9.4989988015
 20
18.4838463269
 10
-9.573256302
 20
18.5132512042
 10
-9.6402408445
 20
18.5468505302
 10
-9.6990597547
 20
18.5841969312
 10
-9.7489324066
 20
18.6248000905
 10
-9.7892016337
 20
18.6681221876
  0
LINE
  5
2FA
100
AcDbEntity
  8
RACCORDO
100
AcDbLine
 62
7
  6
CONTINUOUS
 10
-20.768192374
 20
12.5601506605
 11
-20.7553886683
 21
12.5658281013
  0
LINE
  5
2FB
100
AcDbEntity
  8
RACCORDO
100
AcDbLine
 62
7
  6
CONTINUOUS
 10
-2.3430906277
 20
21.260069226
 11
-0.2572185697
 21
22.1795405752
  0
LINE
  5
2FC
100
AcDbEntity
  8
RACCORDO
100
AcDbLine
 62
7
  6
CONTINUOUS
 10
-20.7558574052
 20
12.5656103618
 11
-20.6838724618
 21
12.5970026997
  0
LINE
  5
2FD
100
AcDbEntity
  8
RACCORDO
100
AcDbLine
 62
7
  6
CONTINUOUS
 10
-1.0969890967
 20
22.3969389335
 11
-0.7812780814
 21
22.5340471895
  0
LINE
  5
2FE
100
AcDbEntity
  8
RACCORDO
100
AcDbLine
 62
7
  6
CONTINUOUS
 10
-1.3574041727
 20
22.2852656081
 11
-1.0969890967
 21
22.3969389335
  0
LWPOLYLINE
  5
2FF
100
AcDbEntity
  8
RACCORDO
100
AcDbPolyline
 62
250
  6
CONTINUOUS
 90
8
 70
0
 10
0.4755376242
 20
22.8748885544
 10
0.5490081258
 20
22.9061463062
 10
0.6216154843
 20
22.9276481353
 10
0.6925729509
 20
22.9391611204
 10
0.7611118126
 20
22.9405605709
 10
0.8264892597
 20
22.9318313554
 10
0.8879965113
 20
22.9130682884
 10
0.9165809563
 20
22.9002378565
  0
LWPOLYLINE
  5
300
100
AcDbEntity
  8
RACCORDO
100
AcDbPolyline
 62
7
  6
CONTINUOUS
 90
7
 70
0
 10
8.4994586219
 20
25.6009179687
 10
8.588618217
 20
25.6385834674
 10
8.6823672742
 20
25.6678084341
 10
8.7797242946
 20
25.6878833861
 10
8.8798017447
 20
25.6982574836
 10
8.9811409565
 20
25.6984878179
 10
9.08194351
 20
25.6884664779
  0
LINE
  5
301
100
AcDbEntity
  8
RACCORDO
100
AcDbLine
 62
7
  6
CONTINUOUS
 10
-1.5476282844
 20
22.2047305878
 11
-1.3574041727
 21
22.2852656081
  0
LINE
  5
302
100
AcDbEntity
  8
RACCORDO
100
AcDbLine
 62
7
  6
CONTINUOUS
 10
-1.708428711
 20
22.1375279134
 11
-1.5476282844
 21
22.2047305878
  0
LINE
  5
303
100
AcDbEntity
  8
RACCORDO
100
AcDbLine
 62
7
  6
CONTINUOUS
 10
-1.8263700671
 20
22.0888842357
 11
-1.708428711
 21
22.1375279134
  0
LINE
  5
304
100
AcDbEntity
  8
RACCORDO
100
AcDbLine
 62
7
  6
CONTINUOUS
 10
-1.9286084289
 20
22.0472778064
 11
-1.8263700671
 21
22.0888842357
  0
LINE
  5
305
100
AcDbEntity
  8
RACCORDO
100
AcDbLine
 62
7
  6
CONTINUOUS
 10
-2.0033504306
 20
22.0172716841
 11
-1.9286084289
 21
22.0472778064
  0
LINE
  5
306
100
AcDbEntity
  8
RACCORDO
100
AcDbLine
 62
7
  6
CONTINUOUS
 10
-2.0697504445
 20
21.9909745774
 11
-2.0033504306
 21
22.0172716841
  0
LWPOLYLINE
  5
307
100
AcDbEntity
  8
RACCORDO
100
AcDbPolyline
 62
7
  6
CONTINUOUS
 90
4
 70
0
 10
-20.6838724618
 20
12.5970026997
 10
-20.2156873907
 20
12.7802505114
 10
-19.734147128
 20
12.9331686761
 10
-19.3285630401
 20
13.0359942323
  0
LINE
  5
308
100
AcDbEntity
  8
RACCORDO
100
AcDbLine
 62
7
  6
CONTINUOUS
 10
-2.1287469243
 20
21.9679606118
 11
-2.0697504445
 21
21.9909745774
  0
LINE
  5
309
100
AcDbEntity
  8
RACCORDO
100
AcDbLine
 62
7
  6
CONTINUOUS
 10
-2.1711950591
 20
21.9516517966
 11
-2.1287469243
 21
21.9679606118
  0
LINE
  5
30A
100
AcDbEntity
  8
RACCORDO
100
AcDbLine
 62
7
  6
CONTINUOUS
 10
-2.2098366784
 20
21.9370272627
 11
-2.1711950591
 21
21.9516517966
  0
LINE
  5
30B
100
AcDbEntity
  8
RACCORDO
100
AcDbLine
 62
7
  6
CONTINUOUS
 10
-2.2365371778
 20
21.9270684342
 11
-2.2098366784
 21
21.9370272627
  0
LWPOLYLINE
  5
30C
100
AcDbEntity
  8
RACCORDO
100
AcDbPolyline
 62
250
  6
CONTINUOUS
 90
7
 70
0
 10
-20.8714151354
 20
15.2960984693
 10
-20.9727428639
 20
15.2588919415
 10
-21.0728270613
 20
15.2207916061
 10
-21.1716726143
 20
15.1818225511
 10
-21.2692845875
 20
15.1420096939
 10
-21.3656682178
 20
15.1013777785
 10
-21.4608289095
 20
15.0599513727
  0
LINE
  5
30D
100
AcDbEntity
  8
RACCORDO
100
AcDbLine
 62
7
  6
CONTINUOUS
 10
-2.2614249445
 20
21.9179126918
 11
-2.2365371778
 21
21.9270684342
  0
LWPOLYLINE
  5
30E
100
AcDbEntity
  8
RACCORDO
100
AcDbPolyline
 62
250
  6
CONTINUOUS
 90
5
 70
0
 10
-9.5678677906
 20
19.2227642711
 10
-9.5470766965
 20
19.2303038944
 10
-9.5245338274
 20
19.2320015871
 10
-9.500426286
 20
19.2280707413
 10
-9.4754862844
 20
19.2186307478
  0
LINE
  5
30F
100
AcDbEntity
  8
DRAFT
100
AcDbLine
 62
7
  6
CONTINUOUS
 10
-18.6842154111
 20
16.4541222528
 11
-18.7414572289
 21
16.4333798011
  0
LINE
  5
310
100
AcDbEntity
  8
RACCORDO
100
AcDbLine
 62
7
  6
CONTINUOUS
 10
-2.2846348003
 20
21.909502822
 11
-2.2614249445
 21
21.9179126918
  0
LWPOLYLINE
  5
311
100
AcDbEntity
  8
RACCORDO
100
AcDbPolyline
 62
7
  6
CONTINUOUS
 90
5
 70
0
 10
-0.7812780814
 20
22.5340471895
 10
-0.7453303235
 20
22.5469444825
 10
-0.7093251954
 20
22.5567029588
 10
-0.6733967949
 20
22.5633496374
 10
-0.6370346496
 20
22.5667192902
  0
LINE
  5
312
100
AcDbEntity
  8
DRAFT
100
AcDbLine
 62
7
  6
CONTINUOUS
 10
-18.6312865914
 20
16.4728749304
 11
-18.6842154111
 21
16.4541222528
  0
LINE
  5
313
100
AcDbEntity
  8
RACCORDO
100
AcDbLine
 62
7
  6
CONTINUOUS
 10
-2.3062981397
 20
21.9017845714
 11
-2.2846348003
 21
21.909502822
  0
LINE
  5
314
100
AcDbEntity
  8
RACCORDO
100
AcDbLine
 62
250
  6
CONTINUOUS
 10
-20.8212120941
 20
15.3137791947
 11
-20.8714151354
 21
15.2960984693
  0
LINE
  5
315
100
AcDbEntity
  8
RACCORDO
100
AcDbLine
 62
7
  6
CONTINUOUS
 10
-2.3265285776
 20
21.8947119349
 11
-2.3062981397
 21
21.9017845714
  0
LINE
  5
316
100
AcDbEntity
  8
RACCORDO
100
AcDbLine
 62
250
  6
CONTINUOUS
 10
-20.7653770975
 20
15.3330678529
 11
-20.8212120941
 21
15.3137791947
  0
LINE
  5
317
100
AcDbEntity
  8
RACCORDO
100
AcDbLine
 62
7
  6
CONTINUOUS
 10
-2.3392735114
 20
21.8903343969
 11
-2.3265285776
 21
21.8947119349
  0
LINE
  5
318
100
AcDbEntity
  8
RACCORDO
100
AcDbLine
 62
7
  6
CONTINUOUS
 10
-2.3514538084
 20
21.8862160476
 11
-2.3392735114
 21
21.8903343969
  0
LINE
  5
319
100
AcDbEntity
  8
RACCORDO
100
AcDbLine
 62
7
  6
CONTINUOUS
 10
-2.3631020151
 20
21.8823450215
 11
-2.3514538084
 21
21.8862160476
  0
LINE
  5
31A
100
AcDbEntity
  8
RACCORDO
100
AcDbLine
 62
7
  6
CONTINUOUS
 10
-2.3742484541
 20
21.8787114929
 11
-2.3631020151
 21
21.8823450215
  0
LINE
  5
31B
100
AcDbEntity
  8
RACCORDO
100
AcDbLine
 62
7
  6
CONTINUOUS
 10
-2.3849130562
 20
21.8753094293
 11
-2.3742484541
 21
21.8787114929
  0
LINE
  5
31C
100
AcDbEntity
  8
RACCORDO
100
AcDbLine
 62
7
  6
CONTINUOUS
 10
-2.3951251044
 20
21.8721304052
 11
-2.3849130562
 21
21.8753094293
  0
LWPOLYLINE
  5
31D
100
AcDbEntity
  8
RACCORDO
100
AcDbPolyline
 62
250
  6
CONTINUOUS
 90
4
 70
0
 10
2.8731405922
 20
22.7001659397
 10
3.0195557874
 20
22.7446903425
 10
3.1590321602
 20
22.7958888343
 10
3.2915697108
 20
22.8537614151
  0
LWPOLYLINE
  5
31E
100
AcDbEntity
  8
0
100
AcDbPolyline
 62
250
  6
CONTINUOUS
 90
10
 70
0
 10
-9.4214462784
 20
-18.7576750217
 10
-9.4492239463
 20
-18.7515610824
 10
-9.4767579895
 20
-18.7448441423
 10
-9.503866563
 20
-18.7375685376
 10
-9.5303706231
 20
-18.7297822615
 10
-9.5560951354
 20
-18.7215367411
 10
-9.5808702287
 20
-18.7128864915
 10
-9.604532284
 20
-18.7038886338
 10
-9.6269250172
 20
-18.6946025272
 10
-9.6479005355
 20
-18.6850894648
  0
LWPOLYLINE
  5
31F
100
AcDbEntity
  8
RACCORDO
100
AcDbPolyline
 62
7
  6
CONTINUOUS
 90
9
 70
0
 10
9.8248019774
 20
-26.8481981621
 10
9.8371821401
 20
-26.8536991006
 10
9.8492913767
 20
-26.8578163237
 10
9.861129687
 20
-26.8605498316
 10
9.8727813015
 20
-26.8618993712
 10
9.8841619898
 20
-26.8618651955
 10
9.8950190608
 20
-26.8604480634
 10
9.9052682842
 20
-26.8576482277
 10
9.9149907462
 20
-26.8534670548
  0
LINE
  5
320
100
AcDbEntity
  8
RACCORDO
100
AcDbLine
 62
7
  6
CONTINUOUS
 10
9.7954724237
 20
-26.8335333853
 11
9.8248019774
 21
-26.8481981621
  0
LINE
  5
321
100
AcDbEntity
  8
0
100
AcDbLine
 62
7
  6
CONTINUOUS
 10
-10.5405780377
 20
-19.1319634504
 11
-10.6024593721
 21
-19.0417662517
  0
LWPOLYLINE
  5
322
100
AcDbEntity
  8
RACCORDO
100
AcDbPolyline
 62
250
  6
CONTINUOUS
 90
10
 70
0
 10
-18.5945878663
 20
23.6050028379
 10
-18.5971342427
 20
23.6359557872
 10
-18.6038239334
 20
23.6681527672
 10
-18.614453325
 20
23.7006155761
 10
-18.6286992538
 20
23.7323582708
 10
-18.6461286126
 20
23.7624165605
 10
-18.6662113593
 20
23.7898772078
 10
-18.6883370831
 20
23.8139065146
 10
-18.7118337315
 20
23.8337754833
 10
-18.7359876834
 20
23.8488814473
  0
LINE
  5
323
100
AcDbEntity
  8
RACCORDO
100
AcDbLine
 62
250
  6
CONTINUOUS
 10
-18.5945878663
 20
23.6050028379
 11
-18.5945878663
 21
23.254129682
  0
LINE
  5
324
100
AcDbEntity
  8
0
100
AcDbLine
 62
7
  6
CONTINUOUS
 10
-18.0018833504
 20
24.6494835177
 11
-18.0018833504
 21
24.9092911388
  0
LWPOLYLINE
  5
325
100
AcDbEntity
  8
0
100
AcDbPolyline
 62
7
  6
CONTINUOUS
 90
19
 70
0
 10
-18.0018833504
 20
24.9092911388
 10
-17.9998816576
 20
24.9637802793
 10
-17.9942597057
 20
25.0188914911
 10
-17.9850174949
 20
25.0746247742
 10
-17.9720302172
 20
25.1314115638
 10
-17.9554226806
 20
25.1888204247
 10
-17.9355693086
 20
25.245557051
 10
-17.9123963683
 20
25.3016061723
 10
-17.8859775927
 20
25.3569830591
 10
-17.8569086036
 20
25.4104392172
 10
-17.8251291984
 20
25.4619310152
 10
-17.7906995797
 20
25.5115020845
 10
-17.754395977
 20
25.5580348255
 10
-17.7161758207
 20
25.6014602192
 10
-17.6760816806
 20
25.6418472846
 10
-17.6350174949
 20
25.6782854792
 10
-17.5932845766
 20
25.7104712886
 10
-17.5505816128
 20
25.7387082272
 10
-17.5069086036
 20
25.7629962949
  0
LINE
  5
326
100
AcDbEntity
  8
RACCORDO
100
AcDbLine
 62
250
  6
CONTINUOUS
 10
-13.6543962635
 20
25.6934691981
 11
-13.7417994684
 21
25.3203119542
  0
LINE
  5
327
100
AcDbEntity
  8
RACCORDO
100
AcDbLine
 62
250
  6
CONTINUOUS
 10
-13.3784752049
 20
25.6364850577
 11
-13.4658784098
 21
25.2633278138
  0
LINE
  5
328
100
AcDbEntity
  8
RACCORDO
100
AcDbLine
 62
250
  6
CONTINUOUS
 10
-11.3278655395
 20
24.611180225
 11
-11.348296799
 21
24.5239514729
  0
LINE
  5
329
100
AcDbEntity
  8
RACCORDO
100
AcDbLine
 62
250
  6
CONTINUOUS
 10
-11.5741332955
 20
23.4791800746
 11
-11.5908183289
 21
23.4079453743
  0
LWPOLYLINE
  5
32A
100
AcDbEntity
  8
RACCORDO
100
AcDbPolyline
 62
7
  6
CONTINUOUS
 90
12
 70
0
 10
-11.6274351851
 20
23.4540775239
 10
-11.6267800193
 20
23.4562155095
 10
-11.6250235305
 20
23.4596371209
 10
-11.6224353643
 20
23.4628374504
 10
-11.6190260396
 20
23.4658192971
 10
-11.6148390435
 20
23.4685446262
 10
-11.6098644142
 20
23.4710101519
 10
-11.6041121135
 20
23.4732191601
 10
-11.597655514
 20
23.4751434741
 10
-11.5905190733
 20
23.4767737018
 10
-11.5826783338
 20
23.4781192353
 10
-11.5741332955
 20
23.4791800746
  0
LWPOLYLINE
  5
32B
100
AcDbEntity
  8
RACCORDO
100
AcDbPolyline
 62
7
  6
CONTINUOUS
 90
12
 70
0
 10
-11.267641996
 20
24.5518455598
 10
-11.2682971618
 20
24.5497075742
 10
-11.2700536506
 20
24.5462859629
 10
-11.2726418168
 20
24.5430856333
 10
-11.2760511415
 20
24.5401037867
 10
-11.2802381376
 20
24.5373784576
 10
-11.2852127669
 20
24.5349129319
 10
-11.2909650676
 20
24.5327039237
 10
-11.2974216671
 20
24.5307796096
 10
-11.3045581078
 20
24.529149382
 10
-11.3123988473
 20
24.5278038485
 10
-11.3209438856
 20
24.5267430091
  0
LWPOLYLINE
  5
32C
100
AcDbEntity
  8
RACCORDO
100
AcDbPolyline
 62
250
  6
CONTINUOUS
 90
5
 70
0
 10
-9.6386986361
 20
19.0570334783
 10
-9.6205156748
 20
19.0931357547
 10
-9.5950168389
 20
19.1274972427
 10
-9.5624891954
 20
19.1596158661
 10
-9.5226456772
 20
19.1899937011
  0
LWPOLYLINE
  5
32D
100
AcDbEntity
  8
RACCORDO
100
AcDbPolyline
 62
7
  6
CONTINUOUS
 90
3
 70
0
 10
-4.1548606648
 20
16.5162367873
 10
-4.1805466206
 20
16.5017602063
 10
-4.2403276503
 20
16.4624148385
  0
LINE
  5
32E
100
AcDbEntity
  8
RACCORDO
100
AcDbLine
 62
7
  6
CONTINUOUS
 10
2.508127437
 20
20.1104297366
 11
2.3950127742
 21
20.0481462677
  0
LINE
  5
32F
100
AcDbEntity
  8
RACCORDO
100
AcDbLine
 62
7
  6
CONTINUOUS
 10
2.6402615769
 20
20.1823558738
 11
2.508127437
 21
20.1104297366
  0
LINE
  5
330
100
AcDbEntity
  8
RACCORDO
100
AcDbLine
 62
7
  6
CONTINUOUS
 10
-4.1549935503
 20
16.5162076136
 11
-2.3755506739
 21
17.4762578688
  0
LINE
  5
331
100
AcDbEntity
  8
RACCORDO
100
AcDbLine
 62
7
  6
CONTINUOUS
 10
-0.9101412491
 20
18.2668798725
 11
1.8135073006
 21
19.7363507502
  0
LINE
  5
332
100
AcDbEntity
  8
RACCORDO
100
AcDbLine
 62
250
  6
CONTINUOUS
 10
-4.0624969278
 20
16.5121360695
 11
-2.3994350165
 21
17.4093961241
  0
LINE
  5
333
100
AcDbEntity
  8
RACCORDO
100
AcDbLine
 62
250
  6
CONTINUOUS
 10
-0.7867590641
 20
18.2794717979
 11
1.8360628032
 21
19.6945443673
  0
LINE
  5
334
100
AcDbEntity
  8
RACCORDO
100
AcDbLine
 62
7
  6
CONTINUOUS
 10
2.8225214433
 20
20.2804305005
 11
2.6402615769
 21
20.1823558738
  0
LINE
  5
335
100
AcDbEntity
  8
RACCORDO
100
AcDbLine
 62
7
  6
CONTINUOUS
 10
3.0406487903
 20
20.3964599002
 11
2.8225214433
 21
20.2804305005
  0
LINE
  5
336
100
AcDbEntity
  8
RACCORDO
100
AcDbLine
 62
7
  6
CONTINUOUS
 10
3.261397278
 20
20.5127095099
 11
3.0406487903
 21
20.3964599002
  0
LINE
  5
337
100
AcDbEntity
  8
RACCORDO
100
AcDbLine
 62
7
  6
CONTINUOUS
 10
10.7705223545
 20
24.6529321999
 11
7.0953013428
 21
22.8088923678
  0
LINE
  5
338
100
AcDbEntity
  8
0
100
AcDbLine
 62
7
  6
CONTINUOUS
 10
-1.9505594175
 20
17.9848217018
 11
-1.5869912849
 21
18.1666057681
  0
LWPOLYLINE
  5
339
100
AcDbEntity
  8
0
100
AcDbPolyline
 62
7
  6
CONTINUOUS
 90
10
 70
0
 10
-1.5869912849
 20
18.1666057681
 10
-1.5696819836
 20
18.1748873844
 10
-1.552435667
 20
18.1824035679
 10
-1.5352523352
 20
18.1891543185
 10
-1.5181112233
 20
18.1951459907
 10
-1.5010330961
 20
18.2003722301
 10
-1.4840802483
 20
18.2048139733
 10
-1.4672734449
 20
18.2084648658
 10
-1.4505919209
 20
18.2113312621
 10
-1.4340356763
 20
18.2134131622
  0
LINE
  5
33A
100
AcDbEntity
  8
RACCORDO
100
AcDbLine
 62
7
  6
CONTINUOUS
 10
-21.9617044666
 20
10.695186183
 11
-19.6720828461
 21
11.6750407118
  0
LWPOLYLINE
  5
33B
100
AcDbEntity
  8
RACCORDO
100
AcDbPolyline
 62
7
  6
CONTINUOUS
 90
3
 70
0
 10
-19.6720828461
 20
11.6750407118
 10
-17.4021723093
 20
12.6452224969
 10
-16.2830584688
 20
13.1230785465
  0
LWPOLYLINE
  5
33C
100
AcDbEntity
  8
RACCORDO
100
AcDbPolyline
 62
7
  6
CONTINUOUS
 90
4
 70
0
 10
7.9738551774
 20
21.5890225661
 10
7.871908395
 20
21.5473697578
 10
7.7736622576
 20
21.5028889832
 10
7.6793781964
 20
21.4556315938
  0
LINE
  5
33D
100
AcDbEntity
  8
RACCORDO
100
AcDbLine
 62
250
  6
CONTINUOUS
 10
8.0140250615
 20
21.5630163158
 11
8.113517656
 21
21.6009025692
  0
LINE
  5
33E
100
AcDbEntity
  8
RACCORDO
100
AcDbLine
 62
7
  6
CONTINUOUS
 10
8.079222069
 20
21.6277941837
 11
7.9738551774
 21
21.5890225661
  0
LWPOLYLINE
  5
33F
100
AcDbEntity
  8
RACCORDO
100
AcDbPolyline
 62
250
  6
CONTINUOUS
 90
5
 70
0
 10
-4.154878435
 20
16.5162695922
 10
-4.1340873358
 20
16.5238092167
 10
-4.1115444673
 20
16.5255069084
 10
-4.0874369273
 20
16.5215760623
 10
-4.0624969278
 20
16.5121360695
  0
LWPOLYLINE
  5
340
100
AcDbEntity
  8
RACCORDO
100
AcDbPolyline
 62
250
  6
CONTINUOUS
 90
15
 70
0
 10
8.113517656
 20
21.6009025692
 10
8.2162316964
 20
21.6360478424
 10
8.3225725651
 20
21.6684255623
 10
8.4321348797
 20
21.6980623018
 10
8.5424816241
 20
21.724569744
 10
8.6535861411
 20
21.7477691375
 10
8.7654750878
 20
21.7678392335
 10
8.8757914199
 20
21.7849279693
 10
8.9841819098
 20
21.7989018652
 10
9.0909997851
 20
21.8098944007
 10
9.1949476842
 20
21.818453952
 10
9.2957835186
 20
21.8245565215
 10
9.3937493769
 20
21.8282261067
 10
9.4882741632
 20
21.8300830755
 10
9.5791959033
 20
21.8301489444
  0
LINE
  5
341
100
AcDbEntity
  8
0
100
AcDbLine
 62
250
  6
CONTINUOUS
 10
-8.8058532518
 20
-18.8808567794
 11
-9.349426373
 21
-18.9608299077
  0
LINE
  5
342
100
AcDbEntity
  8
0
100
AcDbLine
 62
250
  6
CONTINUOUS
 10
-7.83365572
 20
-14.5858320483
 11
-7.786782534
 21
-14.6092686413
  0
LINE
  5
343
100
AcDbEntity
  8
0
100
AcDbLine
 62
250
  6
CONTINUOUS
 10
-6.3840868878
 20
-15.3106164644
 11
-6.2780208014
 21
-15.3636495076
  0
LINE
  5
344
100
AcDbEntity
  8
0
100
AcDbLine
 62
250
  6
CONTINUOUS
 10
-7.4865442913
 20
-14.5927111088
 11
-6.5602772398
 21
-15.0558446345
  0
LWPOLYLINE
  5
345
100
AcDbEntity
  8
0
100
AcDbPolyline
 62
7
  6
CONTINUOUS
 90
10
 70
0
 10
-10.709810541
 20
-19.2138888474
 10
-10.7664135275
 20
-19.114474923
 10
-10.8156035521
 20
-19.0103667365
 10
-10.8569540697
 20
-18.9014210419
 10
-10.8904438368
 20
-18.7859898173
 10
-10.9150730749
 20
-18.6654610303
 10
-10.9291822112
 20
-18.5443766467
 10
-10.9321787448
 20
-18.4243272764
 10
-10.9242217621
 20
-18.3038441282
 10
-10.9050612905
 20
-18.1830124429
  0
LWPOLYLINE
  5
346
100
AcDbEntity
  8
0
100
AcDbPolyline
 62
7
  6
CONTINUOUS
 90
9
 70
0
 10
-10.6024593721
 20
-19.0417662517
 10
-10.6593728727
 20
-18.9413565765
 10
-10.7078516724
 20
-18.833683954
 10
-10.747082293
 20
-18.717773604
 10
-10.776591742
 20
-18.5942774446
 10
-10.7937227797
 20
-18.4687408979
 10
-10.7974433176
 20
-18.3430701678
 10
-10.7880003507
 20
-18.2154349632
 10
-10.7649491626
 20
-18.0859235796
  0
LINE
  5
347
100
AcDbEntity
  8
RACCORDO
100
AcDbLine
 62
7
  6
CONTINUOUS
 10
-16.3995986849
 20
23.6902319216
 11
-16.2998506795
 21
22.243995772
  0
LWPOLYLINE
  5
348
100
AcDbEntity
  8
DRAFT
100
AcDbPolyline
 62
7
  6
CONTINUOUS
 90
4
 70
0
 10
-13.6885319852
 20
7.5338831579
 10
-13.6870444464
 20
7.7791415031
 10
-13.6825905973
 20
8.0227553912
 10
-13.681858669
 20
8.046623381
  0
LINE
  5
349
100
AcDbEntity
  8
RACCORDO
100
AcDbLine
 62
250
  6
CONTINUOUS
 10
-9.6238876108
 20
23.6782148717
 11
-9.7112908156
 21
23.3050576278
  0
LINE
  5
34A
100
AcDbEntity
  8
RACCORDO
100
AcDbLine
 62
250
  6
CONTINUOUS
 10
-9.3479665521
 20
23.6212307313
 11
-9.435369757
 21
23.2480734875
  0
LWPOLYLINE
  5
34B
100
AcDbEntity
  8
RACCORDO
100
AcDbPolyline
 62
7
  6
CONTINUOUS
 90
8
 70
0
 10
-4.2403276503
 20
16.4624148385
 10
-4.2920089134
 20
16.4197850898
 10
-4.3359151626
 20
16.3739773536
 10
-4.3723916697
 20
16.3246948906
 10
-4.4010691387
 20
16.2720554753
 10
-4.4213280207
 20
16.2166925141
 10
-4.4327165497
 20
16.1594537904
 10
-4.435238918
 20
16.1157124513
  0
LWPOLYLINE
  5
34C
100
AcDbEntity
  8
RACCORDO
100
AcDbPolyline
 62
7
  6
CONTINUOUS
 90
29
 70
0
 10
1.8949651196
 20
19.7533114542
 10
1.8910694676
 20
19.7505960179
 10
1.8872958194
 20
19.7479393562
 10
1.8836446049
 20
19.7453415376
 10
1.8801100877
 20
19.7427978574
 10
1.8766917281
 20
19.7403082696
 10
1.8733900657
 20
19.7378728202
 10
1.8702009824
 20
19.7354869418
 10
1.8671237301
 20
19.7331506258
 10
1.8641590569
 20
19.7308638808
 10
1.8613050896
 20
19.7286221659
 10
1.8585606301
 20
19.7264255218
 10
1.8559268766
 20
19.7242739076
 10
1.8534055503
 20
19.7221626597
 10
1.8509944088
 20
19.720091902
 10
1.8486956945
 20
19.7180615105
 10
1.8465178568
 20
19.716066449
 10
1.8444558242
 20
19.7141070776
 10
1.8425146682
 20
19.7121830362
 10
1.840718052
 20
19.7102882076
 10
1.8390498621
 20
19.7084233986
 10
1.8375262121
 20
19.7065878025
 10
1.8362191063
 20
19.7047728817
 10
1.8350416243
 20
19.7029667569
 10
1.8340806866
 20
19.7011813075
 10
1.833669059
 20
19.6994436338
 10
1.8339176636
 20
19.6977627692
 10
1.8347155783
 20
19.6961296804
 10
1.8360628032
 20
19.6945443673
  0
LINE
  5
34D
100
AcDbEntity
  8
RACCORDO
100
AcDbLine
 62
7
  6
CONTINUOUS
 10
1.9031307519
 20
19.7589237674
 11
1.8949651196
 21
19.7533114542
  0
LINE
  5
34E
100
AcDbEntity
  8
RACCORDO
100
AcDbLine
 62
7
  6
CONTINUOUS
 10
1.9118134598
 20
19.7647909113
 11
1.9031307519
 21
19.7589237674
  0
LINE
  5
34F
100
AcDbEntity
  8
RACCORDO
100
AcDbLine
 62
7
  6
CONTINUOUS
 10
1.9210382036
 20
19.7709285443
 11
1.9118134598
 21
19.7647909113
  0
LINE
  5
350
100
AcDbEntity
  8
RACCORDO
100
AcDbLine
 62
7
  6
CONTINUOUS
 10
1.9308223688
 20
19.7773473437
 11
1.9210382036
 21
19.7709285443
  0
LINE
  5
351
100
AcDbEntity
  8
RACCORDO
100
AcDbLine
 62
7
  6
CONTINUOUS
 10
1.9411933061
 20
19.7840636767
 11
1.9308223688
 21
19.7773473437
  0
LINE
  5
352
100
AcDbEntity
  8
RACCORDO
100
AcDbLine
 62
7
  6
CONTINUOUS
 10
1.9521813615
 20
19.791094741
 11
1.9411933061
 21
19.7840636767
  0
LINE
  5
353
100
AcDbEntity
  8
RACCORDO
100
AcDbLine
 62
7
  6
CONTINUOUS
 10
1.963808737
 20
19.7984530563
 11
1.9521813615
 21
19.791094741
  0
LINE
  5
354
100
AcDbEntity
  8
RACCORDO
100
AcDbLine
 62
7
  6
CONTINUOUS
 10
1.9761114071
 20
19.806158786
 11
1.963808737
 21
19.7984530563
  0
LINE
  5
355
100
AcDbEntity
  8
RACCORDO
100
AcDbLine
 62
7
  6
CONTINUOUS
 10
1.9959141745
 20
19.8184138439
 11
1.9761114071
 21
19.806158786
  0
LINE
  5
356
100
AcDbEntity
  8
RACCORDO
100
AcDbLine
 62
7
  6
CONTINUOUS
 10
2.017435874
 20
19.8315578931
 11
1.9959141745
 21
19.8184138439
  0
LINE
  5
357
100
AcDbEntity
  8
RACCORDO
100
AcDbLine
 62
250
  6
CONTINUOUS
 10
-4.1096563206
 20
16.4834990228
 11
-4.0624969278
 21
16.5121360695
  0
LINE
  5
358
100
AcDbEntity
  8
RACCORDO
100
AcDbLine
 62
7
  6
CONTINUOUS
 10
2.0407988914
 20
19.8456548214
 11
2.017435874
 21
19.8315578931
  0
LINE
  5
359
100
AcDbEntity
  8
RACCORDO
100
AcDbLine
 62
7
  6
CONTINUOUS
 10
2.0661411408
 20
19.8607763549
 11
2.0407988914
 21
19.8456548214
  0
LINE
  5
35A
100
AcDbEntity
  8
RACCORDO
100
AcDbLine
 62
7
  6
CONTINUOUS
 10
2.10327433
 20
19.8826687409
 11
2.0661411408
 21
19.8607763549
  0
LINE
  5
35B
100
AcDbEntity
  8
RACCORDO
100
AcDbLine
 62
7
  6
CONTINUOUS
 10
2.1445868957
 20
19.9067217574
 11
2.10327433
 21
19.8826687409
  0
LINE
  5
35C
100
AcDbEntity
  8
RACCORDO
100
AcDbLine
 62
7
  6
CONTINUOUS
 10
2.1905060029
 20
19.9331520337
 11
2.1445868957
 21
19.9067217574
  0
LINE
  5
35D
100
AcDbEntity
  8
RACCORDO
100
AcDbLine
 62
7
  6
CONTINUOUS
 10
2.2551429653
 20
19.9699154596
 11
2.1905060029
 21
19.9331520337
  0
LINE
  5
35E
100
AcDbEntity
  8
RACCORDO
100
AcDbLine
 62
7
  6
CONTINUOUS
 10
2.3287921591
 20
20.0113031226
 11
2.2551429653
 21
19.9699154596
  0
LINE
  5
35F
100
AcDbEntity
  8
RACCORDO
100
AcDbLine
 62
7
  6
CONTINUOUS
 10
2.3950127742
 20
20.0481462677
 11
2.3287921591
 21
20.0113031226
  0
LWPOLYLINE
  5
360
100
AcDbEntity
  8
RACCORDO
100
AcDbPolyline
 62
250
  6
CONTINUOUS
 90
3
 70
0
 10
6.750767179
 20
20.9632339776
 10
6.7465612142
 20
20.9607282538
 10
6.6886778106
 20
20.9254224133
  0
LWPOLYLINE
  5
361
100
AcDbEntity
  8
RACCORDO
100
AcDbPolyline
 62
7
  6
CONTINUOUS
 90
3
 70
0
 10
6.8636443398
 20
21.0254790015
 10
6.750767179
 20
20.9632339776
 10
6.6884251416
 20
20.9256188381
  0
LINE
  5
362
100
AcDbEntity
  8
0
100
AcDbLine
 62
7
  6
CONTINUOUS
 10
6.8636443398
 20
21.0254790015
 11
7.6793781964
 21
21.4556315938
  0
LINE
  5
363
100
AcDbEntity
  8
RACCORDO
100
AcDbLine
 62
250
  6
CONTINUOUS
 10
7.6792504144
 20
21.4555642069
 11
7.6793781964
 21
21.4556315938
  0
LINE
  5
364
100
AcDbEntity
  8
RACCORDO
100
AcDbLine
 62
7
  6
CONTINUOUS
 10
7.3496092915
 20
22.1558067253
 11
11.6217971069
 21
24.3677967198
  0
LINE
  5
365
100
AcDbEntity
  8
RACCORDO
100
AcDbLine
 62
7
  6
CONTINUOUS
 10
2.4804080939
 20
16.5694599501
 11
3.1916569453
 21
16.9345601363
  0
LINE
  5
366
100
AcDbEntity
  8
DRAFT
100
AcDbLine
 62
7
  6
CONTINUOUS
 10
7.3496092915
 20
21.7579221183
 11
11.6904918414
 21
23.9582594552
  0
LINE
  5
367
100
AcDbEntity
  8
DRAFT
100
AcDbLine
 62
7
  6
CONTINUOUS
 10
6.7157259366
 20
21.2412538421
 11
7.7833727339
 21
21.7800996615
  0
LINE
  5
368
100
AcDbEntity
  8
RACCORDO
100
AcDbLine
 62
250
  6
CONTINUOUS
 10
2.9284989119
 20
19.148326313
 11
1.7097584424
 21
18.5342570587
  0
LINE
  5
369
100
AcDbEntity
  8
RACCORDO
100
AcDbLine
 62
250
  6
CONTINUOUS
 10
-2.0164690185
 20
16.6567763517
 11
-3.1796384973
 21
16.0707068542
  0
LINE
  5
36A
100
AcDbEntity
  8
RACCORDO
100
AcDbLine
 62
250
  6
CONTINUOUS
 10
3.069898729
 20
18.9044477037
 11
2.4940396771
 21
18.6142978749
  0
LINE
  5
36B
100
AcDbEntity
  8
RACCORDO
100
AcDbLine
 62
250
  6
CONTINUOUS
 10
-1.7025556501
 20
16.4998196675
 11
-3.0382386802
 21
15.8268282449
  0
LINE
  5
36C
100
AcDbEntity
  8
RACCORDO
100
AcDbLine
 62
7
  6
CONTINUOUS
 10
-2.0821291091
 20
15.9576962849
 11
-3.0382386802
 21
15.475955089
  0
LINE
  5
36D
100
AcDbEntity
  8
0
100
AcDbLine
 62
7
  6
CONTINUOUS
 10
4.6438426624
 20
18.2040518973
 11
4.8604804521
 21
18.3127651116
  0
LINE
  5
36E
100
AcDbEntity
  8
0
100
AcDbLine
 62
7
  6
CONTINUOUS
 10
7.8076656252
 20
21.2325398624
 11
8.302640372
 21
21.4800272359
  0
LINE
  5
36F
100
AcDbEntity
  8
RACCORDO
100
AcDbLine
 62
7
  6
CONTINUOUS
 10
10.7708182845
 20
21.6605270882
 11
9.4593539735
 21
21.0047949326
  0
LINE
  5
370
100
AcDbEntity
  8
RACCORDO
100
AcDbLine
 62
7
  6
CONTINUOUS
 10
8.7581302316
 20
20.6541830617
 11
8.0943999479
 21
20.3223179198
  0
LINE
  5
371
100
AcDbEntity
  8
RACCORDO
100
AcDbLine
 62
7
  6
CONTINUOUS
 10
11.6193489923
 20
21.2362643046
 11
10.3078821109
 21
20.5805308639
  0
LINE
  5
372
100
AcDbEntity
  8
RACCORDO
100
AcDbLine
 62
7
  6
CONTINUOUS
 10
9.606658369
 20
20.229918993
 11
9.5335402045
 21
20.1933599107
  0
LINE
  5
373
100
AcDbEntity
  8
0
100
AcDbLine
 62
7
  6
CONTINUOUS
 10
3.069898729
 20
18.9910238641
 11
3.2872166212
 21
19.099397027
  0
LINE
  5
374
100
AcDbEntity
  8
DRAFT
100
AcDbLine
 62
7
  6
CONTINUOUS
 10
8.4619764864
 20
21.737690344
 11
8.7567167304
 21
21.8842205063
  0
LINE
  5
375
100
AcDbEntity
  8
RACCORDO
100
AcDbLine
 62
7
  6
CONTINUOUS
 10
-2.0821291091
 20
15.9576962849
 11
-1.3406135735
 21
16.3188486292
  0
LINE
  5
376
100
AcDbEntity
  8
RACCORDO
100
AcDbLine
 62
7
  6
CONTINUOUS
 10
0.6477382796
 20
17.2872678981
 11
1.000446288
 21
17.459053003
  0
LINE
  5
377
100
AcDbEntity
  8
DRAFT
100
AcDbLine
 62
7
  6
CONTINUOUS
 10
3.069898729
 20
19.0776264044
 11
4.6250723816
 21
19.8308719581
  0
LINE
  5
378
100
AcDbEntity
  8
DRAFT
100
AcDbLine
 62
7
  6
CONTINUOUS
 10
8.5188177837
 20
19.5192557353
 11
6.2682150195
 21
18.4420694323
  0
LINE
  5
379
100
AcDbEntity
  8
RACCORDO
100
AcDbLine
 62
7
  6
CONTINUOUS
 10
15.2513168396
 20
22.4125349573
 11
11.4836865926
 21
20.6146997429
  0
LWPOLYLINE
  5
37A
100
AcDbEntity
  8
RACCORDO
100
AcDbPolyline
 62
7
  6
CONTINUOUS
 90
10
 70
0
 10
11.6193200964
 20
21.2362498566
 10
11.6307165606
 20
21.2414185119
 10
11.6419369631
 20
21.2454704083
 10
11.6529813038
 20
21.2484055458
 10
11.6639445627
 20
21.2502240771
 10
11.6747317599
 20
21.2509258496
 10
11.6850579553
 20
21.2505104052
 10
11.6948281691
 20
21.2489775914
 10
11.7041373811
 20
21.2463275606
 10
11.7129855914
 20
21.242560313
  0
LWPOLYLINE
  5
37B
100
AcDbEntity
  8
RACCORDO
100
AcDbPolyline
 62
250
  6
CONTINUOUS
 90
23
 70
0
 10
-3.1796384973
 20
16.0707068542
 10
-3.2355919138
 20
16.0457823201
 10
-3.2948942645
 20
16.0246498959
 10
-3.3575455493
 20
16.0073095816
 10
-3.4244540045
 20
15.9936362851
 10
-3.494711394
 20
15.9837550985
 10
-3.5655930086
 20
15.9780412985
 10
-3.6371279609
 20
15.9766563942
 10
-3.7092871383
 20
15.9794388765
 10
-3.7792584947
 20
15.9862794947
 10
-3.8469487816
 20
15.9973375863
 10
-3.9124512473
 20
16.0124538139
 10
-3.9732335906
 20
16.0310409151
 10
-4.0291158334
 20
16.0532359885
 10
-4.0802779536
 20
16.0789019356
 10
-4.1247275838
 20
16.1070401983
 10
-4.1621992375
 20
16.1377471578
 10
-4.1929584011
 20
16.1709264328
 10
-4.2158091665
 20
16.2052903211
 10
-4.2304424567
 20
16.2408826464
 10
-4.2371673488
 20
16.277659585
 10
-4.2357151651
 20
16.3142019635
 10
-4.2257092795
 20
16.3505388
  0
LWPOLYLINE
  5
37C
100
AcDbEntity
  8
RACCORDO
100
AcDbPolyline
 62
250
  6
CONTINUOUS
 90
18
 70
0
 10
-3.0382386802
 20
15.8268282449
 10
-3.110201389
 20
15.7947733697
 10
-3.1888010369
 20
15.7671042084
 10
-3.2729953311
 20
15.7441733059
 10
-3.3616684358
 20
15.7262586678
 10
-3.4536441623
 20
15.7135968366
 10
-3.5477013956
 20
15.7063796046
 10
-3.6425965066
 20
15.7046938984
 10
-3.7370683341
 20
15.7085483959
 10
-3.8298535536
 20
15.7179078609
 10
-3.9197139851
 20
15.7326403385
 10
-4.0054715836
 20
15.7525384868
 10
-4.0860094449
 20
15.7773516486
 10
-4.1602669454
 20
15.8067565258
 10
-4.2272514879
 20
15.8403558519
 10
-4.2860703981
 20
15.8777022529
 10
-4.33594305
 20
15.9183054122
 10
-4.3762122771
 20
15.9616275093
  0
LWPOLYLINE
  5
37D
100
AcDbEntity
  8
0
100
AcDbPolyline
 62
7
  6
CONTINUOUS
 90
19
 70
0
 10
-6.4384948026
 20
-16.1082449525
 10
-6.6023760476
 20
-16.1407268624
 10
-6.7666154374
 20
-16.191181375
 10
-6.9312129719
 20
-16.2596084902
 10
-7.0974317003
 20
-16.3468056451
 10
-7.2640085734
 20
-16.4519754026
 10
-7.4271544434
 20
-16.5727254512
 10
-7.5867906683
 20
-16.7094129058
 10
-7.7429958901
 20
-16.8616806516
 10
-7.8922168863
 20
-17.0260650323
 10
-8.0342935718
 20
-17.2028437728
 10
-8.1693860318
 20
-17.3917391482
 10
-8.2944212986
 20
-17.5884543286
 10
-8.4091688521
 20
-17.7931685513
 10
-8.5138592126
 20
-18.0057025789
 10
-8.6061109735
 20
-18.2212218697
 10
-8.6851303325
 20
-18.4381149098
 10
-8.751711092
 20
-18.657993213
 10
-8.8260918208
 20
-18.9648527962
  0
LWPOLYLINE
  5
37E
100
AcDbEntity
  8
0
100
AcDbPolyline
 62
7
  6
CONTINUOUS
 90
19
 70
0
 10
-6.3840868878
 20
-15.3106164644
 10
-6.587845785
 20
-15.3500846458
 10
-6.7951624174
 20
-15.4127833811
 10
-7.0045340946
 20
-15.4982464613
 10
-7.2144221344
 20
-15.6058309699
 10
-7.4233305429
 20
-15.7347547564
 10
-7.6298152045
 20
-15.8841244634
 10
-7.8324189934
 20
-16.0529008925
 10
-8.0296340126
 20
-16.2398444587
 10
-8.2199836604
 20
-16.4435578641
 10
-8.402066439
 20
-16.6625290758
 10
-8.5745958486
 20
-16.8951972091
 10
-8.7363565416
 20
-17.139922244
 10
-8.886191641
 20
-17.3949662367
 10
-9.0229942261
 20
-17.6584580367
 10
-9.1457527865
 20
-17.9284492964
 10
-9.2535767113
 20
-18.2029701083
 10
-9.3456955919
 20
-18.4800470684
 10
-9.4214462784
 20
-18.7576750217
  0
LWPOLYLINE
  5
37F
100
AcDbEntity
  8
0
100
AcDbPolyline
 62
7
  6
CONTINUOUS
 90
37
 70
0
 10
-6.2780208014
 20
-15.3636495076
 10
-6.3827220615
 20
-15.3811404078
 10
-6.488158398
 20
-15.4047263064
 10
-6.5943298107
 20
-15.4344072035
 10
-6.7014423714
 20
-15.4702633318
 10
-6.8092900084
 20
-15.5122144586
 10
-6.9172545068
 20
-15.5600198856
 10
-7.0253367591
 20
-15.6137132094
 10
-7.1335358729
 20
-15.6732608335
 10
-7.2412309561
 20
-15.7383212701
 10
-7.3484188844
 20
-15.8089258906
 10
-7.455102782
 20
-15.8850433236
 10
-7.5606711303
 20
-15.9662379681
 10
-7.6651184248
 20
-16.052539766
 10
-7.7684501699
 20
-16.1439187753
 10
-7.8700713596
 20
-16.2398495693
 10
-7.9699719572
 20
-16.3403584061
 10
-8.0681619993
 20
-16.4454190275
 10
-8.1640765903
 20
-16.5544272321
 10
-8.2577025632
 20
-16.6674058624
 10
-8.349053085
 20
-16.7843320758
 10
-8.4376027605
 20
-16.9045331429
 10
-8.523335465
 20
-17.0280281918
 10
-8.6062673233
 20
-17.1547980944
 10
-8.6859213143
 20
-17.2841127367
 10
-8.7622778989
 20
-17.4159856235
 10
-8.8353566162
 20
-17.5504032501
 10
-8.9047390621
 20
-17.6865949886
 10
-8.9704042524
 20
-17.8245712931
 10
-9.0323731713
 20
-17.9643217096
 10
-9.0902903678
 20
-18.1050442483
 10
-9.1441325467
 20
-18.246744178
 10
-9.1939230032
 20
-18.38941623
 10
-9.2393761707
 20
-18.5322426085
 10
-9.2803968604
 20
-18.674950715
 10
-9.3170802612
 20
-18.8178131481
 10
-9.349426373
 20
-18.9608299077
  0
LINE
  5
380
100
AcDbEntity
  8
0
100
AcDbLine
 62
250
  6
CONTINUOUS
 10
-5.2484384068
 20
-14.8407000336
 11
-6.5602772398
 21
-15.0558446345
  0
LINE
  5
381
100
AcDbEntity
  8
0
100
AcDbLine
 62
250
  6
CONTINUOUS
 10
-2.1227530681
 20
-14.3344761352
 11
-5.2484384068
 21
-14.8407000336
  0
LINE
  5
382
100
AcDbEntity
  8
0
100
AcDbLine
 62
250
  6
CONTINUOUS
 10
0.4527987144
 20
-13.9229781768
 11
-2.1227530681
 21
-14.3344761352
  0
LINE
  5
383
100
AcDbEntity
  8
0
100
AcDbLine
 62
250
  6
CONTINUOUS
 10
1.1545396794
 20
-13.8116643338
 11
0.4527987144
 21
-13.9229781768
  0
LINE
  5
384
100
AcDbEntity
  8
0
100
AcDbLine
 62
7
  6
CONTINUOUS
 10
1.1545396794
 20
-14.2727057823
 11
-6.3840868878
 21
-15.3106164644
  0
LWPOLYLINE
  5
385
100
AcDbEntity
  8
0
100
AcDbPolyline
 62
7
  6
CONTINUOUS
 90
9
 70
0
 10
-6.4384948026
 20
-16.1082449525
 10
-3.3121233593
 20
-15.6778441494
 10
-3.3040078781
 20
-15.6768202681
 10
-3.295884796
 20
-15.6758538336
 10
-3.2878098687
 20
-15.6749506798
 10
-3.2797273404
 20
-15.6741049728
 10
-3.2714699435
 20
-15.6732992107
 10
-3.2629819223
 20
-15.6725275596
 10
-3.2543190324
 20
-15.6717958534
  0
LWPOLYLINE
  5
386
100
AcDbEntity
  8
0
100
AcDbPolyline
 62
7
  6
CONTINUOUS
 90
9
 70
0
 10
0.9368719914
 20
-14.4830369205
 10
-1.3071946673
 20
-14.7919628645
 10
-1.3153101485
 20
-14.7929867458
 10
-1.3234332306
 20
-14.7939531804
 10
-1.3315081579
 20
-14.7948563341
 10
-1.3395906862
 20
-14.7957020411
 10
-1.347848083
 20
-14.7965078032
 10
-1.3563361043
 20
-14.7972794544
 10
-1.3649989942
 20
-14.7980111606
  0
LWPOLYLINE
  5
387
100
AcDbEntity
  8
0
100
AcDbPolyline
 62
7
  6
CONTINUOUS
 90
9
 70
0
 10
-1.5254729954
 20
-15.5426066054
 10
-1.5168101056
 20
-15.5418748992
 10
-1.5083220843
 20
-15.5411032481
 10
-1.5000646874
 20
-15.540297486
 10
-1.4919821591
 20
-15.539451779
 10
-1.4839072318
 20
-15.5385486252
 10
-1.4757841497
 20
-15.5375821906
 10
-1.4676686685
 20
-15.5365583093
 10
0.7763979902
 20
-15.2276323654
  0
LWPOLYLINE
  5
388
100
AcDbEntity
  8
0
100
AcDbPolyline
 62
7
  6
CONTINUOUS
 90
9
 70
0
 10
-3.0938450312
 20
-14.9272004085
 10
-3.102507921
 20
-14.9279321147
 10
-3.1109959423
 20
-14.9287037659
 10
-3.1192533392
 20
-14.929509528
 10
-3.1273358675
 20
-14.930355235
 10
-3.1354107948
 20
-14.9312583888
 10
-3.1435338769
 20
-14.9322248233
 10
-3.151649358
 20
-14.9332487046
 10
-6.2780208014
 20
-15.3636495076
  0
LINE
  5
389
100
AcDbEntity
  8
0
100
AcDbLine
 62
7
  6
CONTINUOUS
 10
-3.2543190324
 20
-15.6717958534
 11
-1.5254729954
 21
-15.5426066054
  0
LINE
  5
38A
100
AcDbEntity
  8
0
100
AcDbLine
 62
7
  6
CONTINUOUS
 10
-3.0938450312
 20
-14.9272004085
 11
-1.3649989942
 21
-14.7980111606
  0
LWPOLYLINE
  5
38B
100
AcDbEntity
  8
0
100
AcDbPolyline
 62
7
  6
CONTINUOUS
 90
7
 70
0
 10
0.7998503922
 20
-15.225559062
 10
0.795801509
 20
-15.2257682184
 10
0.7918086857
 20
-15.2260319325
 10
0.7878719221
 20
-15.2263502042
 10
0.7839912183
 20
-15.2267230336
 10
0.7801665744
 20
-15.2271504207
 10
0.7763979902
 20
-15.2276323654
  0
LWPOLYLINE
  5
38C
100
AcDbEntity
  8
0
100
AcDbPolyline
 62
7
  6
CONTINUOUS
 90
7
 70
0
 10
0.9603243934
 20
-14.4809636172
 10
0.9562755102
 20
-14.4811727736
 10
0.9522826869
 20
-14.4814364877
 10
0.9483459233
 20
-14.4817547594
 10
0.9444652196
 20
-14.4821275888
 10
0.9406405756
 20
-14.4825549758
 10
0.9368719914
 20
-14.4830369205
  0
LINE
  5
38D
100
AcDbEntity
  8
0
100
AcDbLine
 62
7
  6
CONTINUOUS
 10
0.7998503922
 20
-15.225559062
 11
1.1545396794
 21
-15.2093529076
  0
LINE
  5
38E
100
AcDbEntity
  8
0
100
AcDbLine
 62
7
  6
CONTINUOUS
 10
0.9603243934
 20
-14.4809636172
 11
1.1545396794
 21
-14.4720897012
  0
LINE
  5
38F
100
AcDbEntity
  8
0
100
AcDbLine
 62
7
  6
CONTINUOUS
 10
-0.3242138207
 20
-15.6150431017
 11
1.0945009339
 21
-16.3244004791
  0
LINE
  5
390
100
AcDbEntity
  8
RACCORDO
100
AcDbLine
 62
7
  6
CONTINUOUS
 10
0.2193092236
 20
-15.3043318014
 11
1.1545396794
 21
-15.7719470293
  0
LWPOLYLINE
  5
391
100
AcDbEntity
  8
RACCORDO
100
AcDbPolyline
 62
7
  6
CONTINUOUS
 90
4
 70
0
 10
0.7140917188
 20
-16.6800498786
 10
0.7019815903
 20
-16.673365776
 10
0.0565189879
 20
-16.2835674053
 10
-0.3242138207
 20
-16.0337171529
  0
LWPOLYLINE
  5
392
100
AcDbEntity
  8
RACCORDO
100
AcDbPolyline
 62
250
  6
CONTINUOUS
 90
3
 70
0
 10
0.6637961873
 20
-16.7071397852
 10
0.0956245896
 20
-16.368796867
 10
-0.3242138207
 20
-16.0986154286
  0
LWPOLYLINE
  5
393
100
AcDbEntity
  8
RACCORDO
100
AcDbPolyline
 62
250
  6
CONTINUOUS
 90
12
 70
0
 10
-3.8546098678
 20
-24.973835408
 10
-3.8088814126
 20
-25.0646710384
 10
-3.7560486187
 20
-25.150132269
 10
-3.6967337294
 20
-25.2293802251
 10
-3.6315923454
 20
-25.3015254185
 10
-3.5613693355
 20
-25.3660315369
 10
-3.486842815
 20
-25.4226260044
 10
-3.4087342976
 20
-25.4708074824
 10
-3.3278602465
 20
-25.5099380692
 10
-3.2451617331
 20
-25.5396002907
 10
-3.1614886682
 20
-25.5594904404
 10
-3.0777022891
 20
-25.5693920508
  0
LWPOLYLINE
  5
394
100
AcDbEntity
  8
RACCORDO
100
AcDbPolyline
 62
250
  6
CONTINUOUS
 90
13
 70
0
 10
-3.9646588289
 20
-24.9806910548
 10
-3.9070901248
 20
-25.095727856
 10
-3.8386529007
 20
-25.20292388
 10
-3.7604922963
 20
-25.3004854491
 10
-3.6739161489
 20
-25.3867800961
 10
-3.5803731111
 20
-25.4603638798
 10
-3.4814284107
 20
-25.5200055454
 10
-3.3787376591
 20
-25.5647071286
 10
-3.2740191489
 20
-25.5937206527
 10
-3.1690251028
 20
-25.6065606445
 10
-3.0655123537
 20
-25.603012258
 10
-2.9652129475
 20
-25.5831348685
 10
-2.9351173491
 20
-25.573729374
  0
LWPOLYLINE
  5
395
100
AcDbEntity
  8
RACCORDO
100
AcDbPolyline
 62
250
  6
CONTINUOUS
 90
13
 70
0
 10
-21.0600555637
 20
14.0717317618
 10
-21.1057924672
 20
14.1926844634
 10
-21.138932268
 20
14.317529199
 10
-21.1589204485
 20
14.44417698
 10
-21.1654225532
 20
14.5705086484
 10
-21.1583297851
 20
14.694410335
 10
-21.137760826
 20
14.8138088304
 10
-21.1040598511
 20
14.9267062768
 10
-21.0577907691
 20
15.031213597
 10
-20.9997277873
 20
15.1255821028
 10
-20.9308424565
 20
15.2082327562
 10
-20.8522874142
 20
15.277782591
 10
-20.7653770978
 20
15.3330678528
  0
LWPOLYLINE
  5
396
100
AcDbEntity
  8
RACCORDO
100
AcDbPolyline
 62
250
  6
CONTINUOUS
 90
16
 70
0
 10
-21.1719577071
 20
14.0639495242
 10
-21.2058719462
 20
14.1606923616
 10
-21.2322846351
 20
14.2593637188
 10
-21.2509838265
 20
14.3589195721
 10
-21.2619507922
 20
14.4581519955
 10
-21.265076365
 20
14.5562068301
 10
-21.2600405426
 20
14.6525824517
 10
-21.2467599534
 20
14.7464584525
 10
-21.2254485258
 20
14.8366817391
 10
-21.1962650086
 20
14.922284935
 10
-21.1594931533
 20
15.0023975
 10
-21.1155245167
 20
15.0761765741
 10
-21.0648283833
 20
15.1428093373
 10
-21.0079510121
 20
15.2016162644
 10
-20.9454879247
 20
15.2520344936
 10
-20.8780925408
 20
15.2935707159
  0
LWPOLYLINE
  5
397
100
AcDbEntity
  8
0
100
AcDbPolyline
 62
250
  6
CONTINUOUS
 90
10
 70
0
 10
-10.7649491626
 20
-18.0859235795
 10
-10.7617328783
 20
-18.0953083396
 10
-10.7562940736
 20
-18.1050790821
 10
-10.7486686671
 20
-18.1151712792
 10
-10.7389070185
 20
-18.1255182809
 10
-10.7270735949
 20
-18.1360517537
 10
-10.7132465457
 20
-18.146702132
 10
-10.6975171866
 20
-18.1573990791
 10
-10.6799893972
 20
-18.1680719516
 10
-10.6607789341
 20
-18.1786502649
  0
LWPOLYLINE
  5
398
100
AcDbEntity
  8
DRAFT
100
AcDbPolyline
 62
7
  6
CONTINUOUS
 90
10
 70
0
 10
-13.5684358148
 20
5.2670717435
 10
-13.5936187917
 20
5.5237310064
 10
-13.6158442194
 20
5.7792337776
 10
-13.6351120979
 20
6.0335800572
 10
-13.6514253475
 20
6.2868249658
 10
-13.6647810478
 20
6.5389133827
 10
-13.6751704379
 20
6.7896799465
 10
-13.6825905973
 20
7.0390695367
 10
-13.6870444464
 20
7.2871372738
 10
-13.6885319852
 20
7.5338831579
  0
LINE
  5
399
100
AcDbEntity
  8
RACCORDO
100
AcDbLine
 62
7
  6
CONTINUOUS
 10
-12.4864504572
 20
26.4512424939
 11
-12.4864504572
 21
26.6826222967
  0
LINE
  5
39A
100
AcDbEntity
  8
DRAFT
100
AcDbLine
 62
7
  6
CONTINUOUS
 10
-12.4864504572
 20
26.7691984571
 11
-12.4864504572
 21
26.8558009975
  0
LINE
  5
39B
100
AcDbEntity
  8
RACCORDO
100
AcDbLine
 62
7
  6
CONTINUOUS
 10
-11.8133914362
 20
11.5614854865
 11
-11.8133914362
 21
9.0628695883
  0
LINE
  5
39C
100
AcDbEntity
  8
RACCORDO
100
AcDbLine
 62
7
  6
CONTINUOUS
 10
-11.8133914362
 20
4.1297561785
 11
-11.8133914362
 21
-1.8357111155
  0
LINE
  5
39D
100
AcDbEntity
  8
DRAFT
100
AcDbLine
 62
7
  6
CONTINUOUS
 10
-10.9125065237
 20
25.9822264904
 11
-10.9125065237
 21
25.7408909791
  0
LWPOLYLINE
  5
39E
100
AcDbEntity
  8
0
100
AcDbPolyline
 62
250
  6
CONTINUOUS
 90
3
 70
0
 10
-10.6949827238
 20
10.3673737249
 10
-10.6930426152
 20
10.4186381684
 10
-10.6854054651
 20
10.4669541413
  0
LINE
  5
39F
100
AcDbEntity
  8
RACCORDO
100
AcDbLine
 62
7
  6
CONTINUOUS
 10
-11.2186346471
 20
19.7033877558
 11
-11.1188866417
 21
21.0498759
  0
LINE
  5
3A0
100
AcDbEntity
  8
RACCORDO
100
AcDbLine
 62
7
  6
CONTINUOUS
 10
-10.9359111142
 20
19.8432003197
 11
-10.8449541627
 21
21.0710189238
  0
LWPOLYLINE
  5
3A1
100
AcDbEntity
  8
RACCORDO
100
AcDbPolyline
 62
7
  6
CONTINUOUS
 90
14
 70
0
 10
-11.1188866417
 20
21.0498759
 10
-11.1178428602
 20
21.060050166
 10
-11.1162801749
 20
21.0697872395
 10
-11.1141985858
 20
21.0790871204
 10
-11.111586208
 20
21.0879819099
 10
-11.1084549265
 20
21.0964395069
 10
-11.1048403959
 20
21.104363608
 10
-11.1007370928
 20
21.1117481151
 10
-11.0961505405
 20
21.1185991263
 10
-11.0911329646
 20
21.1248386316
 10
-11.0856794384
 20
21.1304596415
 10
-11.0797948884
 20
21.1354691455
 10
-11.0735463199
 20
21.1398101023
 10
-11.0674539284
 20
21.1432155472
  0
LINE
  5
3A2
100
AcDbEntity
  8
0
100
AcDbLine
 62
250
  6
CONTINUOUS
 10
-8.5925066931
 20
21.3757898243
 11
-8.5051034882
 21
21.7489470681
  0
LINE
  5
3A3
100
AcDbEntity
  8
RACCORDO
100
AcDbLine
 62
250
  6
CONTINUOUS
 10
-7.2973568867
 20
22.5959258986
 11
-7.3177881462
 21
22.5086971465
  0
LWPOLYLINE
  5
3A4
100
AcDbEntity
  8
0
100
AcDbPolyline
 62
250
  6
CONTINUOUS
 90
12
 70
0
 10
-10.6854054651
 20
10.4669541413
 10
-10.6726222997
 20
10.5110473304
 10
-10.6546871057
 20
10.5505838839
 10
-10.6319477514
 20
10.5856084734
 10
-10.6056170821
 20
10.6153341996
 10
-10.5759059281
 20
10.639303567
 10
-10.542982305
 20
10.6577099958
 10
-10.5080330471
 20
10.6707280782
 10
-10.4712160524
 20
10.6781510521
 10
-10.4326371183
 20
10.6800237251
 10
-10.3933775534
 20
10.6769191835
 10
-10.3654749035
 20
10.6713344578
  0
LWPOLYLINE
  5
3A5
100
AcDbEntity
  8
RACCORDO
100
AcDbPolyline
 62
7
  6
CONTINUOUS
 90
12
 70
0
 10
-7.2371333432
 20
22.5365912334
 10
-7.237788509
 20
22.5344532478
 10
-7.2395449978
 20
22.5310316365
 10
-7.242133164
 20
22.5278313069
 10
-7.2455424887
 20
22.5248494603
 10
-7.2497294848
 20
22.5221241312
 10
-7.2547041141
 20
22.5196586055
 10
-7.2604564148
 20
22.5174495973
 10
-7.2669130143
 20
22.5155252833
 10
-7.274049455
 20
22.5138950556
 10
-7.2818901945
 20
22.5125495221
 10
-7.2904352328
 20
22.5114886827
  0
LWPOLYLINE
  5
3A6
100
AcDbEntity
  8
RACCORDO
100
AcDbPolyline
 62
7
  6
CONTINUOUS
 90
12
 70
0
 10
-5.3695401716
 20
23.0071538585
 10
-5.3688850058
 20
23.0092918442
 10
-5.367128517
 20
23.0127134555
 10
-5.3645403508
 20
23.0159137851
 10
-5.3611310261
 20
23.0188956317
 10
-5.35694403
 20
23.0216209608
 10
-5.3519694007
 20
23.0240864865
 10
-5.3462171
 20
23.0262954947
 10
-5.3397605005
 20
23.0282198087
 10
-5.3326240598
 20
23.0298500364
 10
-5.3247833203
 20
23.0311955699
 10
-5.316238282
 20
23.0322564092
  0
LWPOLYLINE
  5
3A7
100
AcDbEntity
  8
RACCORDO
100
AcDbPolyline
 62
250
  6
CONTINUOUS
 90
5
 70
0
 10
-4.2257092795
 20
16.3505388
 10
-4.2075263182
 20
16.3866410764
 10
-4.1820274823
 20
16.4210025644
 10
-4.1494998388
 20
16.4531211878
 10
-4.1096563206
 20
16.4834990228
  0
LINE
  5
3A8
100
AcDbEntity
  8
0
100
AcDbLine
 62
250
  6
CONTINUOUS
 10
-9.2315108704
 20
9.847014575
 11
-9.3585246571
 21
9.7398351527
  0
LWPOLYLINE
  5
3A9
100
AcDbEntity
  8
0
100
AcDbPolyline
 62
7
  6
CONTINUOUS
 90
5
 70
0
 10
6.225883322
 20
18.4928941242
 10
6.2427603482
 20
18.5047759958
 10
6.2555905574
 20
18.5134973733
 10
6.2641221803
 20
18.5190481155
 10
6.2679831295
 20
18.5215084185
  0
LINE
  5
3AA
100
AcDbEntity
  8
RACCORDO
100
AcDbLine
 62
250
  6
CONTINUOUS
 10
4.9710605578
 20
15.1256067591
 11
5.0144208381
 21
15.149000625
  0
LINE
  5
3AB
100
AcDbEntity
  8
0
100
AcDbLine
 62
7
  6
CONTINUOUS
 10
-1.1727419582
 20
14.6804414113
 11
-0.7729347499
 21
14.8925709619
  0
LWPOLYLINE
  5
3AC
100
AcDbEntity
  8
RACCORDO
100
AcDbPolyline
 62
250
  6
CONTINUOUS
 90
7
 70
0
 10
-20.4869920714
 20
4.8009617267
 10
-20.4829272074
 20
4.8030026969
 10
-20.4567823062
 20
4.8219510839
 10
-20.4354786817
 20
4.8484881447
 10
-20.4196635428
 20
4.8818076752
 10
-20.4098173567
 20
4.9208974188
 10
-20.4062392523
 20
4.9645698185
  0
LINE
  5
3AD
100
AcDbEntity
  8
RACCORDO
100
AcDbLine
 62
7
  6
CONTINUOUS
 10
4.92707796
 20
15.1556884082
 11
4.9229113861
 21
15.1536047703
  0
LINE
  5
3AE
100
AcDbEntity
  8
0
100
AcDbLine
 62
7
  6
CONTINUOUS
 10
10.3078821109
 20
20.3032259764
 11
10.2029429324
 21
20.2507563872
  0
LINE
  5
3AF
100
AcDbEntity
  8
DRAFT
100
AcDbLine
 62
7
  6
CONTINUOUS
 10
7.0679590883
 20
17.7121707536
 11
8.8686314326
 21
18.602282101
  0
LINE
  5
3B0
100
AcDbEntity
  8
RACCORDO
100
AcDbLine
 62
7
  6
CONTINUOUS
 10
-11.8932832706
 20
8.8996721374
 11
-20.4869920723
 21
4.8009617263
  0
LWPOLYLINE
  5
3B1
100
AcDbEntity
  8
RACCORDO
100
AcDbPolyline
 62
250
  6
CONTINUOUS
 90
4
 70
0
 10
-11.8133914362
 20
9.0628695883
 10
-20.4476323651
 20
4.9449568537
 10
-20.4918045957
 20
4.9261523697
 10
-20.538755944
 20
4.9081563664
  0
LINE
  5
3B2
100
AcDbEntity
  8
RACCORDO
100
AcDbLine
 62
7
  6
CONTINUOUS
 10
5.6897968593
 20
15.5079376249
 11
4.9271782457
 21
15.1557350768
  0
LINE
  5
3B3
100
AcDbEntity
  8
RACCORDO
100
AcDbLine
 62
250
  6
CONTINUOUS
 10
5.7761207443
 20
15.5007788836
 11
5.0144208381
 21
15.149000625
  0
LINE
  5
3B4
100
AcDbEntity
  8
RACCORDO
100
AcDbLine
 62
250
  6
CONTINUOUS
 10
5.800034197
 20
15.51063483
 11
5.7761207443
 21
15.5007788836
  0
LINE
  5
3B5
100
AcDbEntity
  8
RACCORDO
100
AcDbLine
 62
7
  6
CONTINUOUS
 10
5.7002315673
 20
15.5121025517
 11
5.6890926218
 21
15.5076105818
  0
LWPOLYLINE
  5
3B6
100
AcDbEntity
  8
RACCORDO
100
AcDbPolyline
 62
250
  6
CONTINUOUS
 90
3
 70
0
 10
-20.538755944
 20
4.9081563664
 10
-20.5887536504
 20
4.8905555673
 10
-20.6415304744
 20
4.873763249
  0
LWPOLYLINE
  5
3B7
100
AcDbEntity
  8
ASSI
100
AcDbPolyline
 62
7
  6
CONTINUOUS
 90
20
 70
0
 10
4.5930913765
 20
15.3145913497
 10
4.6070049827
 20
15.3193358455
 10
4.6393357038
 20
15.3286569474
 10
4.6731485533
 20
15.3367986524
 10
4.70788149
 20
15.3436256283
 10
4.743549893
 20
15.3491158995
 10
4.7801383834
 20
15.3532914416
 10
4.8170387829
 20
15.3560828482
 10
4.8542563052
 20
15.3574669837
 10
4.8917857367
 20
15.3574669837
 10
4.929003259
 20
15.3560828482
 10
4.9659036586
 20
15.3532914416
 10
5.0024921489
 20
15.3491158995
 10
5.038160552
 20
15.3436256283
 10
5.0728934887
 20
15.3367986524
 10
5.1067063381
 20
15.3286569474
 10
5.1390370592
 20
15.3193358455
 10
5.169698305
 20
15.3088804575
 10
5.1988774225
 20
15.2972456727
 10
5.2162177128
 20
15.2892230811
  0
LINE
  5
3B8
100
AcDbEntity
  8
0
100
AcDbLine
 62
7
  6
CONTINUOUS
 10
-0.0671820106
 20
-13.2882089695
 11
-0.952488311
 21
-13.524557265
  0
LINE
  5
3B9
100
AcDbEntity
  8
0
100
AcDbLine
 62
250
  6
CONTINUOUS
 10
-7.7744197112
 20
-14.6568056139
 11
-7.6294793431
 21
-14.619299372
  0
LINE
  5
3BA
100
AcDbEntity
  8
0
100
AcDbLine
 62
7
  6
CONTINUOUS
 10
-7.7061152703
 20
-14.5893054745
 11
-7.9202672299
 21
-14.6423028256
  0
LINE
  5
3BB
100
AcDbEntity
  8
0
100
AcDbLine
 62
7
  6
CONTINUOUS
 10
-3.275277852
 20
-13.8479823722
 11
-4.2474962546
 21
-14.0581536832
  0
LWPOLYLINE
  5
3BC
100
AcDbEntity
  8
0
100
AcDbPolyline
 62
7
  6
CONTINUOUS
 90
9
 70
0
 10
-3.275277852
 20
-13.8479823722
 10
-3.2680867296
 20
-13.8464672929
 10
-3.260869683
 20
-13.845012665
 10
-3.2536267124
 20
-13.8436184886
 10
-3.2464077948
 20
-13.8422934868
 10
-3.2391629531
 20
-13.8410289365
 10
-3.2317422556
 20
-13.8397986679
 10
-3.224095725
 20
-13.8385939576
 10
-3.2162733386
 20
-13.8374235289
  0
LWPOLYLINE
  5
3BD
100
AcDbEntity
  8
0
100
AcDbPolyline
 62
250
  6
CONTINUOUS
 90
9
 70
0
 10
-6.5602729032
 20
-15.0558468028
 10
-6.706898406
 20
-15.0852316934
 10
-6.8552652973
 20
-15.1263794997
 10
-7.0048380807
 20
-15.1790147332
 10
-7.1562180681
 20
-15.2433740017
 10
-7.3077378601
 20
-15.3188348974
 10
-7.4554646927
 20
-15.4031036237
 10
-7.5983446966
 20
-15.4948357411
 10
-7.7365769325
 20
-15.5934302729
  0
LINE
  5
3BE
100
AcDbEntity
  8
0
100
AcDbLine
 62
250
  6
CONTINUOUS
 10
-7.6294793431
 20
-14.619299372
 11
-7.4865486158
 21
-14.5927089465
  0
LINE
  5
3BF
100
AcDbEntity
  8
0
100
AcDbLine
 62
7
  6
CONTINUOUS
 10
-7.60693812
 20
-14.5720918041
 11
-7.7061152703
 21
-14.5893054745
  0
LWPOLYLINE
  5
3C0
100
AcDbEntity
  8
0
100
AcDbPolyline
 62
7
  6
CONTINUOUS
 90
18
 70
0
 10
-7.83365572
 20
-14.5858320483
 10
-7.93835698
 20
-14.6033229484
 10
-8.0437933164
 20
-14.626908847
 10
-8.149964729
 20
-14.6565897441
 10
-8.2570772896
 20
-14.6924458723
 10
-8.3649249264
 20
-14.734396999
 10
-8.4728894247
 20
-14.782202426
 10
-8.5809716769
 20
-14.8358957497
 10
-8.6891707906
 20
-14.8954433736
 10
-8.7968658737
 20
-14.9605038102
 10
-8.9040538018
 20
-15.0311084305
 10
-9.0107376994
 20
-15.1072258634
 10
-9.1163060475
 20
-15.1884205077
 10
-9.220753342
 20
-15.2747223054
 10
-9.324085087
 20
-15.3661013146
 10
-9.4257062766
 20
-15.4620321084
 10
-9.5256068741
 20
-15.562540945
 10
-9.6237969161
 20
-15.6676015663
  0
LINE
  5
3C1
100
AcDbEntity
  8
0
100
AcDbLine
 62
7
  6
CONTINUOUS
 10
0.812912296
 20
-13.2675466769
 11
-0.1282867799
 21
-13.4159433336
  0
LINE
  5
3C2
100
AcDbEntity
  8
0
100
AcDbLine
 62
7
  6
CONTINUOUS
 10
-0.1282867799
 20
-13.4159433336
 11
-1.1540974945
 21
-13.5769936354
  0
LINE
  5
3C3
100
AcDbEntity
  8
0
100
AcDbLine
 62
7
  6
CONTINUOUS
 10
-1.1540974945
 20
-13.5769936354
 11
-2.1640002194
 21
-13.7348403897
  0
LINE
  5
3C4
100
AcDbEntity
  8
0
100
AcDbLine
 62
250
  6
CONTINUOUS
 10
-2.6652774771
 20
-13.8522665407
 11
0.9334848293
 21
-13.2881421069
  0
LINE
  5
3C5
100
AcDbEntity
  8
0
100
AcDbLine
 62
7
  6
CONTINUOUS
 10
-2.1640002194
 20
-13.7348403897
 11
-3.2662514556
 21
-13.906268423
  0
LINE
  5
3C6
100
AcDbEntity
  8
0
100
AcDbLine
 62
7
  6
CONTINUOUS
 10
-3.2662514556
 20
-13.906268423
 11
-4.719343771
 21
-14.1308715751
  0
LWPOLYLINE
  5
3C7
100
AcDbEntity
  8
0
100
AcDbPolyline
 62
7
  6
CONTINUOUS
 90
3
 70
0
 10
-4.719343771
 20
-14.1308715751
 10
-6.0074219756
 20
-14.3286800508
 10
-6.881196305
 20
-14.4619629326
  0
LINE
  5
3C8
100
AcDbEntity
  8
0
100
AcDbLine
 62
250
  6
CONTINUOUS
 10
-5.7420139506
 20
-14.3271068399
 11
-2.6652774771
 21
-13.8522665407
  0
LWPOLYLINE
  5
3C9
100
AcDbEntity
  8
0
100
AcDbPolyline
 62
250
  6
CONTINUOUS
 90
3
 70
0
 10
-7.4865442913
 20
-14.5927111088
 10
-6.8897237877
 20
-14.5021140349
 10
-5.7420139506
 20
-14.3271068399
  0
LINE
  5
3CA
100
AcDbEntity
  8
0
100
AcDbLine
 62
7
  6
CONTINUOUS
 10
-6.881196305
 20
-14.4619629326
 11
-7.6073262365
 21
-14.5721528792
  0
LINE
  5
3CB
100
AcDbEntity
  8
0
100
AcDbLine
 62
7
  6
CONTINUOUS
 10
0.8129768304
 20
-13.267560346
 11
0.8165825978
 21
-13.2670276423
  0
LWPOLYLINE
  5
3CC
100
AcDbEntity
  8
0
100
AcDbPolyline
 62
7
  6
CONTINUOUS
 90
7
 70
0
 10
-0.9723163178
 20
-13.5284427659
 10
-0.968663498
 20
-13.527902939
 10
-0.9651499391
 20
-13.5273200095
 10
-0.9617756409
 20
-13.5266939773
 10
-0.9585406035
 20
-13.5260248425
 10
-0.9554448269
 20
-13.525312605
 10
-0.952488311
 20
-13.524557265
  0
LINE
  5
3CD
100
AcDbEntity
  8
0
100
AcDbLine
 62
7
  6
CONTINUOUS
 10
-7.83365572
 20
-14.5858320483
 11
-6.3922615238
 21
-14.3873823064
  0
LINE
  5
3CE
100
AcDbEntity
  8
0
100
AcDbLine
 62
250
  6
CONTINUOUS
 10
0.9334850112
 20
-13.2881398501
 11
1.1545396794
 21
-13.2577052598
  0
LINE
  5
3CF
100
AcDbEntity
  8
0
100
AcDbLine
 62
7
  6
CONTINUOUS
 10
-0.9723163178
 20
-13.5284427659
 11
-3.2162733386
 21
-13.8374235289
  0
LINE
  5
3D0
100
AcDbEntity
  8
0
100
AcDbLine
 62
7
  6
CONTINUOUS
 10
0.8165856712
 20
-13.2670272192
 11
1.1545396794
 21
-13.2204980421
  0
LWPOLYLINE
  5
3D1
100
AcDbEntity
  8
0
100
AcDbPolyline
 62
250
  6
CONTINUOUS
 90
6
 70
0
 10
-7.6069165999
 20
-14.5720912996
 10
-7.6004103586
 20
-14.5712376655
 10
-7.5719440515
 20
-14.5701948223
 10
-7.5432725001
 20
-14.5734666737
 10
-7.5147415737
 20
-14.5810113464
 10
-7.4867002631
 20
-14.5927347382
  0
LWPOLYLINE
  5
3D2
100
AcDbEntity
  8
0
100
AcDbPolyline
 62
250
  6
CONTINUOUS
 90
4
 70
0
 10
0.8165825978
 20
-13.2670276423
 10
0.8455604768
 20
-13.2653312626
 10
0.8902700329
 20
-13.2714870888
 10
0.9341912574
 20
-13.2880426148
  0
LINE
  5
3D3
100
AcDbEntity
  8
RACCORDO
100
AcDbLine
 62
250
  6
CONTINUOUS
 10
-22.3837355031
 20
-2.8523409075
 11
-23.8200539588
 21
-2.1341816797
  0
LINE
  5
3D4
100
AcDbEntity
  8
0
100
AcDbLine
 62
7
  6
CONTINUOUS
 10
0.9334850112
 20
-13.2881398501
 11
1.1545396794
 21
-13.3986671842
  0
LINE
  5
3D5
100
AcDbEntity
  8
0
100
AcDbLine
 62
250
  6
CONTINUOUS
 10
0.5837154021
 20
-12.7642593237
 11
1.1545396794
 21
-13.0496714624
  0
LWPOLYLINE
  5
3D6
100
AcDbEntity
  8
DRAFT
100
AcDbPolyline
 62
7
  6
CONTINUOUS
 90
17
 70
0
 10
-3.2703610431
 20
-13.8416782663
 10
-3.48438256
 20
-13.6747548517
 10
-4.1695595154
 20
-13.0931488553
 10
-4.8454502959
 20
-12.4718333408
 10
-5.5064862933
 20
-11.8159273208
 10
-6.1525445102
 20
-11.1251453544
 10
-6.7837479441
 20
-10.3997728825
 10
-7.3948969798
 20
-9.6457852415
 10
-7.985826301
 20
-8.862945556
 10
-8.5567012239
 20
-8.0514907014
 10
-9.1028180822
 20
-7.2181066402
 10
-9.6239719909
 20
-6.3626127577
 10
-10.120367835
 20
-5.4851896686
 10
-10.5879166028
 20
-4.5930651791
 10
-11.0252552903
 20
-3.6886485582
 10
-11.4337469014
 20
-2.769530537
 10
-11.8133914362
 20
-1.8357111155
  0
LWPOLYLINE
  5
3D7
100
AcDbEntity
  8
RACCORDO
100
AcDbPolyline
 62
250
  6
CONTINUOUS
 90
6
 70
0
 10
-19.6650603197
 20
13.3742341398
 10
-19.6397080095
 20
13.3165455579
 10
-19.6089926102
 20
13.2626885176
 10
-19.5734160785
 20
13.2135430684
 10
-19.5335598077
 20
13.1699122646
 10
-19.4900751061
 20
13.1325090213
  0
LWPOLYLINE
  5
3D8
100
AcDbEntity
  8
RACCORDO
100
AcDbPolyline
 62
250
  6
CONTINUOUS
 90
12
 70
0
 10
-19.7918454817
 20
13.3649836898
 10
-19.767095789
 20
13.3051498158
 10
-19.7367268043
 20
13.2490552657
 10
-19.7012580125
 20
13.1976595796
 10
-19.6612961342
 20
13.1518419199
 10
-19.6175247479
 20
13.1123860326
 10
-19.5706925965
 20
13.0799668408
 10
-19.5216007797
 20
13.0551388996
 10
-19.4710890506
 20
13.0383269097
 10
-19.4200214507
 20
13.0298184531
 10
-19.3692715304
 20
13.0297590734
 10
-19.3286415852
 20
13.0359891176
  0
LWPOLYLINE
  5
3D9
100
AcDbEntity
  8
RACCORDO
100
AcDbPolyline
 62
250
  6
CONTINUOUS
 90
13
 70
0
 10
-5.2352756959
 20
-24.2751463753
 10
-5.2572647595
 20
-24.2139321867
 10
-5.2728350291
 20
-24.1504382791
 10
-5.2817201633
 20
-24.0857507641
 10
-5.2837681752
 20
-24.0209761712
 10
-5.2789440319
 20
-23.9572225192
 10
-5.2673302542
 20
-23.8955803628
 10
-5.2491255044
 20
-23.8371041383
 10
-5.2246411887
 20
-23.782794126
 10
-5.1942961301
 20
-23.7335793402
 10
-5.1586094038
 20
-23.6903016372
 10
-5.1181914587
 20
-23.6537013153
 10
-5.0737336743
 20
-23.6244044509
  0
LWPOLYLINE
  5
3DA
100
AcDbEntity
  8
RACCORDO
100
AcDbPolyline
 62
250
  6
CONTINUOUS
 90
13
 70
0
 10
-5.3596540729
 20
-24.2831934328
 10
-5.3792289497
 20
-24.2226160565
 10
-5.3927064597
 20
-24.1601400135
 10
-5.3998664137
 20
-24.096786239
 10
-5.400591861
 20
-24.0335900093
 10
-5.3948709984
 20
-23.9715839895
 10
-5.3827973504
 20
-23.9117813619
 10
-5.364568249
 20
-23.8551593346
 10
-5.3404816052
 20
-23.8026431203
 10
-5.3109310154
 20
-23.7550907989
 10
-5.2763993598
 20
-23.7132793722
 10
-5.237450928
 20
-23.6778920547
 10
-5.1947221705
 20
-23.6495070694
  0
LWPOLYLINE
  5
3DB
100
AcDbEntity
  8
0
100
AcDbPolyline
 62
7
  6
CONTINUOUS
 90
9
 70
0
 10
-10.7975142388
 20
10.4550842584
 10
-10.8018117339
 20
10.4983801725
 10
-10.8012849024
 20
10.5744031981
 10
-10.78960442
 20
10.6458124159
 10
-10.7674610749
 20
10.7116296011
 10
-10.7366536272
 20
10.7693720845
 10
-10.6975291571
 20
10.8180068939
 10
-10.6507434553
 20
10.8577785909
 10
-10.6446407548
 20
10.8613292404
  0
LWPOLYLINE
  5
3DC
100
AcDbEntity
  8
ASSI
100
AcDbPolyline
 62
7
  6
CONTINUOUS
 90
19
 70
0
 10
-8.4249831016
 20
5.3219761485
 10
-8.4139433275
 20
5.0584619934
 10
-8.3809449594
 20
4.7867951804
 10
-8.3263495343
 20
4.509952148
 10
-8.2507552111
 20
4.2309660464
 10
-8.154990217
 20
3.9528935058
 10
-8.0401037733
 20
3.678781147
 10
-7.9073545999
 20
3.4116322025
 10
-7.7581971246
 20
3.154373612
 10
-7.5942655479
 20
2.9098239544
 10
-7.4173559384
 20
2.6806625669
 10
-7.2294065549
 20
2.4694001897
 10
-7.0324766101
 20
2.2783514576
 10
-6.8287237097
 20
2.1096095405
 10
-6.6203802131
 20
1.9650232101
 10
-6.4097287752
 20
1.8461765845
 10
-6.1990773374
 20
1.7543717723
 10
-5.9907338408
 20
1.6906146061
 10
-5.9678333519
 20
1.685296697
  0
LWPOLYLINE
  5
3DD
100
AcDbEntity
  8
RACCORDO
100
AcDbPolyline
 62
250
  6
CONTINUOUS
 90
8
 70
0
 10
-8.5911877079
 20
22.8259824629
 10
-8.5911013469
 20
22.8210137225
 10
-8.593975084
 20
22.8060117985
 10
-8.600070086
 20
22.7912851933
 10
-8.6093041027
 20
22.776819289
 10
-8.6214334117
 20
22.7630460183
 10
-8.6363767723
 20
22.7501093589
 10
-8.6542154253
 20
22.7378653331
  0
LINE
  5
3DE
100
AcDbEntity
  8
DRAFT
100
AcDbLine
 62
7
  6
CONTINUOUS
 10
-10.4477696967
 20
27.2475037909
 11
-10.4477696967
 21
26.8796338694
  0
LINE
  5
3DF
100
AcDbEntity
  8
RACCORDO
100
AcDbLine
 62
7
  6
CONTINUOUS
 10
-9.8482540278
 20
18.8233087732
 11
-9.8482540282
 21
18.470458401
  0
LINE
  5
3E0
100
AcDbEntity
  8
0
100
AcDbLine
 62
250
  6
CONTINUOUS
 10
-9.574742367
 20
26.2110961007
 11
-9.574742367
 21
25.7905348987
  0
LINE
  5
3E1
100
AcDbEntity
  8
0
100
AcDbLine
 62
7
  6
CONTINUOUS
 10
-9.5166019762
 20
20.4068428305
 11
-9.5166019762
 21
20.6666504517
  0
LINE
  5
3E2
100
AcDbEntity
  8
ASSI
100
AcDbLine
 62
7
  6
CONTINUOUS
 10
-9.2881341666
 20
25.8201468251
 11
-9.2881341666
 21
26.2963462224
  0
LINE
  5
3E3
100
AcDbEntity
  8
0
100
AcDbLine
 62
7
  6
CONTINUOUS
 10
-9.2337592637
 20
20.5482641868
 11
-9.2337592637
 21
20.8080718079
  0
LINE
  5
3E4
100
AcDbEntity
  8
0
100
AcDbLine
 62
250
  6
CONTINUOUS
 10
-9.0216272293
 20
21.1739454462
 11
-9.0216272293
 21
21.5203556077
  0
LINE
  5
3E5
100
AcDbEntity
  8
0
100
AcDbLine
 62
250
  6
CONTINUOUS
 10
-8.6580590967
 20
21.3557295125
 11
-8.6580590967
 21
21.702139674
  0
LINE
  5
3E6
100
AcDbEntity
  8
RACCORDO
100
AcDbLine
 62
250
  6
CONTINUOUS
 10
-8.4512280369
 20
18.5333229232
 11
-8.4512280369
 21
18.1824497673
  0
LINE
  5
3E7
100
AcDbEntity
  8
RACCORDO
100
AcDbLine
 62
7
  6
CONTINUOUS
 10
-8.3932194537
 20
22.6530114295
 11
-8.3932194537
 21
22.3989426403
  0
LINE
  5
3E8
100
AcDbEntity
  8
RACCORDO
100
AcDbLine
 62
250
  6
CONTINUOUS
 10
-8.5334157248
 20
22.4825017117
 11
-8.5334265267
 21
22.3846336296
  0
LINE
  5
3E9
100
AcDbEntity
  8
RACCORDO
100
AcDbLine
 62
250
  6
CONTINUOUS
 10
-8.5335378751
 20
21.3757833158
 11
-8.5335495535
 21
21.2699733864
  0
LWPOLYLINE
  5
3EA
100
AcDbEntity
  8
RACCORDO
100
AcDbPolyline
 62
250
  6
CONTINUOUS
 90
27
 70
0
 10
-9.1630485856
 20
5.2711414581
 10
-9.1549134236
 20
5.501294627
 10
-9.1319841796
 20
5.7194338573
 10
-9.0942608535
 20
5.9255591491
 10
-9.0412115195
 20
6.1208977966
 10
-8.9733681035
 20
6.3042225056
 10
-8.8923263827
 20
6.471851393
 10
-8.79789893
 20
6.6233064066
 10
-8.6902731726
 20
6.7590655987
 10
-8.5716071688
 20
6.876881243
 10
-8.4417503234
 20
6.9764564237
 10
-8.3008532315
 20
7.0580880566
 10
-8.1515257371
 20
7.120419164
 10
-7.9936282381
 20
7.1631544274
 10
-7.8273003364
 20
7.1865891652
 10
-7.6555706822
 20
7.1902523547
 10
-7.4782557787
 20
7.173770663
 10
-7.2955391227
 20
7.1375174229
 10
-7.1109998537
 20
7.0821416101
 10
-6.9246216684
 20
7.007256302
 10
-6.7364208702
 20
6.9132484212
 10
-6.5500255093
 20
6.8019277111
 10
-6.3654497119
 20
6.6729211581
 10
-6.1826793517
 20
6.5266017757
 10
-6.0053001008
 20
6.3658983485
 10
-5.8335001373
 20
6.1906275457
 10
-5.667091283
 20
6.000972698
  0
LWPOLYLINE
  5
3EB
100
AcDbEntity
  8
0
100
AcDbPolyline
 62
7
  6
CONTINUOUS
 90
19
 70
0
 10
-9.5166019762
 20
20.6666504517
 10
-9.5146002833
 20
20.7211395922
 10
-9.5089783315
 20
20.776250804
 10
-9.4997361207
 20
20.831984087
 10
-9.486748843
 20
20.8887708767
 10
-9.4701413064
 20
20.9461797375
 10
-9.4502879343
 20
21.0029163639
 10
-9.4271149941
 20
21.0589654852
 10
-9.4006962185
 20
21.114342372
 10
-9.3716272293
 20
21.1677985301
 10
-9.3398478241
 20
21.219290328
 10
-9.3054182054
 20
21.2688613974
 10
-9.2691146028
 20
21.3153941384
 10
-9.2308944465
 20
21.3588195321
 10
-9.1908003063
 20
21.3992065975
 10
-9.1497361207
 20
21.435644792
 10
-9.1080032024
 20
21.4678306015
 10
-9.0653002386
 20
21.4960675401
 10
-9.0216272293
 20
21.5203556077
  0
LINE
  5
3EC
100
AcDbEntity
  8
RACCORDO
100
AcDbLine
 62
7
  6
CONTINUOUS
 10
-8.4559418044
 20
5.2711414581
 11
-8.4479369998
 21
5.4810744656
  0
LWPOLYLINE
  5
3ED
100
AcDbEntity
  8
ASSI
100
AcDbPolyline
 62
7
  6
CONTINUOUS
 90
3
 70
0
 10
-8.24380977
 20
5.6600501877
 10
-8.2346591741
 20
5.8999928056
 10
-8.2089588229
 20
6.1262294226
  0
LWPOLYLINE
  5
3EE
100
AcDbEntity
  8
ASSI
100
AcDbPolyline
 62
7
  6
CONTINUOUS
 90
3
 70
0
 10
-8.4249831016
 20
5.3219761485
 10
-8.4139433275
 20
5.5744505296
 10
-8.3809449594
 20
5.8131189745
  0
LWPOLYLINE
  5
3EF
100
AcDbEntity
  8
0
100
AcDbPolyline
 62
7
  6
CONTINUOUS
 90
16
 70
0
 10
-9.2337592637
 20
20.8080718079
 10
-9.2324927314
 20
20.8363399366
 10
-9.2290319045
 20
20.8648320068
 10
-9.2233767829
 20
20.8935480185
 10
-9.215418128
 20
20.9228051679
 10
-9.2052651783
 20
20.9522862588
 10
-9.1932456502
 20
20.9810397028
 10
-9.1792986389
 20
21.0090417576
 10
-9.1634850491
 20
21.0363161654
 10
-9.1463153107
 20
21.0619825652
 10
-9.1277451738
 20
21.0859884891
 10
-9.1078188882
 20
21.1083864049
 10
-9.087179633
 20
21.1284533543
 10
-9.0660418013
 20
21.1459483513
 10
-9.0441910001
 20
21.1611123819
 10
-9.0216272293
 20
21.1739454462
  0
LWPOLYLINE
  5
3F0
100
AcDbEntity
  8
RACCORDO
100
AcDbPolyline
 62
250
  6
CONTINUOUS
 90
9
 70
0
 10
-8.3932200415
 20
22.6525953729
 10
-8.3936824489
 20
22.642359287
 10
-8.3985758359
 20
22.6169795445
 10
-8.4087551544
 20
22.5920290105
 10
-8.4241098955
 20
22.5677714893
 10
-8.4444878686
 20
22.5444431498
 10
-8.4696837282
 20
22.5222908379
 10
-8.4994305808
 20
22.5015676735
 10
-8.5334157513
 20
22.482502922
  0
LWPOLYLINE
  5
3F1
100
AcDbEntity
  8
RACCORDO
100
AcDbPolyline
 62
7
  6
CONTINUOUS
 90
5
 70
0
 10
-8.4479369998
 20
5.4810744656
 10
-8.4254525222
 20
5.6790179502
 10
-8.3884883715
 20
5.8649719119
 10
-8.3365457999
 20
6.0401630115
 10
-8.2701235552
 20
6.2033645882
  0
LINE
  5
3F2
100
AcDbEntity
  8
ASSI
100
AcDbLine
 62
7
  6
CONTINUOUS
 10
-8.2089588229
 20
6.1262294226
 11
-8.1667087163
 21
6.3387600386
  0
LINE
  5
3F3
100
AcDbEntity
  8
RACCORDO
100
AcDbLine
 62
250
  6
CONTINUOUS
 10
-5.316238282
 20
23.0322564092
 11
-5.3329233154
 21
22.961021709
  0
LINE
  5
3F4
100
AcDbEntity
  8
ASSI
100
AcDbLine
 62
7
  6
CONTINUOUS
 10
-8.3809449594
 20
5.8131189745
 11
-8.3263495343
 21
6.0353665818
  0
LINE
  5
3F5
100
AcDbEntity
  8
ASSI
100
AcDbLine
 62
7
  6
CONTINUOUS
 10
-8.1667087163
 20
6.3387600386
 11
-8.1430589798
 21
6.4185186258
  0
LINE
  5
3F6
100
AcDbEntity
  8
ASSI
100
AcDbLine
 62
7
  6
CONTINUOUS
 10
-8.3263495343
 20
6.0353665818
 11
-8.2478333519
 21
6.245296697
  0
LINE
  5
3F7
100
AcDbEntity
  8
RACCORDO
100
AcDbLine
 62
7
  6
CONTINUOUS
 10
-8.2701235552
 20
6.2033645882
 11
-8.1907178809
 21
6.3508966594
  0
LWPOLYLINE
  5
3F8
100
AcDbEntity
  8
COPY-PUBBLISH
100
AcDbPolyline
 62
7
  6
CONTINUOUS
 90
9
 70
0
 10
-7.1493863321
 20
6.846440574
 10
-7.1911325985
 20
6.7716591839
 10
-7.2445698812
 20
6.6540763806
 10
-7.290096856
 20
6.5285245793
 10
-7.3278134231
 20
6.3951048743
 10
-7.3572383115
 20
6.2555194953
 10
-7.3782110973
 20
6.1103358522
 10
-7.3908922043
 20
5.9589865351
 10
-7.3952816326
 20
5.801471544
  0
LWPOLYLINE
  5
3F9
100
AcDbEntity
  8
RACCORDO
100
AcDbPolyline
 62
7
  6
CONTINUOUS
 90
3
 70
0
 10
-8.1907178809
 20
6.3508966594
 10
-8.0980339285
 20
6.4824034916
 10
-7.9923665465
 20
6.5982408182
  0
LINE
  5
3FA
100
AcDbEntity
  8
RACCORDO
100
AcDbLine
 62
7
  6
CONTINUOUS
 10
-7.9923665465
 20
6.5982408182
 11
-7.8760965245
 21
6.6957958576
  0
LWPOLYLINE
  5
3FB
100
AcDbEntity
  8
RACCORDO
100
AcDbPolyline
 62
7
  6
CONTINUOUS
 90
3
 70
0
 10
-7.8760965245
 20
6.6957958576
 10
-7.7489828094
 20
6.7746536187
 10
-7.725035966
 20
6.7868721118
  0
LWPOLYLINE
  5
3FC
100
AcDbEntity
  8
RACCORDO
100
AcDbPolyline
 62
250
  6
CONTINUOUS
 90
40
 70
0
 10
-20.6183596553
 20
0.1791712453
 10
-20.668629903
 20
0.1529974603
 10
-20.7216741202
 20
0.1235093265
 10
-20.7774320768
 20
0.090433069
 10
-20.835842657
 20
0.0534810704
 10
-20.8967947652
 20
0.012379921
 10
-20.9601260734
 20
-0.0331213247
 10
-21.0259310994
 20
-0.0834782651
 10
-21.093811781
 20
-0.138795277
 10
-21.16285436
 20
-0.1986884716
 10
-21.2328112487
 20
-0.2632490921
 10
-21.3035421832
 20
-0.3326669828
 10
-21.3743141469
 20
-0.4065221276
 10
-21.4449199449
 20
-0.4848531185
 10
-21.5151274146
 20
-0.5676673348
 10
-21.5842099587
 20
-0.6543387175
 10
-21.651955402
 20
-0.744775065
 10
-21.7181533138
 20
-0.8388753684
 10
-21.7821568278
 20
-0.9358591432
 10
-21.8438023436
 20
-1.0355532667
 10
-21.9029148314
 20
-1.1377499746
 10
-21.9589408591
 20
-1.2415076699
 10
-22.0117974005
 20
-1.3466099106
 10
-22.0613808394
 20
-1.452779576
 10
-22.1072541904
 20
-1.5589134181
 10
-22.1494268396
 20
-1.6647566336
 10
-22.1879167916
 20
-1.7700530421
 10
-22.2224731501
 20
-1.8736746
 10
-22.2532164118
 20
-1.9753940836
 10
-22.2802824325
 20
-2.0750170011
 10
-22.30361829
 20
-2.1714901537
 10
-22.3234473256
 20
-2.2646649331
 10
-22.3400015794
 20
-2.3544367511
 10
-22.3533984235
 20
-2.4398791364
 10
-22.3639357057
 20
-2.5209508931
 10
-22.3719062408
 20
-2.5976398691
 10
-22.3775478349
 20
-2.6691396826
 10
-22.3811835518
 20
-2.7352352215
 10
-22.3831482254
 20
-2.7962736982
 10
-22.3837355031
 20
-2.8523409075
  0
LINE
  5
3FD
100
AcDbEntity
  8
0
100
AcDbLine
 62
7
  6
CONTINUOUS
 10
5.1552261517
 20
12.3390186545
 11
4.3426909351
 21
11.9227249647
  0
LWPOLYLINE
  5
3FE
100
AcDbEntity
  8
RACCORDO
100
AcDbPolyline
 62
250
  6
CONTINUOUS
 90
40
 70
0
 10
-20.4062392523
 20
-0.1866823319
 10
-20.4506437687
 20
-0.2092793329
 10
-20.497360398
 20
-0.2352785908
 10
-20.5463891401
 20
-0.2646801054
 10
-20.5978470529
 20
-0.2972493338
 10
-20.6516170785
 20
-0.3332208191
 10
-20.7073480431
 20
-0.3732981904
 10
-20.7652914836
 20
-0.4177073288
 10
-20.825195863
 20
-0.4662223533
 10
-20.8859553962
 20
-0.5188692496
 10
-20.9475373609
 20
-0.575730768
 10
-21.0099744793
 20
-0.6367241582
 10
-21.0722591331
 20
-0.7016271549
 10
-21.1343942841
 20
-0.7705699357
 10
-21.1963769704
 20
-0.8434223229
 10
-21.2571906886
 20
-0.9195715187
 10
-21.3167973062
 20
-0.9991250352
 10
-21.3752349557
 20
-1.0819753603
 10
-21.4316015307
 20
-1.1671871592
 10
-21.4858348876
 20
-1.2548516271
 10
-21.53799717
 20
-1.3448775687
 10
-21.5873727022
 20
-1.4360560643
 10
-21.6338739396
 20
-1.5284534779
 10
-21.6775884268
 20
-1.6220034455
 10
-21.7180631217
 20
-1.715297955
 10
-21.7551791019
 20
-1.8083339288
 10
-21.7890552898
 20
-1.9011144446
 10
-21.81959541
 20
-1.9922407228
 10
-21.8466790421
 20
-2.0816535617
 10
-21.8704266064
 20
-2.1694121631
 10
-21.8911030889
 20
-2.2542953526
 10
-21.9086096805
 20
-2.336212567
 10
-21.9230451903
 20
-2.4152543696
 10
-21.9349710309
 20
-2.4904712762
 10
-21.9443240207
 20
-2.5617729084
 10
-21.9511673414
 20
-2.6292496446
 10
-21.9562519505
 20
-2.692223136
 10
-21.9598281674
 20
-2.7504672662
 10
-21.9616456727
 20
-2.8042081517
 10
-21.9617044666
 20
-2.8534457923
  0
LINE
  5
3FF
100
AcDbEntity
  8
RACCORDO
100
AcDbLine
 62
250
  6
CONTINUOUS
 10
-12.0255118392
 20
4.4956097557
 11
-20.6183596553
 21
0.1791712453
  0
LINE
  5
400
100
AcDbEntity
  8
RACCORDO
100
AcDbLine
 62
250
  6
CONTINUOUS
 10
-11.8133914362
 20
4.1297561785
 11
-20.4062392523
 21
-0.1866823319
  0
LINE
  5
401
100
AcDbEntity
  8
RACCORDO
100
AcDbLine
 62
250
  6
CONTINUOUS
 10
4.4374625444
 20
13.271701307
 11
4.5955718077
 21
13.3507559386
  0
LINE
  5
402
100
AcDbEntity
  8
0
100
AcDbLine
 62
7
  6
CONTINUOUS
 10
6.5347219568
 20
13.7421810147
 11
6.8982900894
 21
13.923965081
  0
LINE
  5
403
100
AcDbEntity
  8
0
100
AcDbLine
 62
7
  6
CONTINUOUS
 10
6.5347219568
 20
13.3957708532
 11
6.8982900894
 21
13.5775549195
  0
LINE
  5
404
100
AcDbEntity
  8
0
100
AcDbLine
 62
250
  6
CONTINUOUS
 10
6.3225899224
 20
13.0298972149
 11
6.0397472099
 21
12.8884758586
  0
LINE
  5
405
100
AcDbEntity
  8
0
100
AcDbLine
 62
7
  6
CONTINUOUS
 10
6.3225899224
 20
12.7700895937
 11
6.0397472099
 21
12.6286682375
  0
LINE
  5
406
100
AcDbEntity
  8
RACCORDO
100
AcDbLine
 62
7
  6
CONTINUOUS
 10
5.1552261517
 20
12.3390186545
 11
5.8905276267
 21
12.7032780291
  0
LINE
  5
407
100
AcDbEntity
  8
RACCORDO
100
AcDbLine
 62
7
  6
CONTINUOUS
 10
6.3225899224
 20
12.9173164159
 11
7.8857877168
 21
13.6917055205
  0
LINE
  5
408
100
AcDbEntity
  8
0
100
AcDbLine
 62
250
  6
CONTINUOUS
 10
-7.3935974324
 20
5.7980438347
 11
-6.2578037134
 21
6.3561145243
  0
LINE
  5
409
100
AcDbEntity
  8
0
100
AcDbLine
 62
7
  6
CONTINUOUS
 10
10.2640788822
 20
15.3939337874
 11
10.4846200555
 21
15.5006953099
  0
LINE
  5
40A
100
AcDbEntity
  8
RACCORDO
100
AcDbLine
 62
7
  6
CONTINUOUS
 10
-22.3673226116
 20
1.0536527235
 11
-13.5684358148
 21
5.2670717435
  0
LWPOLYLINE
  5
40B
100
AcDbEntity
  8
0
100
AcDbPolyline
 62
7
  6
CONTINUOUS
 90
10
 70
0
 10
6.8982900894
 20
13.923965081
 10
6.9155993907
 20
13.9322466973
 10
6.9328457072
 20
13.9397628807
 10
6.950029039
 20
13.9465136314
 10
6.9671701509
 20
13.9525053036
 10
6.9842482781
 20
13.957731543
 10
7.0012011259
 20
13.9621732862
 10
7.0180079293
 20
13.9658241787
 10
7.0346894533
 20
13.968690575
 10
7.0512456979
 20
13.9707724751
  0
LWPOLYLINE
  5
40C
100
AcDbEntity
  8
0
100
AcDbPolyline
 62
7
  6
CONTINUOUS
 90
10
 70
0
 10
6.8982900894
 20
13.5775549195
 10
6.9057083614
 20
13.5811041836
 10
6.9130996399
 20
13.5843254051
 10
6.9204639249
 20
13.5872185839
 10
6.9278101158
 20
13.5897864435
 10
6.9351293131
 20
13.5920262603
 10
6.9423948193
 20
13.5939298646
 10
6.9495977351
 20
13.5954945328
 10
6.9567469596
 20
13.5967229883
 10
6.963842493
 20
13.5976152312
  0
LINE
  5
40D
100
AcDbEntity
  8
DRAFT
100
AcDbLine
 62
7
  6
CONTINUOUS
 10
13.4113960012
 20
15.4377101483
 11
11.8380228157
 21
14.6935643611
  0
LWPOLYLINE
  5
40E
100
AcDbEntity
  8
RACCORDO
100
AcDbPolyline
 62
7
  6
CONTINUOUS
 90
12
 70
0
 10
4.4888952577
 20
13.3650409541
 10
4.4964003804
 20
13.3682964982
 10
4.503665678
 20
13.3705900551
 10
4.511218759
 20
13.3721729165
 10
4.5190563712
 20
13.3730531138
 10
4.5270892707
 20
13.3732206246
 10
4.5353196896
 20
13.3726673029
 10
4.5437453958
 20
13.3714012946
 10
4.5522704489
 20
13.3694370154
 10
4.5608628689
 20
13.3667792704
 10
4.5695546358
 20
13.3634232545
 10
4.5783457497
 20
13.3593689676
  0
LWPOLYLINE
  5
40F
100
AcDbEntity
  8
RACCORDO
100
AcDbPolyline
 62
7
  6
CONTINUOUS
 90
3
 70
0
 10
-7.5916976967
 20
6.8378219709
 10
-7.7079047596
 20
6.7953727757
 10
-7.7251604119
 20
6.7871220307
  0
LWPOLYLINE
  5
410
100
AcDbEntity
  8
RACCORDO
100
AcDbPolyline
 62
250
  6
CONTINUOUS
 90
5
 70
0
 10
5.9884628102
 20
11.444579689
 10
6.0092724888
 20
11.4521293009
 10
6.0318153582
 20
11.4538269939
 10
6.0559228999
 20
11.4498961482
 10
6.0808629017
 20
11.4404561547
  0
LINE
  5
411
100
AcDbEntity
  8
DRAFT
100
AcDbLine
 62
7
  6
CONTINUOUS
 10
-1.3787032522
 20
-11.2725596865
 11
1.1545396794
 21
-12.5391811523
  0
LINE
  5
412
100
AcDbEntity
  8
RACCORDO
100
AcDbLine
 62
250
  6
CONTINUOUS
 10
-20.6183596553
 20
0.1791712453
 11
-22.3673226116
 21
1.0536527235
  0
LWPOLYLINE
  5
413
100
AcDbEntity
  8
0
100
AcDbPolyline
 62
250
  6
CONTINUOUS
 90
10
 70
0
 10
-6.3840868878
 20
-15.3106164644
 10
-6.3939243169
 20
-15.273140072
 10
-6.406677799
 20
-15.2370064353
 10
-6.4221853062
 20
-15.202662812
 10
-6.4402470022
 20
-15.1705336711
 10
-6.4606387736
 20
-15.1410172108
 10
-6.4831152524
 20
-15.1144804568
 10
-6.5073980121
 20
-15.0912523295
 10
-6.5331788485
 20
-15.0716195453
 10
-6.5601347896
 20
-15.0558248597
  0
LWPOLYLINE
  5
414
100
AcDbEntity
  8
0
100
AcDbPolyline
 62
7
  6
CONTINUOUS
 90
8
 70
0
 10
-10.9141595757
 20
10.517652612
 10
-10.9313868702
 20
10.601785883
 10
-10.9394962769
 20
10.6830235124
 10
-10.9386536325
 20
10.7611232332
 10
-10.9287818621
 20
10.8365259914
 10
-10.9102458497
 20
10.9083810269
 10
-10.8840819462
 20
10.9743952101
 10
-10.86884259
 20
11.0016167967
  0
LWPOLYLINE
  5
415
100
AcDbEntity
  8
0
100
AcDbPolyline
 62
7
  6
CONTINUOUS
 90
4
 70
0
 10
-10.7978874914
 20
10.4553168842
 10
-10.7926911976
 20
10.4215374815
 10
-10.7731801711
 20
10.3356778455
 10
-10.7633011491
 20
10.3026579074
  0
LWPOLYLINE
  5
416
100
AcDbEntity
  8
RACCORDO
100
AcDbPolyline
 62
7
  6
CONTINUOUS
 90
3
 70
0
 10
-8.3932215042
 20
22.6526501165
 10
-8.3977145755
 20
22.7022042192
 10
-8.4061823284
 20
22.7334797732
  0
LWPOLYLINE
  5
417
100
AcDbEntity
  8
0
100
AcDbPolyline
 62
250
  6
CONTINUOUS
 90
25
 70
0
 10
-6.2410916362
 20
4.7734828685
 10
-6.2337777013
 20
4.6857935206
 10
-6.2231978112
 20
4.6017023769
 10
-6.209610065
 20
4.5213315731
 10
-6.1931264137
 20
4.4449729215
 10
-6.1741422098
 20
4.3724914916
 10
-6.1532845451
 20
4.30333084
 10
-6.1308580031
 20
4.2376611303
 10
-6.1069181117
 20
4.1753545452
 10
-6.0816126255
 20
4.1153955249
 10
-6.0551461772
 20
4.0577719187
 10
-6.0275324481
 20
4.0024972674
 10
-5.9985415562
 20
3.9486002076
 10
-5.968317465
 20
3.8960279435
 10
-5.9368442025
 20
3.8448258033
 10
-5.9035932692
 20
3.7941794691
 10
-5.8686263533
 20
3.74395059
 10
-5.831958131
 20
3.6942708239
 10
-5.7929649336
 20
3.64473578
 10
-5.7516740476
 20
3.5951782903
 10
-5.7081238122
 20
3.5457537183
 10
-5.6617173959
 20
3.4965348362
 10
-5.6122916226
 20
3.447533056
 10
-5.5601010752
 20
3.3987053988
 10
-5.5051864797
 20
3.3500361955
  0
LWPOLYLINE
  5
418
100
AcDbEntity
  8
RACCORDO
100
AcDbPolyline
 62
250
  6
CONTINUOUS
 90
10
 70
0
 10
-8.4512280369
 20
18.5333229232
 10
-8.4537746199
 20
18.5642772921
 10
-8.4604647837
 20
18.5964753961
 10
-8.471094752
 20
18.6289389086
 10
-8.4853412033
 20
18.6606818283
 10
-8.5027708911
 20
18.6907398767
 10
-8.5228536653
 20
18.7181998956
 10
-8.5449790491
 20
18.7422283253
 10
-8.5684749737
 20
18.762096354
 10
-8.5926278539
 20
18.7772015325
  0
LWPOLYLINE
  5
419
100
AcDbEntity
  8
RACCORDO
100
AcDbPolyline
 62
250
  6
CONTINUOUS
 90
10
 70
0
 10
-8.5335495535
 20
22.4824353317
 10
-8.5353134851
 20
22.5137745889
 10
-8.5413935064
 20
22.5462718545
 10
-8.5516049504
 20
22.5789400973
 10
-8.5656376679
 20
22.6107870931
 10
-8.5830654463
 20
22.6408455616
 10
-8.6033589554
 20
22.6682025451
 10
-8.6259018254
 20
22.6920271373
 10
-8.6500093679
 20
22.7115957198
 10
-8.6749493706
 20
22.726313941
  0
LWPOLYLINE
  5
41A
100
AcDbEntity
  8
0
100
AcDbPolyline
 62
250
  6
CONTINUOUS
 90
4
 70
0
 10
-6.1981802392
 20
6.071543207
 10
-6.2024743586
 20
6.2004369334
 10
-6.2013662846
 20
6.3283190425
 10
-6.1996992031
 20
6.3600337073
  0
LWPOLYLINE
  5
41B
100
AcDbEntity
  8
COPY-PUBBLISH
100
AcDbPolyline
 62
7
  6
CONTINUOUS
 90
30
 70
0
 10
-7.3952816326
 20
5.801471544
 10
-7.3908922043
 20
5.6395671246
 10
-7.3782110973
 20
5.4755367004
 10
-7.3572383115
 20
5.3093802715
 10
-7.3278134231
 20
5.1403700042
 10
-7.290096856
 20
4.9692337321
 10
-7.2445698812
 20
4.7981549559
 10
-7.1911325985
 20
4.6271348699
 10
-7.1298849081
 20
4.4561722798
 10
-7.0616077817
 20
4.2874471037
 10
-6.9862109545
 20
4.1209874943
 10
-6.9037846912
 20
3.9567652988
 10
-6.8153807588
 20
3.7968759767
 10
-6.7209228519
 20
3.6413755033
 10
-6.6204872758
 20
3.4902079033
 10
-6.5153547134
 20
3.3453007106
 10
-6.4054647476
 20
3.2067337605
 10
-6.2908777956
 20
3.0744272176
 10
-6.1730557918
 20
2.95006911
 10
-6.0519574886
 20
2.8337614746
 10
-5.9276241336
 20
2.7254022745
 10
-5.8016414041
 20
2.6263734273
 10
-5.6739880675
 20
2.5367943467
 10
-5.5446853564
 20
2.456545619
 10
-5.4153826453
 20
2.3866509197
 10
-5.2860799342
 20
2.3272429078
 10
-5.1567772231
 20
2.2781889245
 10
-5.0291238865
 20
2.2401146685
 10
-4.9031411569
 20
2.2131607862
 10
-4.8281054453
 20
2.2035203154
  0
LINE
  5
41C
100
AcDbEntity
  8
DRAFT
100
AcDbLine
 62
7
  6
CONTINUOUS
 10
-5.2922703039
 20
22.9478191934
 11
-5.2922703039
 21
23.1721083805
  0
LWPOLYLINE
  5
41D
100
AcDbEntity
  8
COPY-PUBBLISH
100
AcDbPolyline
 62
250
  6
CONTINUOUS
 90
16
 70
0
 10
-7.6123771364
 20
5.6948019653
 10
-7.6115023088
 20
5.7664755227
 10
-7.6086725169
 20
5.8412891386
 10
-7.6035684334
 20
5.9189895269
 10
-7.5958476254
 20
5.9993687468
 10
-7.5851678197
 20
6.0820187925
 10
-7.5712138221
 20
6.166346199
 10
-7.5536441694
 20
6.251961345
 10
-7.5321120676
 20
6.338437443
 10
-7.5063346209
 20
6.4251007967
 10
-7.4759864048
 20
6.5114706804
 10
-7.4407529901
 20
6.5970081852
 10
-7.4004298923
 20
6.6809428755
 10
-7.3547477246
 20
6.7627047968
 10
-7.3034596447
 20
6.841677861
 10
-7.2868273552
 20
6.8636769963
  0
LWPOLYLINE
  5
41E
100
AcDbEntity
  8
0
100
AcDbPolyline
 62
7
  6
CONTINUOUS
 90
6
 70
0
 10
-6.2566925526
 20
6.4069601791
 10
-6.2578881463
 20
6.3785207317
 10
-6.2573369915
 20
6.2322590752
 10
-6.2503455483
 20
6.0834533484
 10
-6.2370317564
 20
5.9325296493
 10
-6.2353547787
 20
5.9194244661
  0
LWPOLYLINE
  5
41F
100
AcDbEntity
  8
0
100
AcDbPolyline
 62
250
  6
CONTINUOUS
 90
8
 70
0
 10
-5.5051864797
 20
3.3500361955
 10
-5.5082882094
 20
3.3330593061
 10
-5.5094355134
 20
3.3172682391
 10
-5.5086128761
 20
3.3028765417
 10
-5.5058314218
 20
3.290078837
 10
-5.5011287647
 20
3.2790481924
 10
-5.4945684997
 20
3.2699337788
 10
-5.489875041
 20
3.2655170803
  0
LINE
  5
420
100
AcDbEntity
  8
0
100
AcDbLine
 62
7
  6
CONTINUOUS
 10
-10.8727151785
 20
-18.0399956834
 11
-10.9050612905
 21
-18.1830124429
  0
LINE
  5
421
100
AcDbEntity
  8
0
100
AcDbLine
 62
7
  6
CONTINUOUS
 10
-10.8360317776
 20
-17.8971332505
 11
-10.8727151785
 21
-18.0399956834
  0
LWPOLYLINE
  5
422
100
AcDbEntity
  8
0
100
AcDbPolyline
 62
250
  6
CONTINUOUS
 90
13
 70
0
 10
-10.6607788693
 20
-18.1786500003
 10
-10.6106328343
 20
-17.989611017
 10
-10.55276537
 20
-17.799751321
 10
-10.4872207099
 20
-17.6096819346
 10
-10.4139802331
 20
-17.4195721203
 10
-10.3333889663
 20
-17.2304999634
 10
-10.2462148106
 20
-17.0444142143
 10
-10.1530097652
 20
-16.8623346952
 10
-10.0540194551
 20
-16.6843698864
 10
-9.9496859386
 20
-16.5110391178
 10
-9.8406907742
 20
-16.3432837001
 10
-9.7270964788
 20
-16.1811744618
 10
-9.6083275127
 20
-16.0239821099
  0
LWPOLYLINE
  5
423
100
AcDbEntity
  8
0
100
AcDbPolyline
 62
7
  6
CONTINUOUS
 90
10
 70
0
 10
-10.7649491626
 20
-18.0859235796
 10
-10.6891744191
 20
-17.8082147824
 10
-10.5970325272
 20
-17.531090316
 10
-10.4891925692
 20
-17.2565558406
 10
-10.3664366075
 20
-16.9865998889
 10
-10.2296555483
 20
-16.7231732312
 10
-10.079841921
 20
-16.4681751656
 10
-9.918089599
 20
-16.2234577731
 10
-9.7455618867
 20
-15.9907820274
 10
-9.5876099155
 20
-15.7993993679
  0
LWPOLYLINE
  5
424
100
AcDbEntity
  8
RACCORDO
100
AcDbPolyline
 62
7
  6
CONTINUOUS
 90
12
 70
0
 10
-0.1015946518
 20
17.6911572573
 10
-0.1009394859
 20
17.6932952429
 10
-0.0991829971
 20
17.6967168542
 10
-0.0965948309
 20
17.6999171838
 10
-0.0931855062
 20
17.7028990304
 10
-0.0889985101
 20
17.7056243595
 10
-0.0840238808
 20
17.7080898852
 10
-0.0782715801
 20
17.7102988934
 10
-0.0718149807
 20
17.7122232074
 10
-0.0646785399
 20
17.7138534351
 10
-0.0568378004
 20
17.7151989686
 10
-0.0482927621
 20
17.7162598079
  0
LWPOLYLINE
  5
425
100
AcDbEntity
  8
0
100
AcDbPolyline
 62
250
  6
CONTINUOUS
 90
12
 70
0
 10
-6.0681492614
 20
6.247040265
 10
-6.1026046132
 20
6.1361707779
 10
-6.1402240194
 20
5.9975225796
 10
-6.1726189503
 20
5.8576821386
 10
-6.1997556121
 20
5.7171641081
 10
-6.2215326239
 20
5.5775124476
 10
-6.2378549936
 20
5.4387751919
 10
-6.2488177133
 20
5.3009043061
 10
-6.2546043779
 20
5.1652996454
 10
-6.2552761858
 20
5.0324278281
 10
-6.2507719385
 20
4.9018222358
 10
-6.2410916362
 20
4.7734828685
  0
LWPOLYLINE
  5
426
100
AcDbEntity
  8
0
100
AcDbPolyline
 62
7
  6
CONTINUOUS
 90
12
 70
0
 10
-6.1304755636
 20
6.3013590221
 10
-6.1629068005
 20
6.198362289
 10
-6.2058903808
 20
6.0438228282
 10
-6.2425828779
 20
5.8889075112
 10
-6.2730043926
 20
5.73400567
 10
-6.2971756727
 20
5.5795261963
 10
-6.3151307221
 20
5.4258238254
 10
-6.3269017878
 20
5.2732681685
 10
-6.332523977
 20
5.1222833783
 10
-6.3320405765
 20
4.973234089
 10
-6.3254953412
 20
4.8264170164
 10
-6.3177294547
 20
4.7293272716
  0
LWPOLYLINE
  5
427
100
AcDbEntity
  8
RACCORDO
100
AcDbPolyline
 62
250
  6
CONTINUOUS
 90
7
 70
0
 10
-5.3596540729
 20
6.2215310164
 10
-5.37922875
 20
6.186306388
 10
-5.3927062368
 20
6.1545460193
 10
-5.3998663018
 20
6.1267688981
 10
-5.4005919447
 20
6.1034289228
 10
-5.3948713083
 20
6.0849074856
 10
-5.3906608847
 20
6.0787557586
  0
LWPOLYLINE
  5
428
100
AcDbEntity
  8
RACCORDO
100
AcDbPolyline
 62
250
  6
CONTINUOUS
 90
7
 70
0
 10
-5.2352757244
 20
6.0866992315
 10
-5.2572663042
 20
6.0502335883
 10
-5.2728379429
 20
6.0171075184
 10
-5.2817242667
 20
5.987887687
 10
-5.2837732634
 20
5.9630739381
 10
-5.278949882
 20
5.9430907437
 10
-5.2738474922
 20
5.9348498713
  0
LWPOLYLINE
  5
429
100
AcDbEntity
  8
RACCORDO
100
AcDbPolyline
 62
250
  6
CONTINUOUS
 90
13
 70
0
 10
-19.7918449246
 20
-16.9968617849
 10
-19.7670958641
 20
-16.9590169445
 10
-19.7367272762
 20
-16.9184924511
 10
-19.7012586541
 20
-16.8759815275
 10
-19.6612967333
 20
-16.8322113766
 10
-19.617525113
 20
-16.7879307421
 10
-19.5706925621
 20
-16.7438971001
 10
-19.5216002105
 20
-16.7008637016
 10
-19.4710878449
 20
-16.6595666873
 10
-19.4200195432
 20
-16.6207124946
 10
-19.3692688932
 20
-16.5849657736
 10
-19.3197040488
 20
-16.552938017
 10
-19.2721728794
 20
-16.5251770999
  0
LWPOLYLINE
  5
42A
100
AcDbEntity
  8
RACCORDO
100
AcDbPolyline
 62
250
  6
CONTINUOUS
 90
13
 70
0
 10
-19.6650603197
 20
-17.1304903094
 10
-19.6397083176
 20
-17.0923770184
 10
-19.6089932619
 20
-17.0519978653
 10
-19.5734170598
 20
-17.0100126756
 10
-19.5335610528
 20
-16.9671075182
 10
-19.4900765183
 20
-16.9239834955
 10
-19.4436740263
 20
-16.8813452864
 10
-19.3951118284
 20
-16.8398896307
 10
-19.3451834666
 20
-16.8002939442
 10
-19.2947048078
 20
-16.7632052495
 10
-19.2445007102
 20
-16.7292296028
 10
-19.1953915457
 20
-16.6989221907
 10
-19.1481797935
 20
-16.6727782579
  0
LWPOLYLINE
  5
42B
100
AcDbEntity
  8
RACCORDO
100
AcDbPolyline
 62
250
  6
CONTINUOUS
 90
5
 70
0
 10
-21.0600555637
 20
-16.4329926874
 10
-21.1057922168
 20
-16.4963763084
 10
-21.1389319651
 20
-16.5527836067
 10
-21.1589202466
 20
-16.6012707165
 10
-21.1654225542
 20
-16.641026295
  0
LWPOLYLINE
  5
42C
100
AcDbEntity
  8
RACCORDO
100
AcDbPolyline
 62
250
  6
CONTINUOUS
 90
8
 70
0
 10
-21.1667611297
 20
-16.3205960699
 10
-21.2026962147
 20
-16.3687856481
 10
-21.2307354112
 20
-16.4125604446
 10
-21.2506264918
 20
-16.4514893867
 10
-21.2621289615
 20
-16.4852608263
 10
-21.2652446818
 20
-16.513508299
 10
-21.260158567
 20
-16.5357574537
 10
-21.2556364425
 20
-16.5431814666
  0
LWPOLYLINE
  5
42D
100
AcDbEntity
  8
RACCORDO
100
AcDbPolyline
 62
250
  6
CONTINUOUS
 90
13
 70
0
 10
-3.9646588289
 20
5.5240333944
 10
-3.90709048
 20
5.5933328914
 10
-3.8386536405
 20
5.6673887561
 10
-3.7604933973
 20
5.7449618599
 10
-3.6739175343
 20
5.824754221
 10
-3.5803746724
 20
5.9054307029
 10
-3.4814300366
 20
5.9856413538
 10
-3.3787392198
 20
6.0640440341
 10
-3.274020516
 20
6.1393268427
 10
-3.1690261963
 20
6.2102300534
 10
-3.0655131212
 20
6.2755672431
 10
-2.9652133424
 20
6.3342451391
 10
-2.8698051623
 20
6.385281885
  0
LWPOLYLINE
  5
42E
100
AcDbEntity
  8
RACCORDO
100
AcDbPolyline
 62
250
  6
CONTINUOUS
 90
16
 70
0
 10
-3.8596404274
 20
5.4107931948
 10
-3.8122698133
 20
5.4647004706
 10
-3.7582324758
 20
5.5214742996
 10
-3.6981226695
 20
5.5805125958
 10
-3.632712642
 20
5.6412378501
 10
-3.5625999316
 20
5.7029838846
 10
-3.4881560229
 20
5.7649981052
 10
-3.409972067
 20
5.8265821322
 10
-3.3290027211
 20
5.887152618
 10
-3.246189592
 20
5.9461313208
 10
-3.1623887115
 20
6.0029255561
 10
-3.0784634988
 20
6.0569257333
 10
-2.9953891869
 20
6.1075767266
 10
-2.9140570102
 20
6.1543674022
 10
-2.8352649741
 20
6.1968246302
 10
-2.7598183612
 20
6.2345228645
  0
LINE
  5
42F
100
AcDbEntity
  8
RACCORDO
100
AcDbLine
 62
7
  6
CONTINUOUS
 10
-0.7210741676
 20
6.9758254712
 11
-0.4331680797
 21
7.2792352265
  0
LINE
  5
430
100
AcDbEntity
  8
RACCORDO
100
AcDbLine
 62
7
  6
CONTINUOUS
 10
-1.0122190128
 20
6.6707821085
 11
-0.7210741676
 21
6.9758254712
  0
LINE
  5
431
100
AcDbEntity
  8
RACCORDO
100
AcDbLine
 62
7
  6
CONTINUOUS
 10
-1.306603167
 20
6.3641020766
 11
-1.0122190128
 21
6.6707821085
  0
LINE
  5
432
100
AcDbEntity
  8
RACCORDO
100
AcDbLine
 62
7
  6
CONTINUOUS
 10
-1.6042312253
 20
6.0557721308
 11
-1.306603167
 21
6.3641020766
  0
LINE
  5
433
100
AcDbEntity
  8
RACCORDO
100
AcDbLine
 62
7
  6
CONTINUOUS
 10
-1.9050884961
 20
5.7458002939
 11
-1.6042312253
 21
6.0557721308
  0
LINE
  5
434
100
AcDbEntity
  8
RACCORDO
100
AcDbLine
 62
7
  6
CONTINUOUS
 10
-2.2091713986
 20
5.4341880612
 11
-1.9050884961
 21
5.7458002939
  0
LWPOLYLINE
  5
435
100
AcDbEntity
  8
RACCORDO
100
AcDbPolyline
 62
7
  6
CONTINUOUS
 90
13
 70
0
 10
-2.3182533634
 20
5.346889795
 10
-2.4066691903
 20
5.2872576582
 10
-2.4944099303
 20
5.21949505
 10
-2.580499421
 20
5.1447742564
 10
-2.6642953009
 20
5.0645002756
 10
-2.744770253
 20
4.9798199491
 10
-2.8205014895
 20
4.8915847627
 10
-2.8909301527
 20
4.801165431
 10
-2.9555466033
 20
4.7098704069
 10
-3.0131206977
 20
4.6184390424
 10
-3.0630736202
 20
4.5279699465
 10
-3.1055104851
 20
4.4399126775
 10
-3.1403608106
 20
4.3554686742
  0
LWPOLYLINE
  5
436
100
AcDbEntity
  8
RACCORDO
100
AcDbPolyline
 62
7
  6
CONTINUOUS
 90
10
 70
0
 10
-2.3182533634
 20
5.346889795
 10
-2.304906655
 20
5.3555441667
 10
-2.2918639472
 20
5.3644578642
 10
-2.2791252401
 20
5.3736308876
 10
-2.2666870378
 20
5.3830605261
 10
-2.2545528362
 20
5.3927494905
 10
-2.2427331227
 20
5.402705913
 10
-2.2312313932
 20
5.4129325043
 10
-2.2200441518
 20
5.4234265537
 10
-2.2091713986
 20
5.4341880612
  0
LINE
  5
437
100
AcDbEntity
  8
RACCORDO
100
AcDbLine
 62
250
  6
CONTINUOUS
 10
6.0336089096
 20
11.4117289491
 11
6.0808629017
 21
11.4404561547
  0
LINE
  5
438
100
AcDbEntity
  8
DRAFT
100
AcDbLine
 62
7
  6
CONTINUOUS
 10
8.4155207766
 20
12.4209465774
 11
12.1148113596
 21
14.5551700891
  0
LINE
  5
439
100
AcDbEntity
  8
DRAFT
100
AcDbLine
 62
7
  6
CONTINUOUS
 10
6.5473511581
 20
11.3444467099
 11
8.4155207766
 21
12.4209465774
  0
LWPOLYLINE
  5
43A
100
AcDbEntity
  8
RACCORDO
100
AcDbPolyline
 62
7
  6
CONTINUOUS
 90
3
 70
0
 10
5.988480125
 20
11.4445477327
 10
5.9624985916
 20
11.4298994447
 10
5.9026748434
 20
11.390474807
  0
LINE
  5
43B
100
AcDbEntity
  8
RACCORDO
100
AcDbLine
 62
7
  6
CONTINUOUS
 10
5.988366279
 20
11.4445276987
 11
11.8878754554
 21
14.6274482441
  0
LINE
  5
43C
100
AcDbEntity
  8
RACCORDO
100
AcDbLine
 62
250
  6
CONTINUOUS
 10
6.0808629017
 20
11.4404561547
 11
11.9794226327
 21
14.6228644525
  0
LINE
  5
43D
100
AcDbEntity
  8
0
100
AcDbLine
 62
250
  6
CONTINUOUS
 10
-6.5580998773
 20
3.4042175824
 11
-5.9265903207
 21
3.7267220527
  0
LINE
  5
43E
100
AcDbEntity
  8
RACCORDO
100
AcDbLine
 62
250
  6
CONTINUOUS
 10
7.1004289209
 20
11.0679078285
 11
6.9637213322
 21
10.9990269395
  0
LINE
  5
43F
100
AcDbEntity
  8
RACCORDO
100
AcDbLine
 62
250
  6
CONTINUOUS
 10
7.241828738
 20
10.8240292192
 11
7.1050209677
 21
10.7550978531
  0
LINE
  5
440
100
AcDbEntity
  8
RACCORDO
100
AcDbLine
 62
7
  6
CONTINUOUS
 10
7.241828738
 20
10.4731560632
 11
7.1051211493
 21
10.4042751742
  0
LINE
  5
441
100
AcDbEntity
  8
0
100
AcDbLine
 62
7
  6
CONTINUOUS
 10
-5.9942990823
 20
3.8253387284
 11
-6.6308602358
 21
3.5058204535
  0
LINE
  5
442
100
AcDbEntity
  8
0
100
AcDbLine
 62
7
  6
CONTINUOUS
 10
-6.3278950698
 20
4.8802456587
 11
-7.1375723011
 21
4.4776303398
  0
LINE
  5
443
100
AcDbEntity
  8
0
100
AcDbLine
 62
7
  6
CONTINUOUS
 10
-6.2381940655
 20
4.3387099957
 11
-6.9272989965
 21
4.0036140904
  0
LINE
  5
444
100
AcDbEntity
  8
0
100
AcDbLine
 62
7
  6
CONTINUOUS
 10
-5.5094470806
 20
3.2819518156
 11
-6.1790133193
 21
2.9563571277
  0
LINE
  5
445
100
AcDbEntity
  8
RACCORDO
100
AcDbLine
 62
7
  6
CONTINUOUS
 10
12.1148113596
 20
14.5551700891
 11
13.6699157818
 21
15.308450258
  0
LWPOLYLINE
  5
446
100
AcDbEntity
  8
RACCORDO
100
AcDbPolyline
 62
250
  6
CONTINUOUS
 90
23
 70
0
 10
6.9637213322
 20
10.9990269395
 10
6.9078487847
 20
10.974127168
 10
6.8486122133
 20
10.953010488
 10
6.7860116181
 20
10.9356768993
 10
6.7191359539
 20
10.9219987926
 10
6.6488962659
 20
10.9121037773
 10
6.5780256896
 20
10.9063746816
 10
6.5064962849
 20
10.9049752296
 10
6.434335992
 20
10.9077416972
 10
6.3643617671
 20
10.9145657405
 10
6.2966695905
 20
10.9256066662
 10
6.2311634818
 20
10.9407051677
 10
6.1703724564
 20
10.95927498
 10
6.114475021
 20
10.9814532869
 10
6.0632926687
 20
11.0071029048
 10
6.0188188945
 20
11.0352260175
 10
5.9813192984
 20
11.065919032
 10
5.9505282803
 20
11.0990855413
 10
5.9276425353
 20
11.1334385087
 10
5.9129711964
 20
11.1690221098
 10
5.9062051306
 20
11.2057921689
 10
5.9076136346
 20
11.2423291218
 10
5.9175607821
 20
11.2786546069
  0
LWPOLYLINE
  5
447
100
AcDbEntity
  8
RACCORDO
100
AcDbPolyline
 62
250
  6
CONTINUOUS
 90
18
 70
0
 10
7.1050209594
 20
10.7550984042
 10
7.0331444949
 20
10.7230879547
 10
6.9546261485
 20
10.6954452613
 10
6.8705000761
 20
10.6725254831
 10
6.781868815
 20
10.6546088458
 10
6.6899099174
 20
10.6419377483
 10
6.59586269
 20
10.6347094009
 10
6.500974599
 20
10.6330116495
 10
6.4065022117
 20
10.6368536766
 10
6.3137165279
 20
10.6462002614
 10
6.2238590556
 20
10.6609184083
 10
6.1381032613
 20
10.6808007836
 10
6.057561932
 20
10.7055976779
 10
5.9832943201
 20
10.7349867961
 10
5.91629463
 20
10.7685709045
 10
5.8574564158
 20
10.8059026068
 10
5.8075604824
 20
10.8464917473
 10
5.7672639206
 20
10.8898008971
  0
LWPOLYLINE
  5
448
100
AcDbEntity
  8
RACCORDO
100
AcDbPolyline
 62
250
  6
CONTINUOUS
 90
10
 70
0
 10
-21.9617044666
 20
-2.8534457923
 10
-22.0018254635
 20
-2.869943226
 10
-22.0470366988
 20
-2.8827328691
 10
-22.0959826612
 20
-2.8914312659
 10
-22.1471958663
 20
-2.8957776236
 10
-22.1991408535
 20
-2.8956416307
 10
-22.2502602223
 20
-2.8910273645
 10
-22.2990213256
 20
-2.8820731688
 10
-22.3439622211
 20
-2.8690475059
 10
-22.3837355031
 20
-2.8523409075
  0
LWPOLYLINE
  5
449
100
AcDbEntity
  8
RACCORDO
100
AcDbPolyline
 62
7
  6
CONTINUOUS
 90
8
 70
0
 10
15.5142852462
 20
12.2762880934
 10
15.5349814506
 20
12.2847491269
 10
15.5580865291
 20
12.290796583
 10
15.5814380644
 20
12.2934922882
 10
15.6050289255
 20
12.2928108629
 10
15.6290214831
 20
12.2888411089
 10
15.6536517564
 20
12.2819073673
 10
15.6790620791
 20
12.2723109878
  0
LWPOLYLINE
  5
44A
100
AcDbEntity
  8
0
100
AcDbPolyline
 62
250
  6
CONTINUOUS
 90
10
 70
0
 10
-6.2410916363
 20
4.7734828688
 10
-6.2579216692
 20
4.7685769245
 10
-6.2729964325
 20
4.7634131728
 10
-6.2861259659
 20
4.7580566782
 10
-6.297144821
 20
4.7525749328
 10
-6.3059141366
 20
4.7470370108
 10
-6.3123233954
 20
4.7415126984
 10
-6.3162918284
 20
4.7360716056
 10
-6.3177694223
 20
4.7307822946
 10
-6.3177345846
 20
4.7293495128
  0
LINE
  5
44B
100
AcDbEntity
  8
RACCORDO
100
AcDbLine
 62
7
  6
CONTINUOUS
 10
-23.4432092217
 20
5.6116329271
 11
-21.7279995489
 21
4.7540280908
  0
LWPOLYLINE
  5
44C
100
AcDbEntity
  8
RACCORDO
100
AcDbPolyline
 62
7
  6
CONTINUOUS
 90
12
 70
0
 10
-23.4463420692
 20
5.6131994025
 10
-23.4673849876
 20
5.624145815
 10
-23.5652532508
 20
5.6875641952
 10
-23.6510458482
 20
5.7654225125
 10
-23.7240508296
 20
5.8571172162
 10
-23.783675875
 20
5.9625681436
 10
-23.8291719146
 20
6.0819267096
 10
-23.8594742761
 20
6.2139346806
 10
-23.8738145148
 20
6.3560705256
 10
-23.8720354129
 20
6.5063773315
 10
-23.8541094882
 20
6.6639587523
 10
-23.8200539588
 20
6.8273733146
  0
LWPOLYLINE
  5
44D
100
AcDbEntity
  8
RACCORDO
100
AcDbPolyline
 62
250
  6
CONTINUOUS
 90
23
 70
0
 10
-21.7319354092
 20
4.7560072923
 10
-21.7653251402
 20
4.7737328996
 10
-21.8277128283
 20
4.8116331169
 10
-21.8876805041
 20
4.8546094907
 10
-21.9446518925
 20
4.9022856179
 10
-21.9985276373
 20
4.9545422528
 10
-22.0491920453
 20
5.0112282028
 10
-22.0961894617
 20
5.0716974283
 10
-22.1395148639
 20
5.1357013559
 10
-22.1791667889
 20
5.2029780545
 10
-22.2148679786
 20
5.2726599557
 10
-22.2467240681
 20
5.3444044062
 10
-22.2748558423
 20
5.4178872941
 10
-22.2991877819
 20
5.4921113026
 10
-22.3199325387
 20
5.5667016338
 10
-22.3373124767
 20
5.6413205622
 10
-22.351430318
 20
5.714922113
 10
-22.3625794739
 20
5.7871593058
 10
-22.3710496382
 20
5.8577206875
 10
-22.3770736101
 20
5.9255562913
 10
-22.380976221
 20
5.9901186402
 10
-22.383097375
 20
6.0514100738
 10
-22.3837355031
 20
6.1092140867
  0
LWPOLYLINE
  5
44E
100
AcDbEntity
  8
0
100
AcDbPolyline
 62
7
  6
CONTINUOUS
 90
5
 70
0
 10
-10.7168786954
 20
10.170523119
 10
-10.6159374776
 20
9.9459210058
 10
-10.4948065781
 20
9.7434692122
 10
-10.3554139361
 20
9.5649161165
 10
-10.1992604087
 20
9.4106949806
  0
LWPOLYLINE
  5
44F
100
AcDbEntity
  8
0
100
AcDbPolyline
 62
250
  6
CONTINUOUS
 90
8
 70
0
 10
-10.7608889217
 20
10.2956991005
 10
-10.7532718865
 20
10.2786596376
 10
-10.7435144712
 20
10.2624837209
 10
-10.7316812584
 20
10.2472784137
 10
-10.7178505712
 20
10.2331443659
 10
-10.7021139492
 20
10.2201751247
 10
-10.684575545
 20
10.2084565168
 10
-10.6653514377
 20
10.1980660971
  0
LINE
  5
450
100
AcDbEntity
  8
0
100
AcDbLine
 62
7
  6
CONTINUOUS
 10
-10.7927763244
 20
10.1702148296
 11
-10.859382564
 21
10.337195209
  0
LWPOLYLINE
  5
451
100
AcDbEntity
  8
0
100
AcDbPolyline
 62
7
  6
CONTINUOUS
 90
6
 70
0
 10
-9.4260118151
 20
9.6601611763
 10
-9.3536478877
 20
9.4688829239
 10
-9.2657789261
 20
9.2936792258
 10
-9.1630350742
 20
9.1358178106
 10
-9.0461471173
 20
8.9964346754
 10
-8.9159606175
 20
8.8765492546
  0
LINE
  5
452
100
AcDbEntity
  8
0
100
AcDbLine
 62
7
  6
CONTINUOUS
 10
-10.7632200276
 20
10.3024045895
 11
-10.7168786954
 21
10.170523119
  0
LINE
  5
453
100
AcDbEntity
  8
0
100
AcDbLine
 62
7
  6
CONTINUOUS
 10
-10.7633011491
 20
10.3026579074
 11
-10.7632200247
 21
10.3024045796
  0
LWPOLYLINE
  5
454
100
AcDbEntity
  8
0
100
AcDbPolyline
 62
7
  6
CONTINUOUS
 90
4
 70
0
 10
-9.4361018303
 20
10.0018356993
 10
-9.4092597103
 20
9.9179052291
 10
-9.382439286
 20
9.827312091
 10
-9.3585246571
 20
9.7398351527
  0
LWPOLYLINE
  5
455
100
AcDbEntity
  8
0
100
AcDbPolyline
 62
250
  6
CONTINUOUS
 90
17
 70
0
 10
-9.6716658946
 20
9.7524202114
 10
-9.6319245782
 20
9.624034673
 10
-9.6084166339
 20
9.5557650531
 10
-9.5820604277
 20
9.4872099986
 10
-9.5527114941
 20
9.4187230603
 10
-9.5201504121
 20
9.3504977965
 10
-9.4840701607
 20
9.282583533
 10
-9.4442875864
 20
9.2153096441
 10
-9.4006300352
 20
9.1490103198
 10
-9.3527701272
 20
9.0838230165
 10
-9.3005708629
 20
9.0202398952
 10
-9.2437853681
 20
8.9586462667
 10
-9.1818442918
 20
8.8991789581
 10
-9.114541366
 20
8.842456999
 10
-9.0416314079
 20
8.789114331
 10
-8.9623894294
 20
8.7395511471
 10
-8.8995971179
 20
8.7058406156
  0
LINE
  5
456
100
AcDbEntity
  8
0
100
AcDbLine
 62
7
  6
CONTINUOUS
 10
-10.859382564
 20
10.337195209
 11
-10.9141595757
 21
10.517652612
  0
LWPOLYLINE
  5
457
100
AcDbEntity
  8
0
100
AcDbPolyline
 62
250
  6
CONTINUOUS
 90
4
 70
0
 10
-10.6653513533
 20
10.1980657054
 10
-10.6811714851
 20
10.257154582
 10
-10.6910146985
 20
10.3136323523
 10
-10.6949827238
 20
10.3673737249
  0
LWPOLYLINE
  5
458
100
AcDbEntity
  8
0
100
AcDbPolyline
 62
7
  6
CONTINUOUS
 90
15
 70
0
 10
-6.3177345846
 20
4.7293495128
 10
-6.3107288999
 20
4.6665163446
 10
-6.292262186
 20
4.5512604645
 10
-6.2664231092
 20
4.4360612933
 10
-6.2332455769
 20
4.3216445298
 10
-6.1928520184
 20
4.2085084606
 10
-6.1453632207
 20
4.0970044512
 10
-6.0910263741
 20
3.9876253783
 10
-6.0301905864
 20
3.8808982436
 10
-5.9631884813
 20
3.7771799802
 10
-5.8904172046
 20
3.6768501346
 10
-5.8123498939
 20
3.5803205559
 10
-5.729446267
 20
3.4879267519
 10
-5.6421626249
 20
3.399984298
 10
-5.5510095774
 20
3.3168494606
  0
LWPOLYLINE
  5
459
100
AcDbEntity
  8
RACCORDO
100
AcDbPolyline
 62
7
  6
CONTINUOUS
 90
26
 70
0
 10
-4.6425904392
 20
3.1144657814
 10
-4.6495646971
 20
3.3228944301
 10
-4.6706864189
 20
3.53976884
 10
-4.7061263579
 20
3.7633010637
 10
-4.7558805531
 20
3.9916016384
 10
-4.8197623151
 20
4.2226898388
 10
-4.8974267993
 20
4.4546007779
 10
-4.988413736
 20
4.6854600576
 10
-5.0920472712
 20
4.9132199703
 10
-5.2074244385
 20
5.1357473904
 10
-5.3336300495
 20
5.3512442621
 10
-5.4695515645
 20
5.5578495292
 10
-5.6137047081
 20
5.7534875362
 10
-5.7645931157
 20
5.9364567744
 10
-5.9209314251
 20
6.1055727434
 10
-6.081299647
 20
6.2596769977
 10
-6.2439048513
 20
6.3975028798
 10
-6.4073501616
 20
6.5183808376
 10
-6.5705360734
 20
6.6219525676
 10
-6.7309433298
 20
6.7071920243
 10
-6.8876352611
 20
6.7742688088
 10
-7.0412763586
 20
6.8237352393
 10
-7.1902089543
 20
6.8550141706
 10
-7.3320430654
 20
6.8677310462
 10
-7.4661123971
 20
6.8619965317
 10
-7.5916976967
 20
6.8378219709
  0
LINE
  5
45A
100
AcDbEntity
  8
RACCORDO
100
AcDbLine
 62
7
  6
CONTINUOUS
 10
-4.4352646712
 20
16.1168140949
 11
-4.4352646716
 21
15.7639637227
  0
LINE
  5
45B
100
AcDbEntity
  8
RACCORDO
100
AcDbLine
 62
250
  6
CONTINUOUS
 10
-3.7402334272
 20
25.5036705559
 11
-3.7402334272
 21
25.2286450482
  0
LINE
  5
45C
100
AcDbEntity
  8
DRAFT
100
AcDbLine
 62
7
  6
CONTINUOUS
 10
-3.7183263704
 20
22.4717389541
 11
-3.7183263704
 21
22.3851364138
  0
LINE
  5
45D
100
AcDbEntity
  8
RACCORDO
100
AcDbLine
 62
250
  6
CONTINUOUS
 10
-3.0382386802
 20
15.8268282449
 11
-3.0382386802
 21
15.475955089
  0
LINE
  5
45E
100
AcDbEntity
  8
0
100
AcDbLine
 62
7
  6
CONTINUOUS
 10
-2.4455341643
 20
16.8713089246
 11
-2.4455341643
 21
17.1311165457
  0
LWPOLYLINE
  5
45F
100
AcDbEntity
  8
RACCORDO
100
AcDbPolyline
 62
250
  6
CONTINUOUS
 90
40
 70
0
 10
-4.4961438297
 20
2.9376890802
 10
-4.5042789917
 20
2.7075359112
 10
-4.5272082357
 20
2.4893966809
 10
-4.5649315618
 20
2.2832713891
 10
-4.6179808958
 20
2.0879327416
 10
-4.6858243118
 20
1.9046080326
 10
-4.7668660326
 20
1.7369791452
 10
-4.8612934853
 20
1.5855241316
 10
-4.9689192427
 20
1.4497649396
 10
-5.0875852466
 20
1.3319492952
 10
-5.217442092
 20
1.2323741146
 10
-5.3583391838
 20
1.1507424816
 10
-5.5076666782
 20
1.0884113742
 10
-5.6655641772
 20
1.0456761108
 10
-5.8318920789
 20
1.022241373
 10
-6.0036217331
 20
1.0185781835
 10
-6.1809366366
 20
1.0350598752
 10
-6.3636532927
 20
1.0713131153
 10
-6.5481925616
 20
1.1266889281
 10
-6.7345707469
 20
1.2015742362
 10
-6.9227715451
 20
1.295582117
 10
-7.109166906
 20
1.4069028271
 10
-7.2937427034
 20
1.5359093802
 10
-7.4765130636
 20
1.6822287625
 10
-7.6538923145
 20
1.8429321897
 10
-7.825692278
 20
2.0182029925
 10
-7.9921011324
 20
2.2078578402
 10
-8.1500977402
 20
2.4084179563
 10
-8.2995488
 20
2.6200446263
 10
-8.4405876133
 20
2.8425765647
 10
-8.5705929474
 20
3.0720511386
 10
-8.6894165547
 20
3.3086203303
 10
-8.7972066827
 20
3.5521321574
 10
-8.8917868416
 20
3.79816804
 10
-8.9729669742
 20
4.0470110393
 10
-9.0409371377
 20
4.298378094
 10
-9.0940910125
 20
4.5470014397
 10
-9.1318931588
 20
4.7911251549
 10
-9.1548790165
 20
5.032505161
 10
-9.1630485856
 20
5.2711414581
  0
LWPOLYLINE
  5
460
100
AcDbEntity
  8
0
100
AcDbPolyline
 62
7
  6
CONTINUOUS
 90
19
 70
0
 10
-2.4455341643
 20
17.1311165457
 10
-2.4435324715
 20
17.1856056863
 10
-2.4379105196
 20
17.240716898
 10
-2.4286683088
 20
17.2964501811
 10
-2.4156810311
 20
17.3532369707
 10
-2.3990734945
 20
17.4106458316
 10
-2.3792201225
 20
17.467382458
 10
-2.3560471822
 20
17.5234315793
 10
-2.3296284066
 20
17.578808466
 10
-2.3005594175
 20
17.6322646241
 10
-2.2687800123
 20
17.6837564221
 10
-2.2343503936
 20
17.7333274914
 10
-2.1980467909
 20
17.7798602324
 10
-2.1598266346
 20
17.8232856262
 10
-2.1197324945
 20
17.8636726916
 10
-2.0786683088
 20
17.9001108861
 10
-2.0369353905
 20
17.9322966956
 10
-1.9942324267
 20
17.9605336341
 10
-1.9505594175
 20
17.9848217018
  0
LINE
  5
461
100
AcDbEntity
  8
0
100
AcDbLine
 62
250
  6
CONTINUOUS
 10
-6.2780208014
 20
-15.3636495076
 11
-6.4384948026
 21
-16.1082449525
  0
LINE
  5
462
100
AcDbEntity
  8
RACCORDO
100
AcDbLine
 62
250
  6
CONTINUOUS
 10
-0.0482927621
 20
17.7162598079
 11
-0.0649777956
 21
17.6450251077
  0
LWPOLYLINE
  5
463
100
AcDbEntity
  8
0
100
AcDbPolyline
 62
7
  6
CONTINUOUS
 90
10
 70
0
 10
-9.349426373
 20
-18.9608299077
 10
-9.3771472022
 20
-19.0773814134
 10
-9.408548931
 20
-19.1861421878
 10
-9.4438815316
 20
-19.2870269901
 10
-9.4840766532
 20
-19.380959244
 10
-9.5286360614
 20
-19.4668937071
 10
-9.5759471234
 20
-19.5419245164
 10
-9.6259188827
 20
-19.6052090721
 10
-9.6796633177
 20
-19.6578500283
 10
-9.7376069738
 20
-19.699990631
  0
LWPOLYLINE
  5
464
100
AcDbEntity
  8
0
100
AcDbPolyline
 62
250
  6
CONTINUOUS
 90
3
 70
0
 10
-9.6194349401
 20
-18.5624661779
 10
-9.6342688258
 20
-18.6246724172
 10
-9.6479004418
 20
-18.6850891744
  0
LWPOLYLINE
  5
465
100
AcDbEntity
  8
0
100
AcDbPolyline
 62
250
  6
CONTINUOUS
 90
37
 70
0
 10
-9.6479004418
 20
-18.6850891744
 10
-9.6666047778
 20
-18.7606775338
 10
-9.687878327
 20
-18.8319737604
 10
-9.7118120599
 20
-18.8989571943
 10
-9.7388554951
 20
-18.9621355463
 10
-9.7687160481
 20
-19.0209702289
 10
-9.8004583648
 20
-19.0739008481
 10
-9.8343640222
 20
-19.1206713374
 10
-9.8704826706
 20
-19.1615901704
 10
-9.9076572923
 20
-19.1959904173
 10
-9.9460291087
 20
-19.2236040646
 10
-9.9858088172
 20
-19.2448027568
 10
-10.0259763122
 20
-19.2598989779
 10
-10.0665291248
 20
-19.268833416
 10
-10.1077170472
 20
-19.2717576098
 10
-10.1488725843
 20
-19.2692944795
 10
-10.1899437575
 20
-19.2615523425
 10
-10.2310979918
 20
-19.2484709705
 10
-10.2719631686
 20
-19.2304074277
 10
-10.3125498714
 20
-19.2074631625
 10
-10.3528464907
 20
-19.1795362846
 10
-10.3924178821
 20
-19.1466661993
 10
-10.4313433107
 20
-19.1087865143
 10
-10.4694257275
 20
-19.065914622
 10
-10.5057816297
 20
-19.0182025515
 10
-10.5404176344
 20
-18.9653298008
 10
-10.5730764237
 20
-18.9075236584
 10
-10.6024561145
 20
-18.8457533517
 10
-10.6283344
 20
-18.7796723894
 10
-10.6505882539
 20
-18.7095265108
 10
-10.6681046219
 20
-18.6371955653
 10
-10.6805693013
 20
-18.5626242692
 10
-10.6879852405
 20
-18.4858208804
 10
-10.6898330343
 20
-18.408804607
 10
-10.6859130373
 20
-18.3322648213
 10
-10.6762596531
 20
-18.2555400612
 10
-10.6607788693
 20
-18.1786500003
  0
LINE
  5
466
100
AcDbEntity
  8
0
100
AcDbLine
 62
250
  6
CONTINUOUS
 10
-9.603334397
 20
-18.4984857288
 11
-9.6194349401
 21
-18.5624661779
  0
LWPOLYLINE
  5
467
100
AcDbEntity
  8
0
100
AcDbPolyline
 62
7
  6
CONTINUOUS
 90
19
 70
0
 10
-9.4214462784
 20
-18.7576750217
 10
-9.4564313594
 20
-18.8812143326
 10
-9.4956625809
 20
-18.99395043
 10
-9.5395846458
 20
-19.0957950333
 10
-9.5897129323
 20
-19.1876958244
 10
-9.6453171934
 20
-19.268629249
 10
-9.703767281
 20
-19.3356976894
 10
-9.7657861911
 20
-19.3881276412
 10
-9.831936773
 20
-19.4270152363
 10
-9.8996476926
 20
-19.4524232105
 10
-9.9691923614
 20
-19.4641538722
 10
-10.041220854
 20
-19.4627717248
 10
-10.1136680461
 20
-19.4494848605
 10
-10.1865466091
 20
-19.4244477162
 10
-10.2601510639
 20
-19.3876489348
 10
-10.3326889428
 20
-19.339982628
 10
-10.404249426
 20
-19.2812652595
 10
-10.4744360946
 20
-19.2115372632
 10
-10.5405780377
 20
-19.1319634504
  0
LWPOLYLINE
  5
468
100
AcDbEntity
  8
0
100
AcDbPolyline
 62
250
  6
CONTINUOUS
 90
4
 70
0
 10
-9.5467696425
 20
-18.2961047309
 10
-9.5671387561
 20
-18.3654862823
 10
-9.5859347545
 20
-18.4328525696
 10
-9.603334397
 20
-18.4984857288
  0
LWPOLYLINE
  5
469
100
AcDbEntity
  8
0
100
AcDbPolyline
 62
7
  6
CONTINUOUS
 90
9
 70
0
 10
-8.8260918208
 20
-18.9648527962
 10
-8.8512502036
 20
-19.0435173802
 10
-8.8814077164
 20
-19.1167752599
 10
-8.9167524496
 20
-19.1854351417
 10
-8.9572174042
 20
-19.248548783
 10
-9.002700055
 20
-19.3034854118
 10
-9.053431681
 20
-19.349427789
 10
-9.1097563383
 20
-19.3872942449
 10
-9.1345178925
 20
-19.4004964015
  0
LINE
  5
46A
100
AcDbEntity
  8
RACCORDO
100
AcDbLine
 62
250
  6
CONTINUOUS
 10
5.4184411468
 20
12.4694121499
 11
5.6599364514
 21
12.8185736167
  0
LWPOLYLINE
  5
46B
100
AcDbEntity
  8
RACCORDO
100
AcDbPolyline
 62
7
  6
CONTINUOUS
 90
8
 70
0
 10
5.9026748434
 20
11.390474807
 10
5.8510155497
 20
11.3477916263
 10
5.8071608604
 20
11.3019625178
 10
5.7707548078
 20
11.2526845605
 10
5.7421647267
 20
11.2000864601
 10
5.7219765685
 20
11.1448035253
 10
5.7106261086
 20
11.0876510452
 10
5.7081155706
 20
11.0439883204
  0
LWPOLYLINE
  5
46C
100
AcDbEntity
  8
RACCORDO
100
AcDbPolyline
 62
7
  6
CONTINUOUS
 90
10
 70
0
 10
-5.13707789
 20
1.8278223459
 10
-5.0385685975
 20
1.9074911892
 10
-4.9489885047
 20
2.0062104594
 10
-4.8696329344
 20
2.122766607
 10
-4.8019711455
 20
2.2543406677
 10
-4.7460092089
 20
2.399792067
 10
-4.701454474
 20
2.5598784777
 10
-4.6688889469
 20
2.7341465135
 10
-4.6491753
 20
2.9197153032
 10
-4.6425904392
 20
3.1144657814
  0
LWPOLYLINE
  5
46D
100
AcDbEntity
  8
RACCORDO
100
AcDbPolyline
 62
7
  6
CONTINUOUS
 90
7
 70
0
 10
15.3728378515
 20
13.4216477406
 10
15.3894400801
 20
13.432687969
 10
15.4034371986
 20
13.4471478857
 10
15.4145740234
 20
13.4648564569
 10
15.422661187
 20
13.4858996964
 10
15.4274936623
 20
13.5098046443
 10
15.4289698909
 20
13.5339608842
  0
LINE
  5
46E
100
AcDbEntity
  8
RACCORDO
100
AcDbLine
 62
7
  6
CONTINUOUS
 10
-5.2269252222
 20
1.7752618981
 11
-5.13707789
 21
1.8278223459
  0
LINE
  5
46F
100
AcDbEntity
  8
RACCORDO
100
AcDbLine
 62
7
  6
CONTINUOUS
 10
-14.0341932328
 20
-3.0644963169
 11
-11.8133914362
 21
-1.8357111155
  0
LINE
  5
470
100
AcDbEntity
  8
RACCORDO
100
AcDbLine
 62
7
  6
CONTINUOUS
 10
-16.2746095593
 20
-4.3028079806
 11
-14.0341932328
 21
-3.0644963169
  0
LINE
  5
471
100
AcDbEntity
  8
RACCORDO
100
AcDbLine
 62
7
  6
CONTINUOUS
 10
-18.534661106
 20
-5.5506682453
 11
-16.2746095593
 21
-4.3028079806
  0
LWPOLYLINE
  5
472
100
AcDbEntity
  8
RACCORDO
100
AcDbPolyline
 62
7
  6
CONTINUOUS
 90
3
 70
0
 10
-21.9617044666
 20
-7.4405227734
 10
-20.814430633
 20
-6.808165665
 10
-18.534661106
 20
-5.5506682453
  0
LINE
  5
473
100
AcDbEntity
  8
DRAFT
100
AcDbLine
 62
7
  6
CONTINUOUS
 10
9.2571011226
 20
9.3129176557
 11
10.8834286611
 21
10.1793370146
  0
LINE
  5
474
100
AcDbEntity
  8
RACCORDO
100
AcDbLine
 62
7
  6
CONTINUOUS
 10
15.3728378515
 20
12.8691876414
 11
9.0896792008
 21
9.5476384156
  0
LINE
  5
475
100
AcDbEntity
  8
DRAFT
100
AcDbLine
 62
7
  6
CONTINUOUS
 10
9.1206685268
 20
9.5296402334
 11
14.5755571548
 21
12.3443179437
  0
LINE
  5
476
100
AcDbEntity
  8
0
100
AcDbLine
 62
250
  6
CONTINUOUS
 10
-5.4465288864
 20
2.4034870489
 11
-4.661422295
 21
2.8044317103
  0
LINE
  5
477
100
AcDbEntity
  8
RACCORDO
100
AcDbLine
 62
7
  6
CONTINUOUS
 10
8.415254752
 20
9.8864430562
 11
15.3728378515
 21
13.4216477406
  0
LINE
  5
478
100
AcDbEntity
  8
RACCORDO
100
AcDbLine
 62
250
  6
CONTINUOUS
 10
27.0297991508
 20
16.5232938017
 11
16.846486276
 21
11.3615039414
  0
LINE
  5
479
100
AcDbEntity
  8
RACCORDO
100
AcDbLine
 62
250
  6
CONTINUOUS
 10
9.0885349235
 20
9.5498029705
 11
5.4521765442
 21
7.7176033067
  0
LINE
  5
47A
100
AcDbEntity
  8
RACCORDO
100
AcDbLine
 62
250
  6
CONTINUOUS
 10
9.2652846949
 20
9.2449547088
 11
5.6289263155
 21
7.412755045
  0
LINE
  5
47B
100
AcDbEntity
  8
0
100
AcDbLine
 62
7
  6
CONTINUOUS
 10
-5.151226076
 20
3.0360788959
 11
-5.8662636643
 21
2.6771698179
  0
LINE
  5
47C
100
AcDbEntity
  8
RACCORDO
100
AcDbLine
 62
250
  6
CONTINUOUS
 10
9.8248019774
 20
9.3516637161
 11
15.4675155604
 21
12.1328043004
  0
LINE
  5
47D
100
AcDbEntity
  8
RACCORDO
100
AcDbLine
 62
250
  6
CONTINUOUS
 10
9.9241958791
 20
9.2519713392
 11
15.8028579355
 21
12.1491769499
  0
LINE
  5
47E
100
AcDbEntity
  8
RACCORDO
100
AcDbLine
 62
7
  6
CONTINUOUS
 10
9.5929955371
 20
9.4296108908
 11
15.5129307088
 21
12.275636966
  0
LINE
  5
47F
100
AcDbEntity
  8
RACCORDO
100
AcDbLine
 62
250
  6
CONTINUOUS
 10
9.6813417482
 20
9.4233938307
 11
15.3937870592
 21
12.1696685511
  0
LINE
  5
480
100
AcDbEntity
  8
RACCORDO
100
AcDbLine
 62
7
  6
CONTINUOUS
 10
9.861304105
 20
9.0236524719
 11
9.2652846949
 21
8.7552203288
  0
LINE
  5
481
100
AcDbEntity
  8
RACCORDO
100
AcDbLine
 62
250
  6
CONTINUOUS
 10
9.2652846949
 20
8.4942130919
 11
10.1144075209
 21
8.8762807992
  0
LINE
  5
482
100
AcDbEntity
  8
RACCORDO
100
AcDbLine
 62
250
  6
CONTINUOUS
 10
10.848073322
 20
7.381607702
 11
9.2652846949
 21
6.7039544317
  0
LINE
  5
483
100
AcDbEntity
  8
RACCORDO
100
AcDbLine
 62
250
  6
CONTINUOUS
 10
10.7573753703
 20
7.7169133431
 11
9.2652846949
 21
7.0798707328
  0
LWPOLYLINE
  5
484
100
AcDbEntity
  8
RACCORDO
100
AcDbPolyline
 62
7
  6
CONTINUOUS
 90
4
 70
0
 10
-5.2270496682
 20
1.775511817
 10
-5.3408191798
 20
1.7271548364
 10
-5.4860342258
 20
1.6862294588
 10
-5.6389187909
 20
1.6654006617
  0
LWPOLYLINE
  5
485
100
AcDbEntity
  8
RACCORDO
100
AcDbPolyline
 62
250
  6
CONTINUOUS
 90
13
 70
0
 10
5.6289263155
 20
7.412755045
 10
5.6042595528
 20
7.4022986606
 10
5.5770996557
 20
7.3935218007
 10
5.5479010823
 20
7.386571326
 10
5.5171524033
 20
7.3815635364
 10
5.4853681267
 20
7.3785822259
 10
5.453080089
 20
7.3776772797
 10
5.420828556
 20
7.37886384
 10
5.3891531824
 20
7.3821220526
 10
5.3585839825
 20
7.3873973986
 10
5.3296324612
 20
7.3946016075
 10
5.3027830553
 20
7.4036141334
 10
5.2784850276
 20
7.4142841724
  0
LWPOLYLINE
  5
486
100
AcDbEntity
  8
RACCORDO
100
AcDbPolyline
 62
7
  6
CONTINUOUS
 90
11
 70
0
 10
9.8613239383
 20
9.0236116594
 10
9.8671459581
 20
9.0260676657
 10
9.8925867014
 20
9.0320108485
 10
9.9206694174
 20
9.0319611902
 10
9.9494919818
 20
9.0259506019
 10
9.9791519238
 20
9.0135634451
 10
10.0095517141
 20
8.9952153583
 10
10.0384966402
 20
8.9721851677
 10
10.0652551313
 20
8.9448991486
 10
10.0905587582
 20
8.9129310258
 10
10.1144075209
 20
8.8762807992
  0
LWPOLYLINE
  5
487
100
AcDbEntity
  8
RACCORDO
100
AcDbPolyline
 62
250
  6
CONTINUOUS
 90
10
 70
0
 10
-22.3837355031
 20
6.1092140867
 10
-22.3439622211
 20
6.0925074884
 10
-22.2990213256
 20
6.0794818254
 10
-22.2502602223
 20
6.0705276297
 10
-22.1991408535
 20
6.0659133636
 10
-22.1471958663
 20
6.0657773707
 10
-22.0959826612
 20
6.0701237283
 10
-22.0470366988
 20
6.0788221252
 10
-22.0018254635
 20
6.0916117683
 10
-21.9617044666
 20
6.108109202
  0
LWPOLYLINE
  5
488
100
AcDbEntity
  8
RACCORDO
100
AcDbPolyline
 62
7
  6
CONTINUOUS
 90
10
 70
0
 10
-21.731904085
 20
4.7559945434
 10
-21.687208539
 20
4.7346350228
 10
-21.5426287845
 20
4.6807160427
 10
-21.3892259414
 20
4.6457960571
 10
-21.2281655845
 20
4.6307025001
 10
-21.0610884304
 20
4.636070095
 10
-20.8899542587
 20
4.6621454322
 10
-20.7161813961
 20
4.7088922048
 10
-20.5408109532
 20
4.776246307
 10
-20.4870288495
 20
4.8009442725
  0
LINE
  5
489
100
AcDbEntity
  8
RACCORDO
100
AcDbLine
 62
250
  6
CONTINUOUS
 10
-23.8200539588
 20
6.8273733146
 11
-22.3837355031
 21
6.1092140867
  0
LWPOLYLINE
  5
48A
100
AcDbEntity
  8
RACCORDO
100
AcDbPolyline
 62
250
  6
CONTINUOUS
 90
5
 70
0
 10
-19.9325614632
 20
23.7398021023
 10
-19.9626959996
 20
23.7852624544
 10
-19.9822940884
 20
23.8322649787
 10
-19.9910984495
 20
23.880195431
 10
-19.991611781
 20
23.8940606561
  0
LWPOLYLINE
  5
48B
100
AcDbEntity
  8
0
100
AcDbPolyline
 62
7
  6
CONTINUOUS
 90
7
 70
0
 10
-9.6235180514
 20
10.1422842057
 10
-9.6217108358
 20
10.1387534127
 10
-9.5738790479
 20
10.0379473772
 10
-9.5304273336
 20
9.9389715715
 10
-9.4918959504
 20
9.8434198146
 10
-9.4571941224
 20
9.7503509694
 10
-9.4260118151
 20
9.6601611763
  0
LINE
  5
48C
100
AcDbEntity
  8
0
100
AcDbLine
 62
7
  6
CONTINUOUS
 10
-10.714340857
 20
10.0167114738
 11
-10.7927763244
 21
10.1702148296
  0
LWPOLYLINE
  5
48D
100
AcDbEntity
  8
0
100
AcDbPolyline
 62
250
  6
CONTINUOUS
 90
11
 70
0
 10
-4.7598933859
 20
2.9773896485
 10
-4.7548791762
 20
2.9563548021
 10
-4.7480202968
 20
2.9365606517
 10
-4.7394095015
 20
2.9182748795
 10
-4.729163236
 20
2.9017447698
 10
-4.7174200625
 20
2.8871938641
 10
-4.7043387853
 20
2.874818938
 10
-4.6900963056
 20
2.8647873425
 10
-4.6748852276
 20
2.8572347395
 10
-4.6589112539
 20
2.8522632662
 10
-4.6553472074
 20
2.8515291658
  0
LWPOLYLINE
  5
48E
100
AcDbEntity
  8
RACCORDO
100
AcDbPolyline
 62
250
  6
CONTINUOUS
 90
9
 70
0
 10
2.638676357
 20
-27.5719981842
 10
2.6463932412
 20
-27.6652820667
 10
2.6631044856
 20
-27.7526462283
 10
2.6886368459
 20
-27.8329544141
 10
2.7227221407
 20
-27.9051763223
 10
2.7649512291
 20
-27.9683277746
 10
2.814755771
 20
-28.0215117515
 10
2.8715481327
 20
-28.0640533607
 10
2.9000813003
 20
-28.0800127008
  0
LWPOLYLINE
  5
48F
100
AcDbEntity
  8
RACCORDO
100
AcDbPolyline
 62
250
  6
CONTINUOUS
 90
10
 70
0
 10
-3.0382386802
 20
15.8268282449
 10
-3.0407850566
 20
15.8577811942
 10
-3.0474747473
 20
15.8899781741
 10
-3.0581041389
 20
15.9224409831
 10
-3.0723500677
 20
15.9541836777
 10
-3.0897794265
 20
15.9842419675
 10
-3.1098621732
 20
16.0117026148
 10
-3.131987897
 20
16.0357319215
 10
-3.1554845454
 20
16.0556008902
 10
-3.1796384973
 20
16.0707068542
  0
LINE
  5
490
100
AcDbEntity
  8
RACCORDO
100
AcDbLine
 62
7
  6
CONTINUOUS
 10
-0.8432494987
 20
15.9120573285
 11
-0.7435014934
 21
14.4658211789
  0
LINE
  5
491
100
AcDbEntity
  8
DRAFT
100
AcDbLine
 62
7
  6
CONTINUOUS
 10
-1.3787032522
 20
-13.5843937213
 11
-1.3787032522
 21
-11.2725596865
  0
LINE
  5
492
100
AcDbEntity
  8
DRAFT
100
AcDbLine
 62
7
  6
CONTINUOUS
 10
-0.3242138207
 20
-16.8156028307
 11
-0.3242138207
 21
-15.3791635221
  0
LINE
  5
493
100
AcDbEntity
  8
DRAFT
100
AcDbLine
 62
7
  6
CONTINUOUS
 10
-0.3242138207
 20
-13.3568281923
 11
-0.3242138207
 21
-13.2430603188
  0
LWPOLYLINE
  5
494
100
AcDbEntity
  8
0
100
AcDbPolyline
 62
7
  6
CONTINUOUS
 90
8
 70
0
 10
0.0183333859
 20
-13.2264168396
 10
0.0187974654
 20
-13.2077479494
 10
0.0128122355
 20
-13.1895511023
 10
0.0009207249
 20
-13.1703047489
 10
-0.0165174476
 20
-13.1506660982
 10
-0.0393824093
 20
-13.1308542197
 10
-0.0677940329
 20
-13.110650044
 10
-0.0702757614
 20
-13.1091448192
  0
LINE
  5
495
100
AcDbEntity
  8
0
100
AcDbLine
 62
250
  6
CONTINUOUS
 10
-3.1597572382
 20
-14.9343300327
 11
-3.3202312394
 21
-15.6789254775
  0
LINE
  5
496
100
AcDbEntity
  8
0
100
AcDbLine
 62
250
  6
CONTINUOUS
 10
-3.0850072727
 20
-14.9265086472
 11
-3.245481274
 21
-15.6711040921
  0
LINE
  5
497
100
AcDbEntity
  8
RACCORDO
100
AcDbLine
 62
250
  6
CONTINUOUS
 10
1.9019529226
 20
17.915294605
 11
1.8145497177
 21
17.5421373612
  0
LINE
  5
498
100
AcDbEntity
  8
RACCORDO
100
AcDbLine
 62
250
  6
CONTINUOUS
 10
2.1778739812
 20
17.8583104646
 11
2.0904707763
 21
17.4851532208
  0
LINE
  5
499
100
AcDbEntity
  8
RACCORDO
100
AcDbLine
 62
250
  6
CONTINUOUS
 10
4.2284836467
 20
16.8330056319
 11
4.2080523871
 21
16.7457768798
  0
LINE
  5
49A
100
AcDbEntity
  8
RACCORDO
100
AcDbLine
 62
250
  6
CONTINUOUS
 10
3.9822158906
 20
15.7010054816
 11
3.9655308572
 21
15.6297707813
  0
LWPOLYLINE
  5
49B
100
AcDbEntity
  8
RACCORDO
100
AcDbPolyline
 62
7
  6
CONTINUOUS
 90
12
 70
0
 10
3.928914001
 20
15.6759029309
 10
3.9295691668
 20
15.6780409165
 10
3.9313256556
 20
15.6814625278
 10
3.9339138218
 20
15.6846628574
 10
3.9373231465
 20
15.687644704
 10
3.9415101426
 20
15.6903700331
 10
3.9464847719
 20
15.6928355588
 10
3.9522370726
 20
15.695044567
 10
3.9586936721
 20
15.696968881
 10
3.9658301128
 20
15.6985991087
 10
3.9736708523
 20
15.6999446422
 10
3.9822158906
 20
15.7010054816
  0
LWPOLYLINE
  5
49C
100
AcDbEntity
  8
RACCORDO
100
AcDbPolyline
 62
7
  6
CONTINUOUS
 90
12
 70
0
 10
4.2887071902
 20
16.7736709668
 10
4.2880520243
 20
16.7715329812
 10
4.2862955355
 20
16.7681113698
 10
4.2837073693
 20
16.7649110402
 10
4.2802980446
 20
16.7619291936
 10
4.2761110485
 20
16.7592038645
 10
4.2711364192
 20
16.7567383388
 10
4.2653841185
 20
16.7545293306
 10
4.258927519
 20
16.7526050166
 10
4.2517910783
 20
16.7509747889
 10
4.2439503388
 20
16.7496292554
 10
4.2354053005
 20
16.7485684161
  0
LWPOLYLINE
  5
49D
100
AcDbEntity
  8
RACCORDO
100
AcDbPolyline
 62
250
  6
CONTINUOUS
 90
5
 70
0
 10
5.9175607821
 20
11.2786546069
 10
5.9356824995
 20
11.3147469858
 10
5.9611558625
 20
11.3491217781
 10
5.9937065632
 20
11.3812841569
 10
6.0336089096
 20
11.4117289491
  0
LWPOLYLINE
  5
49E
100
AcDbEntity
  8
RACCORDO
100
AcDbPolyline
 62
250
  6
CONTINUOUS
 90
13
 70
0
 10
3.2300872508
 20
2.5727194879
 10
3.1515633383
 20
2.5121858786
 10
3.075532776
 20
2.4422649034
 10
3.0029617356
 20
2.363814926
 10
2.9347499705
 20
2.2777880488
 10
2.8718104579
 20
2.1852780693
 10
2.8150409073
 20
2.0875243813
 10
2.7651518219
 20
1.9857285506
 10
2.7228116996
 20
1.8812458909
 10
2.6886593157
 20
1.7756546755
 10
2.6631058786
 20
1.6703918818
 10
2.6463908511
 20
1.5667210951
 10
2.638676357
 20
1.4659500903
  0
LWPOLYLINE
  5
49F
100
AcDbEntity
  8
RACCORDO
100
AcDbPolyline
 62
250
  6
CONTINUOUS
 90
13
 70
0
 10
3.4344487945
 20
2.2849333554
 10
3.3745492428
 20
2.238913419
 10
3.3177819549
 20
2.187108858
 10
3.264146931
 20
2.1295196726
 10
3.212962793
 20
2.0652168914
 10
3.164910919
 20
1.9951294857
 10
3.1220354424
 20
1.9220443692
 10
3.0845953392
 20
1.8457921419
 10
3.0523316335
 20
1.7665422039
 10
3.0265115314
 20
1.6875896686
 10
3.0075574347
 20
1.6100329074
 10
2.9950469415
 20
1.532773549
 10
2.9889800518
 20
1.4558115933
  0
LINE
  5
4A0
100
AcDbEntity
  8
RACCORDO
100
AcDbLine
 62
250
  6
CONTINUOUS
 10
5.6356598842
 20
4.2448212445
 11
3.2300872508
 21
2.5727194879
  0
LINE
  5
4A1
100
AcDbEntity
  8
RACCORDO
100
AcDbLine
 62
250
  6
CONTINUOUS
 10
5.8119276903
 20
3.9375072926
 11
3.4344487945
 21
2.2849333554
  0
LINE
  5
4A2
100
AcDbEntity
  8
RACCORDO
100
AcDbLine
 62
250
  6
CONTINUOUS
 10
17.0645040355
 20
10.9526664714
 11
10.8121064589
 21
7.6645576706
  0
LINE
  5
4A3
100
AcDbEntity
  8
RACCORDO
100
AcDbLine
 62
250
  6
CONTINUOUS
 10
17.1009509997
 20
10.8183805258
 11
10.848073322
 21
7.5311663289
  0
LINE
  5
4A4
100
AcDbEntity
  8
RACCORDO
100
AcDbLine
 62
250
  6
CONTINUOUS
 10
27.7429683587
 20
15.3068868921
 11
17.1009509997
 21
9.9125856492
  0
LINE
  5
4A5
100
AcDbEntity
  8
RACCORDO
100
AcDbLine
 62
7
  6
CONTINUOUS
 10
5.6289263155
 20
4.5090313752
 11
5.8119276903
 21
4.5897000434
  0
LWPOLYLINE
  5
4A6
100
AcDbEntity
  8
RACCORDO
100
AcDbPolyline
 62
7
  6
CONTINUOUS
 90
19
 70
0
 10
-21.9617044666
 20
-7.4405227734
 10
-21.9838839549
 20
-7.4492576524
 10
-22.0075428763
 20
-7.4532315378
 10
-22.0323844748
 20
-7.4524127982
 10
-22.058217926
 20
-7.4464410334
 10
-22.0846696511
 20
-7.4356528577
 10
-22.1111525386
 20
-7.4211279022
 10
-22.1372046698
 20
-7.403044189
 10
-22.162778389
 20
-7.3813916838
 10
-22.1879300825
 20
-7.3569932462
 10
-22.2124332453
 20
-7.330088805
 10
-22.2361858015
 20
-7.3005724034
 10
-22.2594489852
 20
-7.268674314
 10
-22.2821072855
 20
-7.2344487509
 10
-22.3039905408
 20
-7.197901334
 10
-22.3252392636
 20
-7.1591138798
 10
-22.3457736363
 20
-7.1181087852
 10
-22.3653290699
 20
-7.0748880566
 10
-22.3837355031
 20
-7.0294798594
  0
LWPOLYLINE
  5
4A7
100
AcDbEntity
  8
RACCORDO
100
AcDbPolyline
 62
250
  6
CONTINUOUS
 90
10
 70
0
 10
2.9889800518
 20
1.4558115933
 10
2.9555390834
 20
1.4437136148
 10
2.9179313451
 20
1.4346470471
 10
2.8772743581
 20
1.4288813053
 10
2.834776253
 20
1.4265877203
 10
2.7916998692
 20
1.4278344459
 10
2.7493252296
 20
1.4325844336
 10
2.7089115051
 20
1.4406965364
 10
2.6716595977
 20
1.451929702
 10
2.6386764557
 20
1.4659501349
  0
LWPOLYLINE
  5
4A8
100
AcDbEntity
  8
RACCORDO
100
AcDbPolyline
 62
7
  6
CONTINUOUS
 90
21
 70
0
 10
-6.1318039399
 20
1.7213475201
 10
-6.3039225771
 20
1.7796517802
 10
-6.4760412054
 20
1.856320028
 10
-6.6481598195
 20
1.9517700488
 10
-6.8202784249
 20
2.0655840573
 10
-6.9885147715
 20
2.1951942334
 10
-7.152780231
 20
2.3409595395
 10
-7.3131634317
 20
2.5025210131
 10
-7.4660480093
 20
2.6762339469
 10
-7.6112631569
 20
2.8623739924
 10
-7.7489796814
 20
3.060665498
 10
-7.8760936388
 20
3.2666368013
 10
-7.9923639998
 20
3.4804618642
 10
-8.0980317937
 20
3.7019667248
 10
-8.190716165
 20
3.9261578349
 10
-8.2701222727
 20
4.1530961295
 10
-8.3365449578
 20
4.3827206735
 10
-8.3884878869
 20
4.6098551138
 10
-8.4254522821
 20
4.832773999
 10
-8.4479369213
 20
5.0532027805
 10
-8.4559418044
 20
5.2711414581
  0
LINE
  5
4A9
100
AcDbEntity
  8
ASSI
100
AcDbLine
 62
7
  6
CONTINUOUS
 10
-5.768626963
 20
1.6644474005
 11
-5.784376357
 21
1.6697826539
  0
LINE
  5
4AA
100
AcDbEntity
  8
ASSI
100
AcDbLine
 62
7
  6
CONTINUOUS
 10
-5.784376357
 20
1.6697826539
 11
-5.9810680702
 21
1.7573980457
  0
LINE
  5
4AB
100
AcDbEntity
  8
RACCORDO
100
AcDbLine
 62
7
  6
CONTINUOUS
 10
-13.5684358148
 20
5.2670717435
 11
-12.0255118392
 21
4.4956097557
  0
LWPOLYLINE
  5
4AC
100
AcDbEntity
  8
ASSI
100
AcDbPolyline
 62
7
  6
CONTINUOUS
 90
19
 70
0
 10
-5.9810680702
 20
1.7573980457
 10
-6.1777597834
 20
1.8664743671
 10
-6.3744514967
 20
1.9965349374
 10
-6.5667087163
 20
2.1446474889
 10
-6.7544307079
 20
2.3112220925
 10
-6.9377182059
 20
2.4958486772
 10
-7.1124389201
 20
2.6943647628
 10
-7.2783982466
 20
2.9070858646
 10
-7.4357907893
 20
3.1336964672
 10
-7.5810680702
 20
3.3690875436
 10
-7.7139548777
 20
3.6134585521
 10
-7.8347264235
 20
3.8666100344
 10
-7.9406598645
 20
4.1228345889
 10
-8.0314181367
 20
4.3822020237
 10
-8.1073383041
 20
4.6446425306
 10
-8.1667087163
 20
4.9042392831
 10
-8.2089588229
 20
5.1590200057
 10
-8.2346591741
 20
5.4109569739
 10
-8.24380977
 20
5.6600501877
  0
LWPOLYLINE
  5
4AD
100
AcDbEntity
  8
RACCORDO
100
AcDbPolyline
 62
250
  6
CONTINUOUS
 90
6
 70
0
 10
-19.4900751061
 20
13.1325090213
 10
-19.4436725468
 20
13.1019444778
 10
-19.3951104001
 20
13.0787180439
 10
-19.3451822092
 20
13.0632092105
 10
-19.2947037965
 20
13.0556713555
 10
-19.2444999955
 20
13.0562276279
  0
LWPOLYLINE
  5
4AE
100
AcDbEntity
  8
0
100
AcDbPolyline
 62
250
  6
CONTINUOUS
 90
9
 70
0
 10
-5.4231918022
 20
3.2864203984
 10
-5.3407866159
 20
3.228254372
 10
-5.2579709208
 20
3.1755381161
 10
-5.1744692605
 20
3.12813445
 10
-5.0905570914
 20
3.0861805546
 10
-5.0070607825
 20
3.0500879724
 10
-4.9242557901
 20
3.0199938845
 10
-4.8418666579
 20
2.9957611098
 10
-4.7598933859
 20
2.9773896485
  0
LWPOLYLINE
  5
4AF
100
AcDbEntity
  8
0
100
AcDbPolyline
 62
7
  6
CONTINUOUS
 90
10
 70
0
 10
-5.489875041
 20
3.2655170803
 10
-5.3998503615
 20
3.1956691187
 10
-5.3085368095
 20
3.1313589158
 10
-5.2161582909
 20
3.0727729923
 10
-5.1228312354
 20
3.0200325771
 10
-5.0288977093
 20
2.9733846427
 10
-4.9349198017
 20
2.9331229955
 10
-4.8412352919
 20
2.899368723
 10
-4.7479660555
 20
2.8721482921
 10
-4.6553472074
 20
2.8515291658
  0
LINE
  5
4B0
100
AcDbEntity
  8
0
100
AcDbLine
 62
250
  6
CONTINUOUS
 10
-5.5051864797
 20
3.3500361955
 11
-5.4231918022
 21
3.2864203984
  0
LINE
  5
4B1
100
AcDbEntity
  8
0
100
AcDbLine
 62
7
  6
CONTINUOUS
 10
-5.489875041
 20
3.2655170803
 11
-5.4898320327
 21
3.2654821848
  0
LINE
  5
4B2
100
AcDbEntity
  8
0
100
AcDbLine
 62
7
  6
CONTINUOUS
 10
-5.5510095774
 20
3.3168494606
 11
-5.4898320327
 21
3.2654821848
  0
LWPOLYLINE
  5
4B3
100
AcDbEntity
  8
0
100
AcDbPolyline
 62
7
  6
CONTINUOUS
 90
4
 70
0
 10
-10.4242700131
 20
9.6531163654
 10
-10.5205065338
 20
9.7484142735
 10
-10.6233383093
 20
9.8758243618
 10
-10.714340857
 20
10.0167114738
  0
LWPOLYLINE
  5
4B4
100
AcDbEntity
  8
0
100
AcDbPolyline
 62
250
  6
CONTINUOUS
 90
3
 70
0
 10
-10.1983164849
 20
9.4203825437
 10
-10.258700459
 20
9.4805129667
 10
-10.3141704728
 20
9.5423259632
  0
LINE
  5
4B5
100
AcDbEntity
  8
RACCORDO
100
AcDbLine
 62
250
  6
CONTINUOUS
 10
-5.3596540729
 20
6.2215310164
 11
-5.3182175067
 21
6.1772088853
  0
LINE
  5
4B6
100
AcDbEntity
  8
RACCORDO
100
AcDbLine
 62
250
  6
CONTINUOUS
 10
-5.3182175067
 20
6.1772088853
 11
-5.2767542318
 21
6.1322651497
  0
LINE
  5
4B7
100
AcDbEntity
  8
RACCORDO
100
AcDbLine
 62
250
  6
CONTINUOUS
 10
-5.2767542318
 20
6.1322651497
 11
-5.2352758008
 21
6.0866988298
  0
LWPOLYLINE
  5
4B8
100
AcDbEntity
  8
0
100
AcDbPolyline
 62
250
  6
CONTINUOUS
 90
13
 70
0
 10
-10.0472473627
 20
10.4526808876
 10
-10.0282524896
 20
10.4310788237
 10
-9.9884573495
 20
10.3808002052
 10
-9.9491624098
 20
10.3264104173
 10
-9.9112438281
 20
10.2687141391
 10
-9.8744156862
 20
10.2074494422
 10
-9.8385825762
 20
10.1431436973
 10
-9.8049414047
 20
10.0777727465
 10
-9.7734667958
 20
10.0114250646
 10
-9.7438348698
 20
9.9443067024
 10
-9.7169294654
 20
9.8784869442
 10
-9.6930212032
 20
9.8146998479
 10
-9.6716658946
 20
9.7524202114
  0
LINE
  5
4B9
100
AcDbEntity
  8
RACCORDO
100
AcDbLine
 62
7
  6
CONTINUOUS
 10
-6.00256526
 20
6.7909042524
 11
-5.3906608847
 21
6.0787557586
  0
LWPOLYLINE
  5
4BA
100
AcDbEntity
  8
RACCORDO
100
AcDbPolyline
 62
7
  6
CONTINUOUS
 90
3
 70
0
 10
-5.3906607601
 20
6.0787557052
 10
-5.3495397725
 20
6.0288696719
 10
-5.3160225271
 20
5.9876007959
  0
LWPOLYLINE
  5
4BB
100
AcDbEntity
  8
0
100
AcDbPolyline
 62
250
  6
CONTINUOUS
 90
11
 70
0
 10
-10.3141704728
 20
9.5423259632
 10
-10.365227931
 20
9.6056567593
 10
-10.4120678672
 20
9.6700869837
 10
-10.454885191
 20
9.7352116317
 10
-10.4941110262
 20
9.801026922
 10
-10.5299319988
 20
9.8672445381
 10
-10.5625010516
 20
9.9335506193
 10
-10.5921509474
 20
9.9999918113
 10
-10.6190926018
 20
10.0664330084
 10
-10.6434392767
 20
10.1325301675
 10
-10.6653513533
 20
10.1980657054
  0
LINE
  5
4BC
100
AcDbEntity
  8
RACCORDO
100
AcDbLine
 62
7
  6
CONTINUOUS
 10
-5.3160225271
 20
5.9876007959
 11
-5.2738411096
 21
5.9348549346
  0
LINE
  5
4BD
100
AcDbEntity
  8
RACCORDO
100
AcDbLine
 62
250
  6
CONTINUOUS
 10
-5.667091283
 20
6.000972698
 11
-5.5090946751
 21
5.8004125819
  0
LWPOLYLINE
  5
4BE
100
AcDbEntity
  8
RACCORDO
100
AcDbPolyline
 62
250
  6
CONTINUOUS
 90
12
 70
0
 10
-3.9646588289
 20
5.5240333944
 10
-4.5943104893
 20
6.3409412004
 10
-5.2425254865
 20
7.1269871339
 10
-5.9093038206
 20
7.882171195
 10
-6.5967939656
 20
8.6089268037
 10
-7.3028474474
 20
9.3048205399
 10
-8.0210188439
 20
9.9625521432
 10
-8.7513707747
 20
10.5814729464
 10
-9.4938406202
 20
11.1622316168
 10
-10.2417950991
 20
11.6994738951
 10
-10.9948530729
 20
12.192475021
 10
-11.7533956801
 20
12.6419597549
  0
LWPOLYLINE
  5
4BF
100
AcDbEntity
  8
RACCORDO
100
AcDbPolyline
 62
7
  6
CONTINUOUS
 90
22
 70
0
 10
-5.2738439305
 20
5.9348453785
 10
-4.7797021382
 20
5.2928929522
 10
-4.2087905472
 20
4.5021773447
 10
-3.6587193263
 20
3.6853985808
 10
-3.1309713711
 20
2.8447817209
 10
-2.6268104808
 20
1.9825792391
 10
-2.1474935363
 20
1.1011400573
 10
-1.6941260035
 20
0.2026710441
 10
-1.2677934705
 20
-0.7103518961
 10
-0.869663873
 20
-1.6351438646
 10
-0.5006883196
 20
-2.5692181055
 10
-0.161655494
 20
-3.5100873083
 10
0.1465870562
 20
-4.4549436212
 10
0.423353716
 20
-5.4012382675
 10
0.6681224462
 20
-6.3464648738
 10
0.8803589069
 20
-7.2878730962
 10
1.0596328911
 20
-8.2228988311
 10
1.2056900814
 20
-9.1492038752
 10
1.3183044817
 20
-10.0643738812
 10
1.3973067957
 20
-10.9659960011
 10
1.442695924
 20
-11.851551066
 10
1.4548887276
 20
-12.5914753996
  0
LWPOLYLINE
  5
4C0
100
AcDbEntity
  8
RACCORDO
100
AcDbPolyline
 62
250
  6
CONTINUOUS
 90
22
 70
0
 10
-5.235275799
 20
6.0866988039
 10
-4.6492995785
 20
5.3217267828
 10
-4.0841754058
 20
4.5313273355
 10
-3.5397879664
 20
3.7155534481
 10
-3.0141446691
 20
2.8715664453
 10
-2.5089776454
 20
2.0023257925
 10
-2.0297690717
 20
1.1165775952
 10
-1.5770598703
 20
0.2145434371
 10
-1.150055824
 20
-0.7038776824
 10
-0.7522789288
 20
-1.6304423246
 10
-0.3842012541
 20
-2.5643580058
 10
-0.04512808
 20
-3.5063075787
 10
0.2631210793
 20
-4.4502820802
 10
0.5405490825
 20
-5.3963232969
 10
0.7873456925
 20
-6.3442908211
 10
1.0019217726
 20
-7.2879253954
 10
1.1842029966
 20
-8.2279433702
 10
1.3344117138
 20
-9.1635483726
 10
1.4513328159
 20
-10.0862458046
 10
1.5345619163
 20
-10.9932006168
 10
1.5845542606
 20
-11.8872134823
 10
1.6013404374
 20
-12.7682644367
  0
LWPOLYLINE
  5
4C1
100
AcDbEntity
  8
RACCORDO
100
AcDbPolyline
 62
250
  6
CONTINUOUS
 90
13
 70
0
 10
-5.5090946751
 20
5.8004125819
 10
-5.3596436153
 20
5.5887859119
 10
-5.218604802
 20
5.3662539735
 10
-5.0885994679
 20
5.1367793996
 10
-4.9697758606
 20
4.9002102079
 10
-4.8619857326
 20
4.6566983808
 10
-4.7674055738
 20
4.4106624983
 10
-4.6862254411
 20
4.1618194989
 10
-4.6182552776
 20
3.9104524442
 10
-4.5651014028
 20
3.6618290985
 10
-4.5272992565
 20
3.4177053833
 10
-4.5043133988
 20
3.1763253772
 10
-4.4961438297
 20
2.9376890802
  0
LWPOLYLINE
  5
4C2
100
AcDbEntity
  8
RACCORDO
100
AcDbPolyline
 62
250
  6
CONTINUOUS
 90
10
 70
0
 10
-3.1403665948
 20
4.3554715663
 10
-3.2170333901
 20
4.4730175973
 10
-3.2941609951
 20
4.5901692415
 10
-3.3717497226
 20
4.7069263545
 10
-3.4499120719
 20
4.8235473768
 10
-3.5285360973
 20
4.9397736118
 10
-3.6072857322
 20
5.0548290802
 10
-3.6860494715
 20
5.1684548873
 10
-3.7649400483
 20
5.2809093693
 10
-3.8439580299
 20
5.3921922683
  0
LWPOLYLINE
  5
4C3
100
AcDbEntity
  8
RACCORDO
100
AcDbPolyline
 62
250
  6
CONTINUOUS
 90
13
 70
0
 10
2.9889800518
 20
-27.5650555352
 10
2.9949872192
 20
-27.6358981522
 10
3.0074224771
 20
-27.7008846143
 10
3.0262858255
 20
-27.7600149212
 10
3.0519789808
 20
-27.8139885011
 10
3.0841002266
 20
-27.862105926
 10
3.1214444138
 20
-27.9022689119
 10
3.1642887972
 20
-27.9340748423
 10
3.2123561221
 20
-27.9579263337
 10
3.2636094756
 20
-27.9729329519
 10
3.3173698866
 20
-27.9787978855
 10
3.3743163262
 20
-27.9758179458
 10
3.4344487945
 20
-27.9639931329
  0
LWPOLYLINE
  5
4C4
100
AcDbEntity
  8
RACCORDO
100
AcDbPolyline
 62
250
  6
CONTINUOUS
 90
5
 70
0
 10
2.754069756
 20
-14.7808650453
 10
2.7775608384
 20
-17.994734895
 10
2.8245429054
 20
-21.1965887552
 10
2.8950159765
 20
-24.3866956352
 10
2.9889800518
 20
-27.5650555352
  0
LINE
  5
4C5
100
AcDbEntity
  8
DRAFT
100
AcDbLine
 62
7
  6
CONTINUOUS
 10
1.1545396794
 20
-16.0308722977
 11
1.1545396794
 21
-12.5391811523
  0
LINE
  5
4C6
100
AcDbEntity
  8
DRAFT
100
AcDbLine
 62
7
  6
CONTINUOUS
 10
1.7617511838
 20
22.7119952815
 11
1.7617511838
 21
22.8354154848
  0
LINE
  5
4C7
100
AcDbEntity
  8
RACCORDO
100
AcDbLine
 62
250
  6
CONTINUOUS
 10
1.8093940927
 20
28.2675039026
 11
1.8093940927
 21
26.4853888849
  0
LINE
  5
4C8
100
AcDbEntity
  8
RACCORDO
100
AcDbLine
 62
7
  6
CONTINUOUS
 10
2.0961436435
 20
28.6179585347
 11
2.0961436435
 21
26.4546406223
  0
LINE
  5
4C9
100
AcDbEntity
  8
RACCORDO
100
AcDbLine
 62
7
  6
CONTINUOUS
 10
3.069898729
 20
18.6730679008
 11
3.069898729
 21
18.9044477037
  0
LINE
  5
4CA
100
AcDbEntity
  8
DRAFT
100
AcDbLine
 62
7
  6
CONTINUOUS
 10
3.069898729
 20
18.9910238641
 11
3.069898729
 21
19.0776264044
  0
LWPOLYLINE
  5
4CB
100
AcDbEntity
  8
RACCORDO
100
AcDbPolyline
 62
7
  6
CONTINUOUS
 90
17
 70
0
 10
1.4548906097
 20
-12.5915094382
 10
1.4412910259
 20
-13.3580821377
 10
1.3903963859
 20
-14.2410114257
 10
1.3018460303
 20
-15.0982615305
 10
1.175841485
 20
-15.9267282119
 10
1.0127287892
 20
-16.7241827987
 10
0.812778662
 20
-17.4887589304
 10
0.5764371735
 20
-18.2181247746
 10
0.304362384
 20
-18.9099531007
 10
-0.0028788284
 20
-19.5622505332
 10
-0.3444412782
 20
-20.1728576303
 10
-0.7194603864
 20
-20.7400543784
 10
-1.1273822482
 20
-21.2625250979
 10
-1.5671261585
 20
-21.7385731114
 10
-2.0377783819
 20
-22.1669293472
 10
-2.5392586932
 20
-22.5468862586
 10
-3.0808666015
 20
-22.8828251245
  0
LWPOLYLINE
  5
4CC
100
AcDbEntity
  8
RACCORDO
100
AcDbPolyline
 62
250
  6
CONTINUOUS
 90
3
 70
0
 10
1.6013404374
 20
-12.7682644367
 10
1.5845528851
 20
-13.6307539809
 10
1.5345727053
 20
-14.4696568772
  0
LWPOLYLINE
  5
4CD
100
AcDbEntity
  8
RACCORDO
100
AcDbPolyline
 62
250
  6
CONTINUOUS
 90
10
 70
0
 10
2.638676357
 20
1.4659500903
 10
2.5446633501
 20
-1.8047254394
 10
2.4741473802
 20
-5.0649236897
 10
2.4271337744
 20
-8.3143939609
 10
2.4036260843
 20
-11.5528863539
 10
2.4036260842
 20
-14.7801519088
 10
2.4271337742
 20
-17.9959426222
 10
2.4741473799
 20
-21.2000113084
 10
2.54466335
 20
-24.3921116199
 10
2.638676357
 20
-27.5719981842
  0
LWPOLYLINE
  5
4CE
100
AcDbEntity
  8
RACCORDO
100
AcDbPolyline
 62
250
  6
CONTINUOUS
 90
6
 70
0
 10
2.9889800518
 20
1.4558115933
 10
2.8950158592
 20
-1.8132960343
 10
2.8245427294
 20
-5.07146371
 10
2.7775606624
 20
-8.318691434
 10
2.7540696778
 20
-11.5552482156
 10
2.754069756
 20
-14.7808650453
  0
LWPOLYLINE
  5
4CF
100
AcDbEntity
  8
RACCORDO
100
AcDbPolyline
 62
250
  6
CONTINUOUS
 90
9
 70
0
 10
2.0961436435
 20
28.6179585347
 10
2.095005944
 20
28.5941147481
 10
2.0846375303
 20
28.5423281246
 10
2.063558863
 20
28.4913609507
 10
2.0319983277
 20
28.4417654516
 10
1.9902978804
 20
28.3940789908
 10
1.9389093421
 20
28.3488182473
 10
1.8783895036
 20
28.3064736176
 10
1.8093940927
 20
28.2675039026
  0
LWPOLYLINE
  5
4D0
100
AcDbEntity
  8
RACCORDO
100
AcDbPolyline
 62
250
  6
CONTINUOUS
 90
20
 70
0
 10
1.5345727053
 20
-14.4696568772
 10
1.4513692072
 20
-15.2849838028
 10
1.3344943492
 20
-16.0790787028
 10
1.1843450118
 20
-16.8496142733
 10
1.0021145986
 20
-17.5896167839
 10
0.7875725089
 20
-18.2982753676
 10
0.5408021786
 20
-18.9764684501
 10
0.2633972241
 20
-19.6197934079
 10
-0.0448338143
 20
-20.2281059505
 10
-0.3838920927
 20
-20.8016443642
 10
-0.7519489071
 20
-21.3366070752
 10
-1.1496890361
 20
-21.8331792627
 10
-1.5766505122
 20
-22.2912888516
 10
-2.0293321593
 20
-22.7067745881
 10
-2.5085257696
 20
-23.0792194395
 10
-3.0136926767
 20
-23.409173058
 10
-3.5393783955
 20
-23.6939478748
 10
-4.0838599666
 20
-23.9326991649
 10
-4.649120664
 20
-24.126411242
 10
-5.2352757505
 20
-24.2751464054
  0
LWPOLYLINE
  5
4D1
100
AcDbEntity
  8
RACCORDO
100
AcDbPolyline
 62
7
  6
CONTINUOUS
 90
14
 70
0
 10
4.4374625444
 20
13.271701307
 10
4.4385063259
 20
13.281875573
 10
4.4400690112
 20
13.2916126464
 10
4.4421506003
 20
13.3009125273
 10
4.4447629781
 20
13.3098073169
 10
4.4478942596
 20
13.3182649139
 10
4.4515087902
 20
13.3261890149
 10
4.4556120933
 20
13.3335735221
 10
4.4601986456
 20
13.3404245332
 10
4.4652162215
 20
13.3466640385
 10
4.4706697478
 20
13.3522850484
 10
4.4765542977
 20
13.3572945524
 10
4.4828028662
 20
13.3616355092
 10
4.4888952577
 20
13.3650409541
  0
LWPOLYLINE
  5
4D2
100
AcDbEntity
  8
RACCORDO
100
AcDbPolyline
 62
250
  6
CONTINUOUS
 90
15
 70
0
 10
6.9954597558
 20
20.7206315608
 10
6.998652937
 20
20.7366208371
 10
7.0186088247
 20
20.8020450033
 10
7.0453214344
 20
20.8668766689
 10
7.0787283347
 20
20.9309508573
 10
7.11873999
 20
20.994085075
 10
7.1652377636
 20
21.056090751
 10
7.2181004147
 20
21.116807849
 10
7.2771792852
 20
21.1760670662
 10
7.3422720646
 20
21.2336749994
 10
7.4131478965
 20
21.289448467
 10
7.4896410342
 20
21.3432764026
 10
7.571632438
 20
21.3950775862
 10
7.658881035
 20
21.4446952256
 10
7.6792504144
 20
21.4555642069
  0
LINE
  5
4D3
100
AcDbEntity
  8
0
100
AcDbLine
 62
250
  6
CONTINUOUS
 10
-1.5343107538
 20
-15.5432983667
 11
-1.3738367526
 21
-14.7987029219
  0
LINE
  5
4D4
100
AcDbEntity
  8
0
100
AcDbLine
 62
250
  6
CONTINUOUS
 10
-1.4595607884
 20
-15.5354769812
 11
-1.2990867872
 21
-14.7908815364
  0
LINE
  5
4D5
100
AcDbEntity
  8
COPY-PUBBLISH
100
AcDbLine
 62
250
  6
CONTINUOUS
 10
-0.1491760987
 20
-13.3100987527
 11
-0.1104306214
 21
-13.1303206845
  0
LINE
  5
4D6
100
AcDbEntity
  8
RACCORDO
100
AcDbLine
 62
250
  6
CONTINUOUS
 10
5.9324615753
 20
15.9000402787
 11
5.8450583705
 21
15.5268830348
  0
LINE
  5
4D7
100
AcDbEntity
  8
RACCORDO
100
AcDbLine
 62
250
  6
CONTINUOUS
 10
6.208382634
 20
15.8430561383
 11
6.1209794291
 21
15.4698988944
  0
LWPOLYLINE
  5
4D8
100
AcDbEntity
  8
0
100
AcDbPolyline
 62
250
  6
CONTINUOUS
 90
13
 70
0
 10
-9.6083275127
 20
-16.0239821099
 10
-9.4844835212
 20
-15.871907376
 10
-9.3561749132
 20
-15.7257779353
 10
-9.2235429224
 20
-15.5858952078
 10
-9.0866474585
 20
-15.4525436701
 10
-8.9461762419
 20
-15.3266017541
 10
-8.8032505128
 20
-15.2091938379
 10
-8.6585640861
 20
-15.1009591115
 10
-8.5123161621
 20
-15.0021043234
 10
-8.3649491944
 20
-14.9128594657
 10
-8.2168385225
 20
-14.8333859928
 10
-8.0685703906
 20
-14.7640000196
 10
-7.9209080069
 20
-14.7050733513
  0
LWPOLYLINE
  5
4D9
100
AcDbEntity
  8
0
100
AcDbPolyline
 62
7
  6
CONTINUOUS
 90
17
 70
0
 10
-9.719711507
 20
-15.7766097706
 10
-9.8133374799
 20
-15.8895884007
 10
-9.9046880016
 20
-16.006514614
 10
-9.9932376771
 20
-16.1267156809
 10
-10.0789703817
 20
-16.2502107295
 10
-10.1619022399
 20
-16.3769806319
 10
-10.2415562309
 20
-16.506295274
 10
-10.3179128155
 20
-16.6381681606
 10
-10.3909915328
 20
-16.772585787
 10
-10.4603739787
 20
-16.9087775253
 10
-10.5260391691
 20
-17.0467538296
 10
-10.5880080881
 20
-17.1865042459
 10
-10.6459252846
 20
-17.3272267844
 10
-10.6997674636
 20
-17.4689267139
 10
-10.7495579201
 20
-17.6115987658
 10
-10.7950110877
 20
-17.7544251441
 10
-10.8360317776
 20
-17.8971332505
  0
LINE
  5
4DA
100
AcDbEntity
  8
0
100
AcDbLine
 62
7
  6
CONTINUOUS
 10
-9.6237969161
 20
-15.6676015663
 11
-9.719711507
 21
-15.7766097706
  0
LINE
  5
4DB
100
AcDbEntity
  8
RACCORDO
100
AcDbLine
 62
7
  6
CONTINUOUS
 10
-5.6389187909
 20
1.6654006617
 11
-5.7993020468
 21
1.6642219609
  0
LWPOLYLINE
  5
4DC
100
AcDbEntity
  8
COPY-PUBBLISH
100
AcDbPolyline
 62
250
  6
CONTINUOUS
 90
39
 70
0
 10
-4.8969373658
 20
2.0826623103
 10
-4.9984412609
 20
2.0874592516
 10
-5.1096584304
 20
2.1016290138
 10
-5.2221658421
 20
2.1246313911
 10
-5.3357163867
 20
2.156320226
 10
-5.4501339786
 20
2.1965934821
 10
-5.5650208495
 20
2.2452816729
 10
-5.679995903
 20
2.3021940051
 10
-5.7949160024
 20
2.3672573455
 10
-5.9093940344
 20
2.4402765275
 10
-6.0230394747
 20
2.5210265992
 10
-6.1356965806
 20
2.6094471648
 10
-6.2471068685
 20
2.7054288946
 10
-6.3567264723
 20
2.808598567
 10
-6.4639747433
 20
2.9184675397
 10
-6.5687407529
 20
3.034994339
 10
-6.6703598048
 20
3.1575139792
 10
-6.7675425579
 20
3.2843697575
 10
-6.8600408166
 20
3.4149863102
 10
-6.9476501964
 20
3.5488153194
 10
-7.0294107683
 20
3.6839719591
 10
-7.1051533553
 20
3.8195552696
 10
-7.1750582311
 20
3.9552434381
 10
-7.2389205556
 20
4.0899346402
 10
-7.2968441065
 20
4.2230313783
 10
-7.3490322757
 20
4.3541437595
 10
-7.3955600391
 20
4.4825207214
 10
-7.4366690424
 20
4.6077818836
 10
-7.4726250516
 20
4.729617922
 10
-7.5036281249
 20
4.8474524761
 10
-7.5299906465
 20
4.961052861
 10
-7.5520364388
 20
5.0702547349
 10
-7.5700465703
 20
5.1746563559
 10
-7.5843682263
 20
5.274170586
 10
-7.5953439399
 20
5.3687436021
 10
-7.6032899759
 20
5.4580896976
 10
-7.6085509858
 20
5.5421382143
 10
-7.6114725098
 20
5.6210211106
 10
-7.6123771364
 20
5.6948019653
  0
LWPOLYLINE
  5
4DD
100
AcDbEntity
  8
RACCORDO
100
AcDbPolyline
 62
7
  6
CONTINUOUS
 90
3
 70
0
 10
-5.7993020468
 20
1.6642219609
 10
-5.9635675596
 20
1.6827217115
 10
-6.1318039399
 20
1.7213475201
  0
LWPOLYLINE
  5
4DE
100
AcDbEntity
  8
0
100
AcDbPolyline
 62
250
  6
CONTINUOUS
 90
4
 70
0
 10
-4.7598933859
 20
2.9773896485
 10
-4.7123053049
 20
2.9715011077
 10
-4.665917404
 20
2.96776742
 10
-4.647572012
 20
2.9671333285
  0
LINE
  5
4DF
100
AcDbEntity
  8
0
100
AcDbLine
 62
7
  6
CONTINUOUS
 10
-4.6553472074
 20
2.8515291658
 11
-4.6551678218
 21
2.8514956793
  0
LINE
  5
4E0
100
AcDbEntity
  8
RACCORDO
100
AcDbLine
 62
7
  6
CONTINUOUS
 10
-5.235275799
 20
6.0866988039
 11
-3.8439580299
 21
5.3921922683
  0
LINE
  5
4E1
100
AcDbEntity
  8
0
100
AcDbLine
 62
250
  6
CONTINUOUS
 10
-4.7598933859
 20
2.9773896485
 11
-5.5051864797
 21
3.3500361955
  0
LINE
  5
4E2
100
AcDbEntity
  8
0
100
AcDbLine
 62
250
  6
CONTINUOUS
 10
-4.7684792674
 20
4.0371766841
 11
-6.2410916362
 21
4.7734828685
  0
LINE
  5
4E3
100
AcDbEntity
  8
RACCORDO
100
AcDbLine
 62
250
  6
CONTINUOUS
 10
-27.7094459972
 20
16.6400112675
 11
-21.9304428083
 21
13.750509673
  0
LINE
  5
4E4
100
AcDbEntity
  8
RACCORDO
100
AcDbLine
 62
250
  6
CONTINUOUS
 10
-3.1403665948
 20
4.3554715663
 11
2.638676357
 21
1.4659500903
  0
LINE
  5
4E5
100
AcDbEntity
  8
RACCORDO
100
AcDbLine
 62
250
  6
CONTINUOUS
 10
-21.1872720374
 20
14.0626969158
 11
-19.7918455364
 21
13.3649836653
  0
LINE
  5
4E6
100
AcDbEntity
  8
0
100
AcDbLine
 62
250
  6
CONTINUOUS
 10
-9.9851609889
 20
9.2555203922
 11
-10.0619349631
 21
9.3074058477
  0
LWPOLYLINE
  5
4E7
100
AcDbEntity
  8
RACCORDO
100
AcDbPolyline
 62
250
  6
CONTINUOUS
 90
9
 70
0
 10
-10.7216692135
 20
11.1017058665
 10
-9.9996194255
 20
10.6062571034
 10
-9.2896585699
 20
10.0746941156
 10
-8.5920672525
 20
9.5063010664
 10
-7.9065648675
 20
8.9017937924
 10
-7.2398977259
 20
8.2701639816
 10
-6.5943145982
 20
7.6144088633
 10
-5.9675667138
 20
6.9315312083
 10
-5.3596540729
 20
6.2215310164
  0
LINE
  5
4E8
100
AcDbEntity
  8
0
100
AcDbLine
 62
7
  6
CONTINUOUS
 10
-8.9159606175
 20
8.8765492546
 11
-8.7734368042
 21
8.7770463268
  0
LWPOLYLINE
  5
4E9
100
AcDbEntity
  8
0
100
AcDbPolyline
 62
7
  6
CONTINUOUS
 90
3
 70
0
 10
-10.1992604087
 20
9.4106949806
 10
-10.0268558699
 20
9.2807389929
 10
-9.8689047523
 20
9.1905060132
  0
LWPOLYLINE
  5
4EA
100
AcDbEntity
  8
0
100
AcDbPolyline
 62
250
  6
CONTINUOUS
 90
3
 70
0
 10
-10.0619349631
 20
9.3074058477
 10
-10.1327982303
 20
9.3624894218
 10
-10.1983164849
 20
9.4203825437
  0
LWPOLYLINE
  5
4EB
100
AcDbEntity
  8
RACCORDO
100
AcDbPolyline
 62
250
  6
CONTINUOUS
 90
7
 70
0
 10
-3.8526314841
 20
5.4003776043
 10
-3.8731933787
 20
5.4241132269
 10
-3.8930165443
 20
5.446590762
 10
-3.9120871598
 20
5.4678160333
 10
-3.9303922921
 20
5.4877946723
 10
-3.9479198985
 20
5.5065320804
 10
-3.9646588289
 20
5.5240333944
  0
LWPOLYLINE
  5
4EC
100
AcDbEntity
  8
RACCORDO
100
AcDbPolyline
 62
250
  6
CONTINUOUS
 90
25
 70
0
 10
-2.8698051626
 20
6.3852818854
 10
-3.5269170811
 20
7.2373578583
 10
-4.2064159973
 20
8.0614478641
 10
-4.9067937829
 20
8.8552387537
 10
-5.6268996259
 20
9.6169051422
 10
-6.3646597526
 20
10.3437434453
 10
-7.1169934574
 20
11.0324046022
 10
-7.8819596888
 20
11.6809491956
 10
-8.657741583
 20
12.287676536
 10
-9.4412635795
 20
12.850123828
 10
-10.2300632928
 20
13.3666190354
 10
-11.0226043109
 20
13.8362509529
 10
-11.8171473677
 20
14.2580148446
 10
-12.6116767739
 20
14.6308427155
 10
-13.4041932069
 20
14.9537983735
 10
-14.1929818238
 20
15.2261573382
 10
-14.9765076536
 20
15.4472926061
 10
-15.7523064847
 20
15.6164109188
 10
-16.5173210732
 20
15.7328993052
 10
-17.2697390192
 20
15.796635611
 10
-18.0076109883
 20
15.8076107735
 10
-18.7278541268
 20
15.7660868575
 10
-19.4283918898
 20
15.6726875262
 10
-20.108070115
 20
15.5280814257
 10
-20.7653770975
 20
15.3330678529
  0
LINE
  5
4ED
100
AcDbEntity
  8
RACCORDO
100
AcDbLine
 62
250
  6
CONTINUOUS
 10
-2.7647375888
 20
6.2427878913
 11
-2.8698051626
 21
6.3852818854
  0
LWPOLYLINE
  5
4EE
100
AcDbEntity
  8
RACCORDO
100
AcDbPolyline
 62
250
  6
CONTINUOUS
 90
7
 70
0
 10
-2.2091165815
 20
5.4342442937
 10
-2.299052774
 20
5.5682018486
 10
-2.3900490212
 20
5.7025049957
 10
-2.4821106011
 20
5.8371347084
 10
-2.5752426252
 20
5.9720716223
 10
-2.6694500334
 20
6.1072960325
 10
-2.7647375888
 20
6.2427878913
  0
LWPOLYLINE
  5
4EF
100
AcDbEntity
  8
RACCORDO
100
AcDbPolyline
 62
250
  6
CONTINUOUS
 90
5
 70
0
 10
-9.7892016337
 20
18.6681221876
 10
-9.8193361701
 20
18.7135825396
 10
-9.8389342589
 20
18.760585064
 10
-9.84773862
 20
18.8085155162
 10
-9.8482519515
 20
18.8223807414
  0
LWPOLYLINE
  5
4F0
100
AcDbEntity
  8
RACCORDO
100
AcDbPolyline
 62
7
  6
CONTINUOUS
 90
12
 70
0
 10
2.0961436435
 20
28.6179585347
 10
2.0908702232
 20
28.7205155463
 10
2.0749502639
 20
28.8227435368
 10
2.0483775834
 20
28.9233280221
 10
2.0113904154
 20
29.0208522015
 10
1.964353003
 20
29.1141565377
 10
1.9075895628
 20
29.2023860496
 10
1.8413900855
 20
29.2847475952
 10
1.7666895449
 20
29.3598265755
 10
1.6848761709
 20
29.4262864455
 10
1.5966190809
 20
29.4837092244
 10
1.5432313096
 20
29.5124486609
  0
LINE
  5
4F1
100
AcDbEntity
  8
RACCORDO
100
AcDbLine
 62
7
  6
CONTINUOUS
 10
3.7014194735
 20
24.941323741
 11
3.7014194735
 21
24.7485016451
  0
LINE
  5
4F2
100
AcDbEntity
  8
DRAFT
100
AcDbLine
 62
7
  6
CONTINUOUS
 10
4.6438426624
 20
18.2040518973
 11
4.6438426624
 21
17.962716386
  0
LINE
  5
4F3
100
AcDbEntity
  8
DRAFT
100
AcDbLine
 62
7
  6
CONTINUOUS
 10
5.1085794894
 20
19.4693291978
 11
5.1085794894
 21
19.1014592763
  0
LINE
  5
4F4
100
AcDbEntity
  8
RACCORDO
100
AcDbLine
 62
250
  6
CONTINUOUS
 10
5.2784850276
 20
7.4142841724
 11
5.2784850276
 21
4.5179891209
  0
LINE
  5
4F5
100
AcDbEntity
  8
RACCORDO
100
AcDbLine
 62
250
  6
CONTINUOUS
 10
5.2784850276
 20
-28.0748083349
 11
5.2784850276
 21
-30.9711033865
  0
LINE
  5
4F6
100
AcDbEntity
  8
RACCORDO
100
AcDbLine
 62
250
  6
CONTINUOUS
 10
5.6289263155
 20
7.412755045
 11
5.6289263155
 21
4.5090313752
  0
LINE
  5
4F7
100
AcDbEntity
  8
RACCORDO
100
AcDbLine
 62
250
  6
CONTINUOUS
 10
5.6289263155
 20
-28.0689088441
 11
5.6289263155
 21
-30.9726325139
  0
LINE
  5
4F8
100
AcDbEntity
  8
RACCORDO
100
AcDbLine
 62
7
  6
CONTINUOUS
 10
5.7080951579
 20
10.6922851456
 11
5.7080951579
 21
11.0452152706
  0
LINE
  5
4F9
100
AcDbEntity
  8
RACCORDO
100
AcDbLine
 62
7
  6
CONTINUOUS
 10
5.8119276903
 20
4.5897000434
 11
5.8119276903
 21
3.9375072926
  0
LINE
  5
4FA
100
AcDbEntity
  8
RACCORDO
100
AcDbLine
 62
7
  6
CONTINUOUS
 10
5.8119276903
 20
-27.3206623881
 11
5.8119276903
 21
-27.9728551389
  0
LWPOLYLINE
  5
4FB
100
AcDbEntity
  8
0
100
AcDbPolyline
 62
7
  6
CONTINUOUS
 90
19
 70
0
 10
6.0397472099
 20
12.8884758586
 10
6.0417489028
 20
12.9429649991
 10
6.0473708546
 20
12.9980762109
 10
6.0566130654
 20
13.053809494
 10
6.0696003431
 20
13.1105962836
 10
6.0862078797
 20
13.1680051445
 10
6.1060612518
 20
13.2247417709
 10
6.129234192
 20
13.2807908921
 10
6.1556529676
 20
13.3361677789
 10
6.1847219568
 20
13.389623937
 10
6.216501362
 20
13.441115735
 10
6.2509309807
 20
13.4906868043
 10
6.2872345833
 20
13.5372195453
 10
6.3254547396
 20
13.580644939
 10
6.3655488798
 20
13.6210320045
 10
6.4066130654
 20
13.657470199
 10
6.4483459837
 20
13.6896560084
 10
6.4910489475
 20
13.717892947
 10
6.5347219568
 20
13.7421810147
  0
LWPOLYLINE
  5
4FC
100
AcDbEntity
  8
0
100
AcDbPolyline
 62
7
  6
CONTINUOUS
 90
9
 70
0
 10
6.5777937425
 20
21.2006514659
 10
6.580341812
 20
21.2598289322
 10
6.6072948268
 20
21.4015156302
 10
6.6633961021
 20
21.5410502078
 10
6.7480445516
 20
21.6769376488
 10
6.8603332258
 20
21.8077220135
 10
6.9990590295
 20
21.9320020379
 10
7.1627356118
 20
22.0484461478
 10
7.3496092915
 20
22.1558067253
  0
LWPOLYLINE
  5
4FD
100
AcDbEntity
  8
0
100
AcDbPolyline
 62
7
  6
CONTINUOUS
 90
16
 70
0
 10
6.3225899224
 20
13.0298972149
 10
6.3238564547
 20
13.0581653435
 10
6.3273172816
 20
13.0866574137
 10
6.3329724032
 20
13.1153734254
 10
6.3409310581
 20
13.1446305748
 10
6.3510840078
 20
13.1741116657
 10
6.3631035359
 20
13.2028651097
 10
6.3770505472
 20
13.2308671645
 10
6.392864137
 20
13.2581415724
 10
6.4100338754
 20
13.2838079721
 10
6.4286040123
 20
13.3078138961
 10
6.4485302979
 20
13.3302118118
 10
6.4691695531
 20
13.3502787613
 10
6.4903073848
 20
13.3677737583
 10
6.512158186
 20
13.3829377889
 10
6.5347219568
 20
13.3957708532
  0
LWPOLYLINE
  5
4FE
100
AcDbEntity
  8
RACCORDO
100
AcDbPolyline
 62
250
  6
CONTINUOUS
 90
10
 70
0
 10
5.2784850276
 20
7.4142841724
 10
5.281111461
 20
7.4527797697
 10
5.2889127175
 20
7.4927579151
 10
5.3016569852
 20
7.5330306701
 10
5.3189655718
 20
7.5724013417
 10
5.3403241579
 20
7.6097000421
 10
5.3650980794
 20
7.6438184516
 10
5.3925511868
 20
7.6737427519
 10
5.4218677191
 20
7.6985837512
 10
5.4521765442
 20
7.7176033067
  0
LINE
  5
4FF
100
AcDbEntity
  8
RACCORDO
100
AcDbLine
 62
7
  6
CONTINUOUS
 10
4.337714539
 20
11.9252131627
 11
4.4374625444
 21
13.271701307
  0
LINE
  5
500
100
AcDbEntity
  8
RACCORDO
100
AcDbLine
 62
7
  6
CONTINUOUS
 10
4.6204380719
 20
12.0650257266
 11
4.7113950234
 21
13.2928443308
  0
LWPOLYLINE
  5
501
100
AcDbEntity
  8
RACCORDO
100
AcDbPolyline
 62
250
  6
CONTINUOUS
 90
18
 70
0
 10
7.1089799645
 20
20.6586809718
 10
7.1143779548
 20
20.7109745366
 10
7.1270936399
 20
20.7725108148
 10
7.1461018382
 20
20.8338058627
 10
7.1712634548
 20
20.8943907114
 10
7.202633112
 20
20.9542689924
 10
7.2401561875
 20
21.0134370742
 10
7.2835297193
 20
21.071415093
 10
7.3328129377
 20
21.1281957704
 10
7.3879466123
 20
21.1837863848
 10
7.4484500906
 20
21.2377289071
 10
7.5143224422
 20
21.2899818066
 10
7.5855645976
 20
21.340586614
 10
7.6616986952
 20
21.3892098925
 10
7.7427153242
 20
21.435837635
 10
7.8286238956
 20
21.4804838487
 10
7.9189747813
 20
21.5228571178
 10
8.0140250615
 20
21.5630163158
  0
LINE
  5
502
100
AcDbEntity
  8
COPY-PUBBLISH
100
AcDbLine
 62
250
  6
CONTINUOUS
 10
0.7763979902
 20
-15.2276323654
 11
0.9368719914
 21
-14.4830369205
  0
LINE
  5
503
100
AcDbEntity
  8
0
100
AcDbLine
 62
250
  6
CONTINUOUS
 10
0.7998503922
 20
-15.225559062
 11
0.9603243934
 21
-14.4809636172
  0
LINE
  5
504
100
AcDbEntity
  8
0
100
AcDbLine
 62
250
  6
CONTINUOUS
 10
6.963842493
 20
13.5976152312
 11
7.0512456979
 21
13.9707724751
  0
LINE
  5
505
100
AcDbEntity
  8
RACCORDO
100
AcDbLine
 62
250
  6
CONTINUOUS
 10
8.2589922994
 20
14.8177513055
 11
8.2385610399
 21
14.7305225534
  0
LWPOLYLINE
  5
506
100
AcDbEntity
  8
RACCORDO
100
AcDbPolyline
 62
7
  6
CONTINUOUS
 90
12
 70
0
 10
8.3192158429
 20
14.7584166404
 10
8.3185606771
 20
14.7562786548
 10
8.3168041883
 20
14.7528570435
 10
8.3142160221
 20
14.7496567139
 10
8.3108066974
 20
14.7466748673
 10
8.3066197013
 20
14.7439495381
 10
8.301645072
 20
14.7414840125
 10
8.2958927713
 20
14.7392750043
 10
8.2894361718
 20
14.7373506902
 10
8.2822997311
 20
14.7357204626
 10
8.2744589916
 20
14.734374929
 10
8.2659139533
 20
14.7333140897
  0
LWPOLYLINE
  5
507
100
AcDbEntity
  8
RACCORDO
100
AcDbPolyline
 62
7
  6
CONTINUOUS
 90
12
 70
0
 10
10.1868090145
 20
15.2289792655
 10
10.1874641804
 20
15.2311172511
 10
10.1892206691
 20
15.2345388624
 10
10.1918088353
 20
15.237739192
 10
10.19521816
 20
15.2407210386
 10
10.1994051561
 20
15.2434463677
 10
10.2043797854
 20
15.2459118934
 10
10.2101320861
 20
15.2481209016
 10
10.2165886856
 20
15.2500452157
 10
10.2237251263
 20
15.2516754433
 10
10.2315658658
 20
15.2530209768
 10
10.2401109041
 20
15.2540818162
  0
LWPOLYLINE
  5
508
100
AcDbEntity
  8
RACCORDO
100
AcDbPolyline
 62
7
  6
CONTINUOUS
 90
7
 70
0
 10
15.3937870592
 20
12.1696685511
 10
15.4184123515
 20
12.1987594935
 10
15.4422193028
 20
12.2237598212
 10
15.4655226536
 20
12.2447201148
 10
15.4887189112
 20
12.2617957089
 10
15.5119165863
 20
12.2751325772
 10
15.5142852462
 20
12.2762880934
  0
LINE
  5
509
100
AcDbEntity
  8
0
100
AcDbLine
 62
7
  6
CONTINUOUS
 10
-8.7466727797
 20
8.6400248722
 11
-8.5399095586
 21
8.5811447902
  0
LINE
  5
50A
100
AcDbEntity
  8
0
100
AcDbLine
 62
7
  6
CONTINUOUS
 10
-8.8995607231
 20
8.7058310022
 11
-8.7466727797
 21
8.6400248722
  0
LINE
  5
50B
100
AcDbEntity
  8
RACCORDO
100
AcDbLine
 62
250
  6
CONTINUOUS
 10
-21.0600555637
 20
14.0717317618
 11
-19.6650603197
 21
13.3742341398
  0
LINE
  5
50C
100
AcDbEntity
  8
RACCORDO
100
AcDbLine
 62
250
  6
CONTINUOUS
 10
-5.3596540729
 20
6.2215310164
 11
-3.9646588289
 21
5.5240333944
  0
LINE
  5
50D
100
AcDbEntity
  8
RACCORDO
100
AcDbLine
 62
250
  6
CONTINUOUS
 10
3.2300872508
 20
2.5727194879
 11
-2.3182533634
 21
5.346889795
  0
LINE
  5
50E
100
AcDbEntity
  8
RACCORDO
100
AcDbLine
 62
250
  6
CONTINUOUS
 10
-21.5850129231
 20
14.9802695749
 11
-27.1333196818
 21
17.7544229542
  0
LINE
  5
50F
100
AcDbEntity
  8
0
100
AcDbLine
 62
7
  6
CONTINUOUS
 10
-9.8738834197
 20
9.1929837392
 11
-8.8994141986
 21
8.7057491287
  0
LWPOLYLINE
  5
510
100
AcDbEntity
  8
0
100
AcDbPolyline
 62
7
  6
CONTINUOUS
 90
10
 70
0
 10
-8.583133314
 20
8.6776614628
 10
-8.599193806
 20
8.6858361896
 10
-8.7306168228
 20
8.7645114577
 10
-8.8524241691
 20
8.8592460888
 10
-8.9648716152
 20
8.9705968142
 10
-9.0677033907
 20
9.0980069026
 10
-9.1587059384
 20
9.2388940145
 10
-9.2371414058
 20
9.3923973703
 10
-9.3037476454
 20
9.5593777497
 10
-9.3585246571
 20
9.7398351527
  0
LWPOLYLINE
  5
511
100
AcDbEntity
  8
0
100
AcDbPolyline
 62
250
  6
CONTINUOUS
 90
3
 70
0
 10
-9.8738834197
 20
9.1929837392
 10
-9.9023027687
 20
9.2076280453
 10
-9.9851609889
 20
9.2555203922
  0
LWPOLYLINE
  5
512
100
AcDbEntity
  8
RACCORDO
100
AcDbPolyline
 62
250
  6
CONTINUOUS
 90
14
 70
0
 10
-11.7533956801
 20
12.6419597549
 10
-12.5119330551
 20
13.0447481185
 10
-13.270457516
 20
13.4005468756
 10
-14.0289767448
 20
13.7096492624
 10
-14.7820239215
 20
13.9697550095
 10
-15.5299826945
 20
14.1805264844
 10
-16.2724694156
 20
14.3423013195
 10
-17.0028663198
 20
14.4537921432
 10
-17.7211182449
 20
14.5142908071
 10
-18.4272803532
 20
14.5245054595
 10
-19.1149003669
 20
14.4852731738
 10
-19.781827527
 20
14.3968729745
 10
-20.4302125926
 20
14.2590258372
 10
-21.0600555637
 20
14.0717317618
  0
LINE
  5
513
100
AcDbEntity
  8
0
100
AcDbLine
 62
7
  6
CONTINUOUS
 10
-8.7734368042
 20
8.7770463268
 11
-8.689271905
 21
8.7308276563
  0
LINE
  5
514
100
AcDbEntity
  8
RACCORDO
100
AcDbLine
 62
250
  6
CONTINUOUS
 10
-11.448219805
 20
11.5541962268
 11
-10.7216692135
 21
11.1017058665
  0
LWPOLYLINE
  5
515
100
AcDbEntity
  8
RACCORDO
100
AcDbPolyline
 62
7
  6
CONTINUOUS
 90
9
 70
0
 10
-11.300825766
 20
11.2719172787
 10
-10.6149955556
 20
10.8427796484
 10
-9.9325786244
 20
10.3738922041
 10
-9.2551422736
 20
9.8662257756
 10
-8.5843911233
 20
9.3209371695
 10
-7.9221108546
 20
8.7393657045
 10
-7.2699394352
 20
8.1228428147
 10
-6.6295313246
 20
7.472822345
 10
-6.00256526
 20
6.7909042524
  0
LWPOLYLINE
  5
516
100
AcDbEntity
  8
RACCORDO
100
AcDbPolyline
 62
7
  6
CONTINUOUS
 90
10
 70
0
 10
-1.3385782642
 20
7.8265207668
 10
-1.9800967851
 20
8.6288548819
 10
-2.6363464417
 20
9.3991400289
 10
-3.3073272339
 20
10.1373762078
 10
-3.9945770011
 20
10.8450343881
 10
-4.6965579038
 20
11.5206436002
 10
-5.4086564243
 20
12.1597909357
 10
-6.1293347232
 20
12.761005425
 10
-6.8601306398
 20
13.3257580375
 10
-7.6010441742
 20
13.8540487734
  0
LINE
  5
517
100
AcDbEntity
  8
DRAFT
100
AcDbLine
 62
7
  6
CONTINUOUS
 10
-0.4331680797
 20
7.2792352265
 11
-0.5433387172
 21
7.4289009933
  0
LWPOLYLINE
  5
518
100
AcDbEntity
  8
RACCORDO
100
AcDbPolyline
 62
250
  6
CONTINUOUS
 90
5
 70
0
 10
-4.3762122771
 20
15.9616275093
 10
-4.4063468134
 20
16.0070878613
 10
-4.4259449023
 20
16.0540903857
 10
-4.4347492634
 20
16.1020208379
 10
-4.4352625949
 20
16.1158860631
  0
LWPOLYLINE
  5
519
100
AcDbEntity
  8
RACCORDO
100
AcDbPolyline
 62
250
  6
CONTINUOUS
 90
10
 70
0
 10
3.4344487945
 20
2.2849333554
 10
3.4264111861
 20
2.320628069
 10
3.4133616125
 20
2.3579653657
 10
3.3956941604
 20
2.3958156381
 10
3.3739426599
 20
2.4330336365
 10
3.3487649061
 20
2.4684925479
 10
3.3209229524
 20
2.5011182244
 10
3.2912595042
 20
2.5299225252
 10
3.2606722766
 20
2.5540331323
 10
3.2300872633
 20
2.5727194966
  0
LWPOLYLINE
  5
51A
100
AcDbEntity
  8
RACCORDO
100
AcDbPolyline
 62
250
  6
CONTINUOUS
 90
5
 70
0
 10
7.1051211493
 20
10.7551483301
 10
7.1025747643
 20
10.7861013446
 10
7.0958850516
 20
10.8182983784
 10
7.0852556312
 20
10.8507612241
 10
7.0710096712
 20
10.8825039381
  0
LWPOLYLINE
  5
51B
100
AcDbEntity
  8
RACCORDO
100
AcDbPolyline
 62
250
  6
CONTINUOUS
 90
13
 70
0
 10
5.6289263155
 20
7.412755045
 10
5.6271019703
 20
7.4409573027
 10
5.6224204208
 20
7.4703686831
 10
5.6149035502
 20
7.5005160779
 10
5.604598114
 20
7.5309643424
 10
5.5916425218
 20
7.5611210067
 10
5.5763211785
 20
7.5902614932
 10
5.5589400115
 20
7.6178227897
 10
5.5397690648
 20
7.6433932528
 10
5.5191415803
 20
7.6665297981
 10
5.4974149431
 20
7.6868335503
 10
5.4749640425
 20
7.703956052
 10
5.4521765442
 20
7.7176033067
  0
LINE
  5
51C
100
AcDbEntity
  8
RACCORDO
100
AcDbLine
 62
250
  6
CONTINUOUS
 10
7.1051211493
 20
10.4042751742
 11
7.1050209677
 21
10.7550978531
  0
LINE
  5
51D
100
AcDbEntity
  8
0
100
AcDbLine
 62
250
  6
CONTINUOUS
 10
5.9816068191
 20
18.4329215077
 11
5.9816068191
 21
18.0123603056
  0
LINE
  5
51E
100
AcDbEntity
  8
0
100
AcDbLine
 62
7
  6
CONTINUOUS
 10
6.0397472099
 20
12.6286682375
 11
6.0397472099
 21
12.8884758586
  0
LINE
  5
51F
100
AcDbEntity
  8
ASSI
100
AcDbLine
 62
7
  6
CONTINUOUS
 10
6.2682150195
 20
18.0419722321
 11
6.2682150195
 21
18.5181716293
  0
LINE
  5
520
100
AcDbEntity
  8
0
100
AcDbLine
 62
7
  6
CONTINUOUS
 10
6.3225899224
 20
12.7700895937
 11
6.3225899224
 21
13.0298972149
  0
LINE
  5
521
100
AcDbEntity
  8
0
100
AcDbLine
 62
250
  6
CONTINUOUS
 10
6.5347219568
 20
13.3957708532
 11
6.5347219568
 21
13.7421810147
  0
LINE
  5
522
100
AcDbEntity
  8
0
100
AcDbLine
 62
250
  6
CONTINUOUS
 10
6.8982900894
 20
13.5775549195
 11
6.8982900894
 21
13.923965081
  0
LINE
  5
523
100
AcDbEntity
  8
RACCORDO
100
AcDbLine
 62
7
  6
CONTINUOUS
 10
7.241828738
 20
10.4731560632
 11
7.241828738
 21
10.8240292192
  0
LINE
  5
524
100
AcDbEntity
  8
RACCORDO
100
AcDbLine
 62
7
  6
CONTINUOUS
 10
7.3478947551
 20
13.4252399136
 11
7.3478947551
 21
13.636810172
  0
LINE
  5
525
100
AcDbEntity
  8
DRAFT
100
AcDbLine
 62
250
  6
CONTINUOUS
 10
7.3496092915
 20
21.7579221183
 11
7.3496092915
 21
22.1558067253
  0
LINE
  5
526
100
AcDbEntity
  8
DRAFT
100
AcDbLine
 62
7
  6
CONTINUOUS
 10
8.0550015363
 20
22.1033718748
 11
8.0550015363
 21
21.6442852603
  0
LWPOLYLINE
  5
527
100
AcDbEntity
  8
RACCORDO
100
AcDbPolyline
 62
250
  6
CONTINUOUS
 90
8
 70
0
 10
5.6289263155
 20
-30.9726325139
 10
5.6270316442
 20
-31.0003112899
 10
5.6221990799
 20
-31.0259787406
 10
5.6145112772
 20
-31.0491958588
 10
5.6040997256
 20
-31.069565547
 10
5.5911425006
 20
-31.0867394093
 10
5.5758612181
 20
-31.1004237097
 10
5.5600814005
 20
-31.1096794308
  0
LINE
  5
528
100
AcDbEntity
  8
RACCORDO
100
AcDbLine
 62
250
  6
CONTINUOUS
 10
10.2401109041
 20
15.2540818162
 11
10.2234258707
 21
15.1828471159
  0
LWPOLYLINE
  5
529
100
AcDbEntity
  8
0
100
AcDbPolyline
 62
250
  6
CONTINUOUS
 90
29
 70
0
 10
-7.7365769325
 20
-15.5934302729
 10
-7.8682677204
 20
-15.6967047983
 10
-7.9925387935
 20
-15.8028170666
 10
-8.1100260683
 20
-15.9111463756
 10
-8.2212576027
 20
-16.0211483299
 10
-8.3261801856
 20
-16.1318688106
 10
-8.4248755213
 20
-16.2425950711
 10
-8.5180680355
 20
-16.3534325583
 10
-8.6059216933
 20
-16.4639353413
 10
-8.6884099809
 20
-16.5734590011
 10
-8.7659389801
 20
-16.6820111623
 10
-8.8385998821
 20
-16.7892017722
 10
-8.906546601
 20
-16.894627199
 10
-8.9702472226
 20
-16.9983941673
 10
-9.0298342378
 20
-17.1001952424
 10
-9.0854609492
 20
-17.1997675814
 10
-9.1375789694
 20
-17.2973762933
 10
-9.1863499265
 20
-17.3928696253
 10
-9.2318635803
 20
-17.48602324
 10
-9.2744204046
 20
-17.5770535319
 10
-9.3141458853
 20
-17.6658447101
 10
-9.3511418855
 20
-17.7522607526
 10
-9.3856404037
 20
-17.8365244062
 10
-9.4177452528
 20
-17.9185544694
 10
-9.4475552497
 20
-17.9982658722
 10
-9.4752656471
 20
-18.0758992646
 10
-9.5009625168
 20
-18.1514070999
 10
-9.5247367617
 20
-18.2247297718
 10
-9.5467696425
 20
-18.2961047309
  0
LWPOLYLINE
  5
52A
100
AcDbEntity
  8
0
100
AcDbPolyline
 62
7
  6
CONTINUOUS
 90
3
 70
0
 10
-8.5399095586
 20
8.5811447902
 10
-8.3225104668
 20
8.5510480652
 10
-8.1304745756
 20
8.5503252825
  0
LINE
  5
52B
100
AcDbEntity
  8
RACCORDO
100
AcDbLine
 62
7
  6
CONTINUOUS
 10
-24.8102851928
 20
19.467793783
 11
-18.7414572289
 21
16.4333798011
  0
LINE
  5
52C
100
AcDbEntity
  8
RACCORDO
100
AcDbLine
 62
7
  6
CONTINUOUS
 10
-0.4331680797
 20
7.2792352265
 11
5.6356598842
 21
4.2448212445
  0
LINE
  5
52D
100
AcDbEntity
  8
RACCORDO
100
AcDbLine
 62
7
  6
CONTINUOUS
 10
-25.1602171174
 20
19.7373401934
 11
-18.5431538256
 21
16.4288085475
  0
LINE
  5
52E
100
AcDbEntity
  8
RACCORDO
100
AcDbLine
 62
7
  6
CONTINUOUS
 10
-1.3385782642
 20
7.8265207668
 11
5.2784850276
 21
4.5179891209
  0
LWPOLYLINE
  5
52F
100
AcDbEntity
  8
RACCORDO
100
AcDbPolyline
 62
250
  6
CONTINUOUS
 90
7
 70
0
 10
-25.1602171174
 20
22.633635245
 10
-25.1815571956
 20
22.6457842588
 10
-25.1995822473
 20
22.6592089617
 10
-25.213990665
 20
22.6736847224
 10
-25.2245413571
 20
22.6889693223
 10
-25.2310577822
 20
22.7048070091
 10
-25.2334404221
 20
22.7220235926
  0
LWPOLYLINE
  5
530
100
AcDbEntity
  8
RACCORDO
100
AcDbPolyline
 62
7
  6
CONTINUOUS
 90
10
 70
0
 10
-9.7671745283
 20
15.327278843
 10
-9.5139787356
 20
15.1676995379
 10
-9.2655626155
 20
15.005438875
 10
-9.0211268888
 20
14.8411421088
 10
-8.7797091497
 20
14.6759248894
 10
-8.5408850184
 20
14.5104116417
 10
-8.3044641728
 20
14.3444633991
 10
-8.0696546128
 20
14.1786980386
 10
-7.8354315692
 20
14.0147327983
 10
-7.6010441742
 20
13.8540487734
  0
LINE
  5
531
100
AcDbEntity
  8
RACCORDO
100
AcDbLine
 62
250
  6
CONTINUOUS
 10
-9.3329698546
 20
22.3158931287
 11
-9.3493415656
 21
22.333195689
  0
LWPOLYLINE
  5
532
100
AcDbEntity
  8
RACCORDO
100
AcDbPolyline
 62
7
  6
CONTINUOUS
 90
10
 70
0
 10
10.848073322
 20
7.5311663289
 10
10.8475843309
 20
7.5455781071
 10
10.846198569
 20
7.5601663159
 10
10.8439160366
 20
7.5749309555
 10
10.8407101484
 20
7.5899707722
 10
10.8366074896
 20
7.6051870196
 10
10.8316878152
 20
7.6202834582
 10
10.8259777102
 20
7.6351613418
 10
10.8194505897
 20
7.6499194166
 10
10.8121064536
 20
7.6645576827
  0
LINE
  5
533
100
AcDbEntity
  8
0
100
AcDbLine
 62
7
  6
CONTINUOUS
 10
8.7581302316
 20
20.6541830617
 11
8.7581302316
 21
20.218331084
  0
LINE
  5
534
100
AcDbEntity
  8
0
100
AcDbLine
 62
7
  6
CONTINUOUS
 10
9.0096093121
 20
21.1265427658
 11
9.0096093121
 21
20.1997653445
  0
LINE
  5
535
100
AcDbEntity
  8
RACCORDO
100
AcDbLine
 62
7
  6
CONTINUOUS
 10
9.2652846949
 20
-29.2932417095
 11
9.2652846949
 21
-26.7522414324
  0
LINE
  5
536
100
AcDbEntity
  8
RACCORDO
100
AcDbLine
 62
7
  6
CONTINUOUS
 10
9.2652846949
 20
6.7039544317
 11
9.2652846949
 21
9.2449547088
  0
LINE
  5
537
100
AcDbEntity
  8
0
100
AcDbLine
 62
7
  6
CONTINUOUS
 10
9.4593539735
 20
21.0047949326
 11
9.4593539735
 21
20.192362384
  0
LINE
  5
538
100
AcDbEntity
  8
RACCORDO
100
AcDbLine
 62
7
  6
CONTINUOUS
 10
9.5399257768
 20
9.3209033307
 11
9.5399257768
 21
8.8789151128
  0
LINE
  5
539
100
AcDbEntity
  8
DRAFT
100
AcDbLine
 62
7
  6
CONTINUOUS
 10
9.681347133
 20
21.8545854501
 11
9.681347133
 21
22.0107124791
  0
LINE
  5
53A
100
AcDbEntity
  8
DRAFT
100
AcDbLine
 62
7
  6
CONTINUOUS
 10
10.2640788822
 20
15.1696446003
 11
10.2640788822
 21
15.3939337874
  0
LINE
  5
53B
100
AcDbEntity
  8
0
100
AcDbLine
 62
7
  6
CONTINUOUS
 10
10.3078821109
 20
20.5805308639
 11
10.3078821109
 21
20.2661210767
  0
LINE
  5
53C
100
AcDbEntity
  8
0
100
AcDbLine
 62
7
  6
CONTINUOUS
 10
10.5513777772
 20
20.3113324418
 11
10.5513777772
 21
20.3556585332
  0
LINE
  5
53D
100
AcDbEntity
  8
RACCORDO
100
AcDbLine
 62
7
  6
CONTINUOUS
 10
10.848073322
 20
-26.0509721195
 11
10.848073322
 21
7.5311663289
  0
LWPOLYLINE
  5
53E
100
AcDbEntity
  8
RACCORDO
100
AcDbPolyline
 62
250
  6
CONTINUOUS
 90
7
 70
0
 10
3.4344487945
 20
-27.9639931329
 10
3.4264090522
 20
-28.0021994889
 10
3.4133562333
 20
-28.0365278383
 10
3.3956854154
 20
-28.0659391421
 10
3.3739314511
 20
-28.089543189
 10
3.3487527828
 20
-28.1066255394
 10
3.326084166
 20
-28.1153968436
  0
LWPOLYLINE
  5
53F
100
AcDbEntity
  8
0
100
AcDbPolyline
 62
7
  6
CONTINUOUS
 90
9
 70
0
 10
-7.9202672299
 20
-14.6423028256
 10
-8.1354709019
 20
-14.7167113144
 10
-8.3506201111
 20
-14.8120431563
 10
-8.5646128223
 20
-14.9277807658
 10
-8.7762010329
 20
-15.0632670362
 10
-8.9843366944
 20
-15.2177851856
 10
-9.1878387562
 20
-15.3904619172
 10
-9.3851508364
 20
-15.5799495146
 10
-9.587611874
 20
-15.7993983887
  0
LINE
  5
540
100
AcDbEntity
  8
0
100
AcDbLine
 62
250
  6
CONTINUOUS
 10
-7.9209080069
 20
-14.7050733513
 11
-7.7744197112
 21
-14.6568056139
  0
LWPOLYLINE
  5
541
100
AcDbEntity
  8
RACCORDO
100
AcDbPolyline
 62
250
  6
CONTINUOUS
 90
35
 70
0
 10
-20.6415304744
 20
4.873763249
 10
-20.6962846954
 20
4.8590192414
 10
-20.7530605551
 20
4.8463709649
 10
-20.8118138118
 20
4.8357709991
 10
-20.8716100194
 20
4.8283169124
 10
-20.9324800098
 20
4.8240981138
 10
-20.9943929512
 20
4.8230251944
 10
-21.0563219023
 20
4.8259274959
 10
-21.1182712278
 20
4.8329308655
 10
-21.1802365631
 20
4.8439094561
 10
-21.2411778732
 20
4.8593150682
 10
-21.3010612082
 20
4.8792936153
 10
-21.3599205182
 20
4.903699184
 10
-21.4168176178
 20
4.9325458349
 10
-21.4716920744
 20
4.9659877204
 10
-21.5246043208
 20
5.0038706882
 10
-21.5747974698
 20
5.045746342
 10
-21.6221845765
 20
5.0917681419
 10
-21.666852586
 20
5.1417826278
 10
-21.7083054456
 20
5.1948810236
 10
-21.7464269611
 20
5.25118569
 10
-21.7813333268
 20
5.3105742662
 10
-21.8128770728
 20
5.3717708934
 10
-21.8409349466
 20
5.4348433092
 10
-21.8656302008
 20
5.4997237759
 10
-21.8871851224
 20
5.5649332218
 10
-21.9054952707
 20
5.6304852909
 10
-21.9206650865
 20
5.6963663393
 10
-21.9332301788
 20
5.7610563637
 10
-21.9431205024
 20
5.8245315038
 10
-21.9504061027
 20
5.8868156199
 10
-21.9558327247
 20
5.94646029
 10
-21.9596489502
 20
6.0029827067
 10
-21.9616061975
 20
6.0568656773
 10
-21.9617044666
 20
6.108109202
  0
LWPOLYLINE
  5
542
100
AcDbEntity
  8
0
100
AcDbPolyline
 62
7
  6
CONTINUOUS
 90
7
 70
0
 10
-7.7360174341
 20
8.56344439
 10
-7.8280537153
 20
8.5496311946
 10
-7.9932537412
 20
8.5417623434
 10
-8.1544652345
 20
8.5518223624
 10
-8.3111180118
 20
8.5794916419
 10
-8.4596013648
 20
8.6241324296
 10
-8.583133314
 20
8.6776614628
  0
LWPOLYLINE
  5
543
100
AcDbEntity
  8
0
100
AcDbPolyline
 62
250
  6
CONTINUOUS
 90
10
 70
0
 10
-9.4260118151
 20
9.6601611763
 10
-9.4538206638
 20
9.6572422571
 10
-9.4813877849
 20
9.6559488135
 10
-9.5085307195
 20
9.6562894063
 10
-9.5350698173
 20
9.6582617817
 10
-9.5608294226
 20
9.6618528847
 10
-9.5856390379
 20
9.6670389452
 10
-9.6093344551
 20
9.6737856373
 10
-9.6317588425
 20
9.6820483075
 10
-9.6527637806
 20
9.6917722678
  0
LINE
  5
544
100
AcDbEntity
  8
RACCORDO
100
AcDbLine
 62
250
  6
CONTINUOUS
 10
5.2784850276
 20
7.4142841724
 11
-7.6010441742
 21
13.8540487734
  0
LINE
  5
545
100
AcDbEntity
  8
RACCORDO
100
AcDbLine
 62
250
  6
CONTINUOUS
 10
-12.2806879155
 20
16.193870644
 11
-25.1602171174
 21
22.633635245
  0
LINE
  5
546
100
AcDbEntity
  8
RACCORDO
100
AcDbLine
 62
250
  6
CONTINUOUS
 10
-24.9865256008
 20
22.9369543792
 11
5.4521765442
 21
7.7176033067
  0
LWPOLYLINE
  5
547
100
AcDbEntity
  8
RACCORDO
100
AcDbPolyline
 62
250
  6
CONTINUOUS
 90
3
 70
0
 10
-9.3493415656
 20
22.333195689
 10
-9.3734491087
 20
22.3527642731
 10
-9.3983891129
 20
22.3674824956
  0
LINE
  5
548
100
AcDbEntity
  8
RACCORDO
100
AcDbLine
 62
250
  6
CONTINUOUS
 10
-9.3800376301
 20
22.3240709983
 11
-9.3989123274
 21
22.3400326656
  0
LWPOLYLINE
  5
549
100
AcDbEntity
  8
RACCORDO
100
AcDbPolyline
 62
250
  6
CONTINUOUS
 90
5
 70
0
 10
5.7672639206
 20
10.8898008971
 10
5.7370982546
 20
10.9352495469
 10
5.7174652797
 20
10.9822423714
 10
5.7086228969
 20
11.030164918
 10
5.7080974085
 20
11.044167512
  0
LWPOLYLINE
  5
54A
100
AcDbEntity
  8
0
100
AcDbPolyline
 62
7
  6
CONTINUOUS
 90
3
 70
0
 10
6.6118703209
 20
20.9887159508
 10
6.5828258407
 20
21.1175081887
 10
6.5777937425
 20
21.2006514659
  0
LINE
  5
54B
100
AcDbEntity
  8
RACCORDO
100
AcDbLine
 62
7
  6
CONTINUOUS
 10
11.6904918414
 20
23.9582594552
 11
11.6904918414
 21
24.027891217
  0
LINE
  5
54C
100
AcDbEntity
  8
DRAFT
100
AcDbLine
 62
7
  6
CONTINUOUS
 10
11.8380228157
 20
14.6935643611
 11
11.8380228157
 21
14.6069618207
  0
LINE
  5
54D
100
AcDbEntity
  8
RACCORDO
100
AcDbLine
 62
7
  6
CONTINUOUS
 10
10.8475843309
 20
-26.0648949065
 11
10.848073322
 21
-26.0509721195
  0
LWPOLYLINE
  5
54E
100
AcDbEntity
  8
RACCORDO
100
AcDbPolyline
 62
7
  6
CONTINUOUS
 90
10
 70
0
 10
10.848073322
 20
-25.9014134927
 10
10.8468202694
 20
-25.9365000814
 10
10.8433129194
 20
-25.969734604
 10
10.837551272
 20
-26.0011170606
 10
10.8294710966
 20
-26.0308140151
 10
10.8191366237
 20
-26.0586589035
 10
10.8067405454
 20
-26.0841520336
 10
10.7923470925
 20
-26.1071268413
 10
10.7758920341
 20
-26.1277498908
 10
10.7573753703
 20
-26.146021182
  0
LINE
  5
54F
100
AcDbEntity
  8
DRAFT
100
AcDbLine
 62
7
  6
CONTINUOUS
 10
-12.5562912251
 20
-21.3324798136
 11
-2.1253814822
 21
-15.5874448865
  0
LINE
  5
550
100
AcDbEntity
  8
RACCORDO
100
AcDbLine
 62
7
  6
CONTINUOUS
 10
-0.3242138207
 20
-13.2430603188
 11
1.0806130871
 21
-12.5022178562
  0
LINE
  5
551
100
AcDbEntity
  8
0
100
AcDbLine
 62
7
  6
CONTINUOUS
 10
-9.7376069738
 20
-19.699990631
 11
-9.3716708878
 21
-19.5172926756
  0
LINE
  5
552
100
AcDbEntity
  8
0
100
AcDbLine
 62
7
  6
CONTINUOUS
 10
-9.3716708878
 20
-19.5172926756
 11
-9.2250770575
 21
-19.4453143647
  0
LINE
  5
553
100
AcDbEntity
  8
0
100
AcDbLine
 62
7
  6
CONTINUOUS
 10
-9.2250770575
 20
-19.4453143647
 11
-9.1341451898
 21
-19.4012613902
  0
LWPOLYLINE
  5
554
100
AcDbEntity
  8
0
100
AcDbPolyline
 62
7
  6
CONTINUOUS
 90
6
 70
0
 10
-0.0671820106
 20
-13.2882089695
 10
-0.0388809174
 20
-13.2789131246
 10
-0.0161682964
 20
-13.2679715496
 10
0.0009558524
 20
-13.2553842446
 10
0.0125974651
 20
-13.2409524683
 10
0.0183333859
 20
-13.2264168396
  0
LWPOLYLINE
  5
555
100
AcDbEntity
  8
RACCORDO
100
AcDbPolyline
 62
250
  6
CONTINUOUS
 90
4
 70
0
 10
5.8615355134
 20
15.5279631458
 10
5.8521026481
 20
15.526093045
 10
5.8253614982
 20
15.5190728838
 10
5.800034197
 20
15.51063483
  0
LINE
  5
556
100
AcDbEntity
  8
0
100
AcDbLine
 62
7
  6
CONTINUOUS
 10
6.963842493
 20
13.5976152312
 11
10.682516018
 21
13.9771291747
  0
LINE
  5
557
100
AcDbEntity
  8
0
100
AcDbLine
 62
7
  6
CONTINUOUS
 10
7.0512456979
 20
13.9707724751
 11
11.515121611
 21
14.4263389935
  0
LINE
  5
558
100
AcDbEntity
  8
RACCORDO
100
AcDbLine
 62
7
  6
CONTINUOUS
 10
8.2659139533
 20
14.7333140897
 11
6.3156682686
 21
14.5342792926
  0
LINE
  5
559
100
AcDbEntity
  8
RACCORDO
100
AcDbLine
 62
7
  6
CONTINUOUS
 10
10.2640788822
 20
15.2565278986
 11
10.2401109041
 21
15.2540818162
  0
LWPOLYLINE
  5
55A
100
AcDbEntity
  8
RACCORDO
100
AcDbPolyline
 62
7
  6
CONTINUOUS
 90
25
 70
0
 10
6.3156682686
 20
14.5342792926
 10
6.3064961639
 20
14.5335319865
 10
6.2968438432
 20
14.5330922435
 10
6.2867113066
 20
14.5329600638
 10
6.2760511878
 20
14.5331375094
 10
6.264910853
 20
14.5336225183
 10
6.2534324011
 20
14.5344089039
 10
6.2416115008
 20
14.5355005269
 10
6.2294524835
 20
14.5368935266
 10
6.2171104416
 20
14.5385701348
 10
6.2045830305
 20
14.5405339846
 10
6.1918725949
 20
14.542781443
 10
6.1791412607
 20
14.5452838428
 10
6.1663887602
 20
14.5480444498
 10
6.1536153612
 20
14.5510599983
 10
6.1409839928
 20
14.5542920238
 10
6.1284964743
 20
14.5577432994
 10
6.1161509864
 20
14.5614110521
 10
6.1041050002
 20
14.5652484985
 10
6.0923623521
 20
14.5692578121
 10
6.0809192055
 20
14.5734368194
 10
6.0699215219
 20
14.5777322156
 10
6.059417955
 20
14.5821262325
 10
6.049359851
 20
14.5866366383
 10
6.0397472099
 20
14.591263433
  0
LWPOLYLINE
  5
55B
100
AcDbEntity
  8
RACCORDO
100
AcDbPolyline
 62
7
  6
CONTINUOUS
 90
10
 70
0
 10
15.8028579355
 20
12.1491769499
 10
15.7658626388
 20
12.1520661495
 10
15.7285339712
 20
12.1536538569
 10
15.6909261956
 20
12.1539993733
 10
15.6528920004
 20
12.1532041444
 10
15.6146779101
 20
12.1512806872
 10
15.5769294447
 20
12.1481910944
 10
15.5398926779
 20
12.1440012684
 10
15.5034092412
 20
12.1388418482
 10
15.4675155604
 20
12.1328043004
  0
LWPOLYLINE
  5
55C
100
AcDbEntity
  8
RACCORDO
100
AcDbPolyline
 62
7
  6
CONTINUOUS
 90
10
 70
0
 10
-12.2806879155
 20
16.193870644
 10
-13.0216016085
 20
16.4064935075
 10
-13.7523977519
 20
16.5725368421
 10
-14.4730763459
 20
16.6920006478
 10
-15.1851753735
 20
16.7649517699
 10
-15.8871568517
 20
16.7913233631
 10
-16.5744068309
 20
16.7709148911
 10
-17.2453873281
 20
16.7036595084
 10
-17.9016363263
 20
16.5896240606
 10
-18.5431538256
 20
16.4288085475
  0
LWPOLYLINE
  5
55D
100
AcDbEntity
  8
RACCORDO
100
AcDbPolyline
 62
7
  6
CONTINUOUS
 90
8
 70
0
 10
-12.0400101176
 20
16.1170361805
 10
-11.5252981727
 20
15.9549130029
 10
-11.2530724818
 20
15.8665376509
 10
-10.9720501207
 20
15.7721214431
 10
-10.6823348085
 20
15.6717648302
 10
-10.3843216021
 20
15.5648305969
 10
-10.0790018377
 20
15.450216825
 10
-9.7671745283
 20
15.327278843
  0
LINE
  5
55E
100
AcDbEntity
  8
RACCORDO
100
AcDbLine
 62
7
  6
CONTINUOUS
 10
-12.2806879155
 20
16.193870644
 11
-12.0400101176
 21
16.1170361805
  0
LWPOLYLINE
  5
55F
100
AcDbEntity
  8
RACCORDO
100
AcDbPolyline
 62
250
  6
CONTINUOUS
 90
7
 70
0
 10
-24.9865256008
 20
22.9369543792
 10
-25.0100683258
 20
22.9464722361
 10
-25.0331550611
 20
22.9521185524
 10
-25.0553871131
 20
22.9537941448
 10
-25.0763808163
 20
22.9514681934
 10
-25.0957723823
 20
22.9451789866
 10
-25.1021452541
 20
22.9420444163
  0
LINE
  5
560
100
AcDbEntity
  8
RACCORDO
100
AcDbLine
 62
7
  6
CONTINUOUS
 10
-21.4749351327
 20
24.8315379986
 11
-19.9477634845
 21
24.0679521745
  0
LINE
  5
561
100
AcDbEntity
  8
RACCORDO
100
AcDbLine
 62
7
  6
CONTINUOUS
 10
7.241828738
 20
10.4731560632
 11
9.0885349235
 21
9.5498029705
  0
LINE
  5
562
100
AcDbEntity
  8
DRAFT
100
AcDbLine
 62
7
  6
CONTINUOUS
 10
4.3426909351
 20
11.9227249647
 11
-1.1727419582
 21
14.6804414113
  0
LINE
  5
563
100
AcDbEntity
  8
DRAFT
100
AcDbLine
 62
7
  6
CONTINUOUS
 10
-11.213658251
 20
19.7008995577
 11
-16.7290911443
 21
22.4586160044
  0
LINE
  5
564
100
AcDbEntity
  8
RACCORDO
100
AcDbLine
 62
7
  6
CONTINUOUS
 10
9.8248019774
 20
9.3516637161
 11
9.6813417482
 21
9.4233938307
  0
LINE
  5
565
100
AcDbEntity
  8
RACCORDO
100
AcDbLine
 62
7
  6
CONTINUOUS
 10
7.1004289209
 20
11.0679078285
 11
6.5473511581
 21
11.3444467099
  0
LINE
  5
566
100
AcDbEntity
  8
RACCORDO
100
AcDbLine
 62
7
  6
CONTINUOUS
 10
-18.9337513672
 20
24.0849979726
 11
-19.4868291301
 21
24.361536854
  0
LINE
  5
567
100
AcDbEntity
  8
DRAFT
100
AcDbLine
 62
7
  6
CONTINUOUS
 10
-17.6384782952
 20
23.735870878
 11
-16.3586096833
 21
23.0959365721
  0
LINE
  5
568
100
AcDbEntity
  8
DRAFT
100
AcDbLine
 62
7
  6
CONTINUOUS
 10
-10.4011230344
 20
20.1171932476
 11
-9.1082326958
 21
19.4707480783
  0
LINE
  5
569
100
AcDbEntity
  8
DRAFT
100
AcDbLine
 62
7
  6
CONTINUOUS
 10
6.4481164903
 20
11.6925734852
 11
5.1552261517
 21
12.3390186545
  0
LINE
  5
56A
100
AcDbEntity
  8
DRAFT
100
AcDbLine
 62
7
  6
CONTINUOUS
 10
-0.8022604972
 20
15.317761979
 11
-2.0821291091
 21
15.9576962849
  0
LINE
  5
56B
100
AcDbEntity
  8
DRAFT
100
AcDbLine
 62
7
  6
CONTINUOUS
 10
10.6276461162
 20
10.307228287
 11
10.8834286611
 21
10.1793370146
  0
LINE
  5
56C
100
AcDbEntity
  8
RACCORDO
100
AcDbLine
 62
7
  6
CONTINUOUS
 10
6.0397472099
 20
12.6286682375
 11
4.5783457497
 21
13.3593689676
  0
LINE
  5
56D
100
AcDbEntity
  8
RACCORDO
100
AcDbLine
 62
7
  6
CONTINUOUS
 10
-0.984132704
 20
16.1406081945
 11
-2.4455341643
 21
16.8713089246
  0
LINE
  5
56E
100
AcDbEntity
  8
RACCORDO
100
AcDbLine
 62
7
  6
CONTINUOUS
 10
-9.5166019762
 20
20.4068428305
 11
-10.9780034364
 21
21.1375435607
  0
LINE
  5
56F
100
AcDbEntity
  8
RACCORDO
100
AcDbLine
 62
7
  6
CONTINUOUS
 10
-16.5404818901
 20
23.9187827875
 11
-18.0018833504
 21
24.6494835177
  0
LINE
  5
570
100
AcDbEntity
  8
0
100
AcDbLine
 62
250
  6
CONTINUOUS
 10
6.0397472099
 20
12.8884758586
 11
-2.4455341643
 21
17.1311165457
  0
LINE
  5
571
100
AcDbEntity
  8
0
100
AcDbLine
 62
250
  6
CONTINUOUS
 10
-9.5166019762
 20
20.6666504517
 11
-18.0018833504
 21
24.9092911388
  0
LWPOLYLINE
  5
572
100
AcDbEntity
  8
RACCORDO
100
AcDbPolyline
 62
7
  6
CONTINUOUS
 90
25
 70
0
 10
-16.5404818901
 20
23.9187827875
 10
-16.5316907763
 20
23.9140459606
 10
-16.5229990094
 20
23.9087102096
 10
-16.5144065894
 20
23.9027755346
 10
-16.5058815363
 20
23.8962147607
 10
-16.4974558301
 20
23.8890550627
 10
-16.4892254112
 20
23.8813779656
 10
-16.4811925117
 20
23.8731775553
 10
-16.4733548995
 20
23.8644597457
 10
-16.4658018185
 20
23.8553238034
 10
-16.4585365209
 20
23.8457649489
 10
-16.4515557545
 20
23.8357879616
 10
-16.4449390067
 20
23.8255064457
 10
-16.4386904382
 20
23.8149169204
 10
-16.4328058882
 20
23.8040228664
 10
-16.427352362
 20
23.7929483302
 10
-16.422334786
 20
23.781691249
 10
-16.4177482338
 20
23.7702536857
 10
-16.4136449307
 20
23.7587658753
 10
-16.4100304001
 20
23.7472272437
 10
-16.4068991185
 20
23.7356383652
 10
-16.4042867408
 20
23.7241311979
 10
-16.4022051517
 20
23.7127497279
 10
-16.4006424664
 20
23.7014499691
 10
-16.3995986849
 20
23.6902319216
  0
LWPOLYLINE
  5
573
100
AcDbEntity
  8
RACCORDO
100
AcDbPolyline
 62
7
  6
CONTINUOUS
 90
25
 70
0
 10
-0.984132704
 20
16.1406081945
 10
-0.9753415902
 20
16.1358713675
 10
-0.9666498233
 20
16.1305356165
 10
-0.9580574033
 20
16.1246009416
 10
-0.9495323502
 20
16.1180401676
 10
-0.941106644
 20
16.1108804697
 10
-0.9328762251
 20
16.1032033725
 10
-0.9248433256
 20
16.0950029622
 10
-0.9170057134
 20
16.0862851527
 10
-0.9094526324
 20
16.0771492103
 10
-0.9021873348
 20
16.0675903559
 10
-0.8952065684
 20
16.0576133686
 10
-0.8885898206
 20
16.0473318527
 10
-0.8823412521
 20
16.0367423273
 10
-0.8764567021
 20
16.0258482733
 10
-0.8710031759
 20
16.0147737372
 10
-0.8659855999
 20
16.003516656
 10
-0.8613990477
 20
15.9920790926
 10
-0.8572957445
 20
15.9805912823
 10
-0.853681214
 20
15.9690526507
 10
-0.8505499324
 20
15.9574637721
 10
-0.8479375547
 20
15.9459566048
 10
-0.8458559656
 20
15.9345751348
 10
-0.8442932803
 20
15.9232753761
 10
-0.8432494987
 20
15.9120573285
  0
LWPOLYLINE
  5
574
100
AcDbEntity
  8
RACCORDO
100
AcDbPolyline
 62
7
  6
CONTINUOUS
 90
4
 70
0
 10
-9.4105575014
 20
22.3613578176
 10
-9.3860068505
 20
22.3464417801
 10
-9.3621901192
 20
22.3267222174
 10
-9.3552847329
 20
22.3193307323
  0
LINE
  5
575
100
AcDbEntity
  8
RACCORDO
100
AcDbLine
 62
250
  6
CONTINUOUS
 10
6.9878752186
 20
10.9839210207
 11
6.9637213322
 21
10.9990269395
  0
LINE
  5
576
100
AcDbEntity
  8
RACCORDO
100
AcDbLine
 62
250
  6
CONTINUOUS
 10
-9.3989123274
 20
22.3400326656
 11
-9.4230705428
 21
22.3551417807
  0
LWPOLYLINE
  5
577
100
AcDbEntity
  8
RACCORDO
100
AcDbPolyline
 62
7
  6
CONTINUOUS
 90
10
 70
0
 10
9.9241958791
 20
9.2519713392
 10
9.9149938903
 20
9.2667390766
 10
9.9052682842
 20
9.2806474749
 10
9.8950190608
 20
9.2936965339
 10
9.8841619898
 20
9.3059707371
 10
9.8727813015
 20
9.3173856011
 10
9.861129687
 20
9.3276876759
 10
9.8492913767
 20
9.3367924784
 10
9.8371821401
 20
9.3447844918
 10
9.8248019774
 20
9.3516637161
  0
LINE
  5
578
100
AcDbEntity
  8
RACCORDO
100
AcDbLine
 62
7
  6
CONTINUOUS
 10
10.0257043588
 20
9.0775272893
 11
9.9241958791
 21
9.2519713392
  0
LWPOLYLINE
  5
579
100
AcDbEntity
  8
RACCORDO
100
AcDbPolyline
 62
250
  6
CONTINUOUS
 90
5
 70
0
 10
7.0710096712
 20
10.8825039381
 10
7.0535802862
 20
10.9125622261
 10
7.0334975312
 20
10.9400228459
 10
7.0113718247
 20
10.9640521052
 10
6.9878752186
 20
10.9839210207
  0
LINE
  5
57A
100
AcDbEntity
  8
RACCORDO
100
AcDbLine
 62
7
  6
CONTINUOUS
 10
10.1265038948
 20
8.9025922894
 11
10.0257043588
 21
9.0775272893
  0
LINE
  5
57B
100
AcDbEntity
  8
RACCORDO
100
AcDbLine
 62
7
  6
CONTINUOUS
 10
10.2265944873
 20
8.7271663394
 11
10.1265038948
 21
8.9025922894
  0
LINE
  5
57C
100
AcDbEntity
  8
RACCORDO
100
AcDbLine
 62
7
  6
CONTINUOUS
 10
10.1144075209
 20
8.8762807992
 11
10.2599644705
 21
8.6204043933
  0
LINE
  5
57D
100
AcDbEntity
  8
RACCORDO
100
AcDbLine
 62
7
  6
CONTINUOUS
 10
10.2599644705
 20
8.6204043933
 11
10.4040000172
 21
8.3635086843
  0
LINE
  5
57E
100
AcDbEntity
  8
RACCORDO
100
AcDbLine
 62
7
  6
CONTINUOUS
 10
10.4040000172
 20
8.3635086843
 11
10.5465092254
 21
8.1056025652
  0
LWPOLYLINE
  5
57F
100
AcDbEntity
  8
RACCORDO
100
AcDbPolyline
 62
7
  6
CONTINUOUS
 90
6
 70
0
 10
10.7163334218
 20
7.8428151132
 10
10.6198354717
 20
8.0206101487
 10
10.5226126032
 20
8.197942789
 10
10.4246594913
 20
8.3748225525
 10
10.3259814611
 20
8.551239921
 10
10.2265944873
 20
8.7271663394
  0
LWPOLYLINE
  5
580
100
AcDbEntity
  8
RACCORDO
100
AcDbPolyline
 62
7
  6
CONTINUOUS
 90
3
 70
0
 10
10.5465092254
 20
8.1056025652
 10
10.6874723529
 20
7.8467216087
 10
10.7573753703
 20
7.7169133431
  0
LINE
  5
581
100
AcDbEntity
  8
RACCORDO
100
AcDbLine
 62
7
  6
CONTINUOUS
 10
10.8121064536
 20
7.6645576827
 11
10.7163334218
 21
7.8428151132
  0
LWPOLYLINE
  5
582
100
AcDbEntity
  8
RACCORDO
100
AcDbPolyline
 62
7
  6
CONTINUOUS
 90
10
 70
0
 10
10.7573753703
 20
7.7169133431
 10
10.7758920341
 20
7.6801253881
 10
10.7923470925
 20
7.6430472803
 10
10.8067405454
 20
7.6056790195
 10
10.8191366237
 20
7.5677898111
 10
10.8294710966
 20
7.5296104499
 10
10.837551272
 20
7.4918333199
 10
10.8433129194
 20
7.454689216
 10
10.8468202694
 20
7.4179473434
 10
10.848073322
 20
7.381607702
  0
LWPOLYLINE
  5
583
100
AcDbEntity
  8
RACCORDO
100
AcDbPolyline
 62
7
  6
CONTINUOUS
 90
7
 70
0
 10
15.4289698909
 20
13.5339608842
 10
15.4271530613
 20
13.5626628615
 10
15.4221913193
 20
13.5911967211
 10
15.4140283459
 20
13.6207086931
 10
15.4025893949
 20
13.6508969678
 10
15.3879957787
 20
13.6816085383
 10
15.3703912477
 20
13.7126147833
  0
LINE
  5
584
100
AcDbEntity
  8
DRAFT
100
AcDbLine
 62
7
  6
CONTINUOUS
 10
14.5755571548
 20
12.447710606
 11
14.5755571548
 21
12.3443179437
  0
LINE
  5
585
100
AcDbEntity
  8
RACCORDO
100
AcDbLine
 62
250
  6
CONTINUOUS
 10
15.3728378515
 20
13.4216477406
 11
15.3728378515
 21
12.8691876414
  0
LINE
  5
586
100
AcDbEntity
  8
RACCORDO
100
AcDbLine
 62
7
  6
CONTINUOUS
 10
15.4289698915
 20
13.5341045438
 11
15.4289698915
 21
12.9396601326
  0
LINE
  5
587
100
AcDbEntity
  8
RACCORDO
100
AcDbLine
 62
7
  6
CONTINUOUS
 10
17.1009509997
 20
-22.8631419328
 11
17.1009509997
 21
-21.9573470561
  0
LINE
  5
588
100
AcDbEntity
  8
RACCORDO
100
AcDbLine
 62
7
  6
CONTINUOUS
 10
17.1009509997
 20
9.9125856492
 11
17.1009509997
 21
10.8183805258
  0
LINE
  5
589
100
AcDbEntity
  8
DRAFT
100
AcDbLine
 62
7
  6
CONTINUOUS
 10
-10.1538679894
 20
-22.5336914315
 11
1.0598474138
 21
-16.4938208202
  0
LINE
  5
58A
100
AcDbEntity
  8
DRAFT
100
AcDbLine
 62
7
  6
CONTINUOUS
 10
-0.3242138207
 20
-16.8156028307
 11
-11.0231349649
 21
-22.156957127
  0
LWPOLYLINE
  5
58B
100
AcDbEntity
  8
ASSI
100
AcDbPolyline
 62
7
  6
CONTINUOUS
 90
16
 70
0
 10
-9.7376069738
 20
-19.699990631
 10
-9.7950647492
 20
-19.7223026999
 10
-9.8549707503
 20
-19.7363270081
 10
-9.917324977
 20
-19.7420635557
 10
-9.9826653021
 20
-19.7394206752
 10
-10.0504538529
 20
-19.728490034
 10
-10.1190770104
 20
-19.7095466344
 10
-10.1885533061
 20
-19.6824039416
 10
-10.2588642086
 20
-19.6472484904
 10
-10.3283405043
 20
-19.6049148875
 10
-10.3969636618
 20
-19.5552351296
 10
-10.4647522126
 20
-19.49837722
 10
-10.5300925378
 20
-19.4356797753
 10
-10.5924467644
 20
-19.3675890011
 10
-10.6523527655
 20
-19.2936586918
 10
-10.709810541
 20
-19.2138888474
  0
LWPOLYLINE
  5
58C
100
AcDbEntity
  8
RACCORDO
100
AcDbPolyline
 62
7
  6
CONTINUOUS
 90
5
 70
0
 10
-19.3286415852
 20
13.0359891176
 10
-19.2939606774
 20
13.0436958372
 10
-19.2604082814
 20
13.0509384815
 10
-19.2267593071
 20
13.0579883852
 10
-19.2118303924
 20
13.0610469179
  0
LWPOLYLINE
  5
58D
100
AcDbEntity
  8
RACCORDO
100
AcDbPolyline
 62
250
  6
CONTINUOUS
 90
13
 70
0
 10
-19.6650603197
 20
13.3742341398
 10
-19.0782853882
 20
13.4750328625
 10
-18.4689424922
 20
13.5314032524
 10
-17.8370316317
 20
13.5433453095
 10
-17.1797509898
 20
13.5121527354
 10
-16.4999023833
 20
13.4365318286
 10
-15.8058912632
 20
13.3126014835
 10
-15.0972973298
 20
13.1387925454
 10
-14.3745408827
 20
12.9166741691
 10
-13.6472882717
 20
12.6470727132
 10
-12.9157626243
 20
12.328755405
 10
-12.1797408129
 20
11.9629550173
 10
-11.448219805
 20
11.5541962268
  0
LWPOLYLINE
  5
58E
100
AcDbEntity
  8
RACCORDO
100
AcDbPolyline
 62
7
  6
CONTINUOUS
 90
13
 70
0
 10
-19.2118308156
 20
13.061046885
 10
-18.6075242109
 20
13.1592724613
 10
-17.988080957
 20
13.2114234082
 10
-17.3551326493
 20
13.2176651651
 10
-16.7107080517
 20
13.1783116647
 10
-16.0562070295
 20
13.0937795296
 10
-15.3923364033
 20
12.9643532573
 10
-14.7208181433
 20
12.7904624151
 10
-14.0434753023
 20
12.5726832638
 10
-13.3611171775
 20
12.3113040016
 10
-12.6753619526
 20
12.0068788682
 10
-11.9881725373
 20
11.6602261028
 10
-11.300825766
 20
11.2719172787
  0
LINE
  5
58F
100
AcDbEntity
  8
RACCORDO
100
AcDbLine
 62
250
  6
CONTINUOUS
 10
-19.2444999955
 20
13.0562276279
 11
-19.2118308156
 21
13.061046885
  0
LINE
  5
590
100
AcDbEntity
  8
RACCORDO
100
AcDbLine
 62
7
  6
CONTINUOUS
 10
4.4527048214
 20
15.3847846272
 11
5.8450583705
 21
15.5268830348
  0
LINE
  5
591
100
AcDbEntity
  8
RACCORDO
100
AcDbLine
 62
7
  6
CONTINUOUS
 10
3.9822158906
 20
15.7010054816
 11
5.9324615753
 21
15.9000402787
  0
LINE
  5
592
100
AcDbEntity
  8
RACCORDO
100
AcDbLine
 62
7
  6
CONTINUOUS
 10
4.2354053005
 20
16.7485684161
 11
2.2851596158
 21
16.549533619
  0
LWPOLYLINE
  5
593
100
AcDbEntity
  8
RACCORDO
100
AcDbPolyline
 62
7
  6
CONTINUOUS
 90
25
 70
0
 10
5.9324615753
 20
15.9000402787
 10
5.94163368
 20
15.9007875848
 10
5.9512860007
 20
15.9012273277
 10
5.9614185373
 20
15.9013595075
 10
5.9720786561
 20
15.9011820618
 10
5.983218991
 20
15.900697053
 10
5.9946974429
 20
15.8999106674
 10
6.0065183431
 20
15.8988190444
 10
6.0186773604
 20
15.8974260447
 10
6.0310194023
 20
15.8957494364
 10
6.0435468134
 20
15.8937855866
 10
6.056257249
 20
15.8915381283
 10
6.0689885832
 20
15.8890357284
 10
6.0817410837
 20
15.8862751214
 10
6.0945144827
 20
15.883259573
 10
6.1071458511
 20
15.8800275475
 10
6.1196333696
 20
15.8765762718
 10
6.1319788575
 20
15.8729085191
 10
6.1440248437
 20
15.8690710728
 10
6.1557674919
 20
15.8650617591
 10
6.1672106384
 20
15.8608827519
 10
6.178208322
 20
15.8565873557
 10
6.1887118889
 20
15.8521933388
 10
6.1987699929
 20
15.847682933
 10
6.208382634
 20
15.8430561383
  0
LWPOLYLINE
  5
594
100
AcDbEntity
  8
RACCORDO
100
AcDbPolyline
 62
7
  6
CONTINUOUS
 90
25
 70
0
 10
2.2851596158
 20
16.549533619
 10
2.2759875111
 20
16.5487863128
 10
2.2663351905
 20
16.5483465699
 10
2.2562026538
 20
16.5482143902
 10
2.245542535
 20
16.5483918358
 10
2.2344022002
 20
16.5488768447
 10
2.2229237483
 20
16.5496632303
 10
2.2111028481
 20
16.5507548532
 10
2.1989438307
 20
16.5521478529
 10
2.1866017888
 20
16.5538244612
 10
2.1740743778
 20
16.555788311
 10
2.1613639421
 20
16.5580357694
 10
2.1486326079
 20
16.5605381692
 10
2.1358801075
 20
16.5632987762
 10
2.1231067084
 20
16.5663143247
 10
2.11047534
 20
16.5695463502
 10
2.0979878215
 20
16.5729976258
 10
2.0856423337
 20
16.5766653785
 10
2.0735963474
 20
16.5805028248
 10
2.0618536993
 20
16.5845121385
 10
2.0504105528
 20
16.5886911458
 10
2.0394128692
 20
16.592986542
 10
2.0289093023
 20
16.5973805589
 10
2.0188511983
 20
16.6018909647
 10
2.0092385572
 20
16.6065177594
  0
LINE
  5
595
100
AcDbEntity
  8
RACCORDO
100
AcDbLine
 62
250
  6
CONTINUOUS
 10
-19.7918455364
 20
13.3649836653
 11
-19.7490120563
 21
13.3683954786
  0
LINE
  5
596
100
AcDbEntity
  8
RACCORDO
100
AcDbLine
 62
250
  6
CONTINUOUS
 10
-19.7490120563
 20
13.3683954786
 11
-19.7067541841
 21
13.371478636
  0
LINE
  5
597
100
AcDbEntity
  8
RACCORDO
100
AcDbLine
 62
250
  6
CONTINUOUS
 10
-21.0600555637
 20
14.0717317618
 11
-21.0927996378
 21
14.0695510263
  0
LINE
  5
598
100
AcDbEntity
  8
RACCORDO
100
AcDbLine
 62
250
  6
CONTINUOUS
 10
-19.7067541841
 20
13.371478636
 11
-19.6650603197
 21
13.3742341398
  0
LINE
  5
599
100
AcDbEntity
  8
RACCORDO
100
AcDbLine
 62
250
  6
CONTINUOUS
 10
-21.0927996378
 20
14.0695510263
 11
-21.1893834893
 21
14.0637526417
  0
LINE
  5
59A
100
AcDbEntity
  8
0
100
AcDbLine
 62
7
  6
CONTINUOUS
 10
11.6259468975
 20
15.6107514685
 11
10.7244740741
 21
15.5662866478
  0
LWPOLYLINE
  5
59B
100
AcDbEntity
  8
RACCORDO
100
AcDbPolyline
 62
7
  6
CONTINUOUS
 90
5
 70
0
 10
5.0144208381
 20
15.149000625
 10
4.9898740128
 20
15.1586536626
 10
4.9660617182
 20
15.1627438302
 10
4.9437161325
 20
15.1611521188
 10
4.92707796
 20
15.1556884082
  0
LWPOLYLINE
  5
59C
100
AcDbEntity
  8
RACCORDO
100
AcDbPolyline
 62
250
  6
CONTINUOUS
 90
3
 70
0
 10
5.7761207443
 20
15.5007788836
 10
5.7519625289
 20
15.5106097711
 10
5.7284631005
 20
15.5148446736
  0
LWPOLYLINE
  5
59D
100
AcDbEntity
  8
RACCORDO
100
AcDbPolyline
 62
7
  6
CONTINUOUS
 90
25
 70
0
 10
6.1209794291
 20
15.4698988944
 10
6.111366788
 20
15.4745256891
 10
6.101308684
 20
15.4790360949
 10
6.0908051171
 20
15.4834301118
 10
6.0798074335
 20
15.487725508
 10
6.068364287
 20
15.4919045153
 10
6.0566216388
 20
15.4959138289
 10
6.0445756526
 20
15.4997512753
 10
6.0322301647
 20
15.503419028
 10
6.0197426463
 20
15.5068703036
 10
6.0071112778
 20
15.5101023291
 10
5.9943378788
 20
15.5131178776
 10
5.9815853783
 20
15.5158784846
 10
5.9688540441
 20
15.5183808844
 10
5.9561436085
 20
15.5206283428
 10
5.9436161974
 20
15.5225921926
 10
5.9312741555
 20
15.5242688008
 10
5.9191151382
 20
15.5256618005
 10
5.907294238
 20
15.5267534235
 10
5.8958157861
 20
15.5275398091
 10
5.8846754513
 20
15.528024818
 10
5.8740153324
 20
15.5282022636
 10
5.8638827958
 20
15.5280700839
 10
5.8542304752
 20
15.5276303409
 10
5.8450583705
 20
15.5268830348
  0
LWPOLYLINE
  5
59E
100
AcDbEntity
  8
RACCORDO
100
AcDbPolyline
 62
7
  6
CONTINUOUS
 90
25
 70
0
 10
2.0904707763
 20
17.4851532208
 10
2.0808581352
 20
17.4897800155
 10
2.0708000312
 20
17.4942904213
 10
2.0602964643
 20
17.4986844382
 10
2.0492987807
 20
17.5029798344
 10
2.0378556342
 20
17.5071588417
 10
2.0261129861
 20
17.5111681553
 10
2.0140669998
 20
17.5150056016
 10
2.001721512
 20
17.5186733543
 10
1.9892339935
 20
17.52212463
 10
1.9766026251
 20
17.5253566555
 10
1.963829226
 20
17.528372204
 10
1.9510767256
 20
17.531132811
 10
1.9383453914
 20
17.5336352108
 10
1.9256349557
 20
17.5358826691
 10
1.9131075447
 20
17.5378465189
 10
1.9007655028
 20
17.5395231272
 10
1.8886064854
 20
17.5409161269
 10
1.8767855852
 20
17.5420077499
 10
1.8653071333
 20
17.5427941355
 10
1.8541667985
 20
17.5432791443
 10
1.8435066796
 20
17.54345659
 10
1.833374143
 20
17.5433244103
 10
1.8237218224
 20
17.5428846673
 10
1.8145497177
 20
17.5421373612
  0
LWPOLYLINE
  5
59F
100
AcDbEntity
  8
RACCORDO
100
AcDbPolyline
 62
7
  6
CONTINUOUS
 90
25
 70
0
 10
-9.435369757
 20
23.2480734875
 10
-9.4449823981
 20
23.2527002822
 10
-9.4550405021
 20
23.257210688
 10
-9.465544069
 20
23.2616047048
 10
-9.4765417526
 20
23.265900101
 10
-9.4879848991
 20
23.2700791083
 10
-9.4997275473
 20
23.274088422
 10
-9.5117735335
 20
23.2779258683
 10
-9.5241190214
 20
23.281593621
 10
-9.5366065398
 20
23.2850448966
 10
-9.5492379083
 20
23.2882769222
 10
-9.5620113073
 20
23.2912924706
 10
-9.5747638078
 20
23.2940530776
 10
-9.587495142
 20
23.2965554774
 10
-9.6002055776
 20
23.2988029358
 10
-9.6127329887
 20
23.3007667856
 10
-9.6250750306
 20
23.3024433939
 10
-9.6372340479
 20
23.3038363936
 10
-9.6490549481
 20
23.3049280165
 10
-9.6605334
 20
23.3057144022
 10
-9.6716737348
 20
23.306199411
 10
-9.6823338537
 20
23.3063768567
 10
-9.6924663903
 20
23.3062446769
 10
-9.702118711
 20
23.305804934
 10
-9.7112908156
 20
23.3050576278
  0
LWPOLYLINE
  5
5A0
100
AcDbEntity
  8
RACCORDO
100
AcDbPolyline
 62
7
  6
CONTINUOUS
 90
25
 70
0
 10
-13.4658784098
 20
25.2633278138
 10
-13.4754910509
 20
25.2679546085
 10
-13.4855491549
 20
25.2724650143
 10
-13.4960527218
 20
25.2768590312
 10
-13.5070504054
 20
25.2811544274
 10
-13.5184935519
 20
25.2853334347
 10
-13.5302362
 20
25.2893427484
 10
-13.5422821863
 20
25.2931801947
 10
-13.5546276742
 20
25.2968479474
 10
-13.5671151926
 20
25.300299223
 10
-13.579746561
 20
25.3035312486
 10
-13.5925199601
 20
25.306546797
 10
-13.6052724605
 20
25.309307404
 10
-13.6180037947
 20
25.3118098038
 10
-13.6307142304
 20
25.3140572622
 10
-13.6432416414
 20
25.316021112
 10
-13.6555836833
 20
25.3176977203
 10
-13.6677427007
 20
25.31909072
 10
-13.6795636009
 20
25.3201823429
 10
-13.6910420528
 20
25.3209687285
 10
-13.7021823876
 20
25.3214537374
 10
-13.7128425065
 20
25.321631183
 10
-13.7229750431
 20
25.3214990033
 10
-13.7326273637
 20
25.3210592604
 10
-13.7417994684
 20
25.3203119542
  0
LINE
  5
5A1
100
AcDbEntity
  8
DRAFT
100
AcDbLine
 62
7
  6
CONTINUOUS
 10
-9.2254007123
 20
20.8832707541
 11
-9.0409107856
 21
20.7910257908
  0
LINE
  5
5A2
100
AcDbEntity
  8
0
100
AcDbLine
 62
250
  6
CONTINUOUS
 10
6.5347219568
 20
13.7421810147
 11
-1.9505594175
 21
17.9848217018
  0
LINE
  5
5A3
100
AcDbEntity
  8
0
100
AcDbLine
 62
250
  6
CONTINUOUS
 10
-9.0216272293
 20
21.5203556077
 11
-17.5069086036
 21
25.7629962949
  0
LINE
  5
5A4
100
AcDbEntity
  8
0
100
AcDbLine
 62
250
  6
CONTINUOUS
 10
6.8982900894
 20
13.923965081
 11
-1.5869912849
 21
18.1666057681
  0
LINE
  5
5A5
100
AcDbEntity
  8
0
100
AcDbLine
 62
250
  6
CONTINUOUS
 10
-8.6580590967
 20
21.702139674
 11
-17.143340471
 21
25.9447803612
  0
LINE
  5
5A6
100
AcDbEntity
  8
0
100
AcDbLine
 62
250
  6
CONTINUOUS
 10
7.0512456979
 20
13.9707724751
 11
-1.4340356763
 21
18.2134131622
  0
LINE
  5
5A7
100
AcDbEntity
  8
0
100
AcDbLine
 62
250
  6
CONTINUOUS
 10
-8.5051034882
 20
21.7489470681
 11
-16.9903848624
 21
25.9915877553
  0
LINE
  5
5A8
100
AcDbEntity
  8
ASSI
100
AcDbLine
 62
7
  6
CONTINUOUS
 10
-7.7542382476
 20
21.428427659
 11
-7.8089054215
 21
21.455761246
  0
LINE
  5
5A9
100
AcDbEntity
  8
RACCORDO
100
AcDbLine
 62
7
  6
CONTINUOUS
 10
6.0397472099
 20
14.591263433
 11
3.9891375445
 21
15.6165682657
  0
LINE
  5
5AA
100
AcDbEntity
  8
RACCORDO
100
AcDbLine
 62
7
  6
CONTINUOUS
 10
2.0092385572
 20
16.6065177594
 11
-0.0413711083
 21
17.6318225921
  0
LINE
  5
5AB
100
AcDbEntity
  8
RACCORDO
100
AcDbLine
 62
7
  6
CONTINUOUS
 10
-9.5166019762
 20
22.369438026
 11
-11.5672116416
 21
23.3947428588
  0
LINE
  5
5AC
100
AcDbEntity
  8
RACCORDO
100
AcDbLine
 62
7
  6
CONTINUOUS
 10
-13.5471106289
 20
24.3846923524
 11
-15.5977202944
 21
25.4099971851
  0
LINE
  5
5AD
100
AcDbEntity
  8
RACCORDO
100
AcDbLine
 62
250
  6
CONTINUOUS
 10
-9.4230705428
 20
22.3551417807
 11
-11.0497134067
 21
23.1684632126
  0
LINE
  5
5AE
100
AcDbEntity
  8
RACCORDO
100
AcDbLine
 62
7
  6
CONTINUOUS
 10
6.2413644208
 20
14.5355288336
 11
5.0144208381
 21
15.149000625
  0
LINE
  5
5AF
100
AcDbEntity
  8
RACCORDO
100
AcDbLine
 62
250
  6
CONTINUOUS
 10
-9.3983891129
 20
22.3674824956
 11
-11.0087181855
 21
23.1726470319
  0
LINE
  5
5B0
100
AcDbEntity
  8
RACCORDO
100
AcDbLine
 62
7
  6
CONTINUOUS
 10
-13.4658784098
 20
25.2633278138
 11
-11.8788360213
 21
24.4698066196
  0
LINE
  5
5B1
100
AcDbEntity
  8
RACCORDO
100
AcDbLine
 62
7
  6
CONTINUOUS
 10
-9.435369757
 20
23.2480734875
 11
-7.8483273685
 21
22.4545522932
  0
LINE
  5
5B2
100
AcDbEntity
  8
RACCORDO
100
AcDbLine
 62
7
  6
CONTINUOUS
 10
2.0904707763
 20
17.4851532208
 11
3.6775131648
 21
16.6916320265
  0
LINE
  5
5B3
100
AcDbEntity
  8
RACCORDO
100
AcDbLine
 62
7
  6
CONTINUOUS
 10
6.1209794291
 20
15.4698988944
 11
7.7080218176
 21
14.6763777001
  0
LINE
  5
5B4
100
AcDbEntity
  8
RACCORDO
100
AcDbLine
 62
7
  6
CONTINUOUS
 10
-13.3784752049
 20
25.6364850577
 11
-11.3278655395
 21
24.611180225
  0
LINE
  5
5B5
100
AcDbEntity
  8
RACCORDO
100
AcDbLine
 62
7
  6
CONTINUOUS
 10
-9.3479665521
 20
23.6212307313
 11
-7.2973568867
 21
22.5959258986
  0
LINE
  5
5B6
100
AcDbEntity
  8
RACCORDO
100
AcDbLine
 62
7
  6
CONTINUOUS
 10
2.1778739812
 20
17.8583104646
 11
4.2284836467
 21
16.8330056319
  0
LINE
  5
5B7
100
AcDbEntity
  8
RACCORDO
100
AcDbLine
 62
7
  6
CONTINUOUS
 10
6.208382634
 20
15.8430561383
 11
8.2589922994
 21
14.8177513055
  0
LWPOLYLINE
  5
5B8
100
AcDbEntity
  8
RACCORDO
100
AcDbPolyline
 62
7
  6
CONTINUOUS
 90
15
 70
0
 10
-15.5977202944
 20
25.4099971851
 10
-15.6067365599
 20
25.4146848437
 10
-15.6150717478
 20
25.4193710839
 10
-15.6227258582
 20
25.4240559057
 10
-15.6297257574
 20
25.4287593008
 10
-15.6360445789
 20
25.4334612776
 10
-15.6416017242
 20
25.4381018606
 10
-15.6463874362
 20
25.4426802634
 10
-15.6504114718
 20
25.4471972725
 10
-15.6536225032
 20
25.4515952718
 10
-15.6560101159
 20
25.4558727368
 10
-15.6575847242
 20
25.460031192
 10
-15.6583262436
 20
25.464017595
 10
-15.6582240023
 20
25.4678297416
 10
-15.6579438379
 20
25.4693318503
  0
LWPOLYLINE
  5
5B9
100
AcDbEntity
  8
RACCORDO
100
AcDbPolyline
 62
7
  6
CONTINUOUS
 90
15
 70
0
 10
-11.5672116416
 20
23.3947428588
 10
-11.5762279071
 20
23.3994305173
 10
-11.5845630951
 20
23.4041167575
 10
-11.5922172055
 20
23.4088015793
 10
-11.5992171046
 20
23.4135049745
 10
-11.6055359262
 20
23.4182069512
 10
-11.6110930714
 20
23.4228475342
 10
-11.6158787834
 20
23.4274259371
 10
-11.6199028191
 20
23.4319429461
 10
-11.6231138505
 20
23.4363409454
 10
-11.6255014631
 20
23.4406184104
 10
-11.6270760715
 20
23.4447768657
 10
-11.6278175908
 20
23.4487632686
 10
-11.6277153495
 20
23.4525754152
 10
-11.6274351851
 20
23.4540775239
  0
LWPOLYLINE
  5
5BA
100
AcDbEntity
  8
RACCORDO
100
AcDbPolyline
 62
7
  6
CONTINUOUS
 90
15
 70
0
 10
-0.0413711083
 20
17.6318225921
 10
-0.0503873738
 20
17.6365102507
 10
-0.0587225617
 20
17.6411964909
 10
-0.0663766721
 20
17.6458813126
 10
-0.0733765712
 20
17.6505847078
 10
-0.0796953928
 20
17.6552866846
 10
-0.0852525381
 20
17.6599272676
 10
-0.0900382501
 20
17.6645056704
 10
-0.0940622857
 20
17.6690226795
 10
-0.0972733171
 20
17.6734206787
 10
-0.0996609298
 20
17.6776981438
 10
-0.1012355381
 20
17.681856599
 10
-0.1019770575
 20
17.6858430019
 10
-0.1018748162
 20
17.6896551485
 10
-0.1015946518
 20
17.6911572573
  0
LWPOLYLINE
  5
5BB
100
AcDbEntity
  8
RACCORDO
100
AcDbPolyline
 62
7
  6
CONTINUOUS
 90
15
 70
0
 10
3.9891375445
 20
15.6165682657
 10
3.980121279
 20
15.6212559243
 10
3.971786091
 20
15.6259421645
 10
3.9641319806
 20
15.6306269862
 10
3.9571320815
 20
15.6353303814
 10
3.9508132599
 20
15.6400323582
 10
3.9452561147
 20
15.6446729412
 10
3.9404704027
 20
15.649251344
 10
3.936446367
 20
15.6537683531
 10
3.9332353356
 20
15.6581663524
 10
3.930847723
 20
15.6624438174
 10
3.9292731146
 20
15.6666022726
 10
3.9285315953
 20
15.6705886755
 10
3.9286338366
 20
15.6744008222
 10
3.928914001
 20
15.6759029309
  0
LWPOLYLINE
  5
5BC
100
AcDbEntity
  8
RACCORDO
100
AcDbPolyline
 62
7
  6
CONTINUOUS
 90
15
 70
0
 10
-11.3278655395
 20
24.611180225
 10
-11.318849274
 20
24.6064925664
 10
-11.310514086
 20
24.6018063262
 10
-11.3028599756
 20
24.5971215044
 10
-11.2958600765
 20
24.5924181093
 10
-11.2895412549
 20
24.5877161325
 10
-11.2839841097
 20
24.5830755495
 10
-11.2791983977
 20
24.5784971467
 10
-11.275174362
 20
24.5739801376
 10
-11.2719633306
 20
24.5695821383
 10
-11.269575718
 20
24.5653046733
 10
-11.2680011096
 20
24.5611462181
 10
-11.2672595902
 20
24.5571598152
 10
-11.2673618315
 20
24.5533476685
 10
-11.267641996
 20
24.5518455598
  0
LWPOLYLINE
  5
5BD
100
AcDbEntity
  8
RACCORDO
100
AcDbPolyline
 62
7
  6
CONTINUOUS
 90
15
 70
0
 10
-7.2973568867
 20
22.5959258986
 10
-7.2883406212
 20
22.59123824
 10
-7.2800054332
 20
22.5865519998
 10
-7.2723513228
 20
22.5818671781
 10
-7.2653514237
 20
22.5771637829
 10
-7.2590326021
 20
22.5724618061
 10
-7.2534754569
 20
22.5678212231
 10
-7.2486897449
 20
22.5632428203
 10
-7.2446657092
 20
22.5587258112
 10
-7.2414546778
 20
22.554327812
 10
-7.2390670652
 20
22.5500503469
 10
-7.2374924568
 20
22.5458918917
 10
-7.2367509375
 20
22.5419054888
 10
-7.2368531788
 20
22.5380933421
 10
-7.2371333432
 20
22.5365912334
  0
LWPOLYLINE
  5
5BE
100
AcDbEntity
  8
RACCORDO
100
AcDbPolyline
 62
7
  6
CONTINUOUS
 90
15
 70
0
 10
4.2284836467
 20
16.8330056319
 10
4.2374999122
 20
16.8283179733
 10
4.2458351001
 20
16.8236317332
 10
4.2534892105
 20
16.8189469114
 10
4.2604891096
 20
16.8142435162
 10
4.2668079312
 20
16.8095415395
 10
4.2723650764
 20
16.8049009564
 10
4.2771507884
 20
16.8003225536
 10
4.2811748241
 20
16.7958055446
 10
4.2843858555
 20
16.7914075453
 10
4.2867734682
 20
16.7871300803
 10
4.2883480765
 20
16.782971625
 10
4.2890895959
 20
16.7789852221
 10
4.2889873546
 20
16.7751730755
 10
4.2887071902
 20
16.7736709668
  0
LWPOLYLINE
  5
5BF
100
AcDbEntity
  8
RACCORDO
100
AcDbPolyline
 62
7
  6
CONTINUOUS
 90
15
 70
0
 10
8.2589922994
 20
14.8177513055
 10
8.2680085649
 20
14.813063647
 10
8.2763437529
 20
14.8083774068
 10
8.2839978633
 20
14.803692585
 10
8.2909977624
 20
14.7989891898
 10
8.297316584
 20
14.7942872131
 10
8.3028737292
 20
14.7896466301
 10
8.3076594412
 20
14.7850682273
 10
8.3116834769
 20
14.7805512182
 10
8.3148945083
 20
14.7761532189
 10
8.3172821209
 20
14.7718757539
 10
8.3188567293
 20
14.7677172986
 10
8.3195982487
 20
14.7637308957
 10
8.3194960073
 20
14.7599187491
 10
8.3192158429
 20
14.7584166404
  0
LINE
  5
5C0
100
AcDbEntity
  8
DRAFT
100
AcDbLine
 62
250
  6
CONTINUOUS
 10
7.3496092915
 20
22.1558067253
 11
7.0953013428
 21
22.8088923678
  0
LINE
  5
5C1
100
AcDbEntity
  8
DRAFT
100
AcDbLine
 62
7
  6
CONTINUOUS
 10
8.8686314326
 20
18.602282101
 11
8.5188177837
 21
19.5192557353
  0
LINE
  5
5C2
100
AcDbEntity
  8
0
100
AcDbLine
 62
7
  6
CONTINUOUS
 10
8.5041397299
 20
20.8843028101
 11
8.302640372
 21
21.4800272359
  0
LWPOLYLINE
  5
5C3
100
AcDbEntity
  8
RACCORDO
100
AcDbPolyline
 62
7
  6
CONTINUOUS
 90
10
 70
0
 10
17.1009509997
 20
-22.8631419328
 10
17.1004548224
 20
-22.8771616582
 10
17.0990497814
 20
-22.8904493246
 10
17.0967358768
 20
-22.903004932
 10
17.0934857854
 20
-22.9149019777
 10
17.0893268303
 20
-22.9260669644
 10
17.0843409812
 20
-22.9362794001
 10
17.0785555614
 20
-22.9454657874
 10
17.0719432475
 20
-22.9536996237
 10
17.0645040397
 20
-22.9609809089
  0
LINE
  5
5C4
100
AcDbEntity
  8
RACCORDO
100
AcDbLine
 62
7
  6
CONTINUOUS
 10
-3.0739733888
 20
-22.8789837593
 11
-3.0806581531
 21
-22.8827073214
  0
LWPOLYLINE
  5
5C5
100
AcDbEntity
  8
RACCORDO
100
AcDbPolyline
 62
250
  6
CONTINUOUS
 90
5
 70
0
 10
-3.0806581531
 20
-22.8827073214
 10
-3.4194800264
 20
-23.0592355722
 10
-3.9525832188
 20
-23.2918422934
 10
-4.5045149842
 20
-23.4802643049
 10
-5.0737336631
 20
-23.6244044775
  0
LINE
  5
5C6
100
AcDbEntity
  8
RACCORDO
100
AcDbLine
 62
7
  6
CONTINUOUS
 10
0.4221961687
 20
17.4000389536
 11
1.8145497177
 21
17.5421373612
  0
LINE
  5
5C7
100
AcDbEntity
  8
RACCORDO
100
AcDbLine
 62
7
  6
CONTINUOUS
 10
6.27175976
 20
18.0419722321
 11
4.9368100453
 21
17.9057322456
  0
LINE
  5
5C8
100
AcDbEntity
  8
RACCORDO
100
AcDbLine
 62
7
  6
CONTINUOUS
 10
-0.0482927621
 20
17.7162598079
 11
1.9019529226
 21
17.915294605
  0
LINE
  5
5C9
100
AcDbEntity
  8
0
100
AcDbLine
 62
7
  6
CONTINUOUS
 10
-1.4340356763
 20
18.2134131622
 11
3.2113200852
 21
18.6875008367
  0
LWPOLYLINE
  5
5CA
100
AcDbEntity
  8
RACCORDO
100
AcDbPolyline
 62
7
  6
CONTINUOUS
 90
25
 70
0
 10
4.9368100453
 20
17.9057322456
 10
4.9276379406
 20
17.9049849395
 10
4.9179856199
 20
17.9045451965
 10
4.9078530833
 20
17.9044130168
 10
4.8971929644
 20
17.9045904625
 10
4.8860526296
 20
17.9050754713
 10
4.8745741777
 20
17.9058618569
 10
4.8627532775
 20
17.9069534799
 10
4.8505942602
 20
17.9083464796
 10
4.8382522183
 20
17.9100230879
 10
4.8257248072
 20
17.9119869377
 10
4.8130143716
 20
17.914234396
 10
4.8002830374
 20
17.9167367958
 10
4.7875305369
 20
17.9194974028
 10
4.7747571379
 20
17.9225129513
 10
4.7621257694
 20
17.9257449768
 10
4.749638251
 20
17.9291962525
 10
4.7372927631
 20
17.9328640052
 10
4.7252467769
 20
17.9367014515
 10
4.7135041287
 20
17.9407107652
 10
4.7020609822
 20
17.9448897724
 10
4.6910632986
 20
17.9491851686
 10
4.6805597317
 20
17.9535791855
 10
4.6705016277
 20
17.9580895913
 10
4.6608889866
 20
17.962716386
  0
LWPOLYLINE
  5
5CB
100
AcDbEntity
  8
RACCORDO
100
AcDbPolyline
 62
7
  6
CONTINUOUS
 90
25
 70
0
 10
1.9019529226
 20
17.915294605
 10
1.9111250273
 20
17.9160419112
 10
1.9207773479
 20
17.9164816541
 10
1.9309098845
 20
17.9166138338
 10
1.9415700034
 20
17.9164363882
 10
1.9527103382
 20
17.9159513793
 10
1.9641887901
 20
17.9151649937
 10
1.9760096903
 20
17.9140733708
 10
1.9881687076
 20
17.9126803711
 10
2.0005107496
 20
17.9110037628
 10
2.0130381606
 20
17.909039913
 10
2.0257485962
 20
17.9067924546
 10
2.0384799304
 20
17.9042900548
 10
2.0512324309
 20
17.9015294478
 10
2.0640058299
 20
17.8985138994
 10
2.0766371984
 20
17.8952818738
 10
2.0891247168
 20
17.8918305982
 10
2.1014702047
 20
17.8881628455
 10
2.113516191
 20
17.8843253992
 10
2.1252588391
 20
17.8803160855
 10
2.1367019856
 20
17.8761370782
 10
2.1476996692
 20
17.871841682
 10
2.1582032361
 20
17.8674476652
 10
2.1682613401
 20
17.8629372594
 10
2.1778739812
 20
17.8583104646
  0
LINE
  5
5CC
100
AcDbEntity
  8
0
100
AcDbLine
 62
7
  6
CONTINUOUS
 10
5.9816068191
 20
18.4329215077
 11
5.0960892669
 21
18.3804790514
  0
LINE
  5
5CD
100
AcDbEntity
  8
0
100
AcDbLine
 62
7
  6
CONTINUOUS
 10
4.7385351102
 20
19.2365682301
 11
3.5235650953
 21
19.1667411372
  0
LWPOLYLINE
  5
5CE
100
AcDbEntity
  8
0
100
AcDbPolyline
 62
7
  6
CONTINUOUS
 90
7
 70
0
 10
6.3579452615
 20
18.0420017918
 10
6.3439967188
 20
18.0432492717
 10
6.3298818931
 20
18.043995789
 10
6.3156007844
 20
18.0442413437
 10
6.3011533926
 20
18.0439859358
 10
6.2865397178
 20
18.0432295652
 10
6.27175976
 20
18.0419722321
  0
LWPOLYLINE
  5
5CF
100
AcDbEntity
  8
0
100
AcDbPolyline
 62
7
  6
CONTINUOUS
 90
5
 70
0
 10
6.4775258593
 20
18.0073699616
 10
6.45779013
 20
18.0164684547
 10
6.4259365685
 20
18.0280682172
 10
6.3926549457
 20
18.0365793296
 10
6.3579452615
 20
18.0420017918
  0
LWPOLYLINE
  5
5D0
100
AcDbEntity
  8
0
100
AcDbPolyline
 62
7
  6
CONTINUOUS
 90
5
 70
0
 10
-9.0788233268
 20
25.7855445546
 10
-9.0985590561
 20
25.7946430477
 10
-9.1304126176
 20
25.8062428103
 10
-9.1636942405
 20
25.8147539226
 10
-9.1984039246
 20
25.8201763848
  0
LWPOLYLINE
  5
5D1
100
AcDbEntity
  8
RACCORDO
100
AcDbPolyline
 62
7
  6
CONTINUOUS
 90
9
 70
0
 10
14.1118638539
 20
15.2553360103
 10
14.0582456378
 20
15.2802898787
 10
13.9943199955
 20
15.3048711205
 10
13.9321890105
 20
15.3228566658
 10
13.8721506468
 20
15.3341228539
 10
13.815495352
 20
15.3382647119
 10
13.7628695327
 20
15.3352405922
 10
13.7142406608
 20
15.3252611752
 10
13.6699157818
 20
15.308450258
  0
LINE
  5
5D2
100
AcDbEntity
  8
RACCORDO
100
AcDbLine
 62
7
  6
CONTINUOUS
 10
15.6790620791
 20
12.2723109878
 11
15.6975859706
 21
12.2636083569
  0
LWPOLYLINE
  5
5D3
100
AcDbEntity
  8
RACCORDO
100
AcDbPolyline
 62
7
  6
CONTINUOUS
 90
5
 70
0
 10
16.1208078761
 20
12.0520290574
 10
16.0761545133
 20
12.073178534
 10
15.9829024286
 20
12.1096891871
 10
15.8916107676
 20
12.135026426
 10
15.8028579355
 20
12.1491769499
  0
LWPOLYLINE
  5
5D4
100
AcDbEntity
  8
0
100
AcDbPolyline
 62
7
  6
CONTINUOUS
 90
6
 70
0
 10
12.3247307222
 20
15.493383577
 10
12.3032597707
 20
15.5038404952
 10
12.2353679114
 20
15.5333235932
 10
12.1685250172
 20
15.5568995436
 10
12.1029309327
 20
15.574589494
 10
12.0388383238
 20
15.5864166233
  0
LWPOLYLINE
  5
5D5
100
AcDbEntity
  8
0
100
AcDbPolyline
 62
7
  6
CONTINUOUS
 90
6
 70
0
 10
-3.2316184639
 20
23.2715581701
 10
-3.2530894154
 20
23.2820150883
 10
-3.3209812747
 20
23.3114981863
 10
-3.3878241689
 20
23.3350741366
 10
-3.4534182534
 20
23.3527640871
 10
-3.5175108623
 20
23.3645912164
  0
LINE
  5
5D6
100
AcDbEntity
  8
DRAFT
100
AcDbLine
 62
7
  6
CONTINUOUS
 10
14.9312295769
 20
11.9959824527
 11
14.4077415457
 21
12.2577264683
  0
LINE
  5
5D7
100
AcDbEntity
  8
RACCORDO
100
AcDbLine
 62
250
  6
CONTINUOUS
 10
15.4675155604
 20
12.1328043004
 11
15.3937870592
 21
12.1696685511
  0
LINE
  5
5D8
100
AcDbEntity
  8
0
100
AcDbLine
 62
7
  6
CONTINUOUS
 10
-2.3430906277
 20
21.260069226
 11
1.2800121116
 21
19.4485178564
  0
LINE
  5
5D9
100
AcDbEntity
  8
RACCORDO
100
AcDbLine
 62
7
  6
CONTINUOUS
 10
16.007206431
 20
12.1088298333
 11
15.6972441961
 21
12.2638109507
  0
LINE
  5
5DA
100
AcDbEntity
  8
RACCORDO
100
AcDbLine
 62
7
  6
CONTINUOUS
 10
-12.3450291009
 20
26.4656754298
 11
-10.8954601995
 21
25.7408909791
  0
LINE
  5
5DB
100
AcDbEntity
  8
RACCORDO
100
AcDbLine
 62
7
  6
CONTINUOUS
 10
3.2113200852
 20
18.6875008367
 11
4.6608889866
 21
17.962716386
  0
LINE
  5
5DC
100
AcDbEntity
  8
RACCORDO
100
AcDbLine
 62
7
  6
CONTINUOUS
 10
11.6202285557
 20
14.4830466015
 11
10.247032558
 21
15.1696446003
  0
LINE
  5
5DD
100
AcDbEntity
  8
RACCORDO
100
AcDbLine
 62
7
  6
CONTINUOUS
 10
-3.9361206304
 20
22.2612211945
 11
-5.3093166281
 21
22.9478191934
  0
LINE
  5
5DE
100
AcDbEntity
  8
DRAFT
100
AcDbLine
 62
7
  6
CONTINUOUS
 10
-12.4864504572
 20
26.7691984571
 11
-10.9125065237
 21
25.9822264904
  0
LINE
  5
5DF
100
AcDbEntity
  8
DRAFT
100
AcDbLine
 62
7
  6
CONTINUOUS
 10
-5.2922703039
 20
23.1721083805
 11
-3.7183263704
 21
22.3851364138
  0
LINE
  5
5E0
100
AcDbEntity
  8
DRAFT
100
AcDbLine
 62
7
  6
CONTINUOUS
 10
11.8380228157
 20
14.6069618207
 11
10.2640788822
 21
15.3939337874
  0
LINE
  5
5E1
100
AcDbEntity
  8
DRAFT
100
AcDbLine
 62
7
  6
CONTINUOUS
 10
4.6438426624
 20
18.2040518973
 11
3.069898729
 21
18.9910238641
  0
LINE
  5
5E2
100
AcDbEntity
  8
RACCORDO
100
AcDbLine
 62
7
  6
CONTINUOUS
 10
12.1148113596
 20
14.5551700891
 11
11.9794226327
 21
14.6228644525
  0
LINE
  5
5E3
100
AcDbEntity
  8
DRAFT
100
AcDbLine
 62
7
  6
CONTINUOUS
 10
11.9794226327
 20
14.6228644525
 11
11.8380228157
 21
14.6935643611
  0
LINE
  5
5E4
100
AcDbEntity
  8
DRAFT
100
AcDbLine
 62
7
  6
CONTINUOUS
 10
3.069898729
 20
19.0776264044
 11
2.9284989119
 21
19.148326313
  0
LINE
  5
5E5
100
AcDbEntity
  8
RACCORDO
100
AcDbLine
 62
7
  6
CONTINUOUS
 10
2.9284989119
 20
19.148326313
 11
1.8360628032
 21
19.6945443673
  0
LINE
  5
5E6
100
AcDbEntity
  8
DRAFT
100
AcDbLine
 62
7
  6
CONTINUOUS
 10
-3.5769265534
 20
22.4010390456
 11
-3.7183263704
 21
22.4717389541
  0
LINE
  5
5E7
100
AcDbEntity
  8
RACCORDO
100
AcDbLine
 62
7
  6
CONTINUOUS
 10
-2.4844904447
 20
21.8548209913
 11
-3.5769265534
 21
22.4010390456
  0
LINE
  5
5E8
100
AcDbEntity
  8
RACCORDO
100
AcDbLine
 62
7
  6
CONTINUOUS
 10
-12.6278502742
 20
26.926500906
 11
-12.7632390011
 21
26.9941952695
  0
LINE
  5
5E9
100
AcDbEntity
  8
DRAFT
100
AcDbLine
 62
7
  6
CONTINUOUS
 10
-12.4864504572
 20
26.8558009975
 11
-12.6278502742
 21
26.926500906
  0
LINE
  5
5EA
100
AcDbEntity
  8
0
100
AcDbLine
 62
250
  6
CONTINUOUS
 10
-12.2691325649
 20
26.8775716201
 11
-10.695868734
 21
26.0909397046
  0
LINE
  5
5EB
100
AcDbEntity
  8
0
100
AcDbLine
 62
250
  6
CONTINUOUS
 10
-5.0717291306
 20
23.278869903
 11
-3.5842722514
 21
22.5351414634
  0
LINE
  5
5EC
100
AcDbEntity
  8
0
100
AcDbLine
 62
250
  6
CONTINUOUS
 10
3.2872166212
 20
19.099397027
 11
4.8604804521
 21
18.3127651116
  0
LINE
  5
5ED
100
AcDbEntity
  8
0
100
AcDbLine
 62
250
  6
CONTINUOUS
 10
10.4846200555
 20
15.5006953099
 11
11.9720769347
 21
14.7569668703
  0
LINE
  5
5EE
100
AcDbEntity
  8
0
100
AcDbLine
 62
250
  6
CONTINUOUS
 10
-12.0327840908
 20
26.9449157303
 11
-10.4602599192
 21
26.1586536445
  0
LINE
  5
5EF
100
AcDbEntity
  8
0
100
AcDbLine
 62
250
  6
CONTINUOUS
 10
-4.831875112
 20
23.3444612409
 11
-3.3935984737
 21
22.6253229217
  0
LINE
  5
5F0
100
AcDbEntity
  8
0
100
AcDbLine
 62
250
  6
CONTINUOUS
 10
3.5235650953
 20
19.1667411372
 11
5.0960892669
 21
18.3804790514
  0
LINE
  5
5F1
100
AcDbEntity
  8
0
100
AcDbLine
 62
250
  6
CONTINUOUS
 10
10.7244740741
 20
15.5662866478
 11
12.1627507124
 21
14.8471483287
  0
LINE
  5
5F2
100
AcDbEntity
  8
0
100
AcDbLine
 62
250
  6
CONTINUOUS
 10
11.1783558226
 20
15.5886742007
 11
6.27175976
 21
18.0419722321
  0
LINE
  5
5F3
100
AcDbEntity
  8
0
100
AcDbLine
 62
250
  6
CONTINUOUS
 10
-4.3779933635
 20
23.3668487938
 11
-9.2845894261
 21
25.8201468251
  0
LINE
  5
5F4
100
AcDbEntity
  8
0
100
AcDbLine
 62
7
  6
CONTINUOUS
 10
-9.0787544012
 20
25.7855274983
 11
-4.2536621739
 21
23.3729813847
  0
LINE
  5
5F5
100
AcDbEntity
  8
0
100
AcDbLine
 62
7
  6
CONTINUOUS
 10
6.4775947849
 20
18.0073529053
 11
11.3026870122
 21
15.5948067916
  0
LINE
  5
5F6
100
AcDbEntity
  8
0
100
AcDbLine
 62
250
  6
CONTINUOUS
 10
-10.8178140759
 20
27.0147428232
 11
-9.3304658641
 21
26.2710687173
  0
LINE
  5
5F7
100
AcDbEntity
  8
0
100
AcDbLine
 62
250
  6
CONTINUOUS
 10
-3.5175108623
 20
23.3645912164
 11
-2.6974643242
 21
22.9545679473
  0
LINE
  5
5F8
100
AcDbEntity
  8
0
100
AcDbLine
 62
250
  6
CONTINUOUS
 10
4.7385351102
 20
19.2365682301
 11
6.225883322
 21
18.4928941242
  0
LINE
  5
5F9
100
AcDbEntity
  8
0
100
AcDbLine
 62
250
  6
CONTINUOUS
 10
12.0388383238
 20
15.5864166233
 11
12.8588848619
 21
15.1763933543
  0
LINE
  5
5FA
100
AcDbEntity
  8
RACCORDO
100
AcDbLine
 62
7
  6
CONTINUOUS
 10
-10.6544653672
 20
26.9829817046
 11
-9.290888284
 21
26.3011931631
  0
LINE
  5
5FB
100
AcDbEntity
  8
RACCORDO
100
AcDbLine
 62
7
  6
CONTINUOUS
 10
-3.228498964
 20
23.269998503
 11
-2.646164033
 21
22.9788310375
  0
LINE
  5
5FC
100
AcDbEntity
  8
RACCORDO
100
AcDbLine
 62
7
  6
CONTINUOUS
 10
4.9018838189
 20
19.2048071116
 11
6.2654609021
 21
18.52301857
  0
LINE
  5
5FD
100
AcDbEntity
  8
RACCORDO
100
AcDbLine
 62
7
  6
CONTINUOUS
 10
12.3278502221
 20
15.49182391
 11
12.9101851531
 21
15.2006564445
  0
LINE
  5
5FE
100
AcDbEntity
  8
RACCORDO
100
AcDbLine
 62
7
  6
CONTINUOUS
 10
-0.2566965383
 20
22.1797792536
 11
3.1716856884
 21
20.4655881403
  0
LINE
  5
5FF
100
AcDbEntity
  8
DRAFT
100
AcDbLine
 62
250
  6
CONTINUOUS
 10
13.6699157818
 20
15.308450258
 11
13.4113960012
 21
15.4377101483
  0
LINE
  5
600
100
AcDbEntity
  8
DRAFT
100
AcDbLine
 62
250
  6
CONTINUOUS
 10
4.6250723816
 20
19.8308719581
 11
3.261397278
 21
20.5127095099
  0
LINE
  5
601
100
AcDbEntity
  8
DRAFT
100
AcDbLine
 62
250
  6
CONTINUOUS
 10
-0.7812780814
 20
22.5340471895
 11
-2.1449531849
 21
23.2158847413
  0
LINE
  5
602
100
AcDbEntity
  8
DRAFT
100
AcDbLine
 62
250
  6
CONTINUOUS
 10
-10.9312768045
 20
27.6090465511
 11
-11.1897965851
 21
27.7383064414
  0
LWPOLYLINE
  5
603
100
AcDbEntity
  8
RACCORDO
100
AcDbPolyline
 62
7
  6
CONTINUOUS
 90
15
 70
0
 10
-5.3093166281
 20
22.9478191934
 10
-5.3183328936
 20
22.952506852
 10
-5.3266680816
 20
22.9571930921
 10
-5.334322192
 20
22.9618779139
 10
-5.3413220911
 20
22.9665813091
 10
-5.3476409127
 20
22.9712832858
 10
-5.3531980579
 20
22.9759238689
 10
-5.3579837699
 20
22.9805022717
 10
-5.3620078056
 20
22.9850192807
 10
-5.365218837
 20
22.98941728
 10
-5.3676064496
 20
22.993694745
 10
-5.369181058
 20
22.9978532003
 10
-5.3699225773
 20
23.0018396032
 10
-5.369820336
 20
23.0056517498
 10
-5.3695401716
 20
23.0071538585
  0
LWPOLYLINE
  5
604
100
AcDbEntity
  8
RACCORDO
100
AcDbPolyline
 62
7
  6
CONTINUOUS
 90
15
 70
0
 10
10.247032558
 20
15.1696446003
 10
10.2380162925
 20
15.1743322589
 10
10.2296811045
 20
15.1790184991
 10
10.2220269941
 20
15.1837033209
 10
10.215027095
 20
15.188406716
 10
10.2087082735
 20
15.1931086928
 10
10.2031511282
 20
15.1977492758
 10
10.1983654162
 20
15.2023276786
 10
10.1943413805
 20
15.2068446877
 10
10.1911303491
 20
15.211242687
 10
10.1887427365
 20
15.215520152
 10
10.1871681281
 20
15.2196786072
 10
10.1864266088
 20
15.2236650102
 10
10.1865288501
 20
15.2274771568
 10
10.1868090145
 20
15.2289792655
  0
LWPOLYLINE
  5
605
100
AcDbEntity
  8
RACCORDO
100
AcDbPolyline
 62
250
  6
CONTINUOUS
 90
10
 70
0
 10
-3.1403217924
 20
-24.6824991095
 10
-3.2163263692
 20
-24.7181062442
 10
-3.2927655114
 20
-24.7528791348
 10
-3.3696395325
 20
-24.7868179502
 10
-3.4469554875
 20
-24.8199260457
 10
-3.5247069386
 20
-24.8522003987
 10
-3.6028739665
 20
-24.883631615
 10
-3.6814501435
 20
-24.914216678
 10
-3.7604425227
 20
-24.9439589425
 10
-3.8398514114
 20
-24.972858575
  0
LWPOLYLINE
  5
606
100
AcDbEntity
  8
RACCORDO
100
AcDbPolyline
 62
250
  6
CONTINUOUS
 90
3
 70
0
 10
2.5571367409
 20
22.6308089862
 10
2.7186080777
 20
22.6621504184
 10
2.8731405922
 20
22.7001659397
  0
LINE
  5
607
100
AcDbEntity
  8
RACCORDO
100
AcDbLine
 62
250
  6
CONTINUOUS
 10
2.3922620728
 20
22.6066372658
 11
2.5571367409
 21
22.6308089862
  0
LINE
  5
608
100
AcDbEntity
  8
0
100
AcDbLine
 62
7
  6
CONTINUOUS
 10
-8.5925066931
 20
21.3757898243
 11
-4.8738331681
 21
21.7553037677
  0
LINE
  5
609
100
AcDbEntity
  8
0
100
AcDbLine
 62
7
  6
CONTINUOUS
 10
-8.5051034882
 20
21.7489470681
 11
-4.0412275751
 21
22.2045135865
  0
LWPOLYLINE
  5
60A
100
AcDbEntity
  8
RACCORDO
100
AcDbPolyline
 62
7
  6
CONTINUOUS
 90
6
 70
0
 10
-0.6370346496
 20
22.5667192902
 10
-0.6009969177
 20
22.5670403897
 10
-0.5672746682
 20
22.5650866578
 10
-0.5365464351
 20
22.5613173921
 10
-0.5082154074
 20
22.5557221582
 10
-0.482299494
 20
22.548512482
  0
LWPOLYLINE
  5
60B
100
AcDbEntity
  8
RACCORDO
100
AcDbPolyline
 62
7
  6
CONTINUOUS
 90
8
 70
0
 10
3.4465255496
 20
20.5698410605
 10
3.4228814467
 20
20.5701041192
 10
3.3988294741
 20
20.5672502017
 10
3.3741239989
 20
20.5612751658
 10
3.3479895598
 20
20.552788643
 10
3.3202622906
 20
20.5420218213
 10
3.2913533675
 20
20.5286724749
 10
3.261397278
 20
20.5127095099
  0
LWPOLYLINE
  5
60C
100
AcDbEntity
  8
RACCORDO
100
AcDbPolyline
 62
250
  6
CONTINUOUS
 90
3
 70
0
 10
9.5791959033
 20
21.8301489444
 10
9.6666765715
 20
21.8284021969
 10
9.7506309949
 20
21.8253986515
  0
LWPOLYLINE
  5
60D
100
AcDbEntity
  8
RACCORDO
100
AcDbPolyline
 62
250
  6
CONTINUOUS
 90
19
 70
0
 10
9.7506309949
 20
21.8253986515
 10
9.8309350683
 20
21.8211798509
 10
9.9077128968
 20
21.8157042524
 10
9.9812516233
 20
21.8094030467
 10
10.051518157
 20
21.802317013
 10
10.1185455885
 20
21.7944053721
 10
10.1827203327
 20
21.7859769779
 10
10.2440280795
 20
21.7770663373
 10
10.3024831389
 20
21.7676389435
 10
10.3585148554
 20
21.7579001297
 10
10.412119439
 20
21.747878608
 10
10.4633006797
 20
21.7375456663
 10
10.5124992919
 20
21.7270205015
 10
10.5597184369
 20
21.7163259624
 10
10.6049549534
 20
21.7054392002
 10
10.6486400733
 20
21.6944108666
 10
10.6909175404
 20
21.6832578453
 10
10.7316436108
 20
21.6719632525
 10
10.7708182845
 20
21.6605270882
  0
LWPOLYLINE
  5
60E
100
AcDbEntity
  8
RACCORDO
100
AcDbPolyline
 62
7
  6
CONTINUOUS
 90
22
 70
0
 10
-2.4844904447
 20
21.8548209913
 10
-2.4812799863
 20
21.8541274627
 10
-2.4779598895
 20
21.8537015458
 10
-2.4745301542
 20
21.8535432404
 10
-2.4709698958
 20
21.8537065986
 10
-2.4672999989
 20
21.8541375685
 10
-2.4635831177
 20
21.8546739937
 10
-2.4598454284
 20
21.8552736227
 10
-2.4560607547
 20
21.8559787071
 10
-2.4522132216
 20
21.8567538444
 10
-2.4483015323
 20
21.8575911364
 10
-2.4443269835
 20
21.8584984815
 10
-2.4402775908
 20
21.8594641728
 10
-2.4361527285
 20
21.8604857221
 10
-2.4319530223
 20
21.8615656176
 10
-2.4276683642
 20
21.8626996169
 10
-2.4232985494
 20
21.8638866206
 10
-2.4188437828
 20
21.8651277282
 10
-2.4142945705
 20
21.8664219959
 10
-2.4096508551
 20
21.8677688368
 10
-2.404912694
 20
21.8691688378
 10
-2.3951251044
 20
21.8721304052
  0
LWPOLYLINE
  5
60F
100
AcDbEntity
  8
RACCORDO
100
AcDbPolyline
 62
7
  6
CONTINUOUS
 90
3
 70
0
 10
3.4916080962
 20
20.5615586869
 10
3.4694394202
 20
20.5669200564
 10
3.4465255496
 20
20.5698410605
  0
LWPOLYLINE
  5
610
100
AcDbEntity
  8
RACCORDO
100
AcDbPolyline
 62
250
  6
CONTINUOUS
 90
10
 70
0
 10
0.8910169384
 20
22.7150892329
 10
1.0447555466
 20
22.6747705865
 10
1.2055362111
 20
22.6410165806
 10
1.3698747627
 20
22.614371673
 10
1.5377724522
 20
22.5949523476
 10
1.7092280289
 20
22.5826421205
 10
1.8807535714
 20
22.5776359982
 10
2.052344205
 20
22.5800437803
 10
2.2240048046
 20
22.5897556672
 10
2.3922620728
 20
22.6066372658
  0
LINE
  5
611
100
AcDbEntity
  8
0
100
AcDbLine
 62
7
  6
CONTINUOUS
 10
9.606658369
 20
20.229918993
 11
9.7100852882
 21
20.2019208768
  0
LINE
  5
612
100
AcDbEntity
  8
RACCORDO
100
AcDbLine
 62
7
  6
CONTINUOUS
 10
3.4916080962
 20
20.5615586869
 11
3.5313415444
 21
20.5453420313
  0
LINE
  5
613
100
AcDbEntity
  8
RACCORDO
100
AcDbLine
 62
7
  6
CONTINUOUS
 10
-0.4411543039
 20
22.5315899554
 11
-0.482299494
 21
22.548512482
  0
LWPOLYLINE
  5
614
100
AcDbEntity
  8
RACCORDO
100
AcDbPolyline
 62
250
  6
CONTINUOUS
 90
8
 70
0
 10
3.2915697094
 20
22.8537614144
 10
3.2182712496
 20
22.886270948
 10
3.1457084201
 20
22.9089025587
 10
3.0746762147
 20
22.9214083646
 10
3.0059526935
 20
22.9236514179
 10
2.9402909377
 20
22.9156071758
 10
2.8784107226
 20
22.8973640044
 10
2.852116309
 20
22.8859417043
  0
LWPOLYLINE
  5
615
100
AcDbEntity
  8
RACCORDO
100
AcDbPolyline
 62
250
  6
CONTINUOUS
 90
4
 70
0
 10
0.4755376198
 20
22.8748885566
 10
0.6069886698
 20
22.8150574749
 10
0.745481776
 20
22.7617910337
 10
0.8910169384
 20
22.7150892329
  0
LINE
  5
616
100
AcDbEntity
  8
RACCORDO
100
AcDbLine
 62
7
  6
CONTINUOUS
 10
13.9743267982
 20
15.3241045887
 11
13.7175693309
 21
15.4524833224
  0
LINE
  5
617
100
AcDbEntity
  8
RACCORDO
100
AcDbLine
 62
7
  6
CONTINUOUS
 10
4.9277210847
 20
19.8474074454
 11
3.5307903017
 21
20.5458728369
  0
LINE
  5
618
100
AcDbEntity
  8
RACCORDO
100
AcDbLine
 62
7
  6
CONTINUOUS
 10
-0.4807373929
 20
22.5516366842
 11
-1.8387798552
 21
23.2306579154
  0
LINE
  5
619
100
AcDbEntity
  8
RACCORDO
100
AcDbLine
 62
7
  6
CONTINUOUS
 10
-10.6286281014
 20
27.6255820385
 11
-11.026348188
 21
27.8244420818
  0
LINE
  5
61A
100
AcDbEntity
  8
RACCORDO
100
AcDbLine
 62
250
  6
CONTINUOUS
 10
0.4755376198
 20
22.8748885566
 11
-4.435025948
 21
25.3301703405
  0
LINE
  5
61B
100
AcDbEntity
  8
RACCORDO
100
AcDbLine
 62
7
  6
CONTINUOUS
 10
0.9165806258
 20
22.9002380217
 11
-3.9944091379
 21
25.3557325653
  0
LINE
  5
61C
100
AcDbEntity
  8
DRAFT
100
AcDbLine
 62
7
  6
CONTINUOUS
 10
8.5188177837
 20
19.5192557353
 11
2.4293057863
 21
22.564011734
  0
LINE
  5
61D
100
AcDbEntity
  8
0
100
AcDbLine
 62
7
  6
CONTINUOUS
 10
8.5146345653
 20
20.8790553924
 11
7.8076656252
 21
21.2325398624
  0
LWPOLYLINE
  5
61E
100
AcDbEntity
  8
RACCORDO
100
AcDbPolyline
 62
7
  6
CONTINUOUS
 90
5
 70
0
 10
-3.9944124903
 20
25.3557258426
 10
-4.0122180856
 20
25.364873903
 10
-4.0518114988
 20
25.3871773388
 10
-4.0811422627
 20
25.4060982303
 10
-4.1004269275
 20
25.4203920043
  0
LWPOLYLINE
  5
61F
100
AcDbEntity
  8
RACCORDO
100
AcDbPolyline
 62
250
  6
CONTINUOUS
 90
16
 70
0
 10
-4.4473132853
 20
26.7232029118
 10
-4.3727925318
 20
26.6818028387
 10
-4.2991560144
 20
26.6313347764
 10
-4.2272104893
 20
26.5723517183
 10
-4.1577440201
 20
26.5054997787
 10
-4.0915178285
 20
26.4315115667
 10
-4.0292578735
 20
26.3511983149
 10
-3.9716462161
 20
26.2654402005
 10
-3.9193137934
 20
26.1751767779
 10
-3.8728338865
 20
26.0813972811
 10
-3.8327155576
 20
25.9851294205
 10
-3.7993979307
 20
25.8874276226
 10
-3.7732456226
 20
25.789361718
 10
-3.7545449326
 20
25.6920057911
 10
-3.7435005966
 20
25.5964264272
 10
-3.7402334285
 20
25.5036705553
  0
LINE
  5
620
100
AcDbEntity
  8
0
100
AcDbLine
 62
7
  6
CONTINUOUS
 10
8.5146345653
 20
20.8790553924
 11
8.7581302316
 21
20.6541830617
  0
LINE
  5
621
100
AcDbEntity
  8
0
100
AcDbLine
 62
7
  6
CONTINUOUS
 10
10.5513777772
 20
20.3556585332
 11
10.3078821109
 21
20.5805308639
  0
LWPOLYLINE
  5
622
100
AcDbEntity
  8
RACCORDO
100
AcDbPolyline
 62
7
  6
CONTINUOUS
 90
12
 70
0
 10
14.7706441643
 20
14.6382968604
 10
14.710722626
 20
14.7231747871
 10
14.6488779268
 20
14.803078291
 10
14.5854449572
 20
14.8777517181
 10
14.5207664889
 20
14.9468538288
 10
14.4552498882
 20
15.0104740979
 10
14.3891928291
 20
15.0689539793
 10
14.322745352
 20
15.1221949494
 10
14.2562241612
 20
15.1700185459
 10
14.1899416298
 20
15.2123994962
 10
14.1238004407
 20
15.2492722399
 10
14.1118638539
 20
15.2553360103
  0
LWPOLYLINE
  5
623
100
AcDbEntity
  8
RACCORDO
100
AcDbPolyline
 62
7
  6
CONTINUOUS
 90
7
 70
0
 10
14.7706441643
 20
14.6382968604
 10
14.8719650247
 20
14.4852834961
 10
14.9727406798
 20
14.3317633391
 10
15.0729711296
 20
14.1777363893
 10
15.1726563742
 20
14.0232026467
 10
15.2717964136
 20
13.8681621114
 10
15.3703912477
 20
13.7126147833
  0
LWPOLYLINE
  5
624
100
AcDbEntity
  8
RACCORDO
100
AcDbPolyline
 62
7
  6
CONTINUOUS
 90
10
 70
0
 10
16.9030043183
 20
11.2500036821
 10
16.8220880478
 20
11.3848520823
 10
16.7362744538
 20
11.509519837
 10
16.6464469968
 20
11.6234169462
 10
16.5533912556
 20
11.7260473517
 10
16.458255905
 20
11.8174716736
 10
16.3622499228
 20
11.8979594669
 10
16.2662103661
 20
11.967324662
 10
16.1707211653
 20
12.0256615162
 10
16.1208078761
 20
12.0520290574
  0
LINE
  5
625
100
AcDbEntity
  8
RACCORDO
100
AcDbLine
 62
7
  6
CONTINUOUS
 10
17.01089614
 20
11.0519241537
 11
16.9030043183
 21
11.2500036821
  0
LINE
  5
626
100
AcDbEntity
  8
RACCORDO
100
AcDbLine
 62
7
  6
CONTINUOUS
 10
17.0645040355
 20
10.9526664714
 11
17.01089614
 21
11.0519241537
  0
LWPOLYLINE
  5
627
100
AcDbEntity
  8
RACCORDO
100
AcDbPolyline
 62
7
  6
CONTINUOUS
 90
10
 70
0
 10
17.0645040355
 20
10.9526664714
 10
17.0719432452
 20
10.9379459741
 10
17.0785555605
 20
10.9230998208
 10
17.0843409812
 20
10.9081280116
 10
17.0893268306
 20
10.8929297261
 10
17.0934857855
 20
10.8776057847
 10
17.0967358768
 20
10.8624586479
 10
17.0990497814
 20
10.8475891359
 10
17.1004548224
 20
10.8328964286
 10
17.1009509997
 20
10.8183805258
  0
LWPOLYLINE
  5
628
100
AcDbEntity
  8
RACCORDO
100
AcDbPolyline
 62
7
  6
CONTINUOUS
 90
3
 70
0
 10
-2.579479038
 20
-25.4449262884
 10
-2.4675382041
 20
-25.4007697207
 10
-2.4625275636
 20
-25.3987115119
  0
LINE
  5
629
100
AcDbEntity
  8
RACCORDO
100
AcDbLine
 62
7
  6
CONTINUOUS
 10
-2.6921742361
 20
-25.4875661378
 11
-2.579479038
 21
-25.4449262884
  0
LINE
  5
62A
100
AcDbEntity
  8
RACCORDO
100
AcDbLine
 62
7
  6
CONTINUOUS
 10
-2.8056168512
 20
-25.5286849156
 11
-2.6921742361
 21
-25.4875661378
  0
LINE
  5
62B
100
AcDbEntity
  8
RACCORDO
100
AcDbLine
 62
7
  6
CONTINUOUS
 10
-2.8580185569
 20
-25.5471578918
 11
-2.8056168512
 21
-25.5286849156
  0
LWPOLYLINE
  5
62C
100
AcDbEntity
  8
RACCORDO
100
AcDbPolyline
 62
7
  6
CONTINUOUS
 90
3
 70
0
 10
-2.9350313697
 20
-25.5737157408
 10
-2.9300949724
 20
-25.5720324326
 10
-2.8580185569
 20
-25.5471578918
  0
LINE
  5
62D
100
AcDbEntity
  8
RACCORDO
100
AcDbLine
 62
250
  6
CONTINUOUS
 10
-2.835000434
 20
-25.5388807845
 11
-2.8196653575
 21
-25.5336902492
  0
LINE
  5
62E
100
AcDbEntity
  8
RACCORDO
100
AcDbLine
 62
7
  6
CONTINUOUS
 10
-7.2904352328
 20
22.5114886827
 11
-9.2406809175
 21
22.3124538857
  0
LINE
  5
62F
100
AcDbEntity
  8
RACCORDO
100
AcDbLine
 62
7
  6
CONTINUOUS
 10
-5.2922703039
 20
23.0347024916
 11
-5.316238282
 21
23.0322564092
  0
LINE
  5
630
100
AcDbEntity
  8
RACCORDO
100
AcDbLine
 62
7
  6
CONTINUOUS
 10
-11.1036443647
 20
23.1629592203
 11
-9.7112908156
 21
23.3050576278
  0
LINE
  5
631
100
AcDbEntity
  8
RACCORDO
100
AcDbLine
 62
7
  6
CONTINUOUS
 10
-11.5741332955
 20
23.4791800746
 11
-9.6238876108
 21
23.6782148717
  0
LWPOLYLINE
  5
632
100
AcDbEntity
  8
RACCORDO
100
AcDbPolyline
 62
7
  6
CONTINUOUS
 90
25
 70
0
 10
-9.2406809175
 20
22.3124538857
 10
-9.2498530222
 20
22.3117065795
 10
-9.2595053429
 20
22.3112668366
 10
-9.2696378795
 20
22.3111346568
 10
-9.2802979983
 20
22.3113121025
 10
-9.2914383331
 20
22.3117971113
 10
-9.3029167851
 20
22.312583497
 10
-9.3147376853
 20
22.3136751199
 10
-9.3268967026
 20
22.3150681196
 10
-9.3392387445
 20
22.3167447279
 10
-9.3517661556
 20
22.3187085777
 10
-9.3644765912
 20
22.3209560361
 10
-9.3772079254
 20
22.3234584359
 10
-9.3899604259
 20
22.3262190429
 10
-9.4027338249
 20
22.3292345913
 10
-9.4153651933
 20
22.3324666168
 10
-9.4278527118
 20
22.3359178925
 10
-9.4401981997
 20
22.3395856452
 10
-9.4522441859
 20
22.3434230915
 10
-9.463986834
 20
22.3474324052
 10
-9.4754299806
 20
22.3516114125
 10
-9.4864276642
 20
22.3559068087
 10
-9.4969312311
 20
22.3603008255
 10
-9.5069893351
 20
22.3648112313
 10
-9.5166019762
 20
22.369438026
  0
LWPOLYLINE
  5
633
100
AcDbEntity
  8
RACCORDO
100
AcDbPolyline
 62
7
  6
CONTINUOUS
 90
25
 70
0
 10
-9.6238876108
 20
23.6782148717
 10
-9.6147155061
 20
23.6789621779
 10
-9.6050631854
 20
23.6794019208
 10
-9.5949306488
 20
23.6795341005
 10
-9.58427053
 20
23.6793566549
 10
-9.5731301952
 20
23.678871646
 10
-9.5616517432
 20
23.6780852604
 10
-9.549830843
 20
23.6769936375
 10
-9.5376718257
 20
23.6756006377
 10
-9.5253297838
 20
23.6739240295
 10
-9.5128023727
 20
23.6719601797
 10
-9.5000919371
 20
23.6697127213
 10
-9.4873606029
 20
23.6672103215
 10
-9.4746081024
 20
23.6644497145
 10
-9.4618347034
 20
23.661434166
 10
-9.449203335
 20
23.6582021405
 10
-9.4367158165
 20
23.6547508649
 10
-9.4243703286
 20
23.6510831122
 10
-9.4123243424
 20
23.6472456659
 10
-9.4005816943
 20
23.6432363522
 10
-9.3891385477
 20
23.6390573449
 10
-9.3781408641
 20
23.6347619487
 10
-9.3676372972
 20
23.6303679318
 10
-9.3575791932
 20
23.625857526
 10
-9.3479665521
 20
23.6212307313
  0
LWPOLYLINE
  5
634
100
AcDbEntity
  8
RACCORDO
100
AcDbPolyline
 62
7
  6
CONTINUOUS
 90
25
 70
0
 10
-13.2711895703
 20
24.327708212
 10
-13.280361675
 20
24.3269609059
 10
-13.2900139957
 20
24.3265211629
 10
-13.3001465323
 20
24.3263889832
 10
-13.3108066511
 20
24.3265664289
 10
-13.3219469859
 20
24.3270514377
 10
-13.3334254378
 20
24.3278378233
 10
-13.345246338
 20
24.3289294463
 10
-13.3574053554
 20
24.330322446
 10
-13.3697473973
 20
24.3319990543
 10
-13.3822748083
 20
24.3339629041
 10
-13.394985244
 20
24.3362103624
 10
-13.4077165782
 20
24.3387127622
 10
-13.4204690786
 20
24.3414733693
 10
-13.4332424777
 20
24.3444889177
 10
-13.4458738461
 20
24.3477209432
 10
-13.4583613646
 20
24.3511722189
 10
-13.4707068524
 20
24.3548399716
 10
-13.4827528387
 20
24.3586774179
 10
-13.4944954868
 20
24.3626867316
 10
-13.5059386333
 20
24.3668657388
 10
-13.5169363169
 20
24.371161135
 10
-13.5274398839
 20
24.3755551519
 10
-13.5374979879
 20
24.3800655577
 10
-13.5471106289
 20
24.3846923524
  0
LINE
  5
635
100
AcDbEntity
  8
0
100
AcDbLine
 62
7
  6
CONTINUOUS
 10
-4.831875112
 20
23.3444612409
 11
-3.9304022886
 21
23.3889260615
  0
LWPOLYLINE
  5
636
100
AcDbEntity
  8
0
100
AcDbPolyline
 62
7
  6
CONTINUOUS
 90
7
 70
0
 10
-9.1984039246
 20
25.8201763848
 10
-9.2123524673
 20
25.8214238648
 10
-9.226467293
 20
25.8221703821
 10
-9.2407484017
 20
25.8224159368
 10
-9.2551957935
 20
25.8221605289
 10
-9.2698094683
 20
25.8214041583
 10
-9.2845894261
 20
25.8201468251
  0
LWPOLYLINE
  5
637
100
AcDbEntity
  8
RACCORDO
100
AcDbPolyline
 62
7
  6
CONTINUOUS
 90
6
 70
0
 10
-11.0226486581
 20
27.8225922564
 10
-11.0229579591
 20
27.822650722
 10
-11.0276944784
 20
27.8212087144
 10
-11.0378964853
 20
27.8170622212
 10
-11.0537751839
 20
27.8104377635
 10
-11.0747815534
 20
27.8009263982
  0
LWPOLYLINE
  5
638
100
AcDbEntity
  8
RACCORDO
100
AcDbPolyline
 62
7
  6
CONTINUOUS
 90
9
 70
0
 10
10.8524167722
 20
21.6716421624
 10
10.8463000317
 20
21.6732416601
 10
10.8365298179
 20
21.674774474
 10
10.8262036225
 20
21.6751899183
 10
10.8154164253
 20
21.6744881458
 10
10.8044531664
 20
21.6726696145
 10
10.7934088257
 20
21.669734477
 10
10.7821884232
 20
21.6656825806
 10
10.7707919589
 20
21.6605139254
  0
LINE
  5
639
100
AcDbEntity
  8
0
100
AcDbLine
 62
7
  6
CONTINUOUS
 10
9.4593539735
 20
21.0047949326
 11
9.0096093121
 21
21.1265427658
  0
LWPOLYLINE
  5
63A
100
AcDbEntity
  8
RACCORDO
100
AcDbPolyline
 62
7
  6
CONTINUOUS
 90
24
 70
0
 10
10.852406636
 20
21.6716182099
 10
10.7436912894
 20
21.7029040557
 10
10.6288362465
 20
21.7322577327
 10
10.5115748225
 20
21.7585848029
 10
10.3922016577
 20
21.7818468947
 10
10.270981286
 20
21.8020174475
 10
10.1481519166
 20
21.8190767228
 10
10.0240031192
 20
21.8330005643
 10
9.8988196561
 20
21.8437712333
 10
9.7728391386
 20
21.851378633
 10
9.6463527525
 20
21.8558120117
 10
9.5196500295
 20
21.8570665664
 10
9.3929682841
 20
21.8551417933
 10
9.2665970143
 20
21.8500404583
 10
9.1408274237
 20
21.8417712462
 10
9.0158978243
 20
21.8303433707
 10
8.8920989497
 20
21.8157735385
 10
8.7697141974
 20
21.7980835169
 10
8.6489657612
 20
21.7772893415
 10
8.5301308401
 20
21.7534177415
 10
8.4134950167
 20
21.7265026897
 10
8.2992834436
 20
21.6965679224
 10
8.1877682654
 20
21.6636508185
 10
8.079222069
 20
21.6277941837
  0
LWPOLYLINE
  5
63B
100
AcDbEntity
  8
RACCORDO
100
AcDbPolyline
 62
7
  6
CONTINUOUS
 90
3
 70
0
 10
10.864457454
 20
21.6668243818
 10
10.8556092437
 20
21.6705916293
 10
10.8524167722
 20
21.6716421624
  0
LINE
  5
63C
100
AcDbEntity
  8
0
100
AcDbLine
 62
7
  6
CONTINUOUS
 10
10.6142915222
 20
20.3242016608
 11
10.5513777772
 21
20.3556585332
  0
LINE
  5
63D
100
AcDbEntity
  8
0
100
AcDbLine
 62
7
  6
CONTINUOUS
 10
9.0096093121
 20
21.1265427658
 11
8.302640372
 21
21.4800272359
  0
LINE
  5
63E
100
AcDbEntity
  8
DRAFT
100
AcDbLine
 62
7
  6
CONTINUOUS
 10
8.0550015363
 20
21.6442852603
 11
7.587033394
 21
21.8782693314
  0
LINE
  5
63F
100
AcDbEntity
  8
DRAFT
100
AcDbLine
 62
7
  6
CONTINUOUS
 10
8.0550015363
 20
22.1033718748
 11
8.0429798627
 21
22.1093827116
  0
LINE
  5
640
100
AcDbEntity
  8
DRAFT
100
AcDbLine
 62
7
  6
CONTINUOUS
 10
3.7014194735
 20
24.7485016451
 11
5.184213919
 21
24.0071044224
  0
LINE
  5
641
100
AcDbEntity
  8
RACCORDO
100
AcDbLine
 62
250
  6
CONTINUOUS
 10
2.1629340211
 20
25.8756227066
 11
2.7233686602
 21
25.595405387
  0
LINE
  5
642
100
AcDbEntity
  8
RACCORDO
100
AcDbLine
 62
7
  6
CONTINUOUS
 10
2.3637499574
 20
26.0210857065
 11
3.2491097035
 21
25.5784058335
  0
LINE
  5
643
100
AcDbEntity
  8
RACCORDO
100
AcDbLine
 62
7
  6
CONTINUOUS
 10
11.1181369799
 20
21.5393672175
 11
10.864457454
 21
21.6668243818
  0
LINE
  5
644
100
AcDbEntity
  8
RACCORDO
100
AcDbLine
 62
7
  6
CONTINUOUS
 10
11.7129855914
 20
21.242560313
 11
11.966249354
 21
21.1153133212
  0
LINE
  5
645
100
AcDbEntity
  8
RACCORDO
100
AcDbLine
 62
7
  6
CONTINUOUS
 10
11.4819512686
 20
21.3542592753
 11
11.1181369799
 21
21.5393672175
  0
LINE
  5
646
100
AcDbEntity
  8
RACCORDO
100
AcDbLine
 62
7
  6
CONTINUOUS
 10
11.966249354
 20
21.1153133212
 11
12.2406313622
 21
20.9758981284
  0
LINE
  5
647
100
AcDbEntity
  8
RACCORDO
100
AcDbLine
 62
7
  6
CONTINUOUS
 10
11.6750415241
 20
21.255227968
 11
11.4819512686
 21
21.3542592753
  0
LWPOLYLINE
  5
648
100
AcDbEntity
  8
RACCORDO
100
AcDbPolyline
 62
250
  6
CONTINUOUS
 90
13
 70
0
 10
2.1629340211
 20
25.8756227066
 10
2.1164138049
 20
25.9022147989
 10
2.0707422632
 20
25.9357862848
 10
2.0267007711
 20
25.9757628075
 10
1.9850428195
 20
26.0214604258
 10
1.9464811154
 20
26.0720973234
 10
1.9116753914
 20
26.1268071878
 10
1.8812211289
 20
26.1846540149
 10
1.8556393641
 20
26.2446481273
 10
1.8353677692
 20
26.3057631179
 10
1.8207531717
 20
26.3669533954
 10
1.8120456181
 20
26.4271720725
 10
1.8093940927
 20
26.4853888849
  0
LWPOLYLINE
  5
649
100
AcDbEntity
  8
RACCORDO
100
AcDbPolyline
 62
7
  6
CONTINUOUS
 90
10
 70
0
 10
2.3649316259
 20
26.0204961768
 10
2.3170929403
 20
26.0479425348
 10
2.2650285857
 20
26.0871275151
 10
2.2184235275
 20
26.1331972031
 10
2.1783958015
 20
26.1851288915
 10
2.1455672347
 20
26.2422024652
 10
2.1213557361
 20
26.3012633304
 10
2.105496955
 20
26.3608251687
 10
2.0974588246
 20
26.419828026
 10
2.0961425365
 20
26.4554767823
  0
LINE
  5
64A
100
AcDbEntity
  8
RACCORDO
100
AcDbLine
 62
7
  6
CONTINUOUS
 10
11.6827999528
 20
21.2506414959
 11
11.6750415241
 21
21.255227968
  0
LWPOLYLINE
  5
64B
100
AcDbEntity
  8
RACCORDO
100
AcDbPolyline
 62
250
  6
CONTINUOUS
 90
15
 70
0
 10
11.7129855914
 20
21.242560313
 10
11.7375085817
 20
21.2220559347
 10
11.7618743434
 20
21.2007776702
 10
11.7860110936
 20
21.178715393
 10
11.8097759785
 20
21.1559270726
 10
11.8331657943
 20
21.1323386093
 10
11.8562891002
 20
21.1077370221
 10
11.8790366737
 20
21.0821102579
 10
11.9012946714
 20
21.0554478691
 10
11.9231043555
 20
21.0275295408
 10
11.9443122743
 20
20.9983425802
 10
11.9647573836
 20
20.9678777741
 10
11.9843985596
 20
20.9359127094
 10
12.0030261953
 20
20.9024394442
 10
12.0190693109
 20
20.8701733008
  0
LWPOLYLINE
  5
64C
100
AcDbEntity
  8
RACCORDO
100
AcDbPolyline
 62
250
  6
CONTINUOUS
 90
17
 70
0
 10
11.6193489923
 20
21.2362643046
 10
11.6422094217
 20
21.2166855711
 10
11.66478696
 20
21.1963325246
 10
11.6870816071
 20
21.175205165
 10
11.7091271055
 20
21.1533752781
 10
11.7308897127
 20
21.130771078
 10
11.752268202
 20
21.1071772076
 10
11.7733079051
 20
21.0825954584
 10
11.7939634902
 20
21.0570240389
 10
11.813997736
 20
21.0302422168
 10
11.8334681095
 20
21.0022480624
 10
11.8523171437
 20
20.9730435056
 10
11.8701352161
 20
20.9424136032
 10
11.8869913137
 20
20.9103513266
 10
11.9028164495
 20
20.8768637046
 10
11.9169940399
 20
20.8417568805
 10
11.9229789299
 20
20.8243209588
  0
LWPOLYLINE
  5
64D
100
AcDbEntity
  8
RACCORDO
100
AcDbPolyline
 62
250
  6
CONTINUOUS
 90
16
 70
0
 10
27.7429683587
 20
15.3068868921
 10
27.7396619932
 20
15.3996293423
 10
27.7285121353
 20
15.4951605577
 10
27.7096409215
 20
15.5924340811
 10
27.6832550689
 20
15.6903843698
 10
27.6496436101
 20
15.7879384679
 10
27.6091747282
 20
15.8840277593
 10
27.5622917228
 20
15.9775996736
 10
27.5095081543
 20
16.067629216
 10
27.4514022186
 20
16.1531301949
 10
27.3886104131
 20
16.2331660254
 10
27.3218205647
 20
16.3068599878
 10
27.2517642952
 20
16.3734048323
 10
27.179209007
 20
16.4320716208
 10
27.1049494771
 20
16.4822177121
 10
27.0297991508
 20
16.5232938017
  0
LINE
  5
64E
100
AcDbEntity
  8
RACCORDO
100
AcDbLine
 62
250
  6
CONTINUOUS
 10
27.7429683587
 20
15.3068868921
 11
27.7429683587
 21
-16.3315167239
  0
LINE
  5
64F
100
AcDbEntity
  8
RACCORDO
100
AcDbLine
 62
7
  6
CONTINUOUS
 10
28.0236284789
 20
15.6544154511
 11
28.0236285584
 21
-15.9841875387
  0
LWPOLYLINE
  5
650
100
AcDbEntity
  8
RACCORDO
100
AcDbPolyline
 62
250
  6
CONTINUOUS
 90
9
 70
0
 10
28.0236285582
 20
15.6542066451
 10
28.0225905125
 20
15.6314399152
 10
28.0124974424
 20
15.5798213024
 10
27.9917202725
 20
15.5289179996
 10
27.9604897897
 20
15.479365403
 10
27.9193512234
 20
15.4319094718
 10
27.8689608774
 20
15.3870956595
 10
27.8099215578
 20
15.345289177
 10
27.7429683587
 20
15.3068868921
  0
LWPOLYLINE
  5
651
100
AcDbEntity
  8
RACCORDO
100
AcDbPolyline
 62
7
  6
CONTINUOUS
 90
9
 70
0
 10
10.8121064589
 20
-26.1483965982
 10
10.8194505927
 20
-26.1411024712
 10
10.8259777114
 20
-26.1328715191
 10
10.8316878152
 20
-26.123703742
 10
10.8366074892
 20
-26.1135269782
 10
10.8407101482
 20
-26.1024133894
 10
10.8439160366
 20
-26.0905794607
 10
10.846198569
 20
-26.0780973536
 10
10.8475843309
 20
-26.0648949065
  0
LINE
  5
652
100
AcDbEntity
  8
0
100
AcDbLine
 62
7
  6
CONTINUOUS
 10
9.2652846949
 20
-27.3696769954
 11
9.558027477
 21
-27.1068104493
  0
LINE
  5
653
100
AcDbEntity
  8
RACCORDO
100
AcDbLine
 62
7
  6
CONTINUOUS
 10
10.7163334517
 20
-26.2308809779
 11
10.8121064589
 21
-26.1483965982
  0
LWPOLYLINE
  5
654
100
AcDbEntity
  8
RACCORDO
100
AcDbPolyline
 62
7
  6
CONTINUOUS
 90
10
 70
0
 10
10.7573753703
 20
-26.146021182
 10
10.6874723529
 20
-26.2059264302
 10
10.617183638
 20
-26.2652007893
 10
10.5465092254
 20
-26.3238442593
 10
10.4754474701
 20
-26.3818581593
 10
10.4040000172
 20
-26.4392411701
 10
10.3321718023
 20
-26.4959893342
 10
10.2599644705
 20
-26.5521013324
 10
10.1873763767
 20
-26.607578484
 10
10.1144075209
 20
-26.6624207888
  0
LINE
  5
655
100
AcDbEntity
  8
RACCORDO
100
AcDbLine
 62
7
  6
CONTINUOUS
 10
10.6198355178
 20
-26.3121780508
 11
10.7163334517
 21
-26.2308809779
  0
LWPOLYLINE
  5
656
100
AcDbEntity
  8
RACCORDO
100
AcDbPolyline
 62
7
  6
CONTINUOUS
 90
5
 70
0
 10
10.2265945148
 20
-26.6254932743
 10
10.3259815003
 20
-26.54895382
 10
10.4246595421
 20
-26.4712144718
 10
10.5226126571
 20
-26.3922878168
 10
10.6198355178
 20
-26.3121780508
  0
LINE
  5
657
100
AcDbEntity
  8
RACCORDO
100
AcDbLine
 62
7
  6
CONTINUOUS
 10
10.1265039133
 20
-26.7008286391
 11
10.2265945148
 21
-26.6254932743
  0
LINE
  5
658
100
AcDbEntity
  8
RACCORDO
100
AcDbLine
 62
7
  6
CONTINUOUS
 10
10.0257043681
 20
-26.7749641099
 11
10.1265039133
 21
-26.7008286391
  0
LINE
  5
659
100
AcDbEntity
  8
RACCORDO
100
AcDbLine
 62
7
  6
CONTINUOUS
 10
9.9241958791
 20
-26.8478996869
 11
10.0257043681
 21
-26.7749641099
  0
LINE
  5
65A
100
AcDbEntity
  8
RACCORDO
100
AcDbLine
 62
7
  6
CONTINUOUS
 10
9.9149907462
 20
-26.8534670548
 11
9.9241958791
 21
-26.8478996869
  0
LINE
  5
65B
100
AcDbEntity
  8
RACCORDO
100
AcDbLine
 62
7
  6
CONTINUOUS
 10
10.1144075209
 20
-26.6624207888
 11
10.1011465879
 21
-26.6703613178
  0
LINE
  5
65C
100
AcDbEntity
  8
RACCORDO
100
AcDbLine
 62
250
  6
CONTINUOUS
 10
9.2652846949
 20
-26.9483511574
 11
10.7573753703
 21
-26.146021182
  0
LINE
  5
65D
100
AcDbEntity
  8
RACCORDO
100
AcDbLine
 62
250
  6
CONTINUOUS
 10
9.2652846949
 20
-26.7522414324
 11
10.848073322
 21
-25.9014134927
  0
LINE
  5
65E
100
AcDbEntity
  8
RACCORDO
100
AcDbLine
 62
250
  6
CONTINUOUS
 10
10.1144075209
 20
-26.6624207888
 11
9.2652846949
 21
-27.1144550277
  0
LINE
  5
65F
100
AcDbEntity
  8
RACCORDO
100
AcDbLine
 62
7
  6
CONTINUOUS
 10
9.2652846949
 20
-27.1157535294
 11
10.1013266336
 21
-26.6707168709
  0
LINE
  5
660
100
AcDbEntity
  8
RACCORDO
100
AcDbLine
 62
250
  6
CONTINUOUS
 10
17.1009509997
 20
-21.9573470561
 11
27.7429683587
 21
-16.3315167239
  0
LINE
  5
661
100
AcDbEntity
  8
RACCORDO
100
AcDbLine
 62
7
  6
CONTINUOUS
 10
17.1009509997
 20
-22.3608775538
 11
27.4909854923
 21
-16.8682562556
  0
LINE
  5
662
100
AcDbEntity
  8
RACCORDO
100
AcDbLine
 62
7
  6
CONTINUOUS
 10
5.8119276903
 20
-27.9728551389
 11
5.6289263155
 21
-28.0689088441
  0
LINE
  5
663
100
AcDbEntity
  8
RACCORDO
100
AcDbLine
 62
250
  6
CONTINUOUS
 10
10.848073322
 20
-26.0509721195
 11
17.1009509997
 21
-22.8631419328
  0
LINE
  5
664
100
AcDbEntity
  8
RACCORDO
100
AcDbLine
 62
250
  6
CONTINUOUS
 10
10.8121064589
 20
-26.1483965982
 11
17.0645040355
 21
-22.9609809142
  0
LWPOLYLINE
  5
665
100
AcDbEntity
  8
RACCORDO
100
AcDbPolyline
 62
250
  6
CONTINUOUS
 90
10
 70
0
 10
2.9889800464
 20
-27.5650555324
 10
2.9555398905
 20
-27.5800801197
 10
2.9179355632
 20
-27.5919866007
 10
2.8772841365
 20
-27.6004212822
 10
2.834793199
 20
-27.6051336033
 10
2.7917249838
 20
-27.6059835806
 10
2.7493588723
 20
-27.6029459655
 10
2.7089533895
 20
-27.5961109935
 10
2.6717088187
 20
-27.5856817034
 10
2.6387315452
 20
-27.5719679069
  0
LINE
  5
666
100
AcDbEntity
  8
RACCORDO
100
AcDbLine
 62
7
  6
CONTINUOUS
 10
-11.3209438856
 20
24.5267430091
 11
-13.2711895703
 21
24.327708212
  0
LINE
  5
667
100
AcDbEntity
  8
RACCORDO
100
AcDbLine
 62
7
  6
CONTINUOUS
 10
-15.1341530174
 20
25.1782135467
 11
-13.7417994684
 21
25.3203119542
  0
LINE
  5
668
100
AcDbEntity
  8
RACCORDO
100
AcDbLine
 62
7
  6
CONTINUOUS
 10
-9.2845894261
 20
25.8201468251
 11
-10.6195391409
 21
25.6839068387
  0
LINE
  5
669
100
AcDbEntity
  8
RACCORDO
100
AcDbLine
 62
7
  6
CONTINUOUS
 10
-15.6046419482
 20
25.494434401
 11
-13.6543962635
 21
25.6934691981
  0
LINE
  5
66A
100
AcDbEntity
  8
0
100
AcDbLine
 62
7
  6
CONTINUOUS
 10
-16.9903848624
 20
25.9915877553
 11
-12.3450291009
 21
26.4656754298
  0
LWPOLYLINE
  5
66B
100
AcDbEntity
  8
RACCORDO
100
AcDbPolyline
 62
7
  6
CONTINUOUS
 90
25
 70
0
 10
-10.6195391409
 20
25.6839068387
 10
-10.6287112455
 20
25.6831595325
 10
-10.6383635662
 20
25.6827197896
 10
-10.6484961028
 20
25.6825876099
 10
-10.6591562217
 20
25.6827650555
 10
-10.6702965565
 20
25.6832500644
 10
-10.6817750084
 20
25.68403645
 10
-10.6935959086
 20
25.6851280729
 10
-10.7057549259
 20
25.6865210726
 10
-10.7180969678
 20
25.6881976809
 10
-10.7306243789
 20
25.6901615307
 10
-10.7433348145
 20
25.6924089891
 10
-10.7560661487
 20
25.6949113889
 10
-10.7688186492
 20
25.6976719959
 10
-10.7815920482
 20
25.7006875444
 10
-10.7942234167
 20
25.7039195699
 10
-10.8067109351
 20
25.7073708455
 10
-10.819056423
 20
25.7110385982
 10
-10.8311024092
 20
25.7148760445
 10
-10.8428450574
 20
25.7188853582
 10
-10.8542882039
 20
25.7230643655
 10
-10.8652858875
 20
25.7273597617
 10
-10.8757894544
 20
25.7317537786
 10
-10.8858475584
 20
25.7362641844
 10
-10.8954601995
 20
25.7408909791
  0
LWPOLYLINE
  5
66C
100
AcDbEntity
  8
RACCORDO
100
AcDbPolyline
 62
7
  6
CONTINUOUS
 90
25
 70
0
 10
-13.6543962635
 20
25.6934691981
 10
-13.6452241588
 20
25.6942165042
 10
-13.6355718382
 20
25.6946562472
 10
-13.6254393016
 20
25.6947884269
 10
-13.6147791827
 20
25.6946109813
 10
-13.6036388479
 20
25.6941259724
 10
-13.592160396
 20
25.6933395868
 10
-13.5803394958
 20
25.6922479638
 10
-13.5681804785
 20
25.6908549641
 10
-13.5558384365
 20
25.6891783559
 10
-13.5433110255
 20
25.6872145061
 10
-13.5306005899
 20
25.6849670477
 10
-13.5178692557
 20
25.6824646479
 10
-13.5051167552
 20
25.6797040409
 10
-13.4923433562
 20
25.6766884924
 10
-13.4797119877
 20
25.6734564669
 10
-13.4672244693
 20
25.6700051913
 10
-13.4548789814
 20
25.6663374386
 10
-13.4428329951
 20
25.6624999922
 10
-13.431090347
 20
25.6584906786
 10
-13.4196472005
 20
25.6543116713
 10
-13.4086495169
 20
25.6500162751
 10
-13.39814595
 20
25.6456222582
 10
-13.388087846
 20
25.6411118524
 10
-13.3784752049
 20
25.6364850577
  0
LINE
  5
66D
100
AcDbEntity
  8
0
100
AcDbLine
 62
7
  6
CONTINUOUS
 10
-10.4602599192
 20
26.1586536445
 11
-9.574742367
 21
26.2110961007
  0
LINE
  5
66E
100
AcDbEntity
  8
0
100
AcDbLine
 62
7
  6
CONTINUOUS
 10
-12.0327840908
 20
26.9449157303
 11
-10.8178140759
 21
27.0147428232
  0
LWPOLYLINE
  5
66F
100
AcDbEntity
  8
RACCORDO
100
AcDbPolyline
 62
7
  6
CONTINUOUS
 90
5
 70
0
 10
9.08194351
 20
25.6884664779
 10
9.1813532444
 20
25.6682628454
 10
9.2781079593
 20
25.6381275626
 10
9.3704353429
 20
25.5987836853
 10
9.3800056945
 20
25.5940614932
  0
LWPOLYLINE
  5
670
100
AcDbEntity
  8
RACCORDO
100
AcDbPolyline
 62
250
  6
CONTINUOUS
 90
8
 70
0
 10
8.9389117033
 20
25.5687375255
 10
8.8656164247
 20
25.6012458565
 10
8.793056507
 20
25.623877179
 10
8.7220268548
 20
25.6363835633
 10
8.6533056084
 20
25.6386280002
 10
8.5876456193
 20
25.6305859016
 10
8.5257662024
 20
25.6123453699
 10
8.4994586219
 20
25.6009179687
  0
LWPOLYLINE
  5
671
100
AcDbEntity
  8
RACCORDO
100
AcDbPolyline
 62
250
  6
CONTINUOUS
 90
8
 70
0
 10
27.4705163009
 20
16.548805997
 10
27.4406741843
 20
16.5621024716
 10
27.3788145918
 20
16.5806510817
 10
27.3130745462
 20
16.5890855957
 10
27.244488514
 20
16.5873436423
 10
27.1739445691
 20
16.5756055199
 10
27.1021222922
 20
16.5541359952
 10
27.0297991508
 20
16.5232938017
  0
LINE
  5
672
100
AcDbEntity
  8
RACCORDO
100
AcDbLine
 62
250
  6
CONTINUOUS
 10
-1.4861569746
 20
31.0271428325
 11
-1.5163237388
 21
31.0406014331
  0
LWPOLYLINE
  5
673
100
AcDbEntity
  8
RACCORDO
100
AcDbPolyline
 62
250
  6
CONTINUOUS
 90
7
 70
0
 10
9.3799547064
 20
25.5940869921
 10
9.3660505771
 20
25.6006860413
 10
9.2898511366
 20
25.62568297
 10
9.207609052
 20
25.6350106986
 10
9.1207159382
 20
25.6285113932
 10
9.0306421102
 20
25.606295028
 10
8.9389117033
 20
25.5687375255
  0
LINE
  5
674
100
AcDbEntity
  8
RACCORDO
100
AcDbLine
 62
250
  6
CONTINUOUS
 10
27.4708409485
 20
16.548643871
 11
27.4705163009
 21
16.548805997
  0
LINE
  5
675
100
AcDbEntity
  8
DRAFT
100
AcDbLine
 62
7
  6
CONTINUOUS
 10
11.6904918414
 20
23.9582594552
 11
15.011148021
 21
22.2979313654
  0
LINE
  5
676
100
AcDbEntity
  8
RACCORDO
100
AcDbLine
 62
250
  6
CONTINUOUS
 10
-1.9271987723
 20
31.0017927633
 11
1.102314236
 21
29.4870362591
  0
LINE
  5
677
100
AcDbEntity
  8
RACCORDO
100
AcDbLine
 62
250
  6
CONTINUOUS
 10
8.9389117033
 20
25.5687375255
 11
10.7705223545
 21
24.6529321999
  0
LINE
  5
678
100
AcDbEntity
  8
RACCORDO
100
AcDbLine
 62
250
  6
CONTINUOUS
 10
15.2513168396
 20
22.4125349573
 11
27.0297991508
 21
16.5232938017
  0
LINE
  5
679
100
AcDbEntity
  8
RACCORDO
100
AcDbLine
 62
7
  6
CONTINUOUS
 10
-1.4861557692
 20
31.0271422298
 11
1.543357239
 21
29.5123857257
  0
LINE
  5
67A
100
AcDbEntity
  8
RACCORDO
100
AcDbLine
 62
7
  6
CONTINUOUS
 10
9.3799547064
 20
25.5940869921
 11
11.2965138561
 21
24.6358074172
  0
LINE
  5
67B
100
AcDbEntity
  8
RACCORDO
100
AcDbLine
 62
7
  6
CONTINUOUS
 10
15.6074081096
 20
22.4803602905
 11
27.4708421539
 21
16.5486432683
  0
LWPOLYLINE
  5
67C
100
AcDbEntity
  8
RACCORDO
100
AcDbPolyline
 62
250
  6
CONTINUOUS
 90
16
 70
0
 10
1.102314236
 20
29.4870362591
 10
1.1770711773
 20
29.4454896841
 10
1.2509387461
 20
29.3948166445
 10
1.3231022663
 20
29.3355748407
 10
1.3927753764
 20
29.2684065126
 10
1.4591787257
 20
29.1940595589
 10
1.5215536382
 20
29.1133890322
 10
1.5792018161
 20
29.0273163049
 10
1.631512758
 20
28.9367726232
 10
1.6779360547
 20
28.8427177535
 10
1.718021142
 20
28.7460241675
 10
1.7512424673
 20
28.6479127311
 10
1.7771309801
 20
28.5499134972
 10
1.7954801797
 20
28.4532429386
 10
1.8062384769
 20
28.3587795094
 10
1.8093940927
 20
28.2675039026
  0
LWPOLYLINE
  5
67D
100
AcDbEntity
  8
RACCORDO
100
AcDbPolyline
 62
7
  6
CONTINUOUS
 90
12
 70
0
 10
27.4705163009
 20
16.548805997
 10
27.556280664
 20
16.5005503697
 10
27.6409097818
 20
16.4409586348
 10
27.7190815274
 20
16.3727876936
 10
27.7900385375
 20
16.2965678065
 10
27.8529446609
 20
16.2129958178
 10
27.9069649367
 20
16.1229557038
 10
27.9514063502
 20
16.0273492559
 10
27.9856647937
 20
15.9271378271
 10
28.0092032043
 20
15.8234572283
 10
28.0216187356
 20
15.7175848877
 10
28.0236284789
 20
15.6544154511
  0
LWPOLYLINE
  5
67E
100
AcDbEntity
  8
RACCORDO
100
AcDbPolyline
 62
250
  6
CONTINUOUS
 90
8
 70
0
 10
27.7429683587
 20
-16.3315167239
 10
27.7396619932
 20
-16.4197985022
 10
27.7285121353
 20
-16.5033085603
 10
27.7096409215
 20
-16.5811321216
 10
27.6832550689
 20
-16.6524167002
 10
27.6496436101
 20
-16.7163814386
 10
27.6091747282
 20
-16.7723256615
 10
27.5622917228
 20
-16.819636551
  0
LWPOLYLINE
  5
67F
100
AcDbEntity
  8
RACCORDO
100
AcDbPolyline
 62
250
  6
CONTINUOUS
 90
9
 70
0
 10
28.0236285582
 20
-15.9841969709
 10
28.0225905125
 20
-16.0069637008
 10
28.0124974424
 20
-16.0585823136
 10
27.9917202725
 20
-16.1094856164
 10
27.9604897897
 20
-16.1590382129
 10
27.9193512234
 20
-16.2064941442
 10
27.8689608774
 20
-16.2513079564
 10
27.8099215578
 20
-16.293114439
 10
27.7429683587
 20
-16.3315167239
  0
LINE
  5
680
100
AcDbEntity
  8
RACCORDO
100
AcDbLine
 62
7
  6
CONTINUOUS
 10
17.0108961458
 20
-23.0066306957
 11
17.0645040397
 21
-22.9609809089
  0
LINE
  5
681
100
AcDbEntity
  8
RACCORDO
100
AcDbLine
 62
7
  6
CONTINUOUS
 10
16.9570629054
 20
-23.0519098619
 11
17.0108961458
 21
-23.0066306957
  0
LINE
  5
682
100
AcDbEntity
  8
RACCORDO
100
AcDbLine
 62
7
  6
CONTINUOUS
 10
16.9030043183
 20
-23.0968184076
 11
16.9570629054
 21
-23.0519098619
  0
LWPOLYLINE
  5
683
100
AcDbEntity
  8
RACCORDO
100
AcDbPolyline
 62
250
  6
CONTINUOUS
 90
3
 70
0
 10
27.5622917228
 20
-16.819636551
 10
27.5095081543
 20
-16.8577958596
 10
27.4909854923
 20
-16.8682562556
  0
LWPOLYLINE
  5
684
100
AcDbEntity
  8
RACCORDO
100
AcDbPolyline
 62
7
  6
CONTINUOUS
 90
6
 70
0
 10
27.4909854923
 20
-16.8682562556
 10
27.5802773002
 20
-16.8149343475
 10
27.6644542551
 20
-16.7518731317
 10
27.7421711762
 20
-16.679670469
 10
27.8120393058
 20
-16.5993366652
 10
27.8731411624
 20
-16.5117557093
  0
LWPOLYLINE
  5
685
100
AcDbEntity
  8
RACCORDO
100
AcDbPolyline
 62
7
  6
CONTINUOUS
 90
13
 70
0
 10
15.8028579355
 20
-23.8243286551
 10
15.8916107676
 20
-23.7741214695
 10
15.9829024287
 20
-23.7205243445
 10
16.0761545133
 20
-23.6641289863
 10
16.1707211653
 20
-23.6060912265
 10
16.2662103661
 20
-23.5466466859
 10
16.3622499228
 20
-23.4849302761
 10
16.458255905
 20
-23.4216412472
 10
16.5533912556
 20
-23.3575931488
 10
16.6464469968
 20
-23.2920678966
 10
16.7362744538
 20
-23.2256010425
 10
16.8220880478
 20
-23.160026726
 10
16.9030043183
 20
-23.0968184076
  0
LINE
  5
686
100
AcDbEntity
  8
RACCORDO
100
AcDbLine
 62
7
  6
CONTINUOUS
 10
15.7684804461
 20
-23.8427219249
 11
15.8028579355
 21
-23.8243286551
  0
LINE
  5
687
100
AcDbEntity
  8
DRAFT
100
AcDbLine
 62
7
  6
CONTINUOUS
 10
9.2652846949
 20
-27.261352157
 11
14.6905712176
 21
-24.3972916393
  0
LINE
  5
688
100
AcDbEntity
  8
RACCORDO
100
AcDbLine
 62
7
  6
CONTINUOUS
 10
9.2652846949
 20
-27.237461321
 11
13.0681743584
 21
-25.2317330299
  0
LINE
  5
689
100
AcDbEntity
  8
RACCORDO
100
AcDbLine
 62
250
  6
CONTINUOUS
 10
15.8028579355
 20
-23.8243286551
 11
9.9241958791
 21
-26.8478996869
  0
LINE
  5
68A
100
AcDbEntity
  8
RACCORDO
100
AcDbLine
 62
7
  6
CONTINUOUS
 10
9.9150032928
 20
-26.8534918701
 11
15.7685794498
 21
-23.8428436427
  0
LINE
  5
68B
100
AcDbEntity
  8
RACCORDO
100
AcDbLine
 62
250
  6
CONTINUOUS
 10
5.6289263155
 20
-30.9726325139
 11
9.2652846949
 21
-29.2932417095
  0
LINE
  5
68C
100
AcDbEntity
  8
RACCORDO
100
AcDbLine
 62
7
  6
CONTINUOUS
 10
5.5600814005
 20
-31.1096794308
 11
9.1976348
 21
-29.4297367265
  0
LWPOLYLINE
  5
68D
100
AcDbEntity
  8
RACCORDO
100
AcDbPolyline
 62
250
  6
CONTINUOUS
 90
9
 70
0
 10
5.6289263155
 20
-30.9726325139
 10
5.604809214
 20
-30.9828843304
 10
5.5781086201
 20
-30.9915826647
 10
5.5492141014
 20
-30.9985521557
 10
5.5184964333
 20
-31.0036503226
 10
5.4865071351
 20
-31.0067349205
 10
5.4539894495
 20
-31.0077134202
 10
5.4215652489
 20
-31.0065743821
 10
5.3897128075
 20
-31.0033418805
  0
LWPOLYLINE
  5
68E
100
AcDbEntity
  8
RACCORDO
100
AcDbPolyline
 62
7
  6
CONTINUOUS
 90
4
 70
0
 10
-1.7800331243
 20
31.1208891113
 10
-1.6811870753
 20
31.1003947118
 10
-1.5849926069
 20
31.0700696326
 10
-1.4861191729
 20
31.0271239292
  0
LWPOLYLINE
  5
68F
100
AcDbEntity
  8
RACCORDO
100
AcDbPolyline
 62
250
  6
CONTINUOUS
 90
7
 70
0
 10
-1.5163237388
 20
31.0406014331
 10
-1.5781833313
 20
31.0591500432
 10
-1.6439233769
 20
31.0675845573
 10
-1.7125094091
 20
31.0658426039
 10
-1.783053354
 20
31.0541044815
 10
-1.8548756308
 20
31.0326349567
 10
-1.9271987723
 20
31.0017927633
  0
LWPOLYLINE
  5
690
100
AcDbEntity
  8
RACCORDO
100
AcDbPolyline
 62
7
  6
CONTINUOUS
 90
6
 70
0
 10
27.9248941277
 20
-16.4174546312
 10
27.9665066311
 20
-16.3173253818
 10
27.9970885946
 20
-16.2130444108
 10
28.0161666292
 20
-16.106122677
 10
28.0235435161
 20
-15.9972179201
 10
28.0236283875
 20
-15.9838952146
  0
LINE
  5
691
100
AcDbEntity
  8
RACCORDO
100
AcDbLine
 62
7
  6
CONTINUOUS
 10
27.8731411624
 20
-16.5117557093
 11
27.9248941277
 21
-16.4174546312
  0
LWPOLYLINE
  5
692
100
AcDbEntity
  8
RACCORDO
100
AcDbPolyline
 62
7
  6
CONTINUOUS
 90
7
 70
0
 10
5.5600814005
 20
-31.1096794308
 10
5.5221531862
 20
-31.123595432
 10
5.4819835613
 20
-31.1312800382
 10
5.4407468509
 20
-31.1322933201
 10
5.3991505602
 20
-31.1263360699
 10
5.3590907041
 20
-31.1134770525
 10
5.3434747035
 20
-31.1063300243
  0
ELLIPSE
  5
693
100
AcDbEntity
  8
DRAFT
100
AcDbEllipse
 62
7
  6
CONTINUOUS
 10
2.0799492353
 20
21.4967164419
 30
0.0
 11
2.7499350056
 21
-0.0386453369
 31
0.0
 40
0.4892375088
 41
1.371895591
 42
1.8877151927
  0
ELLIPSE
  5
694
100
AcDbEntity
  8
RACCORDO
100
AcDbEllipse
 62
7
  6
CONTINUOUS
 10
14.8367436081
 20
21.7476585524
 30
0.0
 11
0.8008611109
 21
0.7100037797
 31
0.0
 40
0.2918786833
 41
0.1163360857
 42
0.7926549024
  0
ELLIPSE
  5
695
100
AcDbEntity
  8
DRAFT
100
AcDbEllipse
 62
7
  6
CONTINUOUS
 10
9.9995451846
 20
20.6720134361
 30
0.0
 11
2.7499350056
 21
-0.0386453369
 31
0.0
 40
0.4892375088
 41
0.3758140555
 42
2.3630697256
  0
ELLIPSE
  5
696
100
AcDbEntity
  8
DRAFT
100
AcDbEllipse
 62
7
  6
CONTINUOUS
 10
9.3277937425
 20
20.8024041343
 30
0.0
 11
2.7499831596
 21
-0.0194567514
 31
0.0
 40
0.4946372042
 41
2.3771474383
 42
3.0013528246
  0
ELLIPSE
  5
697
100
AcDbEntity
  8
RACCORDO
100
AcDbEllipse
 62
7
  6
CONTINUOUS
 10
10.995727655
 20
23.668166529
 30
0.0
 11
0.4349639225
 21
0.9005141702
 31
0.0
 40
0.6016116119
 41
-0.8943064336
 42
-0.4458677124
  0
ELLIPSE
  5
698
100
AcDbEntity
  8
RACCORDO
100
AcDbEllipse
 62
7
  6
CONTINUOUS
 10
3.0066552871
 20
24.581599053
 30
0.0
 11
0.4349639225
 21
0.9005141702
 31
0.0
 40
0.6016116119
 41
-0.8943064336
 42
-0.598709223
  0
ELLIPSE
  5
699
100
AcDbEntity
  8
RACCORDO
100
AcDbEllipse
 62
7
  6
CONTINUOUS
 10
-8.8932194537
 20
21.4437698889
 30
0.0
 11
0.4999881828
 21
-0.0070264249
 31
0.0
 40
0.4892375088
 41
-0.7610696355
 42
-0.1706535903
  0
ELLIPSE
  5
69A
100
AcDbEntity
  8
RACCORDO
100
AcDbEllipse
 62
7
  6
CONTINUOUS
 10
3.1256007067
 20
24.5221263431
 30
0.0
 11
-0.3067168502
 21
1.1100869106
 31
0.0
 40
0.6713087359
 41
5.1488574538
 42
6.4153299237
  0
ELLIPSE
  5
69B
100
AcDbEntity
  8
RACCORDO
100
AcDbEllipse
 62
7
  6
CONTINUOUS
 10
11.1727544011
 20
23.579653156
 30
0.0
 11
-0.3067168502
 21
1.1100869106
 31
0.0
 40
0.6713087359
 41
5.3016989644
 42
6.4153299237
  0
ELLIPSE
  5
69C
100
AcDbEntity
  8
DRAFT
100
AcDbEllipse
 62
7
  6
CONTINUOUS
 10
2.0799492353
 20
21.9565589405
 30
0.0
 11
2.7499831596
 21
-0.0194567514
 31
0.0
 40
0.4946372042
 41
1.0774160176
 42
2.1703232042
  0
ELLIPSE
  5
69D
100
AcDbEntity
  8
DRAFT
100
AcDbEllipse
 62
7
  6
CONTINUOUS
 10
9.9995451846
 20
21.1311000507
 30
0.0
 11
2.7499831596
 21
-0.0194567514
 31
0.0
 40
0.4946372042
 41
0.0760241424
 42
2.3596941457
  0
ELLIPSE
  5
69E
100
AcDbEntity
  8
DRAFT
100
AcDbEllipse
 62
7
  6
CONTINUOUS
 10
9.3167373994
 20
21.7251265883
 30
0.0
 11
3.1032968744
 21
-0.0219307296
 31
0.0
 40
0.494637248
 41
2.3720990455
 42
5.4888609838
  0
ELLIPSE
  5
69F
100
AcDbEntity
  8
RACCORDO
100
AcDbEllipse
 62
7
  6
CONTINUOUS
 10
9.6813525181
 20
9.2501767696
 30
0.0
 11
-0.0894521311
 21
0.178897589
 31
0.0
 40
0.6123267458
 41
-0.6846978779
 42
0.8860222965
  0
ELLIPSE
  5
6A0
100
AcDbEntity
  8
DRAFT
100
AcDbEllipse
 62
7
  6
CONTINUOUS
 10
13.4027072484
 20
14.8272905715
 30
0.0
 11
0.3159824576
 21
0.6246293028
 31
0.0
 40
0.615926362
 41
0.0029240479
 42
0.6701524847
  0
ELLIPSE
  5
6A1
100
AcDbEntity
  8
DRAFT
100
AcDbEllipse
 62
7
  6
CONTINUOUS
 10
-2.1536419377
 20
22.6054651645
 30
0.0
 11
0.3159824576
 21
0.6246293028
 31
0.0
 40
0.615926362
 41
0.0029240479
 42
0.6701524847
  0
ELLIPSE
  5
6A2
100
AcDbEntity
  8
RACCORDO
100
AcDbEllipse
 62
7
  6
CONTINUOUS
 10
15.2289698915
 20
12.9386270985
 30
0.0
 11
0.1999986848
 21
0.0014353456
 31
0.0
 40
0.5053247124
 41
-0.7715714568
 42
-0.0038261976
  0
ELLIPSE
  5
6A3
100
AcDbEntity
  8
0
100
AcDbEllipse
 62
7
  6
CONTINUOUS
 10
-5.0758792028
 20
22.4108208423
 30
0.0
 11
0.4536672234
 21
0.8911892529
 31
0.0
 40
0.6178201319
 41
0.3401142451
 42
0.6833629131
  0
ELLIPSE
  5
6A4
100
AcDbEntity
  8
0
100
AcDbEllipse
 62
7
  6
CONTINUOUS
 10
10.4804699833
 20
14.6326462493
 30
0.0
 11
0.4536672234
 21
0.8911892529
 31
0.0
 40
0.6178201319
 41
0.3401142451
 42
0.6833629131
  0
ELLIPSE
  5
6A5
100
AcDbEntity
  8
0
100
AcDbEllipse
 62
7
  6
CONTINUOUS
 10
-3.2296368925
 20
23.035044402
 30
0.0
 11
0.9980068092
 21
-0.2399287748
 31
0.0
 40
0.2630210944
 41
1.9259507046
 42
2.4104144461
  0
ELLIPSE
  5
6A6
100
AcDbEntity
  8
0
100
AcDbEllipse
 62
7
  6
CONTINUOUS
 10
12.3267122936
 20
15.2568698089
 30
0.0
 11
0.9980068092
 21
-0.2399287748
 31
0.0
 40
0.2630210944
 41
1.9259507046
 42
2.4104144461
  0
ELLIPSE
  5
6A7
100
AcDbEntity
  8
RACCORDO
100
AcDbEllipse
 62
7
  6
CONTINUOUS
 10
-19.4867860485
 20
24.1882838484
 30
0.0
 11
-0.0894803643
 21
0.1789340454
 31
0.0
 40
0.6121897086
 41
-0.6846338794
 42
0.0172950278
  0
ELLIPSE
  5
6A8
100
AcDbEntity
  8
RACCORDO
100
AcDbEllipse
 62
7
  6
CONTINUOUS
 10
-21.4748812807
 20
24.6149717417
 30
0.0
 11
-0.1118504554
 21
0.2236675568
 31
0.0
 40
0.6121897086
 41
-0.6846338794
 42
0.0198173078
  0
ELLIPSE
  5
6A9
100
AcDbEntity
  8
RACCORDO
100
AcDbEllipse
 62
7
  6
CONTINUOUS
 10
5.4552617229
 20
4.5988169001
 30
0.0
 11
0.2499780047
 21
-0.0069328431
 31
0.0
 40
0.4783317971
 41
-2.3429293039
 42
-0.7895862696
  0
ELLIPSE
  5
6AA
100
AcDbEntity
  8
RACCORDO
100
AcDbEllipse
 62
7
  6
CONTINUOUS
 10
-24.9834404221
 20
19.8181679727
 30
0.0
 11
0.2499780047
 21
-0.0069328431
 31
0.0
 40
0.4783317971
 41
-3.1280466444
 42
-2.3429293039
  0
ELLIPSE
  5
6AB
100
AcDbEntity
  8
RACCORDO
100
AcDbEllipse
 62
7
  6
CONTINUOUS
 10
-0.7603020005
 20
21.9087951959
 30
0.0
 11
0.321967693
 21
0.6216090459
 31
0.0
 40
0.6229838795
 41
-0.8312599566
 42
0.0069944994
  0
ELLIPSE
  5
6AC
100
AcDbEntity
  8
RACCORDO
100
AcDbEllipse
 62
7
  6
CONTINUOUS
 10
9.0884810715
 20
-29.2047739429
 30
0.0
 11
-0.1118504554
 21
0.2236675568
 31
0.0
 40
0.6121897086
 41
-3.1597323096
 42
-2.2557347926
  0
ELLIPSE
  5
6AD
100
AcDbEntity
  8
RACCORDO
100
AcDbEllipse
 62
7
  6
CONTINUOUS
 10
9.0884810715
 20
9.3332905655
 30
0.0
 11
-0.1117903878
 21
0.2236141634
 31
0.0
 40
0.6125552124
 41
-2.255296188
 42
-0.6848044477
  0
ELLIPSE
  5
6AE
100
AcDbEntity
  8
RACCORDO
100
AcDbEllipse
 62
7
  6
CONTINUOUS
 10
7.1003858393
 20
10.8946979046
 30
0.0
 11
-0.0894323102
 21
0.1788913307
 31
0.0
 40
0.6125552124
 41
-2.255296188
 42
-0.6848044477
  0
ELLIPSE
  5
6AF
100
AcDbEntity
  8
RACCORDO
100
AcDbEllipse
 62
7
  6
CONTINUOUS
 10
-3.5768834718
 20
22.22778604
 30
0.0
 11
-0.0894803643
 21
0.1789340454
 31
0.0
 40
0.6121897086
 41
-0.6846338794
 42
0.019952799
  0
ELLIPSE
  5
6B0
100
AcDbEntity
  8
0
100
AcDbEllipse
 62
7
  6
CONTINUOUS
 10
-10.6999453536
 20
25.2228539177
 30
0.0
 11
0.4408883171
 21
0.8975795466
 31
0.0
 40
0.606885677
 41
0.3313643101
 42
0.6746129781
  0
ELLIPSE
  5
6B1
100
AcDbEntity
  8
RACCORDO
100
AcDbEllipse
 62
7
  6
CONTINUOUS
 10
11.9794657143
 20
14.449611447
 30
0.0
 11
-0.0894803643
 21
0.1789340454
 31
0.0
 40
0.6121897086
 41
-0.6846338794
 42
0.019952799
  0
ELLIPSE
  5
6B2
100
AcDbEntity
  8
DRAFT
100
AcDbEllipse
 62
7
  6
CONTINUOUS
 10
-10.9398650527
 20
26.998576722
 30
0.0
 11
0.310154714
 21
0.6275433373
 31
0.0
 40
0.6088019296
 41
5.3942945558
 42
6.9476375901
  0
ELLIPSE
  5
6B3
100
AcDbEntity
  8
DRAFT
100
AcDbEllipse
 62
7
  6
CONTINUOUS
 10
4.6164841334
 20
19.220402129
 30
0.0
 11
0.310154714
 21
0.6275433373
 31
0.0
 40
0.6088019296
 41
5.3942945558
 42
6.9476375901
  0
ELLIPSE
  5
6B4
100
AcDbEntity
  8
0
100
AcDbEllipse
 62
7
  6
CONTINUOUS
 10
4.8564038325
 20
17.4446793246
 30
0.0
 11
0.4408883171
 21
0.8975795466
 31
0.0
 40
0.606885677
 41
0.3313643101
 42
0.6746129781
  0
ELLIPSE
  5
6B5
100
AcDbEntity
  8
0
100
AcDbEllipse
 62
7
  6
CONTINUOUS
 10
-10.2881341666
 20
26.564293039
 30
0.0
 11
0.9980068092
 21
-0.2399287748
 31
0.0
 40
0.2630210944
 41
-0.7133215392
 42
-0.2288577977
  0
ELLIPSE
  5
6B6
100
AcDbEntity
  8
0
100
AcDbEllipse
 62
7
  6
CONTINUOUS
 10
5.2682150195
 20
18.7861184459
 30
0.0
 11
0.9980068092
 21
-0.2399287748
 31
0.0
 40
0.2630210944
 41
-0.7133215392
 42
-0.2288577977
  0
ELLIPSE
  5
6B7
100
AcDbEntity
  8
0
100
AcDbEllipse
 62
7
  6
CONTINUOUS
 10
-12.2732219824
 20
26.0094922321
 30
0.0
 11
0.4430781628
 21
0.8964904819
 31
0.0
 40
0.6088019296
 41
0.332839725
 42
0.676088393
  0
ELLIPSE
  5
6B8
100
AcDbEntity
  8
0
100
AcDbEllipse
 62
7
  6
CONTINUOUS
 10
3.2831272037
 20
18.2313176391
 30
0.0
 11
0.4430781628
 21
0.8964904819
 31
0.0
 40
0.6088019296
 41
0.332839725
 42
0.676088393
  0
ELLIPSE
  5
6B9
100
AcDbEntity
  8
RACCORDO
100
AcDbEllipse
 62
7
  6
CONTINUOUS
 10
-24.8097493755
 20
19.247679564
 30
0.0
 11
-0.1098985543
 21
0.2275784384
 31
0.0
 40
0.6085747011
 41
-0.6677344043
 42
0.1138351621
  0
ELLIPSE
  5
6BA
100
AcDbEntity
  8
RACCORDO
100
AcDbEllipse
 62
7
  6
CONTINUOUS
 10
-12.6278933558
 20
26.7532909821
 30
0.0
 11
-0.0894323102
 21
0.1788913307
 31
0.0
 40
0.6125552124
 41
-2.255296188
 42
-0.6848044477
  0
ELLIPSE
  5
6BB
100
AcDbEntity
  8
RACCORDO
100
AcDbEllipse
 62
7
  6
CONTINUOUS
 10
5.4552617229
 20
-27.9788594189
 30
0.0
 11
0.2499707485
 21
0.0073394103
 31
0.0
 40
0.5210573591
 41
-2.3714921019
 42
-0.8181490676
  0
ELLIPSE
  5
6BC
100
AcDbEntity
  8
RACCORDO
100
AcDbEllipse
 62
7
  6
CONTINUOUS
 10
2.9284558303
 20
18.975116389
 30
0.0
 11
-0.0894323102
 21
0.1788913307
 31
0.0
 40
0.6125552124
 41
-2.255296188
 42
-0.6848044477
  0
ELLIPSE
  5
6BD
100
AcDbEntity
  8
RACCORDO
100
AcDbEllipse
 62
7
  6
CONTINUOUS
 10
5.6351240669
 20
4.0252428428
 30
0.0
 11
-0.1092649321
 21
0.2270579893
 31
0.0
 40
0.6121735965
 41
-2.2369946326
 42
-0.669228889
  0
ELLIPSE
  5
6BE
100
AcDbEntity
  8
RACCORDO
100
AcDbEllipse
 62
7
  6
CONTINUOUS
 10
5.6351240669
 20
-27.2315943149
 30
0.0
 11
-0.1098985543
 21
0.2275784384
 31
0.0
 40
0.6085747011
 41
-3.2561085673
 42
-2.2415613143
  0
ELLIPSE
  5
6BF
100
AcDbEntity
  8
RACCORDO
100
AcDbEllipse
 62
7
  6
CONTINUOUS
 10
6.5324654355
 20
10.7009938349
 30
0.0
 11
0.8243478099
 21
0.01191966
 31
0.0
 40
0.5106100819
 41
3.1335066426
 42
5.4729508172
  0
ELLIPSE
  5
6C0
100
AcDbEntity
  8
RACCORDO
100
AcDbEllipse
 62
7
  6
CONTINUOUS
 10
-3.610894394
 20
15.7726737496
 30
0.0
 11
0.8243478099
 21
0.01191966
 31
0.0
 40
0.5106100819
 41
3.1335856262
 42
5.4729508172
  0
ELLIPSE
  5
6C1
100
AcDbEntity
  8
RACCORDO
100
AcDbEllipse
 62
7
  6
CONTINUOUS
 10
-9.0238837506
 20
18.4791684279
 30
0.0
 11
0.8243478099
 21
0.01191966
 31
0.0
 40
0.5106100819
 41
3.1335856262
 42
5.4729508172
  0
ELLIPSE
  5
6C2
100
AcDbEntity
  8
RACCORDO
100
AcDbEllipse
 62
7
  6
CONTINUOUS
 10
-19.1672435801
 20
23.5508483427
 30
0.0
 11
0.8243478099
 21
0.01191966
 31
0.0
 40
0.5106100819
 41
3.1335856262
 42
5.4729508172
  0
ELLIPSE
  5
6C3
100
AcDbEntity
  8
RACCORDO
100
AcDbEllipse
 62
7
  6
CONTINUOUS
 10
-12.0255351026
 20
4.23579952
 30
0.0
 11
-0.1341584599
 21
0.2683313382
 31
0.0
 40
0.6124382339
 41
-2.2554365707
 42
-0.6847499022
  0
ELLIPSE
  5
6C4
100
AcDbEntity
  8
RACCORDO
100
AcDbEllipse
 62
7
  6
CONTINUOUS
 10
-12.0255351026
 20
9.1689699131
 30
0.0
 11
-0.1341844083
 21
0.2683544034
 31
0.0
 40
0.6123066439
 41
-3.1522512774
 42
-2.2555944786
  0
ELLIPSE
  5
6C5
100
AcDbEntity
  8
DRAFT
100
AcDbEllipse
 62
7
  6
CONTINUOUS
 10
-11.0101643893
 20
26.2664040247
 30
0.0
 11
0.3544625303
 21
0.7171923855
 31
0.0
 40
0.6088019296
 41
-0.0024960214
 42
0.332839725
  0
ELLIPSE
  5
6C6
100
AcDbEntity
  8
DRAFT
100
AcDbEllipse
 62
7
  6
CONTINUOUS
 10
4.5461847969
 20
18.4882294316
 30
0.0
 11
0.3544625303
 21
0.7171923855
 31
0.0
 40
0.6088019296
 41
-0.0024960222
 42
0.332839725
  0
ENDSEC
  0
SECTION
  2
OBJECTS
  0
DICTIONARY
  5
C
100
AcDbDictionary
280
0
281
1
  3
ACAD_GROUP
350
D
  3
ACAD_MLINESTYLE
350
17
  3
ACAD_LAYOUT
350
1A
  3
ACAD_PLOTSETTINGS
350
19
  3
ACAD_PLOTSTYLENAME
350
E
  0
DICTIONARY
  5
D
102
{ACAD_REACTORS
330
C
102
}
100
AcDbDictionary
280
0
281
1
  0
ACDBDICTIONARYWDFLT
  5
E
102
{ACAD_REACTORS
330
C
102
}
100
AcDbDictionary
281
1
  3
Normal
350
F
100
AcDbDictionaryWithDefault
340
F
  0
DICTIONARY
  5
17
102
{ACAD_REACTORS
330
C
102
}
100
AcDbDictionary
280
0
281
1
  3
Standard
350
18
  0
DICTIONARY
  5
19
102
{ACAD_REACTORS
330
C
102
}
100
AcDbDictionary
281
1
  0
DICTIONARY
  5
1A
102
{ACAD_REACTORS
330
C
102
}
100
AcDbDictionary
281
1
  3
Model
350
6C7
  3
Layout1
350
6C8
  0
ACDBPLACEHOLDER
  5
F
102
{ACAD_REACTORS
330
E
102
}
  0
MLINESTYLE
  5
18
102
{ACAD_REACTORS
330
17
102
}
100
AcDbMlineStyle
  2
STANDARD
 70
0
  3

 62
256
 51
90.0
 52
90.0
 71
2
 49
0.5
 62
256
  6
BYLAYER
 49
-0.5
 62
256
  6
BYLAYER
  0
LAYOUT
  5
6C7
102
{ACAD_REACTORS
330
1A
102
}
100
AcDbPlotSettings
  1

  2
none_device
  4
ISO_A4_(297.00_x_210.00_MM)
  6

 40
0.0
 41
0.0
 42
0.0
 43
0.0
 44
297.0
 45
210.0
 46
0.0
 47
0.0
 48
0.0
 49
0.0
140
0.0
141
0.0
142
1.0
143
1.0
 70
1024
 72
1
 73
0
 74
0
  7

 75
0
147
1.0
148
0.0
149
0.0
100
AcDbLayout
  1
Model
 70
0
 71
0
 10
0.0
 20
0.0
 11
297.0
 21
210.0
 12
0.0
 22
0.0
 32
0.0
 14
0.0
 24
0.0
 34
0.0
 15
0.0
 25
0.0
 35
0.0
146
0.0
 13
0.0
 23
0.0
 33
0.0
 16
1.0
 26
0.0
 36
0.0
 17
0.0
 27
1.0
 37
0.0
 76
0
330
223
345
0
346
0
  0
LAYOUT
  5
6C8
102
{ACAD_REACTORS
330
1A
102
}
100
AcDbPlotSettings
  1

  2
none_device
  4
ISO_A4_(297.00_x_210.00_MM)
  6

 40
0.0
 41
0.0
 42
0.0
 43
0.0
 44
297.0
 45
210.0
 46
0.0
 47
0.0
 48
0.0
 49
0.0
140
0.0
141
0.0
142
1.0
143
1.0
 70
0
 72
1
 73
0
 74
0
  7

 75
0
147
1.0
148
0.0
149
0.0
100
AcDbLayout
  1
Layout1
 70
0
 71
1
 10
0.0
 20
0.0
 11
297.0
 21
210.0
 12
0.0
 22
0.0
 32
0.0
 14
0.0
 24
0.0
 34
0.0
 15
0.0
 25
0.0
 35
0.0
146
0.0
 13
0.0
 23
0.0
 33
0.0
 16
1.0
 26
0.0
 36
0.0
 17
0.0
 27
1.0
 37
0.0
 76
0
330
224
345
0
346
0
  0
ENDSEC
  0
EOF
