  0
SECTION
  2
HEADER
  9
$ACADVER
  1
AC1024
  9
$DWGCODEPAGE
  3
ANSI_1252
  9
$EXTMAX
 10
297.0
 20
210.0
 30
0.0
  9
$EXTMIN
 10
0.0
 20
0.0
 30
0.0
  9
$LIMMIN
 10
0.0
 20
0.0
  9
$LIMMAX
 10
297.0
 20
210.0
  9
$VIEWCTR
 10
148.5
 20
105.0
  9
$VIEWSIZE
 40
210.0
  9
$CLAYER
  8
0
  9
$LTSCALE
 40
16.335
  9
$CELTYPE
  6
BYLAYER
  9
$DIMSCALE
 40
1.0
  9
$DIMASZ
 40
3.0
  9
$DIMEXO
 40
0.5
  9
$DIMDLI
 40
11.286
  9
$DIMEXE
 40
1.5
  9
$DIMCEN
 40
2.673
  9
$DIMLFAC
 40
1.0
  9
$DIMBLK
  1
_FILLED
  9
$DIMALT
 70
0
  9
$DIMALTF
 40
0.0393700787
  9
$DIMTXT
 40
3.0
  9
$DIMTOL
 70
1
  9
$DIMLIM
 70
0
  9
$DIMTFAC
 40
1.0
  9
$DIMTP
 40
0.01
  9
$DIMTM
 40
0.01
  9
$DIMGAP
 40
0.625
  9
$DIMDSEP
 70
44
  9
$AUNITS
 70
0
  9
$PDMODE
 70
3
  9
$PDSIZE
 40
3.0
  9
$HANDSEED
  5
437
  9
$TILEMODE
 70
1
  9
$MEASUREMENT
 70
1
  9
$INSUNITS
 70
4
  0
ENDSEC
  0
SECTION
  2
CLASSES
  0
CLASS
  1
ACDBDICTIONARYWDFLT
  2
AcDbDictionaryWithDefault
  3
AutoCAD 2000
 90
0
 91
1
280
0
281
0
  0
CLASS
  1
ACDBPLACEHOLDER
  2
AcDbPlaceHolder
  3
AutoCAD 2000
 90
0
 91
1
280
0
281
0
  0
CLASS
  1
LAYOUT
  2
AcDbLayout
  3
AutoCAD 2000
 90
0
 91
0
280
0
281
0
  0
ENDSEC
  0
SECTION
  2
TABLES
  0
TABLE
  2
VPORT
  5
8
100
AcDbSymbolTable
 70
2
  0
VPORT
  5
1F4
100
AcDbSymbolTableRecord
100
AcDbViewportTableRecord
  2
*ACTIVE
 70
0
 10
0.0
 20
0.0
 11
1.0
 21
1.0
 12
148.5
 22
105.0
 13
0.0
 23
0.0
 14
1.0
 24
1.0
 15
0.0
 25
0.0
 16
0.0
 26
0.0
 36
1.0
 17
0.0
 27
0.0
 37
0.0
 40
210.0
 41
1.4142857143
 42
50.0
 43
0.0
 44
0.0
 50
0.0
 51
0.0
 71
0
 72
100
 73
1
 74
1
 75
0
 76
0
 77
0
 78
0
  0
ENDTAB
  0
TABLE
  2
LTYPE
  5
5
100
AcDbSymbolTable
 70
6
  0
LTYPE
  5
14
100
AcDbSymbolTableRecord
100
AcDbLinetypeTableRecord
  2
BYBLOCK
 70
0
  3

 72
65
 73
0
 40
0.0
  0
LTYPE
  5
15
100
AcDbSymbolTableRecord
100
AcDbLinetypeTableRecord
  2
BYLAYER
 70
0
  3

 72
65
 73
0
 40
0.0
  0
LTYPE
  5
16
100
AcDbSymbolTableRecord
100
AcDbLinetypeTableRecord
  2
CONTINUOUS
 70
64
  3
Solid line
 72
65
 73
0
 40
0.0
  0
LTYPE
  5
1F5
100
AcDbSymbolTableRecord
100
AcDbLinetypeTableRecord
  2
CENTER
 70
64
  3
____ _ ____ _ ____ _ ____ _ ____ _ ____ _ ____
 72
65
 73
4
 40
0.6
 49
0.375
 74
0
 49
-0.075
 74
0
 49
0.075
 74
0
 49
-0.075
 74
0
  0
LTYPE
  5
1F6
100
AcDbSymbolTableRecord
100
AcDbLinetypeTableRecord
  2
HIDDEN
 70
64
  3
- - - - - - - - - - - - - - - - - - - -
 72
65
 73
2
 40
0.2
 49
0.1
 74
0
 49
-0.1
 74
0
  0
LTYPE
  5
1F7
100
AcDbSymbolTableRecord
100
AcDbLinetypeTableRecord
  2
PHANTOM
 70
64
  3
_____ _ _ _____ _ _ _____ _ _ _____
 72
65
 73
6
 40
0.8
 49
0.45
 74
0
 49
-0.05
 74
0
 49
0.1
 74
0
 49
-0.05
 74
0
 49
0.1
 74
0
 49
-0.05
 74
0
  0
LTYPE
  5
1F8
100
AcDbSymbolTableRecord
100
AcDbLinetypeTableRecord
  2
DOT
 70
64
  3
. . . . . . . . . . . . . . . . . . . .
 72
65
 73
2
 40
0.2
 49
0.1
 74
0
 49
-0.1
 74
0
  0
LTYPE
  5
1F9
100
AcDbSymbolTableRecord
100
AcDbLinetypeTableRecord
  2
DASHED
 70
64
  3
- - - - - - - - - - - - - - - - - - - -
 72
65
 73
2
 40
0.2
 49
0.1
 74
0
 49
-0.1
 74
0
  0
ENDTAB
  0
TABLE
  2
LAYER
  5
2
100
AcDbSymbolTable
 70
36
  0
LAYER
  5
10
100
AcDbSymbolTableRecord
100
AcDbLayerTableRecord
  2
0
 70
0
 62
7
  6
CONTINUOUS
370
-3
390
F
  0
LAYER
  5
1FA
100
AcDbSymbolTableRecord
100
AcDbLayerTableRecord
  2
DEFAULT_1
 70
0
 62
7
  6
CENTER
370
-3
390
F
  0
LAYER
  5
1FB
100
AcDbSymbolTableRecord
100
AcDbLayerTableRecord
  2
DEFAULT_2
 70
0
 62
7
  6
HIDDEN
370
-3
390
F
  0
LAYER
  5
1FC
100
AcDbSymbolTableRecord
100
AcDbLayerTableRecord
  2
DEFAULT_3
 70
0
 62
7
  6
PHANTOM
370
-3
390
F
  0
LAYER
  5
1FD
100
AcDbSymbolTableRecord
100
AcDbLayerTableRecord
  2
ASSI
 70
0
 62
7
  6
CONTINUOUS
370
-3
390
F
  0
LAYER
  5
1FE
100
AcDbSymbolTableRecord
100
AcDbLayerTableRecord
  2
COORDINATE
 70
0
 62
7
  6
CONTINUOUS
370
-3
390
F
  0
LAYER
  5
1FF
100
AcDbSymbolTableRecord
100
AcDbLayerTableRecord
  2
COORD_ORIGINE
 70
0
 62
7
  6
CONTINUOUS
370
-3
390
F
  0
LAYER
  5
200
100
AcDbSymbolTableRecord
100
AcDbLayerTableRecord
  2
COPY-PUBBLISH
 70
0
 62
7
  6
CONTINUOUS
370
-3
390
F
  0
LAYER
  5
201
100
AcDbSymbolTableRecord
100
AcDbLayerTableRecord
  2
COPY_PUBLISH
 70
0
 62
7
  6
CONTINUOUS
370
-3
390
F
  0
LAYER
  5
202
100
AcDbSymbolTableRecord
100
AcDbLayerTableRecord
  2
COSMETICHE
 70
0
 62
7
  6
CONTINUOUS
370
-3
390
F
  0
LAYER
  5
203
100
AcDbSymbolTableRecord
100
AcDbLayerTableRecord
  2
COSMETICI
 70
0
 62
7
  6
CONTINUOUS
370
-3
390
F
  0
LAYER
  5
204
100
AcDbSymbolTableRecord
100
AcDbLayerTableRecord
  2
CURVE
 70
0
 62
7
  6
CONTINUOUS
370
-3
390
F
  0
LAYER
  5
205
100
AcDbSymbolTableRecord
100
AcDbLayerTableRecord
  2
DRAFT
 70
0
 62
7
  6
CONTINUOUS
370
-3
390
F
  0
LAYER
  5
206
100
AcDbSymbolTableRecord
100
AcDbLayerTableRecord
  2
IGES
 70
0
 62
7
  6
CONTINUOUS
370
-3
390
F
  0
LAYER
  5
207
100
AcDbSymbolTableRecord
100
AcDbLayerTableRecord
  2
IMPORT_IGES
 70
0
 62
7
  6
CONTINUOUS
370
-3
390
F
  0
LAYER
  5
208
100
AcDbSymbolTableRecord
100
AcDbLayerTableRecord
  2
INTF_1
 70
0
 62
7
  6
CONTINUOUS
370
-3
390
F
  0
LAYER
  5
209
100
AcDbSymbolTableRecord
100
AcDbLayerTableRecord
  2
INTF_11
 70
0
 62
7
  6
CONTINUOUS
370
-3
390
F
  0
LAYER
  5
20A
100
AcDbSymbolTableRecord
100
AcDbLayerTableRecord
  2
INTF_12
 70
0
 62
7
  6
CONTINUOUS
370
-3
390
F
  0
LAYER
  5
20B
100
AcDbSymbolTableRecord
100
AcDbLayerTableRecord
  2
INTF_2
 70
0
 62
7
  6
CONTINUOUS
370
-3
390
F
  0
LAYER
  5
20C
100
AcDbSymbolTableRecord
100
AcDbLayerTableRecord
  2
NOTE
 70
0
 62
7
  6
CONTINUOUS
370
-3
390
F
  0
LAYER
  5
20D
100
AcDbSymbolTableRecord
100
AcDbLayerTableRecord
  2
PIANI
 70
0
 62
7
  6
CONTINUOUS
370
-3
390
F
  0
LAYER
  5
20E
100
AcDbSymbolTableRecord
100
AcDbLayerTableRecord
  2
PIANI_ORIGINE
 70
0
 62
7
  6
CONTINUOUS
370
-3
390
F
  0
LAYER
  5
20F
100
AcDbSymbolTableRecord
100
AcDbLayerTableRecord
  2
PIANI_SFORMI
 70
0
 62
7
  6
CONTINUOUS
370
-3
390
F
  0
LAYER
  5
210
100
AcDbSymbolTableRecord
100
AcDbLayerTableRecord
  2
PUNTI
 70
0
 62
7
  6
CONTINUOUS
370
-3
390
F
  0
LAYER
  5
211
100
AcDbSymbolTableRecord
100
AcDbLayerTableRecord
  2
RACCORDO
 70
0
 62
7
  6
CONTINUOUS
370
-3
390
F
  0
LAYER
  5
212
100
AcDbSymbolTableRecord
100
AcDbLayerTableRecord
  2
RGB__255__255__255__
 70
0
 62
7
  6
CONTINUOUS
370
-3
390
F
  0
LAYER
  5
213
100
AcDbSymbolTableRecord
100
AcDbLayerTableRecord
  2
SIMBOLI
 70
0
 62
7
  6
CONTINUOUS
370
-3
390
F
  0
LAYER
  5
214
100
AcDbSymbolTableRecord
100
AcDbLayerTableRecord
  2
SMUSSO
 70
0
 62
7
  6
CONTINUOUS
370
-3
390
F
  0
LAYER
  5
215
100
AcDbSymbolTableRecord
100
AcDbLayerTableRecord
  2
SNAPLINE
 70
0
 62
7
  6
CONTINUOUS
370
-3
390
F
  0
LAYER
  5
216
100
AcDbSymbolTableRecord
100
AcDbLayerTableRecord
  2
SUP-SCAVI-INCLINATI
 70
0
 62
7
  6
CONTINUOUS
370
-3
390
F
  0
LAYER
  5
217
100
AcDbSymbolTableRecord
100
AcDbLayerTableRecord
  2
SUP-SCAVI-INCLINATI-SUP
 70
0
 62
7
  6
CONTINUOUS
370
-3
390
F
  0
LAYER
  5
218
100
AcDbSymbolTableRecord
100
AcDbLayerTableRecord
  2
SUPERFICI
 70
0
 62
7
  6
CONTINUOUS
370
-3
390
F
  0
LAYER
  5
219
100
AcDbSymbolTableRecord
100
AcDbLayerTableRecord
  2
SUP_COLORE
 70
0
 62
7
  6
CONTINUOUS
370
-3
390
F
  0
LAYER
  5
21A
100
AcDbSymbolTableRecord
100
AcDbLayerTableRecord
  2
TRACCIABILITA
 70
0
 62
7
  6
CONTINUOUS
370
-3
390
F
  0
LAYER
  5
21B
100
AcDbSymbolTableRecord
100
AcDbLayerTableRecord
  2
TRASH
 70
0
 62
7
  6
CONTINUOUS
370
-3
390
F
  0
LAYER
  5
21C
100
AcDbSymbolTableRecord
100
AcDbLayerTableRecord
  2
XSEC_DATUMS
 70
0
 62
7
  6
CONTINUOUS
370
-3
390
F
  0
ENDTAB
  0
TABLE
  2
STYLE
  5
3
100
AcDbSymbolTable
 70
1
  0
STYLE
  5
11
100
AcDbSymbolTableRecord
100
AcDbTextStyleTableRecord
  2
STANDARD
 70
0
 40
0.0
 41
0.8
 50
0.0
 71
0
 42
0.2
  3
txt
  4

  0
STYLE
  5
21D
100
AcDbSymbolTableRecord
100
AcDbTextStyleTableRecord
  2
TEXTSTYLE_1
 70
0
 40
0.0
 41
0.8
 50
0.0
 71
0
 42
0.2
  3
gdt
  4

  0
ENDTAB
  0
TABLE
  2
VIEW
  5
6
100
AcDbSymbolTable
 70
0
  0
ENDTAB
  0
TABLE
  2
UCS
  5
7
100
AcDbSymbolTable
 70
0
  0
ENDTAB
  0
TABLE
  2
APPID
  5
9
100
AcDbSymbolTable
 70
1
  0
APPID
  5
21E
100
AcDbSymbolTableRecord
100
AcDbRegAppTableRecord
  2
ACAD
 70
0
  0
ENDTAB
  0
TABLE
  2
BLOCK_RECORD
  5
1
100
AcDbSymbolTable
 70
0
  0
BLOCK_RECORD
  5
21F
100
AcDbSymbolTableRecord
100
AcDbBlockTableRecord
  2
*Model_Space
  0
BLOCK_RECORD
  5
220
100
AcDbSymbolTableRecord
100
AcDbBlockTableRecord
  2
*Paper_Space
  0
BLOCK_RECORD
  5
221
100
AcDbSymbolTableRecord
100
AcDbBlockTableRecord
  2
_FILLED
  0
ENDTAB
  0
TABLE
  2
DIMSTYLE
  5
A
100
AcDbSymbolTable
 70
1
100
AcDbDimStyleTable
 71
0
  0
DIMSTYLE
105
222
100
AcDbSymbolTableRecord
100
AcDbDimStyleTableRecord
  2
STANDARD
 70
0
  3

  4

 40
1.0
 41
3.0
 42
0.5
 43
0.38
 44
1.5
 45
0.0
 46
0.0
 47
0.01
 48
0.01
140
3.0
141
0.09
142
0.0
143
25.4
144
1.0
145
0.0
146
1.0
147
0.625
 71
1
 72
0
 73
0
 74
0
 75
0
 76
0
 77
1
 78
8
 79
2
170
0
171
1
172
0
173
0
174
0
175
0
176
0
177
0
178
0
270
2
179
2
271
2
272
2
273
2
274
2
275
0
280
0
281
0
282
0
283
1
284
8
285
0
286
0
287
3
288
0
340
11
278
44
341
221
342
221
343
221
344
221
  0
ENDTAB
  0
ENDSEC
  0
SECTION
  2
BLOCKS
  0
BLOCK
  5
20
100
AcDbEntity
  8
0
100
AcDbBlockBegin
  2
*Model_Space
 70
0
 10
0.0
 20
0.0
 30
0.0
  3
*Model_Space
  1

  0
ENDBLK
  5
21
100
AcDbEntity
  8
0
100
AcDbBlockEnd
  0
BLOCK
  5
1C
100
AcDbEntity
  8
0
100
AcDbBlockBegin
  2
*Paper_Space
 70
0
 10
0.0
 20
0.0
 30
0.0
  3
*Paper_Space
  1

  0
ENDBLK
  5
1D
100
AcDbEntity
  8
0
100
AcDbBlockEnd
  0
BLOCK
  5
223
100
AcDbEntity
  8
0
100
AcDbBlockBegin
  2
_FILLED
 70
64
 10
0.0
 20
0.0
  3
_FILLED
  1

  0
SOLID
  5
224
100
AcDbEntity
  8
0
  6
BYBLOCK
 62
0
100
AcDbTrace
 10
0.0
 20
0.0
 11
-1.0
 21
0.3166666667
 12
-1.0
 22
-0.3166666667
 13
-1.0
 23
-0.3166666667
  0
ENDBLK
  5
225
100
AcDbEntity
  8
0
  6
BYBLOCK
 62
0
100
AcDbBlockEnd
  0
ENDSEC
  0
SECTION
  2
ENTITIES
  0
LWPOLYLINE
  5
226
100
AcDbEntity
  8
RACCORDO
100
AcDbPolyline
 62
250
  6
CONTINUOUS
 90
4
 70
0
 10
-29.883095237
 20
19.1678132399
 10
-29.8501796858
 20
19.2055748132
 10
-29.8151866802
 20
19.2391675288
 10
-29.7782825949
 20
19.2685736255
  0
LWPOLYLINE
  5
227
100
AcDbEntity
  8
RACCORDO
100
AcDbPolyline
 62
7
  6
CONTINUOUS
 90
12
 70
0
 10
-29.9155444704
 20
19.2585245239
 10
-29.9485669586
 20
19.2310364257
 10
-29.9877525716
 20
19.1924193274
 10
-30.0240597727
 20
19.1492209568
 10
-30.0570334432
 20
19.1016686337
 10
-30.086329786
 20
19.0500708003
 10
-30.1116636608
 20
18.9947721763
 10
-30.1328429208
 20
18.9360927768
 10
-30.1497887765
 20
18.8742838795
 10
-30.1624538421
 20
18.8095676902
 10
-30.1707947056
 20
18.7421686315
 10
-30.1745458409
 20
18.6807634932
  0
LINE
  5
228
100
AcDbEntity
  8
RACCORDO
100
AcDbLine
 62
7
  6
CONTINUOUS
 10
-29.9154056815
 20
19.2586315577
 11
-29.9155444704
 21
19.2585245239
  0
LWPOLYLINE
  5
229
100
AcDbEntity
  8
RACCORDO
100
AcDbPolyline
 62
7
  6
CONTINUOUS
 90
5
 70
0
 10
-29.841897673
 20
19.3097646916
 10
-29.8638586839
 20
19.2955618152
 10
-29.8852514576
 20
19.280896107
 10
-29.906068188
 20
19.2657595132
 10
-29.9154234317
 20
19.2586546128
  0
LWPOLYLINE
  5
22A
100
AcDbEntity
  8
RACCORDO
100
AcDbPolyline
 62
250
  6
CONTINUOUS
 90
7
 70
0
 10
-29.7191064668
 20
19.309309128
 10
-29.7295665895
 20
19.3027290204
 10
-29.7397877384
 20
19.2960652556
 10
-29.7497699133
 20
19.2893178338
 10
-29.7595131144
 20
19.2824867548
 10
-29.7690173416
 20
19.2755720187
 10
-29.7782825949
 20
19.2685736255
  0
LINE
  5
22B
100
AcDbEntity
  8
RACCORDO
100
AcDbLine
 62
7
  6
CONTINUOUS
 10
-27.6260345024
 20
20.6767816152
 11
-29.841897673
 21
19.3097646916
  0
LINE
  5
22C
100
AcDbEntity
  8
RACCORDO
100
AcDbLine
 62
250
  6
CONTINUOUS
 10
-27.5072388136
 20
20.6738065582
 11
-29.7191064668
 21
19.309309128
  0
LINE
  5
22D
100
AcDbEntity
  8
RACCORDO
100
AcDbLine
 62
7
  6
CONTINUOUS
 10
-24.1151098701
 20
26.0766085945
 11
-27.7964696352
 21
24.1876420927
  0
LINE
  5
22E
100
AcDbEntity
  8
RACCORDO
100
AcDbLine
 62
250
  6
CONTINUOUS
 10
-24.002429974
 20
26.0699493604
 11
-27.6829554122
 21
24.1814109655
  0
LINE
  5
22F
100
AcDbEntity
  8
RACCORDO
100
AcDbLine
 62
7
  6
CONTINUOUS
 10
-22.1211045434
 20
25.778805698
 11
-22.2490297172
 21
25.7138461826
  0
LINE
  5
230
100
AcDbEntity
  8
DRAFT
100
AcDbLine
 62
7
  6
CONTINUOUS
 10
-20.1195143501
 20
26.1982701861
 11
-21.5316831237
 21
25.4840949881
  0
LINE
  5
231
100
AcDbEntity
  8
DRAFT
100
AcDbLine
 62
7
  6
CONTINUOUS
 10
-14.2690503702
 20
28.9377083285
 11
-20.0156174597
 21
26.1463217409
  0
LWPOLYLINE
  5
232
100
AcDbEntity
  8
RACCORDO
100
AcDbPolyline
 62
7
  6
CONTINUOUS
 90
11
 70
0
 10
-30.1750326902
 20
-11.7828898439
 10
-30.1725509288
 20
-11.8107487192
 10
-30.1671581457
 20
-11.8376813329
 10
-30.1588815433
 20
-11.8639052532
 10
-30.1478361573
 20
-11.8890458232
 10
-30.1341172194
 20
-11.9128799071
 10
-30.1179298335
 20
-11.9350521012
 10
-30.0994228591
 20
-11.9553654614
 10
-30.0788608565
 20
-11.97353606
 10
-30.0567458645
 20
-11.9892066268
 10
-30.0345861791
 20
-12.0017002726
  0
LWPOLYLINE
  5
233
100
AcDbEntity
  8
RACCORDO
100
AcDbPolyline
 62
250
  6
CONTINUOUS
 90
12
 70
0
 10
-30.1745554836
 20
18.6804718691
 10
-30.1746737187
 20
18.6250887978
 10
-30.170399645
 20
18.5566977907
 10
-30.1611276641
 20
18.4852193181
 10
-30.1466541788
 20
18.4109469218
 10
-30.1268543669
 20
18.3343231004
 10
-30.1014674385
 20
18.2552791073
 10
-30.0704602985
 20
18.1745391115
 10
-30.0343611215
 20
18.0937791067
 10
-29.9935126511
 20
18.0137312249
 10
-29.9477382347
 20
17.934116289
 10
-29.8970310645
 20
17.8550731052
  0
LWPOLYLINE
  5
234
100
AcDbEntity
  8
RACCORDO
100
AcDbPolyline
 62
250
  6
CONTINUOUS
 90
13
 70
0
 10
-29.8970307126
 20
17.8550726171
 10
-29.965406206
 20
15.5411352608
 10
-30.0232757952
 20
13.1912755646
 10
-30.0700068778
 20
10.8058784032
 10
-30.1049970035
 20
8.3814644371
 10
-30.127509242
 20
5.9223483545
 10
-30.1368813611
 20
3.4405376363
 10
-30.1326189672
 20
0.9330840531
 10
-30.1142088247
 20
-1.5963329924
 10
-30.0815035197
 20
-4.1260254462
 10
-30.0345286691
 20
-6.6487200816
 10
-29.9730801545
 20
-9.1713526783
 10
-29.8970289459
 20
-11.6937308426
  0
LWPOLYLINE
  5
235
100
AcDbEntity
  8
RACCORDO
100
AcDbPolyline
 62
7
  6
CONTINUOUS
 90
10
 70
0
 10
-30.1745552137
 20
18.680477266
 10
-30.2701779136
 20
15.4482503851
 10
-30.3484528422
 20
11.9658186271
 10
-30.4006482435
 20
8.4958308677
 10
-30.4267580949
 20
5.0385884982
 10
-30.426778623
 20
1.5943917248
 10
-30.4007099269
 20
-1.8364598962
 10
-30.3485524446
 20
-5.2536647027
 10
-30.2703089786
 20
-8.6569206507
 10
-30.1750347341
 20
-11.7828876065
  0
LINE
  5
236
100
AcDbEntity
  8
RACCORDO
100
AcDbLine
 62
7
  6
CONTINUOUS
 10
-19.5395438194
 20
25.9082849208
 11
-21.0875153305
 21
25.1330889893
  0
LINE
  5
237
100
AcDbEntity
  8
RACCORDO
100
AcDbLine
 62
7
  6
CONTINUOUS
 10
-19.5395438194
 20
25.2587658679
 11
-21.0875153305
 21
24.4835699364
  0
LWPOLYLINE
  5
238
100
AcDbEntity
  8
RACCORDO
100
AcDbPolyline
 62
250
  6
CONTINUOUS
 90
9
 70
0
 10
-27.9323383353
 20
-14.4926221212
 10
-27.9319911225
 20
-14.4991707925
 10
-27.9292325836
 20
-14.5122270053
 10
-27.9237767566
 20
-14.5250175859
 10
-27.9156932101
 20
-14.5374333631
 10
-27.905060967
 20
-14.549362258
 10
-27.8919858065
 20
-14.560680402
 10
-27.8766149206
 20
-14.5712561577
 10
-27.8591150416
 20
-14.5809733341
  0
LINE
  5
239
100
AcDbEntity
  8
RACCORDO
100
AcDbLine
 62
7
  6
CONTINUOUS
 10
-27.9323383463
 20
23.9652144665
 11
-27.9323383463
 21
21.0175923311
  0
LINE
  5
23A
100
AcDbEntity
  8
RACCORDO
100
AcDbLine
 62
7
  6
CONTINUOUS
 10
-27.9323383353
 20
-14.4926221212
 11
-27.9323383463
 21
-13.0528099687
  0
LINE
  5
23B
100
AcDbEntity
  8
RACCORDO
100
AcDbLine
 62
250
  6
CONTINUOUS
 10
-27.8591150416
 20
23.8768261188
 11
-27.8591150416
 21
20.9292039835
  0
LINE
  5
23C
100
AcDbEntity
  8
RACCORDO
100
AcDbLine
 62
250
  6
CONTINUOUS
 10
-27.8591150416
 20
-14.5809733341
 11
-27.8591150416
 21
-13.089421621
  0
LINE
  5
23D
100
AcDbEntity
  8
RACCORDO
100
AcDbLine
 62
7
  6
CONTINUOUS
 10
-27.6838877846
 20
20.6410920229
 11
-27.6838877846
 21
20.841590355
  0
LWPOLYLINE
  5
23E
100
AcDbEntity
  8
RACCORDO
100
AcDbPolyline
 62
250
  6
CONTINUOUS
 90
16
 70
0
 10
-27.8591150416
 20
23.8768261188
 10
-27.858141296
 20
23.9000062575
 10
-27.8552316266
 20
23.9238995274
 10
-27.8504193226
 20
23.9482424368
 10
-27.843763205
 20
23.9727518104
 10
-27.8353352269
 20
23.9971730767
 10
-27.8252090167
 20
24.021281905
 10
-27.8134602037
 20
24.0448623109
 10
-27.8002328689
 20
24.0675939615
 10
-27.7857418639
 20
24.0891161497
 10
-27.7701754622
 20
24.109184071
 10
-27.7537013378
 20
24.1276137249
 10
-27.7365427943
 20
24.1441894531
 10
-27.718907766
 20
24.1587528345
 10
-27.7009807361
 20
24.1711923472
 10
-27.6829554122
 20
24.1814109655
  0
LWPOLYLINE
  5
23F
100
AcDbEntity
  8
RACCORDO
100
AcDbPolyline
 62
7
  6
CONTINUOUS
 90
19
 70
0
 10
-23.9750827081
 20
16.3669736821
 10
-24.0299316214
 20
16.3269507675
 10
-24.0822719195
 20
16.2809411534
 10
-24.1317263807
 20
16.2293113708
 10
-24.1778592935
 20
16.1724206653
 10
-24.2204085938
 20
16.1107184977
 10
-24.2592864573
 20
16.0447385009
 10
-24.2941798539
 20
15.9749211921
 10
-24.3248370101
 20
15.9017346148
 10
-24.3512955283
 20
15.8257680175
 10
-24.3733224731
 20
15.7474926869
 10
-24.3907381822
 20
15.6673861026
 10
-24.40369433
 20
15.5860470875
 10
-24.41204229
 20
15.5039494205
 10
-24.4156754202
 20
15.421554176
 10
-24.4148379451
 20
15.3394308396
 10
-24.4095725725
 20
15.2580635142
 10
-24.3997289337
 20
15.1778483493
 10
-24.3852945443
 20
15.099204533
  0
LWPOLYLINE
  5
240
100
AcDbEntity
  8
RACCORDO
100
AcDbPolyline
 62
7
  6
CONTINUOUS
 90
10
 70
0
 10
-23.9750827081
 20
16.3669736821
 10
-23.9685765077
 20
16.3711791333
 10
-23.9619459793
 20
16.3753386202
 10
-23.9551911227
 20
16.3794521429
 10
-23.9483122919
 20
16.3835199434
 10
-23.941309133
 20
16.3875417797
 10
-23.9341805845
 20
16.3915169249
 10
-23.9269262925
 20
16.3954451369
 10
-23.9195466109
 20
16.3993266579
 10
-23.9120415397
 20
16.403161488
  0
LWPOLYLINE
  5
241
100
AcDbEntity
  8
RACCORDO
100
AcDbPolyline
 62
250
  6
CONTINUOUS
 90
4
 70
0
 10
-29.8741770897
 20
19.2779383634
 10
-29.8944445818
 20
19.2711248328
 10
-29.9125069346
 20
19.2607827279
 10
-29.9154056815
 20
19.2586315577
  0
LWPOLYLINE
  5
242
100
AcDbEntity
  8
RACCORDO
100
AcDbPolyline
 62
250
  6
CONTINUOUS
 90
22
 70
0
 10
0.8737965744
 20
-27.0547930195
 10
0.8254578359
 20
-27.0683583686
 10
0.774293103
 20
-27.0783519663
 10
0.7205511219
 20
-27.0845211319
 10
0.6647181384
 20
-27.0867240449
 10
0.6068323733
 20
-27.0848874066
 10
0.5464516615
 20
-27.0788224596
 10
0.4837520768
 20
-27.0683328593
 10
0.4191231623
 20
-27.0532938567
 10
0.3524465511
 20
-27.0334556328
 10
0.2839106557
 20
-27.0086105499
 10
0.2139987297
 20
-26.9786916314
 10
0.1430676171
 20
-26.9436291438
 10
0.0714303239
 20
-26.9033333273
 10
-0.0004928762
 20
-26.8577857884
 10
-0.0721624952
 20
-26.8070968705
 10
-0.1435160495
 20
-26.7510361903
 10
-0.2137638377
 20
-26.6899165188
 10
-0.281390311
 20
-26.6249201621
 10
-0.3457919998
 20
-26.5566488895
 10
-0.4071760344
 20
-26.4848387626
 10
-0.4653912377
 20
-26.4095495954
  0
LWPOLYLINE
  5
243
100
AcDbEntity
  8
RACCORDO
100
AcDbPolyline
 62
250
  6
CONTINUOUS
 90
16
 70
0
 10
2.6691181238
 20
-29.8450899168
 10
2.6885524767
 20
-29.8538398563
 10
2.7097039881
 20
-29.8615252993
 10
2.732340276
 20
-29.8680628795
 10
2.7561980658
 20
-29.8733790011
 10
2.7810296202
 20
-29.8774207743
 10
2.8066107814
 20
-29.8801486878
 10
2.8327232071
 20
-29.8815279573
 10
2.859023254
 20
-29.8815290944
 10
2.8850923653
 20
-29.880155561
 10
2.9106218669
 20
-29.8774393111
 10
2.9353648574
 20
-29.8734225102
 10
2.9590156053
 20
-29.8681731886
 10
2.9813236074
 20
-29.8617718353
 10
3.0020900261
 20
-29.8543015914
 10
3.0211221352
 20
-29.8458578753
  0
LINE
  5
244
100
AcDbEntity
  8
RACCORDO
100
AcDbLine
 62
250
  6
CONTINUOUS
 10
-27.7941417452
 20
-14.7161917842
 11
-27.8002328689
 21
-14.7128590041
  0
LWPOLYLINE
  5
245
100
AcDbEntity
  8
RACCORDO
100
AcDbPolyline
 62
250
  6
CONTINUOUS
 90
9
 70
0
 10
-27.8002328689
 20
-14.7128590041
 10
-27.8134602037
 20
-14.7033546882
 10
-27.8252090167
 20
-14.6915230954
 10
-27.8353352269
 20
-14.6775404773
 10
-27.8437632051
 20
-14.6615471891
 10
-27.8504193226
 20
-14.6436939331
 10
-27.8552316266
 20
-14.6241633277
 10
-27.858141296
 20
-14.6031797272
 10
-27.8591150416
 20
-14.5809733341
  0
LWPOLYLINE
  5
246
100
AcDbEntity
  8
RACCORDO
100
AcDbPolyline
 62
7
  6
CONTINUOUS
 90
36
 70
0
 10
-24.3692548042
 20
-14.8118295773
 10
-24.0532771854
 20
-15.2355699068
 10
-23.5631118506
 20
-15.8671080307
 10
-23.0611091789
 20
-16.4834645863
 10
-22.5478985129
 20
-17.0838858238
 10
-22.0241982652
 20
-17.6675293123
 10
-21.4908243619
 20
-18.2334994234
 10
-20.9484859158
 20
-18.7810456977
 10
-20.397894449
 20
-19.3094454019
 10
-19.8398814143
 20
-19.8179020355
 10
-19.2751764613
 20
-20.3057263124
 10
-18.7045157718
 20
-20.7722723268
 10
-18.1287288536
 20
-21.2168409906
 10
-17.5485526506
 20
-21.6388177931
 10
-16.9647178839
 20
-22.03764296
 10
-16.3780224939
 20
-22.412723998
 10
-15.7891471915
 20
-22.7635549305
 10
-15.1988494134
 20
-23.0896291657
 10
-14.6080147653
 20
-23.3903860737
 10
-14.0172275795
 20
-23.6654410622
 10
-13.4273036909
 20
-23.9143413637
 10
-12.8394446567
 20
-24.1365147403
 10
-12.2542936972
 20
-24.3316722521
 10
-11.6725518015
 20
-24.4995461844
 10
-11.0954724401
 20
-24.6397480893
 10
-10.5236924102
 20
-24.752132606
 10
-9.9578621063
 20
-24.8365925844
 10
-9.3992281545
 20
-24.8929731224
 10
-8.8484005125
 20
-24.9212922067
 10
-8.3060214861
 20
-24.9216104526
 10
-7.7733706276
 20
-24.8940439418
 10
-7.2509953279
 20
-24.8388006057
 10
-6.7395620002
 20
-24.7561459387
 10
-6.240491113
 20
-24.6465634877
 10
-5.7546000047
 20
-24.510615414
 10
-5.3167334217
 20
-24.360612431
  0
LWPOLYLINE
  5
247
100
AcDbEntity
  8
RACCORDO
100
AcDbPolyline
 62
7
  6
CONTINUOUS
 90
10
 70
0
 10
-24.3692966157
 20
-14.8118056536
 10
-24.3733243969
 20
-14.8060939206
 10
-24.3907401053
 20
-14.7747935143
 10
-24.4036962263
 20
-14.7390758818
 10
-24.4120441812
 20
-14.6992759142
 10
-24.415677279
 20
-14.6557383059
 10
-24.4148396003
 20
-14.6086353551
 10
-24.4095738177
 20
-14.5582800795
 10
-24.3997296231
 20
-14.5051320726
 10
-24.3852945443
 20
-14.4495980435
  0
LINE
  5
248
100
AcDbEntity
  8
RACCORDO
100
AcDbLine
 62
7
  6
CONTINUOUS
 10
-22.8068614924
 20
16.9584352999
 11
-23.9120415397
 21
16.403161488
  0
LWPOLYLINE
  5
249
100
AcDbEntity
  8
RACCORDO
100
AcDbPolyline
 62
7
  6
CONTINUOUS
 90
3
 70
0
 10
-21.4422177865
 20
17.6412960446
 10
-21.7136605596
 20
17.505716582
 10
-22.8068614924
 20
16.9584352999
  0
LINE
  5
24A
100
AcDbEntity
  8
RACCORDO
100
AcDbLine
 62
7
  6
CONTINUOUS
 10
-2.5950172977
 20
27.482149413
 11
-2.5949890367
 21
27.4821629948
  0
LINE
  5
24B
100
AcDbEntity
  8
RACCORDO
100
AcDbLine
 62
7
  6
CONTINUOUS
 10
-7.0624601829
 20
25.3344132349
 11
-2.5950172977
 21
27.482149413
  0
LINE
  5
24C
100
AcDbEntity
  8
RACCORDO
100
AcDbLine
 62
250
  6
CONTINUOUS
 10
-6.9879922545
 20
25.2971792707
 11
-2.4631813733
 21
27.4724952801
  0
LINE
  5
24D
100
AcDbEntity
  8
RACCORDO
100
AcDbLine
 62
250
  6
CONTINUOUS
 10
5.0658021659
 20
28.1001230914
 11
5.0692548359
 21
28.1017115169
  0
LWPOLYLINE
  5
24E
100
AcDbEntity
  8
RACCORDO
100
AcDbPolyline
 62
250
  6
CONTINUOUS
 90
7
 70
0
 10
-2.5949890367
 20
27.4821629948
 10
-2.5907622684
 20
27.484086902
 10
-2.5675053961
 20
27.4912623817
 10
-2.5426413315
 20
27.4935843764
 10
-2.5166879178
 20
27.4911211193
 10
-2.4900494926
 20
27.484020861
 10
-2.4631813733
 20
27.4724952801
  0
LWPOLYLINE
  5
24F
100
AcDbEntity
  8
RACCORDO
100
AcDbPolyline
 62
250
  6
CONTINUOUS
 90
30
 70
0
 10
-24.3852945443
 20
15.099204533
 10
-24.0800015828
 20
15.2306330272
 10
-23.75283164
 20
15.3517489465
 10
-23.4037838934
 20
15.4625525057
 10
-23.0327481485
 20
15.5652849873
 10
-22.6398302153
 20
15.6577067576
 10
-22.2253655898
 20
15.733091157
 10
-21.7871440989
 20
15.7911084873
 10
-21.3273973269
 20
15.8320786204
 10
-20.8531507721
 20
15.8502370995
 10
-20.363964861
 20
15.8442213652
 10
-19.8603282524
 20
15.8153720446
 10
-19.3506800453
 20
15.7619700986
 10
-18.8366106036
 20
15.6832829217
 10
-18.3165814091
 20
15.5800201834
 10
-17.7943433707
 20
15.4526240355
 10
-17.2706135893
 20
15.3010385185
 10
-16.7447098099
 20
15.1253042657
 10
-16.2182804743
 20
14.9260098457
 10
-15.6912663186
 20
14.7030687315
 10
-15.1637415893
 20
14.4565608813
 10
-14.6375501108
 20
14.1873267375
 10
-14.112825432
 20
13.8954015211
 10
-13.5894288691
 20
13.5807522609
 10
-13.0687908668
 20
13.244119316
 10
-12.5495817416
 20
12.8842445388
 10
-12.0331055827
 20
12.5023973129
 10
-11.5247398503
 20
12.1031109038
 10
-11.02243878
 20
11.6833255231
 10
-10.5282052231
 20
11.2461198846
  0
LWPOLYLINE
  5
250
100
AcDbEntity
  8
RACCORDO
100
AcDbPolyline
 62
250
  6
CONTINUOUS
 90
43
 70
0
 10
-23.9120184596
 20
16.4031735643
 10
-23.5898222006
 20
16.5280473409
 10
-23.2467470146
 20
16.6457081054
 10
-22.8822149423
 20
16.7542599969
 10
-22.4947887185
 20
16.8519373273
 10
-22.0848255194
 20
16.9363658881
 10
-21.6546208947
 20
17.0049216238
 10
-21.2022866497
 20
17.0558390146
 10
-20.7291674341
 20
17.0868657386
 10
-20.2429434147
 20
17.095910182
 10
-19.7444612072
 20
17.0820033248
 10
-19.2333829506
 20
17.044210915
 10
-18.7162033717
 20
16.9823474966
 10
-18.1949977118
 20
16.8965677286
 10
-17.6687999301
 20
16.7866553533
 10
-17.1397997736
 20
16.6529321028
 10
-16.6091692745
 20
16.4957415686
 10
-16.0769399294
 20
16.3151630877
 10
-15.5436284454
 20
16.1113498462
 10
-15.0098333772
 20
15.88452541
 10
-14.4761598742
 20
15.6349609673
 10
-13.9431348161
 20
15.3628924968
 10
-13.4116560072
 20
15.0687798468
 10
-12.8820314057
 20
14.7528116986
 10
-12.353909934
 20
14.4147310493
 10
-11.8262276621
 20
14.0535939573
 10
-11.3013012113
 20
13.6707697916
 10
-10.7837878403
 20
13.2698831682
 10
-10.2725359202
 20
12.8502727028
 10
-9.7697566668
 20
12.4141009706
 10
-9.2847726956
 20
11.9707197038
 10
-8.8189069576
 20
11.5229946021
 10
-8.3710129118
 20
11.0715426267
 10
-7.9461386114
 20
10.6237438315
 10
-7.5461178048
 20
10.1839271895
 10
-7.1684409687
 20
9.7516338908
 10
-6.8113919342
 20
9.3272799399
 10
-6.4756358287
 20
8.913683308
 10
-6.1596545845
 20
8.5108552277
 10
-5.858639168
 20
8.1144463417
 10
-5.5708697366
 20
7.7234366823
 10
-5.2975094601
 20
7.3404637386
 10
-5.0382341073
 20
6.9662809493
  0
LWPOLYLINE
  5
251
100
AcDbEntity
  8
DRAFT
100
AcDbPolyline
 62
7
  6
CONTINUOUS
 90
3
 70
0
 10
-21.4422177865
 20
17.6412960446
 10
-21.3852834054
 20
17.6621788145
 10
-21.3502210469
 20
17.6747569861
  0
LWPOLYLINE
  5
252
100
AcDbEntity
  8
RACCORDO
100
AcDbPolyline
 62
250
  6
CONTINUOUS
 90
6
 70
0
 10
5.0692548359
 20
28.1017115169
 10
5.0922582651
 20
28.1090234713
 10
5.1170329267
 20
28.1115573672
 10
5.1431549603
 20
28.1092698533
 10
5.1701774541
 20
28.1022000656
 10
5.1976380903
 20
28.0904689585
  0
LWPOLYLINE
  5
253
100
AcDbEntity
  8
RACCORDO
100
AcDbPolyline
 62
7
  6
CONTINUOUS
 90
16
 70
0
 10
2.6691181238
 20
-26.8974677815
 10
2.688856562
 20
-26.9062941792
 10
2.7098200515
 20
-26.9139235968
 10
2.7320085923
 20
-26.9203560344
 10
2.7556872173
 20
-26.9256349331
 10
2.7805908935
 20
-26.9297168517
 10
2.8059245222
 20
-26.932471467
 10
2.8317019781
 20
-26.9338559464
 10
2.8579093864
 20
-26.9339131224
 10
2.8837100242
 20
-26.9326411697
 10
2.9090907647
 20
-26.9299971967
 10
2.9340647347
 20
-26.9260240949
 10
2.9578345911
 20
-26.9208487135
 10
2.9801345527
 20
-26.9145133353
 10
3.0012304008
 20
-26.9069756775
 10
3.0211221352
 20
-26.89823574
  0
LWPOLYLINE
  5
254
100
AcDbEntity
  8
RACCORDO
100
AcDbPolyline
 62
7
  6
CONTINUOUS
 90
10
 70
0
 10
0.1908372857
 20
-27.1144107789
 10
0.261962189
 20
-27.1470651577
 10
0.3316837507
 20
-27.1734484981
 10
0.4011331286
 20
-27.1941222404
 10
0.4706504335
 20
-27.2090587168
 10
0.5399072847
 20
-27.2180046393
 10
0.6084094747
 20
-27.2207565904
 10
0.6763248498
 20
-27.2170736111
 10
0.7432596643
 20
-27.2066445202
 10
0.7908166452
 20
-27.1947962091
  0
LINE
  5
255
100
AcDbEntity
  8
RACCORDO
100
AcDbLine
 62
7
  6
CONTINUOUS
 10
-27.7941417452
 20
-14.7161917842
 11
-22.1322047796
 21
-17.547160267
  0
LINE
  5
256
100
AcDbEntity
  8
RACCORDO
100
AcDbLine
 62
7
  6
CONTINUOUS
 10
-7.4969109299
 20
-24.8648071919
 11
2.7340914202
 21
-29.9803083669
  0
LINE
  5
257
100
AcDbEntity
  8
RACCORDO
100
AcDbLine
 62
250
  6
CONTINUOUS
 10
-7.3273176909
 20
-24.8468720095
 11
2.6691181238
 21
-29.8450899168
  0
LINE
  5
258
100
AcDbEntity
  8
RACCORDO
100
AcDbLine
 62
250
  6
CONTINUOUS
 10
-22.299394896
 20
-17.3608334069
 11
-27.8591150416
 21
-14.5809733341
  0
LINE
  5
259
100
AcDbEntity
  8
RACCORDO
100
AcDbLine
 62
7
  6
CONTINUOUS
 10
-30.0346104745
 20
-12.0016739046
 11
-24.3424760326
 21
-14.8477411255
  0
LINE
  5
25A
100
AcDbEntity
  8
RACCORDO
100
AcDbLine
 62
7
  6
CONTINUOUS
 10
-5.5401586136
 20
-24.248899835
 11
0.1908262264
 21
-27.114392255
  0
LINE
  5
25B
100
AcDbEntity
  8
RACCORDO
100
AcDbLine
 62
250
  6
CONTINUOUS
 10
-29.8970289459
 20
-11.6937308426
 11
-24.3852945443
 21
-14.4495980435
  0
LINE
  5
25C
100
AcDbEntity
  8
RACCORDO
100
AcDbLine
 62
250
  6
CONTINUOUS
 10
-5.9771281713
 20
-23.6536812299
 11
-0.4653920031
 21
-26.4095493141
  0
LWPOLYLINE
  5
25D
100
AcDbEntity
  8
RACCORDO
100
AcDbPolyline
 62
250
  6
CONTINUOUS
 90
80
 70
0
 10
-14.7455173832
 20
-20.7931988425
 10
-15.0942305687
 20
-20.6136554233
 10
-15.43683186
 20
-20.4270399063
 10
-15.7731246845
 20
-20.2340357106
 10
-16.1023438461
 20
-20.0356979155
 10
-16.4249323474
 20
-19.8323202466
 10
-16.7425242909
 20
-19.623266199
 10
-17.055010046
 20
-19.4089808855
 10
-17.3622532175
 20
-19.1899438805
 10
-17.6658328717
 20
-18.965270679
 10
-17.9656333996
 20
-18.7352644688
 10
-18.2615475483
 20
-18.5002399102
 10
-18.5551295758
 20
-18.2590679305
 10
-18.8463661156
 20
-18.0118281859
 10
-19.1350241786
 20
-17.7587995621
 10
-19.4222775205
 20
-17.4989389126
 10
-19.7087007024
 20
-17.2316595899
 10
-19.9934153978
 20
-16.9577125551
 10
-20.2754097187
 20
-16.6780322513
 10
-20.5544742131
 20
-16.3928773352
 10
-20.8305773311
 20
-16.102321931
 10
-21.1030167021
 20
-15.8071181249
 10
-21.3699607227
 20
-15.5094259985
 10
-21.6330926935
 20
-15.2075573583
 10
-21.8968413237
 20
-14.8962492317
 10
-22.1604771152
 20
-14.5759991204
 10
-22.4242103534
 20
-14.2462051534
 10
-22.6934494933
 20
-13.8993512353
 10
-22.9677315819
 20
-13.5349259475
 10
-23.2463313626
 20
-13.1527297628
 10
-23.5336618801
 20
-12.7450847473
 10
-23.8299312808
 20
-12.3095644209
 10
-24.1327056445
 20
-11.8474025222
 10
-24.4419085907
 20
-11.3560814751
 10
-24.7571095541
 20
-10.8334484236
 10
-25.0756459402
 20
-10.2807377939
 10
-25.3939914071
 20
-9.7006906587
 10
-25.7109854603
 20
-9.0923959698
 10
-26.0243648171
 20
-8.456808622
 10
-26.3293710136
 20
-7.7999573741
 10
-26.6254837286
 20
-7.1200219184
 10
-26.9100095207
 20
-6.4200223236
 10
-27.1762690036
 20
-5.7138432531
 10
-27.4226605272
 20
-5.0054811178
 10
-27.649785904
 20
-4.2931427156
 10
-27.8556953723
 20
-3.5823069165
 10
-28.0396683609
 20
-2.8763656094
 10
-28.2023175499
 20
-2.1741240916
 10
-28.3439075913
 20
-1.4741909754
 10
-28.464337443
 20
-0.7766912959
 10
-28.5631995945
 20
-0.0836916992
 10
-28.640182749
 20
0.6032770178
 10
-28.695151836
 20
1.2829597484
 10
-28.7280823346
 20
1.954504777
 10
-28.7389103013
 20
2.6170127584
 10
-28.7276015113
 20
3.269469421
 10
-28.6941904397
 20
3.9108556787
 10
-28.6387422041
 20
4.5402779953
 10
-28.5612834577
 20
5.1569399723
 10
-28.4619494965
 20
5.7596922647
 10
-28.3410480046
 20
6.3471657308
 10
-28.1989790687
 20
6.9177329975
 10
-28.0358463905
 20
7.4713342565
 10
-27.8513998509
 20
8.0088477584
 10
-27.6450242273
 20
8.5309593074
 10
-27.4174495693
 20
9.0348993711
 10
-27.1706723645
 20
9.5166019719
 10
-26.9041041411
 20
9.9774146442
 10
-26.6193574261
 20
10.4148162289
 10
-26.3231681552
 20
10.8206597719
 10
-26.0182768633
 20
11.1945336644
 10
-25.7051873816
 20
11.5389151334
 10
-25.3886140144
 20
11.8519208826
 10
-25.070821026
 20
12.1347854542
 10
-24.752970831
 20
12.3896741876
 10
-24.4385312163
 20
12.6169878476
 10
-24.1301655457
 20
12.8180255872
 10
-23.8282927777
 20
12.995495071
 10
-23.5329006179
 20
13.1519640553
 10
-23.44460975
 20
13.1955989755
  0
LWPOLYLINE
  5
25E
100
AcDbEntity
  8
RACCORDO
100
AcDbPolyline
 62
250
  6
CONTINUOUS
 90
109
 70
0
 10
-15.0955998001
 20
-21.421456293
 10
-15.4535537225
 20
-21.236156372
 10
-15.8048863309
 20
-21.0449496578
 10
-16.1495965939
 20
-20.8478355757
 10
-16.4872261178
 20
-20.6446411698
 10
-16.8182293144
 20
-20.4355371784
 10
-17.1439738184
 20
-20.2210382663
 10
-17.4644506031
 20
-20.0013497539
 10
-17.7796623399
 20
-19.7762627862
 10
-18.0909941776
 20
-19.5456707487
 10
-18.398449493
 20
-19.3097511586
 10
-18.7020165827
 20
-19.0683218778
 10
-19.0030576903
 20
-18.8207366542
 10
-19.3017080706
 20
-18.5670352199
 10
-19.5978218236
 20
-18.3071719519
 10
-19.8923386567
 20
-18.0403721247
 10
-20.1859969225
 20
-17.7659614635
 10
-20.4780444478
 20
-17.4846066202
 10
-20.7671848514
 20
-17.1975441011
 10
-21.0532873252
 20
-16.9047967799
 10
-21.3364677809
 20
-16.6063336055
 10
-21.6158007357
 20
-16.3033106604
 10
-21.8895739508
 20
-15.9978570015
 10
-22.1594854618
 20
-15.6878358239
 10
-22.4297216096
 20
-15.368002459
 10
-22.7000983661
 20
-15.0393059036
 10
-22.970774763
 20
-14.7007835497
 10
-23.2464384687
 20
-14.3443160715
 10
-23.5276687061
 20
-13.970109795
 10
-23.8138375436
 20
-13.5779319481
 10
-24.1077980581
 20
-13.1589915757
 10
-24.4113254134
 20
-12.7115119569
 10
-24.7225521363
 20
-12.2372199499
 10
-25.0388380283
 20
-11.7325641459
 10
-25.361469768
 20
-11.1954907468
 10
-25.6890181566
 20
-10.627977224
 10
-26.0147480197
 20
-10.0325078762
 10
-26.338986862
 20
-9.4075506627
 10
-26.661226088
 20
-8.7545418605
 10
-26.9734759912
 20
-8.0804184227
 10
-27.2759395451
 20
-7.3821007381
 10
-27.5682176797
 20
-6.6625665341
 10
-27.8414675359
 20
-5.9378657235
 10
-28.0935821076
 20
-5.2106998442
 10
-28.3265590375
 20
-4.4783131111
 10
-28.5377847666
 20
-3.7486078897
 10
-28.726376689
 20
-3.0239263753
 10
-28.8931602162
 20
-2.3019004382
 10
-29.0381150792
 20
-1.5833834811
 10
-29.1614096129
 20
-0.8673856494
 10
-29.2628158988
 20
-0.1548703817
 10
-29.3417383294
 20
0.5503690583
 10
-29.3980215656
 20
1.2480856893
 10
-29.431794811
 20
1.9385352813
 10
-29.4429183096
 20
2.6186638882
 10
-29.431307169
 20
3.2884284655
 10
-29.3970463602
 20
3.9478674767
 10
-29.3402778422
 20
4.5940357788
 10
-29.2608747299
 20
5.2270263394
 10
-29.1589902833
 20
5.8467287285
 10
-29.0352156252
 20
6.4498785257
 10
-28.8897715233
 20
7.0356883764
 10
-28.7224966957
 20
7.6049125197
 10
-28.5334283607
 20
8.1565897451
 10
-28.3217263648
 20
8.6922565253
 10
-28.0882884888
 20
9.2103449252
 10
-27.8357906618
 20
9.705222125
 10
-27.5622290631
 20
10.1775751297
 10
-27.2697179121
 20
10.6266613395
 10
-26.9671828528
 20
11.0446694877
 10
-26.6550605144
 20
11.428660616
 10
-26.3331113174
 20
11.7814790429
 10
-26.0092960251
 20
12.1039656819
 10
-25.6841340762
 20
12.394960601
 10
-25.3572868127
 20
12.6555385651
 10
-25.0354267681
 20
12.8898934157
 10
-24.7199965821
 20
13.0972658223
 10
-24.4096954012
 20
13.2783492682
 10
-24.1070590328
 20
13.4395269276
 10
-23.8139443795
 20
13.580807751
 10
-23.5285860428
 20
13.7021407121
 10
-23.2480570068
 20
13.8098325394
 10
-22.972961103
 20
13.904734382
 10
-22.7027426539
 20
13.9859730809
 10
-22.4327116482
 20
14.057279721
 10
-22.1626875002
 20
14.1194884673
 10
-21.892875516
 20
14.1717538943
 10
-21.6191514268
 20
14.2152936388
 10
-21.3398147518
 20
14.2506131917
 10
-21.0565801138
 20
14.2772006341
 10
-20.7704424442
 20
14.2947490562
 10
-20.4813167885
 20
14.3031513624
 10
-20.1893030451
 20
14.302507908
 10
-19.895674279
 20
14.2928225885
 10
-19.6011863333
 20
14.2741479002
 10
-19.3050971914
 20
14.2464251461
 10
-19.0064328089
 20
14.2094915825
 10
-18.7053285903
 20
14.1635369844
 10
-18.4016597704
 20
14.108366825
 10
-18.0940612471
 20
14.0432422715
 10
-17.7825438007
 20
13.9683628293
 10
-17.4671049886
 20
13.8835252821
 10
-17.1463596012
 20
13.7873868399
 10
-16.8203013452
 20
13.6801615336
 10
-16.4889428887
 20
13.561632503
 10
-16.1509274393
 20
13.4298106345
 10
-15.8058042069
 20
13.2840322374
 10
-15.4540279817
 20
13.1249592301
 10
-15.0955998001
 20
12.9525911538
  0
LWPOLYLINE
  5
25F
100
AcDbEntity
  8
RACCORDO
100
AcDbPolyline
 62
7
  6
CONTINUOUS
 90
12
 70
0
 10
-5.5401548612
 20
-24.2489017112
 10
-5.57975345
 20
-24.2272951839
 10
-5.6338064521
 20
-24.1915843468
 10
-5.6853369391
 20
-24.1500877321
 10
-5.7341431622
 20
-24.1030921138
 10
-5.779764582
 20
-24.0510418826
 10
-5.8220623432
 20
-23.9942670763
 10
-5.8609200328
 20
-23.9331172416
 10
-5.8959403473
 20
-23.8680853249
 10
-5.9269521525
 20
-23.7995912158
 10
-5.954018922
 20
-23.7279876163
 10
-5.9771281713
 20
-23.6536812299
  0
LWPOLYLINE
  5
260
100
AcDbEntity
  8
RACCORDO
100
AcDbPolyline
 62
250
  6
CONTINUOUS
 90
13
 70
0
 10
-30.03459604
 20
-12.0016811218
 10
-30.0406792355
 20
-11.9980097764
 10
-30.0501824463
 20
-11.9880119664
 10
-30.0557246838
 20
-11.9744837842
 10
-30.0569498094
 20
-11.9573981803
 10
-30.0536323771
 20
-11.9366840658
 10
-30.0457791532
 20
-11.9121954741
 10
-30.0329492152
 20
-11.8838890908
 10
-30.0149692965
 20
-11.8518992831
 10
-29.9923977332
 20
-11.8165514073
 10
-29.9654112581
 20
-11.7782193087
 10
-29.9336475795
 20
-11.737166565
 10
-29.8970313543
 20
-11.6937296384
  0
LINE
  5
261
100
AcDbEntity
  8
RACCORDO
100
AcDbLine
 62
7
  6
CONTINUOUS
 10
-22.4875649936
 20
25.4227342232
 11
-22.4875649936
 21
24.7732151703
  0
LINE
  5
262
100
AcDbEntity
  8
RACCORDO
100
AcDbLine
 62
250
  6
CONTINUOUS
 10
-21.0875153305
 20
25.1330889893
 11
-21.0875153305
 21
24.4835699364
  0
LWPOLYLINE
  5
263
100
AcDbEntity
  8
DRAFT
100
AcDbPolyline
 62
7
  6
CONTINUOUS
 90
52
 70
0
 10
-17.3397172645
 20
13.5820442205
 10
-17.48193488
 20
13.2267153543
 10
-17.6621992225
 20
12.7102654256
 10
-17.8229207708
 20
12.17687845
 10
-17.9640114304
 20
11.6264780792
 10
-18.0855592957
 20
11.0591406615
 10
-18.18701728
 20
10.4774197817
 10
-18.2682948228
 20
9.8812506024
 10
-18.3294824846
 20
9.2706979611
 10
-18.3703048597
 20
8.648509954
 10
-18.3906701463
 20
8.0146341317
 10
-18.3906701463
 20
7.3691229438
 10
-18.3703048597
 20
6.7148818349
 10
-18.3294824846
 20
6.0518714527
 10
-18.2682948228
 20
5.3801311495
 10
-18.18701728
 20
4.7026844275
 10
-18.0855592957
 20
4.0195055634
 10
-17.9640114304
 20
3.3306202804
 10
-17.8229207708
 20
2.63912925
 10
-17.6621992225
 20
1.9450207261
 10
-17.48193488
 20
1.2483064549
 10
-17.2829391126
 20
0.5521223461
 10
-17.0651274837
 20
-0.1435292105
 10
-16.8285844299
 20
-0.8386506047
 10
-16.5743746312
 20
-1.5301130961
 10
-16.3024184501
 20
-2.2179001915
 10
-16.0127955242
 20
-2.9020283842
 10
-15.7068094456
 20
-3.5794184143
 10
-15.3843864532
 20
-4.2500399078
 10
-15.0456003083
 20
-4.9139232388
 10
-14.6919758866
 20
-5.5680802695
 10
-14.3234463008
 20
-6.212467156
 10
-13.9400784383
 20
-6.8471277421
 10
-13.5435978372
 20
-7.4692054217
 10
-13.1339453884
 20
-8.0786434739
 10
-12.711180201
 20
-8.6754986195
 10
-12.2772051404
 20
-9.2570844145
 10
-11.8319696752
 20
-9.8233320283
 10
-11.3755243369
 20
-10.3743102915
 10
-10.9099235851
 20
-10.9075392518
 10
-10.4351261494
 20
-11.4229388995
 10
-9.9511733003
 20
-11.9205892444
 10
-9.4602433087
 20
-12.398250363
 10
-8.9623047233
 20
-12.8558321486
 10
-8.4573889955
 20
-13.293424708
 10
-7.94776875
 20
-13.7090584377
 10
-7.4334227801
 20
-14.1026343526
 10
-6.9143722926
 20
-14.4742514378
 10
-6.3929535329
 20
-14.8222370455
 10
-5.8699452494
 20
-15.1460336263
 10
-5.3445686938
 20
-15.4461987295
 10
-4.8168238659
 20
-15.7227323551
  0
LINE
  5
264
100
AcDbEntity
  8
0
100
AcDbLine
 62
7
  6
CONTINUOUS
 10
1.7239138601
 20
24.5229077392
 11
1.5478782791
 21
24.4260849045
  0
LINE
  5
265
100
AcDbEntity
  8
0
100
AcDbLine
 62
7
  6
CONTINUOUS
 10
6.3201079378
 20
26.821004778
 11
1.7239138601
 21
24.5229077392
  0
LINE
  5
266
100
AcDbEntity
  8
ASSI
100
AcDbLine
 62
7
  6
CONTINUOUS
 10
6.3201079378
 20
26.3879920762
 11
2.8035122519
 21
24.6296942332
  0
LINE
  5
267
100
AcDbEntity
  8
RACCORDO
100
AcDbLine
 62
7
  6
CONTINUOUS
 10
-23.44460975
 20
13.1955989755
 11
-23.4439488952
 21
13.195920295
  0
LINE
  5
268
100
AcDbEntity
  8
RACCORDO
100
AcDbLine
 62
7
  6
CONTINUOUS
 10
5.6768372614
 20
27.8508693729
 11
1.2688257943
 21
25.7158393442
  0
LINE
  5
269
100
AcDbEntity
  8
RACCORDO
100
AcDbLine
 62
7
  6
CONTINUOUS
 10
-3.9373227997
 20
23.7718445433
 11
5.0658021659
 21
28.1001230914
  0
LINE
  5
26A
100
AcDbEntity
  8
RACCORDO
100
AcDbLine
 62
250
  6
CONTINUOUS
 10
-3.8628548713
 20
23.7346105791
 11
5.1976380903
 21
28.0904689585
  0
LWPOLYLINE
  5
26B
100
AcDbEntity
  8
RACCORDO
100
AcDbPolyline
 62
7
  6
CONTINUOUS
 90
19
 70
0
 10
-23.4439624136
 20
13.1959136631
 10
-23.0600769037
 20
13.3691822195
 10
-22.6370328008
 20
13.5308148416
 10
-22.203517819
 20
13.6669321131
 10
-21.7601599132
 20
13.7774088277
 10
-21.3076331898
 20
13.8621356174
 10
-20.8465333562
 20
13.9210476869
 10
-20.3775296561
 20
13.9540955263
 10
-19.9013575894
 20
13.96125448
 10
-19.4187527654
 20
13.9425488072
 10
-18.9304337344
 20
13.898034077
 10
-18.4371814975
 20
13.8278146951
 10
-17.9398516756
 20
13.7320549035
 10
-17.4392161576
 20
13.6109535639
 10
-16.9360568636
 20
13.4647609343
 10
-16.4312467028
 20
13.2937955551
 10
-15.9255645718
 20
13.098403993
 10
-15.4197398345
 20
12.8789500284
 10
-14.9660423244
 20
12.6617428315
  0
LINE
  5
26C
100
AcDbEntity
  8
RACCORDO
100
AcDbLine
 62
7
  6
CONTINUOUS
 10
2.6691181238
 20
-26.8974677815
 11
2.1926924772
 21
-26.6592549582
  0
LINE
  5
26D
100
AcDbEntity
  8
DRAFT
100
AcDbLine
 62
7
  6
CONTINUOUS
 10
2.5921317115
 20
-26.5054211848
 11
3.2009976479
 21
-26.809854153
  0
LWPOLYLINE
  5
26E
100
AcDbEntity
  8
RACCORDO
100
AcDbPolyline
 62
250
  6
CONTINUOUS
 90
19
 70
0
 10
-29.8970312012
 20
17.8550728614
 10
-29.9337686498
 20
17.9439042429
 10
-29.9655946081
 20
18.0335784202
 10
-29.9925964637
 20
18.123676805
 10
-30.0151405742
 20
18.2142184578
 10
-30.0330720503
 20
18.3043546596
 10
-30.0458586876
 20
18.3923704651
 10
-30.0536764997
 20
18.4775234098
 10
-30.0569582402
 20
18.5598505311
 10
-30.0556986229
 20
18.6388619351
 10
-30.0501248878
 20
18.7142787823
 10
-30.040596497
 20
18.785900213
 10
-30.0273119726
 20
18.8534161077
 10
-30.0105318306
 20
18.9165744654
 10
-29.9905514828
 20
18.975381641
 10
-29.9675971736
 20
19.0299505673
 10
-29.9419218381
 20
19.0801605847
 10
-29.9137233261
 20
19.1260223932
 10
-29.883095237
 20
19.1678132399
  0
LINE
  5
26F
100
AcDbEntity
  8
DRAFT
100
AcDbLine
 62
7
  6
CONTINUOUS
 10
-19.5395438194
 20
25.2587658679
 11
-19.5395438194
 21
25.9082849208
  0
LWPOLYLINE
  5
270
100
AcDbEntity
  8
RACCORDO
100
AcDbPolyline
 62
7
  6
CONTINUOUS
 90
5
 70
0
 10
2.7564679504
 20
23.614659967
 10
2.7734566346
 20
23.6270449613
 10
2.7862940101
 20
23.6440219515
 10
2.7958053384
 20
23.6657122849
 10
2.8016126203
 20
23.6914230355
  0
LWPOLYLINE
  5
271
100
AcDbEntity
  8
0
100
AcDbPolyline
 62
7
  6
CONTINUOUS
 90
9
 70
0
 10
1.5478782791
 20
24.4260849045
 10
1.3910469919
 20
24.3213338681
 10
1.2548402871
 20
24.2096032718
 10
1.1404916735
 20
24.091904965
 10
1.0490367101
 20
23.9693048419
 10
0.981303627
 20
23.8429131882
 10
0.9379058255
 20
23.7138746262
 10
0.919236323
 20
23.5833577492
 10
0.9184575084
 20
23.5506359151
  0
LINE
  5
272
100
AcDbEntity
  8
RACCORDO
100
AcDbLine
 62
7
  6
CONTINUOUS
 10
3.7062071838
 20
23.8219756094
 11
2.1697938807
 21
23.0102880075
  0
LINE
  5
273
100
AcDbEntity
  8
RACCORDO
100
AcDbLine
 62
7
  6
CONTINUOUS
 10
-0.9204621337
 20
20.8851959481
 11
-3.7340178444
 21
19.4161926796
  0
LINE
  5
274
100
AcDbEntity
  8
RACCORDO
100
AcDbLine
 62
7
  6
CONTINUOUS
 10
-5.0293699372
 20
18.7398682512
 11
-6.6738473054
 21
17.8812598292
  0
LINE
  5
275
100
AcDbEntity
  8
RACCORDO
100
AcDbLine
 62
7
  6
CONTINUOUS
 10
2.1055113052
 20
21.1206211861
 11
0.3706194625
 21
20.23965515
  0
LINE
  5
276
100
AcDbEntity
  8
RACCORDO
100
AcDbLine
 62
7
  6
CONTINUOUS
 10
0.8265840148
 20
21.7600848313
 11
-0.9204621337
 21
20.8851959481
  0
LINE
  5
277
100
AcDbEntity
  8
RACCORDO
100
AcDbLine
 62
250
  6
CONTINUOUS
 10
2.8035122519
 20
23.7203675592
 11
1.7239138601
 21
23.1805683633
  0
LINE
  5
278
100
AcDbEntity
  8
RACCORDO
100
AcDbLine
 62
7
  6
CONTINUOUS
 10
2.7564349621
 20
23.6146434728
 11
1.7758353039
 21
23.1243436437
  0
LINE
  5
279
100
AcDbEntity
  8
0
100
AcDbLine
 62
7
  6
CONTINUOUS
 10
-4.6498386839
 20
19.1468504474
 11
-4.2862705513
 21
19.3286345137
  0
LINE
  5
27A
100
AcDbEntity
  8
DRAFT
100
AcDbLine
 62
7
  6
CONTINUOUS
 10
-5.8067733595
 20
18.4106279953
 11
-4.9836167187
 21
18.8205776298
  0
LINE
  5
27B
100
AcDbEntity
  8
DRAFT
100
AcDbLine
 62
7
  6
CONTINUOUS
 10
-3.8014781986
 20
19.4093079276
 11
-2.6254024793
 21
19.9950188207
  0
LINE
  5
27C
100
AcDbEntity
  8
RACCORDO
100
AcDbLine
 62
250
  6
CONTINUOUS
 10
10.9111033686
 20
25.2337363193
 11
2.4341227695
 21
21.0120184519
  0
LINE
  5
27D
100
AcDbEntity
  8
RACCORDO
100
AcDbLine
 62
250
  6
CONTINUOUS
 10
11.1232273256
 20
24.8678766124
 11
2.4590603803
 21
20.552935936
  0
LINE
  5
27E
100
AcDbEntity
  8
RACCORDO
100
AcDbLine
 62
7
  6
CONTINUOUS
 10
10.4319041975
 20
25.4733359049
 11
6.0680892224
 21
23.3162076301
  0
LINE
  5
27F
100
AcDbEntity
  8
RACCORDO
100
AcDbLine
 62
7
  6
CONTINUOUS
 10
0.3706194625
 20
20.23965515
 11
-0.6802092515
 21
19.7278529891
  0
LINE
  5
280
100
AcDbEntity
  8
RACCORDO
100
AcDbLine
 62
7
  6
CONTINUOUS
 10
-4.6585613279
 20
17.7902116187
 11
-5.5871852898
 21
17.3379288214
  0
LINE
  5
281
100
AcDbEntity
  8
RACCORDO
100
AcDbLine
 62
7
  6
CONTINUOUS
 10
-5.5871852898
 20
16.6884097685
 11
-4.0005181332
 21
17.4611900214
  0
LINE
  5
282
100
AcDbEntity
  8
RACCORDO
100
AcDbLine
 62
7
  6
CONTINUOUS
 10
-2.0121662801
 20
18.4296092904
 11
-1.5978831879
 21
18.6313843075
  0
LWPOLYLINE
  5
283
100
AcDbEntity
  8
0
100
AcDbPolyline
 62
7
  6
CONTINUOUS
 90
10
 70
0
 10
-4.2862705513
 20
19.3286345137
 10
-4.26896125
 20
19.33691613
 10
-4.2517149334
 20
19.3444323134
 10
-4.2345316016
 20
19.3511830641
 10
-4.2173904897
 20
19.3571747363
 10
-4.2003123625
 20
19.3624009757
 10
-4.1833595148
 20
19.3668427189
 10
-4.1665527113
 20
19.3704936114
 10
-4.1498711873
 20
19.3733600077
 10
-4.1333149427
 20
19.3754419078
  0
LINE
  5
284
100
AcDbEntity
  8
RACCORDO
100
AcDbLine
 62
250
  6
CONTINUOUS
 10
1.7239138601
 20
23.1805683633
 11
1.6770294005
 21
23.1582696569
  0
LWPOLYLINE
  5
285
100
AcDbEntity
  8
0
100
AcDbPolyline
 62
7
  6
CONTINUOUS
 90
5
 70
0
 10
-15.4931802754
 20
6.8409363551
 10
-15.4117919667
 20
6.9196458227
 10
-15.329507724
 20
6.9828615513
 10
-15.2414801239
 20
7.0359215283
 10
-15.2239460067
 20
7.0449299379
  0
LWPOLYLINE
  5
286
100
AcDbEntity
  8
RACCORDO
100
AcDbPolyline
 62
250
  6
CONTINUOUS
 90
7
 70
0
 10
11.1232273256
 20
24.8678766124
 10
11.1487114849
 20
24.8826536548
 10
11.1701437632
 20
24.898959664
 10
11.187161506
 20
24.9165187268
 10
11.1994767567
 20
24.9350337268
 10
11.2068811294
 20
24.9541913726
 10
11.2092521909
 20
24.973013002
  0
LINE
  5
287
100
AcDbEntity
  8
RACCORDO
100
AcDbLine
 62
7
  6
CONTINUOUS
 10
-3.8284717835
 20
15.8409443067
 11
-3.4701587521
 21
16.0248006415
  0
LINE
  5
288
100
AcDbEntity
  8
RACCORDO
100
AcDbLine
 62
7
  6
CONTINUOUS
 10
-0.125457386
 20
17.7410221581
 11
0.5304239907
 21
18.0775657259
  0
LINE
  5
289
100
AcDbEntity
  8
RACCORDO
100
AcDbLine
 62
7
  6
CONTINUOUS
 10
4.2935481893
 20
18.9117653154
 11
4.8148037415
 21
19.1713617427
  0
LWPOLYLINE
  5
28A
100
AcDbEntity
  8
DRAFT
100
AcDbPolyline
 62
7
  6
CONTINUOUS
 90
6
 70
0
 10
-4.8168238659
 20
-15.7227323551
 10
-4.289079038
 20
-15.9739435574
 10
-3.7637024823
 20
-16.1991550098
 10
-3.2406941988
 20
-16.3983667125
 10
-2.7192754391
 20
-16.5717998646
 10
-2.3889341553
 20
-16.6656314678
  0
LINE
  5
28B
100
AcDbEntity
  8
0
100
AcDbLine
 62
7
  6
CONTINUOUS
 10
-15.2239460067
 20
7.0449299379
 11
-10.4663123224
 21
9.4237467801
  0
LINE
  5
28C
100
AcDbEntity
  8
RACCORDO
100
AcDbLine
 62
250
  6
CONTINUOUS
 10
1.738183278
 20
14.4337300525
 11
1.8962925413
 21
14.5127846842
  0
LINE
  5
28D
100
AcDbEntity
  8
0
100
AcDbLine
 62
7
  6
CONTINUOUS
 10
3.8354426903
 20
14.9042097603
 11
4.199010823
 21
15.0859938266
  0
LINE
  5
28E
100
AcDbEntity
  8
RACCORDO
100
AcDbLine
 62
7
  6
CONTINUOUS
 10
11.1232273256
 20
20.6792909306
 11
6.5257511358
 21
18.389649336
  0
LWPOLYLINE
  5
28F
100
AcDbEntity
  8
0
100
AcDbPolyline
 62
7
  6
CONTINUOUS
 90
10
 70
0
 10
4.199010823
 20
15.0859938266
 10
4.2163201243
 20
15.0942754428
 10
4.2335664408
 20
15.1017916263
 10
4.2507497726
 20
15.1085423769
 10
4.2678908845
 20
15.1145340492
 10
4.2849690117
 20
15.1197602886
 10
4.3019218595
 20
15.1242020318
 10
4.3187286629
 20
15.1278529243
 10
4.3354101869
 20
15.1307193206
 10
4.3519664315
 20
15.1328012207
  0
LWPOLYLINE
  5
290
100
AcDbEntity
  8
0
100
AcDbPolyline
 62
7
  6
CONTINUOUS
 90
10
 70
0
 10
4.199010823
 20
14.739583665
 10
4.2064290949
 20
14.7431329292
 10
4.2138203735
 20
14.7463541506
 10
4.2211846585
 20
14.7492473295
 10
4.2285308493
 20
14.751815189
 10
4.2358500467
 20
14.7540550059
 10
4.2431155529
 20
14.7559586101
 10
4.2503184687
 20
14.7575232784
 10
4.2574676932
 20
14.7587517339
 10
4.2645632266
 20
14.7596439768
  0
LWPOLYLINE
  5
291
100
AcDbEntity
  8
0
100
AcDbPolyline
 62
7
  6
CONTINUOUS
 90
11
 70
0
 10
-15.2239460067
 20
7.0449299379
 10
-15.1481380282
 20
7.078567251
 10
-15.0499361901
 20
7.1105909536
 10
-14.947353039
 20
7.1318366198
 10
-14.8408883499
 20
7.1422007429
 10
-14.7310608079
 20
7.1416328299
 10
-14.6184054818
 20
7.1301356477
 10
-14.503471217
 20
7.1077652094
 10
-14.3868179618
 20
7.0746305015
 10
-14.269014039
 20
7.0308929529
 10
-14.1506333775
 20
6.9767656486
  0
LWPOLYLINE
  5
292
100
AcDbEntity
  8
RACCORDO
100
AcDbPolyline
 62
7
  6
CONTINUOUS
 90
12
 70
0
 10
1.7896333152
 20
14.5270828453
 10
1.797121114
 20
14.5303252438
 10
1.8043864116
 20
14.5326188007
 10
1.8119394926
 20
14.534201662
 10
1.8197771048
 20
14.5350818594
 10
1.8278100043
 20
14.5352493702
 10
1.8360404232
 20
14.5346960484
 10
1.8444661294
 20
14.5334300402
 10
1.8529911825
 20
14.531465761
 10
1.8615836025
 20
14.528808016
 10
1.8702753694
 20
14.5254520001
 10
1.8790664832
 20
14.5213977132
  0
LWPOLYLINE
  5
293
100
AcDbEntity
  8
RACCORDO
100
AcDbPolyline
 62
250
  6
CONTINUOUS
 90
13
 70
0
 10
-0.4653915145
 20
-26.4095495584
 10
-0.4201485174
 20
-26.4941281655
 10
-0.3716221072
 20
-26.575452117
 10
-0.3198996712
 20
-26.6531902115
 10
-0.2646943737
 20
-26.7274012709
 10
-0.2065045188
 20
-26.7974082832
 10
-0.1467574828
 20
-26.8619438894
 10
-0.0860713
 20
-26.9206626488
 10
-0.0244367032
 20
-26.9738133419
 10
0.0375180764
 20
-27.0212175474
 10
0.0994401701
 20
-27.0628864802
 10
0.1610957445
 20
-27.0989159283
 10
0.1908242192
 20
-27.1143912515
  0
LWPOLYLINE
  5
294
100
AcDbEntity
  8
0
100
AcDbPolyline
 62
250
  6
CONTINUOUS
 90
8
 70
0
 10
-10.2099285592
 20
3.5093335345
 10
-10.2130302889
 20
3.4923566451
 10
-10.2141775929
 20
3.4765655781
 10
-10.2133549556
 20
3.4621738807
 10
-10.2105735013
 20
3.4493761761
 10
-10.2058708441
 20
3.4383455315
 10
-10.1993105792
 20
3.4292311179
 10
-10.1946171205
 20
3.4248144194
  0
LWPOLYLINE
  5
295
100
AcDbEntity
  8
RACCORDO
100
AcDbPolyline
 62
250
  6
CONTINUOUS
 90
22
 70
0
 10
-9.2809319465
 20
2.3523057203
 10
-9.3246200702
 20
2.2060276825
 10
-9.3768325378
 20
2.0669578263
 10
-9.4369888731
 20
1.9366763397
 10
-9.5051810963
 20
1.8152808211
 10
-9.5813171873
 20
1.7026736722
 10
-9.6645406101
 20
1.6001422858
 10
-9.7549349608
 20
1.5078016818
 10
-9.8524166433
 20
1.4255368405
 10
-9.9558783337
 20
1.354290095
 10
-10.0653871002
 20
1.2941898155
 10
-10.1808758746
 20
1.2451076319
 10
-10.3010361281
 20
1.2076007675
 10
-10.425921748
 20
1.1818015637
 10
-10.555478847
 20
1.1675776791
 10
-10.6882372343
 20
1.165089313
 10
-10.8242526221
 20
1.1744805927
 10
-10.9634692982
 20
1.1956073908
 10
-11.1042499354
 20
1.2281975243
 10
-11.2460487582
 20
1.2721602653
 10
-11.3894115421
 20
1.3275863417
 10
-11.5343382871
 20
1.3944757534
  0
LINE
  5
296
100
AcDbEntity
  8
RACCORDO
100
AcDbLine
 62
7
  6
CONTINUOUS
 10
-3.9202033226
 20
7.7898768114
 11
-3.0406723502
 21
8.4405233265
  0
LWPOLYLINE
  5
297
100
AcDbEntity
  8
RACCORDO
100
AcDbPolyline
 62
7
  6
CONTINUOUS
 90
3
 70
0
 10
-5.0382362447
 20
6.9662793214
 10
-4.81296782
 20
7.131917813
 10
-3.9202033226
 20
7.7898768114
  0
LWPOLYLINE
  5
298
100
AcDbEntity
  8
RACCORDO
100
AcDbPolyline
 62
7
  6
CONTINUOUS
 90
10
 70
0
 10
-5.0382362447
 20
6.9662793214
 10
-5.0444441622
 20
6.961786855
 10
-5.0507468401
 20
6.9573600339
 10
-5.0571442785
 20
6.9529988583
 10
-5.0636363757
 20
6.9487039656
 10
-5.0702232332
 20
6.9444747184
 10
-5.0769051562
 20
6.9403092034
 10
-5.0836822463
 20
6.9362067831
 10
-5.0905544018
 20
6.9321680951
 10
-5.0975216228
 20
6.9281931394
  0
LWPOLYLINE
  5
299
100
AcDbEntity
  8
RACCORDO
100
AcDbPolyline
 62
7
  6
CONTINUOUS
 90
19
 70
0
 10
-5.0975216228
 20
6.9281931394
 10
-5.1591010237
 20
6.8915354613
 10
-5.2210458711
 20
6.8503281073
 10
-5.2829789429
 20
6.8049376073
 10
-5.34461157
 20
6.7557967266
 10
-5.4055346444
 20
6.7032814047
 10
-5.4652192109
 20
6.6477047125
 10
-5.5233871784
 20
6.5895246372
 10
-5.5797518331
 20
6.5291917528
 10
-5.6338048287
 20
6.4670223386
 10
-5.6853353165
 20
6.4034987248
 10
-5.7341415469
 20
6.3390873491
 10
-5.7797629863
 20
6.2740809364
 10
-5.8220607446
 20
6.2089581122
 10
-5.8609184425
 20
6.144175106
 10
-5.8959388966
 20
6.0799807675
 10
-5.9269510248
 20
6.0167523191
 10
-5.9540182738
 20
5.954992785
 10
-5.9771281713
 20
5.8951213465
  0
LINE
  5
29A
100
AcDbEntity
  8
RACCORDO
100
AcDbLine
 62
7
  6
CONTINUOUS
 10
9.1387435492
 20
15.8555931067
 11
3.425217267
 21
12.8724679632
  0
LINE
  5
29B
100
AcDbEntity
  8
RACCORDO
100
AcDbLine
 62
7
  6
CONTINUOUS
 10
11.5539812261
 20
16.3963862257
 11
4.119860799
 21
12.6583230268
  0
LINE
  5
29C
100
AcDbEntity
  8
RACCORDO
100
AcDbLine
 62
7
  6
CONTINUOUS
 10
10.8857896977
 20
16.7304819899
 11
9.1387435492
 21
15.8555931067
  0
LINE
  5
29D
100
AcDbEntity
  8
RACCORDO
100
AcDbLine
 62
7
  6
CONTINUOUS
 10
4.7275716087
 20
12.3544676219
 11
4.6026907657
 21
12.2919295709
  0
LINE
  5
29E
100
AcDbEntity
  8
0
100
AcDbLine
 62
7
  6
CONTINUOUS
 10
3.8354426903
 20
14.5577995987
 11
4.199010823
 21
14.739583665
  0
LINE
  5
29F
100
AcDbEntity
  8
RACCORDO
100
AcDbLine
 62
250
  6
CONTINUOUS
 10
4.4333944246
 20
14.7768742589
 11
3.682806433
 21
14.401580263
  0
LINE
  5
2A0
100
AcDbEntity
  8
0
100
AcDbLine
 62
250
  6
CONTINUOUS
 10
3.623310656
 20
14.1919259604
 11
3.3404679435
 21
14.0505046042
  0
LINE
  5
2A1
100
AcDbEntity
  8
0
100
AcDbLine
 62
7
  6
CONTINUOUS
 10
3.623310656
 20
13.9321183393
 11
3.3404679435
 21
13.7906969831
  0
LINE
  5
2A2
100
AcDbEntity
  8
RACCORDO
100
AcDbLine
 62
7
  6
CONTINUOUS
 10
1.6901559324
 20
13.0816304488
 11
3.231179272
 21
13.8453413188
  0
LINE
  5
2A3
100
AcDbEntity
  8
RACCORDO
100
AcDbLine
 62
7
  6
CONTINUOUS
 10
3.623310656
 20
14.0396764679
 11
5.2865198964
 21
14.863941061
  0
LINE
  5
2A4
100
AcDbEntity
  8
RACCORDO
100
AcDbLine
 62
250
  6
CONTINUOUS
 10
18.8057821993
 20
-10.4993693401
 11
18.7840467904
 21
-10.4973085623
  0
LINE
  5
2A5
100
AcDbEntity
  8
RACCORDO
100
AcDbLine
 62
250
  6
CONTINUOUS
 10
-13.0033010531
 20
2.7631583629
 11
-13.0157622717
 21
2.7824586594
  0
LWPOLYLINE
  5
2A6
100
AcDbEntity
  8
0
100
AcDbPolyline
 62
250
  6
CONTINUOUS
 90
11
 70
0
 10
-9.4646354654
 20
3.1366869876
 10
-9.4596212556
 20
3.1156521411
 10
-9.4527623763
 20
3.0958579908
 10
-9.444151581
 20
3.0775722186
 10
-9.4339053155
 20
3.0610421089
 10
-9.4221621419
 20
3.0464912031
 10
-9.4090808648
 20
3.034116277
 10
-9.394838385
 20
3.0240846816
 10
-9.3796273071
 20
3.0165320785
 10
-9.3636533334
 20
3.0115606053
 10
-9.3600892869
 20
3.0108265049
  0
LINE
  5
2A7
100
AcDbEntity
  8
RACCORDO
100
AcDbLine
 62
7
  6
CONTINUOUS
 10
-6.8895355465
 20
17.6127340637
 11
-6.8895355465
 21
16.9632150108
  0
LINE
  5
2A8
100
AcDbEntity
  8
DRAFT
100
AcDbLine
 62
7
  6
CONTINUOUS
 10
-5.8067733595
 20
18.4106279953
 11
-5.8067733595
 21
18.392380638
  0
LINE
  5
2A9
100
AcDbEntity
  8
RACCORDO
100
AcDbLine
 62
250
  6
CONTINUOUS
 10
-5.5871852898
 20
17.3379288214
 11
-5.5871852898
 21
16.6884097685
  0
LWPOLYLINE
  5
2AA
100
AcDbEntity
  8
0
100
AcDbPolyline
 62
7
  6
CONTINUOUS
 90
19
 70
0
 10
-5.1448134307
 20
18.2931452913
 10
-5.1428117379
 20
18.3476344318
 10
-5.137189786
 20
18.4027456436
 10
-5.1279475752
 20
18.4584789267
 10
-5.1149602976
 20
18.5152657163
 10
-5.0983527609
 20
18.5726745772
 10
-5.0784993889
 20
18.6294112036
 10
-5.0553264487
 20
18.6854603248
 10
-5.028907673
 20
18.7408372116
 10
-4.9998386839
 20
18.7942933697
 10
-4.9680592787
 20
18.8457851677
 10
-4.93362966
 20
18.895356237
 10
-4.8973260573
 20
18.941888978
 10
-4.8591059011
 20
18.9853143717
 10
-4.8190117609
 20
19.0257014371
 10
-4.7779475752
 20
19.0621396317
 10
-4.7362146569
 20
19.0943254411
 10
-4.6935116931
 20
19.1225623797
 10
-4.6498386839
 20
19.1468504474
  0
LINE
  5
2AB
100
AcDbEntity
  8
RACCORDO
100
AcDbLine
 62
250
  6
CONTINUOUS
 10
-2.7475720285
 20
18.8782885535
 11
-2.764257062
 21
18.8070538532
  0
LWPOLYLINE
  5
2AC
100
AcDbEntity
  8
RACCORDO
100
AcDbPolyline
 62
7
  6
CONTINUOUS
 90
12
 70
0
 10
-2.8008801132
 20
18.8531897688
 10
-2.8002187523
 20
18.8553239884
 10
-2.7984622635
 20
18.8587455998
 10
-2.7958740973
 20
18.8619459294
 10
-2.7924647726
 20
18.864927776
 10
-2.7882777765
 20
18.8676531051
 10
-2.7833031472
 20
18.8701186308
 10
-2.7775508466
 20
18.872327639
 10
-2.7710942471
 20
18.874251953
 10
-2.7639578063
 20
18.8758821807
 10
-2.7561170668
 20
18.8772277142
 10
-2.7475720285
 20
18.8782885535
  0
LWPOLYLINE
  5
2AD
100
AcDbEntity
  8
RACCORDO
100
AcDbPolyline
 62
7
  6
CONTINUOUS
 90
24
 70
0
 10
-9.9154140818
 20
1.928073428
 10
-9.8371958704
 20
1.9744975478
 10
-9.7651923216
 20
2.0297394902
 10
-9.6991601589
 20
2.0932602437
 10
-9.6393287294
 20
2.1639779257
 10
-9.5853104717
 20
2.241425985
 10
-9.5362927661
 20
2.32624901
 10
-9.4924305322
 20
2.4180095547
 10
-9.4540001472
 20
2.5158590477
 10
-9.4207139265
 20
2.6204633279
 10
-9.3927707326
 20
2.7315495186
 10
-9.3704460836
 20
2.8483436194
 10
-9.353778384
 20
2.9712227896
 10
-9.3429801176
 20
3.0999511856
 10
-9.3382713501
 20
3.2337955062
 10
-9.3398051332
 20
3.3726018309
 10
-9.3477428702
 20
3.5159941353
 10
-9.3621976568
 20
3.6632934811
 10
-9.3832452837
 20
3.8139543993
 10
-9.4109361006
 20
3.9674619551
 10
-9.445263997
 20
4.123163452
 10
-9.4861564854
 20
4.2803210083
 10
-9.5335203853
 20
4.4382999145
 10
-9.5582752154
 20
4.5112021876
  0
LWPOLYLINE
  5
2AE
100
AcDbEntity
  8
RACCORDO
100
AcDbPolyline
 62
250
  6
CONTINUOUS
 90
16
 70
0
 10
2.8452777533
 20
8.9172943828
 10
2.8272524293
 20
8.9070757644
 10
2.8093253994
 20
8.8946362518
 10
2.7916903711
 20
8.8800728703
 10
2.7745318276
 20
8.8634971422
 10
2.7580577031
 20
8.8450674882
 10
2.7424913015
 20
8.8249995669
 10
2.7280002965
 20
8.8034773788
 10
2.7147729617
 20
8.7807457282
 10
2.7030241487
 20
8.7571653223
 10
2.6928979385
 20
8.733056494
 10
2.6844699604
 20
8.7086352277
 10
2.6778138428
 20
8.6841258541
 10
2.6730015388
 20
8.6597829447
 10
2.6700918694
 20
8.6358896748
 10
2.6691181238
 20
8.6127095361
  0
LWPOLYLINE
  5
2AF
100
AcDbEntity
  8
0
100
AcDbPolyline
 62
7
  6
CONTINUOUS
 90
37
 70
0
 10
-13.0773207483
 20
2.7516794211
 10
-13.0597866311
 20
2.7606878307
 10
-12.9717590311
 20
2.8137478078
 10
-12.8894747883
 20
2.8769635364
 10
-12.8133347835
 20
2.9500270359
 10
-12.7437099629
 20
3.0325823482
 10
-12.6809395319
 20
3.1242272722
 10
-12.6253293015
 20
3.2245153229
 10
-12.5771501992
 20
3.3329579072
 10
-12.5366369488
 20
3.4490267036
 10
-12.5039869268
 20
3.5721562366
 10
-12.4793592008
 20
3.7017466315
 10
-12.4628737545
 20
3.837166537
 10
-12.4546109035
 20
3.9777562008
 10
-12.4546109035
 20
4.1228306843
 10
-12.4628737545
 20
4.2716831991
 10
-12.4793592008
 20
4.4235885508
 10
-12.5039869268
 20
4.5778066717
 10
-12.5366369488
 20
4.7335862268
 10
-12.5771501992
 20
4.8901682735
 10
-12.6253293015
 20
5.0467899601
 10
-12.6809395319
 20
5.2026882412
 10
-12.7437099629
 20
5.3571035963
 10
-12.8133347835
 20
5.5092837291
 10
-12.8894747883
 20
5.6584872335
 10
-12.9717590311
 20
5.8039872048
 10
-13.0597866311
 20
5.9450747819
 10
-13.1531287269
 20
6.0810626003
 10
-13.251330565
 20
6.211288141
 10
-13.353913716
 20
6.3351169583
 10
-13.4603784052
 20
6.4519457706
 10
-13.5702059472
 20
6.5612053996
 10
-13.6828612733
 20
6.6623635435
 10
-13.797795538
 20
6.7549273699
 10
-13.9144487933
 20
6.8384459172
 10
-14.032252716
 20
6.9125122914
 10
-14.1506333775
 20
6.9767656486
  0
LINE
  5
2B0
100
AcDbEntity
  8
DRAFT
100
AcDbLine
 62
7
  6
CONTINUOUS
 10
6.9623443079
 20
10.9105789096
 11
13.0802932982
 21
14.0134342539
  0
LINE
  5
2B1
100
AcDbEntity
  8
RACCORDO
100
AcDbLine
 62
7
  6
CONTINUOUS
 10
4.6026907657
 20
11.642410518
 11
4.7275716087
 21
11.7049485691
  0
LINE
  5
2B2
100
AcDbEntity
  8
0
100
AcDbLine
 62
7
  6
CONTINUOUS
 10
-13.0773207483
 20
2.7516794211
 11
-7.2395512082
 21
5.6705641912
  0
LWPOLYLINE
  5
2B3
100
AcDbEntity
  8
RACCORDO
100
AcDbPolyline
 62
250
  6
CONTINUOUS
 90
13
 70
0
 10
-9.9154140818
 20
1.928073428
 10
-9.936806425
 20
1.9173851622
 10
-10.0345747222
 20
1.8758451637
 10
-10.1367026631
 20
1.8440278847
 10
-10.2428027779
 20
1.8220540217
 10
-10.3524726478
 20
1.8100069013
 10
-10.4652962673
 20
1.8079322157
 10
-10.5808456616
 20
1.8158378311
 10
-10.6986825096
 20
1.8336937552
 10
-10.8183598176
 20
1.8614322507
 10
-10.9394236103
 20
1.898948093
 10
-11.0614146526
 20
1.9460989684
 10
-11.1838701928
 20
2.0027060147
  0
LINE
  5
2B4
100
AcDbEntity
  8
DRAFT
100
AcDbLine
 62
7
  6
CONTINUOUS
 10
6.6941177626
 20
11.373201268
 11
13.0802932982
 21
14.5553440811
  0
LINE
  5
2B5
100
AcDbEntity
  8
RACCORDO
100
AcDbLine
 62
250
  6
CONTINUOUS
 10
18.5719228322
 20
16.9549431773
 11
13.9744466424
 21
14.6653015827
  0
LINE
  5
2B6
100
AcDbEntity
  8
RACCORDO
100
AcDbLine
 62
250
  6
CONTINUOUS
 10
18.7840467893
 20
16.5890834703
 11
14.446883379
 21
14.4290832144
  0
LINE
  5
2B7
100
AcDbEntity
  8
RACCORDO
100
AcDbLine
 62
250
  6
CONTINUOUS
 10
2.8452777533
 20
8.9172943828
 11
6.5906076492
 21
10.7734305488
  0
LINE
  5
2B8
100
AcDbEntity
  8
RACCORDO
100
AcDbLine
 62
250
  6
CONTINUOUS
 10
3.0211221352
 20
8.6119415776
 11
6.7673856908
 21
10.4685404531
  0
LINE
  5
2B9
100
AcDbEntity
  8
DRAFT
100
AcDbLine
 62
7
  6
CONTINUOUS
 10
13.5449480814
 20
13.6450684567
 11
7.2039914143
 21
10.5196049624
  0
LINE
  5
2BA
100
AcDbEntity
  8
0
100
AcDbLine
 62
7
  6
CONTINUOUS
 10
7.0343570012
 20
10.7863753861
 11
7.366625974
 21
10.9489585197
  0
LWPOLYLINE
  5
2BB
100
AcDbEntity
  8
RACCORDO
100
AcDbPolyline
 62
250
  6
CONTINUOUS
 90
16
 70
0
 10
3.0211221352
 20
8.6119415776
 10
3.0020900261
 20
8.6034978616
 10
2.9813236074
 20
8.5960276176
 10
2.9590156053
 20
8.5896262643
 10
2.9353648574
 20
8.5843769428
 10
2.9106218669
 20
8.5803601419
 10
2.8850923653
 20
8.5776438919
 10
2.859023254
 20
8.5762703586
 10
2.8327232071
 20
8.5762714957
 10
2.8066107814
 20
8.5776507651
 10
2.7810296202
 20
8.5803786786
 10
2.7561980658
 20
8.5844204519
 10
2.732340276
 20
8.5897365734
 10
2.7097039881
 20
8.5962741537
 10
2.6885524767
 20
8.6039595966
 10
2.6691181238
 20
8.6127095361
  0
LWPOLYLINE
  5
2BC
100
AcDbEntity
  8
DRAFT
100
AcDbPolyline
 62
7
  6
CONTINUOUS
 90
12
 70
0
 10
-11.6691967608
 20
3.4557414149
 10
-11.6191844815
 20
3.3844733995
 10
-11.5173965922
 20
3.2508793384
 10
-11.4118405813
 20
3.1234904056
 10
-11.3024332749
 20
3.0020680711
 10
-11.1902369153
 20
2.8877788882
 10
-11.0751216947
 20
2.7805961659
 10
-10.9572174209
 20
2.6805465952
 10
-10.8379757595
 20
2.5888768025
 10
-10.7178805991
 20
2.50600233
 10
-10.596448051
 20
2.4315076354
 10
-10.4736781154
 20
2.3653927188
  0
LWPOLYLINE
  5
2BD
100
AcDbEntity
  8
0
100
AcDbPolyline
 62
250
  6
CONTINUOUS
 90
11
 70
0
 10
-10.6244959041
 20
3.9780918432
 10
-10.6083353487
 20
3.9534768081
 10
-10.5733684328
 20
3.903247929
 10
-10.5367002105
 20
3.853568163
 10
-10.497707013
 20
3.8040331191
 10
-10.4564161271
 20
3.7544756293
 10
-10.4128658917
 20
3.7050510573
 10
-10.3664594754
 20
3.6558321752
 10
-10.3170337021
 20
3.606830395
 10
-10.2648431547
 20
3.5580027379
 10
-10.2099285592
 20
3.5093335345
  0
LWPOLYLINE
  5
2BE
100
AcDbEntity
  8
0
100
AcDbPolyline
 62
7
  6
CONTINUOUS
 90
8
 70
0
 10
-10.6776460588
 20
3.9515167659
 10
-10.6679305608
 20
3.9364773193
 10
-10.595159284
 20
3.8361474737
 10
-10.5170919733
 20
3.739617895
 10
-10.4341883465
 20
3.6472240909
 10
-10.3469047044
 20
3.5592816371
 10
-10.2557516569
 20
3.4761467997
 10
-10.1945741122
 20
3.4247795239
  0
LWPOLYLINE
  5
2BF
100
AcDbEntity
  8
RACCORDO
100
AcDbPolyline
 62
250
  6
CONTINUOUS
 90
14
 70
0
 10
-9.4609038327
 20
4.5598878789
 10
-9.4369890151
 20
4.4933998828
 10
-9.3768339445
 20
4.3029666557
 10
-9.3246224006
 20
4.1116890097
 10
-9.2809347412
 20
3.9217265906
 10
-9.2458672694
 20
3.7330986284
 10
-9.2193236821
 20
3.5457858931
 10
-9.2015954281
 20
3.3618903405
 10
-9.1927796145
 20
3.1814524764
 10
-9.1927791342
 20
3.0044317949
 10
-9.2015941146
 20
2.8328087348
 10
-9.2193216368
 20
2.6666399219
 10
-9.2458646197
 20
2.5058687304
 10
-9.2809319465
 20
2.3523057203
  0
LINE
  5
2C0
100
AcDbEntity
  8
0
100
AcDbLine
 62
7
  6
CONTINUOUS
 10
-5.1448134307
 20
18.0333376702
 11
-5.1448134307
 21
18.2931452913
  0
LINE
  5
2C1
100
AcDbEntity
  8
RACCORDO
100
AcDbLine
 62
250
  6
CONTINUOUS
 10
-0.7973263438
 20
19.0773233506
 11
-0.8847295487
 21
18.7041661067
  0
LINE
  5
2C2
100
AcDbEntity
  8
RACCORDO
100
AcDbLine
 62
250
  6
CONTINUOUS
 10
-0.5214052852
 20
19.0203392102
 11
-0.6088084901
 21
18.6471819664
  0
LINE
  5
2C3
100
AcDbEntity
  8
RACCORDO
100
AcDbLine
 62
250
  6
CONTINUOUS
 10
1.5292043802
 20
17.9950343775
 11
1.5087731207
 21
17.9078056254
  0
LINE
  5
2C4
100
AcDbEntity
  8
RACCORDO
100
AcDbLine
 62
250
  6
CONTINUOUS
 10
1.2829366242
 20
16.8630342271
 11
1.2662515908
 21
16.7917995269
  0
LWPOLYLINE
  5
2C5
100
AcDbEntity
  8
RACCORDO
100
AcDbPolyline
 62
7
  6
CONTINUOUS
 90
3
 70
0
 10
1.7196050349
 20
23.1423711434
 10
1.7218196479
 20
23.1515923499
 10
1.7239138601
 20
23.1805683633
  0
LWPOLYLINE
  5
2C6
100
AcDbEntity
  8
RACCORDO
100
AcDbPolyline
 62
7
  6
CONTINUOUS
 90
12
 70
0
 10
1.2296285395
 20
16.8379354424
 10
1.2302899004
 20
16.8400696621
 10
1.2320463892
 20
16.8434912734
 10
1.2346345554
 20
16.846691603
 10
1.2380438801
 20
16.8496734496
 10
1.2422308762
 20
16.8523987787
 10
1.2472055055
 20
16.8548643044
 10
1.2529578062
 20
16.8570733126
 10
1.2594144057
 20
16.8589976266
 10
1.2665508464
 20
16.8606278543
 10
1.2743915859
 20
16.8619733878
 10
1.2829366242
 20
16.8630342271
  0
LWPOLYLINE
  5
2C7
100
AcDbEntity
  8
RACCORDO
100
AcDbPolyline
 62
7
  6
CONTINUOUS
 90
12
 70
0
 10
1.5894341188
 20
17.9356959464
 10
1.5887727579
 20
17.9335617267
 10
1.5870162691
 20
17.9301401154
 10
1.5844281029
 20
17.9269397858
 10
1.5810187782
 20
17.9239579392
 10
1.5768317821
 20
17.9212326101
 10
1.5718571528
 20
17.9187670844
 10
1.5661048521
 20
17.9165580762
 10
1.5596482526
 20
17.9146337622
 10
1.5525118119
 20
17.9130035345
 10
1.5446710724
 20
17.911658001
 10
1.5361260341
 20
17.9105971616
  0
LINE
  5
2C8
100
AcDbEntity
  8
RACCORDO
100
AcDbLine
 62
7
  6
CONTINUOUS
 10
3.1866945877
 20
13.8232952952
 11
3.2112369388
 21
13.8656245894
  0
LINE
  5
2C9
100
AcDbEntity
  8
RACCORDO
100
AcDbLine
 62
250
  6
CONTINUOUS
 10
0.7735358689
 20
4.0629880348
 11
3.024348677
 21
5.4080128129
  0
LINE
  5
2CA
100
AcDbEntity
  8
RACCORDO
100
AcDbLine
 62
250
  6
CONTINUOUS
 10
0.9639033618
 20
3.7656106324
 11
3.2009976479
 21
5.1025202541
  0
LWPOLYLINE
  5
2CB
100
AcDbEntity
  8
RACCORDO
100
AcDbPolyline
 62
250
  6
CONTINUOUS
 90
7
 70
0
 10
0.7735358689
 20
4.0629880348
 10
0.7626440077
 20
4.0566061925
 10
0.751584951
 20
4.0503508144
 10
0.7403586986
 20
4.0442219005
 10
0.7289652507
 20
4.0382194508
 10
0.7174046072
 20
4.0323434653
 10
0.7056767682
 20
4.0265939439
  0
LWPOLYLINE
  5
2CC
100
AcDbEntity
  8
RACCORDO
100
AcDbPolyline
 62
250
  6
CONTINUOUS
 90
22
 70
0
 10
0.7056767682
 20
4.0265939439
 10
0.6590534023
 20
4.0021805674
 10
0.6103004325
 20
3.9755526182
 10
0.5595851389
 20
3.9467172507
 10
0.5072016557
 20
3.9157382316
 10
0.4532139845
 20
3.8826280994
 10
0.3974713963
 20
3.8473050242
 10
0.340149444
 20
3.8097945395
 10
0.2815240268
 20
3.7701860804
 10
0.2216403803
 20
3.7284721764
 10
0.1606447633
 20
3.6847272013
 10
0.098944998
 20
3.6391279031
 10
0.0370017379
 20
3.5918569722
 10
-0.0249433489
 20
3.5431862621
 10
-0.086550346
 20
3.4933273652
 10
-0.1472139312
 20
3.4424335928
 10
-0.206970316
 20
3.3906639861
 10
-0.2651690998
 20
3.3385647458
 10
-0.3203251275
 20
3.2869246379
 10
-0.3719339682
 20
3.2362813565
 10
-0.4203144937
 20
3.1869201893
 10
-0.4653913613
 20
3.1392529415
  0
LINE
  5
2CD
100
AcDbEntity
  8
DRAFT
100
AcDbLine
 62
7
  6
CONTINUOUS
 10
14.5023644921
 20
11.9937694125
 11
8.193940908
 21
8.8121946502
  0
LINE
  5
2CE
100
AcDbEntity
  8
RACCORDO
100
AcDbLine
 62
250
  6
CONTINUOUS
 10
14.5023644921
 20
11.9491225867
 11
16.8855385869
 21
13.13599432
  0
LINE
  5
2CF
100
AcDbEntity
  8
RACCORDO
100
AcDbLine
 62
250
  6
CONTINUOUS
 10
14.5023644921
 20
11.4776206066
 11
17.0976625439
 21
12.7701346131
  0
LINE
  5
2D0
100
AcDbEntity
  8
RACCORDO
100
AcDbLine
 62
7
  6
CONTINUOUS
 10
3.2009976479
 20
5.7527010293
 11
3.0211221352
 21
5.6643194423
  0
LINE
  5
2D1
100
AcDbEntity
  8
DRAFT
100
AcDbLine
 62
7
  6
CONTINUOUS
 10
6.7673856908
 20
8.0920180477
 11
8.193940908
 21
8.78638899
  0
LWPOLYLINE
  5
2D2
100
AcDbEntity
  8
RACCORDO
100
AcDbPolyline
 62
250
  6
CONTINUOUS
 90
7
 70
0
 10
0.8738005101
 20
3.7207392767
 10
0.889502151
 20
3.7278785105
 10
0.9049558725
 20
3.7351747991
 10
0.9201551197
 20
3.7426245107
 10
0.9350933363
 20
3.7502240101
 10
0.9497639644
 20
3.7579696582
 10
0.964160445
 20
3.7658578127
  0
LINE
  5
2D3
100
AcDbEntity
  8
RACCORDO
100
AcDbLine
 62
250
  6
CONTINUOUS
 10
0.6069029781
 20
3.6025496931
 11
0.8737941923
 21
3.7207433227
  0
LWPOLYLINE
  5
2D4
100
AcDbEntity
  8
RACCORDO
100
AcDbPolyline
 62
7
  6
CONTINUOUS
 90
16
 70
0
 10
3.0211221352
 20
5.6643194423
 10
3.0012304008
 20
5.6555795048
 10
2.9801345527
 20
5.648041847
 10
2.9578345911
 20
5.6417064688
 10
2.9340647347
 20
5.6365310874
 10
2.9090907647
 20
5.6325579856
 10
2.8837100242
 20
5.6299140126
 10
2.8579093864
 20
5.6286420599
 10
2.8317019781
 20
5.6286992359
 10
2.8059245222
 20
5.6300837153
 10
2.7805908935
 20
5.6328383306
 10
2.7556872173
 20
5.6369202492
 10
2.7320085923
 20
5.6421991479
 10
2.7098200515
 20
5.6486315855
 10
2.688856562
 20
5.6562610031
 10
2.6691181238
 20
5.6650874008
  0
LINE
  5
2D5
100
AcDbEntity
  8
RACCORDO
100
AcDbLine
 62
250
  6
CONTINUOUS
 10
0.2134285931
 20
3.43050551
 11
0.6069029781
 21
3.6025496931
  0
LINE
  5
2D6
100
AcDbEntity
  8
RACCORDO
100
AcDbLine
 62
250
  6
CONTINUOUS
 10
-0.1440800778
 20
3.276061449
 11
0.2134285931
 21
3.43050551
  0
LWPOLYLINE
  5
2D7
100
AcDbEntity
  8
RACCORDO
100
AcDbPolyline
 62
250
  6
CONTINUOUS
 90
3
 70
0
 10
-0.4653910208
 20
3.139253041
 10
-0.407374
 20
3.1637524259
 10
-0.1440800778
 20
3.276061449
  0
LWPOLYLINE
  5
2D8
100
AcDbEntity
  8
RACCORDO
100
AcDbPolyline
 62
250
  6
CONTINUOUS
 90
12
 70
0
 10
-11.1838701928
 20
2.0027060147
 10
-11.3063257341
 20
2.0685545093
 10
-11.4283167771
 20
2.1433946767
 10
-11.5493805699
 20
2.2269426273
 10
-11.6690578746
 20
2.3188814373
 10
-11.786894719
 20
2.4188623579
 10
-11.9024441173
 20
2.5265061402
 10
-12.0152677593
 20
2.6414044693
 10
-12.1249376576
 20
2.7631214944
 10
-12.2310377808
 20
2.8911954878
 10
-12.3331656953
 20
3.025140678
 10
-12.384398064
 20
3.0981407633
  0
LWPOLYLINE
  5
2D9
100
AcDbEntity
  8
RACCORDO
100
AcDbPolyline
 62
250
  6
CONTINUOUS
 90
12
 70
0
 10
-11.5343382871
 20
1.3944757534
 10
-11.679270428
 20
1.4725166451
 10
-11.8226373628
 20
1.5604563774
 10
-11.9644390914
 20
1.6582949506
 10
-12.1052210704
 20
1.7664873114
 10
-12.2444378432
 20
1.8845785129
 10
-12.3804530402
 20
2.0112037146
 10
-12.5132111818
 20
2.146451369
 10
-12.6427677475
 20
2.2902330236
 10
-12.7676528068
 20
2.4409184805
 10
-12.8878126832
 20
2.5985865205
 10
-13.0033010531
 20
2.7631583629
  0
LWPOLYLINE
  5
2DA
100
AcDbEntity
  8
0
100
AcDbPolyline
 62
250
  6
CONTINUOUS
 90
9
 70
0
 10
-10.1279338817
 20
3.4457177374
 10
-10.0455286954
 20
3.387551711
 10
-9.9627130003
 20
3.3348354552
 10
-9.87921134
 20
3.2874317891
 10
-9.7952991709
 20
3.2454778936
 10
-9.711802862
 20
3.2093853114
 10
-9.6289978696
 20
3.1792912235
 10
-9.5466087374
 20
3.1550584489
 10
-9.4646354654
 20
3.1366869876
  0
LWPOLYLINE
  5
2DB
100
AcDbEntity
  8
0
100
AcDbPolyline
 62
7
  6
CONTINUOUS
 90
10
 70
0
 10
-10.1946171205
 20
3.4248144194
 10
-10.104592441
 20
3.3549664577
 10
-10.013278889
 20
3.2906562549
 10
-9.9209003703
 20
3.2320703314
 10
-9.8275733149
 20
3.1793299161
 10
-9.7336397887
 20
3.1326819817
 10
-9.6396618812
 20
3.0924203346
 10
-9.5459773714
 20
3.058666062
 10
-9.4527081349
 20
3.0314456311
 10
-9.3600892869
 20
3.0108265049
  0
LINE
  5
2DC
100
AcDbEntity
  8
0
100
AcDbLine
 62
250
  6
CONTINUOUS
 10
-10.2099285592
 20
3.5093335345
 11
-10.1279338817
 21
3.4457177374
  0
LINE
  5
2DD
100
AcDbEntity
  8
0
100
AcDbLine
 62
7
  6
CONTINUOUS
 10
-10.1946171205
 20
3.4248144194
 11
-10.1945741122
 21
3.4247795239
  0
LWPOLYLINE
  5
2DE
100
AcDbEntity
  8
RACCORDO
100
AcDbPolyline
 62
250
  6
CONTINUOUS
 90
3
 70
0
 10
-3.6706768783
 20
-0.6148774723
 10
-3.3912277681
 20
-1.3246646194
 10
-3.1215555453
 20
-2.0554589649
  0
LWPOLYLINE
  5
2DF
100
AcDbEntity
  8
RACCORDO
100
AcDbPolyline
 62
250
  6
CONTINUOUS
 90
68
 70
0
 10
-3.1215555453
 20
-2.0554589649
 10
-2.8698808232
 20
-2.7909192915
 10
-2.6381386148
 20
-3.5282712496
 10
-2.4242844418
 20
-4.2702340247
 10
-2.2306420046
 20
-5.0087405908
 10
-2.0579880056
 20
-5.7413867343
 10
-1.9054885992
 20
-6.4705454334
 10
-1.773082959
 20
-7.195330205
 10
-1.660558474
 20
-7.9167117667
 10
-1.56806815
 20
-8.6336862228
 10
-1.4961186077
 20
-9.3424142806
 10
-1.4448375976
 20
-10.0426347873
 10
-1.4140712274
 20
-10.7345915459
 10
-1.4039326959
 20
-11.4152169277
 10
-1.4145069698
 20
-12.0844677774
 10
-1.4457091565
 20
-12.7423827456
 10
-1.4974245864
 20
-13.3860303744
 10
-1.5698049253
 20
-14.015515885
 10
-1.6627248764
 20
-14.6307429657
 10
-1.7756832673
 20
-15.2284926211
 10
-1.9085351668
 20
-15.8080168219
 10
-2.0614849715
 20
-16.370089957
 10
-2.2345746904
 20
-16.9137866578
 10
-2.4286480387
 20
-17.4406413779
 10
-2.6429189792
 20
-17.9491458546
 10
-2.8750166669
 20
-18.4338274373
 10
-3.1270007106
 20
-18.8954064607
 10
-3.3969217974
 20
-19.3332173396
 10
-3.6764683601
 20
-19.7397471604
 10
-3.9655318469
 20
-20.112217544
 10
-4.2644179114
 20
-20.4535093068
 10
-4.5654857841
 20
-20.7646250583
 10
-4.8684650943
 20
-21.0445292203
 10
-5.1738070284
 20
-21.2943530032
 10
-5.4749520546
 20
-21.518348991
 10
-5.77067996
 20
-21.7158697956
 10
-6.0623527439
 20
-21.8876387442
 10
-6.3472626893
 20
-22.0399531091
 10
-6.6236987936
 20
-22.1728949178
 10
-6.8934635579
 20
-22.2864315681
 10
-7.1590901486
 20
-22.3866725355
 10
-7.419989864
 20
-22.474476425
 10
-7.6767995585
 20
-22.5490107748
 10
-7.933867002
 20
-22.6138355484
 10
-8.1913388342
 20
-22.6697678729
 10
-8.4490931361
 20
-22.7160040812
 10
-8.7110617463
 20
-22.753665787
 10
-8.9788700408
 20
-22.7832209934
 10
-9.2509067864
 20
-22.8042094119
 10
-9.5262454527
 20
-22.8163583326
 10
-9.8049901598
 20
-22.8195702803
 10
-10.0870517319
 20
-22.813950934
 10
-10.3712145476
 20
-22.7995327973
 10
-10.6567591939
 20
-22.7763865482
 10
-10.9444189104
 20
-22.7444491346
 10
-11.2351567352
 20
-22.7035522955
 10
-11.5288392997
 20
-22.6538868105
 10
-11.8256106119
 20
-22.5952677877
 10
-12.1268489711
 20
-22.5269630182
 10
-12.4325380728
 20
-22.4491692379
 10
-12.7427025592
 20
-22.3616943378
 10
-13.0587818762
 20
-22.2632226938
 10
-13.3807731098
 20
-22.1539637252
 10
-13.7086855489
 20
-22.0337115581
 10
-14.043976919
 20
-21.9005276165
 10
-14.3871346027
 20
-21.7537665295
 10
-14.7376752177
 20
-21.5940758959
 10
-15.0955998001
 20
-21.421456293
  0
LINE
  5
2E0
100
AcDbEntity
  8
RACCORDO
100
AcDbLine
 62
7
  6
CONTINUOUS
 10
-3.5425287652
 20
17.0740860741
 11
-3.4442272215
 21
15.6488220257
  0
LWPOLYLINE
  5
2E1
100
AcDbEntity
  8
RACCORDO
100
AcDbPolyline
 62
250
  6
CONTINUOUS
 90
13
 70
0
 10
0.9639997776
 20
-27.0211130611
 10
0.8871006822
 20
-24.6799956939
 10
0.8232669378
 20
-22.2913178702
 10
0.7724985444
 20
-19.8550795903
 10
0.7341361943
 20
-17.368741173
 10
0.7088391952
 20
-14.8348422994
 10
0.6985854703
 20
-12.2610020121
 10
0.7037759702
 20
-9.6408725593
 10
0.7240097442
 20
-6.9808016927
 10
0.7600618633
 20
-4.3074517104
 10
0.8121906844
 20
-1.6297100452
 10
0.8801378506
 20
1.0613107358
 10
0.9639033618
 20
3.7656106324
  0
LWPOLYLINE
  5
2E2
100
AcDbEntity
  8
RACCORDO
100
AcDbPolyline
 62
250
  6
CONTINUOUS
 90
13
 70
0
 10
-0.4653920031
 20
-26.4095493141
 10
-0.5349868869
 20
-24.1645971508
 10
-0.5938689097
 20
-21.873113265
 10
-0.6414054693
 20
-19.5348499289
 10
-0.6770046642
 20
-17.1457306272
 10
-0.6999190151
 20
-14.7093278434
 10
-0.7094546433
 20
-12.236971002
 10
-0.7051108858
 20
-9.725214346
 10
-0.6863807763
 20
-7.1772271766
 10
-0.6531040622
 20
-4.6145437118
 10
-0.6053020809
 20
-2.0444606547
 10
-0.5427749934
 20
0.5401597524
 10
-0.4653937697
 20
3.1392541457
  0
LINE
  5
2E3
100
AcDbEntity
  8
RACCORDO
100
AcDbLine
 62
7
  6
CONTINUOUS
 10
0.3706194625
 20
19.8350966464
 11
0.3706194625
 21
20.23965515
  0
LWPOLYLINE
  5
2E4
100
AcDbEntity
  8
RACCORDO
100
AcDbPolyline
 62
7
  6
CONTINUOUS
 90
14
 70
0
 10
1.738183278
 20
14.4337300525
 10
1.7392270595
 20
14.4439043185
 10
1.7407897448
 20
14.453641392
 10
1.7428713339
 20
14.4629412729
 10
1.7454837116
 20
14.4718360625
 10
1.7486149932
 20
14.4802936595
 10
1.7522295238
 20
14.4882177605
 10
1.7563328269
 20
14.4956022676
 10
1.7609193792
 20
14.5024532788
 10
1.7659369551
 20
14.5086927841
 10
1.7713904813
 20
14.514313794
 10
1.7772750313
 20
14.519323298
 10
1.7835235998
 20
14.5236642548
 10
1.7896333152
 20
14.5270828453
  0
LINE
  5
2E5
100
AcDbEntity
  8
RACCORDO
100
AcDbLine
 62
250
  6
CONTINUOUS
 10
3.2331823089
 20
17.0620690242
 11
3.145779104
 21
16.6889117804
  0
LINE
  5
2E6
100
AcDbEntity
  8
RACCORDO
100
AcDbLine
 62
250
  6
CONTINUOUS
 10
3.5091033676
 20
17.0050848838
 11
3.4217001627
 21
16.63192764
  0
LWPOLYLINE
  5
2E7
100
AcDbEntity
  8
RACCORDO
100
AcDbPolyline
 62
250
  6
CONTINUOUS
 90
7
 70
0
 10
17.0976625439
 20
12.7701346131
 10
17.1226340013
 20
12.7845729789
 10
17.1438678222
 20
12.8005947805
 10
17.1609310435
 20
12.8179648792
 10
17.1734713092
 20
12.8364596279
 10
17.1811343555
 20
12.8557433677
 10
17.1836874091
 20
12.8752710027
  0
LWPOLYLINE
  5
2E8
100
AcDbEntity
  8
RACCORDO
100
AcDbPolyline
 62
250
  6
CONTINUOUS
 90
12
 70
0
 10
-29.8970308509
 20
-11.693729316
 10
-29.9475749482
 20
-11.7144922392
 10
-29.993253946
 20
-11.7326884388
 10
-30.0340620403
 20
-11.7483237918
 10
-30.0701792675
 20
-11.7614697431
 10
-30.1012425901
 20
-11.771988122
 10
-30.1266808251
 20
-11.7797023294
 10
-30.146517367
 20
-11.7846756887
 10
-30.1610306845
 20
-11.7870457936
 10
-30.1703457366
 20
-11.786908312
 10
-30.1746587924
 20
-11.7843859487
 10
-30.1750327211
 20
-11.7828889393
  0
LWPOLYLINE
  5
2E9
100
AcDbEntity
  8
DRAFT
100
AcDbPolyline
 62
7
  6
CONTINUOUS
 90
9
 70
0
 10
-10.4736781154
 20
2.3653927188
 10
-10.3509081797
 20
2.3087376998
 10
-10.2294756316
 20
2.2617998463
 10
-10.1093804712
 20
2.2245791584
 10
-9.9901388098
 20
2.1970072896
 10
-9.872234536
 20
2.1791525865
 10
-9.7571193154
 20
2.1712200882
 10
-9.6449229558
 20
2.1733129115
 10
-9.6318136645
 20
2.174752564
  0
LINE
  5
2EA
100
AcDbEntity
  8
0
100
AcDbLine
 62
250
  6
CONTINUOUS
 10
-9.4646354654
 20
3.1366869876
 11
-10.2099285592
 21
3.5093335345
  0
LINE
  5
2EB
100
AcDbEntity
  8
0
100
AcDbLine
 62
250
  6
CONTINUOUS
 10
-9.4630110937
 20
4.1913688965
 11
-9.8304764456
 21
4.3751015725
  0
LINE
  5
2EC
100
AcDbEntity
  8
0
100
AcDbLine
 62
7
  6
CONTINUOUS
 10
0.9184575084
 20
23.5506359151
 11
0.9196218777
 21
23.5343351114
  0
LWPOLYLINE
  5
2ED
100
AcDbEntity
  8
RACCORDO
100
AcDbPolyline
 62
250
  6
CONTINUOUS
 90
10
 70
0
 10
2.6691181238
 20
-29.8450899168
 10
2.6700918694
 20
-29.86729631
 10
2.6730015388
 20
-29.8882799104
 10
2.6778138428
 20
-29.9078105158
 10
2.6844699604
 20
-29.9256637718
 10
2.6928979385
 20
-29.94165706
 10
2.7030241487
 20
-29.9556396781
 10
2.7147729618
 20
-29.967471271
 10
2.7280002965
 20
-29.9769755868
 10
2.7340763511
 20
-29.9803008307
  0
LINE
  5
2EE
100
AcDbEntity
  8
DRAFT
100
AcDbLine
 62
250
  6
CONTINUOUS
 10
1.7239138601
 20
24.5229077392
 11
1.7239138601
 21
24.2459398746
  0
LINE
  5
2EF
100
AcDbEntity
  8
RACCORDO
100
AcDbLine
 62
7
  6
CONTINUOUS
 10
1.7239138601
 20
23.1805683633
 11
1.7239138601
 21
24.2459398746
  0
LINE
  5
2F0
100
AcDbEntity
  8
RACCORDO
100
AcDbLine
 62
7
  6
CONTINUOUS
 10
1.9445437712
 20
19.4526929957
 11
1.9445437712
 21
19.1332781061
  0
LINE
  5
2F1
100
AcDbEntity
  8
RACCORDO
100
AcDbLine
 62
7
  6
CONTINUOUS
 10
2.4590603803
 20
20.865624107
 11
2.4590603803
 21
20.3569644056
  0
LINE
  5
2F2
100
AcDbEntity
  8
RACCORDO
100
AcDbLine
 62
250
  6
CONTINUOUS
 10
2.6691181238
 20
8.6127095361
 11
2.6691181238
 21
5.6650874008
  0
LINE
  5
2F3
100
AcDbEntity
  8
RACCORDO
100
AcDbLine
 62
250
  6
CONTINUOUS
 10
2.6691181238
 20
-29.8450899168
 11
2.6691181238
 21
-26.8974677815
  0
LINE
  5
2F4
100
AcDbEntity
  8
RACCORDO
100
AcDbLine
 62
7
  6
CONTINUOUS
 10
2.8035122519
 20
24.6296942332
 11
2.8035122519
 21
23.7203675592
  0
LINE
  5
2F5
100
AcDbEntity
  8
RACCORDO
100
AcDbLine
 62
250
  6
CONTINUOUS
 10
3.0211221352
 20
8.6119415776
 11
3.0211221352
 21
5.6643194423
  0
LINE
  5
2F6
100
AcDbEntity
  8
RACCORDO
100
AcDbLine
 62
250
  6
CONTINUOUS
 10
3.0211221352
 20
-29.8458578753
 11
3.0211221352
 21
-26.89823574
  0
LINE
  5
2F7
100
AcDbEntity
  8
RACCORDO
100
AcDbLine
 62
7
  6
CONTINUOUS
 10
3.1931414391
 20
12.5835401152
 11
3.1931414391
 21
11.9340210624
  0
LINE
  5
2F8
100
AcDbEntity
  8
RACCORDO
100
AcDbLine
 62
7
  6
CONTINUOUS
 10
3.2009976479
 20
5.7527010293
 11
3.2009976479
 21
5.1025202541
  0
LINE
  5
2F9
100
AcDbEntity
  8
RACCORDO
100
AcDbLine
 62
7
  6
CONTINUOUS
 10
3.2009976479
 20
-26.1596733778
 11
3.2009976479
 21
-26.809854153
  0
LWPOLYLINE
  5
2FA
100
AcDbEntity
  8
0
100
AcDbPolyline
 62
7
  6
CONTINUOUS
 90
19
 70
0
 10
3.3404679435
 20
14.0505046042
 10
3.3424696364
 20
14.1049937447
 10
3.3480915882
 20
14.1601049565
 10
3.357333799
 20
14.2158382396
 10
3.3703210767
 20
14.2726250292
 10
3.3869286133
 20
14.3300338901
 10
3.4067819854
 20
14.3867705164
 10
3.4299549256
 20
14.4428196377
 10
3.4563737012
 20
14.4981965245
 10
3.4854426903
 20
14.5516526826
 10
3.5172220956
 20
14.6031444806
 10
3.5516517143
 20
14.6527155499
 10
3.5879553169
 20
14.6992482909
 10
3.6261754732
 20
14.7426736846
 10
3.6662696134
 20
14.78306075
 10
3.707333799
 20
14.8194989446
 10
3.7490667173
 20
14.851684754
 10
3.7917696811
 20
14.8799216926
 10
3.8354426903
 20
14.9042097603
  0
LWPOLYLINE
  5
2FB
100
AcDbEntity
  8
0
100
AcDbPolyline
 62
7
  6
CONTINUOUS
 90
16
 70
0
 10
3.623310656
 20
14.1919259604
 10
3.6245771883
 20
14.2201940891
 10
3.6280380152
 20
14.2486861593
 10
3.6336931368
 20
14.277402171
 10
3.6416517917
 20
14.3066593204
 10
3.6518047413
 20
14.3361404113
 10
3.6638242695
 20
14.3648938553
 10
3.6777712808
 20
14.3928959101
 10
3.6935848705
 20
14.420170318
 10
3.710754609
 20
14.4458367177
 10
3.7293247459
 20
14.4698426416
 10
3.7492510315
 20
14.4922405574
 10
3.7698902867
 20
14.5123075068
 10
3.7910281183
 20
14.5298025038
 10
3.8128789196
 20
14.5449665345
 10
3.8354426903
 20
14.5577995987
  0
LINE
  5
2FC
100
AcDbEntity
  8
RACCORDO
100
AcDbLine
 62
7
  6
CONTINUOUS
 10
2.8016126203
 20
23.6914230355
 11
2.8035122519
 21
23.7203675592
  0
LINE
  5
2FD
100
AcDbEntity
  8
RACCORDO
100
AcDbLine
 62
7
  6
CONTINUOUS
 10
1.6398817343
 20
13.1067675478
 11
1.738183278
 21
14.4337300525
  0
LINE
  5
2FE
100
AcDbEntity
  8
RACCORDO
100
AcDbLine
 62
7
  6
CONTINUOUS
 10
1.9187792545
 20
13.194933156
 11
2.0121157569
 21
14.4548730763
  0
LINE
  5
2FF
100
AcDbEntity
  8
0
100
AcDbLine
 62
250
  6
CONTINUOUS
 10
4.2645632266
 20
14.7596439768
 11
4.3519664315
 21
15.1328012207
  0
LINE
  5
300
100
AcDbEntity
  8
RACCORDO
100
AcDbLine
 62
250
  6
CONTINUOUS
 10
5.559713033
 20
15.9797800511
 11
5.5392817735
 21
15.892551299
  0
LWPOLYLINE
  5
301
100
AcDbEntity
  8
RACCORDO
100
AcDbPolyline
 62
7
  6
CONTINUOUS
 90
12
 70
0
 10
5.6199427715
 20
15.92044162
 10
5.6192814106
 20
15.9183074003
 10
5.6175249218
 20
15.914885789
 10
5.6149367557
 20
15.9116854594
 10
5.6115274309
 20
15.9087036128
 10
5.6073404349
 20
15.9059782837
 10
5.6023658056
 20
15.903512758
 10
5.5966135049
 20
15.9013037498
 10
5.5901569054
 20
15.8993794358
 10
5.5830204647
 20
15.8977492081
 10
5.5751797251
 20
15.8964036746
 10
5.5666346868
 20
15.8953428353
  0
LWPOLYLINE
  5
302
100
AcDbEntity
  8
RACCORDO
100
AcDbPolyline
 62
7
  6
CONTINUOUS
 90
12
 70
0
 10
7.487523553
 20
16.391011777
 10
7.4881849139
 20
16.3931459967
 10
7.4899414027
 20
16.396567608
 10
7.4925295689
 20
16.3997679376
 10
7.4959388936
 20
16.4027497842
 10
7.5001258897
 20
16.4054751133
 10
7.505100519
 20
16.407940639
 10
7.5108528197
 20
16.4101496472
 10
7.5173094192
 20
16.4120739612
 10
7.5244458599
 20
16.4137041889
 10
7.5322865994
 20
16.4150497224
 10
7.5408316377
 20
16.4161105618
  0
LINE
  5
303
100
AcDbEntity
  8
RACCORDO
100
AcDbLine
 62
250
  6
CONTINUOUS
 10
18.9617040458
 20
5.3111918226
 11
18.988814359
 21
5.3227339859
  0
LWPOLYLINE
  5
304
100
AcDbEntity
  8
0
100
AcDbPolyline
 62
250
  6
CONTINUOUS
 90
4
 70
0
 10
-9.4646354654
 20
3.1366869876
 10
-9.4170473844
 20
3.1307984468
 10
-9.3706594835
 20
3.127064759
 10
-9.3420610125
 20
3.1260762793
  0
LINE
  5
305
100
AcDbEntity
  8
0
100
AcDbLine
 62
7
  6
CONTINUOUS
 10
-9.3599099013
 20
3.0107930183
 11
-9.3505900234
 21
3.0092319049
  0
LINE
  5
306
100
AcDbEntity
  8
0
100
AcDbLine
 62
7
  6
CONTINUOUS
 10
-9.3600892869
 20
3.0108265049
 11
-9.3599099013
 21
3.0107930183
  0
LINE
  5
307
100
AcDbEntity
  8
RACCORDO
100
AcDbLine
 62
250
  6
CONTINUOUS
 10
-0.4653937697
 20
3.1392541457
 11
-5.9771281713
 21
5.8951213465
  0
LINE
  5
308
100
AcDbEntity
  8
RACCORDO
100
AcDbLine
 62
250
  6
CONTINUOUS
 10
-24.3852945443
 20
15.099204533
 11
-29.8970307126
 21
17.8550726171
  0
LWPOLYLINE
  5
309
100
AcDbEntity
  8
RACCORDO
100
AcDbPolyline
 62
250
  6
CONTINUOUS
 90
14
 70
0
 10
-10.5282052231
 20
11.2461198846
 10
-10.0534959688
 20
10.8052322147
 10
-9.6008370698
 20
10.3616976035
 10
-9.1676671624
 20
9.9144966772
 10
-8.7578318577
 20
9.4742771903
 10
-8.3738447607
 20
9.0438059711
 10
-8.0131796866
 20
8.6203219501
 10
-7.6721409878
 20
8.2061728802
 10
-7.3514816556
 20
7.8031366072
 10
-7.0504483094
 20
7.4094356508
 10
-6.7630920188
 20
7.0220819856
 10
-6.48742918
 20
6.6400799493
 10
-6.2254415406
 20
6.2644262309
 10
-5.9771281713
 20
5.8951213465
  0
LINE
  5
30A
100
AcDbEntity
  8
DRAFT
100
AcDbLine
 62
7
  6
CONTINUOUS
 10
-3.1326690897
 20
8.5659810075
 11
-3.0406723502
 21
8.4405233265
  0
LWPOLYLINE
  5
30B
100
AcDbEntity
  8
RACCORDO
100
AcDbPolyline
 62
250
  6
CONTINUOUS
 90
13
 70
0
 10
0.8737941923
 20
3.7207433227
 10
0.8702050511
 20
3.7486356193
 10
0.864116667
 20
3.7777005476
 10
0.8556310724
 20
3.8074510179
 10
0.8448904738
 20
3.8373884518
 10
0.8320748686
 20
3.867011138
 10
0.8173990288
 20
3.8958226401
 10
0.8011089009
 20
3.9233401158
 10
0.7834774856
 20
3.9491024089
 10
0.7648002624
 20
3.9726777778
 10
0.7453902364
 20
3.9936711308
 10
0.7255726925
 20
4.0117306467
 10
0.7056797453
 20
4.0265536717
  0
LWPOLYLINE
  5
30C
100
AcDbEntity
  8
RACCORDO
100
AcDbPolyline
 62
250
  6
CONTINUOUS
 90
16
 70
0
 10
0.9641761884
 20
3.7657736902
 10
0.9615948005
 20
3.7880314099
 10
0.9571197053
 20
3.8110152293
 10
0.9508022619
 20
3.8344722312
 10
0.9427151191
 20
3.8581416342
 10
0.9329482055
 20
3.8817672341
 10
0.921605486
 20
3.9051000279
 10
0.9088092671
 20
3.9278877103
 10
0.8947010347
 20
3.9498776896
 10
0.8794352124
 20
3.9708292712
 10
0.8631788811
 20
3.9905131421
 10
0.8461099889
 20
4.0087138319
 10
0.8284154095
 20
4.0252320841
 10
0.8102888393
 20
4.0398870984
 10
0.7919286718
 20
4.0525184959
 10
0.7735358689
 20
4.0629880348
  0
LINE
  5
30D
100
AcDbEntity
  8
0
100
AcDbLine
 62
7
  6
CONTINUOUS
 10
3.3404679435
 20
13.7906969831
 11
3.3404679435
 21
14.0505046042
  0
LINE
  5
30E
100
AcDbEntity
  8
0
100
AcDbLine
 62
7
  6
CONTINUOUS
 10
3.623310656
 20
13.9321183393
 11
3.623310656
 21
14.1919259604
  0
LINE
  5
30F
100
AcDbEntity
  8
RACCORDO
100
AcDbLine
 62
250
  6
CONTINUOUS
 10
3.6746012933
 20
19.2040305374
 11
3.6746012933
 21
19.5549542547
  0
LINE
  5
310
100
AcDbEntity
  8
RACCORDO
100
AcDbLine
 62
7
  6
CONTINUOUS
 10
3.8179760687
 20
19.1495513757
 11
3.8179760687
 21
19.6201142359
  0
LINE
  5
311
100
AcDbEntity
  8
0
100
AcDbLine
 62
250
  6
CONTINUOUS
 10
3.8354426903
 20
14.5577995987
 11
3.8354426903
 21
14.9042097603
  0
LINE
  5
312
100
AcDbEntity
  8
DRAFT
100
AcDbLine
 62
7
  6
CONTINUOUS
 10
4.1634322552
 20
22.8491229269
 11
4.1634322552
 21
23.8575463904
  0
LINE
  5
313
100
AcDbEntity
  8
0
100
AcDbLine
 62
250
  6
CONTINUOUS
 10
4.199010823
 20
14.739583665
 11
4.199010823
 21
15.0859938266
  0
LINE
  5
314
100
AcDbEntity
  8
RACCORDO
100
AcDbLine
 62
250
  6
CONTINUOUS
 10
4.6026907657
 20
12.2919295709
 11
4.6026907657
 21
11.642410518
  0
LINE
  5
315
100
AcDbEntity
  8
DRAFT
100
AcDbLine
 62
7
  6
CONTINUOUS
 10
4.7275716087
 20
12.3544676219
 11
4.7275716087
 21
11.7049485691
  0
LINE
  5
316
100
AcDbEntity
  8
RACCORDO
100
AcDbLine
 62
250
  6
CONTINUOUS
 10
0.8702075726
 20
-27.0826047699
 11
0.8737965744
 21
-27.0547930195
  0
LINE
  5
317
100
AcDbEntity
  8
RACCORDO
100
AcDbLine
 62
250
  6
CONTINUOUS
 10
7.5408316377
 20
16.4161105618
 11
7.5241466043
 21
16.3448758615
  0
LINE
  5
318
100
AcDbEntity
  8
RACCORDO
100
AcDbLine
 62
250
  6
CONTINUOUS
 10
20.6747306936
 20
6.1623564233
 11
18.988814359
 21
5.3227339859
  0
LINE
  5
319
100
AcDbEntity
  8
RACCORDO
100
AcDbLine
 62
250
  6
CONTINUOUS
 10
20.8868546506
 20
5.7964967164
 11
19.200938316
 21
4.9568742789
  0
LWPOLYLINE
  5
31A
100
AcDbEntity
  8
0
100
AcDbPolyline
 62
7
  6
CONTINUOUS
 90
5
 70
0
 10
-13.4020561758
 20
2.6586881559
 10
-13.353913716
 20
2.6647727393
 10
-13.251330565
 20
2.6860184055
 10
-13.1531287269
 20
2.7180421081
 10
-13.0773207483
 20
2.7516794211
  0
LWPOLYLINE
  5
31B
100
AcDbEntity
  8
RACCORDO
100
AcDbPolyline
 62
250
  6
CONTINUOUS
 90
8
 70
0
 10
-29.7191064668
 20
19.309309128
 10
-29.7376504373
 20
19.3173079912
 10
-29.755822871
 20
19.3229429238
 10
-29.7734248579
 20
19.3261522216
 10
-29.7902637488
 20
19.3269007288
 10
-29.806155199
 20
19.3251802184
 10
-29.8209251997
 20
19.321009515
 10
-29.8349512073
 20
19.3141046197
  0
LWPOLYLINE
  5
31C
100
AcDbEntity
  8
RACCORDO
100
AcDbPolyline
 62
250
  6
CONTINUOUS
 90
7
 70
0
 10
20.8070435945
 20
-3.5295232591
 10
20.8028723557
 20
-3.5275435443
 10
20.7800125236
 20
-3.5200444657
 10
20.7553398982
 20
-3.5172461471
 10
20.7292719641
 20
-3.5191959387
 10
20.7022498157
 20
-3.5258608483
 10
20.6747306936
 20
-3.5371280991
  0
LINE
  5
31D
100
AcDbEntity
  8
RACCORDO
100
AcDbLine
 62
250
  6
CONTINUOUS
 10
0.7056767682
 20
4.0265939439
 11
-5.0975216228
 21
6.9281931394
  0
LINE
  5
31E
100
AcDbEntity
  8
RACCORDO
100
AcDbLine
 62
250
  6
CONTINUOUS
 10
-23.9750827081
 20
16.3669736821
 11
-29.7782825949
 21
19.2685736255
  0
LINE
  5
31F
100
AcDbEntity
  8
RACCORDO
100
AcDbLine
 62
250
  6
CONTINUOUS
 10
18.988814359
 20
-4.3767505365
 11
18.8873929972
 21
-4.3260398556
  0
LINE
  5
320
100
AcDbEntity
  8
RACCORDO
100
AcDbLine
 62
250
  6
CONTINUOUS
 10
18.8700716545
 20
-2.6347985795
 11
20.6747306936
 21
-3.5371280991
  0
LINE
  5
321
100
AcDbEntity
  8
RACCORDO
100
AcDbLine
 62
7
  6
CONTINUOUS
 10
18.8700716545
 20
-2.5610372891
 11
20.8070435945
 21
-3.5295232591
  0
LINE
  5
322
100
AcDbEntity
  8
RACCORDO
100
AcDbLine
 62
7
  6
CONTINUOUS
 10
-27.5072388136
 20
20.6738065582
 11
-21.4422177865
 21
17.6412960446
  0
LINE
  5
323
100
AcDbEntity
  8
RACCORDO
100
AcDbLine
 62
7
  6
CONTINUOUS
 10
-3.0406723502
 20
8.4405233265
 11
3.024348677
 21
5.4080128129
  0
LINE
  5
324
100
AcDbEntity
  8
RACCORDO
100
AcDbLine
 62
7
  6
CONTINUOUS
 10
-27.8591150416
 20
20.9292039835
 11
-21.2714752785
 21
17.6353841019
  0
LINE
  5
325
100
AcDbEntity
  8
RACCORDO
100
AcDbLine
 62
7
  6
CONTINUOUS
 10
2.6691181238
 20
5.6650874008
 11
-3.9185216394
 21
8.9589072824
  0
LWPOLYLINE
  5
326
100
AcDbEntity
  8
RACCORDO
100
AcDbPolyline
 62
250
  6
CONTINUOUS
 90
40
 70
0
 10
-15.0955998001
 20
12.9525911538
 10
-14.7381473017
 20
12.7670401832
 10
-14.3880467854
 20
12.5752171927
 10
-14.0452972198
 20
12.3771226391
 10
-13.7103853506
 20
12.1725694075
 10
-13.3828204503
 20
11.9617463769
 10
-13.061134735
 20
11.745218236
 10
-12.7453153247
 20
11.5232012643
 10
-12.4353687443
 20
11.295482003
 10
-12.1298562844
 20
11.0619805498
 10
-11.8287524215
 20
10.8228854994
 10
-11.5320743524
 20
10.578011963
 10
-11.2384471643
 20
10.326719942
 10
-10.9477167451
 20
10.0690585801
 10
-10.6600265615
 20
9.8049834881
 10
-10.3744472653
 20
9.5337147312
 10
-10.0902492335
 20
9.2545735335
 10
-9.8081482681
 20
8.9682448688
 10
-9.5293828578
 20
8.6759945697
 10
-9.2540718282
 20
8.3778515032
 10
-8.9820814574
 20
8.073793521
 10
-8.7142722313
 20
7.7650095767
 10
-8.4522528538
 20
7.4536808512
 10
-8.1944004187
 20
7.1376326186
 10
-7.9367244088
 20
6.8115216001
 10
-7.6793257534
 20
6.4763384575
 10
-7.4220785271
 20
6.1311039141
 10
-7.160638667
 20
5.7675257965
 10
-6.8943461841
 20
5.385850703
 10
-6.6238123572
 20
4.9858542984
 10
-6.3465761644
 20
4.5585488875
 10
-6.0608245756
 20
4.1021753333
 10
-5.7682783058
 20
3.618535222
 10
-5.4717476319
 20
3.1039954398
 10
-5.1698840427
 20
2.5565321325
 10
-4.8638935299
 20
1.9782353475
 10
-4.5603969801
 20
1.37165278
 10
-4.2589573634
 20
0.7353101395
 10
-3.9598306543
 20
0.070767027
 10
-3.6706768783
 20
-0.6148774723
  0
LWPOLYLINE
  5
327
100
AcDbEntity
  8
RACCORDO
100
AcDbPolyline
 62
7
  6
CONTINUOUS
 90
65
 70
0
 10
-14.9660346204
 20
12.6617388025
 10
-14.4968294861
 20
12.4168025217
 10
-13.9724655055
 20
12.1185291197
 10
-13.4499204617
 20
11.7952586561
 10
-12.9300180799
 20
11.4474669938
 10
-12.4135389017
 20
11.075644523
 10
-11.9012428075
 20
10.6803114726
 10
-11.3939174905
 20
10.2620508735
 10
-10.8923501492
 20
9.8214976172
 10
-10.3972745038
 20
9.3592927612
 10
-9.9094449726
 20
8.876137753
 10
-9.4295955082
 20
8.3727732426
 10
-8.9584066634
 20
7.8499271067
 10
-8.4965683235
 20
7.3083861617
 10
-8.0447789119
 20
6.749000137
 10
-7.6037015135
 20
6.1726270411
 10
-7.1739648399
 20
5.5801386759
 10
-6.7562079471
 20
4.9724664617
 10
-6.3510654607
 20
4.3506053377
 10
-5.9591200558
 20
3.715524131
 10
-5.5809265096
 20
3.0682176988
 10
-5.217051033
 20
2.4097400323
 10
-4.868001307
 20
1.7411376884
 10
-4.534269286
 20
1.0634589946
 10
-4.2163337582
 20
0.377803154
 10
-3.9146248684
 20
-0.3147431353
 10
-3.6295661135
 20
-1.0130877821
 10
-3.3615542663
 20
-1.7160901423
 10
-3.1109380051
 20
-2.4226420273
 10
-2.8780683481
 20
-3.1316094445
 10
-2.6632701066
 20
-3.8417982915
 10
-2.466804624
 20
-4.5520912911
 10
-2.288930331
 20
-5.2613586247
 10
-2.1298851697
 20
-5.9683904925
 10
-1.9898403409
 20
-6.6720800365
 10
-1.868960224
 20
-7.3713200934
 10
-1.767386359
 20
-8.0649158425
 10
-1.685200341
 20
-8.751752414
 10
-1.6224655363
 20
-9.4307955227
 10
-1.5792171731
 20
-10.1009966664
 10
-1.5554469694
 20
-10.7612368196
 10
-1.5511280581
 20
-11.4105915859
 10
-1.5662201969
 20
-12.048325053
 10
-1.6006454671
 20
-12.673426914
 10
-1.6543181021
 20
-13.284963527
 10
-1.7271690701
 20
-13.8823157947
 10
-1.8190655435
 20
-14.4645714145
 10
-1.9298577254
 20
-15.0307960634
 10
-2.0594332894
 20
-15.5803362235
 10
-2.2075978519
 20
-16.1123598944
 10
-2.3741260314
 20
-16.6259834033
 10
-2.5588212548
 20
-17.1204962899
 10
-2.7613927869
 20
-17.5951115664
 10
-2.9815477702
 20
-18.0490907228
 10
-3.2190446912
 20
-18.4818391958
 10
-3.4735185208
 20
-18.8926761821
 10
-3.7446202055
 20
-19.2809915214
 10
-4.0321186316
 20
-19.6463529825
 10
-4.3356022563
 20
-19.9881914301
 10
-4.6547259428
 20
-20.3060422577
 10
-4.9893921931
 20
-20.5996758099
 10
-5.3392009748
 20
-20.868612693
 10
-5.7038461528
 20
-21.1124550502
 10
-6.0834375519
 20
-21.3310730898
 10
-6.1655462997
 20
-21.3740053114
  0
LWPOLYLINE
  5
328
100
AcDbEntity
  8
RACCORDO
100
AcDbPolyline
 62
7
  6
CONTINUOUS
 90
9
 70
0
 10
-27.8591150416
 20
20.9292039835
 10
-27.876767837
 20
20.9390732026
 10
-27.8920266723
 20
20.9495549474
 10
-27.9048915475
 20
20.9606492177
 10
-27.9154493448
 20
20.9724885302
 10
-27.923613182
 20
20.9849403683
 10
-27.9291224126
 20
20.9976071827
 10
-27.9318913713
 20
21.0104959106
 10
-27.9323383462
 20
21.0175878955
  0
LINE
  5
329
100
AcDbEntity
  8
0
100
AcDbLine
 62
7
  6
CONTINUOUS
 10
6.3201079378
 20
26.821004778
 11
6.3201079378
 21
26.3879920762
  0
LINE
  5
32A
100
AcDbEntity
  8
RACCORDO
100
AcDbLine
 62
7
  6
CONTINUOUS
 10
6.7673856908
 20
10.4685404531
 11
6.7673856908
 21
8.0920180477
  0
LINE
  5
32B
100
AcDbEntity
  8
RACCORDO
100
AcDbLine
 62
7
  6
CONTINUOUS
 10
6.7673856908
 20
-25.6444914024
 11
6.7673856908
 21
-28.0210138078
  0
LINE
  5
32C
100
AcDbEntity
  8
RACCORDO
100
AcDbLine
 62
7
  6
CONTINUOUS
 10
7.5648192406
 20
16.642555261
 11
7.5648192406
 21
16.3231403714
  0
LINE
  5
32D
100
AcDbEntity
  8
DRAFT
100
AcDbLine
 62
7
  6
CONTINUOUS
 10
8.193940908
 20
-24.9627960973
 11
8.193940908
 21
8.8121946502
  0
LINE
  5
32E
100
AcDbEntity
  8
RACCORDO
100
AcDbLine
 62
250
  6
CONTINUOUS
 10
-10.2496071896
 20
15.0720721928
 11
2.6691181238
 21
8.6127095361
  0
LINE
  5
32F
100
AcDbEntity
  8
RACCORDO
100
AcDbLine
 62
250
  6
CONTINUOUS
 10
-14.9403897282
 20
17.4174634621
 11
-27.8591150416
 21
23.8768261188
  0
LWPOLYLINE
  5
330
100
AcDbEntity
  8
RACCORDO
100
AcDbPolyline
 62
250
  6
CONTINUOUS
 90
9
 70
0
 10
-27.8591150416
 20
23.8768261188
 10
-27.8766149206
 20
23.8865432953
 10
-27.8919858065
 20
23.897119051
 10
-27.905060967
 20
23.9084371949
 10
-27.9156932101
 20
23.9203660898
 10
-27.9237767566
 20
23.932781867
 10
-27.9292325836
 20
23.9455724476
 10
-27.9319911225
 20
23.9586286605
 10
-27.9323383045
 20
23.9651421834
  0
LWPOLYLINE
  5
331
100
AcDbEntity
  8
RACCORDO
100
AcDbPolyline
 62
250
  6
CONTINUOUS
 90
16
 70
0
 10
2.8452777533
 20
8.9172943828
 10
2.8635970205
 20
8.9067902036
 10
2.8817223488
 20
8.8940325026
 10
2.8994551607
 20
8.8791610494
 10
2.9166011807
 20
8.8623387702
 10
2.9329725586
 20
8.8437499668
 10
2.9483899292
 20
8.8235982985
 10
2.9626843822
 20
8.8021045452
 10
2.9756993121
 20
8.7795041867
 10
2.9872921306
 20
8.7560448278
 10
2.9973358295
 20
8.7319834854
 10
3.0057203731
 20
8.7075837694
 10
3.0123539033
 20
8.6831129953
 10
3.0171637448
 20
8.6588392583
 10
3.0200972015
 20
8.6350284973
 10
3.0211221352
 20
8.6119415776
  0
LINE
  5
332
100
AcDbEntity
  8
RACCORDO
100
AcDbLine
 62
250
  6
CONTINUOUS
 10
20.7118571576
 20
-3.559348003
 11
20.6747306936
 21
-3.5371280991
  0
LWPOLYLINE
  5
333
100
AcDbEntity
  8
RACCORDO
100
AcDbPolyline
 62
7
  6
CONTINUOUS
 90
9
 70
0
 10
-12.073726719
 20
16.3240977167
 10
-12.1806961745
 20
16.3923226753
 10
-12.289182389
 20
16.4560781665
 10
-12.3995232705
 20
16.5148140395
 10
-12.5115331422
 20
16.569941979
 10
-12.6291966904
 20
16.6237994089
 10
-12.7541515058
 20
16.6760088341
 10
-12.8845912609
 20
16.7260641548
 10
-13.1579677243
 20
16.8277600045
  0
LWPOLYLINE
  5
334
100
AcDbEntity
  8
RACCORDO
100
AcDbPolyline
 62
7
  6
CONTINUOUS
 90
4
 70
0
 10
-10.2496343154
 20
15.0720857557
 10
-10.4302152336
 20
15.1956402253
 10
-10.6017614633
 20
15.3152863815
 10
-10.9205785621
 20
15.5397183215
  0
LWPOLYLINE
  5
335
100
AcDbEntity
  8
RACCORDO
100
AcDbPolyline
 62
7
  6
CONTINUOUS
 90
6
 70
0
 10
-11.3489627531
 20
15.8383736483
 10
-11.4806554376
 20
15.9289312741
 10
-11.6077264922
 20
16.0155083981
 10
-11.7303117525
 20
16.0983092806
 10
-11.848645146
 20
16.1771753543
 10
-12.073726719
 20
16.3240977167
  0
LWPOLYLINE
  5
336
100
AcDbEntity
  8
RACCORDO
100
AcDbPolyline
 62
7
  6
CONTINUOUS
 90
3
 70
0
 10
-10.9205785621
 20
15.5397183215
 10
-11.0692511786
 20
15.64368406
 10
-11.3489627531
 20
15.8383736483
  0
LWPOLYLINE
  5
337
100
AcDbEntity
  8
RACCORDO
100
AcDbPolyline
 62
7
  6
CONTINUOUS
 90
13
 70
0
 10
-10.2496071896
 20
15.0720721928
 10
-9.687551558
 20
14.6754642486
 10
-9.1306362508
 20
14.2573001475
 10
-8.5788612679
 20
13.8175798895
 10
-8.0315291977
 20
13.3556824879
 10
-7.4893374518
 20
12.8722289293
 10
-6.9543782658
 20
12.3690821744
 10
-6.4266886715
 20
11.84617666
 10
-5.906231637
 20
11.3035779493
 10
-5.3949883026
 20
10.7433456912
 10
-4.8936190482
 20
10.1661664355
 10
-4.4014634938
 20
9.5713536326
 10
-3.9185216394
 20
8.9589072824
  0
LINE
  5
338
100
AcDbEntity
  8
RACCORDO
100
AcDbLine
 62
250
  6
CONTINUOUS
 10
11.1232273256
 20
20.6792909306
 11
11.1232273256
 21
24.8678766124
  0
LINE
  5
339
100
AcDbEntity
  8
RACCORDO
100
AcDbLine
 62
7
  6
CONTINUOUS
 10
11.2092521909
 20
20.7083413225
 11
11.2092521909
 21
24.973013002
  0
LWPOLYLINE
  5
33A
100
AcDbEntity
  8
RACCORDO
100
AcDbPolyline
 62
250
  6
CONTINUOUS
 90
3
 70
0
 10
0.8556335875
 20
-27.1313693599
 10
0.8641192323
 20
-27.1082736124
 10
0.8702075726
 20
-27.0826047699
  0
LWPOLYLINE
  5
33B
100
AcDbEntity
  8
RACCORDO
100
AcDbPolyline
 62
250
  6
CONTINUOUS
 90
8
 70
0
 10
19.1254602761
 20
-0.7421940915
 10
19.1395682807
 20
-0.7334607291
 10
19.1578411148
 20
-0.7170701293
 10
19.1731904905
 20
-0.6965563115
 10
19.1853537193
 20
-0.6722702788
 10
19.1941226801
 20
-0.6446275604
 10
19.1993473469
 20
-0.61410106
 10
19.2009383172
 20
-0.581213048
  0
LWPOLYLINE
  5
33C
100
AcDbEntity
  8
RACCORDO
100
AcDbPolyline
 62
250
  6
CONTINUOUS
 90
8
 70
0
 10
20.8111985721
 20
0.1336916895
 10
20.8249167001
 20
0.1421088057
 10
20.8433572359
 20
0.1584711382
 10
20.858849865
 20
0.17900531
 10
20.8711264059
 20
0.2033529489
 10
20.8799762069
 20
0.2310905553
 10
20.8852486805
 20
0.2617382145
 10
20.8868546506
 20
0.2947654399
  0
LWPOLYLINE
  5
33D
100
AcDbEntity
  8
RACCORDO
100
AcDbPolyline
 62
250
  6
CONTINUOUS
 90
5
 70
0
 10
19.200938316
 20
-0.5812130486
 10
19.1561889365
 20
-0.6076366466
 10
19.1129620554
 20
-0.6385663755
 10
19.0712576728
 20
-0.6740022352
 10
19.0306914291
 20
-0.7144042231
  0
LINE
  5
33E
100
AcDbEntity
  8
RACCORDO
100
AcDbLine
 62
250
  6
CONTINUOUS
 10
20.8868546506
 20
0.2947654399
 11
19.200938316
 21
-0.5812130486
  0
LINE
  5
33F
100
AcDbEntity
  8
RACCORDO
100
AcDbLine
 62
7
  6
CONTINUOUS
 10
20.8111985721
 20
0.1336916895
 11
19.125282238
 21
-0.7422867988
  0
LWPOLYLINE
  5
340
100
AcDbEntity
  8
RACCORDO
100
AcDbPolyline
 62
250
  6
CONTINUOUS
 90
4
 70
0
 10
18.988814359
 20
-4.3767505365
 10
18.9526176073
 20
-4.3909618914
 10
18.9175763987
 20
-4.3969179507
 10
18.8847559289
 20
-4.39444587
  0
LWPOLYLINE
  5
341
100
AcDbEntity
  8
RACCORDO
100
AcDbPolyline
 62
250
  6
CONTINUOUS
 90
5
 70
0
 10
-29.7782803133
 20
19.2685429863
 10
-29.8036905561
 20
19.2763717431
 10
-29.8284166233
 20
19.2805839881
 10
-29.8520441267
 20
19.2811091286
 10
-29.8741770897
 20
19.2779383634
  0
LWPOLYLINE
  5
342
100
AcDbEntity
  8
RACCORDO
100
AcDbPolyline
 62
7
  6
CONTINUOUS
 90
3
 70
0
 10
-14.4090583816
 20
17.2499003362
 10
-14.760705835
 20
17.3600670276
 10
-14.9403626024
 20
17.4174498992
  0
LWPOLYLINE
  5
343
100
AcDbEntity
  8
RACCORDO
100
AcDbPolyline
 62
250
  6
CONTINUOUS
 90
5
 70
0
 10
18.8629219599
 20
5.3120253878
 10
18.8852978792
 20
5.3047479146
 10
18.9094881528
 20
5.3021500464
 10
18.9351098966
 20
5.3042996779
 10
18.9617040458
 20
5.3111918226
  0
LWPOLYLINE
  5
344
100
AcDbEntity
  8
RACCORDO
100
AcDbPolyline
 62
7
  6
CONTINUOUS
 90
9
 70
0
 10
-13.1579677243
 20
16.8277600045
 10
-13.3006859857
 20
16.8792673109
 10
-13.4474818338
 20
16.9310960745
 10
-13.5979683386
 20
16.9833135489
 10
-13.7521743745
 20
17.0358293957
 10
-13.9106371284
 20
17.0886615962
 10
-14.0729062045
 20
17.1419829059
 10
-14.2388135658
 20
17.1958000457
 10
-14.4090583816
 20
17.2499003362
  0
LWPOLYLINE
  5
345
100
AcDbEntity
  8
RACCORDO
100
AcDbPolyline
 62
250
  6
CONTINUOUS
 90
8
 70
0
 10
-27.6829554122
 20
24.1814109655
 10
-27.7015904153
 20
24.1893839208
 10
-27.7200144993
 20
24.1949009239
 10
-27.7380258137
 20
24.1979015306
 10
-27.7554270313
 20
24.1983528657
 10
-27.7720275063
 20
24.1962499833
 10
-27.7876453635
 20
24.1916159223
 10
-27.7964696352
 20
24.1876420927
  0
LINE
  5
346
100
AcDbEntity
  8
RACCORDO
100
AcDbLine
 62
250
  6
CONTINUOUS
 10
-27.6829554122
 20
24.1814109655
 11
2.8452777533
 21
8.9172943828
  0
LINE
  5
347
100
AcDbEntity
  8
DRAFT
100
AcDbLine
 62
7
  6
CONTINUOUS
 10
8.193940908
 20
8.78638899
 11
6.6941177626
 21
11.373201268
  0
LINE
  5
348
100
AcDbEntity
  8
DRAFT
100
AcDbLine
 62
7
  6
CONTINUOUS
 10
7.2039914143
 20
10.5196049624
 11
8.193940908
 21
8.8121946502
  0
LINE
  5
349
100
AcDbEntity
  8
DRAFT
100
AcDbLine
 62
250
  6
CONTINUOUS
 10
1.7239138601
 20
24.5229077392
 11
1.2688257943
 21
25.7158393442
  0
LWPOLYLINE
  5
34A
100
AcDbEntity
  8
RACCORDO
100
AcDbPolyline
 62
250
  6
CONTINUOUS
 90
3
 70
0
 10
11.1232273256
 20
24.8678766124
 10
11.1217096558
 20
24.9020342189
 10
11.1166664836
 20
24.9376003527
  0
LINE
  5
34B
100
AcDbEntity
  8
DRAFT
100
AcDbLine
 62
7
  6
CONTINUOUS
 10
13.0802932982
 20
14.5553440811
 11
13.0802932982
 21
14.0134342539
  0
LINE
  5
34C
100
AcDbEntity
  8
RACCORDO
100
AcDbLine
 62
7
  6
CONTINUOUS
 10
14.5023644921
 20
-21.7248723824
 11
14.5023644921
 21
-21.2087235765
  0
LINE
  5
34D
100
AcDbEntity
  8
RACCORDO
100
AcDbLine
 62
7
  6
CONTINUOUS
 10
14.5023644921
 20
11.4776206066
 11
14.5023644921
 21
11.9937694125
  0
LWPOLYLINE
  5
34E
100
AcDbEntity
  8
RACCORDO
100
AcDbPolyline
 62
250
  6
CONTINUOUS
 90
3
 70
0
 10
19.0306914291
 20
-0.7144042231
 10
18.9916476839
 20
-0.7593123419
 10
18.9552795156
 20
-0.8073465996
  0
LINE
  5
34F
100
AcDbEntity
  8
RACCORDO
100
AcDbLine
 62
250
  6
CONTINUOUS
 10
18.988814359
 20
-4.3767505365
 11
20.6747306936
 21
-3.5371280991
  0
LINE
  5
350
100
AcDbEntity
  8
RACCORDO
100
AcDbLine
 62
250
  6
CONTINUOUS
 10
18.7840467893
 20
-4.9502311513
 11
20.8868546506
 21
-3.902987806
  0
LINE
  5
351
100
AcDbEntity
  8
0
100
AcDbLine
 62
7
  6
CONTINUOUS
 10
4.2645632266
 20
14.7596439768
 11
7.7139269892
 21
15.1116731708
  0
LINE
  5
352
100
AcDbEntity
  8
0
100
AcDbLine
 62
7
  6
CONTINUOUS
 10
4.3519664315
 20
15.1328012207
 11
8.5810344988
 21
15.5644041265
  0
LINE
  5
353
100
AcDbEntity
  8
RACCORDO
100
AcDbLine
 62
250
  6
CONTINUOUS
 10
18.8588127326
 20
5.3139735087
 11
18.8629219599
 21
5.3120253878
  0
LWPOLYLINE
  5
354
100
AcDbEntity
  8
RACCORDO
100
AcDbPolyline
 62
250
  6
CONTINUOUS
 90
7
 70
0
 10
20.8070435945
 20
6.1699612633
 10
20.8028723557
 20
6.1719409781
 10
20.7800125236
 20
6.1794400567
 10
20.7553398982
 20
6.1822383753
 10
20.7292719641
 20
6.1802885836
 10
20.7022498157
 20
6.1736236741
 10
20.6747306936
 20
6.1623564233
  0
LINE
  5
355
100
AcDbEntity
  8
DRAFT
100
AcDbLine
 62
7
  6
CONTINUOUS
 10
1.6901559324
 20
13.0816304488
 11
-3.8284717835
 21
15.8409443067
  0
LINE
  5
356
100
AcDbEntity
  8
RACCORDO
100
AcDbLine
 62
7
  6
CONTINUOUS
 10
-24.002429974
 20
26.0699493604
 11
-22.4875649936
 21
25.3125168702
  0
LINE
  5
357
100
AcDbEntity
  8
RACCORDO
100
AcDbLine
 62
7
  6
CONTINUOUS
 10
4.7275716087
 20
11.7049485691
 11
6.5906076492
 21
10.7734305488
  0
LINE
  5
358
100
AcDbEntity
  8
0
100
AcDbLine
 62
7
  6
CONTINUOUS
 10
7.2039914143
 20
10.5196049624
 11
7.1829211809
 21
10.5301400791
  0
LINE
  5
359
100
AcDbEntity
  8
0
100
AcDbLine
 62
7
  6
CONTINUOUS
 10
7.2011519089
 20
11.0316955522
 11
7.366625974
 21
10.9489585197
  0
LINE
  5
35A
100
AcDbEntity
  8
DRAFT
100
AcDbLine
 62
7
  6
CONTINUOUS
 10
4.119860799
 20
12.6583230268
 11
4.7275716087
 21
12.3544676219
  0
LINE
  5
35B
100
AcDbEntity
  8
DRAFT
100
AcDbLine
 62
7
  6
CONTINUOUS
 10
-21.5316831237
 20
25.4840949881
 11
-22.1211045434
 21
25.778805698
  0
LINE
  5
35C
100
AcDbEntity
  8
RACCORDO
100
AcDbLine
 62
250
  6
CONTINUOUS
 10
18.8751374143
 20
5.3795724582
 11
18.988814359
 21
5.3227339859
  0
LINE
  5
35D
100
AcDbEntity
  8
RACCORDO
100
AcDbLine
 62
7
  6
CONTINUOUS
 10
3.3404679435
 20
13.7906969831
 11
1.8790664832
 21
14.5213977132
  0
LINE
  5
35E
100
AcDbEntity
  8
RACCORDO
100
AcDbLine
 62
7
  6
CONTINUOUS
 10
-3.6834119704
 20
17.30263694
 11
-5.1448134307
 21
18.0333376702
  0
LINE
  5
35F
100
AcDbEntity
  8
DRAFT
100
AcDbLine
 62
7
  6
CONTINUOUS
 10
-19.5395438194
 20
25.2587658679
 11
-5.7496297861
 21
18.3638088513
  0
LINE
  5
360
100
AcDbEntity
  8
DRAFT
100
AcDbLine
 62
7
  6
CONTINUOUS
 10
-19.5395438194
 20
25.2770132253
 11
-5.8067733595
 21
18.4106279953
  0
LINE
  5
361
100
AcDbEntity
  8
0
100
AcDbLine
 62
250
  6
CONTINUOUS
 10
3.3404679435
 20
14.0505046042
 11
-5.1448134307
 21
18.2931452913
  0
LINE
  5
362
100
AcDbEntity
  8
DRAFT
100
AcDbLine
 62
7
  6
CONTINUOUS
 10
-19.5395438194
 20
25.9082849208
 11
-20.1195143501
 21
26.1982701861
  0
LINE
  5
363
100
AcDbEntity
  8
RACCORDO
100
AcDbLine
 62
250
  6
CONTINUOUS
 10
18.8700716545
 20
7.0646859429
 11
20.6747306936
 21
6.1623564233
  0
LINE
  5
364
100
AcDbEntity
  8
RACCORDO
100
AcDbLine
 62
7
  6
CONTINUOUS
 10
18.8700716545
 20
7.1384472333
 11
20.8070435945
 21
6.1699612633
  0
LINE
  5
365
100
AcDbEntity
  8
0
100
AcDbLine
 62
250
  6
CONTINUOUS
 10
3.8354426903
 20
14.9042097603
 11
-4.6498386839
 21
19.1468504474
  0
LINE
  5
366
100
AcDbEntity
  8
RACCORDO
100
AcDbLine
 62
7
  6
CONTINUOUS
 10
18.8587675723
 20
5.3139961019
 11
18.8588127326
 21
5.3139735087
  0
LWPOLYLINE
  5
367
100
AcDbEntity
  8
RACCORDO
100
AcDbPolyline
 62
7
  6
CONTINUOUS
 90
25
 70
0
 10
-3.6834119704
 20
17.30263694
 10
-3.6746208566
 20
17.2979001131
 10
-3.6659290897
 20
17.2925643621
 10
-3.6573366697
 20
17.2866296871
 10
-3.6488116166
 20
17.2800689132
 10
-3.6403859104
 20
17.2729092153
 10
-3.6321554915
 20
17.2652321181
 10
-3.624122592
 20
17.2570317078
 10
-3.6162849798
 20
17.2483138983
 10
-3.6087318988
 20
17.2391779559
 10
-3.6014666012
 20
17.2296191014
 10
-3.5944858348
 20
17.2196421142
 10
-3.587869087
 20
17.2093605982
 10
-3.5816205185
 20
17.1987710729
 10
-3.5757359685
 20
17.1878770189
 10
-3.5702824423
 20
17.1768024828
 10
-3.5652648664
 20
17.1655454016
 10
-3.5606783141
 20
17.1541078382
 10
-3.556575011
 20
17.1426200278
 10
-3.5529604804
 20
17.1310813962
 10
-3.5498291989
 20
17.1194925177
 10
-3.5472168211
 20
17.1079853504
 10
-3.545135232
 20
17.0966038804
 10
-3.5435725467
 20
17.0853041216
 10
-3.5425287652
 20
17.0740860741
  0
LWPOLYLINE
  5
368
100
AcDbEntity
  8
RACCORDO
100
AcDbPolyline
 62
250
  6
CONTINUOUS
 90
3
 70
0
 10
20.7814654996
 20
-3.6246309018
 10
20.7477994202
 20
-3.5888140117
 10
20.7118571576
 20
-3.559348003
  0
LINE
  5
369
100
AcDbEntity
  8
RACCORDO
100
AcDbLine
 62
250
  6
CONTINUOUS
 10
17.0960716229
 20
12.8050646089
 11
17.0976625439
 21
12.7701346131
  0
LINE
  5
36A
100
AcDbEntity
  8
RACCORDO
100
AcDbLine
 62
250
  6
CONTINUOUS
 10
17.0976625439
 20
-19.8602430985
 11
17.0976625439
 21
12.7701346131
  0
LINE
  5
36B
100
AcDbEntity
  8
RACCORDO
100
AcDbLine
 62
7
  6
CONTINUOUS
 10
17.1836874091
 20
-19.7551067089
 11
17.1836874091
 21
12.8752710027
  0
LINE
  5
36C
100
AcDbEntity
  8
RACCORDO
100
AcDbLine
 62
250
  6
CONTINUOUS
 10
17.1836872428
 20
-19.7552646858
 11
17.1836874091
 21
-19.7551067089
  0
LWPOLYLINE
  5
36D
100
AcDbEntity
  8
RACCORDO
100
AcDbPolyline
 62
250
  6
CONTINUOUS
 90
8
 70
0
 10
17.0976625439
 20
-19.8602430985
 10
17.0960565738
 20
-19.8932703239
 10
17.0907841002
 20
-19.9239179832
 10
17.0819342991
 20
-19.9516555896
 10
17.0696577582
 20
-19.9760032284
 10
17.0541651292
 20
-19.9965374003
 10
17.0357245934
 20
-20.0128997327
 10
17.0220064653
 20
-20.021316849
  0
LWPOLYLINE
  5
36E
100
AcDbEntity
  8
RACCORDO
100
AcDbPolyline
 62
250
  6
CONTINUOUS
 90
6
 70
0
 10
18.8700716545
 20
16.69421986
 10
18.8690533141
 20
16.6818711026
 10
18.8602962203
 20
16.6562405847
 10
18.8428182639
 20
16.6317512937
 10
18.817144634
 20
16.6091391001
 10
18.7840467893
 20
16.5890834703
  0
LWPOLYLINE
  5
36F
100
AcDbEntity
  8
RACCORDO
100
AcDbPolyline
 62
250
  6
CONTINUOUS
 90
7
 70
0
 10
18.8700716364
 20
5.3694380078
 10
18.8677011457
 20
5.3506707297
 10
18.8602971563
 20
5.3315126875
 10
18.8479820547
 20
5.3129972342
 10
18.8309642284
 20
5.2954377197
 10
18.809531592
 20
5.2791312553
 10
18.7840467893
 20
5.2643537872
  0
LWPOLYLINE
  5
370
100
AcDbEntity
  8
RACCORDO
100
AcDbPolyline
 62
250
  6
CONTINUOUS
 90
5
 70
0
 10
18.9552795156
 20
-0.8073465996
 10
18.9216397865
 20
-0.8586387304
 10
18.8906756344
 20
-0.9130570001
 10
18.8633815509
 20
-0.9688262141
 10
18.83989017
 20
-1.025922659
  0
LWPOLYLINE
  5
371
100
AcDbEntity
  8
RACCORDO
100
AcDbPolyline
 62
250
  6
CONTINUOUS
 90
31
 70
0
 10
18.7840467897
 20
-4.950231151
 10
18.7955380042
 20
-4.9372675602
 10
18.8076846607
 20
-4.9232443981
 10
18.820446389
 20
-4.9081508273
 10
18.8338514559
 20
-4.8919141139
 10
18.8477817388
 20
-4.8745917063
 10
18.8619806484
 20
-4.8563743589
 10
18.8764063395
 20
-4.8372815855
 10
18.891016716
 20
-4.8173047061
 10
18.9055639532
 20
-4.7966012679
 10
18.9200102489
 20
-4.7752113928
 10
18.9343152443
 20
-4.7531357868
 10
18.9482291548
 20
-4.7304816774
 10
18.9617360145
 20
-4.7072897504
 10
18.9747747539
 20
-4.6835979372
 10
18.9870215871
 20
-4.6595218793
 10
18.9985088624
 20
-4.6350177892
 10
19.0091252632
 20
-4.6102654136
 10
19.0183419273
 20
-4.5857263787
 10
19.026142
 20
-4.5614602208
 10
19.0325192476
 20
-4.5375887188
 10
19.0369977841
 20
-4.5146571292
 10
19.0395430493
 20
-4.4927747472
 10
19.040238648
 20
-4.4720170211
 10
19.0388262594
 20
-4.4528411474
 10
19.0352584712
 20
-4.4353532786
 10
19.0296890904
 20
-4.4195830247
 10
19.0221915375
 20
-4.4058057022
 10
19.0128379712
 20
-4.3941064688
 10
19.0016869591
 20
-4.3844221312
 10
18.9887986236
 20
-4.3767583731
  0
LINE
  5
372
100
AcDbEntity
  8
RACCORDO
100
AcDbLine
 62
250
  6
CONTINUOUS
 10
20.8868546506
 20
-9.4047190824
 11
18.7840467893
 21
-10.4973085629
  0
LINE
  5
373
100
AcDbEntity
  8
RACCORDO
100
AcDbLine
 62
7
  6
CONTINUOUS
 10
-6.1652873186
 20
-21.3738726068
 11
-6.1655041961
 21
-21.3739840499
  0
LWPOLYLINE
  5
374
100
AcDbEntity
  8
RACCORDO
100
AcDbPolyline
 62
250
  6
CONTINUOUS
 90
32
 70
0
 10
-6.1655041961
 20
-21.3739840499
 10
-6.2209490202
 20
-21.4021542015
 10
-6.4908410639
 20
-21.5304065078
 10
-6.7530315176
 20
-21.6415415268
 10
-7.0117365029
 20
-21.7389535007
 10
-7.2662656091
 20
-21.8235545744
 10
-7.516137649
 20
-21.8962991441
 10
-7.76648394
 20
-21.9594130175
 10
-8.017498943
 20
-22.0132984371
 10
-8.2684791908
 20
-22.0581525278
 10
-8.5236349047
 20
-22.094869099
 10
-8.7845667801
 20
-22.1234908043
 10
-9.0495290088
 20
-22.1436423157
 10
-9.317848567
 20
-22.1552197812
 10
-9.5894658668
 20
-22.1581813132
 10
-9.8641976557
 20
-22.1524827675
 10
-10.1411412929
 20
-22.1381583651
 10
-10.4194399272
 20
-22.1153230744
 10
-10.699646741
 20
-22.084000987
 10
-10.9829817556
 20
-22.04404973
 10
-11.2692169406
 20
-21.9954211561
 10
-11.5583353352
 20
-21.9380441477
 10
-11.8519252569
 20
-21.8714747269
 10
-12.1498682824
 20
-21.795507921
 10
-12.4520606945
 20
-21.7099467156
 10
-12.760150145
 20
-21.6140595911
 10
-13.0739911477
 20
-21.5075050024
 10
-13.3934832289
 20
-21.3899381803
 10
-13.7203561959
 20
-21.260309174
 10
-14.0550846062
 20
-21.1178625859
 10
-14.3968707511
 20
-20.9623222832
 10
-14.7455173832
 20
-20.7931988425
  0
LWPOLYLINE
  5
375
100
AcDbEntity
  8
RACCORDO
100
AcDbPolyline
 62
250
  6
CONTINUOUS
 90
19
 70
0
 10
19.0287087321
 20
-10.4919495595
 10
19.0276395231
 20
-10.4924883817
 10
19.0201317207
 20
-10.4955312299
 10
19.0110856972
 20
-10.4981364404
 10
19.0005257781
 20
-10.5003765842
 10
18.9889664748
 20
-10.5021140797
 10
18.9764866183
 20
-10.5034405457
 10
18.9630707527
 20
-10.5044660429
 10
18.949113895
 20
-10.5050967373
 10
18.9346775144
 20
-10.5054021547
 10
18.9197799988
 20
-10.5054776676
 10
18.9047585071
 20
-10.5052631824
 10
18.8896586956
 20
-10.5048145036
 10
18.8745270019
 20
-10.5042098276
 10
18.8597144753
 20
-10.5034237879
 10
18.8452744115
 20
-10.5025013444
 10
18.831259824
 20
-10.5015074166
 10
18.8180402992
 20
-10.5004518861
 10
18.8057821993
 20
-10.4993693401
  0
LINE
  5
376
100
AcDbEntity
  8
RACCORDO
100
AcDbLine
 62
7
  6
CONTINUOUS
 10
5.5666346868
 20
15.8953428353
 11
3.6163890021
 21
15.6963080382
  0
LINE
  5
377
100
AcDbEntity
  8
RACCORDO
100
AcDbLine
 62
7
  6
CONTINUOUS
 10
7.5648192406
 20
16.418558647
 11
7.5408316377
 21
16.4161105618
  0
LINE
  5
378
100
AcDbEntity
  8
RACCORDO
100
AcDbLine
 62
7
  6
CONTINUOUS
 10
1.753425555
 20
16.5468133728
 11
3.145779104
 21
16.6889117804
  0
LINE
  5
379
100
AcDbEntity
  8
RACCORDO
100
AcDbLine
 62
7
  6
CONTINUOUS
 10
1.2829366242
 20
16.8630342271
 11
3.2331823089
 21
17.0620690242
  0
LINE
  5
37A
100
AcDbEntity
  8
RACCORDO
100
AcDbLine
 62
7
  6
CONTINUOUS
 10
1.5361260341
 20
17.9105971616
 11
-0.4141196506
 21
17.7115623646
  0
LWPOLYLINE
  5
37B
100
AcDbEntity
  8
RACCORDO
100
AcDbPolyline
 62
7
  6
CONTINUOUS
 90
25
 70
0
 10
3.6163890021
 20
15.6963080382
 10
3.6072168975
 20
15.695560732
 10
3.5975645768
 20
15.6951209891
 10
3.5874320402
 20
15.6949888094
 10
3.5767719213
 20
15.695166255
 10
3.5656315865
 20
15.6956512639
 10
3.5541531346
 20
15.6964376495
 10
3.5423322344
 20
15.6975292724
 10
3.5301732171
 20
15.6989222721
 10
3.5178311752
 20
15.7005988804
 10
3.5053037641
 20
15.7025627302
 10
3.4925933285
 20
15.7048101886
 10
3.4798619943
 20
15.7073125884
 10
3.4671094938
 20
15.7100731954
 10
3.4543360948
 20
15.7130887438
 10
3.4417047263
 20
15.7163207694
 10
3.4292172079
 20
15.719772045
 10
3.41687172
 20
15.7234397977
 10
3.4048257338
 20
15.727277244
 10
3.3930830856
 20
15.7312865577
 10
3.3816399391
 20
15.735465565
 10
3.3706422555
 20
15.7397609612
 10
3.3601386886
 20
15.7441549781
 10
3.3500805846
 20
15.7486653839
 10
3.3404679435
 20
15.7532921786
  0
LWPOLYLINE
  5
37C
100
AcDbEntity
  8
RACCORDO
100
AcDbPolyline
 62
7
  6
CONTINUOUS
 90
25
 70
0
 10
3.2331823089
 20
17.0620690242
 10
3.2423544136
 20
17.0628163304
 10
3.2520067343
 20
17.0632560733
 10
3.2621392709
 20
17.063388253
 10
3.2727993897
 20
17.0632108074
 10
3.2839397245
 20
17.0627257985
 10
3.2954181764
 20
17.0619394129
 10
3.3072390767
 20
17.06084779
 10
3.319398094
 20
17.0594547903
 10
3.3317401359
 20
17.057778182
 10
3.344267547
 20
17.0558143322
 10
3.3569779826
 20
17.0535668738
 10
3.3697093168
 20
17.051064474
 10
3.3824618173
 20
17.048303867
 10
3.3952352163
 20
17.0452883186
 10
3.4078665847
 20
17.042056293
 10
3.4203541032
 20
17.0386050174
 10
3.4326995911
 20
17.0349372647
 10
3.4447455773
 20
17.0310998184
 10
3.4564882254
 20
17.0270905047
 10
3.467931372
 20
17.0229114974
 10
3.4789290556
 20
17.0186161012
 10
3.4894326225
 20
17.0142220843
 10
3.4994907265
 20
17.0097116786
 10
3.5091033676
 20
17.0050848838
  0
LWPOLYLINE
  5
37D
100
AcDbEntity
  8
RACCORDO
100
AcDbPolyline
 62
7
  6
CONTINUOUS
 90
25
 70
0
 10
-0.4141196506
 20
17.7115623646
 10
-0.4232917553
 20
17.7108150584
 10
-0.432944076
 20
17.7103753155
 10
-0.4430766126
 20
17.7102431357
 10
-0.4537367314
 20
17.7104205814
 10
-0.4648770662
 20
17.7109055902
 10
-0.4763555181
 20
17.7116919759
 10
-0.4881764184
 20
17.7127835988
 10
-0.5003354357
 20
17.7141765985
 10
-0.5126774776
 20
17.7158532068
 10
-0.5252048886
 20
17.7178170566
 10
-0.5379153243
 20
17.720064515
 10
-0.5506466585
 20
17.7225669148
 10
-0.5633991589
 20
17.7253275218
 10
-0.576172558
 20
17.7283430702
 10
-0.5888039264
 20
17.7315750958
 10
-0.6012914449
 20
17.7350263714
 10
-0.6136369327
 20
17.7386941241
 10
-0.625682919
 20
17.7425315704
 10
-0.6374255671
 20
17.7465408841
 10
-0.6488687136
 20
17.7507198914
 10
-0.6598663972
 20
17.7550152876
 10
-0.6703699642
 20
17.7594093044
 10
-0.6804280682
 20
17.7639197102
 10
-0.6900407092
 20
17.7685465049
  0
LINE
  5
37E
100
AcDbEntity
  8
RACCORDO
100
AcDbLine
 62
7
  6
CONTINUOUS
 10
7.5648192406
 20
16.642555261
 11
9.3253385654
 21
16.7295856186
  0
LWPOLYLINE
  5
37F
100
AcDbEntity
  8
RACCORDO
100
AcDbPolyline
 62
7
  6
CONTINUOUS
 90
25
 70
0
 10
3.4217001627
 20
16.63192764
 10
3.4120875216
 20
16.6365544347
 10
3.4020294176
 20
16.6410648405
 10
3.3915258507
 20
16.6454588574
 10
3.3805281671
 20
16.6497542536
 10
3.3690850205
 20
16.6539332608
 10
3.3573423724
 20
16.6579425745
 10
3.3452963862
 20
16.6617800208
 10
3.3329508983
 20
16.6654477735
 10
3.3204633798
 20
16.6688990492
 10
3.3078320114
 20
16.6721310747
 10
3.2950586124
 20
16.6751466231
 10
3.2823061119
 20
16.6779072302
 10
3.2695747777
 20
16.68040963
 10
3.2568643421
 20
16.6826570883
 10
3.244336931
 20
16.6846209381
 10
3.2319948891
 20
16.6862975464
 10
3.2198358718
 20
16.6876905461
 10
3.2080149716
 20
16.6887821691
 10
3.1965365196
 20
16.6895685547
 10
3.1853961848
 20
16.6900535635
 10
3.174736066
 20
16.6902310092
 10
3.1646035294
 20
16.6900988295
 10
3.1549512087
 20
16.6896590865
 10
3.145779104
 20
16.6889117804
  0
LWPOLYLINE
  5
380
100
AcDbEntity
  8
RACCORDO
100
AcDbPolyline
 62
7
  6
CONTINUOUS
 90
25
 70
0
 10
-0.6088084901
 20
18.6471819664
 10
-0.6184211312
 20
18.6518087611
 10
-0.6284792352
 20
18.6563191669
 10
-0.6389828021
 20
18.6607131837
 10
-0.6499804857
 20
18.6650085799
 10
-0.6614236322
 20
18.6691875872
 10
-0.6731662803
 20
18.6731969009
 10
-0.6852122666
 20
18.6770343472
 10
-0.6975577545
 20
18.6807020999
 10
-0.7100452729
 20
18.6841533755
 10
-0.7226766414
 20
18.6873854011
 10
-0.7354500404
 20
18.6904009495
 10
-0.7482025409
 20
18.6931615565
 10
-0.7609338751
 20
18.6956639563
 10
-0.7736443107
 20
18.6979114147
 10
-0.7861717217
 20
18.6998752645
 10
-0.7985137637
 20
18.7015518728
 10
-0.810672781
 20
18.7029448725
 10
-0.8224936812
 20
18.7040364954
 10
-0.8339721331
 20
18.7048228811
 10
-0.8451124679
 20
18.7053078899
 10
-0.8557725868
 20
18.7054853356
 10
-0.8659051234
 20
18.7053531558
 10
-0.875557444
 20
18.7049134129
 10
-0.8847295487
 20
18.7041661067
  0
LINE
  5
381
100
AcDbEntity
  8
0
100
AcDbLine
 62
250
  6
CONTINUOUS
 10
4.199010823
 20
15.0859938266
 11
-4.2862705513
 21
19.3286345137
  0
LINE
  5
382
100
AcDbEntity
  8
0
100
AcDbLine
 62
250
  6
CONTINUOUS
 10
4.3519664315
 20
15.1328012207
 11
-4.1333149427
 21
19.3754419078
  0
LINE
  5
383
100
AcDbEntity
  8
RACCORDO
100
AcDbLine
 62
7
  6
CONTINUOUS
 10
3.3404679435
 20
15.7532921786
 11
1.2898582781
 21
16.7785970113
  0
LINE
  5
384
100
AcDbEntity
  8
RACCORDO
100
AcDbLine
 62
7
  6
CONTINUOUS
 10
-0.6900407092
 20
17.7685465049
 11
-2.7406503747
 21
18.7938513377
  0
LINE
  5
385
100
AcDbEntity
  8
RACCORDO
100
AcDbLine
 62
7
  6
CONTINUOUS
 10
-0.6088084901
 20
18.6471819664
 11
0.9782338984
 21
17.8536607721
  0
LINE
  5
386
100
AcDbEntity
  8
RACCORDO
100
AcDbLine
 62
7
  6
CONTINUOUS
 10
3.4217001627
 20
16.63192764
 11
5.0087425512
 21
15.8384064457
  0
LINE
  5
387
100
AcDbEntity
  8
RACCORDO
100
AcDbLine
 62
7
  6
CONTINUOUS
 10
-0.5214052852
 20
19.0203392102
 11
1.5292043802
 21
17.9950343775
  0
LINE
  5
388
100
AcDbEntity
  8
RACCORDO
100
AcDbLine
 62
7
  6
CONTINUOUS
 10
3.5091033676
 20
17.0050848838
 11
5.559713033
 21
15.9797800511
  0
LINE
  5
389
100
AcDbEntity
  8
RACCORDO
100
AcDbLine
 62
7
  6
CONTINUOUS
 10
0.5120408188
 20
19.8495295823
 11
1.9616097202
 21
19.1247451316
  0
LINE
  5
38A
100
AcDbEntity
  8
RACCORDO
100
AcDbLine
 62
7
  6
CONTINUOUS
 10
8.826240077
 20
15.6924299532
 11
7.5477532916
 21
16.3316733459
  0
LWPOLYLINE
  5
38B
100
AcDbEntity
  8
RACCORDO
100
AcDbPolyline
 62
7
  6
CONTINUOUS
 90
15
 70
0
 10
-2.7406503747
 20
18.7938513377
 10
-2.7496666402
 20
18.7985389962
 10
-2.7580018281
 20
18.8032252364
 10
-2.7656559385
 20
18.8079100582
 10
-2.7726558377
 20
18.8126134534
 10
-2.7789746592
 20
18.8173154301
 10
-2.7845318045
 20
18.8219560131
 10
-2.7893175165
 20
18.826534416
 10
-2.7933415522
 20
18.831051425
 10
-2.7965525835
 20
18.8354494243
 10
-2.7989401962
 20
18.8397268893
 10
-2.8005148045
 20
18.8438853446
 10
-2.8012563239
 20
18.8478717475
 10
-2.8011540826
 20
18.8516838941
 10
-2.8008801132
 20
18.8531897688
  0
LWPOLYLINE
  5
38C
100
AcDbEntity
  8
RACCORDO
100
AcDbPolyline
 62
7
  6
CONTINUOUS
 90
15
 70
0
 10
1.2898582781
 20
16.7785970113
 10
1.2808420126
 20
16.7832846699
 10
1.2725068246
 20
16.78797091
 10
1.2648527142
 20
16.7926557318
 10
1.2578528151
 20
16.797359127
 10
1.2515339935
 20
16.8020611038
 10
1.2459768483
 20
16.8067016868
 10
1.2411911363
 20
16.8112800896
 10
1.2371671006
 20
16.8157970986
 10
1.2339560692
 20
16.8201950979
 10
1.2315684566
 20
16.8244725629
 10
1.2299938482
 20
16.8286310182
 10
1.2292523288
 20
16.8326174211
 10
1.2293545701
 20
16.8364295677
 10
1.2296285395
 20
16.8379354424
  0
LWPOLYLINE
  5
38D
100
AcDbEntity
  8
RACCORDO
100
AcDbPolyline
 62
7
  6
CONTINUOUS
 90
15
 70
0
 10
1.5292043802
 20
17.9950343775
 10
1.5382206457
 20
17.9903467189
 10
1.5465558337
 20
17.9856604787
 10
1.5542099441
 20
17.980975657
 10
1.5612098432
 20
17.9762722618
 10
1.5675286648
 20
17.971570285
 10
1.57308581
 20
17.966929702
 10
1.577871522
 20
17.9623512992
 10
1.5818955577
 20
17.9578342901
 10
1.5851065891
 20
17.9534362909
 10
1.5874942017
 20
17.9491588258
 10
1.5890688101
 20
17.9450003706
 10
1.5898103295
 20
17.9410139677
 10
1.5897080882
 20
17.937201821
 10
1.5894341188
 20
17.9356959464
  0
LWPOLYLINE
  5
38E
100
AcDbEntity
  8
RACCORDO
100
AcDbPolyline
 62
7
  6
CONTINUOUS
 90
15
 70
0
 10
5.559713033
 20
15.9797800511
 10
5.5687292985
 20
15.9750923925
 10
5.5770644865
 20
15.9704061524
 10
5.5847185969
 20
15.9657213306
 10
5.591718496
 20
15.9610179354
 10
5.5980373175
 20
15.9563159587
 10
5.6035944628
 20
15.9516753756
 10
5.6083801748
 20
15.9470969728
 10
5.6124042105
 20
15.9425799638
 10
5.6156152418
 20
15.9381819645
 10
5.6180028545
 20
15.9339044995
 10
5.6195774629
 20
15.9297460442
 10
5.6203189822
 20
15.9257596413
 10
5.6202167409
 20
15.9219474947
 10
5.6199427715
 20
15.92044162
  0
LWPOLYLINE
  5
38F
100
AcDbEntity
  8
RACCORDO
100
AcDbPolyline
 62
7
  6
CONTINUOUS
 90
15
 70
0
 10
7.5477532916
 20
16.3316733459
 10
7.5387370261
 20
16.3363610045
 10
7.5304018381
 20
16.3410472447
 10
7.5227477277
 20
16.3457320664
 10
7.5157478286
 20
16.3504354616
 10
7.509429007
 20
16.3551374384
 10
7.5038718618
 20
16.3597780214
 10
7.4990861498
 20
16.3643564242
 10
7.4950621141
 20
16.3688734333
 10
7.4918510827
 20
16.3732714326
 10
7.4894634701
 20
16.3775488976
 10
7.4878888617
 20
16.3817073528
 10
7.4871473423
 20
16.3856937557
 10
7.4872495837
 20
16.3895059024
 10
7.487523553
 20
16.391011777
  0
LINE
  5
390
100
AcDbEntity
  8
RACCORDO
100
AcDbLine
 62
250
  6
CONTINUOUS
 10
20.7020412729
 20
6.146792655
 11
20.6747306936
 21
6.1623564233
  0
LWPOLYLINE
  5
391
100
AcDbEntity
  8
RACCORDO
100
AcDbPolyline
 62
250
  6
CONTINUOUS
 90
3
 70
0
 10
20.8379780263
 20
-3.710804746
 10
20.8118325679
 20
-3.6657105006
 10
20.7814654996
 20
-3.6246309018
  0
LWPOLYLINE
  5
392
100
AcDbEntity
  8
ASSI
100
AcDbPolyline
 62
7
  6
CONTINUOUS
 90
22
 70
0
 10
7.0856352487
 20
23.8192026738
 10
7.0290365533
 20
23.9176641506
 10
6.9350670218
 20
24.0384651847
 10
6.8204892947
 20
24.1535148116
 10
6.6847822545
 20
24.262667596
 10
6.5284670187
 20
24.3660689732
 10
6.3554632769
 20
24.4611260974
 10
6.1653490284
 20
24.5476279683
 10
5.958546274
 20
24.6257855862
 10
5.7402407052
 20
24.6936391063
 10
5.5101414514
 20
24.7509279699
 10
5.2685393833
 20
24.7979127356
 10
5.0214928041
 20
24.833415235
 10
4.7688640391
 20
24.8571451171
 10
4.510790763
 20
24.8693927327
 10
4.2537443037
 20
24.8698509664
 10
3.9977506263
 20
24.8582217011
 10
3.7427837657
 20
24.8348030538
 10
3.4952371547
 20
24.8001822598
 10
3.2572419375
 20
24.7545550643
 10
3.0266669699
 20
24.6977257221
 10
2.8035122519
 20
24.6296942332
  0
LINE
  5
393
100
AcDbEntity
  8
RACCORDO
100
AcDbLine
 62
7
  6
CONTINUOUS
 10
6.3201079378
 20
26.821004778
 11
6.0095879417
 21
27.634977161
  0
LWPOLYLINE
  5
394
100
AcDbEntity
  8
RACCORDO
100
AcDbPolyline
 62
250
  6
CONTINUOUS
 90
4
 70
0
 10
11.1166664836
 20
24.9376003527
 10
11.1081101477
 20
24.9740025962
 10
11.096084094
 20
25.0107170093
 10
11.0807434382
 20
25.047024766
  0
LWPOLYLINE
  5
395
100
AcDbEntity
  8
RACCORDO
100
AcDbPolyline
 62
250
  6
CONTINUOUS
 90
3
 70
0
 10
20.8868546506
 20
-3.902987806
 10
20.8839228107
 20
-3.8561173558
 10
20.8745791473
 20
-3.8074766957
  0
LINE
  5
396
100
AcDbEntity
  8
RACCORDO
100
AcDbLine
 62
250
  6
CONTINUOUS
 10
18.7840467893
 20
5.264353786
 11
18.7866026136
 21
5.2104876777
  0
LWPOLYLINE
  5
397
100
AcDbEntity
  8
RACCORDO
100
AcDbPolyline
 62
250
  6
CONTINUOUS
 90
13
 70
0
 10
19.2009383172
 20
4.9568742795
 10
19.1993473465
 20
4.9918047966
 10
19.1941226783
 20
5.0279364287
 10
19.1853537151
 20
5.0646509936
 10
19.1731904829
 20
5.1013203801
 10
19.1578411032
 20
5.1373171712
 10
19.1395682655
 20
5.1720253887
 10
19.1186846573
 20
5.2048512052
 10
19.095547585
 20
5.2352330814
 10
19.0705529245
 20
5.2626512589
 10
19.0441283193
 20
5.2866367035
 10
19.0167258604
 20
5.306779125
 10
18.9888143594
 20
5.3227339861
  0
LWPOLYLINE
  5
398
100
AcDbEntity
  8
RACCORDO
100
AcDbPolyline
 62
250
  6
CONTINUOUS
 90
3
 70
0
 10
18.7840467893
 20
16.5890834703
 10
18.7824558683
 20
16.6240134661
 10
18.7772313464
 20
16.6601445965
  0
LINE
  5
399
100
AcDbEntity
  8
RACCORDO
100
AcDbLine
 62
7
  6
CONTINUOUS
 10
18.8709582325
 20
5.3457669727
 11
18.8700701895
 21
5.3694380085
  0
LWPOLYLINE
  5
39A
100
AcDbEntity
  8
RACCORDO
100
AcDbPolyline
 62
250
  6
CONTINUOUS
 90
19
 70
0
 10
18.8700716498
 20
-10.7532564548
 10
18.8698588429
 20
-10.7448379625
 10
18.8686715415
 20
-10.7305005916
 10
18.8665272969
 20
-10.7156326124
 10
18.8635328859
 20
-10.7002730658
 10
18.8597791849
 20
-10.6843440095
 10
18.855361042
 20
-10.6682666817
 10
18.8503664844
 20
-10.6520603543
 10
18.8448858627
 20
-10.6356930525
 10
18.839017688
 20
-10.6195158419
 10
18.8328344646
 20
-10.6035352187
 10
18.8264249983
 20
-10.5877529899
 10
18.819920854
 20
-10.5725214575
 10
18.8133901517
 20
-10.5578578185
 10
18.8069153878
 20
-10.5437727777
 10
18.800665149
 20
-10.5306196998
 10
18.7947461482
 20
-10.5185331288
 10
18.7891883799
 20
-10.5074225183
 10
18.7840467893
 20
-10.4973085643
  0
LINE
  5
39B
100
AcDbEntity
  8
RACCORDO
100
AcDbLine
 62
250
  6
CONTINUOUS
 10
18.7840467893
 20
16.5890834703
 11
18.7840467893
 21
5.264353786
  0
LINE
  5
39C
100
AcDbEntity
  8
RACCORDO
100
AcDbLine
 62
250
  6
CONTINUOUS
 10
18.7840467893
 20
-12.6376541397
 11
18.7840467893
 21
-10.4973085629
  0
LINE
  5
39D
100
AcDbEntity
  8
RACCORDO
100
AcDbLine
 62
250
  6
CONTINUOUS
 10
18.7840467893
 20
-4.9502311513
 11
18.7840467893
 21
-1.3129244554
  0
LINE
  5
39E
100
AcDbEntity
  8
RACCORDO
100
AcDbLine
 62
7
  6
CONTINUOUS
 10
18.8700714645
 20
16.6943886841
 11
18.8700716545
 21
5.369490174
  0
LINE
  5
39F
100
AcDbEntity
  8
RACCORDO
100
AcDbLine
 62
7
  6
CONTINUOUS
 10
18.8700716545
 20
-1.2077880664
 11
18.8700716545
 21
-4.4840881252
  0
LINE
  5
3A0
100
AcDbEntity
  8
RACCORDO
100
AcDbLine
 62
7
  6
CONTINUOUS
 10
18.8700716545
 20
-10.7531973502
 11
18.8700716545
 21
-12.5325177501
  0
LINE
  5
3A1
100
AcDbEntity
  8
RACCORDO
100
AcDbLine
 62
250
  6
CONTINUOUS
 10
20.8868546506
 20
5.7964967164
 11
20.8868546506
 21
0.2947654399
  0
LINE
  5
3A2
100
AcDbEntity
  8
RACCORDO
100
AcDbLine
 62
250
  6
CONTINUOUS
 10
20.8868546506
 20
-3.902987806
 11
20.8868546506
 21
-9.4047190824
  0
LINE
  5
3A3
100
AcDbEntity
  8
RACCORDO
100
AcDbLine
 62
7
  6
CONTINUOUS
 10
20.9728795159
 20
5.901633106
 11
20.9728795159
 21
0.3999018296
  0
LINE
  5
3A4
100
AcDbEntity
  8
RACCORDO
100
AcDbLine
 62
7
  6
CONTINUOUS
 10
20.9728795159
 20
-3.7978514164
 11
20.9728795159
 21
-9.2995826928
  0
LINE
  5
3A5
100
AcDbEntity
  8
RACCORDO
100
AcDbLine
 62
7
  6
CONTINUOUS
 10
18.8700716545
 20
5.369490174
 11
18.8700716364
 21
5.3694380078
  0
LINE
  5
3A6
100
AcDbEntity
  8
RACCORDO
100
AcDbLine
 62
250
  6
CONTINUOUS
 10
20.9728795159
 20
0.3999018296
 11
20.9728793495
 21
0.3997438526
  0
LINE
  5
3A7
100
AcDbEntity
  8
RACCORDO
100
AcDbLine
 62
250
  6
CONTINUOUS
 10
20.9728795159
 20
-9.2995826928
 11
20.9728793495
 21
-9.2997406698
  0
LWPOLYLINE
  5
3A8
100
AcDbEntity
  8
RACCORDO
100
AcDbPolyline
 62
7
  6
CONTINUOUS
 90
16
 70
0
 10
18.8700701592
 20
-1.2078484994
 10
18.8703149366
 20
-1.1946185255
 10
18.8731259091
 20
-1.159498585
 10
18.8794818649
 20
-1.1202654753
 10
18.8897614263
 20
-1.0777909832
 10
18.9041243641
 20
-1.0332487295
 10
18.922311885
 20
-0.9882875446
 10
18.9440641175
 20
-0.943933053
 10
18.9688340281
 20
-0.9014866253
 10
18.9953841659
 20
-0.8627843581
 10
19.022616977
 20
-0.8287885685
 10
19.0497862883
 20
-0.7997551628
 10
19.0757842657
 20
-0.776116912
 10
19.0994959263
 20
-0.7580006228
 10
19.1201247021
 20
-0.7450651136
 10
19.1254600432
 20
-0.7421936482
  0
LWPOLYLINE
  5
3A9
100
AcDbEntity
  8
RACCORDO
100
AcDbPolyline
 62
7
  6
CONTINUOUS
 90
10
 70
0
 10
18.8700674275
 20
-10.753310603
 10
18.8710559673
 20
-10.7291909714
 10
18.8767253814
 20
-10.6910964375
 10
18.8880630371
 20
-10.6520157739
 10
18.9054749411
 20
-10.6133677438
 10
18.9281140617
 20
-10.5777837544
 10
18.9554006063
 20
-10.5459839368
 10
18.9867140639
 20
-10.5185301384
 10
19.0197837977
 20
-10.4967883548
 10
19.0287947413
 20
-10.4919056682
  0
LINE
  5
3AA
100
AcDbEntity
  8
RACCORDO
100
AcDbLine
 62
250
  6
CONTINUOUS
 10
18.786602602
 20
-1.2564575225
 11
18.7840467893
 21
-1.3129244554
  0
LWPOLYLINE
  5
3AB
100
AcDbEntity
  8
RACCORDO
100
AcDbPolyline
 62
250
  6
CONTINUOUS
 90
8
 70
0
 10
18.7840467893
 20
-12.6376541397
 10
18.7824558683
 20
-12.6705416914
 10
18.7772313464
 20
-12.7010678439
 10
18.7684626079
 20
-12.7287103367
 10
18.7562996739
 20
-12.752996245
 10
18.7409506353
 20
-12.7735100704
 10
18.722678093
 20
-12.7899008495
 10
18.7083907107
 20
-12.7987278902
  0
LWPOLYLINE
  5
3AC
100
AcDbEntity
  8
RACCORDO
100
AcDbPolyline
 62
250
  6
CONTINUOUS
 90
7
 70
0
 10
20.9728795159
 20
5.901633106
 10
20.970625274
 20
5.8832791995
 10
20.9632913923
 20
5.86401349
 10
20.9509951695
 20
5.8453932554
 10
20.9339490567
 20
5.8277367346
 10
20.9124458969
 20
5.8113447498
 10
20.8868546506
 20
5.7964967164
  0
LWPOLYLINE
  5
3AD
100
AcDbEntity
  8
RACCORDO
100
AcDbPolyline
 62
250
  6
CONTINUOUS
 90
7
 70
0
 10
20.9728793495
 20
0.3997438526
 10
20.970625274
 20
0.3815479231
 10
20.9632913923
 20
0.3622822135
 10
20.9509951695
 20
0.3436619789
 10
20.9339490567
 20
0.3260054581
 10
20.9124458969
 20
0.3096134734
 10
20.8868546506
 20
0.2947654399
  0
LWPOLYLINE
  5
3AE
100
AcDbEntity
  8
RACCORDO
100
AcDbPolyline
 62
250
  6
CONTINUOUS
 90
7
 70
0
 10
18.8700716302
 20
-1.2078485002
 10
18.8677011496
 20
-1.2266074959
 10
18.8602971627
 20
-1.2457655419
 10
18.8479820619
 20
-1.2642809993
 10
18.8309642348
 20
-1.2818405175
 10
18.8095315961
 20
-1.2981469854
 10
18.7840467893
 20
-1.3129244566
  0
LWPOLYLINE
  5
3AF
100
AcDbEntity
  8
RACCORDO
100
AcDbPolyline
 62
250
  6
CONTINUOUS
 90
7
 70
0
 10
18.8700716525
 20
-12.5325352711
 10
18.8675186008
 20
-12.5520453852
 10
18.8598555546
 20
-12.5713291249
 10
18.8473152889
 20
-12.5898238737
 10
18.8302520675
 20
-12.6071939723
 10
18.8090182466
 20
-12.6232157739
 10
18.7840467893
 20
-12.6376541397
  0
LWPOLYLINE
  5
3B0
100
AcDbEntity
  8
RACCORDO
100
AcDbPolyline
 62
250
  6
CONTINUOUS
 90
19
 70
0
 10
18.7840467893
 20
-4.9502311507
 10
18.7897335339
 20
-4.9330889488
 10
18.7956730668
 20
-4.9146028668
 10
18.8018185096
 20
-4.8947569896
 10
18.8081359528
 20
-4.8734339442
 10
18.814548091
 20
-4.850719263
 10
18.8209426119
 20
-4.8269048994
 10
18.8272512967
 20
-4.8019899305
 10
18.8334187768
 20
-4.7759556621
 10
18.8393574558
 20
-4.7490736766
 10
18.8449900836
 20
-4.7213540339
 10
18.8502548445
 20
-4.6927808241
 10
18.8550831632
 20
-4.663590798
 10
18.8593885067
 20
-4.6337727099
 10
18.8630905882
 20
-4.6033475125
 10
18.8661119682
 20
-4.5726035152
 10
18.8683567664
 20
-4.541405267
 10
18.8697069516
 20
-4.5099203528
 10
18.8700716504
 20
-4.4840823211
  0
LWPOLYLINE
  5
3B1
100
AcDbEntity
  8
RACCORDO
100
AcDbPolyline
 62
250
  6
CONTINUOUS
 90
5
 70
0
 10
18.83989017
 20
-1.025922659
 10
18.8200688578
 20
-1.0843700483
 10
18.8045142045
 20
-1.142464328
 10
18.7934250738
 20
-1.1996374801
 10
18.786602602
 20
-1.2564575225
  0
LWPOLYLINE
  5
3B2
100
AcDbEntity
  8
RACCORDO
100
AcDbPolyline
 62
250
  6
CONTINUOUS
 90
6
 70
0
 10
20.8111985721
 20
-9.5657928329
 10
20.8379780263
 20
-9.5465120733
 10
20.8591075352
 20
-9.5200611877
 10
20.8745791473
 20
-9.4869118225
 10
20.8839228107
 20
-9.448071107
 10
20.8868546506
 20
-9.4047190824
  0
LINE
  5
3B3
100
AcDbEntity
  8
RACCORDO
100
AcDbLine
 62
7
  6
CONTINUOUS
 10
20.8111985721
 20
-9.5657928329
 11
19.0287373306
 21
-10.4919347014
  0
LINE
  5
3B4
100
AcDbEntity
  8
RACCORDO
100
AcDbLine
 62
250
  6
CONTINUOUS
 10
17.1836874091
 20
-13.4691784344
 11
18.7840467893
 21
-12.6376541397
  0
LINE
  5
3B5
100
AcDbEntity
  8
RACCORDO
100
AcDbLine
 62
7
  6
CONTINUOUS
 10
17.1836874091
 20
-13.5909423472
 11
18.7083907107
 21
-12.7987278902
  0
LWPOLYLINE
  5
3B6
100
AcDbEntity
  8
RACCORDO
100
AcDbPolyline
 62
250
  6
CONTINUOUS
 90
43
 70
0
 10
-5.9771281713
 20
-23.6536812299
 10
-6.2642137882
 20
-23.7760060616
 10
-6.5728099065
 20
-23.8878351223
 10
-6.9029157039
 20
-23.9891678046
 10
-7.2544833517
 20
-24.0821663761
 10
-7.6275562941
 20
-24.1646658335
 10
-8.022282929
 20
-24.2301814723
 10
-8.4408397536
 20
-24.2783667643
 10
-8.8810716818
 20
-24.3095798227
 10
-9.3366571024
 20
-24.318408119
 10
-9.8081686379
 20
-24.3035556114
 10
-10.295082751
 20
-24.2663454948
 10
-10.7894548431
 20
-24.2053059863
 10
-11.2898639159
 20
-24.1197891649
 10
-11.7977828134
 20
-24.0104718612
 10
-12.3096128344
 20
-23.8778723314
 10
-12.8247060016
 20
-23.7219691839
 10
-13.3437451382
 20
-23.5428033301
 10
-13.8651243095
 20
-23.3409845749
 10
-14.3889249419
 20
-23.1164374592
 10
-14.9150805916
 20
-22.8692458559
 10
-15.4417586361
 20
-22.6002558303
 10
-15.9688263074
 20
-22.3095030142
 10
-16.4964112386
 20
-21.9969488907
 10
-17.0230663777
 20
-21.6633254777
 10
-17.5501466425
 20
-21.3073873946
 10
-18.0762715212
 20
-20.9303656639
 10
-18.5958871729
 20
-20.5367048731
 10
-19.1111584459
 20
-20.1234045701
 10
-19.6198775786
 20
-19.6934412192
 10
-20.1099382198
 20
-19.2602283969
 10
-20.5787984889
 20
-18.8247931917
 10
-21.0289649552
 20
-18.3860889202
 10
-21.455923888
 20
-17.9544296705
 10
-21.857040381
 20
-17.5325217374
 10
-22.2349367605
 20
-17.1176520051
 10
-22.5930035719
 20
-16.7120157176
 10
-22.9303901979
 20
-16.3173419051
 10
-23.2479468663
 20
-15.9319015134
 10
-23.5516216642
 20
-15.5527061456
 10
-23.8433966605
 20
-15.1787593882
 10
-24.1212879302
 20
-14.8110568252
 10
-24.3852945443
 20
-14.4495980435
  0
LINE
  5
3B7
100
AcDbEntity
  8
RACCORDO
100
AcDbLine
 62
7
  6
CONTINUOUS
 10
-2.2770830978
 20
18.5620676992
 11
-0.8847295487
 21
18.7041661067
  0
LINE
  5
3B8
100
AcDbEntity
  8
RACCORDO
100
AcDbLine
 62
7
  6
CONTINUOUS
 10
3.5724804936
 20
19.2040009776
 11
2.2375307788
 21
19.0677609912
  0
LINE
  5
3B9
100
AcDbEntity
  8
RACCORDO
100
AcDbLine
 62
7
  6
CONTINUOUS
 10
-2.7475720285
 20
18.8782885535
 11
-0.7973263438
 21
19.0773233506
  0
LINE
  5
3BA
100
AcDbEntity
  8
0
100
AcDbLine
 62
7
  6
CONTINUOUS
 10
-4.1333149427
 20
19.3754419078
 11
0.5120408188
 21
19.8495295823
  0
LWPOLYLINE
  5
3BB
100
AcDbEntity
  8
RACCORDO
100
AcDbPolyline
 62
7
  6
CONTINUOUS
 90
25
 70
0
 10
2.2375307788
 20
19.0677609912
 10
2.2283586741
 20
19.0670136851
 10
2.2187063535
 20
19.0665739421
 10
2.2085738169
 20
19.0664417624
 10
2.197913698
 20
19.066619208
 10
2.1867733632
 20
19.0671042169
 10
2.1752949113
 20
19.0678906025
 10
2.1634740111
 20
19.0689822255
 10
2.1513149938
 20
19.0703752252
 10
2.1389729518
 20
19.0720518334
 10
2.1264455408
 20
19.0740156832
 10
2.1137351052
 20
19.0762631416
 10
2.101003771
 20
19.0787655414
 10
2.0882512705
 20
19.0815261484
 10
2.0754778715
 20
19.0845416969
 10
2.062846503
 20
19.0877737224
 10
2.0503589846
 20
19.091224998
 10
2.0380134967
 20
19.0948927507
 10
2.0259675104
 20
19.0987301971
 10
2.0142248623
 20
19.1027395107
 10
2.0027817158
 20
19.106918518
 10
1.9917840322
 20
19.1112139142
 10
1.9812804653
 20
19.1156079311
 10
1.9712223613
 20
19.1201183369
 10
1.9616097202
 20
19.1247451316
  0
LWPOLYLINE
  5
3BC
100
AcDbEntity
  8
RACCORDO
100
AcDbPolyline
 62
7
  6
CONTINUOUS
 90
25
 70
0
 10
-0.7973263438
 20
19.0773233506
 10
-0.7881542391
 20
19.0780706568
 10
-0.7785019185
 20
19.0785103997
 10
-0.7683693819
 20
19.0786425794
 10
-0.757709263
 20
19.0784651338
 10
-0.7465689282
 20
19.0779801249
 10
-0.7350904763
 20
19.0771937393
 10
-0.7232695761
 20
19.0761021164
 10
-0.7111105588
 20
19.0747091166
 10
-0.6987685168
 20
19.0730325084
 10
-0.6862411058
 20
19.0710686586
 10
-0.6735306702
 20
19.0688212002
 10
-0.660799336
 20
19.0663188004
 10
-0.6480468355
 20
19.0635581934
 10
-0.6352734365
 20
19.0605426449
 10
-0.622642068
 20
19.0573106194
 10
-0.6101545496
 20
19.0538593438
 10
-0.5978090617
 20
19.0501915911
 10
-0.5857630754
 20
19.0463541448
 10
-0.5740204273
 20
19.0423448311
 10
-0.5625772808
 20
19.0381658238
 10
-0.5515795972
 20
19.0338704276
 10
-0.5410760303
 20
19.0294764107
 10
-0.5310179263
 20
19.0249660049
 10
-0.5214052852
 20
19.0203392102
  0
LINE
  5
3BD
100
AcDbEntity
  8
RACCORDO
100
AcDbLine
 62
7
  6
CONTINUOUS
 10
1.9445437712
 20
19.4526929957
 11
3.6746012933
 21
19.5549542547
  0
LINE
  5
3BE
100
AcDbEntity
  8
DRAFT
100
AcDbLine
 62
7
  6
CONTINUOUS
 10
0.3706194625
 20
20.23965515
 11
2.4590603803
 21
20.3569644056
  0
LWPOLYLINE
  5
3BF
100
AcDbEntity
  8
0
100
AcDbPolyline
 62
7
  6
CONTINUOUS
 90
7
 70
0
 10
3.6586659951
 20
19.2040305374
 10
3.6447174524
 20
19.2052780173
 10
3.6306026267
 20
19.2060245346
 10
3.616321518
 20
19.2062700893
 10
3.6018741262
 20
19.2060146814
 10
3.5872604514
 20
19.2052583108
 10
3.5724804936
 20
19.2040009776
  0
LWPOLYLINE
  5
3C0
100
AcDbEntity
  8
0
100
AcDbPolyline
 62
7
  6
CONTINUOUS
 90
5
 70
0
 10
3.778365307
 20
19.1693567515
 10
3.7585108635
 20
19.1784972003
 10
3.7266573021
 20
19.1900969628
 10
3.6933756792
 20
19.1986080752
 10
3.6586659951
 20
19.2040305374
  0
LWPOLYLINE
  5
3C1
100
AcDbEntity
  8
RACCORDO
100
AcDbPolyline
 62
250
  6
CONTINUOUS
 90
7
 70
0
 10
17.0176301405
 20
13.1437095297
 10
17.0128832472
 20
13.1459336037
 10
16.9897679844
 20
13.1533009953
 10
16.9650031028
 20
13.1558905901
 10
16.9391013934
 20
13.1537646283
 10
16.9124626814
 20
13.147064885
 10
16.8855385869
 20
13.13599432
  0
LINE
  5
3C2
100
AcDbEntity
  8
RACCORDO
100
AcDbLine
 62
250
  6
CONTINUOUS
 10
17.0178514878
 20
13.14359916
 11
17.0176301405
 21
13.1437095297
  0
LINE
  5
3C3
100
AcDbEntity
  8
DRAFT
100
AcDbLine
 62
7
  6
CONTINUOUS
 10
13.5449480814
 20
13.6450684567
 11
12.9452236763
 21
13.9449306592
  0
LINE
  5
3C4
100
AcDbEntity
  8
DRAFT
100
AcDbLine
 62
7
  6
CONTINUOUS
 10
0.3706194625
 20
20.23965515
 11
1.9445437712
 21
19.4526929957
  0
LINE
  5
3C5
100
AcDbEntity
  8
DRAFT
100
AcDbLine
 62
7
  6
CONTINUOUS
 10
7.5648192406
 20
16.642555261
 11
9.1387435492
 21
15.8555931067
  0
LINE
  5
3C6
100
AcDbEntity
  8
0
100
AcDbLine
 62
250
  6
CONTINUOUS
 10
8.5936522744
 20
16.6934150872
 11
3.5724804936
 21
19.2040009776
  0
LINE
  5
3C7
100
AcDbEntity
  8
0
100
AcDbLine
 62
7
  6
CONTINUOUS
 10
3.7783155185
 20
19.1693816508
 11
8.7179586078
 21
16.6995601062
  0
LINE
  5
3C8
100
AcDbEntity
  8
RACCORDO
100
AcDbLine
 62
250
  6
CONTINUOUS
 10
4.8148037415
 20
19.1713617427
 11
9.9180944651
 21
16.6197163809
  0
LINE
  5
3C9
100
AcDbEntity
  8
RACCORDO
100
AcDbLine
 62
250
  6
CONTINUOUS
 10
12.6857026413
 20
15.2359122928
 11
16.8855385869
 21
13.13599432
  0
LINE
  5
3CA
100
AcDbEntity
  8
RACCORDO
100
AcDbLine
 62
7
  6
CONTINUOUS
 10
2.4590603803
 20
20.3569644056
 11
3.6715294593
 21
19.7507298661
  0
LINE
  5
3CB
100
AcDbEntity
  8
RACCORDO
100
AcDbLine
 62
7
  6
CONTINUOUS
 10
10.0293465881
 20
16.5718213017
 11
10.2993659102
 21
16.4368116406
  0
LINE
  5
3CC
100
AcDbEntity
  8
RACCORDO
100
AcDbLine
 62
7
  6
CONTINUOUS
 10
4.9459619652
 20
19.1795439213
 11
10.3653446374
 21
16.4698525852
  0
LINE
  5
3CD
100
AcDbEntity
  8
RACCORDO
100
AcDbLine
 62
7
  6
CONTINUOUS
 10
12.6254767999
 20
15.339786504
 11
17.0178514878
 21
13.14359916
  0
LINE
  5
3CE
100
AcDbEntity
  8
RACCORDO
100
AcDbLine
 62
7
  6
CONTINUOUS
 10
-3.8628548713
 20
23.7346105791
 11
-14.2690503702
 21
28.9377083285
  0
LINE
  5
3CF
100
AcDbEntity
  8
RACCORDO
100
AcDbLine
 62
250
  6
CONTINUOUS
 10
0.8265840148
 20
21.7600848313
 11
2.1055113052
 21
21.1206211861
  0
LINE
  5
3D0
100
AcDbEntity
  8
RACCORDO
100
AcDbLine
 62
250
  6
CONTINUOUS
 10
10.8857896977
 20
16.7304819899
 11
11.5539812261
 21
16.3963862257
  0
LINE
  5
3D1
100
AcDbEntity
  8
RACCORDO
100
AcDbLine
 62
7
  6
CONTINUOUS
 10
1.0522097903
 20
21.7745130057
 11
2.3295673885
 21
21.1358342067
  0
LINE
  5
3D2
100
AcDbEntity
  8
RACCORDO
100
AcDbLine
 62
7
  6
CONTINUOUS
 10
11.1114154732
 20
16.7449101643
 11
11.8596220534
 21
16.3708068742
  0
LWPOLYLINE
  5
3D3
100
AcDbEntity
  8
RACCORDO
100
AcDbPolyline
 62
250
  6
CONTINUOUS
 90
5
 70
0
 10
16.8855385869
 20
13.13599432
 10
16.9134507463
 20
13.1200390293
 10
16.9408536961
 20
13.0998960952
 10
16.9672786095
 20
13.0759101357
 10
16.9922733929
 20
13.0484915173
  0
LWPOLYLINE
  5
3D4
100
AcDbEntity
  8
RACCORDO
100
AcDbPolyline
 62
250
  6
CONTINUOUS
 90
4
 70
0
 10
20.7804018095
 20
6.0761259556
 10
20.7553136737
 20
6.1034240505
 10
20.729056616
 20
6.1270660291
 10
20.7020412729
 20
6.146792655
  0
LWPOLYLINE
  5
3D5
100
AcDbEntity
  8
RACCORDO
100
AcDbPolyline
 62
7
  6
CONTINUOUS
 90
7
 70
0
 10
18.8809841618
 20
5.2968148006
 10
18.8816443916
 20
5.2959364248
 10
18.8819280042
 20
5.2956160256
 10
18.8797825856
 20
5.3004952972
 10
18.876562493
 20
5.3106215682
 10
18.8733409469
 20
5.3258216057
 10
18.8709582325
 20
5.3457669727
  0
LINE
  5
3D6
100
AcDbEntity
  8
DRAFT
100
AcDbLine
 62
7
  6
CONTINUOUS
 10
13.5449480814
 20
13.6450684567
 11
14.5023644921
 21
11.9937694125
  0
LINE
  5
3D7
100
AcDbEntity
  8
RACCORDO
100
AcDbLine
 62
7
  6
CONTINUOUS
 10
12.2640714137
 20
15.9631185903
 11
13.0802932982
 21
14.5553440811
  0
LWPOLYLINE
  5
3D8
100
AcDbEntity
  8
RACCORDO
100
AcDbPolyline
 62
250
  6
CONTINUOUS
 90
5
 70
0
 10
17.0545663899
 20
12.9505752762
 10
17.0699154285
 20
12.9145788145
 10
17.0820783625
 20
12.8779098504
 10
17.090847101
 20
12.8411957393
 10
17.0960716229
 20
12.8050646089
  0
LWPOLYLINE
  5
3D9
100
AcDbEntity
  8
RACCORDO
100
AcDbPolyline
 62
250
  6
CONTINUOUS
 90
3
 70
0
 10
20.8745791473
 20
-3.8074766957
 10
20.8591075352
 20
-3.7585436046
 10
20.8379780263
 20
-3.710804746
  0
LWPOLYLINE
  5
3DA
100
AcDbEntity
  8
RACCORDO
100
AcDbPolyline
 62
250
  6
CONTINUOUS
 90
15
 70
0
 10
18.7866026136
 20
5.2104876777
 10
18.7934250921
 20
5.1606102391
 10
18.8045142248
 20
5.1147214702
 10
18.8200688727
 20
5.0724557153
 10
18.8398901747
 20
5.03417863
 10
18.8633815484
 20
5.0009871811
 10
18.8906756312
 20
4.9729926287
 10
18.9216397856
 20
4.9500837126
 10
18.955279516
 20
4.9330236193
 10
18.9916476828
 20
4.9219978717
 10
19.0306914255
 20
4.916820947
 10
19.0712576678
 20
4.9176994635
 10
19.112962051
 20
4.924702294
 10
19.1561889337
 20
4.9377605658
 10
19.200938316
 20
4.9568742789
  0
LWPOLYLINE
  5
3DB
100
AcDbEntity
  8
RACCORDO
100
AcDbPolyline
 62
250
  6
CONTINUOUS
 90
3
 70
0
 10
20.8868546506
 20
5.7964967164
 10
20.8852486805
 20
5.8315832672
 10
20.8799762069
 20
5.8678850904
  0
LWPOLYLINE
  5
3DC
100
AcDbEntity
  8
RACCORDO
100
AcDbPolyline
 62
250
  6
CONTINUOUS
 90
7
 70
0
 10
20.9728795159
 20
-3.7978514164
 10
20.970625274
 20
-3.8162053228
 10
20.9632913923
 20
-3.8354710324
 10
20.9509951695
 20
-3.854091267
 10
20.9339490567
 20
-3.8717477878
 10
20.9124458969
 20
-3.8881397726
 10
20.8868546506
 20
-3.902987806
  0
LWPOLYLINE
  5
3DD
100
AcDbEntity
  8
RACCORDO
100
AcDbPolyline
 62
250
  6
CONTINUOUS
 90
7
 70
0
 10
20.9728793495
 20
-9.2997406698
 10
20.970625274
 20
-9.3179365993
 10
20.9632913923
 20
-9.3372023088
 10
20.9509951695
 20
-9.3558225434
 10
20.9339490567
 20
-9.3734790642
 10
20.9124458969
 20
-9.389871049
 10
20.8868546506
 20
-9.4047190824
  0
LWPOLYLINE
  5
3DE
100
AcDbEntity
  8
RACCORDO
100
AcDbPolyline
 62
7
  6
CONTINUOUS
 90
13
 70
0
 10
-21.2714752785
 20
17.6353841019
 10
-20.7885334241
 20
17.7648885977
 10
-20.2963778697
 20
17.8675458463
 10
-19.7950086153
 20
17.9433558475
 10
-19.2837652808
 20
17.9923447712
 10
-18.7633082464
 20
18.0144864475
 10
-18.235618652
 20
18.0097023675
 10
-17.700659466
 20
17.9778899365
 10
-17.1584677202
 20
17.9191517491
 10
-16.6111356499
 20
17.8337170805
 10
-16.0593606671
 20
17.7216623556
 10
-15.5024453598
 20
17.5829111495
 10
-14.9403897282
 20
17.4174634621
  0
LWPOLYLINE
  5
3DF
100
AcDbEntity
  8
RACCORDO
100
AcDbPolyline
 62
7
  6
CONTINUOUS
 90
8
 70
0
 10
11.2077385365
 20
20.7109023427
 10
11.2062616431
 20
20.7112581581
 10
11.2003060733
 20
20.7109171474
 10
11.1911101146
 20
20.7087966043
 10
11.1787127145
 20
20.7044589084
 10
11.1631963949
 20
20.6978749733
 10
11.1446527438
 20
20.6894275155
 10
11.1232273256
 20
20.6792909306
  0
LWPOLYLINE
  5
3E0
100
AcDbEntity
  8
RACCORDO
100
AcDbPolyline
 62
250
  6
CONTINUOUS
 90
7
 70
0
 10
18.7040143859
 20
16.9626583869
 10
18.6992674926
 20
16.9648824609
 10
18.6761522297
 20
16.9722498525
 10
18.6513873481
 20
16.9748394474
 10
18.6254856388
 20
16.9727134856
 10
18.5988469267
 20
16.9660137422
 10
18.5719228322
 20
16.9549431773
  0
LINE
  5
3E1
100
AcDbEntity
  8
RACCORDO
100
AcDbLine
 62
250
  6
CONTINUOUS
 10
-2.3308684724
 20
27.48010012
 11
-2.3350397112
 21
27.4820798348
  0
LINE
  5
3E2
100
AcDbEntity
  8
RACCORDO
100
AcDbLine
 62
7
  6
CONTINUOUS
 10
6.3647743083
 20
23.4628654951
 11
6.3080539948
 21
23.4909432878
  0
LINE
  5
3E3
100
AcDbEntity
  8
RACCORDO
100
AcDbLine
 62
250
  6
CONTINUOUS
 10
18.7042357332
 20
16.9625480173
 11
18.7040143859
 21
16.9626583869
  0
LINE
  5
3E4
100
AcDbEntity
  8
RACCORDO
100
AcDbLine
 62
250
  6
CONTINUOUS
 10
-2.4631813733
 20
27.4724952801
 11
0.5874880816
 21
25.9471605526
  0
LINE
  5
3E5
100
AcDbEntity
  8
RACCORDO
100
AcDbLine
 62
250
  6
CONTINUOUS
 10
11.1232273256
 20
20.6792909306
 11
18.5719228322
 21
16.9549431773
  0
LINE
  5
3E6
100
AcDbEntity
  8
RACCORDO
100
AcDbLine
 62
7
  6
CONTINUOUS
 10
-2.3308684724
 20
27.48010012
 11
0.6626969232
 21
25.9833174223
  0
LINE
  5
3E7
100
AcDbEntity
  8
RACCORDO
100
AcDbLine
 62
7
  6
CONTINUOUS
 10
11.2077330368
 20
20.7107993655
 11
18.7042357332
 21
16.9625480173
  0
LWPOLYLINE
  5
3E8
100
AcDbEntity
  8
RACCORDO
100
AcDbPolyline
 62
250
  6
CONTINUOUS
 90
20
 70
0
 10
6.4454647697
 20
23.5027525381
 10
6.3591270592
 20
23.5499641361
 10
6.1826088954
 20
23.631264465
 10
5.9927330765
 20
23.7047371852
 10
5.7935692605
 20
23.7690431519
 10
5.587742924
 20
23.8238545809
 10
5.3763270774
 20
23.8693737195
 10
5.1615378349
 20
23.9055617279
 10
4.9454617887
 20
23.9325447208
 10
4.729283531
 20
23.9506338131
 10
4.5137375222
 20
23.960144262
 10
4.2998695968
 20
23.9613382571
 10
4.0892316127
 20
23.9545104769
 10
3.8831458062
 20
23.9400302552
 10
3.6822816092
 20
23.9182568677
 10
3.4879706745
 20
23.8896467492
 10
3.3022830034
 20
23.8549148238
 10
3.1262288441
 20
23.8147626307
 10
2.9598569347
 20
23.7697171292
 10
2.8035122519
 20
23.7203675592
  0
LINE
  5
3E9
100
AcDbEntity
  8
RACCORDO
100
AcDbLine
 62
250
  6
CONTINUOUS
 10
18.5998349917
 20
16.9389878865
 11
18.5719228322
 21
16.9549431773
  0
LWPOLYLINE
  5
3EA
100
AcDbEntity
  8
RACCORDO
100
AcDbPolyline
 62
250
  6
CONTINUOUS
 90
4
 70
0
 10
16.9922733929
 20
13.0484915173
 10
17.0154104198
 20
13.0181093349
 10
17.0362938477
 20
12.9852833856
 10
17.0545663899
 20
12.9505752762
  0
LWPOLYLINE
  5
3EB
100
AcDbEntity
  8
RACCORDO
100
AcDbPolyline
 62
250
  6
CONTINUOUS
 90
4
 70
0
 10
20.8433572359
 20
5.9777791108
 10
20.8249167001
 20
6.01262463
 10
20.8037968493
 20
6.0456245199
 10
20.7804018095
 20
6.0761259556
  0
LWPOLYLINE
  5
3EC
100
AcDbEntity
  8
RACCORDO
100
AcDbPolyline
 62
250
  6
CONTINUOUS
 90
4
 70
0
 10
11.0807434382
 20
25.047024766
 10
11.0624256943
 20
25.0820446654
 10
11.0414988509
 20
25.1150978315
 10
11.0182876725
 20
25.1456928175
  0
LWPOLYLINE
  5
3ED
100
AcDbEntity
  8
RACCORDO
100
AcDbPolyline
 62
250
  6
CONTINUOUS
 90
4
 70
0
 10
20.8799762069
 20
5.8678850904
 10
20.8711264059
 20
5.9047758951
 10
20.858849865
 20
5.9416199034
 10
20.8433572359
 20
5.9777791108
  0
LWPOLYLINE
  5
3EE
100
AcDbEntity
  8
RACCORDO
100
AcDbPolyline
 62
250
  6
CONTINUOUS
 90
4
 70
0
 10
18.7772313464
 20
16.6601445965
 10
18.7684626079
 20
16.6968587077
 10
18.7562996739
 20
16.7335276718
 10
18.7409506353
 20
16.7695241334
  0
LINE
  5
3EF
100
AcDbEntity
  8
DRAFT
100
AcDbLine
 62
7
  6
CONTINUOUS
 10
8.193940908
 20
-24.9369904371
 11
6.7673856908
 21
-25.9708790145
  0
LINE
  5
3F0
100
AcDbEntity
  8
DRAFT
100
AcDbLine
 62
7
  6
CONTINUOUS
 10
8.193940908
 20
-24.9627960973
 11
6.7673856908
 21
-25.9966846747
  0
LINE
  5
3F1
100
AcDbEntity
  8
DRAFT
100
AcDbLine
 62
7
  6
CONTINUOUS
 10
14.5023644921
 20
-21.7248723824
 11
12.4135772315
 21
-23.238710237
  0
LWPOLYLINE
  5
3F2
100
AcDbEntity
  8
RACCORDO
100
AcDbPolyline
 62
250
  6
CONTINUOUS
 90
7
 70
0
 10
17.0976625439
 20
-19.8602430985
 10
17.1232537902
 20
-19.8453950651
 10
17.14475695
 20
-19.8290030803
 10
17.1618030628
 20
-19.8113465595
 10
17.1740992855
 20
-19.7927263249
 10
17.1814331672
 20
-19.7734606153
 10
17.1836872428
 20
-19.7552646858
  0
LINE
  5
3F3
100
AcDbEntity
  8
RACCORDO
100
AcDbLine
 62
250
  6
CONTINUOUS
 10
14.5023644921
 20
-21.2087235765
 11
17.0976625439
 21
-19.8602430985
  0
LINE
  5
3F4
100
AcDbEntity
  8
RACCORDO
100
AcDbLine
 62
7
  6
CONTINUOUS
 10
14.5023644921
 20
-21.3304874894
 11
17.0220064653
 21
-20.021316849
  0
LINE
  5
3F5
100
AcDbEntity
  8
DRAFT
100
AcDbLine
 62
7
  6
CONTINUOUS
 10
12.4135772315
 20
-23.238710237
 11
6.7673856908
 21
-26.1428563153
  0
LINE
  5
3F6
100
AcDbEntity
  8
DRAFT
100
AcDbLine
 62
7
  6
CONTINUOUS
 10
14.5023644921
 20
-21.7248723824
 11
8.193940908
 21
-24.9627960973
  0
LINE
  5
3F7
100
AcDbEntity
  8
DRAFT
100
AcDbLine
 62
7
  6
CONTINUOUS
 10
6.7673856908
 20
-25.6444914024
 11
8.193940908
 21
-24.9369904371
  0
LINE
  5
3F8
100
AcDbEntity
  8
RACCORDO
100
AcDbLine
 62
7
  6
CONTINUOUS
 10
3.2009976479
 20
-26.809854153
 11
3.0211221352
 21
-26.89823574
  0
LWPOLYLINE
  5
3F9
100
AcDbEntity
  8
RACCORDO
100
AcDbPolyline
 62
250
  6
CONTINUOUS
 90
10
 70
0
 10
0.878791114
 20
-27.16527036
 10
0.8947008828
 20
-27.1575552107
 10
0.9088091352
 20
-27.1476213489
 10
0.9216053722
 20
-27.1353270817
 10
0.9329481072
 20
-27.1208090747
 10
0.9427150335
 20
-27.1042246961
 10
0.9508021858
 20
-27.085747613
 10
0.9571196352
 20
-27.0655752048
 10
0.9615947329
 20
-27.0439290886
 10
0.9641761196
 20
-27.0210451427
  0
LWPOLYLINE
  5
3FA
100
AcDbEntity
  8
RACCORDO
100
AcDbPolyline
 62
250
  6
CONTINUOUS
 90
7
 70
0
 10
0.9641559479
 20
-27.0211228118
 10
0.9497585803
 20
-27.027100438
 10
0.935088281
 20
-27.0329352655
 10
0.9201514003
 20
-27.038624882
 10
0.9049542882
 20
-27.0441668781
 10
0.8895032939
 20
-27.0495588468
 10
0.8738047661
 20
-27.054798384
  0
LINE
  5
3FB
100
AcDbEntity
  8
RACCORDO
100
AcDbLine
 62
250
  6
CONTINUOUS
 10
3.2009976479
 20
-26.1596733778
 11
0.9639997776
 21
-27.0211130611
  0
LWPOLYLINE
  5
3FC
100
AcDbEntity
  8
RACCORDO
100
AcDbPolyline
 62
250
  6
CONTINUOUS
 90
6
 70
0
 10
0.790977894
 20
-27.1947494387
 10
0.8011104068
 20
-27.1910572594
 10
0.8174008878
 20
-27.1816010903
 10
0.8320770218
 20
-27.1683429212
 10
0.8448928491
 20
-27.1515049478
 10
0.8556335875
 20
-27.1313693599
  0
LWPOLYLINE
  5
3FD
100
AcDbEntity
  8
RACCORDO
100
AcDbPolyline
 62
7
  6
CONTINUOUS
 90
6
 70
0
 10
0.7909872908
 20
-27.1947818804
 10
0.8025066041
 20
-27.1913622555
 10
0.82606709
 20
-27.1839621678
 10
0.8493366756
 20
-27.176089534
 10
0.8723127819
 20
-27.1677278489
 10
3.1275794096
 20
-26.2992072408
  0
LINE
  5
3FE
100
AcDbEntity
  8
RACCORDO
100
AcDbLine
 62
7
  6
CONTINUOUS
 10
0.7908166452
 20
-27.1947962091
 11
0.790977894
 21
-27.1947494387
  0
LWPOLYLINE
  5
3FF
100
AcDbEntity
  8
RACCORDO
100
AcDbPolyline
 62
250
  6
CONTINUOUS
 90
6
 70
0
 10
-2.3350397112
 20
27.4820798348
 10
-2.3578995433
 20
27.4895789134
 10
-2.3825721687
 20
27.492377232
 10
-2.4086401028
 20
27.4904274404
 10
-2.4356622513
 20
27.4837625308
 10
-2.4631813733
 20
27.4724952801
  0
LWPOLYLINE
  5
400
100
AcDbEntity
  8
RACCORDO
100
AcDbPolyline
 62
7
  6
CONTINUOUS
 90
16
 70
0
 10
6.3080539948
 20
23.4909432878
 10
6.1156251679
 20
23.5707087983
 10
5.9076481296
 20
23.6424065739
 10
5.6860691561
 20
23.7050825814
 10
5.452637152
 20
23.7580235427
 10
5.2093323143
 20
23.8005930279
 10
4.958568972
 20
23.8322383778
 10
4.7024894988
 20
23.8526059001
 10
4.4432900374
 20
23.8614544645
 10
4.1835359329
 20
23.8586674771
 10
3.9254664693
 20
23.844276168
 10
3.6713163282
 20
23.8184269088
 10
3.4236253795
 20
23.7814405102
 10
3.1846320155
 20
23.7337670138
 10
2.9562368261
 20
23.6759247895
 10
2.7488114384
 20
23.6114532566
  0
LINE
  5
401
100
AcDbEntity
  8
ASSI
100
AcDbLine
 62
7
  6
CONTINUOUS
 10
9.2841448745
 20
24.9059736078
 11
6.3201079378
 21
26.3879920762
  0
LWPOLYLINE
  5
402
100
AcDbEntity
  8
RACCORDO
100
AcDbPolyline
 62
250
  6
CONTINUOUS
 90
4
 70
0
 10
18.6786576382
 20
16.8674403745
 10
18.6536628549
 20
16.8948589929
 10
18.6272379414
 20
16.9188449525
 10
18.5998349917
 20
16.9389878865
  0
LWPOLYLINE
  5
403
100
AcDbEntity
  8
RACCORDO
100
AcDbPolyline
 62
250
  6
CONTINUOUS
 90
4
 70
0
 10
11.0182876725
 20
25.1456928175
 10
10.9931963728
 20
25.1732988005
 10
10.9666602359
 20
25.1974397109
 10
10.9391373789
 20
25.2177014659
  0
LWPOLYLINE
  5
404
100
AcDbEntity
  8
RACCORDO
100
AcDbPolyline
 62
250
  6
CONTINUOUS
 90
4
 70
0
 10
18.7409506353
 20
16.7695241334
 10
18.722678093
 20
16.8042322428
 10
18.7017946651
 20
16.8370581921
 10
18.6786576382
 20
16.8674403745
  0
LWPOLYLINE
  5
405
100
AcDbEntity
  8
RACCORDO
100
AcDbPolyline
 62
250
  6
CONTINUOUS
 90
10
 70
0
 10
2.9553746318
 20
-29.9814551467
 10
2.962684411
 20
-29.9774793352
 10
2.9756993436
 20
-29.9680309087
 10
2.9872921602
 20
-29.9562672058
 10
2.9973358522
 20
-29.942317113
 10
3.0057203874
 20
-29.9263334643
 10
3.0123539111
 20
-29.9084913678
 10
3.0171637483
 20
-29.8889862947
 10
3.0200972024
 20
-29.8680319402
 10
3.0211221352
 20
-29.8458578753
  0
LINE
  5
406
100
AcDbEntity
  8
RACCORDO
100
AcDbLine
 62
250
  6
CONTINUOUS
 10
6.7673856908
 20
-28.0210138078
 11
3.0211221352
 21
-29.8458578753
  0
LINE
  5
407
100
AcDbEntity
  8
RACCORDO
100
AcDbLine
 62
7
  6
CONTINUOUS
 10
6.7015432057
 20
-28.1566573458
 11
2.9553746318
 21
-29.9814551467
  0
LWPOLYLINE
  5
408
100
AcDbEntity
  8
RACCORDO
100
AcDbPolyline
 62
250
  6
CONTINUOUS
 90
7
 70
0
 10
5.3299179051
 20
28.0980903347
 10
5.3249827507
 20
28.1004082421
 10
5.3018674878
 20
28.1077756337
 10
5.2771026063
 20
28.1103652286
 10
5.2512008969
 20
28.1082392667
 10
5.2245621848
 20
28.1015395234
 10
5.1976380903
 20
28.0904689585
  0
LWPOLYLINE
  5
409
100
AcDbEntity
  8
RACCORDO
100
AcDbPolyline
 62
250
  6
CONTINUOUS
 90
7
 70
0
 10
11.0434162695
 20
25.2413411593
 10
11.0397711634
 20
25.2430826362
 10
11.016838513
 20
25.250720823
 10
10.992070167
 20
25.253611819
 10
10.9658905898
 20
25.2517081941
 10
10.9387470251
 20
25.2450444687
 10
10.9111033686
 20
25.2337363193
  0
LINE
  5
40A
100
AcDbEntity
  8
RACCORDO
100
AcDbLine
 62
250
  6
CONTINUOUS
 10
5.1976380903
 20
28.0904689585
 11
5.6768372614
 21
27.8508693729
  0
LINE
  5
40B
100
AcDbEntity
  8
RACCORDO
100
AcDbLine
 62
250
  6
CONTINUOUS
 10
10.4319041975
 20
25.4733359049
 11
10.9111033686
 21
25.2337363193
  0
LINE
  5
40C
100
AcDbEntity
  8
RACCORDO
100
AcDbLine
 62
7
  6
CONTINUOUS
 10
5.3299179051
 20
28.0980903347
 11
5.8367516562
 21
27.844673466
  0
LINE
  5
40D
100
AcDbEntity
  8
RACCORDO
100
AcDbLine
 62
7
  6
CONTINUOUS
 10
10.5366156046
 20
25.4947414918
 11
11.0434162695
 21
25.2413411593
  0
LINE
  5
40E
100
AcDbEntity
  8
RACCORDO
100
AcDbLine
 62
250
  6
CONTINUOUS
 10
10.9391373789
 20
25.2177014659
 11
10.9111033686
 21
25.2337363193
  0
ARC
  5
40F
100
AcDbEntity
  8
0
100
AcDbCircle
 62
7
  6
CONTINUOUS
 10
-13.6556586307
 20
5.1457920529
 40
2.5
100
AcDbArc
 50
137.3079476909
 51
275.8221546633
  0
ARC
  5
410
100
AcDbEntity
  8
RACCORDO
100
AcDbCircle
 62
7
  6
CONTINUOUS
 10
5.1957869126
 20
27.8297456411
 40
0.3
100
AcDbArc
 50
63.4420130862
 51
115.6760562404
  0
ARC
  5
411
100
AcDbEntity
  8
RACCORDO
100
AcDbCircle
 62
7
  6
CONTINUOUS
 10
10.9092521909
 20
24.973013002
 40
0.3
100
AcDbArc
 50
0.0
 51
63.4301254848
  0
ARC
  5
412
100
AcDbEntity
  8
RACCORDO
100
AcDbCircle
 62
7
  6
CONTINUOUS
 10
20.6728795159
 20
-9.2995826928
 40
0.3
100
AcDbArc
 50
297.4127150207
 51
359.9698286096
  0
ARC
  5
413
100
AcDbEntity
  8
RACCORDO
100
AcDbCircle
 62
7
  6
CONTINUOUS
 10
20.6728795159
 20
-3.7978514164
 40
0.3
100
AcDbArc
 50
0.0061267308
 51
63.4349488229
  0
ARC
  5
414
100
AcDbEntity
  8
RACCORDO
100
AcDbCircle
 62
7
  6
CONTINUOUS
 10
18.5700716545
 20
16.69421986
 40
0.3
100
AcDbArc
 50
0.0322430603
 51
63.4821869071
  0
ARC
  5
415
100
AcDbEntity
  8
RACCORDO
100
AcDbCircle
 62
7
  6
CONTINUOUS
 10
-2.465032551
 20
27.2117719627
 40
0.3
100
AcDbArc
 50
63.4349488229
 51
115.6700678314
  0
ARC
  5
416
100
AcDbEntity
  8
RACCORDO
100
AcDbCircle
 62
7
  6
CONTINUOUS
 10
18.5700716545
 20
-12.5325177501
 40
0.3
100
AcDbArc
 50
297.4557558562
 51
359.9966537319
  0
ARC
  5
417
100
AcDbEntity
  8
RACCORDO
100
AcDbCircle
 62
7
  6
CONTINUOUS
 10
20.6728795159
 20
0.3999018296
 40
0.3
100
AcDbArc
 50
297.4127150207
 51
359.9698286096
  0
ARC
  5
418
100
AcDbEntity
  8
RACCORDO
100
AcDbCircle
 62
7
  6
CONTINUOUS
 10
20.6728795159
 20
5.901633106
 40
0.3
100
AcDbArc
 50
0.0061267308
 51
63.4349488229
  0
ARC
  5
419
100
AcDbEntity
  8
RACCORDO
100
AcDbCircle
 62
7
  6
CONTINUOUS
 10
16.8836874091
 20
12.8752710027
 40
0.3
100
AcDbArc
 50
0.0322430603
 51
63.4821869071
  0
ARC
  5
41A
100
AcDbEntity
  8
RACCORDO
100
AcDbCircle
 62
7
  6
CONTINUOUS
 10
16.8836874091
 20
-19.7551067089
 40
0.3
100
AcDbArc
 50
297.4127150207
 51
359.9698286096
  0
ARC
  5
41B
100
AcDbEntity
  8
RACCORDO
100
AcDbCircle
 62
7
  6
CONTINUOUS
 10
-27.6823383463
 20
23.9652144665
 40
0.25
100
AcDbArc
 50
117.1631084404
 51
180.0165660556
  0
ARC
  5
41C
100
AcDbEntity
  8
RACCORDO
100
AcDbCircle
 62
7
  6
CONTINUOUS
 10
2.8458948191
 20
-29.7567015692
 40
0.25
100
AcDbArc
 50
243.4310874195
 51
295.9711963491
  0
ARC
  5
41D
100
AcDbEntity
  8
RACCORDO
100
AcDbCircle
 62
7
  6
CONTINUOUS
 10
-27.6823383463
 20
-14.4925849865
 40
0.25
100
AcDbArc
 50
180.0085106573
 51
243.4606454693
  0
ELLIPSE
  5
41E
100
AcDbEntity
  8
DRAFT
100
AcDbEllipse
 62
7
  6
CONTINUOUS
 10
3.6684575084
 20
23.2736680505
 30
0.0
 11
2.7499831596
 21
-0.0194567514
 31
0.0
 40
0.4946372042
 41
2.3596941457
 42
2.9805307528
  0
ELLIPSE
  5
41F
100
AcDbEntity
  8
RACCORDO
100
AcDbEllipse
 62
7
  6
CONTINUOUS
 10
10.3075831961
 20
25.2738474994
 30
0.0
 11
0.2372045159
 21
0.2147678868
 31
0.0
 40
0.2845239558
 41
0.1103479237
 42
0.7863414156
  0
ELLIPSE
  5
420
100
AcDbEntity
  8
DRAFT
100
AcDbEllipse
 62
7
  6
CONTINUOUS
 10
3.6563667543
 20
24.5101073384
 30
0.0
 11
3.3936355955
 21
-0.0239825281
 31
0.0
 40
0.494637248
 41
2.3546452071
 42
5.5063148222
  0
ELLIPSE
  5
421
100
AcDbEntity
  8
RACCORDO
100
AcDbEllipse
 62
7
  6
CONTINUOUS
 10
5.7974559074
 20
27.5289111438
 30
0.0
 11
-0.0944596497
 21
0.3319391183
 31
0.0
 40
0.6808569061
 41
4.8400973205
 42
6.4021670011
  0
ELLIPSE
  5
422
100
AcDbEntity
  8
RACCORDO
100
AcDbEllipse
 62
7
  6
CONTINUOUS
 10
4.8129687187
 20
18.9106303479
 30
0.0
 11
0.132308947
 21
0.2692527733
 31
0.0
 40
0.607010042
 41
-0.0041960921
 42
0.6717985481
  0
ELLIPSE
  5
423
100
AcDbEntity
  8
RACCORDO
100
AcDbEllipse
 62
7
  6
CONTINUOUS
 10
10.8870281373
 20
16.2980868379
 30
0.0
 11
0.2248605836
 21
0.4465858725
 31
0.0
 40
0.6145070198
 41
0.0017231831
 42
0.68993312
  0
ELLIPSE
  5
424
100
AcDbEntity
  8
RACCORDO
100
AcDbEllipse
 62
7
  6
CONTINUOUS
 10
-24.0024245889
 20
25.8534389979
 30
0.0
 11
-0.1118153796
 21
0.2236102575
 31
0.0
 40
0.6123580755
 41
-0.6847451447
 42
0.0063693149
  0
ELLIPSE
  5
425
100
AcDbEntity
  8
RACCORDO
100
AcDbEllipse
 62
7
  6
CONTINUOUS
 10
0.8278224544
 20
21.3276896793
 30
0.0
 11
0.2248605836
 21
0.4465858725
 31
0.0
 40
0.6145070198
 41
0.0017231831
 42
0.68993312
  0
ELLIPSE
  5
426
100
AcDbEntity
  8
RACCORDO
100
AcDbEllipse
 62
7
  6
CONTINUOUS
 10
6.5906022641
 20
10.5569255714
 30
0.0
 11
-0.1118093738
 21
0.2236049181
 31
0.0
 40
0.6123946298
 41
-2.2555280729
 42
-0.6847622074
  0
ELLIPSE
  5
427
100
AcDbEntity
  8
RACCORDO
100
AcDbEllipse
 62
7
  6
CONTINUOUS
 10
6.5906022641
 20
-27.9326154994
 30
0.0
 11
-0.1118153796
 21
0.2236102575
 31
0.0
 40
0.6123580755
 41
-3.1479623144
 42
-2.2555719328
  0
ELLIPSE
  5
428
100
AcDbEntity
  8
RACCORDO
100
AcDbEllipse
 62
7
  6
CONTINUOUS
 10
9.6757931975
 20
16.5526483409
 30
0.0
 11
0.4990034046
 21
-0.1199643874
 31
0.0
 40
0.2630210944
 41
0.8485464535
 42
2.410616134
  0
ELLIPSE
  5
429
100
AcDbEntity
  8
RACCORDO
100
AcDbEllipse
 62
7
  6
CONTINUOUS
 10
-21.6662452906
 20
24.7749708165
 30
0.0
 11
0.8213188571
 21
0.0023475595
 31
0.0
 40
0.5021345238
 41
3.1401574134
 42
5.492861245
  0
ELLIPSE
  5
42A
100
AcDbEntity
  8
RACCORDO
100
AcDbEllipse
 62
7
  6
CONTINUOUS
 10
4.0200339879
 20
11.9357886211
 30
0.0
 11
0.8268916971
 21
0.0023634882
 31
0.0
 40
0.5021345238
 41
3.1401574152
 42
5.492861245
  0
ELLIPSE
  5
42B
100
AcDbEntity
  8
RACCORDO
100
AcDbEllipse
 62
7
  6
CONTINUOUS
 10
-6.1210324196
 20
16.9648577568
 30
0.0
 11
0.7685023354
 21
0.0021965951
 31
0.0
 40
0.5021345238
 41
3.1401574141
 42
5.478898611
  0
ELLIPSE
  5
42C
100
AcDbEntity
  8
RACCORDO
100
AcDbEllipse
 62
7
  6
CONTINUOUS
 10
3.0242142212
 20
5.1907466707
 30
0.0
 11
-0.1111743438
 21
0.2244615947
 31
0.0
 40
0.6123565116
 41
-2.2508993297
 42
-0.6808635707
  0
ELLIPSE
  5
42D
100
AcDbEntity
  8
RACCORDO
100
AcDbEllipse
 62
7
  6
CONTINUOUS
 10
3.0242142212
 20
-26.0711163677
 30
0.0
 11
-0.1113265788
 21
0.2245942082
 31
0.0
 40
0.611446075
 41
-3.1982940729
 42
-2.2520073886
  0
ELLIPSE
  5
42E
100
AcDbEntity
  8
RACCORDO
100
AcDbEllipse
 62
7
  6
CONTINUOUS
 10
2.1067411289
 20
20.6882303421
 30
0.0
 11
0.2223628205
 21
0.4478347792
 31
0.0
 40
0.6102318821
 41
5.3954111901
 42
6.9696981754
  0
ELLIPSE
  5
42F
100
AcDbEntity
  8
RACCORDO
100
AcDbEllipse
 62
7
  6
CONTINUOUS
 10
3.3179760687
 20
19.7315569053
 30
0.0
 11
0.4990034046
 21
-0.1199643874
 31
0.0
 40
0.2630210944
 41
-0.7135232271
 42
0.8485464535
  0
ELLIPSE
  5
430
100
AcDbEntity
  8
RACCORDO
100
AcDbEllipse
 62
7
  6
CONTINUOUS
 10
11.9087726867
 20
15.7872145632
 30
0.0
 11
-0.3721554156
 21
0.5994432463
 31
0.0
 40
0.5601265905
 41
4.6585659897
 42
6.232852975
  0
ELLIPSE
  5
431
100
AcDbEntity
  8
RACCORDO
100
AcDbEllipse
 62
7
  6
CONTINUOUS
 10
-27.5071043579
 20
20.4564059603
 30
0.0
 11
-0.1113265788
 21
0.2245942082
 31
0.0
 40
0.611446075
 41
-0.6804504941
 42
0.0567011386
  0
ELLIPSE
  5
432
100
AcDbEntity
  8
RACCORDO
100
AcDbEllipse
 62
7
  6
CONTINUOUS
 10
-21.6662452906
 20
25.4244898694
 30
0.0
 11
0.8213188571
 21
0.0023475595
 31
0.0
 40
0.5021345238
 41
8.6414352156
 42
11.7760465522
  0
ELLIPSE
  5
433
100
AcDbEntity
  8
RACCORDO
100
AcDbEllipse
 62
7
  6
CONTINUOUS
 10
4.0200339879
 20
12.5853076739
 30
0.0
 11
0.8268916971
 21
0.0023634882
 31
0.0
 40
0.5021345238
 41
8.6553978497
 42
11.7760465522
  0
ELLIPSE
  5
434
100
AcDbEntity
  8
RACCORDO
100
AcDbEllipse
 62
7
  6
CONTINUOUS
 10
-6.1210324196
 20
17.6143768096
 30
0.0
 11
0.7685023354
 21
0.0021965951
 31
0.0
 40
0.5021345238
 41
8.6553978497
 42
11.7620839182
  0
ENDSEC
  0
SECTION
  2
OBJECTS
  0
DICTIONARY
  5
C
100
AcDbDictionary
280
0
281
1
  3
ACAD_GROUP
350
D
  3
ACAD_MLINESTYLE
350
17
  3
ACAD_LAYOUT
350
1A
  3
ACAD_PLOTSETTINGS
350
19
  3
ACAD_PLOTSTYLENAME
350
E
  0
DICTIONARY
  5
D
102
{ACAD_REACTORS
330
C
102
}
100
AcDbDictionary
280
0
281
1
  0
ACDBDICTIONARYWDFLT
  5
E
102
{ACAD_REACTORS
330
C
102
}
100
AcDbDictionary
281
1
  3
Normal
350
F
100
AcDbDictionaryWithDefault
340
F
  0
DICTIONARY
  5
17
102
{ACAD_REACTORS
330
C
102
}
100
AcDbDictionary
280
0
281
1
  3
Standard
350
18
  0
DICTIONARY
  5
19
102
{ACAD_REACTORS
330
C
102
}
100
AcDbDictionary
281
1
  0
DICTIONARY
  5
1A
102
{ACAD_REACTORS
330
C
102
}
100
AcDbDictionary
281
1
  3
Model
350
435
  3
Layout1
350
436
  0
ACDBPLACEHOLDER
  5
F
102
{ACAD_REACTORS
330
E
102
}
  0
MLINESTYLE
  5
18
102
{ACAD_REACTORS
330
17
102
}
100
AcDbMlineStyle
  2
STANDARD
 70
0
  3

 62
256
 51
90.0
 52
90.0
 71
2
 49
0.5
 62
256
  6
BYLAYER
 49
-0.5
 62
256
  6
BYLAYER
  0
LAYOUT
  5
435
102
{ACAD_REACTORS
330
1A
102
}
100
AcDbPlotSettings
  1

  2
none_device
  4
ISO_A4_(297.00_x_210.00_MM)
  6

 40
0.0
 41
0.0
 42
0.0
 43
0.0
 44
297.0
 45
210.0
 46
0.0
 47
0.0
 48
0.0
 49
0.0
140
0.0
141
0.0
142
1.0
143
1.0
 70
1024
 72
1
 73
0
 74
0
  7

 75
0
147
1.0
148
0.0
149
0.0
100
AcDbLayout
  1
Model
 70
0
 71
0
 10
0.0
 20
0.0
 11
297.0
 21
210.0
 12
0.0
 22
0.0
 32
0.0
 14
0.0
 24
0.0
 34
0.0
 15
0.0
 25
0.0
 35
0.0
146
0.0
 13
0.0
 23
0.0
 33
0.0
 16
1.0
 26
0.0
 36
0.0
 17
0.0
 27
1.0
 37
0.0
 76
0
330
21F
345
0
346
0
  0
LAYOUT
  5
436
102
{ACAD_REACTORS
330
1A
102
}
100
AcDbPlotSettings
  1

  2
none_device
  4
ISO_A4_(297.00_x_210.00_MM)
  6

 40
0.0
 41
0.0
 42
0.0
 43
0.0
 44
297.0
 45
210.0
 46
0.0
 47
0.0
 48
0.0
 49
0.0
140
0.0
141
0.0
142
1.0
143
1.0
 70
0
 72
1
 73
0
 74
0
  7

 75
0
147
1.0
148
0.0
149
0.0
100
AcDbLayout
  1
Layout1
 70
0
 71
1
 10
0.0
 20
0.0
 11
297.0
 21
210.0
 12
0.0
 22
0.0
 32
0.0
 14
0.0
 24
0.0
 34
0.0
 15
0.0
 25
0.0
 35
0.0
146
0.0
 13
0.0
 23
0.0
 33
0.0
 16
1.0
 26
0.0
 36
0.0
 17
0.0
 27
1.0
 37
0.0
 76
0
330
220
345
0
346
0
  0
ENDSEC
  0
EOF
