  0
SECTION
  2
HEADER
  9
$ACADVER
  1
AC1024
  9
$DWGCODEPAGE
  3
ANSI_1252
  9
$EXTMAX
 10
297.0
 20
210.0
 30
0.0
  9
$EXTMIN
 10
0.0
 20
0.0
 30
0.0
  9
$LIMMIN
 10
0.0
 20
0.0
  9
$LIMMAX
 10
297.0
 20
210.0
  9
$VIEWCTR
 10
148.5
 20
105.0
  9
$VIEWSIZE
 40
210.0
  9
$CLAYER
  8
0
  9
$LTSCALE
 40
16.335
  9
$CELTYPE
  6
BYLAYER
  9
$DIMSCALE
 40
1.0
  9
$DIMASZ
 40
3.0
  9
$DIMEXO
 40
0.5
  9
$DIMDLI
 40
11.286
  9
$DIMEXE
 40
1.5
  9
$DIMCEN
 40
2.673
  9
$DIMLFAC
 40
1.0
  9
$DIMBLK
  1
_FILLED
  9
$DIMALT
 70
0
  9
$DIMALTF
 40
0.0393700787
  9
$DIMTXT
 40
3.0
  9
$DIMTOL
 70
1
  9
$DIMLIM
 70
0
  9
$DIMTFAC
 40
1.0
  9
$DIMTP
 40
0.01
  9
$DIMTM
 40
0.01
  9
$DIMGAP
 40
0.625
  9
$DIMDSEP
 70
44
  9
$AUNITS
 70
0
  9
$PDMODE
 70
3
  9
$PDSIZE
 40
3.0
  9
$HANDSEED
  5
4DE
  9
$TILEMODE
 70
1
  9
$MEASUREMENT
 70
1
  9
$INSUNITS
 70
4
  0
ENDSEC
  0
SECTION
  2
CLASSES
  0
CLASS
  1
ACDBDICTIONARYWDFLT
  2
AcDbDictionaryWithDefault
  3
AutoCAD 2000
 90
0
 91
1
280
0
281
0
  0
CLASS
  1
ACDBPLACEHOLDER
  2
AcDbPlaceHolder
  3
AutoCAD 2000
 90
0
 91
1
280
0
281
0
  0
CLASS
  1
LAYOUT
  2
AcDbLayout
  3
AutoCAD 2000
 90
0
 91
0
280
0
281
0
  0
ENDSEC
  0
SECTION
  2
TABLES
  0
TABLE
  2
VPORT
  5
8
100
AcDbSymbolTable
 70
2
  0
VPORT
  5
1F4
100
AcDbSymbolTableRecord
100
AcDbViewportTableRecord
  2
*ACTIVE
 70
0
 10
0.0
 20
0.0
 11
1.0
 21
1.0
 12
148.5
 22
105.0
 13
0.0
 23
0.0
 14
1.0
 24
1.0
 15
0.0
 25
0.0
 16
0.0
 26
0.0
 36
1.0
 17
0.0
 27
0.0
 37
0.0
 40
210.0
 41
1.4142857143
 42
50.0
 43
0.0
 44
0.0
 50
0.0
 51
0.0
 71
0
 72
100
 73
1
 74
1
 75
0
 76
0
 77
0
 78
0
  0
ENDTAB
  0
TABLE
  2
LTYPE
  5
5
100
AcDbSymbolTable
 70
6
  0
LTYPE
  5
14
100
AcDbSymbolTableRecord
100
AcDbLinetypeTableRecord
  2
BYBLOCK
 70
0
  3

 72
65
 73
0
 40
0.0
  0
LTYPE
  5
15
100
AcDbSymbolTableRecord
100
AcDbLinetypeTableRecord
  2
BYLAYER
 70
0
  3

 72
65
 73
0
 40
0.0
  0
LTYPE
  5
16
100
AcDbSymbolTableRecord
100
AcDbLinetypeTableRecord
  2
CONTINUOUS
 70
64
  3
Solid line
 72
65
 73
0
 40
0.0
  0
LTYPE
  5
1F5
100
AcDbSymbolTableRecord
100
AcDbLinetypeTableRecord
  2
CENTER
 70
64
  3
____ _ ____ _ ____ _ ____ _ ____ _ ____ _ ____
 72
65
 73
4
 40
0.6
 49
0.375
 74
0
 49
-0.075
 74
0
 49
0.075
 74
0
 49
-0.075
 74
0
  0
LTYPE
  5
1F6
100
AcDbSymbolTableRecord
100
AcDbLinetypeTableRecord
  2
HIDDEN
 70
64
  3
- - - - - - - - - - - - - - - - - - - -
 72
65
 73
2
 40
0.2
 49
0.1
 74
0
 49
-0.1
 74
0
  0
LTYPE
  5
1F7
100
AcDbSymbolTableRecord
100
AcDbLinetypeTableRecord
  2
PHANTOM
 70
64
  3
_____ _ _ _____ _ _ _____ _ _ _____
 72
65
 73
6
 40
0.8
 49
0.45
 74
0
 49
-0.05
 74
0
 49
0.1
 74
0
 49
-0.05
 74
0
 49
0.1
 74
0
 49
-0.05
 74
0
  0
LTYPE
  5
1F8
100
AcDbSymbolTableRecord
100
AcDbLinetypeTableRecord
  2
DOT
 70
64
  3
. . . . . . . . . . . . . . . . . . . .
 72
65
 73
2
 40
0.2
 49
0.1
 74
0
 49
-0.1
 74
0
  0
LTYPE
  5
1F9
100
AcDbSymbolTableRecord
100
AcDbLinetypeTableRecord
  2
DASHED
 70
64
  3
- - - - - - - - - - - - - - - - - - - -
 72
65
 73
2
 40
0.2
 49
0.1
 74
0
 49
-0.1
 74
0
  0
ENDTAB
  0
TABLE
  2
LAYER
  5
2
100
AcDbSymbolTable
 70
36
  0
LAYER
  5
10
100
AcDbSymbolTableRecord
100
AcDbLayerTableRecord
  2
0
 70
0
 62
7
  6
CONTINUOUS
370
-3
390
F
  0
LAYER
  5
1FA
100
AcDbSymbolTableRecord
100
AcDbLayerTableRecord
  2
DEFAULT_1
 70
0
 62
7
  6
CENTER
370
-3
390
F
  0
LAYER
  5
1FB
100
AcDbSymbolTableRecord
100
AcDbLayerTableRecord
  2
DEFAULT_2
 70
0
 62
7
  6
HIDDEN
370
-3
390
F
  0
LAYER
  5
1FC
100
AcDbSymbolTableRecord
100
AcDbLayerTableRecord
  2
DEFAULT_3
 70
0
 62
7
  6
PHANTOM
370
-3
390
F
  0
LAYER
  5
1FD
100
AcDbSymbolTableRecord
100
AcDbLayerTableRecord
  2
ASSI
 70
0
 62
7
  6
CONTINUOUS
370
-3
390
F
  0
LAYER
  5
1FE
100
AcDbSymbolTableRecord
100
AcDbLayerTableRecord
  2
COORDINATE
 70
0
 62
7
  6
CONTINUOUS
370
-3
390
F
  0
LAYER
  5
1FF
100
AcDbSymbolTableRecord
100
AcDbLayerTableRecord
  2
COORD_ORIGINE
 70
0
 62
7
  6
CONTINUOUS
370
-3
390
F
  0
LAYER
  5
200
100
AcDbSymbolTableRecord
100
AcDbLayerTableRecord
  2
COSMETICI
 70
0
 62
7
  6
CONTINUOUS
370
-3
390
F
  0
LAYER
  5
201
100
AcDbSymbolTableRecord
100
AcDbLayerTableRecord
  2
CURVA_VIMAR
 70
0
 62
7
  6
CONTINUOUS
370
-3
390
F
  0
LAYER
  5
202
100
AcDbSymbolTableRecord
100
AcDbLayerTableRecord
  2
CURVE
 70
0
 62
7
  6
CONTINUOUS
370
-3
390
F
  0
LAYER
  5
203
100
AcDbSymbolTableRecord
100
AcDbLayerTableRecord
  2
DRAFT
 70
0
 62
7
  6
CONTINUOUS
370
-3
390
F
  0
LAYER
  5
204
100
AcDbSymbolTableRecord
100
AcDbLayerTableRecord
  2
IMPORT_IGES
 70
0
 62
7
  6
CONTINUOUS
370
-3
390
F
  0
LAYER
  5
205
100
AcDbSymbolTableRecord
100
AcDbLayerTableRecord
  2
INTF_1
 70
0
 62
7
  6
CONTINUOUS
370
-3
390
F
  0
LAYER
  5
206
100
AcDbSymbolTableRecord
100
AcDbLayerTableRecord
  2
INTF_7
 70
0
 62
7
  6
CONTINUOUS
370
-3
390
F
  0
LAYER
  5
207
100
AcDbSymbolTableRecord
100
AcDbLayerTableRecord
  2
NOTE
 70
0
 62
7
  6
CONTINUOUS
370
-3
390
F
  0
LAYER
  5
208
100
AcDbSymbolTableRecord
100
AcDbLayerTableRecord
  2
PIANI
 70
0
 62
7
  6
CONTINUOUS
370
-3
390
F
  0
LAYER
  5
209
100
AcDbSymbolTableRecord
100
AcDbLayerTableRecord
  2
PIANI_DI_RIFERIMENTO
 70
0
 62
7
  6
CONTINUOUS
370
-3
390
F
  0
LAYER
  5
20A
100
AcDbSymbolTableRecord
100
AcDbLayerTableRecord
  2
PIANI_ORIGINE
 70
0
 62
7
  6
CONTINUOUS
370
-3
390
F
  0
LAYER
  5
20B
100
AcDbSymbolTableRecord
100
AcDbLayerTableRecord
  2
PUNTI
 70
0
 62
7
  6
CONTINUOUS
370
-3
390
F
  0
LAYER
  5
20C
100
AcDbSymbolTableRecord
100
AcDbLayerTableRecord
  2
PUNZONE_ITERC
 70
0
 62
7
  6
CONTINUOUS
370
-3
390
F
  0
LAYER
  5
20D
100
AcDbSymbolTableRecord
100
AcDbLayerTableRecord
  2
RACCORDO
 70
0
 62
7
  6
CONTINUOUS
370
-3
390
F
  0
LAYER
  5
20E
100
AcDbSymbolTableRecord
100
AcDbLayerTableRecord
  2
RGB__255__255__255__
 70
0
 62
7
  6
CONTINUOUS
370
-3
390
F
  0
LAYER
  5
20F
100
AcDbSymbolTableRecord
100
AcDbLayerTableRecord
  2
RGB____0____0____0__
 70
0
 62
7
  6
CONTINUOUS
370
-3
390
F
  0
LAYER
  5
210
100
AcDbSymbolTableRecord
100
AcDbLayerTableRecord
  2
SIMBOLI
 70
0
 62
7
  6
CONTINUOUS
370
-3
390
F
  0
LAYER
  5
211
100
AcDbSymbolTableRecord
100
AcDbLayerTableRecord
  2
SNAPLINE
 70
0
 62
7
  6
CONTINUOUS
370
-3
390
F
  0
LAYER
  5
212
100
AcDbSymbolTableRecord
100
AcDbLayerTableRecord
  2
SUPERFICI
 70
0
 62
7
  6
CONTINUOUS
370
-3
390
F
  0
LAYER
  5
213
100
AcDbSymbolTableRecord
100
AcDbLayerTableRecord
  2
TRASH
 70
0
 62
7
  6
CONTINUOUS
370
-3
390
F
  0
LAYER
  5
214
100
AcDbSymbolTableRecord
100
AcDbLayerTableRecord
  2
XSEC_DATUMS
 70
0
 62
7
  6
CONTINUOUS
370
-3
390
F
  0
ENDTAB
  0
TABLE
  2
STYLE
  5
3
100
AcDbSymbolTable
 70
1
  0
STYLE
  5
11
100
AcDbSymbolTableRecord
100
AcDbTextStyleTableRecord
  2
STANDARD
 70
0
 40
0.0
 41
0.8
 50
0.0
 71
0
 42
0.2
  3
txt
  4

  0
STYLE
  5
215
100
AcDbSymbolTableRecord
100
AcDbTextStyleTableRecord
  2
TEXTSTYLE_1
 70
0
 40
0.0
 41
0.8
 50
0.0
 71
0
 42
0.2
  3
gdt
  4

  0
ENDTAB
  0
TABLE
  2
VIEW
  5
6
100
AcDbSymbolTable
 70
0
  0
ENDTAB
  0
TABLE
  2
UCS
  5
7
100
AcDbSymbolTable
 70
0
  0
ENDTAB
  0
TABLE
  2
APPID
  5
9
100
AcDbSymbolTable
 70
1
  0
APPID
  5
216
100
AcDbSymbolTableRecord
100
AcDbRegAppTableRecord
  2
ACAD
 70
0
  0
ENDTAB
  0
TABLE
  2
BLOCK_RECORD
  5
1
100
AcDbSymbolTable
 70
0
  0
BLOCK_RECORD
  5
217
100
AcDbSymbolTableRecord
100
AcDbBlockTableRecord
  2
*Model_Space
  0
BLOCK_RECORD
  5
218
100
AcDbSymbolTableRecord
100
AcDbBlockTableRecord
  2
*Paper_Space
  0
BLOCK_RECORD
  5
219
100
AcDbSymbolTableRecord
100
AcDbBlockTableRecord
  2
_FILLED
  0
ENDTAB
  0
TABLE
  2
DIMSTYLE
  5
A
100
AcDbSymbolTable
 70
1
100
AcDbDimStyleTable
 71
0
  0
DIMSTYLE
105
21A
100
AcDbSymbolTableRecord
100
AcDbDimStyleTableRecord
  2
STANDARD
 70
0
  3

  4

 40
1.0
 41
3.0
 42
0.5
 43
0.38
 44
1.5
 45
0.0
 46
0.0
 47
0.01
 48
0.01
140
3.0
141
0.09
142
0.0
143
25.4
144
1.0
145
0.0
146
1.0
147
0.625
 71
1
 72
0
 73
0
 74
0
 75
0
 76
0
 77
1
 78
8
 79
2
170
0
171
1
172
0
173
0
174
0
175
0
176
0
177
0
178
0
270
2
179
2
271
2
272
2
273
2
274
2
275
0
280
0
281
0
282
0
283
1
284
8
285
0
286
0
287
3
288
0
340
11
278
44
341
219
342
219
343
219
344
219
  0
ENDTAB
  0
ENDSEC
  0
SECTION
  2
BLOCKS
  0
BLOCK
  5
20
100
AcDbEntity
  8
0
100
AcDbBlockBegin
  2
*Model_Space
 70
0
 10
0.0
 20
0.0
 30
0.0
  3
*Model_Space
  1

  0
ENDBLK
  5
21
100
AcDbEntity
  8
0
100
AcDbBlockEnd
  0
BLOCK
  5
1C
100
AcDbEntity
  8
0
100
AcDbBlockBegin
  2
*Paper_Space
 70
0
 10
0.0
 20
0.0
 30
0.0
  3
*Paper_Space
  1

  0
ENDBLK
  5
1D
100
AcDbEntity
  8
0
100
AcDbBlockEnd
  0
BLOCK
  5
21B
100
AcDbEntity
  8
0
100
AcDbBlockBegin
  2
_FILLED
 70
64
 10
0.0
 20
0.0
  3
_FILLED
  1

  0
SOLID
  5
21C
100
AcDbEntity
  8
0
  6
BYBLOCK
 62
0
100
AcDbTrace
 10
0.0
 20
0.0
 11
-1.0
 21
0.3166666667
 12
-1.0
 22
-0.3166666667
 13
-1.0
 23
-0.3166666667
  0
ENDBLK
  5
21D
100
AcDbEntity
  8
0
  6
BYBLOCK
 62
0
100
AcDbBlockEnd
  0
ENDSEC
  0
SECTION
  2
ENTITIES
  0
LWPOLYLINE
  5
21E
100
AcDbEntity
  8
RACCORDO
100
AcDbPolyline
 62
7
  6
CONTINUOUS
 90
31
 70
0
 10
-37.1359232962
 20
45.0623282977
 10
-37.1490287411
 20
45.0497423171
 10
-37.1613634987
 20
45.0372763804
 10
-37.1733951688
 20
45.0244911219
 10
-37.1851123935
 20
45.0113967178
 10
-37.1965068976
 20
44.9980007066
 10
-37.2075705154
 20
44.9843109416
 10
-37.2182927944
 20
44.9703388231
 10
-37.2286644367
 20
44.9560953513
 10
-37.2386801102
 20
44.9415867073
 10
-37.2483355511
 20
44.9268173442
 10
-37.2576241838
 20
44.9117951042
 10
-37.2665384148
 20
44.8965299739
 10
-37.2750723395
 20
44.881029639
 10
-37.2832196353
 20
44.8653028691
 10
-37.2909735789
 20
44.849359809
 10
-37.298327911
 20
44.8332104417
 10
-37.3052768125
 20
44.8168645166
 10
-37.3118145395
 20
44.8003323525
 10
-37.3179353956
 20
44.7836250877
 10
-37.3236344727
 20
44.7667526844
 10
-37.3289067593
 20
44.7497263066
 10
-37.3337470503
 20
44.7325592146
 10
-37.3381504915
 20
44.7152656058
 10
-37.3421142201
 20
44.6978534359
 10
-37.3456360787
 20
44.6803267298
 10
-37.3487130976
 20
44.6626917529
 10
-37.3513407283
 20
44.6449648622
 10
-37.3535149267
 20
44.6271653898
 10
-37.3552331505
 20
44.6093080593
 10
-37.3562879898
 20
44.5948326503
  0
LINE
  5
21F
100
AcDbEntity
  8
RACCORDO
100
AcDbLine
 62
7
  6
CONTINUOUS
 10
-37.1359236557
 20
45.0623279614
 11
-33.5582331743
 21
48.4100447079
  0
LINE
  5
220
100
AcDbEntity
  8
RACCORDO
100
AcDbLine
 62
250
  6
CONTINUOUS
 10
-36.6716615587
 20
45.1127771507
 11
-33.0992817264
 21
48.4555246163
  0
LWPOLYLINE
  5
221
100
AcDbEntity
  8
RACCORDO
100
AcDbPolyline
 62
250
  6
CONTINUOUS
 90
37
 70
0
 10
-37.1359232962
 20
45.0623282977
 10
-37.1316719008
 20
45.066233044
 10
-37.1224438197
 20
45.074229736
 10
-37.1128976817
 20
45.0818685185
 10
-37.1030400193
 20
45.0891441645
 10
-37.092877578
 20
45.0960516952
 10
-37.0824173122
 20
45.102586384
 10
-37.0716663798
 20
45.1087437592
 10
-37.0606321377
 20
45.1145196074
 10
-37.0493221367
 20
45.1199099764
 10
-37.0377441163
 20
45.1249111776
 10
-37.0259059993
 20
45.1295197887
 10
-37.0138158862
 20
45.1337326563
 10
-37.0014820506
 20
45.1375468977
 10
-36.9889129322
 20
45.1409599027
 10
-36.9761171319
 20
45.1439693361
 10
-36.9631034061
 20
45.1465731385
 10
-36.9498806597
 20
45.1487695282
 10
-36.9364579396
 20
45.1505570025
 10
-36.9228444301
 20
45.1519343382
 10
-36.9090494476
 20
45.1529005925
 10
-36.8950824328
 20
45.1534551041
 10
-36.8809529446
 20
45.1535974937
 10
-36.8666706504
 20
45.1533276637
 10
-36.8522453212
 20
45.1526457988
 10
-36.8376868173
 20
45.1515523643
 10
-36.8230051116
 20
45.1500481085
 10
-36.8082102805
 20
45.148134065
 10
-36.7933124678
 20
45.1458115489
 10
-36.7783218498
 20
45.1430821497
 10
-36.7632486569
 20
45.139947731
 10
-36.7481029924
 20
45.1364103858
 10
-36.7328954299
 20
45.1324725755
 10
-36.7176369857
 20
45.1281371757
 10
-36.7023383098
 20
45.1234072658
 10
-36.6870096709
 20
45.1182860741
 10
-36.6716615587
 20
45.1127771507
  0
LINE
  5
222
100
AcDbEntity
  8
RACCORDO
100
AcDbLine
 62
250
  6
CONTINUOUS
 10
-20.6038274111
 20
37.6742160299
 11
-20.5948628935
 21
37.6796719582
  0
LWPOLYLINE
  5
223
100
AcDbEntity
  8
RACCORDO
100
AcDbPolyline
 62
7
  6
CONTINUOUS
 90
73
 70
0
 10
-20.5948578037
 20
37.67967455
 10
-20.5944498766
 20
37.6799036202
 10
-20.5940232039
 20
37.6801210798
 10
-20.5935775029
 20
37.6803265673
 10
-20.5931125121
 20
37.6805180471
 10
-20.5926279293
 20
37.6806967945
 10
-20.5921233896
 20
37.6808673889
 10
-20.5915988482
 20
37.6810300108
 10
-20.5910537341
 20
37.6811836306
 10
-20.5904868363
 20
37.6813309595
 10
-20.5898975982
 20
37.6814718522
 10
-20.5892858674
 20
37.6816054562
 10
-20.5886509817
 20
37.6817333608
 10
-20.5879924003
 20
37.6818551869
 10
-20.5873099018
 20
37.6819702026
 10
-20.5866032766
 20
37.6820794375
 10
-20.5858724454
 20
37.6821823444
 10
-20.5851167112
 20
37.6822782865
 10
-20.5843349053
 20
37.6823681154
 10
-20.5835265001
 20
37.6824512407
 10
-20.5826911881
 20
37.6825269247
 10
-20.5818280864
 20
37.6825957345
 10
-20.5809362769
 20
37.6826570299
 10
-20.5800158102
 20
37.6827099981
 10
-20.5790672598
 20
37.6827549441
 10
-20.5780904238
 20
37.6827911934
 10
-20.577084714
 20
37.6828179846
 10
-20.5760501576
 20
37.6828355284
 10
-20.5749870222
 20
37.6828431353
 10
-20.5738943157
 20
37.6828400564
 10
-20.572770152
 20
37.6828263607
 10
-20.571614683
 20
37.682801275
 10
-20.5704270083
 20
37.6827639845
 10
-20.569203557
 20
37.6827143085
 10
-20.5679438129
 20
37.6826513017
 10
-20.566647449
 20
37.6825740254
 10
-20.5653110423
 20
37.6824820581
 10
-20.5639340619
 20
37.6823743257
 10
-20.5625161464
 20
37.6822497504
 10
-20.5610540107
 20
37.6821076651
 10
-20.559547186
 20
37.6819468856
 10
-20.5579952378
 20
37.681766196
 10
-20.5563948301
 20
37.6815646442
 10
-20.5547460875
 20
37.6813410072
 10
-20.5530480103
 20
37.6810938795
 10
-20.5512954488
 20
37.6808217204
 10
-20.5494890126
 20
37.6805232047
 10
-20.5476272112
 20
37.6801966593
 10
-20.5457015364
 20
37.6798394866
 10
-20.5437115571
 20
37.6794498709
 10
-20.5416567301
 20
37.6790259411
 10
-20.5395281267
 20
37.6785643142
 10
-20.5373241993
 20
37.6780626239
 10
-20.535045503
 20
37.6775188263
 10
-20.532686093
 20
37.6769294214
 10
-20.5302413193
 20
37.6762910474
 10
-20.5277150033
 20
37.6756021575
 10
-20.5251140283
 20
37.6748620768
 10
-20.5224383046
 20
37.6740690332
 10
-20.5196877814
 20
37.6732208331
 10
-20.5168697157
 20
37.6723168628
 10
-20.5139938244
 20
37.6713589853
 10
-20.5110508985
 20
37.6703425536
 10
-20.5080197684
 20
37.6692566455
 10
-20.5049008038
 20
37.6680992496
 10
-20.5016940268
 20
37.6668677648
 10
-20.4983774734
 20
37.6655485815
 10
-20.4949511247
 20
37.6641389316
 10
-20.4914156322
 20
37.6626354292
 10
-20.4877499356
 20
37.6610217775
 10
-20.4839473846
 20
37.6592896359
 10
-20.4800158487
 20
37.6574396681
 10
-20.4759561681
 20
37.6554683151
  0
LWPOLYLINE
  5
224
100
AcDbEntity
  8
RACCORDO
100
AcDbPolyline
 62
250
  6
CONTINUOUS
 90
35
 70
0
 10
-37.3559304667
 20
-19.5088485224
 10
-37.3551114827
 20
-19.5182764741
 10
-37.353635387
 20
-19.5301155695
 10
-37.351665683
 20
-19.5418947034
 10
-37.3492022668
 20
-19.5536249696
 10
-37.3462474169
 20
-19.5652892086
 10
-37.3428042274
 20
-19.5768689445
 10
-37.3388737989
 20
-19.5883740465
 10
-37.3344591161
 20
-19.5997888363
 10
-37.329564265
 20
-19.6110953951
 10
-37.3241920816
 20
-19.6223016466
 10
-37.3183458476
 20
-19.6333939573
 10
-37.3120303631
 20
-19.6443553341
 10
-37.3052509358
 20
-19.6551909615
 10
-37.2980106243
 20
-19.6658897937
 10
-37.2903145426
 20
-19.6764361855
 10
-37.2821714017
 20
-19.6868318174
 10
-37.2735834476
 20
-19.6970686656
 10
-37.2645555798
 20
-19.7071328717
 10
-37.2551009652
 20
-19.7170220189
 10
-37.2452204671
 20
-19.7267313299
 10
-37.2349181373
 20
-19.7362491304
 10
-37.2242126152
 20
-19.7455686407
 10
-37.2131029641
 20
-19.7546882644
 10
-37.2015917191
 20
-19.7635987894
 10
-37.1897037386
 20
-19.7722892604
 10
-37.1774361681
 20
-19.7807608819
 10
-37.1647894476
 20
-19.7890069902
 10
-37.1517948584
 20
-19.7970131245
 10
-37.138447924
 20
-19.8047826602
 10
-37.124746663
 20
-19.8123113366
 10
-37.1107282249
 20
-19.8195822392
 10
-37.0964027274
 20
-19.8265931458
 10
-37.081750914
 20
-19.8333501793
 10
-37.0667662675
 20
-19.8398523806
  0
LWPOLYLINE
  5
225
100
AcDbEntity
  8
RACCORDO
100
AcDbPolyline
 62
250
  6
CONTINUOUS
 90
61
 70
0
 10
-37.0667662719
 20
-19.8398523825
 10
-37.1360246399
 20
-18.8356084313
 10
-37.2029423956
 20
-17.8289590453
 10
-37.2675187715
 20
-16.8199152206
 10
-37.3297529933
 20
-15.808487989
 10
-37.389644381
 20
-14.7946883875
 10
-37.4471923485
 20
-13.7785274577
 10
-37.50239624
 20
-12.7600162939
 10
-37.5552554184
 20
-11.7391660221
 10
-37.6057693661
 20
-10.7159877699
 10
-37.6539375079
 20
-9.6904927102
 10
-37.6997592876
 20
-8.6626920398
 10
-37.7432342569
 20
-7.6325969591
 10
-37.7843619213
 20
-6.6002187179
 10
-37.8231418056
 20
-5.5655685833
 10
-37.8595735309
 20
-4.5286578178
 10
-37.8936566836
 20
-3.489497739
 10
-37.925390869
 20
-2.4480996908
 10
-37.9547757771
 20
-1.4044750119
 10
-37.9818110751
 20
-0.3586350881
 10
-38.0064964489
 20
0.6894086624
 10
-38.0288316573
 20
1.7396448171
 10
-38.048816448
 20
2.7920619173
 10
-38.066450588
 20
3.8466484773
 10
-38.081733905
 20
4.9033929987
 10
-38.0946662276
 20
5.9622839524
 10
-38.1052474036
 20
7.0233097849
 10
-38.1134773297
 20
8.0864589274
 10
-38.1193559154
 20
9.1517197832
 10
-38.1228830894
 20
10.2190807303
 10
-38.1240588172
 20
11.2885301282
 10
-38.1228830894
 20
12.3600563136
 10
-38.1193559154
 20
13.4336475974
 10
-38.1134773297
 20
14.509292268
 10
-38.1052474036
 20
15.5869785963
 10
-38.0946662276
 20
16.6666948276
 10
-38.081733905
 20
17.7484291797
 10
-38.066450588
 20
18.8321698593
 10
-38.048816448
 20
19.9179050468
 10
-38.0288316573
 20
21.0056228879
 10
-38.006496449
 20
22.0953115244
 10
-37.9818110751
 20
23.1869590749
 10
-37.9547757772
 20
24.2805536183
 10
-37.925390869
 20
25.3760832316
 10
-37.8936566836
 20
26.4735359737
 10
-37.8595735309
 20
27.5728998655
 10
-37.8231418056
 20
28.6741629261
 10
-37.7843619214
 20
29.7773131503
 10
-37.7432342569
 20
30.8823384928
 10
-37.6997592876
 20
31.9892269178
 10
-37.6539375079
 20
33.0979663552
 10
-37.6057693661
 20
34.2085446784
 10
-37.5552554184
 20
35.3209497892
 10
-37.50239624
 20
36.4351695624
 10
-37.4471923485
 20
37.5511918012
 10
-37.389644381
 20
38.6690043454
 10
-37.3297529933
 20
39.7885950165
 10
-37.2675187715
 20
40.9099515614
 10
-37.2029423956
 20
42.0330617452
 10
-37.1360246399
 20
43.1579133513
 10
-37.0667662719
 20
44.2844941259
  0
LWPOLYLINE
  5
226
100
AcDbEntity
  8
RACCORDO
100
AcDbPolyline
 62
250
  6
CONTINUOUS
 90
38
 70
0
 10
-37.3562879898
 20
44.5948326503
 10
-37.3565636849
 20
44.5887177912
 10
-37.3565757939
 20
44.579326803
 10
-37.3560920462
 20
44.5699075318
 10
-37.3551114834
 20
44.5604839985
 10
-37.3536353879
 20
44.5510532798
 10
-37.3516656843
 20
44.5416139248
 10
-37.3492022683
 20
44.5321908663
 10
-37.3462474187
 20
44.522780719
 10
-37.3428042295
 20
44.5133815571
 10
-37.3388738013
 20
44.5040191971
 10
-37.3344591187
 20
44.4946897901
 10
-37.3295642679
 20
44.4853908533
 10
-37.3241920846
 20
44.4761490172
 10
-37.3183458508
 20
44.4669600014
 10
-37.3120303665
 20
44.4578206972
 10
-37.3052509393
 20
44.4487584262
 10
-37.298010628
 20
44.4397685523
 10
-37.2903145463
 20
44.4308472894
 10
-37.2821714055
 20
44.4220224592
 10
-37.2735834514
 20
44.4132891991
 10
-37.2645555836
 20
44.4046430228
 10
-37.2551009689
 20
44.3961119677
 10
-37.2452204707
 20
44.3876911423
 10
-37.2349181407
 20
44.3793753816
 10
-37.2242126185
 20
44.3711925284
 10
-37.2131029672
 20
44.3631379412
 10
-37.201591722
 20
44.3552058684
 10
-37.1897037411
 20
44.3474233848
 10
-37.1774361703
 20
44.3397864647
 10
-37.1647894495
 20
44.3322889635
 10
-37.1517948599
 20
44.3249564295
 10
-37.1384479251
 20
44.3177858885
 10
-37.1247466636
 20
44.3107711259
 10
-37.110728225
 20
44.3039352339
 10
-37.096402727
 20
44.2972841622
 10
-37.081750913
 20
44.2908050631
 10
-37.0667662659
 20
44.2844941304
  0
LWPOLYLINE
  5
227
100
AcDbEntity
  8
RACCORDO
100
AcDbPolyline
 62
7
  6
CONTINUOUS
 90
61
 70
0
 10
-37.3562875924
 20
44.5948390721
 10
-37.4251304991
 20
43.4750817877
 10
-37.4920325408
 20
42.3506638371
 10
-37.55659441
 20
41.2279769717
 10
-37.618815259
 20
40.1070348711
 10
-37.6786943954
 20
38.9878494996
 10
-37.7362311746
 20
37.870432186
 10
-37.7914249371
 20
36.7547947107
 10
-37.8442750447
 20
35.6409493052
 10
-37.8947808798
 20
34.5289079769
 10
-37.942941836
 20
33.4186827234
 10
-37.9887573441
 20
32.3102858522
 10
-38.0322268433
 20
31.2037298322
 10
-38.0733498011
 20
30.099026778
 10
-38.1121257397
 20
28.9961886454
 10
-38.1485541841
 20
27.895227661
 10
-38.1826346793
 20
26.7961558488
 10
-38.2143668225
 20
25.6989851599
 10
-38.2437502188
 20
24.6037277078
 10
-38.2707844898
 20
23.5103954851
 10
-38.2954693108
 20
22.4190003393
 10
-38.3178043679
 20
21.3295541631
 10
-38.3377893585
 20
20.2420689148
 10
-38.355424034
 20
19.1565563508
 10
-38.3707081597
 20
18.0730280605
 10
-38.3836415088
 20
16.9914958663
 10
-38.3942239055
 20
15.9119715328
 10
-38.4024551882
 20
14.8344665638
 10
-38.4083352044
 20
13.7589927122
 10
-38.4118638524
 20
12.6855616829
 10
-38.4130410433
 20
11.6141849078
 10
-38.4118666987
 20
10.5448740788
 10
-38.4083407913
 20
9.4776408303
 10
-38.4024633042
 20
8.4124965093
 10
-38.3942342333
 20
7.3494527372
 10
-38.3836536251
 20
6.2885210857
 10
-38.3707215349
 20
5.229712828
 10
-38.3554380323
 20
4.1730395098
 10
-38.337803238
 20
3.1185126431
 10
-38.3178172794
 20
2.0661434523
 10
-38.2954802983
 20
1.0159433349
 10
-38.2707924909
 20
-0.0320761859
 10
-38.2437540639
 20
-1.0779036974
 10
-38.2143652349
 20
-2.1215278431
 10
-38.1826262756
 20
-3.162937204
 10
-38.1485374735
 20
-4.2021202767
 10
-38.1120991243
 20
-5.2390657332
 10
-38.0733115757
 20
-6.2737622667
 10
-38.0321751951
 20
-7.306198411
 10
-37.9886903524
 20
-8.3363629672
 10
-37.9428574726
 20
-9.3642446755
 10
-37.8946770078
 20
-10.3898319851
 10
-37.8441494192
 20
-11.413113507
 10
-37.791275205
 20
-12.4340782306
 10
-37.7360548731
 20
-13.4527151756
 10
-37.678488953
 20
-14.4690131527
 10
-37.6185779952
 20
-15.4829614636
 10
-37.5563225335
 20
-16.4945498628
 10
-37.4917231501
 20
-17.5037675331
 10
-37.4247805841
 20
-18.5106021961
 10
-37.3559301859
 20
-19.5088525829
  0
LWPOLYLINE
  5
228
100
AcDbEntity
  8
RACCORDO
100
AcDbPolyline
 62
250
  6
CONTINUOUS
 90
58
 70
0
 10
-37.0667662659
 20
44.2844941304
 10
-37.0656038113
 20
44.2997666609
 10
-37.0641821216
 20
44.3151991606
 10
-37.0625020893
 20
44.33078183
 10
-37.0605647613
 20
44.3465048314
 10
-37.0583713661
 20
44.362358122
 10
-37.0559233227
 20
44.3783314557
 10
-37.0532221978
 20
44.3944146409
 10
-37.0502696951
 20
44.4105974995
 10
-37.0470676923
 20
44.4268696959
 10
-37.0436182252
 20
44.4432208673
 10
-37.0399234859
 20
44.4596406447
 10
-37.0359858239
 20
44.4761186069
 10
-37.0318077421
 20
44.4926442882
 10
-37.0273918948
 20
44.5092071816
 10
-37.0227410869
 20
44.5257967586
 10
-37.0178582731
 20
44.5424024755
 10
-37.0127465571
 20
44.5590137813
 10
-37.0074091878
 20
44.5756201209
 10
-37.0018495573
 20
44.5922109418
 10
-36.9960711982
 20
44.6087757007
 10
-36.9900777823
 20
44.625303871
 10
-36.9838731181
 20
44.6417849494
 10
-36.9774611486
 20
44.6582084628
 10
-36.9708459483
 20
44.6745639744
 10
-36.9640317211
 20
44.6908410909
 10
-36.9570227971
 20
44.7070294685
 10
-36.94982363
 20
44.7231188201
 10
-36.9424387948
 20
44.7390989211
 10
-36.9348729842
 20
44.7549596168
 10
-36.9271310062
 20
44.7706908282
 10
-36.9192177805
 20
44.7862825585
 10
-36.9111383357
 20
44.8017248997
 10
-36.9028978061
 20
44.8170080385
 10
-36.8945014281
 20
44.8321222629
 10
-36.8859545375
 20
44.8470579683
 10
-36.8772625656
 20
44.8618056636
 10
-36.8684310362
 20
44.8763559773
 10
-36.8594655612
 20
44.8906996628
 10
-36.8503718375
 20
44.9048276048
 10
-36.8411556436
 20
44.9187308249
 10
-36.8318228366
 20
44.9324004885
 10
-36.8223793479
 20
44.9458279104
 10
-36.8128311792
 20
44.9590045596
 10
-36.8031843974
 20
44.9719220608
 10
-36.7934451313
 20
44.9845722006
 10
-36.7836195693
 20
44.9969469333
 10
-36.7737139564
 20
45.0090384027
 10
-36.7637345871
 20
45.0208389412
 10
-36.7536877968
 20
45.0323410732
 10
-36.7435799747
 20
45.0435374633
 10
-36.7334175622
 20
45.0544209416
 10
-36.7232069799
 20
45.0649846126
 10
-36.7129547565
 20
45.0752217485
 10
-36.7026675428
 20
45.0851257496
 10
-36.6923519218
 20
45.0946903055
 10
-36.6820144041
 20
45.1039093869
 10
-36.6716615587
 20
45.1127771507
  0
LWPOLYLINE
  5
229
100
AcDbEntity
  8
RACCORDO
100
AcDbPolyline
 62
250
  6
CONTINUOUS
 90
61
 70
0
 10
-20.084969853
 20
30.8169009152
 10
-20.074082531
 20
30.8267571213
 10
-20.0628359181
 20
30.8364484897
 10
-20.0512373861
 20
30.8459686683
 10
-20.0392945372
 20
30.8553114171
 10
-20.0270151994
 20
30.8644706123
 10
-20.0144074211
 20
30.8734402505
 10
-20.0014794662
 20
30.8822144525
 10
-19.9882398083
 20
30.8907874674
 10
-19.9746971254
 20
30.8991536758
 10
-19.9608602941
 20
30.9073075942
 10
-19.9467383836
 20
30.915243878
 10
-19.9323406503
 20
30.9229573254
 10
-19.9176765312
 20
30.9304428806
 10
-19.9027556379
 20
30.9376956372
 10
-19.8875877503
 20
30.9447108414
 10
-19.8721828102
 20
30.9514838949
 10
-19.8565509149
 20
30.9580103585
 10
-19.8407023102
 20
30.9642859543
 10
-19.8246473843
 20
30.970306569
 10
-19.8083966602
 20
30.9760682564
 10
-19.7919607896
 20
30.9815672399
 10
-19.7753505454
 20
30.9867999152
 10
-19.7585768147
 20
30.9917628526
 10
-19.7416505921
 20
30.9964527992
 10
-19.7245829717
 20
31.0008666807
 10
-19.7073851407
 20
31.0050016043
 10
-19.6900683713
 20
31.0088548596
 10
-19.6726440138
 20
31.012423921
 10
-19.6551234891
 20
31.0157064492
 10
-19.637518281
 20
31.0187002927
 10
-19.6198399289
 20
31.021403489
 10
-19.6021000201
 20
31.0238142664
 10
-19.5843101823
 20
31.0259310448
 10
-19.5664820758
 20
31.0277524367
 10
-19.5486273861
 20
31.0292772483
 10
-19.5307578161
 20
31.03050448
 10
-19.5128850784
 20
31.0314333277
 10
-19.4950208877
 20
31.0320631823
 10
-19.4771769532
 20
31.0323936311
 10
-19.4593649706
 20
31.0324244576
 10
-19.441596615
 20
31.0321556414
 10
-19.4238835325
 20
31.0315873587
 10
-19.4062373333
 20
31.0307199822
 10
-19.3886695836
 20
31.0295540802
 10
-19.3711917981
 20
31.028090417
 10
-19.3538154328
 20
31.026329952
 10
-19.336551877
 20
31.024273839
 10
-19.3194124461
 20
31.0219234257
 10
-19.3024083742
 20
31.0192802527
 10
-19.2855508067
 20
31.0163460525
 10
-19.2688507929
 20
31.0131227483
 10
-19.2523192787
 20
31.0096124528
 10
-19.2359670999
 20
31.0058174669
 10
-19.2198049745
 20
31.0017402779
 10
-19.203843496
 20
30.9973835583
 10
-19.1880931263
 20
30.9927501638
 10
-19.1725641891
 20
30.9878431312
 10
-19.1572668629
 20
30.9826656769
 10
-19.1422111742
 20
30.9772211944
 10
-19.1274069915
 20
30.9715132524
  0
LWPOLYLINE
  5
22A
100
AcDbEntity
  8
RACCORDO
100
AcDbPolyline
 62
7
  6
CONTINUOUS
 90
41
 70
0
 10
33.6534431061
 20
-48.4526363022
 10
33.669796746
 20
-48.4587462235
 10
33.6863063776
 20
-48.4644493106
 10
33.7029602247
 20
-48.46974084
 10
33.7197436874
 20
-48.474615772
 10
33.7366474095
 20
-48.4790711269
 10
33.753667542
 20
-48.4831053251
 10
33.7707620775
 20
-48.4867088257
 10
33.787948554
 20
-48.4898858632
 10
33.805313616
 20
-48.4926481365
 10
33.8229287459
 20
-48.4949958131
 10
33.8406989282
 20
-48.4969051438
 10
33.85846106
 20
-48.498356666
 10
33.8761251363
 20
-48.4993499288
 10
33.8937556206
 20
-48.4998954928
 10
33.9114210153
 20
-48.4999964736
 10
33.9291240411
 20
-48.4996503317
 10
33.9468368197
 20
-48.4988551489
 10
33.964581691
 20
-48.49760679
 10
33.9824060029
 20
-48.4958952041
 10
34.0002356983
 20
-48.4937208402
 10
34.0179132606
 20
-48.4911043052
 10
34.0353147018
 20
-48.4880754885
 10
34.0525455362
 20
-48.4846274863
 10
34.0697916994
 20
-48.4807223323
 10
34.087154283
 20
-48.4763239532
 10
34.1045023709
 20
-48.4714522267
 10
34.1216740273
 20
-48.4661502073
 10
34.1386092909
 20
-48.4604423623
 10
34.155350892
 20
-48.4543201824
 10
34.1718962279
 20
-48.4477880012
 10
34.1882056881
 20
-48.4408658908
 10
34.2043033221
 20
-48.4335479857
 10
34.2202785725
 20
-48.4257919199
 10
34.236207814
 20
-48.4175499224
 10
34.2519880881
 20
-48.4088642884
 10
34.2674444571
 20
-48.3998327801
 10
34.2824689834
 20
-48.3905336815
 10
34.2971679601
 20
-48.3809161937
 10
34.3116886411
 20
-48.3708849055
 10
38.2666764556
 20
-45.5483766157
  0
LINE
  5
22B
100
AcDbEntity
  8
RACCORDO
100
AcDbLine
 62
250
  6
CONTINUOUS
 10
-19.8175043308
 20
-26.9665449119
 11
-19.815001671
 21
-26.9675761992
  0
LWPOLYLINE
  5
22C
100
AcDbEntity
  8
RACCORDO
100
AcDbPolyline
 62
7
  6
CONTINUOUS
 90
16
 70
0
 10
-36.9263390493
 20
-20.1062030794
 10
-35.8041570326
 20
-20.5715692844
 10
-34.6735241627
 20
-21.0382075505
 10
-33.5409713571
 20
-21.5034030661
 10
-32.406505429
 20
-21.9671530451
 10
-31.270132461
 20
-22.4294550277
 10
-30.1318583211
 20
-22.8903066421
 10
-28.9916891
 20
-23.3497054314
 10
-27.8496313169
 20
-23.8076487902
 10
-26.7056914832
 20
-24.2641341211
 10
-25.5598760613
 20
-24.7191588494
 10
-24.4121914693
 20
-25.1727204429
 10
-23.2626441493
 20
-25.6248163739
 10
-22.1112405246
 20
-26.0754441227
 10
-20.9579870208
 20
-26.5246011845
 10
-19.8150098924
 20
-26.9675974114
  0
LWPOLYLINE
  5
22D
100
AcDbEntity
  8
RACCORDO
100
AcDbPolyline
 62
250
  6
CONTINUOUS
 90
16
 70
0
 10
-37.0667662719
 20
-19.8398523825
 10
-35.9815533485
 20
-20.2899218956
 10
-34.8945554348
 20
-20.7386622743
 10
-33.8057780504
 20
-21.1860713095
 10
-32.7152258427
 20
-21.6321471816
 10
-31.6229052284
 20
-22.0768872692
 10
-30.5288244077
 20
-22.5202881614
 10
-29.4329896435
 20
-22.9623473199
 10
-28.3354058225
 20
-23.4030628309
 10
-27.2360791101
 20
-23.8424322255
 10
-26.1350155206
 20
-24.2804530605
 10
-25.0322202482
 20
-24.717123292
 10
-23.9276982411
 20
-25.1524410391
 10
-22.821454899
 20
-25.5864041623
 10
-21.7134960766
 20
-26.0190102669
 10
-20.6038274146
 20
-26.4502570762
  0
LWPOLYLINE
  5
22E
100
AcDbEntity
  8
RACCORDO
100
AcDbPolyline
 62
7
  6
CONTINUOUS
 90
44
 70
0
 10
-36.9263390492
 20
-20.1062030795
 10
-36.9427931122
 20
-20.0991150921
 10
-36.9590724195
 20
-20.091602597
 10
-36.975163938
 20
-20.0836705722
 10
-36.9910532562
 20
-20.0753253334
 10
-37.0067294354
 20
-20.0665720092
 10
-37.022184807
 20
-20.0574141187
 10
-37.0373948618
 20
-20.0478659987
 10
-37.0523600572
 20
-20.0379273646
 10
-37.067108235
 20
-20.0275769926
 10
-37.0816583147
 20
-20.0167947653
 10
-37.0959624392
 20
-20.005609368
 10
-37.1099501506
 20
-19.9940748908
 10
-37.1235773642
 20
-19.9822329496
 10
-37.1368714321
 20
-19.9700653326
 10
-37.149870037
 20
-19.9575375855
 10
-37.1625661619
 20
-19.944652864
 10
-37.1749434452
 20
-19.931424286
 10
-37.1870199468
 20
-19.9178270331
 10
-37.198820476
 20
-19.9038215403
 10
-37.210290763
 20
-19.8894604374
 10
-37.2213369926
 20
-19.874861634
 10
-37.2318957909
 20
-19.8601251586
 10
-37.2420285578
 20
-19.8451821844
 10
-37.2518265694
 20
-19.8298961783
 10
-37.2613246876
 20
-19.8141911377
 10
-37.2704551593
 20
-19.7981567031
 10
-37.2791520742
 20
-19.7819021553
 10
-37.287401431
 20
-19.7654582375
 10
-37.2952083824
 20
-19.7488195836
 10
-37.3025487242
 20
-19.7320458962
 10
-37.3093905449
 20
-19.7152322516
 10
-37.3157707541
 20
-19.6983112619
 10
-37.3217570553
 20
-19.6810951209
 10
-37.3273814305
 20
-19.6634385621
 10
-37.3325737771
 20
-19.6455037346
 10
-37.3372546362
 20
-19.6275636726
 10
-37.3413973391
 20
-19.6097860847
 10
-37.3450514686
 20
-19.5920293841
 10
-37.3482579326
 20
-19.5741031259
 10
-37.3510241159
 20
-19.5559039867
 10
-37.3533200743
 20
-19.5375553962
 10
-37.3551260728
 20
-19.5192053496
 10
-37.3559306863
 20
-19.5088453945
  0
LWPOLYLINE
  5
22F
100
AcDbEntity
  8
RACCORDO
100
AcDbPolyline
 62
250
  6
CONTINUOUS
 90
31
 70
0
 10
-36.927556434
 20
-20.1056786614
 10
-36.9348729842
 20
-20.1023636549
 10
-36.9424387948
 20
-20.0984475791
 10
-36.94982363
 20
-20.0941256771
 10
-36.9570227971
 20
-20.0894006951
 10
-36.9640317211
 20
-20.0842756357
 10
-36.9708459483
 20
-20.0787537557
 10
-36.9774611486
 20
-20.0728385641
 10
-36.9838731181
 20
-20.0665338199
 10
-36.9900777823
 20
-20.0598435294
 10
-36.9960711982
 20
-20.0527719441
 10
-37.0018495573
 20
-20.0453235579
 10
-37.0074091878
 20
-20.0375031039
 10
-37.0127465571
 20
-20.0293155517
 10
-37.0178582731
 20
-20.0207661044
 10
-37.0227410869
 20
-20.0118601948
 10
-37.0273918948
 20
-20.0026034823
 10
-37.0318077421
 20
-19.9930018493
 10
-37.0359858239
 20
-19.9830613981
 10
-37.0399234859
 20
-19.9727884479
 10
-37.0436182252
 20
-19.9621895251
 10
-37.0470676923
 20
-19.9512713589
 10
-37.0502696951
 20
-19.9400408743
 10
-37.0532221978
 20
-19.9285052192
 10
-37.0559233227
 20
-19.9166717572
 10
-37.058371366
 20
-19.9045479753
 10
-37.0605647612
 20
-19.8921416136
 10
-37.0625020893
 20
-19.8794607048
 10
-37.0641821219
 20
-19.8665133678
 10
-37.0656038122
 20
-19.8533077926
 10
-37.0667662675
 20
-19.8398523806
  0
LINE
  5
230
100
AcDbEntity
  8
RACCORDO
100
AcDbLine
 62
250
  6
CONTINUOUS
 10
-20.5948637186
 20
-26.4611791419
 11
-20.6038274111
 21
-26.450257073
  0
LINE
  5
231
100
AcDbEntity
  8
RACCORDO
100
AcDbLine
 62
250
  6
CONTINUOUS
 10
-18.3147995384
 20
24.9159061251
 11
-18.3012025346
 21
24.9327864693
  0
LINE
  5
232
100
AcDbEntity
  8
RACCORDO
100
AcDbLine
 62
250
  6
CONTINUOUS
 10
-18.3307646019
 20
24.8963047598
 11
-18.3147995384
 21
24.9159061251
  0
LINE
  5
233
100
AcDbEntity
  8
RACCORDO
100
AcDbLine
 62
250
  6
CONTINUOUS
 10
-18.346518323
 20
24.8771911539
 11
-18.3307646019
 21
24.8963047598
  0
LINE
  5
234
100
AcDbEntity
  8
RACCORDO
100
AcDbLine
 62
250
  6
CONTINUOUS
 10
-18.3620702203
 20
24.858546659
 11
-18.346518323
 21
24.8771911539
  0
LINE
  5
235
100
AcDbEntity
  8
RACCORDO
100
AcDbLine
 62
250
  6
CONTINUOUS
 10
-18.3774286472
 20
24.8403547689
 11
-18.3620702203
 21
24.858546659
  0
LINE
  5
236
100
AcDbEntity
  8
RACCORDO
100
AcDbLine
 62
250
  6
CONTINUOUS
 10
-18.3925990064
 20
24.8226048102
 11
-18.3774286472
 21
24.8403547689
  0
LINE
  5
237
100
AcDbEntity
  8
RACCORDO
100
AcDbLine
 62
250
  6
CONTINUOUS
 10
-18.4075890331
 20
24.8052814347
 11
-18.3925990064
 21
24.8226048102
  0
LINE
  5
238
100
AcDbEntity
  8
RACCORDO
100
AcDbLine
 62
250
  6
CONTINUOUS
 10
-18.4224059837
 20
24.7883704768
 11
-18.4075890331
 21
24.8052814347
  0
LINE
  5
239
100
AcDbEntity
  8
RACCORDO
100
AcDbLine
 62
250
  6
CONTINUOUS
 10
-18.4370546907
 20
24.7718626248
 11
-18.4224059837
 21
24.7883704768
  0
LINE
  5
23A
100
AcDbEntity
  8
RACCORDO
100
AcDbLine
 62
250
  6
CONTINUOUS
 10
-18.4515438992
 20
24.7557412996
 11
-18.4370546907
 21
24.7718626248
  0
LWPOLYLINE
  5
23B
100
AcDbEntity
  8
RACCORDO
100
AcDbPolyline
 62
250
  6
CONTINUOUS
 90
61
 70
0
 10
-19.2801525007
 20
24.914881118
 10
-19.2694207396
 20
24.9259075941
 10
-19.258329349
 20
24.9367683564
 10
-19.2468856037
 20
24.9474562813
 10
-19.2350970094
 20
24.9579643587
 10
-19.2229712983
 20
24.9682856965
 10
-19.2105164234
 20
24.978413525
 10
-19.1977405538
 20
24.9883412014
 10
-19.184652069
 20
24.9980622144
 10
-19.1712595538
 20
25.0075701879
 10
-19.1575717921
 20
25.0168588857
 10
-19.1435977615
 20
25.0259222156
 10
-19.1293466276
 20
25.0347542329
 10
-19.1148277376
 20
25.0433491448
 10
-19.1000506141
 20
25.051701314
 10
-19.0850249495
 20
25.0598052623
 10
-19.0697605989
 20
25.0676556745
 10
-19.054267574
 20
25.0752474015
 10
-19.0385560366
 20
25.0825754641
 10
-19.0226362917
 20
25.0896350557
 10
-19.006518781
 20
25.0964215461
 10
-18.9902140758
 20
25.1029304841
 10
-18.9737328702
 20
25.1091576005
 10
-18.9570859741
 20
25.115098811
 10
-18.9402843059
 20
25.1207502188
 10
-18.9233388858
 20
25.1261081172
 10
-18.9062608282
 20
25.1311689921
 10
-18.8890613343
 20
25.135929524
 10
-18.8717516851
 20
25.1403865906
 10
-18.8543432339
 20
25.1445372685
 10
-18.8368473988
 20
25.1483788352
 10
-18.8192756551
 20
25.1519087713
 10
-18.8016395278
 20
25.1551247613
 10
-18.7839505845
 20
25.1580246961
 10
-18.7662204272
 20
25.1606066734
 10
-18.7484606848
 20
25.1628689999
 10
-18.7306830058
 20
25.1648101917
 10
-18.7128990505
 20
25.1664289756
 10
-18.6951204832
 20
25.1677242898
 10
-18.6773589646
 20
25.1686952848
 10
-18.6596261444
 20
25.1693413236
 10
-18.6419336535
 20
25.1696619826
 10
-18.624293096
 20
25.1696570515
 10
-18.6067160424
 20
25.1693265334
 10
-18.5892140212
 20
25.1686706452
 10
-18.5717985119
 20
25.1676898171
 10
-18.5544809371
 20
25.1663846923
 10
-18.5372726552
 20
25.1647561269
 10
-18.5201849531
 20
25.162805189
 10
-18.5032290384
 20
25.1605331583
 10
-18.4864160323
 20
25.1579415249
 10
-18.4697569624
 20
25.1550319887
 10
-18.4532627551
 20
25.1518064581
 10
-18.4369442288
 20
25.1482670485
 10
-18.4208120867
 20
25.1444160816
 10
-18.4048769098
 20
25.140256083
 10
-18.3891491498
 20
25.1357897813
 10
-18.3736391224
 20
25.131020106
 10
-18.3583570004
 20
25.1259501853
 10
-18.3433128073
 20
25.1205833447
 10
-18.3285164104
 20
25.1149231041
  0
LWPOLYLINE
  5
23C
100
AcDbEntity
  8
RACCORDO
100
AcDbPolyline
 62
7
  6
CONTINUOUS
 90
41
 70
0
 10
-18.451559917
 20
24.914174002
 10
-18.4520793959
 20
24.9138627569
 10
-18.4523564804
 20
24.913702133
 10
-18.4523099996
 20
24.9137273484
 10
-18.4519213724
 20
24.9139340836
 10
-18.4511829198
 20
24.9143111286
 10
-18.4500875624
 20
24.9148464889
 10
-18.4486162297
 20
24.9155331722
 10
-18.4467612409
 20
24.9163576822
 10
-18.4445167845
 20
24.9173051733
 10
-18.4418658643
 20
24.9183647007
 10
-18.4388005355
 20
24.9195205116
 10
-18.435318026
 20
24.9207543554
 10
-18.4314097646
 20
24.9220495413
 10
-18.4270703635
 20
24.9233875557
 10
-18.4223000029
 20
24.9247477231
 10
-18.4171004857
 20
24.9261087849
 10
-18.4114699468
 20
24.9274502292
 10
-18.4054119543
 20
24.9287499509
 10
-18.3989389789
 20
24.9299842111
 10
-18.3920552635
 20
24.9311312951
 10
-18.3847657706
 20
24.9321692909
 10
-18.3770861381
 20
24.93307505
 10
-18.369023838
 20
24.9338269587
 10
-18.3605871875
 20
24.9344033539
 10
-18.3517944158
 20
24.9347822706
 10
-18.3426545464
 20
24.9349427186
 10
-18.3331807734
 20
24.9348637079
 10
-18.323398727
 20
24.9345250968
 10
-18.3133213096
 20
24.9339072931
 10
-18.3029648088
 20
24.9329911156
 10
-18.2923611003
 20
24.9317597466
 10
-18.2815266906
 20
24.9301959444
 10
-18.2704814237
 20
24.9282833026
 10
-18.2592632807
 20
24.9260098531
 10
-18.2478912139
 20
24.9233615122
 10
-18.2363898715
 20
24.9203260366
 10
-18.2248067455
 20
24.9168991678
 10
-18.2131742616
 20
24.9130752582
 10
-18.2015104047
 20
24.9088450551
 10
-18.1944371134
 20
24.9060809384
  0
LINE
  5
23D
100
AcDbEntity
  8
RACCORDO
100
AcDbLine
 62
7
  6
CONTINUOUS
 10
-19.9535006417
 20
-26.667324502
 11
-20.1070190321
 21
-26.6273829116
  0
LINE
  5
23E
100
AcDbEntity
  8
RACCORDO
100
AcDbLine
 62
7
  6
CONTINUOUS
 10
-20.1070190321
 20
-26.6273829116
 11
-20.2295365253
 21
-26.5952606948
  0
LWPOLYLINE
  5
23F
100
AcDbEntity
  8
RACCORDO
100
AcDbPolyline
 62
7
  6
CONTINUOUS
 90
5
 70
0
 10
-20.3345083187
 20
-26.5664060582
 10
-20.307579789
 20
-26.5740154922
 10
-20.2811089464
 20
-26.581357756
 10
-20.2550945275
 20
-26.588439492
 10
-20.2295365253
 20
-26.5952606948
  0
LINE
  5
240
100
AcDbEntity
  8
RACCORDO
100
AcDbLine
 62
7
  6
CONTINUOUS
 10
-20.389730927
 20
-26.5504255858
 11
-20.3345083187
 21
-26.5664060582
  0
LWPOLYLINE
  5
241
100
AcDbEntity
  8
RACCORDO
100
AcDbPolyline
 62
7
  6
CONTINUOUS
 90
3
 70
0
 10
-20.4759561683
 20
-26.5246705791
 10
-20.4467617351
 20
-26.5334961419
 10
-20.389730927
 20
-26.5504255858
  0
LWPOLYLINE
  5
242
100
AcDbEntity
  8
RACCORDO
100
AcDbPolyline
 62
7
  6
CONTINUOUS
 90
82
 70
0
 10
-20.4759561682
 20
-26.524670579
 10
-20.479790121
 20
-26.5234812103
 10
-20.4835081261
 20
-26.5222871952
 10
-20.4871094734
 20
-26.5210910575
 10
-20.4905898868
 20
-26.5198955275
 10
-20.4939525855
 20
-26.5187031227
 10
-20.4972082488
 20
-26.5175157106
 10
-20.5003565294
 20
-26.5163359783
 10
-20.5033973303
 20
-26.515165748
 10
-20.5063417582
 20
-26.5140049023
 10
-20.5091895823
 20
-26.5128557136
 10
-20.511941015
 20
-26.5117197638
 10
-20.5146077812
 20
-26.5105952507
 10
-20.5171896903
 20
-26.5094840611
 10
-20.5196871679
 20
-26.5083875067
 10
-20.5221127267
 20
-26.507302293
 10
-20.5244678404
 20
-26.5062291806
 10
-20.5267513504
 20
-26.5051699344
 10
-20.5289716635
 20
-26.5041222586
 10
-20.5311303176
 20
-26.5030866403
 10
-20.5332261736
 20
-26.5020646986
 10
-20.5352635333
 20
-26.5010555475
 10
-20.53724289
 20
-26.5000600799
 10
-20.539164288
 20
-26.4990792973
 10
-20.541031302
 20
-26.4981123058
 10
-20.5428441529
 20
-26.4971600484
 10
-20.5446032611
 20
-26.4962232828
 10
-20.5463124387
 20
-26.4953006892
 10
-20.5479719638
 20
-26.4943930771
 10
-20.5495822527
 20
-26.4935011344
 10
-20.5511472401
 20
-26.4926232121
 10
-20.5526672103
 20
-26.4917600081
 10
-20.5541425906
 20
-26.4909121208
 10
-20.55557743
 20
-26.4900776105
 10
-20.5569719984
 20
-26.4892570696
 10
-20.5583267146
 20
-26.488451008
 10
-20.5596457353
 20
-26.4876572262
 10
-20.5609293008
 20
-26.4868762186
 10
-20.562177803
 20
-26.4861084119
 10
-20.5633954939
 20
-26.4853513731
 10
-20.5645825725
 20
-26.4846055056
 10
-20.5657393895
 20
-26.4838711553
 10
-20.5668702797
 20
-26.483145675
 10
-20.5679753417
 20
-26.4824294186
 10
-20.5690549198
 20
-26.481722625
 10
-20.5701135568
 20
-26.4810223503
 10
-20.5711516219
 20
-26.4803286562
 10
-20.5721690502
 20
-26.4796419265
 10
-20.5731695751
 20
-26.4789595904
 10
-20.5741545072
 20
-26.4782809829
 10
-20.5751227055
 20
-26.4776070958
 10
-20.5760741554
 20
-26.4769377999
 10
-20.5770100204
 20
-26.4762725599
 10
-20.5779293416
 20
-26.4756122388
 10
-20.5788290009
 20
-26.4749588531
 10
-20.5797093297
 20
-26.4743125745
 10
-20.5805703924
 20
-26.4736736391
 10
-20.5814088303
 20
-26.4730442495
 10
-20.5822246098
 20
-26.4724249404
 10
-20.5830183532
 20
-26.4718156453
 10
-20.5837878263
 20
-26.4712177376
 10
-20.5845327527
 20
-26.4706319921
 10
-20.5852541264
 20
-26.4700581168
 10
-20.5859516828
 20
-26.4694959187
 10
-20.5866256788
 20
-26.4689457349
 10
-20.5872765827
 20
-26.4684076688
 10
-20.5879044543
 20
-26.4678811855
 10
-20.5885095411
 20
-26.4673666079
 10
-20.5890923049
 20
-26.4668640068
 10
-20.5896531173
 20
-26.4663724711
 10
-20.5901920333
 20
-26.4658924874
 10
-20.590709672
 20
-26.4654239131
 10
-20.591207213
 20
-26.4649648884
 10
-20.5916849304
 20
-26.4645157178
 10
-20.5921431402
 20
-26.4640763846
 10
-20.5925830283
 20
-26.4636445411
 10
-20.5930049803
 20
-26.4632204739
 10
-20.5934091218
 20
-26.4628041389
 10
-20.5937961997
 20
-26.4623926976
 10
-20.5941666068
 20
-26.4619852801
 10
-20.5945204007
 20
-26.4615829727
 10
-20.5948578038
 20
-26.4611858691
  0
LINE
  5
243
100
AcDbEntity
  8
RACCORDO
100
AcDbLine
 62
250
  6
CONTINUOUS
 10
-20.2295365282
 20
-26.5952606971
 11
-19.9508661266
 21
-26.7030711411
  0
LINE
  5
244
100
AcDbEntity
  8
RACCORDO
100
AcDbLine
 62
7
  6
CONTINUOUS
 10
-19.815001671
 20
-26.9675761992
 11
16.5592576111
 21
-41.5762987654
  0
LINE
  5
245
100
AcDbEntity
  8
RACCORDO
100
AcDbLine
 62
250
  6
CONTINUOUS
 10
-19.9508652246
 20
-26.7030833633
 11
16.4194856357
 21
-41.3102362192
  0
LINE
  5
246
100
AcDbEntity
  8
DRAFT
100
AcDbLine
 62
7
  6
CONTINUOUS
 10
-19.9535006417
 20
-26.667324502
 11
16.4168501247
 21
-41.2744773202
  0
LWPOLYLINE
  5
247
100
AcDbEntity
  8
RACCORDO
100
AcDbPolyline
 62
250
  6
CONTINUOUS
 90
16
 70
0
 10
17.0563374017
 20
-41.575428295
 10
18.1413713576
 20
-42.0256235351
 10
19.2281903183
 20
-42.4744896681
 10
20.316788763
 20
-42.9220244878
 10
21.4071609448
 20
-43.3682257297
 10
22.49930154
 20
-43.8130912265
 10
23.5932056514
 20
-44.2566189047
 10
24.6888681326
 20
-44.6988066554
 10
25.7862830125
 20
-45.139652108
 10
26.8854441432
 20
-45.5791527863
 10
27.9863466373
 20
-46.0173066782
 10
29.0889842054
 20
-46.4541112809
 10
30.1933485681
 20
-46.8895633865
 10
31.2994332076
 20
-47.323660422
 10
32.4072333808
 20
-47.7564004354
 10
33.5167434453
 20
-48.1877811529
  0
LWPOLYLINE
  5
248
100
AcDbEntity
  8
RACCORDO
100
AcDbPolyline
 62
7
  6
CONTINUOUS
 90
16
 70
0
 10
16.5573305425
 20
-41.5754972015
 10
17.6757789941
 20
-42.0407840831
 10
18.8051351158
 20
-42.5083760944
 10
19.93641565
 20
-42.9745271908
 10
21.0696142767
 20
-43.4392347864
 10
22.204724652
 20
-43.9024963012
 10
23.3417404125
 20
-44.3643091474
 10
24.4806551928
 20
-44.8246707515
 10
25.6214625413
 20
-45.2835785294
 10
26.7641559524
 20
-45.7410298782
 10
27.9087289038
 20
-46.1970221936
 10
29.0551752695
 20
-46.6515530538
 10
30.2034891395
 20
-47.1046201283
 10
31.353664377
 20
-47.5562209969
 10
32.5056940407
 20
-48.00635295
 10
33.6534431062
 20
-48.4526363022
  0
LINE
  5
249
100
AcDbEntity
  8
RACCORDO
100
AcDbLine
 62
250
  6
CONTINUOUS
 10
16.4194847336
 20
-41.310223997
 11
16.6911344472
 21
-41.4234345183
  0
LINE
  5
24A
100
AcDbEntity
  8
RACCORDO
100
AcDbLine
 62
7
  6
CONTINUOUS
 10
16.8786133395
 20
-41.5212499231
 11
16.9362896595
 21
-41.5502719427
  0
LINE
  5
24B
100
AcDbEntity
  8
RACCORDO
100
AcDbLine
 62
7
  6
CONTINUOUS
 10
16.8227572845
 20
-41.4927300845
 11
16.8786133395
 21
-41.5212499231
  0
LINE
  5
24C
100
AcDbEntity
  8
RACCORDO
100
AcDbLine
 62
7
  6
CONTINUOUS
 10
16.7687261235
 20
-41.4646958126
 11
16.8227572845
 21
-41.4927300845
  0
LINE
  5
24D
100
AcDbEntity
  8
RACCORDO
100
AcDbLine
 62
7
  6
CONTINUOUS
 10
16.7165382684
 20
-41.4370807291
 11
16.7687261235
 21
-41.4646958126
  0
LINE
  5
24E
100
AcDbEntity
  8
RACCORDO
100
AcDbLine
 62
7
  6
CONTINUOUS
 10
16.7165382684
 20
-41.4370807291
 11
16.5998453669
 21
-41.3739820635
  0
LWPOLYLINE
  5
24F
100
AcDbEntity
  8
RACCORDO
100
AcDbPolyline
 62
7
  6
CONTINUOUS
 90
3
 70
0
 10
16.5998453669
 20
-41.3739820635
 10
16.4473882356
 20
-41.2911171891
 10
16.4168501247
 20
-41.2744773202
  0
LWPOLYLINE
  5
250
100
AcDbEntity
  8
RACCORDO
100
AcDbPolyline
 62
250
  6
CONTINUOUS
 90
4
 70
0
 10
16.3389064437
 20
-34.2982142278
 10
16.3297304111
 20
-34.2941265129
 10
16.3154475502
 20
-34.288048967
 10
16.3008939409
 20
-34.2821357673
  0
LWPOLYLINE
  5
251
100
AcDbEntity
  8
RACCORDO
100
AcDbPolyline
 62
250
  6
CONTINUOUS
 90
31
 70
0
 10
-19.9508651783
 20
-26.7030833819
 10
-19.9497861155
 20
-26.7165023423
 10
-19.9484615036
 20
-26.7296664103
 10
-19.9468921869
 20
-26.7425671772
 10
-19.9450798151
 20
-26.7551963302
 10
-19.9430248999
 20
-26.7675458512
 10
-19.9407268551
 20
-26.7796080676
 10
-19.9381872519
 20
-26.7913751012
 10
-19.9354077214
 20
-26.8028396667
 10
-19.9323880392
 20
-26.8139953013
 10
-19.9291301965
 20
-26.8248348932
 10
-19.9256363258
 20
-26.8353515381
 10
-19.9219066411
 20
-26.8455393817
 10
-19.9179435888
 20
-26.8553919237
 10
-19.913749752
 20
-26.8649028839
 10
-19.9093257706
 20
-26.8740670525
 10
-19.9046744734
 20
-26.8828786007
 10
-19.8997989376
 20
-26.891331884
 10
-19.8947003889
 20
-26.8994223007
 10
-19.8893814588
 20
-26.9071449489
 10
-19.8838462645
 20
-26.9144946287
 10
-19.8780984617
 20
-26.921466634
 10
-19.8721413259
 20
-26.9280566764
 10
-19.8659791321
 20
-26.9342603651
 10
-19.8596172249
 20
-26.9400731936
 10
-19.8530597055
 20
-26.9454914282
 10
-19.8463107815
 20
-26.950511592
 10
-19.839376137
 20
-26.9551299259
 10
-19.8322604996
 20
-26.9593433435
 10
-19.8249681629
 20
-26.9631492298
 10
-19.8175043308
 20
-26.9665449119
  0
LWPOLYLINE
  5
252
100
AcDbEntity
  8
RACCORDO
100
AcDbPolyline
 62
250
  6
CONTINUOUS
 90
61
 70
0
 10
-20.6038274146
 20
-26.4502570762
 10
-20.6803534257
 20
-25.4430937964
 10
-20.7542930605
 20
-24.4336237235
 10
-20.8256455512
 20
-23.4218578542
 10
-20.8944101921
 20
-22.4078071933
 10
-20.9605862344
 20
-21.3914828057
 10
-21.0241728865
 20
-20.3728958161
 10
-21.0851694842
 20
-19.3520573225
 10
-21.1435753984
 20
-18.3289784482
 10
-21.1993899302
 20
-17.3036703937
 10
-21.2526124963
 20
-16.2761443358
 10
-21.3032425483
 20
-15.2464114683
 10
-21.3512794809
 20
-14.214483055
 10
-21.3967227914
 20
-13.1803703495
 10
-21.4395720125
 20
-12.1440846161
 10
-21.4798266325
 20
-11.1056371708
 10
-21.5174862296
 20
-10.0650393348
 10
-21.5525504172
 20
-9.0223024496
 10
-21.5850187763
 20
-7.9774378973
 10
-21.6148909662
 20
-6.9304570676
 10
-21.6421666806
 20
-5.881371376
 10
-21.6668455937
 20
-4.8301922791
 10
-21.6889274453
 20
-3.7769312393
 10
-21.7084120103
 20
-2.7215997396
 10
-21.7252990558
 20
-1.6642093027
 10
-21.7395884024
 20
-0.6047714616
 10
-21.7512799061
 20
0.4567022329
 10
-21.760373427
 20
1.5202001974
 10
-21.7668688668
 20
2.5857108316
 10
-21.7707661621
 20
3.653222516
 10
-21.7720652664
 20
4.7227236053
 10
-21.7707661621
 20
5.7942024323
 10
-21.7668688668
 20
6.8676473108
 10
-21.760373427
 20
7.9430465337
 10
-21.7512799061
 20
9.0203883684
 10
-21.7395884024
 20
10.099661063
 10
-21.7252990558
 20
11.1808528493
 10
-21.7084120103
 20
12.2639519307
 10
-21.6889274453
 20
13.3489464903
 10
-21.6668455937
 20
14.4358246976
 10
-21.6421666806
 20
15.524574691
 10
-21.6148909661
 20
16.6151845917
 10
-21.5850187763
 20
17.7076425124
 10
-21.5525504171
 20
18.8019365265
 10
-21.5174862296
 20
19.8980546955
 10
-21.4798266325
 20
20.9959850841
 10
-21.4395720125
 20
22.0957157074
 10
-21.3967227914
 20
23.1972345632
 10
-21.3512794809
 20
24.3005296592
 10
-21.3032425483
 20
25.405588956
 10
-21.2526124963
 20
26.5124003862
 10
-21.1993899302
 20
27.6209518861
 10
-21.1435753984
 20
28.731231354
 10
-21.0851694842
 20
29.8432266671
 10
-21.0241728865
 20
30.9569257013
 10
-20.9605862344
 20
32.0723162928
 10
-20.8944101921
 20
33.1893862658
 10
-20.8256455512
 20
34.3081234493
 10
-20.7542930604
 20
35.4285156354
 10
-20.6803534257
 20
36.5505505795
 10
-20.6038274146
 20
37.6742160276
  0
LINE
  5
253
100
AcDbEntity
  8
RACCORDO
100
AcDbLine
 62
7
  6
CONTINUOUS
 10
-19.9535006417
 20
-26.667324502
 11
-19.9508652246
 21
-26.7030833633
  0
LWPOLYLINE
  5
254
100
AcDbEntity
  8
RACCORDO
100
AcDbPolyline
 62
250
  6
CONTINUOUS
 90
52
 70
0
 10
-20.0849698531
 20
-20.0683510575
 10
-20.1415603889
 20
-19.1156012031
 10
-20.1958905615
 20
-18.1609169097
 10
-20.2479603711
 20
-17.2042981772
 10
-20.2977702707
 20
-16.2457358402
 10
-20.3453198071
 20
-15.2852390641
 10
-20.3906076212
 20
-14.3228353453
 10
-20.4336336475
 20
-13.3585246457
 10
-20.4743979515
 20
-12.3923070032
 10
-20.5128993706
 20
-11.4242100277
 10
-20.5491378403
 20
-10.4542336662
 10
-20.5831134251
 20
-9.4823779717
 10
-20.6148251558
 20
-8.5086707123
 10
-20.644272968
 20
-7.5331118334
 10
-20.6714569261
 20
-6.5557013895
 10
-20.6963762546
 20
-5.5764673134
 10
-20.719030889
 20
-4.5954095523
 10
-20.7394208937
 20
-3.6125281589
 10
-20.7575456871
 20
-2.6278512242
 10
-20.7734052044
 20
-1.6413786976
 10
-20.7869995104
 20
-0.6531106298
 10
-20.7983282172
 20
0.3369247362
 10
-20.8073912601
 20
1.3287274504
 10
-20.8141887039
 20
2.3222974629
 10
-20.8187203545
 20
3.3176063807
 10
-20.8209861474
 20
4.3146542533
 10
-20.8209861473
 20
5.3134410313
 10
-20.818720354
 20
6.313938173
 10
-20.814188703
 20
7.3161457272
 10
-20.8073912589
 20
8.3200636452
 10
-20.7983282156
 20
9.3256632389
 10
-20.7869995085
 20
10.3329445565
 10
-20.7734052022
 20
11.3419075498
 10
-20.7575456845
 20
12.3525233853
 10
-20.7394208909
 20
13.3647921108
 10
-20.7190308859
 20
14.3787136785
 10
-20.6963762514
 20
15.3942591118
 10
-20.6714569227
 20
16.411428456
 10
-20.6442729645
 20
17.4302216658
 10
-20.6148251523
 20
18.4506096279
 10
-20.5831134215
 20
19.4725923858
 10
-20.5491378368
 20
20.4961698959
 10
-20.5128993672
 20
21.5213129148
 10
-20.4743979482
 20
22.5480214877
 10
-20.4336336444
 20
23.5762955694
 10
-20.3906076184
 20
24.6061057802
 10
-20.3453198046
 20
25.6374521818
 10
-20.2977702686
 20
26.6703347126
 10
-20.2479603695
 20
27.7047238079
 10
-20.1958905605
 20
28.7406096127
 10
-20.1415603883
 20
29.7780019821
 10
-20.0849698531
 20
30.8169009159
  0
LINE
  5
255
100
AcDbEntity
  8
RACCORDO
100
AcDbLine
 62
7
  6
CONTINUOUS
 10
-19.9508652246
 20
37.422220837
 11
-19.9535006417
 21
37.3821442479
  0
LWPOLYLINE
  5
256
100
AcDbEntity
  8
RACCORDO
100
AcDbPolyline
 62
250
  6
CONTINUOUS
 90
58
 70
0
 10
-19.9508651783
 20
37.4222208184
 10
-19.9497296625
 20
37.4374996096
 10
-19.9483400896
 20
37.4529411462
 10
-19.9466972867
 20
37.4685356499
 10
-19.9448015695
 20
37.4842732672
 10
-19.9426547485
 20
37.5001440041
 10
-19.9402601725
 20
37.5161377097
 10
-19.9376193978
 20
37.5322439581
 10
-19.934734043
 20
37.5484527786
 10
-19.9316078286
 20
37.5647545737
 10
-19.9282427355
 20
37.5811389903
 10
-19.9246408874
 20
37.5975956142
 10
-19.9208064548
 20
37.6141146765
 10
-19.9167418782
 20
37.6306856865
 10
-19.9124497367
 20
37.6472981133
 10
-19.9079346383
 20
37.6639420779
 10
-19.9031995287
 20
37.6806070334
 10
-19.8982473682
 20
37.6972823731
 10
-19.8930830076
 20
37.713958111
 10
-19.8877104586
 20
37.7306238977
 10
-19.8821324677
 20
37.7472689206
 10
-19.8763521956
 20
37.763882512
 10
-19.8703738133
 20
37.7804542839
 10
-19.8642007106
 20
37.7969735744
 10
-19.8578350656
 20
37.8134293455
 10
-19.8512809734
 20
37.8298111618
 10
-19.8445426539
 20
37.8461086363
 10
-19.8376226474
 20
37.8623108723
 10
-19.8305251079
 20
37.8784075263
 10
-19.8232549049
 20
37.8943884609
 10
-19.8158158199
 20
37.910243186
 10
-19.8082123428
 20
37.9259615791
 10
-19.8004496751
 20
37.9415337436
 10
-19.7925328299
 20
37.9569496617
 10
-19.7844669061
 20
37.9721995623
 10
-19.7762571168
 20
37.9872737835
 10
-19.7679087995
 20
38.0021626388
 10
-19.7594274147
 20
38.0168567062
 10
-19.7508183732
 20
38.0313466765
 10
-19.7420870724
 20
38.0456232262
 10
-19.7332392605
 20
38.0596773323
 10
-19.7242805527
 20
38.0735000948
 10
-19.7152162617
 20
38.0870825909
 10
-19.7060522592
 20
38.1004162328
 10
-19.6967944589
 20
38.1134925884
 10
-19.6874483337
 20
38.1263032057
 10
-19.6780199292
 20
38.1388399877
 10
-19.6685153401
 20
38.151095011
 10
-19.6589401933
 20
38.1630603438
 10
-19.6493006824
 20
38.174728427
 10
-19.63960304
 20
38.1860918898
 10
-19.6298530133
 20
38.197143365
 10
-19.6200569091
 20
38.207875874
 10
-19.6102210622
 20
38.2182826406
 10
-19.600351306
 20
38.2283569031
 10
-19.5904538481
 20
38.2380922385
 10
-19.5805352661
 20
38.2474825681
 10
-19.5706019753
 20
38.2565219683
  0
LWPOLYLINE
  5
257
100
AcDbEntity
  8
RACCORDO
100
AcDbPolyline
 62
7
  6
CONTINUOUS
 90
32
 70
0
 10
-18.3155278957
 20
13.7054443897
 10
-18.3055324621
 20
13.7145875437
 10
-18.2957722878
 20
13.7240140998
 10
-18.286260703
 20
13.7337133517
 10
-18.2770115963
 20
13.7436724401
 10
-18.2680361172
 20
13.7538798091
 10
-18.2593371762
 20
13.7643326102
 10
-18.2509160841
 20
13.775030709
 10
-18.2427774728
 20
13.7859706111
 10
-18.2349312724
 20
13.7971414473
 10
-18.2273867567
 20
13.8085319581
 10
-18.2201513413
 20
13.8201325054
 10
-18.213230156
 20
13.8319364895
 10
-18.2066285416
 20
13.8439367706
 10
-18.2003525209
 20
13.8561245598
 10
-18.1944075964
 20
13.8684914444
 10
-18.1887982695
 20
13.8810307163
 10
-18.1835294137
 20
13.8937346742
 10
-18.1786067445
 20
13.9065929427
 10
-18.1740357153
 20
13.9195945713
 10
-18.1698208428
 20
13.932730051
 10
-18.1659663966
 20
13.9459897002
 10
-18.1624768042
 20
13.9593619928
 10
-18.1593563054
 20
13.972833991
 10
-18.1566074222
 20
13.9863985095
 10
-18.1542320521
 20
14.000052548
 10
-18.152232542
 20
14.0137936789
 10
-18.1506134464
 20
14.0276037797
 10
-18.1493788016
 20
14.0414560712
 10
-18.1485302929
 20
14.0553288173
 10
-18.148067652
 20
14.0692222739
 10
-18.1479737076
 20
14.0789145889
  0
LINE
  5
258
100
AcDbEntity
  8
RACCORDO
100
AcDbLine
 62
250
  6
CONTINUOUS
 10
-19.1939156222
 20
13.0743287576
 11
-18.2486559526
 21
13.9063208529
  0
LINE
  5
259
100
AcDbEntity
  8
RACCORDO
100
AcDbLine
 62
7
  6
CONTINUOUS
 10
-19.2628828255
 20
12.8715976722
 11
-18.3155278957
 21
13.7054443897
  0
LINE
  5
25A
100
AcDbEntity
  8
ASSI
100
AcDbLine
 62
7
  6
CONTINUOUS
 10
-17.8223418154
 20
13.5744541321
 11
-19.0842099754
 21
12.5407922493
  0
LWPOLYLINE
  5
25B
100
AcDbEntity
  8
RACCORDO
100
AcDbPolyline
 62
250
  6
CONTINUOUS
 90
24
 70
0
 10
-18.2486559526
 20
13.9063208529
 10
-18.2403387996
 20
13.912840623
 10
-18.2323451145
 20
13.9194921764
 10
-18.2246812403
 20
13.9262702349
 10
-18.2173532587
 20
13.9331694201
 10
-18.2103669843
 20
13.9401842571
 10
-18.2037279612
 20
13.9473091797
 10
-18.1974414573
 20
13.954538534
 10
-18.1915124613
 20
13.9618665833
 10
-18.185945678
 20
13.9692875126
 10
-18.1807455248
 20
13.976795433
 10
-18.1759161281
 20
13.9843843869
 10
-18.1714613202
 20
13.9920483523
 10
-18.167384636
 20
13.9997812475
 10
-18.1636893103
 20
14.0075769363
 10
-18.1603782756
 20
14.0154292326
 10
-18.1574541592
 20
14.0233319053
 10
-18.1549192813
 20
14.0312786836
 10
-18.1527756534
 20
14.0392632613
 10
-18.1510249765
 20
14.0472793024
 10
-18.1496686397
 20
14.0553204461
 10
-18.1487077191
 20
14.0633803114
 10
-18.1481429773
 20
14.0714525025
 10
-18.1479737076
 20
14.078914311
  0
LWPOLYLINE
  5
25C
100
AcDbEntity
  8
RACCORDO
100
AcDbPolyline
 62
250
  6
CONTINUOUS
 90
24
 70
0
 10
-19.6336742215
 20
12.0867734423
 10
-19.625357139
 20
12.0932931555
 10
-19.6173635188
 20
12.0999446497
 10
-19.6096997038
 20
12.106722647
 10
-19.6023717752
 20
12.1136217688
 10
-19.595385548
 20
12.1206365407
 10
-19.5887465657
 20
12.1277613965
 10
-19.5824600964
 20
12.1349906823
 10
-19.5765311285
 20
12.1423186618
 10
-19.5709643666
 20
12.1497395201
 10
-19.5657642281
 20
12.1572473687
 10
-19.5609348392
 20
12.1648362501
 10
-19.5564800321
 20
12.1725001423
 10
-19.5524033418
 20
12.180232964
 10
-19.5487080031
 20
12.1880285792
 10
-19.5453969483
 20
12.195880802
 10
-19.5424728047
 20
12.2037834014
 10
-19.5399378927
 20
12.2117301069
 10
-19.5377942238
 20
12.2197146125
 10
-19.5360434989
 20
12.2277305824
 10
-19.5346871072
 20
12.235771656
 10
-19.533726125
 20
12.2438314526
 10
-19.533161315
 20
12.2519035767
 10
-19.5329919765
 20
12.2593668484
  0
LWPOLYLINE
  5
25D
100
AcDbEntity
  8
ASSI
100
AcDbPolyline
 62
7
  6
CONTINUOUS
 90
7
 70
0
 10
-18.4220050515
 20
13.611715635
 10
-18.3884931654
 20
13.6307304988
 10
-18.3547199519
 20
13.6511884684
 10
-18.3221649821
 20
13.6722458733
 10
-18.2908643569
 20
13.6938808457
 10
-18.2607819753
 20
13.7161152533
 10
-18.2319178376
 20
13.7389490963
  0
LWPOLYLINE
  5
25E
100
AcDbEntity
  8
RACCORDO
100
AcDbPolyline
 62
250
  6
CONTINUOUS
 90
27
 70
0
 10
-17.8813234214
 20
-11.9580554905
 10
-17.8891375797
 20
-11.9519969297
 10
-17.8968579949
 20
-11.9458298406
 10
-17.9044808874
 20
-11.9395575595
 10
-17.9120008812
 20
-11.9331780701
 10
-17.9194164957
 20
-11.9267001041
 10
-17.9267308998
 20
-11.920142955
 10
-17.9339432526
 20
-11.9135096679
 10
-17.9410506752
 20
-11.9068032981
 10
-17.9480551848
 20
-11.9000428753
 10
-17.9549578196
 20
-11.893231229
 10
-17.9617569665
 20
-11.8863709435
 10
-17.9684527528
 20
-11.8794806415
 10
-17.9750449401
 20
-11.8725656637
 10
-17.9815364506
 20
-11.8656255282
 10
-17.9879337119
 20
-11.8586697819
 10
-17.9942401512
 20
-11.8516995621
 10
-18.0004564899
 20
-11.8447166927
 10
-18.0065861553
 20
-11.8377311995
 10
-18.0126350559
 20
-11.8307421828
 10
-18.0186029433
 20
-11.8237519756
 10
-18.0244856464
 20
-11.8167756251
 10
-18.0302867805
 20
-11.8098163701
 10
-18.0360108288
 20
-11.8028720132
 10
-18.0416564829
 20
-11.7959499331
 10
-18.0472268343
 20
-11.7890532138
 10
-18.0527278034
 20
-11.7821788767
  0
LWPOLYLINE
  5
25F
100
AcDbEntity
  8
RACCORDO
100
AcDbPolyline
 62
250
  6
CONTINUOUS
 90
70
 70
0
 10
17.0487889703
 20
-41.5797232322
 10
17.048136434
 20
-41.5791586353
 10
17.0474777383
 20
-41.5785773558
 10
17.0468128987
 20
-41.5779793806
 10
17.0461421556
 20
-41.5773651926
 10
17.0454652997
 20
-41.5767342834
 10
17.044781674
 20
-41.5760851525
 10
17.0440912844
 20
-41.5754178185
 10
17.0433941607
 20
-41.5747322333
 10
17.0426896847
 20
-41.5740267936
 10
17.0419779972
 20
-41.5733016626
 10
17.0412589972
 20
-41.5725566444
 10
17.0405317076
 20
-41.5717895927
 10
17.0397962296
 20
-41.5710006513
 10
17.0390525087
 20
-41.5701896383
 10
17.0382993393
 20
-41.5693539131
 10
17.0375368296
 20
-41.568493644
 10
17.0367649266
 20
-41.5676086178
 10
17.0359821913
 20
-41.566695616
 10
17.0351883927
 20
-41.5657543874
 10
17.0343838285
 20
-41.5647851292
 10
17.0335678581
 20
-41.5637852896
 10
17.0327404817
 20
-41.5627548527
 10
17.0319017721
 20
-41.5616937761
 10
17.0310512018
 20
-41.5605994647
 10
17.0301888159
 20
-41.559471951
 10
17.0293146486
 20
-41.5583111397
 10
17.02842816
 20
-41.5571142415
 10
17.0275293506
 20
-41.5558812185
 10
17.0266183064
 20
-41.5546120409
 10
17.0256946186
 20
-41.5533039282
 10
17.0247580595
 20
-41.551956469
 10
17.0238089506
 20
-41.5505700024
 10
17.0228477073
 20
-41.5491428743
 10
17.0218740147
 20
-41.5476744426
 10
17.0208882821
 20
-41.5461652778
 10
17.0198920042
 20
-41.5446155502
 10
17.0188851822
 20
-41.5430250425
 10
17.0178679001
 20
-41.5413939093
 10
17.0168417645
 20
-41.5397228895
 10
17.0158071898
 20
-41.5380124926
 10
17.0147638353
 20
-41.5362621572
 10
17.013712167
 20
-41.5344710228
 10
17.0126526815
 20
-41.5326398783
 10
17.0115849535
 20
-41.5307678858
 10
17.0105080685
 20
-41.5288517435
 10
17.0094221069
 20
-41.5268915829
 10
17.0083270703
 20
-41.5248872161
 10
17.0072219337
 20
-41.5228348553
 10
17.0061066935
 20
-41.5207344637
 10
17.0049814467
 20
-41.518586014
 10
17.0038453276
 20
-41.5163857261
 10
17.0026984137
 20
-41.5141337026
 10
17.0015407312
 20
-41.5118297703
 10
17.000371346
 20
-41.5094697297
 10
16.9991903523
 20
-41.5070537147
 10
16.9979977714
 20
-41.5045815134
 10
16.9967925686
 20
-41.5020484009
 10
16.9955747595
 20
-41.4994543288
 10
16.994344458
 20
-41.4967992588
 10
16.9931007863
 20
-41.494078475
 10
16.991843705
 20
-41.4912917636
 10
16.990573396
 20
-41.4884392442
 10
16.9892893213
 20
-41.4855166948
 10
16.9879915102
 20
-41.4825240137
 10
16.9866800858
 20
-41.4794612035
 10
16.9853546548
 20
-41.4763241957
 10
16.9840156386
 20
-41.4731138515
 10
16.982662776
 20
-41.4698292076
 10
16.9812946606
 20
-41.4664634522
  0
LINE
  5
260
100
AcDbEntity
  8
RACCORDO
100
AcDbLine
 62
250
  6
CONTINUOUS
 10
-18.0527278034
 20
-11.7821788767
 11
-18.0635341967
 21
-11.7684936168
  0
LINE
  5
261
100
AcDbEntity
  8
RACCORDO
100
AcDbLine
 62
250
  6
CONTINUOUS
 10
-18.0635341967
 20
-11.7684936168
 11
-18.0741111732
 21
-11.7548797368
  0
LINE
  5
262
100
AcDbEntity
  8
RACCORDO
100
AcDbLine
 62
250
  6
CONTINUOUS
 10
-18.0741111732
 20
-11.7548797368
 11
-18.0844940727
 21
-11.7413068971
  0
LINE
  5
263
100
AcDbEntity
  8
RACCORDO
100
AcDbLine
 62
250
  6
CONTINUOUS
 10
-18.0844940727
 20
-11.7413068971
 11
-18.0947410288
 21
-11.7277112394
  0
LINE
  5
264
100
AcDbEntity
  8
RACCORDO
100
AcDbLine
 62
250
  6
CONTINUOUS
 10
-18.0947410288
 20
-11.7277112394
 11
-18.1048880282
 21
-11.7140437928
  0
LINE
  5
265
100
AcDbEntity
  8
RACCORDO
100
AcDbLine
 62
250
  6
CONTINUOUS
 10
-18.1048880282
 20
-11.7140437928
 11
-18.1149799464
 21
-11.7002326001
  0
LWPOLYLINE
  5
266
100
AcDbEntity
  8
RACCORDO
100
AcDbPolyline
 62
250
  6
CONTINUOUS
 90
31
 70
0
 10
-18.1149799464
 20
-11.7002326001
 10
-18.1250302909
 20
-11.6862432558
 10
-18.1300402339
 20
-11.679169807
 10
-18.1350375914
 20
-11.67204334
 10
-18.1400228478
 20
-11.6648586246
 10
-18.1449926028
 20
-11.6576124297
 10
-18.1499399903
 20
-11.6503085073
 10
-18.1548649393
 20
-11.6429431999
 10
-18.1597639931
 20
-11.6355130224
 10
-18.1646260003
 20
-11.6280232366
 10
-18.1694482354
 20
-11.6204748282
 10
-18.1742298202
 20
-11.6128619496
 10
-18.17896265
 20
-11.6051808337
 10
-18.1836454283
 20
-11.5974293709
 10
-18.188274255
 20
-11.5896064349
 10
-18.1928369142
 20
-11.5817108971
 10
-18.1973321398
 20
-11.5737414588
 10
-18.201755162
 20
-11.5656986917
 10
-18.2060888453
 20
-11.5575860045
 10
-18.2103306349
 20
-11.5494062704
 10
-18.2144773783
 20
-11.5411592782
 10
-18.2185115064
 20
-11.5328457537
 10
-18.2224307132
 20
-11.5244693911
 10
-18.2262316528
 20
-11.5160323512
 10
-18.2298953535
 20
-11.5075349073
 10
-18.2334196481
 20
-11.4989816822
 10
-18.2368012996
 20
-11.4903771186
 10
-18.2400198844
 20
-11.4817230513
 10
-18.2430670478
 20
-11.473024474
 10
-18.2459464894
 20
-11.4642887807
 10
-18.2486561152
 20
-11.4555225263
  0
LINE
  5
267
100
AcDbEntity
  8
RACCORDO
100
AcDbLine
 62
250
  6
CONTINUOUS
 10
-20.3737319962
 20
36.6512188659
 11
-20.3640991656
 21
36.5609868763
  0
LINE
  5
268
100
AcDbEntity
  8
RACCORDO
100
AcDbLine
 62
250
  6
CONTINUOUS
 10
-20.3640991656
 20
36.5609868763
 11
-20.3541307798
 21
36.4628179323
  0
LWPOLYLINE
  5
269
100
AcDbEntity
  8
RACCORDO
100
AcDbPolyline
 62
250
  6
CONTINUOUS
 90
46
 70
0
 10
-19.1274069915
 20
30.9715132524
 10
-19.1142588204
 20
30.8369075222
 10
-19.1009004878
 20
30.7024970309
 10
-19.087332042
 20
30.5682823038
 10
-19.073553528
 20
30.4342638386
 10
-19.0595650003
 20
30.3004421857
 10
-19.0453665233
 20
30.1668179482
 10
-19.0309581531
 20
30.0333916875
 10
-19.0163399387
 20
29.9001638848
 10
-19.0015119344
 20
29.7671350213
 10
-18.986474192
 20
29.6343055956
 10
-18.9712267689
 20
29.5016761475
 10
-18.9557697292
 20
29.3692472194
 10
-18.940103131
 20
29.2370193392
 10
-18.9242270302
 20
29.1049930124
 10
-18.9081414901
 20
28.9731687455
 10
-18.8918465691
 20
28.8415470504
 10
-18.8753423272
 20
28.710128444
 10
-18.8586288315
 20
28.5789134402
 10
-18.8417061433
 20
28.4479025542
 10
-18.8245743245
 20
28.3170962947
 10
-18.8072334433
 20
28.1864951646
 10
-18.789683563
 20
28.0560996714
 10
-18.7719247481
 20
27.9259103268
 10
-18.7539570708
 20
27.7959276395
 10
-18.7357805965
 20
27.6661521153
 10
-18.7173953923
 20
27.5365842627
 10
-18.6988015336
 20
27.4072245937
 10
-18.6799990886
 20
27.2780736138
 10
-18.6609881263
 20
27.1491318266
 10
-18.6417687247
 20
27.0203997404
 10
-18.6223409541
 20
26.8918778575
 10
-18.6027048861
 20
26.7635666797
 10
-18.5828606012
 20
26.6354667125
 10
-18.5628081723
 20
26.507578456
 10
-18.5425476729
 20
26.3799024092
 10
-18.5220791865
 20
26.252439075
 10
-18.5014027881
 20
26.1251889508
 10
-18.4805185537
 20
25.9981525333
 10
-18.4594265693
 20
25.8713303226
 10
-18.4381269122
 20
25.7447228131
 10
-18.4166196608
 20
25.6183304994
 10
-18.3949049039
 20
25.4921538803
 10
-18.3729827247
 20
25.3661934501
 10
-18.3508532005
 20
25.2404496985
 10
-18.3285164126
 20
25.1149231161
  0
LINE
  5
26A
100
AcDbEntity
  8
RACCORDO
100
AcDbLine
 62
250
  6
CONTINUOUS
 10
-19.1417156304
 20
31.1164216788
 11
-19.1274069915
 21
30.9715132524
  0
LWPOLYLINE
  5
26B
100
AcDbEntity
  8
RACCORDO
100
AcDbPolyline
 62
250
  6
CONTINUOUS
 90
46
 70
0
 10
-20.0849698531
 20
30.8169009159
 10
-20.0717242117
 20
30.6812493392
 10
-20.0582669242
 20
30.5457956134
 10
-20.0445979907
 20
30.4105397384
 10
-20.0307173537
 20
30.2754811608
 10
-20.0166250707
 20
30.140620434
 10
-20.0023213137
 20
30.0059592188
 10
-19.9878060843
 20
29.8714975577
 10
-19.9730793808
 20
29.7372354081
 10
-19.9581413703
 20
29.6031743032
 10
-19.9429920478
 20
29.4693142241
 10
-19.9276314182
 20
29.3356551897
 10
-19.9120596628
 20
29.2021987898
 10
-19.8962767805
 20
29.068945038
 10
-19.8802827723
 20
28.9358939206
 10
-19.8640778232
 20
28.8030469869
 10
-19.8476619305
 20
28.6704042361
 10
-19.8310350968
 20
28.5379656689
 10
-19.8141975157
 20
28.4057328368
 10
-19.7971491849
 20
28.2737057451
 10
-19.7798901066
 20
28.1418843884
 10
-19.7624204803
 20
28.0102703024
 10
-19.7447403032
 20
27.8788634868
 10
-19.7268495781
 20
27.7476639419
 10
-19.7087485129
 20
27.6166732042
 10
-19.6904371048
 20
27.4858912743
 10
-19.6719153565
 20
27.3553181516
 10
-19.6531834842
 20
27.2249553708
 10
-19.6342414855
 20
27.0948029349
 10
-19.6150893626
 20
26.9648608408
 10
-19.5957273389
 20
26.8351306143
 10
-19.5761554119
 20
26.7056122579
 10
-19.556373584
 20
26.576305769
 10
-19.536382086
 20
26.4472126656
 10
-19.5161809153
 20
26.3183329503
 10
-19.4957700743
 20
26.1896666205
 10
-19.4751498012
 20
26.0612151862
 10
-19.4543200933
 20
25.9329786502
 10
-19.4332809531
 20
25.8049570097
 10
-19.412032626
 20
25.6771517669
 10
-19.3905751094
 20
25.5495629246
 10
-19.3689084059
 20
25.42219048
 10
-19.3470327679
 20
25.2950359276
 10
-19.3249482799
 20
25.1680997655
 10
-19.3026548575
 20
25.0413814956
 10
-19.2789674027
 20
24.9083739855
  0
LINE
  5
26C
100
AcDbEntity
  8
RACCORDO
100
AcDbLine
 62
250
  6
CONTINUOUS
 10
-20.3541307798
 20
36.4628179323
 11
-20.3473017877
 21
36.3927027052
  0
LINE
  5
26D
100
AcDbEntity
  8
RACCORDO
100
AcDbLine
 62
250
  6
CONTINUOUS
 10
-20.3473017877
 20
36.3927027052
 11
-20.3403229143
 21
36.3185615512
  0
LINE
  5
26E
100
AcDbEntity
  8
RACCORDO
100
AcDbLine
 62
250
  6
CONTINUOUS
 10
-20.3403229143
 20
36.3185615512
 11
-20.3331957476
 21
36.2402656052
  0
LINE
  5
26F
100
AcDbEntity
  8
RACCORDO
100
AcDbLine
 62
250
  6
CONTINUOUS
 10
-20.3331957476
 20
36.2402656052
 11
-20.3259281578
 21
36.1576661119
  0
LINE
  5
270
100
AcDbEntity
  8
RACCORDO
100
AcDbLine
 62
250
  6
CONTINUOUS
 10
-20.3259281578
 20
36.1576661119
 11
-20.3185253434
 21
36.0705878452
  0
LINE
  5
271
100
AcDbEntity
  8
RACCORDO
100
AcDbLine
 62
250
  6
CONTINUOUS
 10
-20.3185253434
 20
36.0705878452
 11
-20.3109919149
 21
35.978923218
  0
LINE
  5
272
100
AcDbEntity
  8
RACCORDO
100
AcDbLine
 62
250
  6
CONTINUOUS
 10
-20.3109919149
 20
35.978923218
 11
-20.3033333871
 21
35.8824908902
  0
LINE
  5
273
100
AcDbEntity
  8
RACCORDO
100
AcDbLine
 62
250
  6
CONTINUOUS
 10
-20.3033333871
 20
35.8824908902
 11
-20.2955625158
 21
35.7812144177
  0
LINE
  5
274
100
AcDbEntity
  8
RACCORDO
100
AcDbLine
 62
250
  6
CONTINUOUS
 10
-20.2955625158
 20
35.7812144177
 11
-20.2876888465
 21
35.6750470457
  0
LINE
  5
275
100
AcDbEntity
  8
RACCORDO
100
AcDbLine
 62
250
  6
CONTINUOUS
 10
-20.2876888465
 20
35.6750470457
 11
-20.2797249413
 21
35.5639140331
  0
LINE
  5
276
100
AcDbEntity
  8
RACCORDO
100
AcDbLine
 62
250
  6
CONTINUOUS
 10
-20.2797249413
 20
35.5639140331
 11
-20.2716850744
 21
35.4477997362
  0
LINE
  5
277
100
AcDbEntity
  8
RACCORDO
100
AcDbLine
 62
250
  6
CONTINUOUS
 10
-20.2716850744
 20
35.4477997362
 11
-20.2635825996
 21
35.3267255682
  0
LINE
  5
278
100
AcDbEntity
  8
RACCORDO
100
AcDbLine
 62
250
  6
CONTINUOUS
 10
-20.2635825996
 20
35.3267255682
 11
-20.2554362272
 21
35.2007507068
  0
LINE
  5
279
100
AcDbEntity
  8
RACCORDO
100
AcDbLine
 62
250
  6
CONTINUOUS
 10
-20.2554362272
 20
35.2007507068
 11
-20.2472652311
 21
35.0700049891
  0
LINE
  5
27A
100
AcDbEntity
  8
RACCORDO
100
AcDbLine
 62
250
  6
CONTINUOUS
 10
-20.2472652311
 20
35.0700049891
 11
-20.2390866016
 21
34.9345973156
  0
LINE
  5
27B
100
AcDbEntity
  8
RACCORDO
100
AcDbLine
 62
250
  6
CONTINUOUS
 10
-20.2390866016
 20
34.9345973156
 11
-20.2309212597
 21
34.7947032231
  0
LINE
  5
27C
100
AcDbEntity
  8
RACCORDO
100
AcDbLine
 62
250
  6
CONTINUOUS
 10
-20.2309212597
 20
34.7947032231
 11
-20.2227914639
 21
34.6505957405
  0
LINE
  5
27D
100
AcDbEntity
  8
RACCORDO
100
AcDbLine
 62
250
  6
CONTINUOUS
 10
-20.2227914639
 20
34.6505957405
 11
-20.2147166383
 21
34.5024707212
  0
LWPOLYLINE
  5
27E
100
AcDbEntity
  8
RACCORDO
100
AcDbPolyline
 62
250
  6
CONTINUOUS
 90
25
 70
0
 10
-18.2486559526
 20
13.9063208529
 10
-18.2480845587
 20
13.895672859
 10
-18.247818017
 20
13.8851645578
 10
-18.2478565307
 20
13.87480396
 10
-18.2482000704
 20
13.8645989641
 10
-18.2488483743
 20
13.8545573497
 10
-18.249800948
 20
13.8446867718
 10
-18.2510570656
 20
13.8349947551
 10
-18.2526157693
 20
13.8254886885
 10
-18.2544758708
 20
13.8161758191
 10
-18.2566359521
 20
13.8070632465
 10
-18.2590943664
 20
13.7981579177
 10
-18.2618492395
 20
13.7894666216
 10
-18.2648984712
 20
13.7809959838
 10
-18.2682397368
 20
13.772752462
 10
-18.2718704893
 20
13.7647423404
 10
-18.2757879605
 20
13.7569717255
 10
-18.2799891641
 20
13.7494465411
 10
-18.2844708972
 20
13.742172524
 10
-18.2892297432
 20
13.7351552195
 10
-18.294262074
 20
13.7283999771
 10
-18.2995640532
 20
13.7219119465
 10
-18.3051316389
 20
13.715696074
 10
-18.3109605866
 20
13.7097570979
 10
-18.3176231559
 20
13.7035897675
  0
LWPOLYLINE
  5
27F
100
AcDbEntity
  8
RACCORDO
100
AcDbPolyline
 62
250
  6
CONTINUOUS
 90
24
 70
0
 10
-19.1939156222
 20
13.0743287576
 10
-19.1933214233
 20
13.0630933191
 10
-19.1930669014
 20
13.0520140212
 10
-19.1931522727
 20
13.0411002743
 10
-19.1935774647
 20
13.0303613483
 10
-19.1943421163
 20
13.0198063647
 10
-19.195445578
 20
13.0094442887
 10
-19.1968869124
 20
12.9992839215
 10
-19.1986648955
 20
12.9893338933
 10
-19.200778017
 20
12.9796026554
 10
-19.2032244821
 20
12.9700984732
 10
-19.2060022127
 20
12.9608294194
 10
-19.2091088495
 20
12.951803367
 10
-19.2125417539
 20
12.9430279825
 10
-19.21629801
 20
12.9345107196
 10
-19.2203744273
 20
12.9262588126
 10
-19.2247675433
 20
12.9182792705
 10
-19.2294736267
 20
12.9105788711
 10
-19.2344886801
 20
12.9031641548
 10
-19.239808444
 20
12.8960414196
 10
-19.2454283998
 20
12.8892167153
 10
-19.2513437741
 20
12.8826958388
 10
-19.2575495424
 20
12.8764843287
 10
-19.2628825771
 20
12.8715978909
  0
LINE
  5
280
100
AcDbEntity
  8
RACCORDO
100
AcDbLine
 62
250
  6
CONTINUOUS
 10
-20.2147166383
 20
34.5024707212
 11
-20.2067193004
 21
34.3506344405
  0
LINE
  5
281
100
AcDbEntity
  8
RACCORDO
100
AcDbLine
 62
250
  6
CONTINUOUS
 10
-20.2067193004
 20
34.3506344405
 11
-20.198820897
 21
34.1954475972
  0
LINE
  5
282
100
AcDbEntity
  8
RACCORDO
100
AcDbLine
 62
250
  6
CONTINUOUS
 10
-20.198820897
 20
34.1954475972
 11
-20.1910408526
 21
34.0371592676
  0
LINE
  5
283
100
AcDbEntity
  8
RACCORDO
100
AcDbLine
 62
250
  6
CONTINUOUS
 10
-20.1910408526
 20
34.0371592676
 11
-20.1833999853
 21
33.8761485074
  0
LINE
  5
284
100
AcDbEntity
  8
RACCORDO
100
AcDbLine
 62
250
  6
CONTINUOUS
 10
-20.1833999853
 20
33.8761485074
 11
-20.1759178015
 21
33.7128281517
  0
LINE
  5
285
100
AcDbEntity
  8
RACCORDO
100
AcDbLine
 62
250
  6
CONTINUOUS
 10
-20.1759178015
 20
33.7128281517
 11
-20.1686122349
 21
33.5474705004
  0
LINE
  5
286
100
AcDbEntity
  8
RACCORDO
100
AcDbLine
 62
250
  6
CONTINUOUS
 10
-20.1686122349
 20
33.5474705004
 11
-20.1615008587
 21
33.380479166
  0
LINE
  5
287
100
AcDbEntity
  8
RACCORDO
100
AcDbLine
 62
250
  6
CONTINUOUS
 10
-20.1615008587
 20
33.380479166
 11
-20.154599453
 21
33.2122564423
  0
LINE
  5
288
100
AcDbEntity
  8
RACCORDO
100
AcDbLine
 62
250
  6
CONTINUOUS
 10
-20.154599453
 20
33.2122564423
 11
-20.147923245
 21
33.0430644652
  0
LINE
  5
289
100
AcDbEntity
  8
RACCORDO
100
AcDbLine
 62
250
  6
CONTINUOUS
 10
-20.147923245
 20
33.0430644652
 11
-20.1414859438
 21
32.8732891987
  0
LINE
  5
28A
100
AcDbEntity
  8
RACCORDO
100
AcDbLine
 62
250
  6
CONTINUOUS
 10
-20.1414859438
 20
32.8732891987
 11
-20.1352996108
 21
32.7032947363
  0
LINE
  5
28B
100
AcDbEntity
  8
RACCORDO
100
AcDbLine
 62
250
  6
CONTINUOUS
 10
-20.1352996108
 20
32.7032947363
 11
-20.1293763511
 21
32.5333145169
  0
LINE
  5
28C
100
AcDbEntity
  8
RACCORDO
100
AcDbLine
 62
250
  6
CONTINUOUS
 10
-20.1293763511
 20
32.5333145169
 11
-20.1237259821
 21
32.3636886512
  0
LINE
  5
28D
100
AcDbEntity
  8
RACCORDO
100
AcDbLine
 62
250
  6
CONTINUOUS
 10
-20.1237259821
 20
32.3636886512
 11
-20.1183571344
 21
32.1947288613
  0
LINE
  5
28E
100
AcDbEntity
  8
RACCORDO
100
AcDbLine
 62
250
  6
CONTINUOUS
 10
-20.1183571344
 20
32.1947288613
 11
-20.1132787596
 21
32.0266322853
  0
LINE
  5
28F
100
AcDbEntity
  8
RACCORDO
100
AcDbLine
 62
250
  6
CONTINUOUS
 10
-20.1132787596
 20
32.0266322853
 11
-20.1084972736
 21
31.8596858136
  0
LINE
  5
290
100
AcDbEntity
  8
RACCORDO
100
AcDbLine
 62
250
  6
CONTINUOUS
 10
-20.1084972736
 20
31.8596858136
 11
-20.1040181158
 21
31.6941413953
  0
LINE
  5
291
100
AcDbEntity
  8
RACCORDO
100
AcDbLine
 62
250
  6
CONTINUOUS
 10
-20.1040181158
 20
31.6941413953
 11
-20.0998471627
 21
31.5301575089
  0
LINE
  5
292
100
AcDbEntity
  8
RACCORDO
100
AcDbLine
 62
250
  6
CONTINUOUS
 10
-20.0998471627
 20
31.5301575089
 11
-20.0959878278
 21
31.3679661479
  0
LINE
  5
293
100
AcDbEntity
  8
RACCORDO
100
AcDbLine
 62
250
  6
CONTINUOUS
 10
-20.0959878278
 20
31.3679661479
 11
-20.092442806
 21
31.2077657412
  0
LINE
  5
294
100
AcDbEntity
  8
RACCORDO
100
AcDbLine
 62
250
  6
CONTINUOUS
 10
-20.092442806
 20
31.2077657412
 11
-20.0892150717
 21
31.0496792609
  0
LWPOLYLINE
  5
295
100
AcDbEntity
  8
RACCORDO
100
AcDbPolyline
 62
250
  6
CONTINUOUS
 90
3
 70
0
 10
-20.0892150717
 20
31.0496792609
 10
-20.0863046601
 20
30.8939237352
 10
-20.084969853
 20
30.8169009152
  0
LINE
  5
296
100
AcDbEntity
  8
RACCORDO
100
AcDbLine
 62
250
  6
CONTINUOUS
 10
-19.6336742215
 20
-0.6512057381
 11
-19.6336742215
 21
12.0867734423
  0
LINE
  5
297
100
AcDbEntity
  8
RACCORDO
100
AcDbLine
 62
7
  6
CONTINUOUS
 10
-19.5329919765
 20
-0.4786122799
 11
-19.5329919765
 21
12.2593669005
  0
LINE
  5
298
100
AcDbEntity
  8
ASSI
100
AcDbLine
 62
7
  6
CONTINUOUS
 10
-19.0842099754
 20
12.5407922493
 11
-19.0842099754
 21
-0.4018100505
  0
LINE
  5
299
100
AcDbEntity
  8
RACCORDO
100
AcDbLine
 62
250
  6
CONTINUOUS
 10
-18.2486559526
 20
-11.455522489
 11
-18.2486559526
 21
-0.3623075955
  0
LINE
  5
29A
100
AcDbEntity
  8
RACCORDO
100
AcDbLine
 62
250
  6
CONTINUOUS
 10
-18.2486559526
 20
13.9063208529
 11
-18.2486559526
 21
24.9235396055
  0
LINE
  5
29B
100
AcDbEntity
  8
RACCORDO
100
AcDbLine
 62
7
  6
CONTINUOUS
 10
-18.1479737076
 20
-11.2829296415
 11
-18.1479867646
 21
-0.1861007087
  0
LINE
  5
29C
100
AcDbEntity
  8
RACCORDO
100
AcDbLine
 62
7
  6
CONTINUOUS
 10
-18.1479737076
 20
14.078914311
 11
-18.1479737076
 21
24.8874201869
  0
LINE
  5
29D
100
AcDbEntity
  8
ASSI
100
AcDbLine
 62
7
  6
CONTINUOUS
 10
-17.8223418154
 20
13.5744541321
 11
-17.8223418154
 21
0.6318518324
  0
LWPOLYLINE
  5
29E
100
AcDbEntity
  8
RACCORDO
100
AcDbPolyline
 62
7
  6
CONTINUOUS
 90
74
 70
0
 10
-19.5329920245
 20
12.2593668484
 10
-19.5329592347
 20
12.2644883543
 10
-19.532852333
 20
12.2700563303
 10
-19.5326639054
 20
12.2759321343
 10
-19.5323866965
 20
12.2821124607
 10
-19.5320140005
 20
12.288588341
 10
-19.5315390693
 20
12.2953579
 10
-19.5309553417
 20
12.3024182823
 10
-19.5302572362
 20
12.3097573768
 10
-19.5294388859
 20
12.3173707051
 10
-19.5284945777
 20
12.3252543537
 10
-19.5274199117
 20
12.3333957763
 10
-19.5262099059
 20
12.3417891636
 10
-19.5248597412
 20
12.3504290675
 10
-19.5233661218
 20
12.3593025387
 10
-19.5217250484
 20
12.3684027924
 10
-19.5199326821
 20
12.3777228529
 10
-19.5179868946
 20
12.387248799
 10
-19.5158846099
 20
12.3969734657
 10
-19.5136231831
 20
12.4068880543
 10
-19.5112022041
 20
12.4169756414
 10
-19.5086196794
 20
12.4272281389
 10
-19.5058742541
 20
12.4376356456
 10
-19.5029676304
 20
12.4481779336
 10
-19.4998992904
 20
12.4588451068
 10
-19.4966690047
 20
12.4696273143
 10
-19.4932800654
 20
12.4805039175
 10
-19.4897331017
 20
12.4914646265
 10
-19.4860292264
 20
12.5024987332
 10
-19.4821735854
 20
12.513584705
 10
-19.4781680181
 20
12.5247119081
 10
-19.4740148813
 20
12.5358692608
 10
-19.4697212149
 20
12.5470345058
 10
-19.4652901793
 20
12.5581966797
 10
-19.4607252111
 20
12.5693449307
 10
-19.4560348492
 20
12.5804573597
 10
-19.4512234415
 20
12.5915232175
 10
-19.4462954723
 20
12.6025319699
 10
-19.4412607598
 20
12.6134624991
 10
-19.4361246981
 20
12.624304628
 10
-19.4308927331
 20
12.6350483711
 10
-19.4255758257
 20
12.6456736008
 10
-19.4201801955
 20
12.6561710677
 10
-19.4147121893
 20
12.6665315249
 10
-19.4091839324
 20
12.6767357552
 10
-19.4036024563
 20
12.6867753401
 10
-19.3979747081
 20
12.6966423986
 10
-19.3923134269
 20
12.7063195841
 10
-19.3866260441
 20
12.7157998785
 10
-19.3809201001
 20
12.7250766102
 10
-19.3752089781
 20
12.7341341594
 10
-19.3695003406
 20
12.7429670494
 10
-19.3638020451
 20
12.7515700577
 10
-19.3581280851
 20
12.7599293243
 10
-19.3524869782
 20
12.7680399254
 10
-19.346885835
 20
12.7758994752
 10
-19.3413366839
 20
12.7834992463
 10
-19.335847657
 20
12.7908363631
 10
-19.3304259797
 20
12.7979095237
 10
-19.3250823342
 20
12.8047134432
 10
-19.3198242612
 20
12.8112473364
 10
-19.3146591512
 20
12.8175107562
 10
-19.3095975402
 20
12.8234999309
 10
-19.3046464228
 20
12.8292158398
 10
-19.2998131405
 20
12.8346592176
 10
-19.2951086716
 20
12.8398270633
 10
-19.2905394386
 20
12.8447219455
 10
-19.2861124187
 20
12.8493460952
 10
-19.2818390087
 20
12.8536974739
 10
-19.2777254206
 20
12.8577797997
 10
-19.2737771738
 20
12.8615976763
 10
-19.2700040113
 20
12.8651519268
 10
-19.2664125539
 20
12.8684466643
 10
-19.2628825981
 20
12.8715979147
  0
LWPOLYLINE
  5
29F
100
AcDbEntity
  8
RACCORDO
100
AcDbPolyline
 62
250
  6
CONTINUOUS
 90
64
 70
0
 10
-19.6336742215
 20
12.0867734423
 10
-19.6335442079
 20
12.102178313
 10
-19.633149765
 20
12.1177797142
 10
-19.6324908929
 20
12.1335776456
 10
-19.6315682421
 20
12.1495785621
 10
-19.630381162
 20
12.1657760089
 10
-19.6289277009
 20
12.1821506223
 10
-19.6272061364
 20
12.1987115004
 10
-19.6252181909
 20
12.215449545
 10
-19.62296708
 20
12.2323180977
 10
-19.6204519325
 20
12.2493142879
 10
-19.6176736195
 20
12.2664409863
 10
-19.6146379701
 20
12.2836601464
 10
-19.6113442645
 20
12.3009710421
 10
-19.6077932225
 20
12.3183743996
 10
-19.6039928321
 20
12.3358343519
 10
-19.5999433083
 20
12.3533477445
 10
-19.5956444362
 20
12.3709177319
 10
-19.5911035587
 20
12.3885179113
 10
-19.5863208401
 20
12.4061471402
 10
-19.5812961162
 20
12.423806561
 10
-19.5760362374
 20
12.4414731976
 10
-19.5705408051
 20
12.4591479624
 10
-19.564810218
 20
12.4768299431
 10
-19.5588525225
 20
12.494493426
 10
-19.5526668181
 20
12.5121400812
 10
-19.5462540053
 20
12.5297682388
 10
-19.5396248324
 20
12.5473471748
 10
-19.532778781
 20
12.5648769958
 10
-19.5257163694
 20
12.5823575954
 10
-19.5184499012
 20
12.5997579307
 10
-19.5109789904
 20
12.6170777537
 10
-19.5033040229
 20
12.6343173124
 10
-19.4954384598
 20
12.6514463084
 10
-19.4873818785
 20
12.66846458
 10
-19.4791347015
 20
12.6853722888
 10
-19.4707116574
 20
12.7021396213
 10
-19.4621125226
 20
12.7187660475
 10
-19.4533375207
 20
12.7352520973
 10
-19.444402051
 20
12.7515695483
 10
-19.4353068252
 20
12.7677165227
 10
-19.4260511316
 20
12.7836948981
 10
-19.4166482354
 20
12.7994820851
 10
-19.4070984266
 20
12.8150774008
 10
-19.3974014151
 20
12.8304815281
 10
-19.3875695955
 20
12.845673926
 10
-19.3776020417
 20
12.8606557057
 10
-19.3674996798
 20
12.875425756
 10
-19.3572776827
 20
12.8899602024
 10
-19.3469337399
 20
12.9042613256
 10
-19.336470162
 20
12.9183268449
 10
-19.3259090527
 20
12.9321260436
 10
-19.3152495456
 20
12.9456585415
 10
-19.3044925072
 20
12.9589247187
 10
-19.293662641
 20
12.9718949996
 10
-19.2827596892
 20
12.984568119
 10
-19.2717839096
 20
12.996945342
 10
-19.2607607794
 20
13.0090008879
 10
-19.2496900121
 20
13.0207335193
 10
-19.2385718943
 20
13.0321444734
 10
-19.2274327628
 20
13.0432116813
 10
-19.2162813963
 20
13.0539277864
 10
-19.2051090162
 20
13.0643001451
 10
-19.1939156222
 20
13.0743287576
  0
LINE
  5
2A0
100
AcDbEntity
  8
RACCORDO
100
AcDbLine
 62
250
  6
CONTINUOUS
 10
-20.084969853
 20
-20.0683510567
 11
-20.0877198789
 21
-20.2266471669
  0
LINE
  5
2A1
100
AcDbEntity
  8
RACCORDO
100
AcDbLine
 62
250
  6
CONTINUOUS
 10
-20.0877198789
 20
-20.2266471669
 11
-20.0907894166
 21
-20.3867093873
  0
LINE
  5
2A2
100
AcDbEntity
  8
RACCORDO
100
AcDbLine
 62
250
  6
CONTINUOUS
 10
-20.0907894166
 20
-20.3867093873
 11
-20.0941758536
 21
-20.5484644957
  0
LINE
  5
2A3
100
AcDbEntity
  8
RACCORDO
100
AcDbLine
 62
250
  6
CONTINUOUS
 10
-20.0941758536
 20
-20.5484644957
 11
-20.0978780885
 21
-20.7117034442
  0
LINE
  5
2A4
100
AcDbEntity
  8
RACCORDO
100
AcDbLine
 62
250
  6
CONTINUOUS
 10
-20.0978780885
 20
-20.7117034442
 11
-20.1018941175
 21
-20.8762083677
  0
LINE
  5
2A5
100
AcDbEntity
  8
RACCORDO
100
AcDbLine
 62
250
  6
CONTINUOUS
 10
-20.1018941175
 20
-20.8762083677
 11
-20.1062195375
 21
-21.0418236337
  0
LINE
  5
2A6
100
AcDbEntity
  8
RACCORDO
100
AcDbLine
 62
250
  6
CONTINUOUS
 10
-20.1062195375
 20
-21.0418236337
 11
-20.1108502598
 21
-21.2083123319
  0
LINE
  5
2A7
100
AcDbEntity
  8
RACCORDO
100
AcDbLine
 62
250
  6
CONTINUOUS
 10
-20.1108502598
 20
-21.2083123319
 11
-20.1157814687
 21
-21.3754104027
  0
LINE
  5
2A8
100
AcDbEntity
  8
RACCORDO
100
AcDbLine
 62
250
  6
CONTINUOUS
 10
-20.1157814687
 20
-21.3754104027
 11
-20.1210057852
 21
-21.5429319062
  0
LINE
  5
2A9
100
AcDbEntity
  8
RACCORDO
100
AcDbLine
 62
250
  6
CONTINUOUS
 10
-20.1210057852
 20
-21.5429319062
 11
-20.1265162394
 21
-21.7105937556
  0
LINE
  5
2AA
100
AcDbEntity
  8
RACCORDO
100
AcDbLine
 62
250
  6
CONTINUOUS
 10
-20.1265162394
 20
-21.7105937556
 11
-20.1323046844
 21
-21.8780817361
  0
LINE
  5
2AB
100
AcDbEntity
  8
RACCORDO
100
AcDbLine
 62
250
  6
CONTINUOUS
 10
-20.1323046844
 20
-21.8780817361
 11
-20.1383605954
 21
-22.0451800582
  0
LINE
  5
2AC
100
AcDbEntity
  8
RACCORDO
100
AcDbLine
 62
250
  6
CONTINUOUS
 10
-20.1383605954
 20
-22.0451800582
 11
-20.1446737901
 21
-22.211562057
  0
LINE
  5
2AD
100
AcDbEntity
  8
RACCORDO
100
AcDbLine
 62
250
  6
CONTINUOUS
 10
-20.1446737901
 20
-22.211562057
 11
-20.1512324476
 21
-22.3768734626
  0
LINE
  5
2AE
100
AcDbEntity
  8
RACCORDO
100
AcDbLine
 62
250
  6
CONTINUOUS
 10
-20.1512324476
 20
-22.3768734626
 11
-20.1580228728
 21
-22.5408751584
  0
LINE
  5
2AF
100
AcDbEntity
  8
RACCORDO
100
AcDbLine
 62
250
  6
CONTINUOUS
 10
-20.1580228728
 20
-22.5408751584
 11
-20.1650312642
 21
-22.7032049447
  0
LINE
  5
2B0
100
AcDbEntity
  8
RACCORDO
100
AcDbLine
 62
250
  6
CONTINUOUS
 10
-20.1650312642
 20
-22.7032049447
 11
-20.1722417904
 21
-22.8634857895
  0
LWPOLYLINE
  5
2B1
100
AcDbEntity
  8
RACCORDO
100
AcDbPolyline
 62
250
  6
CONTINUOUS
 90
52
 70
0
 10
-19.1939156222
 20
-0.9693063003
 10
-19.1933214232
 20
-0.9567615337
 10
-19.1930669013
 20
-0.9440808251
 10
-19.1931522728
 20
-0.9312749452
 10
-19.1935774652
 20
-0.9183547711
 10
-19.1943421173
 20
-0.9053312768
 10
-19.1954455795
 20
-0.8922155244
 10
-19.1968869147
 20
-0.8790186541
 10
-19.1986648986
 20
-0.865751875
 10
-19.200778021
 20
-0.8524264557
 10
-19.203224487
 20
-0.8390537145
 10
-19.2060022186
 20
-0.82564501
 10
-19.2091088565
 20
-0.8122117312
 10
-19.212541762
 20
-0.798765288
 10
-19.2162980192
 20
-0.7853171017
 10
-19.2203744376
 20
-0.7718785949
 10
-19.2247675548
 20
-0.7584611818
 10
-19.2294736393
 20
-0.7450762591
 10
-19.2344886939
 20
-0.7317351956
 10
-19.2398084589
 20
-0.7184493229
 10
-19.2454284158
 20
-0.7052299257
 10
-19.2513437911
 20
-0.6920882325
 10
-19.2575495604
 20
-0.6790354053
 10
-19.2640404526
 20
-0.666082531
 10
-19.2708109545
 20
-0.6532406116
 10
-19.2778553153
 20
-0.6405205547
 10
-19.2851675518
 20
-0.6279331645
 10
-19.292741453
 20
-0.6154891323
 10
-19.3005705858
 20
-0.603199028
 10
-19.3086483004
 20
-0.5910732904
 10
-19.3169677356
 20
-0.5791222189
 10
-19.3255218251
 20
-0.5673559646
 10
-19.3343033033
 20
-0.5557845213
 10
-19.3433047112
 20
-0.5444177177
 10
-19.3525184034
 20
-0.5332652085
 10
-19.3619365539
 20
-0.5223364663
 10
-19.371551163
 20
-0.5116407739
 10
-19.3813540644
 20
-0.5011872159
 10
-19.3913369317
 20
-0.4909846713
 10
-19.4014912856
 20
-0.481041806
 10
-19.4118085012
 20
-0.4713670652
 10
-19.4222798153
 20
-0.4619686665
 10
-19.4328963338
 20
-0.4528545926
 10
-19.4436490391
 20
-0.4440325849
 10
-19.4545287983
 20
-0.4355101365
 10
-19.4655263703
 20
-0.4272944863
 10
-19.4766324138
 20
-0.4193926124
 10
-19.4878374958
 20
-0.4118112266
 10
-19.4991320988
 20
-0.4045567683
 10
-19.5105066295
 20
-0.3976353992
 10
-19.5219514265
 20
-0.3910529983
 10
-19.5329919765
 20
-0.3850671525
  0
LINE
  5
2B2
100
AcDbEntity
  8
RACCORDO
100
AcDbLine
 62
250
  6
CONTINUOUS
 10
-20.1722417904
 20
-22.8634857895
 11
-20.1796378158
 21
-23.0214700254
  0
LWPOLYLINE
  5
2B3
100
AcDbEntity
  8
RACCORDO
100
AcDbPolyline
 62
250
  6
CONTINUOUS
 90
42
 70
0
 10
-18.2486559526
 20
-0.3623075955
 10
-18.2480845587
 20
-0.3504264699
 10
-18.247818017
 20
-0.3384228266
 10
-18.2478565307
 20
-0.3263058166
 10
-18.2482000704
 20
-0.3140846771
 10
-18.2488483742
 20
-0.3017687248
 10
-18.249800948
 20
-0.2893673486
 10
-18.2510570655
 20
-0.2768900021
 10
-18.2526157691
 20
-0.2643461978
 10
-18.2544758706
 20
-0.2517454987
 10
-18.2566359518
 20
-0.2390975111
 10
-18.259094366
 20
-0.2264118769
 10
-18.2618492389
 20
-0.2136982671
 10
-18.2648984705
 20
-0.2009663737
 10
-18.268239736
 20
-0.1882259029
 10
-18.2718704883
 20
-0.1754865672
 10
-18.2757879594
 20
-0.1627580785
 10
-18.2799891629
 20
-0.15005014
 10
-18.2844708958
 20
-0.1373724399
 10
-18.2892297415
 20
-0.1247346428
 10
-18.2942620722
 20
-0.1121463831
 10
-18.2995640513
 20
-0.0996172573
 10
-18.3051316369
 20
-0.0871568171
 10
-18.3109605844
 20
-0.0747745613
 10
-18.3170464502
 20
-0.0624799298
 10
-18.3233845945
 20
-0.0502822953
 10
-18.3299701856
 20
-0.0381909563
 10
-18.3367982028
 20
-0.0262151309
 10
-18.3438634407
 20
-0.0143639487
 10
-18.3511605131
 20
-0.0026464442
 10
-18.3586838569
 20
0.0089284497
 10
-18.3664277368
 20
0.0203519091
 10
-18.3743862492
 20
0.0316152254
 10
-18.3825533269
 20
0.0427098122
 10
-18.3909227435
 20
0.0536272116
 10
-18.3994881188
 20
0.064359101
 10
-18.4082429236
 20
0.0748973
 10
-18.4171804839
 20
0.0852337749
 10
-18.4262939862
 20
0.095360646
 10
-18.4355764834
 20
0.1052701938
 10
-18.4450208982
 20
0.1149548629
 10
-18.4488061698
 20
0.1186822758
  0
LINE
  5
2B4
100
AcDbEntity
  8
RACCORDO
100
AcDbLine
 62
250
  6
CONTINUOUS
 10
-20.1796378158
 20
-23.0214700254
 11
-20.1872020121
 21
-23.1767868873
  0
LINE
  5
2B5
100
AcDbEntity
  8
RACCORDO
100
AcDbLine
 62
250
  6
CONTINUOUS
 10
-20.1872020121
 20
-23.1767868873
 11
-20.1949145171
 21
-23.3290652679
  0
LINE
  5
2B6
100
AcDbEntity
  8
RACCORDO
100
AcDbLine
 62
250
  6
CONTINUOUS
 10
-20.1949145171
 20
-23.3290652679
 11
-20.2027564169
 21
-23.4780720541
  0
LINE
  5
2B7
100
AcDbEntity
  8
RACCORDO
100
AcDbLine
 62
250
  6
CONTINUOUS
 10
-20.2027564169
 20
-23.4780720541
 11
-20.2107073655
 21
-23.6234650951
  0
LINE
  5
2B8
100
AcDbEntity
  8
RACCORDO
100
AcDbLine
 62
250
  6
CONTINUOUS
 10
-20.2107073655
 20
-23.6234650951
 11
-20.2187453123
 21
-23.7649384185
  0
LINE
  5
2B9
100
AcDbEntity
  8
RACCORDO
100
AcDbLine
 62
250
  6
CONTINUOUS
 10
-20.2187453123
 20
-23.7649384185
 11
-20.2268506267
 21
-23.9023063766
  0
LINE
  5
2BA
100
AcDbEntity
  8
RACCORDO
100
AcDbLine
 62
250
  6
CONTINUOUS
 10
-20.2268506267
 20
-23.9023063766
 11
-20.2350014722
 21
-24.0353009565
  0
LINE
  5
2BB
100
AcDbEntity
  8
RACCORDO
100
AcDbLine
 62
250
  6
CONTINUOUS
 10
-20.2350014722
 20
-24.0353009565
 11
-20.2431749928
 21
-24.1637120104
  0
LINE
  5
2BC
100
AcDbEntity
  8
RACCORDO
100
AcDbLine
 62
250
  6
CONTINUOUS
 10
-20.2431749928
 20
-24.1637120104
 11
-20.251352727
 21
-24.287427961
  0
LINE
  5
2BD
100
AcDbEntity
  8
RACCORDO
100
AcDbLine
 62
250
  6
CONTINUOUS
 10
-20.251352727
 20
-24.287427961
 11
-20.259514319
 21
-24.4063047183
  0
LINE
  5
2BE
100
AcDbEntity
  8
RACCORDO
100
AcDbLine
 62
250
  6
CONTINUOUS
 10
-20.259514319
 20
-24.4063047183
 11
-20.2676398647
 21
-24.520269038
  0
LINE
  5
2BF
100
AcDbEntity
  8
RACCORDO
100
AcDbLine
 62
250
  6
CONTINUOUS
 10
-20.2676398647
 20
-24.520269038
 11
-20.2757137982
 21
-24.6292926425
  0
LINE
  5
2C0
100
AcDbEntity
  8
RACCORDO
100
AcDbLine
 62
250
  6
CONTINUOUS
 10
-20.2757137982
 20
-24.6292926425
 11
-20.283717763
 21
-24.73334119
  0
LINE
  5
2C1
100
AcDbEntity
  8
RACCORDO
100
AcDbLine
 62
250
  6
CONTINUOUS
 10
-20.283717763
 20
-24.73334119
 11
-20.2916372655
 21
-24.8324767303
  0
LINE
  5
2C2
100
AcDbEntity
  8
RACCORDO
100
AcDbLine
 62
250
  6
CONTINUOUS
 10
-20.2916372655
 20
-24.8324767303
 11
-20.2994613749
 21
-24.9267537318
  0
LINE
  5
2C3
100
AcDbEntity
  8
RACCORDO
100
AcDbLine
 62
250
  6
CONTINUOUS
 10
-19.1142588207
 20
-19.8987211862
 11
-19.1344605068
 21
-20.1359771864
  0
LINE
  5
2C4
100
AcDbEntity
  8
RACCORDO
100
AcDbLine
 62
250
  6
CONTINUOUS
 10
-20.2994613749
 20
-24.9267537318
 11
-20.3071780196
 21
-25.0162662132
  0
LINE
  5
2C5
100
AcDbEntity
  8
RACCORDO
100
AcDbLine
 62
250
  6
CONTINUOUS
 10
-19.1344605068
 20
-20.1359771864
 11
-19.1491713858
 21
-20.3024590021
  0
LINE
  5
2C6
100
AcDbEntity
  8
RACCORDO
100
AcDbLine
 62
250
  6
CONTINUOUS
 10
-20.3071780196
 20
-25.0162662132
 11
-20.3147743865
 21
-25.1011249866
  0
LINE
  5
2C7
100
AcDbEntity
  8
RACCORDO
100
AcDbLine
 62
250
  6
CONTINUOUS
 10
-19.1491713858
 20
-20.3024590021
 11
-19.1646804524
 21
-20.4705667888
  0
LINE
  5
2C8
100
AcDbEntity
  8
RACCORDO
100
AcDbLine
 62
250
  6
CONTINUOUS
 10
-20.3147743865
 20
-25.1011249866
 11
-20.3222434259
 21
-25.1814339786
  0
LINE
  5
2C9
100
AcDbEntity
  8
RACCORDO
100
AcDbLine
 62
250
  6
CONTINUOUS
 10
-19.1646804524
 20
-20.4705667888
 11
-19.1809773597
 21
-20.640052604
  0
LINE
  5
2CA
100
AcDbEntity
  8
RACCORDO
100
AcDbLine
 62
250
  6
CONTINUOUS
 10
-20.3222434259
 20
-25.1814339786
 11
-20.3295795317
 21
-25.2573795188
  0
LINE
  5
2CB
100
AcDbEntity
  8
RACCORDO
100
AcDbLine
 62
250
  6
CONTINUOUS
 10
-19.1809773597
 20
-20.640052604
 11
-19.1980509972
 21
-20.8107702646
  0
LINE
  5
2CC
100
AcDbEntity
  8
RACCORDO
100
AcDbLine
 62
250
  6
CONTINUOUS
 10
-20.3295795317
 20
-25.2573795188
 11
-20.3367770202
 21
-25.3291469142
  0
LINE
  5
2CD
100
AcDbEntity
  8
RACCORDO
100
AcDbLine
 62
250
  6
CONTINUOUS
 10
-19.1980509972
 20
-20.8107702646
 11
-19.2158874118
 21
-20.9824961312
  0
LINE
  5
2CE
100
AcDbEntity
  8
RACCORDO
100
AcDbLine
 62
250
  6
CONTINUOUS
 10
-20.3367770202
 20
-25.3291469142
 11
-20.3438315221
 21
-25.396858982
  0
LINE
  5
2CF
100
AcDbEntity
  8
RACCORDO
100
AcDbLine
 62
250
  6
CONTINUOUS
 10
-19.2158874118
 20
-20.9824961312
 11
-19.2344654394
 21
-21.1549773802
  0
LINE
  5
2D0
100
AcDbEntity
  8
RACCORDO
100
AcDbLine
 62
250
  6
CONTINUOUS
 10
-20.3438315221
 20
-25.396858982
 11
-20.3507347258
 21
-25.4606692546
  0
LINE
  5
2D1
100
AcDbEntity
  8
RACCORDO
100
AcDbLine
 62
250
  6
CONTINUOUS
 10
-19.2344654394
 20
-21.1549773802
 11
-19.2537680748
 21
-21.3280390367
  0
LINE
  5
2D2
100
AcDbEntity
  8
RACCORDO
100
AcDbLine
 62
250
  6
CONTINUOUS
 10
-20.3507347258
 20
-25.4606692546
 11
-20.3574905575
 21
-25.5208353452
  0
LINE
  5
2D3
100
AcDbEntity
  8
RACCORDO
100
AcDbLine
 62
250
  6
CONTINUOUS
 10
-19.2537680748
 20
-21.3280390367
 11
-19.2737712296
 21
-21.501413647
  0
LINE
  5
2D4
100
AcDbEntity
  8
RACCORDO
100
AcDbLine
 62
250
  6
CONTINUOUS
 10
-20.3574905575
 20
-25.5208353452
 11
-20.3640992016
 21
-25.5775039403
  0
LINE
  5
2D5
100
AcDbEntity
  8
RACCORDO
100
AcDbLine
 62
250
  6
CONTINUOUS
 10
-19.2737712296
 20
-21.501413647
 11
-19.2944426396
 21
-21.6748042364
  0
LINE
  5
2D6
100
AcDbEntity
  8
RACCORDO
100
AcDbLine
 62
250
  6
CONTINUOUS
 10
-20.3640992016
 20
-25.5775039403
 11
-20.3705590952
 21
-25.6308649087
  0
LINE
  5
2D7
100
AcDbEntity
  8
RACCORDO
100
AcDbLine
 62
250
  6
CONTINUOUS
 10
-19.2944426396
 20
-21.6748042364
 11
-19.3157588143
 21
-21.8480064271
  0
LINE
  5
2D8
100
AcDbEntity
  8
RACCORDO
100
AcDbLine
 62
250
  6
CONTINUOUS
 10
-20.3705590952
 20
-25.6308649087
 11
-20.3768657473
 21
-25.6810751399
  0
LWPOLYLINE
  5
2D9
100
AcDbEntity
  8
RACCORDO
100
AcDbPolyline
 62
250
  6
CONTINUOUS
 90
31
 70
0
 10
-19.3157588143
 20
-21.8480064271
 10
-19.3376838857
 20
-22.0207052477
 10
-19.3488595057
 20
-22.106752705
 10
-19.3601736221
 20
-22.1925641022
 10
-19.3716254322
 20
-22.2781371728
 10
-19.3831978521
 20
-22.3633539459
 10
-19.3948923906
 20
-22.4482161669
 10
-19.4067085615
 20
-22.5327225783
 10
-19.418626851
 20
-22.6167510947
 10
-19.4306490614
 20
-22.7003033019
 10
-19.4427749752
 20
-22.7833785027
 10
-19.4549826244
 20
-22.8658515901
 10
-19.4672739392
 20
-22.9477229629
 10
-19.4796491372
 20
-23.0289935203
 10
-19.492084256
 20
-23.1095393113
 10
-19.5045815239
 20
-23.1893608572
 10
-19.5171413927
 20
-23.26845933
 10
-19.5297377941
 20
-23.3467121526
 10
-19.5423727826
 20
-23.4241173101
 10
-19.5550474823
 20
-23.5006788889
 10
-19.5677349493
 20
-23.5762838386
 10
-19.5804373291
 20
-23.650929821
 10
-19.5931560695
 20
-23.7246215703
 10
-19.6058636379
 20
-23.7972569776
 10
-19.6185620514
 20
-23.8688324896
 10
-19.6312532123
 20
-23.9393543209
 10
-19.6439098
 20
-24.0087352976
 10
-19.6565337459
 20
-24.0769713848
 10
-19.6691272567
 20
-24.1440694691
 10
-19.6816637242
 20
-24.2099589838
 10
-19.6941445038
 20
-24.2746334429
  0
LINE
  5
2DA
100
AcDbEntity
  8
RACCORDO
100
AcDbLine
 62
250
  6
CONTINUOUS
 10
-20.3768657473
 20
-25.6810751399
 11
-20.3830203678
 21
-25.7282674975
  0
LINE
  5
2DB
100
AcDbEntity
  8
RACCORDO
100
AcDbLine
 62
250
  6
CONTINUOUS
 10
-20.3830203678
 20
-25.7282674975
 11
-20.3890300449
 21
-25.7726765046
  0
LWPOLYLINE
  5
2DC
100
AcDbEntity
  8
RACCORDO
100
AcDbPolyline
 62
250
  6
CONTINUOUS
 90
45
 70
0
 10
-19.3026548575
 20
-13.1018953077
 10
-19.3249482799
 20
-13.2625513736
 10
-19.347032768
 20
-13.4231072661
 10
-19.3689084059
 20
-13.5835636114
 10
-19.3905751095
 20
-13.7439197834
 10
-19.4120326261
 20
-13.9041739029
 10
-19.4332809532
 20
-14.0643259689
 10
-19.4543200934
 20
-14.2243759825
 10
-19.4751498013
 20
-14.384322068
 10
-19.4957700746
 20
-14.5441642243
 10
-19.5161809155
 20
-14.7039024527
 10
-19.5363820863
 20
-14.8635348807
 10
-19.5563735843
 20
-15.0230615073
 10
-19.5761554122
 20
-15.1824823335
 10
-19.5957273392
 20
-15.3417954903
 10
-19.615089363
 20
-15.5010009765
 10
-19.6342414859
 20
-15.6600987933
 10
-19.6531834847
 20
-15.8190870753
 10
-19.671915357
 20
-15.9779658217
 10
-19.6904371053
 20
-16.1367350333
 10
-19.7087485134
 20
-16.2953928464
 10
-19.7268495787
 20
-16.4539392575
 10
-19.7447403039
 20
-16.6123742701
 10
-19.762420481
 20
-16.7706960313
 10
-19.7798901073
 20
-16.9289045364
 10
-19.7971491856
 20
-17.0869997901
 10
-19.8141975164
 20
-17.2449799528
 10
-19.8310350976
 20
-17.4028450267
 10
-19.8476619312
 20
-17.5605950097
 10
-19.8640778239
 20
-17.718228056
 10
-19.880282773
 20
-17.8757441607
 10
-19.8962767811
 20
-18.0331433287
 10
-19.9120596634
 20
-18.1904237296
 10
-19.9276314188
 20
-18.3475853754
 10
-19.9429920484
 20
-18.5046282541
 10
-19.9581413709
 20
-18.6615504994
 10
-19.9730793814
 20
-18.8183520846
 10
-19.9878060847
 20
-18.9750330364
 10
-20.002321314
 20
-19.1315915686
 10
-20.0166250712
 20
-19.2880277275
 10
-20.0307173544
 20
-19.4443414669
 10
-20.0445979914
 20
-19.6005308621
 10
-20.0582669248
 20
-19.7565952714
 10
-20.0717242121
 20
-19.9125353366
 10
-20.0849698531
 20
-20.0683510575
  0
LWPOLYLINE
  5
2DD
100
AcDbEntity
  8
RACCORDO
100
AcDbPolyline
 62
250
  6
CONTINUOUS
 90
45
 70
0
 10
-18.3285164126
 20
-12.9812435181
 10
-18.3508532005
 20
-13.140754736
 10
-18.3729827248
 20
-13.3001678342
 10
-18.394904904
 20
-13.4594821886
 10
-18.4166196608
 20
-13.6186971752
 10
-18.4381269123
 20
-13.7778121714
 10
-18.4594265694
 20
-13.936826556
 10
-18.4805185539
 20
-14.0957397063
 10
-18.5014027883
 20
-14.2545510008
 10
-18.5220791867
 20
-14.413259821
 10
-18.5425476732
 20
-14.5718655459
 10
-18.5628081725
 20
-14.7303675549
 10
-18.5828606015
 20
-14.8887652301
 10
-18.6027048864
 20
-15.047057952
 10
-18.6223409545
 20
-15.205245101
 10
-18.641768725
 20
-15.3633260601
 10
-18.6609881267
 20
-15.521300211
 10
-18.679999089
 20
-15.6791669355
 10
-18.6988015341
 20
-15.8369256175
 10
-18.7173953928
 20
-15.9945756406
 10
-18.7357805971
 20
-16.1521163873
 10
-18.7539570713
 20
-16.309547241
 10
-18.7719247487
 20
-16.4668675836
 10
-18.7896835636
 20
-16.624076802
 10
-18.807233444
 20
-16.7811742872
 10
-18.8245743252
 20
-16.9381594215
 10
-18.8417061441
 20
-17.0950315942
 10
-18.8586288323
 20
-17.2517902071
 10
-18.875342328
 20
-17.4084346505
 10
-18.8918465698
 20
-17.5649643085
 10
-18.9081414908
 20
-17.721378574
 10
-18.9242270309
 20
-17.8776768316
 10
-18.9401031316
 20
-18.0338584737
 10
-18.9557697299
 20
-18.1899229057
 10
-18.9712267695
 20
-18.3458695305
 10
-18.9864741926
 20
-18.5016977252
 10
-19.001511935
 20
-18.6574068565
 10
-19.0163399392
 20
-18.8129962906
 10
-19.0309581535
 20
-18.9684654442
 10
-19.0453665236
 20
-19.1238137612
 10
-19.0595650007
 20
-19.2790406814
 10
-19.0735535287
 20
-19.4341455504
 10
-19.0873320427
 20
-19.5891276713
 10
-19.1009004883
 20
-19.7439864083
 10
-19.1142588207
 20
-19.8987211862
  0
LINE
  5
2DE
100
AcDbEntity
  8
RACCORDO
100
AcDbLine
 62
250
  6
CONTINUOUS
 10
-20.3890300449
 20
-25.7726765046
 11
-20.3948973309
 21
-25.8144780918
  0
LINE
  5
2DF
100
AcDbEntity
  8
RACCORDO
100
AcDbLine
 62
250
  6
CONTINUOUS
 10
-19.2789676623
 20
-12.932829663
 11
-19.3026548575
 21
-13.1018953077
  0
LWPOLYLINE
  5
2E0
100
AcDbEntity
  8
RACCORDO
100
AcDbPolyline
 62
250
  6
CONTINUOUS
 90
61
 70
0
 10
-18.458728094
 20
-11.523611174
 10
-18.4606850871
 20
-11.5370537491
 10
-18.4622741023
 20
-11.5505979015
 10
-18.4634939689
 20
-11.5642336523
 10
-18.464343788
 20
-11.5779509549
 10
-18.4648229337
 20
-11.5917397027
 10
-18.4649310527
 20
-11.6055897366
 10
-18.4646680656
 20
-11.6194908521
 10
-18.464034166
 20
-11.6334328074
 10
-18.463029821
 20
-11.6474053302
 10
-18.4616557706
 20
-11.661398126
 10
-18.4599130271
 20
-11.6754008852
 10
-18.4578028745
 20
-11.6894032909
 10
-18.4553268676
 20
-11.7033950265
 10
-18.4524868306
 20
-11.7173657832
 10
-18.449284856
 20
-11.7313052678
 10
-18.4457233029
 20
-11.7452032099
 10
-18.4418047954
 20
-11.7590493698
 10
-18.4375322205
 20
-11.7728335461
 10
-18.4329087262
 20
-11.7865455829
 10
-18.427937719
 20
-11.8001753776
 10
-18.4226228613
 20
-11.8137128879
 10
-18.4169680691
 20
-11.8271481399
 10
-18.4109775086
 20
-11.8404712347
 10
-18.4046555935
 20
-11.8536723563
 10
-18.3980069818
 20
-11.8667417782
 10
-18.3910365718
 20
-11.8796698714
 10
-18.3837494993
 20
-11.8924471107
 10
-18.3761511331
 20
-11.9050640822
 10
-18.3682470716
 20
-11.9175114899
 10
-18.3600431383
 20
-11.929780163
 10
-18.3515453776
 20
-11.9418610622
 10
-18.3427600505
 20
-11.9537452865
 10
-18.3336936298
 20
-11.9654240799
 10
-18.3243527954
 20
-11.9768888379
 10
-18.3147444294
 20
-11.9881311134
 10
-18.3048756111
 20
-11.9991426234
 10
-18.2947536115
 20
-12.009915255
 10
-18.2843858883
 20
-12.020441071
 10
-18.2737800801
 20
-12.0307123163
 10
-18.2629440011
 20
-12.0407214234
 10
-18.251885635
 20
-12.0504610178
 10
-18.2406131293
 20
-12.0599239235
 10
-18.2291347894
 20
-12.0691031685
 10
-18.2174590723
 20
-12.0779919898
 10
-18.2055945802
 20
-12.0865838383
 10
-18.1935500547
 20
-12.0948723838
 10
-18.1813343699
 20
-12.1028515194
 10
-18.168956526
 20
-12.1105153663
 10
-18.1564256427
 20
-12.117858278
 10
-18.1437509525
 20
-12.1248748444
 10
-18.1309417937
 20
-12.1315598959
 10
-18.1180076038
 20
-12.1379085071
 10
-18.1049579124
 20
-12.1439160005
 10
-18.0918023343
 20
-12.1495779499
 10
-18.0785505621
 20
-12.1548901837
 10
-18.0652123594
 20
-12.159848788
 10
-18.0517975535
 20
-12.1644501094
 10
-18.038316028
 20
-12.1686907578
 10
-18.0247777159
 20
-12.1725676088
 10
-18.0111925918
 20
-12.1760778059
  0
LINE
  5
2E1
100
AcDbEntity
  8
RACCORDO
100
AcDbLine
 62
250
  6
CONTINUOUS
 10
-20.3948973309
 20
-25.8144780918
 11
-20.4006227386
 21
-25.8537786058
  0
LINE
  5
2E2
100
AcDbEntity
  8
RACCORDO
100
AcDbLine
 62
250
  6
CONTINUOUS
 10
-19.2764978542
 20
-12.9161996142
 11
-19.2789676623
 21
-12.932829663
  0
LINE
  5
2E3
100
AcDbEntity
  8
RACCORDO
100
AcDbLine
 62
250
  6
CONTINUOUS
 10
-20.4006227386
 20
-25.8537786058
 11
-20.4062024645
 21
-25.8907007477
  0
LINE
  5
2E4
100
AcDbEntity
  8
RACCORDO
100
AcDbLine
 62
250
  6
CONTINUOUS
 10
-18.3272554917
 20
-12.9729558304
 11
-18.3285164127
 21
-12.981243518
  0
LINE
  5
2E5
100
AcDbEntity
  8
RACCORDO
100
AcDbLine
 62
250
  6
CONTINUOUS
 10
-20.4062024645
 20
-25.8907007477
 11
-20.4116378674
 21
-25.9253923808
  0
LINE
  5
2E6
100
AcDbEntity
  8
RACCORDO
100
AcDbLine
 62
250
  6
CONTINUOUS
 10
-19.2738942755
 20
-12.8995538941
 11
-19.2764978542
 21
-12.9161996142
  0
LINE
  5
2E7
100
AcDbEntity
  8
RACCORDO
100
AcDbLine
 62
250
  6
CONTINUOUS
 10
-18.3259208773
 20
-12.9646618026
 11
-18.3272554917
 21
-12.9729558304
  0
LINE
  5
2E8
100
AcDbEntity
  8
RACCORDO
100
AcDbLine
 62
250
  6
CONTINUOUS
 10
-20.4116378674
 20
-25.9253923808
 11
-20.4169321042
 21
-25.957960046
  0
LINE
  5
2E9
100
AcDbEntity
  8
RACCORDO
100
AcDbLine
 62
250
  6
CONTINUOUS
 10
-19.2711583684
 20
-12.8828962921
 11
-19.2738942755
 21
-12.8995538941
  0
LINE
  5
2EA
100
AcDbEntity
  8
RACCORDO
100
AcDbLine
 62
250
  6
CONTINUOUS
 10
-19.2682909237
 20
-12.8662288398
 11
-19.2711583684
 21
-12.8828962921
  0
LINE
  5
2EB
100
AcDbEntity
  8
RACCORDO
100
AcDbLine
 62
250
  6
CONTINUOUS
 10
-19.265293129
 20
-12.8495545314
 11
-19.2682909237
 21
-12.8662288398
  0
LINE
  5
2EC
100
AcDbEntity
  8
RACCORDO
100
AcDbLine
 62
250
  6
CONTINUOUS
 10
-19.2621662011
 20
-12.8328763669
 11
-19.265293129
 21
-12.8495545314
  0
LINE
  5
2ED
100
AcDbEntity
  8
RACCORDO
100
AcDbLine
 62
250
  6
CONTINUOUS
 10
-19.2589109581
 20
-12.8161963491
 11
-19.2621662011
 21
-12.8328763669
  0
LINE
  5
2EE
100
AcDbEntity
  8
RACCORDO
100
AcDbLine
 62
250
  6
CONTINUOUS
 10
-19.255528637
 20
-12.7995174878
 11
-19.2589109581
 21
-12.8161963491
  0
LINE
  5
2EF
100
AcDbEntity
  8
RACCORDO
100
AcDbLine
 62
250
  6
CONTINUOUS
 10
-19.252020503
 20
-12.7828427834
 11
-19.255528637
 21
-12.7995174878
  0
LWPOLYLINE
  5
2F0
100
AcDbEntity
  8
RACCORDO
100
AcDbPolyline
 62
250
  6
CONTINUOUS
 90
6
 70
0
 10
-19.5377942293
 20
-0.5182645905
 10
-19.5360435033
 20
-0.5102486212
 10
-19.5346871106
 20
-0.5022075481
 10
-19.5337261273
 20
-0.4941477519
 10
-19.5331613161
 20
-0.4860756282
 10
-19.5329919765
 20
-0.4786122799
  0
LWPOLYLINE
  5
2F1
100
AcDbEntity
  8
RACCORDO
100
AcDbPolyline
 62
250
  6
CONTINUOUS
 90
3
 70
0
 10
-19.2465244782
 20
-12.7578434025
 10
-19.2483874063
 20
-12.7661742382
 10
-19.252020503
 20
-12.7828427834
  0
LINE
  5
2F2
100
AcDbEntity
  8
RACCORDO
100
AcDbLine
 62
250
  6
CONTINUOUS
 10
-19.5399378992
 20
-0.5262490954
 11
-19.5377942293
 21
-0.5182645905
  0
LINE
  5
2F3
100
AcDbEntity
  8
RACCORDO
100
AcDbLine
 62
250
  6
CONTINUOUS
 10
15.9709509208
 20
-25.824072739
 11
-18.0111925856
 21
-12.1760777974
  0
LINE
  5
2F4
100
AcDbEntity
  8
RACCORDO
100
AcDbLine
 62
250
  6
CONTINUOUS
 10
15.9619675008
 20
-25.5502839807
 11
-17.8813233728
 21
-11.9580553871
  0
LINE
  5
2F5
100
AcDbEntity
  8
RACCORDO
100
AcDbLine
 62
7
  6
CONTINUOUS
 10
15.9576702386
 20
-25.4193158093
 11
-17.6949784303
 21
-11.9036534226
  0
LINE
  5
2F6
100
AcDbEntity
  8
RACCORDO
100
AcDbLine
 62
7
  6
CONTINUOUS
 10
15.9515131288
 20
-25.2316648419
 11
-18.0651424669
 21
-11.5698090671
  0
LINE
  5
2F7
100
AcDbEntity
  8
RACCORDO
100
AcDbLine
 62
7
  6
CONTINUOUS
 10
-18.1479737076
 20
-11.1269661513
 11
15.9380954807
 21
-24.8166999898
  0
LINE
  5
2F8
100
AcDbEntity
  8
0
100
AcDbLine
 62
7
  6
CONTINUOUS
 10
-18.1479737076
 20
-10.6018104977
 11
15.9218880479
 21
-24.2850350657
  0
LWPOLYLINE
  5
2F9
100
AcDbEntity
  8
RACCORDO
100
AcDbPolyline
 62
7
  6
CONTINUOUS
 90
73
 70
0
 10
-17.6949832242
 20
-11.9036514573
 10
-17.7000170046
 20
-11.9016026859
 10
-17.7102799335
 20
-11.8972582912
 10
-17.7205917588
 20
-11.8926677066
 10
-17.7309460052
 20
-11.8878311852
 10
-17.7413277415
 20
-11.8827530551
 10
-17.7517151064
 20
-11.8774419756
 10
-17.7620981818
 20
-11.8719016154
 10
-17.772467017
 20
-11.8661359327
 10
-17.7828018934
 20
-11.8601549377
 10
-17.7930935225
 20
-11.853963598
 10
-17.8033325014
 20
-11.8475673214
 10
-17.8135008944
 20
-11.8409774935
 10
-17.8235900721
 20
-11.8342003307
 10
-17.8335913203
 20
-11.8272425551
 10
-17.843488367
 20
-11.8201168906
 10
-17.8532711292
 20
-11.8128324595
 10
-17.8629340172
 20
-11.8053955379
 10
-17.8724691368
 20
-11.7978146532
 10
-17.8818660924
 20
-11.7901008018
 10
-17.8911214488
 20
-11.7822596719
 10
-17.9002390482
 20
-11.7742908557
 10
-17.909212072
 20
-11.7662030575
 10
-17.9180349827
 20
-11.7580039466
 10
-17.9267144141
 20
-11.7496900353
 10
-17.9352443511
 20
-11.7412697589
 10
-17.9436196777
 20
-11.7327506677
 10
-17.9518487982
 20
-11.7241264869
 10
-17.9599262851
 20
-11.7154052592
 10
-17.9678473256
 20
-11.706594471
 10
-17.9756210671
 20
-11.6976856543
 10
-17.9832421688
 20
-11.6886867545
 10
-17.9907062716
 20
-11.6796049563
 10
-17.9980231622
 20
-11.670429386
 10
-18.0051877806
 20
-11.6611674139
 10
-18.012195599
 20
-11.6518264556
 10
-18.0190557983
 20
-11.6423945937
 10
-18.0257634387
 20
-11.6328787139
 10
-18.0323136795
 20
-11.6232865724
 10
-18.0387141065
 20
-11.6136067494
 10
-18.0449595657
 20
-11.6038462061
 10
-18.0510451341
 20
-11.5940127435
 10
-18.0569768316
 20
-11.5840958026
 10
-18.0627491474
 20
-11.5741028638
 10
-18.0683572084
 20
-11.564041577
 10
-18.0738059398
 20
-11.5539017056
 10
-18.0790897967
 20
-11.5436908849
 10
-18.0842035691
 20
-11.5334172913
 10
-18.089150556
 20
-11.5230721086
 10
-18.0939264972
 20
-11.5126605138
 10
-18.0985245051
 20
-11.5021942987
 10
-18.102942434
 20
-11.491675713
 10
-18.1071763254
 20
-11.4811108652
 10
-18.1112200651
 20
-11.4705119333
 10
-18.1150680597
 20
-11.4598917516
 10
-18.1187165402
 20
-11.4492595019
 10
-18.1221617133
 20
-11.4386252079
 10
-18.1253985429
 20
-11.4280046277
 10
-18.1284245243
 20
-11.4174074452
 10
-18.1312372921
 20
-11.4068438857
 10
-18.1338328941
 20
-11.3963323144
 10
-18.1362101747
 20
-11.3858829288
 10
-18.13836836
 20
-11.3755059046
 10
-18.1403051541
 20
-11.3652214187
 10
-18.1420210019
 20
-11.3550392821
 10
-18.1435166021
 20
-11.3449704395
 10
-18.1447914516
 20
-11.3350386176
 10
-18.1458477289
 20
-11.3252538111
 10
-18.146688021
 20
-11.315626776
 10
-18.1473143761
 20
-11.3061841481
 10
-18.1477308153
 20
-11.2969420222
 10
-18.1479425566
 20
-11.2879052336
 10
-18.1479736589
 20
-11.2829362931
  0
LWPOLYLINE
  5
2FA
100
AcDbEntity
  8
RACCORDO
100
AcDbPolyline
 62
7
  6
CONTINUOUS
 90
20
 70
0
 10
-19.5294078866
 20
-0.5231923518
 10
-19.5293618938
 20
-0.5233576022
 10
-19.5293868246
 20
-0.52325949
 10
-19.5294776849
 20
-0.5228808288
 10
-19.5296252787
 20
-0.5222201654
 10
-19.5298189861
 20
-0.5212844079
 10
-19.5300501869
 20
-0.5200737883
 10
-19.5303108913
 20
-0.5185866282
 10
-19.5305925921
 20
-0.5168257447
 10
-19.5308874648
 20
-0.5147917505
 10
-19.5311882084
 20
-0.5124828717
 10
-19.531487695
 20
-0.5098966923
 10
-19.5317785907
 20
-0.507033589
 10
-19.5320539194
 20
-0.5038918491
 10
-19.5323071044
 20
-0.5004640084
 10
-19.5325309032
 20
-0.4967500346
 10
-19.5327182949
 20
-0.4927479641
 10
-19.5328625671
 20
-0.4884453738
 10
-19.532956305
 20
-0.483836992
 10
-19.5329920133
 20
-0.4786113447
  0
LWPOLYLINE
  5
2FB
100
AcDbEntity
  8
RACCORDO
100
AcDbPolyline
 62
250
  6
CONTINUOUS
 90
3
 70
0
 10
-20.3860432921
 20
36.7600821547
 10
-20.3768657137
 20
36.6796172931
 10
-20.3737319962
 20
36.6512188659
  0
LINE
  5
2FC
100
AcDbEntity
  8
RACCORDO
100
AcDbLine
 62
250
  6
CONTINUOUS
 10
-19.1809773754
 20
31.4891136068
 11
-19.1646804461
 21
31.3383203814
  0
LWPOLYLINE
  5
2FD
100
AcDbEntity
  8
RACCORDO
100
AcDbPolyline
 62
250
  6
CONTINUOUS
 90
3
 70
0
 10
-19.1646804461
 20
31.3383203814
 10
-19.1491713421
 20
31.1897747648
 10
-19.1417156304
 20
31.1164216788
  0
LINE
  5
2FE
100
AcDbEntity
  8
RACCORDO
100
AcDbLine
 62
250
  6
CONTINUOUS
 10
-20.4169321042
 20
-25.957960046
 11
-20.4220922154
 21
-25.9885748105
  0
LINE
  5
2FF
100
AcDbEntity
  8
RACCORDO
100
AcDbLine
 62
250
  6
CONTINUOUS
 10
-18.3245136613
 20
-12.9563629718
 11
-18.3259208773
 21
-12.9646618026
  0
LINE
  5
300
100
AcDbEntity
  8
RACCORDO
100
AcDbLine
 62
250
  6
CONTINUOUS
 10
-20.4220922154
 20
-25.9885748105
 11
-20.4271262273
 21
-26.0173910751
  0
LINE
  5
301
100
AcDbEntity
  8
RACCORDO
100
AcDbLine
 62
250
  6
CONTINUOUS
 10
-18.323035652
 20
-12.9480604159
 11
-18.3245136613
 21
-12.9563629718
  0
LINE
  5
302
100
AcDbEntity
  8
RACCORDO
100
AcDbLine
 62
250
  6
CONTINUOUS
 10
-20.4271262273
 20
-26.0173910751
 11
-20.4320372937
 21
-26.0444957156
  0
LINE
  5
303
100
AcDbEntity
  8
RACCORDO
100
AcDbLine
 62
250
  6
CONTINUOUS
 10
-18.3214885178
 20
-12.939755204
 11
-18.323035652
 21
-12.9480604159
  0
LINE
  5
304
100
AcDbEntity
  8
RACCORDO
100
AcDbLine
 62
250
  6
CONTINUOUS
 10
-20.4320372937
 20
-26.0444957156
 11
-20.4368259179
 21
-26.0699901054
  0
LINE
  5
305
100
AcDbEntity
  8
RACCORDO
100
AcDbLine
 62
250
  6
CONTINUOUS
 10
-18.3198736302
 20
-12.9314485949
 11
-18.3214885178
 21
-12.939755204
  0
LINE
  5
306
100
AcDbEntity
  8
RACCORDO
100
AcDbLine
 62
250
  6
CONTINUOUS
 10
-20.4368259179
 20
-26.0699901054
 11
-20.4414907059
 21
-26.0939583642
  0
LWPOLYLINE
  5
307
100
AcDbEntity
  8
RACCORDO
100
AcDbPolyline
 62
250
  6
CONTINUOUS
 90
3
 70
0
 10
-19.6941445038
 20
-24.2746334429
 10
-19.7189235888
 20
-24.4003190471
 10
-19.7311991666
 20
-24.4612783763
  0
LINE
  5
308
100
AcDbEntity
  8
RACCORDO
100
AcDbLine
 62
250
  6
CONTINUOUS
 10
-20.4414907059
 20
-26.0939583642
 11
-20.4460336289
 21
-26.1164678685
  0
LINE
  5
309
100
AcDbEntity
  8
RACCORDO
100
AcDbLine
 62
250
  6
CONTINUOUS
 10
-18.3181926409
 20
-12.9231416242
 11
-18.3198736302
 21
-12.9314485949
  0
LWPOLYLINE
  5
30A
100
AcDbEntity
  8
RACCORDO
100
AcDbPolyline
 62
250
  6
CONTINUOUS
 90
3
 70
0
 10
-19.7311991666
 20
-24.4612783763
 10
-19.7555105977
 20
-24.5794236557
 10
-19.7675259696
 20
-24.6365789432
  0
LINE
  5
30B
100
AcDbEntity
  8
RACCORDO
100
AcDbLine
 62
250
  6
CONTINUOUS
 10
-20.4460336289
 20
-26.1164678685
 11
-20.4504599016
 21
-26.1376303247
  0
LINE
  5
30C
100
AcDbEntity
  8
RACCORDO
100
AcDbLine
 62
250
  6
CONTINUOUS
 10
-18.3164471756
 20
-12.9148353182
 11
-18.3181926409
 21
-12.9231416242
  0
LWPOLYLINE
  5
30D
100
AcDbEntity
  8
RACCORDO
100
AcDbPolyline
 62
250
  6
CONTINUOUS
 90
3
 70
0
 10
-19.7675259696
 20
-24.6365789432
 10
-19.7912664613
 20
-24.7470652712
 10
-19.8029727203
 20
-24.8003819696
  0
LINE
  5
30E
100
AcDbEntity
  8
RACCORDO
100
AcDbLine
 62
250
  6
CONTINUOUS
 10
-20.4504599016
 20
-26.1376303247
 11
-20.4547757421
 21
-26.1575481684
  0
LINE
  5
30F
100
AcDbEntity
  8
RACCORDO
100
AcDbLine
 62
250
  6
CONTINUOUS
 10
-18.3146385767
 20
-12.9065308793
 11
-18.3164471756
 21
-12.9148353182
  0
LWPOLYLINE
  5
310
100
AcDbEntity
  8
RACCORDO
100
AcDbPolyline
 62
250
  6
CONTINUOUS
 90
3
 70
0
 10
-19.8029727203
 20
-24.8003819696
 10
-19.8260529753
 20
-24.9032009835
 10
-19.8374126509
 20
-24.9527159618
  0
LINE
  5
311
100
AcDbEntity
  8
RACCORDO
100
AcDbLine
 62
250
  6
CONTINUOUS
 10
-20.4547757421
 20
-26.1575481684
 11
-20.458984979
 21
-26.1762850421
  0
LINE
  5
312
100
AcDbEntity
  8
RACCORDO
100
AcDbLine
 62
250
  6
CONTINUOUS
 10
-18.3127684509
 20
-12.8982292912
 11
-18.3146385767
 21
-12.9065308793
  0
LINE
  5
313
100
AcDbEntity
  8
RACCORDO
100
AcDbLine
 62
250
  6
CONTINUOUS
 10
-19.2427063056
 20
-12.7411896052
 11
-19.2465244782
 21
-12.7578434025
  0
LINE
  5
314
100
AcDbEntity
  8
RACCORDO
100
AcDbLine
 62
250
  6
CONTINUOUS
 10
-18.3108383796
 20
-12.8899315279
 11
-18.3127684509
 21
-12.8982292912
  0
LINE
  5
315
100
AcDbEntity
  8
RACCORDO
100
AcDbLine
 62
250
  6
CONTINUOUS
 10
-20.458984979
 20
-26.1762850421
 11
-20.4630920311
 21
-26.1939272988
  0
LINE
  5
316
100
AcDbEntity
  8
RACCORDO
100
AcDbLine
 62
250
  6
CONTINUOUS
 10
-19.8374126509
 20
-24.9527159618
 11
-19.8597687231
 21
-25.0480054478
  0
LINE
  5
317
100
AcDbEntity
  8
RACCORDO
100
AcDbLine
 62
250
  6
CONTINUOUS
 10
-19.2387662055
 20
-12.724548976
 11
-19.2427063056
 21
-12.7411896052
  0
LINE
  5
318
100
AcDbEntity
  8
RACCORDO
100
AcDbLine
 62
250
  6
CONTINUOUS
 10
-18.3088496753
 20
-12.881638737
 11
-18.3108383796
 21
-12.8899315279
  0
LINE
  5
319
100
AcDbEntity
  8
RACCORDO
100
AcDbLine
 62
250
  6
CONTINUOUS
 10
-20.4630920311
 20
-26.1939272988
 11
-20.4671005025
 21
-26.2105481658
  0
LINE
  5
31A
100
AcDbEntity
  8
RACCORDO
100
AcDbLine
 62
250
  6
CONTINUOUS
 10
-19.8597687231
 20
-25.0480054478
 11
-19.8816144471
 21
-25.1383950743
  0
LINE
  5
31B
100
AcDbEntity
  8
RACCORDO
100
AcDbLine
 62
250
  6
CONTINUOUS
 10
-19.2347055184
 20
-12.7079245155
 11
-19.2387662055
 21
-12.724548976
  0
LINE
  5
31C
100
AcDbEntity
  8
RACCORDO
100
AcDbLine
 62
250
  6
CONTINUOUS
 10
-18.3068039007
 20
-12.8733518548
 11
-18.3088496753
 21
-12.881638737
  0
LINE
  5
31D
100
AcDbEntity
  8
RACCORDO
100
AcDbLine
 62
250
  6
CONTINUOUS
 10
-19.8816144471
 20
-25.1383950743
 11
-19.902925767
 21
-25.224006055
  0
LWPOLYLINE
  5
31E
100
AcDbEntity
  8
RACCORDO
100
AcDbPolyline
 62
250
  6
CONTINUOUS
 90
3
 70
0
 10
-20.4671005025
 20
-26.2105481658
 10
-20.4710124935
 20
-26.2261933528
 10
-20.4729328263
 20
-26.2336726394
  0
LINE
  5
31F
100
AcDbEntity
  8
RACCORDO
100
AcDbLine
 62
250
  6
CONTINUOUS
 10
-19.2305251444
 20
-12.6913182231
 11
-19.2347055184
 21
-12.7079245155
  0
LINE
  5
320
100
AcDbEntity
  8
RACCORDO
100
AcDbLine
 62
250
  6
CONTINUOUS
 10
-18.3047025935
 20
-12.8650718067
 11
-18.3068039007
 21
-12.8733518548
  0
LINE
  5
321
100
AcDbEntity
  8
RACCORDO
100
AcDbLine
 62
250
  6
CONTINUOUS
 10
-19.902925767
 20
-25.224006055
 11
-19.9236960968
 21
-25.3049436434
  0
LINE
  5
322
100
AcDbEntity
  8
RACCORDO
100
AcDbLine
 62
250
  6
CONTINUOUS
 10
-19.2262264436
 20
-12.6747330969
 11
-19.2305251444
 21
-12.6913182231
  0
LINE
  5
323
100
AcDbEntity
  8
RACCORDO
100
AcDbLine
 62
250
  6
CONTINUOUS
 10
-18.3025470363
 20
-12.8567996878
 11
-18.3047025935
 21
-12.8650718067
  0
LWPOLYLINE
  5
324
100
AcDbEntity
  8
RACCORDO
100
AcDbPolyline
 62
250
  6
CONTINUOUS
 90
107
 70
0
 10
-20.4729328263
 20
-26.2336726394
 10
-20.4767027926
 20
-26.2479620238
 10
-20.4785525901
 20
-26.2547899103
 10
-20.4803791979
 20
-26.2614069903
 10
-20.4821832135
 20
-26.2678309035
 10
-20.483964576
 20
-26.2740618365
 10
-20.4857235883
 20
-26.2801001048
 10
-20.4874613744
 20
-26.285963505
 10
-20.48917783
 20
-26.2916522032
 10
-20.4908732815
 20
-26.2971664784
 10
-20.4925494753
 20
-26.3025242537
 10
-20.4942065951
 20
-26.3077266315
 10
-20.4958446528
 20
-26.3127728922
 10
-20.4974651129
 20
-26.3176781835
 10
-20.4990686591
 20
-26.3224448101
 10
-20.5006547807
 20
-26.3270707984
 10
-20.5022231388
 20
-26.331564857
 10
-20.5037739647
 20
-26.3359276388
 10
-20.5053071994
 20
-26.3401588069
 10
-20.5068220681
 20
-26.3442655812
 10
-20.508317905
 20
-26.348246355
 10
-20.5097955524
 20
-26.3521030445
 10
-20.5112564893
 20
-26.3558481388
 10
-20.5127003502
 20
-26.3594812294
 10
-20.5141276558
 20
-26.3630029921
 10
-20.5155411897
 20
-26.3664275052
 10
-20.5169419026
 20
-26.3697574127
 10
-20.5183289647
 20
-26.3729902799
 10
-20.5197024724
 20
-26.3761325418
 10
-20.5210631076
 20
-26.3791856781
 10
-20.5224103058
 20
-26.382148406
 10
-20.5237422966
 20
-26.3850230207
 10
-20.5250580909
 20
-26.3878074551
 10
-20.5263588114
 20
-26.3905039884
 10
-20.5276458536
 20
-26.393121431
 10
-20.5289191454
 20
-26.3956599765
 10
-20.5301788733
 20
-26.3981196114
 10
-20.5314268043
 20
-26.4005088112
 10
-20.532663282
 20
-26.4028285031
 10
-20.533888058
 20
-26.4050779093
 10
-20.5351019972
 20
-26.4072629289
 10
-20.5363054358
 20
-26.4093842856
 10
-20.5374981231
 20
-26.4114413881
 10
-20.5386800383
 20
-26.4134381551
 10
-20.5398511723
 20
-26.4153746372
 10
-20.5410116183
 20
-26.4172509107
 10
-20.542161506
 20
-26.4190709289
 10
-20.5433007621
 20
-26.4208346752
 10
-20.5444295406
 20
-26.4225422853
 10
-20.5455483081
 20
-26.4241979356
 10
-20.5466570407
 20
-26.4258017194
 10
-20.5477558368
 20
-26.427353652
 10
-20.5488453403
 20
-26.4288577841
 10
-20.5499256028
 20
-26.4303143155
 10
-20.5509966402
 20
-26.4317231435
 10
-20.5520590364
 20
-26.4330878583
 10
-20.5531128319
 20
-26.4344086271
 10
-20.5541580476
 20
-26.4356853701
 10
-20.5551952335
 20
-26.4369212988
 10
-20.5562243564
 20
-26.4381164929
 10
-20.5572455055
 20
-26.4392709517
 10
-20.5582594084
 20
-26.4403877593
 10
-20.5592661125
 20
-26.4414670853
 10
-20.5602656198
 20
-26.4425088294
 10
-20.5612585841
 20
-26.4435156636
 10
-20.5622454557
 20
-26.4444880743
 10
-20.5632258272
 20
-26.4454256355
 10
-20.5641990654
 20
-26.4463296493
 10
-20.5651655624
 20
-26.4472003827
 10
-20.5661249724
 20
-26.4480376317
 10
-20.5670755615
 20
-26.4488419989
 10
-20.5680173392
 20
-26.4496133595
 10
-20.5689503532
 20
-26.4503519123
 10
-20.5698729369
 20
-26.4510587566
 10
-20.5707847912
 20
-26.4517336064
 10
-20.5716862818
 20
-26.4523768305
 10
-20.5725767451
 20
-26.4529905163
 10
-20.5734559518
 20
-26.4535745458
 10
-20.5743241992
 20
-26.4541291197
 10
-20.575181614
 20
-26.4546568033
 10
-20.5760281796
 20
-26.4551576679
 10
-20.5768639767
 20
-26.4556317189
 10
-20.5776892757
 20
-26.4560814202
 10
-20.5785041033
 20
-26.4565068702
 10
-20.5793084927
 20
-26.4569080413
 10
-20.5801027216
 20
-26.4572872048
 10
-20.5808867742
 20
-26.4576444391
 10
-20.5816607222
 20
-26.4579797312
 10
-20.582424971
 20
-26.4582952129
 10
-20.583179279
 20
-26.4585909034
 10
-20.5839239398
 20
-26.4588668434
 10
-20.5846601561
 20
-26.4591251904
 10
-20.5853880121
 20
-26.4593661024
 10
-20.5861074669
 20
-26.459589471
 10
-20.58681953
 20
-26.4597970473
 10
-20.5875242832
 20
-26.4599889584
 10
-20.5882216814
 20
-26.4601651191
 10
-20.5889125388
 20
-26.4603269564
 10
-20.5895969799
 20
-26.4604745757
 10
-20.5902749115
 20
-26.4606079076
 10
-20.5909468179
 20
-26.4607281128
 10
-20.5916126949
 20
-26.460835253
 10
-20.5922725751
 20
-26.4609292989
 10
-20.5929269945
 20
-26.4610112717
 10
-20.5935761398
 20
-26.4610815209
 10
-20.5942198492
 20
-26.4611397252
 10
-20.5948581353
 20
-26.4611858987
  0
LINE
  5
325
100
AcDbEntity
  8
RACCORDO
100
AcDbLine
 62
250
  6
CONTINUOUS
 10
-19.9236960968
 20
-25.3049436434
 11
-19.9439172699
 21
-25.3813950052
  0
LINE
  5
326
100
AcDbEntity
  8
RACCORDO
100
AcDbLine
 62
250
  6
CONTINUOUS
 10
-19.2218108056
 20
-12.6581721257
 11
-19.2262264436
 21
-12.6747330969
  0
LINE
  5
327
100
AcDbEntity
  8
RACCORDO
100
AcDbLine
 62
250
  6
CONTINUOUS
 10
-18.3003387482
 20
-12.8485363881
 11
-18.3025470363
 21
-12.8567996878
  0
LINE
  5
328
100
AcDbEntity
  8
RACCORDO
100
AcDbLine
 62
250
  6
CONTINUOUS
 10
-19.9439172699
 20
-25.3813950052
 11
-19.9635879153
 21
-25.4535611225
  0
LINE
  5
329
100
AcDbEntity
  8
RACCORDO
100
AcDbLine
 62
250
  6
CONTINUOUS
 10
-18.2980792236
 20
-12.8402827852
 11
-18.3003387482
 21
-12.8485363881
  0
LINE
  5
32A
100
AcDbEntity
  8
RACCORDO
100
AcDbLine
 62
250
  6
CONTINUOUS
 10
-19.2172791639
 20
-12.6416373018
 11
-19.2218108056
 21
-12.6581721257
  0
LINE
  5
32B
100
AcDbEntity
  8
RACCORDO
100
AcDbLine
 62
250
  6
CONTINUOUS
 10
-18.2957697147
 20
-12.8320399234
 11
-18.2980792236
 21
-12.8402827852
  0
LINE
  5
32C
100
AcDbEntity
  8
RACCORDO
100
AcDbLine
 62
250
  6
CONTINUOUS
 10
-19.212632928
 20
-12.6251316102
 11
-19.2172791639
 21
-12.6416373018
  0
LINE
  5
32D
100
AcDbEntity
  8
RACCORDO
100
AcDbLine
 62
250
  6
CONTINUOUS
 10
-19.9635879153
 20
-25.4535611225
 11
-19.9827080804
 21
-25.5215695214
  0
LINE
  5
32E
100
AcDbEntity
  8
RACCORDO
100
AcDbLine
 62
250
  6
CONTINUOUS
 10
-18.2934116972
 20
-12.8238086468
 11
-18.2957697147
 21
-12.8320399234
  0
LINE
  5
32F
100
AcDbEntity
  8
RACCORDO
100
AcDbLine
 62
250
  6
CONTINUOUS
 10
-19.2078735446
 20
-12.6086580495
 11
-19.212632928
 21
-12.6251316102
  0
LWPOLYLINE
  5
330
100
AcDbEntity
  8
RACCORDO
100
AcDbPolyline
 62
250
  6
CONTINUOUS
 90
4
 70
0
 10
-19.9827080804
 20
-25.5215695214
 10
-20.0012670886
 20
-25.5855854769
 10
-20.0103422972
 20
-25.6161795043
 10
-20.01928337
 20
-25.6458601666
  0
LINE
  5
331
100
AcDbEntity
  8
RACCORDO
100
AcDbLine
 62
250
  6
CONTINUOUS
 10
-18.2910066266
 20
-12.8155898004
 11
-18.2934116972
 21
-12.8238086468
  0
LINE
  5
332
100
AcDbEntity
  8
RACCORDO
100
AcDbLine
 62
250
  6
CONTINUOUS
 10
-19.2030019849
 20
-12.5922186168
 11
-19.2078735446
 21
-12.6086580495
  0
LINE
  5
333
100
AcDbEntity
  8
RACCORDO
100
AcDbLine
 62
250
  6
CONTINUOUS
 10
-18.2885557279
 20
-12.8073843873
 11
-18.2910066266
 21
-12.8155898004
  0
LINE
  5
334
100
AcDbEntity
  8
RACCORDO
100
AcDbLine
 62
250
  6
CONTINUOUS
 10
-19.1980197176
 20
-12.5758163101
 11
-19.2030019849
 21
-12.5922186168
  0
LINE
  5
335
100
AcDbEntity
  8
RACCORDO
100
AcDbLine
 62
250
  6
CONTINUOUS
 10
-18.2860604397
 20
-12.7991932226
 11
-18.2885557279
 21
-12.8073843873
  0
LINE
  5
336
100
AcDbEntity
  8
RACCORDO
100
AcDbLine
 62
250
  6
CONTINUOUS
 10
-18.2835221785
 20
-12.7910171113
 11
-18.2860604397
 21
-12.7991932226
  0
LINE
  5
337
100
AcDbEntity
  8
RACCORDO
100
AcDbLine
 62
250
  6
CONTINUOUS
 10
-19.1929282418
 20
-12.5594541132
 11
-19.1980197176
 21
-12.5758163101
  0
LINE
  5
338
100
AcDbEntity
  8
RACCORDO
100
AcDbLine
 62
250
  6
CONTINUOUS
 10
-18.2809421417
 20
-12.7828570113
 11
-18.2835221785
 21
-12.7910171113
  0
LINE
  5
339
100
AcDbEntity
  8
RACCORDO
100
AcDbLine
 62
250
  6
CONTINUOUS
 10
-19.1877285642
 20
-12.5431340141
 11
-19.1929282418
 21
-12.5594541132
  0
LINE
  5
33A
100
AcDbEntity
  8
RACCORDO
100
AcDbLine
 62
250
  6
CONTINUOUS
 10
-18.2783217288
 20
-12.7747136985
 11
-18.2809421417
 21
-12.7828570113
  0
LINE
  5
33B
100
AcDbEntity
  8
RACCORDO
100
AcDbLine
 62
250
  6
CONTINUOUS
 10
-19.1824222055
 20
-12.5268589928
 11
-19.1877285642
 21
-12.5431340141
  0
LINE
  5
33C
100
AcDbEntity
  8
RACCORDO
100
AcDbLine
 62
250
  6
CONTINUOUS
 10
-18.2756623184
 20
-12.7665879404
 11
-18.2783217288
 21
-12.7747136985
  0
LINE
  5
33D
100
AcDbEntity
  8
RACCORDO
100
AcDbLine
 62
250
  6
CONTINUOUS
 10
-18.2729650806
 20
-12.7584806513
 11
-18.2756623184
 21
-12.7665879404
  0
LINE
  5
33E
100
AcDbEntity
  8
RACCORDO
100
AcDbLine
 62
250
  6
CONTINUOUS
 10
-19.177010718
 20
-12.5106320154
 11
-19.1824222055
 21
-12.5268589928
  0
LINE
  5
33F
100
AcDbEntity
  8
RACCORDO
100
AcDbLine
 62
250
  6
CONTINUOUS
 10
-18.2702313766
 20
-12.7503925683
 11
-18.2729650806
 21
-12.7584806513
  0
LINE
  5
340
100
AcDbEntity
  8
RACCORDO
100
AcDbLine
 62
250
  6
CONTINUOUS
 10
-19.1714951431
 20
-12.4944550554
 11
-19.177010718
 21
-12.5106320154
  0
LINE
  5
341
100
AcDbEntity
  8
RACCORDO
100
AcDbLine
 62
250
  6
CONTINUOUS
 10
-18.2674625478
 20
-12.7423244225
 11
-18.2702313766
 21
-12.7503925683
  0
LINE
  5
342
100
AcDbEntity
  8
RACCORDO
100
AcDbLine
 62
250
  6
CONTINUOUS
 10
-18.2646597376
 20
-12.7342770873
 11
-18.2674625478
 21
-12.7423244225
  0
LINE
  5
343
100
AcDbEntity
  8
RACCORDO
100
AcDbLine
 62
250
  6
CONTINUOUS
 10
-19.1658770525
 20
-12.4783310677
 11
-19.1714951431
 21
-12.4944550554
  0
LINE
  5
344
100
AcDbEntity
  8
RACCORDO
100
AcDbLine
 62
250
  6
CONTINUOUS
 10
-18.2618242718
 20
-12.7262512683
 11
-18.2646597376
 21
-12.7342770873
  0
LINE
  5
345
100
AcDbEntity
  8
RACCORDO
100
AcDbLine
 62
250
  6
CONTINUOUS
 10
-19.1601580501
 20
-12.4622629924
 11
-19.1658770525
 21
-12.4783310677
  0
LINE
  5
346
100
AcDbEntity
  8
RACCORDO
100
AcDbLine
 62
250
  6
CONTINUOUS
 10
-18.2575125988
 20
-12.7142544902
 11
-18.2618242718
 21
-12.7262512683
  0
LINE
  5
347
100
AcDbEntity
  8
RACCORDO
100
AcDbLine
 62
250
  6
CONTINUOUS
 10
-19.1543392124
 20
-12.4462527872
 11
-19.1601580501
 21
-12.4622629924
  0
LINE
  5
348
100
AcDbEntity
  8
RACCORDO
100
AcDbLine
 62
250
  6
CONTINUOUS
 10
-18.2531344225
 20
-12.7023102716
 11
-18.2575125988
 21
-12.7142544902
  0
LINE
  5
349
100
AcDbEntity
  8
RACCORDO
100
AcDbLine
 62
250
  6
CONTINUOUS
 10
-19.1484221651
 20
-12.4303033863
 11
-19.1543392124
 21
-12.4462527872
  0
LINE
  5
34A
100
AcDbEntity
  8
RACCORDO
100
AcDbLine
 62
250
  6
CONTINUOUS
 10
-18.2486938545
 20
-12.6904210121
 11
-18.2531344225
 21
-12.7023102716
  0
LINE
  5
34B
100
AcDbEntity
  8
RACCORDO
100
AcDbLine
 62
250
  6
CONTINUOUS
 10
-19.1424085647
 20
-12.4144177029
 11
-19.1484221651
 21
-12.4303033863
  0
LINE
  5
34C
100
AcDbEntity
  8
RACCORDO
100
AcDbLine
 62
250
  6
CONTINUOUS
 10
-18.2441949546
 20
-12.6785890586
 11
-18.2486938545
 21
-12.6904210121
  0
LINE
  5
34D
100
AcDbEntity
  8
RACCORDO
100
AcDbLine
 62
250
  6
CONTINUOUS
 10
-19.1362995217
 20
-12.3985976735
 11
-19.1424085647
 21
-12.4144177029
  0
LINE
  5
34E
100
AcDbEntity
  8
RACCORDO
100
AcDbLine
 62
250
  6
CONTINUOUS
 10
-18.2396417403
 20
-12.6668167272
 11
-18.2441949546
 21
-12.6785890586
  0
LINE
  5
34F
100
AcDbEntity
  8
RACCORDO
100
AcDbLine
 62
250
  6
CONTINUOUS
 10
-18.2350381819
 20
-12.6551062845
 11
-18.2396417403
 21
-12.6668167272
  0
LINE
  5
350
100
AcDbEntity
  8
RACCORDO
100
AcDbLine
 62
250
  6
CONTINUOUS
 10
-19.1300967121
 20
-12.3828461972
 11
-19.1362995217
 21
-12.3985976735
  0
LINE
  5
351
100
AcDbEntity
  8
RACCORDO
100
AcDbLine
 62
250
  6
CONTINUOUS
 10
-18.2303881961
 20
-12.6434599327
 11
-18.2350381819
 21
-12.6551062845
  0
LINE
  5
352
100
AcDbEntity
  8
RACCORDO
100
AcDbLine
 62
250
  6
CONTINUOUS
 10
-19.1238018376
 20
-12.3671661384
 11
-19.1300967121
 21
-12.3828461972
  0
LINE
  5
353
100
AcDbEntity
  8
RACCORDO
100
AcDbLine
 62
250
  6
CONTINUOUS
 10
-18.2256956484
 20
-12.6318798163
 11
-18.2303881961
 21
-12.6434599327
  0
LINE
  5
354
100
AcDbEntity
  8
RACCORDO
100
AcDbLine
 62
250
  6
CONTINUOUS
 10
-19.1174160405
 20
-12.3515594056
 11
-19.1238018376
 21
-12.3671661384
  0
LINE
  5
355
100
AcDbEntity
  8
RACCORDO
100
AcDbLine
 62
250
  6
CONTINUOUS
 10
-18.2209643503
 20
-12.6203680156
 11
-18.2256956484
 21
-12.6318798163
  0
LINE
  5
356
100
AcDbEntity
  8
RACCORDO
100
AcDbLine
 62
250
  6
CONTINUOUS
 10
-18.2161980636
 20
-12.6089265607
 11
-18.2209643503
 21
-12.6203680156
  0
LINE
  5
357
100
AcDbEntity
  8
RACCORDO
100
AcDbLine
 62
250
  6
CONTINUOUS
 10
-19.1109410448
 20
-12.3360288551
 11
-19.1174160405
 21
-12.3515594056
  0
LWPOLYLINE
  5
358
100
AcDbEntity
  8
RACCORDO
100
AcDbPolyline
 62
250
  6
CONTINUOUS
 90
3
 70
0
 10
-18.2097950346
 20
-12.5937841623
 10
-18.2114005129
 20
-12.5975574567
 10
-18.2161980636
 20
-12.6089265607
  0
LINE
  5
359
100
AcDbEntity
  8
RACCORDO
100
AcDbLine
 62
250
  6
CONTINUOUS
 10
-19.1043786136
 20
-12.3205773396
 11
-19.1109410448
 21
-12.3360288551
  0
LINE
  5
35A
100
AcDbEntity
  8
RACCORDO
100
AcDbLine
 62
250
  6
CONTINUOUS
 10
-19.0977299271
 20
-12.3052067512
 11
-19.1043786136
 21
-12.3205773396
  0
LINE
  5
35B
100
AcDbEntity
  8
RACCORDO
100
AcDbLine
 62
250
  6
CONTINUOUS
 10
-19.0909967651
 20
-12.2899199186
 11
-19.0977299271
 21
-12.3052067512
  0
LINE
  5
35C
100
AcDbEntity
  8
RACCORDO
100
AcDbLine
 62
250
  6
CONTINUOUS
 10
-19.0841809317
 20
-12.2747196298
 11
-19.0909967651
 21
-12.2899199186
  0
LINE
  5
35D
100
AcDbEntity
  8
RACCORDO
100
AcDbLine
 62
250
  6
CONTINUOUS
 10
-19.0772836355
 20
-12.2596077362
 11
-19.0841809317
 21
-12.2747196298
  0
LINE
  5
35E
100
AcDbEntity
  8
RACCORDO
100
AcDbLine
 62
250
  6
CONTINUOUS
 10
-19.0703066986
 20
-12.2445870055
 11
-19.0772836355
 21
-12.2596077362
  0
LINE
  5
35F
100
AcDbEntity
  8
RACCORDO
100
AcDbLine
 62
250
  6
CONTINUOUS
 10
-19.0632519636
 20
-12.2296601563
 11
-19.0703066986
 21
-12.2445870055
  0
LINE
  5
360
100
AcDbEntity
  8
RACCORDO
100
AcDbLine
 62
250
  6
CONTINUOUS
 10
-19.0561206662
 20
-12.2148289969
 11
-19.0632519636
 21
-12.2296601563
  0
LINE
  5
361
100
AcDbEntity
  8
RACCORDO
100
AcDbLine
 62
250
  6
CONTINUOUS
 10
-20.4839645628
 20
37.3903787505
 11
-20.4803791841
 21
37.3740725347
  0
LINE
  5
362
100
AcDbEntity
  8
RACCORDO
100
AcDbLine
 62
250
  6
CONTINUOUS
 10
-19.8597687598
 20
35.8083473713
 11
-19.8374127477
 21
35.7045955691
  0
LINE
  5
363
100
AcDbEntity
  8
RACCORDO
100
AcDbLine
 62
250
  6
CONTINUOUS
 10
-20.4803791841
 20
37.3740725347
 11
-20.4767027782
 21
37.3568616542
  0
LINE
  5
364
100
AcDbEntity
  8
RACCORDO
100
AcDbLine
 62
250
  6
CONTINUOUS
 10
-19.8374127477
 20
35.7045955691
 11
-19.814573337
 21
35.5961604638
  0
LINE
  5
365
100
AcDbEntity
  8
RACCORDO
100
AcDbLine
 62
250
  6
CONTINUOUS
 10
-20.4767027782
 20
37.3568616542
 11
-20.4729328112
 21
37.338686946
  0
LINE
  5
366
100
AcDbEntity
  8
RACCORDO
100
AcDbLine
 62
250
  6
CONTINUOUS
 10
-19.814573337
 20
35.5961604638
 11
-19.7912665257
 21
35.4830363485
  0
LINE
  5
367
100
AcDbEntity
  8
RACCORDO
100
AcDbLine
 62
250
  6
CONTINUOUS
 10
-19.7912665257
 20
35.4830363485
 11
-19.767526037
 21
35.3652235747
  0
LINE
  5
368
100
AcDbEntity
  8
RACCORDO
100
AcDbLine
 62
250
  6
CONTINUOUS
 10
-20.4729328112
 20
37.338686946
 11
-20.4690684287
 21
37.3194915072
  0
LINE
  5
369
100
AcDbEntity
  8
RACCORDO
100
AcDbLine
 62
250
  6
CONTINUOUS
 10
-19.767526037
 20
35.3652235747
 11
-19.7434021568
 21
35.2428209069
  0
LINE
  5
36A
100
AcDbEntity
  8
RACCORDO
100
AcDbLine
 62
250
  6
CONTINUOUS
 10
-20.4690684287
 20
37.3194915072
 11
-20.4651083277
 21
37.2992350785
  0
LWPOLYLINE
  5
36B
100
AcDbEntity
  8
RACCORDO
100
AcDbPolyline
 62
250
  6
CONTINUOUS
 90
21
 70
0
 10
-18.458728094
 20
24.7478267201
 10
-18.4606839401
 20
24.7579192848
 10
-18.4622718432
 20
24.7679298762
 10
-18.4634906336
 20
24.7778511195
 10
-18.4643394133
 20
24.7876757053
 10
-18.464817557
 20
24.7973963958
 10
-18.4649247124
 20
24.8070060295
 10
-18.4646608006
 20
24.8164975268
 10
-18.4640260161
 20
24.8258638951
 10
-18.4630208264
 20
24.8350982341
 10
-18.4616459721
 20
24.8441937407
 10
-18.4599024662
 20
24.8531437139
 10
-18.457791593
 20
24.8619415602
 10
-18.4553149077
 20
24.8705807981
 10
-18.452474235
 20
24.8790550628
 10
-18.4492716675
 20
24.8873581111
 10
-18.4457095648
 20
24.8954838262
 10
-18.441790551
 20
24.9034262215
 10
-18.4375175134
 20
24.9111794458
 10
-18.4328936
 20
24.9187377871
 10
-18.4304576461
 20
24.9223431182
  0
LINE
  5
36C
100
AcDbEntity
  8
RACCORDO
100
AcDbLine
 62
250
  6
CONTINUOUS
 10
-19.7434021568
 20
35.2428209069
 11
-19.718923658
 21
35.1159108475
  0
LWPOLYLINE
  5
36D
100
AcDbEntity
  8
RACCORDO
100
AcDbPolyline
 62
250
  6
CONTINUOUS
 90
107
 70
0
 10
-18.3285164127
 20
25.1149231162
 10
-18.3278950514
 20
25.1116582903
 10
-18.3272551757
 20
25.1084166021
 10
-18.3265968841
 20
25.1051981083
 10
-18.3259201745
 20
25.1020028427
 10
-18.3252252475
 20
25.0988308793
 10
-18.3245125041
 20
25.0956823338
 10
-18.3237820455
 20
25.0925572558
 10
-18.3230339691
 20
25.0894556948
 10
-18.3222686697
 20
25.086377766
 10
-18.3214862496
 20
25.0833235187
 10
-18.3206868055
 20
25.0802929937
 10
-18.3198707222
 20
25.0772862921
 10
-18.319038101
 20
25.0743034553
 10
-18.3181890397
 20
25.0713445237
 10
-18.3173239166
 20
25.0684095972
 10
-18.3164428333
 20
25.0654987148
 10
-18.3155458873
 20
25.062611911
 10
-18.3146334489
 20
25.0597492789
 10
-18.3137056194
 20
25.0569108526
 10
-18.3127624963
 20
25.0540966637
 10
-18.311804443
 20
25.0513068011
 10
-18.3108315608
 20
25.0485412954
 10
-18.3098439471
 20
25.0458001741
 10
-18.308841958
 20
25.0430835212
 10
-18.3078256944
 20
25.0403913636
 10
-18.3067952539
 20
25.0377237251
 10
-18.3057509855
 20
25.0350806855
 10
-18.3046929901
 20
25.0324622682
 10
-18.3036213649
 20
25.0298684934
 10
-18.3025364521
 20
25.0272994365
 10
-18.3014383523
 20
25.0247551173
 10
-18.3003271625
 20
25.0222355525
 10
-18.2992032184
 20
25.019740814
 10
-18.2980666202
 20
25.0172709178
 10
-18.2969174645
 20
25.0148258777
 10
-18.2957560809
 20
25.0124057618
 10
-18.2945825691
 20
25.0100105831
 10
-18.2933970257
 20
25.007640352
 10
-18.2921997739
 20
25.0052951334
 10
-18.2909909131
 20
25.0029749372
 10
-18.2897705398
 20
25.0006797706
 10
-18.2885389708
 20
24.9984096951
 10
-18.2872963054
 20
24.9961647175
 10
-18.2860426395
 20
24.9939448419
 10
-18.2847782842
 20
24.9917501268
 10
-18.2835033383
 20
24.9895805757
 10
-18.2822178973
 20
24.9874361901
 10
-18.2809222664
 20
24.9853170249
 10
-18.2796165438
 20
24.9832230808
 10
-18.2783008248
 20
24.9811543565
 10
-18.2769754091
 20
24.979110904
 10
-18.2756403942
 20
24.9770927212
 10
-18.2742958752
 20
24.9750998041
 10
-18.2729421463
 20
24.9731322023
 10
-18.2715793048
 20
24.971189911
 10
-18.2702074454
 20
24.9692729235
 10
-18.2688268569
 20
24.9673812865
 10
-18.2674376361
 20
24.9655149928
 10
-18.2660398773
 20
24.963674033
 10
-18.2646338638
 20
24.961858451
 10
-18.2632196922
 20
24.960068237
 10
-18.2617974561
 20
24.958303379
 10
-18.2603674337
 20
24.9565639183
 10
-18.2589297209
 20
24.9548498426
 10
-18.257484411
 20
24.9531611375
 10
-18.2560317768
 20
24.9514978412
 10
-18.2545719132
 20
24.9498599388
 10
-18.2531049133
 20
24.9482474139
 10
-18.2516310456
 20
24.946660303
 10
-18.2501504044
 20
24.9450985887
 10
-18.2486630825
 20
24.9435622524
 10
-18.2471693441
 20
24.942051329
 10
-18.2456692838
 20
24.9405657992
 10
-18.2441629931
 20
24.9391056418
 10
-18.2426507316
 20
24.9376708889
 10
-18.2411325931
 20
24.936261519
 10
-18.2396086689
 20
24.9348775087
 10
-18.2380792135
 20
24.9335188877
 10
-18.2365443202
 20
24.9321856323
 10
-18.2350040798
 20
24.9308777169
 10
-18.2334587422
 20
24.9295951688
 10
-18.2319084002
 20
24.9283379625
 10
-18.2303531438
 20
24.9271060701
 10
-18.2287932179
 20
24.9258995163
 10
-18.2272287143
 20
24.9247182732
 10
-18.2256597229
 20
24.9235623114
 10
-18.2240864849
 20
24.922431654
 10
-18.2225090915
 20
24.9213262712
 10
-18.2209276322
 20
24.9202461316
 10
-18.2193423451
 20
24.9191912571
 10
-18.2177533213
 20
24.9181616161
 10
-18.2161606494
 20
24.9171571751
 10
-18.214564563
 20
24.9161779536
 10
-18.2129651526
 20
24.915223918
 10
-18.2113625063
 20
24.9142950331
 10
-18.2097568532
 20
24.9133913159
 10
-18.2081482832
 20
24.9125127311
 10
-18.2065368837
 20
24.9116592416
 10
-18.2049228797
 20
24.9108308623
 10
-18.2033063607
 20
24.9100275562
 10
-18.2016874132
 20
24.9092492844
 10
-18.2000662573
 20
24.9084960594
 10
-18.1984429811
 20
24.9077678421
 10
-18.1968176713
 20
24.9070645923
 10
-18.1951905453
 20
24.9063863212
 10
-18.1944371283
 20
24.9060809444
  0
LWPOLYLINE
  5
36E
100
AcDbEntity
  8
RACCORDO
100
AcDbPolyline
 62
250
  6
CONTINUOUS
 90
200
 70
0
 10
-19.2789674027
 20
24.9083739855
 10
-19.2777489376
 20
24.9019139813
 10
-19.2764971053
 20
24.8955011056
 10
-19.2752117761
 20
24.889135224
 10
-19.2738930797
 20
24.8828164708
 10
-19.2725414054
 20
24.8765452486
 10
-19.27115675
 20
24.8703215582
 10
-19.2697391167
 20
24.8641453988
 10
-19.2682889049
 20
24.8580171712
 10
-19.2668061131
 20
24.8519368842
 10
-19.2652907427
 20
24.845904529
 10
-19.2637431972
 20
24.8399204794
 10
-19.2621634733
 20
24.8339847364
 10
-19.2605515742
 20
24.8280972991
 10
-19.2589079135
 20
24.8222585383
 10
-19.2572324887
 20
24.816468459
 10
-19.2555253023
 20
24.8107270563
 10
-19.2537867749
 20
24.8050346862
 10
-19.2520169036
 20
24.7993913522
 10
-19.2502156914
 20
24.7937970509
 10
-19.2483835676
 20
24.788252128
 10
-19.2465205295
 20
24.7827565877
 10
-19.2446265799
 20
24.7773104259
 10
-19.2427021565
 20
24.7719139753
 10
-19.2407472564
 20
24.7665672403
 10
-19.2387618824
 20
24.7612702166
 10
-19.2367464808
 20
24.7560232245
 10
-19.2347010488
 20
24.7508262685
 10
-19.2326255892
 20
24.745679344
 10
-19.2305205566
 20
24.7405827576
 10
-19.2283859481
 20
24.7355365137
 10
-19.2262217667
 20
24.730540608
 10
-19.2240284755
 20
24.725595333
 10
-19.2218060716
 20
24.7207006934
 10
-19.219554558
 20
24.7158566846
 10
-19.2172744069
 20
24.7110635858
 10
-19.2149656153
 20
24.7063214017
 10
-19.2126281862
 20
24.7016301276
 10
-19.2102626009
 20
24.6969900283
 10
-19.2078688563
 20
24.692401109
 10
-19.2054469555
 20
24.6878633646
 10
-19.2029973884
 20
24.6833770448
 10
-19.2005201521
 20
24.6789421548
 10
-19.1980152495
 20
24.6745586893
 10
-19.1954831795
 20
24.6702268824
 10
-19.1929239391
 20
24.6659467397
 10
-19.1903375313
 20
24.6617182556
 10
-19.1877244633
 20
24.6575416476
 10
-19.1850847323
 20
24.6534169212
 10
-19.182418341
 20
24.6493440709
 10
-19.1797258059
 20
24.6453232982
 10
-19.1770071238
 20
24.6413546083
 10
-19.1742622978
 20
24.6374379958
 10
-19.1714918535
 20
24.633573646
 10
-19.1686957878
 20
24.6297615645
 10
-19.1658741038
 20
24.6260017455
 10
-19.1630273356
 20
24.622294357
 10
-19.1601554805
 20
24.6186394048
 10
-19.1572585414
 20
24.615036883
 10
-19.1543370608
 20
24.6114869412
 10
-19.1513910361
 20
24.6079895855
 10
-19.1484204699
 20
24.6045448099
 10
-19.1454259132
 20
24.6011527455
 10
-19.1424073635
 20
24.5978133987
 10
-19.1393648233
 20
24.5945267631
 10
-19.1362988511
 20
24.5912929506
 10
-19.1332094437
 20
24.5881119669
 10
-19.1300966044
 20
24.5849838061
 10
-19.1269609012
 20
24.5819085627
 10
-19.1238023309
 20
24.5788862426
 10
-19.1206208967
 20
24.5759168397
 10
-19.1174171766
 20
24.5730004306
 10
-19.114191168
 20
24.570137022
 10
-19.1109428735
 20
24.5673266071
 10
-19.1076728784
 20
24.5645692421
 10
-19.1043811802
 20
24.5618649336
 10
-19.1010677814
 20
24.559213675
 10
-19.0977332747
 20
24.5566155016
 10
-19.0943776577
 20
24.5540704205
 10
-19.0910009327
 20
24.5515784247
 10
-19.0876036997
 20
24.5491395291
 10
-19.0841859567
 20
24.546753741
 10
-19.0807477056
 20
24.5444210531
 10
-19.0772895526
 20
24.5421414592
 10
-19.0738114947
 20
24.5399149657
 10
-19.0703135348
 20
24.5377415661
 10
-19.0667962882
 20
24.5356212346
 10
-19.0632597516
 20
24.5335539776
 10
-19.0597039283
 20
24.5315397886
 10
-19.0561294432
 20
24.5295786221
 10
-19.0525362941
 20
24.5276704854
 10
-19.0489244832
 20
24.5258153711
 10
-19.0452946416
 20
24.5240132119
 10
-19.0416467674
 20
24.5222640151
 10
-19.0379808624
 20
24.5205677732
 10
-19.0342975634
 20
24.5189243969
 10
-19.0305968686
 20
24.5173338933
 10
-19.0268787798
 20
24.5157962552
 10
-19.0231439397
 20
24.5143113711
 10
-19.019392347
 20
24.5128792486
 10
-19.015624003
 20
24.5114998801
 10
-19.0118395542
 20
24.5101731317
 10
-19.0080389978
 20
24.5088990103
 10
-19.0042223366
 20
24.5076775089
 10
-19.0003902263
 20
24.5065084728
 10
-18.9965426636
 20
24.5053919091
 10
-18.9926796518
 20
24.5043278106
 10
-18.9888018569
 20
24.5033160017
 10
-18.9849092778
 20
24.50235649
 10
-18.9810019156
 20
24.5014492678
 10
-18.9770804399
 20
24.5005941363
 10
-18.97314485
 20
24.4997911032
 10
-18.9691951467
 20
24.4990401608
 10
-18.9652320017
 20
24.4983410871
 10
-18.9612554137
 20
24.4976938897
 10
-18.957265384
 20
24.497098561
 10
-18.9532625886
 20
24.4965548567
 10
-18.9492470273
 20
24.4960627843
 10
-18.9452187003
 20
24.4956223363
 10
-18.9411782846
 20
24.4952332457
 10
-18.9371257778
 20
24.4948955198
 10
-18.9330611823
 20
24.4946091514
 10
-18.9289851819
 20
24.4943738515
 10
-18.9248977721
 20
24.4941896276
 10
-18.9207989575
 20
24.4940564722
 10
-18.9166894361
 20
24.4939740741
 10
-18.9125692068
 20
24.493942441
 10
-18.9084382706
 20
24.4939615653
 10
-18.9042973287
 20
24.4940311125
 10
-18.9001463827
 20
24.4941510904
 10
-18.8959854309
 20
24.4943214912
 10
-18.8918151699
 20
24.4945419579
 10
-18.8876355991
 20
24.4948124981
 10
-18.883446719
 20
24.4951331042
 10
-18.8792492283
 20
24.495503397
 10
-18.8750431268
 20
24.4959233837
 10
-18.8708284146
 20
24.4963930572
 10
-18.8666057897
 20
24.4969120162
 10
-18.8623752527
 20
24.4974802679
 10
-18.858136803
 20
24.4980978053
 10
-18.8538911379
 20
24.4987642058
 10
-18.8496382533
 20
24.4994794775
 10
-18.8453781533
 20
24.5002436124
 10
-18.8411115471
 20
24.5010561644
 10
-18.8368384322
 20
24.5019171414
 10
-18.8325588111
 20
24.5028265354
 10
-18.828273401
 20
24.5037838767
 10
-18.8239822042
 20
24.5047891723
 10
-18.8196852183
 20
24.5058424151
 10
-18.815383154
 20
24.5069431148
 10
-18.8110760124
 20
24.5080912783
 10
-18.8067637922
 20
24.5092868987
 10
-18.8024472005
 20
24.5105294651
 10
-18.7981262373
 20
24.5118189845
 10
-18.7938009025
 20
24.5131554499
 10
-18.7894719028
 20
24.5145383293
 10
-18.7851392411
 20
24.5159676286
 10
-18.7808029145
 20
24.5174433419
 10
-18.7764636206
 20
24.5189649195
 10
-18.7721213544
 20
24.5205323701
 10
-18.7677761209
 20
24.522145685
 10
-18.7634286329
 20
24.5238042881
 10
-18.7590788816
 20
24.5255081902
 10
-18.7547268757
 20
24.5272573804
 10
-18.7503733548
 20
24.5290512497
 10
-18.7460183222
 20
24.5308898043
 10
-18.7416617745
 20
24.532773038
 10
-18.7373044409
 20
24.5347003232
 10
-18.7329463305
 20
24.5366716631
 10
-18.7285874342
 20
24.5386870545
 10
-18.7242284545
 20
24.5407458596
 10
-18.7198693918
 20
24.5428480852
 10
-18.7155102457
 20
24.5449937245
 10
-18.7111517164
 20
24.5471821203
 10
-18.7067938063
 20
24.5494132783
 10
-18.7024365131
 20
24.5516871926
 10
-18.6980805303
 20
24.5540031891
 10
-18.69372586
 20
24.5563612733
 10
-18.6893725001
 20
24.5587614395
 10
-18.685021138
 20
24.5612029967
 10
-18.6806717802
 20
24.5636859474
 10
-18.6763244202
 20
24.566210289
 10
-18.6719797258
 20
24.5687753221
 10
-18.6676376983
 20
24.5713810523
 10
-18.6632983364
 20
24.5740274739
 10
-18.6589623038
 20
24.5767138712
 10
-18.6546295966
 20
24.5794402531
 10
-18.6503002188
 20
24.5822066105
 10
-18.6459748462
 20
24.585012201
 10
-18.6416534789
 20
24.5878570311
 10
-18.6373361169
 20
24.5907410943
 10
-18.6330234356
 20
24.593663628
 10
-18.6287154388
 20
24.5966246365
 10
-18.6244121228
 20
24.5996241157
 10
-18.6201141523
 20
24.6026612904
 10
-18.6158215301
 20
24.6057361653
 10
-18.6115342534
 20
24.6088487358
 10
-18.607252979
 20
24.611998213
 10
-18.6029777103
 20
24.6151846008
 10
-18.5987084439
 20
24.6184078952
  0
LWPOLYLINE
  5
36F
100
AcDbEntity
  8
RACCORDO
100
AcDbPolyline
 62
250
  6
CONTINUOUS
 90
35
 70
0
 10
-18.5987084439
 20
24.6184078952
 10
-18.5944458269
 20
24.6216672952
 10
-18.5901898626
 20
24.6249628044
 10
-18.5859405478
 20
24.6282944192
 10
-18.5816985194
 20
24.631661327
 10
-18.5774637811
 20
24.6350635313
 10
-18.5732363292
 20
24.6385010286
 10
-18.56901679
 20
24.6419729965
 10
-18.5648051671
 20
24.6454794381
 10
-18.5606014568
 20
24.6490203503
 10
-18.5564062749
 20
24.6525949008
 10
-18.5522196261
 20
24.6562030918
 10
-18.5480415057
 20
24.659844921
 10
-18.5438725159
 20
24.6635195499
 10
-18.5397126591
 20
24.6672269824
 10
-18.5355619328
 20
24.6709672147
 10
-18.531420932
 20
24.6747393968
 10
-18.5272896638
 20
24.6785435278
 10
-18.5231681211
 20
24.6823796087
 10
-18.519056877
 20
24.6862467921
 10
-18.5149559325
 20
24.6901450829
 10
-18.5108652866
 20
24.6940744763
 10
-18.5067855101
 20
24.6980341104
 10
-18.5027166043
 20
24.7020239899
 10
-18.4986585678
 20
24.7060441103
 10
-18.4946119679
 20
24.7100935955
 10
-18.4905768377
 20
24.7141724163
 10
-18.486553144
 20
24.7182806019
 10
-18.4825413541
 20
24.7224173642
 10
-18.4785413808
 20
24.7265828016
 10
-18.4745533114
 20
24.7307768156
 10
-18.470577875
 20
24.7349983228
 10
-18.4666153149
 20
24.739246962
 10
-18.4626653879
 20
24.7435230945
 10
-18.4515438992
 20
24.7557412996
  0
LINE
  5
370
100
AcDbEntity
  8
RACCORDO
100
AcDbLine
 62
250
  6
CONTINUOUS
 10
-20.4651083277
 20
37.2992350785
 11
-20.4610512071
 21
37.2778557555
  0
LINE
  5
371
100
AcDbEntity
  8
RACCORDO
100
AcDbLine
 62
250
  6
CONTINUOUS
 10
-19.718923658
 20
35.1159108475
 11
-19.6941445709
 21
34.9846302788
  0
LINE
  5
372
100
AcDbEntity
  8
RACCORDO
100
AcDbLine
 62
250
  6
CONTINUOUS
 10
-19.6941445709
 20
34.9846302788
 11
-19.6691273219
 21
34.8491892309
  0
LINE
  5
373
100
AcDbEntity
  8
RACCORDO
100
AcDbLine
 62
250
  6
CONTINUOUS
 10
-20.4610512071
 20
37.2778557555
 11
-20.4568932101
 21
37.2552706075
  0
LINE
  5
374
100
AcDbEntity
  8
RACCORDO
100
AcDbLine
 62
250
  6
CONTINUOUS
 10
-19.6691273219
 20
34.8491892309
 11
-19.6439098632
 21
34.7097523521
  0
LINE
  5
375
100
AcDbEntity
  8
RACCORDO
100
AcDbLine
 62
250
  6
CONTINUOUS
 10
-20.4568932101
 20
37.2552706075
 11
-20.4526312885
 21
37.2314223529
  0
LINE
  5
376
100
AcDbEntity
  8
RACCORDO
100
AcDbLine
 62
250
  6
CONTINUOUS
 10
-19.6439098632
 20
34.7097523521
 11
-19.6185621125
 21
34.5665907715
  0
LINE
  5
377
100
AcDbEntity
  8
RACCORDO
100
AcDbLine
 62
250
  6
CONTINUOUS
 10
-19.6185621125
 20
34.5665907715
 11
-19.5931561282
 21
34.4200274923
  0
LINE
  5
378
100
AcDbEntity
  8
RACCORDO
100
AcDbLine
 62
250
  6
CONTINUOUS
 10
-20.4526312885
 20
37.2314223529
 11
-20.4482612095
 21
37.2062202574
  0
LINE
  5
379
100
AcDbEntity
  8
RACCORDO
100
AcDbLine
 62
250
  6
CONTINUOUS
 10
-19.5931561282
 20
34.4200274923
 11
-19.5677350055
 21
34.2702914072
  0
LINE
  5
37A
100
AcDbEntity
  8
RACCORDO
100
AcDbLine
 62
250
  6
CONTINUOUS
 10
-20.4482612095
 20
37.2062202574
 11
-20.4437767842
 21
37.1795494007
  0
LINE
  5
37B
100
AcDbEntity
  8
RACCORDO
100
AcDbLine
 62
250
  6
CONTINUOUS
 10
-19.5677350055
 20
34.2702914072
 11
-19.5423728362
 21
34.1177351903
  0
LINE
  5
37C
100
AcDbEntity
  8
RACCORDO
100
AcDbLine
 62
250
  6
CONTINUOUS
 10
-19.5423728362
 20
34.1177351903
 11
-19.5171414436
 21
33.9627405829
  0
LINE
  5
37D
100
AcDbEntity
  8
RACCORDO
100
AcDbLine
 62
250
  6
CONTINUOUS
 10
-20.4437767842
 20
37.1795494007
 11
-20.4391739867
 21
37.1513345938
  0
LINE
  5
37E
100
AcDbEntity
  8
RACCORDO
100
AcDbLine
 62
250
  6
CONTINUOUS
 10
-19.5171414436
 20
33.9627405829
 11
-19.4920843042
 21
33.8055700416
  0
LINE
  5
37F
100
AcDbEntity
  8
RACCORDO
100
AcDbLine
 62
250
  6
CONTINUOUS
 10
-20.4391739867
 20
37.1513345938
 11
-20.4344468345
 21
37.1214526535
  0
LINE
  5
380
100
AcDbEntity
  8
RACCORDO
100
AcDbLine
 62
250
  6
CONTINUOUS
 10
-19.4920843042
 20
33.8055700416
 11
-19.4672739844
 21
33.6466229593
  0
LINE
  5
381
100
AcDbEntity
  8
RACCORDO
100
AcDbLine
 62
250
  6
CONTINUOUS
 10
-20.4344468345
 20
37.1214526535
 11
-20.4295971715
 21
37.0898182956
  0
LINE
  5
382
100
AcDbEntity
  8
RACCORDO
100
AcDbLine
 62
250
  6
CONTINUOUS
 10
-19.4672739844
 20
33.6466229593
 11
-19.4427750175
 21
33.4862899645
  0
LINE
  5
383
100
AcDbEntity
  8
RACCORDO
100
AcDbLine
 62
250
  6
CONTINUOUS
 10
-19.4427750175
 20
33.4862899645
 11
-19.4186268903
 21
33.324832231
  0
LINE
  5
384
100
AcDbEntity
  8
RACCORDO
100
AcDbLine
 62
250
  6
CONTINUOUS
 10
-20.4295971715
 20
37.0898182956
 11
-20.4246243771
 21
37.056365868
  0
LINE
  5
385
100
AcDbEntity
  8
RACCORDO
100
AcDbLine
 62
250
  6
CONTINUOUS
 10
-19.4186268903
 20
33.324832231
 11
-19.3948924271
 21
33.1626364126
  0
LINE
  5
386
100
AcDbEntity
  8
RACCORDO
100
AcDbLine
 62
250
  6
CONTINUOUS
 10
-20.4246243771
 20
37.056365868
 11
-20.419528782
 21
37.0209977731
  0
LINE
  5
387
100
AcDbEntity
  8
RACCORDO
100
AcDbLine
 62
250
  6
CONTINUOUS
 10
-19.3948924271
 20
33.1626364126
 11
-19.3716254659
 21
33.0000669594
  0
LINE
  5
388
100
AcDbEntity
  8
RACCORDO
100
AcDbLine
 62
250
  6
CONTINUOUS
 10
-19.3716254659
 20
33.0000669594
 11
-19.3488595363
 21
32.8373620824
  0
LINE
  5
389
100
AcDbEntity
  8
RACCORDO
100
AcDbLine
 62
250
  6
CONTINUOUS
 10
-20.419528782
 20
37.0209977731
 11
-20.411637841
 21
36.9640070767
  0
LINE
  5
38A
100
AcDbEntity
  8
RACCORDO
100
AcDbLine
 62
250
  6
CONTINUOUS
 10
-19.3488595363
 20
32.8373620824
 11
-19.3266455126
 21
32.6748692303
  0
LINE
  5
38B
100
AcDbEntity
  8
RACCORDO
100
AcDbLine
 62
250
  6
CONTINUOUS
 10
-19.3266455126
 20
32.6748692303
 11
-19.3050248623
 21
32.512902795
  0
LINE
  5
38C
100
AcDbEntity
  8
RACCORDO
100
AcDbLine
 62
250
  6
CONTINUOUS
 10
-20.411637841
 20
36.9640070767
 11
-20.4034305849
 21
36.9018312637
  0
LINE
  5
38D
100
AcDbEntity
  8
RACCORDO
100
AcDbLine
 62
250
  6
CONTINUOUS
 10
-19.3050248623
 20
32.512902795
 11
-19.2840243809
 21
32.351665848
  0
LINE
  5
38E
100
AcDbEntity
  8
RACCORDO
100
AcDbLine
 62
250
  6
CONTINUOUS
 10
-19.2840243809
 20
32.351665848
 11
-19.2636825715
 21
32.191453074
  0
LINE
  5
38F
100
AcDbEntity
  8
RACCORDO
100
AcDbLine
 62
250
  6
CONTINUOUS
 10
-20.4034305849
 20
36.9018312637
 11
-20.3948973012
 21
36.8339886026
  0
LINE
  5
390
100
AcDbEntity
  8
RACCORDO
100
AcDbLine
 62
250
  6
CONTINUOUS
 10
-19.2636825715
 20
32.191453074
 11
-19.2440291902
 21
32.032523924
  0
LINE
  5
391
100
AcDbEntity
  8
RACCORDO
100
AcDbLine
 62
250
  6
CONTINUOUS
 10
-19.2440291902
 20
32.032523924
 11
-19.2250843733
 21
31.8750425905
  0
LINE
  5
392
100
AcDbEntity
  8
RACCORDO
100
AcDbLine
 62
250
  6
CONTINUOUS
 10
-20.3948973012
 20
36.8339886026
 11
-20.3860432921
 21
36.7600821547
  0
LINE
  5
393
100
AcDbEntity
  8
RACCORDO
100
AcDbLine
 62
250
  6
CONTINUOUS
 10
-19.2250843733
 20
31.8750425905
 11
-19.2068744867
 21
31.7192444705
  0
LWPOLYLINE
  5
394
100
AcDbEntity
  8
RACCORDO
100
AcDbPolyline
 62
250
  6
CONTINUOUS
 90
3
 70
0
 10
-19.2068744867
 20
31.7192444705
 10
-19.1894186139
 20
31.5653349705
 10
-19.1809773754
 20
31.4891136068
  0
LWPOLYLINE
  5
395
100
AcDbEntity
  8
RACCORDO
100
AcDbPolyline
 62
250
  6
CONTINUOUS
 90
98
 70
0
 10
-20.01928337
 20
-25.6458601666
 10
-20.0367670194
 20
-25.7025434801
 10
-20.0453130735
 20
-25.7296191208
 10
-20.0537291185
 20
-25.7558489844
 10
-20.0620149919
 20
-25.7812904814
 10
-20.0701692526
 20
-25.8059395087
 10
-20.0781945923
 20
-25.8298011067
 10
-20.086096924
 20
-25.852946308
 10
-20.0938767676
 20
-25.8753776123
 10
-20.1015346451
 20
-25.8970933029
 10
-20.1090763537
 20
-25.9181579986
 10
-20.1165038369
 20
-25.9385777077
 10
-20.1238160204
 20
-25.9583470768
 10
-20.1310140835
 20
-25.9775136139
 10
-20.1380979838
 20
-25.9960775861
 10
-20.1450685074
 20
-26.0140392879
 10
-20.1519280047
 20
-26.0314462146
 10
-20.1586752989
 20
-26.0482962977
 10
-20.1653121971
 20
-26.0645920826
 10
-20.1718454562
 20
-26.0803879325
 10
-20.1782748246
 20
-26.0956846023
 10
-20.1846010743
 20
-26.1104817317
 10
-20.1908324321
 20
-26.1248319615
 10
-20.1969704791
 20
-26.1387400196
 10
-20.20301406
 20
-26.1522015015
 10
-20.2089672448
 20
-26.1652553093
 10
-20.2148311158
 20
-26.1779043845
 10
-20.220604949
 20
-26.1901460582
 10
-20.2262900684
 20
-26.2020107894
 10
-20.2318856232
 20
-26.2134974176
 10
-20.2373927706
 20
-26.2246073368
 10
-20.2428158158
 20
-26.2353748143
 10
-20.2481542372
 20
-26.2457997356
 10
-20.2534088122
 20
-26.2558824104
 10
-20.2585857632
 20
-26.2656577186
 10
-20.2636855092
 20
-26.2751273754
 10
-20.268707842
 20
-26.2842898265
 10
-20.2736580166
 20
-26.2931750279
 10
-20.2785364485
 20
-26.3017844821
 10
-20.2833428973
 20
-26.3101168203
 10
-20.2880816141
 20
-26.3181976754
 10
-20.2927531061
 20
-26.3260284973
 10
-20.2973570125
 20
-26.3336079481
 10
-20.3018962662
 20
-26.3409574667
 10
-20.3063712283
 20
-26.3480780761
 10
-20.3107816614
 20
-26.354968848
 10
-20.3151295883
 20
-26.3616482853
 10
-20.3194149019
 20
-26.368116628
 10
-20.3236378144
 20
-26.3743737166
 10
-20.3278008178
 20
-26.380437446
 10
-20.3319036062
 20
-26.3863078393
 10
-20.3359465743
 20
-26.3919849416
 10
-20.3399332544
 20
-26.3974866729
 10
-20.343863268
 20
-26.4028130671
 10
-20.3477370681
 20
-26.4079641475
 10
-20.3515594259
 20
-26.4129578118
 10
-20.3553303334
 20
-26.4177946313
 10
-20.35904986
 20
-26.4224740819
 10
-20.3627228851
 20
-26.4270124119
 10
-20.3663504523
 20
-26.4314113116
 10
-20.3699315687
 20
-26.4356691297
 10
-20.3734680529
 20
-26.4397970976
 10
-20.3769608159
 20
-26.4437964087
 10
-20.3804089901
 20
-26.447665903
 10
-20.3838117218
 20
-26.4514132785
 10
-20.3871680878
 20
-26.455037672
 10
-20.3904790494
 20
-26.458539976
 10
-20.3937465776
 20
-26.4619305206
 10
-20.3969692315
 20
-26.4652082563
 10
-20.4001484843
 20
-26.4683742573
 10
-20.403290673
 20
-26.4714420354
 10
-20.4063966477
 20
-26.474412889
 10
-20.4094655843
 20
-26.4772855397
 10
-20.4125013049
 20
-26.4800696309
 10
-20.4155058128
 20
-26.4827671063
 10
-20.4184771262
 20
-26.4853760389
 10
-20.4214130876
 20
-26.4879002644
 10
-20.4243129359
 20
-26.4903391213
 10
-20.4271774518
 20
-26.4926932863
 10
-20.4300067885
 20
-26.4949686008
 10
-20.4327993972
 20
-26.497164072
 10
-20.4355568438
 20
-26.4992807059
 10
-20.4382839523
 20
-26.5013273414
 10
-20.4409812282
 20
-26.5033046879
 10
-20.4436481797
 20
-26.5052120465
 10
-20.446288134
 20
-26.5070561425
 10
-20.4489018305
 20
-26.5088376769
 10
-20.4514885411
 20
-26.5105559574
 10
-20.4540493907
 20
-26.5122156179
 10
-20.4565846454
 20
-26.5138169126
 10
-20.4590940491
 20
-26.5153595948
 10
-20.461577942
 20
-26.5168475465
 10
-20.4640360815
 20
-26.5182807039
 10
-20.466468719
 20
-26.5196591374
 10
-20.468876935
 20
-26.5209869309
 10
-20.4712610923
 20
-26.5222654472
 10
-20.4736208355
 20
-26.523493329
 10
-20.4759561683
 20
-26.5246705791
  0
LINE
  5
396
100
AcDbEntity
  8
RACCORDO
100
AcDbLine
 62
250
  6
CONTINUOUS
 10
-18.2033451306
 20
-12.5787750194
 11
-18.2097950346
 21
-12.5937841623
  0
LINE
  5
397
100
AcDbEntity
  8
RACCORDO
100
AcDbLine
 62
250
  6
CONTINUOUS
 10
-18.1968568593
 20
-12.5639036223
 11
-18.2033451306
 21
-12.5787750194
  0
LINE
  5
398
100
AcDbEntity
  8
RACCORDO
100
AcDbLine
 62
250
  6
CONTINUOUS
 10
-18.1903387001
 20
-12.5491741658
 11
-18.1968568593
 21
-12.5639036223
  0
LINE
  5
399
100
AcDbEntity
  8
RACCORDO
100
AcDbLine
 62
250
  6
CONTINUOUS
 10
-18.0111925876
 20
-12.1760777965
 11
-18.0141111894
 21
-12.182646808
  0
LINE
  5
39A
100
AcDbEntity
  8
RACCORDO
100
AcDbLine
 62
250
  6
CONTINUOUS
 10
-18.1837988601
 20
-12.5345908205
 11
-18.1903387001
 21
-12.5491741658
  0
LINE
  5
39B
100
AcDbEntity
  8
RACCORDO
100
AcDbLine
 62
250
  6
CONTINUOUS
 10
-18.0141111894
 20
-12.182646808
 11
-18.0171245579
 21
-12.1893354884
  0
LINE
  5
39C
100
AcDbEntity
  8
RACCORDO
100
AcDbLine
 62
250
  6
CONTINUOUS
 10
-18.1772454648
 20
-12.5201577304
 11
-18.1837988601
 21
-12.5345908205
  0
LINE
  5
39D
100
AcDbEntity
  8
RACCORDO
100
AcDbLine
 62
250
  6
CONTINUOUS
 10
-18.0171245579
 20
-12.1893354884
 11
-18.0202307993
 21
-12.1961433136
  0
LINE
  5
39E
100
AcDbEntity
  8
RACCORDO
100
AcDbLine
 62
250
  6
CONTINUOUS
 10
-18.1690469716
 20
-12.5023335346
 11
-18.1772454648
 21
-12.5201577304
  0
LINE
  5
39F
100
AcDbEntity
  8
RACCORDO
100
AcDbLine
 62
250
  6
CONTINUOUS
 10
-18.0202307993
 20
-12.1961433136
 11
-18.0245141497
 21
-12.2054061345
  0
LINE
  5
3A0
100
AcDbEntity
  8
RACCORDO
100
AcDbLine
 62
250
  6
CONTINUOUS
 10
-18.1608551316
 20
-12.4847574509
 11
-18.1690469716
 21
-12.5023335346
  0
LINE
  5
3A1
100
AcDbEntity
  8
RACCORDO
100
AcDbLine
 62
250
  6
CONTINUOUS
 10
-18.0245141497
 20
-12.2054061345
 11
-18.0289554804
 21
-12.2148808264
  0
LWPOLYLINE
  5
3A2
100
AcDbEntity
  8
RACCORDO
100
AcDbPolyline
 62
250
  6
CONTINUOUS
 90
28
 70
0
 10
-17.8813233728
 20
-11.9580553871
 10
-17.8857154398
 20
-11.9673206189
 10
-17.8901412353
 20
-11.9764821537
 10
-17.8946007592
 20
-11.9855399913
 10
-17.8990942828
 20
-11.9944919652
 10
-17.903621535
 20
-12.003340242
 10
-17.9081817015
 20
-12.0120913219
 10
-17.9127747715
 20
-12.0207454263
 10
-17.9174007558
 20
-12.0293023338
 10
-17.9220588737
 20
-12.0377678808
 10
-17.9267491019
 20
-12.0461422562
 10
-17.9314714636
 20
-12.0544252711
 10
-17.9362252478
 20
-12.0626221945
 10
-17.9410104326
 20
-12.0707331909
 10
-17.9458270399
 20
-12.0787580957
 10
-17.9506744237
 20
-12.0867016852
 10
-17.9555525662
 20
-12.0945641065
 10
-17.9604614852
 20
-12.1023452124
 10
-17.9654005893
 20
-12.1100493368
 10
-17.9703698498
 20
-12.1176765915
 10
-17.9753692953
 20
-12.1252268646
 10
-17.9803984207
 20
-12.1327041547
 10
-17.9854571633
 20
-12.1401085151
 10
-17.9905455857
 20
-12.1474398925
 10
-17.9956633708
 20
-12.1547021256
 10
-18.000810413
 20
-12.1618964938
 10
-18.0059868179
 20
-12.1690217178
 10
-18.0111925856
 20
-12.1760777974
  0
LINE
  5
3A3
100
AcDbEntity
  8
RACCORDO
100
AcDbLine
 62
250
  6
CONTINUOUS
 10
-18.1510547681
 20
-12.4640032345
 11
-18.1608551316
 21
-12.4847574509
  0
LINE
  5
3A4
100
AcDbEntity
  8
RACCORDO
100
AcDbLine
 62
250
  6
CONTINUOUS
 10
-18.0289554804
 20
-12.2148808264
 11
-18.0347225537
 21
-12.2270216567
  0
LINE
  5
3A5
100
AcDbEntity
  8
RACCORDO
100
AcDbLine
 62
250
  6
CONTINUOUS
 10
-18.1413108955
 20
-12.4436277616
 11
-18.1510547681
 21
-12.4640032345
  0
LINE
  5
3A6
100
AcDbEntity
  8
RACCORDO
100
AcDbLine
 62
250
  6
CONTINUOUS
 10
-18.0347225537
 20
-12.2270216567
 11
-18.0419469842
 21
-12.2420253764
  0
LINE
  5
3A7
100
AcDbEntity
  8
RACCORDO
100
AcDbLine
 62
250
  6
CONTINUOUS
 10
-18.1300472437
 20
-12.42034936
 11
-18.1413108955
 21
-12.4436277616
  0
LINE
  5
3A8
100
AcDbEntity
  8
RACCORDO
100
AcDbLine
 62
250
  6
CONTINUOUS
 10
-18.0419469842
 20
-12.2420253764
 11
-18.050773611
 21
-12.2601255514
  0
LINE
  5
3A9
100
AcDbEntity
  8
RACCORDO
100
AcDbLine
 62
250
  6
CONTINUOUS
 10
-19.0489146677
 20
-12.2000962271
 11
-19.0561206662
 21
-12.2148289969
  0
LINE
  5
3AA
100
AcDbEntity
  8
RACCORDO
100
AcDbLine
 62
250
  6
CONTINUOUS
 10
-18.1157883517
 20
-12.3912244124
 11
-18.1300472437
 21
-12.42034936
  0
LINE
  5
3AB
100
AcDbEntity
  8
RACCORDO
100
AcDbLine
 62
250
  6
CONTINUOUS
 10
-18.050773611
 20
-12.2601255514
 11
-18.0654455343
 21
-12.2898506126
  0
LINE
  5
3AC
100
AcDbEntity
  8
RACCORDO
100
AcDbLine
 62
250
  6
CONTINUOUS
 10
-18.0897978024
 20
-12.3387850417
 11
-18.1157883517
 21
-12.3912244124
  0
LINE
  5
3AD
100
AcDbEntity
  8
RACCORDO
100
AcDbLine
 62
250
  6
CONTINUOUS
 10
-18.0654455343
 20
-12.2898506126
 11
-18.076672556
 21
-12.3124330882
  0
LWPOLYLINE
  5
3AE
100
AcDbEntity
  8
RACCORDO
100
AcDbPolyline
 62
250
  6
CONTINUOUS
 90
3
 70
0
 10
-18.076672556
 20
-12.3124330882
 10
-18.0795460758
 20
-12.3182030517
 10
-18.0809923568
 20
-12.3211065593
  0
LWPOLYLINE
  5
3AF
100
AcDbEntity
  8
RACCORDO
100
AcDbPolyline
 62
250
  6
CONTINUOUS
 90
3
 70
0
 10
-18.0853682605
 20
-12.3298907961
 10
-18.0868389317
 20
-12.3328433669
 10
-18.0897978024
 20
-12.3387850417
  0
LINE
  5
3B0
100
AcDbEntity
  8
RACCORDO
100
AcDbLine
 62
250
  6
CONTINUOUS
 10
-18.0809923568
 20
-12.3211065593
 11
-18.0853682605
 21
-12.3298907961
  0
LINE
  5
3B1
100
AcDbEntity
  8
RACCORDO
100
AcDbLine
 62
250
  6
CONTINUOUS
 10
-19.0416358671
 20
-12.1854645328
 11
-19.0489146677
 21
-12.2000962271
  0
LINE
  5
3B2
100
AcDbEntity
  8
RACCORDO
100
AcDbLine
 62
250
  6
CONTINUOUS
 10
-19.0342855348
 20
-12.1709356931
 11
-19.0416358671
 21
-12.1854645328
  0
LINE
  5
3B3
100
AcDbEntity
  8
RACCORDO
100
AcDbLine
 62
250
  6
CONTINUOUS
 10
-19.0268655854
 20
-12.1565123666
 11
-19.0342855348
 21
-12.1709356931
  0
LINE
  5
3B4
100
AcDbEntity
  8
RACCORDO
100
AcDbLine
 62
250
  6
CONTINUOUS
 10
-19.019377951
 20
-12.1421971551
 11
-19.0268655854
 21
-12.1565123666
  0
LINE
  5
3B5
100
AcDbEntity
  8
RACCORDO
100
AcDbLine
 62
250
  6
CONTINUOUS
 10
-19.0118239243
 20
-12.1279917833
 11
-19.019377951
 21
-12.1421971551
  0
LINE
  5
3B6
100
AcDbEntity
  8
RACCORDO
100
AcDbLine
 62
250
  6
CONTINUOUS
 10
-19.0042054525
 20
-12.1138988252
 11
-19.0118239243
 21
-12.1279917833
  0
LINE
  5
3B7
100
AcDbEntity
  8
RACCORDO
100
AcDbLine
 62
250
  6
CONTINUOUS
 10
-18.9965244942
 20
-12.0999207888
 11
-19.0042054525
 21
-12.1138988252
  0
LINE
  5
3B8
100
AcDbEntity
  8
RACCORDO
100
AcDbLine
 62
250
  6
CONTINUOUS
 10
-18.9887823623
 20
-12.0860593409
 11
-18.9965244942
 21
-12.0999207888
  0
LINE
  5
3B9
100
AcDbEntity
  8
RACCORDO
100
AcDbLine
 62
250
  6
CONTINUOUS
 10
-18.9809810313
 20
-12.0723169638
 11
-18.9887823623
 21
-12.0860593409
  0
LINE
  5
3BA
100
AcDbEntity
  8
RACCORDO
100
AcDbLine
 62
250
  6
CONTINUOUS
 10
-18.9731225234
 20
-12.0586961369
 11
-18.9809810313
 21
-12.0723169638
  0
LINE
  5
3BB
100
AcDbEntity
  8
RACCORDO
100
AcDbLine
 62
250
  6
CONTINUOUS
 10
-18.9652081879
 20
-12.045198496
 11
-18.9731225234
 21
-12.0586961369
  0
LINE
  5
3BC
100
AcDbEntity
  8
RACCORDO
100
AcDbLine
 62
250
  6
CONTINUOUS
 10
-18.9572400579
 20
-12.0318264834
 11
-18.9652081879
 21
-12.045198496
  0
LINE
  5
3BD
100
AcDbEntity
  8
RACCORDO
100
AcDbLine
 62
250
  6
CONTINUOUS
 10
-18.9492201643
 20
-12.0185824508
 11
-18.9572400579
 21
-12.0318264834
  0
LINE
  5
3BE
100
AcDbEntity
  8
RACCORDO
100
AcDbLine
 62
250
  6
CONTINUOUS
 10
-18.9411498653
 20
-12.0054679555
 11
-18.9492201643
 21
-12.0185824508
  0
LINE
  5
3BF
100
AcDbEntity
  8
RACCORDO
100
AcDbLine
 62
250
  6
CONTINUOUS
 10
-18.9330312042
 20
-11.992485316
 11
-18.9411498653
 21
-12.0054679555
  0
LINE
  5
3C0
100
AcDbEntity
  8
RACCORDO
100
AcDbLine
 62
250
  6
CONTINUOUS
 10
-18.9248662297
 20
-11.9796367769
 11
-18.9330312042
 21
-11.992485316
  0
LINE
  5
3C1
100
AcDbEntity
  8
RACCORDO
100
AcDbLine
 62
250
  6
CONTINUOUS
 10
-18.9166563097
 20
-11.9669238203
 11
-18.9248662297
 21
-11.9796367769
  0
LINE
  5
3C2
100
AcDbEntity
  8
RACCORDO
100
AcDbLine
 62
250
  6
CONTINUOUS
 10
-18.9084034913
 20
-11.9543486369
 11
-18.9166563097
 21
-11.9669238203
  0
LINE
  5
3C3
100
AcDbEntity
  8
RACCORDO
100
AcDbLine
 62
250
  6
CONTINUOUS
 10
-18.9001098732
 20
-11.9419134136
 11
-18.9084034913
 21
-11.9543486369
  0
LINE
  5
3C4
100
AcDbEntity
  8
RACCORDO
100
AcDbLine
 62
250
  6
CONTINUOUS
 10
-18.8917768576
 20
-11.9296195949
 11
-18.9001098732
 21
-11.9419134136
  0
LINE
  5
3C5
100
AcDbEntity
  8
RACCORDO
100
AcDbLine
 62
250
  6
CONTINUOUS
 10
-18.8834065639
 20
-11.917469345
 11
-18.8917768576
 21
-11.9296195949
  0
LINE
  5
3C6
100
AcDbEntity
  8
RACCORDO
100
AcDbLine
 62
250
  6
CONTINUOUS
 10
-18.8750010906
 20
-11.9054647139
 11
-18.8834065639
 21
-11.917469345
  0
LINE
  5
3C7
100
AcDbEntity
  8
RACCORDO
100
AcDbLine
 62
250
  6
CONTINUOUS
 10
-18.8665618384
 20
-11.893607054
 11
-18.8750010906
 21
-11.9054647139
  0
LINE
  5
3C8
100
AcDbEntity
  8
RACCORDO
100
AcDbLine
 62
250
  6
CONTINUOUS
 10
-18.8580909076
 20
-11.881898367
 11
-18.8665618384
 21
-11.893607054
  0
LINE
  5
3C9
100
AcDbEntity
  8
RACCORDO
100
AcDbLine
 62
250
  6
CONTINUOUS
 10
-18.8495904044
 20
-11.8703405827
 11
-18.8580909076
 21
-11.881898367
  0
LINE
  5
3CA
100
AcDbEntity
  8
RACCORDO
100
AcDbLine
 62
250
  6
CONTINUOUS
 10
-18.8410617262
 20
-11.8589349627
 11
-18.8495904044
 21
-11.8703405827
  0
LINE
  5
3CB
100
AcDbEntity
  8
RACCORDO
100
AcDbLine
 62
250
  6
CONTINUOUS
 10
-18.832506948
 20
-11.8476833458
 11
-18.8410617262
 21
-11.8589349627
  0
LINE
  5
3CC
100
AcDbEntity
  8
ASSI
100
AcDbLine
 62
7
  6
CONTINUOUS
 10
-17.8223418154
 20
0.6318518324
 11
-19.0842099754
 21
-0.4018100505
  0
LWPOLYLINE
  5
3CD
100
AcDbEntity
  8
RACCORDO
100
AcDbPolyline
 62
250
  6
CONTINUOUS
 90
18
 70
0
 10
-19.6336742215
 20
-0.6512057381
 10
-19.625357141
 20
-0.6446860265
 10
-19.6173635224
 20
-0.6380345338
 10
-19.6096997089
 20
-0.6312565381
 10
-19.6023717816
 20
-0.6243574178
 10
-19.5953855555
 20
-0.6173426474
 10
-19.588746574
 20
-0.6102177932
 10
-19.5824601054
 20
-0.6029885087
 10
-19.5765311379
 20
-0.5956605306
 10
-19.5709643763
 20
-0.5882396737
 10
-19.5657642379
 20
-0.5807318264
 10
-19.5609348489
 20
-0.5731429463
 10
-19.5564800416
 20
-0.5654790552
 10
-19.5524033509
 20
-0.5577462346
 10
-19.5487080117
 20
-0.5499506204
 10
-19.5453969563
 20
-0.5420983987
 10
-19.542472812
 20
-0.5341958001
 10
-19.5399378992
 20
-0.5262490954
  0
LWPOLYLINE
  5
3CE
100
AcDbEntity
  8
RACCORDO
100
AcDbPolyline
 62
250
  6
CONTINUOUS
 90
24
 70
0
 10
-18.2486559526
 20
-0.3623075955
 10
-18.2403387997
 20
-0.3557878254
 10
-18.2323451145
 20
-0.3491362721
 10
-18.2246812404
 20
-0.3423582135
 10
-18.2173532586
 20
-0.3354590283
 10
-18.2103669842
 20
-0.3284441911
 10
-18.203727961
 20
-0.3213192685
 10
-18.1974414571
 20
-0.3140899141
 10
-18.191512461
 20
-0.3067618646
 10
-18.1859456776
 20
-0.2993409353
 10
-18.1807455244
 20
-0.2918330148
 10
-18.1759161277
 20
-0.2842440607
 10
-18.1714613197
 20
-0.2765800953
 10
-18.1673846355
 20
-0.2688471999
 10
-18.1636893099
 20
-0.261051511
 10
-18.1603782752
 20
-0.2531992146
 10
-18.1574541588
 20
-0.2452965418
 10
-18.1549192809
 20
-0.2373497634
 10
-18.1527756531
 20
-0.2293651856
 10
-18.1510249762
 20
-0.2213491444
 10
-18.1496686394
 20
-0.2133080007
 10
-18.148707719
 20
-0.2052481353
 10
-18.1481429772
 20
-0.1971759441
 10
-18.1479737076
 20
-0.1897145295
  0
LINE
  5
3CF
100
AcDbEntity
  8
RACCORDO
100
AcDbLine
 62
250
  6
CONTINUOUS
 10
-19.4141748627
 20
-0.2692887129
 11
-19.5329919765
 21
-0.3455871486
  0
LINE
  5
3D0
100
AcDbEntity
  8
RACCORDO
100
AcDbLine
 62
250
  6
CONTINUOUS
 10
-18.2486559526
 20
-0.3623075955
 11
-19.1939156222
 21
-0.9693063003
  0
LWPOLYLINE
  5
3D1
100
AcDbEntity
  8
RACCORDO
100
AcDbPolyline
 62
250
  6
CONTINUOUS
 90
64
 70
0
 10
-19.1939156222
 20
-0.9693063003
 10
-19.2051215285
 20
-0.9763250405
 10
-19.2163048427
 20
-0.982966615
 10
-19.2274655649
 20
-0.9892310238
 10
-19.2386123213
 20
-0.9951240725
 10
-19.2497364857
 20
-1.0006399555
 10
-19.2608121795
 20
-1.0057612558
 10
-19.2718392688
 20
-1.0104863929
 10
-19.2828178875
 20
-1.0148169474
 10
-19.2937225596
 20
-1.0187402435
 10
-19.3045529983
 20
-1.0222546099
 10
-19.3153094904
 20
-1.025361718
 10
-19.3259674202
 20
-1.0280539069
 10
-19.3365256109
 20
-1.0303294778
 10
-19.3469852394
 20
-1.0321901295
 10
-19.3573252198
 20
-1.0336332971
 10
-19.3675434054
 20
-1.0346578814
 10
-19.377641943
 20
-1.0352649818
 10
-19.3876061874
 20
-1.0354553307
 10
-19.3974354166
 20
-1.0352286713
 10
-19.4071303527
 20
-1.0345852604
 10
-19.4166785166
 20
-1.033526602
 10
-19.4260803023
 20
-1.0320524036
 10
-19.4353353158
 20
-1.0301629576
 10
-19.444429896
 20
-1.0278606455
 10
-19.4533646592
 20
-1.0251446509
 10
-19.4621389891
 20
-1.0220157902
 10
-19.4707373756
 20
-1.0184788942
 10
-19.4791595534
 20
-1.0145330973
 10
-19.4874057877
 20
-1.0101792651
 10
-19.4954613648
 20
-1.0054248244
 10
-19.5033258607
 20
-1.0002689709
 10
-19.5109996994
 20
-0.9947125089
 10
-19.5184694381
 20
-0.9887652788
 10
-19.5257346893
 20
-0.982426447
 10
-19.5327958405
 20
-0.9756968471
 10
-19.539640612
 20
-0.9685888206
 10
-19.546268461
 20
-0.9611017287
 10
-19.5526799302
 20
-0.9532362102
 10
-19.5588643687
 20
-0.9450065224
 10
-19.5648208476
 20
-0.936413077
 10
-19.5705502958
 20
-0.9274554624
 10
-19.5760448483
 20
-0.9181467008
 10
-19.5813041945
 20
-0.9084870093
 10
-19.5863286449
 20
-0.8984761709
 10
-19.5911112662
 20
-0.888126557
 10
-19.5956522885
 20
-0.8774370358
 10
-19.5999514817
 20
-0.8664087392
 10
-19.6040012212
 20
-0.8550574342
 10
-19.6078016975
 20
-0.8433800568
 10
-19.6113527201
 20
-0.8313796711
 10
-19.6146460935
 20
-0.8190812355
 10
-19.6176809776
 20
-0.8064830274
 10
-19.6204582125
 20
-0.7935867694
 10
-19.6229721226
 20
-0.7804225883
 10
-19.625221612
 20
-0.7669894354
 10
-19.6272077767
 20
-0.7532883594
 10
-19.628928229
 20
-0.739352633
 10
-19.630381876
 20
-0.725181178
 10
-19.6315698105
 20
-0.7107750727
 10
-19.6324929233
 20
-0.6961708252
 10
-19.6331515112
 20
-0.681380605
 10
-19.6335452772
 20
-0.6663922426
 10
-19.6336742215
 20
-0.6512057381
  0
LWPOLYLINE
  5
3D2
100
AcDbEntity
  8
RACCORDO
100
AcDbPolyline
 62
7
  6
CONTINUOUS
 90
34
 70
0
 10
-18.3422942607
 20
0.2059317239
 10
-18.3333142008
 20
0.1988594011
 10
-18.3228875067
 20
0.1901792187
 10
-18.3127091818
 20
0.1812274992
 10
-18.3027803687
 20
0.1720061397
 10
-18.2930809677
 20
0.1624948109
 10
-18.2836138802
 20
0.1526919318
 10
-18.2743971308
 20
0.142611819
 10
-18.2654356519
 20
0.1322557929
 10
-18.2567247697
 20
0.1216124895
 10
-18.2482902046
 20
0.1107073956
 10
-18.2401781559
 20
0.0996002038
 10
-18.2324269501
 20
0.0883522078
 10
-18.2250045077
 20
0.0769261746
 10
-18.2178546736
 20
0.0652321641
 10
-18.2109556906
 20
0.0532164142
 10
-18.2043565924
 20
0.0409454714
 10
-18.1981084154
 20
0.0285087278
 10
-18.1922245859
 20
0.0159378456
 10
-18.1866984497
 20
0.0032240301
 10
-18.1815413796
 20
-0.0096006081
 10
-18.1767740722
 20
-0.0224690966
 10
-18.1723743589
 20
-0.0354246059
 10
-18.1682991189
 20
-0.0486032272
 10
-18.1645302516
 20
-0.0621115322
 10
-18.1611169509
 20
-0.0758260413
 10
-18.1581117511
 20
-0.0895379746
 10
-18.1555300448
 20
-0.1031159911
 10
-18.1533381861
 20
-0.1166682557
 10
-18.1515109188
 20
-0.1303449587
 10
-18.1500472674
 20
-0.1442250161
 10
-18.1489672289
 20
-0.1582096267
 10
-18.1482811193
 20
-0.1721836727
 10
-18.1479867646
 20
-0.1861007087
  0
LWPOLYLINE
  5
3D3
100
AcDbEntity
  8
RACCORDO
100
AcDbPolyline
 62
250
  6
CONTINUOUS
 90
55
 70
0
 10
16.9362896595
 20
-41.5502719427
 10
16.9340480865
 20
-41.5472565041
 10
16.9317848638
 20
-41.5441719349
 10
16.9294999948
 20
-41.5410182324
 10
16.9271937753
 20
-41.5377970153
 10
16.9248659168
 20
-41.5345066593
 10
16.9225155475
 20
-41.5311422964
 10
16.9201424318
 20
-41.5277036604
 10
16.9177468138
 20
-41.524191011
 10
16.9153285413
 20
-41.5206002681
 10
16.9128878644
 20
-41.5169318818
 10
16.910424543
 20
-41.5131853946
 10
16.9079376899
 20
-41.5093553645
 10
16.9054280002
 20
-41.5054430554
 10
16.9028947902
 20
-41.5014471947
 10
16.9003351073
 20
-41.497358535
 10
16.8977494157
 20
-41.4931781592
 10
16.8951372648
 20
-41.488904974
 10
16.8924943308
 20
-41.4845264663
 10
16.889819138
 20
-41.4800404086
 10
16.8871131791
 20
-41.4754490155
 10
16.8843765854
 20
-41.4707464363
 10
16.8816086399
 20
-41.4659313933
 10
16.8788100792
 20
-41.4610051492
 10
16.8759832155
 20
-41.4559656635
 10
16.8731299274
 20
-41.4508164136
 10
16.8702483579
 20
-41.4455539056
 10
16.8673352182
 20
-41.4401656398
 10
16.8643912837
 20
-41.4346535374
 10
16.8614158048
 20
-41.4290156574
 10
16.858403209
 20
-41.4232337049
 10
16.855352131
 20
-41.4173054658
 10
16.8522639685
 20
-41.4112331292
 10
16.8491372975
 20
-41.4050050021
 10
16.8459712524
 20
-41.3986194577
 10
16.8427667371
 20
-41.3920780934
 10
16.8395249857
 20
-41.3853740494
 10
16.8362468375
 20
-41.3785091715
 10
16.8329314964
 20
-41.3714815807
 10
16.829577748
 20
-41.3642788272
 10
16.8261865376
 20
-41.356903341
 10
16.8227569704
 20
-41.3493526531
 10
16.8192850769
 20
-41.3416069614
 10
16.815770823
 20
-41.3336667485
 10
16.8122143042
 20
-41.3255314846
 10
16.8086117523
 20
-41.3171798424
 10
16.8049627953
 20
-41.3086114671
 10
16.8012678797
 20
-41.2998266563
 10
16.7975244739
 20
-41.2908050546
 10
16.7937322783
 20
-41.281546338
 10
16.7898916815
 20
-41.2720507623
 10
16.7860011938
 20
-41.2622988335
 10
16.7820607002
 20
-41.2522905798
 10
16.7780704209
 20
-41.2420258924
 10
16.7740293811
 20
-41.2314850647
  0
LINE
  5
3D4
100
AcDbEntity
  8
RACCORDO
100
AcDbLine
 62
250
  6
CONTINUOUS
 10
-20.5250580837
 20
37.5444016318
 11
-20.5224102982
 21
37.536234134
  0
LINE
  5
3D5
100
AcDbEntity
  8
RACCORDO
100
AcDbLine
 62
250
  6
CONTINUOUS
 10
-20.1653121472
 20
36.9811370387
 11
-20.1519279519
 21
36.9398171287
  0
LINE
  5
3D6
100
AcDbEntity
  8
RACCORDO
100
AcDbLine
 62
250
  6
CONTINUOUS
 10
-20.1519279519
 20
36.9398171287
 11
-20.138097928
 21
36.8961111104
  0
LINE
  5
3D7
100
AcDbEntity
  8
RACCORDO
100
AcDbLine
 62
250
  6
CONTINUOUS
 10
-20.5224102982
 20
37.536234134
 11
-20.5197024644
 21
37.527640964
  0
LINE
  5
3D8
100
AcDbEntity
  8
RACCORDO
100
AcDbLine
 62
250
  6
CONTINUOUS
 10
-20.138097928
 20
36.8961111104
 11
-20.1238159615
 21
36.8498908668
  0
LINE
  5
3D9
100
AcDbEntity
  8
RACCORDO
100
AcDbLine
 62
250
  6
CONTINUOUS
 10
-20.5197024644
 20
37.527640964
 11
-20.5169418943
 21
37.5186254334
  0
LINE
  5
3DA
100
AcDbEntity
  8
RACCORDO
100
AcDbLine
 62
250
  6
CONTINUOUS
 10
-20.1238159615
 20
36.8498908668
 11
-20.1090762915
 21
36.801068906
  0
LINE
  5
3DB
100
AcDbEntity
  8
RACCORDO
100
AcDbLine
 62
250
  6
CONTINUOUS
 10
-20.5169418943
 20
37.5186254334
 11
-20.5141276471
 21
37.5091655368
  0
LINE
  5
3DC
100
AcDbEntity
  8
RACCORDO
100
AcDbLine
 62
250
  6
CONTINUOUS
 10
-20.1090762915
 20
36.801068906
 11
-20.0938767017
 21
36.749527781
  0
LINE
  5
3DD
100
AcDbEntity
  8
RACCORDO
100
AcDbLine
 62
250
  6
CONTINUOUS
 10
-20.5141276471
 20
37.5091655368
 11
-20.5112564802
 21
37.4992367926
  0
LINE
  5
3DE
100
AcDbEntity
  8
RACCORDO
100
AcDbLine
 62
250
  6
CONTINUOUS
 10
-20.0938767017
 20
36.749527781
 11
-20.0781945227
 21
36.6950683262
  0
LINE
  5
3DF
100
AcDbEntity
  8
RACCORDO
100
AcDbLine
 62
250
  6
CONTINUOUS
 10
-20.0781945227
 20
36.6950683262
 11
-20.0620149185
 21
36.6375607822
  0
LINE
  5
3E0
100
AcDbEntity
  8
RACCORDO
100
AcDbLine
 62
250
  6
CONTINUOUS
 10
-20.5112564802
 20
37.4992367926
 11
-20.5083178956
 21
37.4887814965
  0
LINE
  5
3E1
100
AcDbEntity
  8
RACCORDO
100
AcDbLine
 62
250
  6
CONTINUOUS
 10
-20.0620149185
 20
36.6375607822
 11
-20.0453129958
 21
36.5767868174
  0
LINE
  5
3E2
100
AcDbEntity
  8
RACCORDO
100
AcDbLine
 62
250
  6
CONTINUOUS
 10
-20.5083178956
 20
37.4887814965
 11
-20.5053071894
 21
37.4777545072
  0
LINE
  5
3E3
100
AcDbEntity
  8
RACCORDO
100
AcDbLine
 62
250
  6
CONTINUOUS
 10
-20.0453129958
 20
36.5767868174
 11
-20.0280908425
 21
36.5126106685
  0
LINE
  5
3E4
100
AcDbEntity
  8
RACCORDO
100
AcDbLine
 62
250
  6
CONTINUOUS
 10
-20.5053071894
 20
37.4777545072
 11
-20.5022231284
 21
37.4661339383
  0
LINE
  5
3E5
100
AcDbEntity
  8
RACCORDO
100
AcDbLine
 62
250
  6
CONTINUOUS
 10
-20.0280908425
 20
36.5126106685
 11
-20.0103422102
 21
36.4449215657
  0
LINE
  5
3E6
100
AcDbEntity
  8
RACCORDO
100
AcDbLine
 62
250
  6
CONTINUOUS
 10
-20.5022231284
 20
37.4661339383
 11
-20.4990686482
 21
37.453901339
  0
LINE
  5
3E7
100
AcDbEntity
  8
RACCORDO
100
AcDbLine
 62
250
  6
CONTINUOUS
 10
-20.0103422102
 20
36.4449215657
 11
-19.9920565739
 21
36.3735351635
  0
LINE
  5
3E8
100
AcDbEntity
  8
RACCORDO
100
AcDbLine
 62
250
  6
CONTINUOUS
 10
-20.4990686482
 20
37.453901339
 11
-20.4958446414
 21
37.4410301701
  0
LINE
  5
3E9
100
AcDbEntity
  8
RACCORDO
100
AcDbLine
 62
250
  6
CONTINUOUS
 10
-19.9920565739
 20
36.3735351635
 11
-19.9732179911
 21
36.2982280197
  0
LINE
  5
3EA
100
AcDbEntity
  8
RACCORDO
100
AcDbLine
 62
250
  6
CONTINUOUS
 10
-19.9732179911
 20
36.2982280197
 11
-19.9538212155
 21
36.2188856399
  0
LINE
  5
3EB
100
AcDbEntity
  8
RACCORDO
100
AcDbLine
 62
250
  6
CONTINUOUS
 10
-20.4958446414
 20
37.4410301701
 11
-20.4925494634
 21
37.427493767
  0
LINE
  5
3EC
100
AcDbEntity
  8
RACCORDO
100
AcDbLine
 62
250
  6
CONTINUOUS
 10
-19.9538212155
 20
36.2188856399
 11
-19.9338743438
 21
36.1353784085
  0
LINE
  5
3ED
100
AcDbEntity
  8
RACCORDO
100
AcDbLine
 62
250
  6
CONTINUOUS
 10
-20.4925494634
 20
37.427493767
 11
-20.4891778176
 21
37.4132386074
  0
LINE
  5
3EE
100
AcDbEntity
  8
RACCORDO
100
AcDbLine
 62
250
  6
CONTINUOUS
 10
-19.9338743438
 20
36.1353784085
 11
-19.9133798919
 21
36.0475468712
  0
LWPOLYLINE
  5
3EF
100
AcDbEntity
  8
RACCORDO
100
AcDbPolyline
 62
250
  6
CONTINUOUS
 90
3
 70
0
 10
-20.4891778176
 20
37.4132386074
 10
-20.4857235754
 20
37.3981996958
 10
-20.4839645628
 20
37.3903787505
  0
LINE
  5
3F0
100
AcDbEntity
  8
RACCORDO
100
AcDbLine
 62
250
  6
CONTINUOUS
 10
-19.9133798919
 20
36.0475468712
 11
-19.8923382121
 21
35.9552978249
  0
LWPOLYLINE
  5
3F1
100
AcDbEntity
  8
RACCORDO
100
AcDbPolyline
 62
250
  6
CONTINUOUS
 90
3
 70
0
 10
-19.8923382121
 20
35.9552978249
 10
-19.8707544074
 20
35.8584831983
 10
-19.8597687598
 20
35.8083473713
  0
LINE
  5
3F2
100
AcDbEntity
  8
RACCORDO
100
AcDbLine
 62
250
  6
CONTINUOUS
 10
-18.8239282164
 20
-11.8365875871
 11
-18.832506948
 21
-11.8476833458
  0
LINE
  5
3F3
100
AcDbEntity
  8
RACCORDO
100
AcDbLine
 62
250
  6
CONTINUOUS
 10
-18.815326977
 20
-11.8256489235
 11
-18.8239282164
 21
-11.8365875871
  0
LINE
  5
3F4
100
AcDbEntity
  8
RACCORDO
100
AcDbLine
 62
250
  6
CONTINUOUS
 10
-18.8067054382
 20
-11.8148692359
 11
-18.815326977
 21
-11.8256489235
  0
LINE
  5
3F5
100
AcDbEntity
  8
RACCORDO
100
AcDbLine
 62
250
  6
CONTINUOUS
 10
-18.7980657646
 20
-11.8042502648
 11
-18.8067054382
 21
-11.8148692359
  0
LINE
  5
3F6
100
AcDbEntity
  8
RACCORDO
100
AcDbLine
 62
250
  6
CONTINUOUS
 10
-18.7894093887
 20
-11.793793141
 11
-18.7980657646
 21
-11.8042502648
  0
LWPOLYLINE
  5
3F7
100
AcDbEntity
  8
RACCORDO
100
AcDbPolyline
 62
250
  6
CONTINUOUS
 90
28
 70
0
 10
-18.2486559526
 20
-11.455522489
 10
-18.2571323018
 20
-11.4575001315
 10
-18.2655479789
 20
-11.4595227069
 10
-18.273902984
 20
-11.4615902153
 10
-18.2821960553
 20
-11.4637031826
 10
-18.2904284546
 20
-11.4658610828
 10
-18.2986039667
 20
-11.468062338
 10
-18.3067227136
 20
-11.4703069238
 10
-18.3147845733
 20
-11.4725948646
 10
-18.322792965
 20
-11.4749246549
 10
-18.3307479892
 20
-11.4772962512
 10
-18.3386495453
 20
-11.479709697
 10
-18.3465007517
 20
-11.4821636177
 10
-18.3543016979
 20
-11.4846579745
 10
-18.3620522944
 20
-11.4871928062
 10
-18.36975539
 20
-11.4897668546
 10
-18.3774110635
 20
-11.4923800844
 10
-18.3850192362
 20
-11.4950325308
 10
-18.3925825214
 20
-11.4977230414
 10
-18.4001009684
 20
-11.5004515764
 10
-18.4075745279
 20
-11.5032181756
 10
-18.4150056648
 20
-11.5060218065
 10
-18.4223944024
 20
-11.5088624218
 10
-18.4297407173
 20
-11.5117400688
 10
-18.4370470045
 20
-11.5146538567
 10
-18.4443140621
 20
-11.5176034883
 10
-18.451541092
 20
-11.5205892607
 10
-18.458728094
 20
-11.523611174
  0
LINE
  5
3F8
100
AcDbEntity
  8
ASSI
100
AcDbLine
 62
7
  6
CONTINUOUS
 10
-19.0842099754
 20
-0.4018100505
 11
-19.5329919765
 21
-0.2215690813
  0
LINE
  5
3F9
100
AcDbEntity
  8
RACCORDO
100
AcDbLine
 62
250
  6
CONTINUOUS
 10
-20.3018962429
 20
37.3463470678
 11
-20.2927530812
 21
37.3251842306
  0
LINE
  5
3FA
100
AcDbEntity
  8
RACCORDO
100
AcDbLine
 62
250
  6
CONTINUOUS
 10
-20.2927530812
 20
37.3251842306
 11
-20.2833428708
 21
37.3028972377
  0
LINE
  5
3FB
100
AcDbEntity
  8
RACCORDO
100
AcDbLine
 62
250
  6
CONTINUOUS
 10
-20.2833428708
 20
37.3028972377
 11
-20.2736579884
 21
37.2794369839
  0
LINE
  5
3FC
100
AcDbEntity
  8
RACCORDO
100
AcDbLine
 62
250
  6
CONTINUOUS
 10
-20.2736579884
 20
37.2794369839
 11
-20.2636854792
 21
37.254723778
  0
LINE
  5
3FD
100
AcDbEntity
  8
RACCORDO
100
AcDbLine
 62
250
  6
CONTINUOUS
 10
-20.2636854792
 20
37.254723778
 11
-20.2534087802
 21
37.228660621
  0
LINE
  5
3FE
100
AcDbEntity
  8
RACCORDO
100
AcDbLine
 62
250
  6
CONTINUOUS
 10
-20.2534087802
 20
37.228660621
 11
-20.2428157818
 21
37.2011787842
  0
LINE
  5
3FF
100
AcDbEntity
  8
RACCORDO
100
AcDbLine
 62
250
  6
CONTINUOUS
 10
-20.2428157818
 20
37.2011787842
 11
-20.231885587
 21
37.1721637412
  0
LINE
  5
400
100
AcDbEntity
  8
RACCORDO
100
AcDbLine
 62
250
  6
CONTINUOUS
 10
-20.231885587
 20
37.1721637412
 11
-20.2206049106
 21
37.1415100918
  0
LINE
  5
401
100
AcDbEntity
  8
RACCORDO
100
AcDbLine
 62
250
  6
CONTINUOUS
 10
-20.2206049106
 20
37.1415100918
 11
-20.2089672041
 21
37.1091543419
  0
LINE
  5
402
100
AcDbEntity
  8
RACCORDO
100
AcDbLine
 62
250
  6
CONTINUOUS
 10
-20.2089672041
 20
37.1091543419
 11
-20.1969704359
 21
37.0750183973
  0
LINE
  5
403
100
AcDbEntity
  8
RACCORDO
100
AcDbLine
 62
250
  6
CONTINUOUS
 10
-20.5314267979
 20
37.5630868659
 11
-20.5289191387
 21
37.555890207
  0
LINE
  5
404
100
AcDbEntity
  8
RACCORDO
100
AcDbLine
 62
250
  6
CONTINUOUS
 10
-20.1969704359
 20
37.0750183973
 11
-20.1846010285
 21
37.0389844762
  0
LWPOLYLINE
  5
405
100
AcDbEntity
  8
RACCORDO
100
AcDbPolyline
 62
250
  6
CONTINUOUS
 90
3
 70
0
 10
-20.5289191387
 20
37.555890207
 10
-20.5263588044
 20
37.5483257101
 10
-20.5250580837
 20
37.5444016318
  0
LWPOLYLINE
  5
406
100
AcDbEntity
  8
RACCORDO
100
AcDbPolyline
 62
250
  6
CONTINUOUS
 90
3
 70
0
 10
-20.1846010285
 20
37.0389844762
 10
-20.1718454078
 20
37.0009595844
 10
-20.1653121472
 20
36.9811370387
  0
LWPOLYLINE
  5
407
100
AcDbEntity
  8
RACCORDO
100
AcDbPolyline
 62
250
  6
CONTINUOUS
 90
28
 70
0
 10
-17.8813228581
 20
-11.9580555938
 10
-17.8738202663
 20
-11.9520500119
 10
-17.8663226177
 20
-11.9463287534
 10
-17.8588350456
 20
-11.9408957567
 10
-17.8513626916
 20
-11.9357547735
 10
-17.8439106575
 20
-11.9309093346
 10
-17.8364840023
 20
-11.9263627535
 10
-17.8290878805
 20
-11.922118209
 10
-17.8217272919
 20
-11.9181785934
 10
-17.8144070364
 20
-11.9145465173
 10
-17.807131252
 20
-11.9112241425
 10
-17.7999058277
 20
-11.9082142676
 10
-17.7927380967
 20
-11.9055198589
 10
-17.7856341916
 20
-11.9031429072
 10
-17.77859763
 20
-11.9010842724
 10
-17.7716317375
 20
-11.8993447804
 10
-17.7647410723
 20
-11.8979255273
 10
-17.7579305272
 20
-11.8968274779
 10
-17.7512039237
 20
-11.8960512489
 10
-17.7445656477
 20
-11.8955974204
 10
-17.738020491
 20
-11.8954663954
 10
-17.7315728297
 20
-11.8956583298
 10
-17.7252270554
 20
-11.8961731747
 10
-17.7189875792
 20
-11.8970106554
 10
-17.7128587099
 20
-11.8981702736
 10
-17.7068446192
 20
-11.8996513247
 10
-17.7009495024
 20
-11.9014528619
 10
-17.6949832381
 20
-11.9036514919
  0
LWPOLYLINE
  5
408
100
AcDbEntity
  8
RACCORDO
100
AcDbPolyline
 62
250
  6
CONTINUOUS
 90
24
 70
0
 10
-18.2486559526
 20
-11.4555230997
 10
-18.240338872
 20
-11.449003388
 10
-18.2323452535
 20
-11.4423518954
 10
-18.2246814399
 20
-11.4355738997
 10
-18.2173535127
 20
-11.4286747794
 10
-18.2103672865
 20
-11.421660009
 10
-18.2037283051
 20
-11.4145351547
 10
-18.1974418364
 20
-11.4073058703
 10
-18.191512869
 20
-11.3999778922
 10
-18.1859461074
 20
-11.3925570353
 10
-18.1807459689
 20
-11.385049188
 10
-18.1759165799
 20
-11.3774603079
 10
-18.1714617727
 20
-11.3697964168
 10
-18.167385082
 20
-11.3620635962
 10
-18.1636897428
 20
-11.354267982
 10
-18.1603786873
 20
-11.3464157602
 10
-18.1574545431
 20
-11.3385131616
 10
-18.1549196302
 20
-11.330566457
 10
-18.1527759603
 20
-11.3225819521
 10
-18.1510252344
 20
-11.3145659827
 10
-18.1496688416
 20
-11.3065249097
 10
-18.1487078584
 20
-11.2984651135
 10
-18.1481430471
 20
-11.2903929898
 10
-18.1479737077
 20
-11.2829362931
  0
LWPOLYLINE
  5
409
100
AcDbEntity
  8
RACCORDO
100
AcDbPolyline
 62
250
  6
CONTINUOUS
 90
23
 70
0
 10
37.4691178307
 20
-15.8494408711
 10
37.4629813942
 20
-15.8474105854
 10
37.4567115382
 20
-15.8457329875
 10
37.4503129945
 20
-15.8444093436
 10
37.4437905922
 20
-15.8434406525
 10
37.4371492538
 20
-15.8428276454
 10
37.4303939914
 20
-15.8425707849
 10
37.4235299034
 20
-15.8426702648
 10
37.4165621702
 20
-15.8431260101
 10
37.4094960502
 20
-15.8439376769
 10
37.4023368764
 20
-15.8451046525
 10
37.3950900518
 20
-15.8466260562
 10
37.3877610457
 20
-15.8485007398
 10
37.3803553892
 20
-15.8507272885
 10
37.3728786715
 20
-15.8533040219
 10
37.3653365353
 20
-15.8562289953
 10
37.3577346728
 20
-15.8595000013
 10
37.350078821
 20
-15.8631145711
 10
37.3423747578
 20
-15.8670699768
 10
37.3346282977
 20
-15.8713632333
 10
37.3268452868
 20
-15.8759911005
 10
37.3190315992
 20
-15.8809500855
 10
37.3111931317
 20
-15.886236446
  0
LWPOLYLINE
  5
40A
100
AcDbEntity
  8
RACCORDO
100
AcDbPolyline
 62
7
  6
CONTINUOUS
 90
21
 70
0
 10
37.4725420357
 20
-15.8507505129
 10
37.4599259194
 20
-15.8458806763
 10
37.4471778388
 20
-15.8413521558
 10
37.4343084146
 20
-15.8371691036
 10
37.421344456
 20
-15.8333397716
 10
37.4082810109
 20
-15.8298621147
 10
37.395080292
 20
-15.8267281716
 10
37.3817429105
 20
-15.8239425535
 10
37.368289193
 20
-15.821513828
 10
37.3547100405
 20
-15.8194449665
 10
37.3409661633
 20
-15.8177374252
 10
37.3271190994
 20
-15.8164061686
 10
37.3133109668
 20
-15.8154644698
 10
37.2996597548
 20
-15.8149100644
 10
37.2860690792
 20
-15.8147288264
 10
37.2723597544
 20
-15.8149203405
 10
37.258414743
 20
-15.8155013099
 10
37.2443764676
 20
-15.8164809111
 10
37.2304534977
 20
-15.8178459639
 10
37.2167576511
 20
-15.8195742349
 10
37.2086773316
 20
-15.8208207212
  0
LINE
  5
40B
100
AcDbEntity
  8
RACCORDO
100
AcDbLine
 62
250
  6
CONTINUOUS
 10
37.2140194014
 20
-16.6452832775
 11
37.3735868063
 21
-16.7093691447
  0
LINE
  5
40C
100
AcDbEntity
  8
RACCORDO
100
AcDbLine
 62
250
  6
CONTINUOUS
 10
37.3111931317
 20
-15.886236446
 11
38.1381919192
 21
-16.2183778033
  0
LINE
  5
40D
100
AcDbEntity
  8
RACCORDO
100
AcDbLine
 62
7
  6
CONTINUOUS
 10
37.4725420357
 20
-15.8507505129
 11
38.3075876201
 21
-16.1861236453
  0
LWPOLYLINE
  5
40E
100
AcDbEntity
  8
RACCORDO
100
AcDbPolyline
 62
250
  6
CONTINUOUS
 90
10
 70
0
 10
37.3111931317
 20
-15.886236446
 10
37.2997529256
 20
-15.8813528779
 10
37.2883013171
 20
-15.8768338627
 10
37.2768479392
 20
-15.8726832019
 10
37.2654024265
 20
-15.8689043869
 10
37.2539744067
 20
-15.8655005965
 10
37.2425734932
 20
-15.8624746938
 10
37.2312092761
 20
-15.8598292244
 10
37.2198913152
 20
-15.8575664134
 10
37.2086773316
 20
-15.8556962031
  0
LWPOLYLINE
  5
40F
100
AcDbEntity
  8
RACCORDO
100
AcDbPolyline
 62
250
  6
CONTINUOUS
 90
3
 70
0
 10
-20.3627228714
 20
37.4748171673
 10
-20.3553303186
 20
37.4603593605
 10
-20.3515594106
 20
37.4528586052
  0
LINE
  5
410
100
AcDbEntity
  8
RACCORDO
100
AcDbLine
 62
250
  6
CONTINUOUS
 10
-20.3515594106
 20
37.4528586052
 11
-20.3438632516
 21
37.4372954107
  0
LWPOLYLINE
  5
411
100
AcDbEntity
  8
RACCORDO
100
AcDbPolyline
 62
250
  6
CONTINUOUS
 90
3
 70
0
 10
-20.3438632516
 20
37.4372954107
 10
-20.3359465565
 20
37.4209202772
 10
-20.3319035878
 20
37.4124205725
  0
LWPOLYLINE
  5
412
100
AcDbEntity
  8
RACCORDO
100
AcDbPolyline
 62
250
  6
CONTINUOUS
 90
3
 70
0
 10
-20.3319035878
 20
37.4124205725
 10
-20.3236377947
 20
37.3947383872
 10
-20.3194148815
 20
37.385555984
  0
LWPOLYLINE
  5
413
100
AcDbEntity
  8
RACCORDO
100
AcDbPolyline
 62
250
  6
CONTINUOUS
 90
4
 70
0
 10
-20.3194148815
 20
37.385555984
 10
-20.3107816395
 20
37.3664529694
 10
-20.3063712057
 20
37.3565324496
 10
-20.3018962429
 20
37.3463470678
  0
LINE
  5
414
100
AcDbEntity
  8
RACCORDO
100
AcDbLine
 62
250
  6
CONTINUOUS
 10
16.9812946606
 20
-41.4664634522
 11
16.9785137669
 21
-41.4594906155
  0
LWPOLYLINE
  5
415
100
AcDbEntity
  8
RACCORDO
100
AcDbPolyline
 62
250
  6
CONTINUOUS
 90
57
 70
0
 10
34.4656342048
 20
15.9693782918
 10
34.454266089
 20
15.9624608237
 10
34.4425061238
 20
15.9557339128
 10
34.4303638315
 20
15.9491954473
 10
34.4178509164
 20
15.9428358417
 10
34.4049764916
 20
15.9366596439
 10
34.3917463685
 20
15.9306856801
 10
34.3781715144
 20
15.924910652
 10
34.3642635104
 20
15.9193315184
 10
34.350028592
 20
15.9139672723
 10
34.3354785461
 20
15.9088137688
 10
34.3206258197
 20
15.9038672775
 10
34.3054770923
 20
15.8991470602
 10
34.2900448354
 20
15.8946480557
 10
34.2743422668
 20
15.8903657513
 10
34.2583765683
 20
15.8863197496
 10
34.242160722
 20
15.8825040345
 10
34.2257086016
 20
15.8789132317
 10
34.2090280078
 20
15.8755673114
 10
34.1921322075
 20
15.8724593061
 10
34.1750355871
 20
15.869582922
 10
34.1577467645
 20
15.8669584572
 10
34.1402790008
 20
15.8645780534
 10
34.1226470131
 20
15.86243447
 10
34.1048605424
 20
15.8605482004
 10
34.0869324762
 20
15.8589106307
 10
34.0688776292
 20
15.8575135868
 10
34.0507073019
 20
15.8563775047
 10
34.0324335572
 20
15.8554932397
 10
34.01407101
 20
15.8548517532
 10
33.9956331002
 20
15.8544730222
 10
33.9771305386
 20
15.8543476973
 10
33.9585773672
 20
15.8544660151
 10
33.9399898795
 20
15.8548469231
 10
33.9213768598
 20
15.8554812952
 10
33.9027513231
 20
15.8563588675
 10
33.8841332184
 20
15.8574968181
 10
33.8655288422
 20
15.8588867536
 10
33.8469496583
 20
15.8605182299
 10
33.8284200594
 20
15.8624057735
 10
33.8099434033
 20
15.8645422713
 10
33.7915290428
 20
15.8669175127
 10
33.773206428
 20
15.8695424195
 10
33.7549757606
 20
15.8724116722
 10
33.7368437584
 20
15.8755157805
 10
33.7188451575
 20
15.8788611504
 10
33.7009771433
 20
15.8824446472
 10
33.6832434174
 20
15.8862580142
 10
33.6656836344
 20
15.8903024167
 10
33.6482925336
 20
15.8945770879
 10
33.6310706908
 20
15.8990754753
 10
33.6140615783
 20
15.9037931046
 10
33.5972584637
 20
15.9087315032
 10
33.5806590688
 20
15.9138861674
 10
33.5643088712
 20
15.9192470045
 10
33.5482180252
 20
15.9248118222
 10
33.532364405
 20
15.9305843933
  0
LWPOLYLINE
  5
416
100
AcDbEntity
  8
RACCORDO
100
AcDbPolyline
 62
250
  6
CONTINUOUS
 90
61
 70
0
 10
-19.2801525007
 20
-12.9411390684
 10
-19.2694207396
 20
-12.93626591
 10
-19.2583293489
 20
-12.9315544297
 10
-19.2468856035
 20
-12.9270077175
 10
-19.2350970092
 20
-12.9226287556
 10
-19.222971298
 20
-12.9184204163
 10
-19.2105164231
 20
-12.9143854595
 10
-19.1977405534
 20
-12.910526532
 10
-19.1846520686
 20
-12.9068461646
 10
-19.1712595534
 20
-12.9033467714
 10
-19.1575717916
 20
-12.9000306474
 10
-19.143597761
 20
-12.8968999679
 10
-19.1293466271
 20
-12.893956786
 10
-19.114827737
 20
-12.8912030324
 10
-19.1000506135
 20
-12.888640513
 10
-19.0850249489
 20
-12.8862709086
 10
-19.0697605982
 20
-12.8840957735
 10
-19.0542675733
 20
-12.8821165343
 10
-19.0385560359
 20
-12.8803344891
 10
-19.022636291
 20
-12.8787508068
 10
-19.0065187803
 20
-12.8773665261
 10
-18.9902140751
 20
-12.876182555
 10
-18.9737328694
 20
-12.8751996699
 10
-18.9570859733
 20
-12.8744185156
 10
-18.9402843051
 20
-12.8738396045
 10
-18.923338885
 20
-12.8734633161
 10
-18.9062608273
 20
-12.8732898974
 10
-18.8890613334
 20
-12.873319462
 10
-18.8717516843
 20
-12.8735519906
 10
-18.8543432331
 20
-12.8739873307
 10
-18.836847398
 20
-12.8746251966
 10
-18.8192756542
 20
-12.8754651702
 10
-18.801639527
 20
-12.8765067003
 10
-18.7839505837
 20
-12.877749104
 10
-18.7662204264
 20
-12.8791915662
 10
-18.748460684
 20
-12.880833141
 10
-18.730683005
 20
-12.8826727516
 10
-18.7128990497
 20
-12.8847091914
 10
-18.6951204824
 20
-12.8869411248
 10
-18.6773589638
 20
-12.8893670878
 10
-18.6596261437
 20
-12.8919854893
 10
-18.6419336527
 20
-12.8947946119
 10
-18.6242930953
 20
-12.8977926132
 10
-18.6067160417
 20
-12.9009775266
 10
-18.5892140205
 20
-12.9043472634
 10
-18.5717985112
 20
-12.9078996133
 10
-18.5544809365
 20
-12.9116322464
 10
-18.5372726547
 20
-12.9155427144
 10
-18.5201849526
 20
-12.9196284526
 10
-18.5032290379
 20
-12.9238867811
 10
-18.4864160319
 20
-12.9283149069
 10
-18.4697569619
 20
-12.9329099257
 10
-18.4532627547
 20
-12.9376688236
 10
-18.4369442284
 20
-12.9425884794
 10
-18.4208120864
 20
-12.9476656661
 10
-18.4048769096
 20
-12.9528970539
 10
-18.3891491496
 20
-12.9582792115
 10
-18.3736391222
 20
-12.9638086087
 10
-18.3583570003
 20
-12.9694816188
 10
-18.3433128072
 20
-12.9752945211
 10
16.0039226978
 20
-26.7699250716
  0
LWPOLYLINE
  5
417
100
AcDbEntity
  8
RACCORDO
100
AcDbPolyline
 62
250
  6
CONTINUOUS
 90
78
 70
0
 10
-18.458728094
 20
-11.523611174
 10
-18.4626560221
 20
-11.5252966221
 10
-18.4665968996
 20
-11.5270288832
 10
-18.4705507265
 20
-11.5288079573
 10
-18.4745177194
 20
-11.5306338347
 10
-18.4784976616
 20
-11.532506525
 10
-18.4824899038
 20
-11.5344260569
 10
-18.4864943945
 20
-11.5363924121
 10
-18.4905111852
 20
-11.5384056088
 10
-18.4945397805
 20
-11.5404657301
 10
-18.4985802134
 20
-11.5425727982
 10
-18.5026324509
 20
-11.5447267909
 10
-18.5066958989
 20
-11.5469277246
 10
-18.5107705511
 20
-11.5491756022
 10
-18.5148564137
 20
-11.5514704207
 10
-18.5189529114
 20
-11.5538121877
 10
-18.5230600514
 20
-11.5562009132
 10
-18.5271778265
 20
-11.5586365871
 10
-18.5313056395
 20
-11.5611191862
 10
-18.535443495
 20
-11.5636487197
 10
-18.5395913883
 20
-11.5662251783
 10
-18.5437487081
 20
-11.5688485112
 10
-18.5479154579
 20
-11.5715187272
 10
-18.5520916342
 20
-11.5742358174
 10
-18.5562766143
 20
-11.5769997047
 10
-18.5604704029
 20
-11.5798103986
 10
-18.5646729954
 20
-11.5826678895
 10
-18.5688837555
 20
-11.5855720713
 10
-18.5731026871
 20
-11.5885229534
 10
-18.5773297863
 20
-11.5915205264
 10
-18.5815644058
 20
-11.5945646564
 10
-18.5858065491
 20
-11.5976553528
 10
-18.5900562126
 20
-11.6007926061
 10
-18.5943127377
 20
-11.6039762539
 10
-18.5985761279
 20
-11.6072063058
 10
-18.6028463797
 20
-11.6104827521
 10
-18.6071228239
 20
-11.6138054017
 10
-18.6114054644
 20
-11.6171742646
 10
-18.6156942973
 20
-11.6205893309
 10
-18.6199886422
 20
-11.6240503793
 10
-18.6242884978
 20
-11.6275574157
 10
-18.6285938654
 20
-11.6311104343
 10
-18.632904068
 20
-11.6347091959
 10
-18.6372191366
 20
-11.6383537346
 10
-18.6415390401
 20
-11.6420440164
 10
-18.6458630093
 20
-11.6457796994
 10
-18.6501910551
 20
-11.6495608024
 10
-18.6545231664
 20
-11.6533873066
 10
-18.6588585412
 20
-11.6572588145
 10
-18.6631971496
 20
-11.661175308
 10
-18.6675390214
 20
-11.6651368052
 10
-18.6718834445
 20
-11.6691429631
 10
-18.6762304005
 20
-11.6731937719
 10
-18.6805799077
 20
-11.6772892414
 10
-18.6849313088
 20
-11.681429059
 10
-18.6892846124
 20
-11.6856132391
 10
-18.6936398098
 20
-11.6898417673
 10
-18.6979962176
 20
-11.694114287
 10
-18.7023538362
 20
-11.6984308055
 10
-18.7067126651
 20
-11.7027913157
 10
-18.711072019
 20
-11.7071954396
 10
-18.7154319003
 20
-11.7116431862
 10
-18.7197923067
 20
-11.7161345466
 10
-18.724152546
 20
-11.7206691161
 10
-18.7285126142
 20
-11.725246897
 10
-18.7328725154
 20
-11.729867887
 10
-18.7372315693
 20
-11.7345316747
 10
-18.7415897763
 20
-11.7392382666
 10
-18.7459471361
 20
-11.743987656
 10
-18.7503029677
 20
-11.7487794115
 10
-18.7546572774
 20
-11.7536135465
 10
-18.759010059
 20
-11.7584900475
 10
-18.7633606126
 20
-11.7634084426
 10
-18.7677089404
 20
-11.7683687409
 10
-18.7720550402
 20
-11.7733709333
 10
-18.7763982056
 20
-11.7784145195
 10
-18.7807384376
 20
-11.7834995078
 10
-18.7894093887
 20
-11.793793141
  0
LINE
  5
418
100
AcDbEntity
  8
ASSI
100
AcDbLine
 62
7
  6
CONTINUOUS
 10
-19.0842099754
 20
12.5407922493
 11
-19.411598504
 21
12.6722788632
  0
LINE
  5
419
100
AcDbEntity
  8
RACCORDO
100
AcDbLine
 62
250
  6
CONTINUOUS
 10
16.9785137669
 20
-41.4594906155
 11
16.9756651475
 21
-41.4521622696
  0
LINE
  5
41A
100
AcDbEntity
  8
RACCORDO
100
AcDbLine
 62
250
  6
CONTINUOUS
 10
16.9756651475
 20
-41.4521622696
 11
16.9727448056
 21
-41.4444575752
  0
LINE
  5
41B
100
AcDbEntity
  8
RACCORDO
100
AcDbLine
 62
250
  6
CONTINUOUS
 10
16.7740293811
 20
-41.2314850647
 11
16.7657957546
 21
-41.2095771862
  0
LINE
  5
41C
100
AcDbEntity
  8
RACCORDO
100
AcDbLine
 62
250
  6
CONTINUOUS
 10
16.9727448056
 20
-41.4444575752
 11
16.9697446154
 21
-41.4363392658
  0
LWPOLYLINE
  5
41D
100
AcDbEntity
  8
RACCORDO
100
AcDbPolyline
 62
250
  6
CONTINUOUS
 90
3
 70
0
 10
16.7657957546
 20
-41.2095771862
 10
16.7573549249
 20
-41.1864961298
 10
16.7530563733
 20
-41.1745070183
  0
LINE
  5
41E
100
AcDbEntity
  8
RACCORDO
100
AcDbLine
 62
250
  6
CONTINUOUS
 10
16.9697446154
 20
-41.4363392658
 11
16.9666722957
 21
-41.4278118611
  0
LINE
  5
41F
100
AcDbEntity
  8
RACCORDO
100
AcDbLine
 62
250
  6
CONTINUOUS
 10
16.9666722957
 20
-41.4278118611
 11
16.9635291813
 21
-41.4188671074
  0
LWPOLYLINE
  5
420
100
AcDbEntity
  8
RACCORDO
100
AcDbPolyline
 62
250
  6
CONTINUOUS
 90
3
 70
0
 10
16.7530563733
 20
-41.1745070183
 10
16.744294823
 20
-41.1495461367
 10
16.7398319993
 20
-41.136574233
  0
LINE
  5
421
100
AcDbEntity
  8
RACCORDO
100
AcDbLine
 62
250
  6
CONTINUOUS
 10
16.9635291813
 20
-41.4188671074
 11
16.9603151082
 21
-41.4094890419
  0
LWPOLYLINE
  5
422
100
AcDbEntity
  8
RACCORDO
100
AcDbPolyline
 62
250
  6
CONTINUOUS
 90
3
 70
0
 10
16.7398319993
 20
-41.136574233
 10
16.7307320316
 20
-41.1095471626
 10
16.7260950981
 20
-41.0954918351
  0
LINE
  5
423
100
AcDbEntity
  8
RACCORDO
100
AcDbLine
 62
250
  6
CONTINUOUS
 10
16.9603151082
 20
-41.4094890419
 11
16.9570165691
 21
-41.399619457
  0
LINE
  5
424
100
AcDbEntity
  8
RACCORDO
100
AcDbLine
 62
250
  6
CONTINUOUS
 10
16.9570165691
 20
-41.399619457
 11
16.9536281224
 21
-41.3892268987
  0
LINE
  5
425
100
AcDbEntity
  8
RACCORDO
100
AcDbLine
 62
250
  6
CONTINUOUS
 10
16.7260950981
 20
-41.0954918351
 11
16.7166344037
 21
-41.0661777607
  0
LINE
  5
426
100
AcDbEntity
  8
RACCORDO
100
AcDbLine
 62
250
  6
CONTINUOUS
 10
16.9536281224
 20
-41.3892268987
 11
16.9501418163
 21
-41.37826459
  0
LINE
  5
427
100
AcDbEntity
  8
RACCORDO
100
AcDbLine
 62
250
  6
CONTINUOUS
 10
16.7166344037
 20
-41.0661777607
 11
16.7069233542
 21
-41.0352219417
  0
LINE
  5
428
100
AcDbEntity
  8
RACCORDO
100
AcDbLine
 62
250
  6
CONTINUOUS
 10
16.9501418163
 20
-41.37826459
 11
16.9465603095
 21
-41.3667166009
  0
LINE
  5
429
100
AcDbEntity
  8
RACCORDO
100
AcDbLine
 62
250
  6
CONTINUOUS
 10
16.7069233542
 20
-41.0352219417
 11
16.696954917
 21
-41.0025098142
  0
LINE
  5
42A
100
AcDbEntity
  8
RACCORDO
100
AcDbLine
 62
250
  6
CONTINUOUS
 10
16.9465603095
 20
-41.3667166009
 11
16.9428841766
 21
-41.3545665254
  0
LWPOLYLINE
  5
42B
100
AcDbEntity
  8
RACCORDO
100
AcDbPolyline
 62
250
  6
CONTINUOUS
 90
3
 70
0
 10
16.696954917
 20
-41.0025098142
 10
16.6867342903
 20
-40.9679561013
 10
16.6815301069
 20
-40.9499772639
  0
LINE
  5
42C
100
AcDbEntity
  8
RACCORDO
100
AcDbLine
 62
250
  6
CONTINUOUS
 10
16.9428841766
 20
-41.3545665254
 11
16.9391140379
 21
-41.3417921062
  0
LINE
  5
42D
100
AcDbEntity
  8
RACCORDO
100
AcDbLine
 62
250
  6
CONTINUOUS
 10
37.8399839164
 20
19.9647162459
 11
33.8925770775
 21
16.7725880807
  0
LWPOLYLINE
  5
42E
100
AcDbEntity
  8
RACCORDO
100
AcDbPolyline
 62
250
  6
CONTINUOUS
 90
61
 70
0
 10
-20.0849698506
 20
-20.0683510577
 10
-20.0740825286
 20
-20.0620705274
 10
-20.0628359158
 20
-20.055952491
 10
-20.0512373838
 20
-20.0500009587
 10
-20.039294535
 20
-20.0442198312
 10
-20.0270151972
 20
-20.038612898
 10
-20.014407419
 20
-20.033183834
 10
-20.0014794642
 20
-20.0279361978
 10
-19.9882398063
 20
-20.0228734289
 10
-19.9746971235
 20
-20.0179988458
 10
-19.9608602922
 20
-20.0133156434
 10
-19.9467383819
 20
-20.0088268915
 10
-19.9323406486
 20
-20.0045355321
 10
-19.9176765296
 20
-20.000444378
 10
-19.9027556364
 20
-19.9965561109
 10
-19.8875877488
 20
-19.9928732791
 10
-19.8721828088
 20
-19.9893982968
 10
-19.8565509136
 20
-19.9861334416
 10
-19.840702309
 20
-19.9830808533
 10
-19.8246473831
 20
-19.9802425329
 10
-19.8083966591
 20
-19.9776203407
 10
-19.7919607886
 20
-19.9752159955
 10
-19.7753505444
 20
-19.9730310731
 10
-19.7585768139
 20
-19.9710670058
 10
-19.7416505913
 20
-19.9693250807
 10
-19.724582971
 20
-19.9678064398
 10
-19.70738514
 20
-19.9665120783
 10
-19.6900683707
 20
-19.9654428448
 10
-19.6726440133
 20
-19.9645994399
 10
-19.6551234886
 20
-19.9639824165
 10
-19.6375182806
 20
-19.9635921791
 10
-19.6198399286
 20
-19.9634289834
 10
-19.6021000199
 20
-19.9634929364
 10
-19.5843101821
 20
-19.9637839962
 10
-19.5664820757
 20
-19.964301972
 10
-19.548627386
 20
-19.9650465242
 10
-19.530757816
 20
-19.966017165
 10
-19.5128850784
 20
-19.967213258
 10
-19.4950208877
 20
-19.9686340193
 10
-19.4771769533
 20
-19.9702785177
 10
-19.4593649708
 20
-19.9721456752
 10
-19.4415966151
 20
-19.974234268
 10
-19.4238835327
 20
-19.9765429272
 10
-19.4062373335
 20
-19.9790701395
 10
-19.3886695838
 20
-19.9818142485
 10
-19.3711917984
 20
-19.9847734555
 10
-19.3538154331
 20
-19.987945821
 10
-19.3365518773
 20
-19.9913292655
 10
-19.3194124464
 20
-19.9949215715
 10
-19.3024083745
 20
-19.9987203842
 10
-19.285550807
 20
-20.0027232139
 10
-19.2688507931
 20
-20.0069274368
 10
-19.252319279
 20
-20.0113302973
 10
-19.2359671001
 20
-20.0159289094
 10
-19.2198049747
 20
-20.0207202591
 10
-19.2038434961
 20
-20.0257012058
 10
-19.1880931265
 20
-20.0308684848
 10
-19.1725641892
 20
-20.0362187091
 10
-19.1572668629
 20
-20.041748372
 10
-19.1422111742
 20
-20.047453849
 10
-19.1274069914
 20
-20.0533314005
  0
LINE
  5
42F
100
AcDbEntity
  8
ASSI
100
AcDbLine
 62
7
  6
CONTINUOUS
 10
-18.2319178376
 20
13.7389490963
 11
-17.8223418154
 21
13.5744541321
  0
LWPOLYLINE
  5
430
100
AcDbEntity
  8
RACCORDO
100
AcDbPolyline
 62
250
  6
CONTINUOUS
 90
40
 70
0
 10
-20.4759561682
 20
37.6554683152
 10
-20.4736208353
 20
37.6525296798
 10
-20.4712610918
 20
37.6495241752
 10
-20.4688769343
 20
37.6464518046
 10
-20.466468718
 20
37.6433141379
 10
-20.4640360803
 20
37.6401096114
 10
-20.4615779406
 20
37.6368335283
 10
-20.4590940474
 20
37.6334856354
 10
-20.4565846435
 20
37.6300661933
 10
-20.4540493884
 20
37.6265712763
 10
-20.4514885385
 20
37.6230013294
 10
-20.4489018277
 20
37.6193559161
 10
-20.446288131
 20
37.6156297896
 10
-20.4436481764
 20
37.6118241865
 10
-20.4409812245
 20
37.60793788
 10
-20.4382839484
 20
37.6039619293
 10
-20.4355568395
 20
37.599897395
 10
-20.4327993926
 20
37.5957432283
 10
-20.4300067836
 20
37.5914873265
 10
-20.4271774465
 20
37.5871275354
 10
-20.4243129304
 20
37.5826660239
 10
-20.4214130817
 20
37.5780971744
 10
-20.4184771199
 20
37.5734197612
 10
-20.4155058062
 20
37.5686350271
 10
-20.4125012979
 20
37.5637410583
 10
-20.4094655769
 20
37.5587412477
 10
-20.40639664
 20
37.553632221
 10
-20.4032906649
 20
37.5484019158
 10
-20.4001484757
 20
37.5430522128
 10
-20.3969692226
 20
37.5375812536
 10
-20.3937465682
 20
37.5319713697
 10
-20.3904790396
 20
37.526220435
 10
-20.3871680775
 20
37.5203306037
 10
-20.3838117111
 20
37.5142906306
 10
-20.3804089789
 20
37.5080989674
 10
-20.3769608043
 20
37.5017571956
 10
-20.3734680407
 20
37.4952587672
 10
-20.369931556
 20
37.4886055045
 10
-20.3663504392
 20
37.4817956229
 10
-20.3627228714
 20
37.4748171673
  0
LINE
  5
431
100
AcDbEntity
  8
RACCORDO
100
AcDbLine
 62
250
  6
CONTINUOUS
 10
16.9391140379
 20
-41.3417921062
 11
16.9352414736
 21
-41.3283379099
  0
LINE
  5
432
100
AcDbEntity
  8
RACCORDO
100
AcDbLine
 62
250
  6
CONTINUOUS
 10
16.6815301069
 20
-40.9499772639
 11
16.6709301041
 21
-40.9124939444
  0
LINE
  5
433
100
AcDbEntity
  8
RACCORDO
100
AcDbLine
 62
250
  6
CONTINUOUS
 10
16.9352414736
 20
-41.3283379099
 11
16.9312619812
 21
-41.3141663836
  0
LINE
  5
434
100
AcDbEntity
  8
RACCORDO
100
AcDbLine
 62
250
  6
CONTINUOUS
 10
16.9312619812
 20
-41.3141663836
 11
16.927166748
 21
-41.2992155839
  0
LINE
  5
435
100
AcDbEntity
  8
RACCORDO
100
AcDbLine
 62
250
  6
CONTINUOUS
 10
16.6709301041
 20
-40.9124939444
 11
16.6600706644
 21
-40.8729158058
  0
LINE
  5
436
100
AcDbEntity
  8
RACCORDO
100
AcDbLine
 62
250
  6
CONTINUOUS
 10
16.927166748
 20
-41.2992155839
 11
16.9229494533
 21
-41.2834270082
  0
LINE
  5
437
100
AcDbEntity
  8
RACCORDO
100
AcDbLine
 62
250
  6
CONTINUOUS
 10
16.6600706644
 20
-40.8729158058
 11
16.6489365774
 21
-40.8310630388
  0
LINE
  5
438
100
AcDbEntity
  8
RACCORDO
100
AcDbLine
 62
250
  6
CONTINUOUS
 10
16.9229494533
 20
-41.2834270082
 11
16.9186071964
 21
-41.266761566
  0
LINE
  5
439
100
AcDbEntity
  8
RACCORDO
100
AcDbLine
 62
250
  6
CONTINUOUS
 10
16.6489365774
 20
-40.8310630388
 11
16.6375196819
 21
-40.7867559525
  0
LINE
  5
43A
100
AcDbEntity
  8
RACCORDO
100
AcDbLine
 62
250
  6
CONTINUOUS
 10
16.9186071964
 20
-41.266761566
 11
16.9141351254
 21
-41.2491619934
  0
LINE
  5
43B
100
AcDbEntity
  8
RACCORDO
100
AcDbLine
 62
250
  6
CONTINUOUS
 10
16.6375196819
 20
-40.7867559525
 11
16.625819792
 21
-40.7398867658
  0
LINE
  5
43C
100
AcDbEntity
  8
RACCORDO
100
AcDbLine
 62
250
  6
CONTINUOUS
 10
16.9141351254
 20
-41.2491619934
 11
16.9095300114
 21
-41.230573332
  0
LINE
  5
43D
100
AcDbEntity
  8
RACCORDO
100
AcDbLine
 62
250
  6
CONTINUOUS
 10
16.9095300114
 20
-41.230573332
 11
16.904790343
 21
-41.2109554937
  0
LINE
  5
43E
100
AcDbEntity
  8
RACCORDO
100
AcDbLine
 62
250
  6
CONTINUOUS
 10
16.625819792
 20
-40.7398867658
 11
16.6138422447
 21
-40.6903127648
  0
LINE
  5
43F
100
AcDbEntity
  8
RACCORDO
100
AcDbLine
 62
250
  6
CONTINUOUS
 10
16.904790343
 20
-41.2109554937
 11
16.8999125379
 21
-41.1902484429
  0
LINE
  5
440
100
AcDbEntity
  8
RACCORDO
100
AcDbLine
 62
250
  6
CONTINUOUS
 10
16.6138422447
 20
-40.6903127648
 11
16.6015978998
 21
-40.6378987906
  0
LINE
  5
441
100
AcDbEntity
  8
RACCORDO
100
AcDbLine
 62
250
  6
CONTINUOUS
 10
16.8999125379
 20
-41.1902484429
 11
16.8948894689
 21
-41.1683719274
  0
LINE
  5
442
100
AcDbEntity
  8
RACCORDO
100
AcDbLine
 62
250
  6
CONTINUOUS
 10
16.6015978998
 20
-40.6378987906
 11
16.5890906964
 21
-40.5825284844
  0
LINE
  5
443
100
AcDbEntity
  8
RACCORDO
100
AcDbLine
 62
250
  6
CONTINUOUS
 10
16.8948894689
 20
-41.1683719274
 11
16.8897176243
 21
-41.1452690458
  0
LINE
  5
444
100
AcDbEntity
  8
RACCORDO
100
AcDbLine
 62
250
  6
CONTINUOUS
 10
16.8897176243
 20
-41.1452690458
 11
16.8843896444
 21
-41.120851625
  0
LINE
  5
445
100
AcDbEntity
  8
RACCORDO
100
AcDbLine
 62
250
  6
CONTINUOUS
 10
16.5890906964
 20
-40.5825284844
 11
16.57631876
 21
-40.5239952761
  0
LINE
  5
446
100
AcDbEntity
  8
RACCORDO
100
AcDbLine
 62
250
  6
CONTINUOUS
 10
16.8843896444
 20
-41.120851625
 11
16.8788949926
 21
-41.0950083064
  0
LINE
  5
447
100
AcDbEntity
  8
RACCORDO
100
AcDbLine
 62
250
  6
CONTINUOUS
 10
16.57631876
 20
-40.5239952761
 11
16.5632819504
 21
-40.4620661472
  0
LINE
  5
448
100
AcDbEntity
  8
RACCORDO
100
AcDbLine
 62
250
  6
CONTINUOUS
 10
16.8788949926
 20
-41.0950083064
 11
16.8732291596
 21
-41.0676642969
  0
LINE
  5
449
100
AcDbEntity
  8
RACCORDO
100
AcDbLine
 62
250
  6
CONTINUOUS
 10
16.5632819504
 20
-40.4620661472
 11
16.5499885111
 21
-40.3966093371
  0
LINE
  5
44A
100
AcDbEntity
  8
RACCORDO
100
AcDbLine
 62
250
  6
CONTINUOUS
 10
16.8732291596
 20
-41.0676642969
 11
16.86738211
 21
-41.0386997333
  0
LWPOLYLINE
  5
44B
100
AcDbEntity
  8
RACCORDO
100
AcDbPolyline
 62
250
  6
CONTINUOUS
 90
3
 70
0
 10
16.86738211
 20
-41.0386997333
 10
16.8613529006
 20
-41.0080316144
 10
16.8582709647
 20
-40.9920471572
  0
LWPOLYLINE
  5
44C
100
AcDbEntity
  8
RACCORDO
100
AcDbPolyline
 62
250
  6
CONTINUOUS
 90
3
 70
0
 10
16.5499885111
 20
-40.3966093371
 10
16.5364594302
 20
-40.3274706126
 10
16.5296110903
 20
-40.2914485664
  0
LINE
  5
44D
100
AcDbEntity
  8
RACCORDO
100
AcDbLine
 62
250
  6
CONTINUOUS
 10
16.7069056217
 20
-39.9264972274
 11
16.6966995707
 21
-39.8321511927
  0
LINE
  5
44E
100
AcDbEntity
  8
RACCORDO
100
AcDbLine
 62
250
  6
CONTINUOUS
 10
16.6966995707
 20
-39.8321511927
 11
16.686354433
 21
-39.7329829582
  0
LINE
  5
44F
100
AcDbEntity
  8
RACCORDO
100
AcDbLine
 62
250
  6
CONTINUOUS
 10
16.686354433
 20
-39.7329829582
 11
16.6758970187
 21
-39.6289317939
  0
LWPOLYLINE
  5
450
100
AcDbEntity
  8
RACCORDO
100
AcDbPolyline
 62
250
  6
CONTINUOUS
 90
3
 70
0
 10
16.6758970187
 20
-39.6289317939
 10
16.6653535767
 20
-39.5199119515
 10
16.6600597547
 20
-39.4635319892
  0
LINE
  5
451
100
AcDbEntity
  8
RACCORDO
100
AcDbLine
 62
250
  6
CONTINUOUS
 10
16.8059813648
 20
21.8229265651
 11
16.8136503474
 21
21.8674178909
  0
LINE
  5
452
100
AcDbEntity
  8
RACCORDO
100
AcDbLine
 62
250
  6
CONTINUOUS
 10
16.8136503474
 20
21.8674178909
 11
16.8211036047
 21
21.9093065966
  0
LINE
  5
453
100
AcDbEntity
  8
RACCORDO
100
AcDbLine
 62
250
  6
CONTINUOUS
 10
16.8211036047
 20
21.9093065966
 11
16.8283386003
 21
21.9487133775
  0
LINE
  5
454
100
AcDbEntity
  8
RACCORDO
100
AcDbLine
 62
250
  6
CONTINUOUS
 10
16.8283386003
 20
21.9487133775
 11
16.8353531203
 21
21.985731613
  0
LINE
  5
455
100
AcDbEntity
  8
RACCORDO
100
AcDbLine
 62
250
  6
CONTINUOUS
 10
16.8353531203
 20
21.985731613
 11
16.8421512716
 21
22.0205079225
  0
LINE
  5
456
100
AcDbEntity
  8
RACCORDO
100
AcDbLine
 62
250
  6
CONTINUOUS
 10
16.8421512716
 20
22.0205079225
 11
16.8487456993
 21
22.0532185386
  0
LINE
  5
457
100
AcDbEntity
  8
RACCORDO
100
AcDbLine
 62
250
  6
CONTINUOUS
 10
16.8487456993
 20
22.0532185386
 11
16.8551414927
 21
22.0839714333
  0
LINE
  5
458
100
AcDbEntity
  8
RACCORDO
100
AcDbLine
 62
250
  6
CONTINUOUS
 10
16.8551414927
 20
22.0839714333
 11
16.8613528724
 21
22.1129320448
  0
LINE
  5
459
100
AcDbEntity
  8
RACCORDO
100
AcDbLine
 62
250
  6
CONTINUOUS
 10
16.8613528724
 20
22.1129320448
 11
16.8673820831
 21
22.1401972022
  0
LINE
  5
45A
100
AcDbEntity
  8
RACCORDO
100
AcDbLine
 62
250
  6
CONTINUOUS
 10
16.8673820831
 20
22.1401972022
 11
16.8732291341
 21
22.1658323046
  0
LINE
  5
45B
100
AcDbEntity
  8
RACCORDO
100
AcDbLine
 62
250
  6
CONTINUOUS
 10
16.8732291341
 20
22.1658323046
 11
16.8788949683
 21
22.1899229979
  0
LINE
  5
45C
100
AcDbEntity
  8
RACCORDO
100
AcDbLine
 62
250
  6
CONTINUOUS
 10
16.8788949683
 20
22.1899229979
 11
16.8843896213
 21
22.2125860322
  0
LINE
  5
45D
100
AcDbEntity
  8
RACCORDO
100
AcDbLine
 62
250
  6
CONTINUOUS
 10
16.8843896213
 20
22.2125860322
 11
16.8897176023
 21
22.2338931685
  0
LINE
  5
45E
100
AcDbEntity
  8
RACCORDO
100
AcDbLine
 62
250
  6
CONTINUOUS
 10
16.8897176023
 20
22.2338931685
 11
16.894889448
 21
22.2539526097
  0
LINE
  5
45F
100
AcDbEntity
  8
RACCORDO
100
AcDbLine
 62
250
  6
CONTINUOUS
 10
16.894889448
 20
22.2539526097
 11
16.8999125179
 21
22.2728504346
  0
LINE
  5
460
100
AcDbEntity
  8
RACCORDO
100
AcDbLine
 62
250
  6
CONTINUOUS
 10
16.8999125179
 20
22.2728504346
 11
16.904790324
 21
22.2906412899
  0
LINE
  5
461
100
AcDbEntity
  8
RACCORDO
100
AcDbLine
 62
250
  6
CONTINUOUS
 10
16.904790324
 20
22.2906412899
 11
16.9095299933
 21
22.307403695
  0
LINE
  5
462
100
AcDbEntity
  8
RACCORDO
100
AcDbLine
 62
250
  6
CONTINUOUS
 10
16.9095299933
 20
22.307403695
 11
16.9141351082
 21
22.323197593
  0
LWPOLYLINE
  5
463
100
AcDbEntity
  8
RACCORDO
100
AcDbPolyline
 62
250
  6
CONTINUOUS
 90
3
 70
0
 10
16.9141351082
 20
22.323197593
 10
16.9186071801
 20
22.3380621128
 10
16.9207946875
 20
22.3451666369
  0
LWPOLYLINE
  5
464
100
AcDbEntity
  8
RACCORDO
100
AcDbPolyline
 62
250
  6
CONTINUOUS
 90
104
 70
0
 10
16.9207946875
 20
22.3451666369
 10
16.9250736089
 20
22.3587386885
 10
16.9271667333
 20
22.3652250036
 10
16.9292286331
 20
22.3715113845
 10
16.9312619673
 20
22.3776168851
 10
16.9332662809
 20
22.3835413843
 10
16.9352414603
 20
22.3892848007
 10
16.9371907299
 20
22.3948662679
 10
16.9391140253
 20
22.4002866854
 10
16.941010924
 20
22.4055449774
 10
16.9428841647
 20
22.4106573356
 10
16.9447342701
 20
22.4156259329
 10
16.9465602981
 20
22.4204484422
 10
16.9483628175
 20
22.4251343156
 10
16.9501418055
 20
22.4296839978
 10
16.9518968878
 20
22.4340968939
 10
16.9536281122
 20
22.4383808974
 10
16.9553344574
 20
22.4425341105
 10
16.9570165595
 20
22.4465582803
 10
16.9586769713
 20
22.4504667759
 10
16.9603150991
 20
22.4542590014
 10
16.9619312052
 20
22.4579354212
 10
16.9635291728
 20
22.4615110142
 10
16.9651099293
 20
22.4649884055
 10
16.9666722874
 20
22.4683648675
 10
16.9682169889
 20
22.4716473638
 10
16.9697446076
 20
22.4748372855
 10
16.9712543267
 20
22.4779331435
 10
16.9727447983
 20
22.4809375786
 10
16.9742147225
 20
22.4838482694
 10
16.9756651406
 20
22.4866674284
 10
16.9770982217
 20
22.4894044995
 10
16.9785137604
 20
22.4920595675
 10
16.9799117433
 20
22.4946324546
 10
16.9812946545
 20
22.4971322243
 10
16.9826627701
 20
22.499559748
 10
16.9840156329
 20
22.5019140772
 10
16.9853546493
 20
22.5042015544
 10
16.9866800804
 20
22.5064228419
 10
16.9879915049
 20
22.5085772086
 10
16.9892893162
 20
22.5106689125
 10
16.9905733911
 20
22.5126979107
 10
16.9918437002
 20
22.5146641791
 10
16.9931007817
 20
22.5165720056
 10
16.9943444535
 20
22.5184212845
 10
16.9955747552
 20
22.5202120579
 10
16.9967925644
 20
22.5219488387
 10
16.9979977673
 20
22.5236316466
 10
16.9991903484
 20
22.5252604036
 10
17.0003713422
 20
22.5268394804
 10
17.0015407276
 20
22.5283690172
 10
17.0026984103
 20
22.5298488211
 10
17.0038453243
 20
22.531282769
 10
17.0049814435
 20
22.5326709738
 10
17.0061066905
 20
22.5340132746
 10
17.0072219309
 20
22.535313142
 10
17.0083270676
 20
22.5365706032
 10
17.0094221044
 20
22.5377855874
 10
17.010508066
 20
22.5389614222
 10
17.0115849511
 20
22.5400982372
 10
17.0126526792
 20
22.5411958646
 10
17.0137121647
 20
22.54225719
 10
17.014763833
 20
22.5432826792
 10
17.0158071876
 20
22.5442718332
 10
17.0168417623
 20
22.5452260911
 10
17.0178678978
 20
22.5461456776
 10
17.01888518
 20
22.5470303327
 10
17.019892002
 20
22.5478807633
 10
17.02088828
 20
22.5486967681
 10
17.0218740126
 20
22.5494785055
 10
17.0228477052
 20
22.5502272159
 10
17.0238089486
 20
22.5509425229
 10
17.0247580576
 20
22.5516247537
 10
17.0256946167
 20
22.5522761991
 10
17.0266183045
 20
22.5528966654
 10
17.0275293488
 20
22.5534862965
 10
17.0284281582
 20
22.5540478887
 10
17.0293146469
 20
22.5545814564
 10
17.0301888142
 20
22.5550869385
 10
17.0310512002
 20
22.5555670197
 10
17.0319017706
 20
22.5560217485
 10
17.0327404802
 20
22.556451033
 10
17.0335678567
 20
22.5568573495
 10
17.0343838272
 20
22.5572407294
 10
17.0351883915
 20
22.5576011009
 10
17.0359821901
 20
22.5579407883
 10
17.0367649256
 20
22.5582597653
 10
17.0375368286
 20
22.5585580209
 10
17.0382993384
 20
22.5588379062
 10
17.0390525079
 20
22.5590995538
 10
17.039796229
 20
22.5593428002
 10
17.040531707
 20
22.5595695568
 10
17.0412589967
 20
22.5597799287
 10
17.0419779967
 20
22.5599737846
 10
17.0426896843
 20
22.5601526849
 10
17.0433941604
 20
22.560316716
 10
17.0440912841
 20
22.5604657691
 10
17.0447816738
 20
22.5606011149
 10
17.0454652996
 20
22.560722794
 10
17.0461421555
 20
22.5608307456
 10
17.0468128987
 20
22.5609260901
 10
17.0474777383
 20
22.5610091953
 10
17.0481364341
 20
22.5610796756
 10
17.0487889704
 20
22.5611375223
  0
LWPOLYLINE
  5
465
100
AcDbEntity
  8
RACCORDO
100
AcDbPolyline
 62
250
  6
CONTINUOUS
 90
58
 70
0
 10
33.8925770775
 20
16.7725880807
 10
33.8827143555
 20
16.7635234723
 10
33.872866669
 20
16.7541076637
 10
33.8630402763
 20
16.7443466226
 10
33.8532413946
 20
16.7342464963
 10
33.8434762808
 20
16.7238137262
 10
33.8337512254
 20
16.7130550567
 10
33.8240724139
 20
16.7019773534
 10
33.8144459899
 20
16.690587623
 10
33.804878135
 20
16.6788931397
 10
33.7953749577
 20
16.6669013517
 10
33.7859424692
 20
16.6546198649
 10
33.7765866434
 20
16.6420564756
 10
33.7673134169
 20
16.6292191638
 10
33.7581286913
 20
16.6161160904
 10
33.7490383093
 20
16.6027555837
 10
33.7400480503
 20
16.5891461346
 10
33.7311636247
 20
16.5752963909
 10
33.7223906764
 20
16.5612151534
 10
33.7137347795
 20
16.5469113703
 10
33.7052014355
 20
16.5323941312
 10
33.6967960677
 20
16.5176726614
 10
33.6885240175
 20
16.5027563161
 10
33.6803905415
 20
16.487654574
 10
33.672400808
 20
16.472377032
 10
33.6645598943
 20
16.4569333984
 10
33.656872783
 20
16.4413334873
 10
33.6493443593
 20
16.4255872118
 10
33.6419794072
 20
16.4097045784
 10
33.6347826069
 20
16.3936956798
 10
33.6277585318
 20
16.3775706893
 10
33.6209116454
 20
16.361339854
 10
33.6142462988
 20
16.3450134878
 10
33.6077667278
 20
16.3286019659
 10
33.6014770501
 20
16.3121157171
 10
33.5953812624
 20
16.295565218
 10
33.5894832386
 20
16.2789609859
 10
33.5837867266
 20
16.2623135723
 10
33.5782953465
 20
16.2456335562
 10
33.5730125881
 20
16.2289315372
 10
33.567941809
 20
16.2122181289
 10
33.563086231
 20
16.1955039523
 10
33.5584489387
 20
16.1787996284
 10
33.5540328778
 20
16.1621157717
 10
33.5498408559
 20
16.145462985
 10
33.5458755393
 20
16.1288518524
 10
33.5421394507
 20
16.1122929338
 10
33.5386349611
 20
16.0957967479
 10
33.535364291
 20
16.0793737675
 10
33.5323295119
 20
16.0630344103
 10
33.5295325611
 20
16.0467890786
 10
33.5269752307
 20
16.0306481422
 10
33.5246591426
 20
16.0146218123
 10
33.522585769
 20
15.9987203183
 10
33.520756438
 20
15.9829539429
 10
33.5191723052
 20
15.9673327582
 10
33.5178343623
 20
15.9518666238
 10
33.4402187433
 20
14.8129029045
  0
LINE
  5
466
100
AcDbEntity
  8
RACCORDO
100
AcDbLine
 62
250
  6
CONTINUOUS
 10
38.4130410437
 20
19.161506457
 11
34.4656342026
 21
15.96937829
  0
LINE
  5
467
100
AcDbEntity
  8
RACCORDO
100
AcDbLine
 62
250
  6
CONTINUOUS
 10
16.8582709647
 20
-40.9920471572
 11
16.8519664776
 21
-40.9586770956
  0
LINE
  5
468
100
AcDbEntity
  8
RACCORDO
100
AcDbLine
 62
250
  6
CONTINUOUS
 10
16.5296110903
 20
-40.2914485664
 11
16.5157540678
 21
-40.2164344509
  0
LINE
  5
469
100
AcDbEntity
  8
RACCORDO
100
AcDbLine
 62
250
  6
CONTINUOUS
 10
16.8519664776
 20
-40.9586770956
 11
16.8454736187
 21
-40.9233822353
  0
LINE
  5
46A
100
AcDbEntity
  8
RACCORDO
100
AcDbLine
 62
250
  6
CONTINUOUS
 10
16.8454736187
 20
-40.9233822353
 11
16.8387797376
 21
-40.8859998713
  0
LINE
  5
46B
100
AcDbEntity
  8
RACCORDO
100
AcDbLine
 62
250
  6
CONTINUOUS
 10
16.5157540678
 20
-40.2164344509
 11
16.5016963049
 21
-40.1372111075
  0
LINE
  5
46C
100
AcDbEntity
  8
RACCORDO
100
AcDbLine
 62
250
  6
CONTINUOUS
 10
16.8387797376
 20
-40.8859998713
 11
16.8318721732
 21
-40.8463510241
  0
LINE
  5
46D
100
AcDbEntity
  8
RACCORDO
100
AcDbLine
 62
250
  6
CONTINUOUS
 10
16.5016963049
 20
-40.1372111075
 11
16.4874572796
 21
-40.053643821
  0
LINE
  5
46E
100
AcDbEntity
  8
RACCORDO
100
AcDbLine
 62
250
  6
CONTINUOUS
 10
16.8318721732
 20
-40.8463510241
 11
16.8247488071
 21
-40.8043270337
  0
LINE
  5
46F
100
AcDbEntity
  8
RACCORDO
100
AcDbLine
 62
250
  6
CONTINUOUS
 10
16.8247488071
 20
-40.8043270337
 11
16.8174049428
 21
-40.7597776053
  0
LINE
  5
470
100
AcDbEntity
  8
RACCORDO
100
AcDbLine
 62
250
  6
CONTINUOUS
 10
16.4874572796
 20
-40.053643821
 11
16.4730730692
 21
-39.9655801681
  0
LINE
  5
471
100
AcDbEntity
  8
RACCORDO
100
AcDbLine
 62
250
  6
CONTINUOUS
 10
16.8174049428
 20
-40.7597776053
 11
16.8098423207
 21
-40.712582264
  0
LINE
  5
472
100
AcDbEntity
  8
RACCORDO
100
AcDbLine
 62
250
  6
CONTINUOUS
 10
16.8098423207
 20
-40.712582264
 11
16.8020629668
 21
-40.662635271
  0
LWPOLYLINE
  5
473
100
AcDbEntity
  8
RACCORDO
100
AcDbPolyline
 62
250
  6
CONTINUOUS
 90
4
 70
0
 10
16.4730730692
 20
-39.9655801681
 10
16.4585781932
 20
-39.872834166
 10
16.4512956274
 20
-39.8246809656
 10
16.4440021175
 20
-39.775288654
  0
LINE
  5
474
100
AcDbEntity
  8
RACCORDO
100
AcDbLine
 62
250
  6
CONTINUOUS
 10
16.8020629668
 20
-40.662635271
 11
16.7940615535
 21
-40.6097575308
  0
LINE
  5
475
100
AcDbEntity
  8
RACCORDO
100
AcDbLine
 62
250
  6
CONTINUOUS
 10
16.7940615535
 20
-40.6097575308
 11
16.7858260042
 21
-40.5537068236
  0
LINE
  5
476
100
AcDbEntity
  8
RACCORDO
100
AcDbLine
 62
250
  6
CONTINUOUS
 10
16.7858260042
 20
-40.5537068236
 11
16.7773593855
 21
-40.4943510312
  0
LWPOLYLINE
  5
477
100
AcDbEntity
  8
RACCORDO
100
AcDbPolyline
 62
250
  6
CONTINUOUS
 90
69
 70
0
 10
16.4440021175
 20
-39.775288654
 10
16.4293855716
 20
-39.6727661895
 10
16.4220813692
 20
-39.6196144138
 10
16.4147864988
 20
-39.565188966
 10
16.4075029837
 20
-39.5094912179
 10
16.4002480731
 20
-39.4525002027
 10
16.3930228818
 20
-39.3942085402
 10
16.3858299255
 20
-39.3346209859
 10
16.3786886667
 20
-39.2737347
 10
16.3716002518
 20
-39.2115392489
 10
16.3645674483
 20
-39.1480422567
 10
16.3576121986
 20
-39.0832679405
 10
16.3507362588
 20
-39.0172082834
 10
16.3439419827
 20
-38.9498683765
 10
16.3372521824
 20
-38.8812921244
 10
16.3306687944
 20
-38.8114708599
 10
16.3241941121
 20
-38.7404102667
 10
16.3178513779
 20
-38.6681758607
 10
16.3116426471
 20
-38.5947578523
 10
16.3055701148
 20
-38.5201630648
 10
16.2996570302
 20
-38.4444820888
 10
16.2939058039
 20
-38.3677081195
 10
16.2883181634
 20
-38.2898451101
 10
16.2829160327
 20
-38.211000012
 10
16.2777018704
 20
-38.1311668341
 10
16.2726771375
 20
-38.0503489065
 10
16.2678618773
 20
-37.9686674454
 10
16.2632585547
 20
-37.8861181254
 10
16.2588682984
 20
-37.8027028761
 10
16.2547086898
 20
-37.7185526304
 10
16.2507820658
 20
-37.633663789
 10
16.2470892683
 20
-37.5480378797
 10
16.243645117
 20
-37.4618139011
 10
16.2404518272
 20
-37.3749913894
 10
16.2375098638
 20
-37.2875691151
 10
16.2348308619
 20
-37.199685326
 10
16.2324167354
 20
-37.1113398043
 10
16.2302677183
 20
-37.0225314699
 10
16.2283923511
 20
-36.9333976826
 10
16.2267922546
 20
-36.8439398781
 10
16.225467393
 20
-36.7541557321
 10
16.2244232452
 20
-36.664177368
 10
16.2236610914
 20
-36.5740067523
 10
16.2231806742
 20
-36.4836414306
 10
16.2229846043
 20
-36.3932072834
 10
16.2230738176
 20
-36.3027072756
 10
16.2234478502
 20
-36.2121383391
 10
16.2241066769
 20
-36.1216176722
 10
16.2250509012
 20
-36.0311481906
 10
16.2262798731
 20
-35.9407272303
 10
16.2277911849
 20
-35.8504639603
 10
16.2295851169
 20
-35.7603619974
 10
16.2316608572
 20
-35.6704183015
 10
16.2340138958
 20
-35.5807323669
 10
16.2366442163
 20
-35.4913079254
 10
16.2395508661
 20
-35.4021421079
 10
16.2427275131
 20
-35.313324784
 10
16.2461738885
 20
-35.2248594644
 10
16.2498889052
 20
-35.1367437473
 10
16.253864629
 20
-35.0490588784
 10
16.2581005459
 20
-34.9618086685
 10
16.2625954744
 20
-34.8749906253
 10
16.2673401479
 20
-34.7886767534
 10
16.2723338671
 20
-34.7028705262
 10
16.2775753494
 20
-34.6175699592
 10
16.2830541655
 20
-34.5328390527
 10
16.2887660381
 20
-34.4486997212
 10
16.2947129959
 20
-34.365131693
 10
16.3008939409
 20
-34.2821357673
  0
LINE
  5
478
100
AcDbEntity
  8
RACCORDO
100
AcDbLine
 62
250
  6
CONTINUOUS
 10
16.7773593855
 20
-40.4943510312
 11
16.7686661537
 21
-40.4315368576
  0
LINE
  5
479
100
AcDbEntity
  8
RACCORDO
100
AcDbLine
 62
250
  6
CONTINUOUS
 10
16.7686661537
 20
-40.4315368576
 11
16.7597473798
 21
-40.365075492
  0
LINE
  5
47A
100
AcDbEntity
  8
RACCORDO
100
AcDbLine
 62
250
  6
CONTINUOUS
 10
16.7597473798
 20
-40.365075492
 11
16.7506091989
 21
-40.2948226377
  0
LINE
  5
47B
100
AcDbEntity
  8
RACCORDO
100
AcDbLine
 62
250
  6
CONTINUOUS
 10
16.7506091989
 20
-40.2948226377
 11
16.741247145
 21
-40.220517311
  0
LINE
  5
47C
100
AcDbEntity
  8
RACCORDO
100
AcDbLine
 62
250
  6
CONTINUOUS
 10
16.741247145
 20
-40.220517311
 11
16.7316736811
 21
-40.1420143231
  0
LINE
  5
47D
100
AcDbEntity
  8
RACCORDO
100
AcDbLine
 62
250
  6
CONTINUOUS
 10
16.7316736811
 20
-40.1420143231
 11
16.7219038632
 21
-40.0591986584
  0
LWPOLYLINE
  5
47E
100
AcDbEntity
  8
RACCORDO
100
AcDbPolyline
 62
250
  6
CONTINUOUS
 90
3
 70
0
 10
16.7219038632
 20
-40.0591986584
 10
16.7119487761
 20
-39.9718917446
 10
16.7069056217
 20
-39.9264972274
  0
LINE
  5
47F
100
AcDbEntity
  8
RACCORDO
100
AcDbLine
 62
250
  6
CONTINUOUS
 10
16.6600597547
 20
-39.4635319892
 11
16.6494467261
 21
-39.3470032802
  0
LINE
  5
480
100
AcDbEntity
  8
RACCORDO
100
AcDbLine
 62
250
  6
CONTINUOUS
 10
16.6494467261
 20
-39.3470032802
 11
16.6388345311
 21
-39.2255134621
  0
LWPOLYLINE
  5
481
100
AcDbEntity
  8
RACCORDO
100
AcDbPolyline
 62
250
  6
CONTINUOUS
 90
31
 70
0
 10
16.4194855882
 20
-41.3102362001
 10
16.4206035547
 20
-41.3236690466
 10
16.4219736302
 20
-41.3368500116
 10
16.4235949874
 20
-41.3497706718
 10
16.4254660385
 20
-41.3624227332
 10
16.4275862452
 20
-41.3747981257
 10
16.4299560751
 20
-41.3868890584
 10
16.4325739839
 20
-41.3986876455
 10
16.435438341
 20
-41.4101865777
 10
16.4385492074
 20
-41.4213792554
 10
16.4419046137
 20
-41.4322585611
 10
16.4455024246
 20
-41.4428175697
 10
16.4493422157
 20
-41.4530502759
 10
16.4534215581
 20
-41.4629501781
 10
16.4577378612
 20
-41.4725109799
 10
16.4622902283
 20
-41.4817273115
 10
16.4670758424
 20
-41.4905933468
 10
16.4720916146
 20
-41.499103434
 10
16.4773360195
 20
-41.5072528104
 10
16.4828064224
 20
-41.5150365708
 10
16.4884986998
 20
-41.5224495305
 10
16.4944088854
 20
-41.5294868595
 10
16.5005337005
 20
-41.5361442725
 10
16.5068688629
 20
-41.5424173921
 10
16.5134087112
 20
-41.548301602
 10
16.5201491493
 20
-41.5537931765
 10
16.5270859583
 20
-41.5588886416
 10
16.5342131164
 20
-41.563584114
 10
16.5415259083
 20
-41.5678765156
 10
16.549020026
 20
-41.5717632267
 10
16.5573259858
 20
-41.5755082462
  0
LINE
  5
482
100
AcDbEntity
  8
RACCORDO
100
AcDbLine
 62
250
  6
CONTINUOUS
 10
16.6388345311
 20
-39.2255134621
 11
16.6282613016
 21
-39.0991123792
  0
LINE
  5
483
100
AcDbEntity
  8
RACCORDO
100
AcDbLine
 62
250
  6
CONTINUOUS
 10
16.6282613016
 20
-39.0991123792
 11
16.6177687819
 21
-38.9678980347
  0
LINE
  5
484
100
AcDbEntity
  8
RACCORDO
100
AcDbLine
 62
250
  6
CONTINUOUS
 10
16.6177687819
 20
-38.9678980347
 11
16.6074027544
 21
-38.8320410814
  0
LINE
  5
485
100
AcDbEntity
  8
RACCORDO
100
AcDbLine
 62
7
  6
CONTINUOUS
 10
16.4168501247
 20
-41.2744773202
 11
16.4194856357
 21
-41.3102362192
  0
LINE
  5
486
100
AcDbEntity
  8
RACCORDO
100
AcDbLine
 62
250
  6
CONTINUOUS
 10
16.6074027544
 20
-38.8320410814
 11
16.5972048009
 21
-38.6916772115
  0
LINE
  5
487
100
AcDbEntity
  8
RACCORDO
100
AcDbLine
 62
250
  6
CONTINUOUS
 10
16.5972048009
 20
-38.6916772115
 11
16.587222078
 21
-38.5470446911
  0
LWPOLYLINE
  5
488
100
AcDbEntity
  8
RACCORDO
100
AcDbPolyline
 62
250
  6
CONTINUOUS
 90
3
 70
0
 10
16.587222078
 20
-38.5470446911
 10
16.5775027723
 20
-38.3984396563
 10
16.5762617392
 20
-38.3788564231
  0
LWPOLYLINE
  5
489
100
AcDbEntity
  8
RACCORDO
100
AcDbPolyline
 62
7
  6
CONTINUOUS
 90
56
 70
0
 10
16.553231581
 20
19.2544830632
 10
16.5048479432
 20
18.3796040559
 10
16.4449357435
 20
17.2601147144
 10
16.3873671438
 20
16.1423942775
 10
16.3321428042
 20
15.0264545324
 10
16.2792633636
 20
13.9123077189
 10
16.2287294401
 20
12.7999658523
 10
16.1805416408
 20
11.689440939
 10
16.1347005359
 20
10.5807452989
 10
16.0912066869
 20
9.4738914159
 10
16.0500606269
 20
8.3688914145
 10
16.0112628344
 20
7.26575726
 10
15.9748137847
 20
6.1645011917
 10
15.9407139337
 20
5.0651352436
 10
15.9089636845
 20
3.9676713766
 10
15.8795634326
 20
2.8721217166
 10
15.8525135565
 20
1.7784982662
 10
15.8278143817
 20
0.6868128825
 10
15.8054662222
 20
-0.4029225307
 10
15.785469381
 20
-1.4906960049
 10
15.7678241069
 20
-2.5764957747
 10
15.752530635
 20
-3.6603102409
 10
15.7395891921
 20
-4.7421275717
 10
15.7289999545
 20
-5.8219359928
 10
15.7207630836
 20
-6.8997239914
 10
15.7148787324
 20
-7.9754798046
 10
15.7113470025
 20
-9.0491917183
 10
15.710167983
 20
-10.1208482915
 10
15.7113417522
 20
-11.1904378226
 10
15.7148683377
 20
-12.2579486678
 10
15.7207477561
 20
-13.3233694718
 10
15.7289800118
 20
-14.3866886036
 10
15.739565058
 20
-15.4478944823
 10
15.7525028395
 20
-16.5069758262
 10
15.7677932866
 20
-17.5639210805
 10
15.7854362785
 20
-18.6187187238
 10
15.8054316876
 20
-19.6713575232
 10
15.8277793719
 20
-20.7218260726
 10
15.8524791351
 20
-21.770112839
 10
15.8795307703
 20
-22.8162063996
 10
15.9089340595
 20
-23.8600953893
 10
15.9406887309
 20
-24.9017683794
 10
15.9747944966
 20
-25.9412138556
 10
16.0112510603
 20
-26.9784204807
 10
16.0500580742
 20
-28.0133769391
 10
16.0912151704
 20
-29.0460717533
 10
16.1347219783
 20
-30.0764937158
 10
16.1805780728
 20
-31.1046315578
 10
16.2287830009
 20
-32.130473716
 10
16.2793363008
 20
-33.1540087911
 10
16.3322374737
 20
-34.1752257647
 10
16.3874860113
 20
-35.1941136486
 10
16.4450813835
 20
-36.2106612458
 10
16.5050230392
 20
-37.2248578516
 10
16.5673104442
 20
-38.236693214
 10
16.5762618036
 20
-38.3788574432
  0
LINE
  5
48A
100
AcDbEntity
  8
RACCORDO
100
AcDbLine
 62
250
  6
CONTINUOUS
 10
16.5532315524
 20
19.254482552
 11
16.5590186312
 21
19.3554353549
  0
LINE
  5
48B
100
AcDbEntity
  8
RACCORDO
100
AcDbLine
 62
250
  6
CONTINUOUS
 10
16.5590186312
 20
19.3554353549
 11
16.568086712
 21
19.5054465746
  0
LWPOLYLINE
  5
48C
100
AcDbEntity
  8
RACCORDO
100
AcDbPolyline
 62
250
  6
CONTINUOUS
 90
61
 70
0
 10
17.0563374017
 20
22.5490448088
 10
16.9870778497
 20
21.4224609869
 10
16.9201589498
 20
20.2976063574
 10
16.8555814694
 20
19.1744931744
 10
16.7933461827
 20
18.053133655
 10
16.73345377
 20
16.9335400347
 10
16.6759048174
 20
15.815724567
 10
16.6206999808
 20
14.6996994309
 10
16.5678398973
 20
13.5854767871
 10
16.5173250846
 20
12.4730688326
 10
16.4691561178
 20
11.3624876933
 10
16.4233335532
 20
10.2537454677
 10
16.3798578391
 20
9.1468542828
 10
16.33872947
 20
8.041826209
 10
16.2999489213
 20
6.9386732827
 10
16.2635165716
 20
5.8374075495
 10
16.2294328347
 20
4.7380410148
 10
16.1976981054
 20
3.6405856603
 10
16.1683126936
 20
2.5450534651
 10
16.1412769321
 20
1.4514563707
 10
16.1165911351
 20
0.3598063008
 10
16.0942555439
 20
-0.7298848235
 10
16.0742704105
 20
-1.8176051201
 10
16.0566359681
 20
-2.9033427306
 10
16.041352389
 20
-3.9870858002
 10
16.0284198447
 20
-5.068822509
 10
16.0178384872
 20
-6.1485410633
 10
16.00960842
 20
-7.2262296804
 10
16.0037297334
 20
-8.3018766054
 10
16.0002024989
 20
-9.3754701087
 10
15.9990267509
 20
-10.4469984783
 10
16.0002024989
 20
-11.5164500249
 10
16.0037297334
 20
-12.5838130846
 10
16.00960842
 20
-13.6490760167
 10
16.0178384872
 20
-14.7122271988
 10
16.0284198447
 20
-15.7732550336
 10
16.041352389
 20
-16.8321479523
 10
16.0566359681
 20
-17.8888944009
 10
16.0742704105
 20
-18.9434828496
 10
16.0942555439
 20
-19.9959018002
 10
16.1165911351
 20
-21.0461397662
 10
16.1412769321
 20
-22.0941852886
 10
16.1683126936
 20
-23.1400269447
 10
16.1976981054
 20
-24.1836533158
 10
16.2294328348
 20
-25.2250530156
 10
16.2635165716
 20
-26.2642147054
 10
16.2999489213
 20
-27.3011270408
 10
16.33872947
 20
-28.3357787037
 10
16.3798578391
 20
-29.3681584314
 10
16.4233335532
 20
-30.3982549565
 10
16.4691561178
 20
-31.4260570287
 10
16.5173250846
 20
-32.4515534472
 10
16.5678398973
 20
-33.4747330151
 10
16.6206999808
 20
-34.4955845587
 10
16.6759048174
 20
-35.5140969504
 10
16.73345377
 20
-36.5302590638
 10
16.7933461827
 20
-37.5440598041
 10
16.8555814694
 20
-38.5554881291
 10
16.9201589498
 20
-39.5645330015
 10
16.9870778497
 20
-40.571183389
 10
17.0563374017
 20
-41.575428295
  0
LINE
  5
48D
100
AcDbEntity
  8
RACCORDO
100
AcDbLine
 62
250
  6
CONTINUOUS
 10
16.568086712
 20
19.5054465746
 11
16.5775027874
 21
19.6520397812
  0
LINE
  5
48E
100
AcDbEntity
  8
RACCORDO
100
AcDbLine
 62
7
  6
CONTINUOUS
 10
16.4194856357
 20
22.8150679812
 11
16.4168501247
 21
22.7749914297
  0
LINE
  5
48F
100
AcDbEntity
  8
RACCORDO
100
AcDbLine
 62
250
  6
CONTINUOUS
 10
16.5775027874
 20
19.6520397812
 11
16.5872220943
 21
19.7948903972
  0
LINE
  5
490
100
AcDbEntity
  8
RACCORDO
100
AcDbLine
 62
250
  6
CONTINUOUS
 10
16.5872220943
 20
19.7948903972
 11
16.5972048184
 21
19.9337962414
  0
LINE
  5
491
100
AcDbEntity
  8
RACCORDO
100
AcDbLine
 62
250
  6
CONTINUOUS
 10
16.5972048184
 20
19.9337962414
 11
16.607402773
 21
20.0684677155
  0
LWPOLYLINE
  5
492
100
AcDbEntity
  8
RACCORDO
100
AcDbPolyline
 62
250
  6
CONTINUOUS
 90
58
 70
0
 10
16.4194855882
 20
22.8150680002
 10
16.4206603479
 20
22.8303331839
 10
16.4220957942
 20
22.8457581593
 10
16.4237910827
 20
22.8613331342
 10
16.425745919
 20
22.8770482034
 10
16.427958436
 20
22.8928934002
 10
16.4304251538
 20
22.9088586817
 10
16.4331445138
 20
22.9249336057
 10
16.4361148722
 20
22.9411082044
 10
16.4393323507
 20
22.9573730221
 10
16.4427949698
 20
22.9737176939
 10
16.4465005853
 20
22.9901318127
 10
16.4504448442
 20
23.0066057828
 10
16.4546253116
 20
23.0231291056
 10
16.4590393931
 20
23.0396912597
 10
16.4636822751
 20
23.0562825681
 10
16.4685510229
 20
23.0728924805
 10
16.4736426654
 20
23.0895103982
 10
16.478952122
 20
23.1061265538
 10
16.4844754061
 20
23.122730624
 10
16.4902097558
 20
23.1393117737
 10
16.4961517258
 20
23.1558594804
 10
16.5022971683
 20
23.1723633744
 10
16.5086426807
 20
23.1888127763
 10
16.5151857462
 20
23.2051967395
 10
16.5219222831
 20
23.2215048276
 10
16.5288480643
 20
23.237726654
 10
16.5359601754
 20
23.2538514165
 10
16.5432544681
 20
23.2698687579
 10
16.5507260696
 20
23.2857685543
 10
16.5583708082
 20
23.301540453
 10
16.5661841976
 20
23.3171743165
 10
16.5741610338
 20
23.3326602634
 10
16.582295905
 20
23.3479884579
 10
16.5905837207
 20
23.363149125
 10
16.5990192615
 20
23.3781326054
 10
16.6075967703
 20
23.392929403
 10
16.616310796
 20
23.4075300948
 10
16.6251559212
 20
23.421925369
 10
16.6341263045
 20
23.4361060892
 10
16.6432162073
 20
23.4500632323
 10
16.6524200073
 20
23.4637878927
 10
16.6617319224
 20
23.4772713263
 10
16.6711460871
 20
23.490504941
 10
16.6806565829
 20
23.5034803028
 10
16.690257451
 20
23.5161891419
 10
16.6999426501
 20
23.5286233571
 10
16.7097060816
 20
23.5407750232
 10
16.7195416194
 20
23.5526363949
 10
16.7294430729
 20
23.5641999094
 10
16.7394042061
 20
23.5754581945
 10
16.7494187627
 20
23.586404073
 10
16.7594804375
 20
23.5970305639
 10
16.769582893
 20
23.6073308896
 10
16.7797197797
 20
23.6172984819
 10
16.7898847176
 20
23.6269269819
 10
16.8000713002
 20
23.6362102447
 10
16.8102731113
 20
23.6451423459
  0
LINE
  5
493
100
AcDbEntity
  8
RACCORDO
100
AcDbLine
 62
250
  6
CONTINUOUS
 10
16.607402773
 20
20.0684677155
 11
16.6177688018
 21
20.1986747682
  0
LINE
  5
494
100
AcDbEntity
  8
RACCORDO
100
AcDbLine
 62
250
  6
CONTINUOUS
 10
16.6177688018
 20
20.1986747682
 11
16.6282613227
 21
20.3242868823
  0
LINE
  5
495
100
AcDbEntity
  8
RACCORDO
100
AcDbLine
 62
250
  6
CONTINUOUS
 10
16.6282613227
 20
20.3242868823
 11
16.6388345532
 21
20.4451391365
  0
LINE
  5
496
100
AcDbEntity
  8
RACCORDO
100
AcDbLine
 62
250
  6
CONTINUOUS
 10
16.6388345532
 20
20.4451391365
 11
16.6494467472
 21
20.5611403783
  0
LINE
  5
497
100
AcDbEntity
  8
RACCORDO
100
AcDbLine
 62
250
  6
CONTINUOUS
 10
16.6494467472
 20
20.5611403783
 11
16.6600597751
 21
20.6722438707
  0
LINE
  5
498
100
AcDbEntity
  8
RACCORDO
100
AcDbLine
 62
250
  6
CONTINUOUS
 10
16.6600597751
 20
20.6722438707
 11
16.6706339848
 21
20.7783979884
  0
LINE
  5
499
100
AcDbEntity
  8
RACCORDO
100
AcDbLine
 62
250
  6
CONTINUOUS
 10
16.6706339848
 20
20.7783979884
 11
16.6811383852
 21
20.8796508974
  0
LINE
  5
49A
100
AcDbEntity
  8
RACCORDO
100
AcDbLine
 62
250
  6
CONTINUOUS
 10
16.6811383852
 20
20.8796508974
 11
16.6915428332
 21
20.9760412814
  0
LINE
  5
49B
100
AcDbEntity
  8
RACCORDO
100
AcDbLine
 62
250
  6
CONTINUOUS
 10
16.6915428332
 20
20.9760412814
 11
16.7018210097
 21
21.0676515981
  0
LINE
  5
49C
100
AcDbEntity
  8
RACCORDO
100
AcDbLine
 62
250
  6
CONTINUOUS
 10
16.7018210097
 20
21.0676515981
 11
16.7119486868
 21
21.1545836874
  0
LINE
  5
49D
100
AcDbEntity
  8
RACCORDO
100
AcDbLine
 62
250
  6
CONTINUOUS
 10
16.7119486868
 20
21.1545836874
 11
16.7219037801
 21
21.2369292089
  0
LINE
  5
49E
100
AcDbEntity
  8
RACCORDO
100
AcDbLine
 62
250
  6
CONTINUOUS
 10
16.7219037801
 20
21.2369292089
 11
16.7316736194
 21
21.3148685194
  0
LINE
  5
49F
100
AcDbEntity
  8
RACCORDO
100
AcDbLine
 62
250
  6
CONTINUOUS
 10
16.7316736194
 20
21.3148685194
 11
16.7412470954
 21
21.3885823098
  0
LINE
  5
4A0
100
AcDbEntity
  8
RACCORDO
100
AcDbLine
 62
250
  6
CONTINUOUS
 10
16.7412470954
 20
21.3885823098
 11
16.7506091477
 21
21.4581846144
  0
LINE
  5
4A1
100
AcDbEntity
  8
RACCORDO
100
AcDbLine
 62
250
  6
CONTINUOUS
 10
16.7506091477
 20
21.4581846144
 11
16.7597473278
 21
21.5238256801
  0
LINE
  5
4A2
100
AcDbEntity
  8
RACCORDO
100
AcDbLine
 62
250
  6
CONTINUOUS
 10
16.7597473278
 20
21.5238256801
 11
16.7686661029
 21
21.5857635689
  0
LINE
  5
4A3
100
AcDbEntity
  8
RACCORDO
100
AcDbLine
 62
250
  6
CONTINUOUS
 10
16.7686661029
 20
21.5857635689
 11
16.7773593379
 21
21.6441397912
  0
LINE
  5
4A4
100
AcDbEntity
  8
RACCORDO
100
AcDbLine
 62
250
  6
CONTINUOUS
 10
16.7773593379
 20
21.6441397912
 11
16.7858259585
 21
21.6991445951
  0
LINE
  5
4A5
100
AcDbEntity
  8
RACCORDO
100
AcDbLine
 62
250
  6
CONTINUOUS
 10
16.7858259585
 20
21.6991445951
 11
16.7940615096
 21
21.7509349074
  0
LWPOLYLINE
  5
4A6
100
AcDbEntity
  8
RACCORDO
100
AcDbPolyline
 62
250
  6
CONTINUOUS
 90
3
 70
0
 10
16.7940615096
 20
21.7509349074
 10
16.8020629249
 20
21.7996400898
 10
16.8059813648
 20
21.8229265651
  0
LINE
  5
4A7
100
AcDbEntity
  8
RACCORDO
100
AcDbLine
 62
7
  6
CONTINUOUS
 10
16.1565809879
 20
11.1099376431
 11
-18.1944307136
 21
24.9060783679
  0
LINE
  5
4A8
100
AcDbEntity
  8
RACCORDO
100
AcDbLine
 62
250
  6
CONTINUOUS
 10
16.1628847813
 20
11.2623988062
 11
-18.3285164126
 21
25.1149231161
  0
LWPOLYLINE
  5
4A9
100
AcDbEntity
  8
RACCORDO
100
AcDbPolyline
 62
250
  6
CONTINUOUS
 90
70
 70
0
 10
-20.5948581352
 20
37.6796748563
 10
-20.5942198491
 20
37.6790985863
 10
-20.5935761396
 20
37.6785050306
 10
-20.5929269943
 20
37.6778941994
 10
-20.5922725748
 20
37.6772666398
 10
-20.5916126946
 20
37.6766218248
 10
-20.5909468175
 20
37.6759581549
 10
-20.5902749111
 20
37.6752756803
 10
-20.5895969793
 20
37.674574374
 10
-20.5889125382
 20
37.6738525224
 10
-20.5882216808
 20
37.6731103284
 10
-20.5875242825
 20
37.6723476151
 10
-20.5868195293
 20
37.6715621024
 10
-20.5861074661
 20
37.6707539807
 10
-20.5853880112
 20
37.6699230899
 10
-20.5846601552
 20
37.669066629
 10
-20.5839239388
 20
37.6681848215
 10
-20.583179278
 20
37.6672774797
 10
-20.5824249699
 20
37.6663411914
 10
-20.5816607211
 20
37.665375757
 10
-20.5808867729
 20
37.6643814193
 10
-20.5801027202
 20
37.6633554341
 10
-20.5793084913
 20
37.6622978443
 10
-20.5785041018
 20
37.6612086541
 10
-20.5776892741
 20
37.660085064
 10
-20.576863975
 20
37.6589271704
 10
-20.5760281779
 20
37.657734928
 10
-20.5751816122
 20
37.6565053266
 10
-20.5743241973
 20
37.6552383952
 10
-20.5734559498
 20
37.6539341604
 10
-20.572576743
 20
37.652589611
 10
-20.5716862796
 20
37.6512043923
 10
-20.5707847889
 20
37.6497789189
 10
-20.5698729345
 20
37.6483113336
 10
-20.5689503508
 20
37.6468010359
 10
-20.5680173367
 20
37.6452486865
 10
-20.5670755589
 20
37.643654315
 10
-20.5661249697
 20
37.6420177439
 10
-20.5651655596
 20
37.6403392046
 10
-20.5641990625
 20
37.6386193319
 10
-20.5632258242
 20
37.6368586911
 10
-20.5622454526
 20
37.6350567631
 10
-20.561258581
 20
37.6332125503
 10
-20.5602656165
 20
37.6313269148
 10
-20.5592661091
 20
37.6293990391
 10
-20.5582594049
 20
37.6274254076
 10
-20.557245502
 20
37.6254062199
 10
-20.5562243528
 20
37.6233413277
 10
-20.5551952298
 20
37.6212266997
 10
-20.5541580438
 20
37.6190623694
 10
-20.5531128279
 20
37.6168483618
 10
-20.5520590324
 20
37.6145806379
 10
-20.550996636
 20
37.6122593812
 10
-20.5499255985
 20
37.609884473
 10
-20.5488453359
 20
37.6074514269
 10
-20.5477558323
 20
37.6049604672
 10
-20.5466570361
 20
37.6024114415
 10
-20.5455483033
 20
37.5997993049
 10
-20.5444295357
 20
37.5971241021
 10
-20.5433007571
 20
37.594385869
 10
-20.5421615008
 20
37.5915795525
 10
-20.541011613
 20
37.5887050328
 10
-20.5398511669
 20
37.5857625184
 10
-20.5386800327
 20
37.5827474529
 10
-20.5374981174
 20
37.579659835
 10
-20.53630543
 20
37.5764997605
 10
-20.5351019912
 20
37.5732628219
 10
-20.5338880519
 20
37.5699500201
 10
-20.5326632758
 20
37.5665604531
 10
-20.5314267979
 20
37.5630868659
  0
LWPOLYLINE
  5
4AA
100
AcDbEntity
  8
RACCORDO
100
AcDbPolyline
 62
250
  6
CONTINUOUS
 90
7
 70
0
 10
16.376628866
 20
15.9254017138
 10
16.3622432051
 20
16.0742454617
 10
16.3495933742
 20
16.2075294723
 10
16.3371334825
 20
16.3410183525
 10
16.3248635808
 20
16.4747115505
 10
16.3127837174
 20
16.60860857
 10
16.3008939409
 20
16.7427088856
  0
LWPOLYLINE
  5
4AB
100
AcDbEntity
  8
RACCORDO
100
AcDbPolyline
 62
250
  6
CONTINUOUS
 90
181
 70
0
 10
16.3008939409
 20
16.7427088856
 10
16.2947129754
 20
16.8145136271
 10
16.2887660056
 20
16.8867418799
 10
16.2830541295
 20
16.9593946437
 10
16.2775753222
 20
17.0324923605
 10
16.2723338565
 20
17.1060166286
 10
16.2673401492
 20
17.1799100517
 10
16.2625954776
 20
17.2541756013
 10
16.2581005469
 20
17.3288120644
 10
16.2538646278
 20
17.4037554788
 10
16.2498889035
 20
17.4790089034
 10
16.2461738864
 20
17.5545707386
 10
16.2427275106
 20
17.6303697069
 10
16.2395508634
 20
17.7064085127
 10
16.2366442136
 20
17.7826855643
 10
16.2340138931
 20
17.8591227718
 10
16.2316608547
 20
17.935722902
 10
16.2295851148
 20
18.0124839132
 10
16.2277911831
 20
18.0893200942
 10
16.2262798716
 20
18.166233982
 10
16.2250508999
 20
18.243223334
 10
16.2241066758
 20
18.3201948219
 10
16.2234478495
 20
18.3971502502
 10
16.2230738173
 20
18.4740876387
 10
16.2229846044
 20
18.5509074995
 10
16.2231806749
 20
18.6276115353
 10
16.2236610928
 20
18.7041973732
 10
16.2244232473
 20
18.7805589006
 10
16.2254673958
 20
18.8566968386
 10
16.2267922582
 20
18.9326092786
 10
16.2283923555
 20
19.0081856321
 10
16.2302677237
 20
19.083426038
 10
16.2324167417
 20
19.1583286496
 10
16.2348308692
 20
19.2327793587
 10
16.2375098721
 20
19.3067767914
 10
16.2404518366
 20
19.3803201008
 10
16.2436451275
 20
19.4532954337
 10
16.24708928
 20
19.5257011055
 10
16.2507820786
 20
19.5975361031
 10
16.2547087038
 20
19.668687064
 10
16.2588683136
 20
19.7391496008
 10
16.2632585712
 20
19.8089249647
 10
16.2678618951
 20
19.8779077745
 10
16.2726771565
 20
19.94609301
 10
16.2777018907
 20
20.0134822002
 10
16.2829160543
 20
20.0799793711
 10
16.2883181863
 20
20.1455781205
 10
16.2939058281
 20
20.2102810905
 10
16.2996570556
 20
20.274005528
 10
16.3055701415
 20
20.3367444005
 10
16.3116426751
 20
20.3985008128
 10
16.3178514072
 20
20.4592069499
 10
16.3241941427
 20
20.5188534178
 10
16.3306688263
 20
20.5774456134
 10
16.3372522157
 20
20.6349377309
 10
16.3439420173
 20
20.6913214597
 10
16.3507362946
 20
20.746601164
 10
16.3576122351
 20
20.8007499615
 10
16.3645674834
 20
20.8537602213
 10
16.371600285
 20
20.905635767
 10
16.3786887014
 20
20.9563668809
 10
16.3858299706
 20
21.0059442089
 10
16.3930229408
 20
21.0543735024
 10
16.4002481379
 20
21.1016677524
 10
16.4075030417
 20
21.1478202514
 10
16.4147865416
 20
21.1928343836
 10
16.4220813894
 20
21.2367383829
 10
16.429385556
 20
21.2795286085
 10
16.4366977625
 20
21.3212056886
 10
16.4440020246
 20
21.36180439
 10
16.4512955172
 20
21.4013170161
 10
16.4585780757
 20
21.4397485533
 10
16.4658378726
 20
21.4771529454
 10
16.4730729617
 20
21.5135275844
 10
16.4802826564
 20
21.5488727015
 10
16.4874572034
 20
21.5832466674
 10
16.4945954431
 20
21.6166500167
 10
16.5016962374
 20
21.6490801484
 10
16.5087500356
 20
21.6805908831
 10
16.5157540009
 20
21.7111753785
 10
16.5227089583
 20
21.7408386738
 10
16.5296110204
 20
21.769652566
 10
16.5364593613
 20
21.7976189714
 10
16.5432531026
 20
21.8247344507
 10
16.5499884456
 20
21.8510629171
 10
16.5566650918
 20
21.8766072379
 10
16.5632818878
 20
21.9013632522
 10
16.5698338857
 20
21.92538445
 10
16.5763187001
 20
21.9486659549
 10
16.5827374658
 20
21.971211532
 10
16.5890906389
 20
21.993087744
 10
16.5953775592
 20
22.0142961241
 10
16.601597845
 20
22.0348342154
 10
16.6077524889
 20
22.0547627008
 10
16.6138421924
 20
22.074086571
 10
16.6198653847
 20
22.0928000662
 10
16.625819742
 20
22.1109478246
 10
16.6317044774
 20
22.1285295039
 10
16.6375196342
 20
22.1455447896
 10
16.6432642043
 20
22.1620384263
 10
16.6489365319
 20
22.1780079529
 10
16.6545376427
 20
22.193455275
 10
16.6600706211
 20
22.2084317472
 10
16.6655346684
 20
22.2229376763
 10
16.670930063
 20
22.2369722977
 10
16.6762615704
 20
22.250585417
 10
16.6815300678
 20
22.2637811853
 10
16.6867342522
 20
22.2765550772
 10
16.6918756723
 20
22.2889439295
 10
16.6969548809
 20
22.30095025
 10
16.7019709669
 20
22.3125712165
 10
16.7069233201
 20
22.3238357036
 10
16.7118108654
 20
22.334742367
 10
16.7166343714
 20
22.3452922825
 10
16.7213960244
 20
22.3555179817
 10
16.7260950675
 20
22.3654191573
 10
16.7307320018
 20
22.3749958927
 10
16.7353109308
 20
22.3842813321
 10
16.7398319712
 20
22.393276943
 10
16.7442947957
 20
22.4019810737
 10
16.7487028679
 20
22.4104222125
 10
16.7530563476
 20
22.4186016527
 10
16.7573548999
 20
22.4265179481
 10
16.7616012672
 20
22.4341954957
 10
16.765795731
 20
22.4416355604
 10
16.7699378635
 20
22.4488367495
 10
16.7740293589
 20
22.4558194874
 10
16.7780703995
 20
22.4625846503
 10
16.7820606794
 20
22.4691312541
 10
16.7860011737
 20
22.4754769432
 10
16.7898916619
 20
22.4816218651
 10
16.7937322595
 20
22.4875657806
 10
16.7975244557
 20
22.4933257635
 10
16.8012678621
 20
22.4989017692
 10
16.8049627783
 20
22.504293765
 10
16.8086117359
 20
22.5095188509
 10
16.8122142883
 20
22.5145770054
 10
16.8157708077
 20
22.5194681854
 10
16.8192850621
 20
22.5242094669
 10
16.8227569562
 20
22.5288013496
 10
16.8261865239
 20
22.5332432803
 10
16.8295777347
 20
22.5375507622
 10
16.8329314837
 20
22.5417253636
 10
16.8362468251
 20
22.5457654721
 10
16.8395249738
 20
22.5496818244
 10
16.8427667257
 20
22.5534755197
 10
16.8459712415
 20
22.5571454211
 10
16.849137287
 20
22.560698915
 10
16.8522639584
 20
22.5641351541
 10
16.8553521214
 20
22.5674549525
 10
16.8584031999
 20
22.5706681921
 10
16.8614157961
 20
22.5737738589
 10
16.8643912754
 20
22.5767729387
 10
16.8673352103
 20
22.5796783171
 10
16.8702483504
 20
22.5824912101
 10
16.8731299202
 20
22.585210379
 10
16.8759832086
 20
22.5878450307
 10
16.8788100726
 20
22.590396989
 10
16.8816086338
 20
22.5928644113
 10
16.8843765796
 20
22.5952510066
 10
16.8871131736
 20
22.5975561336
 10
16.8898191329
 20
22.5997804167
 10
16.892494326
 20
22.6019294643
 10
16.8951372603
 20
22.6040023295
 10
16.8977494115
 20
22.6059999445
 10
16.9003351034
 20
22.6079307383
 10
16.9028947867
 20
22.6097953756
 10
16.9054279969
 20
22.6115931797
 10
16.907937687
 20
22.6133305695
 10
16.9104245403
 20
22.6150082001
 10
16.912887862
 20
22.6166254064
 10
16.9153285391
 20
22.6181866274
 10
16.9177468119
 20
22.6196920959
 10
16.9201424301
 20
22.6211415706
 10
16.9225155461
 20
22.6225387792
 10
16.9248659157
 20
22.6238836565
 10
16.9271937744
 20
22.6251762603
 10
16.9294999941
 20
22.6264205032
 10
16.9317848633
 20
22.6276176875
 10
16.9340480863
 20
22.6287665045
 10
16.9362896596
 20
22.6298669512
  0
LINE
  5
4AC
100
AcDbEntity
  8
RACCORDO
100
AcDbLine
 62
250
  6
CONTINUOUS
 10
16.3008939409
 20
-34.2821357673
 11
16.3229632727
 21
-33.9961943553
  0
LINE
  5
4AD
100
AcDbEntity
  8
RACCORDO
100
AcDbLine
 62
7
  6
CONTINUOUS
 10
-20.4180199895
 20
37.6266591572
 11
-20.4759561682
 21
37.6554683152
  0
LINE
  5
4AE
100
AcDbEntity
  8
RACCORDO
100
AcDbLine
 62
7
  6
CONTINUOUS
 10
-20.361893286
 20
37.5983610189
 11
-20.4180199895
 21
37.6266591572
  0
LINE
  5
4AF
100
AcDbEntity
  8
RACCORDO
100
AcDbLine
 62
7
  6
CONTINUOUS
 10
-20.307579789
 20
37.5705580211
 11
-20.361893286
 21
37.5983610189
  0
LINE
  5
4B0
100
AcDbEntity
  8
RACCORDO
100
AcDbLine
 62
7
  6
CONTINUOUS
 10
-20.2550945275
 20
37.5431865569
 11
-20.307579789
 21
37.5705580211
  0
LINE
  5
4B1
100
AcDbEntity
  8
RACCORDO
100
AcDbLine
 62
7
  6
CONTINUOUS
 10
-20.2550945275
 20
37.5431865569
 11
-20.1376730054
 21
37.4806847439
  0
LINE
  5
4B2
100
AcDbEntity
  8
RACCORDO
100
AcDbLine
 62
7
  6
CONTINUOUS
 10
-20.1376730054
 20
37.4806847439
 11
-19.9535006417
 21
37.3821442479
  0
LWPOLYLINE
  5
4B3
100
AcDbEntity
  8
RACCORDO
100
AcDbPolyline
 62
250
  6
CONTINUOUS
 90
10
 70
0
 10
16.4152205105
 20
16.6831800069
 10
16.4092307864
 20
16.6871299752
 10
16.3967623789
 20
16.6949099866
 10
16.3839699249
 20
16.7024616095
 10
16.3708618093
 20
16.7097798944
 10
16.3574466239
 20
16.7168600443
 10
16.3437331617
 20
16.7236974187
 10
16.329730411
 20
16.7302875359
 10
16.3154475502
 20
16.7366260764
 10
16.3008939409
 20
16.7427088857
  0
LINE
  5
4B4
100
AcDbEntity
  8
RACCORDO
100
AcDbLine
 62
7
  6
CONTINUOUS
 10
16.4168501247
 20
22.7749914297
 11
16.5693849507
 21
22.7342441467
  0
LINE
  5
4B5
100
AcDbEntity
  8
RACCORDO
100
AcDbLine
 62
7
  6
CONTINUOUS
 10
16.5693849507
 20
22.7342441467
 11
16.6911344503
 21
22.7014928226
  0
LWPOLYLINE
  5
4B6
100
AcDbEntity
  8
RACCORDO
100
AcDbPolyline
 62
7
  6
CONTINUOUS
 90
4
 70
0
 10
16.7687261235
 20
22.679877701
 10
16.7424021619
 20
22.6873402819
 10
16.7165382684
 20
22.6945453205
 10
16.6911344503
 20
22.7014928226
  0
LINE
  5
4B7
100
AcDbEntity
  8
RACCORDO
100
AcDbLine
 62
7
  6
CONTINUOUS
 10
16.8227572846
 20
22.6641670415
 11
16.7687261235
 21
22.679877701
  0
LINE
  5
4B8
100
AcDbEntity
  8
RACCORDO
100
AcDbLine
 62
7
  6
CONTINUOUS
 10
16.8786133395
 20
22.6474903792
 11
16.8227572846
 21
22.6641670415
  0
LINE
  5
4B9
100
AcDbEntity
  8
RACCORDO
100
AcDbLine
 62
7
  6
CONTINUOUS
 10
16.9362896596
 20
22.6298669512
 11
16.8786133395
 21
22.6474903792
  0
LWPOLYLINE
  5
4BA
100
AcDbEntity
  8
RACCORDO
100
AcDbPolyline
 62
7
  6
CONTINUOUS
 90
82
 70
0
 10
16.9362896595
 20
22.6298669511
 10
16.9401010213
 20
22.6286600527
 10
16.9437870312
 20
22.6274407517
 10
16.9473478835
 20
22.6262123108
 10
16.9507802684
 20
22.624978241
 10
16.9540881609
 20
22.6237416854
 10
16.9572827401
 20
22.6225049436
 10
16.9603643943
 20
22.6212713025
 10
16.9633337466
 20
22.6200431744
 10
16.9662022444
 20
22.6188207519
 10
16.9689702726
 20
22.6176068101
 10
16.9716386309
 20
22.6164034123
 10
16.9742191997
 20
22.6152089178
 10
16.9767122874
 20
22.6140256257
 10
16.9791187879
 20
22.6128552278
 10
16.9814511783
 20
22.6116944236
 10
16.9837112351
 20
22.6105442562
 10
16.9858982448
 20
22.6094068212
 10
16.9880206706
 20
22.6082797905
 10
16.9900803085
 20
22.607163845
 10
16.9920763624
 20
22.6060609011
 10
16.994013244
 20
22.6049701335
 10
16.9958917109
 20
22.6038926314
 10
16.9977120563
 20
22.6028296188
 10
16.9994778959
 20
22.6017802644
 10
17.001189678
 20
22.6007456993
 10
17.002848034
 20
22.5997268516
 10
17.0044567514
 20
22.5987224039
 10
17.0060163002
 20
22.5977333227
 10
17.0075272732
 20
22.5967604403
 10
17.0089935186
 20
22.5958020602
 10
17.0104154806
 20
22.5948590108
 10
17.0117937323
 20
22.5939320104
 10
17.0131321783
 20
22.5930190246
 10
17.0144312201
 20
22.5921207534
 10
17.0156913958
 20
22.5912378046
 10
17.0169166642
 20
22.5903678411
 10
17.0181073728
 20
22.5895114447
 10
17.0192640093
 20
22.5886691207
 10
17.0203905798
 20
22.5878382598
 10
17.0214873694
 20
22.5870193354
 10
17.0225548044
 20
22.5862127554
 10
17.0235969297
 20
22.585415661
 10
17.0246139206
 20
22.5846284601
 10
17.0256061711
 20
22.5838514406
 10
17.0265778673
 20
22.5830814168
 10
17.0275293598
 20
22.5823185117
 10
17.028460699
 20
22.5815631256
 10
17.029375437
 20
22.5808123597
 10
17.0302747686
 20
22.5800655263
 10
17.0311577343
 20
22.5793236925
 10
17.0320245632
 20
22.5785865323
 10
17.0328764254
 20
22.5778533929
 10
17.0337123998
 20
22.5771252939
 10
17.0345296532
 20
22.5764044629
 10
17.0353285571
 20
22.5756910733
 10
17.0361091868
 20
22.5749854053
 10
17.036868433
 20
22.574289944
 10
17.0376063628
 20
22.5736052509
 10
17.0383235564
 20
22.5729312849
 10
17.0390178239
 20
22.5722697067
 10
17.0396889725
 20
22.5716213924
 10
17.0403379795
 20
22.5709860051
 10
17.0409644782
 20
22.5703634215
 10
17.041568734
 20
22.5697540531
 10
17.0421512687
 20
22.5691579795
 10
17.0427121027
 20
22.5685745817
 10
17.0432515445
 20
22.5680041956
 10
17.0437700451
 20
22.5674469208
 10
17.0442678199
 20
22.5669017801
 10
17.0447449787
 20
22.5663693188
 10
17.0452021287
 20
22.5658493702
 10
17.045640185
 20
22.5653398767
 10
17.0460594534
 20
22.5648411787
 10
17.0464602491
 20
22.5643532478
 10
17.0468434324
 20
22.5638734573
 10
17.0472094275
 20
22.5634021116
 10
17.0475583388
 20
22.5629391623
 10
17.0478904829
 20
22.5624814449
 10
17.0482061064
 20
22.5620279788
 10
17.0485054142
 20
22.5615799608
 10
17.0487886305
 20
22.5611374857
  0
LINE
  5
4BB
100
AcDbEntity
  8
RACCORDO
100
AcDbLine
 62
250
  6
CONTINUOUS
 10
-19.9508661266
 20
37.4222071371
 11
-20.2295365282
 21
37.5296666405
  0
LWPOLYLINE
  5
4BC
100
AcDbEntity
  8
RACCORDO
100
AcDbPolyline
 62
250
  6
CONTINUOUS
 90
16
 70
0
 10
-19.5706019753
 20
38.2565219683
 10
-20.7237698521
 20
38.702089763
 10
-21.8750829629
 20
39.1493091455
 10
-23.0245413078
 20
39.5981801157
 10
-24.1721509138
 20
40.0487050466
 10
-25.3179057539
 20
40.5008815653
 10
-26.4617877466
 20
40.9547025523
 10
-27.6037973117
 20
41.4101682098
 10
-28.7439340294
 20
41.8672783357
 10
-29.88217856
 20
42.326025205
 10
-31.0185322186
 20
42.7864094069
 10
-32.1529936901
 20
43.2484303523
 10
-33.2855396884
 20
43.7120785486
 10
-34.4161624517
 20
44.1773508316
 10
-35.5448697418
 20
44.6442503657
 10
-36.6716615587
 20
45.1127771507
  0
LWPOLYLINE
  5
4BD
100
AcDbEntity
  8
RACCORDO
100
AcDbPolyline
 62
250
  6
CONTINUOUS
 90
16
 70
0
 10
-20.6038274146
 20
37.6742160276
 10
-21.7134960764
 20
38.1042317351
 10
-22.8214548987
 20
38.5357811421
 10
-23.9276982407
 20
38.9688621408
 10
-25.0322202477
 20
39.4034725572
 10
-26.1350155201
 20
39.8396102839
 10
-27.2360791096
 20
40.2772732824
 10
-28.3354058223
 20
40.7164594816
 10
-29.4329896438
 20
41.1571665475
 10
-30.5288244085
 20
41.5993920143
 10
-31.6229052298
 20
42.043133862
 10
-32.7152258447
 20
42.4883895733
 10
-33.8057780527
 20
42.9351558938
 10
-34.8945554368
 20
43.3834301732
 10
-35.9815533497
 20
43.8332103754
 10
-37.0667662719
 20
44.2844941259
  0
LWPOLYLINE
  5
4BE
100
AcDbEntity
  8
RACCORDO
100
AcDbPolyline
 62
250
  6
CONTINUOUS
 90
16
 70
0
 10
33.532364405
 20
15.9305843933
 10
32.407233383
 20
16.3667318343
 10
31.2994332116
 20
16.7984320231
 10
30.1933485735
 20
17.2316638136
 10
29.0889842118
 20
17.6664254707
 10
27.9863466444
 20
18.1027144496
 10
26.8854441505
 20
18.5405273861
 10
25.7862830197
 20
18.9798617563
 10
24.6888681395
 20
19.4207156545
 10
23.5932056577
 20
19.8630866009
 10
22.4993015455
 20
20.3069721161
 10
21.4071609492
 20
20.7523701179
 10
20.3167887664
 20
21.1992786909
 10
19.2281903206
 20
21.6476956356
 10
18.1413713588
 20
22.0976184665
 10
17.0563374017
 20
22.5490448088
  0
LWPOLYLINE
  5
4BF
100
AcDbEntity
  8
RACCORDO
100
AcDbPolyline
 62
250
  6
CONTINUOUS
 90
16
 70
0
 10
33.8925770775
 20
16.7725880807
 10
32.7406296964
 20
17.2192543286
 10
31.5905390632
 20
17.6675714136
 10
30.4423051777
 20
18.1175393357
 10
29.2959202178
 20
18.56916119
 10
28.1513920056
 20
19.0224338814
 10
27.0087440081
 20
19.4773481247
 10
25.8679776234
 20
19.933903419
 10
24.7290914532
 20
20.3921002652
 10
23.5921047703
 20
20.8519308805
 10
22.4570180482
 20
21.3133951079
 10
21.3238308133
 20
21.7764931043
 10
20.192560917
 20
22.2412175576
 10
19.0632143099
 20
22.7075660302
 10
17.9357850413
 20
23.1755409596
 10
16.8102731113
 20
23.6451423459
  0
LINE
  5
4C0
100
AcDbEntity
  8
DRAFT
100
AcDbLine
 62
7
  6
CONTINUOUS
 10
-19.9535006417
 20
37.3821442479
 11
16.4168501247
 21
22.7749914297
  0
LINE
  5
4C1
100
AcDbEntity
  8
RACCORDO
100
AcDbLine
 62
250
  6
CONTINUOUS
 10
16.4194856357
 20
22.8150679812
 11
-19.9508652246
 21
37.422220837
  0
LINE
  5
4C2
100
AcDbEntity
  8
RACCORDO
100
AcDbLine
 62
250
  6
CONTINUOUS
 10
16.8102731113
 20
23.6451423459
 11
-19.5706019753
 21
38.2565219683
  0
LINE
  5
4C3
100
AcDbEntity
  8
RACCORDO
100
AcDbLine
 62
250
  6
CONTINUOUS
 10
16.6911344472
 20
22.70149282
 11
16.4194847336
 21
22.8150542812
  0
LINE
  5
4C4
100
AcDbEntity
  8
RACCORDO
100
AcDbLine
 62
250
  6
CONTINUOUS
 10
17.0487936229
 20
22.5611300186
 11
17.0563374049
 21
22.5490448112
  0
LWPOLYLINE
  5
4C5
100
AcDbEntity
  8
RACCORDO
100
AcDbPolyline
 62
250
  6
CONTINUOUS
 90
32
 70
0
 10
33.5167434478
 20
-48.1877811504
 10
33.5178343614
 20
-48.2012078297
 10
33.5191723048
 20
-48.2143797703
 10
33.520756438
 20
-48.2272885919
 10
33.5225857692
 20
-48.2399261267
 10
33.5246591427
 20
-48.2522842849
 10
33.5269752307
 20
-48.2643550707
 10
33.5295325611
 20
-48.2761307814
 10
33.5323295119
 20
-48.2876039635
 10
33.535364291
 20
-48.2987672873
 10
33.5386349611
 20
-48.3096136445
 10
33.5421394507
 20
-48.3201361588
 10
33.5458755393
 20
-48.3303281525
 10
33.5498408559
 20
-48.3401831525
 10
33.5540328778
 20
-48.3496948922
 10
33.5584489387
 20
-48.358857325
 10
33.563086231
 20
-48.3676646276
 10
33.567941809
 20
-48.3761112041
 10
33.5730125881
 20
-48.3841916877
 10
33.5782953465
 20
-48.3919009436
 10
33.5837867266
 20
-48.3992340726
 10
33.5894832386
 20
-48.4061864145
 10
33.5953812624
 20
-48.4127535513
 10
33.6014770501
 20
-48.4189313098
 10
33.6077667278
 20
-48.4247157642
 10
33.6142462988
 20
-48.4301032387
 10
33.6209116454
 20
-48.4350903096
 10
33.6277585318
 20
-48.4396738078
 10
33.6347826069
 20
-48.4438508205
 10
33.6419794072
 20
-48.4476186933
 10
33.6493443593
 20
-48.450975032
 10
33.6534431392
 20
-48.4526363151
  0
LWPOLYLINE
  5
4C6
100
AcDbEntity
  8
RACCORDO
100
AcDbPolyline
 62
250
  6
CONTINUOUS
 90
60
 70
0
 10
33.4402187433
 20
14.8129029045
 10
33.3662803736
 20
13.6908709354
 10
33.2949291037
 20
12.5704817018
 10
33.2261656395
 20
11.4517474479
 10
33.1599907297
 20
10.3346803811
 10
33.096405166
 20
9.2192926717
 10
33.0354096126
 20
8.1055964949
 10
32.9770046984
 20
6.9936040143
 10
32.9211911224
 20
5.8833273536
 10
32.8679694679
 20
4.7747786351
 10
32.8173402831
 20
3.66796996
 10
32.7693041734
 20
2.5629133918
 10
32.7238616415
 20
1.4596209973
 10
32.6810131547
 20
0.3581048156
 10
32.6407592245
 20
-0.7416231613
 10
32.6031002728
 20
-1.8395509317
 10
32.5680366863
 20
-2.9356665112
 10
32.5355688837
 20
-4.0299579646
 10
32.5056972059
 20
-5.1224133539
 10
32.4784219591
 20
-6.213020753
 10
32.453743469
 20
-7.3017682748
 10
32.4316619961
 20
-8.388644041
 10
32.4121777652
 20
-9.4736361903
 10
32.3952910093
 20
-10.5567328927
 10
32.3810019077
 20
-11.6379223317
 10
32.3693106045
 20
-12.717192711
 10
32.3602172396
 20
-13.7945322628
 10
32.3537219112
 20
-14.8699292356
 10
32.3498246827
 20
-15.9433718972
 10
32.3485256007
 20
-17.0148485407
 10
32.3498246827
 20
-18.0843474805
 10
32.3537219112
 20
-19.1518570498
 10
32.3602172396
 20
-20.2173656034
 10
32.3693106045
 20
-21.2808615224
 10
32.3810019077
 20
-22.342333207
 10
32.3952910093
 20
-23.4017690737
 10
32.4121777652
 20
-24.4591575724
 10
32.431661996
 20
-25.5144871705
 10
32.453743469
 20
-26.5677463456
 10
32.478421959
 20
-27.6189236151
 10
32.5056972059
 20
-28.668007517
 10
32.5355688836
 20
-29.7149865948
 10
32.5680366862
 20
-30.7598494337
 10
32.6031002727
 20
-31.8025846444
 10
32.6407592245
 20
-32.8431808447
 10
32.6810131546
 20
-33.8816266938
 10
32.7238616415
 20
-34.917910871
 10
32.7693041734
 20
-35.9520220602
 10
32.8173402831
 20
-36.9839489977
 10
32.8679694679
 20
-38.0136804304
 10
32.9211911223
 20
-39.0412050947
 10
32.9770046984
 20
-40.0665117971
 10
33.0354096125
 20
-41.0895893614
 10
33.096405166
 20
-42.1104265873
 10
33.1599907297
 20
-43.1290123518
 10
33.2261656395
 20
-44.1453355576
 10
33.2949291037
 20
-45.1593850801
 10
33.3662803735
 20
-46.1711498551
 10
33.4402187433
 20
-47.1806188781
 10
33.5167434453
 20
-48.1877811529
  0
LWPOLYLINE
  5
4C7
100
AcDbEntity
  8
RACCORDO
100
AcDbPolyline
 62
250
  6
CONTINUOUS
 90
61
 70
0
 10
34.4656342026
 20
15.96937829
 10
34.389241344
 20
14.847682181
 10
34.3154318073
 20
13.7276380617
 10
34.2442055925
 20
12.6092459322
 10
34.1755619788
 20
11.4924936205
 10
34.109501687
 20
10.3773932985
 10
34.0460268796
 20
9.2639814821
 10
33.9851376413
 20
8.1522582297
 10
33.9268338873
 20
7.0422234828
 10
33.8711175256
 20
5.9339135819
 10
33.8179886409
 20
4.8273285861
 10
33.7674471485
 20
3.7224684363
 10
33.7194947015
 20
2.6193692968
 10
33.674131385
 20
1.5180312306
 10
33.6313571139
 20
0.4184541747
 10
33.5911732868
 20
-0.6793258969
 10
33.5535799883
 20
-1.7753089249
 10
33.5185771337
 20
-2.8694949686
 10
33.4861658675
 20
-3.9618482308
 10
33.4563462744
 20
-5.0523686546
 10
33.4291182696
 20
-6.1410562969
 10
33.4044827438
 20
-7.2278755321
 10
33.3824397817
 20
-8.3128262993
 10
33.3629892986
 20
-9.3959086593
 10
33.3461319305
 20
-10.4770871688
 10
33.3318677622
 20
-11.5563617643
 10
33.3201967091
 20
-12.6337325092
 10
33.3111191526
 20
-13.7091641498
 10
33.3046351777
 20
-14.7826566225
 10
33.3007446995
 20
-15.8542099909
 10
33.2994478451
 20
-16.9237891923
 10
33.3007446996
 20
-17.9913941621
 10
33.3046351779
 20
-19.0570249648
 10
33.3111191529
 20
-20.1206467314
 10
33.3201967095
 20
-21.1822593964
 10
33.3318677628
 20
-22.2418630253
 10
33.3461319311
 20
-23.2994229454
 10
33.3629892993
 20
-24.3549390908
 10
33.3824397826
 20
-25.4084115274
 10
33.4044827448
 20
-26.4598057802
 10
33.4291182707
 20
-27.5091217808
 10
33.4563462755
 20
-28.5563595976
 10
33.4861658687
 20
-29.6014849604
 10
33.518577135
 20
-30.6444977976
 10
33.5535799897
 20
-31.6853981807
 10
33.5911732883
 20
-32.7241520552
 10
33.6313571156
 20
-33.7607593511
 10
33.6741313867
 20
-34.7952201383
 10
33.7194947034
 20
-35.8275005715
 10
33.7674471505
 20
-36.8576005846
 10
33.817988643
 20
-37.8855202437
 10
33.8711175277
 20
-38.9112259016
 10
33.9268338896
 20
-39.9347174878
 10
33.9851376437
 20
-40.9559950727
 10
34.046026882
 20
-41.9750252202
 10
34.1095016897
 20
-42.9918078609
 10
34.1755619817
 20
-44.0063430643
 10
34.2442055953
 20
-45.0185976019
 10
34.3154318095
 20
-46.0285603976
 10
34.3892413453
 20
-47.0362425276
 10
34.4656342026
 20
-48.0416439918
  0
LINE
  5
4C8
100
AcDbEntity
  8
RACCORDO
100
AcDbLine
 62
7
  6
CONTINUOUS
 10
38.1381919192
 20
-10.2630677919
 11
37.3735868063
 21
-10.9360526133
  0
LINE
  5
4C9
100
AcDbEntity
  8
RACCORDO
100
AcDbLine
 62
250
  6
CONTINUOUS
 10
37.2086773316
 20
-15.9495807712
 11
37.3111931317
 21
-15.886236446
  0
LINE
  5
4CA
100
AcDbEntity
  8
RACCORDO
100
AcDbLine
 62
7
  6
CONTINUOUS
 10
-33.0992817264
 20
48.4555246163
 11
37.8399839164
 21
19.9647162459
  0
LWPOLYLINE
  5
4CB
100
AcDbEntity
  8
RACCORDO
100
AcDbPolyline
 62
250
  6
CONTINUOUS
 90
61
 70
0
 10
34.4656342048
 20
15.9693782918
 10
34.4650586008
 20
15.9841578112
 10
34.4641008374
 20
15.9990925646
 10
34.46276157
 20
16.014172332
 10
34.4610417152
 20
16.0293867945
 10
34.4589424498
 20
16.0447255407
 10
34.4564652103
 20
16.0601780745
 10
34.4536116918
 20
16.0757338217
 10
34.4503838471
 20
16.0913821376
 10
34.446783885
 20
16.1071123138
 10
34.4428142689
 20
16.1229135862
 10
34.4384777154
 20
16.1387751418
 10
34.4337771918
 20
16.1546861268
 10
34.4287159148
 20
16.1706356532
 10
34.4232973479
 20
16.1866128067
 10
34.417525199
 20
16.2026066542
 10
34.411403418
 20
16.218606251
 10
34.4049361941
 20
16.2346006487
 10
34.3981279528
 20
16.2505789021
 10
34.3909833531
 20
16.2665300775
 10
34.383507284
 20
16.2824432595
 10
34.3757048615
 20
16.2983075586
 10
34.3675814249
 20
16.3141121188
 10
34.3591425329
 20
16.3298461252
 10
34.3503939606
 20
16.3454988109
 10
34.3413416944
 20
16.3610594648
 10
34.331991929
 20
16.3765174387
 10
34.3223510625
 20
16.3918621548
 10
34.3124256922
 20
16.4070831127
 10
34.30222261
 20
16.4221698968
 10
34.291748798
 20
16.4371121831
 10
34.2810114234
 20
16.4518997467
 10
34.270017834
 20
16.4665224686
 10
34.2587755525
 20
16.4809703426
 10
34.2472922721
 20
16.4952334819
 10
34.2355758509
 20
16.5093021265
 10
34.2236343062
 20
16.5231666496
 10
34.2114758096
 20
16.5368175636
 10
34.1991086811
 20
16.5502455274
 10
34.1865413833
 20
16.5634413528
 10
34.1737825161
 20
16.5763960094
 10
34.1608408102
 20
16.5891006329
 10
34.1477251202
 20
16.6015465308
 10
34.1344444202
 20
16.6137251872
 10
34.1210077988
 20
16.6256282674
 10
34.1074244517
 20
16.6372476254
 10
34.093703675
 20
16.6485753092
 10
34.0798548566
 20
16.6596035681
 10
34.0658874707
 20
16.6703248576
 10
34.0518110648
 20
16.6807318484
 10
34.0376352814
 20
16.6908174108
 10
34.0233698498
 20
16.7005746239
 10
34.0090245509
 20
16.7099968008
 10
33.9946091829
 20
16.7190775084
 10
33.9801335841
 20
16.7278105506
 10
33.9656074575
 20
16.7361900657
 10
33.9510409443
 20
16.7442101954
 10
33.9364445956
 20
16.7518651535
 10
33.9218285966
 20
16.7591496515
 10
33.907202755
 20
16.7660588544
 10
33.8925770775
 20
16.7725880807
  0
LINE
  5
4CC
100
AcDbEntity
  8
RACCORDO
100
AcDbLine
 62
7
  6
CONTINUOUS
 10
37.2086773316
 20
-16.5900814339
 11
37.2086773316
 21
-11.3063858565
  0
LWPOLYLINE
  5
4CD
100
AcDbEntity
  8
RACCORDO
100
AcDbPolyline
 62
250
  6
CONTINUOUS
 90
29
 70
0
 10
34.4656342048
 20
-48.0416439903
 10
34.4650586008
 20
-48.0568432329
 10
34.4641008374
 20
-48.0718667272
 10
34.46276157
 20
-48.0867041926
 10
34.4610417152
 20
-48.1013454759
 10
34.4589424498
 20
-48.115780558
 10
34.4564652103
 20
-48.1299995611
 10
34.4536116919
 20
-48.1439927554
 10
34.4503838472
 20
-48.1577505652
 10
34.4467838852
 20
-48.1712635758
 10
34.4428142692
 20
-48.1845225403
 10
34.4384777157
 20
-48.1975183856
 10
34.4337771922
 20
-48.2102422187
 10
34.4287159154
 20
-48.2226853327
 10
34.4232973485
 20
-48.2348392128
 10
34.4175251997
 20
-48.2466955422
 10
34.4114034188
 20
-48.2582462074
 10
34.404936195
 20
-48.2694833045
 10
34.3981279538
 20
-48.2803991439
 10
34.3909833542
 20
-48.290986256
 10
34.3835072853
 20
-48.301237396
 10
34.3757048629
 20
-48.311145549
 10
34.3675814263
 20
-48.320703935
 10
34.3591425345
 20
-48.3299060132
 10
34.3503939622
 20
-48.3387454867
 10
34.3413416961
 20
-48.3472163066
 10
34.3319919308
 20
-48.3553126765
 10
34.3223510644
 20
-48.3630290561
 10
34.31322019
 20
-48.3697950002
  0
LINE
  5
4CE
100
AcDbEntity
  8
RACCORDO
100
AcDbLine
 62
7
  6
CONTINUOUS
 10
38.1381919192
 20
-16.2183778033
 11
37.3735868063
 21
-16.7093691447
  0
LINE
  5
4CF
100
AcDbEntity
  8
RACCORDO
100
AcDbLine
 62
7
  6
CONTINUOUS
 10
38.4130410437
 20
-45.2245428316
 11
38.4130410437
 21
-16.4171906547
  0
LINE
  5
4D0
100
AcDbEntity
  8
RACCORDO
100
AcDbLine
 62
7
  6
CONTINUOUS
 10
38.4130410437
 20
-9.6458457199
 11
38.4130410437
 21
19.161506457
  0
LINE
  5
4D1
100
AcDbEntity
  8
RACCORDO
100
AcDbLine
 62
250
  6
CONTINUOUS
 10
17.0563374049
 20
-41.5754282916
 11
17.048793319
 21
-41.5797207648
  0
LWPOLYLINE
  5
4D2
100
AcDbEntity
  8
RACCORDO
100
AcDbPolyline
 62
7
  6
CONTINUOUS
 90
79
 70
0
 10
17.0487886304
 20
-41.5797229329
 10
17.0484824981
 20
-41.5798819417
 10
17.0481584103
 20
-41.5800319029
 10
17.0478161021
 20
-41.5801724885
 10
17.0474549786
 20
-41.5803023318
 10
17.0470750971
 20
-41.5804220978
 10
17.0466771588
 20
-41.5805345039
 10
17.0462611159
 20
-41.580639496
 10
17.0458264447
 20
-41.58073639
 10
17.0453731036
 20
-41.5808269594
 10
17.0449007118
 20
-41.580911002
 10
17.0444090194
 20
-41.5809879043
 10
17.0438981519
 20
-41.5810588159
 10
17.0433675856
 20
-41.5811234273
 10
17.0428171772
 20
-41.5811811721
 10
17.0422476239
 20
-41.5812328338
 10
17.0416590329
 20
-41.5812780144
 10
17.0410506549
 20
-41.5813162396
 10
17.0404218902
 20
-41.5813481815
 10
17.0397733342
 20
-41.5813733806
 10
17.0391037127
 20
-41.5813913569
 10
17.0384094979
 20
-41.5814026219
 10
17.0376899252
 20
-41.581406575
 10
17.0369448502
 20
-41.5814025696
 10
17.0361714951
 20
-41.5813908428
 10
17.0353692386
 20
-41.5813706497
 10
17.034537639
 20
-41.5813412465
 10
17.0336740361
 20
-41.5813026924
 10
17.0327772927
 20
-41.5812540893
 10
17.0318473295
 20
-41.5811945835
 10
17.0308829689
 20
-41.5811241762
 10
17.029882227
 20
-41.5810418507
 10
17.0288458149
 20
-41.5809467126
 10
17.0277766675
 20
-41.5808390437
 10
17.0266738359
 20
-41.5807180564
 10
17.0255372474
 20
-41.5805828764
 10
17.0243713918
 20
-41.5804339866
 10
17.0231761083
 20
-41.5802708876
 10
17.0219508861
 20
-41.5800928312
 10
17.0206999639
 20
-41.5799003133
 10
17.0194232419
 20
-41.579693013
 10
17.0181204584
 20
-41.5794703974
 10
17.0167958595
 20
-41.5792330079
 10
17.015449971
 20
-41.5789807965
 10
17.0140821981
 20
-41.5787133636
 10
17.0126953007
 20
-41.5784310124
 10
17.0112918368
 20
-41.5781342032
 10
17.009869382
 20
-41.5778223365
 10
17.0084231913
 20
-41.5774940689
 10
17.006955362
 20
-41.5771496077
 10
17.0054637397
 20
-41.5767882965
 10
17.0039368624
 20
-41.5764069348
 10
17.0023742279
 20
-41.5760047661
 10
17.0007758274
 20
-41.5755812978
 10
16.9991304946
 20
-41.5751329606
 10
16.9974376165
 20
-41.5746586949
 10
16.9956969505
 20
-41.5741576165
 10
16.993897486
 20
-41.5736256889
 10
16.9920384815
 20
-41.5730615543
 10
16.9901195388
 20
-41.5724639509
 10
16.9881297963
 20
-41.5718282734
 10
16.9860684103
 20
-41.5711528904
 10
16.9839348751
 20
-41.5704361707
 10
16.9817185157
 20
-41.5696728192
 10
16.9794184232
 20
-41.5688609603
 10
16.9770340312
 20
-41.5679986105
 10
16.9745549041
 20
-41.567079633
 10
16.9719801187
 20
-41.5661019568
 10
16.9693090977
 20
-41.5650632616
 10
16.9665317134
 20
-41.5639563851
 10
16.963647089
 20
-41.5627791312
 10
16.9606547044
 20
-41.5615288745
 10
16.9575448391
 20
-41.5601971937
 10
16.954316858
 20
-41.5587819199
 10
16.9509702599
 20
-41.5572801191
 10
16.9474955024
 20
-41.5556816436
 10
16.9438891526
 20
-41.5539812004
 10
16.940153941
 20
-41.5521787742
 10
16.9362896594
 20
-41.5502719425
  0
LWPOLYLINE
  5
4D3
100
AcDbEntity
  8
RACCORDO
100
AcDbPolyline
 62
250
  6
CONTINUOUS
 90
58
 70
0
 10
34.4656342048
 20
-48.0416439903
 10
34.4542660894
 20
-48.0515588151
 10
34.4425061246
 20
-48.061313089
 10
34.4303638328
 20
-48.070890718
 10
34.417850918
 20
-48.0802668031
 10
34.4049764938
 20
-48.0894348716
 10
34.3917463712
 20
-48.0984064469
 10
34.3781715175
 20
-48.1071658644
 10
34.364263514
 20
-48.1156981386
 10
34.3500285961
 20
-48.1240153443
 10
34.3354785507
 20
-48.1321021573
 10
34.3206258248
 20
-48.1399440562
 10
34.3054770979
 20
-48.1475537608
 10
34.2900448414
 20
-48.1549163276
 10
34.2743422732
 20
-48.162017695
 10
34.2583765752
 20
-48.1688712782
 10
34.2421607293
 20
-48.1754625816
 10
34.2257086094
 20
-48.1817780091
 10
34.209028016
 20
-48.1878316706
 10
34.192132216
 20
-48.1936096163
 10
34.1750355959
 20
-48.1990987363
 10
34.1577467736
 20
-48.2043137747
 10
34.1402790102
 20
-48.2092414597
 10
34.1226470227
 20
-48.2138692042
 10
34.1048605522
 20
-48.2182122645
 10
34.0869324862
 20
-48.2222582112
 10
34.0688776394
 20
-48.2259950341
 10
34.0507073122
 20
-48.2294383239
 10
34.0324335675
 20
-48.2325766809
 10
34.0140710203
 20
-48.2353987415
 10
33.9956331105
 20
-48.2379202148
 10
33.9771305488
 20
-48.2401309227
 10
33.9585773773
 20
-48.2420202273
 10
33.9399898894
 20
-48.2436037349
 10
33.9213768696
 20
-48.2448726581
 10
33.9027513326
 20
-48.2458171586
 10
33.8841332277
 20
-48.2464525648
 10
33.8655288512
 20
-48.246771588
 10
33.8469496669
 20
-48.2467652408
 10
33.8284200676
 20
-48.2464484993
 10
33.8099434111
 20
-48.24581559
 10
33.7915290502
 20
-48.2448583787
 10
33.7732064349
 20
-48.2435915644
 10
33.754975767
 20
-48.2420107977
 10
33.7368437643
 20
-48.2401087294
 10
33.7188451629
 20
-48.2379000169
 10
33.7009771481
 20
-48.2353815569
 10
33.6832434217
 20
-48.2325466423
 10
33.6656836381
 20
-48.2294102276
 10
33.6482925367
 20
-48.225970258
 10
33.6310706933
 20
-48.2222204778
 10
33.6140615802
 20
-48.218176449
 10
33.597258465
 20
-48.2138370452
 10
33.5806590695
 20
-48.209196295
 10
33.5643088713
 20
-48.2042704686
 10
33.5482180248
 20
-48.1990654858
 10
33.532364404
 20
-48.1935708492
 10
33.5167434478
 20
-48.1877811504
  0
LINE
  5
4D4
100
AcDbEntity
  8
RACCORDO
100
AcDbLine
 62
250
  6
CONTINUOUS
 10
34.4656342026
 20
-48.0416439918
 11
38.4130410437
 21
-45.2245428316
  0
ELLIPSE
  5
4D5
100
AcDbEntity
  8
RACCORDO
100
AcDbEllipse
 62
7
  6
CONTINUOUS
 10
37.8392850961
 20
-44.9934106876
 30
0.0
 11
-0.4439582075
 21
0.5422955916
 31
0.0
 40
0.6702092216
 41
-3.1859857931
 42
-2.4555758569
  0
ELLIPSE
  5
4D6
100
AcDbEntity
  8
RACCORDO
100
AcDbEllipse
 62
7
  6
CONTINUOUS
 10
37.8392850961
 20
19.3912409602
 30
0.0
 11
-0.4437453755
 21
0.541388733
 31
0.0
 40
0.6718117768
 41
-2.4549904806
 42
-0.8854121289
  0
ELLIPSE
  5
4D7
100
AcDbEntity
  8
RACCORDO
100
AcDbEllipse
 62
7
  6
CONTINUOUS
 10
-33.0985829061
 20
47.8814880067
 30
0.0
 11
-0.4439582075
 21
0.5422955916
 31
0.0
 40
0.6702092216
 41
-0.883561555
 42
0.0443931396
  0
ELLIPSE
  5
4D8
100
AcDbEntity
  8
RACCORDO
100
AcDbEllipse
 62
7
  6
CONTINUOUS
 10
38.1119501157
 20
-9.8750245844
 30
0.0
 11
0.1986069627
 21
0.4590074094
 31
0.0
 40
0.4930171451
 41
-2.3340071001
 42
-0.850477236
  0
ELLIPSE
  5
4D9
100
AcDbEntity
  8
RACCORDO
100
AcDbEllipse
 62
7
  6
CONTINUOUS
 10
37.3893318884
 20
-11.1688785378
 30
0.0
 11
0.1191641776
 21
0.2754044456
 31
0.0
 40
0.4930171451
 41
0.8075855534
 42
2.2911154176
  0
ELLIPSE
  5
4DA
100
AcDbEntity
  8
RACCORDO
100
AcDbEllipse
 62
7
  6
CONTINUOUS
 10
38.1119501157
 20
-16.6463695192
 30
0.0
 11
0.1986069627
 21
0.4590074094
 31
0.0
 40
0.4930171451
 41
5.4327080712
 42
6.9162379354
  0
ELLIPSE
  5
4DB
100
AcDbEntity
  8
RACCORDO
100
AcDbEllipse
 62
7
  6
CONTINUOUS
 10
37.3893318884
 20
-16.4525741152
 30
0.0
 11
0.1191641776
 21
0.2754044456
 31
0.0
 40
0.4930171451
 41
2.2911154176
 42
3.7746452818
  0
ENDSEC
  0
SECTION
  2
OBJECTS
  0
DICTIONARY
  5
C
100
AcDbDictionary
280
0
281
1
  3
ACAD_GROUP
350
D
  3
ACAD_MLINESTYLE
350
17
  3
ACAD_LAYOUT
350
1A
  3
ACAD_PLOTSETTINGS
350
19
  3
ACAD_PLOTSTYLENAME
350
E
  0
DICTIONARY
  5
D
102
{ACAD_REACTORS
330
C
102
}
100
AcDbDictionary
280
0
281
1
  0
ACDBDICTIONARYWDFLT
  5
E
102
{ACAD_REACTORS
330
C
102
}
100
AcDbDictionary
281
1
  3
Normal
350
F
100
AcDbDictionaryWithDefault
340
F
  0
DICTIONARY
  5
17
102
{ACAD_REACTORS
330
C
102
}
100
AcDbDictionary
280
0
281
1
  3
Standard
350
18
  0
DICTIONARY
  5
19
102
{ACAD_REACTORS
330
C
102
}
100
AcDbDictionary
281
1
  0
DICTIONARY
  5
1A
102
{ACAD_REACTORS
330
C
102
}
100
AcDbDictionary
281
1
  3
Model
350
4DC
  3
Layout1
350
4DD
  0
ACDBPLACEHOLDER
  5
F
102
{ACAD_REACTORS
330
E
102
}
  0
MLINESTYLE
  5
18
102
{ACAD_REACTORS
330
17
102
}
100
AcDbMlineStyle
  2
STANDARD
 70
0
  3

 62
256
 51
90.0
 52
90.0
 71
2
 49
0.5
 62
256
  6
BYLAYER
 49
-0.5
 62
256
  6
BYLAYER
  0
LAYOUT
  5
4DC
102
{ACAD_REACTORS
330
1A
102
}
100
AcDbPlotSettings
  1

  2
none_device
  4
ISO_A4_(297.00_x_210.00_MM)
  6

 40
0.0
 41
0.0
 42
0.0
 43
0.0
 44
297.0
 45
210.0
 46
0.0
 47
0.0
 48
0.0
 49
0.0
140
0.0
141
0.0
142
1.0
143
1.0
 70
1024
 72
1
 73
0
 74
0
  7

 75
0
147
1.0
148
0.0
149
0.0
100
AcDbLayout
  1
Model
 70
0
 71
0
 10
0.0
 20
0.0
 11
297.0
 21
210.0
 12
0.0
 22
0.0
 32
0.0
 14
0.0
 24
0.0
 34
0.0
 15
0.0
 25
0.0
 35
0.0
146
0.0
 13
0.0
 23
0.0
 33
0.0
 16
1.0
 26
0.0
 36
0.0
 17
0.0
 27
1.0
 37
0.0
 76
0
330
217
345
0
346
0
  0
LAYOUT
  5
4DD
102
{ACAD_REACTORS
330
1A
102
}
100
AcDbPlotSettings
  1

  2
none_device
  4
ISO_A4_(297.00_x_210.00_MM)
  6

 40
0.0
 41
0.0
 42
0.0
 43
0.0
 44
297.0
 45
210.0
 46
0.0
 47
0.0
 48
0.0
 49
0.0
140
0.0
141
0.0
142
1.0
143
1.0
 70
0
 72
1
 73
0
 74
0
  7

 75
0
147
1.0
148
0.0
149
0.0
100
AcDbLayout
  1
Layout1
 70
0
 71
1
 10
0.0
 20
0.0
 11
297.0
 21
210.0
 12
0.0
 22
0.0
 32
0.0
 14
0.0
 24
0.0
 34
0.0
 15
0.0
 25
0.0
 35
0.0
146
0.0
 13
0.0
 23
0.0
 33
0.0
 16
1.0
 26
0.0
 36
0.0
 17
0.0
 27
1.0
 37
0.0
 76
0
330
218
345
0
346
0
  0
ENDSEC
  0
EOF
