  0
SECTION
  2
HEADER
  9
$ACADVER
  1
AC1024
  9
$DWGCODEPAGE
  3
ANSI_1252
  9
$EXTMAX
 10
297.0
 20
210.0
 30
0.0
  9
$EXTMIN
 10
0.0
 20
0.0
 30
0.0
  9
$LIMMIN
 10
0.0
 20
0.0
  9
$LIMMAX
 10
297.0
 20
210.0
  9
$VIEWCTR
 10
148.5
 20
105.0
  9
$VIEWSIZE
 40
210.0
  9
$CLAYER
  8
0
  9
$LTSCALE
 40
16.335
  9
$CELTYPE
  6
BYLAYER
  9
$DIMSCALE
 40
1.0
  9
$DIMASZ
 40
3.0
  9
$DIMEXO
 40
0.5
  9
$DIMDLI
 40
11.286
  9
$DIMEXE
 40
1.5
  9
$DIMCEN
 40
2.673
  9
$DIMLFAC
 40
1.0
  9
$DIMBLK
  1
_FILLED
  9
$DIMALT
 70
0
  9
$DIMALTF
 40
0.0393700787
  9
$DIMTXT
 40
3.0
  9
$DIMTOL
 70
1
  9
$DIMLIM
 70
0
  9
$DIMTFAC
 40
1.0
  9
$DIMTP
 40
0.01
  9
$DIMTM
 40
0.01
  9
$DIMGAP
 40
0.625
  9
$DIMDSEP
 70
44
  9
$AUNITS
 70
0
  9
$PDMODE
 70
3
  9
$PDSIZE
 40
3.0
  9
$HANDSEED
  5
3A8
  9
$TILEMODE
 70
1
  9
$MEASUREMENT
 70
1
  9
$INSUNITS
 70
4
  0
ENDSEC
  0
SECTION
  2
CLASSES
  0
CLASS
  1
ACDBDICTIONARYWDFLT
  2
AcDbDictionaryWithDefault
  3
AutoCAD 2000
 90
0
 91
1
280
0
281
0
  0
CLASS
  1
ACDBPLACEHOLDER
  2
AcDbPlaceHolder
  3
AutoCAD 2000
 90
0
 91
1
280
0
281
0
  0
CLASS
  1
LAYOUT
  2
AcDbLayout
  3
AutoCAD 2000
 90
0
 91
0
280
0
281
0
  0
ENDSEC
  0
SECTION
  2
TABLES
  0
TABLE
  2
VPORT
  5
8
100
AcDbSymbolTable
 70
2
  0
VPORT
  5
1F4
100
AcDbSymbolTableRecord
100
AcDbViewportTableRecord
  2
*ACTIVE
 70
0
 10
0.0
 20
0.0
 11
1.0
 21
1.0
 12
148.5
 22
105.0
 13
0.0
 23
0.0
 14
1.0
 24
1.0
 15
0.0
 25
0.0
 16
0.0
 26
0.0
 36
1.0
 17
0.0
 27
0.0
 37
0.0
 40
210.0
 41
1.4142857143
 42
50.0
 43
0.0
 44
0.0
 50
0.0
 51
0.0
 71
0
 72
100
 73
1
 74
1
 75
0
 76
0
 77
0
 78
0
  0
ENDTAB
  0
TABLE
  2
LTYPE
  5
5
100
AcDbSymbolTable
 70
6
  0
LTYPE
  5
14
100
AcDbSymbolTableRecord
100
AcDbLinetypeTableRecord
  2
BYBLOCK
 70
0
  3

 72
65
 73
0
 40
0.0
  0
LTYPE
  5
15
100
AcDbSymbolTableRecord
100
AcDbLinetypeTableRecord
  2
BYLAYER
 70
0
  3

 72
65
 73
0
 40
0.0
  0
LTYPE
  5
16
100
AcDbSymbolTableRecord
100
AcDbLinetypeTableRecord
  2
CONTINUOUS
 70
64
  3
Solid line
 72
65
 73
0
 40
0.0
  0
LTYPE
  5
1F5
100
AcDbSymbolTableRecord
100
AcDbLinetypeTableRecord
  2
CENTER
 70
64
  3
____ _ ____ _ ____ _ ____ _ ____ _ ____ _ ____
 72
65
 73
4
 40
0.6
 49
0.375
 74
0
 49
-0.075
 74
0
 49
0.075
 74
0
 49
-0.075
 74
0
  0
LTYPE
  5
1F6
100
AcDbSymbolTableRecord
100
AcDbLinetypeTableRecord
  2
HIDDEN
 70
64
  3
- - - - - - - - - - - - - - - - - - - -
 72
65
 73
2
 40
0.2
 49
0.1
 74
0
 49
-0.1
 74
0
  0
LTYPE
  5
1F7
100
AcDbSymbolTableRecord
100
AcDbLinetypeTableRecord
  2
PHANTOM
 70
64
  3
_____ _ _ _____ _ _ _____ _ _ _____
 72
65
 73
6
 40
0.8
 49
0.45
 74
0
 49
-0.05
 74
0
 49
0.1
 74
0
 49
-0.05
 74
0
 49
0.1
 74
0
 49
-0.05
 74
0
  0
LTYPE
  5
1F8
100
AcDbSymbolTableRecord
100
AcDbLinetypeTableRecord
  2
DOT
 70
64
  3
. . . . . . . . . . . . . . . . . . . .
 72
65
 73
2
 40
0.2
 49
0.1
 74
0
 49
-0.1
 74
0
  0
LTYPE
  5
1F9
100
AcDbSymbolTableRecord
100
AcDbLinetypeTableRecord
  2
DASHED
 70
64
  3
- - - - - - - - - - - - - - - - - - - -
 72
65
 73
2
 40
0.2
 49
0.1
 74
0
 49
-0.1
 74
0
  0
ENDTAB
  0
TABLE
  2
LAYER
  5
2
100
AcDbSymbolTable
 70
36
  0
LAYER
  5
10
100
AcDbSymbolTableRecord
100
AcDbLayerTableRecord
  2
0
 70
0
 62
7
  6
CONTINUOUS
370
-3
390
F
  0
LAYER
  5
1FA
100
AcDbSymbolTableRecord
100
AcDbLayerTableRecord
  2
DEFAULT_1
 70
0
 62
7
  6
CENTER
370
-3
390
F
  0
LAYER
  5
1FB
100
AcDbSymbolTableRecord
100
AcDbLayerTableRecord
  2
DEFAULT_2
 70
0
 62
7
  6
HIDDEN
370
-3
390
F
  0
LAYER
  5
1FC
100
AcDbSymbolTableRecord
100
AcDbLayerTableRecord
  2
DEFAULT_3
 70
0
 62
7
  6
PHANTOM
370
-3
390
F
  0
LAYER
  5
1FD
100
AcDbSymbolTableRecord
100
AcDbLayerTableRecord
  2
ASSI
 70
0
 62
7
  6
CONTINUOUS
370
-3
390
F
  0
LAYER
  5
1FE
100
AcDbSymbolTableRecord
100
AcDbLayerTableRecord
  2
COORDINATE
 70
0
 62
7
  6
CONTINUOUS
370
-3
390
F
  0
LAYER
  5
1FF
100
AcDbSymbolTableRecord
100
AcDbLayerTableRecord
  2
COORD_ORIGINE
 70
0
 62
7
  6
CONTINUOUS
370
-3
390
F
  0
LAYER
  5
200
100
AcDbSymbolTableRecord
100
AcDbLayerTableRecord
  2
COSMETICI
 70
0
 62
7
  6
CONTINUOUS
370
-3
390
F
  0
LAYER
  5
201
100
AcDbSymbolTableRecord
100
AcDbLayerTableRecord
  2
CURVE
 70
0
 62
7
  6
CONTINUOUS
370
-3
390
F
  0
LAYER
  5
202
100
AcDbSymbolTableRecord
100
AcDbLayerTableRecord
  2
DRAFT
 70
0
 62
7
  6
CONTINUOUS
370
-3
390
F
  0
LAYER
  5
203
100
AcDbSymbolTableRecord
100
AcDbLayerTableRecord
  2
IMPORT
 70
0
 62
7
  6
CONTINUOUS
370
-3
390
F
  0
LAYER
  5
204
100
AcDbSymbolTableRecord
100
AcDbLayerTableRecord
  2
INTF_1
 70
0
 62
7
  6
CONTINUOUS
370
-3
390
F
  0
LAYER
  5
205
100
AcDbSymbolTableRecord
100
AcDbLayerTableRecord
  2
NOTE
 70
0
 62
7
  6
CONTINUOUS
370
-3
390
F
  0
LAYER
  5
206
100
AcDbSymbolTableRecord
100
AcDbLayerTableRecord
  2
PIANI
 70
0
 62
7
  6
CONTINUOUS
370
-3
390
F
  0
LAYER
  5
207
100
AcDbSymbolTableRecord
100
AcDbLayerTableRecord
  2
PIANI_ORIGINE
 70
0
 62
7
  6
CONTINUOUS
370
-3
390
F
  0
LAYER
  5
208
100
AcDbSymbolTableRecord
100
AcDbLayerTableRecord
  2
PUNTI
 70
0
 62
7
  6
CONTINUOUS
370
-3
390
F
  0
LAYER
  5
209
100
AcDbSymbolTableRecord
100
AcDbLayerTableRecord
  2
RACCORDO
 70
0
 62
7
  6
CONTINUOUS
370
-3
390
F
  0
LAYER
  5
20A
100
AcDbSymbolTableRecord
100
AcDbLayerTableRecord
  2
RGB____0____0____0__
 70
0
 62
7
  6
CONTINUOUS
370
-3
390
F
  0
LAYER
  5
20B
100
AcDbSymbolTableRecord
100
AcDbLayerTableRecord
  2
SIMBOLI
 70
0
 62
7
  6
CONTINUOUS
370
-3
390
F
  0
LAYER
  5
20C
100
AcDbSymbolTableRecord
100
AcDbLayerTableRecord
  2
SNAPLINE
 70
0
 62
7
  6
CONTINUOUS
370
-3
390
F
  0
LAYER
  5
20D
100
AcDbSymbolTableRecord
100
AcDbLayerTableRecord
  2
SUPERFICI
 70
0
 62
7
  6
CONTINUOUS
370
-3
390
F
  0
LAYER
  5
20E
100
AcDbSymbolTableRecord
100
AcDbLayerTableRecord
  2
TRASH
 70
0
 62
7
  6
CONTINUOUS
370
-3
390
F
  0
LAYER
  5
20F
100
AcDbSymbolTableRecord
100
AcDbLayerTableRecord
  2
XSEC_DATUMS
 70
0
 62
7
  6
CONTINUOUS
370
-3
390
F
  0
ENDTAB
  0
TABLE
  2
STYLE
  5
3
100
AcDbSymbolTable
 70
1
  0
STYLE
  5
11
100
AcDbSymbolTableRecord
100
AcDbTextStyleTableRecord
  2
STANDARD
 70
0
 40
0.0
 41
0.8
 50
0.0
 71
0
 42
0.2
  3
txt
  4

  0
STYLE
  5
210
100
AcDbSymbolTableRecord
100
AcDbTextStyleTableRecord
  2
TEXTSTYLE_1
 70
0
 40
0.0
 41
0.8
 50
0.0
 71
0
 42
0.2
  3
gdt
  4

  0
ENDTAB
  0
TABLE
  2
VIEW
  5
6
100
AcDbSymbolTable
 70
0
  0
ENDTAB
  0
TABLE
  2
UCS
  5
7
100
AcDbSymbolTable
 70
0
  0
ENDTAB
  0
TABLE
  2
APPID
  5
9
100
AcDbSymbolTable
 70
1
  0
APPID
  5
211
100
AcDbSymbolTableRecord
100
AcDbRegAppTableRecord
  2
ACAD
 70
0
  0
ENDTAB
  0
TABLE
  2
BLOCK_RECORD
  5
1
100
AcDbSymbolTable
 70
0
  0
BLOCK_RECORD
  5
212
100
AcDbSymbolTableRecord
100
AcDbBlockTableRecord
  2
*Model_Space
  0
BLOCK_RECORD
  5
213
100
AcDbSymbolTableRecord
100
AcDbBlockTableRecord
  2
*Paper_Space
  0
BLOCK_RECORD
  5
214
100
AcDbSymbolTableRecord
100
AcDbBlockTableRecord
  2
_FILLED
  0
ENDTAB
  0
TABLE
  2
DIMSTYLE
  5
A
100
AcDbSymbolTable
 70
1
100
AcDbDimStyleTable
 71
0
  0
DIMSTYLE
105
215
100
AcDbSymbolTableRecord
100
AcDbDimStyleTableRecord
  2
STANDARD
 70
0
  3

  4

 40
1.0
 41
3.0
 42
0.5
 43
0.38
 44
1.5
 45
0.0
 46
0.0
 47
0.01
 48
0.01
140
3.0
141
0.09
142
0.0
143
25.4
144
1.0
145
0.0
146
1.0
147
0.625
 71
1
 72
0
 73
0
 74
0
 75
0
 76
0
 77
1
 78
8
 79
2
170
0
171
1
172
0
173
0
174
0
175
0
176
0
177
0
178
0
270
2
179
2
271
2
272
2
273
2
274
2
275
0
280
0
281
0
282
0
283
1
284
8
285
0
286
0
287
3
288
0
340
11
278
44
341
214
342
214
343
214
344
214
  0
ENDTAB
  0
ENDSEC
  0
SECTION
  2
BLOCKS
  0
BLOCK
  5
20
100
AcDbEntity
  8
0
100
AcDbBlockBegin
  2
*Model_Space
 70
0
 10
0.0
 20
0.0
 30
0.0
  3
*Model_Space
  1

  0
ENDBLK
  5
21
100
AcDbEntity
  8
0
100
AcDbBlockEnd
  0
BLOCK
  5
1C
100
AcDbEntity
  8
0
100
AcDbBlockBegin
  2
*Paper_Space
 70
0
 10
0.0
 20
0.0
 30
0.0
  3
*Paper_Space
  1

  0
ENDBLK
  5
1D
100
AcDbEntity
  8
0
100
AcDbBlockEnd
  0
BLOCK
  5
216
100
AcDbEntity
  8
0
100
AcDbBlockBegin
  2
_FILLED
 70
64
 10
0.0
 20
0.0
  3
_FILLED
  1

  0
SOLID
  5
217
100
AcDbEntity
  8
0
  6
BYBLOCK
 62
0
100
AcDbTrace
 10
0.0
 20
0.0
 11
-1.0
 21
0.3166666667
 12
-1.0
 22
-0.3166666667
 13
-1.0
 23
-0.3166666667
  0
ENDBLK
  5
218
100
AcDbEntity
  8
0
  6
BYBLOCK
 62
0
100
AcDbBlockEnd
  0
ENDSEC
  0
SECTION
  2
ENTITIES
  0
LINE
  5
219
100
AcDbEntity
  8
RACCORDO
100
AcDbLine
 62
7
  6
CONTINUOUS
 10
-36.8534742683
 20
44.881930622
 11
-33.7091323602
 21
48.0225476746
  0
LINE
  5
21A
100
AcDbEntity
  8
RACCORDO
100
AcDbLine
 62
250
  6
CONTINUOUS
 10
-36.0414715757
 20
44.9850272262
 11
-32.9102313511
 21
48.1125581158
  0
LWPOLYLINE
  5
21B
100
AcDbEntity
  8
RACCORDO
100
AcDbPolyline
 62
250
  6
CONTINUOUS
 90
43
 70
0
 10
-36.8534742683
 20
44.881930622
 10
-36.8436926735
 20
44.8914515878
 10
-36.8303421249
 20
44.9036880093
 10
-36.8165655813
 20
44.9154747343
 10
-36.8023701571
 20
44.9268056758
 10
-36.7877631833
 20
44.9376749822
 10
-36.7727522032
 20
44.9480770404
 10
-36.757344969
 20
44.9580064784
 10
-36.7415494372
 20
44.9674581685
 10
-36.7253737651
 20
44.9764272297
 10
-36.7088263061
 20
44.9849090299
 10
-36.6919156059
 20
44.9928991891
 10
-36.6746503975
 20
45.0003935809
 10
-36.657039597
 20
45.007388335
 10
-36.6390922992
 20
45.0138798392
 10
-36.6208177725
 20
45.0198647411
 10
-36.6022254542
 20
45.0253399499
 10
-36.583324946
 20
45.0303026382
 10
-36.5641260085
 20
45.034750243
 10
-36.5446385564
 20
45.0386804674
 10
-36.5248726537
 20
45.042091282
 10
-36.5048385079
 20
45.0449809251
 10
-36.4845464651
 20
45.0473479046
 10
-36.4640070047
 20
45.049190998
 10
-36.4432307337
 20
45.0505092535
 10
-36.4222283815
 20
45.0513019904
 10
-36.4010107942
 20
45.0515687993
 10
-36.3795889291
 20
45.0513095424
 10
-36.3579738491
 20
45.0505243535
 10
-36.3361767166
 20
45.0492136382
 10
-36.3142087883
 20
45.0473780733
 10
-36.2920814089
 20
45.0450186068
 10
-36.2698060055
 20
45.0421364572
 10
-36.2473940818
 20
45.0387331129
 10
-36.2248572117
 20
45.0348103314
 10
-36.2022070339
 20
45.0303701386
 10
-36.1794552455
 20
45.0254148274
 10
-36.156613596
 20
45.0199469571
 10
-36.1336938816
 20
45.0139693511
 10
-36.1107079384
 20
45.0074850967
 10
-36.0876676369
 20
45.0004975424
 10
-36.0645848759
 20
44.9930102966
 10
-36.0414715756
 20
44.9850272262
  0
LWPOLYLINE
  5
21C
100
AcDbEntity
  8
RACCORDO
100
AcDbPolyline
 62
250
  6
CONTINUOUS
 90
64
 70
0
 10
-36.0414715757
 20
44.9850272262
 10
-36.0569729629
 20
44.9709183652
 10
-36.0724481102
 20
44.9563317905
 10
-36.0878891363
 20
44.9412749305
 10
-36.1032881774
 20
44.9257554535
 10
-36.1186373911
 20
44.9097812633
 10
-36.1339289603
 20
44.8933604951
 10
-36.1491550973
 20
44.8765015117
 10
-36.1643080479
 20
44.8592128991
 10
-36.1793800948
 20
44.841503462
 10
-36.1943635623
 20
44.8233822195
 10
-36.2092508195
 20
44.8048584003
 10
-36.2240342846
 20
44.7859414382
 10
-36.2387064288
 20
44.7666409673
 10
-36.2532597799
 20
44.7469668169
 10
-36.267686926
 20
44.7269290067
 10
-36.2819805197
 20
44.7065377414
 10
-36.2961332817
 20
44.685803406
 10
-36.3101380041
 20
44.6647365601
 10
-36.3239875547
 20
44.6433479325
 10
-36.3376748802
 20
44.621648416
 10
-36.3511930099
 20
44.5996490618
 10
-36.3645350593
 20
44.5773610737
 10
-36.3776942335
 20
44.5547958025
 10
-36.3906638309
 20
44.5319647402
 10
-36.4034372463
 20
44.5088795143
 10
-36.4160079744
 20
44.4855518815
 10
-36.4283696133
 20
44.4619937222
 10
-36.4405158674
 20
44.4382170341
 10
-36.4524405508
 20
44.4142339261
 10
-36.4641375907
 20
44.3900566123
 10
-36.4756010298
 20
44.3656974058
 10
-36.4868250302
 20
44.3411687123
 10
-36.4978038756
 20
44.3164830236
 10
-36.5085319747
 20
44.2916529117
 10
-36.519003864
 20
44.2666910221
 10
-36.5292142104
 20
44.2416100673
 10
-36.5391578138
 20
44.2164228206
 10
-36.5488296103
 20
44.1911421093
 10
-36.5582246742
 20
44.1657808084
 10
-36.5673382207
 20
44.1403518339
 10
-36.5761656086
 20
44.1148681362
 10
-36.5847023422
 20
44.0893426937
 10
-36.5929440739
 20
44.0637885059
 10
-36.6008866063
 20
44.0382185871
 10
-36.6085258946
 20
44.0126459595
 10
-36.6158580482
 20
43.9870836468
 10
-36.622879333
 20
43.9615446673
 10
-36.6295861731
 20
43.9360420274
 10
-36.6359751529
 20
43.9105887153
 10
-36.6420430186
 20
43.8851976936
 10
-36.64778668
 20
43.8598818936
 10
-36.653203212
 20
43.8346542081
 10
-36.658289856
 20
43.809527485
 10
-36.6630440216
 20
43.7845145209
 10
-36.6674632874
 20
43.7596280543
 10
-36.6715454029
 20
43.7348807594
 10
-36.6752882891
 20
43.7102852395
 10
-36.6786900398
 20
43.6858540207
 10
-36.6817489227
 20
43.6615995452
 10
-36.6844633798
 20
43.6375341653
 10
-36.6868320288
 20
43.6136701371
 10
-36.6888536634
 20
43.590019614
 10
-36.6905272539
 20
43.5665946407
  0
LINE
  5
21D
100
AcDbEntity
  8
RACCORDO
100
AcDbLine
 62
250
  6
CONTINUOUS
 10
-20.7829681092
 20
36.9017275648
 11
-20.7499854049
 21
36.922231585
  0
LINE
  5
21E
100
AcDbEntity
  8
RACCORDO
100
AcDbLine
 62
250
  6
CONTINUOUS
 10
-20.7499854049
 20
36.922231585
 11
-20.7180238367
 21
36.9417927244
  0
LINE
  5
21F
100
AcDbEntity
  8
RACCORDO
100
AcDbLine
 62
250
  6
CONTINUOUS
 10
-20.7180238367
 20
36.9417927244
 11
-20.6871396008
 21
36.9603765899
  0
LWPOLYLINE
  5
220
100
AcDbEntity
  8
RACCORDO
100
AcDbPolyline
 62
250
  6
CONTINUOUS
 90
3
 70
0
 10
-20.6871396008
 20
36.9603765899
 10
-20.6573869989
 20
36.977950507
 10
-20.6429514885
 20
36.9863490081
  0
LWPOLYLINE
  5
221
100
AcDbEntity
  8
RACCORDO
100
AcDbPolyline
 62
250
  6
CONTINUOUS
 90
35
 70
0
 10
-36.6905272539
 20
-19.6854121058
 10
-36.6888536634
 20
-19.7060952288
 10
-36.6868320288
 20
-19.7264336998
 10
-36.6844633798
 20
-19.7464171607
 10
-36.6817489227
 20
-19.7660354343
 10
-36.6786900398
 20
-19.7852785295
 10
-36.6752882891
 20
-19.8041366462
 10
-36.6715454029
 20
-19.8226001803
 10
-36.6674632874
 20
-19.8406597287
 10
-36.6630440216
 20
-19.858306094
 10
-36.658289856
 20
-19.8755302894
 10
-36.653203212
 20
-19.8923235428
 10
-36.64778668
 20
-19.9086773018
 10
-36.6420430186
 20
-19.9245832378
 10
-36.6359751529
 20
-19.9400332502
 10
-36.6295861731
 20
-19.9550194706
 10
-36.622879333
 20
-19.9695342669
 10
-36.6158580482
 20
-19.9835702469
 10
-36.6085258946
 20
-19.9971202625
 10
-36.6008866063
 20
-20.0101774128
 10
-36.5929440739
 20
-20.0227350481
 10
-36.5847023422
 20
-20.0347867732
 10
-36.5761656086
 20
-20.0463264502
 10
-36.5673382207
 20
-20.0573482022
 10
-36.5582246742
 20
-20.0678464162
 10
-36.5488296103
 20
-20.0778157456
 10
-36.5391578138
 20
-20.0872511131
 10
-36.5292142104
 20
-20.0961477136
 10
-36.519003864
 20
-20.1045010162
 10
-36.5085319747
 20
-20.1123067668
 10
-36.4978038756
 20
-20.11956099
 10
-36.4868250302
 20
-20.1262599913
 10
-36.4756010298
 20
-20.1324003592
 10
-36.4641375907
 20
-20.1379789665
 10
-36.4526751161
 20
-20.1428988953
  0
LWPOLYLINE
  5
222
100
AcDbEntity
  8
RACCORDO
100
AcDbPolyline
 62
250
  6
CONTINUOUS
 90
43
 70
0
 10
-37.2027918355
 20
-19.1091666553
 10
-37.2017266534
 20
-19.1224236475
 10
-37.1998585727
 20
-19.1391809785
 10
-37.197411902
 20
-19.1558851103
 10
-37.1943878265
 20
-19.1725279513
 10
-37.1907878111
 20
-19.1891014393
 10
-37.1866135998
 20
-19.205597546
 10
-37.1818672146
 20
-19.2220082803
 10
-37.1765509547
 20
-19.2383256928
 10
-37.1706673953
 20
-19.2545418789
 10
-37.1642193866
 20
-19.2706489834
 10
-37.1572100521
 20
-19.2866392036
 10
-37.1496427872
 20
-19.3025047938
 10
-37.1415212576
 20
-19.3182380683
 10
-37.1328493975
 20
-19.3338314057
 10
-37.1236314076
 20
-19.3492772525
 10
-37.1138717533
 20
-19.3645681264
 10
-37.1035751624
 20
-19.3796966201
 10
-37.0927466226
 20
-19.3946554055
 10
-37.0813913794
 20
-19.4094372361
 10
-37.0695149336
 20
-19.4240349513
 10
-37.0571230381
 20
-19.43844148
 10
-37.0442216959
 20
-19.4526498432
 10
-37.0308171566
 20
-19.4666531582
 10
-37.0169159134
 20
-19.4804446419
 10
-37.0025247004
 20
-19.4940176132
 10
-36.9876504889
 20
-19.5073654969
 10
-36.9723004842
 20
-19.5204818278
 10
-36.956482122
 20
-19.5333602516
 10
-36.9402030651
 20
-19.5459945298
 10
-36.9234711991
 20
-19.5583785426
 10
-36.9062946294
 20
-19.5705062906
 10
-36.8886816764
 20
-19.5823718988
 10
-36.8706408721
 20
-19.59396962
 10
-36.8521809558
 20
-19.6052938355
 10
-36.8333108698
 20
-19.6163390595
 10
-36.8140397549
 20
-19.6270999424
 10
-36.7943769465
 20
-19.6375712709
 10
-36.7743319694
 20
-19.647747972
 10
-36.7539145338
 20
-19.6576251173
 10
-36.73313453
 20
-19.667197922
 10
-36.7120020244
 20
-19.6764617476
 10
-36.6905272539
 20
-19.6854121058
  0
LWPOLYLINE
  5
223
100
AcDbEntity
  8
RACCORDO
100
AcDbPolyline
 62
250
  6
CONTINUOUS
 90
64
 70
0
 10
-36.6905272539
 20
-19.6854121058
 10
-36.7524213092
 20
-18.7411860042
 10
-36.8123246652
 20
-17.7948436602
 10
-36.8702367057
 20
-16.8463939987
 10
-36.9261568069
 20
-15.8958457464
 10
-36.9800844195
 20
-14.9432080831
 10
-37.0320190743
 20
-13.9884906474
 10
-37.0819602451
 20
-13.0317024572
 10
-37.1299074174
 20
-12.0728525256
 10
-37.1758601796
 20
-11.1119505202
 10
-37.2198180715
 20
-10.1490055075
 10
-37.2617806433
 20
-9.1840265729
 10
-37.3017475384
 20
-8.2170234483
 10
-37.339718359
 20
-7.2480053375
 10
-37.3756927239
 20
-6.2769813078
 10
-37.4096703399
 20
-5.3039609202
 10
-37.4416508668
 20
-4.3289536339
 10
-37.4716339943
 20
-3.3519683757
 10
-37.4996195047
 20
-2.3730139347
 10
-37.5256071215
 20
-1.3920996677
 10
-37.5495965868
 20
-0.4092347059
 10
-37.5715877337
 20
0.5755724792
 10
-37.591580345
 20
1.5623126238
 10
-37.6095742149
 20
2.550976407
 10
-37.6255692141
 20
3.5415552544
 10
-37.6395651833
 20
4.5340399717
 10
-37.6515619708
 20
5.5284210723
 10
-37.6615594829
 20
6.5246895229
 10
-37.6695576195
 20
7.5228362051
 10
-37.675556287
 20
8.5228514569
 10
-37.6795554327
 20
9.5247254038
 10
-37.6815550191
 20
10.5284486346
 10
-37.681555019
 20
11.5340116723
 10
-37.6795554326
 20
12.5414045126
 10
-37.6755562869
 20
13.550617646
 10
-37.6695576194
 20
14.561641588
 10
-37.6615594827
 20
15.5744663424
 10
-37.6515619706
 20
16.5890821045
 10
-37.639565183
 20
17.6054795813
 10
-37.6255692138
 20
18.6236495184
 10
-37.6095742145
 20
19.643582191
 10
-37.5915803447
 20
20.6652681334
 10
-37.5715877333
 20
21.6886984619
 10
-37.5495965863
 20
22.7138635282
 10
-37.5256071209
 20
23.7407537026
 10
-37.499619504
 20
24.7693601129
 10
-37.4716339934
 20
25.7996732163
 10
-37.4416508657
 20
26.8316831922
 10
-37.4096703388
 20
27.8653807338
 10
-37.3756927227
 20
28.9007564193
 10
-37.3397183576
 20
29.9378002192
 10
-37.301747537
 20
30.976501893
 10
-37.2617806419
 20
32.0168517616
 10
-37.2198180701
 20
33.0588399571
 10
-37.1758601783
 20
34.1024559271
 10
-37.1299074162
 20
35.1476898619
 10
-37.081960244
 20
36.1945319288
 10
-37.0320190735
 20
37.2429715126
 10
-36.9800844188
 20
38.29299877
 10
-36.9261568064
 20
39.3446038086
 10
-36.8702367054
 20
40.3977759118
 10
-36.812324665
 20
41.4525048967
 10
-36.7524213091
 20
42.5087811179
 10
-36.6905272539
 20
43.5665946407
  0
LWPOLYLINE
  5
224
100
AcDbEntity
  8
RACCORDO
100
AcDbPolyline
 62
250
  6
CONTINUOUS
 90
46
 70
0
 10
-37.2033382413
 20
44.1040458825
 10
-37.2038518744
 20
44.089690175
 10
-37.2037236457
 20
44.076370611
 10
-37.2030156134
 20
44.0630172447
 10
-37.2017274778
 20
44.0496496226
 10
-37.1998592253
 20
44.0362865871
 10
-37.1974128699
 20
44.0229089805
 10
-37.1943891608
 20
44.00953625
 10
-37.1907890878
 20
43.9961878126
 10
-37.1866150658
 20
43.9828442962
 10
-37.1818689295
 20
43.9695248543
 10
-37.176552755
 20
43.9562490756
 10
-37.1706692606
 20
43.9429978121
 10
-37.1642213685
 20
43.9297897903
 10
-37.1572122697
 20
43.9166444612
 10
-37.1496449511
 20
43.9035431959
 10
-37.1415234033
 20
43.8905042103
 10
-37.1328519234
 20
43.8775465939
 10
-37.1236337688
 20
43.8646524072
 10
-37.1138739666
 20
43.8518393124
 10
-37.1035778879
 20
43.8391258858
 10
-37.0927490805
 20
43.8264949476
 10
-37.0813935685
 20
43.813963594
 10
-37.0695177521
 20
43.8015497949
 10
-37.0571254937
 20
43.7892371227
 10
-37.0442237721
 20
43.7770421178
 10
-37.0308199651
 20
43.7649820964
 10
-37.0169182702
 20
43.7530413172
 10
-37.0025265775
 20
43.7412357915
 10
-36.9876531889
 20
43.729582169
 10
-36.9723026492
 20
43.7180652868
 10
-36.9564837166
 20
43.7067006658
 10
-36.9402055635
 20
43.6955043016
 10
-36.9234730839
 20
43.6844614717
 10
-36.9062958611
 20
43.6735872537
 10
-36.8886838862
 20
43.6628970191
 10
-36.8706423933
 20
43.6523763303
 10
-36.8521817482
 20
43.642039874
 10
-36.8333127109
 20
43.6319024395
 10
-36.8140408358
 20
43.6219497055
 10
-36.7943772284
 20
43.6121960218
 10
-36.77433337
 20
43.6026556468
 10
-36.7539151057
 20
43.593314205
 10
-36.7331321912
 20
43.584176297
 10
-36.7119987393
 20
43.5752652371
 10
-20.9024423419
 20
37.225743806
  0
LWPOLYLINE
  5
225
100
AcDbEntity
  8
RACCORDO
100
AcDbPolyline
 62
7
  6
CONTINUOUS
 90
61
 70
0
 10
-37.2033383105
 20
44.1040445529
 10
-37.2678365338
 20
43.0007045348
 10
-37.3305216402
 20
41.8926683778
 10
-37.3910140217
 20
40.7863262426
 10
-37.4493130162
 20
39.6816894594
 10
-37.5054179903
 20
38.5787689293
 10
-37.5593283349
 20
37.4775754173
 10
-37.6110434381
 20
36.3781204137
 10
-37.6605626891
 20
35.2804154466
 10
-37.7078855231
 20
34.1844715366
 10
-37.7530113998
 20
33.0903000078
 10
-37.7959397816
 20
31.9979122056
 10
-37.8366701699
 20
30.9073190677
 10
-37.8752020866
 20
29.8185319216
 10
-37.9115350581
 20
28.7315620668
 10
-37.9456686495
 20
27.6464203639
 10
-37.9776024488
 20
26.5631180656
 10
-38.0073360469
 20
25.4816664181
 10
-38.0348690729
 20
24.4020762153
 10
-38.0602011798
 20
23.3243586329
 10
-38.0833320226
 20
22.2485248871
 10
-38.1042612921
 20
21.1745857795
 10
-38.1229887068
 20
20.1025524174
 10
-38.1395139865
 20
19.0324359695
 10
-38.1538368848
 20
17.9642472732
 10
-38.1659571855
 20
16.8979974074
 10
-38.1758746745
 20
15.8336974518
 10
-38.1835891704
 20
14.7713581873
 10
-38.1891005226
 20
13.7109906324
 10
-38.1924085828
 20
12.6526058073
 10
-38.1935132346
 20
11.5962144368
 10
-38.1924143928
 20
10.5418274688
 10
-38.1891119747
 20
9.4894558724
 10
-38.1836059292
 20
8.4391103432
 10
-38.175896237
 20
7.3908017768
 10
-38.165982881
 20
6.3445410705
 10
-38.1538658756
 20
5.3003388609
 10
-38.1395452671
 20
4.2582059868
 10
-38.1230211044
 20
3.2181532763
 10
-38.1042934667
 20
2.1801912865
 10
-38.0833624666
 20
1.1443308272
 10
-38.0602282181
 20
0.1105826271
 10
-38.0348908622
 20
-0.9210429402
 10
-38.0073505763
 20
-1.9505351411
 10
-37.9776075391
 20
-2.977883298
 10
-37.9456619524
 20
-4.0030771848
 10
-37.9115140566
 20
-5.0261061609
 10
-37.8751640952
 20
-6.0469595893
 10
-37.8366123323
 20
-7.065627308
 10
-37.7958590723
 20
-8.0820987448
 10
-37.7529046238
 20
-9.0963633095
 10
-37.707749313
 20
-10.1084108914
 10
-37.6603935073
 20
-11.1182309912
 10
-37.6108375764
 20
-12.1258131378
 10
-37.5590819112
 20
-13.131147269
 10
-37.5051269509
 20
-14.1342228371
 10
-37.4489731359
 20
-15.135029339
 10
-37.3906208986
 20
-16.1335570615
 10
-37.3300706984
 20
-17.1297961558
 10
-37.2673230254
 20
-18.1237363448
 10
-37.2027918246
 20
-19.1091666546
  0
LWPOLYLINE
  5
226
100
AcDbEntity
  8
RACCORDO
100
AcDbPolyline
 62
250
  6
CONTINUOUS
 90
70
 70
0
 10
-19.8358206659
 20
26.4331321717
 10
-19.8200397046
 20
26.4494254566
 10
-19.8037660756
 20
26.4655055163
 10
-19.7870081204
 20
26.4813641085
 10
-19.7697744288
 20
26.4969931045
 10
-19.7520738343
 20
26.5123844932
 10
-19.73391541
 20
26.5275303854
 10
-19.7153084633
 20
26.5424230176
 10
-19.6962625318
 20
26.5570547561
 10
-19.676787378
 20
26.5714181011
 10
-19.6568929844
 20
26.5855056902
 10
-19.6365895484
 20
26.5993103025
 10
-19.6158874772
 20
26.6128248621
 10
-19.5947973821
 20
26.6260424416
 10
-19.5733300734
 20
26.6389562661
 10
-19.5514965548
 20
26.6515597161
 10
-19.5293080177
 20
26.6638463316
 10
-19.5067758354
 20
26.6758098145
 10
-19.4839115574
 20
26.6874440328
 10
-19.4607269034
 20
26.698743023
 10
-19.4372337573
 20
26.7097009934
 10
-19.4134441612
 20
26.7203123273
 10
-19.3893703091
 20
26.7305715855
 10
-19.3650245407
 20
26.7404735093
 10
-19.3404193351
 20
26.7500130234
 10
-19.3155673044
 20
26.7591852379
 10
-19.2904811871
 20
26.7679854513
 10
-19.2651738419
 20
26.7764091529
 10
-19.2396582407
 20
26.7844520248
 10
-19.2139474622
 20
26.7921099446
 10
-19.1880546852
 20
26.7993789868
 10
-19.1619931818
 20
26.8062554256
 10
-19.1357763104
 20
26.8127357362
 10
-19.1094175093
 20
26.818816597
 10
-19.0829302894
 20
26.8244948911
 10
-19.0563282275
 20
26.8297677078
 10
-19.029624959
 20
26.8346323446
 10
-19.0028341717
 20
26.8390863078
 10
-18.9759695977
 20
26.8431273145
 10
-18.9490450072
 20
26.8467532934
 10
-18.9220742013
 20
26.8499623858
 10
-18.8950710045
 20
26.8527529468
 10
-18.8680492581
 20
26.8551235461
 10
-18.8410228128
 20
26.8570729686
 10
-18.8140055217
 20
26.858600215
 10
-18.7870112333
 20
26.8597045024
 10
-18.7600537842
 20
26.8603852649
 10
-18.7331469923
 20
26.8606421535
 10
-18.7063046493
 20
26.8604750366
 10
-18.679540514
 20
26.8598839998
 10
-18.6528683052
 20
26.858869346
 10
-18.6263016943
 20
26.8574315953
 10
-18.5998542989
 20
26.8555714847
 10
-18.5735396752
 20
26.8532899677
 10
-18.5473713116
 20
26.8505882137
 10
-18.5213626213
 20
26.8474676075
 10
-18.4955269359
 20
26.8439297488
 10
-18.4698774981
 20
26.8399764508
 10
-18.4444274552
 20
26.8356097401
 10
-18.4191898523
 20
26.8308318549
 10
-18.3941776258
 20
26.8256452442
 10
-18.3694035962
 20
26.8200525665
 10
-18.3448804622
 20
26.8140566886
 10
-18.3206207938
 20
26.8076606838
 10
-18.2966370259
 20
26.8008678305
 10
-18.2729414521
 20
26.7936816106
 10
-18.2495462182
 20
26.7861057077
 10
-18.2264633161
 20
26.7781440048
 10
-18.2037045775
 20
26.7698005831
 10
-18.1812816681
 20
26.7610797191
  0
LINE
  5
227
100
AcDbEntity
  8
ASSI
100
AcDbLine
 62
7
  6
CONTINUOUS
 10
-36.4526751161
 20
-20.1428988953
 11
33.1627919645
 21
-48.1020399188
  0
LWPOLYLINE
  5
228
100
AcDbEntity
  8
RACCORDO
100
AcDbPolyline
 62
250
  6
CONTINUOUS
 90
10
 70
0
 10
-20.7829680966
 20
-25.82635222
 10
-20.766352696
 20
-25.8447404454
 10
-20.749985412
 20
-25.8634292159
 10
-20.7338734399
 20
-25.8824103157
 10
-20.7180238625
 20
-25.9016754007
 10
-20.7024436475
 20
-25.9212160017
 10
-20.6871396441
 20
-25.9410235284
 10
-20.67211858
 20
-25.9610892735
 10
-20.6573870587
 20
-25.9814044157
 10
-20.6429515562
 20
-26.0019600243
  0
LWPOLYLINE
  5
229
100
AcDbEntity
  8
RACCORDO
100
AcDbPolyline
 62
250
  6
CONTINUOUS
 90
70
 70
0
 10
-19.5426238985
 20
24.5306946974
 10
-19.526929708
 20
24.5475546601
 10
-19.5107427983
 20
24.5642012553
 10
-19.4940714668
 20
24.5806259492
 10
-19.4769242665
 20
24.5968203765
 10
-19.4593099791
 20
24.6127761808
 10
-19.4412376108
 20
24.62848502
 10
-19.4227164182
 20
24.6439387879
 10
-19.4037559029
 20
24.6591296165
 10
-19.3843657841
 20
24.6740497173
 10
-19.3645560015
 20
24.6886914417
 10
-19.3443367097
 20
24.7030472848
 10
-19.3237182731
 20
24.7171098868
 10
-19.3027112611
 20
24.730872039
 10
-19.2813264419
 20
24.7443266869
 10
-19.2595747776
 20
24.7574669338
 10
-19.2374674184
 20
24.7702860437
 10
-19.2150156967
 20
24.7827774455
 10
-19.1922311216
 20
24.7949347368
 10
-19.1691253727
 20
24.8067516855
 10
-19.1457102941
 20
24.8182222344
 10
-19.1219978889
 20
24.8293405048
 10
-19.0980003123
 20
24.8401007975
 10
-19.0737298657
 20
24.8504975965
 10
-19.0491989904
 20
24.8605255734
 10
-19.0244202614
 20
24.8701795881
 10
-18.9994063802
 20
24.8794546916
 10
-18.9741701695
 20
24.8883461295
 10
-18.9487245653
 20
24.8968493441
 10
-18.9230826115
 20
24.9049599766
 10
-18.8972574522
 20
24.9126738693
 10
-18.8712623257
 20
24.9199870681
 10
-18.8451105574
 20
24.9268958242
 10
-18.8188155529
 20
24.9333965961
 10
-18.7923907912
 20
24.9394860514
 10
-18.765849818
 20
24.9451610685
 10
-18.7392062383
 20
24.9504187388
 10
-18.71247371
 20
24.955256367
 10
-18.6856659363
 20
24.9596714734
 10
-18.6587966594
 20
24.9636617954
 10
-18.6318796526
 20
24.9672252876
 10
-18.6049287138
 20
24.9703601231
 10
-18.5779576585
 20
24.9730646955
 10
-18.5509803121
 20
24.9753376184
 10
-18.5240105036
 20
24.9771777267
 10
-18.497062058
 20
24.9785840775
 10
-18.4701487893
 20
24.9795559499
 10
-18.4432844935
 20
24.9800928457
 10
-18.4164829415
 20
24.9801944899
 10
-18.389757872
 20
24.9798608303
 10
-18.3631229845
 20
24.9790920381
 10
-18.3365919324
 20
24.9778885074
 10
-18.3101783157
 20
24.9762508552
 10
-18.2838956743
 20
24.9741799209
 10
-18.2577574809
 20
24.9716767664
 10
-18.2317771342
 20
24.9687426748
 10
-18.2059679519
 20
24.9653791503
 10
-18.1803431643
 20
24.9615879172
 10
-18.1549159067
 20
24.9573709191
 10
-18.1296992134
 20
24.9527303176
 10
-18.1047060108
 20
24.9476684921
 10
-18.0799491106
 20
24.9421880373
 10
-18.0554412035
 20
24.9362917626
 10
-18.0311948526
 20
24.9299826911
 10
-18.0072224867
 20
24.9232640569
 10
-17.9835363943
 20
24.9161393042
 10
-17.9601487173
 20
24.908612086
 10
-17.9370714444
 20
24.9006862612
 10
-17.9143164053
 20
24.8923658923
 10
-17.8918952642
 20
24.8836552444
  0
LINE
  5
22A
100
AcDbEntity
  8
RACCORDO
100
AcDbLine
 62
250
  6
CONTINUOUS
 10
-18.4063697284
 20
24.6832201982
 11
-18.3279689033
 21
24.7533792464
  0
LINE
  5
22B
100
AcDbEntity
  8
RACCORDO
100
AcDbLine
 62
250
  6
CONTINUOUS
 10
-18.4340734188
 20
24.6587149372
 11
-18.4063697284
 21
24.6832201982
  0
LINE
  5
22C
100
AcDbEntity
  8
RACCORDO
100
AcDbLine
 62
250
  6
CONTINUOUS
 10
-18.4532535081
 20
24.6419105873
 11
-18.4340734188
 21
24.6587149372
  0
LINE
  5
22D
100
AcDbEntity
  8
RACCORDO
100
AcDbLine
 62
250
  6
CONTINUOUS
 10
-18.4730313448
 20
24.624749542
 11
-18.4532535081
 21
24.6419105873
  0
LINE
  5
22E
100
AcDbEntity
  8
RACCORDO
100
AcDbLine
 62
250
  6
CONTINUOUS
 10
-18.4882708438
 20
24.6116555077
 11
-18.4730313448
 21
24.624749542
  0
LINE
  5
22F
100
AcDbEntity
  8
RACCORDO
100
AcDbLine
 62
250
  6
CONTINUOUS
 10
-18.5038690827
 20
24.5983805858
 11
-18.4882708438
 21
24.6116555077
  0
LINE
  5
230
100
AcDbEntity
  8
RACCORDO
100
AcDbLine
 62
250
  6
CONTINUOUS
 10
-18.5198366778
 20
24.5849343718
 11
-18.5038690827
 21
24.5983805858
  0
LINE
  5
231
100
AcDbEntity
  8
RACCORDO
100
AcDbLine
 62
250
  6
CONTINUOUS
 10
-18.5361857497
 20
24.5713263964
 11
-18.5198366778
 21
24.5849343718
  0
LINE
  5
232
100
AcDbEntity
  8
RACCORDO
100
AcDbLine
 62
250
  6
CONTINUOUS
 10
-18.5473022392
 20
24.5621702064
 11
-18.5361857497
 21
24.5713263964
  0
LINE
  5
233
100
AcDbEntity
  8
RACCORDO
100
AcDbLine
 62
250
  6
CONTINUOUS
 10
-18.5585963722
 20
24.5529520297
 11
-18.5473022392
 21
24.5621702064
  0
LINE
  5
234
100
AcDbEntity
  8
RACCORDO
100
AcDbLine
 62
250
  6
CONTINUOUS
 10
-18.570070706
 20
24.5436748432
 11
-18.5585963722
 21
24.5529520297
  0
LINE
  5
235
100
AcDbEntity
  8
RACCORDO
100
AcDbLine
 62
250
  6
CONTINUOUS
 10
-18.581729546
 20
24.5343429045
 11
-18.570070706
 21
24.5436748432
  0
LINE
  5
236
100
AcDbEntity
  8
RACCORDO
100
AcDbLine
 62
250
  6
CONTINUOUS
 10
-18.5935772466
 20
24.5249610925
 11
-18.581729546
 21
24.5343429045
  0
LINE
  5
237
100
AcDbEntity
  8
RACCORDO
100
AcDbLine
 62
250
  6
CONTINUOUS
 10
-18.6056166707
 20
24.5155328469
 11
-18.5935772466
 21
24.5249610925
  0
LINE
  5
238
100
AcDbEntity
  8
RACCORDO
100
AcDbLine
 62
250
  6
CONTINUOUS
 10
-18.6178520378
 20
24.506063601
 11
-18.6056166707
 21
24.5155328469
  0
LINE
  5
239
100
AcDbEntity
  8
RACCORDO
100
AcDbLine
 62
250
  6
CONTINUOUS
 10
-18.6302877469
 20
24.4965594069
 11
-18.6178520378
 21
24.506063601
  0
LINE
  5
23A
100
AcDbEntity
  8
RACCORDO
100
AcDbLine
 62
250
  6
CONTINUOUS
 10
-18.6429269287
 20
24.4870243392
 11
-18.6302877469
 21
24.4965594069
  0
LINE
  5
23B
100
AcDbEntity
  8
RACCORDO
100
AcDbLine
 62
250
  6
CONTINUOUS
 10
-18.6557745553
 20
24.4774645493
 11
-18.6429269287
 21
24.4870243392
  0
LINE
  5
23C
100
AcDbEntity
  8
RACCORDO
100
AcDbLine
 62
250
  6
CONTINUOUS
 10
-18.6688360003
 20
24.467886846
 11
-18.6557745553
 21
24.4774645493
  0
LINE
  5
23D
100
AcDbEntity
  8
RACCORDO
100
AcDbLine
 62
250
  6
CONTINUOUS
 10
-18.6821144668
 20
24.4582962694
 11
-18.6688360003
 21
24.467886846
  0
LINE
  5
23E
100
AcDbEntity
  8
RACCORDO
100
AcDbLine
 62
250
  6
CONTINUOUS
 10
-18.6956144402
 20
24.4487009357
 11
-18.6821144668
 21
24.4582962694
  0
LWPOLYLINE
  5
23F
100
AcDbEntity
  8
RACCORDO
100
AcDbPolyline
 62
250
  6
CONTINUOUS
 90
3
 70
0
 10
-18.7162853952
 20
24.4343195862
 10
-18.7093387432
 20
24.4391111506
 10
-18.6956144402
 20
24.4487009357
  0
LWPOLYLINE
  5
240
100
AcDbEntity
  8
RACCORDO
100
AcDbPolyline
 62
7
  6
CONTINUOUS
 90
59
 70
0
 10
-18.4644995059
 20
24.7390375392
 10
-18.4647079505
 20
24.7389518349
 10
-18.4652251199
 20
24.7387432387
 10
-18.4654125126
 20
24.7386698971
 10
-18.46527278
 20
24.7387220867
 10
-18.4648091942
 20
24.7388899534
 10
-18.4640236266
 20
24.7391642363
 10
-18.4629208408
 20
24.7395347608
 10
-18.4615115153
 20
24.7399896768
 10
-18.4598001759
 20
24.740519497
 10
-18.4577928079
 20
24.7411144856
 10
-18.4555045916
 20
24.7417626129
 10
-18.4529436694
 20
24.7424544284
 10
-18.4501150244
 20
24.743181625
 10
-18.4470295144
 20
24.7439346886
 10
-18.4436963018
 20
24.7447049708
 10
-18.4401190322
 20
24.745485383
 10
-18.4362985716
 20
24.7462694968
 10
-18.4322399834
 20
24.7470500663
 10
-18.4279487816
 20
24.7478199396
 10
-18.4234244565
 20
24.7485731212
 10
-18.4186707088
 20
24.7493028751
 10
-18.4136935445
 20
24.7500022524
 10
-18.4084948873
 20
24.7506650066
 10
-18.4030804216
 20
24.7512844766
 10
-18.397454491
 20
24.7518543132
 10
-18.391616502
 20
24.752368681
 10
-18.3855709339
 20
24.7528212458
 10
-18.3793235352
 20
24.7532057118
 10
-18.3728753272
 20
24.7535161511
 10
-18.3662309012
 20
24.7537464485
 10
-18.3593965939
 20
24.7538905637
 10
-18.3523761745
 20
24.7539426488
 10
-18.3451755937
 20
24.7538969314
 10
-18.3378009873
 20
24.7537478053
 10
-18.3302567669
 20
24.7534897603
 10
-18.3225486298
 20
24.7531174233
 10
-18.3146841209
 20
24.752625683
 10
-18.3066709224
 20
24.7520096749
 10
-18.2985133016
 20
24.7512644381
 10
-18.2902215451
 20
24.7503857317
 10
-18.281813103
 20
24.7493706208
 10
-18.2732951499
 20
24.748215518
 10
-18.264676571
 20
24.7469173156
 10
-18.2559781164
 20
24.7454752741
 10
-18.2472083969
 20
24.7438874036
 10
-18.2383758118
 20
24.7421519768
 10
-18.2295012167
 20
24.7402702993
 10
-18.2205936926
 20
24.7382419835
 10
-18.2116614754
 20
24.736066782
 10
-18.202724245
 20
24.733747811
 10
-18.1937904768
 20
24.7312860553
 10
-18.1848687352
 20
24.7286828626
 10
-18.1759786284
 20
24.7259434238
 10
-18.1671283279
 20
24.7230702099
 10
-18.1583258837
 20
24.7200659963
 10
-18.1495902391
 20
24.7169378992
 10
-18.1409325826
 20
24.7136911583
 10
-18.1319080845
 20
24.7101486773
  0
LINE
  5
241
100
AcDbEntity
  8
RACCORDO
100
AcDbLine
 62
250
  6
CONTINUOUS
 10
-36.6905272539
 20
-19.6854121058
 11
-20.9024423536
 21
-26.0262629358
  0
LINE
  5
242
100
AcDbEntity
  8
RACCORDO
100
AcDbLine
 62
250
  6
CONTINUOUS
 10
17.1368549264
 20
-41.3037022994
 11
32.9249398267
 21
-47.6445531294
  0
LINE
  5
243
100
AcDbEntity
  8
RACCORDO
100
AcDbLine
 62
250
  6
CONTINUOUS
 10
-20.642951555
 20
-26.0019600234
 11
16.8719108374
 21
-41.068774513
  0
LINE
  5
244
100
AcDbEntity
  8
0
100
AcDbLine
 62
7
  6
CONTINUOUS
 10
25.6327720991
 20
-41.2646089011
 11
26.0915141047
 21
-41.4488447153
  0
LINE
  5
245
100
AcDbEntity
  8
0
100
AcDbLine
 62
7
  6
CONTINUOUS
 10
29.1891359219
 20
-42.6929194714
 11
29.7058378496
 21
-42.900433297
  0
LINE
  5
246
100
AcDbEntity
  8
0
100
AcDbLine
 62
7
  6
CONTINUOUS
 10
23.9757536629
 20
-40.5991129405
 11
24.4344842004
 21
-40.7833441489
  0
LINE
  5
247
100
AcDbEntity
  8
0
100
AcDbLine
 62
7
  6
CONTINUOUS
 10
22.1658252752
 20
-39.8722102135
 11
22.6245672808
 21
-40.0564460277
  0
LINE
  5
248
100
AcDbEntity
  8
0
100
AcDbLine
 62
7
  6
CONTINUOUS
 10
20.6648020585
 20
-39.2693654499
 11
21.1235612663
 21
-39.4536081729
  0
LINE
  5
249
100
AcDbEntity
  8
0
100
AcDbLine
 62
7
  6
CONTINUOUS
 10
23.0832981596
 20
-40.2406826905
 11
23.5420405066
 21
-40.4249239591
  0
LINE
  5
24A
100
AcDbEntity
  8
0
100
AcDbLine
 62
7
  6
CONTINUOUS
 10
24.8682034321
 20
-40.9575408877
 11
25.3269457791
 21
-41.1417821563
  0
LINE
  5
24B
100
AcDbEntity
  8
0
100
AcDbLine
 62
7
  6
CONTINUOUS
 10
27.8702380559
 20
-42.1632203545
 11
28.3289861369
 21
-42.3474639261
  0
LINE
  5
24C
100
AcDbEntity
  8
0
100
AcDbLine
 62
7
  6
CONTINUOUS
 10
27.1056636548
 20
-41.8561500381
 11
27.5644120773
 21
-42.0403990642
  0
LINE
  5
24D
100
AcDbEntity
  8
0
100
AcDbLine
 62
7
  6
CONTINUOUS
 10
26.2097044554
 20
-41.077751945
 11
26.934209215
 21
-41.36872939
  0
LWPOLYLINE
  5
24E
100
AcDbEntity
  8
RACCORDO
100
AcDbPolyline
 62
250
  6
CONTINUOUS
 90
35
 70
0
 10
33.1627875937
 20
-48.1020381633
 10
33.15132949
 20
-48.0971199901
 10
33.1398660508
 20
-48.0915413828
 10
33.1286420505
 20
-48.0854010149
 10
33.117663205
 20
-48.0787020135
 10
33.1069351059
 20
-48.0714477903
 10
33.0964632166
 20
-48.0636420398
 10
33.0862528702
 20
-48.0552887372
 10
33.0763092668
 20
-48.0463921367
 10
33.0666374703
 20
-48.0369567691
 10
33.0572424064
 20
-48.0269874398
 10
33.0481288599
 20
-48.0164892258
 10
33.039301472
 20
-48.0054674737
 10
33.0307647385
 20
-47.9939277967
 10
33.0225230068
 20
-47.9818760717
 10
33.0145804743
 20
-47.9693184363
 10
33.006941186
 20
-47.956261286
 10
32.9996090324
 20
-47.9427112705
 10
32.9925877477
 20
-47.9286752904
 10
32.9858809076
 20
-47.9141604942
 10
32.9794919277
 20
-47.8991742737
 10
32.973424062
 20
-47.8837242613
 10
32.9676804006
 20
-47.8678183253
 10
32.9622638686
 20
-47.8514645663
 10
32.9571772246
 20
-47.8346713129
 10
32.9524230591
 20
-47.8174471176
 10
32.9480037932
 20
-47.7998007522
 10
32.9439216778
 20
-47.7817412039
 10
32.9401787916
 20
-47.7632776698
 10
32.9367770408
 20
-47.7444195531
 10
32.9337181579
 20
-47.7251764579
 10
32.9310037008
 20
-47.7055581842
 10
32.9286350518
 20
-47.6855747233
 10
32.9266134173
 20
-47.6652362524
 10
32.9249398267
 20
-47.6445531294
  0
LWPOLYLINE
  5
24F
100
AcDbEntity
  8
0
100
AcDbPolyline
 62
7
  6
CONTINUOUS
 90
30
 70
0
 10
28.8045775409
 20
-41.3202802057
 10
28.8131471232
 20
-41.323599256
 10
28.8216942571
 20
-41.3266639014
 10
28.8302108433
 20
-41.3294712122
 10
28.8386891512
 20
-41.332018691
 10
28.8471207532
 20
-41.3343037116
 10
28.8554965514
 20
-41.3363236604
 10
28.8638071478
 20
-41.3380765238
 10
28.872046046
 20
-41.3395611268
 10
28.8802085289
 20
-41.3407763405
 10
28.8882887868
 20
-41.3417211389
 10
28.8962768696
 20
-41.3423941188
 10
28.9041619804
 20
-41.3427940668
 10
28.9119338429
 20
-41.3429209261
 10
28.9195877644
 20
-41.3427750307
 10
28.9271213931
 20
-41.3423560268
 10
28.934530307
 20
-41.3416638022
 10
28.9418039871
 20
-41.3406989149
 10
28.9489311415
 20
-41.3394624771
 10
28.9559015755
 20
-41.3379568761
 10
28.9627119925
 20
-41.3361834039
 10
28.9693615774
 20
-41.3341418566
 10
28.9758468048
 20
-41.3318327312
 10
28.9821575514
 20
-41.3292589867
 10
28.9882833649
 20
-41.3264245285
 10
28.9942150926
 20
-41.3233342945
 10
28.999950333
 20
-41.3199902201
 10
29.005488971
 20
-41.3163920769
 10
29.0108279693
 20
-41.3125409648
 10
29.014687787
 20
-41.3094964786
  0
LINE
  5
250
100
AcDbEntity
  8
0
100
AcDbLine
 62
7
  6
CONTINUOUS
 10
26.3243167278
 20
-40.718881978
 11
26.7689590107
 21
-40.897460343
  0
LINE
  5
251
100
AcDbEntity
  8
0
100
AcDbLine
 62
7
  6
CONTINUOUS
 10
28.2770864026
 20
-41.5031529728
 11
28.6774677734
 21
-41.6639604884
  0
LINE
  5
252
100
AcDbEntity
  8
0
100
AcDbLine
 62
7
  6
CONTINUOUS
 10
26.4106441149
 20
-40.6481667224
 11
26.7260544432
 21
-40.774842621
  0
LINE
  5
253
100
AcDbEntity
  8
0
100
AcDbLine
 62
7
  6
CONTINUOUS
 10
28.2464540296
 20
-41.0961235826
 11
28.8045776338
 21
-41.3202784913
  0
LINE
  5
254
100
AcDbEntity
  8
0
100
AcDbLine
 62
7
  6
CONTINUOUS
 10
28.3327722598
 20
-41.0254158278
 11
28.8908957711
 21
-41.2495708126
  0
LINE
  5
255
100
AcDbEntity
  8
0
100
AcDbLine
 62
7
  6
CONTINUOUS
 10
28.215133831
 20
-40.5636072992
 11
28.7732630764
 21
-40.7877645869
  0
LINE
  5
256
100
AcDbEntity
  8
0
100
AcDbLine
 62
7
  6
CONTINUOUS
 10
19.7974855453
 20
-36.7870708735
 11
20.2562336264
 21
-36.9713144451
  0
LINE
  5
257
100
AcDbEntity
  8
0
100
AcDbLine
 62
7
  6
CONTINUOUS
 10
21.2703774425
 20
-37.3786174649
 11
21.7291255235
 21
-37.5628610365
  0
LINE
  5
258
100
AcDbEntity
  8
0
100
AcDbLine
 62
7
  6
CONTINUOUS
 10
22.0349518435
 20
-37.6856877813
 11
22.4936941905
 21
-37.86992905
  0
LINE
  5
259
100
AcDbEntity
  8
0
100
AcDbLine
 62
7
  6
CONTINUOUS
 10
22.9524193353
 20
-38.0541634098
 11
23.6459142751
 21
-38.3326866122
  0
LINE
  5
25A
100
AcDbEntity
  8
0
100
AcDbLine
 62
7
  6
CONTINUOUS
 10
24.5025720149
 20
-38.6767396734
 11
25.1960669548
 21
-38.9552628757
  0
LINE
  5
25B
100
AcDbEntity
  8
0
100
AcDbLine
 62
7
  6
CONTINUOUS
 10
26.2383245751
 20
-39.3738516812
 11
26.6970898584
 21
-39.5581021616
  0
LINE
  5
25C
100
AcDbEntity
  8
0
100
AcDbLine
 62
7
  6
CONTINUOUS
 10
27.7393592599
 20
-39.9767010506
 11
28.813578756
 21
-40.4081319544
  0
LINE
  5
25D
100
AcDbEntity
  8
0
100
AcDbLine
 62
7
  6
CONTINUOUS
 10
19.8837831443
 20
-36.7163800188
 11
20.3425312254
 21
-36.9006235904
  0
LINE
  5
25E
100
AcDbEntity
  8
0
100
AcDbLine
 62
7
  6
CONTINUOUS
 10
21.3566750415
 20
-37.3079266103
 11
21.8154231225
 21
-37.4921701819
  0
LINE
  5
25F
100
AcDbEntity
  8
0
100
AcDbLine
 62
7
  6
CONTINUOUS
 10
22.1212494425
 20
-37.6149969267
 11
22.5799917895
 21
-37.7992381953
  0
LINE
  5
260
100
AcDbEntity
  8
0
100
AcDbLine
 62
7
  6
CONTINUOUS
 10
23.0387169343
 20
-37.9834725552
 11
23.7322118741
 21
-38.2619957575
  0
LINE
  5
261
100
AcDbEntity
  8
0
100
AcDbLine
 62
7
  6
CONTINUOUS
 10
24.5888696139
 20
-38.6060488187
 11
25.2823645538
 21
-38.884572021
  0
LINE
  5
262
100
AcDbEntity
  8
0
100
AcDbLine
 62
7
  6
CONTINUOUS
 10
26.324622174
 20
-39.3031608267
 11
26.7833874573
 21
-39.487411307
  0
LINE
  5
263
100
AcDbEntity
  8
0
100
AcDbLine
 62
7
  6
CONTINUOUS
 10
27.8256568588
 20
-39.9060101961
 11
28.8998764666
 21
-40.3374410083
  0
LWPOLYLINE
  5
264
100
AcDbEntity
  8
0
100
AcDbPolyline
 62
7
  6
CONTINUOUS
 90
93
 70
0
 10
28.8135788677
 20
-40.4081298155
 10
28.8309338202
 20
-40.4152995419
 10
28.8483021084
 20
-40.4228737561
 10
28.8656731916
 20
-40.4308478779
 10
28.8830369336
 20
-40.439217184
 10
28.9003824258
 20
-40.447976489
 10
28.9176980021
 20
-40.4571200711
 10
28.9349721489
 20
-40.4666416328
 10
28.9521955326
 20
-40.4765358753
 10
28.9693597939
 20
-40.4867982992
 10
28.9864562742
 20
-40.4974237073
 10
29.0034729655
 20
-40.5084047073
 10
29.0203965801
 20
-40.5197331365
 10
29.0372149062
 20
-40.5314003831
 10
29.0539200315
 20
-40.543400601
 10
29.0705051924
 20
-40.5557295109
 10
29.0869630283
 20
-40.5683816093
 10
29.1032809937
 20
-40.5813473176
 10
29.1194447057
 20
-40.5946159175
 10
29.1354417248
 20
-40.6081765228
 10
29.1512655516
 20
-40.6220230339
 10
29.1669108327
 20
-40.6361516635
 10
29.1823714115
 20
-40.6505567862
 10
29.1976346862
 20
-40.6652266977
 10
29.2126858484
 20
-40.6801482184
 10
29.2275127629
 20
-40.6953083801
 10
29.2421102446
 20
-40.7107010305
 10
29.2564740775
 20
-40.7263229894
 10
29.2705991925
 20
-40.7421686255
 10
29.2844734347
 20
-40.7582242935
 10
29.2980822272
 20
-40.7744745745
 10
29.311414246
 20
-40.7909047038
 10
29.3244655153
 20
-40.8075086255
 10
29.3372326997
 20
-40.8242837907
 10
29.3497116861
 20
-40.8412246077
 10
29.3618912773
 20
-40.8583157997
 10
29.3737578257
 20
-40.8755401364
 10
29.3853013145
 20
-40.8928814717
 10
29.3965188356
 20
-40.9103339085
 10
29.4074076754
 20
-40.9278954405
 10
29.4179645667
 20
-40.9455605264
 10
29.4281797383
 20
-40.963312658
 10
29.4380410773
 20
-40.9811332904
 10
29.4475402922
 20
-40.9990053581
 10
29.4566754326
 20
-41.0169231666
 10
29.4654442194
 20
-41.0348851306
 10
29.4738441445
 20
-41.0528857383
 10
29.4818672765
 20
-41.0709077326
 10
29.4895035898
 20
-41.0889318926
 10
29.4967468657
 20
-41.1069407681
 10
29.5035960058
 20
-41.1249288601
 10
29.5100490333
 20
-41.1428948398
 10
29.5161041543
 20
-41.1608332094
 10
29.5217555978
 20
-41.1787264812
 10
29.5269958346
 20
-41.1965553939
 10
29.531820957
 20
-41.2143026443
 10
29.5362306565
 20
-41.2319629315
 10
29.5402232098
 20
-41.2495350335
 10
29.5437975295
 20
-41.2670134542
 10
29.5469502284
 20
-41.284381018
 10
29.5496765568
 20
-41.3016191048
 10
29.5519750491
 20
-41.3187110956
 10
29.553846151
 20
-41.3356518766
 10
29.5552884139
 20
-41.352440195
 10
29.5563014897
 20
-41.3690705731
 10
29.5568844799
 20
-41.3855266717
 10
29.5570355333
 20
-41.4017911329
 10
29.5567556379
 20
-41.4178485112
 10
29.5560459964
 20
-41.433693892
 10
29.5549055284
 20
-41.4493258982
 10
29.5533346924
 20
-41.4647391159
 10
29.5513350643
 20
-41.479918528
 10
29.5489076494
 20
-41.4948485974
 10
29.5460557822
 20
-41.5095154844
 10
29.5427814587
 20
-41.5239145
 10
29.5390841228
 20
-41.5380440881
 10
29.534965139
 20
-41.5518989763
 10
29.5304284231
 20
-41.5654658948
 10
29.5254776278
 20
-41.5787315813
 10
29.5201182146
 20
-41.5916841473
 10
29.514353041
 20
-41.6043191848
 10
29.5081822853
 20
-41.6166349709
 10
29.5016083396
 20
-41.6286265025
 10
29.4946372104
 20
-41.6402825825
 10
29.4872748412
 20
-41.6515925214
 10
29.4795284964
 20
-41.6625466224
 10
29.4714019965
 20
-41.6731408483
 10
29.4628965211
 20
-41.6833733725
 10
29.4540156418
 20
-41.6932396206
 10
29.4447670973
 20
-41.702730703
 10
29.435158616
 20
-41.7118386647
 10
29.4251988523
 20
-41.7205561219
 10
29.4218918626
 20
-41.7233007384
  0
LWPOLYLINE
  5
265
100
AcDbEntity
  8
RACCORDO
100
AcDbPolyline
 62
250
  6
CONTINUOUS
 90
46
 70
0
 10
-19.8358206647
 20
26.4331321641
 10
-19.8780403573
 20
25.4603685061
 10
-19.9183427505
 20
24.4889945697
 10
-19.9567278442
 20
23.5190103548
 10
-19.9931959256
 20
22.5504078232
 10
-20.0277467077
 20
21.5831950132
 10
-20.0603793291
 20
20.6173960398
 10
-20.0910937415
 20
19.6530109603
 10
-20.1198899932
 20
18.6900397174
 10
-20.1467673693
 20
17.7285062543
 10
-20.1717258219
 20
16.7684106066
 10
-20.1947653987
 20
15.8097527388
 10
-20.2158855276
 20
14.8525564876
 10
-20.2350861609
 20
13.8968218894
 10
-20.2523673462
 20
12.9425489079
 10
-20.2677286545
 20
11.9897612708
 10
-20.2811700379
 20
11.038459015
 10
-20.2926915443
 20
10.0886421036
 10
-20.3022928874
 20
9.1403341537
 10
-20.3099740196
 20
8.1935352026
 10
-20.3157349885
 20
7.2482452129
 10
-20.319575651
 20
6.3044876895
 10
-20.3214959595
 20
5.3622626703
 10
-20.3214959617
 20
4.4215701172
 10
-20.3195756573
 20
3.4824334209
 10
-20.3157349989
 20
2.5448526201
 10
-20.3099740339
 20
1.6088276761
 10
-20.3022929056
 20
0.6743818635
 10
-20.292691566
 20
-0.2584847783
 10
-20.281170063
 20
-1.1897722887
 10
-20.2677286826
 20
-2.1194575107
 10
-20.2523673769
 20
-3.0475404044
 10
-20.2350861939
 20
-3.9740210096
 10
-20.2158855623
 20
-4.8988762888
 10
-20.1947654347
 20
-5.8221062016
 10
-20.1717258586
 20
-6.7437107882
 10
-20.1467674061
 20
-7.6636671322
 10
-20.1198900293
 20
-8.5819751981
 10
-20.091093776
 20
-9.4986350214
 10
-20.0603793621
 20
-10.4136237912
 10
-20.02774674
 20
-11.3269414614
 10
-19.9931959574
 20
-12.2385880783
 10
-19.9567278726
 20
-13.1485409695
 10
-19.918342772
 20
-14.0567925775
 10
-19.8780403694
 20
-14.9633504598
 10
-19.8358206647
 20
-15.8682146165
  0
LWPOLYLINE
  5
266
100
AcDbEntity
  8
RACCORDO
100
AcDbPolyline
 62
250
  6
CONTINUOUS
 90
64
 70
0
 10
-20.9024423419
 20
37.225743806
 10
-20.9701585507
 20
36.1702704699
 10
-21.0356966292
 20
35.1162602773
 10
-21.0990559678
 20
34.0637231581
 10
-21.1602359838
 20
33.0126690324
 10
-21.2192361016
 20
31.9631077979
 10
-21.2760557519
 20
30.9150493304
 10
-21.3306944057
 20
29.8685035014
 10
-21.3831515553
 20
28.8234801719
 10
-21.4334266946
 20
27.7799891806
 10
-21.4815193552
 20
26.738040358
 10
-21.5274290905
 20
25.6976435193
 10
-21.5711554575
 20
24.6588084579
 10
-21.6126980488
 20
23.6215449598
 10
-21.6520564788
 20
22.5858627962
 10
-21.6892303677
 20
21.5517717161
 10
-21.7242193691
 20
20.51928146
 10
-21.7570231582
 20
19.4884017542
 10
-21.7876414186
 20
18.459142304
 10
-21.8160738647
 20
17.431512804
 10
-21.8423202328
 20
16.4055229346
 10
-21.8663802696
 20
15.3811823554
 10
-21.8882537507
 20
14.3585007148
 10
-21.9079404733
 20
13.3374876459
 10
-21.9254402475
 20
12.318152762
 10
-21.9407529098
 20
11.3005056638
 10
-21.9538783184
 20
10.2845559369
 10
-21.9648163469
 20
9.2703131474
 10
-21.9735668926
 20
8.2577868477
 10
-21.9801298749
 20
7.246986575
 10
-21.9845052306
 20
6.2379218476
 10
-21.9866929181
 20
5.2306021689
 10
-21.9866929179
 20
4.2250370266
 10
-21.98450523
 20
3.2212358903
 10
-21.9801298739
 20
2.2192082139
 10
-21.9735668911
 20
1.2189634347
 10
-21.964816345
 20
0.2205109728
 10
-21.9538783162
 20
-0.7761397686
 10
-21.9407529071
 20
-1.7709794031
 10
-21.9254402444
 20
-2.763998561
 10
-21.9079404698
 20
-3.7551878907
 10
-21.8882537468
 20
-4.7445380574
 10
-21.8663802653
 20
-5.7320397424
 10
-21.8423202281
 20
-6.7176836466
 10
-21.8160738596
 20
-7.7014604875
 10
-21.7876414131
 20
-8.6833609981
 10
-21.7570231523
 20
-9.6633759321
 10
-21.7242193628
 20
-10.6414960606
 10
-21.689230361
 20
-11.6177121693
 10
-21.6520564716
 20
-12.5920150656
 10
-21.6126980413
 20
-13.5643955747
 10
-21.5711554495
 20
-14.5348445365
 10
-21.5274290821
 20
-15.5033528134
 10
-21.4815193464
 20
-16.4699112852
 10
-21.4334266855
 20
-17.4345108452
 10
-21.3831515458
 20
-18.3971424117
 10
-21.3306943957
 20
-19.3577969196
 10
-21.2760557415
 20
-20.3164653153
 10
-21.2192360903
 20
-21.2731385777
 10
-21.1602359718
 20
-22.2278076937
 10
-21.0990559561
 20
-23.1804636503
 10
-21.0356966198
 20
-24.1310974699
 10
-20.9701585451
 20
-25.0797002104
 10
-20.9024423418
 20
-26.0262629405
  0
LWPOLYLINE
  5
267
100
AcDbEntity
  8
RACCORDO
100
AcDbPolyline
 62
250
  6
CONTINUOUS
 90
9
 70
0
 10
-20.642951555
 20
-26.0019600234
 10
-20.7013097069
 20
-26.0083426822
 10
-20.7303421485
 20
-26.011330109
 10
-20.7592773551
 20
-26.0141739004
 10
-20.7881142874
 20
-26.0168737473
 10
-20.8168499584
 20
-26.0194353241
 10
-20.84548299
 20
-26.021857997
 10
-20.8740139041
 20
-26.0241350753
 10
-20.9024423536
 20
-26.0262629358
  0
LWPOLYLINE
  5
268
100
AcDbEntity
  8
RACCORDO
100
AcDbPolyline
 62
250
  6
CONTINUOUS
 90
4
 70
0
 10
15.9884422302
 20
-29.6094979192
 10
15.9847032224
 20
-29.6078562179
 10
15.9629778947
 20
-29.5986662756
 10
15.9408939246
 20
-29.5896677688
  0
LWPOLYLINE
  5
269
100
AcDbEntity
  8
RACCORDO
100
AcDbPolyline
 62
250
  6
CONTINUOUS
 90
10
 70
0
 10
17.1368549264
 20
-41.3037022994
 10
17.1065899131
 20
-41.2780018209
 10
17.0765318466
 20
-41.252194087
 10
17.0466803798
 20
-41.226282721
 10
17.017034371
 20
-41.2002737454
 10
16.9875941058
 20
-41.1741684622
 10
16.958361588
 20
-41.1479632014
 10
16.9293374418
 20
-41.1216589401
 10
16.9005206217
 20
-41.0952615522
 10
16.8719108374
 20
-41.068774513
  0
LWPOLYLINE
  5
26A
100
AcDbEntity
  8
RACCORDO
100
AcDbPolyline
 62
250
  6
CONTINUOUS
 90
30
 70
0
 10
-17.9827866786
 20
-13.1008735476
 10
-17.9657981901
 20
-13.1496554067
 10
-17.9579629972
 20
-13.1726292344
 10
-17.9505766004
 20
-13.1947332248
 10
-17.9436523782
 20
-13.2159385964
 10
-17.9371759565
 20
-13.2363286717
 10
-17.9311641789
 20
-13.2559088371
 10
-17.9256221046
 20
-13.2746706907
 10
-17.9205148446
 20
-13.2926773905
 10
-17.9158579879
 20
-13.3099306405
 10
-17.911654854
 20
-13.326428218
 10
-17.907850327
 20
-13.3422276794
 10
-17.904458083
 20
-13.3573201104
 10
-17.9014810728
 20
-13.3717156334
 10
-17.8988462675
 20
-13.385500359
 10
-17.8965605239
 20
-13.3986542331
 10
-17.8946307463
 20
-13.4111993658
 10
-17.8929809424
 20
-13.4232844796
 10
-17.891606303
 20
-13.4349194254
 10
-17.8905205938
 20
-13.4460958789
 10
-17.8896722194
 20
-13.456934256
 10
-17.8890560104
 20
-13.4674446158
 10
-17.8886827431
 20
-13.4776177797
 10
-17.8885220768
 20
-13.4875443528
 10
-17.88856949
 20
-13.4972317487
 10
-17.8888327326
 20
-13.5066727869
 10
-17.8892978416
 20
-13.5159353461
 10
-17.8899602619
 20
-13.5250417363
 10
-17.8908258302
 20
-13.533969158
 10
-17.8918952873
 20
-13.5427174437
  0
LWPOLYLINE
  5
26B
100
AcDbEntity
  8
RACCORDO
100
AcDbPolyline
 62
250
  6
CONTINUOUS
 90
46
 70
0
 10
-18.1833163751
 20
-11.6558126174
 10
-18.1832171877
 20
-11.6615707966
 10
-18.1829197463
 20
-11.6674031211
 10
-18.1824244132
 20
-11.6733024851
 10
-18.181731792
 20
-11.6792617011
 10
-18.1808427265
 20
-11.6852735087
 10
-18.1797582998
 20
-11.6913305835
 10
-18.1784798333
 20
-11.6974255459
 10
-18.1770088845
 20
-11.70355097
 10
-18.1753472455
 20
-11.7096993931
 10
-18.1734969407
 20
-11.7158633241
 10
-18.1714602246
 20
-11.7220352534
 10
-18.1692395785
 20
-11.7282076613
 10
-18.1668377079
 20
-11.7343730277
 10
-18.1642575392
 20
-11.7405238411
 10
-18.1615022159
 20
-11.7466526076
 10
-18.1585750948
 20
-11.7527518604
 10
-18.1554797424
 20
-11.7588141683
 10
-18.1522199297
 20
-11.7648321455
 10
-18.1487996284
 20
-11.7707984599
 10
-18.1452230055
 20
-11.7767058424
 10
-18.1414944187
 20
-11.782547096
 10
-18.1376184106
 20
-11.7883151038
 10
-18.1335997036
 20
-11.7940028385
 10
-18.1294431938
 20
-11.7996033704
 10
-18.1251539453
 20
-11.8051098762
 10
-18.120737184
 20
-11.810515647
 10
-18.1161982908
 20
-11.8158140967
 10
-18.1115427958
 20
-11.82099877
 10
-18.106776371
 20
-11.8260633502
 10
-18.1019048235
 20
-11.8310016668
 10
-18.0969340886
 20
-11.8358077032
 10
-18.0918702223
 20
-11.8404756041
 10
-18.0867193942
 20
-11.8449996823
 10
-18.0814878798
 20
-11.849374426
 10
-18.0761820529
 20
-11.8535945051
 10
-18.0708083777
 20
-11.8576547782
 10
-18.0653734013
 20
-11.8615502985
 10
-18.0598837454
 20
-11.8652763198
 10
-18.0543460983
 20
-11.8688283026
 10
-18.0487672068
 20
-11.8722019194
 10
-18.0431538678
 20
-11.8753930598
 10
-18.0375129203
 20
-11.878397836
 10
-18.031851237
 20
-11.8812125872
 10
-18.0261757158
 20
-11.8838338839
 10
-18.0204932715
 20
-11.8862585326
  0
LINE
  5
26C
100
AcDbEntity
  8
RACCORDO
100
AcDbLine
 62
7
  6
CONTINUOUS
 10
-17.9927545011
 20
24.6542614632
 11
-17.9927545011
 21
-11.5025771444
  0
LWPOLYLINE
  5
26D
100
AcDbEntity
  8
RACCORDO
100
AcDbPolyline
 62
250
  6
CONTINUOUS
 90
91
 70
0
 10
-19.835820615
 20
-15.8682146471
 10
-19.8484520414
 20
-16.1766489086
 10
-19.8620101052
 20
-16.4876511186
 10
-19.8764730861
 20
-16.8011885051
 10
-19.8918900263
 20
-17.1186241839
 10
-19.9081852244
 20
-17.4385221202
 10
-19.9251193791
 20
-17.7566868636
 10
-19.9427865968
 20
-18.07543356
 10
-19.961038561
 20
-18.3924367302
 10
-19.9791815837
 20
-18.6966762426
 10
-19.9968819486
 20
-18.9841981421
 10
-20.0143119708
 20
-19.2591669397
 10
-20.0314864563
 20
-19.5228268533
 10
-20.0483517567
 20
-19.7752211305
 10
-20.0648656452
 20
-20.0164556869
 10
-20.0810742272
 20
-20.2478477394
 10
-20.0969408381
 20
-20.4694326153
 10
-20.1124365081
 20
-20.681292292
 10
-20.1276300217
 20
-20.8847942679
 10
-20.1425053076
 20
-21.0800915972
 10
-20.1570327158
 20
-21.2671209646
 10
-20.1712688535
 20
-21.4469093273
 10
-20.1851910638
 20
-21.6194404003
 10
-20.1987868913
 20
-21.7848025695
 10
-20.2121349807
 20
-21.9441662852
 10
-20.2252319107
 20
-22.097675039
 10
-20.2380558739
 20
-22.2452390213
 10
-20.2506637346
 20
-22.3876672977
 10
-20.2630469976
 20
-22.5250048743
 10
-20.2751940151
 20
-22.657249502
 10
-20.2871611701
 20
-22.7851310815
 10
-20.2989518533
 20
-22.9087886243
 10
-20.3105472602
 20
-23.0281159891
 10
-20.3219730308
 20
-23.143470073
 10
-20.3332315975
 20
-23.2549666587
 10
-20.3443059689
 20
-23.3625187493
 10
-20.3551920892
 20
-23.4661782855
 10
-20.3658679683
 20
-23.5658414972
 10
-20.3763374746
 20
-23.6616423631
 10
-20.3866352556
 20
-23.7539883243
 10
-20.396751765
 20
-23.842884278
 10
-20.4066798139
 20
-23.9283510262
 10
-20.4164600297
 20
-24.0108160435
 10
-20.4260895312
 20
-24.0903297676
 10
-20.4355564293
 20
-24.1668629287
 10
-20.4448901682
 20
-24.2407201107
 10
-20.4540847331
 20
-24.3119211536
 10
-20.4631319359
 20
-24.3804649262
 10
-20.4720597339
 20
-24.4466221284
 10
-20.4808612388
 20
-24.5104020876
 10
-20.4895297536
 20
-24.5718120291
 10
-20.4980954965
 20
-24.6311170743
 10
-20.5065525718
 20
-24.6883281686
 10
-20.5148944317
 20
-24.743448511
 10
-20.5231526632
 20
-24.7967289588
 10
-20.5313258638
 20
-24.8482020911
 10
-20.5394047137
 20
-24.8978466915
 10
-20.5474108946
 20
-24.9458307982
 10
-20.5553407495
 20
-24.9921697445
 10
-20.5631876686
 20
-25.0368582358
 10
-20.5709701643
 20
-25.0800320759
 10
-20.5786827179
 20
-25.1216947176
 10
-20.5863207472
 20
-25.1618518068
 10
-20.5939055078
 20
-25.2006411241
 10
-20.6014318759
 20
-25.2380656745
 10
-20.6088956109
 20
-25.2741300348
 10
-20.6163211478
 20
-25.3089725139
 10
-20.6237042795
 20
-25.3425962179
 10
-20.631041252
 20
-25.3750033084
 10
-20.6383596036
 20
-25.4063282122
 10
-20.6456635421
 20
-25.4366024558
 10
-20.6529434812
 20
-25.4657958743
 10
-20.6602075965
 20
-25.4939490798
 10
-20.667460062
 20
-25.5210913164
 10
-20.674690768
 20
-25.5471939899
 10
-20.681884458
 20
-25.5722136139
 10
-20.6890345503
 20
-25.5961512636
 10
-20.6961361564
 20
-25.6190117916
 10
-20.7031724449
 20
-25.6407628865
 10
-20.7101213726
 20
-25.6613735098
 10
-20.716986182
 20
-25.6808891132
 10
-20.7237869658
 20
-25.6993940321
 10
-20.7305068169
 20
-25.7168761822
 10
-20.7371432506
 20
-25.7333624491
 10
-20.743742779
 20
-25.7489894979
 10
-20.7502947395
 20
-25.7637537733
 10
-20.7567946569
 20
-25.7776666733
 10
-20.7633074422
 20
-25.79087417
 10
-20.7698549016
 20
-25.8034196703
 10
-20.7764098375
 20
-25.8152487368
 10
-20.7829681205
 20
-25.8263522506
  0
LWPOLYLINE
  5
26E
100
AcDbEntity
  8
RACCORDO
100
AcDbPolyline
 62
250
  6
CONTINUOUS
 90
91
 70
0
 10
-18.181281668
 20
-15.8854327843
 10
-18.2198015921
 20
-16.2123161564
 10
-18.260526753
 20
-16.5411580915
 10
-18.3034286208
 20
-16.8719369094
 10
-18.3487230721
 20
-17.2060974873
 10
-18.3961279483
 20
-17.5421451032
 10
-18.4449043408
 20
-17.8756698699
 10
-18.4956117549
 20
-18.2089961242
 10
-18.5476923831
 20
-18.5397887738
 10
-18.5988662929
 20
-18.856730677
 10
-18.6486439084
 20
-19.1556085893
 10
-18.6977365003
 20
-19.4407634959
 10
-18.7457479935
 20
-19.7137615807
 10
-18.7926822564
 20
-19.9746449365
 10
-18.8386932083
 20
-20.2234653316
 10
-18.8835868011
 20
-20.4617900254
 10
-18.9273688987
 20
-20.68965463
 10
-18.970156437
 20
-20.907098944
 10
-19.011900992
 20
-21.115683697
 10
-19.0526352107
 20
-21.3155650815
 10
-19.0924191402
 20
-21.5066452851
 10
-19.131228802
 20
-21.6900935615
 10
-19.1690619417
 20
-21.8658925854
 10
-19.2059932643
 20
-22.0341063835
 10
-19.2421008175
 20
-22.1960175738
 10
-19.2774168416
 20
-22.3517722468
 10
-19.3119624446
 20
-22.5012592916
 10
-19.3457882254
 20
-22.6453684307
 10
-19.3789057016
 20
-22.7841446335
 10
-19.4113448236
 20
-22.9175705732
 10
-19.4431762798
 20
-23.0464374646
 10
-19.4744370059
 20
-23.1708840722
 10
-19.5051217452
 20
-23.2907930346
 10
-19.5352329068
 20
-23.4065680052
 10
-19.5648077787
 20
-23.5183204348
 10
-19.5938353869
 20
-23.6259569145
 10
-19.6222436404
 20
-23.7295724109
 10
-19.6500090926
 20
-23.8290573525
 10
-19.6771790613
 20
-23.9245379433
 10
-19.7037855854
 20
-24.0164614405
 10
-19.7298296217
 20
-24.1048296606
 10
-19.7553290872
 20
-24.1896540816
 10
-19.7803385852
 20
-24.2713944311
 10
-19.8048723346
 20
-24.3500980619
 10
-19.8289308047
 20
-24.4257280624
 10
-19.8525456949
 20
-24.4986161454
 10
-19.8757223999
 20
-24.5687787975
 10
-19.8984673857
 20
-24.6362080382
 10
-19.9208123122
 20
-24.7011977017
 10
-19.9427584649
 20
-24.7637542094
 10
-19.9643141199
 20
-24.823878051
 10
-19.9855200499
 20
-24.8818531726
 10
-20.0063773031
 20
-24.9376883315
 10
-20.0268924433
 20
-24.9913803095
 10
-20.0471133411
 20
-25.0431942339
 10
-20.0670498579
 20
-25.0931602449
 10
-20.0866981244
 20
-25.1412525877
 10
-20.1060845372
 20
-25.1876519055
 10
-20.1252134733
 20
-25.2323710772
 10
-20.1440854755
 20
-25.2754008451
 10
-20.1627205888
 20
-25.3168882064
 10
-20.1811180792
 20
-25.3568347872
 10
-20.1992827588
 20
-25.3952419791
 10
-20.2172425003
 20
-25.4322560655
 10
-20.2349956293
 20
-25.4678792602
 10
-20.2525471527
 20
-25.5021118268
 10
-20.2699345239
 20
-25.5350967963
 10
-20.2871554927
 20
-25.566838083
 10
-20.3042150001
 20
-25.5973337809
 10
-20.3211608995
 20
-25.6267179017
 10
-20.3380087026
 20
-25.6550216754
 10
-20.3547450312
 20
-25.6822154698
 10
-20.371374163
 20
-25.7083418234
 10
-20.3879165778
 20
-25.7334261058
 10
-20.4043536584
 20
-25.7574443477
 10
-20.4206309958
 20
-25.7803650488
 10
-20.4367540413
 20
-25.8021819653
 10
-20.4527191147
 20
-25.8229026784
 10
-20.4684581292
 20
-25.8425164415
 10
-20.4839465092
 20
-25.8609868551
 10
-20.499210456
 20
-25.8783515505
 10
-20.5142579545
 20
-25.8947107587
 10
-20.5290692775
 20
-25.9100517388
 10
-20.543665427
 20
-25.9243881999
 10
-20.5581152801
 20
-25.9378598946
 10
-20.5724032033
 20
-25.9504716291
 10
-20.5865457544
 20
-25.9622193008
 10
-20.6006598937
 20
-25.9732291429
 10
-20.6147847898
 20
-25.9835433715
 10
-20.6288819088
 20
-25.9931202543
 10
-20.642951555
 20
-26.0019600234
  0
LWPOLYLINE
  5
26F
100
AcDbEntity
  8
RACCORDO
100
AcDbPolyline
 62
250
  6
CONTINUOUS
 90
6
 70
0
 10
-19.5945537921
 20
-13.8914945852
 10
-19.6452583559
 20
-14.288111202
 10
-19.694737325
 20
-14.6840915135
 10
-19.7429906996
 20
-15.0794355198
 10
-19.7900184794
 20
-15.4741432208
 10
-19.8358206647
 20
-15.8682146165
  0
LWPOLYLINE
  5
270
100
AcDbEntity
  8
RACCORDO
100
AcDbPolyline
 62
250
  6
CONTINUOUS
 90
7
 70
0
 10
-17.8918952871
 20
-13.5427174438
 10
-17.9431507507
 20
-13.9347424762
 10
-17.993198084
 20
-14.3261508863
 10
-18.0420360437
 20
-14.7169333876
 10
-18.0896634144
 20
-15.1070807076
 10
-18.1360790088
 20
-15.4965835878
 10
-18.181281668
 20
-15.8854327843
  0
LINE
  5
271
100
AcDbEntity
  8
RACCORDO
100
AcDbLine
 62
250
  6
CONTINUOUS
 10
-19.5419305658
 20
-13.4890775718
 11
-19.5945537921
 21
-13.8914945852
  0
LINE
  5
272
100
AcDbEntity
  8
RACCORDO
100
AcDbLine
 62
250
  6
CONTINUOUS
 10
-19.5404743664
 20
-13.4787052483
 11
-19.5419305658
 21
-13.4890775718
  0
LINE
  5
273
100
AcDbEntity
  8
RACCORDO
100
AcDbLine
 62
250
  6
CONTINUOUS
 10
-19.5389250417
 20
-13.468275291
 11
-19.5404743664
 21
-13.4787052483
  0
LINE
  5
274
100
AcDbEntity
  8
RACCORDO
100
AcDbLine
 62
250
  6
CONTINUOUS
 10
-19.5372810242
 20
-13.4577810638
 11
-19.5389250417
 21
-13.468275291
  0
LINE
  5
275
100
AcDbEntity
  8
RACCORDO
100
AcDbLine
 62
250
  6
CONTINUOUS
 10
-19.5355412964
 20
-13.4472186715
 11
-19.5372810242
 21
-13.4577810638
  0
LINE
  5
276
100
AcDbEntity
  8
RACCORDO
100
AcDbLine
 62
250
  6
CONTINUOUS
 10
-19.5337041511
 20
-13.4365818445
 11
-19.5355412964
 21
-13.4472186715
  0
LINE
  5
277
100
AcDbEntity
  8
RACCORDO
100
AcDbLine
 62
250
  6
CONTINUOUS
 10
-19.5317674928
 20
-13.4258643417
 11
-19.5337041511
 21
-13.4365818445
  0
LINE
  5
278
100
AcDbEntity
  8
RACCORDO
100
AcDbLine
 62
250
  6
CONTINUOUS
 10
-19.5297298835
 20
-13.4150621852
 11
-19.5317674928
 21
-13.4258643417
  0
LINE
  5
279
100
AcDbEntity
  8
RACCORDO
100
AcDbLine
 62
250
  6
CONTINUOUS
 10
-19.5275890864
 20
-13.4041696299
 11
-19.5297298835
 21
-13.4150621852
  0
LINE
  5
27A
100
AcDbEntity
  8
RACCORDO
100
AcDbLine
 62
250
  6
CONTINUOUS
 10
-19.525342583
 20
-13.3931812301
 11
-19.5275890864
 21
-13.4041696299
  0
LINE
  5
27B
100
AcDbEntity
  8
RACCORDO
100
AcDbLine
 62
250
  6
CONTINUOUS
 10
-19.5229886108
 20
-13.3820932844
 11
-19.525342583
 21
-13.3931812301
  0
LINE
  5
27C
100
AcDbEntity
  8
RACCORDO
100
AcDbLine
 62
250
  6
CONTINUOUS
 10
-19.5205243489
 20
-13.3708999357
 11
-19.5229886108
 21
-13.3820932844
  0
LINE
  5
27D
100
AcDbEntity
  8
RACCORDO
100
AcDbLine
 62
250
  6
CONTINUOUS
 10
-19.517946845
 20
-13.3595962376
 11
-19.5205243489
 21
-13.3708999357
  0
LINE
  5
27E
100
AcDbEntity
  8
RACCORDO
100
AcDbLine
 62
250
  6
CONTINUOUS
 10
-19.5152547172
 20
-13.3481814107
 11
-19.517946845
 21
-13.3595962376
  0
LINE
  5
27F
100
AcDbEntity
  8
RACCORDO
100
AcDbLine
 62
250
  6
CONTINUOUS
 10
-17.8918952873
 20
-13.5427174437
 11
15.8865691072
 21
-27.1089102622
  0
LINE
  5
280
100
AcDbEntity
  8
RACCORDO
100
AcDbLine
 62
250
  6
CONTINUOUS
 10
-18.0204932715
 20
-11.8862585326
 11
15.8277508877
 21
-25.4804764778
  0
LINE
  5
281
100
AcDbEntity
  8
0
100
AcDbLine
 62
7
  6
CONTINUOUS
 10
15.8022807426
 20
-24.7140999447
 11
-17.9927545011
 21
-11.1412518996
  0
LWPOLYLINE
  5
282
100
AcDbEntity
  8
RACCORDO
100
AcDbPolyline
 62
250
  6
CONTINUOUS
 90
7
 70
0
 10
-19.8358206647
 20
26.4331321641
 10
-19.7900184805
 20
26.1127220943
 10
-19.7429907012
 20
25.7936467781
 10
-19.6947373269
 20
25.4759062155
 10
-19.6452583577
 20
25.1595004067
 10
-19.5945537935
 20
24.8444293515
 10
-19.5426236342
 20
24.53069305
  0
LINE
  5
283
100
AcDbEntity
  8
RACCORDO
100
AcDbLine
 62
250
  6
CONTINUOUS
 10
-20.497902656
 20
35.4235452894
 11
-20.4806619915
 21
35.2851312042
  0
LWPOLYLINE
  5
284
100
AcDbEntity
  8
RACCORDO
100
AcDbPolyline
 62
250
  6
CONTINUOUS
 90
49
 70
0
 10
-20.4806619915
 20
35.2851312042
 10
-20.4629270924
 20
35.1370931093
 10
-20.4538773426
 20
35.0593659622
 10
-20.4446806672
 20
34.9788771564
 10
-20.4353451786
 20
34.8956438807
 10
-20.4258768096
 20
34.8096595637
 10
-20.4162462417
 20
34.7205993117
 10
-20.4064653557
 20
34.6285146832
 10
-20.3965368893
 20
34.5333670298
 10
-20.3864200473
 20
34.4346981553
 10
-20.3761218991
 20
34.3325065427
 10
-20.3656520005
 20
34.2268100346
 10
-20.3549756705
 20
34.1171819778
 10
-20.3440886255
 20
34.0034978105
 10
-20.3330131896
 20
33.885902644
 10
-20.3217544095
 20
33.7643761848
 10
-20.3103297389
 20
33.6390457216
 10
-20.2987360906
 20
33.5098067642
 10
-20.286947095
 20
33.3762933043
 10
-20.2749811046
 20
33.2386457877
 10
-20.2628351198
 20
33.0967514163
 10
-20.2504532903
 20
32.9498686554
 10
-20.2378473454
 20
32.7980416401
 10
-20.2250255841
 20
32.6412626667
 10
-20.2119312308
 20
32.4787189964
 10
-20.1985861263
 20
32.3105575453
 10
-20.1849935555
 20
32.136679106
 10
-20.1710747306
 20
31.9559112578
 10
-20.1568417431
 20
31.7682261491
 10
-20.1423175542
 20
31.5737180457
 10
-20.1274464155
 20
31.3714098494
 10
-20.1122583528
 20
31.1614610527
 10
-20.0967689005
 20
30.943800224
 10
-20.0809087955
 20
30.7171196343
 10
-20.0647067917
 20
30.4814502669
 10
-20.0481996928
 20
30.2368836798
 10
-20.0313415314
 20
29.9822240238
 10
-20.0141742098
 20
29.7175139109
 10
-19.9967516215
 20
29.4428790641
 10
-19.9790599491
 20
29.1572734016
 10
-19.9609268504
 20
28.8567944907
 10
-19.9426857752
 20
28.5456012515
 10
-19.9250309804
 20
28.2346590943
 10
-19.908110981
 20
27.9262572001
 10
-19.891830903
 20
27.6181602224
 10
-19.8764292353
 20
27.3144044712
 10
-19.8619812928
 20
27.0163144105
 10
-19.8484379348
 20
26.7225555673
 10
-19.8358206155
 20
26.4331321511
  0
LINE
  5
285
100
AcDbEntity
  8
RACCORDO
100
AcDbLine
 62
250
  6
CONTINUOUS
 10
-19.5124465926
 20
-13.3366577116
 11
-19.5152547172
 21
-13.3481814107
  0
LINE
  5
286
100
AcDbEntity
  8
RACCORDO
100
AcDbLine
 62
250
  6
CONTINUOUS
 10
-19.5095220664
 20
-13.3250305539
 11
-19.5124465926
 21
-13.3366577116
  0
LINE
  5
287
100
AcDbEntity
  8
RACCORDO
100
AcDbLine
 62
250
  6
CONTINUOUS
 10
-19.5064808665
 20
-13.3133032518
 11
-19.5095220664
 21
-13.3250305539
  0
LINE
  5
288
100
AcDbEntity
  8
RACCORDO
100
AcDbLine
 62
250
  6
CONTINUOUS
 10
-19.5033227481
 20
-13.3014810697
 11
-19.5064808665
 21
-13.3133032518
  0
LINE
  5
289
100
AcDbEntity
  8
RACCORDO
100
AcDbLine
 62
250
  6
CONTINUOUS
 10
-19.5000475293
 20
-13.2895685129
 11
-19.5033227481
 21
-13.3014810697
  0
LINE
  5
28A
100
AcDbEntity
  8
RACCORDO
100
AcDbLine
 62
250
  6
CONTINUOUS
 10
-19.4966550137
 20
-13.2775681814
 11
-19.5000475293
 21
-13.2895685129
  0
LINE
  5
28B
100
AcDbEntity
  8
RACCORDO
100
AcDbLine
 62
250
  6
CONTINUOUS
 10
-19.4931447902
 20
-13.2654832877
 11
-19.4966550137
 21
-13.2775681814
  0
LINE
  5
28C
100
AcDbEntity
  8
RACCORDO
100
AcDbLine
 62
250
  6
CONTINUOUS
 10
-19.4895165568
 20
-13.2533168799
 11
-19.4931447902
 21
-13.2654832877
  0
LINE
  5
28D
100
AcDbEntity
  8
RACCORDO
100
AcDbLine
 62
250
  6
CONTINUOUS
 10
-19.4857701213
 20
-13.2410709264
 11
-19.4895165568
 21
-13.2533168799
  0
LINE
  5
28E
100
AcDbEntity
  8
RACCORDO
100
AcDbLine
 62
250
  6
CONTINUOUS
 10
-19.4819055622
 20
-13.2287493234
 11
-19.4857701213
 21
-13.2410709264
  0
LINE
  5
28F
100
AcDbEntity
  8
RACCORDO
100
AcDbLine
 62
250
  6
CONTINUOUS
 10
-19.4779208794
 20
-13.2163492344
 11
-19.4819055622
 21
-13.2287493234
  0
LINE
  5
290
100
AcDbEntity
  8
RACCORDO
100
AcDbLine
 62
250
  6
CONTINUOUS
 10
-19.4738145103
 20
-13.2038683128
 11
-19.4779208794
 21
-13.2163492344
  0
LINE
  5
291
100
AcDbEntity
  8
RACCORDO
100
AcDbLine
 62
250
  6
CONTINUOUS
 10
-19.4695833144
 20
-13.1913007861
 11
-19.4738145103
 21
-13.2038683128
  0
LINE
  5
292
100
AcDbEntity
  8
RACCORDO
100
AcDbLine
 62
250
  6
CONTINUOUS
 10
-19.4652249959
 20
-13.1786442028
 11
-19.4695833144
 21
-13.1913007861
  0
LINE
  5
293
100
AcDbEntity
  8
RACCORDO
100
AcDbLine
 62
250
  6
CONTINUOUS
 10
-19.4607380502
 20
-13.1658970569
 11
-19.4652249959
 21
-13.1786442028
  0
LINE
  5
294
100
AcDbEntity
  8
RACCORDO
100
AcDbLine
 62
250
  6
CONTINUOUS
 10
-19.4561204114
 20
-13.1530577985
 11
-19.4607380502
 21
-13.1658970569
  0
LINE
  5
295
100
AcDbEntity
  8
RACCORDO
100
AcDbLine
 62
250
  6
CONTINUOUS
 10
-19.4513697604
 20
-13.1401245231
 11
-19.4561204114
 21
-13.1530577985
  0
LINE
  5
296
100
AcDbEntity
  8
RACCORDO
100
AcDbLine
 62
250
  6
CONTINUOUS
 10
-19.4464845258
 20
-13.1270959749
 11
-19.4513697604
 21
-13.1401245231
  0
LINE
  5
297
100
AcDbEntity
  8
RACCORDO
100
AcDbLine
 62
250
  6
CONTINUOUS
 10
-19.4414622972
 20
-13.1139702457
 11
-19.4464845258
 21
-13.1270959749
  0
LINE
  5
298
100
AcDbEntity
  8
RACCORDO
100
AcDbLine
 62
250
  6
CONTINUOUS
 10
-19.4363005505
 20
-13.100745501
 11
-19.4414622972
 21
-13.1139702457
  0
LINE
  5
299
100
AcDbEntity
  8
RACCORDO
100
AcDbLine
 62
250
  6
CONTINUOUS
 10
-19.4309975613
 20
-13.0874204922
 11
-19.4363005505
 21
-13.100745501
  0
LINE
  5
29A
100
AcDbEntity
  8
RACCORDO
100
AcDbLine
 62
250
  6
CONTINUOUS
 10
-19.4255506826
 20
-13.0739933085
 11
-19.4309975613
 21
-13.0874204922
  0
LINE
  5
29B
100
AcDbEntity
  8
RACCORDO
100
AcDbLine
 62
250
  6
CONTINUOUS
 10
-19.4199571347
 20
-13.0604620867
 11
-19.4255506826
 21
-13.0739933085
  0
LINE
  5
29C
100
AcDbEntity
  8
RACCORDO
100
AcDbLine
 62
250
  6
CONTINUOUS
 10
-19.4142150512
 20
-13.0468256314
 11
-19.4199571347
 21
-13.0604620867
  0
LINE
  5
29D
100
AcDbEntity
  8
RACCORDO
100
AcDbLine
 62
250
  6
CONTINUOUS
 10
-19.4083215859
 20
-13.0330821583
 11
-19.4142150512
 21
-13.0468256314
  0
LINE
  5
29E
100
AcDbEntity
  8
RACCORDO
100
AcDbLine
 62
250
  6
CONTINUOUS
 10
-19.4022739213
 20
-13.0192302954
 11
-19.4083215859
 21
-13.0330821583
  0
LINE
  5
29F
100
AcDbEntity
  8
RACCORDO
100
AcDbLine
 62
250
  6
CONTINUOUS
 10
-19.3960701733
 20
-13.0052691794
 11
-19.4022739213
 21
-13.0192302954
  0
LINE
  5
2A0
100
AcDbEntity
  8
RACCORDO
100
AcDbLine
 62
250
  6
CONTINUOUS
 10
-19.389707522
 20
-12.9911976309
 11
-19.3960701733
 21
-13.0052691794
  0
LINE
  5
2A1
100
AcDbEntity
  8
RACCORDO
100
AcDbLine
 62
250
  6
CONTINUOUS
 10
-19.38318309
 20
-12.9770146415
 11
-19.389707522
 21
-12.9911976309
  0
LINE
  5
2A2
100
AcDbEntity
  8
RACCORDO
100
AcDbLine
 62
250
  6
CONTINUOUS
 10
-19.3764949185
 20
-12.9627195178
 11
-19.38318309
 21
-12.9770146415
  0
LINE
  5
2A3
100
AcDbEntity
  8
RACCORDO
100
AcDbLine
 62
250
  6
CONTINUOUS
 10
-19.3696400206
 20
-12.948311206
 11
-19.3764949185
 21
-12.9627195178
  0
LINE
  5
2A4
100
AcDbEntity
  8
RACCORDO
100
AcDbLine
 62
250
  6
CONTINUOUS
 10
-19.3626152726
 20
-12.9337886835
 11
-19.3696400206
 21
-12.948311206
  0
LWPOLYLINE
  5
2A5
100
AcDbEntity
  8
RACCORDO
100
AcDbPolyline
 62
250
  6
CONTINUOUS
 90
199
 70
0
 10
-19.5426236342
 20
24.53069305
 10
-19.541930445
 20
24.5266431078
 10
-19.5412141493
 20
24.5226171551
 10
-19.5404747471
 20
24.518615192
 10
-19.5397124002
 20
24.5146377694
 10
-19.5389269469
 20
24.5106843363
 10
-19.538117902
 20
24.5067532404
 10
-19.5372853574
 20
24.5028446105
 10
-19.5364292212
 20
24.4989583177
 10
-19.5355487324
 20
24.4950923229
 10
-19.5346438962
 20
24.4912463636
 10
-19.5337147073
 20
24.4874207022
 10
-19.5327603888
 20
24.4836140865
 10
-19.5317809545
 20
24.479826361
 10
-19.5307763905
 20
24.4760576811
 10
-19.5297458785
 20
24.4723072613
 10
-19.5286894527
 20
24.4685750459
 10
-19.5276070788
 20
24.4648610905
 10
-19.5264978353
 20
24.4611647762
 10
-19.525361739
 20
24.4574860001
 10
-19.5241987731
 20
24.453824865
 10
-19.5230079653
 20
24.4501810608
 10
-19.5217891972
 20
24.4465541565
 10
-19.5205425872
 20
24.4429445831
 10
-19.5192675187
 20
24.4393533235
 10
-19.5179639229
 20
24.4357802098
 10
-19.5166318686
 20
24.43222541
 10
-19.5152709451
 20
24.4286904103
 10
-19.5138811369
 20
24.4251752209
 10
-19.5124624595
 20
24.4216798317
 10
-19.5110145495
 20
24.4182056989
 10
-19.5095373727
 20
24.4147527979
 10
-19.5080309632
 20
24.4113211533
 10
-19.5064950597
 20
24.4079122955
 10
-19.5049295734
 20
24.4045261126
 10
-19.5033345932
 20
24.4011627165
 10
-19.5017101236
 20
24.3978239728
 10
-19.5000561167
 20
24.3945098899
 10
-19.4983726205
 20
24.3912204593
 10
-19.4966597838
 20
24.3879575225
 10
-19.494917574
 20
24.3847211244
 10
-19.4931460236
 20
24.38151122
 10
-19.4913453789
 20
24.3783295147
 10
-19.4895158098
 20
24.3751763584
 10
-19.4876571463
 20
24.3720514012
 10
-19.4857691249
 20
24.3689552993
 10
-19.4838519628
 20
24.36588836
 10
-19.4819054428
 20
24.3628502761
 10
-19.4799286489
 20
24.359840782
 10
-19.4779216126
 20
24.3568598342
 10
-19.4758843026
 20
24.3539074764
 10
-19.4738157084
 20
24.3509835737
 10
-19.4717157257
 20
24.3480879179
 10
-19.4695844588
 20
24.3452207172
 10
-19.4674212111
 20
24.3423824617
 10
-19.4652259839
 20
24.3395731195
 10
-19.462998776
 20
24.3367927224
 10
-19.4607388869
 20
24.3340418562
 10
-19.4584463374
 20
24.3313205129
 10
-19.4561211068
 20
24.3286287006
 10
-19.453762433
 20
24.3259670287
 10
-19.4513703274
 20
24.3233354762
 10
-19.4489447787
 20
24.3207340642
 10
-19.4464849912
 20
24.3181634661
 10
-19.4439909821
 20
24.3156236656
 10
-19.4414627342
 20
24.3131146789
 10
-19.4388994001
 20
24.3106372283
 10
-19.4363009949
 20
24.3081912932
 10
-19.4336675035
 20
24.3057768942
 10
-19.4309980327
 20
24.3033948146
 10
-19.4282925927
 20
24.3010450287
 10
-19.4255511733
 20
24.2987275622
 10
-19.4227728504
 20
24.2964432757
 10
-19.4199576275
 20
24.2941921387
 10
-19.4171055011
 20
24.2919741817
 10
-19.4142155365
 20
24.2897903561
 10
-19.4112877353
 20
24.2876406322
 10
-19.4083220959
 20
24.2855250397
 10
-19.4053176788
 20
24.2834446191
 10
-19.4022744895
 20
24.2813993448
 10
-19.3991925225
 20
24.2793892424
 10
-19.3960708221
 20
24.2774154288
 10
-19.3929093949
 20
24.2754778796
 10
-19.3897082343
 20
24.2735766193
 10
-19.3864663651
 20
24.2717128381
 10
-19.3831837932
 20
24.2698865115
 10
-19.3798605127
 20
24.268097664
 10
-19.3764955299
 20
24.26634756
 10
-19.3730888494
 20
24.2646361742
 10
-19.3696404667
 20
24.2629635319
 10
-19.3661493746
 20
24.2613309737
 10
-19.3626155607
 20
24.2597384681
 10
-19.3590390374
 20
24.2581860466
 10
-19.3554188351
 20
24.2566751442
 10
-19.3517549283
 20
24.255205729
 10
-19.3480473424
 20
24.2537778328
 10
-19.3442951849
 20
24.2523929857
 10
-19.3404984078
 20
24.2510511563
 10
-19.3366570591
 20
24.249752376
 10
-19.3327703899
 20
24.2484982701
 10
-19.3288384081
 20
24.2472888297
 10
-19.3248611059
 20
24.2461240637
 10
-19.3208377111
 20
24.2450056239
 10
-19.3167682436
 20
24.243933501
 10
-19.3126526836
 20
24.2429077043
 10
-19.3084901989
 20
24.2419299135
 10
-19.304280779
 20
24.2410001099
 10
-19.3000244346
 20
24.2401183121
 10
-19.2957203654
 20
24.239286256
 10
-19.2913685164
 20
24.2385039192
 10
-19.2869689427
 20
24.2377713241
 10
-19.2825210094
 20
24.2370902731
 10
-19.2780246831
 20
24.2364607548
 10
-19.2734799973
 20
24.2358827806
 10
-19.2688864183
 20
24.2353581868
 10
-19.2642439074
 20
24.2348869665
 10
-19.2595525034
 20
24.2344691267
 10
-19.2548117888
 20
24.2341065246
 10
-19.2500217092
 20
24.2337991582
 10
-19.245182319
 20
24.2335470296
 10
-19.2402933643
 20
24.2333520021
 10
-19.2353548201
 20
24.2332140797
 10
-19.2303667115
 20
24.2331332585
 10
-19.2253288598
 20
24.2331113891
 10
-19.2202413088
 20
24.2331484728
 10
-19.2151040148
 20
24.2332445084
 10
-19.2099166685
 20
24.2334013436
 10
-19.2046792729
 20
24.2336189741
 10
-19.199391825
 20
24.2338974042
 10
-19.1940540072
 20
24.234238495
 10
-19.1886654923
 20
24.2346422838
 10
-19.1832266074
 20
24.2351087332
 10
-19.1777380165
 20
24.2356395922
 10
-19.1721998153
 20
24.2362348775
 10
-19.166611908
 20
24.2368945723
 10
-19.1609746717
 20
24.2376203751
 10
-19.1552881967
 20
24.2384122853
 10
-19.1495523927
 20
24.2392703036
 10
-19.1437673656
 20
24.2401961301
 10
-19.1379330164
 20
24.2411897908
 10
-19.1320494441
 20
24.2422512596
 10
-19.1261170506
 20
24.2433821594
 10
-19.1201357663
 20
24.2445825211
 10
-19.1141056608
 20
24.2458523137
 10
-19.1080273447
 20
24.2471930666
 10
-19.1019008018
 20
24.2486048037
 10
-19.0957260483
 20
24.2500875011
 10
-19.0895037432
 20
24.2516426166
 10
-19.0832338649
 20
24.2532701762
 10
-19.076916435
 20
24.2549701539
 10
-19.070552178
 20
24.2567439301
 10
-19.0641411523
 20
24.2585915047
 10
-19.0576832995
 20
24.2605128777
 10
-19.0511791692
 20
24.2625094294
 10
-19.0446288071
 20
24.2645811551
 10
-19.0380321675
 20
24.2667280596
 10
-19.0313896623
 20
24.2689515373
 10
-19.0247011075
 20
24.2712516672
 10
-19.0179666871
 20
24.2736283703
 10
-19.011187365
 20
24.2760828048
 10
-19.0043631458
 20
24.2786149946
 10
-18.9974940249
 20
24.2812249158
 10
-18.9905809525
 20
24.2839136548
 10
-18.9836240743
 20
24.2866811716
 10
-18.9766232446
 20
24.2895275063
 10
-18.969578977
 20
24.292453865
 10
-18.9624913647
 20
24.2954602139
 10
-18.9553603144
 20
24.2985465869
 10
-18.9481860603
 20
24.3017142912
 10
-18.9409686307
 20
24.3049633147
 10
-18.9337079974
 20
24.3082936695
 10
-18.926404309
 20
24.3117066995
 10
-18.9190575661
 20
24.3152024057
 10
-18.9116677682
 20
24.3187807871
 10
-18.9042350632
 20
24.3224431842
 10
-18.8967599678
 20
24.3261893187
 10
-18.8892419653
 20
24.330019469
 10
-18.8816796537
 20
24.3339358115
 10
-18.8740718218
 20
24.337938995
 10
-18.8664196809
 20
24.3420283707
 10
-18.858725463
 20
24.3462041683
 10
-18.8509755347
 20
24.3504745846
 10
-18.8431835295
 20
24.3548314227
 10
-18.8353925796
 20
24.359250322
 10
-18.827604474
 20
24.3637315334
 10
-18.8198174237
 20
24.3682748059
 10
-18.8120691948
 20
24.3728550251
 10
-18.8043673988
 20
24.3774684124
 10
-18.7967044242
 20
24.3821187464
 10
-18.7890952019
 20
24.3867922483
 10
-18.781542193
 20
24.3914876368
 10
-18.7740429365
 20
24.3962061932
 10
-18.76660498
 20
24.4009379832
 10
-18.75923041
 20
24.405681697
 10
-18.75191714
 20
24.4104386442
 10
-18.7446664578
 20
24.4152028202
 10
-18.7374799291
 20
24.4199730683
 10
-18.7303559881
 20
24.4247505451
 10
-18.7162853952
 20
24.4343195862
  0
LWPOLYLINE
  5
2A6
100
AcDbEntity
  8
RACCORDO
100
AcDbPolyline
 62
250
  6
CONTINUOUS
 90
46
 70
0
 10
-17.8918952873
 20
24.8836552191
 10
-17.8908281952
 20
24.8768895358
 10
-17.8899640036
 20
24.8702332337
 10
-17.8893019698
 20
24.8636876926
 10
-17.888836265
 20
24.8572655984
 10
-17.8885714289
 20
24.8509568545
 10
-17.8885213991
 20
24.8447297198
 10
-17.8886785381
 20
24.8385872749
 10
-17.8890472753
 20
24.8325314617
 10
-17.8896576506
 20
24.8265312827
 10
-17.8904989507
 20
24.8205917066
 10
-17.891576345
 20
24.81471598
 10
-17.8929410573
 20
24.8088738999
 10
-17.8945793584
 20
24.8030711728
 10
-17.8964960913
 20
24.7973151315
 10
-17.8987668843
 20
24.7915826263
 10
-17.9013848788
 20
24.7858721302
 10
-17.9043432629
 20
24.7802055116
 10
-17.9077147215
 20
24.7745990196
 10
-17.9114963042
 20
24.769063718
 10
-17.9156744595
 20
24.7636143613
 10
-17.9203041694
 20
24.7582756838
 10
-17.925382127
 20
24.7530674305
 10
-17.930892883
 20
24.7480010736
 10
-17.9368714092
 20
24.7430921662
 10
-17.9433129885
 20
24.7383656366
 10
-17.9502006159
 20
24.733835094
 10
-17.9575480764
 20
24.7295041393
 10
-17.9653430408
 20
24.725405689
 10
-17.9735720408
 20
24.7215557057
 10
-17.9822420074
 20
24.7179417847
 10
-17.9913390422
 20
24.714605379
 10
-18.00084328
 20
24.7115728646
 10
-18.0107438253
 20
24.7088260489
 10
-18.0210288331
 20
24.7064226218
 10
-18.0316642006
 20
24.7044034033
 10
-18.0425927331
 20
24.7027511479
 10
-18.0539038877
 20
24.7015368958
 10
-18.0654404239
 20
24.7008455519
 10
-18.0767819749
 20
24.7006712179
 10
-18.0879859888
 20
24.7010641226
 10
-18.0989566381
 20
24.7020928061
 10
-18.1090985191
 20
24.7036663258
 10
-18.1182572174
 20
24.7057008839
 10
-18.1266409274
 20
24.7082001416
 10
-18.131898312
 20
24.7101447546
  0
LWPOLYLINE
  5
2A7
100
AcDbEntity
  8
RACCORDO
100
AcDbPolyline
 62
250
  6
CONTINUOUS
 90
7
 70
0
 10
-18.181281668
 20
26.7610797192
 10
-18.1360790097
 20
26.4449097117
 10
-18.0896634157
 20
26.1300363122
 10
-18.0420360453
 20
25.8164668657
 10
-17.9931980854
 20
25.5042086857
 10
-17.9431507516
 20
25.1932690536
 10
-17.8918952871
 20
24.8836552189
  0
LINE
  5
2A8
100
AcDbEntity
  8
RACCORDO
100
AcDbLine
 62
250
  6
CONTINUOUS
 10
-20.5311460147
 20
35.6749113869
 11
-20.5147081385
 21
35.553191597
  0
LINE
  5
2A9
100
AcDbEntity
  8
RACCORDO
100
AcDbLine
 62
250
  6
CONTINUOUS
 10
-20.5147081385
 20
35.553191597
 11
-20.497902656
 21
35.4235452894
  0
LINE
  5
2AA
100
AcDbEntity
  8
RACCORDO
100
AcDbLine
 62
250
  6
CONTINUOUS
 10
-19.3554186392
 20
-12.9191514289
 11
-19.3626152726
 21
-12.9337886835
  0
LINE
  5
2AB
100
AcDbEntity
  8
RACCORDO
100
AcDbLine
 62
250
  6
CONTINUOUS
 10
-19.3480469843
 20
-12.904398609
 11
-19.3554186392
 21
-12.9191514289
  0
LINE
  5
2AC
100
AcDbEntity
  8
RACCORDO
100
AcDbLine
 62
250
  6
CONTINUOUS
 10
-19.3404980078
 20
-12.8895312906
 11
-19.3480469843
 21
-12.904398609
  0
LINE
  5
2AD
100
AcDbEntity
  8
RACCORDO
100
AcDbLine
 62
250
  6
CONTINUOUS
 10
-19.332770109
 20
-12.8745500704
 11
-19.3404980078
 21
-12.8895312906
  0
LINE
  5
2AE
100
AcDbEntity
  8
RACCORDO
100
AcDbLine
 62
250
  6
CONTINUOUS
 10
-19.3248609356
 20
-12.8594559819
 11
-19.332770109
 21
-12.8745500704
  0
LINE
  5
2AF
100
AcDbEntity
  8
RACCORDO
100
AcDbLine
 62
250
  6
CONTINUOUS
 10
-19.3167680026
 20
-12.8442499581
 11
-19.3248609356
 21
-12.8594559819
  0
LINE
  5
2B0
100
AcDbEntity
  8
RACCORDO
100
AcDbLine
 62
250
  6
CONTINUOUS
 10
-19.3084897014
 20
-12.8289327477
 11
-19.3167680026
 21
-12.8442499581
  0
LINE
  5
2B1
100
AcDbEntity
  8
RACCORDO
100
AcDbLine
 62
250
  6
CONTINUOUS
 10
-19.3000236536
 20
-12.8135055919
 11
-19.3084897014
 21
-12.8289327477
  0
LINE
  5
2B2
100
AcDbEntity
  8
RACCORDO
100
AcDbLine
 62
250
  6
CONTINUOUS
 10
-19.2913675687
 20
-12.7979700491
 11
-19.3000236536
 21
-12.8135055919
  0
LINE
  5
2B3
100
AcDbEntity
  8
RACCORDO
100
AcDbLine
 62
250
  6
CONTINUOUS
 10
-19.2825200312
 20
-12.7823273811
 11
-19.2913675687
 21
-12.7979700491
  0
LINE
  5
2B4
100
AcDbEntity
  8
RACCORDO
100
AcDbLine
 62
250
  6
CONTINUOUS
 10
-19.2734790206
 20
-12.7665797182
 11
-19.2825200312
 21
-12.7823273811
  0
LINE
  5
2B5
100
AcDbEntity
  8
RACCORDO
100
AcDbLine
 62
250
  6
CONTINUOUS
 10
-19.2642430013
 20
-12.750730116
 11
-19.2734790206
 21
-12.7665797182
  0
LINE
  5
2B6
100
AcDbEntity
  8
RACCORDO
100
AcDbLine
 62
250
  6
CONTINUOUS
 10
-19.2548109995
 20
-12.7347806981
 11
-19.2642430013
 21
-12.750730116
  0
LINE
  5
2B7
100
AcDbEntity
  8
RACCORDO
100
AcDbLine
 62
250
  6
CONTINUOUS
 10
-19.2451816163
 20
-12.7187347789
 11
-19.2548109995
 21
-12.7347806981
  0
LINE
  5
2B8
100
AcDbEntity
  8
RACCORDO
100
AcDbLine
 62
250
  6
CONTINUOUS
 10
-19.2353540148
 20
-12.7025966156
 11
-19.2451816163
 21
-12.7187347789
  0
LINE
  5
2B9
100
AcDbEntity
  8
RACCORDO
100
AcDbLine
 62
250
  6
CONTINUOUS
 10
-19.2253277228
 20
-12.6863691695
 11
-19.2353540148
 21
-12.7025966156
  0
LINE
  5
2BA
100
AcDbEntity
  8
RACCORDO
100
AcDbLine
 62
250
  6
CONTINUOUS
 10
-19.2151022763
 20
-12.6700572682
 11
-19.2253277228
 21
-12.6863691695
  0
LINE
  5
2BB
100
AcDbEntity
  8
RACCORDO
100
AcDbLine
 62
250
  6
CONTINUOUS
 10
-19.204677083
 20
-12.6536654849
 11
-19.2151022763
 21
-12.6700572682
  0
LINE
  5
2BC
100
AcDbEntity
  8
RACCORDO
100
AcDbLine
 62
250
  6
CONTINUOUS
 10
-19.1940516452
 20
-12.6371967171
 11
-19.204677083
 21
-12.6536654849
  0
LINE
  5
2BD
100
AcDbEntity
  8
RACCORDO
100
AcDbLine
 62
250
  6
CONTINUOUS
 10
-19.1832244907
 20
-12.6206542213
 11
-19.1940516452
 21
-12.6371967171
  0
LINE
  5
2BE
100
AcDbEntity
  8
RACCORDO
100
AcDbLine
 62
250
  6
CONTINUOUS
 10
-19.1721977815
 20
-12.6040467134
 11
-19.1832244907
 21
-12.6206542213
  0
LINE
  5
2BF
100
AcDbEntity
  8
RACCORDO
100
AcDbLine
 62
250
  6
CONTINUOUS
 10
-19.1609725509
 20
-12.587379297
 11
-19.1721977815
 21
-12.6040467134
  0
LINE
  5
2C0
100
AcDbEntity
  8
RACCORDO
100
AcDbLine
 62
250
  6
CONTINUOUS
 10
-19.149550585
 20
-12.5706598554
 11
-19.1609725509
 21
-12.587379297
  0
LINE
  5
2C1
100
AcDbEntity
  8
RACCORDO
100
AcDbLine
 62
250
  6
CONTINUOUS
 10
-19.1379316736
 20
-12.5538931942
 11
-19.149550585
 21
-12.5706598554
  0
LINE
  5
2C2
100
AcDbEntity
  8
RACCORDO
100
AcDbLine
 62
250
  6
CONTINUOUS
 10
-19.1261161783
 20
-12.5370832413
 11
-19.1379316736
 21
-12.5538931942
  0
LINE
  5
2C3
100
AcDbEntity
  8
RACCORDO
100
AcDbLine
 62
250
  6
CONTINUOUS
 10
-19.114104873
 20
-12.5202362252
 11
-19.1261161783
 21
-12.5370832413
  0
LINE
  5
2C4
100
AcDbEntity
  8
RACCORDO
100
AcDbLine
 62
250
  6
CONTINUOUS
 10
-19.1018998993
 20
-12.5033601217
 11
-19.114104873
 21
-12.5202362252
  0
LINE
  5
2C5
100
AcDbEntity
  8
RACCORDO
100
AcDbLine
 62
250
  6
CONTINUOUS
 10
-19.089502603
 20
-12.4864600723
 11
-19.1018998993
 21
-12.5033601217
  0
LINE
  5
2C6
100
AcDbEntity
  8
RACCORDO
100
AcDbLine
 62
250
  6
CONTINUOUS
 10
-19.0769150979
 20
-12.4695438425
 11
-19.089502603
 21
-12.4864600723
  0
LINE
  5
2C7
100
AcDbEntity
  8
RACCORDO
100
AcDbLine
 62
250
  6
CONTINUOUS
 10
-19.0641395649
 20
-12.4526190553
 11
-19.0769150979
 21
-12.4695438425
  0
LWPOLYLINE
  5
2C8
100
AcDbEntity
  8
RACCORDO
100
AcDbPolyline
 62
250
  6
CONTINUOUS
 90
88
 70
0
 10
16.8719181766
 20
21.9195315132
 10
16.8613350956
 20
21.9131013107
 10
16.8505545228
 20
21.9060333548
 10
16.8395767078
 20
21.8983278635
 10
16.8284088132
 20
21.8900211455
 10
16.8170442116
 20
21.8810773605
 10
16.8054625391
 20
21.8713885663
 10
16.7936555743
 20
21.8609517383
 10
16.7816322919
 20
21.8497705612
 10
16.7693982488
 20
21.837747268
 10
16.7569547198
 20
21.8248848667
 10
16.7443014174
 20
21.8111812158
 10
16.7314417018
 20
21.7965309528
 10
16.7183763763
 20
21.7809370234
 10
16.7051059222
 20
21.7643976113
 10
16.6916334011
 20
21.7468003739
 10
16.6779599843
 20
21.7281490189
 10
16.6640861528
 20
21.7084412946
 10
16.6500141622
 20
21.6875561217
 10
16.6357454382
 20
21.6654980862
 10
16.6212806625
 20
21.6422644636
 10
16.6066212613
 20
21.6177234628
 10
16.5917688228
 20
21.5918804635
 10
16.5767244292
 20
21.5647324515
 10
16.5614891044
 20
21.5361353622
 10
16.5460646328
 20
21.5060953976
 10
16.5304525961
 20
21.4746093472
 10
16.514654159
 20
21.4415194236
 10
16.498671443
 20
21.4068329275
 10
16.4825065499
 20
21.3705463252
 10
16.4661611681
 20
21.3324860737
 10
16.4496378322
 20
21.2926608086
 10
16.4329392875
 20
21.2510666228
 10
16.416068227
 20
21.207511778
 10
16.3990276688
 20
21.1620064604
 10
16.3818211775
 20
21.1145464063
 10
16.3644531229
 20
21.0649189772
 10
16.3469271006
 20
21.0131361958
 10
16.3292477062
 20
20.9591934468
 10
16.3114218769
 20
20.9028541032
 10
16.2934539284
 20
20.8441325018
 10
16.2753497239
 20
20.7830235635
 10
16.2571198545
 20
20.719262755
 10
16.2387695086
 20
20.6528673485
 10
16.2203061386
 20
20.5838316419
 10
16.2017453986
 20
20.5118581737
 10
16.1830935249
 20
20.4369679557
 10
16.1643599821
 20
20.3591544481
 10
16.1455673635
 20
20.278080805
 10
16.1267231425
 20
20.1937728628
 10
16.1078393678
 20
20.1062229195
 10
16.0889481512
 20
20.0150462998
 10
16.0700583865
 20
19.9202751046
 10
16.0511855036
 20
19.8219000219
 10
16.032374805
 20
19.7194774444
 10
16.0136367986
 20
19.6130477656
 10
15.9949913811
 20
19.5025993476
 10
15.9765023001
 20
19.3876146795
 10
15.958181786
 20
19.2681451154
 10
15.9400557892
 20
19.1441757868
 10
15.9222143199
 20
19.0150953007
 10
15.9046713811
 20
18.880970319
 10
15.887461208
 20
18.7417808022
 10
15.8707116683
 20
18.5967925867
 10
15.8544381128
 20
18.446092406
 10
15.8386866361
 20
18.2896536566
 10
15.823641302
 20
18.1265820571
 10
15.8093180299
 20
17.9569965905
 10
15.7957799329
 20
17.7808566752
 10
15.7832956993
 20
17.5970424228
 10
15.7718787818
 20
17.4057125105
 10
15.761618823
 20
17.2068120664
 10
15.752918183
 20
16.998920399
 10
15.745781988
 20
16.7822742094
 10
15.7403415953
 20
16.5567764877
 10
15.7372168453
 20
16.3205347201
 10
15.7364620464
 20
16.0722278976
 10
15.7382181864
 20
15.8133801793
 10
15.7432314929
 20
15.5463643825
 10
15.7517745036
 20
15.2692311275
 10
15.7637465588
 20
14.9841156971
 10
15.7792259012
 20
14.6994086285
 10
15.7983274734
 20
14.4163289398
 10
15.8209174638
 20
14.1336504889
 10
15.8465664881
 20
13.8559569382
 10
15.8750770891
 20
13.5847227243
 10
15.9065358324
 20
13.3183675979
 10
15.9408939247
 20
13.0568447348
  0
LWPOLYLINE
  5
2C9
100
AcDbEntity
  8
RACCORDO
100
AcDbPolyline
 62
250
  6
CONTINUOUS
 90
91
 70
0
 10
16.8719108374
 20
-41.068774513
 10
16.8585829675
 20
-41.0489312814
 10
16.8452698418
 20
-41.0283458241
 10
16.8319717643
 20
-41.0070179091
 10
16.8187249039
 20
-40.9850192711
 10
16.8054937266
 20
-40.9622776915
 10
16.792171085
 20
-40.9385769298
 10
16.77874143
 20
-40.9139081936
 10
16.7652212353
 20
-40.8882795718
 10
16.751551592
 20
-40.8614999903
 10
16.7377138937
 20
-40.8335398324
 10
16.7237280217
 20
-40.8044277466
 10
16.7095930003
 20
-40.7740599033
 10
16.6952868147
 20
-40.7423793062
 10
16.6808331056
 20
-40.7094417198
 10
16.6662994739
 20
-40.6753123859
 10
16.6516916234
 20
-40.6399874922
 10
16.6370056216
 20
-40.6034695136
 10
16.6222945955
 20
-40.5658331395
 10
16.6075771084
 20
-40.5271172716
 10
16.5928364595
 20
-40.4872816077
 10
16.5780729227
 20
-40.4462820011
 10
16.5632998128
 20
-40.4041588048
 10
16.5485059485
 20
-40.3608700679
 10
16.5336550998
 20
-40.3162480091
 10
16.5187448835
 20
-40.2702915928
 10
16.5037803735
 20
-40.2229998462
 10
16.4887369133
 20
-40.1742047935
 10
16.4736127982
 20
-40.1239034755
 10
16.4584130652
 20
-40.0720963741
 10
16.4431236112
 20
-40.0186203472
 10
16.4277437023
 20
-39.9634717757
 10
16.4122781502
 20
-39.9066512612
 10
16.3967216623
 20
-39.8480016299
 10
16.3810777249
 20
-39.7875333219
 10
16.3653477713
 20
-39.7252322759
 10
16.3495240295
 20
-39.6609041258
 10
16.3336140725
 20
-39.5945792217
 10
16.3176163194
 20
-39.5262228281
 10
16.3015101448
 20
-39.4555423079
 10
16.285296108
 20
-39.3825384676
 10
16.2689812617
 20
-39.3072049617
 10
16.2525558968
 20
-39.2292375693
 10
16.2360210172
 20
-39.1486328799
 10
16.2193851807
 20
-39.0653873928
 10
16.2026513819
 20
-38.9791957611
 10
16.1858238343
 20
-38.8900650609
 10
16.1689101852
 20
-38.79797971
 10
16.1519202269
 20
-38.7025991968
 10
16.134864075
 20
-38.6039643075
 10
16.1177463019
 20
-38.5020238147
 10
16.1005706634
 20
-38.3962975693
 10
16.0833385346
 20
-38.2867674494
 10
16.0660674142
 20
-38.1734382825
 10
16.04878812
 20
-38.0558623209
 10
16.0314894239
 20
-37.9338898478
 10
16.014206425
 20
-37.8076539476
 10
15.9970414489
 20
-37.6771297026
 10
15.9800200075
 20
-37.5424251753
 10
15.9631429026
 20
-37.4034142612
 10
15.9464775019
 20
-37.259719395
 10
15.9300455606
 20
-37.1114687857
 10
15.9138570023
 20
-36.958512821
 10
15.8979664377
 20
-36.8000538314
 10
15.8823815626
 20
-36.6361002068
 10
15.8671361493
 20
-36.4666159148
 10
15.8523314827
 20
-36.290731589
 10
15.8379829359
 20
-36.1085560414
 10
15.8241284843
 20
-35.9199454805
 10
15.8109140656
 20
-35.7236445415
 10
15.7983434131
 20
-35.5195606423
 10
15.7864852446
 20
-35.3077396633
 10
15.7755963878
 20
-35.0871252715
 10
15.7656908233
 20
-34.8577968898
 10
15.7568472629
 20
-34.6196167165
 10
15.7494362857
 20
-34.3711921125
 10
15.7434650723
 20
-34.1124391208
 10
15.7390492429
 20
-33.8433662871
 10
15.73674302
 20
-33.562706917
 10
15.7365529203
 20
-33.2703500411
 10
15.738630215
 20
-32.9663127674
 10
15.7437693081
 20
-32.6495070802
 10
15.7522643395
 20
-32.3154245028
 10
15.7640428636
 20
-31.9684457716
 10
15.7792668182
 20
-31.620868671
 10
15.7980134683
 20
-31.2752833204
 10
15.8202072476
 20
-30.9291103556
 10
15.8456459024
 20
-30.5869752238
 10
15.8742261593
 20
-30.2504445008
 10
15.90598501
 20
-29.9180014558
 10
15.9408939247
 20
-29.5896677687
  0
LINE
  5
2CA
100
AcDbEntity
  8
RACCORDO
100
AcDbLine
 62
250
  6
CONTINUOUS
 10
-20.876803268
 20
-25.9825904531
 11
-20.9024423422
 21
-26.0262629348
  0
LINE
  5
2CB
100
AcDbEntity
  8
RACCORDO
100
AcDbLine
 62
250
  6
CONTINUOUS
 10
-20.8506376754
 20
-25.9384801403
 11
-20.876803268
 21
-25.9825904531
  0
LINE
  5
2CC
100
AcDbEntity
  8
RACCORDO
100
AcDbLine
 62
250
  6
CONTINUOUS
 10
-20.8104186373
 20
-25.8715153537
 11
-20.8506376754
 21
-25.9384801403
  0
LINE
  5
2CD
100
AcDbEntity
  8
RACCORDO
100
AcDbLine
 62
250
  6
CONTINUOUS
 10
-20.7829680966
 20
-25.82635222
 11
-20.8104186373
 21
-25.8715153537
  0
LINE
  5
2CE
100
AcDbEntity
  8
RACCORDO
100
AcDbLine
 62
250
  6
CONTINUOUS
 10
-19.051177352
 20
-12.435690614
 11
-19.0641395649
 21
-12.4526190553
  0
LINE
  5
2CF
100
AcDbEntity
  8
RACCORDO
100
AcDbLine
 62
250
  6
CONTINUOUS
 10
-19.0380304546
 20
-12.4187657602
 11
-19.051177352
 21
-12.435690614
  0
LINE
  5
2D0
100
AcDbEntity
  8
RACCORDO
100
AcDbLine
 62
250
  6
CONTINUOUS
 10
-19.0246999574
 20
-12.40185044
 11
-19.0380304546
 21
-12.4187657602
  0
LINE
  5
2D1
100
AcDbEntity
  8
RACCORDO
100
AcDbLine
 62
250
  6
CONTINUOUS
 10
-19.0111871675
 20
-12.3849493209
 11
-19.0246999574
 21
-12.40185044
  0
LINE
  5
2D2
100
AcDbEntity
  8
RACCORDO
100
AcDbLine
 62
250
  6
CONTINUOUS
 10
-18.9974947856
 20
-12.3680703058
 11
-19.0111871675
 21
-12.3849493209
  0
LINE
  5
2D3
100
AcDbEntity
  8
RACCORDO
100
AcDbLine
 62
250
  6
CONTINUOUS
 10
-18.9836255755
 20
-12.3512211091
 11
-18.9974947856
 21
-12.3680703058
  0
LINE
  5
2D4
100
AcDbEntity
  8
RACCORDO
100
AcDbLine
 62
250
  6
CONTINUOUS
 10
-18.969580917
 20
-12.3344062832
 11
-18.9836255755
 21
-12.3512211091
  0
LINE
  5
2D5
100
AcDbEntity
  8
RACCORDO
100
AcDbLine
 62
250
  6
CONTINUOUS
 10
-18.9553623288
 20
-12.3176319094
 11
-18.969580917
 21
-12.3344062832
  0
LINE
  5
2D6
100
AcDbEntity
  8
RACCORDO
100
AcDbLine
 62
250
  6
CONTINUOUS
 10
-18.9409706428
 20
-12.3009031881
 11
-18.9553623288
 21
-12.3176319094
  0
LINE
  5
2D7
100
AcDbEntity
  8
RACCORDO
100
AcDbLine
 62
250
  6
CONTINUOUS
 10
-18.9264063376
 20
-12.284223501
 11
-18.9409706428
 21
-12.3009031881
  0
LINE
  5
2D8
100
AcDbEntity
  8
RACCORDO
100
AcDbLine
 62
250
  6
CONTINUOUS
 10
-18.911670042
 20
-12.2675977969
 11
-18.9264063376
 21
-12.284223501
  0
LINE
  5
2D9
100
AcDbEntity
  8
RACCORDO
100
AcDbLine
 62
250
  6
CONTINUOUS
 10
-18.8967617749
 20
-12.25103033
 11
-18.911670042
 21
-12.2675977969
  0
LINE
  5
2DA
100
AcDbEntity
  8
RACCORDO
100
AcDbLine
 62
250
  6
CONTINUOUS
 10
-18.8816803281
 20
-12.2345226569
 11
-18.8967617749
 21
-12.25103033
  0
LINE
  5
2DB
100
AcDbEntity
  8
RACCORDO
100
AcDbLine
 62
250
  6
CONTINUOUS
 10
-18.8664201026
 20
-12.2180730841
 11
-18.8816803281
 21
-12.2345226569
  0
LINE
  5
2DC
100
AcDbEntity
  8
RACCORDO
100
AcDbLine
 62
250
  6
CONTINUOUS
 10
-18.8509736477
 20
-12.2016788484
 11
-18.8664201026
 21
-12.2180730841
  0
LINE
  5
2DD
100
AcDbEntity
  8
RACCORDO
100
AcDbLine
 62
250
  6
CONTINUOUS
 10
-18.8353857985
 20
-12.1853882622
 11
-18.8509736477
 21
-12.2016788484
  0
LINE
  5
2DE
100
AcDbEntity
  8
RACCORDO
100
AcDbLine
 62
250
  6
CONTINUOUS
 10
-18.8198020738
 20
-12.1693554336
 11
-18.8353857985
 21
-12.1853882622
  0
LINE
  5
2DF
100
AcDbEntity
  8
RACCORDO
100
AcDbLine
 62
250
  6
CONTINUOUS
 10
-18.804352013
 20
-12.1537016486
 11
-18.8198020738
 21
-12.1693554336
  0
LINE
  5
2E0
100
AcDbEntity
  8
RACCORDO
100
AcDbLine
 62
250
  6
CONTINUOUS
 10
-18.7890887014
 20
-12.1384730712
 11
-18.804352013
 21
-12.1537016486
  0
LINE
  5
2E1
100
AcDbEntity
  8
RACCORDO
100
AcDbLine
 62
250
  6
CONTINUOUS
 10
-18.7740440328
 20
-12.123686712
 11
-18.7890887014
 21
-12.1384730712
  0
LINE
  5
2E2
100
AcDbEntity
  8
RACCORDO
100
AcDbLine
 62
250
  6
CONTINUOUS
 10
-18.7592351909
 20
-12.1093435479
 11
-18.7740440328
 21
-12.123686712
  0
LINE
  5
2E3
100
AcDbEntity
  8
RACCORDO
100
AcDbLine
 62
250
  6
CONTINUOUS
 10
-18.7446707207
 20
-12.0954416362
 11
-18.7592351909
 21
-12.1093435479
  0
LINE
  5
2E4
100
AcDbEntity
  8
RACCORDO
100
AcDbLine
 62
250
  6
CONTINUOUS
 10
-18.7303582939
 20
-12.0819726865
 11
-18.7446707207
 21
-12.0954416362
  0
LINE
  5
2E5
100
AcDbEntity
  8
RACCORDO
100
AcDbLine
 62
250
  6
CONTINUOUS
 10
-18.7162866142
 20
-12.068911665
 11
-18.7303582939
 21
-12.0819726865
  0
LINE
  5
2E6
100
AcDbEntity
  8
RACCORDO
100
AcDbLine
 62
250
  6
CONTINUOUS
 10
-18.7024500128
 20
-12.0562440835
 11
-18.7162866142
 21
-12.068911665
  0
LINE
  5
2E7
100
AcDbEntity
  8
RACCORDO
100
AcDbLine
 62
250
  6
CONTINUOUS
 10
-18.6888385264
 20
-12.0439474806
 11
-18.7024500128
 21
-12.0562440835
  0
LWPOLYLINE
  5
2E8
100
AcDbEntity
  8
RACCORDO
100
AcDbPolyline
 62
250
  6
CONTINUOUS
 90
36
 70
0
 10
-20.7829681092
 20
36.9017275648
 10
-20.7764026929
 20
36.8846501302
 10
-20.7698405273
 20
36.8668148063
 10
-20.7632859067
 20
36.8482344528
 10
-20.7567656755
 20
36.8289900693
 10
-20.7502583993
 20
36.8090187752
 10
-20.7436998058
 20
36.7881154902
 10
-20.7370942608
 20
36.7662744396
 10
-20.7304522102
 20
36.7435075401
 10
-20.723726829
 20
36.7196319109
 10
-20.7169201701
 20
36.6946227476
 10
-20.710049405
 20
36.6685077399
 10
-20.7030944823
 20
36.6411819416
 10
-20.6960515779
 20
36.612595898
 10
-20.6889431386
 20
36.5828022936
 10
-20.6817867156
 20
36.5518518154
 10
-20.6745868333
 20
36.5197452602
 10
-20.6673501536
 20
36.4864881423
 10
-20.6600925226
 20
36.4521414825
 10
-20.6528239882
 20
36.4167466941
 10
-20.6455401034
 20
36.3802697176
 10
-20.6382323502
 20
36.3426602037
 10
-20.630909863
 20
36.3039583298
 10
-20.623568699
 20
36.2641303861
 10
-20.6161815713
 20
36.2230157787
 10
-20.6087520163
 20
36.1806176166
 10
-20.6012842731
 20
36.1369381301
 10
-20.5937540987
 20
36.0918157613
 10
-20.5861655501
 20
36.045251996
 10
-20.5785237616
 20
35.9972503956
 10
-20.5708076026
 20
35.9476530603
 10
-20.5630214398
 20
35.8964608133
 10
-20.5551708533
 20
35.8436780396
 10
-20.5472375617
 20
35.7891528593
 10
-20.5392280871
 20
35.7329004973
 10
-20.5311460147
 20
35.6749113869
  0
LWPOLYLINE
  5
2E9
100
AcDbEntity
  8
RACCORDO
100
AcDbPolyline
 62
250
  6
CONTINUOUS
 90
10
 70
0
 10
-20.9024423422
 20
37.2257437997
 10
-20.8896884865
 20
37.1890618202
 10
-20.8768018717
 20
37.1525471852
 10
-20.8637836744
 20
37.1162010213
 10
-20.8506357224
 20
37.0800262853
 10
-20.8373587863
 20
37.0440234416
 10
-20.8239523986
 20
37.0081899786
 10
-20.8104172995
 20
36.9725268331
 10
-20.7967554458
 20
36.9370384375
 10
-20.7829680982
 20
36.9017275752
  0
LINE
  5
2EA
100
AcDbEntity
  8
RACCORDO
100
AcDbLine
 62
250
  6
CONTINUOUS
 10
-18.6754493887
 20
-12.0320072915
 11
-18.6888385264
 21
-12.0439474806
  0
LINE
  5
2EB
100
AcDbEntity
  8
RACCORDO
100
AcDbLine
 62
250
  6
CONTINUOUS
 10
-18.6622799124
 20
-12.0204132237
 11
-18.6754493887
 21
-12.0320072915
  0
LINE
  5
2EC
100
AcDbEntity
  8
RACCORDO
100
AcDbLine
 62
250
  6
CONTINUOUS
 10
-18.6493261165
 20
-12.0091502153
 11
-18.6622799124
 21
-12.0204132237
  0
LINE
  5
2ED
100
AcDbEntity
  8
RACCORDO
100
AcDbLine
 62
250
  6
CONTINUOUS
 10
-18.6365825865
 20
-11.9982029542
 11
-18.6493261165
 21
-12.0091502153
  0
LINE
  5
2EE
100
AcDbEntity
  8
RACCORDO
100
AcDbLine
 62
250
  6
CONTINUOUS
 10
-18.6240459419
 20
-11.9875616271
 11
-18.6365825865
 21
-11.9982029542
  0
LINE
  5
2EF
100
AcDbEntity
  8
RACCORDO
100
AcDbLine
 62
250
  6
CONTINUOUS
 10
-18.6117111323
 20
-11.9772118528
 11
-18.6240459419
 21
-11.9875616271
  0
LINE
  5
2F0
100
AcDbEntity
  8
RACCORDO
100
AcDbLine
 62
250
  6
CONTINUOUS
 10
-18.5995737213
 20
-11.96714062
 11
-18.6117111323
 21
-11.9772118528
  0
LINE
  5
2F1
100
AcDbEntity
  8
RACCORDO
100
AcDbLine
 62
250
  6
CONTINUOUS
 10
-18.587630783
 20
-11.9573394317
 11
-18.5995737213
 21
-11.96714062
  0
LWPOLYLINE
  5
2F2
100
AcDbEntity
  8
RACCORDO
100
AcDbPolyline
 62
250
  6
CONTINUOUS
 90
55
 70
0
 10
-18.0204932715
 20
-11.8862585326
 10
-18.0263997566
 20
-11.8910760964
 10
-18.0324206889
 20
-11.8962975783
 10
-18.0385554656
 20
-11.9019341584
 10
-18.0448172598
 20
-11.9079823589
 10
-18.0511911979
 20
-11.914469087
 10
-18.0576343076
 20
-11.921452681
 10
-18.0641439597
 20
-11.9289393597
 10
-18.0707197168
 20
-11.9369507504
 10
-18.0773213632
 20
-11.9455718382
 10
-18.0839533786
 20
-11.9548203305
 10
-18.0906060325
 20
-11.9647131329
 10
-18.097216941
 20
-11.9753384022
 10
-18.103819787
 20
-11.9867965787
 10
-18.1103721568
 20
-11.9990304345
 10
-18.1166976972
 20
-12.0118841488
 10
-18.1227566265
 20
-12.025326948
 10
-18.1285799171
 20
-12.0394099645
 10
-18.1340985065
 20
-12.0540869838
 10
-18.1392961985
 20
-12.0693433337
 10
-18.1441793873
 20
-12.085207288
 10
-18.1487130096
 20
-12.1016933011
 10
-18.1528912301
 20
-12.1188069186
 10
-18.156708185
 20
-12.1365550373
 10
-18.1601283413
 20
-12.1549534907
 10
-18.1631449434
 20
-12.1740062627
 10
-18.1657511151
 20
-12.1937197721
 10
-18.1679106208
 20
-12.2141130079
 10
-18.1696156846
 20
-12.2351880088
 10
-18.1708583023
 20
-12.2569509696
 10
-18.1716011899
 20
-12.2794268896
 10
-18.1718353637
 20
-12.3026158312
 10
-18.1715515162
 20
-12.3265237653
 10
-18.1707108445
 20
-12.3511847159
 10
-18.1693026753
 20
-12.3765965394
 10
-18.1673162976
 20
-12.4027651808
 10
-18.1647112811
 20
-12.4297374263
 10
-18.1614742474
 20
-12.4575087899
 10
-18.1575931688
 20
-12.4860852247
 10
-18.1530272125
 20
-12.5155303183
 10
-18.1477577545
 20
-12.5458388392
 10
-18.1417725155
 20
-12.5770148494
 10
-18.1350365153
 20
-12.6091374068
 10
-18.1275152723
 20
-12.6422218008
 10
-18.1192045174
 20
-12.6762482007
 10
-18.1101106557
 20
-12.7112434959
 10
-18.1000311008
 20
-12.7477148433
 10
-18.0891140127
 20
-12.7851477822
 10
-18.0779270547
 20
-12.8220144668
 10
-18.066540424
 20
-12.8580414359
 10
-18.0549164745
 20
-12.8934479136
 10
-18.043517442
 20
-12.9274215604
 10
-18.0325163657
 20
-12.9595846305
 10
-18.0218106746
 20
-12.9902681654
 10
-17.9827866786
 20
-13.1008735476
  0
LINE
  5
2F3
100
AcDbEntity
  8
RACCORDO
100
AcDbLine
 62
250
  6
CONTINUOUS
 10
-18.5758780869
 20
-11.9477959283
 11
-18.587630783
 21
-11.9573394317
  0
LINE
  5
2F4
100
AcDbEntity
  8
RACCORDO
100
AcDbLine
 62
250
  6
CONTINUOUS
 10
-17.8289178538
 20
-11.7322080444
 11
-18.0204932715
 21
-11.8862585326
  0
LINE
  5
2F5
100
AcDbEntity
  8
RACCORDO
100
AcDbLine
 62
250
  6
CONTINUOUS
 10
-18.5643113084
 20
-11.9384983775
 11
-18.5758780869
 21
-11.9477959283
  0
LINE
  5
2F6
100
AcDbEntity
  8
RACCORDO
100
AcDbLine
 62
250
  6
CONTINUOUS
 10
-17.9927545011
 20
-11.5025771444
 11
-18.1892838178
 21
-11.6605889106
  0
LINE
  5
2F7
100
AcDbEntity
  8
RACCORDO
100
AcDbLine
 62
250
  6
CONTINUOUS
 10
-18.5529276161
 20
-11.929439132
 11
-18.5643113084
 21
-11.9384983775
  0
LINE
  5
2F8
100
AcDbEntity
  8
RACCORDO
100
AcDbLine
 62
250
  6
CONTINUOUS
 10
-18.1892838178
 20
-11.6605889106
 11
-18.1983703509
 21
-11.6677801234
  0
LINE
  5
2F9
100
AcDbEntity
  8
RACCORDO
100
AcDbLine
 62
250
  6
CONTINUOUS
 10
-18.5417226729
 20
-11.9206068715
 11
-18.5529276161
 21
-11.929439132
  0
LINE
  5
2FA
100
AcDbEntity
  8
RACCORDO
100
AcDbLine
 62
250
  6
CONTINUOUS
 10
-18.5306931549
 20
-11.9119916673
 11
-18.5417226729
 21
-11.9206068715
  0
LINE
  5
2FB
100
AcDbEntity
  8
RACCORDO
100
AcDbLine
 62
250
  6
CONTINUOUS
 10
-18.1983703509
 20
-11.6677801234
 11
-18.2076243417
 21
-11.6750089908
  0
LINE
  5
2FC
100
AcDbEntity
  8
RACCORDO
100
AcDbLine
 62
250
  6
CONTINUOUS
 10
-18.5144722158
 20
-11.8994598771
 11
-18.5306931549
 21
-11.9119916673
  0
LINE
  5
2FD
100
AcDbEntity
  8
RACCORDO
100
AcDbLine
 62
250
  6
CONTINUOUS
 10
-18.2076243417
 20
-11.6750089908
 11
-18.2170528881
 21
-11.6822835884
  0
LINE
  5
2FE
100
AcDbEntity
  8
RACCORDO
100
AcDbLine
 62
250
  6
CONTINUOUS
 10
-18.4986289845
 20
-11.8873702328
 11
-18.5144722158
 21
-11.8994598771
  0
LINE
  5
2FF
100
AcDbEntity
  8
RACCORDO
100
AcDbLine
 62
250
  6
CONTINUOUS
 10
-18.2170528881
 20
-11.6822835884
 11
-18.2266628744
 21
-11.6896120598
  0
LINE
  5
300
100
AcDbEntity
  8
RACCORDO
100
AcDbLine
 62
250
  6
CONTINUOUS
 10
-18.4831515098
 20
-11.8756942472
 11
-18.4986289845
 21
-11.8873702328
  0
LINE
  5
301
100
AcDbEntity
  8
RACCORDO
100
AcDbLine
 62
250
  6
CONTINUOUS
 10
-18.2266628744
 20
-11.6896120598
 11
-18.2364613341
 21
-11.6970030027
  0
LINE
  5
302
100
AcDbEntity
  8
RACCORDO
100
AcDbLine
 62
250
  6
CONTINUOUS
 10
-18.2364613341
 20
-11.6970030027
 11
-18.2464553888
 21
-11.7044654514
  0
LINE
  5
303
100
AcDbEntity
  8
RACCORDO
100
AcDbLine
 62
250
  6
CONTINUOUS
 10
-18.4680294414
 20
-11.8644058293
 11
-18.4831515098
 21
-11.8756942472
  0
LINE
  5
304
100
AcDbEntity
  8
RACCORDO
100
AcDbLine
 62
250
  6
CONTINUOUS
 10
-18.2464553888
 20
-11.7044654514
 11
-18.2600975786
 21
-11.7145432129
  0
LINE
  5
305
100
AcDbEntity
  8
RACCORDO
100
AcDbLine
 62
250
  6
CONTINUOUS
 10
-18.4484034755
 20
-11.8499161561
 11
-18.4680294414
 21
-11.8644058293
  0
LINE
  5
306
100
AcDbEntity
  8
RACCORDO
100
AcDbLine
 62
250
  6
CONTINUOUS
 10
-18.2600975786
 20
-11.7145432129
 11
-18.2741175791
 21
-11.7247888927
  0
LINE
  5
307
100
AcDbEntity
  8
RACCORDO
100
AcDbLine
 62
250
  6
CONTINUOUS
 10
-18.4293685535
 20
-11.8360157068
 11
-18.4484034755
 21
-11.8499161561
  0
LINE
  5
308
100
AcDbEntity
  8
RACCORDO
100
AcDbLine
 62
250
  6
CONTINUOUS
 10
-18.2741175791
 20
-11.7247888927
 11
-18.2921995826
 21
-11.737870337
  0
LINE
  5
309
100
AcDbEntity
  8
RACCORDO
100
AcDbLine
 62
250
  6
CONTINUOUS
 10
-18.4063698677
 20
-11.8193896931
 11
-18.4293685535
 21
-11.8360157068
  0
LINE
  5
30A
100
AcDbEntity
  8
RACCORDO
100
AcDbLine
 62
250
  6
CONTINUOUS
 10
-18.2921995826
 20
-11.737870337
 11
-18.3224882089
 21
-11.7595555755
  0
LINE
  5
30B
100
AcDbEntity
  8
RACCORDO
100
AcDbLine
 62
250
  6
CONTINUOUS
 10
-18.3713229763
 20
-11.7943098883
 11
-18.4063698677
 21
-11.8193896931
  0
LWPOLYLINE
  5
30C
100
AcDbEntity
  8
RACCORDO
100
AcDbPolyline
 62
250
  6
CONTINUOUS
 90
3
 70
0
 10
-18.3504529726
 20
-11.7794568779
 10
-18.3545658487
 20
-11.7823821197
 10
-18.3713229763
 20
-11.7943098883
  0
LINE
  5
30D
100
AcDbEntity
  8
RACCORDO
100
AcDbLine
 62
250
  6
CONTINUOUS
 10
-18.3224882089
 20
-11.7595555755
 11
-18.3504529726
 21
-11.7794568779
  0
LINE
  5
30E
100
AcDbEntity
  8
DRAFT
100
AcDbLine
 62
7
  6
CONTINUOUS
 10
36.9605004847
 20
-15.72554995
 11
38.1935132365
 21
-16.2207556688
  0
LWPOLYLINE
  5
30F
100
AcDbEntity
  8
RACCORDO
100
AcDbPolyline
 62
250
  6
CONTINUOUS
 90
10
 70
0
 10
17.1368549143
 20
-41.3037022889
 10
17.1202884756
 20
-41.2701463078
 10
17.1039042629
 20
-41.2364988516
 10
17.0877023512
 20
-41.2027619484
 10
17.0716836445
 20
-41.1689393204
 10
17.0558480517
 20
-41.1350322338
 10
17.0401942304
 20
-41.1010389783
 10
17.0247223826
 20
-41.0669609604
 10
17.0094342873
 20
-41.0328027353
 10
16.9943310351
 20
-40.9985672206
  0
LWPOLYLINE
  5
310
100
AcDbEntity
  8
RACCORDO
100
AcDbPolyline
 62
250
  6
CONTINUOUS
 90
71
 70
0
 10
16.9943309995
 20
-40.9985672468
 10
16.987209636
 20
-40.9819696785
 10
16.9800644851
 20
-40.9646383199
 10
16.9729005392
 20
-40.9465859881
 10
16.9657480607
 20
-40.927890209
 10
16.9585835169
 20
-40.9084893578
 10
16.9513355358
 20
-40.8881827171
 10
16.9440087637
 20
-40.8669625485
 10
16.9366147854
 20
-40.8448413451
 10
16.9291016486
 20
-40.8216428995
 10
16.9214716148
 20
-40.7973422338
 10
16.91374315
 20
-40.771965638
 10
16.9058934927
 20
-40.7454115645
 10
16.8979186133
 20
-40.7176316405
 10
16.8898431327
 20
-40.6886756463
 10
16.8816864458
 20
-40.6585904427
 10
16.8734544367
 20
-40.6273755042
 10
16.8651548808
 20
-40.5950355214
 10
16.8568060321
 20
-40.5616274391
 10
16.8484203503
 20
-40.5271889158
 10
16.8399937296
 20
-40.4916873823
 10
16.831517713
 20
-40.4550755461
 10
16.8230044156
 20
-40.417392288
 10
16.8144498276
 20
-40.378602781
 10
16.8058229351
 20
-40.3385490824
 10
16.7971291502
 20
-40.2972327119
 10
16.7883743555
 20
-40.2546546157
 10
16.7795311248
 20
-40.2106556562
 10
16.7706056834
 20
-40.16523546
 10
16.7616052603
 20
-40.1183959832
 10
16.7525063284
 20
-40.0699814593
 10
16.7433158923
 20
-40.0199908962
 10
16.7340420464
 20
-39.9684263082
 10
16.7246648484
 20
-39.9151364474
 10
16.7151941981
 20
-39.8601332389
 10
16.7056365034
 20
-39.8034053917
 10
16.6959685901
 20
-39.7447668523
 10
16.6862041741
 20
-39.6842480886
 10
16.6763476311
 20
-39.6218188423
 10
16.6663648302
 20
-39.5572018623
 10
16.6562670247
 20
-39.4904010986
 10
16.6460647709
 20
-39.4214122134
 10
16.635726686
 20
-39.349945345
 10
16.6252652831
 20
-39.2760009833
 10
16.6146934212
 20
-39.1995777315
 10
16.6039839051
 20
-39.1203827395
 10
16.5931523395
 20
-39.0384266942
 10
16.5822119747
 20
-38.9536974928
 10
16.5711358942
 20
-38.8658679154
 10
16.5599456217
 20
-38.7749806511
 10
16.5486525827
 20
-38.6809910082
 10
16.5372198594
 20
-38.583440368
 10
16.5256660115
 20
-38.4823182694
 10
16.5140126058
 20
-38.3776323114
 10
16.5022332362
 20
-38.2689505324
 10
16.4903373365
 20
-38.1561411895
 10
16.4783632195
 20
-38.0393322713
 10
16.4663302117
 20
-37.9184812275
 10
16.4542720228
 20
-37.7936954176
 10
16.4422022062
 20
-37.6648635255
 10
16.430111905
 20
-37.5316147983
 10
16.4180395137
 20
-37.3940783489
 10
16.4060014604
 20
-37.2521204028
 10
16.3939646768
 20
-37.104975136
 10
16.3819661024
 20
-36.9526643122
 10
16.3700405708
 20
-36.7951603263
 10
16.3581654746
 20
-36.6316221946
 10
16.3463942276
 20
-36.4621699411
 10
16.3347651223
 20
-36.2866768236
 10
16.3232519947
 20
-36.1039302863
 10
16.3157436154
 20
-35.9792978466
  0
LINE
  5
311
100
AcDbEntity
  8
RACCORDO
100
AcDbLine
 62
250
  6
CONTINUOUS
 10
16.9943310325
 20
21.7295125751
 11
17.0247208776
 21
21.7770823684
  0
LINE
  5
312
100
AcDbEntity
  8
RACCORDO
100
AcDbLine
 62
250
  6
CONTINUOUS
 10
17.0247208776
 20
21.7770823684
 11
17.0558457872
 21
21.8252582034
  0
LINE
  5
313
100
AcDbEntity
  8
RACCORDO
100
AcDbLine
 62
250
  6
CONTINUOUS
 10
17.0558457872
 20
21.8252582034
 11
17.0877001623
 21
21.8740295172
  0
LWPOLYLINE
  5
314
100
AcDbEntity
  8
RACCORDO
100
AcDbPolyline
 62
250
  6
CONTINUOUS
 90
3
 70
0
 10
17.0877001623
 20
21.8740295172
 10
17.1202874501
 20
21.9233985702
 10
17.1368549143
 20
21.9483044457
  0
LWPOLYLINE
  5
315
100
AcDbEntity
  8
RACCORDO
100
AcDbPolyline
 62
250
  6
CONTINUOUS
 90
69
 70
0
 10
34.5556308148
 20
15.6500040219
 10
34.5392184461
 20
15.6403164917
 10
34.522355959
 20
15.6308389304
 10
34.505051522
 20
15.6215759299
 10
34.4873135178
 20
15.6125319788
 10
34.4691505389
 20
15.6037114582
 10
34.4505713837
 20
15.5951186396
 10
34.4315850521
 20
15.5867576859
 10
34.4122007416
 20
15.578632648
 10
34.392427842
 20
15.5707474607
 10
34.3722759318
 20
15.563105944
 10
34.3517547727
 20
15.5557118004
 10
34.3308743056
 20
15.5485686106
 10
34.3096446452
 20
15.5416798353
 10
34.2880760755
 20
15.5350488119
 10
34.2661790447
 20
15.528678752
 10
34.2439641599
 20
15.5225727415
 10
34.2214421825
 20
15.5167337386
 10
34.1986240224
 20
15.5111645714
 10
34.175520733
 20
15.5058679377
 10
34.152143506
 20
15.5008464036
 10
34.1285036656
 20
15.4961024013
 10
34.1046126633
 20
15.4916382289
 10
34.0804820722
 20
15.4874560491
 10
34.0561235816
 20
15.4835578876
 10
34.0315489911
 20
15.4799456327
 10
34.006770205
 20
15.4766210345
 10
33.9817992265
 20
15.4735857033
 10
33.9566481519
 20
15.4708411094
 10
33.9313291648
 20
15.4683885825
 10
33.9058545301
 20
15.4662293105
 10
33.880236588
 20
15.4643643394
 10
33.8544877482
 20
15.4627945727
 10
33.828620484
 20
15.4615207707
 10
33.8026473258
 20
15.4605435505
 10
33.7765808553
 20
15.4598633856
 10
33.7504336995
 20
15.4594806053
 10
33.7242185246
 20
15.4593953951
 10
33.6979480295
 20
15.4596077963
 10
33.6716349401
 20
15.460117706
 10
33.6452920028
 20
15.4609248772
 10
33.6189319785
 20
15.4620289188
 10
33.5925676365
 20
15.4634292961
 10
33.5662117479
 20
15.4651253307
 10
33.53987708
 20
15.4671162009
 10
33.5135763897
 20
15.4694009426
 10
33.4873224174
 20
15.4719784488
 10
33.461127881
 20
15.4748474708
 10
33.4350054694
 20
15.4780066191
 10
33.4089678368
 20
15.4814543633
 10
33.3830275962
 20
15.4851890329
 10
33.3571973133
 20
15.4892088194
 10
33.3314895009
 20
15.493511775
 10
33.3059166121
 20
15.4980958154
 10
33.2804910348
 20
15.5029587204
 10
33.2552250855
 20
15.508098134
 10
33.2301310035
 20
15.5135115663
 10
33.2052209447
 20
15.5191963957
 10
33.1805069759
 20
15.525149868
 10
33.1560010689
 20
15.5313690987
 10
33.1317150948
 20
15.5378510763
 10
33.1076608179
 20
15.54459266
 10
33.0838498907
 20
15.5515905837
 10
33.0602938474
 20
15.5588414588
 10
33.0370040989
 20
15.566341772
 10
33.0139919272
 20
15.5740878895
 10
32.9912684797
 20
15.5820760605
 10
32.968844764
 20
15.5903024152
 10
32.9467316424
 20
15.5987629671
  0
LWPOLYLINE
  5
316
100
AcDbEntity
  8
RACCORDO
100
AcDbPolyline
 62
250
  6
CONTINUOUS
 90
70
 70
0
 10
-19.835820615
 20
-15.8682146471
 10
-19.8200396538
 20
-15.8597357608
 10
-19.803766025
 20
-15.8514660941
 10
-19.78700807
 20
-15.843409886
 10
-19.7697743786
 20
-15.8355712658
 10
-19.7520737844
 20
-15.8279542515
 10
-19.7339153603
 20
-15.8205627474
 10
-19.7153084139
 20
-15.8134005421
 10
-19.6962624827
 20
-15.8064713069
 10
-19.6767873292
 20
-15.7997785935
 10
-19.656892936
 20
-15.7933258325
 10
-19.6365895005
 20
-15.7871163314
 10
-19.6158874296
 20
-15.7811532731
 10
-19.5947973349
 20
-15.775439714
 10
-19.5733300267
 20
-15.7699785829
 10
-19.5514965086
 20
-15.7647726789
 10
-19.529307972
 20
-15.7598246706
 10
-19.5067757901
 20
-15.755137094
 10
-19.4839115126
 20
-15.7507123521
 10
-19.4607268591
 20
-15.7465527128
 10
-19.4372337135
 20
-15.7426603082
 10
-19.413444118
 20
-15.7390371336
 10
-19.3893702664
 20
-15.735685046
 10
-19.3650244985
 20
-15.7326057636
 10
-19.3404192934
 20
-15.7298008649
 10
-19.3155672632
 20
-15.7272717876
 10
-19.2904811465
 20
-15.725019828
 10
-19.2651738018
 20
-15.7230461404
 10
-19.2396582011
 20
-15.7213517365
 10
-19.2139474231
 20
-15.7199374847
 10
-19.1880546466
 20
-15.7188041101
 10
-19.1619931436
 20
-15.7179521935
 10
-19.1357762727
 20
-15.7173821717
 10
-19.1094174721
 20
-15.7170943368
 10
-19.0829302526
 20
-15.7170888363
 10
-19.056328191
 20
-15.717365673
 10
-19.0296249229
 20
-15.7179247052
 10
-19.0028341359
 20
-15.7187656461
 10
-18.9759695622
 20
-15.7198880648
 10
-18.9490449721
 20
-15.7212913859
 10
-18.9220741664
 20
-15.7229748902
 10
-18.8950709699
 20
-15.7249377147
 10
-18.8680492236
 20
-15.7271788533
 10
-18.8410227785
 20
-15.7296971572
 10
-18.8140054875
 20
-15.7324913357
 10
-18.7870111991
 20
-15.7355599564
 10
-18.7600537501
 20
-15.7389014466
 10
-18.7331469582
 20
-15.7425140933
 10
-18.7063046151
 20
-15.7463960449
 10
-18.6795404798
 20
-15.7505453115
 10
-18.6528682708
 20
-15.7549597664
 10
-18.6263016597
 20
-15.7596371468
 10
-18.5998542641
 20
-15.7645750551
 10
-18.5735396401
 20
-15.7697709603
 10
-18.5473712761
 20
-15.7752221991
 10
-18.5213625854
 20
-15.7809259774
 10
-18.4955268995
 20
-15.7868793714
 10
-18.4698774612
 20
-15.7930793296
 10
-18.4444274177
 20
-15.7995226741
 10
-18.4191898142
 20
-15.8062061022
 10
-18.3941775869
 20
-15.813126188
 10
-18.3694035565
 20
-15.8202793845
 10
-18.3448804217
 20
-15.8276620252
 10
-18.3206207524
 20
-15.8352703257
 10
-18.2966369835
 20
-15.8431003864
 10
-18.2729414087
 20
-15.8511481937
 10
-18.2495461737
 20
-15.8594096225
 10
-18.2264632704
 20
-15.8678804381
 10
-18.2037045305
 20
-15.8765562987
 10
-18.1812816198
 20
-15.885432757
  0
LWPOLYLINE
  5
317
100
AcDbEntity
  8
RACCORDO
100
AcDbPolyline
 62
250
  6
CONTINUOUS
 90
70
 70
0
 10
-19.5426238985
 20
-13.4942437424
 10
-19.5269296679
 20
-13.4864708135
 10
-19.5107427213
 20
-13.4789069761
 10
-19.4940713558
 20
-13.4715561071
 10
-19.4769241246
 20
-13.4644220424
 10
-19.4593098094
 20
-13.4575083706
 10
-19.441237416
 20
-13.4508184317
 10
-19.4227162008
 20
-13.4443555886
 10
-19.4037556657
 20
-13.4381232206
 10
-19.3843655295
 20
-13.4321245176
 10
-19.3645557317
 20
-13.4263625543
 10
-19.3443364271
 20
-13.4208402845
 10
-19.3237179797
 20
-13.4155605354
 10
-19.3027109588
 20
-13.410526013
 10
-19.2813261326
 20
-13.4057392985
 10
-19.259574463
 20
-13.4012028427
 10
-19.2374671
 20
-13.3969189708
 10
-19.2150153761
 20
-13.392889879
 10
-19.1922307999
 20
-13.3891176309
 10
-19.1691250511
 20
-13.38560416
 10
-19.1457099739
 20
-13.3823512675
 10
-19.121997571
 20
-13.3793606198
 10
-19.0979999974
 20
-13.3766337498
 10
-19.0737295547
 20
-13.3741720556
 10
-19.0491986839
 20
-13.3719767982
 10
-19.0244199598
 20
-13.3700491032
 10
-18.9994060843
 20
-13.3683899587
 10
-18.9741698796
 20
-13.3670002143
 10
-18.9487242819
 20
-13.3658805824
 10
-18.9230823349
 20
-13.365031637
 10
-18.8972571828
 20
-13.364453812
 10
-18.8712620638
 20
-13.3641474038
 10
-18.8451103031
 20
-13.3641125694
 10
-18.8188153064
 20
-13.3643493255
 10
-18.7923905526
 20
-13.3648575505
 10
-18.7658495873
 20
-13.3656369842
 10
-18.7392060155
 20
-13.3666872262
 10
-18.712473495
 20
-13.3680077378
 10
-18.6856657292
 20
-13.3695978425
 10
-18.6587964598
 20
-13.3714567249
 10
-18.6318794603
 20
-13.373583432
 10
-18.6049285287
 20
-13.3759768738
 10
-18.5779574803
 20
-13.3786358238
 10
-18.5509801406
 20
-13.3815589187
 10
-18.5240103385
 20
-13.3847446604
 10
-18.4970618992
 20
-13.3881914164
 10
-18.4701486364
 20
-13.3918974199
 10
-18.4432843464
 20
-13.3958607712
 10
-18.4164828
 20
-13.4000794398
 10
-18.3897577361
 20
-13.4045512631
 10
-18.3631228541
 20
-13.4092739488
 10
-18.3365918075
 20
-13.4142450774
 10
-18.3101781963
 20
-13.4194621007
 10
-18.2838955604
 20
-13.4249223443
 10
-18.2577573727
 20
-13.4306230105
 10
-18.2317770319
 20
-13.4365611772
 10
-18.2059678557
 20
-13.4427338005
 10
-18.1803430743
 20
-13.4491377172
 10
-18.1549158232
 20
-13.4557696449
 10
-18.1296991366
 20
-13.4626261838
 10
-18.104705941
 20
-13.4697038199
 10
-18.0799490481
 20
-13.4769989256
 10
-18.0554411485
 20
-13.484507761
 10
-18.0311948052
 20
-13.4922264774
 10
-18.0072224471
 20
-13.5001511184
 10
-17.9835363628
 20
-13.5082776215
 10
-17.9601486938
 20
-13.5166018208
 10
-17.9370714287
 20
-13.5251194492
 10
-17.9143163974
 20
-13.5338261406
 10
-17.8918952642
 20
-13.5427174319
  0
LINE
  5
318
100
AcDbEntity
  8
RACCORDO
100
AcDbLine
 62
250
  6
CONTINUOUS
 10
37.2118779266
 20
19.9499381639
 11
33.573995505
 21
17.0258862026
  0
LWPOLYLINE
  5
319
100
AcDbEntity
  8
RACCORDO
100
AcDbPolyline
 62
250
  6
CONTINUOUS
 90
91
 70
0
 10
-20.6429515548
 20
36.9863489503
 10
-20.6288653587
 20
36.9670899213
 10
-20.6147518942
 20
36.9471221408
 10
-20.6006108563
 20
36.9264458757
 10
-20.5864805435
 20
36.9051305247
 10
-20.5723220204
 20
36.883107247
 10
-20.5580190282
 20
36.8601690405
 10
-20.5435556276
 20
36.8363089686
 10
-20.5289468323
 20
36.8115347797
 10
-20.5141226074
 20
36.7856616793
 10
-20.4990616705
 20
36.7586616613
 10
-20.4837840256
 20
36.7305638549
 10
-20.4682813642
 20
36.7012693478
 10
-20.4525270069
 20
36.6707235708
 10
-20.4365460014
 20
36.6389825298
 10
-20.4204075383
 20
36.6061132571
 10
-20.4041154281
 20
36.5721136784
 10
-20.3876640855
 20
36.5369874356
 10
-20.37110863
 20
36.5008101163
 10
-20.3544683593
 20
36.463622156
 10
-20.3377221136
 20
36.42538477
 10
-20.320864282
 20
36.3860547551
 10
-20.303907738
 20
36.3456713629
 10
-20.2868374693
 20
36.304197244
 10
-20.2696057944
 20
36.2614745102
 10
-20.2522078074
 20
36.2175042952
 10
-20.2346457186
 20
36.1722878696
 10
-20.2168821331
 20
36.125667895
 10
-20.1989120837
 20
36.0776442319
 10
-20.1807371998
 20
36.028220007
 10
-20.1623295408
 20
35.9772431771
 10
-20.1436841999
 20
35.9247131966
 10
-20.1248019988
 20
35.8706342808
 10
-20.1056630983
 20
35.8148619701
 10
-20.0862671314
 20
35.7574105503
 10
-20.0666095399
 20
35.6982701794
 10
-20.046663596
 20
35.6372607506
 10
-20.0264329843
 20
35.5744151241
 10
-20.0059080178
 20
35.5097058806
 10
-19.9850410322
 20
35.4428632924
 10
-19.9638253932
 20
35.3738937287
 10
-19.9422601133
 20
35.3027977612
 10
-19.9203048238
 20
35.2292980358
 10
-19.8979512655
 20
35.1533987229
 10
-19.8751981303
 20
35.0751044115
 10
-19.8520141086
 20
34.9941396296
 10
-19.8283928628
 20
34.9105206102
 10
-19.8043288706
 20
34.8242420457
 10
-19.7797904016
 20
34.7349976714
 10
-19.7547772217
 20
34.6428378959
 10
-19.7292748814
 20
34.5477259298
 10
-19.7032280406
 20
34.449226833
 10
-19.6766186364
 20
34.3473378924
 10
-19.6494458477
 20
34.2420794583
 10
-19.6216773095
 20
34.1330538865
 10
-19.5932648324
 20
34.0201373531
 10
-19.5642327072
 20
33.9034761846
 10
-19.5346552976
 20
33.7830798721
 10
-19.5045451121
 20
33.6590745485
 10
-19.4738633856
 20
33.5313590974
 10
-19.4426054663
 20
33.3996041898
 10
-19.4107754552
 20
33.2639468846
 10
-19.3783375482
 20
33.124280644
 10
-19.3452222328
 20
32.9799155589
 10
-19.3113999923
 20
32.8308924909
 10
-19.2768589072
 20
32.6772108456
 10
-19.2415483213
 20
32.5181258316
 10
-19.2054473374
 20
32.3537771088
 10
-19.1685235438
 20
32.1840774037
 10
-19.1306982523
 20
32.0079520537
 10
-19.091895897
 20
31.8253684112
 10
-19.0521195928
 20
31.6364311225
 10
-19.0113953028
 20
31.4402847342
 10
-18.9696643132
 20
31.2370750033
 10
-18.9268928139
 20
31.0267494918
 10
-18.8831274912
 20
30.8081722492
 10
-18.8382508475
 20
30.581358277
 10
-18.7922576523
 20
30.3464182787
 10
-18.7453419777
 20
30.1023814548
 10
-18.6973493329
 20
29.8492637651
 10
-18.648276515
 20
29.5872138012
 10
-18.5985216137
 20
29.3154838994
 10
-18.5473742438
 20
29.0303897527
 10
-18.4953235189
 20
28.7358506993
 10
-18.4446495883
 20
28.4424409866
 10
-18.3959119458
 20
28.1523644811
 10
-18.3485500665
 20
27.8634301419
 10
-18.3032989705
 20
27.5794807009
 10
-18.2604395805
 20
27.301763012
 10
-18.2197575799
 20
27.0289711038
 10
-18.181281668
 20
26.7610797192
  0
LINE
  5
31A
100
AcDbEntity
  8
RACCORDO
100
AcDbLine
 62
250
  6
CONTINUOUS
 10
38.1935132365
 20
18.5740559831
 11
34.5556308458
 21
15.6500040467
  0
LWPOLYLINE
  5
31B
100
AcDbEntity
  8
RACCORDO
100
AcDbPolyline
 62
250
  6
CONTINUOUS
 90
10
 70
0
 10
-20.9024423534
 20
37.2257438107
 10
-20.8740121216
 20
37.1985371974
 10
-20.8454798581
 20
37.1714772271
 10
-20.8168459174
 20
37.1445669497
 10
-20.7881097911
 20
37.1178118797
 10
-20.7592728585
 20
37.0912124138
 10
-20.7303380961
 20
37.064764056
 10
-20.7013065442
 20
37.0384674328
 10
-20.672177598
 20
37.0123280664
 10
-20.6429515548
 20
36.9863489503
  0
LWPOLYLINE
  5
31C
100
AcDbEntity
  8
RACCORDO
100
AcDbPolyline
 62
250
  6
CONTINUOUS
 90
64
 70
0
 10
17.1368549147
 20
-41.3037022946
 10
17.070800941
 20
-40.3578070768
 10
17.0068716026
 20
-39.4098503832
 10
16.9450675091
 20
-38.4598411452
 10
16.8853892567
 20
-37.5077883169
 10
16.8278374075
 20
-36.5537008642
 10
16.7724124897
 20
-35.597587764
 10
16.7191150311
 20
-34.6394580219
 10
16.6679455405
 20
-33.6793206664
 10
16.618904488
 20
-32.7171847365
 10
16.5719923404
 20
-31.7530592966
 10
16.5272095457
 20
-30.786953429
 10
16.484556515
 20
-29.8188762276
 10
16.4440336544
 20
-28.8488368121
 10
16.4056413509
 20
-27.8768443206
 10
16.369379957
 20
-26.9029079024
 10
16.3352498176
 20
-25.9270367315
 10
16.303251259
 20
-24.9492400012
 10
16.273384575
 20
-23.9695269166
 10
16.2456500494
 20
-22.9879067061
 10
16.2200479477
 20
-22.0043886166
 10
16.1965785048
 20
-21.0189819077
 10
16.1752419437
 20
-20.0316958613
 10
16.1560384686
 20
-19.0425397772
 10
16.1389682559
 20
-18.0515229685
 10
16.1240314674
 20
-17.0586547695
 10
16.1112282466
 20
-16.0639445324
 10
16.1005587107
 20
-15.0674016231
 10
16.0920229609
 20
-14.0690354276
 10
16.0856210793
 20
-13.0688553495
 10
16.0813531246
 20
-12.0668708072
 10
16.0792191368
 20
-11.0630912375
 10
16.0792191371
 20
-10.0575260947
 10
16.0813531253
 20
-9.0501848484
 10
16.0856210804
 20
-8.0410769858
 10
16.0920229624
 20
-7.0302120109
 10
16.1005587126
 20
-6.0175994439
 10
16.1112282489
 20
-5.0032488211
 10
16.1240314702
 20
-3.9871696958
 10
16.138968259
 20
-2.9693716377
 10
16.1560384722
 20
-1.9498642317
 10
16.1752419477
 20
-0.9286570792
 10
16.1965785092
 20
0.0942402011
 10
16.2200479526
 20
1.1188179766
 10
16.2456500547
 20
2.1450665984
 10
16.2733845807
 20
3.1729763995
 10
16.3032512651
 20
4.2025377002
 10
16.3352498241
 20
5.2337408052
 10
16.3693799639
 20
6.2665760002
 10
16.4056413583
 20
7.3010335594
 10
16.4440336622
 20
8.3371037417
 10
16.4845565233
 20
9.3747767871
 10
16.5272095543
 20
10.4140429251
 10
16.5719923494
 20
11.454892369
 10
16.6189044975
 20
12.4973153127
 10
16.6679455504
 20
13.5413019416
 10
16.7191150414
 20
14.5868424244
 10
16.7724125005
 20
15.6339269082
 10
16.8278374191
 20
16.68254554
 10
16.8853892691
 20
17.7326884399
 10
16.9450675211
 20
18.7843456929
 10
17.0068716123
 20
19.8375073877
 10
17.0708009467
 20
20.8921636174
 10
17.1368549147
 20
21.9483044519
  0
LWPOLYLINE
  5
31D
100
AcDbEntity
  8
RACCORDO
100
AcDbPolyline
 62
7
  6
CONTINUOUS
 90
52
 70
0
 10
16.285015288
 20
16.6554719155
 10
16.2442902765
 20
15.87276501
 10
16.1890791758
 20
14.7745299291
 10
16.1362123399
 20
13.6779842457
 10
16.0856903837
 20
12.5831391697
 10
16.0375139127
 20
11.4900059196
 10
15.9916834974
 20
10.398596007
 10
15.9481996996
 20
9.3089210788
 10
15.9070630555
 20
8.2209924662
 10
15.8682740491
 20
7.134821353
 10
15.8318331616
 20
6.0504191593
 10
15.7977408564
 20
4.9677971343
 10
15.765997547
 20
3.8869664601
 10
15.7366036394
 20
2.8079384518
 10
15.7095595245
 20
1.7307243292
 10
15.684865543
 20
0.6553351831
 10
15.6625220246
 20
-0.4182178688
 10
15.6425292893
 20
-1.4899236377
 10
15.6248876059
 20
-2.5597711141
 10
15.6095972301
 20
-3.6277494499
 10
15.5966584105
 20
-4.693847577
 10
15.5860713474
 20
-5.7580544797
 10
15.5778362279
 20
-6.8203593884
 10
15.5719532306
 20
-7.8807512959
 10
15.5684224861
 20
-8.9392192411
 10
15.5672441131
 20
-9.9957525237
 10
15.5684182207
 20
-11.0503401884
 10
15.5719448697
 20
-12.1029713396
 10
15.577824111
 20
-13.1536353669
 10
15.5860559842
 20
-14.2023213806
 10
15.5966404807
 20
-15.2490185385
 10
15.6095775841
 20
-16.2937163007
 10
15.6248672648
 20
-17.3364038473
 10
15.6425094448
 20
-18.3770703873
 10
15.6625040401
 20
-19.4157054243
 10
15.6848509535
 20
-20.4522982792
 10
15.7095500362
 20
-21.4868381422
 10
15.7366011298
 20
-22.5193143219
 10
15.7660040657
 20
-23.5497161726
 10
15.7977586243
 20
-24.5780329808
 10
15.831864571
 20
-25.6042539581
 10
15.8683216639
 20
-26.6283684782
 10
15.9071296119
 20
-27.6503659337
 10
15.9482881056
 20
-28.6702355696
 10
15.9917968333
 20
-29.6879668778
 10
16.0376554314
 20
-30.7035492913
 10
16.0858635108
 20
-31.7169719738
 10
16.1364206743
 20
-32.7282242351
 10
16.1893264893
 20
-33.7372957386
 10
16.244580515
 20
-34.7441761829
 10
16.30218229
 20
-35.748855062
 10
16.3157435252
 20
-35.9792938443
  0
LWPOLYLINE
  5
31E
100
AcDbEntity
  8
RACCORDO
100
AcDbPolyline
 62
250
  6
CONTINUOUS
 90
74
 70
0
 10
16.2850149953
 20
16.6554677999
 10
16.2898400059
 20
16.7454081902
 10
16.3006742175
 20
16.9373925293
 10
16.3117635339
 20
17.1216135411
 10
16.3230945582
 20
17.2990314486
 10
16.3345991329
 20
17.4695886306
 10
16.3462200036
 20
17.6333407405
 10
16.3579834275
 20
17.791417998
 10
16.3698512599
 20
17.9439362456
 10
16.3817700891
 20
18.0907787943
 10
16.3937624331
 20
18.2327265364
 10
16.4057936676
 20
18.3698044138
 10
16.4178267954
 20
18.5019878618
 10
16.4298943415
 20
18.6299829239
 10
16.4419794593
 20
18.7539079606
 10
16.454044201
 20
18.8736451364
 10
16.4660981897
 20
18.9895460035
 10
16.4781285952
 20
19.1017189651
 10
16.4901012453
 20
19.2100574666
 10
16.5019957549
 20
19.314592015
 10
16.5137734262
 20
19.4152020064
 10
16.5254252543
 20
19.512013899
 10
16.5369776788
 20
19.605429799
 10
16.5484091112
 20
19.6954443723
 10
16.5597011075
 20
19.7820693825
 10
16.5708907818
 20
19.8657317355
 10
16.5819668682
 20
19.9464757039
 10
16.5929078371
 20
20.0242631475
 10
16.6037404716
 20
20.0993964281
 10
16.6144516109
 20
20.1718897854
 10
16.6250257157
 20
20.2417355299
 10
16.635489673
 20
20.3092025148
 10
16.6458306384
 20
20.3742951259
 10
16.6560362183
 20
20.4370157198
 10
16.66613747
 20
20.4976292561
 10
16.676123795
 20
20.5561426063
 10
16.6859840959
 20
20.61255522
 10
16.6957522792
 20
20.6671196892
 10
16.7054238715
 20
20.7198657082
 10
16.7149853632
 20
20.7707687526
 10
16.7244599537
 20
20.8199991076
 10
16.733841318
 20
20.8675703197
 10
16.7431196203
 20
20.913473734
 10
16.7523145558
 20
20.9578459782
 10
16.7614179575
 20
21.0006881882
 10
16.7704230323
 20
21.0420040229
 10
16.7793531889
 20
21.0819334942
 10
16.7882011886
 20
21.1204780098
 10
16.7969609747
 20
21.157640146
 10
16.8056597801
 20
21.1935607866
 10
16.8142916913
 20
21.2282417789
 10
16.8228514977
 20
21.2616835269
 10
16.8313699566
 20
21.2940233125
 10
16.8398507817
 20
21.3252917705
 10
16.8482823235
 20
21.3554570709
 10
16.8566734735
 20
21.3845625707
 10
16.865028662
 20
21.412638764
 10
16.8733354231
 20
21.4396532797
 10
16.8815748658
 20
21.4655590478
 10
16.8897391403
 20
21.4903563823
 10
16.8978226971
 20
21.5140485326
 10
16.9058053697
 20
21.5365999604
 10
16.913662108
 20
21.5579770573
 10
16.9213975226
 20
21.5782258895
 10
16.9290343792
 20
21.5974342061
 10
16.9365539462
 20
21.615588736
 10
16.9439543678
 20
21.6327158554
 10
16.9512879908
 20
21.6489586194
 10
16.9585434972
 20
21.6643138544
 10
16.9657162698
 20
21.6787909366
 10
16.9728770092
 20
21.6925407268
 10
16.9800488687
 20
21.7056081901
 10
16.9872019033
 20
21.7179351538
 10
16.9943310163
 20
21.7295125669
  0
LINE
  5
31F
100
AcDbEntity
  8
RACCORDO
100
AcDbLine
 62
7
  6
CONTINUOUS
 10
-18.131898312
 20
24.7101447546
 11
16.0167394953
 21
10.9952819482
  0
LINE
  5
320
100
AcDbEntity
  8
RACCORDO
100
AcDbLine
 62
250
  6
CONTINUOUS
 10
-17.8918952873
 20
24.8836552191
 11
16.0278851935
 21
11.2607066744
  0
LINE
  5
321
100
AcDbEntity
  8
0
100
AcDbLine
 62
7
  6
CONTINUOUS
 10
22.1357678426
 20
-39.3872287129
 11
22.1658252752
 21
-39.8722102135
  0
LINE
  5
322
100
AcDbEntity
  8
0
100
AcDbLine
 62
7
  6
CONTINUOUS
 10
22.594509929
 20
-39.5714657346
 11
22.6245672808
 21
-40.0564460277
  0
LINE
  5
323
100
AcDbEntity
  8
0
100
AcDbLine
 62
7
  6
CONTINUOUS
 10
22.6808455873
 20
-39.5007437898
 11
22.7109142861
 21
-39.9857147018
  0
LINE
  5
324
100
AcDbEntity
  8
0
100
AcDbLine
 62
7
  6
CONTINUOUS
 10
23.0532395339
 20
-39.7557018858
 11
23.0832981596
 21
-40.2406826905
  0
LINE
  5
325
100
AcDbEntity
  8
0
100
AcDbLine
 62
7
  6
CONTINUOUS
 10
23.5123022056
 20
-39.9451620001
 11
23.5420405066
 21
-40.4249239591
  0
LINE
  5
326
100
AcDbEntity
  8
0
100
AcDbLine
 62
7
  6
CONTINUOUS
 10
23.4927793571
 20
-39.6250365353
 11
23.5123022056
 21
-39.9451620001
  0
LINE
  5
327
100
AcDbEntity
  8
0
100
AcDbLine
 62
7
  6
CONTINUOUS
 10
22.1062671957
 20
-38.9017251593
 11
22.1357678426
 21
-39.3872287129
  0
LINE
  5
328
100
AcDbEntity
  8
0
100
AcDbLine
 62
7
  6
CONTINUOUS
 10
22.56500936
 20
-39.0859633912
 11
22.594509929
 21
-39.5714657346
  0
LINE
  5
329
100
AcDbEntity
  8
0
100
AcDbLine
 62
7
  6
CONTINUOUS
 10
22.6513338814
 20
-39.0152506056
 11
22.6808455873
 21
-39.5007437898
  0
LINE
  5
32A
100
AcDbEntity
  8
0
100
AcDbLine
 62
7
  6
CONTINUOUS
 10
23.0237376908
 20
-39.2701990307
 11
23.0532395339
 21
-39.7557018858
  0
LINE
  5
32B
100
AcDbEntity
  8
0
100
AcDbLine
 62
7
  6
CONTINUOUS
 10
22.0773233625
 20
-38.4157000249
 11
22.1062671957
 21
-38.9017251593
  0
LINE
  5
32C
100
AcDbEntity
  8
0
100
AcDbLine
 62
7
  6
CONTINUOUS
 10
22.536065602
 20
-38.5999394695
 11
22.56500936
 21
-39.0859633912
  0
LINE
  5
32D
100
AcDbEntity
  8
0
100
AcDbLine
 62
7
  6
CONTINUOUS
 10
22.6223791967
 20
-38.5292356215
 11
22.6513338814
 21
-39.0152506056
  0
LINE
  5
32E
100
AcDbEntity
  8
0
100
AcDbLine
 62
7
  6
CONTINUOUS
 10
22.9947926585
 20
-38.7841745972
 11
23.0237376908
 21
-39.2701990307
  0
LWPOLYLINE
  5
32F
100
AcDbEntity
  8
0
100
AcDbPolyline
 62
7
  6
CONTINUOUS
 90
3
 70
0
 10
22.0349518435
 20
-37.6856877813
 10
22.0489364562
 20
-37.9291551977
 10
22.0773233625
 20
-38.4157000249
  0
LWPOLYLINE
  5
330
100
AcDbEntity
  8
0
100
AcDbPolyline
 62
7
  6
CONTINUOUS
 90
3
 70
0
 10
22.4936941905
 20
-37.86992905
 10
22.507678768
 20
-38.1133958577
 10
22.536065602
 20
-38.5999394695
  0
LWPOLYLINE
  5
331
100
AcDbEntity
  8
0
100
AcDbPolyline
 62
7
  6
CONTINUOUS
 90
3
 70
0
 10
22.5799917895
 20
-37.7992381953
 10
22.5939816464
 20
-38.042700727
 10
22.6223791967
 20
-38.5292356215
  0
LWPOLYLINE
  5
332
100
AcDbEntity
  8
0
100
AcDbPolyline
 62
7
  6
CONTINUOUS
 90
3
 70
0
 10
22.9524193353
 20
-38.0541634098
 10
22.9664045501
 20
-38.2976304735
 10
22.9947926585
 20
-38.7841745972
  0
LINE
  5
333
100
AcDbEntity
  8
RACCORDO
100
AcDbLine
 62
250
  6
CONTINUOUS
 10
15.9408939247
 20
-29.5896677687
 11
15.9747937578
 21
-29.290240648
  0
LINE
  5
334
100
AcDbEntity
  8
RACCORDO
100
AcDbLine
 62
250
  6
CONTINUOUS
 10
17.0765285635
 20
21.9411437135
 11
17.1368549262
 21
21.9483044473
  0
LINE
  5
335
100
AcDbEntity
  8
RACCORDO
100
AcDbLine
 62
250
  6
CONTINUOUS
 10
17.0170297563
 20
21.9344155409
 11
17.0765285635
 21
21.9411437135
  0
LINE
  5
336
100
AcDbEntity
  8
RACCORDO
100
AcDbLine
 62
250
  6
CONTINUOUS
 10
16.9583575157
 20
21.9281342267
 11
17.0170297563
 21
21.9344155409
  0
LWPOLYLINE
  5
337
100
AcDbEntity
  8
RACCORDO
100
AcDbPolyline
 62
250
  6
CONTINUOUS
 90
3
 70
0
 10
16.8719108372
 20
21.9195344609
 10
16.9005188368
 20
21.9222861217
 10
16.9583575157
 20
21.9281342267
  0
LWPOLYLINE
  5
338
100
AcDbEntity
  8
RACCORDO
100
AcDbPolyline
 62
250
  6
CONTINUOUS
 90
9
 70
0
 10
16.1037941709
 20
12.9754605228
 10
16.0875672542
 20
12.9852094797
 10
16.0677983046
 20
12.9964963626
 10
16.0476169841
 20
13.0074412066
 10
16.0270336372
 20
13.0180384018
 10
16.0060588143
 20
13.0282825161
 10
15.9847032668
 20
13.0381682987
 10
15.9629779409
 20
13.0476906824
 10
15.9408939726
 20
13.0568447862
  0
LWPOLYLINE
  5
339
100
AcDbEntity
  8
RACCORDO
100
AcDbPolyline
 62
250
  6
CONTINUOUS
 90
4
 70
0
 10
16.0676708746
 20
12.174273096
 10
16.0302268256
 20
12.4267191763
 10
15.9849690054
 20
12.7411275878
 10
15.9408939247
 20
13.0568447348
  0
LINE
  5
33A
100
AcDbEntity
  8
0
100
AcDbLine
 62
7
  6
CONTINUOUS
 10
25.2968871534
 20
-40.6568013516
 11
25.3269457791
 21
-41.1417821563
  0
LINE
  5
33B
100
AcDbEntity
  8
0
100
AcDbLine
 62
7
  6
CONTINUOUS
 10
25.3832228117
 20
-40.5860794068
 11
25.4132927844
 21
-41.0710508304
  0
LINE
  5
33C
100
AcDbEntity
  8
0
100
AcDbLine
 62
7
  6
CONTINUOUS
 10
23.5986379827
 20
-39.8744399205
 11
23.6283875119
 21
-40.3541926332
  0
LINE
  5
33D
100
AcDbEntity
  8
0
100
AcDbLine
 62
7
  6
CONTINUOUS
 10
24.83846322
 20
-40.477778161
 11
24.8682034321
 21
-40.9575408877
  0
LINE
  5
33E
100
AcDbEntity
  8
0
100
AcDbLine
 62
7
  6
CONTINUOUS
 10
25.2673853103
 20
-40.1712984965
 11
25.2968871534
 21
-40.6568013516
  0
LINE
  5
33F
100
AcDbEntity
  8
0
100
AcDbLine
 62
7
  6
CONTINUOUS
 10
25.3537098317
 20
-40.1005857109
 11
25.3832228117
 21
-40.5860794068
  0
LINE
  5
340
100
AcDbEntity
  8
0
100
AcDbLine
 62
7
  6
CONTINUOUS
 10
24.8092678516
 20
-39.997504116
 11
24.83846322
 21
-40.477778161
  0
LINE
  5
341
100
AcDbEntity
  8
0
100
AcDbLine
 62
7
  6
CONTINUOUS
 10
23.5655814577
 20
-39.3299855909
 11
23.5986379827
 21
-39.8744399205
  0
LINE
  5
342
100
AcDbEntity
  8
0
100
AcDbLine
 62
7
  6
CONTINUOUS
 10
24.7806174034
 20
-39.5167200082
 11
24.8092678516
 21
-39.997504116
  0
LINE
  5
343
100
AcDbEntity
  8
0
100
AcDbLine
 62
7
  6
CONTINUOUS
 10
25.238440278
 20
-39.685274063
 11
25.2673853103
 21
-40.1712984965
  0
LINE
  5
344
100
AcDbEntity
  8
0
100
AcDbLine
 62
7
  6
CONTINUOUS
 10
25.3247538727
 20
-39.6145702149
 11
25.3537098317
 21
-40.1005857109
  0
LWPOLYLINE
  5
345
100
AcDbEntity
  8
0
100
AcDbPolyline
 62
7
  6
CONTINUOUS
 90
3
 70
0
 10
23.4544602119
 20
-38.9841053826
 10
23.4639491775
 20
-39.1444231696
 10
23.4927793571
 20
-39.6250365353
  0
LWPOLYLINE
  5
346
100
AcDbEntity
  8
0
100
AcDbPolyline
 62
7
  6
CONTINUOUS
 90
3
 70
0
 10
25.1960669548
 20
-38.9552628757
 10
25.2100521696
 20
-39.1987299393
 10
25.238440278
 20
-39.685274063
  0
LWPOLYLINE
  5
347
100
AcDbEntity
  8
0
100
AcDbPolyline
 62
7
  6
CONTINUOUS
 90
3
 70
0
 10
25.2823645538
 20
-38.884572021
 10
25.2963550479
 20
-39.1280348087
 10
25.3247538727
 20
-39.6145702149
  0
LINE
  5
348
100
AcDbEntity
  8
0
100
AcDbLine
 62
7
  6
CONTINUOUS
 10
27.8401794365
 20
-41.6782395446
 11
27.8702380559
 21
-42.1632203545
  0
LINE
  5
349
100
AcDbEntity
  8
0
100
AcDbLine
 62
7
  6
CONTINUOUS
 10
27.8106775996
 20
-41.1927366843
 11
27.8401794365
 21
-41.6782395446
  0
LINE
  5
34A
100
AcDbEntity
  8
0
100
AcDbLine
 62
7
  6
CONTINUOUS
 10
27.7817325737
 20
-40.7067122457
 11
27.8106775996
 21
-41.1927366843
  0
LINE
  5
34B
100
AcDbEntity
  8
0
100
AcDbLine
 62
7
  6
CONTINUOUS
 10
28.3187644612
 20
-40.788823217
 11
28.3327722598
 21
-41.0254158278
  0
LINE
  5
34C
100
AcDbEntity
  8
0
100
AcDbLine
 62
7
  6
CONTINUOUS
 10
28.228971492
 20
-40.8003581498
 11
28.2464540296
 21
-41.0961235826
  0
LINE
  5
34D
100
AcDbEntity
  8
0
100
AcDbLine
 62
7
  6
CONTINUOUS
 10
28.3077319496
 20
-40.6007967912
 11
28.3187644612
 21
-40.788823217
  0
LINE
  5
34E
100
AcDbEntity
  8
0
100
AcDbLine
 62
7
  6
CONTINUOUS
 10
28.215133831
 20
-40.5636072992
 11
28.228971492
 21
-40.8003581498
  0
LWPOLYLINE
  5
34F
100
AcDbEntity
  8
0
100
AcDbPolyline
 62
7
  6
CONTINUOUS
 90
3
 70
0
 10
27.7393592599
 20
-39.9767010506
 10
27.7533444716
 20
-40.2201681169
 10
27.7817325737
 20
-40.7067122457
  0
LINE
  5
350
100
AcDbEntity
  8
RACCORDO
100
AcDbLine
 62
250
  6
CONTINUOUS
 10
-20.6429515548
 20
36.9863489503
 11
16.8719181766
 21
21.9195315132
  0
LINE
  5
351
100
AcDbEntity
  8
RACCORDO
100
AcDbLine
 62
250
  6
CONTINUOUS
 10
17.1368549147
 20
21.9483044519
 11
32.9467316424
 21
15.5987629671
  0
LINE
  5
352
100
AcDbEntity
  8
RACCORDO
100
AcDbLine
 62
250
  6
CONTINUOUS
 10
-36.0414715757
 20
44.9850272262
 11
33.573995505
 21
17.0258862026
  0
LWPOLYLINE
  5
353
100
AcDbEntity
  8
RACCORDO
100
AcDbPolyline
 62
250
  6
CONTINUOUS
 90
10
 70
0
 10
16.9943310325
 20
21.7295125751
 10
16.9820781672
 20
21.7514743801
 10
16.9694745067
 20
21.7732461303
 10
16.9565255915
 20
21.7948182547
 10
16.9432371141
 20
21.8161812699
 10
16.9296149163
 20
21.8373257846
 10
16.9156649865
 20
21.8582425034
 10
16.9013934571
 20
21.8789222313
 10
16.8868066022
 20
21.8993558772
 10
16.8719108341
 20
21.9195344582
  0
LWPOLYLINE
  5
354
100
AcDbEntity
  8
RACCORDO
100
AcDbPolyline
 62
250
  6
CONTINUOUS
 90
63
 70
0
 10
32.8530634708
 20
14.5536492113
 10
32.7834990633
 20
13.5012530862
 10
32.7162472205
 20
12.4502751766
 10
32.6513084816
 20
11.4007251617
 10
32.5886834805
 20
10.3526131905
 10
32.5283729401
 20
9.3059498776
 10
32.4703773968
 20
8.2607451114
 10
32.4146973549
 20
7.2170087394
 10
32.3613334501
 20
6.1747512866
 10
32.3102861524
 20
5.1339825818
 10
32.2615559017
 20
4.0947124387
 10
32.2151432482
 20
3.056951332
 10
32.1710486002
 20
2.0207091254
 10
32.1292723282
 20
0.9859955021
 10
32.0898148884
 20
-0.0471793627
 10
32.0526766318
 20
-1.0788054438
 10
32.0178578576
 20
-2.108873315
 10
31.9853589147
 20
-3.1373737223
 10
31.9551800885
 20
-4.1642968484
 10
31.9273216278
 20
-5.1896331471
 10
31.9017838037
 20
-6.2133737879
 10
31.8785668416
 20
-7.2355091444
 10
31.8576709393
 20
-8.2560295652
 10
31.8390963058
 20
-9.2749261985
 10
31.8228431086
 20
-10.292189582
 10
31.8089114914
 20
-11.3078099875
 10
31.7973016034
 20
-12.3217781832
 10
31.7880135537
 20
-13.3340848794
 10
31.781047427
 20
-14.3447202681
 10
31.7764033053
 20
-15.3536743645
 10
31.7740812358
 20
-16.3609376883
 10
31.7740812357
 20
-17.366500726
 10
31.7764033052
 20
-18.3703534733
 10
31.7810474269
 20
-19.3724864571
 10
31.7880135535
 20
-20.3728902623
 10
31.7973016032
 20
-21.3715550026
 10
31.8089114911
 20
-22.3684710197
 10
31.8228431083
 20
-23.3636291915
 10
31.8390963055
 20
-24.3570204625
 10
31.8576709389
 20
-25.3486353492
 10
31.8785668412
 20
-26.338464654
 10
31.9017838032
 20
-27.3264997706
 10
31.9273216272
 20
-28.3127313811
 10
31.9551800878
 20
-29.2971502186
 10
31.9853589139
 20
-30.2797477698
 10
32.0178578566
 20
-31.260514907
 10
32.0526766306
 20
-32.2394422698
 10
32.0898148871
 20
-33.2165210166
 10
32.1292723267
 20
-34.1917422249
 10
32.1710485986
 20
-35.1650964313
 10
32.2151432466
 20
-36.1365740092
 10
32.2615559001
 20
-37.1061658957
 10
32.3102861508
 20
-38.0738628827
 10
32.3613334485
 20
-39.0396551606
 10
32.4146973536
 20
-40.003533648
 10
32.4703773956
 20
-40.9654892745
 10
32.5283729391
 20
-41.9255122823
 10
32.5886834797
 20
-42.8835936626
 10
32.651308481
 20
-43.8397243932
 10
32.7162472201
 20
-44.7938947339
 10
32.783499063
 20
-45.7460954706
 10
32.8530634707
 20
-46.6963179107
 10
32.9249398267
 20
-47.6445531294
  0
LWPOLYLINE
  5
355
100
AcDbEntity
  8
RACCORDO
100
AcDbPolyline
 62
250
  6
CONTINUOUS
 90
64
 70
0
 10
32.8530634708
 20
14.5536492113
 10
32.9266134173
 20
15.6308785904
 10
32.9286350518
 20
15.6545291135
 10
32.9310037008
 20
15.6783931417
 10
32.9337181579
 20
15.7024585216
 10
32.9367770408
 20
15.7267129971
 10
32.9401787916
 20
15.751144216
 10
32.9439216778
 20
15.7757397359
 10
32.9480037932
 20
15.8004870307
 10
32.9524230591
 20
15.8253734973
 10
32.9571772246
 20
15.8503864615
 10
32.9622638686
 20
15.8755131846
 10
32.9676804006
 20
15.9007408701
 10
32.973424062
 20
15.9260566701
 10
32.9794919277
 20
15.9514476917
 10
32.9858809076
 20
15.9769010039
 10
32.9925877477
 20
16.0024036437
 10
32.9996090324
 20
16.0279426232
 10
33.006941186
 20
16.053504936
 10
33.0145804743
 20
16.0790775636
 10
33.0225230068
 20
16.1046474823
 10
33.0307647385
 20
16.1302016701
 10
33.039301472
 20
16.1557271126
 10
33.0481288599
 20
16.1812108103
 10
33.0572424064
 20
16.2066397849
 10
33.0666374703
 20
16.2320010858
 10
33.0763092668
 20
16.257281797
 10
33.0862528702
 20
16.2824690437
 10
33.0964632166
 20
16.3075499985
 10
33.1069351059
 20
16.3325118881
 10
33.117663205
 20
16.357342
 10
33.1286420505
 20
16.3820276887
 10
33.1398660508
 20
16.4065563823
 10
33.15132949
 20
16.4309155888
 10
33.1630265298
 20
16.4550929025
 10
33.1749512133
 20
16.4790760105
 10
33.1870974673
 20
16.5028526987
 10
33.1994591062
 20
16.526410858
 10
33.2120298344
 20
16.5497384907
 10
33.2248032497
 20
16.5728237166
 10
33.2377728471
 20
16.5956547789
 10
33.2509320213
 20
16.6182200501
 10
33.2642740707
 20
16.6405080382
 10
33.2777922004
 20
16.6625073924
 10
33.2914795259
 20
16.6842069089
 10
33.3053290765
 20
16.7055955365
 10
33.3193337989
 20
16.7266623825
 10
33.3334865609
 20
16.7473967179
 10
33.3477801546
 20
16.7677879831
 10
33.3622073008
 20
16.7878257934
 10
33.3767606518
 20
16.8074999438
 10
33.391432796
 20
16.8268004147
 10
33.4062162612
 20
16.8457173767
 10
33.4211035184
 20
16.8642411959
 10
33.4360869858
 20
16.8823624385
 10
33.4511590328
 20
16.9000718756
 10
33.4663119833
 20
16.9173604882
 10
33.4815381204
 20
16.9342194715
 10
33.4968296896
 20
16.9506402397
 10
33.5121789032
 20
16.96661443
 10
33.5275779443
 20
16.982133907
 10
33.5430189704
 20
16.9971907669
 10
33.5584941177
 20
17.0117773417
 10
33.573995505
 20
17.0258862026
  0
LINE
  5
356
100
AcDbEntity
  8
DRAFT
100
AcDbLine
 62
7
  6
CONTINUOUS
 10
38.1935132365
 20
-10.2000252884
 11
36.9605004847
 21
-11.2485676813
  0
LINE
  5
357
100
AcDbEntity
  8
RACCORDO
100
AcDbLine
 62
7
  6
CONTINUOUS
 10
-32.9102313511
 20
48.1125581158
 11
37.2118779266
 21
19.9499381639
  0
LWPOLYLINE
  5
358
100
AcDbEntity
  8
RACCORDO
100
AcDbPolyline
 62
250
  6
CONTINUOUS
 90
70
 70
0
 10
34.5556308148
 20
15.6500040219
 10
34.5545094763
 20
15.6717716518
 10
34.5529004716
 20
15.6937477849
 10
34.5508045665
 20
15.7159211021
 10
34.5482227365
 20
15.7382805128
 10
34.5451562776
 20
15.7608141673
 10
34.5416068773
 20
15.7835094384
 10
34.5375764358
 20
15.8063542457
 10
34.5330669826
 20
15.8293371466
 10
34.5280808328
 20
15.8524463325
 10
34.5226205475
 20
15.875669912
 10
34.5166889512
 20
15.8989958513
 10
34.5102891221
 20
15.92241204
 10
34.5034243727
 20
15.9459063609
 10
34.4960982419
 20
15.969466705
 10
34.488314511
 20
15.9930809124
 10
34.4800771979
 20
16.0167367924
 10
34.4713905578
 20
16.040422124
 10
34.4622590782
 20
16.0641246712
 10
34.4526874758
 20
16.0878321909
 10
34.442680693
 20
16.1115324421
 10
34.4322438967
 20
16.1352131871
 10
34.4213824764
 20
16.1588621972
 10
34.4101020415
 20
16.1824672586
 10
34.3984084175
 20
16.2060161808
 10
34.3863076434
 20
16.2294968022
 10
34.3738059683
 20
16.2528969968
 10
34.3609098483
 20
16.27620468
 10
34.3476259434
 20
16.2994078152
 10
34.3339611136
 20
16.3224944194
 10
34.3199224161
 20
16.3454525697
 10
34.3055171006
 20
16.36827041
 10
34.2907526066
 20
16.3909361562
 10
34.275636559
 20
16.4134381029
 10
34.260176764
 20
16.4357646294
 10
34.2443812057
 20
16.4579042054
 10
34.2282580413
 20
16.4798453973
 10
34.2118155974
 20
16.5015768739
 10
34.1950623653
 20
16.5230874124
 10
34.1780069971
 20
16.5443659037
 10
34.1606583006
 20
16.5654013591
 10
34.1430252353
 20
16.5861829151
 10
34.1251169075
 20
16.6066998393
 10
34.1069425655
 20
16.6269415361
 10
34.0885115953
 20
16.646897552
 10
34.0698335153
 20
16.666557581
 10
34.0509179713
 20
16.6859114699
 10
34.031774732
 20
16.7049492238
 10
34.0124136836
 20
16.7236610109
 10
33.9928448248
 20
16.7420371677
 10
33.9730782616
 20
16.7600682043
 10
33.9531242021
 20
16.7777448088
 10
33.9329929513
 20
16.7950578522
 10
33.9126949055
 20
16.8119983938
 10
33.8922405474
 20
16.8285576846
 10
33.8716404403
 20
16.8447271731
 10
33.8509052227
 20
16.8604985087
 10
33.830045603
 20
16.8758635465
 10
33.8090723539
 20
16.8908143515
 10
33.7879963066
 20
16.9053432026
 10
33.7668283454
 20
16.9194425967
 10
33.7455794023
 20
16.9331052523
 10
33.7242604508
 20
16.9463241137
 10
33.702882501
 20
16.9590923539
 10
33.6814565934
 20
16.971403379
 10
33.6599937928
 20
16.9832508313
 10
33.638505183
 20
16.9946285926
 10
33.6170018615
 20
17.005530787
 10
33.5954949331
 20
17.0159517843
 10
33.573995505
 20
17.0258862026
  0
LINE
  5
359
100
AcDbEntity
  8
DRAFT
100
AcDbLine
 62
7
  6
CONTINUOUS
 10
36.9605004847
 20
-11.2485676813
 11
36.9605004847
 21
-16.9826319913
  0
LWPOLYLINE
  5
35A
100
AcDbEntity
  8
RACCORDO
100
AcDbPolyline
 62
250
  6
CONTINUOUS
 90
34
 70
0
 10
34.5556308148
 20
-47.4122467044
 10
34.5545092313
 20
-47.4350877198
 10
34.5528998891
 20
-47.4576981022
 10
34.5508036195
 20
-47.480066175
 10
34.5482215049
 20
-47.5021803867
 10
34.5451548789
 20
-47.5240293171
 10
34.541605325
 20
-47.5456016829
 10
34.5375746765
 20
-47.5668863434
 10
34.5330650147
 20
-47.5878723069
 10
34.5280786687
 20
-47.6085487356
 10
34.5226182135
 20
-47.6289049517
 10
34.516686469
 20
-47.6489304428
 10
34.5102864985
 20
-47.6686148672
 10
34.503421607
 20
-47.6879480593
 10
34.4960953399
 20
-47.7069200351
 10
34.4883114806
 20
-47.725520997
 10
34.4800740488
 20
-47.743741339
 10
34.4713872985
 20
-47.7615716515
 10
34.4622557159
 20
-47.7790027267
 10
34.4526840167
 20
-47.7960255626
 10
34.4426771439
 20
-47.8126313683
 10
34.4322402653
 20
-47.8288115681
 10
34.4213787708
 20
-47.8445578062
 10
34.4100982696
 20
-47.8598619508
 10
34.3984045872
 20
-47.8747160984
 10
34.3863037624
 20
-47.8891125781
 10
34.3738020445
 20
-47.9030439552
 10
34.3609058897
 20
-47.916503035
 10
34.3476219577
 20
-47.9294828671
 10
34.3339571089
 20
-47.9419767483
 10
34.3199184
 20
-47.9539782264
 10
34.305513081
 20
-47.9654811037
 10
34.2907485911
 20
-47.9764794397
 10
34.2741652391
 20
-47.9879460203
  0
LWPOLYLINE
  5
35B
100
AcDbEntity
  8
RACCORDO
100
AcDbPolyline
 62
250
  6
CONTINUOUS
 90
64
 70
0
 10
34.5556308458
 20
15.6500040467
 10
34.4839549318
 20
14.5993628764
 10
34.4145854832
 20
13.5501419925
 10
34.3475225
 20
12.5023413951
 10
34.2827652968
 20
11.4559498378
 10
34.220314559
 20
10.4109785669
 10
34.1601723427
 20
9.3674613213
 10
34.1023387988
 20
8.325399327
 10
34.0468137762
 20
7.284791358
 10
33.9935988788
 20
6.2456674742
 10
33.9426941774
 20
5.2080277025
 10
33.8940996011
 20
4.171872016
 10
33.8478165402
 20
3.1372303947
 10
33.8038450689
 20
2.1041029728
 10
33.762185113
 20
1.072489616
 10
33.7228378407
 20
0.0424199019
 10
33.6858033283
 20
-0.9861058347
 10
33.6510814993
 20
-2.0130879286
 10
33.6186732931
 20
-3.0384978062
 10
33.5885787733
 20
-4.0623352982
 10
33.5607978761
 20
-5.0846005739
 10
33.5353313497
 20
-6.1052655675
 10
33.5121792519
 20
-7.1243302577
 10
33.4913415248
 20
-8.1417946658
 10
33.4728187428
 20
-9.1576307907
 10
33.4566109639
 20
-10.1718387368
 10
33.4427181302
 20
-11.1844183997
 10
33.4311406415
 20
-12.1953414648
 10
33.4218785615
 20
-13.2046081326
 10
33.4149318267
 20
-14.2122182025
 10
33.4103006464
 20
-15.2181427582
 10
33.4079850908
 20
-16.2223817854
 10
33.4079850897
 20
-17.2249352985
 10
33.4103006434
 20
-18.2257744237
 10
33.4149318216
 20
-19.224899073
 10
33.4218785545
 20
-20.2223093346
 10
33.4311406326
 20
-21.2179765991
 10
33.4427181193
 20
-22.211900573
 10
33.4566109511
 20
-23.2040815499
 10
33.472818728
 20
-24.1944918007
 10
33.491341508
 20
-25.1831311351
 10
33.5121792331
 20
-26.1699997433
 10
33.5353313288
 20
-27.155070468
 10
33.5607978532
 20
-28.1383432457
 10
33.5885787482
 20
-29.1198181398
 10
33.6186732658
 20
-30.0994681831
 10
33.6510814698
 20
-31.0772934508
 10
33.6858032963
 20
-32.0532938677
 10
33.7228378064
 20
-33.0274422409
 10
33.7621850764
 20
-33.9997387931
 10
33.8038450298
 20
-34.9701833017
 10
33.8478164988
 20
-35.9387479054
 10
33.8940995575
 20
-36.9054326311
 10
33.9426941318
 20
-37.8702374518
 10
33.993598831
 20
-38.8331344259
 10
34.0468137257
 20
-39.7941234675
 10
34.1023387453
 20
-40.7532046624
 10
34.1601722877
 20
-41.7103503259
 10
34.2203145031
 20
-42.6655614551
 10
34.2827652413
 20
-43.6188370529
 10
34.3475224496
 20
-44.5701464426
 10
34.4145854439
 20
-45.5194793984
 10
34.4839549084
 20
-46.4668461462
 10
34.555630843
 20
-47.4122466857
  0
LINE
  5
35C
100
AcDbEntity
  8
DRAFT
100
AcDbLine
 62
7
  6
CONTINUOUS
 10
36.9605004847
 20
-16.9826319913
 11
38.1935132365
 21
-16.2207556688
  0
LINE
  5
35D
100
AcDbEntity
  8
RACCORDO
100
AcDbLine
 62
7
  6
CONTINUOUS
 10
38.1935132365
 20
-44.9948369403
 11
38.1935132365
 21
-16.2207556688
  0
LINE
  5
35E
100
AcDbEntity
  8
RACCORDO
100
AcDbLine
 62
7
  6
CONTINUOUS
 10
38.1935132365
 20
-10.2000252884
 11
38.1935132365
 21
18.5740559831
  0
LINE
  5
35F
100
AcDbEntity
  8
0
100
AcDbLine
 62
7
  6
CONTINUOUS
 10
19.8837831443
 20
-36.7163800188
 11
19.7974855453
 21
-36.7870708735
  0
LINE
  5
360
100
AcDbEntity
  8
0
100
AcDbLine
 62
7
  6
CONTINUOUS
 10
20.3425312254
 20
-36.9006235904
 11
20.2562336264
 21
-36.9713144451
  0
LINE
  5
361
100
AcDbEntity
  8
0
100
AcDbLine
 62
7
  6
CONTINUOUS
 10
21.3566750415
 20
-37.3079266103
 11
21.2703774425
 21
-37.3786174649
  0
LINE
  5
362
100
AcDbEntity
  8
0
100
AcDbLine
 62
7
  6
CONTINUOUS
 10
21.8154231225
 20
-37.4921701819
 11
21.7291255235
 21
-37.5628610365
  0
LINE
  5
363
100
AcDbEntity
  8
0
100
AcDbLine
 62
7
  6
CONTINUOUS
 10
22.1212494425
 20
-37.6149969267
 11
22.0349518435
 21
-37.6856877813
  0
LINE
  5
364
100
AcDbEntity
  8
0
100
AcDbLine
 62
7
  6
CONTINUOUS
 10
22.5799917895
 20
-37.7992381953
 11
22.4936941905
 21
-37.86992905
  0
LINE
  5
365
100
AcDbEntity
  8
0
100
AcDbLine
 62
7
  6
CONTINUOUS
 10
21.2099082716
 20
-39.382876847
 11
21.1235612663
 21
-39.4536081729
  0
LINE
  5
366
100
AcDbEntity
  8
0
100
AcDbLine
 62
7
  6
CONTINUOUS
 10
23.0387169343
 20
-37.9834725552
 11
22.9524193353
 21
-38.0541634098
  0
LINE
  5
367
100
AcDbEntity
  8
0
100
AcDbLine
 62
7
  6
CONTINUOUS
 10
23.7322118741
 20
-38.2619957575
 11
23.6459142751
 21
-38.3326866122
  0
LINE
  5
368
100
AcDbEntity
  8
0
100
AcDbLine
 62
7
  6
CONTINUOUS
 10
22.7109142861
 20
-39.9857147018
 11
22.6245672808
 21
-40.0564460277
  0
LINE
  5
369
100
AcDbEntity
  8
0
100
AcDbLine
 62
7
  6
CONTINUOUS
 10
24.5888696139
 20
-38.6060488187
 11
24.5025720149
 21
-38.6767396734
  0
LINE
  5
36A
100
AcDbEntity
  8
RACCORDO
100
AcDbLine
 62
250
  6
CONTINUOUS
 10
16.9013935163
 20
-41.0514587031
 11
16.8719109602
 21
-41.068774419
  0
LINE
  5
36B
100
AcDbEntity
  8
RACCORDO
100
AcDbLine
 62
250
  6
CONTINUOUS
 10
16.9296149264
 20
-41.0350990584
 11
16.9013935163
 21
-41.0514587031
  0
LINE
  5
36C
100
AcDbEntity
  8
RACCORDO
100
AcDbLine
 62
250
  6
CONTINUOUS
 10
16.9565255706
 20
-41.0197242485
 11
16.9296149264
 21
-41.0350990584
  0
LWPOLYLINE
  5
36D
100
AcDbEntity
  8
RACCORDO
100
AcDbPolyline
 62
250
  6
CONTINUOUS
 90
3
 70
0
 10
16.9943309995
 20
-40.9985672468
 10
16.9820781337
 20
-41.0053613057
 10
16.9565255706
 20
-41.0197242485
  0
LINE
  5
36E
100
AcDbEntity
  8
0
100
AcDbLine
 62
7
  6
CONTINUOUS
 10
25.2823645538
 20
-38.884572021
 11
25.1960669548
 21
-38.9552628757
  0
LINE
  5
36F
100
AcDbEntity
  8
0
100
AcDbLine
 62
7
  6
CONTINUOUS
 10
23.6283875119
 20
-40.3541926332
 11
23.5420405066
 21
-40.4249239591
  0
LINE
  5
370
100
AcDbEntity
  8
0
100
AcDbLine
 62
7
  6
CONTINUOUS
 10
24.5208312056
 20
-40.7126128231
 11
24.4344842004
 21
-40.7833441489
  0
LINE
  5
371
100
AcDbEntity
  8
0
100
AcDbLine
 62
7
  6
CONTINUOUS
 10
26.324622174
 20
-39.3031608267
 11
26.2383245751
 21
-39.3738516812
  0
LINE
  5
372
100
AcDbEntity
  8
0
100
AcDbLine
 62
7
  6
CONTINUOUS
 10
26.7833874573
 20
-39.487411307
 11
26.6970898584
 21
-39.5581021616
  0
LINE
  5
373
100
AcDbEntity
  8
0
100
AcDbLine
 62
7
  6
CONTINUOUS
 10
25.4132927844
 20
-41.0710508304
 11
25.3269457791
 21
-41.1417821563
  0
LINE
  5
374
100
AcDbEntity
  8
0
100
AcDbLine
 62
7
  6
CONTINUOUS
 10
26.4106441149
 20
-40.6481667224
 11
26.3243167278
 21
-40.718881978
  0
LINE
  5
375
100
AcDbEntity
  8
0
100
AcDbLine
 62
7
  6
CONTINUOUS
 10
27.8256568588
 20
-39.9060101961
 11
27.7393592599
 21
-39.9767010506
  0
LINE
  5
376
100
AcDbEntity
  8
0
100
AcDbLine
 62
7
  6
CONTINUOUS
 10
26.1778611099
 20
-41.3781133896
 11
26.0915141047
 21
-41.4488447153
  0
LINE
  5
377
100
AcDbEntity
  8
0
100
AcDbLine
 62
7
  6
CONTINUOUS
 10
28.8998764666
 20
-40.3374410083
 11
28.813578756
 21
-40.4081319544
  0
LINE
  5
378
100
AcDbEntity
  8
0
100
AcDbLine
 62
7
  6
CONTINUOUS
 10
28.3327722598
 20
-41.0254158278
 11
28.2464540296
 21
-41.0961235826
  0
LWPOLYLINE
  5
379
100
AcDbEntity
  8
0
100
AcDbPolyline
 62
7
  6
CONTINUOUS
 90
22
 70
0
 10
29.0499170869
 20
-41.2652037839
 10
29.0490218738
 20
-41.2654785685
 10
29.0422055676
 20
-41.2672530689
 10
29.0352365242
 20
-41.2687577775
 10
29.0281116979
 20
-41.2699925014
 10
29.0208341214
 20
-41.2709574458
 10
29.0134282565
 20
-41.2716495812
 10
29.0058961073
 20
-41.2720679234
 10
28.998235658
 20
-41.2722134675
 10
28.9904653396
 20
-41.2720861538
 10
28.9825829349
 20
-41.2716852263
 10
28.9745906513
 20
-41.27101145
 10
28.9665135584
 20
-41.2700670459
 10
28.9583528265
 20
-41.2688513996
 10
28.9501072775
 20
-41.2673651327
 10
28.9417984581
 20
-41.2656123201
 10
28.9334248089
 20
-41.2635919019
 10
28.924987884
 20
-41.2613049428
 10
28.9165139018
 20
-41.2587587052
 10
28.9080116006
 20
-41.2559556106
 10
28.8994722395
 20
-41.2528932399
 10
28.8908958176
 20
-41.2495715937
  0
LWPOLYLINE
  5
37A
100
AcDbEntity
  8
0
100
AcDbPolyline
 62
7
  6
CONTINUOUS
 90
93
 70
0
 10
29.5082135994
 20
-41.6525898278
 10
29.5115154838
 20
-41.6498496348
 10
29.5214732723
 20
-41.6411344582
 10
29.5310790795
 20
-41.6320283322
 10
29.5403317116
 20
-41.6225337062
 10
29.5492110901
 20
-41.6126706164
 10
29.5577147193
 20
-41.6024405145
 10
29.5658451387
 20
-41.5918419081
 10
29.5735898183
 20
-41.5808904211
 10
29.580949812
 20
-41.5695827349
 10
29.5879241077
 20
-41.5579221291
 10
29.5944970714
 20
-41.5459341299
 10
29.600666387
 20
-41.5336211768
 10
29.6064344067
 20
-41.5209807966
 10
29.6117924933
 20
-41.5080311522
 10
29.6167412602
 20
-41.4947681006
 10
29.621280127
 20
-41.4811957541
 10
29.6253986593
 20
-41.4673446638
 10
29.6290949893
 20
-41.4532182529
 10
29.6323710098
 20
-41.4388130751
 10
29.6352219211
 20
-41.4241493829
 10
29.6376476946
 20
-41.4092222852
 10
29.6396483797
 20
-41.3940366537
 10
29.6412192866
 20
-41.3786273922
 10
29.6423592033
 20
-41.3629988377
 10
29.6430693534
 20
-41.3471466425
 10
29.643348693
 20
-41.3310926899
 10
29.6431964178
 20
-41.3148314852
 10
29.6426133394
 20
-41.2983685164
 10
29.6416008305
 20
-41.281742148
 10
29.6401584806
 20
-41.2649574798
 10
29.6382866975
 20
-41.2480094146
 10
29.6359880745
 20
-41.2309210278
 10
29.633260969
 20
-41.2136864239
 10
29.6301070163
 20
-41.1963115052
 10
29.6265337205
 20
-41.1788370516
 10
29.622541543
 20
-41.1612687192
 10
29.6181300052
 20
-41.1436008678
 10
29.6133051941
 20
-41.1258573386
 10
29.6080646412
 20
-41.1080320721
 10
29.6024107939
 20
-41.0901311473
 10
29.5963571064
 20
-41.072196619
 10
29.5899049041
 20
-41.0542344495
 10
29.5830528319
 20
-41.0362387043
 10
29.5758103169
 20
-41.0182335985
 10
29.5681741582
 20
-41.0002131819
 10
29.5601475241
 20
-40.9821834351
 10
29.5517493894
 20
-40.9641864753
 10
29.5429818535
 20
-40.9462282874
 10
29.5338427773
 20
-40.9283029234
 10
29.5243447729
 20
-40.9104346058
 10
29.5144840681
 20
-40.8926177594
 10
29.5042643936
 20
-40.8748579981
 10
29.4937096105
 20
-40.8571963325
 10
29.4828224273
 20
-40.8396384914
 10
29.4716000893
 20
-40.8221787892
 10
29.4600582589
 20
-40.804841119
 10
29.4481928312
 20
-40.7876205483
 10
29.4360078648
 20
-40.7705220531
 10
29.423531263
 20
-40.7535843923
 10
29.4107661065
 20
-40.7368127675
 10
29.3977092661
 20
-40.7202020227
 10
29.3843793276
 20
-40.7037753838
 10
29.3707721305
 20
-40.6875287695
 10
29.356891788
 20
-40.6714663054
 10
29.3427692954
 20
-40.6556235303
 10
29.3284078211
 20
-40.6400049051
 10
29.3138041496
 20
-40.6246060129
 10
29.2989796995
 20
-40.6094490779
 10
29.2839305863
 20
-40.5945310413
 10
29.2686606504
 20
-40.579855003
 10
29.2532028959
 20
-40.5654524253
 10
29.2375602604
 20
-40.5513268752
 10
29.2217297648
 20
-40.5374748245
 10
29.205735538
 20
-40.5239170932
 10
29.1895742896
 20
-40.5106517088
 10
29.1732492729
 20
-40.4976806784
 10
29.1567944317
 20
-40.4850307915
 10
29.1402121602
 20
-40.4727046713
 10
29.1235000319
 20
-40.4606997248
 10
29.1066847593
 20
-40.4490349168
 10
29.0897639719
 20
-40.4377093472
 10
29.0727400137
 20
-40.4267239409
 10
29.0556466695
 20
-40.4161003994
 10
29.0384855015
 20
-40.4058404484
 10
29.0212549272
 20
-40.3959423812
 10
29.0039840151
 20
-40.3864227497
 10
28.9866710747
 20
-40.3772813525
 10
28.9693177827
 20
-40.3685184038
 10
28.9519582611
 20
-40.3601510771
 10
28.9346038815
 20
-40.3521850991
 10
28.9172432653
 20
-40.3446147497
 10
28.8998764107
 20
-40.3374400304
  0
LWPOLYLINE
  5
37B
100
AcDbEntity
  8
0
100
AcDbPolyline
 62
7
  6
CONTINUOUS
 90
75
 70
0
 10
29.014687787
 20
-41.3094964786
 10
29.0159585184
 20
-41.3084422993
 10
29.0208721404
 20
-41.3041026866
 10
29.0255614859
 20
-41.2995293185
 10
29.030024647
 20
-41.2947247606
 10
29.0342616126
 20
-41.2896890795
 10
29.0382696221
 20
-41.28442428
 10
29.042041917
 20
-41.2789378648
 10
29.0455727986
 20
-41.2732384393
 10
29.0488571784
 20
-41.2673347559
 10
29.0518934281
 20
-41.2612303017
 10
29.0546814381
 20
-41.2549261803
 10
29.0572188155
 20
-41.2484258233
 10
29.0595012484
 20
-41.2417380668
 10
29.0615260549
 20
-41.2348723448
 10
29.0632904587
 20
-41.2278379949
 10
29.0647931939
 20
-41.2206399465
 10
29.0660343326
 20
-41.2132813804
 10
29.0670122625
 20
-41.2057678111
 10
29.0677251138
 20
-41.1981083485
 10
29.0681728571
 20
-41.1903117234
 10
29.0683546545
 20
-41.1823867173
 10
29.0682700013
 20
-41.1743403593
 10
29.0679199223
 20
-41.1661790339
 10
29.0673042965
 20
-41.1579108984
 10
29.0664232508
 20
-41.1495441935
 10
29.0652784524
 20
-41.1410855369
 10
29.0638703009
 20
-41.1325423014
 10
29.0621997429
 20
-41.1239240035
 10
29.0602698172
 20
-41.1152406392
 10
29.0580826331
 20
-41.1065029176
 10
29.0556395708
 20
-41.0977175512
 10
29.0529428606
 20
-41.0888886104
 10
29.0499934998
 20
-41.0800219367
 10
29.046794539
 20
-41.0711292013
 10
29.0433517734
 20
-41.0622232517
 10
29.0396698961
 20
-41.0533165129
 10
29.0357509146
 20
-41.0444142109
 10
29.031596901
 20
-41.0355184159
 10
29.0272091547
 20
-41.0266338269
 10
29.0225931014
 20
-41.017773376
 10
29.0177573978
 20
-41.0089514092
 10
29.0127092147
 20
-41.000180967
 10
29.0074508837
 20
-40.9914661635
 10
29.0019841131
 20
-40.9828079101
 10
28.996310522
 20
-40.9742102534
 10
28.990437759
 20
-40.9656863336
 10
28.9843768774
 20
-40.9572505496
 10
28.9781370351
 20
-40.9489154617
 10
28.9717208963
 20
-40.9406845516
 10
28.9651300696
 20
-40.9325584766
 10
28.9583667852
 20
-40.9245411097
 10
28.9514403793
 20
-40.9166447224
 10
28.9443633273
 20
-40.9088823695
 10
28.9371459778
 20
-40.901265165
 10
28.9297916061
 20
-40.8937964377
 10
28.9223023365
 20
-40.8864773561
 10
28.9146814448
 20
-40.8793119222
 10
28.9069391592
 20
-40.8723106367
 10
28.8990881635
 20
-40.8654841962
 10
28.8911390716
 20
-40.858841601
 10
28.8830961927
 20
-40.852386331
 10
28.8749629596
 20
-40.8461205049
 10
28.8667441723
 20
-40.8400483139
 10
28.8584500107
 20
-40.8341778522
 10
28.850092049
 20
-40.8285168733
 10
28.8416802478
 20
-40.8230719567
 10
28.8332203996
 20
-40.8178467864
 10
28.8247179574
 20
-40.8128443972
 10
28.8161795789
 20
-40.8080689078
 10
28.8076145085
 20
-40.8035257635
 10
28.7990321098
 20
-40.7992197799
 10
28.790440899
 20
-40.7951551516
 10
28.7818485206
 20
-40.7913355591
 10
28.7732630764
 20
-40.7877645869
  0
LINE
  5
37C
100
AcDbEntity
  8
0
100
AcDbLine
 62
7
  6
CONTINUOUS
 10
27.6507590826
 20
-41.9696677383
 11
27.5644120773
 21
-42.0403990642
  0
LINE
  5
37D
100
AcDbEntity
  8
0
100
AcDbLine
 62
7
  6
CONTINUOUS
 10
28.8908957711
 20
-41.2495708126
 11
28.8045776338
 21
-41.3202784913
  0
LINE
  5
37E
100
AcDbEntity
  8
0
100
AcDbLine
 62
7
  6
CONTINUOUS
 10
28.4153331421
 20
-42.2767326003
 11
28.3289861369
 21
-42.3474639261
  0
LINE
  5
37F
100
AcDbEntity
  8
ASSI
100
AcDbLine
 62
7
  6
CONTINUOUS
 10
29.4218919361
 20
-41.7233006782
 11
29.5082137452
 21
-41.6525899918
  0
LINE
  5
380
100
AcDbEntity
  8
0
100
AcDbLine
 62
7
  6
CONTINUOUS
 10
29.7921848546
 20
-42.8297019713
 11
29.7058378496
 21
-42.900433297
  0
LWPOLYLINE
  5
381
100
AcDbEntity
  8
0
100
AcDbPolyline
 62
7
  6
CONTINUOUS
 90
21
 70
0
 10
29.4218918626
 20
-41.7233007384
 10
29.4148927184
 20
-41.7288795378
 10
29.4042426895
 20
-41.7368071409
 10
29.3932536636
 20
-41.7443350087
 10
29.381934677
 20
-41.7514566495
 10
29.3702946609
 20
-41.7581667903
 10
29.3583431846
 20
-41.7644603509
 10
29.3460864018
 20
-41.770334478
 10
29.3335284315
 20
-41.7757876842
 10
29.3206756809
 20
-41.7808169563
 10
29.3075379585
 20
-41.7854181876
 10
29.2941246831
 20
-41.7895885943
 10
29.2804458134
 20
-41.7933252608
 10
29.2665089111
 20
-41.7966262479
 10
29.2523200523
 20
-41.7994906943
 10
29.237887248
 20
-41.8019168224
 10
29.2232205792
 20
-41.8039027266
 10
29.2083293795
 20
-41.8054476903
 10
29.1932230958
 20
-41.8065509284
 10
29.1779112352
 20
-41.8072114845
 10
29.1624034328
 20
-41.8074288985
  0
LWPOLYLINE
  5
382
100
AcDbEntity
  8
RACCORDO
100
AcDbPolyline
 62
250
  6
CONTINUOUS
 90
70
 70
0
 10
34.5556308148
 20
-47.4122467044
 10
34.539201362
 20
-47.426138102
 10
34.5223455778
 20
-47.4397873145
 10
34.5050602049
 20
-47.4532044643
 10
34.4873289066
 20
-47.4664127272
 10
34.4691579728
 20
-47.4794042293
 10
34.4505811586
 20
-47.4921437469
 10
34.431600254
 20
-47.5046393619
 10
34.412209419
 20
-47.5168983074
 10
34.392438174
 20
-47.5288881214
 10
34.3722907982
 20
-47.5406162617
 10
34.3517645549
 20
-47.5520895955
 10
34.3308848734
 20
-47.5632775595
 10
34.3096587285
 20
-47.5741870111
 10
34.2880865656
 20
-47.5848247604
 10
34.2661895901
 20
-47.5951619333
 10
34.2439772316
 20
-47.6052050528
 10
34.221453139
 20
-47.6149609786
 10
34.1986344922
 20
-47.6244022332
 10
34.1755327844
 20
-47.6335351932
 10
34.152154695
 20
-47.6423668927
 10
34.1285139304
 20
-47.6508710299
 10
34.1046236819
 20
-47.6590539766
 10
34.0804932753
 20
-47.6669230361
 10
34.0561335564
 20
-47.6744529542
 10
34.0315590284
 20
-47.6816501947
 10
34.0067812314
 20
-47.6885223749
 10
33.9818088123
 20
-47.6950452307
 10
33.9566572547
 20
-47.7012253795
 10
33.9313398511
 20
-47.707070764
 10
33.9058636444
 20
-47.7125581072
 10
33.8802448089
 20
-47.7176942207
 10
33.8544979615
 20
-47.7224873589
 10
33.8286290516
 20
-47.7269152543
 10
33.8026547067
 20
-47.7309849428
 10
33.7765904887
 20
-47.7347049663
 10
33.7504416564
 20
-47.7380540959
 10
33.7242250979
 20
-47.7410396175
 10
33.6979570001
 20
-47.7436703369
 10
33.6716422326
 20
-47.7459260826
 10
33.6452977905
 20
-47.7478144181
 10
33.6189402235
 20
-47.7493443961
 10
33.5925742216
 20
-47.7504969036
 10
33.5662167644
 20
-47.7512798118
 10
33.5398845544
 20
-47.7517024149
 10
33.513582235
 20
-47.7517466357
 10
33.487326672
 20
-47.7514206893
 10
33.4611345557
 20
-47.7507341166
 10
33.4350105529
 20
-47.7496698309
 10
33.4089713372
 20
-47.7482364311
 10
33.3830334558
 20
-47.7464437223
 10
33.3572016235
 20
-47.7442755396
 10
33.3314922557
 20
-47.7417409107
 10
33.3059216541
 20
-47.7388499321
 10
33.2804945704
 20
-47.7355872715
 10
33.2552271064
 20
-47.7319624343
 10
33.2301352369
 20
-47.7279858438
 10
33.2052237148
 20
-47.7236428933
 10
33.1805082798
 20
-47.7189436172
 10
33.1560045133
 20
-47.7138988079
 10
33.1317171184
 20
-47.7084944625
 10
33.1076614284
 20
-47.7027411985
 10
33.0838525757
 20
-47.696650224
 10
33.060295154
 20
-47.6902080042
 10
33.0370040479
 20
-47.6834257935
 10
33.0139938925
 20
-47.6763152666
 10
32.9912691093
 20
-47.6688632146
 10
32.9688408114
 20
-47.6610731258
 10
32.9467264484
 20
-47.6529655812
 10
32.9249398267
 20
-47.6445531294
  0
LINE
  5
383
100
AcDbEntity
  8
RACCORDO
100
AcDbLine
 62
250
  6
CONTINUOUS
 10
34.555630843
 20
-47.4122466857
 11
38.1935132365
 21
-44.9948369403
  0
LINE
  5
384
100
AcDbEntity
  8
RACCORDO
100
AcDbLine
 62
7
  6
CONTINUOUS
 10
34.2741652391
 20
-47.9879460203
 11
37.9279827325
 21
-45.5599472394
  0
ARC
  5
385
100
AcDbEntity
  8
RACCORDO
100
AcDbCircle
 62
7
  6
CONTINUOUS
 10
-36.0054491701
 20
-19.0293509829
 40
1.2
100
AcDbArc
 50
183.8136323803
 51
248.1191759212
  0
ARC
  5
386
100
AcDbEntity
  8
RACCORDO
100
AcDbCircle
 62
7
  6
CONTINUOUS
 10
-36.0054491701
 20
44.0328997434
 40
1.2
100
AcDbArc
 50
134.9660429801
 51
176.6009472947
  0
ARC
  5
387
100
AcDbEntity
  8
RACCORDO
100
AcDbCircle
 62
7
  6
CONTINUOUS
 10
33.6100179105
 20
-46.9884920064
 40
1.2
100
AcDbArc
 50
248.1182682853
 51
303.6044409853
  0
ELLIPSE
  5
388
100
AcDbEntity
  8
RACCORDO
100
AcDbEllipse
 62
7
  6
CONTINUOUS
 10
-32.9075352157
 20
47.1271438418
 30
0.0
 11
-0.7618815961
 21
0.9313267424
 31
0.0
 40
0.6692102709
 41
-0.8824097279
 42
0.0664715218
  0
ELLIPSE
  5
389
100
AcDbEntity
  8
0
100
AcDbEllipse
 62
7
  6
CONTINUOUS
 10
258.2719452004
 20
172.2523178864
 30
0.0
 11
235.3925067959
 21
335.8095818764
 31
0.0
 40
0.2720054553
 41
-3.8638666081
 42
-3.8590327717
  0
ELLIPSE
  5
38A
100
AcDbEntity
  8
0
100
AcDbEllipse
 62
7
  6
CONTINUOUS
 10
240.4405363473
 20
179.4138136815
 30
0.0
 11
16.0615219061
 21
414.957259275
 31
0.0
 40
0.607249933
 41
-4.1410122386
 42
-4.1339913201
  0
ELLIPSE
  5
38B
100
AcDbEntity
  8
0
100
AcDbEllipse
 62
7
  6
CONTINUOUS
 10
260.6299506032
 20
171.3052897566
 30
0.0
 11
227.1729845798
 21
339.1515874259
 31
0.0
 40
0.2934427194
 41
-3.8653789605
 42
-3.8608071574
  0
ELLIPSE
  5
38C
100
AcDbEntity
  8
0
100
AcDbEllipse
 62
7
  6
CONTINUOUS
 10
244.7046343636
 20
177.7012557863
 30
0.0
 11
33.3842196623
 21
410.5624831537
 31
0.0
 40
0.5985901145
 41
-4.108507524
 42
-4.1038772625
  0
ELLIPSE
  5
38D
100
AcDbEntity
  8
0
100
AcDbEllipse
 62
7
  6
CONTINUOUS
 10
263.2399333184
 20
170.2570618575
 30
0.0
 11
235.392903693
 21
335.8094211342
 31
0.0
 40
0.2720044164
 41
-3.8638665767
 42
-3.8568456582
  0
ELLIPSE
  5
38E
100
AcDbEntity
  8
0
100
AcDbEllipse
 62
7
  6
CONTINUOUS
 10
246.8817128018
 20
176.8268920044
 30
0.0
 11
16.067266619
 21
414.9558655681
 31
0.0
 40
0.6072474013
 41
-4.1353623892
 42
-4.1339813657
  0
ELLIPSE
  5
38F
100
AcDbEntity
  8
0
100
AcDbEllipse
 62
7
  6
CONTINUOUS
 10
246.8814093325
 20
176.8270138846
 30
0.0
 11
16.0617916375
 21
414.9571938372
 31
0.0
 40
0.6072498141
 41
-4.1388255664
 42
-4.1367060312
  0
ELLIPSE
  5
390
100
AcDbEntity
  8
0
100
AcDbEllipse
 62
7
  6
CONTINUOUS
 10
243.486341957
 20
178.1905494826
 30
0.0
 11
-90.7105689589
 21
434.7284909541
 31
0.0
 40
0.6228552644
 41
-4.3162858125
 42
-4.3135706674
  0
ELLIPSE
  5
391
100
AcDbEntity
  8
RACCORDO
100
AcDbEllipse
 62
7
  6
CONTINUOUS
 10
37.2091817913
 20
-44.5968111053
 30
0.0
 11
-0.7618815961
 21
0.9313267424
 31
0.0
 40
0.6692102709
 41
-3.2080641753
 42
-2.4559451104
  0
ELLIPSE
  5
392
100
AcDbEntity
  8
RACCORDO
100
AcDbEllipse
 62
7
  6
CONTINUOUS
 10
37.2091817913
 20
18.9666895474
 30
0.0
 11
-0.7610604989
 21
0.9278279336
 31
0.0
 40
0.6728141967
 41
-2.454628732
 42
-0.886571461
  0
ELLIPSE
  5
393
100
AcDbEntity
  8
RACCORDO
100
AcDbEllipse
 62
7
  6
CONTINUOUS
 10
-17.8289178538
 20
-11.5683776356
 30
0.0
 11
0.1267473929
 21
-0.1547156148
 31
0.0
 40
0.67100504
 41
-2.4553314853
 42
-0.8845351585
  0
ELLIPSE
  5
394
100
AcDbEntity
  8
0
100
AcDbEllipse
 62
7
  6
CONTINUOUS
 10
240.8992981351
 20
179.229564605
 30
0.0
 11
16.0617983412
 21
414.9571922109
 31
0.0
 40
0.6072498112
 41
-4.1410117579
 42
-4.1361779214
  0
ELLIPSE
  5
395
100
AcDbEntity
  8
0
100
AcDbEllipse
 62
7
  6
CONTINUOUS
 10
240.8992981351
 20
179.229564605
 30
0.0
 11
16.0557774247
 21
414.8016415953
 31
0.0
 40
0.6072498112
 41
-4.1409825241
 42
-4.1364161818
  0
ELLIPSE
  5
396
100
AcDbEntity
  8
0
100
AcDbEllipse
 62
7
  6
CONTINUOUS
 10
258.7308836141
 20
172.0679978729
 30
0.0
 11
235.3942837073
 21
335.8088622325
 31
0.0
 40
0.2720008041
 41
-3.8638663888
 42
-3.8568454879
  0
ELLIPSE
  5
397
100
AcDbEntity
  8
0
100
AcDbEllipse
 62
7
  6
CONTINUOUS
 10
258.7308836141
 20
172.0679978729
 30
0.0
 11
235.3060439408
 21
335.6829811146
 31
0.0
 40
0.2720008041
 41
-3.8638371551
 42
-3.8568136038
  0
ELLIPSE
  5
398
100
AcDbEntity
  8
0
100
AcDbEllipse
 62
7
  6
CONTINUOUS
 10
245.163260446
 20
177.5170612121
 30
0.0
 11
33.3818932515
 21
410.5630995349
 31
0.0
 40
0.5985914202
 41
-4.1109022026
 42
-4.1063303995
  0
ELLIPSE
  5
399
100
AcDbEntity
  8
0
100
AcDbEllipse
 62
7
  6
CONTINUOUS
 10
245.163260446
 20
177.5170612121
 30
0.0
 11
33.3693797341
 21
410.4091960864
 31
0.0
 40
0.5985914202
 41
-4.1108729689
 42
-4.1066216416
  0
ELLIPSE
  5
39A
100
AcDbEntity
  8
0
100
AcDbEllipse
 62
7
  6
CONTINUOUS
 10
261.0885994934
 20
171.1210860223
 30
0.0
 11
227.1721127689
 21
339.1519432646
 31
0.0
 40
0.2934449826
 41
-3.8629885346
 42
-3.8583582906
  0
ELLIPSE
  5
39B
100
AcDbEntity
  8
0
100
AcDbEllipse
 62
7
  6
CONTINUOUS
 10
261.0885994934
 20
171.1210860223
 30
0.0
 11
227.0869551607
 21
339.0248089612
 31
0.0
 40
0.2934449826
 41
-3.8619679559
 42
-3.8583264066
  0
ELLIPSE
  5
39C
100
AcDbEntity
  8
0
100
AcDbEllipse
 62
7
  6
CONTINUOUS
 10
247.3400791285
 20
176.642801754
 30
0.0
 11
16.0602374975
 21
414.9575708757
 31
0.0
 40
0.607250499
 41
-4.1410144896
 42
-4.1339935711
  0
ELLIPSE
  5
39D
100
AcDbEntity
  8
0
100
AcDbEllipse
 62
7
  6
CONTINUOUS
 10
247.3400791285
 20
176.642801754
 30
0.0
 11
16.0542171661
 21
414.8020201181
 31
0.0
 40
0.607250499
 41
-4.1409852558
 42
-4.133961687
  0
ELLIPSE
  5
39E
100
AcDbEntity
  8
0
100
AcDbEllipse
 62
7
  6
CONTINUOUS
 10
263.6987857536
 20
170.072776375
 30
0.0
 11
235.3938623313
 21
335.8090328885
 31
0.0
 40
0.2720019071
 41
-3.8582265809
 42
-3.8568455574
  0
ELLIPSE
  5
39F
100
AcDbEntity
  8
0
100
AcDbEllipse
 62
7
  6
CONTINUOUS
 10
263.6987857536
 20
170.072776375
 30
0.0
 11
235.3056227227
 21
335.6831517066
 31
0.0
 40
0.2720019071
 41
-3.8578475003
 42
-3.8568136734
  0
ELLIPSE
  5
3A0
100
AcDbEntity
  8
0
100
AcDbEllipse
 62
7
  6
CONTINUOUS
 10
263.6982910144
 20
170.0729750734
 30
0.0
 11
235.3894345346
 21
335.8108261363
 31
0.0
 40
0.2720134973
 41
-3.8616807843
 42
-3.859561249
  0
ELLIPSE
  5
3A1
100
AcDbEntity
  8
0
100
AcDbEllipse
 62
7
  6
CONTINUOUS
 10
263.6982910144
 20
170.0729750734
 30
0.0
 11
235.3011965859
 21
335.6849442822
 31
0.0
 40
0.2720134973
 41
-3.8610354186
 42
-3.8595303903
  0
ELLIPSE
  5
3A2
100
AcDbEntity
  8
0
100
AcDbEllipse
 62
7
  6
CONTINUOUS
 10
244.0031396802
 20
177.982991866
 30
0.0
 11
-90.7087522322
 21
434.7282363959
 31
0.0
 40
0.6228554534
 41
-4.3164518154
 42
-4.31356781
  0
ELLIPSE
  5
3A3
100
AcDbEntity
  8
0
100
AcDbEllipse
 62
7
  6
CONTINUOUS
 10
244.0031396802
 20
177.982991866
 30
0.0
 11
-90.6747492012
 21
434.565274418
 31
0.0
 40
0.6228554534
 41
-4.3162696706
 42
-4.313535926
  0
ELLIPSE
  5
3A4
100
AcDbEntity
  8
0
100
AcDbEllipse
 62
7
  6
CONTINUOUS
 10
257.022085885
 20
172.7542895648
 30
0.0
 11
149.1498233166
 21
371.3143587553
 31
0.0
 40
0.469812934
 41
-3.9229889869
 42
-3.9202738243
  0
ELLIPSE
  5
3A5
100
AcDbEntity
  8
0
100
AcDbEllipse
 62
7
  6
CONTINUOUS
 10
257.022085885
 20
172.7542895648
 30
0.0
 11
149.0939130991
 21
371.1751680673
 31
0.0
 40
0.469812934
 41
-3.9226109093
 42
-3.9202419403
  0
ENDSEC
  0
SECTION
  2
OBJECTS
  0
DICTIONARY
  5
C
100
AcDbDictionary
280
0
281
1
  3
ACAD_GROUP
350
D
  3
ACAD_MLINESTYLE
350
17
  3
ACAD_LAYOUT
350
1A
  3
ACAD_PLOTSETTINGS
350
19
  3
ACAD_PLOTSTYLENAME
350
E
  0
DICTIONARY
  5
D
102
{ACAD_REACTORS
330
C
102
}
100
AcDbDictionary
280
0
281
1
  0
ACDBDICTIONARYWDFLT
  5
E
102
{ACAD_REACTORS
330
C
102
}
100
AcDbDictionary
281
1
  3
Normal
350
F
100
AcDbDictionaryWithDefault
340
F
  0
DICTIONARY
  5
17
102
{ACAD_REACTORS
330
C
102
}
100
AcDbDictionary
280
0
281
1
  3
Standard
350
18
  0
DICTIONARY
  5
19
102
{ACAD_REACTORS
330
C
102
}
100
AcDbDictionary
281
1
  0
DICTIONARY
  5
1A
102
{ACAD_REACTORS
330
C
102
}
100
AcDbDictionary
281
1
  3
Model
350
3A6
  3
Layout1
350
3A7
  0
ACDBPLACEHOLDER
  5
F
102
{ACAD_REACTORS
330
E
102
}
  0
MLINESTYLE
  5
18
102
{ACAD_REACTORS
330
17
102
}
100
AcDbMlineStyle
  2
STANDARD
 70
0
  3

 62
256
 51
90.0
 52
90.0
 71
2
 49
0.5
 62
256
  6
BYLAYER
 49
-0.5
 62
256
  6
BYLAYER
  0
LAYOUT
  5
3A6
102
{ACAD_REACTORS
330
1A
102
}
100
AcDbPlotSettings
  1

  2
none_device
  4
ISO_A4_(297.00_x_210.00_MM)
  6

 40
0.0
 41
0.0
 42
0.0
 43
0.0
 44
297.0
 45
210.0
 46
0.0
 47
0.0
 48
0.0
 49
0.0
140
0.0
141
0.0
142
1.0
143
1.0
 70
1024
 72
1
 73
0
 74
0
  7

 75
0
147
1.0
148
0.0
149
0.0
100
AcDbLayout
  1
Model
 70
0
 71
0
 10
0.0
 20
0.0
 11
297.0
 21
210.0
 12
0.0
 22
0.0
 32
0.0
 14
0.0
 24
0.0
 34
0.0
 15
0.0
 25
0.0
 35
0.0
146
0.0
 13
0.0
 23
0.0
 33
0.0
 16
1.0
 26
0.0
 36
0.0
 17
0.0
 27
1.0
 37
0.0
 76
0
330
212
345
0
346
0
  0
LAYOUT
  5
3A7
102
{ACAD_REACTORS
330
1A
102
}
100
AcDbPlotSettings
  1

  2
none_device
  4
ISO_A4_(297.00_x_210.00_MM)
  6

 40
0.0
 41
0.0
 42
0.0
 43
0.0
 44
297.0
 45
210.0
 46
0.0
 47
0.0
 48
0.0
 49
0.0
140
0.0
141
0.0
142
1.0
143
1.0
 70
0
 72
1
 73
0
 74
0
  7

 75
0
147
1.0
148
0.0
149
0.0
100
AcDbLayout
  1
Layout1
 70
0
 71
1
 10
0.0
 20
0.0
 11
297.0
 21
210.0
 12
0.0
 22
0.0
 32
0.0
 14
0.0
 24
0.0
 34
0.0
 15
0.0
 25
0.0
 35
0.0
146
0.0
 13
0.0
 23
0.0
 33
0.0
 16
1.0
 26
0.0
 36
0.0
 17
0.0
 27
1.0
 37
0.0
 76
0
330
213
345
0
346
0
  0
ENDSEC
  0
EOF
