  0
SECTION
  2
HEADER
  9
$ACADVER
  1
AC1024
  9
$DWGCODEPAGE
  3
ANSI_1252
  9
$EXTMAX
 10
297.0
 20
210.0
 30
0.0
  9
$EXTMIN
 10
0.0
 20
0.0
 30
0.0
  9
$LIMMIN
 10
0.0
 20
0.0
  9
$LIMMAX
 10
297.0
 20
210.0
  9
$VIEWCTR
 10
148.5
 20
105.0
  9
$VIEWSIZE
 40
210.0
  9
$CLAYER
  8
0
  9
$LTSCALE
 40
16.335
  9
$CELTYPE
  6
BYLAYER
  9
$DIMSCALE
 40
1.0
  9
$DIMASZ
 40
3.0
  9
$DIMEXO
 40
0.5
  9
$DIMDLI
 40
11.286
  9
$DIMEXE
 40
1.5
  9
$DIMCEN
 40
2.673
  9
$DIMLFAC
 40
1.0
  9
$DIMBLK
  1
_FILLED
  9
$DIMALT
 70
0
  9
$DIMALTF
 40
0.0393700787
  9
$DIMTXT
 40
3.0
  9
$DIMTOL
 70
1
  9
$DIMLIM
 70
0
  9
$DIMTFAC
 40
1.0
  9
$DIMTP
 40
0.01
  9
$DIMTM
 40
0.01
  9
$DIMGAP
 40
0.625
  9
$DIMDSEP
 70
44
  9
$AUNITS
 70
0
  9
$PDMODE
 70
3
  9
$PDSIZE
 40
3.0
  9
$HANDSEED
  5
5D9
  9
$TILEMODE
 70
1
  9
$MEASUREMENT
 70
1
  9
$INSUNITS
 70
4
  0
ENDSEC
  0
SECTION
  2
CLASSES
  0
CLASS
  1
ACDBDICTIONARYWDFLT
  2
AcDbDictionaryWithDefault
  3
AutoCAD 2000
 90
0
 91
1
280
0
281
0
  0
CLASS
  1
ACDBPLACEHOLDER
  2
AcDbPlaceHolder
  3
AutoCAD 2000
 90
0
 91
1
280
0
281
0
  0
CLASS
  1
LAYOUT
  2
AcDbLayout
  3
AutoCAD 2000
 90
0
 91
0
280
0
281
0
  0
ENDSEC
  0
SECTION
  2
TABLES
  0
TABLE
  2
VPORT
  5
8
100
AcDbSymbolTable
 70
2
  0
VPORT
  5
1F4
100
AcDbSymbolTableRecord
100
AcDbViewportTableRecord
  2
*ACTIVE
 70
0
 10
0.0
 20
0.0
 11
1.0
 21
1.0
 12
148.5
 22
105.0
 13
0.0
 23
0.0
 14
1.0
 24
1.0
 15
0.0
 25
0.0
 16
0.0
 26
0.0
 36
1.0
 17
0.0
 27
0.0
 37
0.0
 40
210.0
 41
1.4142857143
 42
50.0
 43
0.0
 44
0.0
 50
0.0
 51
0.0
 71
0
 72
100
 73
1
 74
1
 75
0
 76
0
 77
0
 78
0
  0
ENDTAB
  0
TABLE
  2
LTYPE
  5
5
100
AcDbSymbolTable
 70
6
  0
LTYPE
  5
14
100
AcDbSymbolTableRecord
100
AcDbLinetypeTableRecord
  2
BYBLOCK
 70
0
  3

 72
65
 73
0
 40
0.0
  0
LTYPE
  5
15
100
AcDbSymbolTableRecord
100
AcDbLinetypeTableRecord
  2
BYLAYER
 70
0
  3

 72
65
 73
0
 40
0.0
  0
LTYPE
  5
16
100
AcDbSymbolTableRecord
100
AcDbLinetypeTableRecord
  2
CONTINUOUS
 70
64
  3
Solid line
 72
65
 73
0
 40
0.0
  0
LTYPE
  5
1F5
100
AcDbSymbolTableRecord
100
AcDbLinetypeTableRecord
  2
CENTER
 70
64
  3
____ _ ____ _ ____ _ ____ _ ____ _ ____ _ ____
 72
65
 73
4
 40
0.6
 49
0.375
 74
0
 49
-0.075
 74
0
 49
0.075
 74
0
 49
-0.075
 74
0
  0
LTYPE
  5
1F6
100
AcDbSymbolTableRecord
100
AcDbLinetypeTableRecord
  2
HIDDEN
 70
64
  3
- - - - - - - - - - - - - - - - - - - -
 72
65
 73
2
 40
0.2
 49
0.1
 74
0
 49
-0.1
 74
0
  0
LTYPE
  5
1F7
100
AcDbSymbolTableRecord
100
AcDbLinetypeTableRecord
  2
PHANTOM
 70
64
  3
_____ _ _ _____ _ _ _____ _ _ _____
 72
65
 73
6
 40
0.8
 49
0.45
 74
0
 49
-0.05
 74
0
 49
0.1
 74
0
 49
-0.05
 74
0
 49
0.1
 74
0
 49
-0.05
 74
0
  0
LTYPE
  5
1F8
100
AcDbSymbolTableRecord
100
AcDbLinetypeTableRecord
  2
DOT
 70
64
  3
. . . . . . . . . . . . . . . . . . . .
 72
65
 73
2
 40
0.2
 49
0.1
 74
0
 49
-0.1
 74
0
  0
LTYPE
  5
1F9
100
AcDbSymbolTableRecord
100
AcDbLinetypeTableRecord
  2
DASHED
 70
64
  3
- - - - - - - - - - - - - - - - - - - -
 72
65
 73
2
 40
0.2
 49
0.1
 74
0
 49
-0.1
 74
0
  0
ENDTAB
  0
TABLE
  2
LAYER
  5
2
100
AcDbSymbolTable
 70
36
  0
LAYER
  5
10
100
AcDbSymbolTableRecord
100
AcDbLayerTableRecord
  2
0
 70
0
 62
7
  6
CONTINUOUS
370
-3
390
F
  0
LAYER
  5
1FA
100
AcDbSymbolTableRecord
100
AcDbLayerTableRecord
  2
DEFAULT_1
 70
0
 62
7
  6
CENTER
370
-3
390
F
  0
LAYER
  5
1FB
100
AcDbSymbolTableRecord
100
AcDbLayerTableRecord
  2
DEFAULT_2
 70
0
 62
7
  6
HIDDEN
370
-3
390
F
  0
LAYER
  5
1FC
100
AcDbSymbolTableRecord
100
AcDbLayerTableRecord
  2
DEFAULT_3
 70
0
 62
7
  6
PHANTOM
370
-3
390
F
  0
LAYER
  5
1FD
100
AcDbSymbolTableRecord
100
AcDbLayerTableRecord
  2
ASSI
 70
0
 62
7
  6
CONTINUOUS
370
-3
390
F
  0
LAYER
  5
1FE
100
AcDbSymbolTableRecord
100
AcDbLayerTableRecord
  2
COORDINATE
 70
0
 62
7
  6
CONTINUOUS
370
-3
390
F
  0
LAYER
  5
1FF
100
AcDbSymbolTableRecord
100
AcDbLayerTableRecord
  2
COORD_ORIGINE
 70
0
 62
7
  6
CONTINUOUS
370
-3
390
F
  0
LAYER
  5
200
100
AcDbSymbolTableRecord
100
AcDbLayerTableRecord
  2
COPY_PUBLISH
 70
0
 62
7
  6
CONTINUOUS
370
-3
390
F
  0
LAYER
  5
201
100
AcDbSymbolTableRecord
100
AcDbLayerTableRecord
  2
COSMETIC
 70
0
 62
7
  6
CONTINUOUS
370
-3
390
F
  0
LAYER
  5
202
100
AcDbSymbolTableRecord
100
AcDbLayerTableRecord
  2
COSMETICHE
 70
0
 62
7
  6
CONTINUOUS
370
-3
390
F
  0
LAYER
  5
203
100
AcDbSymbolTableRecord
100
AcDbLayerTableRecord
  2
COSMETICI
 70
0
 62
7
  6
CONTINUOUS
370
-3
390
F
  0
LAYER
  5
204
100
AcDbSymbolTableRecord
100
AcDbLayerTableRecord
  2
CURVE
 70
0
 62
7
  6
CONTINUOUS
370
-3
390
F
  0
LAYER
  5
205
100
AcDbSymbolTableRecord
100
AcDbLayerTableRecord
  2
DRAFT
 70
0
 62
7
  6
CONTINUOUS
370
-3
390
F
  0
LAYER
  5
206
100
AcDbSymbolTableRecord
100
AcDbLayerTableRecord
  2
IMPORT_IGES
 70
0
 62
7
  6
CONTINUOUS
370
-3
390
F
  0
LAYER
  5
207
100
AcDbSymbolTableRecord
100
AcDbLayerTableRecord
  2
INTFCLR_11
 70
0
 62
7
  6
CONTINUOUS
370
-3
390
F
  0
LAYER
  5
208
100
AcDbSymbolTableRecord
100
AcDbLayerTableRecord
  2
INTF_1
 70
0
 62
7
  6
CONTINUOUS
370
-3
390
F
  0
LAYER
  5
209
100
AcDbSymbolTableRecord
100
AcDbLayerTableRecord
  2
INTF_11
 70
0
 62
7
  6
CONTINUOUS
370
-3
390
F
  0
LAYER
  5
20A
100
AcDbSymbolTableRecord
100
AcDbLayerTableRecord
  2
INTF_3
 70
0
 62
7
  6
CONTINUOUS
370
-3
390
F
  0
LAYER
  5
20B
100
AcDbSymbolTableRecord
100
AcDbLayerTableRecord
  2
NOTE
 70
0
 62
7
  6
CONTINUOUS
370
-3
390
F
  0
LAYER
  5
20C
100
AcDbSymbolTableRecord
100
AcDbLayerTableRecord
  2
PIANI
 70
0
 62
7
  6
CONTINUOUS
370
-3
390
F
  0
LAYER
  5
20D
100
AcDbSymbolTableRecord
100
AcDbLayerTableRecord
  2
PIANI_ORIGINE
 70
0
 62
7
  6
CONTINUOUS
370
-3
390
F
  0
LAYER
  5
20E
100
AcDbSymbolTableRecord
100
AcDbLayerTableRecord
  2
PUNTI
 70
0
 62
7
  6
CONTINUOUS
370
-3
390
F
  0
LAYER
  5
20F
100
AcDbSymbolTableRecord
100
AcDbLayerTableRecord
  2
RACCORDO
 70
0
 62
7
  6
CONTINUOUS
370
-3
390
F
  0
LAYER
  5
210
100
AcDbSymbolTableRecord
100
AcDbLayerTableRecord
  2
SIMBOLI
 70
0
 62
7
  6
CONTINUOUS
370
-3
390
F
  0
LAYER
  5
211
100
AcDbSymbolTableRecord
100
AcDbLayerTableRecord
  2
SMUSSO
 70
0
 62
7
  6
CONTINUOUS
370
-3
390
F
  0
LAYER
  5
212
100
AcDbSymbolTableRecord
100
AcDbLayerTableRecord
  2
SNAPLINE
 70
0
 62
7
  6
CONTINUOUS
370
-3
390
F
  0
LAYER
  5
213
100
AcDbSymbolTableRecord
100
AcDbLayerTableRecord
  2
SUPERFICI
 70
0
 62
7
  6
CONTINUOUS
370
-3
390
F
  0
LAYER
  5
214
100
AcDbSymbolTableRecord
100
AcDbLayerTableRecord
  2
TRASH
 70
0
 62
7
  6
CONTINUOUS
370
-3
390
F
  0
LAYER
  5
215
100
AcDbSymbolTableRecord
100
AcDbLayerTableRecord
  2
XSEC_DATUMS
 70
0
 62
7
  6
CONTINUOUS
370
-3
390
F
  0
LAYER
  5
216
100
AcDbSymbolTableRecord
100
AcDbLayerTableRecord
  2
___SHELL
 70
0
 62
7
  6
CONTINUOUS
370
-3
390
F
  0
ENDTAB
  0
TABLE
  2
STYLE
  5
3
100
AcDbSymbolTable
 70
1
  0
STYLE
  5
11
100
AcDbSymbolTableRecord
100
AcDbTextStyleTableRecord
  2
STANDARD
 70
0
 40
0.0
 41
0.8
 50
0.0
 71
0
 42
0.2
  3
txt
  4

  0
STYLE
  5
217
100
AcDbSymbolTableRecord
100
AcDbTextStyleTableRecord
  2
TEXTSTYLE_1
 70
0
 40
0.0
 41
0.8
 50
0.0
 71
0
 42
0.2
  3
gdt
  4

  0
ENDTAB
  0
TABLE
  2
VIEW
  5
6
100
AcDbSymbolTable
 70
0
  0
ENDTAB
  0
TABLE
  2
UCS
  5
7
100
AcDbSymbolTable
 70
0
  0
ENDTAB
  0
TABLE
  2
APPID
  5
9
100
AcDbSymbolTable
 70
1
  0
APPID
  5
218
100
AcDbSymbolTableRecord
100
AcDbRegAppTableRecord
  2
ACAD
 70
0
  0
ENDTAB
  0
TABLE
  2
BLOCK_RECORD
  5
1
100
AcDbSymbolTable
 70
0
  0
BLOCK_RECORD
  5
219
100
AcDbSymbolTableRecord
100
AcDbBlockTableRecord
  2
*Model_Space
  0
BLOCK_RECORD
  5
21A
100
AcDbSymbolTableRecord
100
AcDbBlockTableRecord
  2
*Paper_Space
  0
BLOCK_RECORD
  5
21B
100
AcDbSymbolTableRecord
100
AcDbBlockTableRecord
  2
_FILLED
  0
ENDTAB
  0
TABLE
  2
DIMSTYLE
  5
A
100
AcDbSymbolTable
 70
1
100
AcDbDimStyleTable
 71
0
  0
DIMSTYLE
105
21C
100
AcDbSymbolTableRecord
100
AcDbDimStyleTableRecord
  2
STANDARD
 70
0
  3

  4

 40
1.0
 41
3.0
 42
0.5
 43
0.38
 44
1.5
 45
0.0
 46
0.0
 47
0.01
 48
0.01
140
3.0
141
0.09
142
0.0
143
25.4
144
1.0
145
0.0
146
1.0
147
0.625
 71
1
 72
0
 73
0
 74
0
 75
0
 76
0
 77
1
 78
8
 79
2
170
0
171
1
172
0
173
0
174
0
175
0
176
0
177
0
178
0
270
2
179
2
271
2
272
2
273
2
274
2
275
0
280
0
281
0
282
0
283
1
284
8
285
0
286
0
287
3
288
0
340
11
278
44
341
21B
342
21B
343
21B
344
21B
  0
ENDTAB
  0
ENDSEC
  0
SECTION
  2
BLOCKS
  0
BLOCK
  5
20
100
AcDbEntity
  8
0
100
AcDbBlockBegin
  2
*Model_Space
 70
0
 10
0.0
 20
0.0
 30
0.0
  3
*Model_Space
  1

  0
ENDBLK
  5
21
100
AcDbEntity
  8
0
100
AcDbBlockEnd
  0
BLOCK
  5
1C
100
AcDbEntity
  8
0
100
AcDbBlockBegin
  2
*Paper_Space
 70
0
 10
0.0
 20
0.0
 30
0.0
  3
*Paper_Space
  1

  0
ENDBLK
  5
1D
100
AcDbEntity
  8
0
100
AcDbBlockEnd
  0
BLOCK
  5
21D
100
AcDbEntity
  8
0
100
AcDbBlockBegin
  2
_FILLED
 70
64
 10
0.0
 20
0.0
  3
_FILLED
  1

  0
SOLID
  5
21E
100
AcDbEntity
  8
0
  6
BYBLOCK
 62
0
100
AcDbTrace
 10
0.0
 20
0.0
 11
-1.0
 21
0.3166666667
 12
-1.0
 22
-0.3166666667
 13
-1.0
 23
-0.3166666667
  0
ENDBLK
  5
21F
100
AcDbEntity
  8
0
  6
BYBLOCK
 62
0
100
AcDbBlockEnd
  0
ENDSEC
  0
SECTION
  2
ENTITIES
  0
LWPOLYLINE
  5
220
100
AcDbEntity
  8
ASSI
100
AcDbPolyline
 62
7
  6
CONTINUOUS
 90
12
 70
0
 10
-12.2305944463
 20
25.1059423379
 10
-12.2346674607
 20
25.1022968117
 10
-12.25240256
 20
25.0843519309
 10
-12.2680236614
 20
25.0651857624
 10
-12.2820698788
 20
25.0443745713
 10
-12.2944481215
 20
25.0220828462
 10
-12.3046975767
 20
24.9993574591
 10
-12.313097847
 20
24.9758143186
 10
-12.3196825724
 20
24.9510540369
 10
-12.3240451265
 20
24.9262452538
 10
-12.3261571573
 20
24.9015666212
 10
-12.3263654867
 20
24.8909720134
  0
LINE
  5
221
100
AcDbEntity
  8
ASSI
100
AcDbLine
 62
7
  6
CONTINUOUS
 10
-12.2306698246
 20
25.1058768849
 11
-10.9691106166
 21
26.2109116241
  0
LINE
  5
222
100
AcDbEntity
  8
ASSI
100
AcDbLine
 62
250
  6
CONTINUOUS
 10
-12.1008919255
 20
25.1175962055
 11
-10.8400760489
 21
26.2219798401
  0
LINE
  5
223
100
AcDbEntity
  8
ASSI
100
AcDbLine
 62
7
  6
CONTINUOUS
 10
-10.9644528498
 20
26.2147289918
 11
-10.9690669418
 21
26.21094988
  0
LINE
  5
224
100
AcDbEntity
  8
ASSI
100
AcDbLine
 62
7
  6
CONTINUOUS
 10
-10.9644177766
 20
26.2147558712
 11
-10.5201403985
 21
26.5546894345
  0
LINE
  5
225
100
AcDbEntity
  8
ASSI
100
AcDbLine
 62
250
  6
CONTINUOUS
 10
-10.8400760489
 20
26.2219798401
 11
-10.3966050001
 21
26.5612964501
  0
LWPOLYLINE
  5
226
100
AcDbEntity
  8
ASSI
100
AcDbPolyline
 62
250
  6
CONTINUOUS
 90
12
 70
0
 10
-10.3966050001
 20
26.5612964501
 10
-10.389648714
 20
26.566540757
 10
-10.3825148071
 20
26.571420068
 10
-10.3752235401
 20
26.5758776209
 10
-10.3677808
 20
26.5798633247
 10
-10.360230871
 20
26.5833055209
 10
-10.3526542259
 20
26.5861263909
 10
-10.3450807415
 20
26.5882782721
 10
-10.3375429721
 20
26.5897140143
 10
-10.3301230599
 20
26.5903859833
 10
-10.3228527633
 20
26.5902650696
 10
-10.3157653762
 20
26.5893244456
  0
LWPOLYLINE
  5
227
100
AcDbEntity
  8
ASSI
100
AcDbPolyline
 62
250
  6
CONTINUOUS
 90
8
 70
0
 10
-12.2305946926
 20
25.1059426211
 10
-12.2175310873
 20
25.1154341422
 10
-12.2013985194
 20
25.1231120727
 10
-12.1835126792
 20
25.12792204
 10
-12.1641794798
 20
25.1297817762
 10
-12.1437295897
 20
25.1286594729
 10
-12.1225127766
 20
25.1245743257
 10
-12.1008919255
 20
25.1175962055
  0
LWPOLYLINE
  5
228
100
AcDbEntity
  8
ASSI
100
AcDbPolyline
 62
250
  6
CONTINUOUS
 90
8
 70
0
 10
-10.5201227705
 20
26.5547029189
 10
-10.5115865299
 20
26.5604922537
 10
-10.4955023854
 20
26.5681305352
 10
-10.4777609713
 20
26.5728222075
 10
-10.4586657313
 20
26.5744870232
 10
-10.438543264
 20
26.5730965062
 10
-10.4177377366
 20
26.5686744378
 10
-10.3966050001
 20
26.5612964501
  0
LINE
  5
229
100
AcDbEntity
  8
RACCORDO
100
AcDbLine
 62
7
  6
CONTINUOUS
 10
-2.7056718255
 20
28.2399583896
 11
-2.6558441213
 21
28.2655247631
  0
LINE
  5
22A
100
AcDbEntity
  8
SUPERFICI
100
AcDbLine
 62
7
  6
CONTINUOUS
 10
-2.7056718255
 20
28.2399583896
 11
-2.6558441213
 21
28.2655247631
  0
LWPOLYLINE
  5
22B
100
AcDbEntity
  8
RACCORDO
100
AcDbPolyline
 62
7
  6
CONTINUOUS
 90
6
 70
0
 10
-2.6558441213
 20
28.2655247631
 10
-2.6041315209
 20
28.2837926994
 10
-2.5516838008
 20
28.2943448399
 10
-2.4989251438
 20
28.2972549451
 10
-2.44608708
 20
28.2927571246
 10
-2.4129051843
 20
28.2852832402
  0
LWPOLYLINE
  5
22C
100
AcDbEntity
  8
SUPERFICI
100
AcDbPolyline
 62
7
  6
CONTINUOUS
 90
6
 70
0
 10
-2.6558441213
 20
28.2655247631
 10
-2.6041315209
 20
28.2837926994
 10
-2.5516838008
 20
28.2943448399
 10
-2.4989251438
 20
28.2972549451
 10
-2.44608708
 20
28.2927571246
 10
-2.4129051843
 20
28.2852832402
  0
LWPOLYLINE
  5
22D
100
AcDbEntity
  8
ASSI
100
AcDbPolyline
 62
7
  6
CONTINUOUS
 90
5
 70
0
 10
-10.4423993937
 20
26.5936768471
 10
-10.4693357916
 20
26.5843000825
 10
-10.4947662513
 20
26.5716425165
 10
-10.5177650269
 20
26.5564837241
 10
-10.5201226984
 20
26.5547028243
  0
LINE
  5
22E
100
AcDbEntity
  8
ASSI
100
AcDbLine
 62
7
  6
CONTINUOUS
 10
-12.2017917819
 20
23.7688292906
 11
-11.7481599048
 21
24.1972089878
  0
LINE
  5
22F
100
AcDbEntity
  8
ASSI
100
AcDbLine
 62
250
  6
CONTINUOUS
 10
-11.8734492956
 20
23.8020803232
 11
-11.7481599048
 21
23.9203952698
  0
LWPOLYLINE
  5
230
100
AcDbEntity
  8
RACCORDO
100
AcDbPolyline
 62
7
  6
CONTINUOUS
 90
18
 70
0
 10
-15.2145958278
 20
20.8531655319
 10
-15.274863561
 20
20.7986353324
 10
-15.3314261095
 20
20.7400645152
 10
-15.3844792623
 20
20.6779316856
 10
-15.4343537687
 20
20.6124545931
 10
-15.4812448631
 20
20.5438117629
 10
-15.525175086
 20
20.4723236448
 10
-15.5661691154
 20
20.3982225199
 10
-15.6041532855
 20
20.3218019177
 10
-15.6390459405
 20
20.2433650472
 10
-15.6707347166
 20
20.163181978
 10
-15.6990538034
 20
20.0816309922
 10
-15.7238646597
 20
19.9989862976
 10
-15.744975097
 20
19.9155492025
 10
-15.7621890382
 20
19.8316190745
 10
-15.7752842214
 20
19.7473570812
 10
-15.7839895662
 20
19.6629961161
 10
-15.7854200262
 20
19.6423128502
  0
LINE
  5
231
100
AcDbEntity
  8
RACCORDO
100
AcDbLine
 62
7
  6
CONTINUOUS
 10
-12.6451903195
 20
22.9799921543
 11
-15.2145958278
 21
20.8531655319
  0
LINE
  5
232
100
AcDbEntity
  8
RACCORDO
100
AcDbLine
 62
250
  6
CONTINUOUS
 10
-12.32173071
 20
23.0080365281
 11
-14.8817128436
 21
20.8890645733
  0
LINE
  5
233
100
AcDbEntity
  8
RACCORDO
100
AcDbLine
 62
7
  6
CONTINUOUS
 10
-15.2075016001
 20
20.8590910136
 11
-15.2080367025
 21
20.8586493767
  0
LINE
  5
234
100
AcDbEntity
  8
ASSI
100
AcDbLine
 62
250
  6
CONTINUOUS
 10
-8.3825700117
 20
25.2349900124
 11
-7.9606712614
 21
25.5829705438
  0
LINE
  5
235
100
AcDbEntity
  8
ASSI
100
AcDbLine
 62
250
  6
CONTINUOUS
 10
-8.218764555
 20
25.0053965913
 11
-7.7968658047
 21
25.3533771228
  0
LINE
  5
236
100
AcDbEntity
  8
ASSI
100
AcDbLine
 62
250
  6
CONTINUOUS
 10
-9.7078532431
 20
24.1564979209
 11
-8.3825700117
 21
25.2349900124
  0
LINE
  5
237
100
AcDbEntity
  8
ASSI
100
AcDbLine
 62
250
  6
CONTINUOUS
 10
-9.5440477865
 20
23.9269044999
 11
-8.218764555
 21
25.0053965913
  0
LWPOLYLINE
  5
238
100
AcDbEntity
  8
RACCORDO
100
AcDbPolyline
 62
250
  6
CONTINUOUS
 90
22
 70
0
 10
-14.8817128625
 20
20.8890645577
 10
-14.9319467607
 20
20.8483202988
 10
-14.9820436465
 20
20.8026976937
 10
-15.0317283922
 20
20.7524244935
 10
-15.080709425
 20
20.6977461956
 10
-15.1287375635
 20
20.6389430724
 10
-15.1756070802
 20
20.5763273626
 10
-15.2210653709
 20
20.5102093974
 10
-15.2648596123
 20
20.4409233748
 10
-15.3067957232
 20
20.3688436838
 10
-15.3466469764
 20
20.2943362356
 10
-15.3841946193
 20
20.2177735795
 10
-15.4192743254
 20
20.1395594056
 10
-15.4516987768
 20
20.0600892569
 10
-15.4812889277
 20
19.9797636523
 10
-15.5079149655
 20
19.8990036887
 10
-15.5314349786
 20
19.8182256296
 10
-15.5517211228
 20
19.7378304374
 10
-15.5686881037
 20
19.6582171835
 10
-15.5822504995
 20
19.5797874027
 10
-15.5923257936
 20
19.5029426781
 10
-15.5988585924
 20
19.4280745088
  0
LWPOLYLINE
  5
239
100
AcDbEntity
  8
ASSI
100
AcDbPolyline
 62
250
  6
CONTINUOUS
 90
21
 70
0
 10
-7.7968658047
 20
25.3533771228
 10
-7.7954943759
 20
25.3544721083
 10
-7.7940994885
 20
25.3554683766
 10
-7.7926811425
 20
25.3563659276
 10
-7.7912305449
 20
25.357176682
 10
-7.7897564888
 20
25.3578887191
 10
-7.7882853531
 20
25.3584662771
 10
-7.7868166563
 20
25.3589051437
 10
-7.7853508799
 20
25.3592095311
 10
-7.7839158486
 20
25.3593563139
 10
-7.7825123712
 20
25.3593401819
 10
-7.7811396388
 20
25.3591664452
 10
-7.7798230494
 20
25.3588279093
 10
-7.778565131
 20
25.3583201808
 10
-7.7773633555
 20
25.357647653
 10
-7.7762355366
 20
25.3568163109
 10
-7.7751839228
 20
25.3558240522
 10
-7.7742062656
 20
25.3546729792
 10
-7.7733136335
 20
25.3533753834
 10
-7.7725071383
 20
25.3519297167
 10
-7.7717856682
 20
25.3503375272
  0
LINE
  5
23A
100
AcDbEntity
  8
RACCORDO
100
AcDbLine
 62
7
  6
CONTINUOUS
 10
-2.7547267052
 20
28.2062250265
 11
-3.4592278015
 21
27.6553038367
  0
LINE
  5
23B
100
AcDbEntity
  8
SUPERFICI
100
AcDbLine
 62
7
  6
CONTINUOUS
 10
-2.7547267052
 20
28.2062250265
 11
-3.4592278015
 21
27.6553038367
  0
LINE
  5
23C
100
AcDbEntity
  8
RACCORDO
100
AcDbLine
 62
250
  6
CONTINUOUS
 10
-3.2809527738
 20
27.8913432106
 11
-8.1355193474
 21
24.101458789
  0
LINE
  5
23D
100
AcDbEntity
  8
SUPERFICI
100
AcDbLine
 62
250
  6
CONTINUOUS
 10
-3.2809527738
 20
27.8913432106
 11
-8.1355193474
 21
24.101458789
  0
LINE
  5
23E
100
AcDbEntity
  8
DRAFT
100
AcDbLine
 62
7
  6
CONTINUOUS
 10
-3.3642726641
 20
27.8342407936
 11
-8.142769962
 21
24.1043707993
  0
LINE
  5
23F
100
AcDbEntity
  8
SUPERFICI
100
AcDbLine
 62
7
  6
CONTINUOUS
 10
-3.3642726641
 20
27.8342407936
 11
-8.142769962
 21
24.1043707993
  0
LINE
  5
240
100
AcDbEntity
  8
RACCORDO
100
AcDbLine
 62
7
  6
CONTINUOUS
 10
-3.3500411596
 20
27.8451927918
 11
-3.3642726641
 21
27.8342407936
  0
LINE
  5
241
100
AcDbEntity
  8
SUPERFICI
100
AcDbLine
 62
7
  6
CONTINUOUS
 10
-3.3500411596
 20
27.8451927918
 11
-3.3642726641
 21
27.8342407936
  0
LWPOLYLINE
  5
242
100
AcDbEntity
  8
ASSI
100
AcDbPolyline
 62
250
  6
CONTINUOUS
 90
14
 70
0
 10
-7.9606712614
 20
25.5829705438
 10
-7.953713775
 20
25.5882943343
 10
-7.9465903051
 20
25.5932366355
 10
-7.9393214761
 20
25.5977422
 10
-7.9319138876
 20
25.6017628186
 10
-7.9244114737
 20
25.6052286799
 10
-7.9168932506
 20
25.6080638337
 10
-7.9093888303
 20
25.6102231161
 10
-7.9019303666
 20
25.6116619912
 10
-7.8945980162
 20
25.6123352243
 10
-7.8874235869
 20
25.6122166994
 10
-7.8804383566
 20
25.6112827427
 10
-7.8737141384
 20
25.6095251336
 10
-7.8704671677
 20
25.6083397997
  0
LWPOLYLINE
  5
243
100
AcDbEntity
  8
RACCORDO
100
AcDbPolyline
 62
7
  6
CONTINUOUS
 90
3
 70
0
 10
-3.3211212271
 20
27.866514396
 10
-3.3356564718
 20
27.85595137
 10
-3.3500411596
 20
27.8451927918
  0
LWPOLYLINE
  5
244
100
AcDbEntity
  8
SUPERFICI
100
AcDbPolyline
 62
7
  6
CONTINUOUS
 90
3
 70
0
 10
-3.3211212271
 20
27.866514396
 10
-3.3356564718
 20
27.85595137
 10
-3.3500411596
 20
27.8451927918
  0
LINE
  5
245
100
AcDbEntity
  8
RACCORDO
100
AcDbLine
 62
7
  6
CONTINUOUS
 10
-2.7547267052
 20
28.2062250265
 11
-2.7056718255
 21
28.2399583896
  0
LINE
  5
246
100
AcDbEntity
  8
SUPERFICI
100
AcDbLine
 62
7
  6
CONTINUOUS
 10
-2.7547267052
 20
28.2062250265
 11
-2.7056718255
 21
28.2399583896
  0
LINE
  5
247
100
AcDbEntity
  8
RACCORDO
100
AcDbLine
 62
250
  6
CONTINUOUS
 10
-3.2809527738
 20
27.8913432106
 11
-3.2308607267
 21
27.9256973791
  0
LINE
  5
248
100
AcDbEntity
  8
SUPERFICI
100
AcDbLine
 62
250
  6
CONTINUOUS
 10
-3.2809527738
 20
27.8913432106
 11
-3.2308607267
 21
27.9256973791
  0
LWPOLYLINE
  5
249
100
AcDbEntity
  8
RACCORDO
100
AcDbPolyline
 62
250
  6
CONTINUOUS
 90
3
 70
0
 10
-3.2809527738
 20
27.8913432106
 10
-3.3470654095
 20
27.8473077929
 10
-3.3642726633
 20
27.8342407942
  0
LWPOLYLINE
  5
24A
100
AcDbEntity
  8
SUPERFICI
100
AcDbPolyline
 62
250
  6
CONTINUOUS
 90
3
 70
0
 10
-3.2809527738
 20
27.8913432106
 10
-3.3470654095
 20
27.8473077929
 10
-3.3642726633
 20
27.8342407942
  0
LWPOLYLINE
  5
24B
100
AcDbEntity
  8
RACCORDO
100
AcDbPolyline
 62
7
  6
CONTINUOUS
 90
7
 70
0
 10
-3.2308607267
 20
27.9256973791
 10
-3.2462596685
 20
27.9163390195
 10
-3.2615200258
 20
27.9067757971
 10
-3.2766390478
 20
27.8970096756
 10
-3.2916126121
 20
27.8870436302
 10
-3.3064394942
 20
27.876878819
 10
-3.3211212271
 20
27.866514396
  0
LWPOLYLINE
  5
24C
100
AcDbEntity
  8
SUPERFICI
100
AcDbPolyline
 62
7
  6
CONTINUOUS
 90
7
 70
0
 10
-3.2308607267
 20
27.9256973791
 10
-3.2462596685
 20
27.9163390195
 10
-3.2615200258
 20
27.9067757971
 10
-3.2766390478
 20
27.8970096756
 10
-3.2916126121
 20
27.8870436302
 10
-3.3064394942
 20
27.876878819
 10
-3.3211212271
 20
27.866514396
  0
LINE
  5
24D
100
AcDbEntity
  8
RACCORDO
100
AcDbLine
 62
7
  6
CONTINUOUS
 10
-2.7566566874
 20
28.2094503855
 11
-3.2308607267
 21
27.9256973791
  0
LINE
  5
24E
100
AcDbEntity
  8
SUPERFICI
100
AcDbLine
 62
7
  6
CONTINUOUS
 10
-2.7566566874
 20
28.2094503855
 11
-3.2308607267
 21
27.9256973791
  0
LINE
  5
24F
100
AcDbEntity
  8
RACCORDO
100
AcDbLine
 62
250
  6
CONTINUOUS
 10
-2.7547267052
 20
28.2062250265
 11
-3.2809527738
 21
27.8913432106
  0
LINE
  5
250
100
AcDbEntity
  8
SUPERFICI
100
AcDbLine
 62
250
  6
CONTINUOUS
 10
-2.7547267052
 20
28.2062250265
 11
-3.2809527738
 21
27.8913432106
  0
LINE
  5
251
100
AcDbEntity
  8
DRAFT
100
AcDbLine
 62
7
  6
CONTINUOUS
 10
-3.4592278015
 20
27.6553038367
 11
-2.5872648759
 21
28.1770667934
  0
LINE
  5
252
100
AcDbEntity
  8
SUPERFICI
100
AcDbLine
 62
7
  6
CONTINUOUS
 10
-3.4592278015
 20
27.6553038367
 11
-2.5872648759
 21
28.1770667934
  0
LWPOLYLINE
  5
253
100
AcDbEntity
  8
ASSI
100
AcDbPolyline
 62
7
  6
CONTINUOUS
 90
4
 70
0
 10
-2.5233930904
 20
26.3438297871
 10
-2.5594058088
 20
26.3267735786
 10
-2.5925655114
 20
26.3065432713
 10
-2.6067107496
 20
26.2962825701
  0
LINE
  5
254
100
AcDbEntity
  8
ASSI
100
AcDbLine
 62
7
  6
CONTINUOUS
 10
0.6324656717
 20
25.9917892171
 11
1.9478775429
 21
26.3772651593
  0
LWPOLYLINE
  5
255
100
AcDbEntity
  8
ASSI
100
AcDbPolyline
 62
7
  6
CONTINUOUS
 90
11
 70
0
 10
-8.956172998
 20
23.5301414581
 10
-8.974575687
 20
23.506675161
 10
-8.9952953832
 20
23.4845885549
 10
-9.0181820399
 20
23.46428282
 10
-9.0431833835
 20
23.4461070489
 10
-9.0699189689
 20
23.4304589401
 10
-9.0976474394
 20
23.4177218687
 10
-9.1259844517
 20
23.4081083263
 10
-9.1546014422
 20
23.401796737
 10
-9.1827593887
 20
23.3989032685
 10
-9.1960316569
 20
23.3987198047
  0
LINE
  5
256
100
AcDbEntity
  8
ASSI
100
AcDbLine
 62
7
  6
CONTINUOUS
 10
-5.922632822
 20
23.7588334976
 11
-6.0931006121
 21
23.6095160269
  0
LINE
  5
257
100
AcDbEntity
  8
ASSI
100
AcDbLine
 62
250
  6
CONTINUOUS
 10
-5.7613396123
 20
23.7726687676
 11
-5.9310751873
 21
23.6239926645
  0
LINE
  5
258
100
AcDbEntity
  8
ASSI
100
AcDbLine
 62
7
  6
CONTINUOUS
 10
-8.956172998
 20
22.8129783787
 11
-8.218764555
 21
23.448982755
  0
LINE
  5
259
100
AcDbEntity
  8
ASSI
100
AcDbLine
 62
7
  6
CONTINUOUS
 10
-5.9225761247
 20
23.7588830408
 11
-5.9168096069
 21
23.7636060318
  0
LINE
  5
25A
100
AcDbEntity
  8
ASSI
100
AcDbLine
 62
7
  6
CONTINUOUS
 10
-1.9865194345
 20
28.5029444249
 11
-7.6903343812
 21
23.9226624702
  0
LINE
  5
25B
100
AcDbEntity
  8
ASSI
100
AcDbLine
 62
7
  6
CONTINUOUS
 10
-2.0435566697
 20
28.5795008472
 11
-7.8227806078
 21
23.9758558607
  0
LWPOLYLINE
  5
25C
100
AcDbEntity
  8
ASSI
100
AcDbPolyline
 62
250
  6
CONTINUOUS
 90
16
 70
0
 10
-6.092727662
 20
23.6098412516
 10
-6.085219586
 20
23.6158157695
 10
-6.0767471235
 20
23.6214221157
 10
-6.0677300325
 20
23.6262986222
 10
-6.0582119529
 20
23.6304217286
 10
-6.0482164447
 20
23.6337813016
 10
-6.0377859015
 20
23.6363624022
 10
-6.0269609269
 20
23.6381553761
 10
-6.0157789695
 20
23.6391544295
 10
-6.0042807037
 20
23.6393561347
 10
-5.9925078337
 20
23.6387597605
 10
-5.9805038352
 20
23.6373675326
 10
-5.968313585
 20
23.635185005
 10
-5.9559820585
 20
23.6322205674
 10
-5.9435541
 20
23.6284851664
 10
-5.9310751873
 20
23.6239926645
  0
LINE
  5
25D
100
AcDbEntity
  8
ASSI
100
AcDbLine
 62
250
  6
CONTINUOUS
 10
-4.93356965
 20
24.0851109635
 11
-2.2439845787
 21
26.2191448113
  0
LINE
  5
25E
100
AcDbEntity
  8
ASSI
100
AcDbLine
 62
250
  6
CONTINUOUS
 10
-4.5619485455
 20
23.9358595499
 11
-2.0417693157
 21
25.9354794305
  0
LINE
  5
25F
100
AcDbEntity
  8
DRAFT
100
AcDbLine
 62
7
  6
CONTINUOUS
 10
-2.5872648759
 20
28.1770667934
 11
-7.9132043307
 21
24.0121720664
  0
LINE
  5
260
100
AcDbEntity
  8
SUPERFICI
100
AcDbLine
 62
7
  6
CONTINUOUS
 10
-2.5872648759
 20
28.1770667934
 11
-7.9132043307
 21
24.0121720664
  0
LINE
  5
261
100
AcDbEntity
  8
ASSI
100
AcDbLine
 62
250
  6
CONTINUOUS
 10
-2.4524453433
 20
26.3044299487
 11
-5.7613396123
 21
23.7726687676
  0
LINE
  5
262
100
AcDbEntity
  8
ASSI
100
AcDbLine
 62
7
  6
CONTINUOUS
 10
-2.606713702
 20
26.2962864298
 11
-5.916766772
 21
23.7636388065
  0
LWPOLYLINE
  5
263
100
AcDbEntity
  8
ASSI
100
AcDbPolyline
 62
7
  6
CONTINUOUS
 90
3
 70
0
 10
-5.9168096069
 20
23.7636060318
 10
-5.9061283314
 20
23.7708510796
 10
-5.8859899182
 20
23.7804239363
  0
LINE
  5
264
100
AcDbEntity
  8
0
100
AcDbLine
 62
250
  6
CONTINUOUS
 10
-9.3248748228
 20
21.8084709223
 11
-9.1701469065
 21
21.9097715273
  0
LINE
  5
265
100
AcDbEntity
  8
RACCORDO
100
AcDbLine
 62
7
  6
CONTINUOUS
 10
-0.9263954142
 20
24.5981673528
 11
-0.9891503674
 21
24.5594744039
  0
LINE
  5
266
100
AcDbEntity
  8
SUPERFICI
100
AcDbLine
 62
7
  6
CONTINUOUS
 10
-0.9263954142
 20
24.5981673528
 11
-0.9891503674
 21
24.5594744039
  0
LINE
  5
267
100
AcDbEntity
  8
RACCORDO
100
AcDbLine
 62
7
  6
CONTINUOUS
 10
-0.8579234482
 20
24.6332568618
 11
-0.9263954142
 21
24.5981673528
  0
LINE
  5
268
100
AcDbEntity
  8
SUPERFICI
100
AcDbLine
 62
7
  6
CONTINUOUS
 10
-0.8579234482
 20
24.6332568618
 11
-0.9263954142
 21
24.5981673528
  0
LWPOLYLINE
  5
269
100
AcDbEntity
  8
RACCORDO
100
AcDbPolyline
 62
7
  6
CONTINUOUS
 90
3
 70
0
 10
-0.9848737879
 20
24.5621822542
 10
-0.969265262
 20
24.5694426989
 10
-0.9520383192
 20
24.5737259562
  0
LWPOLYLINE
  5
26A
100
AcDbEntity
  8
SUPERFICI
100
AcDbPolyline
 62
7
  6
CONTINUOUS
 90
3
 70
0
 10
-0.9848737879
 20
24.5621822542
 10
-0.969265262
 20
24.5694426989
 10
-0.9520383192
 20
24.5737259562
  0
LWPOLYLINE
  5
26B
100
AcDbEntity
  8
RACCORDO
100
AcDbPolyline
 62
250
  6
CONTINUOUS
 90
6
 70
0
 10
4.5890094515
 20
25.3969391572
 10
4.6046334774
 20
25.4034095248
 10
4.6542575154
 20
25.4157608067
 10
4.7015674376
 20
25.4190421087
 10
4.7460563519
 20
25.4132182737
 10
4.7736933257
 20
25.4043919379
  0
LWPOLYLINE
  5
26C
100
AcDbEntity
  8
SUPERFICI
100
AcDbPolyline
 62
250
  6
CONTINUOUS
 90
6
 70
0
 10
4.5890094515
 20
25.3969391572
 10
4.6046334774
 20
25.4034095248
 10
4.6542575154
 20
25.4157608067
 10
4.7015674376
 20
25.4190421087
 10
4.7460563519
 20
25.4132182737
 10
4.7736933257
 20
25.4043919379
  0
LWPOLYLINE
  5
26D
100
AcDbEntity
  8
RACCORDO
100
AcDbPolyline
 62
7
  6
CONTINUOUS
 90
12
 70
0
 10
0.4260019031
 20
-23.0756428956
 10
0.4868878066
 20
-23.0938552474
 10
0.5441936394
 20
-23.1054685898
 10
0.6032566526
 20
-23.112188094
 10
0.6638025035
 20
-23.1137871591
 10
0.7253546828
 20
-23.1100696275
 10
0.7876224386
 20
-23.1008947836
 10
0.8503074793
 20
-23.0861517051
 10
0.9130814949
 20
-23.0657635002
 10
0.9758027629
 20
-23.0396049819
 10
1.0383583912
 20
-23.0075333643
 10
1.101884796
 20
-22.9685682344
  0
LWPOLYLINE
  5
26E
100
AcDbEntity
  8
RACCORDO
100
AcDbPolyline
 62
250
  6
CONTINUOUS
 90
16
 70
0
 10
0.1800620728
 20
-22.5150416683
 10
0.2233927429
 20
-22.5284285955
 10
0.2688080469
 20
-22.5393452175
 10
0.3158679463
 20
-22.5476857608
 10
0.3641164682
 20
-22.5533694122
 10
0.4130861226
 20
-22.5563411017
 10
0.4623024323
 20
-22.5565720359
 10
0.5112885304
 20
-22.5540599773
 10
0.5595697805
 20
-22.5488292656
 10
0.6066783754
 20
-22.5409305825
 10
0.6521578703
 20
-22.5304404598
 10
0.6955676049
 20
-22.5174605385
 10
0.7364869733
 20
-22.5021165837
 10
0.7745194993
 20
-22.4845572663
 10
0.8092966778
 20
-22.4649527221
 10
0.8404815456
 20
-22.4434929035
  0
LWPOLYLINE
  5
26F
100
AcDbEntity
  8
RACCORDO
100
AcDbPolyline
 62
7
  6
CONTINUOUS
 90
10
 70
0
 10
-16.6147795953
 20
-16.2316158109
 10
-14.8769845971
 20
-17.0147931157
 10
-13.0234306836
 20
-17.8270946906
 10
-11.1486249984
 20
-18.6253237775
 10
-9.2529992394
 20
-19.4092996621
 10
-7.3369868367
 20
-20.1788437943
 10
-5.4010315324
 20
-20.9337841267
 10
-3.4455849279
 20
-21.6739551852
 10
-1.4711003002
 20
-22.399193784
 10
0.4262030746
 20
-23.0757164169
  0
LWPOLYLINE
  5
270
100
AcDbEntity
  8
RACCORDO
100
AcDbPolyline
 62
250
  6
CONTINUOUS
 90
10
 70
0
 10
-16.8494338422
 20
-15.6756029141
 10
-16.886185966
 20
-15.6568269729
 10
-16.9195419915
 20
-15.6361075371
 10
-16.9491787321
 20
-15.6136453576
 10
-16.9748090372
 20
-15.5896580705
 10
-16.9961845746
 20
-15.5643780887
 10
-17.0130982367
 20
-15.5380503499
 10
-17.0253861468
 20
-15.5109299436
 10
-17.0329292474
 20
-15.4832796397
 10
-17.0356544532
 20
-15.4553673421
  0
LWPOLYLINE
  5
271
100
AcDbEntity
  8
ASSI
100
AcDbPolyline
 62
7
  6
CONTINUOUS
 90
6
 70
0
 10
-7.7769021014
 20
24.9294440245
 10
-7.775181913
 20
24.9324001735
 10
-7.7650071087
 20
24.9517183199
 10
-7.7561224475
 20
24.9720126291
 10
-7.7488655667
 20
24.9924203048
 10
-7.7431227428
 20
25.0130661011
  0
LINE
  5
272
100
AcDbEntity
  8
ASSI
100
AcDbLine
 62
250
  6
CONTINUOUS
 10
-7.78337189
 20
24.9668858954
 11
-8.218764555
 21
24.2284670406
  0
LINE
  5
273
100
AcDbEntity
  8
ASSI
100
AcDbLine
 62
7
  6
CONTINUOUS
 10
-7.7768975346
 20
24.9294516013
 11
-8.218764555
 21
24.1800523454
  0
LWPOLYLINE
  5
274
100
AcDbEntity
  8
ASSI
100
AcDbPolyline
 62
7
  6
CONTINUOUS
 90
9
 70
0
 10
-6.0927311742
 20
23.609837257
 10
-6.106820027
 20
23.5964244254
 10
-6.1236750082
 20
23.5767385108
 10
-6.1381460262
 20
23.5552237576
 10
-6.1500580201
 20
23.5321556964
 10
-6.1593299048
 20
23.5076472192
 10
-6.1658025819
 20
23.4819585135
 10
-6.1693313856
 20
23.4555396212
 10
-6.1700242387
 20
23.4372656582
  0
LWPOLYLINE
  5
275
100
AcDbEntity
  8
ASSI
100
AcDbPolyline
 62
250
  6
CONTINUOUS
 90
13
 70
0
 10
-5.9310751873
 20
23.6239926645
 10
-5.9458640967
 20
23.6101387646
 10
-5.960372048
 20
23.5938032133
 10
-5.9743562843
 20
23.5752593483
 10
-5.9875828116
 20
23.5548174584
 10
-5.9998303146
 20
23.5328195913
 10
-6.0108938596
 20
23.5096338306
 10
-6.0205883237
 20
23.4856481363
 10
-6.0287514925
 20
23.4612638536
 10
-6.0352467742
 20
23.4368889972
 10
-6.0399654853
 20
23.412931424
 10
-6.0428286691
 20
23.3897920085
 10
-6.0437884167
 20
23.3678579355
  0
LWPOLYLINE
  5
276
100
AcDbEntity
  8
ASSI
100
AcDbPolyline
 62
250
  6
CONTINUOUS
 90
31
 70
0
 10
-2.2439845787
 20
26.2191448113
 10
-2.2368626451
 20
26.2255144469
 10
-2.2310451072
 20
26.2321348
 10
-2.226531965
 20
26.2390058707
 10
-2.2232985573
 20
26.2462106401
 10
-2.2213695454
 20
26.253666127
 10
-2.2208189127
 20
26.2611233881
 10
-2.2216950763
 20
26.2685788893
 10
-2.2239496192
 20
26.2760361646
 10
-2.227511274
 20
26.2832568726
 10
-2.2324226266
 20
26.2902333649
 10
-2.2386410911
 20
26.29697329
 10
-2.2459676433
 20
26.3032612516
 10
-2.2544379362
 20
26.3090826829
 10
-2.2640163168
 20
26.3144521507
 10
-2.2743968013
 20
26.3191979601
 10
-2.2856053565
 20
26.3232999595
 10
-2.2976160157
 20
26.3267783005
 10
-2.3100448957
 20
26.3295217426
 10
-2.3229055297
 20
26.3315066049
 10
-2.3361843845
 20
26.3327565683
 10
-2.3494569772
 20
26.3332314349
 10
-2.3627230936
 20
26.3329060674
 10
-2.3759829479
 20
26.3318056031
 10
-2.3888126995
 20
26.3299652562
 10
-2.4011994399
 20
26.327360695
 10
-2.4131560776
 20
26.3240162513
 10
-2.4242974982
 20
26.3200401339
 10
-2.4344953303
 20
26.3154684125
 10
-2.4438779453
 20
26.3102650174
 10
-2.4524453433
 20
26.3044299487
  0
LWPOLYLINE
  5
277
100
AcDbEntity
  8
ASSI
100
AcDbPolyline
 62
250
  6
CONTINUOUS
 90
7
 70
0
 10
-2.0417693157
 20
25.9354794305
 10
-2.020882008
 20
25.9541393156
 10
-2.0035849239
 20
25.9739136275
 10
-1.9900631873
 20
25.9945868954
 10
-1.9804615204
 20
26.0159325121
 10
-1.974879738
 20
26.0377205434
 10
-1.9733622714
 20
26.0591169063
  0
LINE
  5
278
100
AcDbEntity
  8
ASSI
100
AcDbLine
 62
250
  6
CONTINUOUS
 10
-3.1809482924
 20
22.7363254399
 11
-2.6551138491
 21
23.1700317472
  0
LINE
  5
279
100
AcDbEntity
  8
ASSI
100
AcDbLine
 62
250
  6
CONTINUOUS
 10
-2.9761914715
 20
22.4493336637
 11
-2.4466946088
 21
22.886060721
  0
LINE
  5
27A
100
AcDbEntity
  8
ASSI
100
AcDbLine
 62
7
  6
CONTINUOUS
 10
0.6324656717
 20
25.9917892171
 11
-0.2445952409
 21
25.2733429776
  0
LINE
  5
27B
100
AcDbEntity
  8
ASSI
100
AcDbLine
 62
250
  6
CONTINUOUS
 10
-3.3593626949
 20
22.5911349497
 11
-3.1809482924
 21
22.7363254399
  0
LINE
  5
27C
100
AcDbEntity
  8
ASSI
100
AcDbLine
 62
250
  6
CONTINUOUS
 10
-3.154605874
 20
22.3041431734
 11
-2.9761914715
 21
22.4493336637
  0
LINE
  5
27D
100
AcDbEntity
  8
ASSI
100
AcDbLine
 62
250
  6
CONTINUOUS
 10
1.3189437455
 20
27.1753958918
 11
-0.492375933
 21
25.7377451065
  0
LINE
  5
27E
100
AcDbEntity
  8
ASSI
100
AcDbLine
 62
250
  6
CONTINUOUS
 10
1.4807471444
 20
26.947021716
 11
-0.2432262129
 21
25.5786980123
  0
LINE
  5
27F
100
AcDbEntity
  8
ASSI
100
AcDbLine
 62
7
  6
CONTINUOUS
 10
-1.1299425606
 20
25.5130043586
 11
-2.0229540427
 21
24.8044501843
  0
LINE
  5
280
100
AcDbEntity
  8
RACCORDO
100
AcDbLine
 62
7
  6
CONTINUOUS
 10
-0.9937579655
 20
24.5561303758
 11
-1.1057556541
 21
24.46907456
  0
LINE
  5
281
100
AcDbEntity
  8
SUPERFICI
100
AcDbLine
 62
7
  6
CONTINUOUS
 10
-0.9937579655
 20
24.5561303758
 11
-1.1057556541
 21
24.46907456
  0
LINE
  5
282
100
AcDbEntity
  8
RACCORDO
100
AcDbLine
 62
250
  6
CONTINUOUS
 10
-0.873125204
 20
24.5604506259
 11
-0.984478966
 21
24.4738953343
  0
LINE
  5
283
100
AcDbEntity
  8
SUPERFICI
100
AcDbLine
 62
250
  6
CONTINUOUS
 10
-0.873125204
 20
24.5604506259
 11
-0.984478966
 21
24.4738953343
  0
LWPOLYLINE
  5
284
100
AcDbEntity
  8
RACCORDO
100
AcDbPolyline
 62
250
  6
CONTINUOUS
 90
11
 70
0
 10
-0.0727783332
 20
24.7052006782
 10
-0.0654028968
 20
24.7108111717
 10
-0.0580548664
 20
24.7157212379
 10
-0.0507648767
 20
24.7199083702
 10
-0.0435608163
 20
24.7233541085
 10
-0.0364757718
 20
24.7260401503
 10
-0.0295473753
 20
24.7279512982
 10
-0.0228011028
 20
24.729080235
 10
-0.016268653
 20
24.7294213584
 10
-0.0099935385
 20
24.7289757586
 10
-0.0040123376
 20
24.7277552784
  0
LWPOLYLINE
  5
285
100
AcDbEntity
  8
SUPERFICI
100
AcDbPolyline
 62
250
  6
CONTINUOUS
 90
11
 70
0
 10
-0.0727783332
 20
24.7052006782
 10
-0.0654028968
 20
24.7108111717
 10
-0.0580548664
 20
24.7157212379
 10
-0.0507648767
 20
24.7199083702
 10
-0.0435608163
 20
24.7233541085
 10
-0.0364757718
 20
24.7260401503
 10
-0.0295473753
 20
24.7279512982
 10
-0.0228011028
 20
24.729080235
 10
-0.016268653
 20
24.7294213584
 10
-0.0099935385
 20
24.7289757586
 10
-0.0040123376
 20
24.7277552784
  0
LINE
  5
286
100
AcDbEntity
  8
RACCORDO
100
AcDbLine
 62
7
  6
CONTINUOUS
 10
-0.9937175171
 20
24.5561618163
 11
-0.9891520631
 21
24.5594730894
  0
LINE
  5
287
100
AcDbEntity
  8
SUPERFICI
100
AcDbLine
 62
7
  6
CONTINUOUS
 10
-0.9937175171
 20
24.5561618163
 11
-0.9891520631
 21
24.5594730894
  0
LWPOLYLINE
  5
288
100
AcDbEntity
  8
RACCORDO
100
AcDbPolyline
 62
7
  6
CONTINUOUS
 90
6
 70
0
 10
-1.1058050982
 20
24.469035746
 10
-1.1006535266
 20
24.472713358
 10
-1.0940155348
 20
24.4766008824
 10
-1.0866775804
 20
24.4799786237
 10
-1.0786376973
 20
24.4827738068
 10
-1.0698521599
 20
24.4849266456
  0
LWPOLYLINE
  5
289
100
AcDbEntity
  8
SUPERFICI
100
AcDbPolyline
 62
7
  6
CONTINUOUS
 90
6
 70
0
 10
-1.1058050982
 20
24.469035746
 10
-1.1006535266
 20
24.472713358
 10
-1.0940155348
 20
24.4766008824
 10
-1.0866775804
 20
24.4799786237
 10
-1.0786376973
 20
24.4827738068
 10
-1.0698521599
 20
24.4849266456
  0
LWPOLYLINE
  5
28A
100
AcDbEntity
  8
ASSI
100
AcDbPolyline
 62
250
  6
CONTINUOUS
 90
13
 70
0
 10
-3.154605874
 20
22.3041431734
 10
-3.171134318
 20
22.2927274443
 10
-3.1900936026
 20
22.2826309821
 10
-3.2111664881
 20
22.2740227277
 10
-3.2340003685
 20
22.2670467204
 10
-3.2582131715
 20
22.2618196875
 10
-3.2833997517
 20
22.2584290914
 10
-3.30913867
 20
22.2569316658
 10
-3.3349992451
 20
22.2573524667
 10
-3.3605487599
 20
22.259684453
 10
-3.3853597024
 20
22.2638886043
 10
-3.4090169187
 20
22.2698945738
 10
-3.4311245601
 20
22.2776018654
  0
LWPOLYLINE
  5
28B
100
AcDbEntity
  8
ASSI
100
AcDbPolyline
 62
7
  6
CONTINUOUS
 90
3
 70
0
 10
-1.6162613744
 20
22.0364089081
 10
-1.6055800989
 20
22.0436539559
 10
-1.5854416857
 20
22.0532268126
  0
LINE
  5
28C
100
AcDbEntity
  8
RACCORDO
100
AcDbLine
 62
7
  6
CONTINUOUS
 10
-0.9891520631
 20
24.5594730894
 11
-0.9848737879
 21
24.5621822542
  0
LINE
  5
28D
100
AcDbEntity
  8
SUPERFICI
100
AcDbLine
 62
7
  6
CONTINUOUS
 10
-0.9891520631
 20
24.5594730894
 11
-0.9848737879
 21
24.5621822542
  0
LWPOLYLINE
  5
28E
100
AcDbEntity
  8
ASSI
100
AcDbPolyline
 62
7
  6
CONTINUOUS
 90
4
 70
0
 10
3.9714614006
 20
23.7224503344
 10
3.9357843608
 20
23.7035499102
 10
3.903360348
 20
23.6814999926
 10
3.8984343381
 20
23.6776561687
  0
LWPOLYLINE
  5
28F
100
AcDbEntity
  8
ASSI
100
AcDbPolyline
 62
7
  6
CONTINUOUS
 90
3
 70
0
 10
6.7079878081
 20
25.1102824
 10
6.6569997457
 20
25.0850913165
 10
6.6055827291
 20
25.0537011564
  0
LINE
  5
290
100
AcDbEntity
  8
RACCORDO
100
AcDbLine
 62
250
  6
CONTINUOUS
 10
10.9632082214
 20
25.038643668
 11
11.0685229705
 21
25.0807501263
  0
LWPOLYLINE
  5
291
100
AcDbEntity
  8
RACCORDO
100
AcDbPolyline
 62
7
  6
CONTINUOUS
 90
8
 70
0
 10
10.449072667
 20
24.8461261468
 10
10.3005430698
 20
24.7868392654
 10
10.1568599188
 20
24.7233166212
 10
10.0183424451
 20
24.6556671494
 10
9.8852591086
 20
24.5839809999
 10
9.7579682325
 20
24.5084046635
 10
9.6368852744
 20
24.4291469808
 10
9.5834847073
 20
24.3905674468
  0
LWPOLYLINE
  5
292
100
AcDbEntity
  8
RACCORDO
100
AcDbPolyline
 62
250
  6
CONTINUOUS
 90
9
 70
0
 10
10.449072667
 20
24.8461261468
 10
10.43049883
 20
24.8390446188
 10
10.2821219212
 20
24.7790083052
 10
10.1390908214
 20
24.7148453938
 10
10.0017542906
 20
24.6467123394
 10
9.8704470945
 20
24.5747752531
 10
9.7454889912
 20
24.4992093501
 10
9.6271842309
 20
24.4201986232
 10
9.5839905973
 20
24.3882918387
  0
LINE
  5
293
100
AcDbEntity
  8
0
100
AcDbLine
 62
7
  6
CONTINUOUS
 10
10.449072667
 20
24.8461261468
 11
11.0685229705
 21
25.0807501263
  0
LINE
  5
294
100
AcDbEntity
  8
ASSI
100
AcDbLine
 62
250
  6
CONTINUOUS
 10
6.7975344983
 20
-19.8824699069
 11
6.3621418334
 21
-19.8845338391
  0
LINE
  5
295
100
AcDbEntity
  8
ASSI
100
AcDbLine
 62
250
  6
CONTINUOUS
 10
6.689125565
 20
-19.6294558113
 11
6.3621418334
 21
-19.6310058425
  0
LWPOLYLINE
  5
296
100
AcDbEntity
  8
ASSI
100
AcDbPolyline
 62
7
  6
CONTINUOUS
 90
11
 70
0
 10
5.3709524271
 20
-20.331839333
 10
5.3981400233
 20
-20.3361350227
 10
5.4262942673
 20
-20.3403037151
 10
5.4549073522
 20
-20.3441949589
 10
5.4832418891
 20
-20.3477097224
 10
5.5109693465
 20
-20.3504860024
 10
5.5377052003
 20
-20.3523593569
 10
5.5627089687
 20
-20.353500203
 10
5.5856000168
 20
-20.3538010597
 10
5.6063250668
 20
-20.3528793684
 10
5.6247333904
 20
-20.350517545
  0
LINE
  5
297
100
AcDbEntity
  8
ASSI
100
AcDbLine
 62
7
  6
CONTINUOUS
 10
5.3205777345
 20
-20.3236698592
 11
5.3709524271
 21
-20.331839333
  0
LWPOLYLINE
  5
298
100
AcDbEntity
  8
ASSI
100
AcDbPolyline
 62
7
  6
CONTINUOUS
 90
10
 70
0
 10
4.7815157886
 20
-21.7983369567
 10
4.8064828929
 20
-21.8066612144
 10
4.833355626
 20
-21.8119698321
 10
4.861401098
 20
-21.813777509
 10
4.8899150644
 20
-21.81183107
 10
4.9179128225
 20
-21.8061428342
 10
4.9450292632
 20
-21.7968258803
 10
4.9706337258
 20
-21.7841860594
 10
4.9937988206
 20
-21.7690012234
 10
4.9965664796
 20
-21.7669153207
  0
LWPOLYLINE
  5
299
100
AcDbEntity
  8
RACCORDO
100
AcDbPolyline
 62
250
  6
CONTINUOUS
 90
14
 70
0
 10
0.4260573663
 20
-23.0756651662
 10
0.4082095496
 20
-23.0686151565
 10
0.3731490646
 20
-23.0498649629
 10
0.3405490327
 20
-23.0255136406
 10
0.3106039321
 20
-22.9956978192
 10
0.2834555429
 20
-22.9605680918
 10
0.2592262211
 20
-22.9203006426
 10
0.2380615277
 20
-22.8751116058
 10
0.2200635377
 20
-22.8252356448
 10
0.2053087441
 20
-22.7709216321
 10
0.19388391
 20
-22.7124405758
 10
0.1858490048
 20
-22.6500857954
 10
0.1812347051
 20
-22.5841746235
 10
0.180062057
 20
-22.5150416647
  0
LWPOLYLINE
  5
29A
100
AcDbEntity
  8
RACCORDO
100
AcDbPolyline
 62
250
  6
CONTINUOUS
 90
31
 70
0
 10
-16.8494422657
 20
-15.6756087879
 10
-16.3231564039
 20
-15.9161449969
 10
-15.7952681639
 20
-16.1553603043
 10
-15.2657894365
 20
-16.3932520508
 10
-14.7348574175
 20
-16.6297620626
 10
-14.2023594536
 20
-16.8649437927
 10
-13.6679289358
 20
-17.0989595418
 10
-13.1313978928
 20
-17.3318804534
 10
-12.5929497062
 20
-17.563624505
 10
-12.0527426177
 20
-17.7941227725
 10
-11.5108246395
 20
-18.0233550884
 10
-10.9671675617
 20
-18.2513337245
 10
-10.4218170997
 20
-18.4780396789
 10
-9.8747103053
 20
-18.7034990984
 10
-9.325929872
 20
-18.9276779107
 10
-8.7757426989
 20
-19.1504687794
 10
-8.2245150332
 20
-19.371728289
 10
-7.6719078197
 20
-19.5915975474
 10
-7.1171250943
 20
-19.8103923128
 10
-6.5612219929
 20
-20.027696936
 10
-6.003160474
 20
-20.2439172458
 10
-5.4389624385
 20
-20.4605684927
 10
-4.8695575879
 20
-20.6772528567
 10
-4.2939631157
 20
-20.8943023895
 10
-3.7052365952
 20
-21.1142510297
 10
-3.1030907977
 20
-21.337085895
 10
-2.4876304165
 20
-21.5626448168
 10
-1.8523816362
 20
-21.7931391544
 10
-1.1950590342
 20
-22.0291885753
 10
-0.5176297288
 20
-22.2698733823
 10
0.1800620719
 20
-22.5150416495
  0
LWPOLYLINE
  5
29B
100
AcDbEntity
  8
RACCORDO
100
AcDbPolyline
 62
250
  6
CONTINUOUS
 90
13
 70
0
 10
-16.849442261
 20
-15.6756087817
 10
-16.84804281
 20
-15.7448328343
 10
-16.8430585494
 20
-15.8108925932
 10
-16.8345188857
 20
-15.8734500969
 10
-16.8224803541
 20
-15.9321776269
 10
-16.8070036122
 20
-15.9867815884
 10
-16.7881504401
 20
-16.0370010083
 10
-16.7660251335
 20
-16.0825758483
 10
-16.7407461795
 20
-16.123264853
 10
-16.7124212316
 20
-16.1588671125
 10
-16.6812082805
 20
-16.1891921309
 10
-16.6472748199
 20
-16.2140789881
 10
-16.6147809198
 20
-16.2316152059
  0
LWPOLYLINE
  5
29C
100
AcDbEntity
  8
RACCORDO
100
AcDbPolyline
 62
7
  6
CONTINUOUS
 90
14
 70
0
 10
-17.0356593719
 20
-15.4524018014
 10
-17.0355721861
 20
-15.4810949208
 10
-17.0308765127
 20
-15.5740164887
 10
-17.0195708065
 20
-15.661752077
 10
-17.0018298416
 20
-15.7445129128
 10
-16.9777578548
 20
-15.82245448
 10
-16.9475037201
 20
-15.895381364
 10
-16.9112762779
 20
-15.9630934157
 10
-16.8692757492
 20
-16.0254109048
 10
-16.8219828268
 20
-16.081800914
 10
-16.7699786157
 20
-16.1318502361
 10
-16.7138470602
 20
-16.1753026226
 10
-16.6544509735
 20
-16.2118132508
 10
-16.614174347
 20
-16.2318914407
  0
LWPOLYLINE
  5
29D
100
AcDbEntity
  8
RACCORDO
100
AcDbPolyline
 62
7
  6
CONTINUOUS
 90
10
 70
0
 10
-15.7854100544
 20
19.6425723749
 10
-16.0184216464
 20
15.7226382932
 10
-16.2313457067
 20
11.7512911483
 10
-16.4198202746
 20
7.7983112863
 10
-16.5838121169
 20
3.8641181561
 10
-16.7233051986
 20
-0.0509473945
 10
-16.8382878069
 20
-3.9465738356
 10
-16.928750643
 20
-7.82242569
 10
-16.9946968383
 20
-11.6781122043
 10
-17.035665468
 20
-15.4523779658
  0
LWPOLYLINE
  5
29E
100
AcDbEntity
  8
RACCORDO
100
AcDbPolyline
 62
250
  6
CONTINUOUS
 90
10
 70
0
 10
-15.5988585723
 20
19.4280745197
 10
-15.8378418653
 20
15.4544491642
 10
-16.0518750559
 20
11.4981512676
 10
-16.2409276006
 20
7.5595482457
 10
-16.4049790762
 20
3.6388289178
 10
-16.5440000522
 20
-0.2634677985
 10
-16.6579590534
 20
-4.1464583211
 10
-16.7468476752
 20
-8.0096193823
 10
-16.8106736389
 20
-11.8527831113
 10
-16.8494422657
 20
-15.6756087879
  0
LWPOLYLINE
  5
29F
100
AcDbEntity
  8
RACCORDO
100
AcDbPolyline
 62
250
  6
CONTINUOUS
 90
16
 70
0
 10
-0.7764237198
 20
23.7086888372
 10
-0.7416061073
 20
23.7437735681
 10
-0.7039570288
 20
23.7758343907
 10
-0.6634764843
 20
23.8048713052
 10
-0.6196396631
 20
23.831095521
 10
-0.572971376
 20
23.8542958286
 10
-0.5250460547
 20
23.8738385993
 10
-0.475860158
 20
23.8895836578
 10
-0.4254172272
 20
23.9016711794
 10
-0.3753023178
 20
23.9098880616
 10
-0.3256379036
 20
23.9141312217
 10
-0.2763015107
 20
23.9145037424
 10
-0.228510773
 20
23.9111017685
 10
-0.1826715684
 20
23.9039573481
 10
-0.138378019
 20
23.8930384331
 10
-0.0956301248
 20
23.8783450235
  0
LWPOLYLINE
  5
2A0
100
AcDbEntity
  8
SUPERFICI
100
AcDbPolyline
 62
250
  6
CONTINUOUS
 90
16
 70
0
 10
-0.7764237198
 20
23.7086888372
 10
-0.7416061073
 20
23.7437735681
 10
-0.7039570288
 20
23.7758343907
 10
-0.6634764843
 20
23.8048713052
 10
-0.6196396631
 20
23.831095521
 10
-0.572971376
 20
23.8542958286
 10
-0.5250460547
 20
23.8738385993
 10
-0.475860158
 20
23.8895836578
 10
-0.4254172272
 20
23.9016711794
 10
-0.3753023178
 20
23.9098880616
 10
-0.3256379036
 20
23.9141312217
 10
-0.2763015107
 20
23.9145037424
 10
-0.228510773
 20
23.9111017685
 10
-0.1826715684
 20
23.9039573481
 10
-0.138378019
 20
23.8930384331
 10
-0.0956301248
 20
23.8783450235
  0
LWPOLYLINE
  5
2A1
100
AcDbEntity
  8
ASSI
100
AcDbPolyline
 62
7
  6
CONTINUOUS
 90
9
 70
0
 10
-1.7922210194
 20
21.8826078344
 10
-1.8065062157
 20
21.8689829964
 10
-1.8227865658
 20
21.8499878483
 10
-1.8369342468
 20
21.8291409696
 10
-1.8487294468
 20
21.8066894132
 10
-1.8580301451
 20
21.7827993005
 10
-1.8646737577
 20
21.7576839515
 10
-1.8684945286
 20
21.7317886415
 10
-1.8694756325
 20
21.7100953085
  0
LWPOLYLINE
  5
2A2
100
AcDbEntity
  8
ASSI
100
AcDbPolyline
 62
250
  6
CONTINUOUS
 90
6
 70
0
 10
1.9430370017
 20
26.6565236457
 10
1.9566083499
 20
26.6693267764
 10
1.9671451366
 20
26.6829876262
 10
1.9744669928
 20
26.6972724962
 10
1.9784485469
 20
26.7119370042
 10
1.9792052018
 20
26.7226795998
  0
LWPOLYLINE
  5
2A3
100
AcDbEntity
  8
ASSI
100
AcDbPolyline
 62
250
  6
CONTINUOUS
 90
13
 70
0
 10
-3.3593626949
 20
22.5911349497
 10
-3.3741516141
 20
22.5772810396
 10
-3.388659573
 20
22.560945477
 10
-3.4026438145
 20
22.5424016009
 10
-3.4158703446
 20
22.521959701
 10
-3.428117848
 20
22.4999618262
 10
-3.439181391
 20
22.4767760613
 10
-3.4488758513
 20
22.4527903669
 10
-3.4570390151
 20
22.4284060884
 10
-3.4635342915
 20
22.4040312402
 10
-3.4682529978
 20
22.3800736786
 10
-3.471116178
 20
22.3569342776
 10
-3.4720759243
 20
22.3350002207
  0
LINE
  5
2A4
100
AcDbEntity
  8
ASSI
100
AcDbLine
 62
7
  6
CONTINUOUS
 10
-1.6220845894
 20
22.0316363738
 11
-1.7925548251
 21
21.8823167611
  0
LINE
  5
2A5
100
AcDbEntity
  8
ASSI
100
AcDbLine
 62
250
  6
CONTINUOUS
 10
-1.4607913798
 20
22.0454716438
 11
-1.6305269547
 21
21.8967955408
  0
LINE
  5
2A6
100
AcDbEntity
  8
ASSI
100
AcDbLine
 62
7
  6
CONTINUOUS
 10
-3.154605874
 20
21.1895673092
 11
-2.9761914715
 21
21.3434472137
  0
LINE
  5
2A7
100
AcDbEntity
  8
ASSI
100
AcDbLine
 62
7
  6
CONTINUOUS
 10
-2.9761914715
 20
21.3434472137
 11
-2.4271399424
 21
21.8089362413
  0
LINE
  5
2A8
100
AcDbEntity
  8
ASSI
100
AcDbLine
 62
7
  6
CONTINUOUS
 10
-1.6220278922
 20
22.031685917
 11
-1.6162613744
 21
22.0364089081
  0
LINE
  5
2A9
100
AcDbEntity
  8
ASSI
100
AcDbLine
 62
7
  6
CONTINUOUS
 10
-1.0621376877
 20
22.4603900708
 11
-1.6162185395
 21
22.0364416827
  0
LINE
  5
2AA
100
AcDbEntity
  8
ASSI
100
AcDbLine
 62
250
  6
CONTINUOUS
 10
-0.9080702544
 20
22.4683796534
 11
-1.4607913798
 21
22.0454716438
  0
LINE
  5
2AB
100
AcDbEntity
  8
RACCORDO
100
AcDbLine
 62
7
  6
CONTINUOUS
 10
10.6619416637
 20
29.1495194503
 11
5.8270046362
 21
25.450124763
  0
LINE
  5
2AC
100
AcDbEntity
  8
SUPERFICI
100
AcDbLine
 62
7
  6
CONTINUOUS
 10
10.6619416637
 20
29.1495194503
 11
5.8271682487
 21
25.4502498835
  0
LINE
  5
2AD
100
AcDbEntity
  8
SUPERFICI
100
AcDbLine
 62
250
  6
CONTINUOUS
 10
5.8271682487
 20
25.4502498835
 11
5.827004606
 21
25.4501247398
  0
LINE
  5
2AE
100
AcDbEntity
  8
RACCORDO
100
AcDbLine
 62
7
  6
CONTINUOUS
 10
-0.5872017506
 20
22.6883755187
 11
-0.8943632719
 21
22.4628746203
  0
LINE
  5
2AF
100
AcDbEntity
  8
SUPERFICI
100
AcDbLine
 62
7
  6
CONTINUOUS
 10
-0.5872017506
 20
22.6883755187
 11
-0.8943632719
 21
22.4628746203
  0
LINE
  5
2B0
100
AcDbEntity
  8
RACCORDO
100
AcDbLine
 62
7
  6
CONTINUOUS
 10
-1.8658580817
 20
21.7496571847
 11
-1.9154340397
 21
21.7132612748
  0
LINE
  5
2B1
100
AcDbEntity
  8
SUPERFICI
100
AcDbLine
 62
7
  6
CONTINUOUS
 10
-1.8658580817
 20
21.7496571847
 11
-1.9154340397
 21
21.7132612748
  0
LWPOLYLINE
  5
2B2
100
AcDbEntity
  8
RACCORDO
100
AcDbPolyline
 62
250
  6
CONTINUOUS
 90
9
 70
0
 10
11.2178509559
 20
29.1792510198
 10
11.2616587656
 20
29.2113795582
 10
11.3052343173
 20
29.2379767534
 10
11.3482548504
 20
29.2587895324
 10
11.3904237315
 20
29.2736116597
 10
11.4313883038
 20
29.2822546865
 10
11.4707523662
 20
29.2845917691
 10
11.5082135751
 20
29.2805784796
 10
11.5441751652
 20
29.2699419574
  0
LWPOLYLINE
  5
2B3
100
AcDbEntity
  8
SUPERFICI
100
AcDbPolyline
 62
250
  6
CONTINUOUS
 90
9
 70
0
 10
11.2178509559
 20
29.1792510198
 10
11.2616587656
 20
29.2113795582
 10
11.3052343173
 20
29.2379767534
 10
11.3482548504
 20
29.2587895324
 10
11.3904237315
 20
29.2736116597
 10
11.4313883038
 20
29.2822546865
 10
11.4707523662
 20
29.2845917691
 10
11.5082135751
 20
29.2805784796
 10
11.5441751652
 20
29.2699419574
  0
LWPOLYLINE
  5
2B4
100
AcDbEntity
  8
RACCORDO
100
AcDbPolyline
 62
7
  6
CONTINUOUS
 90
25
 70
0
 10
5.8271685531
 20
25.4502494852
 10
5.8205603487
 20
25.4454740017
 10
5.8086006676
 20
25.4377567021
 10
5.7910926005
 20
25.4277405992
 10
5.7677781404
 20
25.4159676256
 10
5.7382754975
 20
25.4028944386
 10
5.7026497772
 20
25.3891635832
 10
5.6618187019
 20
25.375622319
 10
5.6162437408
 20
25.362781148
 10
5.5661729937
 20
25.3510125839
 10
5.5125117477
 20
25.3407901186
 10
5.4558366728
 20
25.3324116548
 10
5.3966804164
 20
25.3260953207
 10
5.3359306677
 20
25.3220377919
 10
5.2742317244
 20
25.3203501229
 10
5.2122138508
 20
25.3210748121
 10
5.1507415885
 20
25.3241799376
 10
5.0904033706
 20
25.3295995856
 10
5.0318542881
 20
25.3372051556
 10
4.9760208009
 20
25.3467392583
 10
4.9233823328
 20
25.3579432343
 10
4.8744401719
 20
25.3705141429
 10
4.830037907
 20
25.3839628777
 10
4.7906080588
 20
25.3978056218
 10
4.7737771296
 20
25.4043504274
  0
LWPOLYLINE
  5
2B5
100
AcDbEntity
  8
SUPERFICI
100
AcDbPolyline
 62
7
  6
CONTINUOUS
 90
25
 70
0
 10
5.8271685531
 20
25.4502494852
 10
5.8205603487
 20
25.4454740017
 10
5.8086006676
 20
25.4377567021
 10
5.7910926005
 20
25.4277405992
 10
5.7677781404
 20
25.4159676256
 10
5.7382754975
 20
25.4028944386
 10
5.7026497772
 20
25.3891635832
 10
5.6618187019
 20
25.375622319
 10
5.6162437408
 20
25.362781148
 10
5.5661729937
 20
25.3510125839
 10
5.5125117477
 20
25.3407901186
 10
5.4558366728
 20
25.3324116548
 10
5.3966804164
 20
25.3260953207
 10
5.3359306677
 20
25.3220377919
 10
5.2742317244
 20
25.3203501229
 10
5.2122138508
 20
25.3210748121
 10
5.1507415885
 20
25.3241799376
 10
5.0904033706
 20
25.3295995856
 10
5.0318542881
 20
25.3372051556
 10
4.9760208009
 20
25.3467392583
 10
4.9233823328
 20
25.3579432343
 10
4.8744401719
 20
25.3705141429
 10
4.830037907
 20
25.3839628777
 10
4.7906080588
 20
25.3978056218
 10
4.7737771296
 20
25.4043504274
  0
LWPOLYLINE
  5
2B6
100
AcDbEntity
  8
ASSI
100
AcDbPolyline
 62
250
  6
CONTINUOUS
 90
31
 70
0
 10
4.0564615285
 20
23.6887436144
 10
4.0647957857
 20
23.6946443634
 10
4.0739751028
 20
23.6999285168
 10
4.0839994798
 20
23.7045960747
 10
4.0949989066
 20
23.7086867474
 10
4.1068433933
 20
23.7121608245
 10
4.1191429697
 20
23.7148991753
 10
4.1319085926
 20
23.7168754187
 10
4.1451293052
 20
23.7181159358
 10
4.1583822676
 20
23.7185807386
 10
4.1716685917
 20
23.7182445708
 10
4.1849871655
 20
23.7171326888
 10
4.1979118136
 20
23.7152808739
 10
4.2104297799
 20
23.7126652582
 10
4.2225538204
 20
23.7093097096
 10
4.2338960269
 20
23.7053216138
 10
4.2444310534
 20
23.700680491
 10
4.2541842459
 20
23.695406821
 10
4.2628437338
 20
23.6896694281
 10
4.2703742376
 20
23.6834533631
 10
4.2768110368
 20
23.6767735754
 10
4.2819480988
 20
23.669843738
 10
4.2857430711
 20
23.6626557669
 10
4.2882383062
 20
23.655217746
 10
4.289354829
 20
23.6477676003
 10
4.289044366
 20
23.6403014481
 10
4.2873551908
 20
23.632823171
 10
4.2843531484
 20
23.6255823385
 10
4.2800601873
 20
23.6186621404
 10
4.2744543591
 20
23.6119793868
 10
4.2675356638
 20
23.6055340778
  0
LWPOLYLINE
  5
2B7
100
AcDbEntity
  8
RACCORDO
100
AcDbPolyline
 62
250
  6
CONTINUOUS
 90
15
 70
0
 10
6.3829139288
 20
25.4798563328
 10
6.3180695332
 20
25.4341196606
 10
6.2482399924
 20
25.3916851703
 10
6.1734253066
 20
25.352552862
 10
6.0931764575
 20
25.316557507
 10
6.0079424634
 20
25.283864334
 10
5.9190703787
 20
25.254969029
 10
5.8264915912
 20
25.2299224489
 10
5.7302747133
 20
25.2086737368
 10
5.6319726364
 20
25.191566008
 10
5.5315355842
 20
25.1786666659
 10
5.429013333
 20
25.169908307
 10
5.3261081038
 20
25.1654318367
 10
5.2228575339
 20
25.1653035622
 10
5.1594291116
 20
25.1678457619
  0
LWPOLYLINE
  5
2B8
100
AcDbEntity
  8
SUPERFICI
100
AcDbPolyline
 62
250
  6
CONTINUOUS
 90
15
 70
0
 10
6.3829139288
 20
25.4798563328
 10
6.3180695332
 20
25.4341196606
 10
6.2482399924
 20
25.3916851703
 10
6.1734253066
 20
25.352552862
 10
6.0931764575
 20
25.316557507
 10
6.0079424634
 20
25.283864334
 10
5.9190703787
 20
25.254969029
 10
5.8264915912
 20
25.2299224489
 10
5.7302747133
 20
25.2086737368
 10
5.6319726364
 20
25.191566008
 10
5.5315355842
 20
25.1786666659
 10
5.429013333
 20
25.169908307
 10
5.3261081038
 20
25.1654318367
 10
5.2228575339
 20
25.1653035622
 10
5.1594291116
 20
25.1678457619
  0
LWPOLYLINE
  5
2B9
100
AcDbEntity
  8
RACCORDO
100
AcDbPolyline
 62
7
  6
CONTINUOUS
 90
13
 70
0
 10
10.6619416637
 20
29.1495194503
 10
10.7251078149
 20
29.1936937936
 10
10.7924989343
 20
29.2326552409
 10
10.8635766332
 20
29.2658855104
 10
10.9374696338
 20
29.2928590884
 10
11.0137408255
 20
29.3133451579
 10
11.0924745721
 20
29.3271918551
 10
11.1732673116
 20
29.3340431431
 10
11.2549485992
 20
29.3335646786
 10
11.3365167436
 20
29.3256444186
 10
11.4173333533
 20
29.3102641604
 10
11.4964245894
 20
29.2875630608
 10
11.5441751652
 20
29.2699419574
  0
LWPOLYLINE
  5
2BA
100
AcDbEntity
  8
SUPERFICI
100
AcDbPolyline
 62
7
  6
CONTINUOUS
 90
13
 70
0
 10
10.6619416637
 20
29.1495194503
 10
10.7251078149
 20
29.1936937936
 10
10.7924989343
 20
29.2326552409
 10
10.8635766332
 20
29.2658855104
 10
10.9374696338
 20
29.2928590884
 10
11.0137408255
 20
29.3133451579
 10
11.0924745721
 20
29.3271918551
 10
11.1732673116
 20
29.3340431431
 10
11.2549485992
 20
29.3335646786
 10
11.3365167436
 20
29.3256444186
 10
11.4173333533
 20
29.3102641604
 10
11.4964245894
 20
29.2875630608
 10
11.5441751652
 20
29.2699419574
  0
LWPOLYLINE
  5
2BB
100
AcDbEntity
  8
ASSI
100
AcDbPolyline
 62
250
  6
CONTINUOUS
 90
8
 70
0
 10
6.5515799703
 20
25.0141993645
 10
6.5625866355
 20
25.0217261789
 10
6.5788035594
 20
25.0292673886
 10
6.596647394
 20
25.0339365208
 10
6.6158195085
 20
25.0356553363
 10
6.6359990739
 20
25.0343950105
 10
6.6568484534
 20
25.030176572
 10
6.6780187591
 20
25.0230705476
  0
LWPOLYLINE
  5
2BC
100
AcDbEntity
  8
ASSI
100
AcDbPolyline
 62
250
  6
CONTINUOUS
 90
8
 70
0
 10
3.8984268375
 20
23.6776655887
 10
3.9128104919
 20
23.687430272
 10
3.933038293
 20
23.6966957522
 10
3.9552664557
 20
23.7024079215
 10
3.9791272066
 20
23.7044724196
 10
4.0042257556
 20
23.7028552081
 10
4.030146814
 20
23.69758316
 10
4.0564615285
 20
23.6887436144
  0
LWPOLYLINE
  5
2BD
100
AcDbEntity
  8
RACCORDO
100
AcDbPolyline
 62
250
  6
CONTINUOUS
 90
11
 70
0
 10
10.6619416637
 20
29.1495194503
 10
10.7004343633
 20
29.1756323105
 10
10.7477942084
 20
29.1999959742
 10
10.7986615436
 20
29.2185378843
 10
10.8526493876
 20
29.2311169805
 10
10.9093470196
 20
29.2376375653
 10
10.9683231037
 20
29.2380500324
 10
11.0291289701
 20
29.2323512438
 10
11.0913020288
 20
29.220584554
 10
11.1543692887
 20
29.2028394799
 10
11.2178509559
 20
29.1792510198
  0
LWPOLYLINE
  5
2BE
100
AcDbEntity
  8
SUPERFICI
100
AcDbPolyline
 62
250
  6
CONTINUOUS
 90
11
 70
0
 10
10.6619416637
 20
29.1495194503
 10
10.7004343633
 20
29.1756323105
 10
10.7477942084
 20
29.1999959742
 10
10.7986615436
 20
29.2185378843
 10
10.8526493876
 20
29.2311169805
 10
10.9093470196
 20
29.2376375653
 10
10.9683231037
 20
29.2380500324
 10
11.0291289701
 20
29.2323512438
 10
11.0913020288
 20
29.220584554
 10
11.1543692887
 20
29.2028394799
 10
11.2178509559
 20
29.1792510198
  0
LWPOLYLINE
  5
2BF
100
AcDbEntity
  8
RACCORDO
100
AcDbPolyline
 62
250
  6
CONTINUOUS
 90
32
 70
0
 10
11.0166555733
 20
25.0076955594
 10
11.1161199646
 20
25.0486322719
 10
11.2174794895
 20
25.0859072734
 10
11.3206983205
 20
25.1197251589
 10
11.423403844
 20
25.1500182939
 10
11.5252945557
 20
25.1766007013
 10
11.6266719598
 20
25.1996583581
 10
11.7260679559
 20
25.2196815605
 10
11.8232524672
 20
25.236619086
 10
11.9184555704
 20
25.250522157
 10
12.0108993944
 20
25.2620347374
 10
12.1004169529
 20
25.2711650022
 10
12.1871752322
 20
25.2779047763
 10
12.2708973196
 20
25.2828734987
 10
12.3514465678
 20
25.28610574
 10
12.428959624
 20
25.2875669296
 10
12.5035695177
 20
25.287772794
 10
12.5752294986
 20
25.2867661063
 10
12.6439863169
 20
25.2845040933
 10
12.7101132531
 20
25.2813741621
 10
12.7735842305
 20
25.2774138708
 10
12.8344253257
 20
25.2725856612
 10
12.892988049
 20
25.2671642665
 10
12.9492586965
 20
25.2611817459
 10
13.0032509721
 20
25.2546060402
 10
13.0553574983
 20
25.2476157045
 10
13.1055734528
 20
25.2402368664
 10
13.1539036578
 20
25.2324433984
 10
13.2007552026
 20
25.2243354736
 10
13.2462637837
 20
25.2159464831
 10
13.2902937045
 20
25.2072430359
 10
13.332844965
 20
25.1982251318
  0
LWPOLYLINE
  5
2C0
100
AcDbEntity
  8
ASSI
100
AcDbPolyline
 62
7
  6
CONTINUOUS
 90
5
 70
0
 10
4.1418950601
 20
20.7385658991
 10
4.1153746802
 20
20.7298428428
 10
4.0902630909
 20
20.7179477358
 10
4.0673191326
 20
20.7035093944
 10
4.0608378105
 20
20.6987235609
  0
LINE
  5
2C1
100
AcDbEntity
  8
ASSI
100
AcDbLine
 62
250
  6
CONTINUOUS
 10
6.8002992076
 20
-19.8828098617
 11
6.7975344983
 21
-19.8824699069
  0
LWPOLYLINE
  5
2C2
100
AcDbEntity
  8
ASSI
100
AcDbPolyline
 62
250
  6
CONTINUOUS
 90
3
 70
0
 10
6.7101940754
 20
-19.6334032003
 10
6.7029671257
 20
-19.6311067668
 10
6.6891264232
 20
-19.6294561711
  0
LWPOLYLINE
  5
2C3
100
AcDbEntity
  8
ASSI
100
AcDbPolyline
 62
250
  6
CONTINUOUS
 90
13
 70
0
 10
4.7314591678
 20
-21.6838782724
 10
4.7535668092
 20
-21.691585564
 10
4.7772240256
 20
-21.6975915335
 10
4.8020349681
 20
-21.7017956848
 10
4.8275844829
 20
-21.7041276711
 10
4.8534450579
 20
-21.704548472
 10
4.8791839762
 20
-21.7030510464
 10
4.9043705565
 20
-21.6996604503
 10
4.9285833594
 20
-21.6944334174
 10
4.9514172398
 20
-21.6874574101
 10
4.9724901253
 20
-21.6788491557
 10
4.99144941
 20
-21.6687526934
 10
5.007977854
 20
-21.6573369644
  0
LWPOLYLINE
  5
2C4
100
AcDbEntity
  8
ASSI
100
AcDbPolyline
 62
250
  6
CONTINUOUS
 90
13
 70
0
 10
4.7314591678
 20
-21.3837815486
 10
4.7535668273
 20
-21.3914888457
 10
4.7772240606
 20
-21.3974948172
 10
4.8020350176
 20
-21.4016989676
 10
4.8275845435
 20
-21.4040309507
 10
4.8534451254
 20
-21.404451747
 10
4.8791840454
 20
-21.4029543162
 10
4.9043706219
 20
-21.3995637153
 10
4.9285834166
 20
-21.394336679
 10
4.9514172849
 20
-21.3873606704
 10
4.9724901558
 20
-21.3787524177
 10
4.9914494249
 20
-21.3686559607
 10
5.007977854
 20
-21.3572402406
  0
LINE
  5
2C5
100
AcDbEntity
  8
ASSI
100
AcDbLine
 62
7
  6
CONTINUOUS
 10
4.7819326684
 20
-21.7985068366
 11
3.5806110795
 21
-21.3160290034
  0
LINE
  5
2C6
100
AcDbEntity
  8
ASSI
100
AcDbLine
 62
250
  6
CONTINUOUS
 10
4.7314591678
 20
-21.6838782724
 11
3.6689345376
 21
-21.2571444268
  0
LINE
  5
2C7
100
AcDbEntity
  8
ASSI
100
AcDbLine
 62
250
  6
CONTINUOUS
 10
4.7314591678
 20
-21.3837815486
 11
3.9264966624
 21
-21.0604904589
  0
LINE
  5
2C8
100
AcDbEntity
  8
ASSI
100
AcDbLine
 62
250
  6
CONTINUOUS
 10
4.8035136812
 20
-21.1478427033
 11
3.9808677084
 21
-20.8174495345
  0
LINE
  5
2C9
100
AcDbEntity
  8
ASSI
100
AcDbLine
 62
7
  6
CONTINUOUS
 10
4.4368795213
 20
-19.9740921166
 11
5.2790850327
 21
-20.312340837
  0
LWPOLYLINE
  5
2CA
100
AcDbEntity
  8
ASSI
100
AcDbPolyline
 62
250
  6
CONTINUOUS
 90
16
 70
0
 10
4.781520633
 20
-21.7983394513
 10
4.7787298636
 20
-21.7971024424
 10
4.7725521327
 20
-21.7936698717
 10
4.7667361273
 20
-21.7894305969
 10
4.7613079062
 20
-21.7844032368
 10
4.756281719
 20
-21.7786006293
 10
4.7516785442
 20
-21.772045625
 10
4.747515315
 20
-21.764762369
 10
4.7438061321
 20
-21.7567756311
 10
4.740564662
 20
-21.7481144385
 10
4.7378023064
 20
-21.7388093137
 10
4.7355288575
 20
-21.7288934652
 10
4.733752681
 20
-21.7184038326
 10
4.7324798866
 20
-21.7073785093
 10
4.7317145677
 20
-21.6958562948
 10
4.7314591678
 20
-21.6838782724
  0
LWPOLYLINE
  5
2CB
100
AcDbEntity
  8
ASSI
100
AcDbPolyline
 62
250
  6
CONTINUOUS
 90
13
 70
0
 10
4.8035136812
 20
-21.1478427033
 10
4.8250676464
 20
-21.1575059005
 10
4.8472274444
 20
-21.1686113303
 10
4.8696181101
 20
-21.1809710781
 10
4.8918607718
 20
-21.194376005
 10
4.913579062
 20
-21.2085992868
 10
4.9344054864
 20
-21.2234002518
 10
4.9539876418
 20
-21.2385284532
 10
4.9719941791
 20
-21.2537279075
 10
4.9881204104
 20
-21.268741425
 10
5.0020934642
 20
-21.2833149626
 10
5.0136769029
 20
-21.297201922
 10
5.0226747237
 20
-21.3101673223
  0
LWPOLYLINE
  5
2CC
100
AcDbEntity
  8
ASSI
100
AcDbPolyline
 62
250
  6
CONTINUOUS
 90
5
 70
0
 10
-7.7768975346
 20
24.9294516013
 10
-7.7745709779
 20
24.9358031446
 10
-7.7745666391
 20
24.9447630462
 10
-7.777516917
 20
24.9551827336
 10
-7.78337189
 20
24.9668858954
  0
LWPOLYLINE
  5
2CD
100
AcDbEntity
  8
RACCORDO
100
AcDbPolyline
 62
250
  6
CONTINUOUS
 90
10
 70
0
 10
-0.0956301248
 20
23.8783450235
 10
-0.1110753238
 20
23.8576161135
 10
-0.125552945
 20
23.8346082404
 10
-0.1387653526
 20
23.8097944073
 10
-0.1504409216
 20
23.7836847452
 10
-0.1603396221
 20
23.7568160249
 10
-0.1682579532
 20
23.7297406224
 10
-0.1740331273
 20
23.7030151625
 10
-0.1775464166
 20
23.6771890759
 10
-0.1787255936
 20
23.6527933037
  0
LWPOLYLINE
  5
2CE
100
AcDbEntity
  8
SUPERFICI
100
AcDbPolyline
 62
250
  6
CONTINUOUS
 90
10
 70
0
 10
-0.0956301248
 20
23.8783450235
 10
-0.1110753238
 20
23.8576161135
 10
-0.125552945
 20
23.8346082404
 10
-0.1387653526
 20
23.8097944073
 10
-0.1504409216
 20
23.7836847452
 10
-0.1603396221
 20
23.7568160249
 10
-0.1682579532
 20
23.7297406224
 10
-0.1740331273
 20
23.7030151625
 10
-0.1775464166
 20
23.6771890759
 10
-0.1787255936
 20
23.6527933037
  0
LINE
  5
2CF
100
AcDbEntity
  8
RACCORDO
100
AcDbLine
 62
7
  6
CONTINUOUS
 10
-1.1189893943
 20
24.4558898693
 11
-2.4446216709
 21
22.771877634
  0
LINE
  5
2D0
100
AcDbEntity
  8
SUPERFICI
100
AcDbLine
 62
7
  6
CONTINUOUS
 10
-1.1189893943
 20
24.4558898693
 11
-2.4446216709
 21
22.771877634
  0
LINE
  5
2D1
100
AcDbEntity
  8
RACCORDO
100
AcDbLine
 62
250
  6
CONTINUOUS
 10
-0.985242243
 20
24.4742018835
 11
-2.4419316102
 21
22.6237017405
  0
LINE
  5
2D2
100
AcDbEntity
  8
SUPERFICI
100
AcDbLine
 62
250
  6
CONTINUOUS
 10
-0.985242243
 20
24.4742018835
 11
-2.4419316102
 21
22.6237017405
  0
LWPOLYLINE
  5
2D3
100
AcDbEntity
  8
RACCORDO
100
AcDbPolyline
 62
250
  6
CONTINUOUS
 90
14
 70
0
 10
-0.5872017506
 20
23.5064805964
 10
-0.5667500847
 20
23.5323243392
 10
-0.5440491383
 20
23.5563585942
 10
-0.5193658394
 20
23.5784670578
 10
-0.4929754798
 20
23.5986584121
 10
-0.4651821828
 20
23.616743818
 10
-0.4363194987
 20
23.6323423194
 10
-0.4067038791
 20
23.6453815024
 10
-0.3766492708
 20
23.6558766668
 10
-0.3464916012
 20
23.6636151595
 10
-0.3165912094
 20
23.6685842682
 10
-0.2871896818
 20
23.6708629897
 10
-0.2584375526
 20
23.6703824245
 10
-0.2305740486
 20
23.6671464775
  0
LWPOLYLINE
  5
2D4
100
AcDbEntity
  8
SUPERFICI
100
AcDbPolyline
 62
250
  6
CONTINUOUS
 90
14
 70
0
 10
-0.5872017506
 20
23.5064805964
 10
-0.5667500847
 20
23.5323243392
 10
-0.5440491383
 20
23.5563585942
 10
-0.5193658394
 20
23.5784670578
 10
-0.4929754798
 20
23.5986584121
 10
-0.4651821828
 20
23.616743818
 10
-0.4363194987
 20
23.6323423194
 10
-0.4067038791
 20
23.6453815024
 10
-0.3766492708
 20
23.6558766668
 10
-0.3464916012
 20
23.6636151595
 10
-0.3165912094
 20
23.6685842682
 10
-0.2871896818
 20
23.6708629897
 10
-0.2584375526
 20
23.6703824245
 10
-0.2305740486
 20
23.6671464775
  0
LWPOLYLINE
  5
2D5
100
AcDbEntity
  8
RACCORDO
100
AcDbPolyline
 62
7
  6
CONTINUOUS
 90
5
 70
0
 10
-1.1190136174
 20
24.4558590058
 10
-1.1165291382
 20
24.4588671453
 10
-1.1118668547
 20
24.4637807817
 10
-1.1066027295
 20
24.4684065585
 10
-1.1058050982
 20
24.469035746
  0
LWPOLYLINE
  5
2D6
100
AcDbEntity
  8
SUPERFICI
100
AcDbPolyline
 62
7
  6
CONTINUOUS
 90
5
 70
0
 10
-1.1190136174
 20
24.4558590058
 10
-1.1165291382
 20
24.4588671453
 10
-1.1118668547
 20
24.4637807817
 10
-1.1066027295
 20
24.4684065585
 10
-1.1058050982
 20
24.469035746
  0
LINE
  5
2D7
100
AcDbEntity
  8
RACCORDO
100
AcDbLine
 62
250
  6
CONTINUOUS
 10
-2.3936017017
 20
21.9053041879
 11
-0.7764237198
 21
23.7086888372
  0
LINE
  5
2D8
100
AcDbEntity
  8
SUPERFICI
100
AcDbLine
 62
250
  6
CONTINUOUS
 10
-2.3936017017
 20
21.9053041879
 11
-0.7764237198
 21
23.7086888372
  0
LINE
  5
2D9
100
AcDbEntity
  8
RACCORDO
100
AcDbLine
 62
250
  6
CONTINUOUS
 10
-2.1211681674
 20
21.7958887386
 11
-0.5872017506
 21
23.5064805964
  0
LINE
  5
2DA
100
AcDbEntity
  8
SUPERFICI
100
AcDbLine
 62
250
  6
CONTINUOUS
 10
-2.1211681674
 20
21.7958887386
 11
-0.5872017506
 21
23.5064805964
  0
LWPOLYLINE
  5
2DB
100
AcDbEntity
  8
RACCORDO
100
AcDbPolyline
 62
250
  6
CONTINUOUS
 90
16
 70
0
 10
1.5172020042
 20
22.7875170378
 10
1.5520196167
 20
22.8226017687
 10
1.5896686952
 20
22.8546625914
 10
1.6301492398
 20
22.8836995059
 10
1.6739860609
 20
22.9099237217
 10
1.720654348
 20
22.9331240293
 10
1.7685796693
 20
22.9526668
 10
1.817765566
 20
22.9684118585
 10
1.8682084968
 20
22.9804993801
 10
1.9183234062
 20
22.9887162622
 10
1.9679878204
 20
22.9929594224
 10
2.0173242133
 20
22.9933319431
 10
2.065114951
 20
22.9899299691
 10
2.1109541556
 20
22.9827855488
 10
2.155247705
 20
22.9718666338
 10
2.1979955992
 20
22.9571732241
  0
LWPOLYLINE
  5
2DC
100
AcDbEntity
  8
SUPERFICI
100
AcDbPolyline
 62
250
  6
CONTINUOUS
 90
16
 70
0
 10
1.5172020042
 20
22.7875170378
 10
1.5520196167
 20
22.8226017687
 10
1.5896686952
 20
22.8546625914
 10
1.6301492398
 20
22.8836995059
 10
1.6739860609
 20
22.9099237217
 10
1.720654348
 20
22.9331240293
 10
1.7685796693
 20
22.9526668
 10
1.817765566
 20
22.9684118585
 10
1.8682084968
 20
22.9804993801
 10
1.9183234062
 20
22.9887162622
 10
1.9679878204
 20
22.9929594224
 10
2.0173242133
 20
22.9933319431
 10
2.065114951
 20
22.9899299691
 10
2.1109541556
 20
22.9827855488
 10
2.155247705
 20
22.9718666338
 10
2.1979955992
 20
22.9571732241
  0
LWPOLYLINE
  5
2DD
100
AcDbEntity
  8
ASSI
100
AcDbPolyline
 62
7
  6
CONTINUOUS
 90
16
 70
0
 10
4.421892064
 20
22.6252012698
 10
4.4275385163
 20
22.6300378245
 10
4.4509644502
 20
22.6540528689
 10
4.4706640258
 20
22.6813516397
 10
4.4867558859
 20
22.7122450261
 10
4.4991213877
 20
22.7464221391
 10
4.5074046032
 20
22.7829503109
 10
4.5114868896
 20
22.8219929998
 10
4.5114868896
 20
22.8633867476
 10
4.5074046032
 20
22.9057085129
 10
4.4991213877
 20
22.948890137
 10
4.4867558859
 20
22.9929997785
 10
4.4706640258
 20
23.0368188726
 10
4.4509644502
 20
23.0799412307
 10
4.4275385163
 20
23.1227730414
 10
4.4003862243
 20
23.1653143045
  0
LINE
  5
2DE
100
AcDbEntity
  8
ASSI
100
AcDbLine
 62
250
  6
CONTINUOUS
 10
4.2675356638
 20
23.6055340778
 11
1.1195999401
 21
21.0091283162
  0
LINE
  5
2DF
100
AcDbEntity
  8
ASSI
100
AcDbLine
 62
250
  6
CONTINUOUS
 10
4.4722924847
 20
23.3185423016
 11
1.324356761
 21
20.7221365399
  0
LINE
  5
2E0
100
AcDbEntity
  8
ASSI
100
AcDbLine
 62
7
  6
CONTINUOUS
 10
1.324356761
 20
19.6162500899
 11
4.4624983641
 21
22.2045776971
  0
LINE
  5
2E1
100
AcDbEntity
  8
ASSI
100
AcDbLine
 62
7
  6
CONTINUOUS
 10
4.4215711069
 20
22.6247330124
 11
3.5088572335
 21
21.8734845023
  0
LINE
  5
2E2
100
AcDbEntity
  8
ASSI
100
AcDbLine
 62
250
  6
CONTINUOUS
 10
0.9411855376
 20
20.8639378259
 11
1.1195999401
 21
21.0091283162
  0
LINE
  5
2E3
100
AcDbEntity
  8
ASSI
100
AcDbLine
 62
250
  6
CONTINUOUS
 10
1.1459423585
 20
20.5769460497
 11
1.324356761
 21
20.7221365399
  0
LINE
  5
2E4
100
AcDbEntity
  8
ASSI
100
AcDbLine
 62
7
  6
CONTINUOUS
 10
1.2746495365
 20
21.5917501771
 11
3.8983819447
 21
23.6776299168
  0
LINE
  5
2E5
100
AcDbEntity
  8
ASSI
100
AcDbLine
 62
250
  6
CONTINUOUS
 10
1.3703855466
 20
21.5533004372
 11
4.0564615285
 21
23.6887436144
  0
LINE
  5
2E6
100
AcDbEntity
  8
ASSI
100
AcDbLine
 62
7
  6
CONTINUOUS
 10
4.5344815486
 20
23.0379201781
 11
4.7017213875
 21
23.1708766453
  0
LINE
  5
2E7
100
AcDbEntity
  8
ASSI
100
AcDbLine
 62
7
  6
CONTINUOUS
 10
4.8236498466
 20
23.6409369213
 11
6.5515801177
 21
25.0141994817
  0
LINE
  5
2E8
100
AcDbEntity
  8
ASSI
100
AcDbLine
 62
250
  6
CONTINUOUS
 10
4.8682747048
 20
23.5847869574
 11
6.6780187602
 21
25.0230705484
  0
LINE
  5
2E9
100
AcDbEntity
  8
RACCORDO
100
AcDbLine
 62
7
  6
CONTINUOUS
 10
12.3428956664
 20
28.7274077006
 11
9.5586830898
 21
26.5225328854
  0
LINE
  5
2EA
100
AcDbEntity
  8
SUPERFICI
100
AcDbLine
 62
7
  6
CONTINUOUS
 10
12.3428956664
 20
28.7274077006
 11
9.5586830898
 21
26.5225328854
  0
LINE
  5
2EB
100
AcDbEntity
  8
RACCORDO
100
AcDbLine
 62
250
  6
CONTINUOUS
 10
11.2178509559
 20
29.1792510198
 11
6.3829139288
 21
25.4798563328
  0
LINE
  5
2EC
100
AcDbEntity
  8
SUPERFICI
100
AcDbLine
 62
250
  6
CONTINUOUS
 10
11.2178509559
 20
29.1792510198
 11
6.3829139288
 21
25.4798563328
  0
LWPOLYLINE
  5
2ED
100
AcDbEntity
  8
ASSI
100
AcDbPolyline
 62
250
  6
CONTINUOUS
 90
9
 70
0
 10
6.6780187602
 20
25.0230705484
 10
6.7203227429
 20
25.0544862636
 10
6.7622800162
 20
25.081231282
 10
6.8036605519
 20
25.1031595351
 10
6.8442354838
 20
25.1201520361
 10
6.883783322
 20
25.1321157158
 10
6.9220911552
 20
25.1389838405
 10
6.9589467825
 20
25.1407198286
 10
6.9941471796
 20
25.1373145427
  0
LINE
  5
2EE
100
AcDbEntity
  8
ASSI
100
AcDbLine
 62
7
  6
CONTINUOUS
 10
6.6055827291
 20
25.0537011564
 11
6.5515510227
 21
25.0141603421
  0
LWPOLYLINE
  5
2EF
100
AcDbEntity
  8
ASSI
100
AcDbPolyline
 62
7
  6
CONTINUOUS
 90
4
 70
0
 10
3.6164543438
 20
20.3587089271
 10
3.6249993642
 20
20.3645049653
 10
3.6411100948
 20
20.3721632507
 10
3.6589272963
 20
20.376912185
  0
LWPOLYLINE
  5
2F0
100
AcDbEntity
  8
0
100
AcDbPolyline
 62
250
  6
CONTINUOUS
 90
10
 70
0
 10
-9.0721239728
 20
-12.2849402393
 10
-8.8705779151
 20
-12.3409043659
 10
-8.6731620389
 20
-12.4014180942
 10
-8.4802089937
 20
-12.4663794741
 10
-8.2920437919
 20
-12.5356791068
 10
-8.1089836248
 20
-12.6092001969
 10
-7.9313372946
 20
-12.6868187225
 10
-7.7594042217
 20
-12.7684038339
 10
-7.5934739737
 20
-12.8538181007
 10
-7.4338261181
 20
-12.9429175926
  0
LWPOLYLINE
  5
2F1
100
AcDbEntity
  8
DRAFT
100
AcDbPolyline
 62
7
  6
CONTINUOUS
 90
11
 70
0
 10
4.0957792275
 20
-17.5919016515
 10
4.0982595235
 20
-17.5927744819
 10
4.1515273639
 20
-17.6065158964
 10
4.2034220593
 20
-17.6147702495
 10
4.2544457718
 20
-17.6174988717
 10
4.3040963391
 20
-17.6147404324
 10
4.3508672746
 20
-17.6066109401
 10
4.3945441048
 20
-17.593023806
 10
4.4353413031
 20
-17.5740656189
 10
4.4723958032
 20
-17.5501121541
 10
4.4769517074
 20
-17.5466042322
  0
LINE
  5
2F2
100
AcDbEntity
  8
ASSI
100
AcDbLine
 62
7
  6
CONTINUOUS
 10
4.0377127715
 20
-19.2218177465
 11
4.4368795213
 21
-19.3821321123
  0
LINE
  5
2F3
100
AcDbEntity
  8
ASSI
100
AcDbLine
 62
7
  6
CONTINUOUS
 10
5.2790850327
 20
-19.6559859234
 11
5.5109803144
 21
-19.7491202965
  0
LINE
  5
2F4
100
AcDbEntity
  8
ASSI
100
AcDbLine
 62
250
  6
CONTINUOUS
 10
6.3621418334
 20
-19.4981376333
 11
6.689125565
 21
-19.6294558113
  0
LINE
  5
2F5
100
AcDbEntity
  8
ASSI
100
AcDbLine
 62
7
  6
CONTINUOUS
 10
6.7104465616
 20
-19.6335038491
 11
6.3621418334
 21
-19.4936168177
  0
LINE
  5
2F6
100
AcDbEntity
  8
ASSI
100
AcDbLine
 62
250
  6
CONTINUOUS
 10
6.7100578786
 20
-19.639594897
 11
6.6890846275
 21
-19.6294560054
  0
LWPOLYLINE
  5
2F7
100
AcDbEntity
  8
DRAFT
100
AcDbPolyline
 62
250
  6
CONTINUOUS
 90
10
 70
0
 10
-7.4337918443
 20
-12.9405846233
 10
-7.3327341608
 20
-13.0019378482
 10
-7.2345586366
 20
-13.0644981571
 10
-7.1393362927
 20
-13.1282239421
 10
-7.0471347645
 20
-13.1929896522
 10
-6.9580221741
 20
-13.2588395413
 10
-6.8720669265
 20
-13.3259803602
 10
-6.7893324584
 20
-13.3944453595
 10
-6.7098773479
 20
-13.4641016505
 10
-6.6337590807
 20
-13.5348988362
  0
LWPOLYLINE
  5
2F8
100
AcDbEntity
  8
ASSI
100
AcDbPolyline
 62
7
  6
CONTINUOUS
 90
7
 70
0
 10
-12.3263660495
 20
24.5910492582
 10
-12.3262969056
 20
24.58505895
 10
-12.3245895159
 20
24.5610235117
 10
-12.3202760297
 20
24.5361795592
 10
-12.3132080253
 20
24.5116588432
 10
-12.3033815029
 20
24.4879938401
 10
-12.2906906172
 20
24.4653126199
  0
LINE
  5
2F9
100
AcDbEntity
  8
ASSI
100
AcDbLine
 62
7
  6
CONTINUOUS
 10
-12.3263657345
 20
24.5910182165
 11
-12.3263657345
 21
24.8911149402
  0
LINE
  5
2FA
100
AcDbEntity
  8
0
100
AcDbLine
 62
7
  6
CONTINUOUS
 10
-12.2826044077
 20
23.5568300256
 11
-12.2826044077
 21
22.992322523
  0
LINE
  5
2FB
100
AcDbEntity
  8
ASSI
100
AcDbLine
 62
250
  6
CONTINUOUS
 10
-12.2410810217
 20
24.4970653659
 11
-12.2410810217
 21
24.7971456783
  0
LINE
  5
2FC
100
AcDbEntity
  8
ASSI
100
AcDbLine
 62
7
  6
CONTINUOUS
 10
-11.7481599048
 20
23.8310983463
 11
-11.7481599048
 21
24.2047234527
  0
LWPOLYLINE
  5
2FD
100
AcDbEntity
  8
ASSI
100
AcDbPolyline
 62
250
  6
CONTINUOUS
 90
28
 70
0
 10
-12.2410810217
 20
24.7971456783
 10
-12.240914288
 20
24.8071737168
 10
-12.2403958433
 20
24.8177539577
 10
-12.2394972135
 20
24.8288814949
 10
-12.2381867005
 20
24.8405742447
 10
-12.2364386604
 20
24.8527910284
 10
-12.2342430626
 20
24.8654266586
 10
-12.2315832439
 20
24.8784526023
 10
-12.2284442021
 20
24.8918349447
 10
-12.2248376892
 20
24.9054474937
 10
-12.2207610593
 20
24.9192472471
 10
-12.2162139692
 20
24.9331868111
 10
-12.21123137
 20
24.9471275116
 10
-12.2058284909
 20
24.9610110356
 10
-12.2000162761
 20
24.9747942581
 10
-12.1938393798
 20
24.9883632412
 10
-12.1873279741
 20
25.001653776
 10
-12.1804982827
 20
25.0146345293
 10
-12.1733820354
 20
25.0272459463
 10
-12.1660093687
 20
25.0394382254
 10
-12.15840394
 20
25.0511756571
 10
-12.1505896151
 20
25.062422779
 10
-12.1425942896
 20
25.0731409867
 10
-12.1344470259
 20
25.0832927971
 10
-12.1261738366
 20
25.0928461973
 10
-12.1178031432
 20
25.101768742
 10
-12.1093658302
 20
25.1100283118
 10
-12.1008919255
 20
25.1175962055
  0
LWPOLYLINE
  5
2FE
100
AcDbEntity
  8
ASSI
100
AcDbPolyline
 62
7
  6
CONTINUOUS
 90
3
 70
0
 10
-7.7431227428
 20
25.0130661011
 10
-7.7388344796
 20
25.0343176679
 10
-7.7361873091
 20
25.0555311563
  0
LINE
  5
2FF
100
AcDbEntity
  8
SUPERFICI
100
AcDbLine
 62
7
  6
CONTINUOUS
 10
0.7906515411
 20
23.014156473
 11
0.0937757825
 21
22.0660156989
  0
LINE
  5
300
100
AcDbEntity
  8
RACCORDO
100
AcDbLine
 62
250
  6
CONTINUOUS
 10
0.9201851687
 20
23.0272924584
 11
0.186332743
 21
22.028842737
  0
LINE
  5
301
100
AcDbEntity
  8
SUPERFICI
100
AcDbLine
 62
250
  6
CONTINUOUS
 10
0.9201851687
 20
23.0272924584
 11
0.186332743
 21
22.028842737
  0
LINE
  5
302
100
AcDbEntity
  8
RACCORDO
100
AcDbLine
 62
7
  6
CONTINUOUS
 10
0.7907103598
 20
23.0142363397
 11
0.0937757825
 21
22.0660156989
  0
LINE
  5
303
100
AcDbEntity
  8
SUPERFICI
100
AcDbLine
 62
250
  6
CONTINUOUS
 10
0.7907103598
 20
23.0142363397
 11
0.7906515411
 21
23.014156473
  0
LWPOLYLINE
  5
304
100
AcDbEntity
  8
RACCORDO
100
AcDbPolyline
 62
250
  6
CONTINUOUS
 90
10
 70
0
 10
0.7829493388
 20
23.5254877038
 10
0.7675036904
 20
23.5047580863
 10
0.7530258026
 20
23.4817495827
 10
0.7398133023
 20
23.4569352828
 10
0.7281377972
 20
23.4308254023
 10
0.718239266
 20
23.4039567297
 10
0.7103211411
 20
23.3768815859
 10
0.704546161
 20
23.3501565583
 10
0.701033012
 20
23.3243310622
 10
0.6998538725
 20
23.299935983
  0
LWPOLYLINE
  5
305
100
AcDbEntity
  8
SUPERFICI
100
AcDbPolyline
 62
250
  6
CONTINUOUS
 90
10
 70
0
 10
0.7829493388
 20
23.5254877038
 10
0.7675036904
 20
23.5047580863
 10
0.7530258026
 20
23.4817495827
 10
0.7398133023
 20
23.4569352828
 10
0.7281377972
 20
23.4308254023
 10
0.718239266
 20
23.4039567297
 10
0.7103211411
 20
23.3768815859
 10
0.704546161
 20
23.3501565583
 10
0.701033012
 20
23.3243310622
 10
0.6998538725
 20
23.299935983
  0
LWPOLYLINE
  5
306
100
AcDbEntity
  8
RACCORDO
100
AcDbPolyline
 62
250
  6
CONTINUOUS
 90
10
 70
0
 10
2.1979955992
 20
22.9571732241
 10
2.1825504002
 20
22.9364443142
 10
2.168072779
 20
22.913436441
 10
2.1548603715
 20
22.888622608
 10
2.1431848024
 20
22.8625129458
 10
2.1332861019
 20
22.8356442256
 10
2.1253677708
 20
22.808568823
 10
2.1195925967
 20
22.7818433631
 10
2.1160793074
 20
22.7560172765
 10
2.1149001304
 20
22.7316215043
  0
LWPOLYLINE
  5
307
100
AcDbEntity
  8
SUPERFICI
100
AcDbPolyline
 62
250
  6
CONTINUOUS
 90
10
 70
0
 10
2.1979955992
 20
22.9571732241
 10
2.1825504002
 20
22.9364443142
 10
2.168072779
 20
22.913436441
 10
2.1548603715
 20
22.888622608
 10
2.1431848024
 20
22.8625129458
 10
2.1332861019
 20
22.8356442256
 10
2.1253677708
 20
22.808568823
 10
2.1195925967
 20
22.7818433631
 10
2.1160793074
 20
22.7560172765
 10
2.1149001304
 20
22.7316215043
  0
LWPOLYLINE
  5
308
100
AcDbEntity
  8
RACCORDO
100
AcDbPolyline
 62
250
  6
CONTINUOUS
 90
16
 70
0
 10
1.7064239734
 20
22.5853087971
 10
1.7268756393
 20
22.6111525399
 10
1.7495765857
 20
22.6351867949
 10
1.7742598846
 20
22.6572952584
 10
1.8006502442
 20
22.6774866127
 10
1.8284435412
 20
22.6955720187
 10
1.8573062253
 20
22.7111705201
 10
1.8869218449
 20
22.724209703
 10
1.9169764532
 20
22.7347048674
 10
1.9471341228
 20
22.7424433602
 10
1.9770345146
 20
22.7474124688
 10
2.0064360423
 20
22.7496911903
 10
2.0351881714
 20
22.7492106251
 10
2.0630516754
 20
22.7459746781
 10
2.0897088748
 20
22.7400854737
 10
2.1149001304
 20
22.7316215043
  0
LWPOLYLINE
  5
309
100
AcDbEntity
  8
SUPERFICI
100
AcDbPolyline
 62
250
  6
CONTINUOUS
 90
16
 70
0
 10
1.7064239734
 20
22.5853087971
 10
1.7268756393
 20
22.6111525399
 10
1.7495765857
 20
22.6351867949
 10
1.7742598846
 20
22.6572952584
 10
1.8006502442
 20
22.6774866127
 10
1.8284435412
 20
22.6955720187
 10
1.8573062253
 20
22.7111705201
 10
1.8869218449
 20
22.724209703
 10
1.9169764532
 20
22.7347048674
 10
1.9471341228
 20
22.7424433602
 10
1.9770345146
 20
22.7474124688
 10
2.0064360423
 20
22.7496911903
 10
2.0351881714
 20
22.7492106251
 10
2.0630516754
 20
22.7459746781
 10
2.0897088748
 20
22.7400854737
 10
2.1149001304
 20
22.7316215043
  0
LINE
  5
30A
100
AcDbEntity
  8
RACCORDO
100
AcDbLine
 62
250
  6
CONTINUOUS
 10
0.6646104915
 20
21.8367556106
 11
1.5172020042
 21
22.7875170378
  0
LINE
  5
30B
100
AcDbEntity
  8
SUPERFICI
100
AcDbLine
 62
250
  6
CONTINUOUS
 10
0.6646104915
 20
21.8367556106
 11
1.5172020042
 21
22.7875170378
  0
LINE
  5
30C
100
AcDbEntity
  8
RACCORDO
100
AcDbLine
 62
250
  6
CONTINUOUS
 10
0.9370440258
 20
21.7273401614
 11
1.7064239734
 21
22.5853087971
  0
LINE
  5
30D
100
AcDbEntity
  8
SUPERFICI
100
AcDbLine
 62
250
  6
CONTINUOUS
 10
0.9370440258
 20
21.7273401614
 11
1.7064239734
 21
22.5853087971
  0
LWPOLYLINE
  5
30E
100
AcDbEntity
  8
ASSI
100
AcDbPolyline
 62
7
  6
CONTINUOUS
 90
8
 70
0
 10
4.8138381526
 20
23.6331605739
 10
4.8107753205
 20
23.6303468739
 10
4.8051953772
 20
23.6229432599
 10
4.8002166597
 20
23.6131982292
 10
4.7961085762
 20
23.6016978183
 10
4.7930008158
 20
23.5886457886
 10
4.7908690411
 20
23.5738601935
 10
4.789737531
 20
23.5573463072
  0
LWPOLYLINE
  5
30F
100
AcDbEntity
  8
0
100
AcDbPolyline
 62
7
  6
CONTINUOUS
 90
10
 70
0
 10
10.037707232
 20
25.5090112566
 10
9.9351155731
 20
25.4166839463
 10
9.843937317
 20
25.3204970562
 10
9.764611755
 20
25.2209140089
 10
9.6975210728
 20
25.1184145894
 10
9.6429885093
 20
25.0134926339
 10
9.6012767991
 20
24.9066536498
 10
9.5725869065
 20
24.7984123809
 10
9.5570570579
 20
24.6892903271
 10
9.5540542508
 20
24.6155987616
  0
LWPOLYLINE
  5
310
100
AcDbEntity
  8
SUPERFICI
100
AcDbPolyline
 62
7
  6
CONTINUOUS
 90
10
 70
0
 10
10.037707232
 20
25.5090112566
 10
9.9351155731
 20
25.4166839463
 10
9.843937317
 20
25.3204970562
 10
9.764611755
 20
25.2209140089
 10
9.6975210728
 20
25.1184145894
 10
9.6429885093
 20
25.0134926339
 10
9.6012767991
 20
24.9066536498
 10
9.5725869065
 20
24.7984123809
 10
9.5570570579
 20
24.6892903271
 10
9.5540542508
 20
24.6155987616
  0
LWPOLYLINE
  5
311
100
AcDbEntity
  8
ASSI
100
AcDbPolyline
 62
7
  6
CONTINUOUS
 90
12
 70
0
 10
2.3502981998
 20
19.2499099176
 10
2.3478486097
 20
19.2477366571
 10
2.3300772917
 20
19.2300726215
 10
2.3143800638
 20
19.2111643308
 10
2.3002399776
 20
19.1906197801
 10
2.2877473314
 20
19.1686051963
 10
2.2773475037
 20
19.1461220276
 10
2.2687536166
 20
19.122772308
 10
2.2619381407
 20
19.0981877653
 10
2.2573159722
 20
19.0735451667
 10
2.2549100526
 20
19.0490174293
 10
2.2545408946
 20
19.0349268456
  0
LWPOLYLINE
  5
312
100
AcDbEntity
  8
ASSI
100
AcDbPolyline
 62
250
  6
CONTINUOUS
 90
28
 70
0
 10
2.4800144629
 20
19.2615754811
 10
2.473160769
 20
19.2555106815
 10
2.4661289791
 20
19.2487939488
 10
2.4589391184
 20
19.2414013536
 10
2.4515971146
 20
19.2332922386
 10
2.444146744
 20
19.2244668416
 10
2.4366674207
 20
19.2149781671
 10
2.4291887926
 20
19.2048270323
 10
2.4217432115
 20
19.1940191733
 10
2.4144117908
 20
19.1826406776
 10
2.407226749
 20
19.170715224
 10
2.4002204543
 20
19.1582689863
 10
2.3934669084
 20
19.1454134667
 10
2.3869985815
 20
19.1321978302
 10
2.3808386689
 20
19.1186559789
 10
2.3750371852
 20
19.1048898861
 10
2.3696217671
 20
19.0909642423
 10
2.3646060052
 20
19.076912851
 10
2.3600116905
 20
19.0627957146
 10
2.3558562633
 20
19.0486662988
 10
2.3521537956
 20
19.034572159
 10
2.3489177196
 20
19.0205647285
 10
2.3461595874
 20
19.0066936569
 10
2.3438895006
 20
18.9930090604
 10
2.3421158002
 20
18.9795622324
 10
2.3408446588
 20
18.9664019165
 10
2.3400803418
 20
18.9535742547
 10
2.3398253666
 20
18.9411249539
  0
LINE
  5
313
100
AcDbEntity
  8
ASSI
100
AcDbLine
 62
7
  6
CONTINUOUS
 10
3.6117957718
 20
20.3548908997
 11
2.3502365639
 21
19.2498561607
  0
LINE
  5
314
100
AcDbEntity
  8
ASSI
100
AcDbLine
 62
250
  6
CONTINUOUS
 10
3.7408303395
 20
20.3659591157
 11
2.4800144629
 21
19.2615754811
  0
LINE
  5
315
100
AcDbEntity
  8
ASSI
100
AcDbLine
 62
7
  6
CONTINUOUS
 10
1.324356761
 20
19.6162500899
 11
1.1459423585
 21
19.4623701854
  0
LINE
  5
316
100
AcDbEntity
  8
0
100
AcDbLine
 62
7
  6
CONTINUOUS
 10
13.2799388381
 20
28.2148444783
 11
10.037707232
 21
25.5090112566
  0
LINE
  5
317
100
AcDbEntity
  8
SUPERFICI
100
AcDbLine
 62
7
  6
CONTINUOUS
 10
13.2799388381
 20
28.2148444783
 11
10.037707232
 21
25.5090112566
  0
LINE
  5
318
100
AcDbEntity
  8
ASSI
100
AcDbLine
 62
7
  6
CONTINUOUS
 10
3.6118411295
 20
20.3549305343
 11
3.6164543438
 21
20.3587089271
  0
LINE
  5
319
100
AcDbEntity
  8
0
100
AcDbLine
 62
7
  6
CONTINUOUS
 10
10.5633476564
 20
24.4195857498
 11
10.9648511618
 21
24.7484781671
  0
LINE
  5
31A
100
AcDbEntity
  8
DRAFT
100
AcDbLine
 62
7
  6
CONTINUOUS
 10
13.2799388381
 20
27.8290680358
 11
10.037707232
 21
25.2050785526
  0
LINE
  5
31B
100
AcDbEntity
  8
SUPERFICI
100
AcDbLine
 62
7
  6
CONTINUOUS
 10
13.2799388381
 20
27.8290680358
 11
10.037707232
 21
25.2050785526
  0
LINE
  5
31C
100
AcDbEntity
  8
ASSI
100
AcDbLine
 62
7
  6
CONTINUOUS
 10
9.9834819402
 20
23.6955220154
 11
5.5547130327
 21
20.2164847697
  0
LINE
  5
31D
100
AcDbEntity
  8
ASSI
100
AcDbLine
 62
250
  6
CONTINUOUS
 10
4.1843029836
 20
20.7052769463
 11
3.7408303395
 21
20.3659591157
  0
LINE
  5
31E
100
AcDbEntity
  8
ASSI
100
AcDbLine
 62
7
  6
CONTINUOUS
 10
4.0608377888
 20
20.6987235894
 11
3.6164886117
 21
20.3587351468
  0
LWPOLYLINE
  5
31F
100
AcDbEntity
  8
ASSI
100
AcDbPolyline
 62
250
  6
CONTINUOUS
 90
13
 70
0
 10
5.007977854
 20
18.0071322092
 10
4.99144941
 20
17.9957164801
 10
4.9724901253
 20
17.9856200179
 10
4.9514172398
 20
17.9770117635
 10
4.9285833594
 20
17.9700357562
 10
4.9043705565
 20
17.9648087233
 10
4.8791839762
 20
17.9614181272
 10
4.8534450579
 20
17.9599207016
 10
4.8275844829
 20
17.9603415025
 10
4.8020349681
 20
17.9626734888
 10
4.7772240256
 20
17.96687764
 10
4.7535668092
 20
17.9728836095
 10
4.7314591678
 20
17.9805909012
  0
LWPOLYLINE
  5
320
100
AcDbEntity
  8
RACCORDO
100
AcDbPolyline
 62
7
  6
CONTINUOUS
 90
7
 70
0
 10
19.6883208943
 20
20.6227403563
 10
19.6714386916
 20
20.6159218734
 10
19.6555277874
 20
20.6115397747
 10
19.6405881818
 20
20.6095940601
 10
19.6266198747
 20
20.6100847296
 10
19.6136228661
 20
20.6130117832
 10
19.6015971561
 20
20.618375221
  0
LWPOLYLINE
  5
321
100
AcDbEntity
  8
SUPERFICI
100
AcDbPolyline
 62
7
  6
CONTINUOUS
 90
7
 70
0
 10
19.6883208943
 20
20.6227403563
 10
19.6714386916
 20
20.6159218734
 10
19.6555277874
 20
20.6115397747
 10
19.6405881818
 20
20.6095940601
 10
19.6266198747
 20
20.6100847296
 10
19.6136228661
 20
20.6130117832
 10
19.6015971561
 20
20.618375221
  0
LWPOLYLINE
  5
322
100
AcDbEntity
  8
DRAFT
100
AcDbPolyline
 62
250
  6
CONTINUOUS
 90
10
 70
0
 10
-10.3261307788
 20
-12.0519591196
 10
-10.1825455759
 20
-12.0693998012
 10
-10.0397846948
 20
-12.0889904625
 10
-9.8979514245
 20
-12.1107169301
 10
-9.7571493112
 20
-12.1346468647
 10
-9.6174793236
 20
-12.1606811
 10
-9.4790396547
 20
-12.1885463265
 10
-9.341929436
 20
-12.218131243
 10
-9.2062487909
 20
-12.2494939148
 10
-9.0720959101
 20
-12.2826079944
  0
LWPOLYLINE
  5
323
100
AcDbEntity
  8
DRAFT
100
AcDbPolyline
 62
250
  6
CONTINUOUS
 90
10
 70
0
 10
-10.3065510178
 20
-10.8062546201
 10
-10.1630721578
 20
-10.8238788432
 10
-10.0204168925
 20
-10.8436387193
 10
-9.8786882917
 20
-10.8655199716
 10
-9.7379887555
 20
-10.8895067907
 10
-9.5984199406
 20
-10.915581846
 10
-9.460082687
 20
-10.9437262979
 10
-9.3230769444
 20
-10.9739198118
 10
-9.1875017008
 20
-11.0061405727
 10
-9.0534549106
 20
-11.0403653007
  0
LWPOLYLINE
  5
324
100
AcDbEntity
  8
0
100
AcDbPolyline
 62
250
  6
CONTINUOUS
 90
10
 70
0
 10
-9.0534549106
 20
-11.0403653007
 10
-8.8519093391
 20
-11.0964434623
 10
-8.6544937566
 20
-11.1570429424
 10
-8.4615408028
 20
-11.2220616326
 10
-8.2733755984
 20
-11.291389978
 10
-8.0903151965
 20
-11.3649111624
 10
-7.9126680488
 20
-11.4425013046
 10
-7.7407334861
 20
-11.5240296673
 10
-7.5748012134
 20
-11.6093588773
 10
-7.415150822
 20
-11.6983451574
  0
LWPOLYLINE
  5
325
100
AcDbEntity
  8
DRAFT
100
AcDbPolyline
 62
7
  6
CONTINUOUS
 90
4
 70
0
 10
4.2730491124
 20
-16.2445139605
 10
4.2178576377
 20
-16.2250917692
 10
4.164053151
 20
-16.2112119143
 10
4.1450744326
 20
-16.2081931626
  0
LINE
  5
326
100
AcDbEntity
  8
DRAFT
100
AcDbLine
 62
7
  6
CONTINUOUS
 10
5.9201354264
 20
-15.2267592661
 11
4.2045844927
 21
-14.537755335
  0
LWPOLYLINE
  5
327
100
AcDbEntity
  8
0
100
AcDbPolyline
 62
250
  6
CONTINUOUS
 90
10
 70
0
 10
-7.3932492023
 20
-10.4513656126
 10
-7.5529011023
 20
-10.3624936722
 10
-7.7188344377
 20
-10.2772503976
 10
-7.8907696276
 20
-10.1957794271
 10
-8.0684170462
 20
-10.1182180142
 10
-8.2514773081
 20
-10.044696886
 10
-8.4396417527
 20
-9.9753400076
 10
-8.6325932456
 20
-9.91026426
 10
-8.8300067335
 20
-9.8495792586
 10
-9.0315495743
 20
-9.793387248
  0
LWPOLYLINE
  5
328
100
AcDbEntity
  8
DRAFT
100
AcDbPolyline
 62
250
  6
CONTINUOUS
 90
10
 70
0
 10
-7.415150822
 20
-11.6983451574
 10
-7.3141447657
 20
-11.7585229517
 10
-7.2160206805
 20
-11.8201611099
 10
-7.1208494619
 20
-11.8832150978
 10
-7.0286998722
 20
-11.9476393584
 10
-6.9396384902
 20
-12.0133873446
 10
-6.8537296636
 20
-12.0804115527
 10
-6.7710354623
 20
-12.1486635573
 10
-6.6916156336
 20
-12.2180940455
 10
-6.6155275592
 20
-12.2886528533
  0
LWPOLYLINE
  5
329
100
AcDbEntity
  8
DRAFT
100
AcDbPolyline
 62
250
  6
CONTINUOUS
 90
10
 70
0
 10
-6.5940056181
 20
-11.0400562683
 10
-6.6700684974
 20
-10.9697285892
 10
-6.7494586748
 20
-10.9005168235
 10
-6.8321188596
 20
-10.8324709175
 10
-6.9179906773
 20
-10.7657035264
 10
-7.0070109107
 20
-10.7002004145
 10
-7.0991114111
 20
-10.6358149903
 10
-7.1942243139
 20
-10.5725244087
 10
-7.2922822206
 20
-10.5104349789
 10
-7.3932143495
 20
-10.449588773
  0
LWPOLYLINE
  5
32A
100
AcDbEntity
  8
ASSI
100
AcDbPolyline
 62
250
  6
CONTINUOUS
 90
9
 70
0
 10
-12.3263655792
 20
24.8909720129
 10
-12.326076209
 20
24.8849446235
 10
-12.3230167255
 20
24.8702097689
 10
-12.3166667413
 20
24.8558247123
 10
-12.3071325078
 20
24.8420301547
 10
-12.2945735574
 20
24.8290569165
 10
-12.2792000346
 20
24.8171220756
 10
-12.261269179
 20
24.8064253342
 10
-12.2410810217
 20
24.7971456783
  0
LWPOLYLINE
  5
32B
100
AcDbEntity
  8
ASSI
100
AcDbPolyline
 62
250
  6
CONTINUOUS
 90
9
 70
0
 10
-12.3263657345
 20
24.5910182165
 10
-12.3260762062
 20
24.5848478707
 10
-12.323016716
 20
24.5701130159
 10
-12.3166667259
 20
24.5557279613
 10
-12.3071324884
 20
24.5419334075
 10
-12.294573537
 20
24.5289601746
 10
-12.2792000167
 20
24.5170253397
 10
-12.2612691679
 20
24.5063286046
 10
-12.2410810217
 20
24.4970489545
  0
LINE
  5
32C
100
AcDbEntity
  8
DRAFT
100
AcDbLine
 62
7
  6
CONTINUOUS
 10
-9.0695843547
 20
-12.3579602384
 11
-9.0720959101
 21
-12.2826079944
  0
LWPOLYLINE
  5
32D
100
AcDbEntity
  8
0
100
AcDbPolyline
 62
7
  6
CONTINUOUS
 90
35
 70
0
 10
-9.0721239728
 20
-12.2849402393
 10
-9.0708929902
 20
-12.3420505937
 10
-9.0658805316
 20
-12.4001463127
 10
-9.0570802049
 20
-12.4592429653
 10
-9.044402867
 20
-12.5197748428
 10
-9.0279486731
 20
-12.5813597387
 10
-9.0079725661
 20
-12.6427682381
 10
-8.9843538958
 20
-12.7039183839
 10
-8.95718973
 20
-12.7649057428
 10
-8.9270153795
 20
-12.8247212211
 10
-8.8938816236
 20
-12.8831509787
 10
-8.8577028925
 20
-12.9403891228
 10
-8.8187853656
 20
-12.9960089699
 10
-8.7771762353
 20
-13.0500078108
 10
-8.7328184635
 20
-13.1023658651
 10
-8.6858536577
 20
-13.1526173676
 10
-8.6360157964
 20
-13.2009672755
 10
-8.583596493
 20
-13.2471943859
 10
-8.529548409
 20
-13.2901695992
 10
-8.4732559031
 20
-13.3298882603
 10
-8.41536041
 20
-13.3663257576
 10
-8.3586160874
 20
-13.3982697412
 10
-8.304758869
 20
-13.4249328058
 10
-8.2519550079
 20
-13.4470193347
 10
-8.1976099425
 20
-13.4655604556
 10
-8.1400870498
 20
-13.4813197474
 10
-8.0811652001
 20
-13.4935993867
 10
-8.0233794239
 20
-13.5012489227
 10
-7.9671059412
 20
-13.503821569
 10
-7.9119842648
 20
-13.5017943958
 10
-7.859339244
 20
-13.4953563038
 10
-7.8094801114
 20
-13.4844642603
 10
-7.7620669507
 20
-13.469184749
 10
-7.7174026649
 20
-13.4498460717
 10
-7.6722730555
 20
-13.4244970101
  0
LINE
  5
32E
100
AcDbEntity
  8
ASSI
100
AcDbLine
 62
250
  6
CONTINUOUS
 10
-11.6415540139
 20
23.7089459501
 11
-11.6415540139
 21
24.1619081236
  0
LINE
  5
32F
100
AcDbEntity
  8
ASSI
100
AcDbLine
 62
7
  6
CONTINUOUS
 10
-11.2639878596
 20
23.4181247036
 11
-11.2639878596
 21
24.0086732501
  0
LINE
  5
330
100
AcDbEntity
  8
ASSI
100
AcDbLine
 62
250
  6
CONTINUOUS
 10
-11.1573819687
 20
23.3516165657
 11
-11.1573819687
 21
24.0618109834
  0
LINE
  5
331
100
AcDbEntity
  8
ASSI
100
AcDbLine
 62
250
  6
CONTINUOUS
 10
-10.9331462735
 20
23.2615584553
 11
-10.9331462735
 21
23.9717528729
  0
LINE
  5
332
100
AcDbEntity
  8
ASSI
100
AcDbLine
 62
250
  6
CONTINUOUS
 10
-10.5874979159
 20
23.178564152
 11
-10.5874979159
 21
23.7385754315
  0
LINE
  5
333
100
AcDbEntity
  8
ASSI
100
AcDbLine
 62
7
  6
CONTINUOUS
 10
-10.1440268671
 20
23.5604674604
 11
-10.1440268671
 21
23.1719001963
  0
LINE
  5
334
100
AcDbEntity
  8
ASSI
100
AcDbLine
 62
250
  6
CONTINUOUS
 10
-9.8494472205
 20
23.5365149018
 11
-9.8494472205
 21
23.8366116256
  0
LINE
  5
335
100
AcDbEntity
  8
ASSI
100
AcDbLine
 62
250
  6
CONTINUOUS
 10
-9.5729285344
 20
23.5630562098
 11
-9.5729285344
 21
23.8631529336
  0
LWPOLYLINE
  5
336
100
AcDbEntity
  8
ASSI
100
AcDbPolyline
 62
250
  6
CONTINUOUS
 90
28
 70
0
 10
-9.5729285344
 20
23.8631529336
 10
-9.5729025851
 20
23.8651830386
 10
-9.5727919163
 20
23.8673164523
 10
-9.5725965281
 20
23.8695531749
 10
-9.5723197701
 20
23.8719033616
 10
-9.5719582927
 20
23.8743568571
 10
-9.5715020466
 20
23.8768831953
 10
-9.570947724
 20
23.879485774
 10
-9.5702986328
 20
23.8821611955
 10
-9.5695546473
 20
23.8848688005
 10
-9.5687124356
 20
23.8876101151
 10
-9.5677753297
 20
23.8903836133
 10
-9.5667531996
 20
23.893144057
 10
-9.5656443893
 20
23.89588909
 10
-9.5644505547
 20
23.8986210686
 10
-9.5631865342
 20
23.9013018234
 10
-9.5618521502
 20
23.9039282051
 10
-9.5604475801
 20
23.906503363
 10
-9.558988195
 20
23.908998576
 10
-9.5574735421
 20
23.9114125839
 10
-9.555904074
 20
23.913746647
 10
-9.5542965202
 20
23.9159758244
 10
-9.5526504223
 20
23.9180989845
 10
-9.5509662385
 20
23.9201172591
 10
-9.5492620727
 20
23.9220091024
 10
-9.5475439594
 20
23.9237673327
 10
-9.545805864
 20
23.9253991319
 10
-9.5440477865
 20
23.9269044999
  0
LINE
  5
337
100
AcDbEntity
  8
0
100
AcDbLine
 62
7
  6
CONTINUOUS
 10
-10.3261307788
 20
-12.0519591196
 11
-10.3220498634
 21
-11.7753534237
  0
LINE
  5
338
100
AcDbEntity
  8
0
100
AcDbLine
 62
7
  6
CONTINUOUS
 10
-10.3220498634
 20
-11.7753534237
 11
-10.3178145789
 21
-11.4986232752
  0
LINE
  5
339
100
AcDbEntity
  8
0
100
AcDbLine
 62
7
  6
CONTINUOUS
 10
-10.3178145789
 20
-11.4986232752
 11
-10.3134249284
 21
-11.2217688601
  0
LINE
  5
33A
100
AcDbEntity
  8
0
100
AcDbLine
 62
7
  6
CONTINUOUS
 10
-10.3134249284
 20
-11.2217688601
 11
-10.3088809118
 21
-10.9447903498
  0
LWPOLYLINE
  5
33B
100
AcDbEntity
  8
ASSI
100
AcDbPolyline
 62
250
  6
CONTINUOUS
 90
28
 70
0
 10
-9.8494472205
 20
23.8366116256
 10
-9.8492757892
 20
23.846743498
 10
-9.8487424231
 20
23.8574162505
 10
-9.8478199105
 20
23.8686233923
 10
-9.8464780627
 20
23.8803814004
 10
-9.8446925385
 20
23.8926476436
 10
-9.8424544178
 20
23.9053155185
 10
-9.8397484542
 20
23.9183555164
 10
-9.8365614387
 20
23.9317329387
 10
-9.8329068671
 20
23.9453208732
 10
-9.8287840791
 20
23.9590743128
 10
-9.8241939567
 20
23.9729479674
 10
-9.8191714633
 20
23.9868091172
 10
-9.8137343625
 20
24.0005957929
 10
-9.8078928246
 20
24.0142705181
 10
-9.8016843627
 20
24.0277388435
 10
-9.795136451
 20
24.040940436
 10
-9.7882660536
 20
24.053840548
 10
-9.7811009698
 20
24.0663866191
 10
-9.7736674843
 20
24.0785323012
 10
-9.765990815
 20
24.0902361463
 10
-9.7580991242
 20
24.1014556625
 10
-9.7500200911
 20
24.1121512367
 10
-9.7417824393
 20
24.1222846045
 10
-9.7334170121
 20
24.1318184773
 10
-9.7249539858
 20
24.1407188891
 10
-9.7164226893
 20
24.148955008
 10
-9.7078532431
 20
24.1564979209
  0
LINE
  5
33C
100
AcDbEntity
  8
0
100
AcDbLine
 62
7
  6
CONTINUOUS
 10
-10.3088809118
 20
-10.9447903498
 11
-10.3041826987
 21
-10.6676975551
  0
LINE
  5
33D
100
AcDbEntity
  8
0
100
AcDbLine
 62
7
  6
CONTINUOUS
 10
-10.3041826987
 20
-10.6676975551
 11
-10.299330308
 21
-10.3904909261
  0
LINE
  5
33E
100
AcDbEntity
  8
0
100
AcDbLine
 62
7
  6
CONTINUOUS
 10
-10.299330308
 20
-10.3904909261
 11
-10.2943235854
 21
-10.1131611274
  0
LINE
  5
33F
100
AcDbEntity
  8
0
100
AcDbLine
 62
7
  6
CONTINUOUS
 10
-10.2943235854
 20
-10.1131611274
 11
-10.2891625318
 21
-9.8357083309
  0
LINE
  5
340
100
AcDbEntity
  8
0
100
AcDbLine
 62
7
  6
CONTINUOUS
 10
-10.2891625318
 20
-9.8357083309
 11
-10.2838471511
 21
-9.5581327231
  0
LWPOLYLINE
  5
341
100
AcDbEntity
  8
0
100
AcDbPolyline
 62
7
  6
CONTINUOUS
 90
46
 70
0
 10
-10.2838471511
 20
-9.5581327231
 10
-10.276448482
 20
-9.427058998
 10
-10.2608195124
 20
-9.3019828449
 10
-10.2368192917
 20
-9.1826147624
 10
-10.2039631643
 20
-9.0681093797
 10
-10.1625725767
 20
-8.9589639525
 10
-10.1136157536
 20
-8.8569199688
 10
-10.0569075286
 20
-8.762219533
 10
-9.99231255
 20
-8.6745113625
 10
-9.9207031803
 20
-8.5946057578
 10
-9.8417362965
 20
-8.5225759181
 10
-9.7554975561
 20
-8.4585595448
 10
-9.6633927396
 20
-8.4034031333
 10
-9.5655555167
 20
-8.3574278925
 10
-9.4616248584
 20
-8.3206339105
 10
-9.3522087021
 20
-8.2933103173
 10
-9.2366360086
 20
-8.2756678057
 10
-9.1155972206
 20
-8.2680116318
 10
-8.9916621264
 20
-8.2705723703
 10
-8.8647839081
 20
-8.2836586906
 10
-8.7350623819
 20
-8.3071726396
 10
-8.605119548
 20
-8.3403530592
 10
-8.4757348704
 20
-8.3828502197
 10
-8.3462092361
 20
-8.4348695084
 10
-8.2168784767
 20
-8.4962825371
 10
-8.0871915129
 20
-8.5673871972
 10
-7.9580629052
 20
-8.6478573857
 10
-7.8319203266
 20
-8.7364452554
 10
-7.7087317522
 20
-8.8332398243
 10
-7.5887717596
 20
-8.9378325916
 10
-7.4746118595
 20
-9.0479007633
 10
-7.3667818675
 20
-9.1626689708
 10
-7.264681682
 20
-9.2824124606
 10
-7.1689494433
 20
-9.4062296707
 10
-7.0793640662
 20
-9.5342463404
 10
-6.996110867
 20
-9.666091234
 10
-6.9202827246
 20
-9.800089708
 10
-6.8518429904
 20
-9.9361868562
 10
-6.7906817139
 20
-10.0744072518
 10
-6.7375922117
 20
-10.2131763485
 10
-6.6924611621
 20
-10.3528793624
 10
-6.6552878693
 20
-10.4934068679
 10
-6.6268363825
 20
-10.6324116654
 10
-6.6072623356
 20
-10.7692402969
 10
-6.5962953574
 20
-10.9050147509
 10
-6.5940056181
 20
-11.0400562683
  0
LWPOLYLINE
  5
342
100
AcDbEntity
  8
ASSI
100
AcDbPolyline
 62
250
  6
CONTINUOUS
 90
6
 70
0
 10
-7.7351974524
 20
25.3999381672
 10
-7.7357691836
 20
25.3912704117
 10
-7.7393883579
 20
25.3765773452
 10
-7.7462839449
 20
25.3622751682
 10
-7.756340563
 20
25.3486031943
 10
-7.7693899379
 20
25.3357901927
  0
LWPOLYLINE
  5
343
100
AcDbEntity
  8
ASSI
100
AcDbPolyline
 62
250
  6
CONTINUOUS
 90
6
 70
0
 10
-7.7351974524
 20
25.0783939129
 10
-7.7357691884
 20
25.0697261241
 10
-7.7393883687
 20
25.0550330637
 10
-7.7462839579
 20
25.040730895
 10
-7.7563405727
 20
25.0270589313
 10
-7.7693899379
 20
25.0142459407
  0
LWPOLYLINE
  5
344
100
AcDbEntity
  8
RACCORDO
100
AcDbPolyline
 62
250
  6
CONTINUOUS
 90
11
 70
0
 10
-0.0727783332
 20
24.7052006782
 10
-0.0696817016
 20
24.7120540526
 10
-0.0665995942
 20
24.7181778789
 10
-0.0635453229
 20
24.7235436213
 10
-0.0605309619
 20
24.7281275357
 10
-0.0575708906
 20
24.7319051836
 10
-0.0546814834
 20
24.7348547945
 10
-0.0518739285
 20
24.7369648817
 10
-0.0491616489
 20
24.7382252893
 10
-0.0465628192
 20
24.7386311296
 10
-0.0455737254
 20
24.7385575917
  0
LWPOLYLINE
  5
345
100
AcDbEntity
  8
SUPERFICI
100
AcDbPolyline
 62
250
  6
CONTINUOUS
 90
11
 70
0
 10
-0.0727783332
 20
24.7052006782
 10
-0.0696817016
 20
24.7120540526
 10
-0.0665995942
 20
24.7181778789
 10
-0.0635453229
 20
24.7235436213
 10
-0.0605309619
 20
24.7281275357
 10
-0.0575708906
 20
24.7319051836
 10
-0.0546814834
 20
24.7348547945
 10
-0.0518739285
 20
24.7369648817
 10
-0.0491616489
 20
24.7382252893
 10
-0.0465628192
 20
24.7386311296
 10
-0.0455737254
 20
24.7385575917
  0
LWPOLYLINE
  5
346
100
AcDbEntity
  8
ASSI
100
AcDbPolyline
 62
250
  6
CONTINUOUS
 90
28
 70
0
 10
4.8730531452
 20
18.3004771965
 10
4.8656428887
 20
18.2939971149
 10
4.8581094387
 20
18.286849526
 10
4.850475725
 20
18.2790224486
 10
4.842750434
 20
18.2704883976
 10
4.8349785414
 20
18.2612591751
 10
4.8272389225
 20
18.251397271
 10
4.8195610924
 20
18.2409152557
 10
4.8119764269
 20
18.2298301175
 10
4.8045627799
 20
18.2182350873
 10
4.7973516671
 20
18.206166618
 10
4.790369189
 20
18.1936551542
 10
4.783677239
 20
18.180802834
 10
4.7773061918
 20
18.1676677802
 10
4.7712713321
 20
18.1542814329
 10
4.7656043257
 20
18.1407141276
 10
4.7603273509
 20
18.1270238534
 10
4.7554527681
 20
18.1132480466
 10
4.7509940919
 20
18.0994275708
 10
4.7469656006
 20
18.085609259
 10
4.7433804704
 20
18.0718412582
 10
4.740249319
 20
18.0581661167
 10
4.7375824551
 20
18.0446306826
 10
4.7353885041
 20
18.0312810849
 10
4.733674103
 20
18.0181582511
 10
4.7324450853
 20
18.0053056441
 10
4.7317059081
 20
17.9927688687
 10
4.7314591678
 20
17.9805909012
  0
LINE
  5
347
100
AcDbEntity
  8
ASSI
100
AcDbLine
 62
7
  6
CONTINUOUS
 10
11.1484715401
 20
22.9159128231
 11
6.8446756567
 21
19.2011175385
  0
LINE
  5
348
100
AcDbEntity
  8
ASSI
100
AcDbLine
 62
7
  6
CONTINUOUS
 10
11.1302246027
 20
23.2886132923
 11
6.8374800681
 21
19.6060762009
  0
LWPOLYLINE
  5
349
100
AcDbEntity
  8
ASSI
100
AcDbPolyline
 62
250
  6
CONTINUOUS
 90
28
 70
0
 10
5.0368586019
 20
18.0708837755
 10
5.0353385619
 20
18.0696024596
 10
5.0338035899
 20
18.0681841718
 10
5.0322536858
 20
18.066628912
 10
5.0306796371
 20
18.0649320651
 10
5.0290906564
 20
18.0630982462
 10
5.0275143811
 20
18.0611413011
 10
5.0259507388
 20
18.0590565432
 10
5.0243998021
 20
18.0568486592
 10
5.0228894259
 20
18.0545455544
 10
5.0214211771
 20
18.0521446494
 10
5.0199934889
 20
18.0496485237
 10
5.0186295168
 20
18.0470928215
 10
5.0173320623
 20
18.0444786535
 10
5.0160983238
 20
18.0418049089
 10
5.0149430524
 20
18.0391038998
 10
5.0138681182
 20
18.0363773538
 10
5.012871651
 20
18.0336235433
 10
5.0119627908
 20
18.0308695974
 10
5.0111422847
 20
18.0281154754
 10
5.0104093857
 20
18.025361218
 10
5.0097709926
 20
18.0226340771
 10
5.0092279685
 20
18.0199343576
 10
5.0087794504
 20
18.0172617545
 10
5.0084297488
 20
18.0146426045
 10
5.0081803006
 20
18.0120856864
 10
5.008029669
 20
18.0095822213
 10
5.007977854
 20
18.0071322092
  0
LINE
  5
34A
100
AcDbEntity
  8
ASSI
100
AcDbLine
 62
250
  6
CONTINUOUS
 10
6.620235127
 20
19.7269498194
 11
6.1983363767
 21
19.378969288
  0
LINE
  5
34B
100
AcDbEntity
  8
ASSI
100
AcDbLine
 62
250
  6
CONTINUOUS
 10
6.7840405837
 20
19.4973563984
 11
6.3621418334
 21
19.1493758669
  0
LINE
  5
34C
100
AcDbEntity
  8
ASSI
100
AcDbLine
 62
250
  6
CONTINUOUS
 10
6.9624399002
 20
18.0377779797
 11
6.403161816
 21
17.5764874808
  0
LINE
  5
34D
100
AcDbEntity
  8
RACCORDO
100
AcDbLine
 62
7
  6
CONTINUOUS
 10
13.332844965
 20
25.1982251318
 11
12.2690381314
 21
24.3268055893
  0
LINE
  5
34E
100
AcDbEntity
  8
RACCORDO
100
AcDbLine
 62
7
  6
CONTINUOUS
 10
11.7002337787
 20
23.860868341
 11
11.4135450226
 21
23.6260266604
  0
LINE
  5
34F
100
AcDbEntity
  8
0
100
AcDbLine
 62
7
  6
CONTINUOUS
 10
14.1078374276
 20
24.7681641343
 11
12.6337224773
 21
23.5606398592
  0
LINE
  5
350
100
AcDbEntity
  8
RACCORDO
100
AcDbLine
 62
7
  6
CONTINUOUS
 10
14.3158295031
 20
24.8034389257
 11
13.2520205846
 21
23.9320176753
  0
LINE
  5
351
100
AcDbEntity
  8
0
100
AcDbLine
 62
7
  6
CONTINUOUS
 10
13.0164316576
 20
23.6241368666
 11
12.9731623241
 21
23.5886927036
  0
LINE
  5
352
100
AcDbEntity
  8
ASSI
100
AcDbLine
 62
250
  6
CONTINUOUS
 10
6.1983363767
 20
19.378969288
 11
4.8730531452
 21
18.3004771965
  0
LINE
  5
353
100
AcDbEntity
  8
ASSI
100
AcDbLine
 62
250
  6
CONTINUOUS
 10
6.3621418334
 20
19.1493758669
 11
5.0368586019
 21
18.0708837755
  0
LINE
  5
354
100
AcDbEntity
  8
DRAFT
100
AcDbLine
 62
7
  6
CONTINUOUS
 10
11.7113596762
 20
22.4344168183
 11
6.4942841059
 21
18.225799901
  0
LINE
  5
355
100
AcDbEntity
  8
SUPERFICI
100
AcDbLine
 62
7
  6
CONTINUOUS
 10
11.7113596762
 20
22.4344168183
 11
6.4942841059
 21
18.225799901
  0
LINE
  5
356
100
AcDbEntity
  8
RACCORDO
100
AcDbLine
 62
7
  6
CONTINUOUS
 10
17.7895651444
 20
26.5399024459
 11
15.0160773567
 21
24.3307203138
  0
LINE
  5
357
100
AcDbEntity
  8
SUPERFICI
100
AcDbLine
 62
7
  6
CONTINUOUS
 10
17.7895651444
 20
26.5399024459
 11
15.0160773567
 21
24.3307203138
  0
LWPOLYLINE
  5
358
100
AcDbEntity
  8
RACCORDO
100
AcDbPolyline
 62
7
  6
CONTINUOUS
 90
10
 70
0
 10
14.3158060639
 20
24.8034197254
 10
14.325050415
 20
24.8104913409
 10
14.334151952
 20
24.8164729213
 10
14.3431106747
 20
24.8213644669
 10
14.3520036271
 20
24.825184313
 10
14.3607537654
 20
24.8279141242
 10
14.3691299577
 20
24.8294988941
 10
14.3770551601
 20
24.8299202871
 10
14.3846064166
 20
24.8291966387
 10
14.3917837271
 20
24.827327949
  0
LINE
  5
359
100
AcDbEntity
  8
RACCORDO
100
AcDbLine
 62
250
  6
CONTINUOUS
 10
2.1218488002
 20
14.0600508846
 11
4.880742923
 21
16.0991352964
  0
LINE
  5
35A
100
AcDbEntity
  8
RACCORDO
100
AcDbLine
 62
250
  6
CONTINUOUS
 10
2.5162802785
 20
13.4744470206
 11
5.2751744013
 21
15.5135314324
  0
LWPOLYLINE
  5
35B
100
AcDbEntity
  8
ASSI
100
AcDbPolyline
 62
250
  6
CONTINUOUS
 90
13
 70
0
 10
5.007977854
 20
17.7070354854
 10
4.9914493756
 20
17.6956197158
 10
4.9724900554
 20
17.6855232256
 10
4.9514171371
 20
17.6769149547
 10
4.9285832306
 20
17.6699389412
 10
4.9043704108
 20
17.6647119105
 10
4.8791838242
 20
17.6613213232
 10
4.8534449112
 20
17.6598239111
 10
4.8275843529
 20
17.6602447278
 10
4.8020348632
 20
17.66257673
 10
4.777223952
 20
17.6667808958
 10
4.7535667715
 20
17.6727868773
 10
4.7314591678
 20
17.6804941773
  0
LWPOLYLINE
  5
35C
100
AcDbEntity
  8
DRAFT
100
AcDbPolyline
 62
250
  6
CONTINUOUS
 90
10
 70
0
 10
-9.0315185359
 20
-9.7916161709
 10
-9.1654963474
 20
-9.7581139872
 10
-9.3009972359
 20
-9.7263985123
 10
-9.4379234284
 20
-9.6964953602
 10
-9.5761750703
 20
-9.6683656444
 10
-9.7156535699
 20
-9.6420987787
 10
-9.8562615538
 20
-9.6179070359
 10
-9.9978985997
 20
-9.5958701168
 10
-10.1404614254
 20
-9.5759405519
 10
-10.2838471511
 20
-9.5581327231
  0
LWPOLYLINE
  5
35D
100
AcDbEntity
  8
ASSI
100
AcDbPolyline
 62
7
  6
CONTINUOUS
 90
5
 70
0
 10
6.7782597704
 20
-19.6774140595
 10
6.7582758319
 20
-19.6604162236
 10
6.7367479743
 20
-19.6462554821
 10
6.7142345233
 20
-19.6350705136
 10
6.7101776256
 20
-19.6333982325
  0
LWPOLYLINE
  5
35E
100
AcDbEntity
  8
0
100
AcDbPolyline
 62
7
  6
CONTINUOUS
 90
36
 70
0
 10
-7.3932492023
 20
-10.4513656126
 10
-7.3942503784
 20
-10.3907741885
 10
-7.3992125281
 20
-10.3297538246
 10
-7.4081191154
 20
-10.2682700988
 10
-7.4210858457
 20
-10.2059780273
 10
-7.4379997265
 20
-10.1431793123
 10
-7.4584919306
 20
-10.0808057747
 10
-7.4826176517
 20
-10.0188289096
 10
-7.5103268847
 20
-9.9572499351
 10
-7.5410550953
 20
-9.8970265975
 10
-7.5747207201
 20
-9.8383236562
 10
-7.6114006437
 20
-9.7809666669
 10
-7.6507387095
 20
-9.7253923307
 10
-7.6927118088
 20
-9.6716044005
 10
-7.7373530094
 20
-9.6196232007
 10
-7.7843737113
 20
-9.5699043761
 10
-7.8340576084
 20
-9.5222615385
 10
-7.8861471476
 20
-9.4769377889
 10
-7.9395004171
 20
-9.4350037475
 10
-7.9944323995
 20
-9.3964998612
 10
-8.0506148819
 20
-9.3614192449
 10
-8.1058516468
 20
-9.3306797007
 10
-8.1584553896
 20
-9.3048827656
 10
-8.2099892219
 20
-9.2833356666
 10
-8.2631495709
 20
-9.26503016
 10
-8.3197755592
 20
-9.2493008594
 10
-8.3781400077
 20
-9.2369485065
 10
-8.4356013447
 20
-9.2291686173
 10
-8.4917391693
 20
-9.2263517751
 10
-8.5469711167
 20
-9.2280917553
 10
-8.599820726
 20
-9.2342799377
 10
-8.6498618009
 20
-9.2449220631
 10
-8.6974913201
 20
-9.2599429424
 10
-8.7424296167
 20
-9.2790683672
 10
-8.7847104168
 20
-9.3022422391
 10
-8.8241187004
 20
-9.3293520009
  0
LINE
  5
35F
100
AcDbEntity
  8
ASSI
100
AcDbLine
 62
250
  6
CONTINUOUS
 10
-9.3018213557
 20
22.7692565665
 11
-9.3018213557
 21
23.4003094365
  0
LINE
  5
360
100
AcDbEntity
  8
ASSI
100
AcDbLine
 62
250
  6
CONTINUOUS
 10
-8.956172998
 20
23.5301414581
 11
-8.956172998
 21
22.8129783787
  0
LINE
  5
361
100
AcDbEntity
  8
0
100
AcDbLine
 62
250
  6
CONTINUOUS
 10
-8.8457382762
 20
21.7801198956
 11
-8.8457382762
 21
21.6119996023
  0
LINE
  5
362
100
AcDbEntity
  8
0
100
AcDbLine
 62
250
  6
CONTINUOUS
 10
-8.5702516168
 20
21.6694782425
 11
-8.5702516168
 21
21.5013579491
  0
LINE
  5
363
100
AcDbEntity
  8
ASSI
100
AcDbLine
 62
7
  6
CONTINUOUS
 10
-8.218764555
 20
23.448982755
 11
-8.218764555
 21
25.0053965913
  0
LINE
  5
364
100
AcDbEntity
  8
ASSI
100
AcDbLine
 62
250
  6
CONTINUOUS
 10
-7.7693899379
 20
25.3357901927
 11
-7.7693899379
 21
25.0142459407
  0
LINE
  5
365
100
AcDbEntity
  8
ASSI
100
AcDbLine
 62
7
  6
CONTINUOUS
 10
-7.7351975576
 20
25.4000558222
 11
-7.7351974524
 21
25.0783939154
  0
LWPOLYLINE
  5
366
100
AcDbEntity
  8
ASSI
100
AcDbPolyline
 62
250
  6
CONTINUOUS
 90
19
 70
0
 10
-7.7693899379
 20
25.0142459407
 10
-7.7694152671
 20
25.0121769523
 10
-7.7695246784
 20
25.009998418
 10
-7.7697181718
 20
25.0077103378
 10
-7.7699921301
 20
25.0053027676
 10
-7.7703501706
 20
25.0027856516
 10
-7.7708031451
 20
25.0001888218
 10
-7.7713541846
 20
24.997508489
 10
-7.7720001582
 20
24.9947484424
 10
-7.7727425249
 20
24.9919498817
 10
-7.773584656
 20
24.989110538
 10
-7.7745231802
 20
24.9862326803
 10
-7.7755494426
 20
24.9833643148
 10
-7.776666496
 20
24.9805052798
 10
-7.7778712876
 20
24.977655737
 10
-7.7791460041
 20
24.974864178
 10
-7.7804847078
 20
24.9721467667
 10
-7.7818933364
 20
24.9694873391
 10
-7.78337189
 20
24.9668858954
  0
LINE
  5
367
100
AcDbEntity
  8
0
100
AcDbLine
 62
7
  6
CONTINUOUS
 10
-9.068334148
 20
-12.0139569807
 11
-9.0721274984
 21
-12.2849393097
  0
LINE
  5
368
100
AcDbEntity
  8
DRAFT
100
AcDbLine
 62
7
  6
CONTINUOUS
 10
-9.0720955978
 20
-12.2826076119
 11
-9.0683177943
 21
-12.0128103083
  0
LINE
  5
369
100
AcDbEntity
  8
0
100
AcDbLine
 62
7
  6
CONTINUOUS
 10
-7.4338234098
 20
-12.9429191663
 11
-7.4300307274
 21
-12.6719835489
  0
LINE
  5
36A
100
AcDbEntity
  8
DRAFT
100
AcDbLine
 62
7
  6
CONTINUOUS
 10
-7.4300136342
 20
-12.6707876305
 11
-7.4337913031
 21
-12.9405843313
  0
LINE
  5
36B
100
AcDbEntity
  8
0
100
AcDbLine
 62
7
  6
CONTINUOUS
 10
-9.0643451657
 20
-11.7400162871
 11
-9.068334148
 21
-12.0139569807
  0
LINE
  5
36C
100
AcDbEntity
  8
DRAFT
100
AcDbLine
 62
7
  6
CONTINUOUS
 10
-9.0683177943
 20
-12.0128103083
 11
-9.064334877
 21
-11.7393236646
  0
LINE
  5
36D
100
AcDbEntity
  8
0
100
AcDbLine
 62
7
  6
CONTINUOUS
 10
-7.4300307274
 20
-12.6719835489
 11
-7.4260420675
 21
-12.3980628122
  0
LINE
  5
36E
100
AcDbEntity
  8
DRAFT
100
AcDbLine
 62
7
  6
CONTINUOUS
 10
-7.4260307734
 20
-12.397301655
 11
-7.4300136342
 21
-12.6707876305
  0
LINE
  5
36F
100
AcDbEntity
  8
0
100
AcDbLine
 62
7
  6
CONTINUOUS
 10
-9.0601532553
 20
-11.4629560606
 11
-9.0643451657
 21
-11.7400162871
  0
LINE
  5
370
100
AcDbEntity
  8
DRAFT
100
AcDbLine
 62
7
  6
CONTINUOUS
 10
-9.064334877
 20
-11.7393236646
 11
-9.0601419535
 21
-11.4622229575
  0
LINE
  5
371
100
AcDbEntity
  8
0
100
AcDbLine
 62
7
  6
CONTINUOUS
 10
-7.4260420675
 20
-12.3980628122
 11
-7.4218500895
 21
-12.1209958145
  0
LINE
  5
372
100
AcDbEntity
  8
DRAFT
100
AcDbLine
 62
7
  6
CONTINUOUS
 10
-7.4218378469
 20
-12.1202016738
 11
-7.4260307734
 21
-12.397301655
  0
LINE
  5
373
100
AcDbEntity
  8
0
100
AcDbLine
 62
7
  6
CONTINUOUS
 10
-9.0557431402
 20
-11.1821420614
 11
-9.0601532553
 21
-11.4629560606
  0
LINE
  5
374
100
AcDbEntity
  8
DRAFT
100
AcDbLine
 62
7
  6
CONTINUOUS
 10
-9.0601419535
 20
-11.4622229575
 11
-9.0557405775
 21
-11.1819832776
  0
LINE
  5
375
100
AcDbEntity
  8
DRAFT
100
AcDbLine
 62
7
  6
CONTINUOUS
 10
-7.4174339487
 20
-11.8398028929
 11
-7.4218378469
 21
-12.1202016738
  0
LINE
  5
376
100
AcDbEntity
  8
0
100
AcDbLine
 62
7
  6
CONTINUOUS
 10
-7.4218500895
 20
-12.1209958145
 11
-7.4174366998
 21
-11.8399764684
  0
LINE
  5
377
100
AcDbEntity
  8
0
100
AcDbLine
 62
7
  6
CONTINUOUS
 10
-9.0511286918
 20
-10.898790391
 11
-9.0557431402
 21
-11.1821420614
  0
LINE
  5
378
100
AcDbEntity
  8
DRAFT
100
AcDbLine
 62
7
  6
CONTINUOUS
 10
-9.0557405775
 20
-11.1819832776
 11
-9.0511287991
 21
-10.8987969218
  0
LINE
  5
379
100
AcDbEntity
  8
DRAFT
100
AcDbLine
 62
7
  6
CONTINUOUS
 10
-7.4128248059
 20
-11.5567824579
 11
-7.4174339487
 21
-11.8398028929
  0
LINE
  5
37A
100
AcDbEntity
  8
0
100
AcDbLine
 62
7
  6
CONTINUOUS
 10
-7.4174366998
 20
-11.8399764684
 11
-7.4128247517
 21
-11.5567792116
  0
LINE
  5
37B
100
AcDbEntity
  8
0
100
AcDbLine
 62
7
  6
CONTINUOUS
 10
-9.046390008
 20
-10.6178143527
 11
-9.0511286918
 21
-10.898790391
  0
LINE
  5
37C
100
AcDbEntity
  8
DRAFT
100
AcDbLine
 62
7
  6
CONTINUOUS
 10
-9.0511287991
 20
-10.8987969218
 11
-9.0463886886
 21
-10.6177374407
  0
LINE
  5
37D
100
AcDbEntity
  8
0
100
AcDbLine
 62
7
  6
CONTINUOUS
 10
-7.4128246991
 20
-11.5567760108
 11
-7.4080861359
 21
-11.2758068121
  0
LINE
  5
37E
100
AcDbEntity
  8
DRAFT
100
AcDbLine
 62
7
  6
CONTINUOUS
 10
-7.4080845572
 20
-11.275714778
 11
-7.4128248059
 21
-11.5567824579
  0
LINE
  5
37F
100
AcDbEntity
  8
0
100
AcDbLine
 62
7
  6
CONTINUOUS
 10
-9.0415393468
 20
-10.3396610426
 11
-9.046390008
 21
-10.6178143527
  0
LINE
  5
380
100
AcDbEntity
  8
DRAFT
100
AcDbLine
 62
7
  6
CONTINUOUS
 10
-9.0463886886
 20
-10.6177374407
 11
-9.0415342852
 21
-10.339375681
  0
LINE
  5
381
100
AcDbEntity
  8
0
100
AcDbLine
 62
7
  6
CONTINUOUS
 10
-7.4080861359
 20
-11.2758068121
 11
-7.4032354857
 21
-10.9976537562
  0
LINE
  5
382
100
AcDbEntity
  8
DRAFT
100
AcDbLine
 62
7
  6
CONTINUOUS
 10
-7.4032301296
 20
-10.9973514028
 11
-7.4080845572
 21
-11.275714778
  0
LINE
  5
383
100
AcDbEntity
  8
0
100
AcDbLine
 62
7
  6
CONTINUOUS
 10
-9.0365905316
 20
-10.0648105544
 11
-9.0415393468
 21
-10.3396610426
  0
LINE
  5
384
100
AcDbEntity
  8
DRAFT
100
AcDbLine
 62
7
  6
CONTINUOUS
 10
-9.0415342852
 20
-10.339375681
 11
-9.0365753358
 21
-10.0639790012
  0
LINE
  5
385
100
AcDbEntity
  8
0
100
AcDbLine
 62
7
  6
CONTINUOUS
 10
-7.4032354857
 20
-10.9976537562
 11
-7.3982865976
 21
-10.7227989044
  0
LINE
  5
386
100
AcDbEntity
  8
DRAFT
100
AcDbLine
 62
7
  6
CONTINUOUS
 10
-7.3982711219
 20
-10.721953161
 11
-7.4032301296
 21
-10.9973514028
  0
LINE
  5
387
100
AcDbEntity
  8
0
100
AcDbLine
 62
7
  6
CONTINUOUS
 10
-9.0315516775
 20
-9.7933866908
 11
-9.0365905316
 21
-10.0648105544
  0
LINE
  5
388
100
AcDbEntity
  8
DRAFT
100
AcDbLine
 62
7
  6
CONTINUOUS
 10
-9.0365753358
 20
-10.0639790012
 11
-9.0315183615
 21
-9.7916159598
  0
LINE
  5
389
100
AcDbEntity
  8
0
100
AcDbLine
 62
7
  6
CONTINUOUS
 10
-7.3982865976
 20
-10.7227989044
 11
-7.3932475889
 21
-10.4513665475
  0
LINE
  5
38A
100
AcDbEntity
  8
DRAFT
100
AcDbLine
 62
7
  6
CONTINUOUS
 10
-7.3932140457
 20
-10.4495886117
 11
-7.3982711219
 21
-10.721953161
  0
LINE
  5
38B
100
AcDbEntity
  8
ASSI
100
AcDbLine
 62
7
  6
CONTINUOUS
 10
-7.7361873091
 20
25.0555311563
 11
-7.7351975784
 21
25.0784094415
  0
LWPOLYLINE
  5
38C
100
AcDbEntity
  8
DRAFT
100
AcDbPolyline
 62
7
  6
CONTINUOUS
 90
3
 70
0
 10
-9.0315185359
 20
-9.7916161709
 10
-9.0273937465
 20
-9.7336478124
 10
-9.0207761714
 20
-9.6800263971
  0
LINE
  5
38D
100
AcDbEntity
  8
DRAFT
100
AcDbLine
 62
7
  6
CONTINUOUS
 10
-9.0207761714
 20
-9.6800263971
 11
-9.011588798
 21
-9.6306844152
  0
LWPOLYLINE
  5
38E
100
AcDbEntity
  8
ASSI
100
AcDbPolyline
 62
7
  6
CONTINUOUS
 90
10
 70
0
 10
1.324356761
 20
20.0930416763
 10
1.3405067747
 20
20.1250055601
 10
1.352619285
 20
20.1592026217
 10
1.3606942918
 20
20.1956328611
 10
1.3647317953
 20
20.2347040287
 10
1.3647317953
 20
20.276008374
 10
1.3606942918
 20
20.3183226463
 10
1.352619285
 20
20.3612390954
 10
1.3405067747
 20
20.4051654714
 10
1.324356761
 20
20.4501017744
  0
LWPOLYLINE
  5
38F
100
AcDbEntity
  8
ASSI
100
AcDbPolyline
 62
250
  6
CONTINUOUS
 90
6
 70
0
 10
6.8115164505
 20
19.4797694683
 10
6.8245658148
 20
19.4925824579
 10
6.8346224294
 20
19.5062544207
 10
6.8415180187
 20
19.5205565886
 10
6.8451371996
 20
19.5352496484
 10
6.8457089359
 20
19.5439174401
  0
LWPOLYLINE
  5
390
100
AcDbEntity
  8
ASSI
100
AcDbPolyline
 62
250
  6
CONTINUOUS
 90
6
 70
0
 10
6.8115164505
 20
19.1582252163
 10
6.8245658253
 20
19.1710382179
 10
6.8346224434
 20
19.1847101918
 10
6.8415180304
 20
19.1990123689
 10
6.8451372047
 20
19.2137054353
 10
6.8457089359
 20
19.2223731908
  0
LINE
  5
391
100
AcDbEntity
  8
ASSI
100
AcDbLine
 62
7
  6
CONTINUOUS
 10
6.3621418334
 20
17.5929620306
 11
5.6247333904
 21
16.9569576543
  0
LINE
  5
392
100
AcDbEntity
  8
ASSI
100
AcDbLine
 62
250
  6
CONTINUOUS
 10
6.4035203457
 20
17.5763434872
 11
5.5109803144
 21
16.820101469
  0
LINE
  5
393
100
AcDbEntity
  8
ASSI
100
AcDbLine
 62
250
  6
CONTINUOUS
 10
6.8126754577
 20
17.0024413553
 11
5.9201354264
 21
16.2461993371
  0
LINE
  5
394
100
AcDbEntity
  8
ASSI
100
AcDbLine
 62
250
  6
CONTINUOUS
 10
7.371953542
 20
17.4637944271
 11
6.8126754577
 21
17.0025039283
  0
LINE
  5
395
100
AcDbEntity
  8
RACCORDO
100
AcDbLine
 62
250
  6
CONTINUOUS
 10
19.2089228979
 20
25.4838340525
 11
7.4799801725
 21
15.8295832141
  0
LINE
  5
396
100
AcDbEntity
  8
SUPERFICI
100
AcDbLine
 62
250
  6
CONTINUOUS
 10
19.2089228979
 20
25.4838340525
 11
7.4799801725
 21
15.8295832141
  0
LINE
  5
397
100
AcDbEntity
  8
RACCORDO
100
AcDbLine
 62
7
  6
CONTINUOUS
 10
18.7229005769
 20
26.1650538946
 11
12.5833226017
 21
21.2122539239
  0
LINE
  5
398
100
AcDbEntity
  8
SUPERFICI
100
AcDbLine
 62
7
  6
CONTINUOUS
 10
18.7229005769
 20
26.1650538946
 11
12.5833226017
 21
21.2122539239
  0
LWPOLYLINE
  5
399
100
AcDbEntity
  8
RACCORDO
100
AcDbPolyline
 62
7
  6
CONTINUOUS
 90
9
 70
0
 10
18.7229005769
 20
26.1650538946
 10
18.7678695235
 20
26.2000069689
 10
18.809790843
 20
26.229268447
 10
18.8483002568
 20
26.2527406502
 10
18.8829235279
 20
26.270436407
 10
18.9134725347
 20
26.2823266494
 10
18.9400457186
 20
26.28833224
 10
18.9623425005
 20
26.2885880434
 10
18.9761836529
 20
26.2850796437
  0
LWPOLYLINE
  5
39A
100
AcDbEntity
  8
SUPERFICI
100
AcDbPolyline
 62
7
  6
CONTINUOUS
 90
9
 70
0
 10
18.7229005769
 20
26.1650538946
 10
18.7678695235
 20
26.2000069689
 10
18.809790843
 20
26.229268447
 10
18.8483002568
 20
26.2527406502
 10
18.8829235279
 20
26.270436407
 10
18.9134725347
 20
26.2823266494
 10
18.9400457186
 20
26.28833224
 10
18.9623425005
 20
26.2885880434
 10
18.9761836529
 20
26.2850796437
  0
LWPOLYLINE
  5
39B
100
AcDbEntity
  8
ASSI
100
AcDbPolyline
 62
7
  6
CONTINUOUS
 90
13
 70
0
 10
-8.218764555
 20
25.0053965913
 10
-8.2201608795
 20
25.027344664
 10
-8.2243415111
 20
25.0500377592
 10
-8.2312315754
 20
25.0730907342
 10
-8.2407094682
 20
25.0961128213
 10
-8.2526124078
 20
25.1187106891
 10
-8.2667390363
 20
25.1404951999
 10
-8.282849767
 20
25.1610920534
 10
-8.3006669684
 20
25.1801506054
 10
-8.3198829053
 20
25.1973464367
 10
-8.3401694409
 20
25.2123847969
 10
-8.3611837592
 20
25.2250055115
 10
-8.3825700117
 20
25.2349900124
  0
LWPOLYLINE
  5
39C
100
AcDbEntity
  8
ASSI
100
AcDbPolyline
 62
250
  6
CONTINUOUS
 90
9
 70
0
 10
-6.1700244688
 20
23.4372656587
 10
-6.1697349581
 20
23.4311524007
 10
-6.1666754492
 20
23.4164175438
 10
-6.1603254428
 20
23.4020324945
 10
-6.1507911949
 20
23.3882379518
 10
-6.138232241
 20
23.3752647335
 10
-6.1228587276
 20
23.363329915
 10
-6.1049278968
 20
23.3526331968
 10
-6.0847397809
 20
23.3433535624
  0
LWPOLYLINE
  5
39D
100
AcDbEntity
  8
ASSI
100
AcDbPolyline
 62
7
  6
CONTINUOUS
 90
11
 70
0
 10
-7.7351976269
 20
25.4000558216
 10
-7.7360779631
 20
25.4211466453
 10
-7.7400244546
 20
25.4489225463
 10
-7.7474622003
 20
25.476709969
 10
-7.7583902224
 20
25.5034177078
 10
-7.7725517007
 20
25.5282374134
 10
-7.7898620946
 20
25.5509887474
 10
-7.8101037419
 20
25.5712741591
 10
-7.8328867018
 20
25.5886434544
 10
-7.8577446155
 20
25.6027362732
 10
-7.870359914
 20
25.6082960503
  0
LINE
  5
39E
100
AcDbEntity
  8
ASSI
100
AcDbLine
 62
7
  6
CONTINUOUS
 10
-6.1700244936
 20
22.3180634734
 11
-6.1700244936
 21
23.4373228247
  0
LINE
  5
39F
100
AcDbEntity
  8
ASSI
100
AcDbLine
 62
250
  6
CONTINUOUS
 10
-6.0847397809
 20
22.2203415564
 11
-6.0847397809
 21
23.3433535624
  0
LINE
  5
3A0
100
AcDbEntity
  8
0
100
AcDbLine
 62
7
  6
CONTINUOUS
 10
-6.629992163
 20
-13.2581670317
 11
-6.6337590807
 21
-13.5348988362
  0
LINE
  5
3A1
100
AcDbEntity
  8
0
100
AcDbLine
 62
7
  6
CONTINUOUS
 10
-6.6260626511
 20
-12.9813140781
 11
-6.629992163
 21
-13.2581670317
  0
LINE
  5
3A2
100
AcDbEntity
  8
0
100
AcDbLine
 62
7
  6
CONTINUOUS
 10
-6.6219705499
 20
-12.7043401605
 11
-6.6260626511
 21
-12.9813140781
  0
LINE
  5
3A3
100
AcDbEntity
  8
0
100
AcDbLine
 62
7
  6
CONTINUOUS
 10
-6.6177158674
 20
-12.4272454469
 11
-6.6219705499
 21
-12.7043401605
  0
LINE
  5
3A4
100
AcDbEntity
  8
0
100
AcDbLine
 62
7
  6
CONTINUOUS
 10
-6.6132987641
 20
-12.1500397521
 11
-6.6177158674
 21
-12.4272454469
  0
LINE
  5
3A5
100
AcDbEntity
  8
0
100
AcDbLine
 62
7
  6
CONTINUOUS
 10
-6.608719271
 20
-11.8727235215
 11
-6.6132987641
 21
-12.1500397521
  0
LINE
  5
3A6
100
AcDbEntity
  8
0
100
AcDbLine
 62
7
  6
CONTINUOUS
 10
-6.603977244
 20
-11.5952874151
 11
-6.608719271
 21
-11.8727235215
  0
LWPOLYLINE
  5
3A7
100
AcDbEntity
  8
ASSI
100
AcDbPolyline
 62
250
  6
CONTINUOUS
 90
28
 70
0
 10
-6.0847397809
 20
23.3433535624
 10
-6.0847051875
 20
23.3453407066
 10
-6.0845516398
 20
23.3473208224
 10
-6.0842791378
 20
23.34929391
 10
-6.0838929551
 20
23.3512753306
 10
-6.0833878181
 20
23.3532497229
 10
-6.0827479056
 20
23.3551710028
 10
-6.081968416
 20
23.3570382092
 10
-6.0810541509
 20
23.3588523031
 10
-6.0800036945
 20
23.3605700845
 10
-6.0788120655
 20
23.3621885842
 10
-6.0774842452
 20
23.3637107713
 10
-6.0760337611
 20
23.3651023526
 10
-6.0744575662
 20
23.3663586159
 10
-6.0727587076
 20
23.3674842734
 10
-6.0709598536
 20
23.368459168
 10
-6.0690609622
 20
23.3692792705
 10
-6.0670620753
 20
23.3699486102
 10
-6.064985987
 20
23.3704591184
 10
-6.0628321917
 20
23.370808778
 10
-6.0606011949
 20
23.370999606
 10
-6.0583173074
 20
23.3710295848
 10
-6.0559798727
 20
23.3708969176
 10
-6.0535895471
 20
23.3706034013
 10
-6.0511726108
 20
23.3701524077
 10
-6.0487378236
 20
23.3695450608
 10
-6.0462764256
 20
23.3687802368
 10
-6.0437884167
 20
23.3678579355
  0
LINE
  5
3A8
100
AcDbEntity
  8
0
100
AcDbLine
 62
7
  6
CONTINUOUS
 10
-6.5990726912
 20
-11.3177316021
 11
-6.603977244
 21
-11.5952874151
  0
LINE
  5
3A9
100
AcDbEntity
  8
0
100
AcDbLine
 62
7
  6
CONTINUOUS
 10
-6.5940056181
 20
-11.0400562683
 11
-6.5990726912
 21
-11.3177316021
  0
LWPOLYLINE
  5
3AA
100
AcDbEntity
  8
0
100
AcDbPolyline
 62
7
  6
CONTINUOUS
 90
46
 70
0
 10
-6.6337590807
 20
-13.5348988362
 10
-6.6401689501
 20
-13.6630525829
 10
-6.6551255785
 20
-13.7856135421
 10
-6.6785728329
 20
-13.9027191821
 10
-6.7108170167
 20
-14.015086235
 10
-6.7516928379
 20
-14.1223350675
 10
-6.8003732079
 20
-14.2228136499
 10
-6.856804737
 20
-14.3160991986
 10
-6.9211530101
 20
-14.4025667504
 10
-6.9927273011
 20
-14.4815163718
 10
-7.0717443808
 20
-14.5527915265
 10
-7.1581671017
 20
-14.6162767621
 10
-7.2507293593
 20
-14.671151379
 10
-7.3491456407
 20
-14.7169634483
 10
-7.4537139608
 20
-14.7536629117
 10
-7.5638788466
 20
-14.7809303725
 10
-7.6802692428
 20
-14.7984973814
 10
-7.8023253093
 20
-14.8061653863
 10
-7.927482929
 20
-14.8036802476
 10
-8.0555148736
 20
-14.7904745255
 10
-8.1864122692
 20
-14.7667437029
 10
-8.3176208461
 20
-14.7333879942
 10
-8.4482083315
 20
-14.6906322458
 10
-8.5787394209
 20
-14.6381727027
 10
-8.7087902706
 20
-14.5761837349
 10
-8.8390418848
 20
-14.5044817921
 10
-8.9687292121
 20
-14.4235101569
 10
-9.09518961
 20
-14.3344345368
 10
-9.2183262082
 20
-14.2370908759
 10
-9.3381922848
 20
-14.1321341741
 10
-9.4521821659
 20
-14.0219085183
 10
-9.5595998307
 20
-13.9070770572
 10
-9.6611313485
 20
-13.7874216223
 10
-9.7561536762
 20
-13.6638587367
 10
-9.8449289854
 20
-13.5362947303
 10
-9.9274091923
 20
-13.4052078027
 10
-10.0024508021
 20
-13.2722335995
 10
-10.0700383682
 20
-13.137441075
 10
-10.1304481618
 20
-13.0008741155
 10
-10.1828694163
 20
-12.8639209936
 10
-10.2274078436
 20
-12.7261528307
 10
-10.2642612839
 20
-12.5878690841
 10
-10.2925867505
 20
-12.4512961037
 10
-10.3121019274
 20
-12.3169685928
 10
-10.3232391297
 20
-12.183910518
 10
-10.3261307788
 20
-12.0519591196
  0
LWPOLYLINE
  5
3AB
100
AcDbEntity
  8
DRAFT
100
AcDbPolyline
 62
7
  6
CONTINUOUS
 90
10
 70
0
 10
-7.4337918443
 20
-12.9405846233
 10
-7.4382630117
 20
-13.0131821324
 10
-7.4487495247
 20
-13.0815305847
 10
-7.4652205646
 20
-13.1456303909
 10
-7.4878968557
 20
-13.20585313
 10
-7.5165792057
 20
-13.2618656936
 10
-7.5505859197
 20
-13.3125777916
 10
-7.5900579077
 20
-13.3578724548
 10
-7.6348821261
 20
-13.3978428553
 10
-7.6723024586
 20
-13.4244413208
  0
LWPOLYLINE
  5
3AC
100
AcDbEntity
  8
0
100
AcDbPolyline
 62
7
  6
CONTINUOUS
 90
3
 70
0
 10
-7.443561223
 20
-13.054499152
 10
-7.4367121008
 20
-12.9997997901
 10
-7.4338261181
 20
-12.9429175926
  0
LINE
  5
3AD
100
AcDbEntity
  8
DRAFT
100
AcDbLine
 62
7
  6
CONTINUOUS
 10
-9.011588798
 20
-9.6306844152
 11
-8.9993139968
 21
-9.5857676755
  0
LINE
  5
3AE
100
AcDbEntity
  8
DRAFT
100
AcDbLine
 62
7
  6
CONTINUOUS
 10
-8.9993139968
 20
-9.5857676755
 11
-8.9843376935
 21
-9.5450162147
  0
LWPOLYLINE
  5
3AF
100
AcDbEntity
  8
ASSI
100
AcDbPolyline
 62
7
  6
CONTINUOUS
 90
13
 70
0
 10
5.6247333904
 20
17.6741207337
 10
5.6100817542
 20
17.6550148891
 10
5.5938933461
 20
17.6368112784
 10
5.5762530268
 20
17.6197157064
 10
5.5572022646
 20
17.6039172601
 10
5.5369230683
 20
17.5896071814
 10
5.515743183
 20
17.5769688489
 10
5.4938210505
 20
17.5661377371
 10
5.4713247437
 20
17.5572488388
 10
5.4486296259
 20
17.5504254265
 10
5.4259567735
 20
17.5457221655
 10
5.4034756415
 20
17.5431717314
 10
5.384993181
 20
17.5426972534
  0
LINE
  5
3B0
100
AcDbEntity
  8
ASSI
100
AcDbLine
 62
7
  6
CONTINUOUS
 10
7.9312316262
 20
15.17687962
 11
7.371953542
 21
14.6971021086
  0
LINE
  5
3B1
100
AcDbEntity
  8
RACCORDO
100
AcDbLine
 62
250
  6
CONTINUOUS
 10
19.6015971561
 20
24.3781276981
 11
8.0027288328
 21
14.5148904039
  0
LINE
  5
3B2
100
AcDbEntity
  8
SUPERFICI
100
AcDbLine
 62
250
  6
CONTINUOUS
 10
19.6015971561
 20
24.3781276981
 11
8.0027288328
 21
14.5148904039
  0
LWPOLYLINE
  5
3B3
100
AcDbEntity
  8
RACCORDO
100
AcDbPolyline
 62
250
  6
CONTINUOUS
 90
27
 70
0
 10
19.6882617866
 20
19.1529933212
 10
19.7030826844
 20
19.1632475597
 10
19.7170773025
 20
19.1714781244
 10
19.7302191411
 20
19.1777103905
 10
19.7424521736
 20
19.1818588113
 10
19.7537605016
 20
19.1840743062
 10
19.7641794578
 20
19.1847344497
 10
19.7736483933
 20
19.1838948943
 10
19.7821531658
 20
19.1815659874
 10
19.7898097335
 20
19.1780482083
 10
19.7966010526
 20
19.1734322937
 10
19.8024651293
 20
19.1677005868
 10
19.8074529961
 20
19.1609906617
 10
19.8115503524
 20
19.1533815182
 10
19.8146797029
 20
19.1448848986
 10
19.8167937122
 20
19.135542979
 10
19.8178617809
 20
19.1254333582
 10
19.8178104366
 20
19.1145889036
 10
19.8165226621
 20
19.1029920373
 10
19.8139698665
 20
19.0907531978
 10
19.8100650217
 20
19.0778946774
 10
19.8045890342
 20
19.0642838612
 10
19.7975243108
 20
19.0500765545
 10
19.7887445042
 20
19.0352947464
 10
19.7778321554
 20
19.0196461058
 10
19.7647549041
 20
19.003330509
 10
19.763124119
 20
19.0015303899
  0
LWPOLYLINE
  5
3B4
100
AcDbEntity
  8
SUPERFICI
100
AcDbPolyline
 62
250
  6
CONTINUOUS
 90
27
 70
0
 10
19.6882617866
 20
19.1529933212
 10
19.7030826844
 20
19.1632475597
 10
19.7170773025
 20
19.1714781244
 10
19.7302191411
 20
19.1777103905
 10
19.7424521736
 20
19.1818588113
 10
19.7537605016
 20
19.1840743062
 10
19.7641794578
 20
19.1847344497
 10
19.7736483933
 20
19.1838948943
 10
19.7821531658
 20
19.1815659874
 10
19.7898097335
 20
19.1780482083
 10
19.7966010526
 20
19.1734322937
 10
19.8024651293
 20
19.1677005868
 10
19.8074529961
 20
19.1609906617
 10
19.8115503524
 20
19.1533815182
 10
19.8146797029
 20
19.1448848986
 10
19.8167937122
 20
19.135542979
 10
19.8178617809
 20
19.1254333582
 10
19.8178104366
 20
19.1145889036
 10
19.8165226621
 20
19.1029920373
 10
19.8139698665
 20
19.0907531978
 10
19.8100650217
 20
19.0778946774
 10
19.8045890342
 20
19.0642838612
 10
19.7975243108
 20
19.0500765545
 10
19.7887445042
 20
19.0352947464
 10
19.7778321554
 20
19.0196461058
 10
19.7647549041
 20
19.003330509
 10
19.763124119
 20
19.0015303899
  0
LINE
  5
3B5
100
AcDbEntity
  8
ASSI
100
AcDbLine
 62
250
  6
CONTINUOUS
 10
-3.4311245601
 20
22.2776018654
 11
-3.4311245601
 21
21.1545898594
  0
LINE
  5
3B6
100
AcDbEntity
  8
ASSI
100
AcDbLine
 62
250
  6
CONTINUOUS
 10
-3.154605874
 20
22.3041431734
 11
-3.154605874
 21
21.1895673092
  0
LINE
  5
3B7
100
AcDbEntity
  8
ASSI
100
AcDbLine
 62
7
  6
CONTINUOUS
 10
-2.9761914715
 20
21.3434472137
 11
-2.9761914715
 21
22.4493336637
  0
LWPOLYLINE
  5
3B8
100
AcDbEntity
  8
ASSI
100
AcDbPolyline
 62
250
  6
CONTINUOUS
 90
13
 70
0
 10
-1.7432401842
 20
21.6406608117
 10
-1.7422804379
 20
21.6625948699
 10
-1.7394172575
 20
21.685734272
 10
-1.7346985509
 20
21.7096918344
 10
-1.7282032742
 20
21.7340666832
 10
-1.72004011
 20
21.7584509621
 10
-1.7103456494
 20
21.7824366564
 10
-1.6992821063
 20
21.8056224211
 10
-1.6870346029
 20
21.8276202953
 10
-1.673808073
 20
21.8480621944
 10
-1.6598238318
 20
21.8666060697
 10
-1.6453158733
 20
21.8829416315
 10
-1.6305269547
 20
21.8967955408
  0
LWPOLYLINE
  5
3B9
100
AcDbEntity
  8
ASSI
100
AcDbPolyline
 62
7
  6
CONTINUOUS
 90
7
 70
0
 10
-1.9513044939
 20
24.9339350009
 10
-1.9531948256
 20
24.9105648152
 10
-1.9593272591
 20
24.887407107
 10
-1.9693992197
 20
24.8651224646
 10
-1.9833113003
 20
24.8440253055
 10
-2.001162908
 20
24.823801212
 10
-2.0229540427
 20
24.8044501843
  0
LWPOLYLINE
  5
3BA
100
AcDbEntity
  8
DRAFT
100
AcDbPolyline
 62
7
  6
CONTINUOUS
 90
4
 70
0
 10
-8.9843376935
 20
-9.5450162147
 10
-8.9679493174
 20
-9.5077687245
 10
-8.9503345666
 20
-9.4740683709
 10
-8.9312107141
 20
-9.4438011697
  0
LWPOLYLINE
  5
3BB
100
AcDbEntity
  8
ASSI
100
AcDbPolyline
 62
7
  6
CONTINUOUS
 90
5
 70
0
 10
6.8040119157
 20
19.0734355473
 10
6.8132806685
 20
19.090392115
 10
6.8226148987
 20
19.1106552083
 10
6.8303047946
 20
19.1310962555
 10
6.8364893747
 20
19.1518674954
  0
LWPOLYLINE
  5
3BC
100
AcDbEntity
  8
ASSI
100
AcDbPolyline
 62
250
  6
CONTINUOUS
 90
3
 70
0
 10
6.7975344983
 20
19.110865171
 10
6.8003019374
 20
19.1159148334
 10
6.8027822676
 20
19.121073258
  0
LINE
  5
3BD
100
AcDbEntity
  8
ASSI
100
AcDbLine
 62
250
  6
CONTINUOUS
 10
6.3621418334
 20
18.3724463162
 11
6.7975344983
 21
19.110865171
  0
LINE
  5
3BE
100
AcDbEntity
  8
ASSI
100
AcDbLine
 62
7
  6
CONTINUOUS
 10
6.3621418334
 20
18.324031621
 11
6.8040088909
 21
19.07343094
  0
LWPOLYLINE
  5
3BF
100
AcDbEntity
  8
ASSI
100
AcDbPolyline
 62
250
  6
CONTINUOUS
 90
6
 70
0
 10
6.7888445511
 20
-19.7305152998
 10
6.7775173501
 20
-19.7079330271
 10
6.7637232354
 20
-19.6872186413
 10
6.7476956161
 20
-19.6687226498
 10
6.7297056948
 20
-19.6527580228
 10
6.7100578786
 20
-19.639594897
  0
LWPOLYLINE
  5
3C0
100
AcDbEntity
  8
ASSI
100
AcDbPolyline
 62
7
  6
CONTINUOUS
 90
13
 70
0
 10
-2.9761914715
 20
22.4493336637
 10
-2.9779368772
 20
22.4767687545
 10
-2.9831626666
 20
22.5051351235
 10
-2.9917752471
 20
22.5339513423
 10
-3.003622613
 20
22.5627289511
 10
-3.0185012875
 20
22.5909762859
 10
-3.0361595732
 20
22.6182069244
 10
-3.0562979865
 20
22.6439529913
 10
-3.0785694884
 20
22.6677761813
 10
-3.1025894094
 20
22.6892709704
 10
-3.1279475789
 20
22.7080689206
 10
-3.1542154768
 20
22.7238448139
 10
-3.1809482924
 20
22.7363254399
  0
LWPOLYLINE
  5
3C1
100
AcDbEntity
  8
ASSI
100
AcDbPolyline
 62
7
  6
CONTINUOUS
 90
16
 70
0
 10
-1.9733794222
 20
26.0592219245
 10
-1.9746313172
 20
26.0810033717
 10
-1.9799690618
 20
26.1152953507
 10
-1.9894724424
 20
26.1491194846
 10
-2.0031238775
 20
26.1819766588
 10
-2.0207530531
 20
26.2132942454
 10
-2.04222198
 20
26.2427262202
 10
-2.0674387933
 20
26.2699904094
 10
-2.0960414769
 20
26.2946044463
 10
-2.1275803857
 20
26.31623016
 10
-2.162250704
 20
26.3349503524
 10
-2.1996408369
 20
26.3504389615
 10
-2.2384784636
 20
26.3622690933
 10
-2.2790053361
 20
26.3705971511
 10
-2.321099035
 20
26.3753465132
 10
-2.362925218
 20
26.3763273854
  0
LINE
  5
3C2
100
AcDbEntity
  8
ASSI
100
AcDbLine
 62
7
  6
CONTINUOUS
 10
-1.9513053618
 20
24.9339350035
 11
-1.9733642296
 21
26.0592147385
  0
LINE
  5
3C3
100
AcDbEntity
  8
ASSI
100
AcDbLine
 62
7
  6
CONTINUOUS
 10
-2.4271399424
 20
21.8089362413
 11
-2.4466946088
 21
22.886060721
  0
LINE
  5
3C4
100
AcDbEntity
  8
ASSI
100
AcDbLine
 62
250
  6
CONTINUOUS
 10
-2.0229540427
 20
24.8044501843
 11
-2.0417693157
 21
25.9354794305
  0
LINE
  5
3C5
100
AcDbEntity
  8
ASSI
100
AcDbLine
 62
250
  6
CONTINUOUS
 10
-1.1218500909
 20
24.455837293
 11
-1.1299425606
 21
25.5130043586
  0
LINE
  5
3C6
100
AcDbEntity
  8
ASSI
100
AcDbLine
 62
7
  6
CONTINUOUS
 10
-1.8694762611
 20
21.7101257007
 11
-1.8694762611
 21
20.5908663493
  0
LINE
  5
3C7
100
AcDbEntity
  8
ASSI
100
AcDbLine
 62
250
  6
CONTINUOUS
 10
-1.7841915484
 20
21.6161564387
 11
-1.7841915484
 21
20.4931444327
  0
LINE
  5
3C8
100
AcDbEntity
  8
RACCORDO
100
AcDbLine
 62
250
  6
CONTINUOUS
 10
-0.5872017506
 20
23.5064805964
 11
-0.5872017506
 21
22.6883755187
  0
LINE
  5
3C9
100
AcDbEntity
  8
SUPERFICI
100
AcDbLine
 62
250
  6
CONTINUOUS
 10
-0.5872017506
 20
23.5064805964
 11
-0.5872017506
 21
22.6883755187
  0
LINE
  5
3CA
100
AcDbEntity
  8
RACCORDO
100
AcDbLine
 62
250
  6
CONTINUOUS
 10
-0.1787255936
 20
23.6527933037
 11
-0.1787255936
 21
22.7233907374
  0
LINE
  5
3CB
100
AcDbEntity
  8
SUPERFICI
100
AcDbLine
 62
250
  6
CONTINUOUS
 10
-0.1787255936
 20
23.6527933037
 11
-0.1787255936
 21
22.7233907374
  0
LWPOLYLINE
  5
3CC
100
AcDbEntity
  8
RACCORDO
100
AcDbPolyline
 62
7
  6
CONTINUOUS
 90
7
 70
0
 10
0.8277804861
 20
23.1093299313
 10
0.827494003
 20
23.1015001998
 10
0.8252365838
 20
23.0861095208
 10
0.8204891573
 20
23.0692093411
 10
0.8130550395
 20
23.0511635185
 10
0.8029230647
 20
23.0324589923
 10
0.7907112067
 20
23.014235724
  0
LWPOLYLINE
  5
3CD
100
AcDbEntity
  8
SUPERFICI
100
AcDbPolyline
 62
7
  6
CONTINUOUS
 90
7
 70
0
 10
0.8277804861
 20
23.1093299313
 10
0.827494003
 20
23.1015001998
 10
0.8252365838
 20
23.0861095208
 10
0.8204891573
 20
23.0692093411
 10
0.8130550395
 20
23.0511635185
 10
0.8029230647
 20
23.0324589923
 10
0.7907112067
 20
23.014235724
  0
LWPOLYLINE
  5
3CE
100
AcDbEntity
  8
ASSI
100
AcDbPolyline
 62
250
  6
CONTINUOUS
 90
13
 70
0
 10
0.8284723082
 20
20.6078030969
 10
0.8294320558
 20
20.6297371699
 10
0.8322952396
 20
20.6528765854
 10
0.8370139507
 20
20.6768341586
 10
0.8435092324
 20
20.701209015
 10
0.8516724012
 20
20.7255932976
 10
0.8613668653
 20
20.7495789919
 10
0.8724304103
 20
20.7727647527
 10
0.8846779133
 20
20.7947626198
 10
0.8979044406
 20
20.8152045097
 10
0.9118886769
 20
20.8337483747
 10
0.9263966282
 20
20.850083926
 10
0.9411855376
 20
20.8639378259
  0
LWPOLYLINE
  5
3CF
100
AcDbEntity
  8
ASSI
100
AcDbPolyline
 62
250
  6
CONTINUOUS
 90
11
 70
0
 10
5.0226747237
 20
17.6831677556
 10
5.0136769029
 20
17.6592978974
 10
5.0020934641
 20
17.6369728864
 10
4.9881204101
 20
17.6165704833
 10
4.9719941786
 20
17.5984359166
 10
4.9539876409
 20
17.5828760406
 10
4.9344054851
 20
17.5701541434
 10
4.91357906
 20
17.5604854918
 10
4.8918607691
 20
17.5540336887
 10
4.8696181072
 20
17.550907905
 10
4.8578832713
 20
17.5506180324
  0
LWPOLYLINE
  5
3D0
100
AcDbEntity
  8
ASSI
100
AcDbPolyline
 62
250
  6
CONTINUOUS
 90
7
 70
0
 10
6.8027822676
 20
19.121073258
 10
6.804975489
 20
19.1263404449
 10
6.8069034193
 20
19.1317905554
 10
6.8085442408
 20
19.1373494281
 10
6.8098325001
 20
19.142794579
 10
6.8107463791
 20
19.1480518466
 10
6.8113076959
 20
19.1531953924
  0
LWPOLYLINE
  5
3D1
100
AcDbEntity
  8
DRAFT
100
AcDbPolyline
 62
7
  6
CONTINUOUS
 90
4
 70
0
 10
-8.9312107141
 20
-9.4438011697
 10
-8.9111806743
 20
-9.4160874734
 10
-8.8903203268
 20
-9.3907914733
 10
-8.8685000971
 20
-9.3680145503
  0
LINE
  5
3D2
100
AcDbEntity
  8
DRAFT
100
AcDbLine
 62
7
  6
CONTINUOUS
 10
4.9680927264
 20
-2.3668055804
 11
4.6428335686
 21
-2.2361741699
  0
LINE
  5
3D3
100
AcDbEntity
  8
ASSI
100
AcDbLine
 62
250
  6
CONTINUOUS
 10
6.7975131713
 20
-19.7545833455
 11
6.7888445511
 21
-19.7305152998
  0
LWPOLYLINE
  5
3D4
100
AcDbEntity
  8
ASSI
100
AcDbPolyline
 62
7
  6
CONTINUOUS
 90
13
 70
0
 10
1.324356761
 20
20.7221365399
 10
1.3226113554
 20
20.7495716308
 10
1.3173855659
 20
20.7779379997
 10
1.3087729854
 20
20.8067542185
 10
1.2969256195
 20
20.8355318274
 10
1.282046945
 20
20.8637791621
 10
1.2643886593
 20
20.8910098006
 10
1.244250246
 20
20.9167558675
 10
1.2219787441
 20
20.9405790575
 10
1.1979588231
 20
20.9620738466
 10
1.1726006536
 20
20.9808717968
 10
1.1463327557
 20
20.9966476901
 10
1.1195999401
 20
21.0091283162
  0
LWPOLYLINE
  5
3D5
100
AcDbEntity
  8
ASSI
100
AcDbPolyline
 62
7
  6
CONTINUOUS
 90
16
 70
0
 10
-0.2432262129
 20
25.5786980123
 10
-0.2442937349
 20
25.5960954845
 10
-0.2478932834
 20
25.6131831812
 10
-0.2540264754
 20
25.6299467256
 10
-0.262839424
 20
25.6466364905
 10
-0.2741912582
 20
25.6629400798
 10
-0.2876526311
 20
25.6779909177
 10
-0.3031283491
 20
25.6915350943
 10
-0.3207113256
 20
25.7037289259
 10
-0.3402501973
 20
25.7143221221
 10
-0.3618712796
 20
25.7232864084
 10
-0.385423066
 20
25.7305157863
 10
-0.410331886
 20
25.7356594004
 10
-0.4363895652
 20
25.7385712469
 10
-0.4637499959
 20
25.7392869451
 10
-0.492375933
 20
25.7377451065
  0
LWPOLYLINE
  5
3D6
100
AcDbEntity
  8
ASSI
100
AcDbPolyline
 62
250
  6
CONTINUOUS
 90
28
 70
0
 10
1.1459423585
 20
20.5769460497
 10
1.1455614427
 20
20.5876266715
 10
1.1446074264
 20
20.5987305857
 10
1.1430487896
 20
20.6102381115
 10
1.1408500876
 20
20.6221518236
 10
1.1379856458
 20
20.6344174861
 10
1.1344533516
 20
20.646921612
 10
1.1302413845
 20
20.6596262667
 10
1.1253410304
 20
20.6724896265
 10
1.1197829528
 20
20.6853858913
 10
1.1135782853
 20
20.6982644972
 10
1.1067366589
 20
20.7110834656
 10
1.0993115823
 20
20.7237306869
 10
1.0913376037
 20
20.7361473717
 10
1.0828343297
 20
20.7483033075
 10
1.0738476285
 20
20.760134099
 10
1.0644186235
 20
20.771590302
 10
1.0545754053
 20
20.7826423588
 10
1.0443483795
 20
20.793258866
 10
1.0337735909
 20
20.8034040394
 10
1.0228893445
 20
20.8130427692
 10
1.0117300161
 20
20.8221460358
 10
1.0003348918
 20
20.8306824301
 10
0.9887438659
 20
20.8386227311
 10
0.9769927785
 20
20.8459428627
 10
0.9651209588
 20
20.8526179739
 10
0.9531713296
 20
20.8586233752
 10
0.9411855376
 20
20.8639378259
  0
LWPOLYLINE
  5
3D7
100
AcDbEntity
  8
ASSI
100
AcDbPolyline
 62
250
  6
CONTINUOUS
 90
28
 70
0
 10
0.8694236724
 20
20.5504047417
 10
0.8693784519
 20
20.5525658804
 10
0.8692054994
 20
20.5548015088
 10
0.8689048148
 20
20.5571116266
 10
0.8684793253
 20
20.55950829
 10
0.8679261037
 20
20.5619794429
 10
0.8672363682
 20
20.5644889175
 10
0.8664052826
 20
20.5670388165
 10
0.8654376831
 20
20.5696270373
 10
0.8643392972
 20
20.5722111037
 10
0.8631061073
 20
20.5747903883
 10
0.861742131
 20
20.5773655186
 10
0.8602651481
 20
20.5798958999
 10
0.8586739939
 20
20.5823779155
 10
0.856969833
 20
20.5848151823
 10
0.8551739391
 20
20.5871779567
 10
0.8532865867
 20
20.5894634151
 10
0.8513075011
 20
20.5916743812
 10
0.8492571321
 20
20.5937895825
 10
0.8471348454
 20
20.5958082144
 10
0.8449412753
 20
20.5977310815
 10
0.8426987738
 20
20.5995393246
 10
0.8404069621
 20
20.6012318743
 10
0.8380662192
 20
20.6028098
 10
0.8357000335
 20
20.6042574503
 10
0.8333162345
 20
20.6055696079
 10
0.8309069927
 20
20.6067514902
 10
0.8284723082
 20
20.6078030969
  0
LINE
  5
3D8
100
AcDbEntity
  8
ASSI
100
AcDbLine
 62
250
  6
CONTINUOUS
 10
1.9478775429
 20
26.3772651593
 11
1.9430370017
 21
26.6565236457
  0
LINE
  5
3D9
100
AcDbEntity
  8
ASSI
100
AcDbLine
 62
7
  6
CONTINUOUS
 10
1.984625683
 20
26.4099892355
 11
1.9792015066
 21
26.7229185659
  0
LWPOLYLINE
  5
3DA
100
AcDbEntity
  8
ASSI
100
AcDbPolyline
 62
250
  6
CONTINUOUS
 90
16
 70
0
 10
2.3398253666
 20
18.6410282301
 10
2.3399976428
 20
18.6311167922
 10
2.340534048
 20
18.6212299871
 10
2.3414651683
 20
18.6114227326
 10
2.3428246385
 20
18.6017341181
 10
2.3446402417
 20
18.5922501064
 10
2.346924767
 20
18.5830932476
 10
2.349697188
 20
18.5743248545
 10
2.3529745731
 20
18.5660091401
 10
2.356748051
 20
18.5582556943
 10
2.3610220861
 20
18.5511190345
 10
2.3657987
 20
18.5446537332
 10
2.3710458545
 20
18.5389442303
 10
2.3767525564
 20
18.534029268
 10
2.3829058464
 20
18.5299450622
 10
2.3897964432
 20
18.5266014506
  0
LINE
  5
3DB
100
AcDbEntity
  8
ASSI
100
AcDbLine
 62
250
  6
CONTINUOUS
 10
0.2702382935
 20
24.6179185423
 11
0.2660064246
 21
25.1707525589
  0
LINE
  5
3DC
100
AcDbEntity
  8
RACCORDO
100
AcDbLine
 62
7
  6
CONTINUOUS
 10
0.8277805896
 20
23.1093383797
 11
0.8277809229
 21
23.1090169311
  0
LINE
  5
3DD
100
AcDbEntity
  8
SUPERFICI
100
AcDbLine
 62
250
  6
CONTINUOUS
 10
0.8277805896
 20
23.1093383797
 11
0.8277809229
 21
23.1090169311
  0
LINE
  5
3DE
100
AcDbEntity
  8
RACCORDO
100
AcDbLine
 62
250
  6
CONTINUOUS
 10
0.69985387
 20
23.299935984
 11
0.69985387
 21
22.8906208598
  0
LINE
  5
3DF
100
AcDbEntity
  8
SUPERFICI
100
AcDbLine
 62
250
  6
CONTINUOUS
 10
0.69985387
 20
23.299935984
 11
0.69985387
 21
22.8906208598
  0
LINE
  5
3E0
100
AcDbEntity
  8
ASSI
100
AcDbLine
 62
250
  6
CONTINUOUS
 10
0.8694236724
 20
19.4273927357
 11
0.8694236724
 21
20.5504047417
  0
LINE
  5
3E1
100
AcDbEntity
  8
ASSI
100
AcDbLine
 62
250
  6
CONTINUOUS
 10
1.1459423585
 20
19.4623701854
 11
1.1459423585
 21
20.5769460497
  0
LINE
  5
3E2
100
AcDbEntity
  8
ASSI
100
AcDbLine
 62
7
  6
CONTINUOUS
 10
1.324356761
 20
19.6162500899
 11
1.324356761
 21
20.7221365399
  0
LINE
  5
3E3
100
AcDbEntity
  8
RACCORDO
100
AcDbLine
 62
250
  6
CONTINUOUS
 10
1.7064239734
 20
22.5853087971
 11
1.7064239734
 21
21.9350129074
  0
LINE
  5
3E4
100
AcDbEntity
  8
SUPERFICI
100
AcDbLine
 62
250
  6
CONTINUOUS
 10
1.7064239734
 20
22.5853087971
 11
1.7064239734
 21
21.9350129074
  0
LINE
  5
3E5
100
AcDbEntity
  8
RACCORDO
100
AcDbLine
 62
250
  6
CONTINUOUS
 10
2.1149001304
 20
22.7316215043
 11
2.1149001304
 21
22.2597533945
  0
LINE
  5
3E6
100
AcDbEntity
  8
SUPERFICI
100
AcDbLine
 62
250
  6
CONTINUOUS
 10
2.1149001304
 20
22.7316215043
 11
2.1149001304
 21
22.2597533945
  0
LINE
  5
3E7
100
AcDbEntity
  8
ASSI
100
AcDbLine
 62
7
  6
CONTINUOUS
 10
2.2545406539
 20
19.0350942159
 11
2.2545406539
 21
18.7349974924
  0
LINE
  5
3E8
100
AcDbEntity
  8
ASSI
100
AcDbLine
 62
250
  6
CONTINUOUS
 10
2.3398253666
 20
18.9411249539
 11
2.3398253666
 21
18.6410282301
  0
LWPOLYLINE
  5
3E9
100
AcDbEntity
  8
RACCORDO
100
AcDbPolyline
 62
250
  6
CONTINUOUS
 90
5
 70
0
 10
0.8404815456
 20
-22.4434929035
 10
0.8744929295
 20
-18.6223102799
 10
0.9347185843
 20
-14.7819193829
 10
1.0211585099
 20
-10.9223202125
 10
1.1338317317
 20
-7.042978667
  0
LWPOLYLINE
  5
3EA
100
AcDbEntity
  8
RACCORDO
100
AcDbPolyline
 62
250
  6
CONTINUOUS
 90
5
 70
0
 10
0.1800620719
 20
-22.5150416495
 10
0.2172794733
 20
-18.6915929653
 10
0.2799420174
 20
-14.8479619803
 10
0.3680550259
 20
-10.9844894151
 10
0.4816262203
 20
-7.1013431404
  0
LWPOLYLINE
  5
3EB
100
AcDbEntity
  8
RACCORDO
100
AcDbPolyline
 62
250
  6
CONTINUOUS
 90
5
 70
0
 10
0.4816262203
 20
-7.1013431404
 10
0.620647196
 20
-3.199046424
 10
0.7850864782
 20
0.721517152
 10
0.9749146363
 20
4.65980867
 10
1.1901112468
 20
8.6156393106
  0
LWPOLYLINE
  5
3EC
100
AcDbEntity
  8
RACCORDO
100
AcDbPolyline
 62
250
  6
CONTINUOUS
 90
6
 70
0
 10
1.1338317317
 20
-7.042978667
 10
1.2727192244
 20
-3.1444288481
 10
1.4377639118
 20
0.7717269389
 10
1.6289467683
 20
4.7049545924
 10
1.8462868195
 20
8.655788214
 10
2.0897840653
 20
12.6242278038
  0
LINE
  5
3ED
100
AcDbEntity
  8
RACCORDO
100
AcDbLine
 62
250
  6
CONTINUOUS
 10
1.1901112468
 20
8.6156393106
 11
1.4306457657
 21
12.5886416584
  0
LWPOLYLINE
  5
3EE
100
AcDbEntity
  8
RACCORDO
100
AcDbPolyline
 62
250
  6
CONTINUOUS
 90
22
 70
0
 10
1.4306457742
 20
12.5886416621
 10
1.4369517709
 20
12.6636009257
 10
1.4466571055
 20
12.7405942384
 10
1.4597147441
 20
12.8192267434
 10
1.476068028
 20
12.8990864715
 10
1.4956322235
 20
12.9797716121
 10
1.518297054
 20
13.0608931295
 10
1.5439624783
 20
13.1420388963
 10
1.5725029969
 20
13.2227860562
 10
1.6037508892
 20
13.3027287369
 10
1.6375627442
 20
13.3814521072
 10
1.6737769576
 20
13.4585502976
 10
1.712180499
 20
13.5336391784
 10
1.7525972362
 20
13.6063290832
 10
1.7948336246
 20
13.6762407738
 10
1.8386362096
 20
13.7430237066
 10
1.8837982774
 20
13.8063251646
 10
1.9301083976
 20
13.8658182808
 10
1.9772966577
 20
13.921216596
 10
2.0251241712
 20
13.9722357034
 10
2.0733837881
 20
14.0185961988
 10
2.1218488002
 20
14.0600508846
  0
LWPOLYLINE
  5
3EF
100
AcDbEntity
  8
RACCORDO
100
AcDbPolyline
 62
250
  6
CONTINUOUS
 90
22
 70
0
 10
2.0897840653
 20
12.6242278038
 10
2.0936453447
 20
12.6680420241
 10
2.0995444704
 20
12.7126096257
 10
2.1074814424
 20
12.7579306086
 10
2.1175178297
 20
12.8042631987
 10
2.1295920632
 20
12.8513491702
 10
2.1435194366
 20
12.898413845
 10
2.159326728
 20
12.9454375896
 10
2.1769871592
 20
12.9924400376
 10
2.1962356891
 20
13.0387054118
 10
2.2170986625
 20
13.0842255718
 10
2.2395497347
 20
13.1290086579
 10
2.2632448293
 20
13.1723633151
 10
2.2882030725
 20
13.2142659445
 10
2.3144053381
 20
13.2547401449
 10
2.3414501726
 20
13.2931653578
 10
2.369364126
 20
13.3295199066
 10
2.3981206482
 20
13.3638254679
 10
2.427238635
 20
13.3955265129
 10
2.4565577183
 20
13.4244378652
 10
2.4862382661
 20
13.4507447011
 10
2.5162802785
 20
13.4744470206
  0
LWPOLYLINE
  5
3F0
100
AcDbEntity
  8
ASSI
100
AcDbPolyline
 62
7
  6
CONTINUOUS
 90
3
 70
0
 10
6.8364893747
 20
19.1518674954
 10
6.8412133502
 20
19.1733173598
 10
6.8442690926
 20
19.1947603546
  0
LWPOLYLINE
  5
3F1
100
AcDbEntity
  8
RACCORDO
100
AcDbPolyline
 62
250
  6
CONTINUOUS
 90
16
 70
0
 10
9.9588572202
 20
24.1051245022
 10
9.9778866068
 20
24.1637106442
 10
10.0088593287
 20
24.2375694169
 10
10.0464601482
 20
24.3104003239
 10
10.0905569968
 20
24.3819647223
 10
10.1409861435
 20
24.4520326739
 10
10.1976229328
 20
24.5204621957
 10
10.2603783406
 20
24.5871496752
 10
10.32906941
 20
24.651893969
 10
10.403538951
 20
24.714540774
 10
10.4837691765
 20
24.7750441022
 10
10.5698000263
 20
24.8333608401
 10
10.6612494179
 20
24.8891631271
 10
10.7573970656
 20
24.9420125183
 10
10.85824465
 20
24.9919295028
 10
10.9632082214
 20
25.038643668
  0
LINE
  5
3F2
100
AcDbEntity
  8
DRAFT
100
AcDbLine
 62
7
  6
CONTINUOUS
 10
19.7613115265
 20
18.9988372975
 11
20.7498793356
 21
20.0251535966
  0
LINE
  5
3F3
100
AcDbEntity
  8
SUPERFICI
100
AcDbLine
 62
7
  6
CONTINUOUS
 10
19.7613115265
 20
18.9988372975
 11
20.7498793356
 21
20.0251535966
  0
LINE
  5
3F4
100
AcDbEntity
  8
DRAFT
100
AcDbLine
 62
7
  6
CONTINUOUS
 10
-8.8685000971
 20
-9.3680145503
 11
-8.8460636774
 21
-9.3472745367
  0
LWPOLYLINE
  5
3F5
100
AcDbEntity
  8
0
100
AcDbPolyline
 62
7
  6
CONTINUOUS
 90
11
 70
0
 10
-8.8460929871
 20
-9.3472472955
 10
-8.8608438755
 20
-9.3606159769
 10
-8.8944184593
 20
-9.3957714957
 10
-8.9249677147
 20
-9.4348150212
 10
-8.9518390408
 20
-9.4771630726
 10
-8.9749409064
 20
-9.5228519428
 10
-8.9943907657
 20
-9.5718538445
 10
-9.0098095845
 20
-9.6234657258
 10
-9.0210666182
 20
-9.677456573
 10
-9.0283066385
 20
-9.7340868564
 10
-9.0315495743
 20
-9.793387248
  0
LWPOLYLINE
  5
3F6
100
AcDbEntity
  8
DRAFT
100
AcDbPolyline
 62
7
  6
CONTINUOUS
 90
46
 70
0
 10
-8.8460636774
 20
-9.3472745367
 10
-8.8229972163
 20
-9.328436081
 10
-8.7992806604
 20
-9.3116153856
 10
-8.7749084757
 20
-9.2964075477
 10
-8.7499454063
 20
-9.282746521
 10
-8.7243106396
 20
-9.2706931352
 10
-8.6978230563
 20
-9.2600698723
 10
-8.6703746384
 20
-9.2508109569
 10
-8.6420740269
 20
-9.2429918426
 10
-8.6130686286
 20
-9.236649733
 10
-8.5833472786
 20
-9.231790054
 10
-8.5529215676
 20
-9.2284156239
 10
-8.5219692667
 20
-9.22655533
 10
-8.4904580727
 20
-9.2262326117
 10
-8.4584212527
 20
-9.2274303905
 10
-8.4261296769
 20
-9.2301103112
 10
-8.3937182201
 20
-9.2342452711
 10
-8.3610495935
 20
-9.2398616417
 10
-8.3279859629
 20
-9.2469999151
 10
-8.2946010105
 20
-9.2555980646
 10
-8.2608294287
 20
-9.2657257164
 10
-8.2263333311
 20
-9.2776291339
 10
-8.1911186199
 20
-9.2912470948
 10
-8.1552058208
 20
-9.3066634913
 10
-8.1182910428
 20
-9.3243536437
 10
-8.080427635
 20
-9.3442190193
 10
-8.0416100072
 20
-9.3663957886
 10
-8.0014632582
 20
-9.391725979
 10
-7.9597655704
 20
-9.4203126159
 10
-7.9168298455
 20
-9.4521194252
 10
-7.8730943124
 20
-9.4877853268
 10
-7.8284279381
 20
-9.5274445491
 10
-7.783077566
 20
-9.5710332016
 10
-7.738037445
 20
-9.6188793742
 10
-7.6931749244
 20
-9.6712294745
 10
-7.6487545328
 20
-9.7279065219
 10
-7.6063301588
 20
-9.7885776761
 10
-7.5657738767
 20
-9.8537634279
 10
-7.5273447364
 20
-9.9230208683
 10
-7.49309132
 20
-9.9945273835
 10
-7.4632148413
 20
-10.0684099102
 10
-7.4375789141
 20
-10.1446182827
 10
-7.4176103573
 20
-10.2210111541
 10
-7.4037675047
 20
-10.2968939175
 10
-7.3956175118
 20
-10.3730599102
 10
-7.3932143495
 20
-10.449588773
  0
LINE
  5
3F7
100
AcDbEntity
  8
0
100
AcDbLine
 62
7
  6
CONTINUOUS
 10
-8.8241187004
 20
-9.3293520009
 11
-8.8460929871
 21
-9.3472472955
  0
LWPOLYLINE
  5
3F8
100
AcDbEntity
  8
ASSI
100
AcDbPolyline
 62
250
  6
CONTINUOUS
 90
8
 70
0
 10
-7.7717856682
 20
25.3503375272
 10
-7.7711569562
 20
25.3486157512
 10
-7.7706220296
 20
25.3467629028
 10
-7.7701798612
 20
25.3447804679
 10
-7.7698351027
 20
25.34268984
 10
-7.7695893046
 20
25.3404981505
 10
-7.7694409163
 20
25.338198268
 10
-7.7693899379
 20
25.3357901927
  0
LWPOLYLINE
  5
3F9
100
AcDbEntity
  8
ASSI
100
AcDbPolyline
 62
7
  6
CONTINUOUS
 90
6
 70
0
 10
6.8404538635
 20
-19.7908511387
 10
6.8336682481
 20
-19.7658158575
 10
6.8240295045
 20
-19.7416199313
 10
6.8114117074
 20
-19.7183768696
 10
6.7960660548
 20
-19.696831155
 10
6.7782597704
 20
-19.6774140595
  0
LINE
  5
3FA
100
AcDbEntity
  8
0
100
AcDbLine
 62
7
  6
CONTINUOUS
 10
5.9201354264
 20
-15.2267592661
 11
4.9680927264
 21
-2.3668055804
  0
LWPOLYLINE
  5
3FB
100
AcDbEntity
  8
ASSI
100
AcDbPolyline
 62
250
  6
CONTINUOUS
 90
13
 70
0
 10
1.4807471444
 20
26.947021716
 10
1.4792661343
 20
26.9690496266
 10
1.4750689904
 20
26.9917619202
 10
1.4682259425
 20
27.0147785578
 10
1.4588514934
 20
27.0377144077
 10
1.4471025036
 20
27.0601856904
 10
1.4331755657
 20
27.0818163995
 10
1.4173037157
 20
27.1022445939
 10
1.3997525332
 20
27.1211284537
 10
1.3808156979
 20
27.1381520003
 10
1.3608100751
 20
27.153030383
 10
1.3400704138
 20
27.1655146456
 10
1.3189437455
 20
27.1753958918
  0
LWPOLYLINE
  5
3FC
100
AcDbEntity
  8
ASSI
100
AcDbPolyline
 62
7
  6
CONTINUOUS
 90
12
 70
0
 10
1.979196402
 20
26.7226794477
 10
1.97482858
 20
26.8030471267
 10
1.9656343931
 20
26.8728946088
 10
1.9512454219
 20
26.9394942641
 10
1.9315635564
 20
27.0021928089
 10
1.906838324
 20
27.0597847023
 10
1.8772234804
 20
27.1119701469
 10
1.8427155821
 20
27.1587490894
 10
1.8037615411
 20
27.1994823424
 10
1.760737781
 20
27.2338490507
 10
1.7141969548
 20
27.2615331461
 10
1.6845662153
 20
27.2749390765
  0
LWPOLYLINE
  5
3FD
100
AcDbEntity
  8
ASSI
100
AcDbPolyline
 62
7
  6
CONTINUOUS
 90
6
 70
0
 10
2.254540777
 20
18.7350158656
 10
2.2559631678
 20
18.7081112648
 10
2.2600886201
 20
18.6825839607
 10
2.2670942525
 20
18.657369801
 10
2.2769930793
 20
18.6330530922
 10
2.2899106044
 20
18.6097551481
  0
LWPOLYLINE
  5
3FE
100
AcDbEntity
  8
ASSI
100
AcDbPolyline
 62
250
  6
CONTINUOUS
 90
3
 70
0
 10
1.9430370017
 20
26.6565236457
 10
1.9409154473
 20
26.7044078388
 10
1.9363586795
 20
26.7495859142
  0
LINE
  5
3FF
100
AcDbEntity
  8
ASSI
100
AcDbLine
 62
7
  6
CONTINUOUS
 10
2.8327464835
 20
18.3487027283
 11
2.8327464835
 21
17.9750776215
  0
LINE
  5
400
100
AcDbEntity
  8
ASSI
100
AcDbLine
 62
250
  6
CONTINUOUS
 10
2.9393523745
 20
18.3058873992
 11
2.9393523745
 21
17.8529252257
  0
LINE
  5
401
100
AcDbEntity
  8
ASSI
100
AcDbLine
 62
7
  6
CONTINUOUS
 10
3.3169185287
 20
17.5621039792
 11
3.3169185287
 21
18.1526525257
  0
LINE
  5
402
100
AcDbEntity
  8
ASSI
100
AcDbLine
 62
250
  6
CONTINUOUS
 10
3.4235244196
 20
17.4955958413
 11
3.4235244196
 21
18.205790259
  0
LINE
  5
403
100
AcDbEntity
  8
ASSI
100
AcDbLine
 62
250
  6
CONTINUOUS
 10
3.6477601148
 20
17.4055377309
 11
3.6477601148
 21
18.1157321485
  0
LINE
  5
404
100
AcDbEntity
  8
ASSI
100
AcDbLine
 62
250
  6
CONTINUOUS
 10
3.9934084725
 20
-20.6809615908
 11
3.9934084725
 21
-20.4654323021
  0
LINE
  5
405
100
AcDbEntity
  8
ASSI
100
AcDbLine
 62
250
  6
CONTINUOUS
 10
3.9934084725
 20
17.3225434276
 11
3.9934084725
 21
17.8825547071
  0
LINE
  5
406
100
AcDbEntity
  8
ASSI
100
AcDbLine
 62
7
  6
CONTINUOUS
 10
4.4368795213
 20
17.704446736
 11
4.4368795213
 21
17.3158794719
  0
LINE
  5
407
100
AcDbEntity
  8
ASSI
100
AcDbLine
 62
7
  6
CONTINUOUS
 10
4.4368795213
 20
-19.3821321123
 11
4.4368795213
 21
-19.9740921166
  0
LINE
  5
408
100
AcDbEntity
  8
ASSI
100
AcDbLine
 62
250
  6
CONTINUOUS
 10
4.7314591678
 20
17.9805909012
 11
4.7314591678
 21
17.6805105827
  0
LINE
  5
409
100
AcDbEntity
  8
ASSI
100
AcDbLine
 62
250
  6
CONTINUOUS
 10
4.7314591678
 20
-21.6838782724
 11
4.7314591678
 21
-21.3837815486
  0
LINE
  5
40A
100
AcDbEntity
  8
ASSI
100
AcDbLine
 62
250
  6
CONTINUOUS
 10
5.007977854
 20
18.0071322092
 11
5.007977854
 21
17.7070354854
  0
LINE
  5
40B
100
AcDbEntity
  8
ASSI
100
AcDbLine
 62
250
  6
CONTINUOUS
 10
5.007977854
 20
-21.6573369644
 11
5.007977854
 21
-21.3572402406
  0
LINE
  5
40C
100
AcDbEntity
  8
ASSI
100
AcDbLine
 62
7
  6
CONTINUOUS
 10
4.5301574101
 20
22.3276151549
 11
4.5369114211
 21
23.4370665799
  0
LINE
  5
40D
100
AcDbEntity
  8
ASSI
100
AcDbLine
 62
250
  6
CONTINUOUS
 10
4.4722924847
 20
23.3185423016
 11
4.4698315576
 21
23.0386411449
  0
LINE
  5
40E
100
AcDbEntity
  8
ASSI
100
AcDbLine
 62
250
  6
CONTINUOUS
 10
4.4666412092
 20
22.6757770045
 11
4.4624983641
 21
22.2045776971
  0
LWPOLYLINE
  5
40F
100
AcDbEntity
  8
ASSI
100
AcDbPolyline
 62
250
  6
CONTINUOUS
 90
19
 70
0
 10
4.7314591678
 20
-21.3837815486
 10
4.7316370176
 20
-21.3734590004
 10
4.7321909808
 20
-21.3625717206
 10
4.7331501914
 20
-21.3511264307
 10
4.7345464891
 20
-21.3391095135
 10
4.7364061604
 20
-21.3265625609
 10
4.7387409133
 20
-21.3135869411
 10
4.7415681152
 20
-21.3002140116
 10
4.7449028878
 20
-21.2864810771
 10
4.7487349511
 20
-21.2725113848
 10
4.7530672909
 20
-21.2583523459
 10
4.7579002112
 20
-21.2440551896
 10
4.7632003208
 20
-21.2297550142
 10
4.7689555576
 20
-21.21550774
 10
4.7751518026
 20
-21.2013697015
 10
4.7817352195
 20
-21.1874741606
 10
4.788668225
 20
-21.1738992244
 10
4.7959367653
 20
-21.1606716844
 10
4.8035136812
 20
-21.1478427033
  0
LINE
  5
410
100
AcDbEntity
  8
RACCORDO
100
AcDbLine
 62
7
  6
CONTINUOUS
 10
3.9783575156
 20
-20.8879102437
 11
5.2751744013
 21
15.5135314324
  0
LINE
  5
411
100
AcDbEntity
  8
0
100
AcDbLine
 62
7
  6
CONTINUOUS
 10
4.9680927264
 20
-2.3668055804
 11
5.9201354264
 21
11.9690886043
  0
LWPOLYLINE
  5
412
100
AcDbEntity
  8
ASSI
100
AcDbPolyline
 62
250
  6
CONTINUOUS
 90
7
 70
0
 10
4.5369110235
 20
23.4369981117
 10
4.5359184634
 20
23.4221908841
 10
4.5310285978
 20
23.4000900281
 10
4.5221062198
 20
23.378443542
 10
4.5092441978
 20
23.357484428
 10
4.4925801524
 20
23.3374444176
 10
4.4722924847
 20
23.3185423016
  0
LWPOLYLINE
  5
413
100
AcDbEntity
  8
ASSI
100
AcDbPolyline
 62
7
  6
CONTINUOUS
 90
7
 70
0
 10
4.5300777164
 20
22.3276162445
 10
4.5289993139
 20
22.3132072253
 10
4.5236895496
 20
22.2892340116
 10
4.5143435379
 20
22.2662655316
 10
4.5010980607
 20
22.2446981863
 10
4.4838163361
 20
22.2241355748
 10
4.4624983641
 20
22.2045776971
  0
LWPOLYLINE
  5
414
100
AcDbEntity
  8
RACCORDO
100
AcDbPolyline
 62
250
  6
CONTINUOUS
 90
17
 70
0
 10
10.0648787938
 20
24.0480929226
 10
10.0805535621
 20
24.1155356176
 10
10.1031325978
 20
24.1853548629
 10
10.131947371
 20
24.2544100494
 10
10.1669370235
 20
24.3227035004
 10
10.2077872767
 20
24.3896698955
 10
10.2545116377
 20
24.455262224
 10
10.3070965994
 20
24.5195274968
 10
10.3651873617
 20
24.5820414266
 10
10.428779521
 20
24.642787252
 10
10.4978774809
 20
24.7017817345
 10
10.5721396517
 20
24.7586508714
 10
10.6517987614
 20
24.8134867788
 10
10.7366220821
 20
24.8661973406
 10
10.8255698401
 20
24.9161322059
 10
10.919050488
 20
24.9633017309
 10
11.0166555733
 20
25.0076955594
  0
LWPOLYLINE
  5
415
100
AcDbEntity
  8
RACCORDO
100
AcDbPolyline
 62
250
  6
CONTINUOUS
 90
3
 70
0
 10
20.9091106257
 20
20.2252777311
 10
20.828958119
 20
20.1149509576
 10
20.7498793348
 20
20.0251535957
  0
LWPOLYLINE
  5
416
100
AcDbEntity
  8
SUPERFICI
100
AcDbPolyline
 62
250
  6
CONTINUOUS
 90
3
 70
0
 10
20.9091106257
 20
20.2252777311
 10
20.828958119
 20
20.1149509576
 10
20.7498793348
 20
20.0251535957
  0
LWPOLYLINE
  5
417
100
AcDbEntity
  8
RACCORDO
100
AcDbPolyline
 62
250
  6
CONTINUOUS
 90
21
 70
0
 10
19.6015971561
 20
19.0099495538
 10
19.6146227583
 20
19.026844895
 10
19.6273050165
 20
19.041595323
 10
19.6396101247
 20
19.0542011346
 10
19.6515269308
 20
19.064713297
 10
19.6629941836
 20
19.0730797563
 10
19.6739131195
 20
19.0791417279
 10
19.6842763133
 20
19.0827373072
 10
19.6940390215
 20
19.0840159726
 10
19.7030805304
 20
19.0832764541
 10
19.7113685454
 20
19.0804325781
 10
19.7189385808
 20
19.0755441258
 10
19.7257942472
 20
19.0691237873
 10
19.7319197044
 20
19.0612161311
 10
19.737333929
 20
19.0517518775
 10
19.7420746797
 20
19.0410755043
 10
19.7461244471
 20
19.0292281544
 10
19.7494677668
 20
19.0161478879
 10
19.7521085058
 20
19.0020275503
 10
19.7540122351
 20
18.9868686996
 10
19.7551404237
 20
18.9706471873
  0
LWPOLYLINE
  5
418
100
AcDbEntity
  8
SUPERFICI
100
AcDbPolyline
 62
250
  6
CONTINUOUS
 90
21
 70
0
 10
19.6015971561
 20
19.0099495538
 10
19.6146227583
 20
19.026844895
 10
19.6273050165
 20
19.041595323
 10
19.6396101247
 20
19.0542011346
 10
19.6515269308
 20
19.064713297
 10
19.6629941836
 20
19.0730797563
 10
19.6739131195
 20
19.0791417279
 10
19.6842763133
 20
19.0827373072
 10
19.6940390215
 20
19.0840159726
 10
19.7030805304
 20
19.0832764541
 10
19.7113685454
 20
19.0804325781
 10
19.7189385808
 20
19.0755441258
 10
19.7257942472
 20
19.0691237873
 10
19.7319197044
 20
19.0612161311
 10
19.737333929
 20
19.0517518775
 10
19.7420746797
 20
19.0410755043
 10
19.7461244471
 20
19.0292281544
 10
19.7494677668
 20
19.0161478879
 10
19.7521085058
 20
19.0020275503
 10
19.7540122351
 20
18.9868686996
 10
19.7551404237
 20
18.9706471873
  0
LWPOLYLINE
  5
419
100
AcDbEntity
  8
RACCORDO
100
AcDbPolyline
 62
7
  6
CONTINUOUS
 90
76
 70
0
 10
19.6882617866
 20
19.1529933212
 10
19.7381819639
 20
19.2138973954
 10
19.7867308127
 20
19.273535522
 10
19.8339083329
 20
19.331907701
 10
19.8796829422
 20
19.3889770139
 10
19.9240862229
 20
19.4447803792
 10
19.9672129223
 20
19.4994285522
 10
20.009068547
 20
19.5529256498
 10
20.0496475905
 20
19.6052675551
 10
20.0890282797
 20
19.6565526722
 10
20.1272145298
 20
19.706782451
 10
20.1642024256
 20
19.7559554417
 10
20.2000584485
 20
19.8041656992
 10
20.2347872294
 20
19.8514143875
 10
20.2683841375
 20
19.8977003427
 10
20.3009017614
 20
19.9431141276
 10
20.3323461289
 20
19.9876567477
 10
20.3627112124
 20
20.0313271977
 10
20.3920315176
 20
20.0742130237
 10
20.4203156593
 20
20.116315286
 10
20.4475550227
 20
20.1576329243
 10
20.4737582702
 20
20.1982503045
 10
20.4989400242
 20
20.2381711543
 10
20.5230856622
 20
20.2773917459
 10
20.5461599784
 20
20.315985261
 10
20.5681877279
 20
20.3539601355
 10
20.5891441556
 20
20.3913079335
 10
20.6089197904
 20
20.4280765293
 10
20.6275701586
 20
20.4643221174
 10
20.6450397339
 20
20.4999885032
 10
20.6610524659
 20
20.5349549777
 10
20.6756696509
 20
20.5693471034
 10
20.6888299925
 20
20.6030393178
 10
20.700073552
 20
20.635534224
 10
20.7093626888
 20
20.6668353812
 10
20.7167350434
 20
20.6969392301
 10
20.7218435988
 20
20.7253376956
 10
20.7246004117
 20
20.7519713143
 10
20.7250934254
 20
20.7768995495
 10
20.7232394537
 20
20.7997927164
 10
20.7189052869
 20
20.8205828882
 10
20.7122241345
 20
20.8393379916
 10
20.7035124394
 20
20.8559321215
 10
20.692708851
 20
20.8702284221
 10
20.6798747198
 20
20.8823637491
 10
20.6655105396
 20
20.8926227648
 10
20.6496808393
 20
20.9009733329
 10
20.6323210899
 20
20.9074475896
 10
20.6137381985
 20
20.9124266057
 10
20.5939919772
 20
20.9159517426
 10
20.573022614
 20
20.9179816388
 10
20.5509575789
 20
20.9187732803
 10
20.5278253074
 20
20.9183634534
 10
20.5035973642
 20
20.9167153718
 10
20.4783159135
 20
20.9139756624
 10
20.4519965571
 20
20.9101673789
 10
20.4246236933
 20
20.9052674676
 10
20.3961926814
 20
20.8993533943
 10
20.3667133583
 20
20.8924399892
 10
20.3361758871
 20
20.8845124221
 10
20.304546117
 20
20.875603668
 10
20.2718285174
 20
20.8657229317
 10
20.2380186189
 20
20.8548610085
 10
20.2030688632
 20
20.8430232593
 10
20.1669825811
 20
20.8302158995
 10
20.1297564418
 20
20.8164327138
 10
20.0913328943
 20
20.8016604176
 10
20.0517204791
 20
20.7859061986
 10
20.0109106557
 20
20.7691628691
 10
19.9688202514
 20
20.7513955815
 10
19.9254548157
 20
20.732610449
 10
19.8808087991
 20
20.7128013583
 10
19.8347823807
 20
20.6919151225
 10
19.787342287
 20
20.6699340123
 10
19.7385217915
 20
20.6468757569
 10
19.6883208943
 20
20.6227403563
  0
LWPOLYLINE
  5
41A
100
AcDbEntity
  8
SUPERFICI
100
AcDbPolyline
 62
7
  6
CONTINUOUS
 90
76
 70
0
 10
19.6882617866
 20
19.1529933212
 10
19.7381819639
 20
19.2138973954
 10
19.7867308127
 20
19.273535522
 10
19.8339083329
 20
19.331907701
 10
19.8796829422
 20
19.3889770139
 10
19.9240862229
 20
19.4447803792
 10
19.9672129223
 20
19.4994285522
 10
20.009068547
 20
19.5529256498
 10
20.0496475905
 20
19.6052675551
 10
20.0890282797
 20
19.6565526722
 10
20.1272145298
 20
19.706782451
 10
20.1642024256
 20
19.7559554417
 10
20.2000584485
 20
19.8041656992
 10
20.2347872294
 20
19.8514143875
 10
20.2683841375
 20
19.8977003427
 10
20.3009017614
 20
19.9431141276
 10
20.3323461289
 20
19.9876567477
 10
20.3627112124
 20
20.0313271977
 10
20.3920315176
 20
20.0742130237
 10
20.4203156593
 20
20.116315286
 10
20.4475550227
 20
20.1576329243
 10
20.4737582702
 20
20.1982503045
 10
20.4989400242
 20
20.2381711543
 10
20.5230856622
 20
20.2773917459
 10
20.5461599784
 20
20.315985261
 10
20.5681877279
 20
20.3539601355
 10
20.5891441556
 20
20.3913079335
 10
20.6089197904
 20
20.4280765293
 10
20.6275701586
 20
20.4643221174
 10
20.6450397339
 20
20.4999885032
 10
20.6610524659
 20
20.5349549777
 10
20.6756696509
 20
20.5693471034
 10
20.6888299925
 20
20.6030393178
 10
20.700073552
 20
20.635534224
 10
20.7093626888
 20
20.6668353812
 10
20.7167350434
 20
20.6969392301
 10
20.7218435988
 20
20.7253376956
 10
20.7246004117
 20
20.7519713143
 10
20.7250934254
 20
20.7768995495
 10
20.7232394537
 20
20.7997927164
 10
20.7189052869
 20
20.8205828882
 10
20.7122241345
 20
20.8393379916
 10
20.7035124394
 20
20.8559321215
 10
20.692708851
 20
20.8702284221
 10
20.6798747198
 20
20.8823637491
 10
20.6655105396
 20
20.8926227648
 10
20.6496808393
 20
20.9009733329
 10
20.6323210899
 20
20.9074475896
 10
20.6137381985
 20
20.9124266057
 10
20.5939919772
 20
20.9159517426
 10
20.573022614
 20
20.9179816388
 10
20.5509575789
 20
20.9187732803
 10
20.5278253074
 20
20.9183634534
 10
20.5035973642
 20
20.9167153718
 10
20.4783159135
 20
20.9139756624
 10
20.4519965571
 20
20.9101673789
 10
20.4246236933
 20
20.9052674676
 10
20.3961926814
 20
20.8993533943
 10
20.3667133583
 20
20.8924399892
 10
20.3361758871
 20
20.8845124221
 10
20.304546117
 20
20.875603668
 10
20.2718285174
 20
20.8657229317
 10
20.2380186189
 20
20.8548610085
 10
20.2030688632
 20
20.8430232593
 10
20.1669825811
 20
20.8302158995
 10
20.1297564418
 20
20.8164327138
 10
20.0913328943
 20
20.8016604176
 10
20.0517204791
 20
20.7859061986
 10
20.0109106557
 20
20.7691628691
 10
19.9688202514
 20
20.7513955815
 10
19.9254548157
 20
20.732610449
 10
19.8808087991
 20
20.7128013583
 10
19.8347823807
 20
20.6919151225
 10
19.787342287
 20
20.6699340123
 10
19.7385217915
 20
20.6468757569
 10
19.6883208943
 20
20.6227403563
  0
LWPOLYLINE
  5
41B
100
AcDbEntity
  8
0
100
AcDbPolyline
 62
7
  6
CONTINUOUS
 90
8
 70
0
 10
-7.6001304418
 20
-13.3679487634
 10
-7.5670270203
 20
-13.3328143965
 10
-7.5370230345
 20
-13.2938958487
 10
-7.510707539
 20
-13.2518016554
 10
-7.4881464308
 20
-13.2063684889
 10
-7.4692611615
 20
-13.1577606735
 10
-7.4543719832
 20
-13.1070294208
 10
-7.443561223
 20
-13.054499152
  0
LWPOLYLINE
  5
41C
100
AcDbEntity
  8
ASSI
100
AcDbPolyline
 62
7
  6
CONTINUOUS
 90
4
 70
0
 10
-12.2906906172
 20
24.4653126199
 10
-12.2753781563
 20
24.4443019716
 10
-12.2576999082
 20
24.4253669434
 10
-12.2379292371
 20
24.4087850161
  0
LWPOLYLINE
  5
41D
100
AcDbEntity
  8
ASSI
100
AcDbPolyline
 62
250
  6
CONTINUOUS
 90
3
 70
0
 10
6.8063354108
 20
-19.8055294882
 10
6.803376529
 20
-19.7797299097
 10
6.7975131713
 20
-19.7545833455
  0
LWPOLYLINE
  5
41E
100
AcDbEntity
  8
ASSI
100
AcDbPolyline
 62
250
  6
CONTINUOUS
 90
13
 70
0
 10
5.0368586019
 20
18.0708837755
 10
5.0352071907
 20
18.0926258088
 10
5.0308166038
 20
18.1151492422
 10
5.0237619336
 20
18.1380688447
 10
5.0141638383
 20
18.1609926075
 10
5.0021864778
 20
18.183528452
 10
4.9880347048
 20
18.2052909349
 10
4.9719505625
 20
18.2259078387
 10
4.9542091475
 20
18.2450265358
 10
4.9351139036
 20
18.2623200221
 10
4.9149914298
 20
18.2774925131
 10
4.8941858933
 20
18.290284502
 10
4.8730531452
 20
18.3004771965
  0
LWPOLYLINE
  5
41F
100
AcDbEntity
  8
ASSI
100
AcDbPolyline
 62
250
  6
CONTINUOUS
 90
13
 70
0
 10
4.4722924847
 20
23.3185423016
 10
4.4708383895
 20
23.3462197203
 10
4.4658642718
 20
23.3747952095
 10
4.457455207
 20
23.4037800239
 10
4.4457550209
 20
23.4326784172
 10
4.4309638295
 20
23.4609961214
 10
4.4133346167
 20
23.4882488009
 10
4.3931689064
 20
23.5139703354
 10
4.370811606
 20
23.5377207926
 10
4.3466451067
 20
23.5590939531
 10
4.321082744
 20
23.5777242578
 10
4.2945617276
 20
23.5932930605
 10
4.2675356638
 20
23.6055340778
  0
LWPOLYLINE
  5
420
100
AcDbEntity
  8
ASSI
100
AcDbPolyline
 62
7
  6
CONTINUOUS
 90
3
 70
0
 10
6.845709259
 20
-19.8419061357
 10
6.8444060078
 20
-19.8161674986
 10
6.8404538635
 20
-19.7908511387
  0
LWPOLYLINE
  5
421
100
AcDbEntity
  8
ASSI
100
AcDbPolyline
 62
250
  6
CONTINUOUS
 90
10
 70
0
 10
5.007977854
 20
17.7070354854
 10
5.0081991905
 20
17.702351763
 10
5.0087907595
 20
17.6981480428
 10
5.009752561
 20
17.6944243246
 10
5.0111076885
 20
17.6911433605
 10
5.0128330484
 20
17.6883423985
 10
5.01485936
 20
17.6861331826
 10
5.0171635296
 20
17.6845529608
 10
5.0197686508
 20
17.6835644852
 10
5.0226747237
 20
17.6831677556
  0
LWPOLYLINE
  5
422
100
AcDbEntity
  8
ASSI
100
AcDbPolyline
 62
250
  6
CONTINUOUS
 90
9
 70
0
 10
6.8115164505
 20
-19.9060505097
 10
6.8113058806
 20
-19.9013711115
 10
6.810743088
 20
-19.8971789485
 10
6.8098280726
 20
-19.8934740206
 10
6.8085388642
 20
-19.8902195311
 10
6.8068974331
 20
-19.8874522768
 10
6.8049696898
 20
-19.8852826482
 10
6.8027776047
 20
-19.8837474421
 10
6.8002992076
 20
-19.8828098617
  0
LWPOLYLINE
  5
423
100
AcDbEntity
  8
ASSI
100
AcDbPolyline
 62
250
  6
CONTINUOUS
 90
9
 70
0
 10
4.7314591584
 20
17.680510587
 10
4.7324332373
 20
17.6575205433
 10
4.7353432716
 20
17.6364285337
 10
4.740149678
 20
17.617519407
 10
4.746788568
 20
17.6010468079
 10
4.7551693023
 20
17.587234799
 10
4.7651742746
 20
17.576272505
 10
4.7766657799
 20
17.5683057403
 10
4.7819349285
 20
17.5658647057
  0
LWPOLYLINE
  5
424
100
AcDbEntity
  8
ASSI
100
AcDbPolyline
 62
7
  6
CONTINUOUS
 90
16
 70
0
 10
4.5368977947
 20
23.43705089
 10
4.5359616896
 20
23.4621424447
 10
4.5308776335
 20
23.4976929568
 10
4.5213441818
 20
23.5327336057
 10
4.5073964298
 20
23.5667098136
 10
4.4892346538
 20
23.5990052633
 10
4.4669925051
 20
23.6292917388
 10
4.4407426939
 20
23.6572864616
 10
4.4109066679
 20
23.6824369757
 10
4.3780158749
 20
23.704354883
 10
4.3418341791
 20
23.7231472702
 10
4.3028230785
 20
23.7384764508
 10
4.2624433157
 20
23.7498726086
 10
4.2204658124
 20
23.7575260472
 10
4.1769852366
 20
23.7613583287
 10
4.1339939688
 20
23.7612214094
  0
LWPOLYLINE
  5
425
100
AcDbEntity
  8
ASSI
100
AcDbPolyline
 62
7
  6
CONTINUOUS
 90
11
 70
0
 10
6.8457087997
 20
19.5439311845
 10
6.8453439933
 20
19.5576176521
 10
6.8423263691
 20
19.5850922347
 10
6.8358947841
 20
19.6129403116
 10
6.8259865833
 20
19.6399219023
 10
6.8127942603
 20
19.6652135735
 10
6.7963332364
 20
19.6886610903
 10
6.7768299026
 20
19.7097691671
 10
6.7546565055
 20
19.7280566313
 10
6.7302558862
 20
19.743140939
 10
6.7105141744
 20
19.7522882242
  0
LWPOLYLINE
  5
426
100
AcDbEntity
  8
ASSI
100
AcDbPolyline
 62
250
  6
CONTINUOUS
 90
20
 70
0
 10
6.8115164505
 20
19.4797694683
 10
6.8114861854
 20
19.4818628926
 10
6.8113707097
 20
19.4839068461
 10
6.8111700235
 20
19.4859013289
 10
6.8108860939
 20
19.4878608033
 10
6.8105169536
 20
19.4897708069
 10
6.8100567015
 20
19.4915879529
 10
6.809502178
 20
19.4933097363
 10
6.8088565425
 20
19.4949386621
 10
6.8081233721
 20
19.4964388582
 10
6.8073000353
 20
19.4978059703
 10
6.8063891636
 20
19.4990443527
 10
6.805402228
 20
19.5001311965
 10
6.8043384307
 20
19.5010619386
 10
6.8031985696
 20
19.5018411421
 10
6.8019965089
 20
19.5024596871
 10
6.8007323893
 20
19.5029150832
 10
6.7994060701
 20
19.5032098208
 10
6.7980309934
 20
19.5033422518
 10
6.7966067165
 20
19.5033109704
  0
LINE
  5
427
100
AcDbEntity
  8
ASSI
100
AcDbLine
 62
250
  6
CONTINUOUS
 10
5.2790850327
 20
17.5442887121
 11
5.2790850327
 21
16.9132358421
  0
LINE
  5
428
100
AcDbEntity
  8
ASSI
100
AcDbLine
 62
250
  6
CONTINUOUS
 10
5.2790850327
 20
-19.6559859234
 11
5.2790850327
 21
-20.312340837
  0
LINE
  5
429
100
AcDbEntity
  8
ASSI
100
AcDbLine
 62
250
  6
CONTINUOUS
 10
5.6247333904
 20
17.6741207337
 11
5.6247333904
 21
16.9569576543
  0
LINE
  5
42A
100
AcDbEntity
  8
ASSI
100
AcDbLine
 62
250
  6
CONTINUOUS
 10
5.6247333904
 20
-19.7781731885
 11
5.6247333904
 21
-20.350517545
  0
LINE
  5
42B
100
AcDbEntity
  8
0
100
AcDbLine
 62
7
  6
CONTINUOUS
 10
5.9201354264
 20
-19.5038699989
 11
5.9201354264
 21
-15.2267592661
  0
LINE
  5
42C
100
AcDbEntity
  8
0
100
AcDbLine
 62
7
  6
CONTINUOUS
 10
5.9201354264
 20
11.9690886043
 11
5.9201354264
 21
16.2461993371
  0
LINE
  5
42D
100
AcDbEntity
  8
ASSI
100
AcDbLine
 62
7
  6
CONTINUOUS
 10
6.3621418334
 20
-20.6614633898
 11
6.3621418334
 21
-19.3511869968
  0
LINE
  5
42E
100
AcDbEntity
  8
ASSI
100
AcDbLine
 62
7
  6
CONTINUOUS
 10
6.3621418334
 20
17.5929620306
 11
6.3621418334
 21
19.1493758669
  0
LINE
  5
42F
100
AcDbEntity
  8
ASSI
100
AcDbLine
 62
250
  6
CONTINUOUS
 10
6.8115164505
 20
-20.2275947617
 11
6.8115164505
 21
-19.9060505097
  0
LINE
  5
430
100
AcDbEntity
  8
ASSI
100
AcDbLine
 62
250
  6
CONTINUOUS
 10
6.8115164505
 20
19.1582252163
 11
6.8115164505
 21
19.4797694683
  0
LINE
  5
431
100
AcDbEntity
  8
ASSI
100
AcDbLine
 62
7
  6
CONTINUOUS
 10
6.8126754577
 20
17.0024413553
 11
6.8126754577
 21
14.6269006195
  0
LINE
  5
432
100
AcDbEntity
  8
ASSI
100
AcDbLine
 62
7
  6
CONTINUOUS
 10
6.8126754577
 20
-18.8764177993
 11
6.8126754577
 21
-16.5008770635
  0
LINE
  5
433
100
AcDbEntity
  8
ASSI
100
AcDbLine
 62
7
  6
CONTINUOUS
 10
6.8457089359
 20
-20.1634467871
 11
6.8457089359
 21
-19.8419024776
  0
LINE
  5
434
100
AcDbEntity
  8
ASSI
100
AcDbLine
 62
7
  6
CONTINUOUS
 10
6.8457089359
 20
19.2223731908
 11
6.8457089359
 21
19.5439174429
  0
LINE
  5
435
100
AcDbEntity
  8
ASSI
100
AcDbLine
 62
7
  6
CONTINUOUS
 10
7.371953542
 20
-18.3865931693
 11
7.371953542
 21
-15.6199008508
  0
LINE
  5
436
100
AcDbEntity
  8
ASSI
100
AcDbLine
 62
7
  6
CONTINUOUS
 10
7.371953542
 20
14.6971021086
 11
7.371953542
 21
17.4637944271
  0
LINE
  5
437
100
AcDbEntity
  8
ASSI
100
AcDbLine
 62
7
  6
CONTINUOUS
 10
6.8456325011
 20
19.2160791041
 11
6.8457062078
 21
19.2223988792
  0
LWPOLYLINE
  5
438
100
AcDbEntity
  8
ASSI
100
AcDbPolyline
 62
250
  6
CONTINUOUS
 90
19
 70
0
 10
5.007977854
 20
-21.3572402406
 10
5.0080044782
 20
-21.3551717723
 10
5.0081194839
 20
-21.3529954848
 10
5.008322871
 20
-21.3507113781
 10
5.0086108372
 20
-21.3483094339
 10
5.0089871847
 20
-21.3457996704
 10
5.0094633205
 20
-21.3432121426
 10
5.0100425355
 20
-21.3405431257
 10
5.0107215387
 20
-21.3377963445
 10
5.0115018637
 20
-21.3350130288
 10
5.0123870542
 20
-21.3321909787
 10
5.0133735665
 20
-21.3293323941
 10
5.0144523031
 20
-21.3264851035
 10
5.0156264731
 20
-21.3236490078
 10
5.0168928674
 20
-21.320824206
 10
5.018232762
 20
-21.318058824
 10
5.0196399156
 20
-21.3153689037
 10
5.0211205695
 20
-21.3127384031
 10
5.0226747237
 20
-21.3101673223
  0
LINE
  5
439
100
AcDbEntity
  8
ASSI
100
AcDbLine
 62
7
  6
CONTINUOUS
 10
6.8453382305
 20
-20.1773955627
 11
6.8457086837
 21
-20.1632786101
  0
LINE
  5
43A
100
AcDbEntity
  8
ASSI
100
AcDbLine
 62
250
  6
CONTINUOUS
 10
6.8113076959
 20
19.1531953924
 11
6.8115164505
 21
19.1582252163
  0
LINE
  5
43B
100
AcDbEntity
  8
ASSI
100
AcDbLine
 62
7
  6
CONTINUOUS
 10
6.8442690926
 20
19.1947603546
 11
6.8456325011
 21
19.2160791041
  0
LINE
  5
43C
100
AcDbEntity
  8
0
100
AcDbLine
 62
7
  6
CONTINUOUS
 10
13.0164316576
 20
23.6241368666
 11
13.007850532
 21
23.5925276572
  0
LWPOLYLINE
  5
43D
100
AcDbEntity
  8
0
100
AcDbPolyline
 62
7
  6
CONTINUOUS
 90
3
 70
0
 10
-7.6722730555
 20
-13.4244970101
 10
-7.6362444463
 20
-13.3991358843
 10
-7.6001304418
 20
-13.3679487634
  0
LWPOLYLINE
  5
43E
100
AcDbEntity
  8
DRAFT
100
AcDbPolyline
 62
7
  6
CONTINUOUS
 90
28
 70
0
 10
-7.6723024586
 20
-13.4244413208
 10
-7.6839039989
 20
-13.4316287858
 10
-7.7370695888
 20
-13.4589834999
 10
-7.794429566
 20
-13.4800697768
 10
-7.8548965208
 20
-13.4945765158
 10
-7.9186517741
 20
-13.5023345073
 10
-7.9855126917
 20
-13.5034375745
 10
-8.0537534507
 20
-13.4979241335
 10
-8.1232064691
 20
-13.4856192927
 10
-8.1939904756
 20
-13.46664381
 10
-8.2647209213
 20
-13.4414489686
 10
-8.3353706898
 20
-13.4099704094
 10
-8.4059328269
 20
-13.3722873454
 10
-8.474989706
 20
-13.3290471991
 10
-8.5426317107
 20
-13.2800336332
 10
-8.6087658587
 20
-13.2255397142
 10
-8.6716287593
 20
-13.1669374156
 10
-8.7309650988
 20
-13.1043132288
 10
-8.7870308812
 20
-13.0376551288
 10
-8.8387652383
 20
-12.9681300859
 10
-8.8862019833
 20
-12.8955278091
 10
-8.9293592761
 20
-12.8201246789
 10
-8.9670868315
 20
-12.7437418809
 10
-8.9992100994
 20
-12.6664070495
 10
-9.0259480457
 20
-12.588084957
 10
-9.04665896
 20
-12.510411284
 10
-9.0611200791
 20
-12.4338923623
 10
-9.0695843547
 20
-12.3579602384
  0
LWPOLYLINE
  5
43F
100
AcDbEntity
  8
ASSI
100
AcDbPolyline
 62
250
  6
CONTINUOUS
 90
3
 70
0
 10
2.25788966
 20
18.7140923301
 10
2.2548301785
 20
18.7288271847
 10
2.2545406539
 20
18.7349974949
  0
LINE
  5
440
100
AcDbEntity
  8
ASSI
100
AcDbLine
 62
250
  6
CONTINUOUS
 10
1.9363586795
 20
26.7495859142
 11
1.9293666981
 21
26.7920578719
  0
LINE
  5
441
100
AcDbEntity
  8
DRAFT
100
AcDbLine
 62
7
  6
CONTINUOUS
 10
7.952800111
 20
14.6235406251
 11
7.9456830523
 21
14.6986337107
  0
LINE
  5
442
100
AcDbEntity
  8
SUPERFICI
100
AcDbLine
 62
7
  6
CONTINUOUS
 10
7.952800111
 20
14.6235406251
 11
7.9456830523
 21
14.6986337107
  0
LWPOLYLINE
  5
443
100
AcDbEntity
  8
ASSI
100
AcDbPolyline
 62
250
  6
CONTINUOUS
 90
13
 70
0
 10
6.7840405837
 20
19.4973563984
 10
6.7828773066
 20
19.5194983322
 10
6.7788980119
 20
19.5423587227
 10
6.7721707599
 20
19.5655465738
 10
6.7628106112
 20
19.5886652884
 10
6.7509776586
 20
19.6113194522
 10
6.7368742888
 20
19.6331215962
 10
6.7207417209
 20
19.6536988242
 10
6.7028558807
 20
19.6726991904
 10
6.6835226813
 20
19.6897977192
 10
6.6630727912
 20
19.7047019632
 10
6.6418559781
 20
19.7171570055
 10
6.620235127
 20
19.7269498194
  0
LWPOLYLINE
  5
444
100
AcDbEntity
  8
ASSI
100
AcDbPolyline
 62
7
  6
CONTINUOUS
 90
16
 70
0
 10
6.8126754577
 20
17.0024413553
 10
6.8104616869
 20
17.0458164119
 10
6.8037570207
 20
17.0906245409
 10
6.7925955741
 20
17.1364067096
 10
6.7769868543
 20
17.1828455728
 10
6.7571080992
 20
17.2292765621
 10
6.7334483289
 20
17.2747047288
 10
6.7066021652
 20
17.318287869
 10
6.6767413532
 20
17.3599718988
 10
6.6437612531
 20
17.3999264705
 10
6.6076341608
 20
17.4379968464
 10
6.5689969086
 20
17.4733430871
 10
6.5287466459
 20
17.5051541562
 10
6.4875231278
 20
17.5330218667
 10
6.4456279997
 20
17.5568201783
 10
6.4035203457
 20
17.5763434872
  0
LINE
  5
445
100
AcDbEntity
  8
ASSI
100
AcDbLine
 62
7
  6
CONTINUOUS
 10
7.9312316262
 20
15.17687962
 11
7.9312316262
 21
14.6322030148
  0
LINE
  5
446
100
AcDbEntity
  8
ASSI
100
AcDbLine
 62
7
  6
CONTINUOUS
 10
7.9312316262
 20
-14.744786815
 11
7.9312316262
 21
-15.1485006602
  0
LINE
  5
447
100
AcDbEntity
  8
ASSI
100
AcDbLine
 62
7
  6
CONTINUOUS
 10
8.0027288328
 20
14.6034881248
 11
8.0027288328
 21
-14.6325389451
  0
LWPOLYLINE
  5
448
100
AcDbEntity
  8
ASSI
100
AcDbPolyline
 62
7
  6
CONTINUOUS
 90
8
 70
0
 10
6.8126754577
 20
-18.8764803724
 10
6.8104243466
 20
-18.9181190562
 10
6.8037191238
 20
-18.9577125183
 10
6.7925712957
 20
-18.9948043113
 10
6.776956514
 20
-19.0290960258
 10
6.7570435668
 20
-19.0600058621
 10
6.7333505618
 20
-19.086811474
 10
6.7248621083
 20
-19.0946297244
  0
LWPOLYLINE
  5
449
100
AcDbEntity
  8
ASSI
100
AcDbPolyline
 62
250
  6
CONTINUOUS
 90
6
 70
0
 10
6.7840405837
 20
-20.2919105599
 10
6.7828773113
 20
-20.3125221528
 10
6.7788980296
 20
-20.3316840584
 10
6.7721707962
 20
-20.3490685376
 10
6.7628106688
 20
-20.3643782508
 10
6.7500130308
 20
-20.3782087275
  0
LINE
  5
44A
100
AcDbEntity
  8
ASSI
100
AcDbLine
 62
7
  6
CONTINUOUS
 10
6.8429289899
 20
-20.2019300953
 11
6.8453382305
 21
-20.1773955627
  0
LWPOLYLINE
  5
44B
100
AcDbEntity
  8
RACCORDO
100
AcDbPolyline
 62
7
  6
CONTINUOUS
 90
7
 70
0
 10
19.6015971561
 20
19.0099495538
 10
19.6136704861
 20
19.0358408089
 10
19.6266921261
 20
19.0609118131
 10
19.6406620762
 20
19.0851625664
 10
19.6555803363
 20
19.1085930688
 10
19.6714469065
 20
19.1312033205
 10
19.6882617866
 20
19.1529933212
  0
LWPOLYLINE
  5
44C
100
AcDbEntity
  8
SUPERFICI
100
AcDbPolyline
 62
7
  6
CONTINUOUS
 90
7
 70
0
 10
19.6015971561
 20
19.0099495538
 10
19.6136704861
 20
19.0358408089
 10
19.6266921261
 20
19.0609118131
 10
19.6406620762
 20
19.0851625664
 10
19.6555803363
 20
19.1085930688
 10
19.6714469065
 20
19.1312033205
 10
19.6882617866
 20
19.1529933212
  0
LWPOLYLINE
  5
44D
100
AcDbEntity
  8
ASSI
100
AcDbPolyline
 62
250
  6
CONTINUOUS
 90
19
 70
0
 10
1.9293666981
 20
26.7920578719
 10
1.9198754132
 20
26.8320544492
 10
1.9079489149
 20
26.8693449088
 10
1.8937794728
 20
26.9032370389
 10
1.8773284853
 20
26.9336503351
 10
1.858634554
 20
26.9606653017
 10
1.8380057539
 20
26.9838312404
 10
1.8154095477
 20
27.0030809473
 10
1.7908784726
 20
27.0184816261
 10
1.7648182154
 20
27.0297841901
 10
1.7372052659
 20
27.0369193314
 10
1.7080631343
 20
27.0399563579
 10
1.6778680372
 20
27.0388541059
 10
1.6465857679
 20
27.0335326212
 10
1.6142505331
 20
27.0240718582
 10
1.5814411697
 20
27.0106705162
 10
1.5483506232
 20
26.9933948284
 10
1.5147859481
 20
26.9721785617
 10
1.4807471444
 20
26.947021716
  0
LWPOLYLINE
  5
44E
100
AcDbEntity
  8
0
100
AcDbPolyline
 62
7
  6
CONTINUOUS
 90
4
 70
0
 10
9.5540542508
 20
24.6155987616
 10
9.5547620751
 20
24.5798132317
 10
9.5657130151
 20
24.4705085489
 10
9.5898571171
 20
24.361902902
  0
LWPOLYLINE
  5
44F
100
AcDbEntity
  8
SUPERFICI
100
AcDbPolyline
 62
7
  6
CONTINUOUS
 90
4
 70
0
 10
9.5540542508
 20
24.6155987616
 10
9.5547620751
 20
24.5798132317
 10
9.5657130151
 20
24.4705085489
 10
9.5898571171
 20
24.361902902
  0
LINE
  5
450
100
AcDbEntity
  8
0
100
AcDbLine
 62
250
  6
CONTINUOUS
 10
10.037707232
 20
25.5090112566
 11
10.037707232
 21
25.2050785526
  0
LINE
  5
451
100
AcDbEntity
  8
SUPERFICI
100
AcDbLine
 62
250
  6
CONTINUOUS
 10
10.037707232
 20
25.5090112566
 11
10.037707232
 21
25.2050785526
  0
LINE
  5
452
100
AcDbEntity
  8
DRAFT
100
AcDbLine
 62
7
  6
CONTINUOUS
 10
10.5894067655
 20
25.2420017167
 11
10.5894067655
 21
25.6515777389
  0
LINE
  5
453
100
AcDbEntity
  8
SUPERFICI
100
AcDbLine
 62
7
  6
CONTINUOUS
 10
10.5894067655
 20
25.2420017167
 11
10.5894067655
 21
25.6515777389
  0
LINE
  5
454
100
AcDbEntity
  8
ASSI
100
AcDbLine
 62
7
  6
CONTINUOUS
 10
11.1484715401
 20
22.9159128231
 11
11.1484715401
 21
23.0965958762
  0
LINE
  5
455
100
AcDbEntity
  8
RACCORDO
100
AcDbLine
 62
250
  6
CONTINUOUS
 10
11.3462556514
 20
25.171762615
 11
11.3462556514
 21
25.6462597707
  0
LINE
  5
456
100
AcDbEntity
  8
SUPERFICI
100
AcDbLine
 62
250
  6
CONTINUOUS
 10
11.3462556514
 20
25.171762615
 11
11.3462556514
 21
25.6462597707
  0
LINE
  5
457
100
AcDbEntity
  8
RACCORDO
100
AcDbLine
 62
250
  6
CONTINUOUS
 10
11.4851967863
 20
25.2082149546
 11
11.4851967863
 21
25.6924931923
  0
LINE
  5
458
100
AcDbEntity
  8
SUPERFICI
100
AcDbLine
 62
250
  6
CONTINUOUS
 10
11.4851967863
 20
25.2082149546
 11
11.4851967863
 21
25.6924931923
  0
LINE
  5
459
100
AcDbEntity
  8
0
100
AcDbLine
 62
7
  6
CONTINUOUS
 10
11.7002337787
 20
23.860868341
 11
11.7002337787
 21
23.5876722576
  0
LINE
  5
45A
100
AcDbEntity
  8
0
100
AcDbLine
 62
7
  6
CONTINUOUS
 10
11.7838435233
 20
24.4195523709
 11
11.7838435233
 21
23.5783975519
  0
LINE
  5
45B
100
AcDbEntity
  8
0
100
AcDbLine
 62
7
  6
CONTINUOUS
 10
12.2690381314
 20
24.3268055893
 11
12.2690381314
 21
23.5537951646
  0
LINE
  5
45C
100
AcDbEntity
  8
DRAFT
100
AcDbLine
 62
7
  6
CONTINUOUS
 10
7.9312316262
 20
-14.76363871
 11
7.935842342
 21
-14.7375481682
  0
LINE
  5
45D
100
AcDbEntity
  8
SUPERFICI
100
AcDbLine
 62
7
  6
CONTINUOUS
 10
7.9312316262
 20
-14.76363871
 11
7.935842342
 21
-14.7375481682
  0
LWPOLYLINE
  5
45E
100
AcDbEntity
  8
ASSI
100
AcDbPolyline
 62
250
  6
CONTINUOUS
 90
4
 70
0
 10
6.7975344983
 20
-19.8824699069
 10
6.8033894714
 20
-19.8573378102
 10
6.8063397494
 20
-19.8315455272
 10
6.8063354108
 20
-19.8055294882
  0
LWPOLYLINE
  5
45F
100
AcDbEntity
  8
ASSI
100
AcDbPolyline
 62
7
  6
CONTINUOUS
 90
3
 70
0
 10
6.8314834189
 20
-20.2511638036
 10
6.8383029512
 20
-20.2265769448
 10
6.8429289899
 20
-20.2019300953
  0
LWPOLYLINE
  5
460
100
AcDbEntity
  8
SUPERFICI
100
AcDbPolyline
 62
7
  6
CONTINUOUS
 90
7
 70
0
 10
19.761860694
 20
18.9983083287
 10
19.76362243
 20
19.0028012121
 10
19.7646716617
 20
19.0049761775
 10
19.7638381435
 20
19.0036453211
 10
19.7602783014
 20
18.9987737195
 10
19.7531215869
 20
18.9904151157
 10
19.7497876891
 20
18.9868755791
  0
LWPOLYLINE
  5
461
100
AcDbEntity
  8
RACCORDO
100
AcDbPolyline
 62
250
  6
CONTINUOUS
 90
7
 70
0
 10
1.4306457657
 20
12.5886416584
 10
0.8538260758
 20
12.7915918392
 10
0.2788085584
 20
12.9957528357
 10
-0.2943985947
 20
13.2011192326
 10
-0.865651841
 20
13.4076365437
 10
-1.4350791603
 20
13.6153478451
 10
-2.0030764164
 20
13.824396761
  0
LWPOLYLINE
  5
462
100
AcDbEntity
  8
RACCORDO
100
AcDbPolyline
 62
250
  6
CONTINUOUS
 90
25
 70
0
 10
-2.0030764164
 20
13.824396761
 10
-2.569819152
 20
14.0348501552
 10
-3.1351082133
 20
14.2466363878
 10
-3.6987754877
 20
14.4596929146
 10
-4.2607710818
 20
14.6740005121
 10
-4.8211251855
 20
14.8895704321
 10
-5.3797914738
 20
15.1063845223
 10
-5.9368344588
 20
15.3244677754
 10
-6.4921698834
 20
15.5437872711
 10
-7.045530923
 20
15.7642359812
 10
-7.5965589221
 20
15.9856662156
 10
-8.1456003374
 20
16.2082121951
 10
-8.6934410826
 20
16.4321933922
 10
-9.2390405727
 20
16.6571842853
 10
-9.7834171958
 20
16.8836043722
 10
-10.330401088
 20
17.1130723944
 10
-10.8790175459
 20
17.3452223087
 10
-11.4301427603
 20
17.5804672461
 10
-11.9902792893
 20
17.8216670714
 10
-12.5594875391
 20
18.0689748728
 10
-13.1374570228
 20
18.3223845264
 10
-13.7299977758
 20
18.5846085636
 10
-14.3388800432
 20
18.8566524773
 10
-14.9619062974
 20
19.1377657046
 10
-15.5988585723
 20
19.4280745197
  0
LWPOLYLINE
  5
463
100
AcDbEntity
  8
RACCORDO
100
AcDbPolyline
 62
250
  6
CONTINUOUS
 90
11
 70
0
 10
-15.5988585697
 20
19.4280745417
 10
-15.6356289841
 20
19.4463443065
 10
-15.6690154325
 20
19.4662140775
 10
-15.6986944267
 20
19.4874913326
 10
-15.7243784007
 20
19.5099699119
 10
-15.7458184971
 20
19.5334320159
 10
-15.7628069786
 20
19.5576503154
 10
-15.7751792401
 20
19.5823901542
 10
-15.7828154043
 20
19.607411823
 10
-15.7856414827
 20
19.6324728817
 10
-15.7854259397
 20
19.642313216
  0
LWPOLYLINE
  5
464
100
AcDbEntity
  8
ASSI
100
AcDbPolyline
 62
7
  6
CONTINUOUS
 90
10
 70
0
 10
4.8682747048
 20
23.5847869574
 10
4.8629926546
 20
23.5999460767
 10
4.8571257756
 20
23.6125747286
 10
4.8507931442
 20
23.6226714725
 10
4.8440526999
 20
23.6302393696
 10
4.8370561555
 20
23.6352796442
 10
4.8300904413
 20
23.6377969419
 10
4.8233269765
 20
23.6377673141
 10
4.8168352933
 20
23.6352421128
 10
4.8138381526
 20
23.6331605739
  0
LINE
  5
465
100
AcDbEntity
  8
DRAFT
100
AcDbLine
 62
7
  6
CONTINUOUS
 10
7.9456830523
 20
14.6986337107
 11
7.9312316262
 21
14.7920176698
  0
LINE
  5
466
100
AcDbEntity
  8
SUPERFICI
100
AcDbLine
 62
7
  6
CONTINUOUS
 10
7.9456830523
 20
14.6986337107
 11
7.9312316262
 21
14.7920176698
  0
LWPOLYLINE
  5
467
100
AcDbEntity
  8
RACCORDO
100
AcDbPolyline
 62
7
  6
CONTINUOUS
 90
13
 70
0
 10
14.1078374276
 20
24.8965567711
 10
14.1075392485
 20
24.9081606044
 10
14.1066372131
 20
24.9191379271
 10
14.1051313215
 20
24.9294887391
 10
14.1030081466
 20
24.9392789325
 10
14.1002811155
 20
24.9484426152
 10
14.0969905098
 20
24.9567821116
 10
14.0931193152
 20
24.9642712123
 10
14.0886845461
 20
24.9709361267
 10
14.0837775279
 20
24.9766578068
 10
14.0784287024
 20
24.9813965701
 10
14.0726076278
 20
24.9851920991
 10
14.0663143041
 20
24.9880443939
  0
LINE
  5
468
100
AcDbEntity
  8
0
100
AcDbLine
 62
7
  6
CONTINUOUS
 10
13.2520205846
 20
23.9320176753
 11
13.2520205846
 21
23.6262644864
  0
LINE
  5
469
100
AcDbEntity
  8
0
100
AcDbLine
 62
7
  6
CONTINUOUS
 10
13.2799388381
 20
28.2148444783
 11
13.2799388381
 21
27.8290680358
  0
LINE
  5
46A
100
AcDbEntity
  8
SUPERFICI
100
AcDbLine
 62
7
  6
CONTINUOUS
 10
13.2799388381
 20
28.2148444783
 11
13.2799388381
 21
27.8290680358
  0
LINE
  5
46B
100
AcDbEntity
  8
0
100
AcDbLine
 62
7
  6
CONTINUOUS
 10
13.5699143455
 20
23.6882970362
 11
13.5699143455
 21
23.7022260627
  0
LINE
  5
46C
100
AcDbEntity
  8
RACCORDO
100
AcDbLine
 62
7
  6
CONTINUOUS
 10
14.1078374276
 20
24.8965567711
 11
14.1078374276
 21
24.7681641343
  0
LINE
  5
46D
100
AcDbEntity
  8
RACCORDO
100
AcDbLine
 62
7
  6
CONTINUOUS
 10
19.7615221899
 20
18.997325712
 11
19.761860694
 21
18.9983083287
  0
LINE
  5
46E
100
AcDbEntity
  8
SUPERFICI
100
AcDbLine
 62
7
  6
CONTINUOUS
 10
19.7615221899
 20
18.997325712
 11
19.761860694
 21
18.9983083287
  0
LWPOLYLINE
  5
46F
100
AcDbEntity
  8
ASSI
100
AcDbPolyline
 62
7
  6
CONTINUOUS
 90
4
 70
0
 10
6.3496748129
 20
-20.7191434598
 10
6.3565648773
 20
-20.7016164266
 10
6.3607455089
 20
-20.6822785383
 10
6.3621418334
 20
-20.6614633898
  0
LINE
  5
470
100
AcDbEntity
  8
ASSI
100
AcDbLine
 62
7
  6
CONTINUOUS
 10
4.0076263396
 20
-20.0663390558
 11
4.4368795213
 21
-19.3821321123
  0
LINE
  5
471
100
AcDbEntity
  8
ASSI
100
AcDbLine
 62
7
  6
CONTINUOUS
 10
4.4368795213
 20
-19.9740921166
 11
3.9934084725
 21
-20.6809615908
  0
LINE
  5
472
100
AcDbEntity
  8
ASSI
100
AcDbLine
 62
7
  6
CONTINUOUS
 10
8.0027288328
 20
-14.6325389451
 11
6.8126754577
 21
-16.5008770635
  0
LINE
  5
473
100
AcDbEntity
  8
ASSI
100
AcDbLine
 62
7
  6
CONTINUOUS
 10
6.8126754577
 20
14.6269006195
 11
7.9312316262
 21
14.6322030148
  0
LINE
  5
474
100
AcDbEntity
  8
ASSI
100
AcDbLine
 62
7
  6
CONTINUOUS
 10
6.8126754577
 20
14.6269006195
 11
8.0027288328
 21
14.6034881248
  0
LWPOLYLINE
  5
475
100
AcDbEntity
  8
RACCORDO
100
AcDbPolyline
 62
250
  6
CONTINUOUS
 90
16
 70
0
 10
1.4306526769
 20
12.588647199
 10
1.4739647462
 20
12.5747538644
 10
1.5193491572
 20
12.5629872279
 10
1.5663661802
 20
12.5534612964
 10
1.6145602668
 20
12.5462683668
 10
1.6634644644
 20
12.5414781313
 10
1.7126049398
 20
12.5391370024
 10
1.7615055707
 20
12.5392676631
 10
1.8096925586
 20
12.5418688476
 10
1.8566990196
 20
12.5469153529
 10
1.9020695077
 20
12.5543582834
 10
1.945364428
 20
12.5641255245
 10
1.9861642958
 20
12.5761224414
 10
2.024073801
 20
12.5902327959
 10
2.0587256381
 20
12.6063198726
 10
2.0897840653
 20
12.6242278038
  0
LWPOLYLINE
  5
476
100
AcDbEntity
  8
RACCORDO
100
AcDbPolyline
 62
250
  6
CONTINUOUS
 90
31
 70
0
 10
2.1218488002
 20
14.0600508846
 10
1.5457727366
 20
14.2613121022
 10
0.9715812052
 20
14.4638407155
 10
0.399274206
 20
14.6676367246
 10
-0.170992165
 20
14.872644005
 10
-0.7393740038
 20
15.0789186812
 10
-1.3063395984
 20
15.2866291263
 10
-1.872125217
 20
15.4958605033
 10
-2.4364945913
 20
15.7065276492
 10
-2.999207204
 20
15.9185434482
 10
-3.5601973501
 20
16.131884617
 10
-4.1195307345
 20
16.346574439
 10
-4.6771639549
 20
16.5625956482
 10
-5.2331785771
 20
16.7799820465
 10
-5.7874930352
 20
16.9986998321
 10
-6.3398192289
 20
17.2186303334
 10
-6.8898154551
 20
17.439633428
 10
-7.4378234168
 20
17.6618492383
 10
-7.9845801232
 20
17.8855794599
 10
-8.5290419543
 20
18.1103597247
 10
-9.07225253
 20
18.3366544008
 10
-9.6180797187
 20
18.5661582876
 10
-10.1656720341
 20
18.798427553
 10
-10.7158809625
 20
19.0339060291
 10
-11.2751288305
 20
19.2756200124
 10
-11.8437625465
 20
19.5236092899
 10
-12.4214352022
 20
19.7778340746
 10
-13.0135283996
 20
20.0412013018
 10
-13.621836006
 20
20.3146799498
 10
-14.244564154
 20
20.5973010403
 10
-14.8817128436
 20
20.8890645733
  0
LINE
  5
477
100
AcDbEntity
  8
DRAFT
100
AcDbLine
 62
7
  6
CONTINUOUS
 10
5.9201354264
 20
11.9690886043
 11
5.1597812421
 21
12.2744639865
  0
LWPOLYLINE
  5
478
100
AcDbEntity
  8
RACCORDO
100
AcDbPolyline
 62
250
  6
CONTINUOUS
 90
16
 70
0
 10
2.1218488002
 20
14.0600508846
 10
2.1638029595
 20
14.0399824307
 10
2.2052156814
 20
14.0155843883
 10
2.2456336348
 20
13.9871238346
 10
2.2846143781
 20
13.9549123176
 10
2.3217312023
 20
13.9193024458
 10
2.3565778023
 20
13.8806840287
 10
2.3887727244
 20
13.839479809
 10
2.4179635414
 20
13.7961408354
 10
2.4438307116
 20
13.7511415248
 10
2.4660910756
 20
13.7049744695
 10
2.4845009569
 20
13.6581450446
 10
2.4988588288
 20
13.611165876
 10
2.5090075205
 20
13.5645512286
 10
2.5148359376
 20
13.5188113773
 10
2.5162802785
 20
13.4744470206
  0
LWPOLYLINE
  5
479
100
AcDbEntity
  8
ASSI
100
AcDbPolyline
 62
7
  6
CONTINUOUS
 90
4
 70
0
 10
-12.2379292371
 20
24.4087850161
 10
-12.2166572088
 20
24.3949444007
 10
-12.1944066292
 20
24.3839811328
 10
-12.1908484653
 20
24.3825194766
  0
LWPOLYLINE
  5
47A
100
AcDbEntity
  8
ASSI
100
AcDbPolyline
 62
7
  6
CONTINUOUS
 90
4
 70
0
 10
2.2899106044
 20
18.6097551481
 10
2.3055955803
 20
18.5881975988
 10
2.3237700578
 20
18.5688153716
 10
2.344139321
 20
18.551909438
  0
LWPOLYLINE
  5
47B
100
AcDbEntity
  8
DRAFT
100
AcDbPolyline
 62
7
  6
CONTINUOUS
 90
4
 70
0
 10
7.6222267323
 20
15.6099878456
 10
7.621682904
 20
15.6109650269
 10
7.5537468928
 20
15.7210358556
 10
7.4799801725
 20
15.8295832141
  0
LWPOLYLINE
  5
47C
100
AcDbEntity
  8
SUPERFICI
100
AcDbPolyline
 62
7
  6
CONTINUOUS
 90
4
 70
0
 10
7.6222267323
 20
15.6099878456
 10
7.621682904
 20
15.6109650269
 10
7.5537468928
 20
15.7210358556
 10
7.4799801725
 20
15.8295832141
  0
LWPOLYLINE
  5
47D
100
AcDbEntity
  8
ASSI
100
AcDbPolyline
 62
250
  6
CONTINUOUS
 90
5
 70
0
 10
6.7975344983
 20
19.110865171
 10
6.8033894999
 20
19.0991619978
 10
6.8063397838
 20
19.0887423087
 10
6.8063354332
 20
19.0797824139
 10
6.8040116865
 20
19.0734356829
  0
LWPOLYLINE
  5
47E
100
AcDbEntity
  8
ASSI
100
AcDbPolyline
 62
7
  6
CONTINUOUS
 90
4
 70
0
 10
6.7999895412
 20
-20.3190045028
 10
6.8124836913
 20
-20.2969940678
 10
6.8228859726
 20
-20.2745135404
 10
6.8314834189
 20
-20.2511638036
  0
LINE
  5
47F
100
AcDbEntity
  8
ASSI
100
AcDbLine
 62
250
  6
CONTINUOUS
 10
4.8035136812
 20
-21.1478427033
 11
5.3205777345
 21
-20.3236698592
  0
LINE
  5
480
100
AcDbEntity
  8
ASSI
100
AcDbLine
 62
250
  6
CONTINUOUS
 10
5.0226747237
 20
-21.3101673223
 11
5.6247333904
 21
-20.350517545
  0
LWPOLYLINE
  5
481
100
AcDbEntity
  8
RACCORDO
100
AcDbPolyline
 62
7
  6
CONTINUOUS
 90
13
 70
0
 10
19.3113453573
 20
-5.2897892635
 10
19.3765212757
 20
-5.2295736944
 10
19.437736829
 20
-5.1642201035
 10
19.4945588078
 20
-5.093975032
 10
19.5465093427
 20
-5.0192452791
 10
19.5933070338
 20
-4.9402662224
 10
19.6348027999
 20
-4.8570181379
 10
19.6706617493
 20
-4.7697828475
 10
19.7005363008
 20
-4.6789916235
 10
19.7242169209
 20
-4.5847518413
 10
19.7414389079
 20
-4.4873084794
 10
19.7519259343
 20
-4.3871299761
 10
19.7554633408
 20
-4.2846165095
  0
LWPOLYLINE
  5
482
100
AcDbEntity
  8
SUPERFICI
100
AcDbPolyline
 62
7
  6
CONTINUOUS
 90
13
 70
0
 10
19.3113453573
 20
-5.2897892635
 10
19.3765212757
 20
-5.2295736944
 10
19.437736829
 20
-5.1642201035
 10
19.4945588078
 20
-5.093975032
 10
19.5465093427
 20
-5.0192452791
 10
19.5933070338
 20
-4.9402662224
 10
19.6348027999
 20
-4.8570181379
 10
19.6706617493
 20
-4.7697828475
 10
19.7005363008
 20
-4.6789916235
 10
19.7242169209
 20
-4.5847518413
 10
19.7414389079
 20
-4.4873084794
 10
19.7519259343
 20
-4.3871299761
 10
19.7554633408
 20
-4.2846165095
  0
LWPOLYLINE
  5
483
100
AcDbEntity
  8
DRAFT
100
AcDbPolyline
 62
7
  6
CONTINUOUS
 90
24
 70
0
 10
4.4769517074
 20
-17.5466042322
 10
4.5057514101
 20
-17.5208964549
 10
4.5353643189
 20
-17.486685478
 10
4.560240049
 20
-17.4486558688
 10
4.5801424781
 20
-17.4069208122
 10
4.5953077284
 20
-17.3613671233
 10
4.6054496857
 20
-17.3128318934
 10
4.6104729787
 20
-17.2609514372
 10
4.6104729787
 20
-17.2060894399
 10
4.6054496857
 20
-17.1501740483
 10
4.5953077284
 20
-17.0934923409
 10
4.5801424781
 20
-17.0357572392
 10
4.560240049
 20
-16.9780356541
 10
4.5353643189
 20
-16.920024737
 10
4.5057514101
 20
-16.8620273365
 10
4.4723958032
 20
-16.8060189099
 10
4.4353413031
 20
-16.7523015998
 10
4.3945441048
 20
-16.7005732635
 10
4.3508672746
 20
-16.6519029301
 10
4.3040963391
 20
-16.6062049136
 10
4.2544457718
 20
-16.5635648999
 10
4.2034220593
 20
-16.5253089756
 10
4.1515273639
 20
-16.4918791695
 10
4.1352835455
 20
-16.4830217924
  0
LWPOLYLINE
  5
484
100
AcDbEntity
  8
DRAFT
100
AcDbPolyline
 62
7
  6
CONTINUOUS
 90
25
 70
0
 10
4.7107480423
 20
-17.3641136147
 10
4.7398375461
 20
-17.3381472587
 10
4.7697486628
 20
-17.3035919327
 10
4.7948749536
 20
-17.2651793999
 10
4.8149779945
 20
-17.2230239521
 10
4.8302962095
 20
-17.1770112975
 10
4.8405404774
 20
-17.1279868851
 10
4.8456144245
 20
-17.0755832337
 10
4.8456144245
 20
-17.0201678244
 10
4.8405404774
 20
-16.9636885499
 10
4.8302962095
 20
-16.9064354796
 10
4.8149779945
 20
-16.848118544
 10
4.7948749536
 20
-16.7898154273
 10
4.7697486628
 20
-16.7312203249
 10
4.7398375461
 20
-16.6726390413
 10
4.7061459963
 20
-16.6160666748
 10
4.6687182115
 20
-16.5618082939
 10
4.6275099936
 20
-16.5095588301
 10
4.5833931409
 20
-16.460398176
 10
4.5361510373
 20
-16.4142398175
 10
4.486000299
 20
-16.3711702687
 10
4.4344625726
 20
-16.3325289651
 10
4.3820450739
 20
-16.2987623851
 10
4.3282405871
 20
-16.2694240502
 10
4.2730491124
 20
-16.2445139605
  0
LINE
  5
485
100
AcDbEntity
  8
RACCORDO
100
AcDbLine
 62
250
  6
CONTINUOUS
 10
19.3113456728
 20
-5.2897889924
 11
19.3245530421
 21
-5.2781635755
  0
LINE
  5
486
100
AcDbEntity
  8
SUPERFICI
100
AcDbLine
 62
250
  6
CONTINUOUS
 10
19.3113456728
 20
-5.2897889924
 11
19.3245530421
 21
-5.2781635755
  0
LINE
  5
487
100
AcDbEntity
  8
DRAFT
100
AcDbLine
 62
7
  6
CONTINUOUS
 10
19.3113453573
 20
-5.2897892635
 11
7.9312316262
 21
-15.0683722968
  0
LINE
  5
488
100
AcDbEntity
  8
SUPERFICI
100
AcDbLine
 62
7
  6
CONTINUOUS
 10
19.3113453573
 20
-5.2897892635
 11
7.9312316262
 21
-15.0683722968
  0
LINE
  5
489
100
AcDbEntity
  8
RACCORDO
100
AcDbLine
 62
250
  6
CONTINUOUS
 10
19.6015971561
 20
-4.5732823951
 11
8.0027288328
 21
-14.4365196892
  0
LINE
  5
48A
100
AcDbEntity
  8
SUPERFICI
100
AcDbLine
 62
250
  6
CONTINUOUS
 10
19.6015971561
 20
-4.5732823951
 11
8.0027288328
 21
-14.4365196892
  0
LINE
  5
48B
100
AcDbEntity
  8
ASSI
100
AcDbLine
 62
7
  6
CONTINUOUS
 10
7.9312316262
 20
-15.1485006602
 11
7.3759848071
 21
-15.6165030077
  0
LINE
  5
48C
100
AcDbEntity
  8
DRAFT
100
AcDbLine
 62
7
  6
CONTINUOUS
 10
4.7108349172
 20
-17.3640672301
 11
4.4770377257
 21
-17.5465583094
  0
LWPOLYLINE
  5
48D
100
AcDbEntity
  8
RACCORDO
100
AcDbPolyline
 62
250
  6
CONTINUOUS
 90
10
 70
0
 10
-14.8817128625
 20
20.8890645577
 10
-14.9253174594
 20
20.9033583534
 10
-14.9685268435
 20
20.9129462755
 10
-15.0108680078
 20
20.9177233846
 10
-15.0518774653
 20
20.9176374045
 10
-15.0911062833
 20
20.9126892934
 10
-15.1281250036
 20
20.9029332484
 10
-15.1625283997
 20
20.8884761028
 10
-15.1939398936
 20
20.8694761452
 10
-15.2075016001
 20
20.8590910136
  0
LINE
  5
48E
100
AcDbEntity
  8
ASSI
100
AcDbLine
 62
7
  6
CONTINUOUS
 10
7.9312316262
 20
14.6322030148
 11
8.0027288328
 21
14.6034881248
  0
LINE
  5
48F
100
AcDbEntity
  8
RACCORDO
100
AcDbLine
 62
7
  6
CONTINUOUS
 10
-12.32173071
 20
23.0080365281
 11
4.880742923
 21
16.0991352964
  0
LINE
  5
490
100
AcDbEntity
  8
0
100
AcDbLine
 62
7
  6
CONTINUOUS
 10
2.7988931754
 20
17.1033733826
 11
-9.1613621566
 21
21.9068815615
  0
LWPOLYLINE
  5
491
100
AcDbEntity
  8
ASSI
100
AcDbPolyline
 62
250
  6
CONTINUOUS
 90
9
 70
0
 10
-12.1911033704
 20
24.3826195347
 10
-12.1963207075
 20
24.3850397636
 10
-12.2077000726
 20
24.3929614956
 10
-12.217606429
 20
24.4038841748
 10
-12.2259032161
 20
24.4176624398
 10
-12.2324762418
 20
24.434108558
 10
-12.2372359972
 20
24.4529989427
 10
-12.2401174502
 20
24.474079492
 10
-12.2410810114
 20
24.4970653623
  0
LWPOLYLINE
  5
492
100
AcDbEntity
  8
ASSI
100
AcDbPolyline
 62
7
  6
CONTINUOUS
 90
3
 70
0
 10
2.344139321
 20
18.551909438
 10
2.3660804432
 20
18.5378920931
 10
2.3900343193
 20
18.5265075
  0
LINE
  5
493
100
AcDbEntity
  8
ASSI
100
AcDbLine
 62
7
  6
CONTINUOUS
 10
7.371953542
 20
15.9607763915
 11
7.9312316262
 21
15.17687962
  0
LINE
  5
494
100
AcDbEntity
  8
DRAFT
100
AcDbLine
 62
7
  6
CONTINUOUS
 10
7.371953542
 20
15.980995775
 11
7.4799801725
 21
15.8295832141
  0
LINE
  5
495
100
AcDbEntity
  8
SUPERFICI
100
AcDbLine
 62
7
  6
CONTINUOUS
 10
7.371953542
 20
15.980995775
 11
7.4799801725
 21
15.8295832141
  0
LINE
  5
496
100
AcDbEntity
  8
0
100
AcDbLine
 62
7
  6
CONTINUOUS
 10
9.5898571171
 20
24.361902902
 11
9.5971543644
 21
24.3408501579
  0
LINE
  5
497
100
AcDbEntity
  8
SUPERFICI
100
AcDbLine
 62
7
  6
CONTINUOUS
 10
9.5898571171
 20
24.361902902
 11
9.5971543644
 21
24.3408501579
  0
LINE
  5
498
100
AcDbEntity
  8
RACCORDO
100
AcDbLine
 62
250
  6
CONTINUOUS
 10
19.6015971561
 20
24.3781276981
 11
19.6015971561
 21
20.618375221
  0
LINE
  5
499
100
AcDbEntity
  8
SUPERFICI
100
AcDbLine
 62
250
  6
CONTINUOUS
 10
19.6015971561
 20
24.3781276981
 11
19.6015971561
 21
20.618375221
  0
LINE
  5
49A
100
AcDbEntity
  8
RACCORDO
100
AcDbLine
 62
250
  6
CONTINUOUS
 10
19.6015971561
 20
19.0099495538
 11
19.6015971561
 21
-4.5732823951
  0
LINE
  5
49B
100
AcDbEntity
  8
SUPERFICI
100
AcDbLine
 62
250
  6
CONTINUOUS
 10
19.6015971561
 20
19.0099495538
 11
19.6015971561
 21
-4.5732823951
  0
LWPOLYLINE
  5
49C
100
AcDbEntity
  8
RACCORDO
100
AcDbPolyline
 62
7
  6
CONTINUOUS
 90
5
 70
0
 10
19.7554632433
 20
18.9553728681
 10
19.7554817614
 20
18.9581948403
 10
19.7566726441
 20
18.9753598019
 10
19.7589917847
 20
18.9883687652
 10
19.7615221899
 20
18.997325712
  0
LWPOLYLINE
  5
49D
100
AcDbEntity
  8
SUPERFICI
100
AcDbPolyline
 62
7
  6
CONTINUOUS
 90
5
 70
0
 10
19.7554632433
 20
18.9553728681
 10
19.7554817614
 20
18.9581948403
 10
19.7566726441
 20
18.9753598019
 10
19.7589917847
 20
18.9883687652
 10
19.7615221899
 20
18.997325712
  0
LWPOLYLINE
  5
49E
100
AcDbEntity
  8
RACCORDO
100
AcDbPolyline
 62
250
  6
CONTINUOUS
 90
23
 70
0
 10
19.7554632104
 20
21.2490810183
 10
19.7550295933
 20
21.2006004462
 10
19.7539031756
 20
21.1569714812
 10
19.7521166152
 20
21.1146930196
 10
19.7496867345
 20
21.0737117159
 10
19.7466350654
 20
21.03400462
 10
19.7429843854
 20
20.995612149
 10
19.7387278623
 20
20.9585766752
 10
19.7338733091
 20
20.9228556112
 10
19.7284340859
 20
20.8885084789
 10
19.7223915778
 20
20.8557326232
 10
19.7157468742
 20
20.8244997986
 10
19.7085054759
 20
20.7948565671
 10
19.700640745
 20
20.7671148295
 10
19.6921412461
 20
20.7412569627
 10
19.683013528
 20
20.7173219588
 10
19.6732510172
 20
20.6957083362
 10
19.6628414517
 20
20.6764747871
 10
19.6517936744
 20
20.6595854824
 10
19.6401370265
 20
20.645296353
 10
19.627886516
 20
20.6336989493
 10
19.6150379792
 20
20.6247218472
 10
19.6015971561
 20
20.618375221
  0
LWPOLYLINE
  5
49F
100
AcDbEntity
  8
SUPERFICI
100
AcDbPolyline
 62
250
  6
CONTINUOUS
 90
23
 70
0
 10
19.7554632104
 20
21.2490810183
 10
19.7550295933
 20
21.2006004462
 10
19.7539031756
 20
21.1569714812
 10
19.7521166152
 20
21.1146930196
 10
19.7496867345
 20
21.0737117159
 10
19.7466350654
 20
21.03400462
 10
19.7429843854
 20
20.995612149
 10
19.7387278623
 20
20.9585766752
 10
19.7338733091
 20
20.9228556112
 10
19.7284340859
 20
20.8885084789
 10
19.7223915778
 20
20.8557326232
 10
19.7157468742
 20
20.8244997986
 10
19.7085054759
 20
20.7948565671
 10
19.700640745
 20
20.7671148295
 10
19.6921412461
 20
20.7412569627
 10
19.683013528
 20
20.7173219588
 10
19.6732510172
 20
20.6957083362
 10
19.6628414517
 20
20.6764747871
 10
19.6517936744
 20
20.6595854824
 10
19.6401370265
 20
20.645296353
 10
19.627886516
 20
20.6336989493
 10
19.6150379792
 20
20.6247218472
 10
19.6015971561
 20
20.618375221
  0
LWPOLYLINE
  5
4A0
100
AcDbEntity
  8
RACCORDO
100
AcDbPolyline
 62
250
  6
CONTINUOUS
 90
8
 70
0
 10
19.7554633408
 20
24.6667935836
 10
19.7528905503
 20
24.6277886838
 10
19.7436898291
 20
24.5835682447
 10
19.7278784616
 20
24.5399672121
 10
19.7055741243
 20
24.4973100878
 10
19.6769428177
 20
24.4559143483
 10
19.642197631
 20
24.4160880824
 10
19.6015971561
 20
24.3781276981
  0
LWPOLYLINE
  5
4A1
100
AcDbEntity
  8
SUPERFICI
100
AcDbPolyline
 62
250
  6
CONTINUOUS
 90
8
 70
0
 10
19.7554633408
 20
24.6667935836
 10
19.7528905503
 20
24.6277886838
 10
19.7436898291
 20
24.5835682447
 10
19.7278784616
 20
24.5399672121
 10
19.7055741243
 20
24.4973100878
 10
19.6769428177
 20
24.4559143483
 10
19.642197631
 20
24.4160880824
 10
19.6015971561
 20
24.3781276981
  0
LWPOLYLINE
  5
4A2
100
AcDbEntity
  8
ASSI
100
AcDbPolyline
 62
7
  6
CONTINUOUS
 90
3
 70
0
 10
6.3273255866
 20
-20.7484523008
 10
6.3401969202
 20
-20.7345567351
 10
6.3496748129
 20
-20.7191434598
  0
LWPOLYLINE
  5
4A3
100
AcDbEntity
  8
RACCORDO
100
AcDbPolyline
 62
250
  6
CONTINUOUS
 90
11
 70
0
 10
19.3245530421
 20
-5.2781635755
 10
19.3756547476
 20
-5.2273744849
 10
19.421982669
 20
-5.1714790412
 10
19.4633385362
 20
-5.1107166443
 10
19.4995454071
 20
-5.0453474234
 10
19.5304482294
 20
-4.9756514978
 10
19.5559148139
 20
-4.90192721
 10
19.5758363142
 20
-4.8244895996
 10
19.5901273677
 20
-4.7436699638
 10
19.5987266204
 20
-4.6598145497
 10
19.6015971561
 20
-4.5732823951
  0
LWPOLYLINE
  5
4A4
100
AcDbEntity
  8
SUPERFICI
100
AcDbPolyline
 62
250
  6
CONTINUOUS
 90
11
 70
0
 10
19.3245530421
 20
-5.2781635755
 10
19.3756547476
 20
-5.2273744849
 10
19.421982669
 20
-5.1714790412
 10
19.4633385362
 20
-5.1107166443
 10
19.4995454071
 20
-5.0453474234
 10
19.5304482294
 20
-4.9756514978
 10
19.5559148139
 20
-4.90192721
 10
19.5758363142
 20
-4.8244895996
 10
19.5901273677
 20
-4.7436699638
 10
19.5987266204
 20
-4.6598145497
 10
19.6015971561
 20
-4.5732823951
  0
LWPOLYLINE
  5
4A5
100
AcDbEntity
  8
ASSI
100
AcDbPolyline
 62
250
  6
CONTINUOUS
 90
6
 70
0
 10
6.8115164505
 20
-19.9060505097
 10
6.8245658477
 20
-19.8932374627
 10
6.834622473
 20
-19.8795654494
 10
6.841518055
 20
-19.8652632407
 10
6.8451372154
 20
-19.850570152
 10
6.8457089358
 20
-19.8419061364
  0
LWPOLYLINE
  5
4A6
100
AcDbEntity
  8
ASSI
100
AcDbPolyline
 62
250
  6
CONTINUOUS
 90
6
 70
0
 10
6.8115164505
 20
-20.2275947617
 10
6.8245658253
 20
-20.21478176
 10
6.8346224434
 20
-20.2011097862
 10
6.8415180304
 20
-20.1868076091
 10
6.8451372047
 20
-20.1721145426
 10
6.8457089359
 20
-20.1634467871
  0
LWPOLYLINE
  5
4A7
100
AcDbEntity
  8
ASSI
100
AcDbPolyline
 62
250
  6
CONTINUOUS
 90
28
 70
0
 10
6.7840405837
 20
-20.2919105599
 10
6.7854866825
 20
-20.2905995476
 10
6.786946987
 20
-20.2891512716
 10
6.7884214973
 20
-20.2875657319
 10
6.7899189776
 20
-20.2858381334
 10
6.7914306636
 20
-20.2839732712
 10
6.7929302622
 20
-20.2819855311
 10
6.7944178423
 20
-20.279870225
 10
6.795893335
 20
-20.2776320408
 10
6.7973302401
 20
-20.2752994285
 10
6.7987270672
 20
-20.2728698389
 10
6.8000853066
 20
-20.270345821
 10
6.8013829293
 20
-20.2677634714
 10
6.8026172702
 20
-20.2651239555
 10
6.8037909944
 20
-20.2624261078
 10
6.8048900686
 20
-20.2597025286
 10
6.8059127135
 20
-20.2569549821
 10
6.8068607083
 20
-20.2541817039
 10
6.8077253577
 20
-20.251410002
 10
6.8085059509
 20
-20.2486398501
 10
6.8092031987
 20
-20.2458712744
 10
6.8098105376
 20
-20.2431316614
 10
6.8103271468
 20
-20.240421333
 10
6.8107538471
 20
-20.2377399675
 10
6.8110865377
 20
-20.2351139854
 10
6.8113238516
 20
-20.2325521939
 10
6.8114671559
 20
-20.230045786
 10
6.8115164505
 20
-20.2275947617
  0
LINE
  5
4A8
100
AcDbEntity
  8
ASSI
100
AcDbLine
 62
250
  6
CONTINUOUS
 10
6.8126754577
 20
-18.8764803724
 11
7.371953542
 21
-18.3865931693
  0
LINE
  5
4A9
100
AcDbEntity
  8
ASSI
100
AcDbLine
 62
7
  6
CONTINUOUS
 10
6.7249716744
 20
-19.0945337746
 11
7.284949099
 21
-18.6040339999
  0
LINE
  5
4AA
100
AcDbEntity
  8
ASSI
100
AcDbLine
 62
7
  6
CONTINUOUS
 10
6.7248621083
 20
-19.0946297244
 11
6.7058196148
 21
-19.1095822628
  0
LINE
  5
4AB
100
AcDbEntity
  8
ASSI
100
AcDbLine
 62
250
  6
CONTINUOUS
 10
5.9201354264
 20
-19.5038699989
 11
6.8126754577
 21
-18.8764177993
  0
LINE
  5
4AC
100
AcDbEntity
  8
ASSI
100
AcDbLine
 62
7
  6
CONTINUOUS
 10
5.8140061046
 20
-19.7365243
 11
6.7057454006
 21
-19.1096350143
  0
LWPOLYLINE
  5
4AD
100
AcDbEntity
  8
RACCORDO
100
AcDbPolyline
 62
250
  6
CONTINUOUS
 90
9
 70
0
 10
1.1021715615
 20
-22.9683857471
 10
1.1083654671
 20
-22.9641181138
 10
1.136672956
 20
-22.940610887
 10
1.1615665749
 20
-22.9128537675
 10
1.1827738585
 20
-22.8811506283
 10
1.2000626952
 20
-22.8458485281
 10
1.213243863
 20
-22.8073339203
 10
1.2221731033
 20
-22.7660284258
 10
1.2267527041
 20
-22.7223842074
  0
LINE
  5
4AE
100
AcDbEntity
  8
RACCORDO
100
AcDbLine
 62
250
  6
CONTINUOUS
 10
3.9783575156
 20
-20.8879102437
 11
1.2267527041
 21
-22.7223842074
  0
LWPOLYLINE
  5
4AF
100
AcDbEntity
  8
ASSI
100
AcDbPolyline
 62
250
  6
CONTINUOUS
 90
9
 70
0
 10
6.7966067165
 20
19.5033109704
 10
6.7951336821
 20
19.5031173823
 10
6.7936266604
 20
19.5027640575
 10
6.7920853803
 20
19.5022495702
 10
6.7905101129
 20
19.5015753461
 10
6.7889164413
 20
19.5007482322
 10
6.7873095597
 20
19.4997705108
 10
6.7856842738
 20
19.4986398995
 10
6.7840405837
 20
19.4973563984
  0
LINE
  5
4B0
100
AcDbEntity
  8
ASSI
100
AcDbLine
 62
7
  6
CONTINUOUS
 10
4.4368795213
 20
17.3158794719
 11
3.9934084725
 21
17.3225434276
  0
LINE
  5
4B1
100
AcDbEntity
  8
ASSI
100
AcDbLine
 62
7
  6
CONTINUOUS
 10
4.8578662992
 20
17.5506182864
 11
5.3851368238
 21
17.5426950918
  0
LINE
  5
4B2
100
AcDbEntity
  8
ASSI
100
AcDbLine
 62
250
  6
CONTINUOUS
 10
5.0226747237
 20
17.6831677556
 11
5.6247333904
 21
17.6741207337
  0
LWPOLYLINE
  5
4B3
100
AcDbEntity
  8
ASSI
100
AcDbPolyline
 62
7
  6
CONTINUOUS
 90
9
 70
0
 10
3.3182026177
 20
18.1545848901
 10
3.3205957519
 20
18.1541917066
 10
3.3276859562
 20
18.1551956957
 10
3.3378525193
 20
18.1589152057
 10
3.3506234015
 20
18.1651334529
 10
3.3658576371
 20
18.1729262542
 10
3.3833625501
 20
18.182075447
 10
3.4026977578
 20
18.1930108543
 10
3.4235244196
 20
18.205790259
  0
LWPOLYLINE
  5
4B4
100
AcDbEntity
  8
ASSI
100
AcDbPolyline
 62
250
  6
CONTINUOUS
 90
8
 70
0
 10
2.4800144629
 20
19.2615754811
 10
2.4583935796
 20
19.2685536097
 10
2.4371767412
 20
19.2726387558
 10
2.4167268334
 20
19.2737610505
 10
2.3973936238
 20
19.2719013004
 10
2.3795077812
 20
19.2670913161
 10
2.3633752196
 20
19.2594133691
 10
2.3502981099
 20
19.2499100208
  0
LWPOLYLINE
  5
4B5
100
AcDbEntity
  8
ASSI
100
AcDbPolyline
 62
250
  6
CONTINUOUS
 90
13
 70
0
 10
-9.8494472205
 20
23.5365149018
 10
-9.8273395791
 20
23.5288076101
 10
-9.8036823628
 20
23.5228016406
 10
-9.7788714203
 20
23.5185974894
 10
-9.7533219055
 20
23.5162655031
 10
-9.7274613304
 20
23.5158447022
 10
-9.7017224121
 20
23.5173421277
 10
-9.6765358319
 20
23.5207327239
 10
-9.6523230289
 20
23.5259597568
 10
-9.6294891485
 20
23.5329357641
 10
-9.608416263
 20
23.5415440185
 10
-9.5894569784
 20
23.5516404807
 10
-9.5729285344
 20
23.5630562098
  0
LWPOLYLINE
  5
4B6
100
AcDbEntity
  8
ASSI
100
AcDbPolyline
 62
250
  6
CONTINUOUS
 90
13
 70
0
 10
-9.8494472205
 20
23.8366116256
 10
-9.8273395649
 20
23.8289043296
 10
-9.8036823351
 20
23.8228983585
 10
-9.7788713812
 20
23.818694208
 10
-9.7533218576
 20
23.8163622242
 10
-9.7274612771
 20
23.8159414269
 10
-9.7017223575
 20
23.8174388566
 10
-9.6765357802
 20
23.8208294566
 10
-9.6523229838
 20
23.8260564921
 10
-9.6294891129
 20
23.8330325004
 10
-9.6084162389
 20
23.8416407535
 10
-9.5894569666
 20
23.8517372116
 10
-9.5729285344
 20
23.8631529336
  0
LWPOLYLINE
  5
4B7
100
AcDbEntity
  8
ASSI
100
AcDbPolyline
 62
7
  6
CONTINUOUS
 90
5
 70
0
 10
-9.7988971032
 20
23.4218559523
 10
-9.7879330519
 20
23.4178055126
 10
-9.7609921297
 20
23.4106270216
 10
-9.7332179956
 20
23.4070351146
 10
-9.7234077802
 20
23.4066453018
  0
LWPOLYLINE
  5
4B8
100
AcDbEntity
  8
ASSI
100
AcDbPolyline
 62
250
  6
CONTINUOUS
 90
28
 70
0
 10
-1.7432401842
 20
21.6406608117
 10
-1.7452509478
 20
21.6414332551
 10
-1.747301825
 20
21.6421020107
 10
-1.7493928157
 20
21.6426670786
 10
-1.7515371802
 20
21.6431390154
 10
-1.7537216583
 20
21.6435072645
 10
-1.7559064691
 20
21.6437401565
 10
-1.7580925671
 20
21.6438332801
 10
-1.7602789978
 20
21.6437910465
 10
-1.7624231166
 20
21.6435950197
 10
-1.7645241193
 20
21.6432397252
 10
-1.7665828102
 20
21.6427306375
 10
-1.7685589578
 20
21.6420657438
 10
-1.7704490589
 20
21.6412403083
 10
-1.7722566168
 20
21.6402590669
 10
-1.7739519101
 20
21.6391342146
 10
-1.7755305891
 20
21.6378639712
 10
-1.7769970035
 20
21.6364501169
 10
-1.7783344818
 20
21.6349101878
 10
-1.7795408187
 20
21.6332435438
 10
-1.7806182194
 20
21.631450825
 10
-1.781556628
 20
21.6295514873
 10
-1.7823547883
 20
21.6275445695
 10
-1.7830139566
 20
21.6254310329
 10
-1.7835278454
 20
21.6232332175
 10
-1.7838943591
 20
21.62095857
 10
-1.7841155934
 20
21.6185996437
 10
-1.7841915484
 20
21.6161564387
  0
LWPOLYLINE
  5
4B9
100
AcDbEntity
  8
ASSI
100
AcDbPolyline
 62
7
  6
CONTINUOUS
 90
5
 70
0
 10
4.7820018173
 20
17.5658395908
 10
4.7865597952
 20
17.5640712373
 10
4.8094096356
 20
17.5569534407
 10
4.8330529737
 20
17.5524417643
 10
4.8578833443
 20
17.5506246814
  0
LINE
  5
4BA
100
AcDbEntity
  8
ASSI
100
AcDbLine
 62
7
  6
CONTINUOUS
 10
-11.1573819687
 20
23.3516165657
 11
-10.9331462735
 21
23.2615584553
  0
LINE
  5
4BB
100
AcDbEntity
  8
ASSI
100
AcDbLine
 62
7
  6
CONTINUOUS
 10
3.4235244196
 20
17.4955958413
 11
3.6477601148
 21
17.4055377309
  0
LINE
  5
4BC
100
AcDbEntity
  8
ASSI
100
AcDbLine
 62
7
  6
CONTINUOUS
 10
5.5109803144
 20
16.820101469
 11
5.2790850327
 21
16.9132358421
  0
LINE
  5
4BD
100
AcDbEntity
  8
ASSI
100
AcDbLine
 62
7
  6
CONTINUOUS
 10
2.9393523745
 20
17.8529252257
 11
-9.3018213557
 21
22.7692565665
  0
LINE
  5
4BE
100
AcDbEntity
  8
ASSI
100
AcDbLine
 62
7
  6
CONTINUOUS
 10
-11.6415540139
 20
23.7089459501
 11
-11.8734492956
 21
23.8020803232
  0
LINE
  5
4BF
100
AcDbEntity
  8
ASSI
100
AcDbLine
 62
7
  6
CONTINUOUS
 10
4.7819826559
 20
17.5658455679
 11
3.8508367123
 21
17.9398147401
  0
LINE
  5
4C0
100
AcDbEntity
  8
ASSI
100
AcDbLine
 62
7
  6
CONTINUOUS
 10
3.3208918961
 20
18.1526525257
 11
2.3897969797
 21
18.5266012351
  0
LINE
  5
4C1
100
AcDbEntity
  8
ASSI
100
AcDbLine
 62
7
  6
CONTINUOUS
 10
-9.7989738049
 20
23.4218863716
 11
-10.730069676
 21
23.7958354645
  0
LINE
  5
4C2
100
AcDbEntity
  8
ASSI
100
AcDbLine
 62
7
  6
CONTINUOUS
 10
-11.2600144922
 20
24.0086732501
 11
-12.1911162636
 21
24.3826247126
  0
LINE
  5
4C3
100
AcDbEntity
  8
ASSI
100
AcDbLine
 62
250
  6
CONTINUOUS
 10
-11.1573819687
 20
24.0618109834
 11
-12.2410810217
 21
24.4970653659
  0
LINE
  5
4C4
100
AcDbEntity
  8
ASSI
100
AcDbLine
 62
250
  6
CONTINUOUS
 10
3.4235244196
 20
18.205790259
 11
2.3398253666
 21
18.6410282301
  0
LINE
  5
4C5
100
AcDbEntity
  8
ASSI
100
AcDbLine
 62
250
  6
CONTINUOUS
 10
-9.8494472205
 20
23.5365149018
 11
-10.9331462735
 21
23.9717528729
  0
LINE
  5
4C6
100
AcDbEntity
  8
ASSI
100
AcDbLine
 62
250
  6
CONTINUOUS
 10
4.7314591678
 20
17.6805105827
 11
3.6477601148
 21
18.1157321485
  0
LINE
  5
4C7
100
AcDbEntity
  8
ASSI
100
AcDbLine
 62
7
  6
CONTINUOUS
 10
0.8694236724
 20
19.4273927357
 11
-1.7841915484
 21
20.4931444327
  0
LINE
  5
4C8
100
AcDbEntity
  8
ASSI
100
AcDbLine
 62
7
  6
CONTINUOUS
 10
-3.4311245601
 20
21.1545898594
 11
-6.0847397809
 21
22.2203415564
  0
LINE
  5
4C9
100
AcDbEntity
  8
ASSI
100
AcDbLine
 62
250
  6
CONTINUOUS
 10
4.7314591678
 20
17.9805909012
 11
2.3398253666
 21
18.9411249539
  0
LINE
  5
4CA
100
AcDbEntity
  8
ASSI
100
AcDbLine
 62
250
  6
CONTINUOUS
 10
-9.8494472205
 20
23.8366116256
 11
-12.2410810217
 21
24.7971456783
  0
LINE
  5
4CB
100
AcDbEntity
  8
ASSI
100
AcDbLine
 62
7
  6
CONTINUOUS
 10
-8.218764555
 20
23.448982755
 11
-6.1700244936
 21
22.6261625586
  0
LINE
  5
4CC
100
AcDbEntity
  8
ASSI
100
AcDbLine
 62
7
  6
CONTINUOUS
 10
-2.9761914715
 20
21.3434472137
 11
-1.8694762611
 21
20.8989654349
  0
LINE
  5
4CD
100
AcDbEntity
  8
ASSI
100
AcDbLine
 62
7
  6
CONTINUOUS
 10
1.324356761
 20
19.6162500899
 11
2.3190308863
 21
19.2167665368
  0
LINE
  5
4CE
100
AcDbEntity
  8
ASSI
100
AcDbLine
 62
7
  6
CONTINUOUS
 10
6.4035203457
 20
17.5763434872
 11
6.3621418334
 21
17.5929620306
  0
LINE
  5
4CF
100
AcDbEntity
  8
ASSI
100
AcDbLine
 62
250
  6
CONTINUOUS
 10
4.8730531452
 20
18.3004771965
 11
2.4800144629
 21
19.2615754811
  0
LINE
  5
4D0
100
AcDbEntity
  8
ASSI
100
AcDbLine
 62
250
  6
CONTINUOUS
 10
-9.7078532431
 20
24.1564979209
 11
-12.1008919255
 21
25.1175962055
  0
LINE
  5
4D1
100
AcDbEntity
  8
ASSI
100
AcDbLine
 62
7
  6
CONTINUOUS
 10
-8.218764555
 20
24.1348919411
 11
-7.6903343812
 21
23.9226624702
  0
LINE
  5
4D2
100
AcDbEntity
  8
ASSI
100
AcDbLine
 62
7
  6
CONTINUOUS
 10
6.3621418334
 20
18.2788712167
 11
6.9624399002
 21
18.0377779797
  0
LINE
  5
4D3
100
AcDbEntity
  8
ASSI
100
AcDbLine
 62
7
  6
CONTINUOUS
 10
-1.8694762611
 20
21.5849659346
 11
-2.4271399424
 21
21.8089362413
  0
LINE
  5
4D4
100
AcDbEntity
  8
ASSI
100
AcDbLine
 62
250
  6
CONTINUOUS
 10
-6.0437884167
 20
23.3678579355
 11
-3.4720759243
 21
22.3350002207
  0
LINE
  5
4D5
100
AcDbEntity
  8
ASSI
100
AcDbLine
 62
250
  6
CONTINUOUS
 10
0.8284723082
 20
20.6078030969
 11
-1.7432401842
 21
21.6406608117
  0
LINE
  5
4D6
100
AcDbEntity
  8
ASSI
100
AcDbLine
 62
7
  6
CONTINUOUS
 10
-1.8747647197
 20
21.696927559
 11
-2.4291486371
 21
21.9195806385
  0
LWPOLYLINE
  5
4D7
100
AcDbEntity
  8
ASSI
100
AcDbPolyline
 62
250
  6
CONTINUOUS
 90
28
 70
0
 10
-3.4720759243
 20
22.3350002207
 10
-3.4700441362
 20
22.3341473824
 10
-3.4679754305
 20
22.3331588976
 10
-3.4658698073
 20
22.3320347662
 10
-3.4637140207
 20
22.3307744382
 10
-3.4615213165
 20
22.3293784637
 10
-3.4593314327
 20
22.327848493
 10
-3.4571435761
 20
22.3261793838
 10
-3.4549585398
 20
22.3243762784
 10
-3.4528184412
 20
22.3224562534
 10
-3.4507244858
 20
22.3204149522
 10
-3.4486754681
 20
22.3182567315
 10
-3.4467098889
 20
22.3160117374
 10
-3.4448316145
 20
22.3136791663
 10
-3.4430367784
 20
22.3112598218
 10
-3.4413522822
 20
22.3087862605
 10
-3.4397815644
 20
22.3062596912
 10
-3.4383211864
 20
22.3036789052
 10
-3.4369877343
 20
22.3010728335
 10
-3.4357828694
 20
22.2984415403
 10
-3.4347049303
 20
22.2957849615
 10
-3.433765519
 20
22.2931318359
 10
-3.4329661611
 20
22.2904821583
 10
-3.4323053309
 20
22.2878359338
 10
-3.4317900532
 20
22.2852219169
 10
-3.4314226697
 20
22.2826496922
 10
-3.4312008387
 20
22.2801096751
 10
-3.4311245601
 20
22.2776018654
  0
LWPOLYLINE
  5
4D8
100
AcDbEntity
  8
ASSI
100
AcDbPolyline
 62
250
  6
CONTINUOUS
 90
16
 70
0
 10
-9.7988934763
 20
23.4218541839
 10
-9.8015433941
 20
23.4229939781
 10
-9.8073384731
 20
23.4260883203
 10
-9.8129217447
 20
23.4299604858
 10
-9.8182569597
 20
23.4346387792
 10
-9.8233063473
 20
23.4401480747
 10
-9.8280048029
 20
23.4464707431
 10
-9.8323206579
 20
23.453611374
 10
-9.8362224873
 20
23.4615704612
 10
-9.8396608658
 20
23.4702928338
 10
-9.8426139222
 20
23.4797583266
 10
-9.845061555
 20
23.4899436998
 10
-9.8469757899
 20
23.5007606412
 10
-9.8483464508
 20
23.512147322
 10
-9.8491715782
 20
23.5240803459
 10
-9.8494472205
 20
23.5365149018
  0
LWPOLYLINE
  5
4D9
100
AcDbEntity
  8
ASSI
100
AcDbPolyline
 62
250
  6
CONTINUOUS
 90
28
 70
0
 10
-3.3593626949
 20
22.5911349497
 10
-3.3493598583
 20
22.5867488028
 10
-3.3391029551
 20
22.5817380758
 10
-3.3286209017
 20
22.5760753468
 10
-3.3179215576
 20
22.5697202074
 10
-3.3070685705
 20
22.5626637981
 10
-3.2961784417
 20
22.5549416483
 10
-3.2852938242
 20
22.5465497466
 10
-3.2744611273
 20
22.5374885548
 10
-3.2637992679
 20
22.5278274191
 10
-3.253354697
 20
22.5175853617
 10
-3.2431728642
 20
22.5067831848
 10
-3.2333606842
 20
22.4955166056
 10
-3.2239666111
 20
22.4838324829
 10
-3.2150200699
 20
22.4717584724
 10
-3.2065861602
 20
22.4593762244
 10
-3.1987034316
 20
22.446742522
 10
-3.1913926936
 20
22.4338911246
 10
-3.1846838759
 20
22.420874155
 10
-3.178602078
 20
22.4077406327
 10
-3.1731682493
 20
22.3945363046
 10
-3.1684019147
 20
22.3813092448
 10
-3.1643202057
 20
22.3681069846
 10
-3.1609379356
 20
22.3549776013
 10
-3.1582672533
 20
22.3419697948
 10
-3.1563175677
 20
22.3291309301
 10
-3.1550957068
 20
22.3165068942
 10
-3.154605874
 20
22.3041431734
  0
LWPOLYLINE
  5
4DA
100
AcDbEntity
  8
ASSI
100
AcDbPolyline
 62
7
  6
CONTINUOUS
 90
9
 70
0
 10
-10.7293151451
 20
23.7955357841
 10
-10.7463058808
 20
23.8031201373
 10
-10.7761321774
 20
23.8196070212
 10
-10.8052681722
 20
23.839354436
 10
-10.8336015364
 20
23.8618159971
 10
-10.8606000802
 20
23.8865924015
 10
-10.8860606964
 20
23.9134002113
 10
-10.9102213801
 20
23.9418961154
 10
-10.9331462735
 20
23.9717528729
  0
LWPOLYLINE
  5
4DB
100
AcDbEntity
  8
ASSI
100
AcDbPolyline
 62
7
  6
CONTINUOUS
 90
9
 70
0
 10
3.8515912433
 20
17.9395150597
 10
3.8346005075
 20
17.9470994128
 10
3.804774211
 20
17.9635862968
 10
3.7756382162
 20
17.9833337116
 10
3.747304852
 20
18.0057952727
 10
3.7203063081
 20
18.0305716771
 10
3.6948456919
 20
18.0573794869
 10
3.6706850082
 20
18.085875391
 10
3.6477601148
 20
18.1157321485
  0
LWPOLYLINE
  5
4DC
100
AcDbEntity
  8
ASSI
100
AcDbPolyline
 62
250
  6
CONTINUOUS
 90
7
 70
0
 10
2.3398253666
 20
18.6410282301
 10
2.3196372059
 20
18.650307888
 10
2.3017063482
 20
18.6610046314
 10
2.2863328246
 20
18.6729394742
 10
2.2737738746
 20
18.685912714
 10
2.2642396423
 20
18.6997072729
 10
2.25788966
 20
18.7140923301
  0
LWPOLYLINE
  5
4DD
100
AcDbEntity
  8
ASSI
100
AcDbPolyline
 62
250
  6
CONTINUOUS
 90
9
 70
0
 10
2.3398253666
 20
18.9411249539
 10
2.3196372205
 20
18.950404604
 10
2.3017063716
 20
18.9611013391
 10
2.2863328513
 20
18.9730361741
 10
2.2737738999
 20
18.9860094069
 10
2.2642396624
 20
18.9998039607
 10
2.2578896724
 20
19.0141890153
 10
2.2548301821
 20
19.0289238701
 10
2.2545408668
 20
19.0349268455
  0
LWPOLYLINE
  5
4DE
100
AcDbEntity
  8
ASSI
100
AcDbPolyline
 62
250
  6
CONTINUOUS
 90
9
 70
0
 10
-1.7841915484
 20
21.6161564387
 10
-1.8043796945
 20
21.6254360888
 10
-1.8223105434
 20
21.6361328239
 10
-1.8376840637
 20
21.6480676588
 10
-1.8502430151
 20
21.6610408917
 10
-1.8597772525
 20
21.6748354455
 10
-1.8661272426
 20
21.6892205001
 10
-1.8691867329
 20
21.7039553549
 10
-1.8694762541
 20
21.7100953099
  0
LWPOLYLINE
  5
4DF
100
AcDbEntity
  8
ASSI
100
AcDbPolyline
 62
250
  6
CONTINUOUS
 90
13
 70
0
 10
-9.7078532431
 20
24.1564979209
 10
-9.6867205316
 20
24.1463052465
 10
-9.6659150241
 20
24.1335132824
 10
-9.6457925708
 20
24.1183408178
 10
-9.6266973391
 20
24.1010473574
 10
-9.6089559272
 20
24.0819286824
 10
-9.5928717781
 20
24.061311792
 10
-9.5787199895
 20
24.0395493104
 10
-9.5667426085
 20
24.0170134553
 10
-9.5571444922
 20
23.9940896724
 10
-9.5500898034
 20
23.9711700419
 10
-9.5456992031
 20
23.9486465732
 10
-9.5440477865
 20
23.9269044999
  0
LINE
  5
4E0
100
AcDbEntity
  8
0
100
AcDbLine
 62
7
  6
CONTINUOUS
 10
11.2092285821
 20
24.160185409
 11
10.9648511618
 21
24.7484781671
  0
LWPOLYLINE
  5
4E1
100
AcDbEntity
  8
RACCORDO
100
AcDbPolyline
 62
7
  6
CONTINUOUS
 90
10
 70
0
 10
19.7554633408
 20
24.6667935836
 10
19.75097682
 20
24.7835961861
 10
19.7376133105
 20
24.9007720225
 10
19.7154966901
 20
25.0179560191
 10
19.6845153088
 20
25.1354765598
 10
19.6448130374
 20
25.2523425048
 10
19.5972495572
 20
25.3663226378
 10
19.5424741748
 20
25.4766023086
 10
19.4804594068
 20
25.5836521015
 10
19.4113344092
 20
25.6872775032
  0
LWPOLYLINE
  5
4E2
100
AcDbEntity
  8
SUPERFICI
100
AcDbPolyline
 62
7
  6
CONTINUOUS
 90
10
 70
0
 10
19.7554633408
 20
24.6667935836
 10
19.75097682
 20
24.7835961861
 10
19.7376133105
 20
24.9007720225
 10
19.7154966901
 20
25.0179560191
 10
19.6845153088
 20
25.1354765598
 10
19.6448130374
 20
25.2523425048
 10
19.5972495572
 20
25.3663226378
 10
19.5424741748
 20
25.4766023086
 10
19.4804594068
 20
25.5836521015
 10
19.4113344092
 20
25.6872775032
  0
LINE
  5
4E3
100
AcDbEntity
  8
RACCORDO
100
AcDbLine
 62
250
  6
CONTINUOUS
 10
19.7551404237
 20
18.9706471873
 11
19.7554633354
 21
18.9557403101
  0
LINE
  5
4E4
100
AcDbEntity
  8
SUPERFICI
100
AcDbLine
 62
250
  6
CONTINUOUS
 10
19.7551404237
 20
18.9706471873
 11
19.7554633354
 21
18.9557403101
  0
LINE
  5
4E5
100
AcDbEntity
  8
RACCORDO
100
AcDbLine
 62
7
  6
CONTINUOUS
 10
19.7554633408
 20
24.6667935836
 11
19.7554633408
 21
21.2504688754
  0
LINE
  5
4E6
100
AcDbEntity
  8
SUPERFICI
100
AcDbLine
 62
7
  6
CONTINUOUS
 10
19.7554633408
 20
24.6667935836
 11
19.7554633408
 21
21.2504688754
  0
LINE
  5
4E7
100
AcDbEntity
  8
SUPERFICI
100
AcDbLine
 62
7
  6
CONTINUOUS
 10
19.7554567663
 20
18.953517388
 11
19.7554633408
 21
-4.2846165095
  0
LINE
  5
4E8
100
AcDbEntity
  8
RACCORDO
100
AcDbLine
 62
7
  6
CONTINUOUS
 10
19.7554633377
 20
21.2498109067
 11
19.7554632104
 21
21.2490810183
  0
LINE
  5
4E9
100
AcDbEntity
  8
SUPERFICI
100
AcDbLine
 62
250
  6
CONTINUOUS
 10
19.7554633377
 20
21.2498109067
 11
19.7554632104
 21
21.2490810183
  0
LINE
  5
4EA
100
AcDbEntity
  8
RACCORDO
100
AcDbLine
 62
7
  6
CONTINUOUS
 10
19.7554633354
 20
18.9557403101
 11
19.7554633408
 21
-4.2846165095
  0
LINE
  5
4EB
100
AcDbEntity
  8
SUPERFICI
100
AcDbLine
 62
250
  6
CONTINUOUS
 10
19.7554633354
 20
18.9557403101
 11
19.7554567663
 21
18.953517388
  0
LINE
  5
4EC
100
AcDbEntity
  8
RACCORDO
100
AcDbLine
 62
250
  6
CONTINUOUS
 10
19.7554633408
 20
-4.2846165095
 11
19.7550856481
 21
-4.2995702988
  0
LINE
  5
4ED
100
AcDbEntity
  8
SUPERFICI
100
AcDbLine
 62
250
  6
CONTINUOUS
 10
19.7554633408
 20
-4.2846165095
 11
19.7550856481
 21
-4.2995702988
  0
LWPOLYLINE
  5
4EE
100
AcDbEntity
  8
RACCORDO
100
AcDbPolyline
 62
250
  6
CONTINUOUS
 90
8
 70
0
 10
19.7550856481
 20
-4.2995702988
 10
19.7500626611
 20
-4.3410841007
 10
19.739226241
 20
-4.3822309557
 10
19.722646807
 20
-4.4227434764
 10
19.7004320982
 20
-4.4623583974
 10
19.6727264739
 20
-4.5008182865
 10
19.6397099755
 20
-4.5378732173
 10
19.6015971561
 20
-4.5732823934
  0
LWPOLYLINE
  5
4EF
100
AcDbEntity
  8
SUPERFICI
100
AcDbPolyline
 62
250
  6
CONTINUOUS
 90
8
 70
0
 10
19.7550856481
 20
-4.2995702988
 10
19.7500626611
 20
-4.3410841007
 10
19.739226241
 20
-4.3822309557
 10
19.722646807
 20
-4.4227434764
 10
19.7004320982
 20
-4.4623583974
 10
19.6727264739
 20
-4.5008182865
 10
19.6397099755
 20
-4.5378732173
 10
19.6015971561
 20
-4.5732823934
  0
LWPOLYLINE
  5
4F0
100
AcDbEntity
  8
ASSI
100
AcDbPolyline
 62
7
  6
CONTINUOUS
 90
5
 70
0
 10
6.749951995
 20
-20.3782619312
 10
6.7523874365
 20
-20.3761013827
 10
6.7701538865
 20
-20.358445342
 10
6.7858492456
 20
-20.3395437625
 10
6.7999895412
 20
-20.3190045028
  0
LINE
  5
4F1
100
AcDbEntity
  8
ASSI
100
AcDbLine
 62
250
  6
CONTINUOUS
 10
6.3621418334
 20
-20.6614633898
 11
6.7840405837
 21
-20.2919105599
  0
LINE
  5
4F2
100
AcDbEntity
  8
ASSI
100
AcDbLine
 62
7
  6
CONTINUOUS
 10
6.3273709444
 20
-20.7484126662
 11
6.7500130261
 21
-20.3782087316
  0
LWPOLYLINE
  5
4F3
100
AcDbEntity
  8
ASSI
100
AcDbPolyline
 62
250
  6
CONTINUOUS
 90
7
 70
0
 10
4.9965885464
 20
-21.7668986011
 10
5.0021864564
 20
-21.762247174
 10
5.0141638225
 20
-21.7491557722
 10
5.0237619235
 20
-21.7336511263
 10
5.0308165988
 20
-21.715998423
 10
5.0352071893
 20
-21.6964995892
 10
5.0368586019
 20
-21.6754881264
  0
LINE
  5
4F4
100
AcDbEntity
  8
ASSI
100
AcDbLine
 62
7
  6
CONTINUOUS
 10
6.3227123724
 20
-20.7522306936
 11
6.3273255866
 21
-20.7484523008
  0
LINE
  5
4F5
100
AcDbEntity
  8
ASSI
100
AcDbLine
 62
250
  6
CONTINUOUS
 10
6.3621418334
 20
-20.6614633898
 11
5.0368586019
 21
-21.6754881264
  0
LINE
  5
4F6
100
AcDbEntity
  8
ASSI
100
AcDbLine
 62
7
  6
CONTINUOUS
 10
6.3226781044
 20
-20.7522569133
 11
4.9965885436
 21
-21.7668986032
  0
LWPOLYLINE
  5
4F7
100
AcDbEntity
  8
ASSI
100
AcDbPolyline
 62
250
  6
CONTINUOUS
 90
28
 70
0
 10
5.0368586019
 20
-21.6754881264
 10
5.0354170499
 20
-21.6765549489
 10
5.0339508399
 20
-21.6775225724
 10
5.0324599719
 20
-21.678390997
 10
5.0309352031
 20
-21.6791719625
 10
5.0293857763
 20
-21.6798537291
 10
5.0278394193
 20
-21.6804010765
 10
5.0262956258
 20
-21.6808097826
 10
5.0247549022
 20
-21.6810840695
 10
5.0232464957
 20
-21.6812013831
 10
5.0217712564
 20
-21.6811564299
 10
5.0203283342
 20
-21.6809545035
 10
5.0189444256
 20
-21.6805889306
 10
5.017622188
 20
-21.6800553701
 10
5.016358964
 20
-21.6793581632
 10
5.0151734782
 20
-21.6785036607
 10
5.0140680938
 20
-21.6774898065
 10
5.0130404476
 20
-21.6763186568
 10
5.0121021739
 20
-21.6750027303
 10
5.0112544414
 20
-21.6735405018
 10
5.0104960814
 20
-21.6719334966
 10
5.0098352225
 20
-21.6701988096
 10
5.0092729443
 20
-21.6683349762
 10
5.0088081672
 20
-21.6663434611
 10
5.0084457807
 20
-21.6642457534
 10
5.0081874145
 20
-21.6620490163
 10
5.008031439
 20
-21.6597460866
 10
5.007977854
 20
-21.6573369644
  0
LINE
  5
4F8
100
AcDbEntity
  8
RACCORDO
100
AcDbLine
 62
7
  6
CONTINUOUS
 10
1.1018886724
 20
-22.9685740652
 11
3.8568548682
 21
-21.1318593742
  0
LWPOLYLINE
  5
4F9
100
AcDbEntity
  8
RACCORDO
100
AcDbPolyline
 62
250
  6
CONTINUOUS
 90
22
 70
0
 10
1.2267527041
 20
-22.7223842074
 10
1.1968995724
 20
-22.7407846701
 10
1.167616815
 20
-22.7559255882
 10
1.1389044318
 20
-22.7678069619
 10
1.1106073492
 20
-22.7764653517
 10
1.0828806409
 20
-22.7818641971
 10
1.0561895277
 20
-22.7838938156
 10
1.0305635076
 20
-22.782493132
 10
1.0059730826
 20
-22.7777232216
 10
0.9827949786
 20
-22.7696576281
 10
0.9610510288
 20
-22.7582439608
 10
0.9407194001
 20
-22.7435346104
 10
0.9221113193
 20
-22.7257602924
 10
0.9052550799
 20
-22.7048744588
 10
0.8901223884
 20
-22.6809236577
 10
0.876939592
 20
-22.6542782489
 10
0.8657362789
 20
-22.6248789764
 10
0.8564828611
 20
-22.5927850963
 10
0.8493169205
 20
-22.5585447361
 10
0.8442843182
 20
-22.5223406053
 10
0.8413391932
 20
-22.4839899944
 10
0.8404815456
 20
-22.4434929035
  0
LWPOLYLINE
  5
4FA
100
AcDbEntity
  8
ASSI
100
AcDbPolyline
 62
7
  6
CONTINUOUS
 90
6
 70
0
 10
-1.5854416857
 20
22.0532268126
 10
-1.5631701838
 20
22.0591629805
 10
-1.5391502628
 20
22.0613585622
 10
-1.5137920933
 20
22.0597771016
 10
-1.4875241954
 20
22.0544498538
 10
-1.4607913798
 20
22.0454716438
  0
LWPOLYLINE
  5
4FB
100
AcDbEntity
  8
ASSI
100
AcDbPolyline
 62
7
  6
CONTINUOUS
 90
5
 70
0
 10
3.6589272963
 20
20.376912185
 10
3.6781432331
 20
20.3786686504
 10
3.6984297687
 20
20.3774034819
 10
3.719444087
 20
20.3731416837
 10
3.7408303395
 20
20.3659591157
  0
LWPOLYLINE
  5
4FC
100
AcDbEntity
  8
ASSI
100
AcDbPolyline
 62
7
  6
CONTINUOUS
 90
9
 70
0
 10
-11.2627037706
 20
24.0106056145
 10
-11.2603106365
 20
24.0102124311
 10
-11.2532204321
 20
24.0112164201
 10
-11.243053869
 20
24.0149359301
 10
-11.2302829868
 20
24.0211541773
 10
-11.2150487513
 20
24.0289469786
 10
-11.1975438383
 20
24.0380961714
 10
-11.1782086305
 20
24.0490315787
 10
-11.1573819687
 20
24.0618109834
  0
LWPOLYLINE
  5
4FD
100
AcDbEntity
  8
ASSI
100
AcDbPolyline
 62
250
  6
CONTINUOUS
 90
12
 70
0
 10
4.2719001193
 20
20.7315557046
 10
4.2650144834
 20
20.733328199
 10
4.2578305172
 20
20.7342602587
 10
4.2503753086
 20
20.7343484605
 10
4.2426738738
 20
20.7335926021
 10
4.2347545216
 20
20.7319951936
 10
4.2266451029
 20
20.729561841
 10
4.218374815
 20
20.7263013114
 10
4.2099751302
 20
20.7222259723
 10
4.2014766957
 20
20.7173511585
 10
4.1929091335
 20
20.7116945936
 10
4.1843029525
 20
20.7052769588
  0
LWPOLYLINE
  5
4FE
100
AcDbEntity
  8
ASSI
100
AcDbPolyline
 62
7
  6
CONTINUOUS
 90
6
 70
0
 10
-10.3050829447
 20
26.5861342865
 10
-10.3315941413
 20
26.594859926
 10
-10.358324769
 20
26.5999416833
 10
-10.3862188452
 20
26.6015627761
 10
-10.4145745144
 20
26.599469
 10
-10.4423993937
 20
26.5936768471
  0
LWPOLYLINE
  5
4FF
100
AcDbEntity
  8
ASSI
100
AcDbPolyline
 62
7
  6
CONTINUOUS
 90
6
 70
0
 10
4.275814247
 20
20.7301168455
 10
4.251113427
 20
20.7383674144
 10
4.2245971567
 20
20.7436604038
 10
4.1971009914
 20
20.745546102
 10
4.1692578631
 20
20.7438397682
 10
4.1418950601
 20
20.7385658991
  0
LWPOLYLINE
  5
500
100
AcDbEntity
  8
ASSI
100
AcDbPolyline
 62
7
  6
CONTINUOUS
 90
8
 70
0
 10
-10.8400760489
 20
26.2219798401
 10
-10.8614530175
 20
26.2291700129
 10
-10.8824696826
 20
26.2334298888
 10
-10.9027631552
 20
26.2346893748
 10
-10.9219825808
 20
26.2329300516
 10
-10.9397981752
 20
26.2281824337
 10
-10.9559070242
 20
26.2205256897
 10
-10.9644528498
 20
26.2147289918
  0
LWPOLYLINE
  5
501
100
AcDbEntity
  8
ASSI
100
AcDbPolyline
 62
250
  6
CONTINUOUS
 90
13
 70
0
 10
6.7104504131
 20
19.7523145822
 10
6.7053910215
 20
19.7540641759
 10
6.6986399298
 20
19.7555897295
 10
6.6916149084
 20
19.7563052004
 10
6.6843403363
 20
19.7562095665
 10
6.6768421072
 20
19.7553045685
 10
6.6691434971
 20
19.7535942337
 10
6.6612712308
 20
19.7510851011
 10
6.6532524871
 20
19.7477864028
 10
6.6451117029
 20
19.743708664
 10
6.6368757606
 20
19.7388651025
 10
6.6285740511
 20
19.7332724977
 10
6.620235127
 20
19.7269498194
  0
LWPOLYLINE
  5
502
100
AcDbEntity
  8
ASSI
100
AcDbPolyline
 62
250
  6
CONTINUOUS
 90
13
 70
0
 10
0.8694236724
 20
20.5504047417
 10
0.8915312717
 20
20.5426974628
 10
0.9151884485
 20
20.5366914981
 10
0.9399993571
 20
20.5324873448
 10
0.9655488451
 20
20.5301553512
 10
0.9914094032
 20
20.5297345394
 10
1.0171483178
 20
20.5312319526
 10
1.0423349093
 20
20.5346225379
 10
1.0665477352
 20
20.5398495638
 10
1.0893816453
 20
20.5468255692
 10
1.1104545638
 20
20.5554338278
 10
1.1294138827
 20
20.5655303014
 10
1.1459423585
 20
20.5769460497
  0
LWPOLYLINE
  5
503
100
AcDbEntity
  8
ASSI
100
AcDbPolyline
 62
250
  6
CONTINUOUS
 90
8
 70
0
 10
4.1843013883
 20
20.7052757257
 10
4.1631686767
 20
20.7126537064
 10
4.1423631692
 20
20.7170757755
 10
4.1222407159
 20
20.7184662993
 10
4.1031454842
 20
20.7168014947
 10
4.0854040724
 20
20.7121098362
 10
4.0693199232
 20
20.7044715681
 10
4.0608377888
 20
20.6987235894
  0
LWPOLYLINE
  5
504
100
AcDbEntity
  8
RACCORDO
100
AcDbPolyline
 62
7
  6
CONTINUOUS
 90
16
 70
0
 10
-0.1787255936
 20
22.7233907374
 10
-0.2049238251
 20
22.732746749
 10
-0.2320444796
 20
22.7404348886
 10
-0.2600875573
 20
22.7464551562
 10
-0.2893569829
 20
22.7508348502
 10
-0.3195488316
 20
22.7535466721
 10
-0.3497513291
 20
22.7545087268
 10
-0.3799648002
 20
22.753667635
 10
-0.41018892
 20
22.7510767759
 10
-0.4395109395
 20
22.7468143918
 10
-0.467903339
 20
22.7408294904
 10
-0.4953936383
 20
22.733173064
 10
-0.521151648
 20
22.7240763317
 10
-0.5449006384
 20
22.7136163666
 10
-0.5669173393
 20
22.7017160956
 10
-0.5872017506
 20
22.6883755187
  0
LWPOLYLINE
  5
505
100
AcDbEntity
  8
SUPERFICI
100
AcDbPolyline
 62
7
  6
CONTINUOUS
 90
16
 70
0
 10
-0.1787255936
 20
22.7233907374
 10
-0.2049238251
 20
22.732746749
 10
-0.2320444796
 20
22.7404348886
 10
-0.2600875573
 20
22.7464551562
 10
-0.2893569829
 20
22.7508348502
 10
-0.3195488316
 20
22.7535466721
 10
-0.3497513291
 20
22.7545087268
 10
-0.3799648002
 20
22.753667635
 10
-0.41018892
 20
22.7510767759
 10
-0.4395109395
 20
22.7468143918
 10
-0.467903339
 20
22.7408294904
 10
-0.4953936383
 20
22.733173064
 10
-0.521151648
 20
22.7240763317
 10
-0.5449006384
 20
22.7136163666
 10
-0.5669173393
 20
22.7017160956
 10
-0.5872017506
 20
22.6883755187
  0
LINE
  5
506
100
AcDbEntity
  8
ASSI
100
AcDbLine
 62
250
  6
CONTINUOUS
 10
4.2754256576
 20
20.7302754203
 11
4.2719001193
 21
20.7315557046
  0
LWPOLYLINE
  5
507
100
AcDbEntity
  8
ASSI
100
AcDbPolyline
 62
250
  6
CONTINUOUS
 90
17
 70
0
 10
-1.6305269547
 20
21.8967955408
 10
-1.6406167776
 20
21.9004853776
 10
-1.6509713091
 20
21.9037677415
 10
-1.6615604878
 20
21.9065896826
 10
-1.6723750897
 20
21.9089019943
 10
-1.6833496535
 20
21.9106418063
 10
-1.694365771
 20
21.911747888
 10
-1.7053788514
 20
21.9121788872
 10
-1.7163402109
 20
21.9118946888
 10
-1.7271288092
 20
21.910865608
 10
-1.7376973126
 20
21.909069826
 10
-1.747995932
 20
21.9064883989
 10
-1.7579113842
 20
21.9031293262
 10
-1.767396278
 20
21.8989970807
 10
-1.7764155432
 20
21.8940948022
 10
-1.7848908984
 20
21.8884583661
 10
-1.7922163347
 20
21.8826120744
  0
LINE
  5
508
100
AcDbEntity
  8
ASSI
100
AcDbLine
 62
250
  6
CONTINUOUS
 10
-5.9310751873
 20
23.6239926645
 11
-3.3593626949
 21
22.5911349497
  0
LINE
  5
509
100
AcDbEntity
  8
ASSI
100
AcDbLine
 62
250
  6
CONTINUOUS
 10
0.9411855376
 20
20.8639378259
 11
-1.6305269547
 21
21.8967955408
  0
LINE
  5
50A
100
AcDbEntity
  8
ASSI
100
AcDbLine
 62
7
  6
CONTINUOUS
 10
-5.7613396123
 20
23.7726687676
 11
-3.1809482924
 21
22.7363254399
  0
LINE
  5
50B
100
AcDbEntity
  8
ASSI
100
AcDbLine
 62
7
  6
CONTINUOUS
 10
-1.4607913798
 20
22.0454716438
 11
1.1195999401
 21
21.0091283162
  0
LINE
  5
50C
100
AcDbEntity
  8
ASSI
100
AcDbLine
 62
7
  6
CONTINUOUS
 10
-10.8400760489
 20
26.2219798401
 11
-8.3825700117
 21
25.2349900124
  0
LINE
  5
50D
100
AcDbEntity
  8
ASSI
100
AcDbLine
 62
7
  6
CONTINUOUS
 10
3.7408303395
 20
20.3659591157
 11
6.1983363767
 21
19.378969288
  0
LINE
  5
50E
100
AcDbEntity
  8
ASSI
100
AcDbLine
 62
7
  6
CONTINUOUS
 10
1.3703855466
 20
21.5533004372
 11
-0.9080702544
 21
22.4683796534
  0
LINE
  5
50F
100
AcDbEntity
  8
ASSI
100
AcDbLine
 62
7
  6
CONTINUOUS
 10
-2.6551138491
 20
23.1700317472
 11
-4.93356965
 21
24.0851109635
  0
LINE
  5
510
100
AcDbEntity
  8
ASSI
100
AcDbLine
 62
250
  6
CONTINUOUS
 10
6.620235127
 20
19.7269498194
 11
4.1843029836
 21
20.7052769463
  0
LINE
  5
511
100
AcDbEntity
  8
ASSI
100
AcDbLine
 62
250
  6
CONTINUOUS
 10
-7.9606712614
 20
25.5829705438
 11
-10.3966050001
 21
26.5612964501
  0
LINE
  5
512
100
AcDbEntity
  8
ASSI
100
AcDbLine
 62
7
  6
CONTINUOUS
 10
6.7104529972
 20
19.7523135444
 11
4.2754220567
 21
20.7302768666
  0
LINE
  5
513
100
AcDbEntity
  8
RACCORDO
100
AcDbLine
 62
7
  6
CONTINUOUS
 10
0.404715515
 20
22.4890676348
 11
-0.1787255936
 21
22.7233907374
  0
LINE
  5
514
100
AcDbEntity
  8
SUPERFICI
100
AcDbLine
 62
7
  6
CONTINUOUS
 10
0.404715515
 20
22.4890676348
 11
-0.1787255936
 21
22.7233907374
  0
LINE
  5
515
100
AcDbEntity
  8
RACCORDO
100
AcDbLine
 62
250
  6
CONTINUOUS
 10
-0.1787255936
 20
23.6527933037
 11
0.69985387
 21
23.299935984
  0
LINE
  5
516
100
AcDbEntity
  8
SUPERFICI
100
AcDbLine
 62
250
  6
CONTINUOUS
 10
-0.1787255936
 20
23.6527933037
 11
0.69985387
 21
23.299935984
  0
LINE
  5
517
100
AcDbEntity
  8
RACCORDO
100
AcDbLine
 62
250
  6
CONTINUOUS
 10
2.1149001304
 20
22.7316215043
 11
2.5092318577
 21
22.5732489926
  0
LINE
  5
518
100
AcDbEntity
  8
SUPERFICI
100
AcDbLine
 62
250
  6
CONTINUOUS
 10
2.1149001304
 20
22.7316215043
 11
2.5092318577
 21
22.5732489926
  0
LINE
  5
519
100
AcDbEntity
  8
ASSI
100
AcDbLine
 62
7
  6
CONTINUOUS
 10
-10.3054845427
 20
26.5862976757
 11
-7.8703642936
 21
25.6082983935
  0
LWPOLYLINE
  5
51A
100
AcDbEntity
  8
ASSI
100
AcDbPolyline
 62
250
  6
CONTINUOUS
 90
13
 70
0
 10
-7.9606712614
 20
25.5829705438
 10
-7.9390503832
 20
25.5731777158
 10
-7.9178335487
 20
25.5607226557
 10
-7.8973836437
 20
25.5458183925
 10
-7.8780504357
 20
25.5287198448
 10
-7.8601645935
 20
25.5097194623
 10
-7.8440320309
 20
25.4891422242
 10
-7.8299286729
 20
25.4673400789
 10
-7.8180957355
 20
25.4446859225
 10
-7.8087356023
 20
25.4215672223
 10
-7.8020083637
 20
25.3983793917
 10
-7.7980290784
 20
25.375519027
 10
-7.7968658047
 20
25.3533771228
  0
LWPOLYLINE
  5
51B
100
AcDbEntity
  8
RACCORDO
100
AcDbPolyline
 62
250
  6
CONTINUOUS
 90
16
 70
0
 10
0.7829493388
 20
23.5254877038
 10
0.8224828515
 20
23.5072102188
 10
0.8582350688
 20
23.4860344915
 10
0.8902059906
 20
23.4619605218
 10
0.9186689312
 20
23.434734962
 10
0.9433505764
 20
23.4046111598
 10
0.9634309831
 20
23.3723491585
 10
0.9788105529
 20
23.3378567402
 10
0.9895888843
 20
23.3012261229
 10
0.9952448291
 20
23.2634940035
 10
0.9956188534
 20
23.2245893063
 10
0.9908704913
 20
23.184583107
 10
0.9809571963
 20
23.1447253301
 10
0.9658647866
 20
23.1054326171
 10
0.945607444
 20
23.0662883265
 10
0.9201851687
 20
23.0272924584
  0
LWPOLYLINE
  5
51C
100
AcDbEntity
  8
SUPERFICI
100
AcDbPolyline
 62
250
  6
CONTINUOUS
 90
16
 70
0
 10
0.7829493388
 20
23.5254877038
 10
0.8224828515
 20
23.5072102188
 10
0.8582350688
 20
23.4860344915
 10
0.8902059906
 20
23.4619605218
 10
0.9186689312
 20
23.434734962
 10
0.9433505764
 20
23.4046111598
 10
0.9634309831
 20
23.3723491585
 10
0.9788105529
 20
23.3378567402
 10
0.9895888843
 20
23.3012261229
 10
0.9952448291
 20
23.2634940035
 10
0.9956188534
 20
23.2245893063
 10
0.9908704913
 20
23.184583107
 10
0.9809571963
 20
23.1447253301
 10
0.9658647866
 20
23.1054326171
 10
0.945607444
 20
23.0662883265
 10
0.9201851687
 20
23.0272924584
  0
LWPOLYLINE
  5
51D
100
AcDbEntity
  8
ASSI
100
AcDbPolyline
 62
7
  6
CONTINUOUS
 90
13
 70
0
 10
6.1983363767
 20
19.378969288
 10
6.2197133454
 20
19.3689771823
 10
6.2407300105
 20
19.35635839
 10
6.2610234831
 20
19.3413257123
 10
6.2802429087
 20
19.3241327389
 10
6.2980585031
 20
19.3050728704
 10
6.314167352
 20
19.2844744755
 10
6.3282958623
 20
19.2626915061
 10
6.340200409
 20
19.2400949548
 10
6.3496748129
 20
19.2170700098
 10
6.3565579403
 20
19.1940113523
 10
6.3607362251
 20
19.1713163348
 10
6.3621418334
 20
19.1493758669
  0
LWPOLYLINE
  5
51E
100
AcDbEntity
  8
RACCORDO
100
AcDbPolyline
 62
250
  6
CONTINUOUS
 90
11
 70
0
 10
0.69985387
 20
23.299935984
 10
0.7232442811
 20
23.2889131816
 10
0.7447815512
 20
23.2754780803
 10
0.7642395629
 20
23.25973628
 10
0.7813991846
 20
23.2417801754
 10
0.7960868242
 20
23.2217684933
 10
0.8081590277
 20
23.1999194626
 10
0.8174623868
 20
23.1763390534
 10
0.8238558406
 20
23.151228642
 10
0.8272344505
 20
23.1249598452
 10
0.8277805896
 20
23.1093383797
  0
LWPOLYLINE
  5
51F
100
AcDbEntity
  8
SUPERFICI
100
AcDbPolyline
 62
250
  6
CONTINUOUS
 90
11
 70
0
 10
0.69985387
 20
23.299935984
 10
0.7232442811
 20
23.2889131816
 10
0.7447815512
 20
23.2754780803
 10
0.7642395629
 20
23.25973628
 10
0.7813991846
 20
23.2417801754
 10
0.7960868242
 20
23.2217684933
 10
0.8081590277
 20
23.1999194626
 10
0.8174623868
 20
23.1763390534
 10
0.8238558406
 20
23.151228642
 10
0.8272344505
 20
23.1249598452
 10
0.8277805896
 20
23.1093383797
  0
LWPOLYLINE
  5
520
100
AcDbEntity
  8
RACCORDO
100
AcDbPolyline
 62
250
  6
CONTINUOUS
 90
13
 70
0
 10
-0.7764237198
 20
23.7086888372
 10
-0.7557128569
 20
23.6982024252
 10
-0.7348188962
 20
23.6856818027
 10
-0.7140928341
 20
23.6713373482
 10
-0.6938828379
 20
23.6554100735
 10
-0.6745283818
 20
23.6381675622
 10
-0.6563545472
 20
23.6198994696
 10
-0.6396665988
 20
23.6009126934
 10
-0.6247448073
 20
23.5815261659
 10
-0.6118397465
 20
23.5620654804
 10
-0.6011681498
 20
23.542857504
 10
-0.5929092531
 20
23.524224889
 10
-0.5872017492
 20
23.506480598
  0
LWPOLYLINE
  5
521
100
AcDbEntity
  8
SUPERFICI
100
AcDbPolyline
 62
250
  6
CONTINUOUS
 90
13
 70
0
 10
-0.7764237198
 20
23.7086888372
 10
-0.7557128569
 20
23.6982024252
 10
-0.7348188962
 20
23.6856818027
 10
-0.7140928341
 20
23.6713373482
 10
-0.6938828379
 20
23.6554100735
 10
-0.6745283818
 20
23.6381675622
 10
-0.6563545472
 20
23.6198994696
 10
-0.6396665988
 20
23.6009126934
 10
-0.6247448073
 20
23.5815261659
 10
-0.6118397465
 20
23.5620654804
 10
-0.6011681498
 20
23.542857504
 10
-0.5929092531
 20
23.524224889
 10
-0.5872017492
 20
23.506480598
  0
LWPOLYLINE
  5
522
100
AcDbEntity
  8
RACCORDO
100
AcDbPolyline
 62
250
  6
CONTINUOUS
 90
13
 70
0
 10
1.5172020042
 20
22.7875170378
 10
1.5379128671
 20
22.7770306259
 10
1.5588068278
 20
22.7645100034
 10
1.5795328899
 20
22.7501655489
 10
1.5997428861
 20
22.7342382742
 10
1.6190973422
 20
22.7169957628
 10
1.6372711769
 20
22.6987276703
 10
1.6539591252
 20
22.679740894
 10
1.6688809167
 20
22.6603543665
 10
1.6817859776
 20
22.6408936811
 10
1.6924575742
 20
22.6216857047
 10
1.7007164709
 20
22.6030530897
 10
1.7064239748
 20
22.5853087986
  0
LWPOLYLINE
  5
523
100
AcDbEntity
  8
SUPERFICI
100
AcDbPolyline
 62
250
  6
CONTINUOUS
 90
13
 70
0
 10
1.5172020042
 20
22.7875170378
 10
1.5379128671
 20
22.7770306259
 10
1.5588068278
 20
22.7645100034
 10
1.5795328899
 20
22.7501655489
 10
1.5997428861
 20
22.7342382742
 10
1.6190973422
 20
22.7169957628
 10
1.6372711769
 20
22.6987276703
 10
1.6539591252
 20
22.679740894
 10
1.6688809167
 20
22.6603543665
 10
1.6817859776
 20
22.6408936811
 10
1.6924575742
 20
22.6216857047
 10
1.7007164709
 20
22.6030530897
 10
1.7064239748
 20
22.5853087986
  0
LINE
  5
524
100
AcDbEntity
  8
0
100
AcDbLine
 62
250
  6
CONTINUOUS
 10
9.5586830898
 20
26.5225328854
 11
10.037707232
 21
25.5090112566
  0
LINE
  5
525
100
AcDbEntity
  8
SUPERFICI
100
AcDbLine
 62
250
  6
CONTINUOUS
 10
9.5586830898
 20
26.5225328854
 11
10.037707232
 21
25.5090112566
  0
LINE
  5
526
100
AcDbEntity
  8
RACCORDO
100
AcDbLine
 62
7
  6
CONTINUOUS
 10
-1.0698521599
 20
24.4849266456
 11
-1.0602437819
 21
24.4863480184
  0
LINE
  5
527
100
AcDbEntity
  8
SUPERFICI
100
AcDbLine
 62
7
  6
CONTINUOUS
 10
-1.0698521599
 20
24.4849266456
 11
-1.0602437819
 21
24.4863480184
  0
LWPOLYLINE
  5
528
100
AcDbEntity
  8
ASSI
100
AcDbPolyline
 62
7
  6
CONTINUOUS
 90
5
 70
0
 10
4.1339939688
 20
23.7612214094
 10
4.0914786829
 20
23.7572353886
 10
4.0492882714
 20
23.7492751554
 10
4.0092156085
 20
23.7376388675
 10
3.9714614006
 20
23.7224503344
  0
LWPOLYLINE
  5
529
100
AcDbEntity
  8
ASSI
100
AcDbPolyline
 62
250
  6
CONTINUOUS
 90
11
 70
0
 10
-9.7230400827
 20
23.4066390107
 10
-9.711288188
 20
23.4069286351
 10
-9.6890455087
 20
23.4100544365
 10
-9.6673272091
 20
23.4165062605
 10
-9.6465007858
 20
23.426174932
 10
-9.6269186423
 20
23.4388968433
 10
-9.6089121242
 20
23.4544567248
 10
-9.5927859158
 20
23.4725912872
 10
-9.5788128854
 20
23.4929936755
 10
-9.5672294684
 20
23.51531866
 10
-9.5582316647
 20
23.53918848
  0
LINE
  5
52A
100
AcDbEntity
  8
ASSI
100
AcDbLine
 62
7
  6
CONTINUOUS
 10
-10.1440268671
 20
23.1719001963
 11
-10.5874979159
 21
23.178564152
  0
LINE
  5
52B
100
AcDbEntity
  8
ASSI
100
AcDbLine
 62
250
  6
CONTINUOUS
 10
-8.956172998
 20
23.5301414581
 11
-9.5582316647
 21
23.53918848
  0
LINE
  5
52C
100
AcDbEntity
  8
ASSI
100
AcDbLine
 62
7
  6
CONTINUOUS
 10
-9.7234077842
 20
23.4066449926
 11
-9.1954353389
 21
23.3987107939
  0
LWPOLYLINE
  5
52D
100
AcDbEntity
  8
ASSI
100
AcDbPolyline
 62
250
  6
CONTINUOUS
 90
19
 70
0
 10
-9.5582316647
 20
23.53918848
 10
-9.5594908733
 20
23.5392502397
 10
-9.5607295372
 20
23.5394538947
 10
-9.5619476563
 20
23.5397994451
 10
-9.5631552241
 20
23.5402809232
 10
-9.5643422471
 20
23.5409042966
 10
-9.5654787451
 20
23.5416874681
 10
-9.5665637729
 20
23.5426357191
 10
-9.5675982757
 20
23.5437437683
 10
-9.5685551091
 20
23.5450136746
 10
-9.5694321293
 20
23.546451108
 10
-9.57023148
 20
23.5480503986
 10
-9.5709324477
 20
23.5497965957
 10
-9.5715319145
 20
23.5516948159
 10
-9.5720329983
 20
23.5537399427
 10
-9.5724243383
 20
23.5559016756
 10
-9.5727021475
 20
23.5581699143
 10
-9.5728702128
 20
23.560554759
 10
-9.5729285344
 20
23.5630562098
  0
LWPOLYLINE
  5
52E
100
AcDbEntity
  8
RACCORDO
100
AcDbPolyline
 62
7
  6
CONTINUOUS
 90
3
 70
0
 10
-0.0455737254
 20
24.7385575917
 10
-0.0361567318
 20
24.7369859466
 10
-0.0275754718
 20
24.7351462986
  0
LWPOLYLINE
  5
52F
100
AcDbEntity
  8
SUPERFICI
100
AcDbPolyline
 62
7
  6
CONTINUOUS
 90
3
 70
0
 10
-0.0455737254
 20
24.7385575917
 10
-0.0361567318
 20
24.7369859466
 10
-0.0275754718
 20
24.7351462986
  0
LWPOLYLINE
  5
530
100
AcDbEntity
  8
RACCORDO
100
AcDbPolyline
 62
250
  6
CONTINUOUS
 90
3
 70
0
 10
-0.2305740486
 20
23.6671464775
 10
-0.2039168492
 20
23.6612572731
 10
-0.1787255936
 20
23.6527933037
  0
LWPOLYLINE
  5
531
100
AcDbEntity
  8
SUPERFICI
100
AcDbPolyline
 62
250
  6
CONTINUOUS
 90
3
 70
0
 10
-0.2305740486
 20
23.6671464775
 10
-0.2039168492
 20
23.6612572731
 10
-0.1787255936
 20
23.6527933037
  0
LWPOLYLINE
  5
532
100
AcDbEntity
  8
ASSI
100
AcDbPolyline
 62
250
  6
CONTINUOUS
 90
3
 70
0
 10
-10.3157653762
 20
26.5893244456
 10
-10.3089378039
 20
26.5875540919
 10
-10.3054997539
 20
26.5863037819
  0
LWPOLYLINE
  5
533
100
AcDbEntity
  8
RACCORDO
100
AcDbPolyline
 62
7
  6
CONTINUOUS
 90
5
 70
0
 10
-0.0275754718
 20
24.7351462986
 10
-0.0190804119
 20
24.7329311696
 10
-0.0106837826
 20
24.7303430537
 10
-0.0024017617
 20
24.7273859023
 10
0.0007666714
 20
24.7261444199
  0
LWPOLYLINE
  5
534
100
AcDbEntity
  8
SUPERFICI
100
AcDbPolyline
 62
7
  6
CONTINUOUS
 90
5
 70
0
 10
-0.0275754718
 20
24.7351462986
 10
-0.0190804119
 20
24.7329311696
 10
-0.0106837826
 20
24.7303430537
 10
-0.0024017617
 20
24.7273859023
 10
0.0007666714
 20
24.7261444199
  0
LWPOLYLINE
  5
535
100
AcDbEntity
  8
RACCORDO
100
AcDbPolyline
 62
250
  6
CONTINUOUS
 90
9
 70
0
 10
0.9201851687
 20
23.0272924584
 10
0.8985711355
 20
23.0338048043
 10
0.8778513181
 20
23.0379974508
 10
0.8583737652
 20
23.0397999703
 10
0.8404656585
 20
23.0391820843
 10
0.824427816
 20
23.036154172
 10
0.8105296396
 20
23.0307670959
 10
0.7990045889
 20
23.0231113473
 10
0.7907103598
 20
23.0142363397
  0
LWPOLYLINE
  5
536
100
AcDbEntity
  8
SUPERFICI
100
AcDbPolyline
 62
250
  6
CONTINUOUS
 90
9
 70
0
 10
0.9201851687
 20
23.0272924584
 10
0.8985711355
 20
23.0338048043
 10
0.8778513181
 20
23.0379974508
 10
0.8583737652
 20
23.0397999703
 10
0.8404656585
 20
23.0391820843
 10
0.824427816
 20
23.036154172
 10
0.8105296396
 20
23.0307670959
 10
0.7990045889
 20
23.0231113473
 10
0.7907103598
 20
23.0142363397
  0
LINE
  5
537
100
AcDbEntity
  8
RACCORDO
100
AcDbLine
 62
250
  6
CONTINUOUS
 10
-0.0040123376
 20
24.7277552784
 11
0.0007609986
 21
24.7261466991
  0
LINE
  5
538
100
AcDbEntity
  8
SUPERFICI
100
AcDbLine
 62
250
  6
CONTINUOUS
 10
-0.0040123376
 20
24.7277552784
 11
0.0007609986
 21
24.7261466991
  0
LWPOLYLINE
  5
539
100
AcDbEntity
  8
ASSI
100
AcDbPolyline
 62
250
  6
CONTINUOUS
 90
8
 70
0
 10
-2.4524453433
 20
26.3044299487
 10
-2.4788612327
 20
26.3136524247
 10
-2.504868117
 20
26.319180011
 10
-2.5300211834
 20
26.3209181659
 10
-2.5538902227
 20
26.3188371605
 10
-2.5760669871
 20
26.3129725877
 10
-2.596172173
 20
26.3034247529
 10
-2.606713702
 20
26.2962864298
  0
LINE
  5
53A
100
AcDbEntity
  8
RACCORDO
100
AcDbLine
 62
250
  6
CONTINUOUS
 10
-0.0956301248
 20
23.8783450235
 11
0.7829493388
 21
23.5254877038
  0
LINE
  5
53B
100
AcDbEntity
  8
SUPERFICI
100
AcDbLine
 62
250
  6
CONTINUOUS
 10
-0.0956301248
 20
23.8783450235
 11
0.7829493388
 21
23.5254877038
  0
LINE
  5
53C
100
AcDbEntity
  8
RACCORDO
100
AcDbLine
 62
250
  6
CONTINUOUS
 10
2.1979955992
 20
22.9571732241
 11
2.7256106196
 21
22.7452711371
  0
LINE
  5
53D
100
AcDbEntity
  8
SUPERFICI
100
AcDbLine
 62
250
  6
CONTINUOUS
 10
2.1979955992
 20
22.9571732241
 11
2.7256106196
 21
22.7452711371
  0
LINE
  5
53E
100
AcDbEntity
  8
RACCORDO
100
AcDbLine
 62
7
  6
CONTINUOUS
 10
-0.984478966
 20
24.4738953343
 11
2.9249781066
 21
22.9037692373
  0
LINE
  5
53F
100
AcDbEntity
  8
SUPERFICI
100
AcDbLine
 62
7
  6
CONTINUOUS
 10
-0.984478966
 20
24.4738953343
 11
2.9249781066
 21
22.9037692373
  0
LINE
  5
540
100
AcDbEntity
  8
RACCORDO
100
AcDbLine
 62
250
  6
CONTINUOUS
 10
3.4242687982
 20
23.3007077111
 11
-0.0727783332
 21
24.7052006782
  0
LINE
  5
541
100
AcDbEntity
  8
SUPERFICI
100
AcDbLine
 62
250
  6
CONTINUOUS
 10
3.4242687982
 20
23.3007077111
 11
-0.0727783332
 21
24.7052006782
  0
LINE
  5
542
100
AcDbEntity
  8
RACCORDO
100
AcDbLine
 62
7
  6
CONTINUOUS
 10
3.466454928
 20
23.3342458849
 11
0.0007582575
 21
24.7261478001
  0
LINE
  5
543
100
AcDbEntity
  8
SUPERFICI
100
AcDbLine
 62
7
  6
CONTINUOUS
 10
3.466454928
 20
23.3342458849
 11
0.0007582575
 21
24.7261478001
  0
LINE
  5
544
100
AcDbEntity
  8
ASSI
100
AcDbLine
 62
7
  6
CONTINUOUS
 10
3.9296245393
 20
23.6993609297
 11
0.2660064246
 21
25.1707525589
  0
LINE
  5
545
100
AcDbEntity
  8
ASSI
100
AcDbLine
 62
7
  6
CONTINUOUS
 10
5.3816545274
 20
24.0844079047
 11
0.6324656717
 21
25.9917892171
  0
LWPOLYLINE
  5
546
100
AcDbEntity
  8
ASSI
100
AcDbPolyline
 62
250
  6
CONTINUOUS
 90
13
 70
0
 10
-2.2439845787
 20
26.2191448113
 10
-2.217728403
 20
26.2068707396
 10
-2.1919476546
 20
26.1913782757
 10
-2.1670688646
 20
26.1729235999
 10
-2.1435036926
 20
26.1518119387
 10
-2.1216420419
 20
26.1283924575
 10
-2.1018456258
 20
26.1030524657
 10
-2.0844420466
 20
26.0762110687
 10
-2.0697194376
 20
26.048312384
 10
-2.0579215891
 20
26.0198181321
 10
-2.0492438305
 20
25.9911998349
 10
-2.0438298389
 20
25.9629310024
 10
-2.041769313
 20
25.9354794327
  0
LINE
  5
547
100
AcDbEntity
  8
DRAFT
100
AcDbLine
 62
7
  6
CONTINUOUS
 10
12.5833226017
 20
21.2122539239
 11
11.7113596762
 21
22.4344168183
  0
LINE
  5
548
100
AcDbEntity
  8
SUPERFICI
100
AcDbLine
 62
7
  6
CONTINUOUS
 10
12.5833226017
 20
21.2122539239
 11
11.7113596762
 21
22.4344168183
  0
LINE
  5
549
100
AcDbEntity
  8
RACCORDO
100
AcDbLine
 62
7
  6
CONTINUOUS
 10
13.2693789809
 20
28.2373750677
 11
13.2799388381
 21
28.2148444783
  0
LINE
  5
54A
100
AcDbEntity
  8
SUPERFICI
100
AcDbLine
 62
7
  6
CONTINUOUS
 10
13.2693789809
 20
28.2373750677
 11
13.2799388381
 21
28.2148444783
  0
LWPOLYLINE
  5
54B
100
AcDbEntity
  8
RACCORDO
100
AcDbPolyline
 62
250
  6
CONTINUOUS
 90
29
 70
0
 10
19.7554633408
 20
21.8524661778
 10
19.7649029433
 20
21.8099653042
 10
19.7769603191
 20
21.7483437805
 10
19.787060121
 20
21.6883137053
 10
19.7955598898
 20
21.6295902803
 10
19.802562327
 20
21.572130397
 10
19.8080808957
 20
21.5160330168
 10
19.8123145873
 20
21.4612168327
 10
19.815334589
 20
21.407669721
 10
19.8171687042
 20
21.3554423886
 10
19.8179408385
 20
21.3045435332
 10
19.8177114565
 20
21.2550016071
 10
19.8165096564
 20
21.2068153315
 10
19.814406746
 20
21.1599461091
 10
19.8114615022
 20
21.114413332
 10
19.8076938816
 20
21.0702157289
 10
19.8031122748
 20
21.0272813722
 10
19.7977680988
 20
20.9855745946
 10
19.7916781926
 20
20.9451423353
 10
19.7847983036
 20
20.9060349477
 10
19.7771720981
 20
20.8682036443
 10
19.7688195905
 20
20.8317042599
 10
19.7596656332
 20
20.7967433647
 10
19.7497497745
 20
20.763285347
 10
19.7390934755
 20
20.7313708359
 10
19.7276009877
 20
20.701320887
 10
19.7152603679
 20
20.6732444558
 10
19.7021373454
 20
20.6470381578
 10
19.6882522661
 20
20.6227051124
  0
LWPOLYLINE
  5
54C
100
AcDbEntity
  8
SUPERFICI
100
AcDbPolyline
 62
250
  6
CONTINUOUS
 90
29
 70
0
 10
19.7554633408
 20
21.8524661778
 10
19.7649029433
 20
21.8099653042
 10
19.7769603191
 20
21.7483437805
 10
19.787060121
 20
21.6883137053
 10
19.7955598898
 20
21.6295902803
 10
19.802562327
 20
21.572130397
 10
19.8080808957
 20
21.5160330168
 10
19.8123145873
 20
21.4612168327
 10
19.815334589
 20
21.407669721
 10
19.8171687042
 20
21.3554423886
 10
19.8179408385
 20
21.3045435332
 10
19.8177114565
 20
21.2550016071
 10
19.8165096564
 20
21.2068153315
 10
19.814406746
 20
21.1599461091
 10
19.8114615022
 20
21.114413332
 10
19.8076938816
 20
21.0702157289
 10
19.8031122748
 20
21.0272813722
 10
19.7977680988
 20
20.9855745946
 10
19.7916781926
 20
20.9451423353
 10
19.7847983036
 20
20.9060349477
 10
19.7771720981
 20
20.8682036443
 10
19.7688195905
 20
20.8317042599
 10
19.7596656332
 20
20.7967433647
 10
19.7497497745
 20
20.763285347
 10
19.7390934755
 20
20.7313708359
 10
19.7276009877
 20
20.701320887
 10
19.7152603679
 20
20.6732444558
 10
19.7021373454
 20
20.6470381578
 10
19.6882522661
 20
20.6227051124
  0
LWPOLYLINE
  5
54D
100
AcDbEntity
  8
ASSI
100
AcDbPolyline
 62
7
  6
CONTINUOUS
 90
6
 70
0
 10
-5.8859899182
 20
23.7804239363
 10
-5.8637184163
 20
23.7863601042
 10
-5.8396984953
 20
23.788555686
 10
-5.8143403258
 20
23.7869742254
 10
-5.7880724279
 20
23.7816469776
 10
-5.7613396123
 20
23.7726687676
  0
LWPOLYLINE
  5
54E
100
AcDbEntity
  8
RACCORDO
100
AcDbPolyline
 62
7
  6
CONTINUOUS
 90
5
 70
0
 10
-0.9520383192
 20
24.5737259562
 10
-0.9334783408
 20
24.5749675244
 10
-0.9139055872
 20
24.5731455486
 10
-0.893669438
 20
24.5682809037
 10
-0.873125204
 20
24.5604506259
  0
LWPOLYLINE
  5
54F
100
AcDbEntity
  8
SUPERFICI
100
AcDbPolyline
 62
7
  6
CONTINUOUS
 90
5
 70
0
 10
-0.9520383192
 20
24.5737259562
 10
-0.9334783408
 20
24.5749675244
 10
-0.9139055872
 20
24.5731455486
 10
-0.893669438
 20
24.5682809037
 10
-0.873125204
 20
24.5604506259
  0
LWPOLYLINE
  5
550
100
AcDbEntity
  8
ASSI
100
AcDbPolyline
 62
7
  6
CONTINUOUS
 90
5
 70
0
 10
-2.362925218
 20
26.3763273854
 10
-2.4045092125
 20
26.373659004
 10
-2.4459717147
 20
26.3672271921
 10
-2.4856501469
 20
26.3572551009
 10
-2.5233930904
 20
26.3438297871
  0
LWPOLYLINE
  5
551
100
AcDbEntity
  8
RACCORDO
100
AcDbPolyline
 62
7
  6
CONTINUOUS
 90
7
 70
0
 10
-1.0602437819
 20
24.4863480184
 10
-1.0497623641
 20
24.4869527918
 10
-1.0384291107
 20
24.4866447395
 10
-1.0262766937
 20
24.4853000857
 10
-1.0133358699
 20
24.4828226379
 10
-0.9996378612
 20
24.4791465626
 10
-0.985242243
 20
24.4742018835
  0
LWPOLYLINE
  5
552
100
AcDbEntity
  8
SUPERFICI
100
AcDbPolyline
 62
7
  6
CONTINUOUS
 90
7
 70
0
 10
-1.0602437819
 20
24.4863480184
 10
-1.0497623641
 20
24.4869527918
 10
-1.0384291107
 20
24.4866447395
 10
-1.0262766937
 20
24.4853000857
 10
-1.0133358699
 20
24.4828226379
 10
-0.9996378612
 20
24.4791465626
 10
-0.985242243
 20
24.4742018835
  0
LWPOLYLINE
  5
553
100
AcDbEntity
  8
RACCORDO
100
AcDbPolyline
 62
7
  6
CONTINUOUS
 90
10
 70
0
 10
-0.1292512723
 20
24.7481668298
 10
-0.2137987634
 20
24.7533147416
 10
-0.2986688323
 20
24.7539880188
 10
-0.3832726485
 20
24.7501855858
 10
-0.4671043779
 20
24.7419141646
 10
-0.5497691067
 20
24.7291605255
 10
-0.6308429969
 20
24.7118908717
 10
-0.7096482903
 20
24.6901224018
 10
-0.7855138555
 20
24.6639052697
 10
-0.8579234482
 20
24.6332568618
  0
LWPOLYLINE
  5
554
100
AcDbEntity
  8
SUPERFICI
100
AcDbPolyline
 62
7
  6
CONTINUOUS
 90
10
 70
0
 10
-0.1292512723
 20
24.7481668298
 10
-0.2137987634
 20
24.7533147416
 10
-0.2986688323
 20
24.7539880188
 10
-0.3832726485
 20
24.7501855858
 10
-0.4671043779
 20
24.7419141646
 10
-0.5497691067
 20
24.7291605255
 10
-0.6308429969
 20
24.7118908717
 10
-0.7096482903
 20
24.6901224018
 10
-0.7855138555
 20
24.6639052697
 10
-0.8579234482
 20
24.6332568618
  0
LWPOLYLINE
  5
555
100
AcDbEntity
  8
RACCORDO
100
AcDbPolyline
 62
250
  6
CONTINUOUS
 90
13
 70
0
 10
-0.0727783332
 20
24.7052006782
 10
-0.1460759172
 20
24.713549758
 10
-0.219213261
 20
24.718048904
 10
-0.2921903646
 20
24.718698116
 10
-0.3656577152
 20
24.7154417529
 10
-0.4389648255
 20
24.7083354559
 10
-0.5101602344
 20
24.6975461486
 10
-0.5791845225
 20
24.6829572618
 10
-0.6460971091
 20
24.6646853648
 10
-0.709124791
 20
24.6432470895
 10
-0.7676765001
 20
24.6188146465
 10
-0.8223433045
 20
24.5912158253
 10
-0.873125204
 20
24.5604506259
  0
LWPOLYLINE
  5
556
100
AcDbEntity
  8
SUPERFICI
100
AcDbPolyline
 62
250
  6
CONTINUOUS
 90
13
 70
0
 10
-0.0727783332
 20
24.7052006782
 10
-0.1460759172
 20
24.713549758
 10
-0.219213261
 20
24.718048904
 10
-0.2921903646
 20
24.718698116
 10
-0.3656577152
 20
24.7154417529
 10
-0.4389648255
 20
24.7083354559
 10
-0.5101602344
 20
24.6975461486
 10
-0.5791845225
 20
24.6829572618
 10
-0.6460971091
 20
24.6646853648
 10
-0.709124791
 20
24.6432470895
 10
-0.7676765001
 20
24.6188146465
 10
-0.8223433045
 20
24.5912158253
 10
-0.873125204
 20
24.5604506259
  0
LINE
  5
557
100
AcDbEntity
  8
RACCORDO
100
AcDbLine
 62
7
  6
CONTINUOUS
 10
-0.0455709003
 20
24.7385571898
 11
-0.1292512723
 21
24.7481668298
  0
LINE
  5
558
100
AcDbEntity
  8
SUPERFICI
100
AcDbLine
 62
7
  6
CONTINUOUS
 10
-0.0455709003
 20
24.7385571898
 11
-0.1292512723
 21
24.7481668298
  0
LINE
  5
559
100
AcDbEntity
  8
0
100
AcDbLine
 62
7
  6
CONTINUOUS
 10
12.2690381314
 20
24.3268055893
 11
11.7838435233
 21
24.4195523709
  0
LWPOLYLINE
  5
55A
100
AcDbEntity
  8
ASSI
100
AcDbPolyline
 62
250
  6
CONTINUOUS
 90
3
 70
0
 10
6.9941471796
 20
25.1373145427
 10
7.0275045963
 20
25.1287845284
 10
7.0379556827
 20
25.1249007881
  0
LWPOLYLINE
  5
55B
100
AcDbEntity
  8
ASSI
100
AcDbPolyline
 62
7
  6
CONTINUOUS
 90
8
 70
0
 10
7.038970654
 20
25.1244861912
 10
6.9969677959
 20
25.1386389826
 10
6.9527055725
 20
25.1478303105
 10
6.9061340865
 20
25.1517811696
 10
6.8577933369
 20
25.150132826
 10
6.8084723039
 20
25.1427108581
 10
6.7585179777
 20
25.129455974
 10
6.7079878081
 20
25.1102824
  0
LWPOLYLINE
  5
55C
100
AcDbEntity
  8
RACCORDO
100
AcDbPolyline
 62
250
  6
CONTINUOUS
 90
11
 70
0
 10
6.3829139288
 20
25.4798563328
 10
6.3194318676
 20
25.503444921
 10
6.2563642661
 20
25.5211900394
 10
6.1941909249
 20
25.5329567003
 10
6.1333848368
 20
25.5386553992
 10
6.0744085967
 20
25.538242794
 10
6.017710881
 20
25.5317220378
 10
5.9637230249
 20
25.5191427543
 10
5.9128557406
 20
25.5006006577
 10
5.8654960009
 20
25.4762368244
 10
5.8271682487
 20
25.4502498835
  0
LWPOLYLINE
  5
55D
100
AcDbEntity
  8
SUPERFICI
100
AcDbPolyline
 62
250
  6
CONTINUOUS
 90
11
 70
0
 10
6.3829139288
 20
25.4798563328
 10
6.3194318676
 20
25.503444921
 10
6.2563642661
 20
25.5211900394
 10
6.1941909249
 20
25.5329567003
 10
6.1333848368
 20
25.5386553992
 10
6.0744085967
 20
25.538242794
 10
6.017710881
 20
25.5317220378
 10
5.9637230249
 20
25.5191427543
 10
5.9128557406
 20
25.5006006577
 10
5.8654960009
 20
25.4762368244
 10
5.8271682487
 20
25.4502498835
  0
LWPOLYLINE
  5
55E
100
AcDbEntity
  8
ASSI
100
AcDbPolyline
 62
250
  6
CONTINUOUS
 90
11
 70
0
 10
1.6843626535
 20
27.2750244426
 10
1.6735599296
 20
27.2790494084
 10
1.6391865119
 20
27.2879874717
 10
1.6030668206
 20
27.2917619667
 10
1.5654034911
 20
27.2903503702
 10
1.526401336
 20
27.2837611007
 10
1.4862707677
 20
27.2720314586
 10
1.445234216
 20
27.2552243545
 10
1.4035163437
 20
27.2334315834
 10
1.3613428441
 20
27.2067734063
 10
1.3189437455
 20
27.1753958918
  0
LINE
  5
55F
100
AcDbEntity
  8
RACCORDO
100
AcDbLine
 62
250
  6
CONTINUOUS
 10
-2.6253630889
 20
28.1542696817
 11
-2.7547267052
 21
28.2062250265
  0
LINE
  5
560
100
AcDbEntity
  8
SUPERFICI
100
AcDbLine
 62
250
  6
CONTINUOUS
 10
-2.6253630889
 20
28.1542696817
 11
-2.7547267052
 21
28.2062250265
  0
LINE
  5
561
100
AcDbEntity
  8
DRAFT
100
AcDbLine
 62
7
  6
CONTINUOUS
 10
11.7113596762
 20
22.4344168183
 11
10.9465153333
 21
22.7415955495
  0
LINE
  5
562
100
AcDbEntity
  8
SUPERFICI
100
AcDbLine
 62
7
  6
CONTINUOUS
 10
11.7113596762
 20
22.4344168183
 11
10.9465153333
 21
22.7415955495
  0
LINE
  5
563
100
AcDbEntity
  8
DRAFT
100
AcDbLine
 62
7
  6
CONTINUOUS
 10
-2.5616633707
 20
28.1667846518
 11
-2.5872648759
 21
28.1770667934
  0
LINE
  5
564
100
AcDbEntity
  8
SUPERFICI
100
AcDbLine
 62
7
  6
CONTINUOUS
 10
-2.5616633707
 20
28.1667846518
 11
-2.5872648759
 21
28.1770667934
  0
LINE
  5
565
100
AcDbEntity
  8
ASSI
100
AcDbLine
 62
7
  6
CONTINUOUS
 10
1.9840509024
 20
26.4431492379
 11
6.21265984
 21
24.7448445568
  0
LINE
  5
566
100
AcDbEntity
  8
SUPERFICI
100
AcDbLine
 62
7
  6
CONTINUOUS
 10
4.7736933258
 20
25.4043919378
 11
1.9826261155
 21
26.5253474526
  0
LINE
  5
567
100
AcDbEntity
  8
ASSI
100
AcDbLine
 62
250
  6
CONTINUOUS
 10
-1.9865194345
 20
28.5029444249
 11
1.3189437455
 21
27.1753958918
  0
LINE
  5
568
100
AcDbEntity
  8
ASSI
100
AcDbLine
 62
250
  6
CONTINUOUS
 10
6.6780187602
 20
25.0230705484
 11
9.9834819402
 21
23.6955220154
  0
LINE
  5
569
100
AcDbEntity
  8
ASSI
100
AcDbLine
 62
7
  6
CONTINUOUS
 10
7.0379351469
 20
25.1249090357
 11
10.5363923287
 21
23.7198497606
  0
LINE
  5
56A
100
AcDbEntity
  8
0
100
AcDbLine
 62
7
  6
CONTINUOUS
 10
11.3823400179
 20
24.0906599537
 11
10.5633476564
 21
24.4195857498
  0
LINE
  5
56B
100
AcDbEntity
  8
0
100
AcDbLine
 62
7
  6
CONTINUOUS
 10
13.0762947377
 20
23.600094504
 11
13.0164316576
 21
23.6241368666
  0
LINE
  5
56C
100
AcDbEntity
  8
RACCORDO
100
AcDbLine
 62
7
  6
CONTINUOUS
 10
1.9826261155
 20
26.5253474526
 11
4.7737798342
 21
25.4043571705
  0
LINE
  5
56D
100
AcDbEntity
  8
SUPERFICI
100
AcDbLine
 62
250
  6
CONTINUOUS
 10
4.7736933257
 20
25.4043919379
 11
4.7737798342
 21
25.4043571705
  0
LINE
  5
56E
100
AcDbEntity
  8
ASSI
100
AcDbLine
 62
7
  6
CONTINUOUS
 10
1.6846132615
 20
27.2749236206
 11
-1.8140738245
 21
28.6800754025
  0
LINE
  5
56F
100
AcDbEntity
  8
0
100
AcDbLine
 62
7
  6
CONTINUOUS
 10
11.3823400179
 20
24.0906599537
 11
11.7002337787
 21
23.860868341
  0
LWPOLYLINE
  5
570
100
AcDbEntity
  8
RACCORDO
100
AcDbPolyline
 62
7
  6
CONTINUOUS
 90
10
 70
0
 10
13.4038716431
 20
25.2235316539
 10
13.4016239635
 20
25.2239845527
 10
13.394072707
 20
25.2247082011
 10
13.3861475046
 20
25.2242868081
 10
13.3777713123
 20
25.2227020382
 10
13.369021174
 20
25.219972227
 10
13.3601282215
 20
25.2161523809
 10
13.3511694988
 20
25.2112608353
 10
13.3420679619
 20
25.2052792549
 10
13.3328236108
 20
25.1982076394
  0
LWPOLYLINE
  5
571
100
AcDbEntity
  8
RACCORDO
100
AcDbPolyline
 62
7
  6
CONTINUOUS
 90
19
 70
0
 10
13.4038660991
 20
25.2235163077
 10
13.2778596742
 20
25.249633348
 10
13.1479479096
 20
25.2721888715
 10
13.0163601707
 20
25.2907172352
 10
12.8834469423
 20
25.3051849237
 10
12.7495406552
 20
25.3155690355
 10
12.6149571773
 20
25.3218541607
 10
12.4800473187
 20
25.3240296833
 10
12.345152534
 20
25.3220937339
 10
12.2105765217
 20
25.3160500393
 10
12.076663596
 20
25.3059093089
 10
11.9437591256
 20
25.2916907605
 10
11.8121646625
 20
25.2734155623
 10
11.6822160232
 20
25.2511146263
 10
11.5542548412
 20
25.2248281746
 10
11.4285817212
 20
25.1945951308
 10
11.3055130107
 20
25.1604629503
 10
11.1853857153
 20
25.1224925451
 10
11.0685229705
 20
25.0807501263
  0
LINE
  5
572
100
AcDbEntity
  8
RACCORDO
100
AcDbLine
 62
7
  6
CONTINUOUS
 10
13.408801274
 20
25.222115863
 11
13.4038716431
 21
25.2235316539
  0
LWPOLYLINE
  5
573
100
AcDbEntity
  8
0
100
AcDbPolyline
 62
7
  6
CONTINUOUS
 90
3
 70
0
 10
14.1078374276
 20
24.7681641343
 10
14.2275799003
 20
24.733433652
 10
14.2295922267
 20
24.7327974845
  0
LWPOLYLINE
  5
574
100
AcDbEntity
  8
RACCORDO
100
AcDbPolyline
 62
7
  6
CONTINUOUS
 90
10
 70
0
 10
14.3917837271
 20
24.827327949
 10
14.4587495118
 20
24.8040659979
 10
14.5272286205
 20
24.7801148808
 10
14.5972210533
 20
24.7554745978
 10
14.6687141692
 20
24.7301415907
 10
14.7417206092
 20
24.7041194177
 10
14.8162782957
 20
24.6774187528
 10
14.8923998697
 20
24.6500431538
 10
14.9700726902
 20
24.6219890628
 10
15.0492967572
 20
24.5932564799
  0
LWPOLYLINE
  5
575
100
AcDbEntity
  8
RACCORDO
100
AcDbPolyline
 62
7
  6
CONTINUOUS
 90
10
 70
0
 10
14.0663143041
 20
24.9880443939
 10
13.9872448586
 20
25.0167212618
 10
13.9096872944
 20
25.0447339792
 10
13.8336416115
 20
25.0720825461
 10
13.7591195042
 20
25.0987710709
 10
13.6861092782
 20
25.1247954452
 10
13.6145758505
 20
25.150143344
 10
13.5445075267
 20
25.1748106591
 10
13.4759160012
 20
25.1988014988
 10
13.408801274
 20
25.222115863
  0
LINE
  5
576
100
AcDbEntity
  8
0
100
AcDbLine
 62
7
  6
CONTINUOUS
 10
13.5918784896
 20
23.6934047673
 11
13.5699143455
 21
23.7022260627
  0
LINE
  5
577
100
AcDbEntity
  8
0
100
AcDbLine
 62
7
  6
CONTINUOUS
 10
11.7838435233
 20
24.4195523709
 11
10.9648511618
 21
24.7484781671
  0
LINE
  5
578
100
AcDbEntity
  8
DRAFT
100
AcDbLine
 62
7
  6
CONTINUOUS
 10
10.5894067655
 20
25.2420017167
 11
10.2511764986
 21
25.3778426171
  0
LINE
  5
579
100
AcDbEntity
  8
SUPERFICI
100
AcDbLine
 62
7
  6
CONTINUOUS
 10
10.5894067655
 20
25.2420017167
 11
10.2511764986
 21
25.3778426171
  0
LINE
  5
57A
100
AcDbEntity
  8
DRAFT
100
AcDbLine
 62
7
  6
CONTINUOUS
 10
14.6024415172
 20
25.5050880687
 11
14.2501326133
 21
25.6465832672
  0
LINE
  5
57B
100
AcDbEntity
  8
SUPERFICI
100
AcDbLine
 62
7
  6
CONTINUOUS
 10
14.6024415172
 20
25.5050880687
 11
14.2501326133
 21
25.6465832672
  0
LINE
  5
57C
100
AcDbEntity
  8
RACCORDO
100
AcDbLine
 62
7
  6
CONTINUOUS
 10
15.0492967572
 20
24.5932564799
 11
15.0559111103
 21
24.5902263232
  0
LWPOLYLINE
  5
57D
100
AcDbEntity
  8
DRAFT
100
AcDbPolyline
 62
7
  6
CONTINUOUS
 90
10
 70
0
 10
14.6024415172
 20
25.5050880687
 10
14.5652336583
 20
25.5223537878
 10
14.5275325714
 20
25.5392370472
 10
14.4893382567
 20
25.5557378471
 10
14.4506389353
 20
25.571860918
 10
14.4114463861
 20
25.5876015294
 10
14.3717959456
 20
25.6029454892
 10
14.3316993927
 20
25.6178880667
 10
14.2911449486
 20
25.6324339927
 10
14.2501326133
 20
25.6465832672
  0
LWPOLYLINE
  5
57E
100
AcDbEntity
  8
SUPERFICI
100
AcDbPolyline
 62
7
  6
CONTINUOUS
 90
10
 70
0
 10
14.6024415172
 20
25.5050880687
 10
14.5652336583
 20
25.5223537878
 10
14.5275325714
 20
25.5392370472
 10
14.4893382567
 20
25.5557378471
 10
14.4506389353
 20
25.571860918
 10
14.4114463861
 20
25.5876015294
 10
14.3717959456
 20
25.6029454892
 10
14.3316993927
 20
25.6178880667
 10
14.2911449486
 20
25.6324339927
 10
14.2501326133
 20
25.6465832672
  0
LINE
  5
57F
100
AcDbEntity
  8
RACCORDO
100
AcDbLine
 62
250
  6
CONTINUOUS
 10
15.1758848127
 20
24.5185880301
 11
15.0492967572
 21
24.5932564799
  0
LWPOLYLINE
  5
580
100
AcDbEntity
  8
RACCORDO
100
AcDbPolyline
 62
7
  6
CONTINUOUS
 90
3
 70
0
 10
15.2187593994
 20
24.4921638035
 10
15.1710092579
 20
24.5227830242
 10
15.0559101128
 20
24.5902240303
  0
LINE
  5
581
100
AcDbEntity
  8
RACCORDO
100
AcDbLine
 62
250
  6
CONTINUOUS
 10
15.2177238464
 20
24.4913389485
 11
15.1758848127
 21
24.5185880301
  0
LWPOLYLINE
  5
582
100
AcDbEntity
  8
RACCORDO
100
AcDbPolyline
 62
250
  6
CONTINUOUS
 90
19
 70
0
 10
14.3917837271
 20
24.827327949
 10
14.423055254
 20
24.8066061414
 10
14.4544407087
 20
24.7849943954
 10
14.4858729159
 20
24.7624741207
 10
14.5171910594
 20
24.739096579
 10
14.5484177187
 20
24.7147777387
 10
14.5797337712
 20
24.6892878024
 10
14.6110358397
 20
24.6626022749
 10
14.6422154389
 20
24.6346980143
 10
14.6733897185
 20
24.6053302352
 10
14.7044119665
 20
24.5744693143
 10
14.7351267847
 20
24.542088803
 10
14.7655709176
 20
24.50793334
 10
14.7955407006
 20
24.4719730759
 10
14.8248218928
 20
24.4341817616
 10
14.8533542057
 20
24.3942973455
 10
14.880862251
 20
24.3522966056
 10
14.9070576418
 20
24.3081613186
 10
14.9292573263
 20
24.266349683
  0
LWPOLYLINE
  5
583
100
AcDbEntity
  8
RACCORDO
100
AcDbPolyline
 62
250
  6
CONTINUOUS
 90
21
 70
0
 10
14.3158295031
 20
24.8034389257
 10
14.345142254
 20
24.7835972505
 10
14.3744453276
 20
24.7628526383
 10
14.403738724
 20
24.7412050891
 10
14.4330307419
 20
24.7187390619
 10
14.4623130825
 20
24.6953700976
 10
14.4915608497
 20
24.6708448197
 10
14.5208180643
 20
24.645169767
 10
14.5500407055
 20
24.6183384006
 10
14.5790718153
 20
24.5900777265
 10
14.6079686579
 20
24.5603912882
 10
14.636673969
 20
24.5292755423
 10
14.6648589983
 20
24.4964468635
 10
14.6925941257
 20
24.4619041825
 10
14.7198089712
 20
24.4256485687
 10
14.7459636443
 20
24.3873996055
 10
14.7711441144
 20
24.347147388
 10
14.7952644121
 20
24.3049018211
 10
14.8175267378
 20
24.2604122026
 10
14.8380352658
 20
24.2136145631
 10
14.8412686534
 20
24.2051123611
  0
LINE
  5
584
100
AcDbEntity
  8
0
100
AcDbLine
 62
7
  6
CONTINUOUS
 10
13.5699143455
 20
23.7022260627
 11
13.2520205846
 21
23.9320176753
  0
LWPOLYLINE
  5
585
100
AcDbEntity
  8
RACCORDO
100
AcDbPolyline
 62
250
  6
CONTINUOUS
 90
11
 70
0
 10
19.4113344092
 20
25.6872775032
 10
19.4122687743
 20
25.6848103462
 10
19.4104007058
 20
25.6765050997
 10
19.4030868475
 20
25.6643897222
 10
19.390381633
 20
25.6485543827
 10
19.372379621
 20
25.629116936
 10
19.349214792
 20
25.6062220459
 10
19.3210595507
 20
25.5800401083
 10
19.2881234429
 20
25.5507659829
 10
19.2506515965
 20
25.518617543
 10
19.2089228967
 20
25.4838340542
  0
LWPOLYLINE
  5
586
100
AcDbEntity
  8
SUPERFICI
100
AcDbPolyline
 62
250
  6
CONTINUOUS
 90
11
 70
0
 10
19.4113344092
 20
25.6872775032
 10
19.4122687743
 20
25.6848103462
 10
19.4104007058
 20
25.6765050997
 10
19.4030868475
 20
25.6643897222
 10
19.390381633
 20
25.6485543827
 10
19.372379621
 20
25.629116936
 10
19.349214792
 20
25.6062220459
 10
19.3210595507
 20
25.5800401083
 10
19.2881234429
 20
25.5507659829
 10
19.2506515965
 20
25.518617543
 10
19.2089228967
 20
25.4838340542
  0
LINE
  5
587
100
AcDbEntity
  8
RACCORDO
100
AcDbLine
 62
250
  6
CONTINUOUS
 10
11.5441751652
 20
29.2699419574
 11
11.5442561769
 21
29.2699094445
  0
LINE
  5
588
100
AcDbEntity
  8
SUPERFICI
100
AcDbLine
 62
250
  6
CONTINUOUS
 10
11.5441751652
 20
29.2699419574
 11
11.5442561769
 21
29.2699094445
  0
LINE
  5
589
100
AcDbEntity
  8
DRAFT
100
AcDbLine
 62
7
  6
CONTINUOUS
 10
17.3538948236
 20
26.1928754669
 11
13.2799388381
 21
27.8290680358
  0
LINE
  5
58A
100
AcDbEntity
  8
SUPERFICI
100
AcDbLine
 62
7
  6
CONTINUOUS
 10
17.3538948236
 20
26.1928754669
 11
13.2799388381
 21
27.8290680358
  0
LINE
  5
58B
100
AcDbEntity
  8
RACCORDO
100
AcDbLine
 62
250
  6
CONTINUOUS
 10
18.7229005769
 20
26.1650538946
 11
17.7895651444
 21
26.5399024459
  0
LINE
  5
58C
100
AcDbEntity
  8
SUPERFICI
100
AcDbLine
 62
250
  6
CONTINUOUS
 10
18.7229005769
 20
26.1650538946
 11
17.7895651444
 21
26.5399024459
  0
LINE
  5
58D
100
AcDbEntity
  8
RACCORDO
100
AcDbLine
 62
250
  6
CONTINUOUS
 10
12.3428956664
 20
28.7274077006
 11
11.2178509559
 21
29.1792510198
  0
LINE
  5
58E
100
AcDbEntity
  8
SUPERFICI
100
AcDbLine
 62
250
  6
CONTINUOUS
 10
12.3428956664
 20
28.7274077006
 11
11.2178509559
 21
29.1792510198
  0
LINE
  5
58F
100
AcDbEntity
  8
RACCORDO
100
AcDbLine
 62
7
  6
CONTINUOUS
 10
18.9741717512
 20
26.2858878464
 11
18.0164221503
 21
26.6705416781
  0
LINE
  5
590
100
AcDbEntity
  8
SUPERFICI
100
AcDbLine
 62
7
  6
CONTINUOUS
 10
18.9741717512
 20
26.2858878464
 11
18.0164221503
 21
26.6705416781
  0
LINE
  5
591
100
AcDbEntity
  8
RACCORDO
100
AcDbLine
 62
7
  6
CONTINUOUS
 10
12.7688590592
 20
28.778081319
 11
11.5442611552
 21
29.2699074451
  0
LINE
  5
592
100
AcDbEntity
  8
SUPERFICI
100
AcDbLine
 62
7
  6
CONTINUOUS
 10
12.7688590592
 20
28.778081319
 11
11.5442611552
 21
29.2699074451
  0
LWPOLYLINE
  5
593
100
AcDbEntity
  8
RACCORDO
100
AcDbPolyline
 62
7
  6
CONTINUOUS
 90
27
 70
0
 10
19.7554633408
 20
24.0753431103
 10
19.7943149081
 20
24.0450144371
 10
19.9490355632
 20
23.9108278866
 10
20.0975693133
 20
23.7682376311
 10
20.2393230171
 20
23.617906039
 10
20.3737019481
 20
23.460523464
 10
20.5000914409
 20
23.2968435215
 10
20.6178946729
 20
23.1276540979
 10
20.726574804
 20
22.9537154002
 10
20.8256365016
 20
22.7757663992
 10
20.9145376274
 20
22.5946939962
 10
20.9927533088
 20
22.4114821276
 10
21.0599305382
 20
22.2268264868
 10
21.1156425904
 20
22.0417009189
 10
21.1594515411
 20
21.8574755877
 10
21.1911570732
 20
21.6750694406
 10
21.2106407518
 20
21.495166921
 10
21.2177893694
 20
21.3187111479
 10
21.2125442387
 20
21.1462138321
 10
21.1948787934
 20
20.978670916
 10
21.1650079298
 20
20.817634559
 10
21.1232641443
 20
20.6639724935
 10
21.0699204688
 20
20.518068784
 10
21.0054027663
 20
20.3806561343
 10
20.9302014804
 20
20.2523632626
 10
20.8448286552
 20
20.1336951441
 10
20.7498793348
 20
20.0251535957
  0
LWPOLYLINE
  5
594
100
AcDbEntity
  8
SUPERFICI
100
AcDbPolyline
 62
7
  6
CONTINUOUS
 90
27
 70
0
 10
19.7554633408
 20
24.0753431103
 10
19.7943149081
 20
24.0450144371
 10
19.9490355632
 20
23.9108278866
 10
20.0975693133
 20
23.7682376311
 10
20.2393230171
 20
23.617906039
 10
20.3737019481
 20
23.460523464
 10
20.5000914409
 20
23.2968435215
 10
20.6178946729
 20
23.1276540979
 10
20.726574804
 20
22.9537154002
 10
20.8256365016
 20
22.7757663992
 10
20.9145376274
 20
22.5946939962
 10
20.9927533088
 20
22.4114821276
 10
21.0599305382
 20
22.2268264868
 10
21.1156425904
 20
22.0417009189
 10
21.1594515411
 20
21.8574755877
 10
21.1911570732
 20
21.6750694406
 10
21.2106407518
 20
21.495166921
 10
21.2177893694
 20
21.3187111479
 10
21.2125442387
 20
21.1462138321
 10
21.1948787934
 20
20.978670916
 10
21.1650079298
 20
20.817634559
 10
21.1232641443
 20
20.6639724935
 10
21.0699204688
 20
20.518068784
 10
21.0054027663
 20
20.3806561343
 10
20.9302014804
 20
20.2523632626
 10
20.8448286552
 20
20.1336951441
 10
20.7498793348
 20
20.0251535957
  0
LWPOLYLINE
  5
595
100
AcDbEntity
  8
RACCORDO
100
AcDbPolyline
 62
250
  6
CONTINUOUS
 90
25
 70
0
 10
19.7554633408
 20
23.9775827482
 10
19.8844886389
 20
23.8644362946
 10
20.0270310073
 20
23.7270791979
 10
20.1637730549
 20
23.582509141
 10
20.2940769825
 20
23.4314004357
 10
20.4173350191
 20
23.2744578923
 10
20.5329722558
 20
23.112413533
 10
20.640449327
 20
22.9460231791
 10
20.7392649289
 20
22.7760629228
 10
20.8289581579
 20
22.6033255065
 10
20.90911066
 20
22.4286166253
 10
20.9793485818
 20
22.2527511696
 10
21.0393443141
 20
22.076549425
 10
21.0888180201
 20
21.9008332455
 10
21.1275389405
 20
21.7264222206
 10
21.1553264701
 20
21.5541298517
 10
21.1720510003
 20
21.3847597587
 10
21.177634523
 20
21.2191019307
 10
21.1720509953
 20
21.0579290422
 10
21.1553264602
 20
20.9019928482
 10
21.1275389256
 20
20.7520206788
 10
21.0888180002
 20
20.6087120459
 10
21.0393442894
 20
20.4727353809
 10
20.9793485522
 20
20.3447249171
 10
20.9091106257
 20
20.2252777311
  0
LWPOLYLINE
  5
596
100
AcDbEntity
  8
SUPERFICI
100
AcDbPolyline
 62
250
  6
CONTINUOUS
 90
25
 70
0
 10
19.7554633408
 20
23.9775827482
 10
19.8844886389
 20
23.8644362946
 10
20.0270310073
 20
23.7270791979
 10
20.1637730549
 20
23.582509141
 10
20.2940769825
 20
23.4314004357
 10
20.4173350191
 20
23.2744578923
 10
20.5329722558
 20
23.112413533
 10
20.640449327
 20
22.9460231791
 10
20.7392649289
 20
22.7760629228
 10
20.8289581579
 20
22.6033255065
 10
20.90911066
 20
22.4286166253
 10
20.9793485818
 20
22.2527511696
 10
21.0393443141
 20
22.076549425
 10
21.0888180201
 20
21.9008332455
 10
21.1275389405
 20
21.7264222206
 10
21.1553264701
 20
21.5541298517
 10
21.1720510003
 20
21.3847597587
 10
21.177634523
 20
21.2191019307
 10
21.1720509953
 20
21.0579290422
 10
21.1553264602
 20
20.9019928482
 10
21.1275389256
 20
20.7520206788
 10
21.0888180002
 20
20.6087120459
 10
21.0393442894
 20
20.4727353809
 10
20.9793485522
 20
20.3447249171
 10
20.9091106257
 20
20.2252777311
  0
LINE
  5
597
100
AcDbEntity
  8
RACCORDO
100
AcDbLine
 62
250
  6
CONTINUOUS
 10
18.7229005769
 20
26.1650538946
 11
19.2089228979
 21
25.4838340525
  0
LINE
  5
598
100
AcDbEntity
  8
SUPERFICI
100
AcDbLine
 62
250
  6
CONTINUOUS
 10
18.7229005769
 20
26.1650538946
 11
19.2089228979
 21
25.4838340525
  0
LINE
  5
599
100
AcDbEntity
  8
RACCORDO
100
AcDbLine
 62
7
  6
CONTINUOUS
 10
18.9962006656
 20
26.2691383173
 11
19.4113344092
 21
25.6872775032
  0
LINE
  5
59A
100
AcDbEntity
  8
SUPERFICI
100
AcDbLine
 62
7
  6
CONTINUOUS
 10
18.9962006656
 20
26.2691383173
 11
19.4113344092
 21
25.6872775032
  0
LWPOLYLINE
  5
59B
100
AcDbEntity
  8
RACCORDO
100
AcDbPolyline
 62
250
  6
CONTINUOUS
 90
13
 70
0
 10
19.2089228979
 20
25.4838340525
 10
19.2688952919
 20
25.3957159137
 10
19.3245513962
 20
25.3055460085
 10
19.3756528826
 20
25.2137104581
 10
19.4219809268
 20
25.1206025161
 10
19.4633371447
 20
25.0266208852
 10
19.4995444419
 20
24.9321680104
 10
19.5304477733
 20
24.8376483535
 10
19.5559148061
 20
24.743466662
 10
19.5758364864
 20
24.6500262374
 10
19.5901275067
 20
24.5577272064
 10
19.5987266708
 20
24.4669648072
 10
19.6015971561
 20
24.3781276981
  0
LWPOLYLINE
  5
59C
100
AcDbEntity
  8
SUPERFICI
100
AcDbPolyline
 62
250
  6
CONTINUOUS
 90
13
 70
0
 10
19.2089228979
 20
25.4838340525
 10
19.2688952919
 20
25.3957159137
 10
19.3245513962
 20
25.3055460085
 10
19.3756528826
 20
25.2137104581
 10
19.4219809268
 20
25.1206025161
 10
19.4633371447
 20
25.0266208852
 10
19.4995444419
 20
24.9321680104
 10
19.5304477733
 20
24.8376483535
 10
19.5559148061
 20
24.743466662
 10
19.5758364864
 20
24.6500262374
 10
19.5901275067
 20
24.5577272064
 10
19.5987266708
 20
24.4669648072
 10
19.6015971561
 20
24.3781276981
  0
LWPOLYLINE
  5
59D
100
AcDbEntity
  8
RACCORDO
100
AcDbPolyline
 62
7
  6
CONTINUOUS
 90
4
 70
0
 10
18.9761836529
 20
26.2850796437
 10
18.9801525826
 20
26.283253617
 10
18.9937466395
 20
26.272347589
 10
18.9959871388
 20
26.2694791023
  0
LWPOLYLINE
  5
59E
100
AcDbEntity
  8
SUPERFICI
100
AcDbPolyline
 62
7
  6
CONTINUOUS
 90
4
 70
0
 10
18.9761836529
 20
26.2850796437
 10
18.9801525826
 20
26.283253617
 10
18.9937466395
 20
26.272347589
 10
18.9959871388
 20
26.2694791023
  0
ELLIPSE
  5
59F
100
AcDbEntity
  8
RACCORDO
100
AcDbEllipse
 62
7
  6
CONTINUOUS
 10
3.5686513823
 20
-20.7230700978
 30
0.0
 11
-0.2986895364
 21
0.4014048671
 31
0.0
 40
0.6996338907
 41
-3.1775348962
 42
-2.423621663
  0
ELLIPSE
  5
5A0
100
AcDbEntity
  8
RACCORDO
100
AcDbEllipse
 62
7
  6
CONTINUOUS
 10
4.8654476912
 20
15.6777939902
 30
0.0
 11
-0.2985879503
 21
0.4010570841
 31
0.0
 40
0.7005847088
 41
-2.4232048661
 42
-0.853093772
  0
ELLIPSE
  5
5A1
100
AcDbEntity
  8
RACCORDO
100
AcDbEllipse
 62
7
  6
CONTINUOUS
 10
-12.3364644397
 20
22.58646971
 30
0.0
 11
-0.2986895364
 21
0.4014048671
 31
0.0
 40
0.6996338907
 41
-0.8521401035
 42
0.0366699141
  0
ELLIPSE
  5
5A2
100
AcDbEntity
  8
DRAFT
100
AcDbEllipse
 62
7
  6
CONTINUOUS
 10
12.8489518653
 20
26.1739713045
 30
0.0
 11
2.7583774253
 21
-1.0875888242
 31
0.0
 40
0.0091152074
 41
1.0415643967
 42
1.0993113703
  0
ELLIPSE
  5
5A3
100
AcDbEntity
  8
DRAFT
100
AcDbEllipse
 62
7
  6
CONTINUOUS
 10
12.8489518653
 20
26.1739713045
 30
0.0
 11
2.7583774253
 21
-1.0875888242
 31
0.0
 40
0.0091152074
 41
0.8277387682
 42
0.8854857418
  0
ELLIPSE
  5
5A4
100
AcDbEntity
  8
DRAFT
100
AcDbEllipse
 62
7
  6
CONTINUOUS
 10
12.3040542508
 20
24.3113229262
 30
0.0
 11
2.7499376731
 21
-0.032955525
 31
0.0
 40
0.5618086952
 41
8.8293720381
 42
9.3441753128
  0
ELLIPSE
  5
5A5
100
AcDbEntity
  8
DRAFT
100
AcDbEllipse
 62
7
  6
CONTINUOUS
 10
12.8489518653
 20
24.3345174644
 30
0.0
 11
2.7583327228
 21
-0.0330561321
 31
0.0
 40
0.5618086952
 41
1.1024500589
 42
2.5374600846
  0
ELLIPSE
  5
5A6
100
AcDbEntity
  8
RACCORDO
100
AcDbEllipse
 62
7
  6
CONTINUOUS
 10
17.3548483338
 20
25.9663716865
 30
0.0
 11
0.6683547169
 21
0.7002398492
 31
0.0
 40
0.1249403664
 41
0.0504012777
 42
0.7397086271
  0
ELLIPSE
  5
5A7
100
AcDbEntity
  8
DRAFT
100
AcDbEllipse
 62
7
  6
CONTINUOUS
 10
12.8489518653
 20
24.3345174644
 30
0.0
 11
2.7583327228
 21
-0.0330561321
 31
0.0
 40
0.5618086952
 41
0.2747071878
 42
0.8308774568
  0
ELLIPSE
  5
5A8
100
AcDbEntity
  8
0
100
AcDbEllipse
 62
7
  6
CONTINUOUS
 10
12.2847982804
 20
25.4245759596
 30
0.0
 11
3.331107806
 21
-0.0397904612
 31
0.0
 40
0.561818812
 41
2.5360631738
 42
5.6803583678
  0
ELLIPSE
  5
5A9
100
AcDbEntity
  8
DRAFT
100
AcDbEllipse
 62
7
  6
CONTINUOUS
 10
12.8489518653
 20
24.7440934865
 30
0.0
 11
2.7583327228
 21
-0.0330561321
 31
0.0
 40
0.5618086952
 41
0.0559006165
 42
2.5374600846
  0
ELLIPSE
  5
5AA
100
AcDbEntity
  8
RACCORDO
100
AcDbEllipse
 62
7
  6
CONTINUOUS
 10
12.7595939566
 20
27.8119294419
 30
0.0
 11
-0.2742489086
 21
0.9887722306
 31
0.0
 40
0.6117276799
 41
4.982412476
 42
6.5357555103
  0
ELLIPSE
  5
5AB
100
AcDbEntity
  8
ASSI
100
AcDbEllipse
 62
7
  6
CONTINUOUS
 10
6.9623151299
 20
-18.2219483776
 30
0.0
 11
-0.3169109156
 21
0.3869345179
 31
0.0
 40
0.670809718
 41
-3.1189696451
 42
-2.4553554967
  0
ELLIPSE
  5
5AC
100
AcDbEntity
  8
ASSI
100
AcDbEllipse
 62
7
  6
CONTINUOUS
 10
6.9623151299
 20
17.6281896782
 30
0.0
 11
-0.3168729153
 21
0.3867726039
 31
0.0
 40
0.6712104788
 41
-2.4552091068
 42
-0.8847173665
  0
ELLIPSE
  5
5AD
100
AcDbEntity
  8
ASSI
100
AcDbEllipse
 62
7
  6
CONTINUOUS
 10
3.7911542239
 20
17.4047648951
 30
0.0
 11
0.2497065505
 21
-0.0699912687
 31
0.0
 40
0.1730136333
 41
-2.1332048293
 42
-0.579861795
  0
ELLIPSE
  5
5AE
100
AcDbEntity
  8
ASSI
100
AcDbEllipse
 62
7
  6
CONTINUOUS
 10
3.5669185287
 20
17.4948230056
 30
0.0
 11
0.2497065505
 21
-0.0699912687
 31
0.0
 40
0.1730136333
 41
-3.0915361384
 42
-2.1332048293
  0
ELLIPSE
  5
5AF
100
AcDbEntity
  8
ASSI
100
AcDbEllipse
 62
7
  6
CONTINUOUS
 10
-10.7897521644
 20
23.2607856195
 30
0.0
 11
0.2497065505
 21
-0.0699912687
 31
0.0
 40
0.1730136333
 41
-2.1332048293
 42
-0.579861795
  0
ELLIPSE
  5
5B0
100
AcDbEntity
  8
ASSI
100
AcDbEllipse
 62
7
  6
CONTINUOUS
 10
-11.0139878596
 20
23.35084373
 30
0.0
 11
0.2497065505
 21
-0.0699912687
 31
0.0
 40
0.1730136333
 41
-3.0915361384
 42
-2.1332048293
  0
ELLIPSE
  5
5B1
100
AcDbEntity
  8
ASSI
100
AcDbEllipse
 62
7
  6
CONTINUOUS
 10
10.5891934559
 20
22.6210070253
 30
0.0
 11
0.3609241303
 21
0.9326631928
 31
0.0
 40
0.458075675
 41
-0.8693289497
 42
-0.6131850692
  0
ELLIPSE
  5
5B2
100
AcDbEntity
  8
ASSI
100
AcDbEllipse
 62
7
  6
CONTINUOUS
 10
-2.651512699
 20
22.9682592668
 30
0.0
 11
-0.1625146743
 21
0.1900010152
 31
0.0
 40
0.6563705712
 41
-2.4691737663
 42
-0.898682026
  0
ELLIPSE
  5
5B3
100
AcDbEntity
  8
ASSI
100
AcDbEllipse
 62
7
  6
CONTINUOUS
 10
6.0394465542
 20
72.1787466381
 30
0.0
 11
3.361656165
 21
94.6073573123
 31
0.0
 40
0.0058809093
 41
-2.1140604322
 42
-2.1103452444
  0
ELLIPSE
  5
5B4
100
AcDbEntity
  8
ASSI
100
AcDbEllipse
 62
7
  6
CONTINUOUS
 10
-0.904157012
 20
22.2664818298
 30
0.0
 11
-0.1625608641
 21
0.1902058938
 31
0.0
 40
0.6553964474
 41
-0.8974928192
 42
-0.0349831269
  0
ELLIPSE
  5
5B5
100
AcDbEntity
  8
0
100
AcDbEllipse
 62
7
  6
CONTINUOUS
 10
2.7985192729
 20
16.9390673359
 30
0.0
 11
-0.1262532163
 21
0.1552737229
 31
0.0
 40
0.6729644614
 41
-2.450216817
 42
-0.8817019636
  0
ELLIPSE
  5
5B6
100
AcDbEntity
  8
ASSI
100
AcDbEllipse
 62
7
  6
CONTINUOUS
 10
-2.8157334455
 20
28.0047278759
 30
0.0
 11
1.0048735789
 21
0.6729900454
 31
0.0
 40
0.0652557815
 41
-0.6453210963
 42
0.6518780575
  0
ELLIPSE
  5
5B7
100
AcDbEntity
  8
ASSI
100
AcDbEllipse
 62
7
  6
CONTINUOUS
 10
-0.6913373701
 20
74.8819812041
 30
0.0
 11
0.085060811
 21
95.923252966
 31
0.0
 40
0.0059773055
 41
-2.1143322489
 42
-2.1106170612
  0
ELLIPSE
  5
5B8
100
AcDbEntity
  8
ASSI
100
AcDbEllipse
 62
7
  6
CONTINUOUS
 10
-0.3072051274
 20
24.7005196768
 30
0.0
 11
1.0000206696
 21
-0.0002005927
 31
0.0
 40
0.5739458546
 41
0.9605060513
 42
1.5082618869
  0
ELLIPSE
  5
5B9
100
AcDbEntity
  8
ASSI
100
AcDbEllipse
 62
7
  6
CONTINUOUS
 10
-0.310902962
 20
25.1835896374
 30
0.0
 11
1.0000607388
 21
-0.0124020305
 31
0.0
 40
0.5618375086
 41
1.7602321161
 42
2.5373774498
  0
ELLIPSE
  5
5BA
100
AcDbEntity
  8
ASSI
100
AcDbEllipse
 62
7
  6
CONTINUOUS
 10
3.8818958122
 20
23.4996671252
 30
0.0
 11
1.000275873
 21
-0.0122714276
 31
0.0
 40
0.561597706
 41
5.6799562128
 42
6.4571015466
  0
ELLIPSE
  5
5BB
100
AcDbEntity
  8
ASSI
100
AcDbEllipse
 62
7
  6
CONTINUOUS
 10
3.8609243498
 20
23.0265049105
 30
0.0
 11
1.0006647985
 21
0.0002002106
 31
0.0
 40
0.5732071936
 41
0.4116008068
 42
0.8294147643
  0
ELLIPSE
  5
5BC
100
AcDbEntity
  8
ASSI
100
AcDbEllipse
 62
7
  6
CONTINUOUS
 10
3.0827464835
 20
17.9811192882
 30
0.0
 11
0.2499293568
 21
0.009771784
 31
0.0
 40
0.6081570881
 41
3.1179734409
 42
4.077750384
  0
ELLIPSE
  5
5BD
100
AcDbEntity
  8
ASSI
100
AcDbEllipse
 62
7
  6
CONTINUOUS
 10
5.4224791418
 20
17.0414299046
 30
0.0
 11
0.2499293568
 21
0.009771784
 31
0.0
 40
0.6081570881
 41
-2.2054349231
 42
-0.6520918889
  0
ELLIPSE
  5
5BE
100
AcDbEntity
  8
ASSI
100
AcDbEllipse
 62
7
  6
CONTINUOUS
 10
-9.1584272466
 20
22.897450629
 30
0.0
 11
0.2499293568
 21
0.009771784
 31
0.0
 40
0.6081570881
 41
-2.2054349231
 42
-0.6520918889
  0
ELLIPSE
  5
5BF
100
AcDbEntity
  8
ASSI
100
AcDbEllipse
 62
7
  6
CONTINUOUS
 10
-11.4981599048
 20
23.8371400126
 30
0.0
 11
0.2499293568
 21
0.009771784
 31
0.0
 40
0.6081570881
 41
3.1179733728
 42
4.077750384
  0
ELLIPSE
  5
5C0
100
AcDbEntity
  8
ASSI
100
AcDbEllipse
 62
7
  6
CONTINUOUS
 10
5.4224791418
 20
-20.0766448461
 30
0.0
 11
0.1997382246
 21
0.198664618
 31
0.0
 40
0.7567950566
 41
-2.8269058184
 42
-2.6358710258
  0
ELLIPSE
  5
5C1
100
AcDbEntity
  8
ASSI
100
AcDbEllipse
 62
7
  6
CONTINUOUS
 10
3.7911542239
 20
-20.5946131732
 30
0.0
 11
0.1997382246
 21
0.198664618
 31
0.0
 40
0.7567950566
 41
-1.3266310272
 42
-1.2735627841
  0
ELLIPSE
  5
5C2
100
AcDbEntity
  8
ASSI
100
AcDbEllipse
 62
7
  6
CONTINUOUS
 10
-1.6694762611
 20
20.5956996826
 30
0.0
 11
0.1999434854
 21
0.0078174272
 31
0.0
 40
0.6081570881
 41
3.1179734409
 42
4.077750384
  0
ELLIPSE
  5
5C3
100
AcDbEntity
  8
ASSI
100
AcDbEllipse
 62
7
  6
CONTINUOUS
 10
0.9841389596
 20
19.5299479856
 30
0.0
 11
0.1999434854
 21
0.0078174272
 31
0.0
 40
0.6081570881
 41
-2.2054349231
 42
-0.6520918889
  0
ELLIPSE
  5
5C4
100
AcDbEntity
  8
ASSI
100
AcDbEllipse
 62
7
  6
CONTINUOUS
 10
-3.3164092729
 20
21.2571451094
 30
0.0
 11
0.1999434854
 21
0.0078174272
 31
0.0
 40
0.6081570881
 41
-2.2054349231
 42
-0.6520918889
  0
ELLIPSE
  5
5C5
100
AcDbEntity
  8
ASSI
100
AcDbEllipse
 62
7
  6
CONTINUOUS
 10
-5.9700244936
 20
22.3228968064
 30
0.0
 11
0.1999434854
 21
0.0078174272
 31
0.0
 40
0.6081570881
 41
3.1179733728
 42
4.077750384
  0
ELLIPSE
  5
5C6
100
AcDbEntity
  8
ASSI
100
AcDbEllipse
 62
7
  6
CONTINUOUS
 10
-11.8728879859
 20
23.3917167864
 30
0.0
 11
-0.3166934957
 21
0.3878404978
 31
0.0
 40
0.6702436759
 41
-0.8821199121
 42
0.6873064187
  0
ELLIPSE
  5
5C7
100
AcDbEntity
  8
ASSI
100
AcDbEllipse
 62
7
  6
CONTINUOUS
 10
5.5104190047
 20
16.4101888015
 30
0.0
 11
-0.3165198962
 21
0.3871139532
 31
0.0
 40
0.6720475734
 41
-2.4536186814
 42
-0.8841923507
  0
ELLIPSE
  5
5C8
100
AcDbEntity
  8
ASSI
100
AcDbEllipse
 62
7
  6
CONTINUOUS
 10
14.2703598069
 20
31.2803612463
 30
0.0
 11
14.7248791155
 21
12.5261813432
 31
0.0
 40
0.014760238
 41
-2.6573712457
 42
-2.4030044782
  0
ELLIPSE
  5
5C9
100
AcDbEntity
  8
ASSI
100
AcDbEllipse
 62
7
  6
CONTINUOUS
 10
5.5104190047
 20
-19.3387567597
 30
0.0
 11
-0.3166934957
 21
0.3878404978
 31
0.0
 40
0.6702436759
 41
2.2594727415
 42
3.8288990723
  0
ELLIPSE
  5
5CA
100
AcDbEntity
  8
0
100
AcDbEllipse
 62
7
  6
CONTINUOUS
 10
-9.1609882541
 20
21.7422751795
 30
0.0
 11
-0.1263730777
 21
0.1557547309
 31
0.0
 40
0.6699552963
 41
5.404898426
 42
6.9734132794
  0
ELLIPSE
  5
5CB
100
AcDbEntity
  8
ASSI
100
AcDbEllipse
 62
7
  6
CONTINUOUS
 10
14.2703598069
 20
31.2803612463
 30
0.0
 11
14.7248791155
 21
12.5261813432
 31
0.0
 40
0.014760238
 41
2.2927721807
 42
2.6322600442
  0
ELLIPSE
  5
5CC
100
AcDbEntity
  8
ASSI
100
AcDbEllipse
 62
7
  6
CONTINUOUS
 10
1.784022178
 20
26.4430731678
 30
0.0
 11
0.2002557398
 21
-0.0380654797
 31
0.0
 40
0.3171006239
 41
-0.5548407301
 42
0.0670296361
  0
ELLIPSE
  5
5CD
100
AcDbEntity
  8
ASSI
100
AcDbEllipse
 62
7
  6
CONTINUOUS
 10
10.7926753731
 20
22.5392840999
 30
0.0
 11
-0.7858461616
 21
1.1731918886
 31
0.0
 40
0.5191454105
 41
5.0253281695
 42
6.3225273233
  0
ELLIPSE
  5
5CE
100
AcDbEntity
  8
SUPERFICI
100
AcDbEllipse
 62
7
  6
CONTINUOUS
 10
12.8489518653
 20
24.3345174644
 30
0.0
 11
2.7583327228
 21
-0.0330561321
 31
0.0
 40
0.5618086952
 41
0.2747071878
 42
0.8308774568
  0
ELLIPSE
  5
5CF
100
AcDbEntity
  8
SUPERFICI
100
AcDbEllipse
 62
7
  6
CONTINUOUS
 10
12.8489518653
 20
24.3345174644
 30
0.0
 11
2.7583327228
 21
-0.0330561321
 31
0.0
 40
0.5618086952
 41
1.1024500589
 42
2.5374600846
  0
ELLIPSE
  5
5D0
100
AcDbEntity
  8
SUPERFICI
100
AcDbEllipse
 62
7
  6
CONTINUOUS
 10
12.3040542508
 20
24.3113229262
 30
0.0
 11
2.7499376731
 21
-0.032955525
 31
0.0
 40
0.5618086952
 41
8.8293720381
 42
9.3441753128
  0
ELLIPSE
  5
5D1
100
AcDbEntity
  8
SUPERFICI
100
AcDbEllipse
 62
7
  6
CONTINUOUS
 10
12.8489518653
 20
26.1739713045
 30
0.0
 11
2.7583774253
 21
-1.0875888242
 31
0.0
 40
0.0091152074
 41
1.0415643967
 42
1.0993113703
  0
ELLIPSE
  5
5D2
100
AcDbEntity
  8
SUPERFICI
100
AcDbEllipse
 62
7
  6
CONTINUOUS
 10
12.8489518653
 20
26.1739713045
 30
0.0
 11
2.7583774253
 21
-1.0875888242
 31
0.0
 40
0.0091152074
 41
0.8277387682
 42
0.8854857418
  0
ELLIPSE
  5
5D3
100
AcDbEntity
  8
SUPERFICI
100
AcDbEllipse
 62
7
  6
CONTINUOUS
 10
17.3548483338
 20
25.9663716865
 30
0.0
 11
0.6683547169
 21
0.7002398492
 31
0.0
 40
0.1249403664
 41
0.0504012777
 42
0.7397086271
  0
ELLIPSE
  5
5D4
100
AcDbEntity
  8
SUPERFICI
100
AcDbEllipse
 62
7
  6
CONTINUOUS
 10
12.7595939566
 20
27.8119294419
 30
0.0
 11
-0.2742489086
 21
0.9887722306
 31
0.0
 40
0.6117276799
 41
4.982412476
 42
6.5357555103
  0
ELLIPSE
  5
5D5
100
AcDbEntity
  8
SUPERFICI
100
AcDbEllipse
 62
7
  6
CONTINUOUS
 10
12.2847982804
 20
25.4245759596
 30
0.0
 11
3.331107806
 21
-0.0397904612
 31
0.0
 40
0.561818812
 41
2.5360631738
 42
5.6803583678
  0
ELLIPSE
  5
5D6
100
AcDbEntity
  8
SUPERFICI
100
AcDbEllipse
 62
7
  6
CONTINUOUS
 10
12.8489518653
 20
24.7440934865
 30
0.0
 11
2.7583327228
 21
-0.0330561321
 31
0.0
 40
0.5618086952
 41
0.0559006165
 42
2.5374600846
  0
ENDSEC
  0
SECTION
  2
OBJECTS
  0
DICTIONARY
  5
C
100
AcDbDictionary
280
0
281
1
  3
ACAD_GROUP
350
D
  3
ACAD_MLINESTYLE
350
17
  3
ACAD_LAYOUT
350
1A
  3
ACAD_PLOTSETTINGS
350
19
  3
ACAD_PLOTSTYLENAME
350
E
  0
DICTIONARY
  5
D
102
{ACAD_REACTORS
330
C
102
}
100
AcDbDictionary
280
0
281
1
  0
ACDBDICTIONARYWDFLT
  5
E
102
{ACAD_REACTORS
330
C
102
}
100
AcDbDictionary
281
1
  3
Normal
350
F
100
AcDbDictionaryWithDefault
340
F
  0
DICTIONARY
  5
17
102
{ACAD_REACTORS
330
C
102
}
100
AcDbDictionary
280
0
281
1
  3
Standard
350
18
  0
DICTIONARY
  5
19
102
{ACAD_REACTORS
330
C
102
}
100
AcDbDictionary
281
1
  0
DICTIONARY
  5
1A
102
{ACAD_REACTORS
330
C
102
}
100
AcDbDictionary
281
1
  3
Model
350
5D7
  3
Layout1
350
5D8
  0
ACDBPLACEHOLDER
  5
F
102
{ACAD_REACTORS
330
E
102
}
  0
MLINESTYLE
  5
18
102
{ACAD_REACTORS
330
17
102
}
100
AcDbMlineStyle
  2
STANDARD
 70
0
  3

 62
256
 51
90.0
 52
90.0
 71
2
 49
0.5
 62
256
  6
BYLAYER
 49
-0.5
 62
256
  6
BYLAYER
  0
LAYOUT
  5
5D7
102
{ACAD_REACTORS
330
1A
102
}
100
AcDbPlotSettings
  1

  2
none_device
  4
ISO_A4_(297.00_x_210.00_MM)
  6

 40
0.0
 41
0.0
 42
0.0
 43
0.0
 44
297.0
 45
210.0
 46
0.0
 47
0.0
 48
0.0
 49
0.0
140
0.0
141
0.0
142
1.0
143
1.0
 70
1024
 72
1
 73
0
 74
0
  7

 75
0
147
1.0
148
0.0
149
0.0
100
AcDbLayout
  1
Model
 70
0
 71
0
 10
0.0
 20
0.0
 11
297.0
 21
210.0
 12
0.0
 22
0.0
 32
0.0
 14
0.0
 24
0.0
 34
0.0
 15
0.0
 25
0.0
 35
0.0
146
0.0
 13
0.0
 23
0.0
 33
0.0
 16
1.0
 26
0.0
 36
0.0
 17
0.0
 27
1.0
 37
0.0
 76
0
330
219
345
0
346
0
  0
LAYOUT
  5
5D8
102
{ACAD_REACTORS
330
1A
102
}
100
AcDbPlotSettings
  1

  2
none_device
  4
ISO_A4_(297.00_x_210.00_MM)
  6

 40
0.0
 41
0.0
 42
0.0
 43
0.0
 44
297.0
 45
210.0
 46
0.0
 47
0.0
 48
0.0
 49
0.0
140
0.0
141
0.0
142
1.0
143
1.0
 70
0
 72
1
 73
0
 74
0
  7

 75
0
147
1.0
148
0.0
149
0.0
100
AcDbLayout
  1
Layout1
 70
0
 71
1
 10
0.0
 20
0.0
 11
297.0
 21
210.0
 12
0.0
 22
0.0
 32
0.0
 14
0.0
 24
0.0
 34
0.0
 15
0.0
 25
0.0
 35
0.0
146
0.0
 13
0.0
 23
0.0
 33
0.0
 16
1.0
 26
0.0
 36
0.0
 17
0.0
 27
1.0
 37
0.0
 76
0
330
21A
345
0
346
0
  0
ENDSEC
  0
EOF
