  0
SECTION
  2
HEADER
  9
$ACADVER
  1
AC1024
  9
$DWGCODEPAGE
  3
ANSI_1252
  9
$EXTMAX
 10
297.0
 20
210.0
 30
0.0
  9
$EXTMIN
 10
0.0
 20
0.0
 30
0.0
  9
$LIMMIN
 10
0.0
 20
0.0
  9
$LIMMAX
 10
297.0
 20
210.0
  9
$VIEWCTR
 10
148.5
 20
105.0
  9
$VIEWSIZE
 40
210.0
  9
$CLAYER
  8
0
  9
$LTSCALE
 40
16.335
  9
$CELTYPE
  6
BYLAYER
  9
$DIMSCALE
 40
1.0
  9
$DIMASZ
 40
3.0
  9
$DIMEXO
 40
0.5
  9
$DIMDLI
 40
11.286
  9
$DIMEXE
 40
1.5
  9
$DIMCEN
 40
2.673
  9
$DIMLFAC
 40
1.0
  9
$DIMBLK
  1
_FILLED
  9
$DIMALT
 70
0
  9
$DIMALTF
 40
0.0393700787
  9
$DIMTXT
 40
3.0
  9
$DIMTOL
 70
1
  9
$DIMLIM
 70
0
  9
$DIMTFAC
 40
1.0
  9
$DIMTP
 40
0.01
  9
$DIMTM
 40
0.01
  9
$DIMGAP
 40
0.625
  9
$DIMDSEP
 70
44
  9
$AUNITS
 70
0
  9
$PDMODE
 70
3
  9
$PDSIZE
 40
3.0
  9
$HANDSEED
  5
521
  9
$TILEMODE
 70
1
  9
$MEASUREMENT
 70
1
  9
$INSUNITS
 70
4
  0
ENDSEC
  0
SECTION
  2
CLASSES
  0
CLASS
  1
ACDBDICTIONARYWDFLT
  2
AcDbDictionaryWithDefault
  3
AutoCAD 2000
 90
0
 91
1
280
0
281
0
  0
CLASS
  1
ACDBPLACEHOLDER
  2
AcDbPlaceHolder
  3
AutoCAD 2000
 90
0
 91
1
280
0
281
0
  0
CLASS
  1
LAYOUT
  2
AcDbLayout
  3
AutoCAD 2000
 90
0
 91
0
280
0
281
0
  0
ENDSEC
  0
SECTION
  2
TABLES
  0
TABLE
  2
VPORT
  5
8
100
AcDbSymbolTable
 70
2
  0
VPORT
  5
1F4
100
AcDbSymbolTableRecord
100
AcDbViewportTableRecord
  2
*ACTIVE
 70
0
 10
0.0
 20
0.0
 11
1.0
 21
1.0
 12
148.5
 22
105.0
 13
0.0
 23
0.0
 14
1.0
 24
1.0
 15
0.0
 25
0.0
 16
0.0
 26
0.0
 36
1.0
 17
0.0
 27
0.0
 37
0.0
 40
210.0
 41
1.4142857143
 42
50.0
 43
0.0
 44
0.0
 50
0.0
 51
0.0
 71
0
 72
100
 73
1
 74
1
 75
0
 76
0
 77
0
 78
0
  0
ENDTAB
  0
TABLE
  2
LTYPE
  5
5
100
AcDbSymbolTable
 70
6
  0
LTYPE
  5
14
100
AcDbSymbolTableRecord
100
AcDbLinetypeTableRecord
  2
BYBLOCK
 70
0
  3

 72
65
 73
0
 40
0.0
  0
LTYPE
  5
15
100
AcDbSymbolTableRecord
100
AcDbLinetypeTableRecord
  2
BYLAYER
 70
0
  3

 72
65
 73
0
 40
0.0
  0
LTYPE
  5
16
100
AcDbSymbolTableRecord
100
AcDbLinetypeTableRecord
  2
CONTINUOUS
 70
64
  3
Solid line
 72
65
 73
0
 40
0.0
  0
LTYPE
  5
1F5
100
AcDbSymbolTableRecord
100
AcDbLinetypeTableRecord
  2
CENTER
 70
64
  3
____ _ ____ _ ____ _ ____ _ ____ _ ____ _ ____
 72
65
 73
4
 40
0.6
 49
0.375
 74
0
 49
-0.075
 74
0
 49
0.075
 74
0
 49
-0.075
 74
0
  0
LTYPE
  5
1F6
100
AcDbSymbolTableRecord
100
AcDbLinetypeTableRecord
  2
HIDDEN
 70
64
  3
- - - - - - - - - - - - - - - - - - - -
 72
65
 73
2
 40
0.2
 49
0.1
 74
0
 49
-0.1
 74
0
  0
LTYPE
  5
1F7
100
AcDbSymbolTableRecord
100
AcDbLinetypeTableRecord
  2
PHANTOM
 70
64
  3
_____ _ _ _____ _ _ _____ _ _ _____
 72
65
 73
6
 40
0.8
 49
0.45
 74
0
 49
-0.05
 74
0
 49
0.1
 74
0
 49
-0.05
 74
0
 49
0.1
 74
0
 49
-0.05
 74
0
  0
LTYPE
  5
1F8
100
AcDbSymbolTableRecord
100
AcDbLinetypeTableRecord
  2
DOT
 70
64
  3
. . . . . . . . . . . . . . . . . . . .
 72
65
 73
2
 40
0.2
 49
0.1
 74
0
 49
-0.1
 74
0
  0
LTYPE
  5
1F9
100
AcDbSymbolTableRecord
100
AcDbLinetypeTableRecord
  2
DASHED
 70
64
  3
- - - - - - - - - - - - - - - - - - - -
 72
65
 73
2
 40
0.2
 49
0.1
 74
0
 49
-0.1
 74
0
  0
ENDTAB
  0
TABLE
  2
LAYER
  5
2
100
AcDbSymbolTable
 70
36
  0
LAYER
  5
10
100
AcDbSymbolTableRecord
100
AcDbLayerTableRecord
  2
0
 70
0
 62
7
  6
CONTINUOUS
370
-3
390
F
  0
LAYER
  5
1FA
100
AcDbSymbolTableRecord
100
AcDbLayerTableRecord
  2
DEFAULT_1
 70
0
 62
7
  6
CENTER
370
-3
390
F
  0
LAYER
  5
1FB
100
AcDbSymbolTableRecord
100
AcDbLayerTableRecord
  2
DEFAULT_2
 70
0
 62
7
  6
HIDDEN
370
-3
390
F
  0
LAYER
  5
1FC
100
AcDbSymbolTableRecord
100
AcDbLayerTableRecord
  2
DEFAULT_3
 70
0
 62
7
  6
PHANTOM
370
-3
390
F
  0
LAYER
  5
1FD
100
AcDbSymbolTableRecord
100
AcDbLayerTableRecord
  2
ASSI
 70
0
 62
7
  6
CONTINUOUS
370
-3
390
F
  0
LAYER
  5
1FE
100
AcDbSymbolTableRecord
100
AcDbLayerTableRecord
  2
COLORE_TOP
 70
0
 62
7
  6
CONTINUOUS
370
-3
390
F
  0
LAYER
  5
1FF
100
AcDbSymbolTableRecord
100
AcDbLayerTableRecord
  2
COORDINATE
 70
0
 62
7
  6
CONTINUOUS
370
-3
390
F
  0
LAYER
  5
200
100
AcDbSymbolTableRecord
100
AcDbLayerTableRecord
  2
COORD_ORIGINE
 70
0
 62
7
  6
CONTINUOUS
370
-3
390
F
  0
LAYER
  5
201
100
AcDbSymbolTableRecord
100
AcDbLayerTableRecord
  2
COPY_PUBLISH
 70
0
 62
7
  6
CONTINUOUS
370
-3
390
F
  0
LAYER
  5
202
100
AcDbSymbolTableRecord
100
AcDbLayerTableRecord
  2
COSMETIC
 70
0
 62
7
  6
CONTINUOUS
370
-3
390
F
  0
LAYER
  5
203
100
AcDbSymbolTableRecord
100
AcDbLayerTableRecord
  2
COSMETICHE
 70
0
 62
7
  6
CONTINUOUS
370
-3
390
F
  0
LAYER
  5
204
100
AcDbSymbolTableRecord
100
AcDbLayerTableRecord
  2
COSMETICI
 70
0
 62
7
  6
CONTINUOUS
370
-3
390
F
  0
LAYER
  5
205
100
AcDbSymbolTableRecord
100
AcDbLayerTableRecord
  2
CURVE
 70
0
 62
7
  6
CONTINUOUS
370
-3
390
F
  0
LAYER
  5
206
100
AcDbSymbolTableRecord
100
AcDbLayerTableRecord
  2
DRAFT
 70
0
 62
7
  6
CONTINUOUS
370
-3
390
F
  0
LAYER
  5
207
100
AcDbSymbolTableRecord
100
AcDbLayerTableRecord
  2
IMPIANTO
 70
0
 62
7
  6
CONTINUOUS
370
-3
390
F
  0
LAYER
  5
208
100
AcDbSymbolTableRecord
100
AcDbLayerTableRecord
  2
IMPORTED
 70
0
 62
7
  6
CONTINUOUS
370
-3
390
F
  0
LAYER
  5
209
100
AcDbSymbolTableRecord
100
AcDbLayerTableRecord
  2
IMPORT_IGES
 70
0
 62
7
  6
CONTINUOUS
370
-3
390
F
  0
LAYER
  5
20A
100
AcDbSymbolTableRecord
100
AcDbLayerTableRecord
  2
INCISIONI_LASER
 70
0
 62
7
  6
CONTINUOUS
370
-3
390
F
  0
LAYER
  5
20B
100
AcDbSymbolTableRecord
100
AcDbLayerTableRecord
  2
INTFCLR_11
 70
0
 62
7
  6
CONTINUOUS
370
-3
390
F
  0
LAYER
  5
20C
100
AcDbSymbolTableRecord
100
AcDbLayerTableRecord
  2
INTFCLR_3
 70
0
 62
7
  6
CONTINUOUS
370
-3
390
F
  0
LAYER
  5
20D
100
AcDbSymbolTableRecord
100
AcDbLayerTableRecord
  2
INTF_1
 70
0
 62
7
  6
CONTINUOUS
370
-3
390
F
  0
LAYER
  5
20E
100
AcDbSymbolTableRecord
100
AcDbLayerTableRecord
  2
INTF_11
 70
0
 62
7
  6
CONTINUOUS
370
-3
390
F
  0
LAYER
  5
20F
100
AcDbSymbolTableRecord
100
AcDbLayerTableRecord
  2
INTF_12
 70
0
 62
7
  6
CONTINUOUS
370
-3
390
F
  0
LAYER
  5
210
100
AcDbSymbolTableRecord
100
AcDbLayerTableRecord
  2
INTF_2
 70
0
 62
7
  6
CONTINUOUS
370
-3
390
F
  0
LAYER
  5
211
100
AcDbSymbolTableRecord
100
AcDbLayerTableRecord
  2
INTF_3
 70
0
 62
7
  6
CONTINUOUS
370
-3
390
F
  0
LAYER
  5
212
100
AcDbSymbolTableRecord
100
AcDbLayerTableRecord
  2
NOTE
 70
0
 62
7
  6
CONTINUOUS
370
-3
390
F
  0
LAYER
  5
213
100
AcDbSymbolTableRecord
100
AcDbLayerTableRecord
  2
PIANI
 70
0
 62
7
  6
CONTINUOUS
370
-3
390
F
  0
LAYER
  5
214
100
AcDbSymbolTableRecord
100
AcDbLayerTableRecord
  2
PIANI_ORIGINE
 70
0
 62
7
  6
CONTINUOUS
370
-3
390
F
  0
LAYER
  5
215
100
AcDbSymbolTableRecord
100
AcDbLayerTableRecord
  2
PIANI_SFORMO
 70
0
 62
7
  6
CONTINUOUS
370
-3
390
F
  0
LAYER
  5
216
100
AcDbSymbolTableRecord
100
AcDbLayerTableRecord
  2
PUNTI
 70
0
 62
7
  6
CONTINUOUS
370
-3
390
F
  0
LAYER
  5
217
100
AcDbSymbolTableRecord
100
AcDbLayerTableRecord
  2
RACCORDO
 70
0
 62
7
  6
CONTINUOUS
370
-3
390
F
  0
LAYER
  5
218
100
AcDbSymbolTableRecord
100
AcDbLayerTableRecord
  2
RGB__255__255__255__
 70
0
 62
7
  6
CONTINUOUS
370
-3
390
F
  0
LAYER
  5
219
100
AcDbSymbolTableRecord
100
AcDbLayerTableRecord
  2
RINTRACCIABILITA
 70
0
 62
7
  6
CONTINUOUS
370
-3
390
F
  0
LAYER
  5
21A
100
AcDbSymbolTableRecord
100
AcDbLayerTableRecord
  2
SIMBOLI
 70
0
 62
7
  6
CONTINUOUS
370
-3
390
F
  0
LAYER
  5
21B
100
AcDbSymbolTableRecord
100
AcDbLayerTableRecord
  2
SMUSSO
 70
0
 62
7
  6
CONTINUOUS
370
-3
390
F
  0
LAYER
  5
21C
100
AcDbSymbolTableRecord
100
AcDbLayerTableRecord
  2
SNAPLINE
 70
0
 62
7
  6
CONTINUOUS
370
-3
390
F
  0
LAYER
  5
21D
100
AcDbSymbolTableRecord
100
AcDbLayerTableRecord
  2
SUPERFICI
 70
0
 62
7
  6
CONTINUOUS
370
-3
390
F
  0
LAYER
  5
21E
100
AcDbSymbolTableRecord
100
AcDbLayerTableRecord
  2
TRASH
 70
0
 62
7
  6
CONTINUOUS
370
-3
390
F
  0
LAYER
  5
21F
100
AcDbSymbolTableRecord
100
AcDbLayerTableRecord
  2
XSEC_DATUMS
 70
0
 62
7
  6
CONTINUOUS
370
-3
390
F
  0
LAYER
  5
220
100
AcDbSymbolTableRecord
100
AcDbLayerTableRecord
  2
___SHELL
 70
0
 62
7
  6
CONTINUOUS
370
-3
390
F
  0
ENDTAB
  0
TABLE
  2
STYLE
  5
3
100
AcDbSymbolTable
 70
1
  0
STYLE
  5
11
100
AcDbSymbolTableRecord
100
AcDbTextStyleTableRecord
  2
STANDARD
 70
0
 40
0.0
 41
0.8
 50
0.0
 71
0
 42
0.2
  3
txt
  4

  0
STYLE
  5
221
100
AcDbSymbolTableRecord
100
AcDbTextStyleTableRecord
  2
TEXTSTYLE_1
 70
0
 40
0.0
 41
0.8
 50
0.0
 71
0
 42
0.2
  3
gdt
  4

  0
ENDTAB
  0
TABLE
  2
VIEW
  5
6
100
AcDbSymbolTable
 70
0
  0
ENDTAB
  0
TABLE
  2
UCS
  5
7
100
AcDbSymbolTable
 70
0
  0
ENDTAB
  0
TABLE
  2
APPID
  5
9
100
AcDbSymbolTable
 70
1
  0
APPID
  5
222
100
AcDbSymbolTableRecord
100
AcDbRegAppTableRecord
  2
ACAD
 70
0
  0
ENDTAB
  0
TABLE
  2
BLOCK_RECORD
  5
1
100
AcDbSymbolTable
 70
0
  0
BLOCK_RECORD
  5
223
100
AcDbSymbolTableRecord
100
AcDbBlockTableRecord
  2
*Model_Space
  0
BLOCK_RECORD
  5
224
100
AcDbSymbolTableRecord
100
AcDbBlockTableRecord
  2
*Paper_Space
  0
BLOCK_RECORD
  5
225
100
AcDbSymbolTableRecord
100
AcDbBlockTableRecord
  2
_FILLED
  0
ENDTAB
  0
TABLE
  2
DIMSTYLE
  5
A
100
AcDbSymbolTable
 70
1
100
AcDbDimStyleTable
 71
0
  0
DIMSTYLE
105
226
100
AcDbSymbolTableRecord
100
AcDbDimStyleTableRecord
  2
STANDARD
 70
0
  3

  4

 40
1.0
 41
3.0
 42
0.5
 43
0.38
 44
1.5
 45
0.0
 46
0.0
 47
0.01
 48
0.01
140
3.0
141
0.09
142
0.0
143
25.4
144
1.0
145
0.0
146
1.0
147
0.625
 71
1
 72
0
 73
0
 74
0
 75
0
 76
0
 77
1
 78
8
 79
2
170
0
171
1
172
0
173
0
174
0
175
0
176
0
177
0
178
0
270
2
179
2
271
2
272
2
273
2
274
2
275
0
280
0
281
0
282
0
283
1
284
8
285
0
286
0
287
3
288
0
340
11
278
44
341
225
342
225
343
225
344
225
  0
ENDTAB
  0
ENDSEC
  0
SECTION
  2
BLOCKS
  0
BLOCK
  5
20
100
AcDbEntity
  8
0
100
AcDbBlockBegin
  2
*Model_Space
 70
0
 10
0.0
 20
0.0
 30
0.0
  3
*Model_Space
  1

  0
ENDBLK
  5
21
100
AcDbEntity
  8
0
100
AcDbBlockEnd
  0
BLOCK
  5
1C
100
AcDbEntity
  8
0
100
AcDbBlockBegin
  2
*Paper_Space
 70
0
 10
0.0
 20
0.0
 30
0.0
  3
*Paper_Space
  1

  0
ENDBLK
  5
1D
100
AcDbEntity
  8
0
100
AcDbBlockEnd
  0
BLOCK
  5
227
100
AcDbEntity
  8
0
100
AcDbBlockBegin
  2
_FILLED
 70
64
 10
0.0
 20
0.0
  3
_FILLED
  1

  0
SOLID
  5
228
100
AcDbEntity
  8
0
  6
BYBLOCK
 62
0
100
AcDbTrace
 10
0.0
 20
0.0
 11
-1.0
 21
0.3166666667
 12
-1.0
 22
-0.3166666667
 13
-1.0
 23
-0.3166666667
  0
ENDBLK
  5
229
100
AcDbEntity
  8
0
  6
BYBLOCK
 62
0
100
AcDbBlockEnd
  0
ENDSEC
  0
SECTION
  2
ENTITIES
  0
LWPOLYLINE
  5
22A
100
AcDbEntity
  8
ASSI
100
AcDbPolyline
 62
7
  6
CONTINUOUS
 90
12
 70
0
 10
-12.6882634997
 20
26.843657
 10
-12.7067871413
 20
26.8325905829
 10
-12.7279965295
 20
26.8169492269
 10
-12.7478081967
 20
26.79887541
 10
-12.7659687503
 20
26.7785383338
 10
-12.7818200367
 20
26.7567771886
 10
-12.7956313137
 20
26.7333445641
 10
-12.8073514871
 20
26.70813717
 10
-12.8163983328
 20
26.68234904
 10
-12.8227702709
 20
26.6562864643
 10
-12.8265674296
 20
26.6292722756
 10
-12.8275716506
 20
26.6065701302
  0
LINE
  5
22B
100
AcDbEntity
  8
ASSI
100
AcDbLine
 62
7
  6
CONTINUOUS
 10
-12.6884046125
 20
26.8435816749
 11
-11.1212041221
 21
27.6891222937
  0
LINE
  5
22C
100
AcDbEntity
  8
ASSI
100
AcDbLine
 62
250
  6
CONTINUOUS
 10
-12.5959079914
 20
26.83951013
 11
-11.0296572453
 21
27.68453834
  0
LINE
  5
22D
100
AcDbEntity
  8
ASSI
100
AcDbLine
 62
7
  6
CONTINUOUS
 10
-11.1169962852
 20
27.6912281714
 11
-11.1211617887
 21
27.6891451336
  0
LWPOLYLINE
  5
22E
100
AcDbEntity
  8
ASSI
100
AcDbPolyline
 62
250
  6
CONTINUOUS
 90
7
 70
0
 10
-12.6882637563
 20
26.8436574774
 10
-12.6829644739
 20
26.8462408827
 10
-12.6674984056
 20
26.8511832763
 10
-12.6507656655
 20
26.8529851354
 10
-12.6330524446
 20
26.8516156417
 10
-12.6146617036
 20
26.8470982184
 10
-12.5959079914
 20
26.83951013
  0
LINE
  5
22F
100
AcDbEntity
  8
ASSI
100
AcDbLine
 62
250
  6
CONTINUOUS
 10
-11.0296572453
 20
27.68453834
 11
-10.4869311826
 21
27.9351872211
  0
LINE
  5
230
100
AcDbEntity
  8
ASSI
100
AcDbLine
 62
7
  6
CONTINUOUS
 10
-11.1169384454
 20
27.6912549614
 11
-10.5730370871
 21
27.9424462073
  0
LWPOLYLINE
  5
231
100
AcDbEntity
  8
ASSI
100
AcDbPolyline
 62
250
  6
CONTINUOUS
 90
14
 70
0
 10
-10.4869311826
 20
27.9351872211
 10
-10.4783682831
 20
27.9390035848
 10
-10.4695866526
 20
27.9423898864
 10
-10.4606112691
 20
27.9452911734
 10
-10.4514494726
 20
27.9476560125
 10
-10.4421557741
 20
27.9494196445
 10
-10.4328291317
 20
27.9505197227
 10
-10.4235063838
 20
27.9509133189
 10
-10.4142276573
 20
27.9505587073
 10
-10.4050939513
 20
27.949425858
 10
-10.3961444121
 20
27.9474919198
 10
-10.3874200901
 20
27.9447368445
 10
-10.3790155434
 20
27.9411690721
 10
-10.3778408722
 20
27.940592008
  0
LINE
  5
232
100
AcDbEntity
  8
ASSI
100
AcDbLine
 62
7
  6
CONTINUOUS
 10
-10.5499036781
 20
27.9516672647
 11
-10.573037018
 21
27.9424460567
  0
LWPOLYLINE
  5
233
100
AcDbEntity
  8
ASSI
100
AcDbPolyline
 62
250
  6
CONTINUOUS
 90
6
 70
0
 10
-10.5730370871
 20
27.9424462073
 10
-10.5567157836
 20
27.947763291
 10
-10.5402764035
 20
27.9494184782
 10
-10.5229668356
 20
27.947847159
 10
-10.5050831363
 20
27.9430762069
 10
-10.4869311826
 20
27.9351872211
  0
LINE
  5
234
100
AcDbEntity
  8
ASSI
100
AcDbLine
 62
7
  6
CONTINUOUS
 10
-11.8669880436
 20
25.7253032083
 11
-11.8335246303
 21
25.7508847566
  0
LWPOLYLINE
  5
235
100
AcDbEntity
  8
RACCORDO
100
AcDbPolyline
 62
250
  6
CONTINUOUS
 90
20
 70
0
 10
-16.1416613142
 20
22.9928793651
 10
-16.2025696177
 20
22.9519066406
 10
-16.2626222936
 20
22.9061089069
 10
-16.3215140527
 20
22.8557215212
 10
-16.3789794124
 20
22.8010154482
 10
-16.43471457
 20
22.7422607157
 10
-16.488416365
 20
22.6797531279
 10
-16.5398345617
 20
22.613832847
 10
-16.5886957821
 20
22.5448341513
 10
-16.6347382231
 20
22.4731014724
 10
-16.6777503026
 20
22.3990146722
 10
-16.717505846
 20
22.3229482876
 10
-16.7537907102
 20
22.2452853848
 10
-16.7864378567
 20
22.1664341534
 10
-16.8152753695
 20
22.0868012432
 10
-16.8401507793
 20
22.0067820197
 10
-16.8609543184
 20
21.9267740678
 10
-16.8775808057
 20
21.8471806591
 10
-16.889933293
 20
21.7684088947
 10
-16.8979450356
 20
21.6908598627
  0
LINE
  5
236
100
AcDbEntity
  8
ASSI
100
AcDbLine
 62
7
  6
CONTINUOUS
 10
-12.4749150273
 20
25.3498038068
 11
-12.112708672
 21
25.564520528
  0
LINE
  5
237
100
AcDbEntity
  8
ASSI
100
AcDbLine
 62
250
  6
CONTINUOUS
 10
-12.2396615463
 20
25.3421472685
 11
-12.112708672
 21
25.4174052106
  0
LWPOLYLINE
  5
238
100
AcDbEntity
  8
RACCORDO
100
AcDbPolyline
 62
7
  6
CONTINUOUS
 90
18
 70
0
 10
-16.2492916414
 20
23.0703915388
 10
-16.3276098409
 20
23.0275139219
 10
-16.4007461066
 20
22.979567547
 10
-16.472302794
 20
22.9246095385
 10
-16.541547933
 20
22.8630754372
 10
-16.6068549997
 20
22.796547812
 10
-16.667861052
 20
22.725812818
 10
-16.7248640034
 20
22.6508609598
 10
-16.7773829128
 20
22.5725422612
 10
-16.8252589446
 20
22.4914068602
 10
-16.8684849234
 20
22.4076462803
 10
-16.9068553791
 20
22.3217597795
 10
-16.9402317948
 20
22.2340997345
 10
-16.9684332092
 20
22.1449668001
 10
-16.9912508102
 20
22.0547421154
 10
-17.0084525576
 20
21.9636816815
 10
-17.0197757678
 20
21.8720694275
 10
-17.0215671684
 20
21.8502898669
  0
LINE
  5
239
100
AcDbEntity
  8
ASSI
100
AcDbLine
 62
250
  6
CONTINUOUS
 10
-10.53019395
 20
25.8066531093
 11
-8.9082938234
 21
26.6238566291
  0
LINE
  5
23A
100
AcDbEntity
  8
ASSI
100
AcDbLine
 62
250
  6
CONTINUOUS
 10
-10.388794133
 20
25.5627745
 11
-8.7668940063
 21
26.3799780197
  0
LWPOLYLINE
  5
23B
100
AcDbEntity
  8
RACCORDO
100
AcDbPolyline
 62
250
  6
CONTINUOUS
 90
3
 70
0
 10
-16.0186396086
 20
23.0595807988
 10
-16.0802412343
 20
23.0288300774
 10
-16.1416613142
 20
22.9928793651
  0
LINE
  5
23C
100
AcDbEntity
  8
ASSI
100
AcDbLine
 62
250
  6
CONTINUOUS
 10
-8.9082938234
 20
26.6238566291
 11
-8.3841893568
 21
26.8838163082
  0
LINE
  5
23D
100
AcDbEntity
  8
ASSI
100
AcDbLine
 62
250
  6
CONTINUOUS
 10
-8.7668940063
 20
26.3799780197
 11
-8.2427895398
 21
26.6399376989
  0
LINE
  5
23E
100
AcDbEntity
  8
RACCORDO
100
AcDbLine
 62
7
  6
CONTINUOUS
 10
-13.0530480112
 20
24.6492062772
 11
-16.2493313729
 21
23.0703810269
  0
LINE
  5
23F
100
AcDbEntity
  8
RACCORDO
100
AcDbLine
 62
250
  6
CONTINUOUS
 10
-12.8259283476
 20
24.6366415864
 11
-16.018639585
 21
23.0595808105
  0
LWPOLYLINE
  5
240
100
AcDbEntity
  8
ASSI
100
AcDbPolyline
 62
250
  6
CONTINUOUS
 90
28
 70
0
 10
-8.2427895398
 20
26.6399376989
 10
-8.2410858799
 20
26.6407444935
 10
-8.2393530786
 20
26.6414409208
 10
-8.2375911359
 20
26.6420269806
 10
-8.2357891284
 20
26.6425130264
 10
-8.2339579795
 20
26.6428887048
 10
-8.2321304587
 20
26.643122956
 10
-8.2303059674
 20
26.6432112036
 10
-8.2284851042
 20
26.643158024
 10
-8.226702434
 20
26.6429460868
 10
-8.2249589617
 20
26.6425699848
 10
-8.2232536825
 20
26.6420351251
 10
-8.2216181469
 20
26.6413403989
 10
-8.2200554956
 20
26.6404818083
 10
-8.2185625879
 20
26.6394633511
 10
-8.2171615529
 20
26.638295912
 10
-8.2158551838
 20
26.6369778437
 10
-8.2146406874
 20
26.6355107935
 10
-8.2135318136
 20
26.6339105879
 10
-8.2125299435
 20
26.6321758746
 10
-8.211633696
 20
26.6303080059
 10
-8.2108526775
 20
26.6283268655
 10
-8.2101881639
 20
26.6262311453
 10
-8.2096388795
 20
26.6240221534
 10
-8.2092106025
 20
26.6217236976
 10
-8.2089052594
 20
26.619343714
 10
-8.2087209238
 20
26.6168742664
 10
-8.2086575958
 20
26.614315355
  0
LWPOLYLINE
  5
241
100
AcDbEntity
  8
ASSI
100
AcDbPolyline
 62
250
  6
CONTINUOUS
 90
14
 70
0
 10
-8.3841893568
 20
26.8838163082
 10
-8.3755991825
 20
26.8876994706
 10
-8.366804163
 20
26.8911377362
 10
-8.3578297244
 20
26.8940778447
 10
-8.3486839201
 20
26.8964704215
 10
-8.3394209947
 20
26.8982526816
 10
-8.3301386074
 20
26.899364216
 10
-8.3208732591
 20
26.8997646647
 10
-8.311664594
 20
26.8994149734
 10
-8.3026116922
 20
26.8982875002
 10
-8.2937537743
 20
26.8963625798
 10
-8.2851293921
 20
26.8936229863
 10
-8.2768273168
 20
26.8900781128
 10
-8.2758559128
 20
26.8895995284
  0
LWPOLYLINE
  5
242
100
AcDbEntity
  8
ASSI
100
AcDbPolyline
 62
250
  6
CONTINUOUS
 90
11
 70
0
 10
-12.6941943348
 20
26.7506252
 10
-12.6854082449
 20
26.7621732417
 10
-12.6763055611
 20
26.7732138387
 10
-12.6669154473
 20
26.7837151427
 10
-12.6572674715
 20
26.7936457159
 10
-12.64739602
 20
26.8029717057
 10
-12.6373369248
 20
26.8116607413
 10
-12.6271224115
 20
26.8196855748
 10
-12.6167875707
 20
26.8270190331
 10
-12.6063704245
 20
26.8336348341
 10
-12.5959079914
 20
26.83951013
  0
LWPOLYLINE
  5
243
100
AcDbEntity
  8
ASSI
100
AcDbPolyline
 62
7
  6
CONTINUOUS
 90
12
 70
0
 10
-9.669344757
 20
25.0000294278
 10
-9.6913774932
 20
24.9793846687
 10
-9.7152652848
 20
24.9601195746
 10
-9.7408325231
 20
24.9426269772
 10
-9.7680327734
 20
24.9272747181
 10
-9.7964474054
 20
24.9144213594
 10
-9.8252624516
 20
24.9043527861
 10
-9.8540921291
 20
24.8972555006
 10
-9.8826406916
 20
24.8933078761
 10
-9.9101777691
 20
24.8925668719
 10
-9.9362323473
 20
24.894959201
 10
-9.9470397604
 20
24.896949199
  0
LWPOLYLINE
  5
244
100
AcDbEntity
  8
ASSI
100
AcDbPolyline
 62
250
  6
CONTINUOUS
 90
13
 70
0
 10
-6.856454904
 20
24.9457365673
 10
-6.8746867167
 20
24.9347815871
 10
-6.8925721634
 20
24.9211328171
 10
-6.9098119726
 20
24.905018638
 10
-6.9261176758
 20
24.8867086832
 10
-6.9412164349
 20
24.8665093277
 10
-6.9548556069
 20
24.8447585608
 10
-6.9668069718
 20
24.8218203315
 10
-6.9768705512
 20
24.798078458
 10
-6.9848779544
 20
24.7739302057
 10
-6.9906951958
 20
24.7497796398
 10
-6.9942249375
 20
24.7260308642
 10
-6.9954081173
 20
24.7030812599
  0
LWPOLYLINE
  5
245
100
AcDbEntity
  8
ASSI
100
AcDbPolyline
 62
7
  6
CONTINUOUS
 90
12
 70
0
 10
-6.971781057
 20
24.9509840818
 10
-6.9741445125
 20
24.9496908562
 10
-6.9943517422
 20
24.9369833632
 10
-7.0131304963
 20
24.9220873532
 10
-7.0302094738
 20
24.9052025668
 10
-7.04547854
 20
24.8864025184
 10
-7.058708948
 20
24.8659041978
 10
-7.0696974584
 20
24.8439958158
 10
-7.0783685436
 20
24.8207715327
 10
-7.0846049672
 20
24.7963955167
 10
-7.0882766032
 20
24.771193256
 10
-7.0893365118
 20
24.748222671
  0
LINE
  5
246
100
AcDbEntity
  8
ASSI
100
AcDbLine
 62
7
  6
CONTINUOUS
 10
-9.669344757
 20
24.2418289817
 11
-8.7668940063
 21
24.7345033726
  0
LINE
  5
247
100
AcDbEntity
  8
ASSI
100
AcDbLine
 62
7
  6
CONTINUOUS
 10
-6.7600341827
 20
25.065227251
 11
-6.971829018
 21
24.9509590784
  0
LINE
  5
248
100
AcDbEntity
  8
ASSI
100
AcDbLine
 62
250
  6
CONTINUOUS
 10
-6.6456005867
 20
25.0594973088
 11
-6.856454904
 21
24.9457365673
  0
LWPOLYLINE
  5
249
100
AcDbEntity
  8
ASSI
100
AcDbPolyline
 62
250
  6
CONTINUOUS
 90
9
 70
0
 10
-2.2430344803
 20
26.5376621463
 10
-2.2166680976
 20
26.5517711387
 10
-2.1934929812
 20
26.5671439507
 10
-2.1737582786
 20
26.5836127299
 10
-2.157676929
 20
26.6009966932
 10
-2.1454185419
 20
26.6191082285
 10
-2.1371113673
 20
26.6377555574
 10
-2.1328458452
 20
26.6567398886
 10
-2.1322516984
 20
26.6684427423
  0
LWPOLYLINE
  5
24A
100
AcDbEntity
  8
ASSI
100
AcDbPolyline
 62
250
  6
CONTINUOUS
 90
31
 70
0
 10
-2.4166654199
 20
26.8383686953
 10
-2.4076650501
 20
26.8431803052
 10
-2.3998750795
 20
26.8483215357
 10
-2.3932955079
 20
26.8537923869
 10
-2.3878763404
 20
26.8596615704
 10
-2.383667572
 20
26.8658603745
 10
-2.3808191876
 20
26.8721826643
 10
-2.3793800836
 20
26.8786297049
 10
-2.3793013635
 20
26.8852002312
 10
-2.3805863234
 20
26.8916843131
 10
-2.3832793737
 20
26.8980791844
 10
-2.3873361039
 20
26.9043876113
 10
-2.3926265786
 20
26.9104079616
 10
-2.3991905017
 20
26.916130945
 10
-2.4069881693
 20
26.9215658518
 10
-2.4157705345
 20
26.9265389206
 10
-2.425569463
 20
26.9310352331
 10
-2.4363530891
 20
26.9350697076
 10
-2.4477767683
 20
26.9385133383
 10
-2.4598611812
 20
26.9413470912
 10
-2.4725856471
 20
26.9435900004
 10
-2.4855434795
 20
26.9451701615
 10
-2.4987422359
 20
26.9460660799
 10
-2.5121743587
 20
26.9462992504
 10
-2.5254104892
 20
26.9458622528
 10
-2.5384454018
 20
26.9447331575
 10
-2.551284322
 20
26.9429338942
 10
-2.5635135673
 20
26.9405228318
 10
-2.5749952434
 20
26.9375194266
 10
-2.5858672445
 20
26.9339042223
 10
-2.5961295707
 20
26.9296772189
  0
LINE
  5
24B
100
AcDbEntity
  8
ASSI
100
AcDbLine
 62
7
  6
CONTINUOUS
 10
-6.7599798898
 20
25.0652564889
 11
-6.7547718441
 21
25.0678608694
  0
LWPOLYLINE
  5
24C
100
AcDbEntity
  8
ASSI
100
AcDbPolyline
 62
250
  6
CONTINUOUS
 90
13
 70
0
 10
-6.9717799404
 20
24.9509855393
 10
-6.9665004099
 20
24.9536202189
 10
-6.9578626176
 20
24.9570957856
 10
-6.9488455188
 20
24.9597428079
 10
-6.9394842403
 20
24.961551414
 10
-6.929811173
 20
24.9625157832
 10
-6.9198614649
 20
24.9626326011
 10
-6.9096712335
 20
24.9619014639
 10
-6.8992781277
 20
24.9603251082
 10
-6.8887209512
 20
24.9579097627
 10
-6.8780386601
 20
24.9546646993
 10
-6.8672701633
 20
24.9506019352
 10
-6.856454904
 20
24.9457365673
  0
LINE
  5
24D
100
AcDbEntity
  8
ASSI
100
AcDbLine
 62
7
  6
CONTINUOUS
 10
-1.0515701374
 20
28.5008111001
 11
-8.0987582912
 21
25.0924257665
  0
LINE
  5
24E
100
AcDbEntity
  8
ASSI
100
AcDbLine
 62
250
  6
CONTINUOUS
 10
-5.7317456504
 20
25.2531805457
 11
-2.4166654199
 21
26.8383686953
  0
LINE
  5
24F
100
AcDbEntity
  8
ASSI
100
AcDbLine
 62
250
  6
CONTINUOUS
 10
-5.3394512798
 20
25.0570333605
 11
-2.2430344803
 21
26.5376621463
  0
LINE
  5
250
100
AcDbEntity
  8
ASSI
100
AcDbLine
 62
7
  6
CONTINUOUS
 10
-2.7040344256
 20
26.9386256461
 11
-6.7547020869
 21
25.0678930856
  0
LINE
  5
251
100
AcDbEntity
  8
ASSI
100
AcDbLine
 62
250
  6
CONTINUOUS
 10
-2.5961295707
 20
26.9296772189
 11
-6.6456005867
 21
25.0594973088
  0
LINE
  5
252
100
AcDbEntity
  8
ASSI
100
AcDbLine
 62
7
  6
CONTINUOUS
 10
-2.6685731892
 20
26.9529401477
 11
-2.7041750281
 21
26.9385566436
  0
LINE
  5
253
100
AcDbEntity
  8
0
100
AcDbLine
 62
250
  6
CONTINUOUS
 10
-10.008753994
 20
23.2280544096
 11
-9.8403103328
 21
23.2903895548
  0
LWPOLYLINE
  5
254
100
AcDbEntity
  8
ASSI
100
AcDbPolyline
 62
7
  6
CONTINUOUS
 90
3
 70
0
 10
-6.7547718441
 20
25.0678608694
 10
-6.7339750062
 20
25.074688711
 10
-6.7132413842
 20
25.0768422002
  0
LWPOLYLINE
  5
255
100
AcDbEntity
  8
ASSI
100
AcDbPolyline
 62
7
  6
CONTINUOUS
 90
6
 70
0
 10
-11.9067456135
 20
25.6869652264
 10
-11.9049493161
 20
25.6906452329
 10
-11.8997236904
 20
25.6968370285
 10
-11.8915264811
 20
25.7051773568
 10
-11.8805540305
 20
25.7147391494
 10
-11.8669880436
 20
25.7253032083
  0
LWPOLYLINE
  5
256
100
AcDbEntity
  8
ASSI
100
AcDbPolyline
 62
250
  6
CONTINUOUS
 90
7
 70
0
 10
-8.2143392572
 20
26.1716364194
 10
-8.2133561928
 20
26.1729846832
 10
-8.2105388054
 20
26.1803506327
 10
-8.2104178729
 20
26.1896962311
 10
-8.2129954418
 20
26.2008633419
 10
-8.218227897
 20
26.2136630067
 10
-8.2260267005
 20
26.227878643
  0
LWPOLYLINE
  5
257
100
AcDbEntity
  8
ASSI
100
AcDbPolyline
 62
7
  6
CONTINUOUS
 90
6
 70
0
 10
-8.2143644953
 20
26.1716054774
 10
-8.2048896929
 20
26.1840343864
 10
-8.1912772056
 20
26.20488902
 10
-8.1794240745
 20
26.227155567
 10
-8.1694811455
 20
26.2507159953
 10
-8.1618272479
 20
26.2746928124
  0
LINE
  5
258
100
AcDbEntity
  8
ASSI
100
AcDbLine
 62
250
  6
CONTINUOUS
 10
-8.2260267005
 20
26.227878643
 11
-8.7668940063
 21
25.5585911569
  0
LINE
  5
259
100
AcDbEntity
  8
ASSI
100
AcDbLine
 62
7
  6
CONTINUOUS
 10
-8.2143392572
 20
26.1716364194
 11
-8.7668940063
 21
25.487886496
  0
LWPOLYLINE
  5
25A
100
AcDbEntity
  8
ASSI
100
AcDbPolyline
 62
250
  6
CONTINUOUS
 90
13
 70
0
 10
-4.6365064154
 20
23.835762323
 10
-4.6547382402
 20
23.8248073345
 10
-4.6726236963
 20
23.8111585545
 10
-4.6898635119
 20
23.7950443649
 10
-4.7061692185
 20
23.7767344003
 10
-4.7212679781
 20
23.7565350367
 10
-4.7349071477
 20
23.7347842649
 10
-4.7468585079
 20
23.7118460346
 10
-4.7569220812
 20
23.6881041642
 10
-4.7649294777
 20
23.6639559192
 10
-4.7707467132
 20
23.6398053645
 10
-4.7742764505
 20
23.6160566033
 10
-4.7754596287
 20
23.5931070156
  0
LINE
  5
25B
100
AcDbEntity
  8
ASSI
100
AcDbLine
 62
250
  6
CONTINUOUS
 10
-4.6365064154
 20
23.835762323
 11
-4.4181603781
 21
23.9457772045
  0
LINE
  5
25C
100
AcDbEntity
  8
ASSI
100
AcDbLine
 62
250
  6
CONTINUOUS
 10
-4.4597566441
 20
23.5309140613
 11
-4.2414106067
 21
23.6409289429
  0
LINE
  5
25D
100
AcDbEntity
  8
ASSI
100
AcDbLine
 62
7
  6
CONTINUOUS
 10
-3.0476692886
 20
23.2091011883
 11
-3.0424612428
 21
23.2117055688
  0
LINE
  5
25E
100
AcDbEntity
  8
ASSI
100
AcDbLine
 62
7
  6
CONTINUOUS
 10
0.8932882515
 20
26.0349919122
 11
-0.1879551181
 21
25.4943702274
  0
LINE
  5
25F
100
AcDbEntity
  8
ASSI
100
AcDbLine
 62
250
  6
CONTINUOUS
 10
-4.4181603781
 20
23.9457772045
 11
-3.7649416135
 21
24.2697785273
  0
LINE
  5
260
100
AcDbEntity
  8
ASSI
100
AcDbLine
 62
250
  6
CONTINUOUS
 10
-4.2414106067
 20
23.6409289429
 11
-3.5836421953
 21
23.9671869241
  0
LINE
  5
261
100
AcDbEntity
  8
ASSI
100
AcDbLine
 62
250
  6
CONTINUOUS
 10
1.801765145
 20
27.0741434589
 11
-0.4309441192
 21
26.0061852032
  0
LINE
  5
262
100
AcDbEntity
  8
ASSI
100
AcDbLine
 62
250
  6
CONTINUOUS
 10
1.9406968191
 20
26.8320536236
 11
-0.1843456743
 21
25.8155949601
  0
LINE
  5
263
100
AcDbEntity
  8
ASSI
100
AcDbLine
 62
7
  6
CONTINUOUS
 10
-1.1298984617
 20
25.8705978498
 11
-2.2305904389
 21
25.3442745764
  0
LINE
  5
264
100
AcDbEntity
  8
RACCORDO
100
AcDbLine
 62
7
  6
CONTINUOUS
 10
-1.006687808
 20
24.8800480303
 11
-1.1448026101
 21
24.814810945
  0
LINE
  5
265
100
AcDbEntity
  8
RACCORDO
100
AcDbLine
 62
250
  6
CONTINUOUS
 10
-0.9231538015
 20
24.8715489436
 11
-1.0594300906
 21
24.8071802607
  0
LINE
  5
266
100
AcDbEntity
  8
ASSI
100
AcDbLine
 62
7
  6
CONTINUOUS
 10
-2.3649878716
 20
23.5245852224
 11
-3.0423914857
 21
23.211737785
  0
LINE
  5
267
100
AcDbEntity
  8
ASSI
100
AcDbLine
 62
250
  6
CONTINUOUS
 10
-2.2568621533
 20
23.5157387972
 11
-2.9332899855
 21
23.2033420082
  0
LWPOLYLINE
  5
268
100
AcDbEntity
  8
RACCORDO
100
AcDbPolyline
 62
250
  6
CONTINUOUS
 90
11
 70
0
 10
-0.0896876785
 20
24.9253689167
 10
-0.080595218
 20
24.9294593678
 10
-0.0715365438
 20
24.932816153
 10
-0.0625494222
 20
24.9354231251
 10
-0.0536682345
 20
24.9372677293
 10
-0.0449337701
 20
24.9383388749
 10
-0.0363924217
 20
24.938629889
 10
-0.0280755964
 20
24.9381393949
 10
-0.0200223724
 20
24.9368693825
 10
-0.0122863921
 20
24.9348318663
 10
-0.0049127493
 20
24.9320484974
  0
LINE
  5
269
100
AcDbEntity
  8
RACCORDO
100
AcDbLine
 62
7
  6
CONTINUOUS
 10
-1.0066342925
 20
24.8800733077
 11
-1.0034262524
 21
24.8814889374
  0
LWPOLYLINE
  5
26A
100
AcDbEntity
  8
RACCORDO
100
AcDbPolyline
 62
7
  6
CONTINUOUS
 90
5
 70
0
 10
-1.1449210788
 20
24.8147540427
 10
-1.1400779141
 20
24.8168116669
 10
-1.1326515542
 20
24.8191295294
 10
-1.124505136
 20
24.820661894
 10
-1.1155868011
 20
24.8213128077
  0
LWPOLYLINE
  5
26B
100
AcDbEntity
  8
ASSI
100
AcDbPolyline
 62
250
  6
CONTINUOUS
 90
13
 70
0
 10
-4.4597566441
 20
23.5309140613
 10
-4.4794900543
 20
23.5225489538
 10
-4.501217972
 20
23.5155274659
 10
-4.5245768307
 20
23.5099670861
 10
-4.5491757739
 20
23.5059608545
 10
-4.5746031952
 20
23.503575806
 10
-4.6004336253
 20
23.5028518491
 10
-4.6262348517
 20
23.5038010973
 10
-4.6515751506
 20
23.5064076674
 10
-4.6760305105
 20
23.5106279442
 10
-4.6991917276
 20
23.5163913113
 10
-4.7206712523
 20
23.523601332
 10
-4.7401096744
 20
23.5321373633
  0
LINE
  5
26C
100
AcDbEntity
  8
RACCORDO
100
AcDbLine
 62
7
  6
CONTINUOUS
 10
-0.9335856626
 20
24.9075900746
 11
-1.0034266137
 21
24.8814887671
  0
LWPOLYLINE
  5
26D
100
AcDbEntity
  8
ASSI
100
AcDbPolyline
 62
7
  6
CONTINUOUS
 90
3
 70
0
 10
-3.0424612428
 20
23.2117055688
 10
-3.021664405
 20
23.2185334104
 10
-3.000930783
 20
23.2206868996
  0
LINE
  5
26E
100
AcDbEntity
  8
RACCORDO
100
AcDbLine
 62
7
  6
CONTINUOUS
 10
-0.8585465524
 20
24.9305176396
 11
-0.9335856626
 21
24.9075900746
  0
LWPOLYLINE
  5
26F
100
AcDbEntity
  8
ASSI
100
AcDbPolyline
 62
250
  6
CONTINUOUS
 90
6
 70
0
 10
2.9152522842
 20
24.1284422277
 10
2.9345077607
 20
24.134281092
 10
2.9551593956
 20
24.1362607361
 10
2.976865496
 20
24.1343485323
 10
2.9992669064
 20
24.1285762407
 10
3.021993005
 20
24.1190394828
  0
LWPOLYLINE
  5
270
100
AcDbEntity
  8
RACCORDO
100
AcDbPolyline
 62
7
  6
CONTINUOUS
 90
6
 70
0
 10
-1.0034262524
 20
24.8814889374
 10
-0.9901979778
 20
24.8854309623
 10
-0.9744143577
 20
24.8867695977
 10
-0.9577770251
 20
24.8848757726
 10
-0.940588424
 20
24.8797745637
 10
-0.9231538015
 20
24.8715489436
  0
LWPOLYLINE
  5
271
100
AcDbEntity
  8
RACCORDO
100
AcDbPolyline
 62
7
  6
CONTINUOUS
 90
10
 70
0
 10
-3.4147012832
 20
-23.1241348306
 10
-3.3459744383
 20
-23.1508379076
 10
-3.2781980602
 20
-23.170241889
 10
-3.2078351367
 20
-23.1837341809
 10
-3.135539873
 20
-23.1910010446
 10
-3.061747257
 20
-23.1918751153
 10
-2.9869413413
 20
-23.1862379685
 10
-2.911757719
 20
-23.1740529116
 10
-2.8366239384
 20
-23.1553583673
 10
-2.7622356714
 20
-23.1303647851
  0
LWPOLYLINE
  5
272
100
AcDbEntity
  8
RACCORDO
100
AcDbPolyline
 62
250
  6
CONTINUOUS
 90
16
 70
0
 10
-3.7394938981
 20
-22.4594313203
 10
-3.7008744636
 20
-22.474685808
 10
-3.6594427178
 20
-22.4880081156
 10
-3.6156001012
 20
-22.4992691604
 10
-3.5697714141
 20
-22.5083598319
 10
-3.5224007002
 20
-22.5151920486
 10
-3.473946944
 20
-22.5196996119
 10
-3.4248796241
 20
-22.5218388469
 10
-3.3756741639
 20
-22.5215890262
 10
-3.3268073252
 20
-22.5189525704
 10
-3.2787525891
 20
-22.5139550247
 10
-3.2319755677
 20
-22.5066448112
 10
-3.1869294934
 20
-22.4970927602
 10
-3.1440508268
 20
-22.4853914234
 10
-3.1037550283
 20
-22.4716541776
 10
-3.0664325322
 20
-22.4560141258
  0
LWPOLYLINE
  5
273
100
AcDbEntity
  8
RACCORDO
100
AcDbPolyline
 62
250
  6
CONTINUOUS
 90
14
 70
0
 10
-3.4146244422
 20
-23.1241765654
 10
-3.4562874708
 20
-23.1029095045
 10
-3.4997776699
 20
-23.0741588357
 10
-3.5402134965
 20
-23.0401145827
 10
-3.5773641972
 20
-23.0009638317
 10
-3.6110502334
 20
-22.956904304
 10
-3.6411141795
 20
-22.908157131
 10
-3.6673835921
 20
-22.8549825516
 10
-3.6897296005
 20
-22.7976561282
 10
-3.7080527657
 20
-22.7364634417
 10
-3.7222507426
 20
-22.671709635
 10
-3.7322494739
 20
-22.6037198652
 10
-3.7380063628
 20
-22.5328404179
 10
-3.7394939186
 20
-22.4594313118
  0
LWPOLYLINE
  5
274
100
AcDbEntity
  8
RACCORDO
100
AcDbPolyline
 62
7
  6
CONTINUOUS
 90
10
 70
0
 10
-18.1438126207
 20
-15.7594016463
 10
-16.6691851003
 20
-16.5825603645
 10
-15.0893085122
 20
-17.4408196467
 10
-13.4836970168
 20
-18.2891823537
 10
-11.8527248266
 20
-19.1274597938
 10
-10.1967633244
 20
-19.9554674949
 10
-8.5161913438
 20
-20.7730275449
 10
-6.811402736
 20
-21.5799639157
 10
-5.0827983899
 20
-22.376099986
 10
-3.4138679118
 20
-23.1245122849
  0
LINE
  5
275
100
AcDbEntity
  8
RACCORDO
100
AcDbLine
 62
7
  6
CONTINUOUS
 10
-18.1438118404
 20
-15.7594020878
 11
-18.1435529694
 21
-15.7595484177
  0
LWPOLYLINE
  5
276
100
AcDbEntity
  8
RACCORDO
100
AcDbPolyline
 62
250
  6
CONTINUOUS
 90
31
 70
0
 10
-18.4396684044
 20
-15.1093440493
 10
-17.9947057329
 20
-15.3612015111
 10
-17.5477309427
 20
-15.6120865725
 10
-17.0987549788
 20
-15.8619958916
 10
-16.6478952683
 20
-16.1108676631
 10
-16.1950572221
 20
-16.3587574447
 10
-15.7399292645
 20
-16.6058361838
 10
-15.2823675761
 20
-16.8521794992
 10
-14.822527767
 20
-17.0977011548
 10
-14.3605447675
 20
-17.3423282684
 10
-13.8964597489
 20
-17.5860393617
 10
-13.4302486514
 20
-17.8288474153
 10
-12.9619507587
 20
-18.0707321367
 10
-12.4915120201
 20
-18.3117214213
 10
-12.0190035318
 20
-18.551778856
 10
-11.544655641
 20
-18.7907891219
 10
-11.0687856812
 20
-19.0285972557
 10
-10.5911025658
 20
-19.2653537696
 10
-10.1109179502
 20
-19.5013988889
 10
-9.6291451812
 20
-19.7362841253
 10
-9.1448847171
 20
-19.9704480896
 10
-8.654676286
 20
-20.2055378718
 10
-8.1593143707
 20
-20.4411316617
 10
-7.6579305958
 20
-20.6776005248
 10
-7.1444510292
 20
-20.9177252691
 10
-6.6185862484
 20
-21.1615215183
 10
-6.0803881163
 20
-21.4088423715
 10
-5.5241444696
 20
-21.6621523767
 10
-4.9477868883
 20
-21.9221854284
 10
-4.3529712202
 20
-22.1879831286
 10
-3.7394938992
 20
-22.4594313002
  0
LWPOLYLINE
  5
277
100
AcDbEntity
  8
RACCORDO
100
AcDbPolyline
 62
250
  6
CONTINUOUS
 90
9
 70
0
 10
-18.4396582932
 20
-15.1093397626
 10
-18.4701678246
 20
-15.0900299562
 10
-18.4967329945
 20
-15.0693540925
 10
-18.5190964128
 20
-15.0475125003
 10
-18.5370414001
 20
-15.0247168028
 10
-18.5503940875
 20
-15.0011878677
 10
-18.5590251007
 20
-14.9771536666
 10
-18.5628508137
 20
-14.9528470669
 10
-18.5630508276
 20
-14.9447700133
  0
LWPOLYLINE
  5
278
100
AcDbEntity
  8
RACCORDO
100
AcDbPolyline
 62
7
  6
CONTINUOUS
 90
5
 70
0
 10
-1.1596310476
 20
24.8050489153
 10
-1.1585502442
 20
24.8059804358
 10
-1.1530018795
 20
24.8101631722
 10
-1.1468474196
 20
24.8138008208
 10
-1.1449210788
 20
24.8147540427
  0
LINE
  5
279
100
AcDbEntity
  8
RACCORDO
100
AcDbLine
 62
250
  6
CONTINUOUS
 10
-1.9640918565
 20
23.3693536488
 11
-1.0343617433
 21
24.0981722586
  0
LWPOLYLINE
  5
27A
100
AcDbEntity
  8
RACCORDO
100
AcDbPolyline
 62
250
  6
CONTINUOUS
 90
16
 70
0
 10
-1.0343617433
 20
24.0981722586
 10
-0.993182824
 20
24.1277183885
 10
-0.9499874517
 20
24.1543285247
 10
-0.9047756263
 20
24.178002667
 10
-0.8569986582
 20
24.1988976351
 10
-0.8072052372
 20
24.2168566093
 10
-0.757041432
 20
24.2314091315
 10
-0.706535641
 20
24.2424276296
 10
-0.6556594659
 20
24.2500396756
 10
-0.6059737805
 20
24.2541575275
 10
-0.5576188262
 20
24.254695723
 10
-0.5104543616
 20
24.2517397243
 10
-0.4656205366
 20
24.2454581761
 10
-0.4234974012
 20
24.2359072934
 10
-0.3837049055
 20
24.2230308611
 10
-0.3462430495
 20
24.2068288795
  0
LWPOLYLINE
  5
27B
100
AcDbEntity
  8
ASSI
100
AcDbPolyline
 62
250
  6
CONTINUOUS
 90
7
 70
0
 10
2.506382244
 20
26.412308961
 10
2.5236309187
 20
26.4221170113
 10
2.5381654882
 20
26.4329152304
 10
2.5497371948
 20
26.4445189005
 10
2.5581479636
 20
26.4567295183
 10
2.5632537852
 20
26.4693381765
 10
2.5649624159
 20
26.4828151585
  0
LWPOLYLINE
  5
27C
100
AcDbEntity
  8
ASSI
100
AcDbPolyline
 62
7
  6
CONTINUOUS
 90
10
 70
0
 10
-3.2596530063
 20
23.0947307033
 10
-3.2677049111
 20
23.0901567168
 10
-3.2913654736
 20
23.0738486653
 10
-3.3128976615
 20
23.054381492
 10
-3.3318360696
 20
23.032062833
 10
-3.3477484778
 20
23.0073516871
 10
-3.3604981656
 20
22.9803436876
 10
-3.3698061473
 20
22.9512992503
 10
-3.3753576862
 20
22.9208358485
 10
-3.3770255813
 20
22.89208856
  0
LINE
  5
27D
100
AcDbEntity
  8
ASSI
100
AcDbLine
 62
7
  6
CONTINUOUS
 10
-4.4597566441
 20
22.352560153
 11
-4.2414106067
 21
22.4717616728
  0
LINE
  5
27E
100
AcDbEntity
  8
ASSI
100
AcDbLine
 62
7
  6
CONTINUOUS
 10
-3.0477235815
 20
23.2090719504
 11
-3.2596466762
 21
23.0947344479
  0
LINE
  5
27F
100
AcDbEntity
  8
ASSI
100
AcDbLine
 62
250
  6
CONTINUOUS
 10
-2.9332899855
 20
23.2033420082
 11
-3.1441443028
 21
23.0895812667
  0
LINE
  5
280
100
AcDbEntity
  8
ASSI
100
AcDbLine
 62
7
  6
CONTINUOUS
 10
-4.2414106067
 20
22.4717616728
 11
-3.5593503764
 21
22.8234248322
  0
LINE
  5
281
100
AcDbEntity
  8
ASSI
100
AcDbLine
 62
250
  6
CONTINUOUS
 10
-0.9241958142
 20
21.9796070224
 11
-0.7058497768
 21
22.0896219039
  0
LINE
  5
282
100
AcDbEntity
  8
ASSI
100
AcDbLine
 62
250
  6
CONTINUOUS
 10
-0.7474460429
 20
21.6747587607
 11
-0.5291000055
 21
21.7847736422
  0
LINE
  5
283
100
AcDbEntity
  8
ASSI
100
AcDbLine
 62
250
  6
CONTINUOUS
 10
3.2046789272
 20
24.0292729699
 11
-0.7058497768
 21
22.0896219039
  0
LINE
  5
284
100
AcDbEntity
  8
ASSI
100
AcDbLine
 62
250
  6
CONTINUOUS
 10
3.3814286985
 20
23.7244247083
 11
-0.5291000055
 21
21.7847736422
  0
LINE
  5
285
100
AcDbEntity
  8
ASSI
100
AcDbLine
 62
7
  6
CONTINUOUS
 10
-0.3520250737
 20
22.5633202574
 11
2.9108955505
 21
24.1264860383
  0
LINE
  5
286
100
AcDbEntity
  8
ASSI
100
AcDbLine
 62
250
  6
CONTINUOUS
 10
-0.2900581164
 20
22.5323367788
 11
3.021993005
 21
24.1190394828
  0
LINE
  5
287
100
AcDbEntity
  8
ASSI
100
AcDbLine
 62
7
  6
CONTINUOUS
 10
4.1820436599
 20
23.7340957453
 11
6.3389590744
 21
24.7670862267
  0
LINE
  5
288
100
AcDbEntity
  8
ASSI
100
AcDbLine
 62
250
  6
CONTINUOUS
 10
4.1964659495
 20
23.6924801689
 11
6.4278151075
 21
24.7611184777
  0
LINE
  5
289
100
AcDbEntity
  8
RACCORDO
100
AcDbLine
 62
7
  6
CONTINUOUS
 10
12.4592788182
 20
27.5136849597
 11
6.6620231957
 21
24.8363201988
  0
LINE
  5
28A
100
AcDbEntity
  8
RACCORDO
100
AcDbLine
 62
250
  6
CONTINUOUS
 10
12.8477363007
 20
27.481470624
 11
6.9306728457
 21
24.7487746358
  0
LWPOLYLINE
  5
28B
100
AcDbEntity
  8
ASSI
100
AcDbPolyline
 62
250
  6
CONTINUOUS
 90
7
 70
0
 10
6.3389676628
 20
24.7670903391
 10
6.3420133175
 20
24.7684682591
 10
6.3574704885
 20
24.7732440904
 10
6.3740636034
 20
24.7748984702
 10
6.3915149902
 20
24.7734036489
 10
6.4095326588
 20
24.7687845754
 10
6.4278151061
 20
24.7611184771
  0
LINE
  5
28C
100
AcDbEntity
  8
RACCORDO
100
AcDbLine
 62
7
  6
CONTINUOUS
 10
-0.8615546133
 20
23.0119343428
 11
-1.0655631411
 21
22.9200892911
  0
LINE
  5
28D
100
AcDbEntity
  8
ASSI
100
AcDbLine
 62
250
  6
CONTINUOUS
 10
2.9108957464
 20
24.1264861321
 11
2.9152522842
 21
24.1284422277
  0
LINE
  5
28E
100
AcDbEntity
  8
ASSI
100
AcDbLine
 62
7
  6
CONTINUOUS
 10
6.3919877155
 20
24.7901935874
 11
6.3389744632
 21
24.7670761404
  0
LWPOLYLINE
  5
28F
100
AcDbEntity
  8
ASSI
100
AcDbPolyline
 62
250
  6
CONTINUOUS
 90
10
 70
0
 10
6.4278151075
 20
24.7611184777
 10
6.4799851631
 20
24.7837602341
 10
6.5317501747
 20
24.8015358832
 10
6.5828265627
 20
24.8143484187
 10
6.6329327664
 20
24.8221287906
 10
6.6817951463
 20
24.8248342782
 10
6.7291494655
 20
24.8224486317
 10
6.7747344526
 20
24.8149859296
 10
6.8182994883
 20
24.8024874084
 10
6.8604639283
 20
24.7845938371
  0
LWPOLYLINE
  5
290
100
AcDbEntity
  8
ASSI
100
AcDbPolyline
 62
250
  6
CONTINUOUS
 90
31
 70
0
 10
3.021993005
 20
24.1190394828
 10
3.0320454404
 20
24.1233432295
 10
3.0427416758
 20
24.1270454181
 10
3.0540817112
 20
24.1301460486
 10
3.0662061641
 20
24.1326675446
 10
3.0789744171
 20
24.1345874825
 10
3.0919646178
 20
24.1358385922
 10
3.105179431
 20
24.1363973658
 10
3.1186161919
 20
24.1362873112
 10
3.1318450543
 20
24.1355116816
 10
3.1448593102
 20
24.1340488009
 10
3.1576656675
 20
24.1319203451
 10
3.1698544034
 20
24.129194595
 10
3.1814055469
 20
24.125852288
 10
3.1923390691
 20
24.1219126868
 10
3.20230516
 20
24.1175018598
 10
3.2112724652
 20
24.1126045535
 10
3.2192723391
 20
24.1072360216
 10
3.2260490351
 20
24.1015680938
 10
3.2315631001
 20
24.0955911203
 10
3.2358539873
 20
24.0893147509
 10
3.2387843091
 20
24.082939766
 10
3.2403097507
 20
24.0764630067
 10
3.240474627
 20
24.0698876318
 10
3.2392744949
 20
24.0634238976
 10
3.2366604924
 20
24.0570727597
 10
3.2326814815
 20
24.0508332625
 10
3.2274796052
 20
24.0449127959
 10
3.2211022446
 20
24.0393804899
 10
3.2135020186
 20
24.0341672146
 10
3.2046789272
 20
24.0292729699
  0
LWPOLYLINE
  5
291
100
AcDbEntity
  8
RACCORDO
100
AcDbPolyline
 62
250
  6
CONTINUOUS
 90
9
 70
0
 10
12.8477363007
 20
27.481470624
 10
12.9017427023
 20
27.50450214
 10
12.9554627754
 20
27.5217437766
 10
13.0084986198
 20
27.5330085481
 10
13.0604845451
 20
27.5381524647
 10
13.1109857949
 20
27.5370643257
 10
13.1595139312
 20
27.5297089305
 10
13.2056962239
 20
27.516114781
 10
13.2391073143
 20
27.5016049097
  0
LINE
  5
292
100
AcDbEntity
  8
ASSI
100
AcDbLine
 62
7
  6
CONTINUOUS
 10
2.9431156769
 20
24.1401588991
 11
2.9108118614
 21
24.1264361207
  0
LWPOLYLINE
  5
293
100
AcDbEntity
  8
RACCORDO
100
AcDbPolyline
 62
7
  6
CONTINUOUS
 90
12
 70
0
 10
12.4592788182
 20
27.5136849597
 10
12.5249062943
 20
27.5409046093
 10
12.5936051248
 20
27.5631803787
 10
12.6649126074
 20
27.5800797609
 10
12.7384692569
 20
27.5912440854
 10
12.8134972392
 20
27.5963158082
 10
12.8888831966
 20
27.5950949614
 10
12.9640687053
 20
27.5875448264
 10
13.0384261369
 20
27.5736981949
 10
13.1109475083
 20
27.5537885781
 10
13.1812995399
 20
27.5279991273
 10
13.2391396688
 20
27.5015887322
  0
LWPOLYLINE
  5
294
100
AcDbEntity
  8
RACCORDO
100
AcDbPolyline
 62
250
  6
CONTINUOUS
 90
9
 70
0
 10
12.4592788182
 20
27.5136849597
 10
12.4871914437
 20
27.5250839392
 10
12.5337058567
 20
27.5380629922
 10
12.5825248093
 20
27.5446405855
 10
12.6332769038
 20
27.5447666791
 10
12.6855760359
 20
27.5384403136
 10
12.7390243316
 20
27.525709618
 10
12.793215175
 20
27.5066714428
 10
12.8477363007
 20
27.481470624
  0
LWPOLYLINE
  5
295
100
AcDbEntity
  8
ASSI
100
AcDbPolyline
 62
7
  6
CONTINUOUS
 90
3
 70
0
 10
1.469506454
 20
21.3979788359
 10
1.4861439242
 20
21.4034411092
 10
1.5027308219
 20
21.4051639006
  0
LINE
  5
296
100
AcDbEntity
  8
ASSI
100
AcDbLine
 62
250
  6
CONTINUOUS
 10
4.3604740047
 20
-21.289975849
 11
3.8196066988
 21
-21.1807728538
  0
LINE
  5
297
100
AcDbEntity
  8
ASSI
100
AcDbLine
 62
250
  6
CONTINUOUS
 10
4.2873675775
 20
-21.0351649406
 11
3.8196066988
 21
-20.940722388
  0
LWPOLYLINE
  5
298
100
AcDbEntity
  8
ASSI
100
AcDbPolyline
 62
7
  6
CONTINUOUS
 90
4
 70
0
 10
2.6034960011
 20
-21.4296330801
 10
2.6258923549
 20
-21.4348704445
 10
2.6502644274
 20
-21.4407787761
 10
2.7038494528
 20
-21.4539311585
  0
LWPOLYLINE
  5
299
100
AcDbEntity
  8
ASSI
100
AcDbPolyline
 62
7
  6
CONTINUOUS
 90
9
 70
0
 10
2.7038494528
 20
-21.4539311585
 10
2.7323938629
 20
-21.4607696514
 10
2.7612207104
 20
-21.4675514249
 10
2.79003432
 20
-21.473883529
 10
2.8184487919
 20
-21.479553988
 10
2.8456512262
 20
-21.4846237545
 10
2.8712229571
 20
-21.4889173865
 10
2.8951166003
 20
-21.4920291469
 10
2.9171559481
 20
-21.4936976845
  0
LWPOLYLINE
  5
29A
100
AcDbEntity
  8
ASSI
100
AcDbPolyline
 62
250
  6
CONTINUOUS
 90
13
 70
0
 10
1.8820088792
 20
-22.723754938
 10
1.9014473013
 20
-22.7322909692
 10
1.922926826
 20
-22.7395009899
 10
1.9460880431
 20
-22.745264357
 10
1.970543403
 20
-22.7494846339
 10
1.9958837019
 20
-22.7520912039
 10
2.0216849283
 20
-22.7530404522
 10
2.0475153584
 20
-22.7523164952
 10
2.0729427797
 20
-22.7499314468
 10
2.0975417229
 20
-22.7459252151
 10
2.1209005816
 20
-22.7403648353
 10
2.1426284993
 20
-22.7333433474
 10
2.1623619095
 20
-22.7249782399
  0
LWPOLYLINE
  5
29B
100
AcDbEntity
  8
ASSI
100
AcDbPolyline
 62
250
  6
CONTINUOUS
 90
13
 70
0
 10
1.8820088792
 20
-22.4064861376
 10
1.9014473175
 20
-22.4150221752
 10
1.9229268583
 20
-22.4222321991
 10
1.9460880899
 20
-22.4279955666
 10
1.9705434617
 20
-22.4322158418
 10
1.9958837687
 20
-22.4348224084
 10
2.0216849984
 20
-22.4357716523
 10
2.0475154264
 20
-22.4350476909
 10
2.0729428405
 20
-22.4326626389
 10
2.0975417722
 20
-22.4286564051
 10
2.120900616
 20
-22.4230960255
 10
2.1426285167
 20
-22.4160745407
 10
2.1623619095
 20
-22.4077094395
  0
LWPOLYLINE
  5
29C
100
AcDbEntity
  8
ASSI
100
AcDbPolyline
 62
7
  6
CONTINUOUS
 90
10
 70
0
 10
1.9469304959
 20
-22.8589461816
 10
1.9593874011
 20
-22.8647165043
 10
1.9807227229
 20
-22.8725236755
 10
2.0029014972
 20
-22.8781178182
 10
2.0256874586
 20
-22.8814030112
 10
2.0489200611
 20
-22.8823110638
 10
2.0723503669
 20
-22.8807810048
 10
2.0956423391
 20
-22.8768046604
 10
2.1185661621
 20
-22.8704059582
 10
2.1423982719
 20
-22.8609511145
  0
LINE
  5
29D
100
AcDbEntity
  8
ASSI
100
AcDbLine
 62
7
  6
CONTINUOUS
 10
1.9472092514
 20
-22.859086926
 11
0.2202033539
 21
-21.9955839772
  0
LINE
  5
29E
100
AcDbEntity
  8
ASSI
100
AcDbLine
 62
250
  6
CONTINUOUS
 10
1.8820088792
 20
-22.723754938
 11
0.3368789834
 21
-21.9511899901
  0
LWPOLYLINE
  5
29F
100
AcDbEntity
  8
RACCORDO
100
AcDbPolyline
 62
250
  6
CONTINUOUS
 90
13
 70
0
 10
-18.4396683979
 20
-15.1093440443
 10
-18.4379850616
 20
-15.1828510454
 10
-18.4319088156
 20
-15.253890174
 10
-18.4214743676
 20
-15.3220978031
 10
-18.4067466357
 20
-15.3871164861
 10
-18.3878002718
 20
-15.4486207699
 10
-18.3647160551
 20
-15.5063162959
 10
-18.3376174238
 20
-15.5599054839
 10
-18.3066474164
 20
-15.6091056871
 10
-18.2719457535
 20
-15.6536730277
 10
-18.2337006216
 20
-15.693370994
 10
-18.1921137555
 20
-15.7279907664
 10
-18.1438118404
 20
-15.7594020878
  0
LWPOLYLINE
  5
2A0
100
AcDbEntity
  8
RACCORDO
100
AcDbPolyline
 62
7
  6
CONTINUOUS
 90
14
 70
0
 10
-18.5630508276
 20
-14.9447700133
 10
-18.5630416521
 20
-14.9671936462
 10
-18.5583829035
 20
-15.0629364255
 10
-18.5463188338
 20
-15.1550688068
 10
-18.5269022229
 20
-15.2436424141
 10
-18.5003076423
 20
-15.3280410473
 10
-18.4671603098
 20
-15.4068636201
 10
-18.4282740742
 20
-15.4793097374
 10
-18.3839678612
 20
-15.5457236255
 10
-18.3344430648
 20
-15.606272812
 10
-18.2803262656
 20
-15.6605540558
 10
-18.2221872425
 20
-15.7083830474
 10
-18.1600523506
 20
-15.7499447181
 10
-18.1435705036
 20
-15.7595385023
  0
LWPOLYLINE
  5
2A1
100
AcDbEntity
  8
RACCORDO
100
AcDbPolyline
 62
7
  6
CONTINUOUS
 90
10
 70
0
 10
-17.0215648045
 20
21.850430125
 10
-17.3102414163
 20
17.7647227776
 10
-17.5738247635
 20
13.6194466451
 10
-17.8069093807
 20
9.4872768976
 10
-18.0094544055
 20
5.368648789
 10
-18.1814404043
 20
1.2639188925
 10
-18.3228533257
 20
-2.8265860862
 10
-18.4336821506
 20
-6.9025134755
 10
-18.5139314097
 20
-10.9634489454
 10
-18.5630587099
 20
-14.9447235062
  0
LWPOLYLINE
  5
2A2
100
AcDbEntity
  8
RACCORDO
100
AcDbPolyline
 62
250
  6
CONTINUOUS
 90
10
 70
0
 10
-16.8979450119
 20
21.6908598699
 10
-17.1928509994
 20
17.5497006091
 10
-17.4569267611
 20
13.4205851299
 10
-17.6901346426
 20
9.3038942478
 10
-17.8924494662
 20
5.1998224886
 10
-18.0638349496
 20
1.1089322611
 10
-18.2042522902
 20
-2.9678501493
 10
-18.3136911268
 20
-7.0299736308
 10
-18.3921609781
 20
-11.0772587792
 10
-18.4396684044
 20
-15.1093440493
  0
LWPOLYLINE
  5
2A3
100
AcDbEntity
  8
RACCORDO
100
AcDbPolyline
 62
250
  6
CONTINUOUS
 90
10
 70
0
 10
-0.0896876785
 20
24.9253689167
 10
-0.0844305511
 20
24.9308964222
 10
-0.079196083
 20
24.9356593799
 10
-0.0740068766
 20
24.9396350083
 10
-0.0688834387
 20
24.9428049094
 10
-0.063850202
 20
24.9451512376
 10
-0.0589350069
 20
24.9466600887
 10
-0.0541568855
 20
24.9473255509
 10
-0.0495386818
 20
24.9471443711
 10
-0.0474993669
 20
24.9467827042
  0
LWPOLYLINE
  5
2A4
100
AcDbEntity
  8
RACCORDO
100
AcDbPolyline
 62
250
  6
CONTINUOUS
 90
10
 70
0
 10
-0.3462430495
 20
24.2068288795
 10
-0.365283938
 20
24.1887693143
 10
-0.3831319935
 20
24.168058849
 10
-0.3994202899
 20
24.145123256
 10
-0.4138139671
 20
24.1204340527
 10
-0.4260171152
 20
24.0944988077
 10
-0.4357788579
 20
24.0678507063
 10
-0.4428985102
 20
24.0410375886
 10
-0.447229704
 20
24.0146106876
 10
-0.448683397
 20
23.989113296
  0
LWPOLYLINE
  5
2A5
100
AcDbEntity
  8
RACCORDO
100
AcDbPolyline
 62
250
  6
CONTINUOUS
 90
10
 70
0
 10
0.4121625492
 20
23.8276260801
 10
0.3931210966
 20
23.8095658858
 10
0.3752727048
 20
23.7888548254
 10
0.358984289
 20
23.7659187654
 10
0.3445906882
 20
23.7412293168
 10
0.3323877488
 20
23.71529408
 10
0.3226262627
 20
23.688646199
 10
0.3155068544
 20
23.6618334868
 10
0.3111758408
 20
23.6354071703
 10
0.3097222038
 20
23.6099104957
  0
LWPOLYLINE
  5
2A6
100
AcDbEntity
  8
RACCORDO
100
AcDbPolyline
 62
250
  6
CONTINUOUS
 90
16
 70
0
 10
-0.8615546133
 20
23.8768528707
 10
-0.8373252779
 20
23.8997158732
 10
-0.8112839497
 20
23.9207351851
 10
-0.7837287123
 20
23.9398341377
 10
-0.754959785
 20
23.9570649216
 10
-0.7253021027
 20
23.9722709923
 10
-0.695104266
 20
23.9850917614
 10
-0.6646895329
 20
23.9954857711
 10
-0.6343727577
 20
24.0035001817
 10
-0.6044848554
 20
24.0089393982
 10
-0.5753731116
 20
24.0118162911
 10
-0.547262954
 20
24.0122271554
 10
-0.5202934846
 20
24.0101062152
 10
-0.4946891115
 20
24.0054710275
 10
-0.4707417718
 20
23.9984434121
 10
-0.448683397
 20
23.989113296
  0
LINE
  5
2A7
100
AcDbEntity
  8
RACCORDO
100
AcDbLine
 62
7
  6
CONTINUOUS
 10
-1.1595338087
 20
24.8051345138
 11
-2.910620214
 21
23.272594125
  0
LINE
  5
2A8
100
AcDbEntity
  8
RACCORDO
100
AcDbLine
 62
7
  6
CONTINUOUS
 10
-3.3770261141
 20
22.8643984602
 11
-3.4121563321
 21
22.8336527026
  0
LINE
  5
2A9
100
AcDbEntity
  8
RACCORDO
100
AcDbLine
 62
250
  6
CONTINUOUS
 10
-1.060088965
 20
24.8075096979
 11
-2.7058152847
 21
23.3671798283
  0
LINE
  5
2AA
100
AcDbEntity
  8
RACCORDO
100
AcDbLine
 62
250
  6
CONTINUOUS
 10
-1.6862021936
 20
23.2304088173
 11
-0.8615546133
 21
23.8768528707
  0
LWPOLYLINE
  5
2AB
100
AcDbEntity
  8
ASSI
100
AcDbPolyline
 62
7
  6
CONTINUOUS
 90
9
 70
0
 10
4.182724622
 20
23.7344626501
 10
4.1810823866
 20
23.7334351866
 10
4.177528446
 20
23.7294653458
 10
4.1740374665
 20
23.7231901316
 10
4.170677216
 20
23.7144458458
 10
4.1675571593
 20
23.7034049706
 10
4.1648803668
 20
23.6907045466
 10
4.1627567449
 20
23.6765604282
 10
4.1611877657
 20
23.6607656699
  0
LWPOLYLINE
  5
2AC
100
AcDbEntity
  8
ASSI
100
AcDbPolyline
 62
7
  6
CONTINUOUS
 90
12
 70
0
 10
-0.1018108903
 20
20.5503811987
 10
-0.1131065236
 20
20.5438953772
 10
-0.1353975693
 20
20.5285534292
 10
-0.1562949346
 20
20.5105593814
 10
-0.1754872615
 20
20.4901118017
 10
-0.1922619642
 20
20.4680845205
 10
-0.2069248718
 20
20.4442036825
 10
-0.2194011872
 20
20.4183859975
 10
-0.2290396294
 20
20.3919344827
 10
-0.2358467487
 20
20.3651805734
 10
-0.2399433209
 20
20.3373756117
 10
-0.2410710367
 20
20.3133180072
  0
LWPOLYLINE
  5
2AD
100
AcDbEntity
  8
ASSI
100
AcDbPolyline
 62
250
  6
CONTINUOUS
 90
12
 70
0
 10
-0.0094072863
 20
20.5462597775
 10
-0.0178693009
 20
20.5415671611
 10
-0.0265511193
 20
20.5362299257
 10
-0.0354280545
 20
20.5302177738
 10
-0.0444928818
 20
20.5234862966
 10
-0.0536915505
 20
20.516024763
 10
-0.062925909
 20
20.5078692234
 10
-0.0721594127
 20
20.4990131441
 10
-0.0813521728
 20
20.4894545103
 10
-0.090403926
 20
20.4792639128
 10
-0.0992749472
 20
20.4684583389
 10
-0.107925339
 20
20.4570573842
  0
LINE
  5
2AE
100
AcDbEntity
  8
ASSI
100
AcDbLine
 62
7
  6
CONTINUOUS
 10
-0.5291000055
 20
20.6156063722
 11
-0.7474460429
 21
20.4964048524
  0
LINE
  5
2AF
100
AcDbEntity
  8
ASSI
100
AcDbLine
 62
7
  6
CONTINUOUS
 10
1.465296583
 20
21.3958719412
 11
-0.1019039072
 21
20.5503313225
  0
LINE
  5
2B0
100
AcDbEntity
  8
ASSI
100
AcDbLine
 62
250
  6
CONTINUOUS
 10
1.5568434599
 20
21.3912879874
 11
-0.0094072863
 21
20.5462597775
  0
LINE
  5
2B1
100
AcDbEntity
  8
ASSI
100
AcDbLine
 62
7
  6
CONTINUOUS
 10
1.4653400174
 20
21.3958953315
 11
1.469506454
 21
21.3979788359
  0
LINE
  5
2B2
100
AcDbEntity
  8
ASSI
100
AcDbLine
 62
7
  6
CONTINUOUS
 10
-0.5291000055
 20
20.6156063722
 11
3.369261935
 21
22.5492226337
  0
LINE
  5
2B3
100
AcDbEntity
  8
ASSI
100
AcDbLine
 62
7
  6
CONTINUOUS
 10
3.4832202263
 20
23.1519691568
 11
3.90409877
 21
23.353599234
  0
LINE
  5
2B4
100
AcDbEntity
  8
RACCORDO
100
AcDbLine
 62
7
  6
CONTINUOUS
 10
13.8188951344
 20
26.9958912072
 11
10.388491234
 21
25.3585543942
  0
LINE
  5
2B5
100
AcDbEntity
  8
ASSI
100
AcDbLine
 62
7
  6
CONTINUOUS
 10
9.2811503898
 20
23.3344508365
 11
3.9163991176
 21
20.7934720135
  0
LINE
  5
2B6
100
AcDbEntity
  8
ASSI
100
AcDbLine
 62
250
  6
CONTINUOUS
 10
2.0995714749
 20
21.6419377702
 11
1.5568434599
 21
21.3912879874
  0
LINE
  5
2B7
100
AcDbEntity
  8
ASSI
100
AcDbLine
 62
7
  6
CONTINUOUS
 10
2.0134859714
 20
21.6492060866
 11
1.4695622597
 21
21.3980046088
  0
LWPOLYLINE
  5
2B8
100
AcDbEntity
  8
ASSI
100
AcDbPolyline
 62
250
  6
CONTINUOUS
 90
3
 70
0
 10
4.3104035657
 20
-21.0430783956
 10
4.3044573199
 20
-21.0403825034
 10
4.2873683167
 20
-21.035165326
  0
LINE
  5
2B9
100
AcDbEntity
  8
ASSI
100
AcDbLine
 62
250
  6
CONTINUOUS
 10
1.8820088792
 20
-22.4064861376
 11
0.9465403609
 21
-21.9387518784
  0
LINE
  5
2BA
100
AcDbEntity
  8
ASSI
100
AcDbLine
 62
250
  6
CONTINUOUS
 10
0.7529760748
 20
-21.8419697354
 11
0.6723450839
 21
-21.8016542399
  0
LINE
  5
2BB
100
AcDbEntity
  8
ASSI
100
AcDbLine
 62
250
  6
CONTINUOUS
 10
1.9707057917
 20
-22.1749462462
 11
1.1880218174
 21
-21.7836042591
  0
LINE
  5
2BC
100
AcDbEntity
  8
ASSI
100
AcDbLine
 62
7
  6
CONTINUOUS
 10
0.7791598708
 20
-21.1042286085
 11
0.9465403609
 21
-21.1879188535
  0
LINE
  5
2BD
100
AcDbEntity
  8
ASSI
100
AcDbLine
 62
7
  6
CONTINUOUS
 10
0.8030123576
 20
-20.5348810956
 11
0.9138168936
 21
-20.5902833636
  0
LINE
  5
2BE
100
AcDbEntity
  8
ASSI
100
AcDbLine
 62
7
  6
CONTINUOUS
 10
1.8397077115
 20
-21.0532287726
 11
2.5667146602
 21
-21.4167322469
  0
LINE
  5
2BF
100
AcDbEntity
  8
ASSI
100
AcDbLine
 62
7
  6
CONTINUOUS
 10
1.2740222865
 20
-20.1445530352
 11
1.8397077115
 21
-20.4273957476
  0
LINE
  5
2C0
100
AcDbEntity
  8
ASSI
100
AcDbLine
 62
7
  6
CONTINUOUS
 10
2.5667146602
 20
-20.7228195197
 11
2.7668908392
 21
-20.8229076092
  0
LWPOLYLINE
  5
2C1
100
AcDbEntity
  8
ASSI
100
AcDbPolyline
 62
250
  6
CONTINUOUS
 90
16
 70
0
 10
1.9469329991
 20
-22.858948235
 10
1.9401976434
 20
-22.8552009826
 10
1.9325930717
 20
-22.8500373383
 10
1.9254337374
 20
-22.8441106652
 10
1.9187517445
 20
-22.8374471386
 10
1.9125646814
 20
-22.8300639021
 10
1.9068983064
 20
-22.8219902822
 10
1.9017734848
 20
-22.8132560259
 10
1.89720761
 20
-22.8038908471
 10
1.8932174561
 20
-22.7939287966
 10
1.8898170686
 20
-22.7834049829
 10
1.8870185298
 20
-22.7723569659
 10
1.8848321112
 20
-22.7608258598
 10
1.8832653311
 20
-22.7488534538
 10
1.8823232496
 20
-22.7364817985
 10
1.8820088792
 20
-22.723754938
  0
LWPOLYLINE
  5
2C2
100
AcDbEntity
  8
ASSI
100
AcDbPolyline
 62
250
  6
CONTINUOUS
 90
13
 70
0
 10
1.9707057917
 20
-22.1749462462
 10
1.9894188742
 20
-22.1853838183
 10
2.0090118062
 20
-22.197584675
 10
2.0291530564
 20
-22.2113423661
 10
2.0495018154
 20
-22.226424098
 10
2.0697137626
 20
-22.2425746735
 10
2.0894468923
 20
-22.259520809
 10
2.1083673008
 20
-22.2769757596
 10
2.1261548365
 20
-22.2946441707
 10
2.1425085172
 20
-22.3122270757
 10
2.1571516228
 20
-22.3294269548
 10
2.1698363778
 20
-22.3459527696
 10
2.1803481439
 20
-22.3615248872
  0
LINE
  5
2C3
100
AcDbEntity
  8
RACCORDO
100
AcDbLine
 62
250
  6
CONTINUOUS
 10
0.4632814961
 20
23.399626983
 11
0.4301815713
 21
23.3659006013
  0
LWPOLYLINE
  5
2C4
100
AcDbEntity
  8
ASSI
100
AcDbPolyline
 62
7
  6
CONTINUOUS
 90
16
 70
0
 10
3.2921030198
 20
22.993000695
 10
3.3155413667
 20
23.0147280976
 10
3.3357630543
 20
23.0399532303
 10
3.3527680823
 20
23.0686760928
 10
3.3666588654
 20
23.101224533
 10
3.3773329891
 20
23.1372707032
 10
3.3844832097
 20
23.1758310601
 10
3.3880071127
 20
23.2170792462
 10
3.3880071127
 20
23.260841619
 10
3.3844832097
 20
23.3056137081
 10
3.3773329891
 20
23.3513242857
 10
3.3666588654
 20
23.3980445795
 10
3.3527680823
 20
23.4444838028
 10
3.3357630543
 20
23.4902116934
 10
3.3155413667
 20
23.5356585136
 10
3.2921030198
 20
23.5808242632
  0
LINE
  5
2C5
100
AcDbEntity
  8
RACCORDO
100
AcDbLine
 62
250
  6
CONTINUOUS
 10
0.4301815713
 20
23.3659006013
 11
-0.4069511828
 21
22.5907833119
  0
LINE
  5
2C6
100
AcDbEntity
  8
RACCORDO
100
AcDbLine
 62
7
  6
CONTINUOUS
 10
0.3333812003
 20
23.3657403615
 11
-0.46969622
 21
22.6221558305
  0
LINE
  5
2C7
100
AcDbEntity
  8
ASSI
100
AcDbLine
 62
7
  6
CONTINUOUS
 10
0.7195126615
 20
19.4320528557
 11
0.7529760748
 21
19.457634404
  0
LWPOLYLINE
  5
2C8
100
AcDbEntity
  8
ASSI
100
AcDbPolyline
 62
250
  6
CONTINUOUS
 90
7
 70
0
 10
4.3778431093
 20
20.3210650025
 10
4.3945733104
 20
20.3309316981
 10
4.4086162794
 20
20.3417956478
 10
4.4197370385
 20
20.3534750691
 10
4.4277495062
 20
20.3657745345
 10
4.432519611
 20
20.3784882412
 10
4.4339751493
 20
20.3905308394
  0
LWPOLYLINE
  5
2C9
100
AcDbEntity
  8
ASSI
100
AcDbPolyline
 62
250
  6
CONTINUOUS
 90
7
 70
0
 10
4.3778431093
 20
19.9811214076
 10
4.3945733245
 20
19.9909881127
 10
4.4086163002
 20
20.0018520716
 10
4.4197370598
 20
20.0135315009
 10
4.4277495231
 20
20.0258309725
 10
4.43251962
 20
20.0385446832
 10
4.4339751493
 20
20.0505872447
  0
LWPOLYLINE
  5
2CA
100
AcDbEntity
  8
ASSI
100
AcDbPolyline
 62
250
  6
CONTINUOUS
 90
28
 70
0
 10
2.0563067551
 20
19.5134027568
 10
2.0471850299
 20
19.5083926818
 10
2.0379115658
 20
19.5027075674
 10
2.0285146309
 20
19.4963290227
 10
2.0190050167
 20
19.4892257673
 10
2.0094380862
 20
19.481399106
 10
1.9999108288
 20
19.4728955786
 10
1.9904596313
 20
19.4637211067
 10
1.9811231732
 20
19.4538858189
 10
1.9719971827
 20
19.4434690113
 10
1.9631204984
 20
19.4325013646
 10
1.9545253111
 20
19.4210085411
 10
1.9462877149
 20
19.40908321
 10
1.9384451311
 20
19.3967792541
 10
1.9310164275
 20
19.3841260809
 10
1.9240405093
 20
19.3711902329
 10
1.9175447007
 20
19.3580274926
 10
1.9115442569
 20
19.3446743418
 10
1.9060557569
 20
19.3311706624
 10
1.9010967972
 20
19.317562407
 10
1.8966836274
 20
19.3038971845
 10
1.892829274
 20
19.290217369
 10
1.889546437
 20
19.2765699216
 10
1.8868457584
 20
19.2630014523
 10
1.8847353836
 20
19.2495535976
 10
1.8832224918
 20
19.2362708597
 10
1.8823125901
 20
19.2232003321
 10
1.8820088792
 20
19.2103868022
  0
LWPOLYLINE
  5
2CB
100
AcDbEntity
  8
0
100
AcDbPolyline
 62
7
  6
CONTINUOUS
 90
13
 70
0
 10
10.8030687456
 20
24.282975854
 10
10.6740839275
 20
24.2126221356
 10
10.5551706433
 20
24.137964087
 10
10.4469018098
 20
24.0593614061
 10
10.3497990598
 20
23.9771927959
 10
10.2643302284
 20
23.8918541398
 10
10.1909070994
 20
23.8037565941
 10
10.1298834207
 20
23.7133246076
 10
10.081553201
 20
23.6209938761
 10
10.0461492921
 20
23.5272092435
 10
10.023842268
 20
23.4324225583
 10
10.0147396026
 20
23.3370904971
 10
10.0145074808
 20
23.3192256156
  0
LWPOLYLINE
  5
2CC
100
AcDbEntity
  8
ASSI
100
AcDbPolyline
 62
250
  6
CONTINUOUS
 90
28
 70
0
 10
2.1977065722
 20
19.2695241474
 10
2.195846326
 20
19.2685399808
 10
2.1939678058
 20
19.2674146438
 10
2.1920710115
 20
19.2661481364
 10
2.1901446688
 20
19.2647378244
 10
2.188200052
 20
19.2631863421
 10
2.1862709843
 20
19.2615015914
 10
2.184357377
 20
19.2596786353
 10
2.1824593189
 20
19.2577224109
 10
2.1806108995
 20
19.2556556316
 10
2.1788140361
 20
19.2534751883
 10
2.1770668114
 20
19.25118419
 10
2.1753975633
 20
19.2488146771
 10
2.1738097203
 20
19.246367141
 10
2.172299854
 20
19.2438410902
 10
2.1708860166
 20
19.2412670906
 10
2.1695704971
 20
19.2386465127
 10
2.1683510067
 20
19.235977986
 10
2.1672387309
 20
19.2332879644
 10
2.1662345841
 20
19.2305762227
 10
2.165337652
 20
19.227842986
 10
2.1645563777
 20
19.2251153841
 10
2.1638918171
 20
19.2223935292
 10
2.1633429144
 20
19.2196773091
 10
2.1629149447
 20
19.2169935168
 10
2.1626096666
 20
19.2143510834
 10
2.1624253215
 20
19.2117410779
 10
2.1623619095
 20
19.2091635003
  0
LINE
  5
2CD
100
AcDbEntity
  8
ASSI
100
AcDbLine
 62
7
  6
CONTINUOUS
 10
10.4950759999
 20
22.36533853
 11
4.1081871581
 21
18.9889530419
  0
LINE
  5
2CE
100
AcDbEntity
  8
0
100
AcDbLine
 62
7
  6
CONTINUOUS
 10
10.4722378855
 20
23.0110737737
 11
11.1230115403
 21
23.3542395898
  0
LINE
  5
2CF
100
AcDbEntity
  8
RACCORDO
100
AcDbLine
 62
250
  6
CONTINUOUS
 10
11.1228837583
 20
23.3541722029
 11
11.1230115403
 21
23.3542395898
  0
LINE
  5
2D0
100
AcDbEntity
  8
ASSI
100
AcDbLine
 62
7
  6
CONTINUOUS
 10
10.4724087098
 20
22.7640336453
 11
3.9351329465
 21
19.3375922272
  0
LINE
  5
2D1
100
AcDbEntity
  8
0
100
AcDbLine
 62
7
  6
CONTINUOUS
 10
14.8152247241
 20
26.3243756467
 11
10.8030687456
 21
24.282975854
  0
LINE
  5
2D2
100
AcDbEntity
  8
ASSI
100
AcDbLine
 62
250
  6
CONTINUOUS
 10
3.6782068817
 20
20.3306062765
 11
2.0563067551
 21
19.5134027568
  0
LINE
  5
2D3
100
AcDbEntity
  8
ASSI
100
AcDbLine
 62
250
  6
CONTINUOUS
 10
3.8196066988
 20
20.0867276672
 11
2.1977065722
 21
19.2695241474
  0
LINE
  5
2D4
100
AcDbEntity
  8
0
100
AcDbLine
 62
7
  6
CONTINUOUS
 10
11.2512989691
 20
23.1311478585
 11
11.7462737159
 21
23.3786352319
  0
LINE
  5
2D5
100
AcDbEntity
  8
RACCORDO
100
AcDbLine
 62
7
  6
CONTINUOUS
 10
14.2144516284
 20
23.5591350842
 11
12.9029873174
 21
22.9034029286
  0
LINE
  5
2D6
100
AcDbEntity
  8
ASSI
100
AcDbLine
 62
250
  6
CONTINUOUS
 10
4.2023113483
 20
20.5905659557
 11
3.6782068817
 21
20.3306062765
  0
LINE
  5
2D7
100
AcDbEntity
  8
ASSI
100
AcDbLine
 62
250
  6
CONTINUOUS
 10
4.3437111654
 20
20.3466873463
 11
3.8196066988
 21
20.0867276672
  0
LINE
  5
2D8
100
AcDbEntity
  8
ASSI
100
AcDbLine
 62
250
  6
CONTINUOUS
 10
4.5497800722
 20
18.7681565849
 11
3.8550158858
 21
18.4235484265
  0
LINE
  5
2D9
100
AcDbEntity
  8
DRAFT
100
AcDbLine
 62
7
  6
CONTINUOUS
 10
14.8152247241
 20
25.9165243795
 11
10.8030687456
 21
23.9616515718
  0
LINE
  5
2DA
100
AcDbEntity
  8
DRAFT
100
AcDbLine
 62
7
  6
CONTINUOUS
 10
10.9809711654
 20
21.8523474886
 11
4.5874697402
 21
18.7467100053
  0
LWPOLYLINE
  5
2DB
100
AcDbEntity
  8
RACCORDO
100
AcDbPolyline
 62
7
  6
CONTINUOUS
 90
10
 70
0
 10
15.0629534403
 20
23.1348578527
 10
15.0743499045
 20
23.1400265079
 10
15.085570307
 20
23.1440784043
 10
15.0966146477
 20
23.1470135418
 10
15.1075779067
 20
23.1488320731
 10
15.1183651038
 20
23.1495338456
 10
15.1286912992
 20
23.1491184013
 10
15.138461513
 20
23.1475855874
 10
15.147770725
 20
23.1449355566
 10
15.1566189353
 20
23.1411683091
  0
LINE
  5
2DC
100
AcDbEntity
  8
RACCORDO
100
AcDbLine
 62
250
  6
CONTINUOUS
 10
-1.3408592786
 20
15.7206906611
 11
2.0235563652
 21
17.21189923
  0
LWPOLYLINE
  5
2DD
100
AcDbEntity
  8
ASSI
100
AcDbPolyline
 62
250
  6
CONTINUOUS
 90
13
 70
0
 10
2.1623619095
 20
19.2091635003
 10
2.1426284993
 20
19.2007983927
 10
2.1209005816
 20
19.1937769048
 10
2.0975417229
 20
19.188216525
 10
2.0729427797
 20
19.1842102934
 10
2.0475153584
 20
19.1818252449
 10
2.0216849283
 20
19.181101288
 10
1.9958837019
 20
19.1820505363
 10
1.970543403
 20
19.1846571063
 10
1.9460880431
 20
19.1888773831
 10
1.922926826
 20
19.1946407502
 10
1.9014473013
 20
19.2018507709
 10
1.8820088792
 20
19.2103868022
  0
LWPOLYLINE
  5
2DE
100
AcDbEntity
  8
ASSI
100
AcDbPolyline
 62
250
  6
CONTINUOUS
 90
13
 70
0
 10
2.1623619095
 20
18.8918946999
 10
2.1426284592
 20
18.8835295566
 10
2.1209005028
 20
18.8765080446
 10
2.0975416107
 20
18.870947651
 10
2.0729426427
 20
18.8669414144
 10
2.0475152073
 20
18.8645563682
 10
2.0216847741
 20
18.863832419
 10
1.9958835565
 20
18.8647816788
 10
1.9705432771
 20
18.867388262
 10
1.946087944
 20
18.8716085522
 10
1.9229267583
 20
18.8773719315
 10
1.9014472676
 20
18.8845819626
 10
1.8820088792
 20
18.8931180017
  0
LWPOLYLINE
  5
2DF
100
AcDbEntity
  8
0
100
AcDbPolyline
 62
250
  6
CONTINUOUS
 90
10
 70
0
 10
-11.6959466785
 20
-11.598960151
 10
-11.5142260208
 20
-11.6646211025
 10
-11.337994776
 20
-11.7337999165
 10
-11.1675499022
 20
-11.8063800397
 10
-11.003178506
 20
-11.8822392369
 10
-10.8451576765
 20
-11.9612496516
 10
-10.6937539774
 20
-12.0432780022
 10
-10.5492225897
 20
-12.1281860098
 10
-10.4118069235
 20
-12.2158306514
 10
-10.2817384974
 20
-12.3060642418
  0
LWPOLYLINE
  5
2E0
100
AcDbEntity
  8
DRAFT
100
AcDbPolyline
 62
7
  6
CONTINUOUS
 90
8
 70
0
 10
1.4154436428
 20
-18.456900115
 10
1.4626107245
 20
-18.4776116329
 10
1.5085924827
 20
-18.492512491
 10
1.5533889173
 20
-18.5016026894
 10
1.5974335038
 20
-18.5048448634
 10
1.6402927668
 20
-18.5022763776
 10
1.6806662797
 20
-18.494009326
 10
1.7201265915
 20
-18.4791272487
  0
LWPOLYLINE
  5
2E1
100
AcDbEntity
  8
DRAFT
100
AcDbPolyline
 62
7
  6
CONTINUOUS
 90
9
 70
0
 10
1.4154436428
 20
-17.2565577734
 10
1.368276561
 20
-17.2358462555
 10
1.3222948029
 20
-17.2209453974
 10
1.2774983682
 20
-17.211855199
 10
1.2334537817
 20
-17.2086130251
 10
1.1905945187
 20
-17.2111815108
 10
1.1502210058
 20
-17.2194485624
 10
1.1125183803
 20
-17.2335072258
 10
1.1004584537
 20
-17.2394833287
  0
LWPOLYLINE
  5
2E2
100
AcDbEntity
  8
DRAFT
100
AcDbPolyline
 62
7
  6
CONTINUOUS
 90
9
 70
0
 10
1.6982863552
 20
-17.1090898053
 10
1.6506440814
 20
-17.0881696313
 10
1.6041990805
 20
-17.0731186519
 10
1.5589513526
 20
-17.0639368672
 10
1.51446306
 20
-17.0606620192
 10
1.4711720405
 20
-17.0632563659
 10
1.4303918068
 20
-17.0716066807
 10
1.3923093459
 20
-17.0858069687
 10
1.3801277342
 20
-17.0918433736
  0
LINE
  5
2E3
100
AcDbEntity
  8
ASSI
100
AcDbLine
 62
250
  6
CONTINUOUS
 10
3.8196066988
 20
-20.8012933513
 11
4.2873675775
 21
-21.0351649406
  0
LINE
  5
2E4
100
AcDbEntity
  8
ASSI
100
AcDbLine
 62
7
  6
CONTINUOUS
 10
4.3106429838
 20
-21.0431976541
 11
3.8196066988
 21
-20.7976795114
  0
LINE
  5
2E5
100
AcDbEntity
  8
ASSI
100
AcDbLine
 62
250
  6
CONTINUOUS
 10
4.305313899
 20
-21.0459501994
 11
4.2873167227
 21
-21.0351546729
  0
LWPOLYLINE
  5
2E6
100
AcDbEntity
  8
DRAFT
100
AcDbPolyline
 62
250
  6
CONTINUOUS
 90
10
 70
0
 10
-10.258716687
 20
-10.9949361679
 10
-10.1776321229
 20
-11.055256825
 10
-10.0998503416
 20
-11.1165661965
 10
-10.0254275412
 20
-11.1788199857
 10
-9.9544174929
 20
-11.2419732137
 10
-9.8868715021
 20
-11.3059802516
 10
-9.8228383714
 20
-11.3707948539
 10
-9.7623643652
 20
-11.4363701913
 10
-9.7054931767
 20
-11.5026588851
 10
-9.6522658959
 20
-11.569613041
  0
LWPOLYLINE
  5
2E7
100
AcDbEntity
  8
DRAFT
100
AcDbPolyline
 62
250
  6
CONTINUOUS
 90
10
 70
0
 10
-10.281697384
 20
-12.3036055834
 10
-10.2005783214
 20
-12.3651626845
 10
-10.122762111
 20
-12.4274407866
 10
-10.0483050385
 20
-12.4903986995
 10
-9.9772594844
 20
-12.5539071554
 10
-9.9096785228
 20
-12.6180162248
 10
-9.8456156979
 20
-12.6829476234
 10
-9.7851188342
 20
-12.7487406126
 10
-9.7282301874
 20
-12.8152597448
 10
-9.6749909158
 20
-12.8824568926
  0
LWPOLYLINE
  5
2E8
100
AcDbEntity
  8
ASSI
100
AcDbPolyline
 62
7
  6
CONTINUOUS
 90
9
 70
0
 10
-12.8275721844
 20
26.2892613848
 10
-12.8274385648
 20
26.2811346401
 10
-12.8252557918
 20
26.2553668207
 10
-12.8204081603
 20
26.2301893725
 10
-12.8129454098
 20
26.2059204791
 10
-12.8030410872
 20
26.1829538163
 10
-12.7908303054
 20
26.1614394379
 10
-12.7764132002
 20
26.1415050408
 10
-12.7600308592
 20
26.1234506929
  0
LINE
  5
2E9
100
AcDbEntity
  8
ASSI
100
AcDbLine
 62
7
  6
CONTINUOUS
 10
-12.8275717458
 20
26.289261385
 11
-12.8275717924
 21
26.606598494
  0
LINE
  5
2EA
100
AcDbEntity
  8
ASSI
100
AcDbLine
 62
250
  6
CONTINUOUS
 10
-12.7689931487
 20
26.2186363662
 11
-12.7689931487
 21
26.5358878161
  0
LINE
  5
2EB
100
AcDbEntity
  8
0
100
AcDbLine
 62
7
  6
CONTINUOUS
 10
-12.5928515997
 20
25.0857293897
 11
-12.5928515997
 21
24.5201032125
  0
LINE
  5
2EC
100
AcDbEntity
  8
ASSI
100
AcDbLine
 62
7
  6
CONTINUOUS
 10
-12.112708672
 20
25.3337828712
 11
-12.112708672
 21
25.7877449755
  0
LINE
  5
2ED
100
AcDbEntity
  8
ASSI
100
AcDbLine
 62
250
  6
CONTINUOUS
 10
-12.0394853673
 20
25.242059179
 11
-12.0394853673
 21
25.7511333231
  0
LINE
  5
2EE
100
AcDbEntity
  8
0
100
AcDbLine
 62
7
  6
CONTINUOUS
 10
-12.8623125915
 20
-11.2887960547
 11
-12.8573396509
 21
-10.9973430844
  0
LINE
  5
2EF
100
AcDbEntity
  8
0
100
AcDbLine
 62
7
  6
CONTINUOUS
 10
-12.8573396509
 20
-10.9973430844
 11
-12.8521748837
 21
-10.705798072
  0
LINE
  5
2F0
100
AcDbEntity
  8
0
100
AcDbLine
 62
7
  6
CONTINUOUS
 10
-12.8521748837
 20
-10.705798072
 11
-12.8468182941
 21
-10.4141612132
  0
LINE
  5
2F1
100
AcDbEntity
  8
0
100
AcDbLine
 62
7
  6
CONTINUOUS
 10
-12.8468182941
 20
-10.4141612132
 11
-12.8412698834
 21
-10.1224326884
  0
LWPOLYLINE
  5
2F2
100
AcDbEntity
  8
ASSI
100
AcDbPolyline
 62
250
  6
CONTINUOUS
 90
18
 70
0
 10
-12.7689931487
 20
26.5358878161
 10
-12.7687873745
 20
26.5464479092
 10
-12.7681472549
 20
26.5575035114
 10
-12.7670376868
 20
26.5690423282
 10
-12.7654196257
 20
26.5810754103
 10
-12.7632614248
 20
26.5935527995
 10
-12.7605506193
 20
26.6063607205
 10
-12.7572666371
 20
26.6194648288
 10
-12.7533910132
 20
26.6328255433
 10
-12.7489382249
 20
26.6463123778
 10
-12.743904979
 20
26.6598791883
 10
-12.7382908839
 20
26.673475804
 10
-12.732139113
 20
26.6869643965
 10
-12.7254684203
 20
26.7002871041
 10
-12.7182923184
 20
26.7134010795
 10
-12.7106660056
 20
26.7261971092
 10
-12.7026266773
 20
26.7386148413
 10
-12.6941943348
 20
26.7506252
  0
LINE
  5
2F3
100
AcDbEntity
  8
0
100
AcDbLine
 62
7
  6
CONTINUOUS
 10
-12.8412698834
 20
-10.1224326884
 11
-12.8355298589
 21
-9.8306228283
  0
LINE
  5
2F4
100
AcDbEntity
  8
0
100
AcDbLine
 62
7
  6
CONTINUOUS
 10
-12.8355298589
 20
-9.8306228283
 11
-12.8295982463
 21
-9.5387321029
  0
LINE
  5
2F5
100
AcDbEntity
  8
0
100
AcDbLine
 62
7
  6
CONTINUOUS
 10
-12.8295982463
 20
-9.5387321029
 11
-12.8234748571
 21
-9.2467506796
  0
LINE
  5
2F6
100
AcDbEntity
  8
0
100
AcDbLine
 62
7
  6
CONTINUOUS
 10
-12.8234748571
 20
-9.2467506796
 11
-12.817159694
 21
-8.9546787392
  0
LINE
  5
2F7
100
AcDbEntity
  8
0
100
AcDbLine
 62
7
  6
CONTINUOUS
 10
-12.817159694
 20
-8.9546787392
 11
-12.8106527618
 21
-8.6625164776
  0
LWPOLYLINE
  5
2F8
100
AcDbEntity
  8
0
100
AcDbPolyline
 62
7
  6
CONTINUOUS
 90
46
 70
0
 10
-12.8106527618
 20
-8.6625164776
 10
-12.8033190206
 20
-8.5246160252
 10
-12.7889654722
 20
-8.3930583627
 10
-12.7674320949
 20
-8.2675635862
 10
-12.7382629553
 20
-8.1472660093
 10
-12.7017658523
 20
-8.0326691855
 10
-12.6588102763
 20
-7.9255853482
 10
-12.6091965025
 20
-7.826297936
 10
-12.5528079758
 20
-7.7344363275
 10
-12.4904238775
 20
-7.6508339178
 10
-12.4217202416
 20
-7.5755887324
 10
-12.3467818441
 20
-7.5088386394
 10
-12.2668490082
 20
-7.4514511131
 10
-12.1820086946
 20
-7.4037834663
 10
-12.0919366871
 20
-7.3658465727
 10
-11.9971678458
 20
-7.3379352327
 10
-11.8971115967
 20
-7.3202843277
 10
-11.7923914041
 20
-7.3131937168
 10
-11.6852377695
 20
-7.3168811496
 10
-11.5755568217
 20
-7.3317083788
 10
-11.4634547186
 20
-7.3575580212
 10
-11.3512286404
 20
-7.3935847938
 10
-11.2395262443
 20
-7.439430031
 10
-11.1277175885
 20
-7.4953331368
 10
-11.0160919753
 20
-7.5611564135
 10
-10.9042009834
 20
-7.63720075
 10
-10.7928596408
 20
-7.7230981958
 10
-10.6841281651
 20
-7.8175357284
 10
-10.5779594511
 20
-7.9206204592
 10
-10.474645994
 20
-8.0318821717
 10
-10.3763946552
 20
-8.148855621
 10
-10.2836320808
 20
-8.270737513
 10
-10.195854265
 20
-8.397813849
 10
-10.1136054016
 20
-8.5291313803
 10
-10.0367037894
 20
-8.6648185873
 10
-9.9653320861
 20
-8.8044667987
 10
-9.9004092891
 20
-8.9463139044
 10
-9.8418981533
 20
-9.090305795
 10
-9.7897320847
 20
-9.2364506312
 10
-9.744568144
 20
-9.383096424
 10
-9.7063061461
 20
-9.5306527779
 10
-9.6749846528
 20
-9.6789783022
 10
-9.6512295636
 20
-9.8256082184
 10
-9.635146863
 20
-9.9698692048
 10
-9.6265419918
 20
-10.1129238551
 10
-9.6255151702
 20
-10.2550852734
  0
LWPOLYLINE
  5
2F9
100
AcDbEntity
  8
ASSI
100
AcDbPolyline
 62
7
  6
CONTINUOUS
 90
3
 70
0
 10
-8.1618272479
 20
26.2746928124
 10
-8.1564629019
 20
26.2988498303
 10
-8.1533199301
 20
26.3236793191
  0
LINE
  5
2FA
100
AcDbEntity
  8
ASSI
100
AcDbLine
 62
7
  6
CONTINUOUS
 10
3.8196066988
 20
18.44125302
 11
2.9171559481
 21
17.9485786291
  0
LINE
  5
2FB
100
AcDbEntity
  8
ASSI
100
AcDbLine
 62
250
  6
CONTINUOUS
 10
3.8553253751
 20
18.4233936819
 11
2.7668908392
 21
17.8388710757
  0
LINE
  5
2FC
100
AcDbEntity
  8
ASSI
100
AcDbLine
 62
250
  6
CONTINUOUS
 10
4.2085154285
 20
17.8137857497
 11
3.1200808926
 21
17.2292631435
  0
LINE
  5
2FD
100
AcDbEntity
  8
RACCORDO
100
AcDbLine
 62
7
  6
CONTINUOUS
 10
15.0629823362
 20
23.1348723006
 11
14.184089685
 21
22.695425975
  0
LINE
  5
2FE
100
AcDbEntity
  8
RACCORDO
100
AcDbLine
 62
250
  6
CONTINUOUS
 10
19.7457733605
 20
23.5186186982
 11
5.2085154285
 21
16.290819079
  0
LINE
  5
2FF
100
AcDbEntity
  8
ASSI
100
AcDbLine
 62
250
  6
CONTINUOUS
 10
4.9032796149
 20
18.1584600616
 11
4.2085154285
 21
17.8138519032
  0
LINE
  5
300
100
AcDbEntity
  8
RACCORDO
100
AcDbLine
 62
7
  6
CONTINUOUS
 10
19.3262301496
 20
24.2422236996
 11
11.7336652494
 21
20.5541422275
  0
LINE
  5
301
100
AcDbEntity
  8
RACCORDO
100
AcDbLine
 62
7
  6
CONTINUOUS
 10
18.5205582135
 20
24.6450596676
 11
15.0994121437
 21
23.0030939393
  0
LWPOLYLINE
  5
302
100
AcDbEntity
  8
RACCORDO
100
AcDbPolyline
 62
7
  6
CONTINUOUS
 90
9
 70
0
 10
19.3262301496
 20
24.2422236996
 10
19.3823760273
 20
24.2674867379
 10
19.4356087382
 20
24.2869392304
 10
19.4854791986
 20
24.3005688414
 10
19.5314499684
 20
24.3084765289
 10
19.5732419299
 20
24.3107095068
 10
19.61083484
 20
24.3072524925
 10
19.6438691286
 20
24.2983158883
 10
19.658431079
 20
24.2919428304
  0
LINE
  5
303
100
AcDbEntity
  8
RACCORDO
100
AcDbLine
 62
250
  6
CONTINUOUS
 10
-1.005924256
 20
15.1024548419
 11
2.3584913878
 21
16.5936634109
  0
LWPOLYLINE
  5
304
100
AcDbEntity
  8
DRAFT
100
AcDbPolyline
 62
250
  6
CONTINUOUS
 90
10
 70
0
 10
-12.8623125915
 20
-11.2887960547
 10
-12.7258998752
 20
-11.3164249013
 10
-12.5909676807
 20
-11.3458161903
 10
-12.4576136327
 20
-11.3769486572
 10
-12.3259354238
 20
-11.4098876544
 10
-12.1960271478
 20
-11.4445230804
 10
-12.0679790725
 20
-11.4805616845
 10
-11.9418825007
 20
-11.5178813402
 10
-11.8178298638
 20
-11.5565387931
 10
-11.6959109425
 20
-11.5965022045
  0
LWPOLYLINE
  5
305
100
AcDbEntity
  8
DRAFT
100
AcDbPolyline
 62
250
  6
CONTINUOUS
 90
10
 70
0
 10
-12.8384237469
 20
-9.9765341155
 10
-12.7021169
 20
-10.0043470234
 10
-12.5672888722
 20
-10.0339079378
 10
-12.4340370782
 20
-10.0651955005
 10
-12.3024577934
 20
-10.098187106
 10
-12.1726460853
 20
-10.1328589175
 10
-12.0446957439
 20
-10.1691858844
 10
-11.9186992146
 20
-10.20714176
 10
-11.794747531
 20
-10.246699121
 10
-11.6729302493
 20
-10.2878293867
  0
LWPOLYLINE
  5
306
100
AcDbEntity
  8
DRAFT
100
AcDbPolyline
 62
250
  6
CONTINUOUS
 90
10
 70
0
 10
-11.6458870264
 20
-8.9731004147
 10
-11.7676456667
 20
-8.9327339295
 10
-11.8915316457
 20
-8.8937122865
 10
-12.0174555761
 20
-8.8560665247
 10
-12.1453252652
 20
-8.8197601685
 10
-12.2750499275
 20
-8.7848921668
 10
-12.4065401048
 20
-8.7516911686
 10
-12.5397022347
 20
-8.7202466526
 10
-12.6744388644
 20
-8.6905146037
 10
-12.8106527618
 20
-8.6625164776
  0
LWPOLYLINE
  5
307
100
AcDbEntity
  8
0
100
AcDbPolyline
 62
250
  6
CONTINUOUS
 90
10
 70
0
 10
-11.6729302493
 20
-10.2878293867
 10
-11.4912105699
 20
-10.3536105284
 10
-11.314980007
 20
-10.4228797177
 10
-11.1445355045
 20
-10.4955202381
 10
-10.9801642565
 20
-10.5714096922
 10
-10.8221432243
 20
-10.6504202083
 10
-10.670738669
 20
-10.7324186559
 10
-10.526205703
 20
-10.8172668697
 10
-10.3887878606
 20
-10.904821883
 10
-10.258716687
 20
-10.9949361679
  0
LINE
  5
308
100
AcDbEntity
  8
DRAFT
100
AcDbLine
 62
7
  6
CONTINUOUS
 10
3.1200808926
 20
-16.0446349963
 11
1.2740222865
 21
-15.1216056932
  0
LWPOLYLINE
  5
309
100
AcDbEntity
  8
0
100
AcDbPolyline
 62
250
  6
CONTINUOUS
 90
10
 70
0
 10
-10.2317156173
 20
-9.6820698189
 10
-10.3617888764
 20
-9.5920758916
 10
-10.4992082195
 20
-9.5046113409
 10
-10.6437421126
 20
-9.4198235457
 10
-10.7951470923
 20
-9.3378553443
 10
-10.9531680036
 20
-9.2588448886
 10
-11.1175384052
 20
-9.1829253993
 10
-11.287981261
 20
-9.11022482
 10
-11.4642094323
 20
-9.0408656133
 10
-11.6459259714
 20
-8.9749646412
  0
LWPOLYLINE
  5
30A
100
AcDbEntity
  8
DRAFT
100
AcDbPolyline
 62
250
  6
CONTINUOUS
 90
10
 70
0
 10
-9.6255151702
 20
-10.2550852734
 10
-9.6787332562
 20
-10.188367407
 10
-9.7355904516
 20
-10.1223025426
 10
-9.7960457262
 20
-10.0569383558
 10
-9.8600569895
 20
-9.9923889086
 10
-9.9275765459
 20
-9.9286350808
 10
-9.9985509665
 20
-9.8655188262
 10
-10.0729273468
 20
-9.8030127408
 10
-10.1506535052
 20
-9.7412257516
 10
-10.2316733299
 20
-9.6801995595
  0
LINE
  5
30B
100
AcDbEntity
  8
DRAFT
100
AcDbLine
 62
7
  6
CONTINUOUS
 10
-11.6941017845
 20
-11.6759482536
 11
-11.6959109425
 21
-11.5965022045
  0
LWPOLYLINE
  5
30C
100
AcDbEntity
  8
0
100
AcDbPolyline
 62
7
  6
CONTINUOUS
 90
33
 70
0
 10
-11.6959466785
 20
-11.598960151
 10
-11.6951670025
 20
-11.6591613527
 10
-11.69112313
 20
-11.7204307645
 10
-11.6838082009
 20
-11.7827857728
 10
-11.6731490422
 20
-11.8466836645
 10
-11.6592363741
 20
-11.9117168619
 10
-11.6422819666
 20
-11.9765892641
 10
-11.6221725654
 20
-12.0412210476
 10
-11.5989987405
 20
-12.1057081177
 10
-11.5732206631
 20
-12.168981148
 10
-11.544874916
 20
-12.2308184663
 10
-11.5138879391
 20
-12.2914256862
 10
-11.4805232892
 20
-12.3503500511
 10
-11.4448233549
 20
-12.4075872825
 10
-11.4067378104
 20
-12.4631175826
 10
-11.3663799573
 20
-12.516453409
 10
-11.323522764
 20
-12.5678116018
 10
-11.2784264015
 20
-12.6169507135
 10
-11.2319016632
 20
-12.6626779519
 10
-11.1834002564
 20
-12.7050037758
 10
-11.1334986996
 20
-12.7438826914
 10
-11.0845880082
 20
-12.7780047706
 10
-11.0381504465
 20
-12.8065360424
 10
-10.9925757641
 20
-12.8302519805
 10
-10.9456225128
 20
-12.8502620562
 10
-10.8959070358
 20
-12.8673658992
 10
-10.8449810198
 20
-12.8808027036
 10
-10.7950145082
 20
-12.889350404
 10
-10.7463120941
 20
-12.8925472515
 10
-10.6985837499
 20
-12.8908862554
 10
-10.652981173
 20
-12.8845525516
 10
-10.6097609301
 20
-12.8735052852
 10
-10.5963266145
 20
-12.8689622249
  0
LWPOLYLINE
  5
30D
100
AcDbEntity
  8
0
100
AcDbPolyline
 62
7
  6
CONTINUOUS
 90
33
 70
0
 10
-10.2317156173
 20
-9.6820698189
 10
-10.2321632952
 20
-9.6182776842
 10
-10.2360471255
 20
-9.5539931794
 10
-10.243345619
 20
-9.4891847651
 10
-10.2541499074
 20
-9.4234926487
 10
-10.2683679136
 20
-9.3572330033
 10
-10.2856913177
 20
-9.291386951
 10
-10.306160837
 20
-9.2259285165
 10
-10.3297356012
 20
-9.1608578313
 10
-10.3559387352
 20
-9.0971845458
 10
-10.3846945919
 20
-9.0350868587
 10
-10.4160672156
 20
-8.9743813306
 10
-10.4497544041
 20
-8.9155287073
 10
-10.4857363921
 20
-8.8585329986
 10
-10.5240413557
 20
-8.8034157021
 10
-10.5644196977
 20
-8.7506608672
 10
-10.6071154466
 20
-8.7000700185
 10
-10.6519158101
 20
-8.6518957141
 10
-10.6978371034
 20
-8.6072765008
 10
-10.745136112
 20
-8.5662628548
 10
-10.7935438031
 20
-8.5288404174
 10
-10.8411803042
 20
-8.4959844282
 10
-10.8865783804
 20
-8.4683497038
 10
-10.9310589417
 20
-8.445211521
 10
-10.9769458946
 20
-8.4254874821
 10
-11.0258578287
 20
-8.408440876
 10
-11.0763212335
 20
-8.394918926
 10
-11.1260354576
 20
-8.3862174532
 10
-11.174621539
 20
-8.3827628813
 10
-11.2224601346
 20
-8.3841095897
 10
-11.2682734885
 20
-8.3901552175
 10
-11.3116806725
 20
-8.4009173718
 10
-11.353025749
 20
-8.4163128725
  0
LINE
  5
30E
100
AcDbEntity
  8
ASSI
100
AcDbLine
 62
7
  6
CONTINUOUS
 10
-11.906747935
 20
25.0508427695
 11
-11.906747935
 21
25.6886881904
  0
LINE
  5
30F
100
AcDbEntity
  8
ASSI
100
AcDbLine
 62
250
  6
CONTINUOUS
 10
-11.8335246303
 20
25.0000517316
 11
-11.8335246303
 21
25.7508847566
  0
LINE
  5
310
100
AcDbEntity
  8
ASSI
100
AcDbLine
 62
250
  6
CONTINUOUS
 10
-11.6399603442
 20
24.9032695886
 11
-11.6399603442
 21
25.6541026135
  0
LINE
  5
311
100
AcDbEntity
  8
ASSI
100
AcDbLine
 62
250
  6
CONTINUOUS
 10
-11.2895190563
 20
24.778922012
 11
-11.2895190563
 21
25.3761501677
  0
LINE
  5
312
100
AcDbEntity
  8
ASSI
100
AcDbLine
 62
7
  6
CONTINUOUS
 10
-10.7467929936
 20
25.1047871363
 11
-10.7467929936
 21
24.6637926945
  0
LINE
  5
313
100
AcDbEntity
  8
ASSI
100
AcDbLine
 62
250
  6
CONTINUOUS
 10
-10.7044918259
 20
25.1863683544
 11
-10.7044918259
 21
25.5036371547
  0
LINE
  5
314
100
AcDbEntity
  8
ASSI
100
AcDbLine
 62
250
  6
CONTINUOUS
 10
-10.4241387956
 20
25.1851450524
 11
-10.4241387956
 21
25.5024138528
  0
LINE
  5
315
100
AcDbEntity
  8
ASSI
100
AcDbLine
 62
250
  6
CONTINUOUS
 10
-10.0197860449
 20
24.2322095178
 11
-10.0197860449
 21
24.9123808061
  0
LINE
  5
316
100
AcDbEntity
  8
ASSI
100
AcDbLine
 62
250
  6
CONTINUOUS
 10
-9.669344757
 20
25.0000294278
 11
-9.669344757
 21
24.2418289817
  0
LWPOLYLINE
  5
317
100
AcDbEntity
  8
ASSI
100
AcDbPolyline
 62
250
  6
CONTINUOUS
 90
28
 70
0
 10
-10.4241387956
 20
25.5024138528
 10
-10.4241070385
 20
25.5045537996
 10
-10.4239716005
 20
25.5067823186
 10
-10.4237324816
 20
25.5090994099
 10
-10.4233937814
 20
25.5115166263
 10
-10.4229514003
 20
25.5140224149
 10
-10.42239304
 20
25.5165821172
 10
-10.4217146522
 20
25.5191985191
 10
-10.4209202853
 20
25.5218688346
 10
-10.4200097854
 20
25.5245500473
 10
-10.4189790751
 20
25.5272429587
 10
-10.4178322318
 20
25.5299467673
 10
-10.4165813347
 20
25.5326160521
 10
-10.4152243571
 20
25.5352479184
 10
-10.4137633257
 20
25.537845261
 10
-10.4122163997
 20
25.5403713427
 10
-10.4105833619
 20
25.5428227908
 10
-10.4088644295
 20
25.545202978
 10
-10.4070784136
 20
25.5474852861
 10
-10.4052247602
 20
25.5496682724
 10
-10.4033040233
 20
25.5517533795
 10
-10.4013366764
 20
25.5537183168
 10
-10.3993221588
 20
25.5555617763
 10
-10.3972610312
 20
25.557285066
 10
-10.3951754493
 20
25.5588698199
 10
-10.3930727982
 20
25.5603099158
 10
-10.3909456928
 20
25.5616114758
 10
-10.388794133
 20
25.5627745
  0
LINE
  5
318
100
AcDbEntity
  8
0
100
AcDbLine
 62
7
  6
CONTINUOUS
 10
-11.6912734188
 20
-11.313417528
 11
-11.6959498726
 21
-11.5989590445
  0
LINE
  5
319
100
AcDbEntity
  8
DRAFT
100
AcDbLine
 62
7
  6
CONTINUOUS
 10
-11.6959105155
 20
-11.5965019056
 11
-11.6912532512
 21
-11.3122093276
  0
LINE
  5
31A
100
AcDbEntity
  8
0
100
AcDbLine
 62
7
  6
CONTINUOUS
 10
-10.2817363102
 20
-12.3060658257
 11
-10.2770606796
 21
-12.0205735271
  0
LINE
  5
31B
100
AcDbEntity
  8
DRAFT
100
AcDbLine
 62
7
  6
CONTINUOUS
 10
-10.2770396137
 20
-12.0193134386
 11
-10.2816967589
 21
-12.3036053821
  0
LINE
  5
31C
100
AcDbEntity
  8
0
100
AcDbLine
 62
7
  6
CONTINUOUS
 10
-11.6863557892
 20
-11.0247971983
 11
-11.6912734188
 21
-11.313417528
  0
LINE
  5
31D
100
AcDbEntity
  8
DRAFT
100
AcDbLine
 62
7
  6
CONTINUOUS
 10
-11.6912532512
 20
-11.3122093276
 11
-11.6863431075
 21
-11.0240675096
  0
LINE
  5
31E
100
AcDbEntity
  8
0
100
AcDbLine
 62
7
  6
CONTINUOUS
 10
-10.2770606796
 20
-12.0205735271
 11
-10.2721434475
 21
-11.7319742158
  0
LINE
  5
31F
100
AcDbEntity
  8
DRAFT
100
AcDbLine
 62
7
  6
CONTINUOUS
 10
-10.2721295219
 20
-11.7311723246
 11
-10.2770396137
 21
-12.0193134386
  0
LINE
  5
320
100
AcDbEntity
  8
0
100
AcDbLine
 62
7
  6
CONTINUOUS
 10
-11.6811879891
 20
-10.7329294863
 11
-11.6863557892
 21
-11.0247971983
  0
LINE
  5
321
100
AcDbEntity
  8
DRAFT
100
AcDbLine
 62
7
  6
CONTINUOUS
 10
-11.6863431075
 20
-11.0240675096
 11
-11.6811740562
 21
-10.732157255
  0
LINE
  5
322
100
AcDbEntity
  8
0
100
AcDbLine
 62
7
  6
CONTINUOUS
 10
-10.2721434475
 20
-11.7319742158
 11
-10.2669755645
 21
-11.4400993618
  0
LINE
  5
323
100
AcDbEntity
  8
DRAFT
100
AcDbLine
 62
7
  6
CONTINUOUS
 10
-10.2669604717
 20
-11.439262835
 11
-10.2721295219
 21
-11.7311723246
  0
LINE
  5
324
100
AcDbEntity
  8
0
100
AcDbLine
 62
7
  6
CONTINUOUS
 10
-11.6757511857
 20
-10.437147673
 11
-11.6811879891
 21
-10.7329294863
  0
LINE
  5
325
100
AcDbEntity
  8
DRAFT
100
AcDbLine
 62
7
  6
CONTINUOUS
 10
-11.6811740562
 20
-10.732157255
 11
-11.6757480268
 21
-10.4369804663
  0
LINE
  5
326
100
AcDbEntity
  8
DRAFT
100
AcDbLine
 62
7
  6
CONTINUOUS
 10
-10.2615313325
 20
-11.1439184475
 11
-10.2669604717
 21
-11.439262835
  0
LINE
  5
327
100
AcDbEntity
  8
0
100
AcDbLine
 62
7
  6
CONTINUOUS
 10
-10.2669755645
 20
-11.4400993618
 11
-10.2615347237
 21
-11.1441012432
  0
LINE
  5
328
100
AcDbEntity
  8
0
100
AcDbLine
 62
7
  6
CONTINUOUS
 10
-11.6700624798
 20
-10.1387339847
 11
-11.6757511857
 21
-10.437147673
  0
LINE
  5
329
100
AcDbEntity
  8
DRAFT
100
AcDbLine
 62
7
  6
CONTINUOUS
 10
-11.6757480268
 20
-10.4369804663
 11
-11.670062612
 21
-10.1387408576
  0
LINE
  5
32A
100
AcDbEntity
  8
DRAFT
100
AcDbLine
 62
7
  6
CONTINUOUS
 10
-10.2558491672
 20
-10.8458536242
 11
-10.2615313325
 21
-11.1439184475
  0
LINE
  5
32B
100
AcDbEntity
  8
0
100
AcDbLine
 62
7
  6
CONTINUOUS
 10
-10.2615347237
 20
-11.1441012432
 11
-10.2558491004
 21
-10.8458502108
  0
LINE
  5
32C
100
AcDbEntity
  8
0
100
AcDbLine
 62
7
  6
CONTINUOUS
 10
-11.6642206159
 20
-9.8428628786
 11
-11.6700624798
 21
-10.1387339847
  0
LINE
  5
32D
100
AcDbEntity
  8
DRAFT
100
AcDbLine
 62
7
  6
CONTINUOUS
 10
-11.670062612
 20
-10.1387408576
 11
-11.6642189894
 21
-9.8427818949
  0
LWPOLYLINE
  5
32E
100
AcDbEntity
  8
ASSI
100
AcDbPolyline
 62
250
  6
CONTINUOUS
 90
28
 70
0
 10
-10.7044918259
 20
25.5036371547
 10
-10.7042807201
 20
25.5143061522
 10
-10.7036241813
 20
25.5254571322
 10
-10.7024886627
 20
25.5370764397
 10
-10.7008369177
 20
25.5491739389
 10
-10.6986389682
 20
25.5616985029
 10
-10.6958839082
 20
25.5745352609
 10
-10.6925529716
 20
25.5876492295
 10
-10.6886298444
 20
25.6010004074
 10
-10.6841311654
 20
25.6144579902
 10
-10.6790561506
 20
25.6279742501
 10
-10.6734058575
 20
25.641501506
 10
-10.6672232998
 20
25.6549081129
 10
-10.6605303919
 20
25.6681329996
 10
-10.6533396566
 20
25.681139074
 10
-10.6456972068
 20
25.693835759
 10
-10.6376369143
 20
25.7061661284
 10
-10.6291796909
 20
25.7180976797
 10
-10.6203596701
 20
25.7295816941
 10
-10.6112092605
 20
25.7405757356
 10
-10.6017595458
 20
25.7510422764
 10
-10.5920450933
 20
25.7609433237
 10
-10.5821000278
 20
25.7702439083
 10
-10.5719597579
 20
25.7789107449
 10
-10.5616621497
 20
25.7869120072
 10
-10.5512443524
 20
25.7942192837
 10
-10.5407425749
 20
25.800807334
 10
-10.53019395
 20
25.8066531093
  0
LINE
  5
32F
100
AcDbEntity
  8
0
100
AcDbLine
 62
7
  6
CONTINUOUS
 10
-10.2558490355
 20
-10.8458468349
 11
-10.2500073204
 21
-10.5499829297
  0
LINE
  5
330
100
AcDbEntity
  8
DRAFT
100
AcDbLine
 62
7
  6
CONTINUOUS
 10
-10.2500053741
 20
-10.5498860233
 11
-10.2558491672
 21
-10.8458536242
  0
LINE
  5
331
100
AcDbEntity
  8
0
100
AcDbLine
 62
7
  6
CONTINUOUS
 10
-11.6582407059
 20
-9.5500039746
 11
-11.6642206159
 21
-9.8428628786
  0
LINE
  5
332
100
AcDbEntity
  8
DRAFT
100
AcDbLine
 62
7
  6
CONTINUOUS
 10
-11.6642189894
 20
-9.8427818949
 11
-11.6582344672
 21
-9.5497035468
  0
LINE
  5
333
100
AcDbEntity
  8
0
100
AcDbLine
 62
7
  6
CONTINUOUS
 10
-10.2500073204
 20
-10.5499829297
 11
-10.2440274241
 21
-10.2571242916
  0
LINE
  5
334
100
AcDbEntity
  8
DRAFT
100
AcDbLine
 62
7
  6
CONTINUOUS
 10
-10.2440208199
 20
-10.2568059748
 11
-10.2500053741
 21
-10.5498860233
  0
LINE
  5
335
100
AcDbEntity
  8
0
100
AcDbLine
 62
7
  6
CONTINUOUS
 10
-11.6521397913
 20
-9.2606613875
 11
-11.6582407059
 21
-9.5500039746
  0
LINE
  5
336
100
AcDbEntity
  8
DRAFT
100
AcDbLine
 62
7
  6
CONTINUOUS
 10
-11.6582344672
 20
-9.5497035468
 11
-11.6521210542
 21
-9.2597860471
  0
LINE
  5
337
100
AcDbEntity
  8
0
100
AcDbLine
 62
7
  6
CONTINUOUS
 10
-10.2440274241
 20
-10.2571242916
 11
-10.2379264198
 21
-9.9677771093
  0
LINE
  5
338
100
AcDbEntity
  8
DRAFT
100
AcDbLine
 62
7
  6
CONTINUOUS
 10
-10.2379073451
 20
-9.9668868316
 11
-10.2440208199
 21
-10.2568059748
  0
LINE
  5
339
100
AcDbEntity
  8
0
100
AcDbLine
 62
7
  6
CONTINUOUS
 10
-11.6459278768
 20
-8.9749639784
 11
-11.6521397913
 21
-9.2606613875
  0
LINE
  5
33A
100
AcDbEntity
  8
DRAFT
100
AcDbLine
 62
7
  6
CONTINUOUS
 10
-11.6521210542
 20
-9.2597860471
 11
-11.645886788
 21
-8.9731002505
  0
LINE
  5
33B
100
AcDbEntity
  8
0
100
AcDbLine
 62
7
  6
CONTINUOUS
 10
-10.2379264198
 20
-9.9677771093
 11
-10.2317143144
 21
-9.6820707596
  0
LINE
  5
33C
100
AcDbEntity
  8
DRAFT
100
AcDbLine
 62
7
  6
CONTINUOUS
 10
-10.231672979
 20
-9.6801994492
 11
-10.2379073451
 21
-9.9668868316
  0
LWPOLYLINE
  5
33D
100
AcDbEntity
  8
DRAFT
100
AcDbPolyline
 62
7
  6
CONTINUOUS
 90
12
 70
0
 10
-10.281697384
 20
-12.3036055834
 10
-10.2859153984
 20
-12.3800906421
 10
-10.29533966
 20
-12.4520323797
 10
-10.3099295522
 20
-12.5194406456
 10
-10.3298684838
 20
-12.582711412
 10
-10.3549896922
 20
-12.6414905018
 10
-10.3847002216
 20
-12.6946329687
 10
-10.4191093558
 20
-12.7420222721
 10
-10.4581285007
 20
-12.7837518076
 10
-10.5007567082
 20
-12.8189230541
 10
-10.5469321451
 20
-12.8472855502
 10
-10.5963482444
 20
-12.8688804625
  0
LWPOLYLINE
  5
33E
100
AcDbEntity
  8
DRAFT
100
AcDbPolyline
 62
7
  6
CONTINUOUS
 90
17
 70
0
 10
-11.6458870264
 20
-8.9731004147
 10
-11.6418802204
 20
-8.9121368185
 10
-11.6357936932
 20
-8.8557390385
 10
-11.6275332054
 20
-8.8038544655
 10
-11.6166082292
 20
-8.7566695652
 10
-11.6033494451
 20
-8.7139084088
 10
-11.5889078279
 20
-8.674837924
 10
-11.5734337827
 20
-8.6395089401
 10
-11.5566591487
 20
-8.6078187556
 10
-11.5391258423
 20
-8.5788190706
 10
-11.5208949333
 20
-8.552368682
 10
-11.5018403427
 20
-8.5285850201
 10
-11.4822435981
 20
-8.5069183363
 10
-11.4621728959
 20
-8.4873156048
 10
-11.4415188816
 20
-8.4698176501
 10
-11.4203104223
 20
-8.4540218832
 10
-11.3986038912
 20
-8.4398577065
  0
LWPOLYLINE
  5
33F
100
AcDbEntity
  8
ASSI
100
AcDbPolyline
 62
250
  6
CONTINUOUS
 90
7
 70
0
 10
-8.1525255559
 20
26.6837811921
 10
-8.1539810852
 20
26.6717386306
 10
-8.158751182
 20
26.6590249199
 10
-8.1667636453
 20
26.6467254483
 10
-8.1778844049
 20
26.635046019
 10
-8.1919273807
 20
26.6241820601
 10
-8.2086575958
 20
26.614315355
  0
LWPOLYLINE
  5
340
100
AcDbEntity
  8
ASSI
100
AcDbPolyline
 62
250
  6
CONTINUOUS
 90
7
 70
0
 10
-8.1525255559
 20
26.3438375973
 10
-8.1539810934
 20
26.331795002
 10
-8.1587511975
 20
26.3190812949
 10
-8.1667636649
 20
26.306781829
 10
-8.1778844241
 20
26.2951024071
 10
-8.1919273936
 20
26.2842384566
 10
-8.2086575958
 20
26.2743717602
  0
LWPOLYLINE
  5
341
100
AcDbEntity
  8
ASSI
100
AcDbPolyline
 62
250
  6
CONTINUOUS
 90
17
 70
0
 10
-0.107925339
 20
20.4570573842
 10
-0.1162636242
 20
20.4451602963
 10
-0.1242497523
 20
20.4328109339
 10
-0.1318551492
 20
20.4200393633
 10
-0.1390179734
 20
20.4069407874
 10
-0.1457041294
 20
20.3935766833
 10
-0.1518968876
 20
20.3799794126
 10
-0.157569276
 20
20.3662069009
 10
-0.1626997834
 20
20.3523113125
 10
-0.1672710725
 20
20.3383394186
 10
-0.1712665088
 20
20.3243421929
 10
-0.17467184
 20
20.3103692356
 10
-0.1774746236
 20
20.2964710157
 10
-0.1796645338
 20
20.2826996516
 10
-0.1812339463
 20
20.2691051256
 10
-0.1821776174
 20
20.255735165
 10
-0.1824924435
 20
20.2426374635
  0
LWPOLYLINE
  5
342
100
AcDbEntity
  8
ASSI
100
AcDbPolyline
 62
7
  6
CONTINUOUS
 90
14
 70
0
 10
2.9171559481
 20
18.7067790752
 10
2.8995456445
 20
18.6899404539
 10
2.880694842
 20
18.6740099569
 10
2.8607007311
 20
18.6591888572
 10
2.8396015749
 20
18.6456751518
 10
2.8175987531
 20
18.6336406915
 10
2.7950604312
 20
18.6232210888
 10
2.7721473036
 20
18.6145427551
 10
2.749020041
 20
18.6077369976
 10
2.7260706617
 20
18.6028868754
 10
2.7035132125
 20
18.6000333969
 10
2.6814941992
 20
18.5992097699
 10
2.6603091268
 20
18.6004011783
 10
2.6395609357
 20
18.6036775261
  0
LINE
  5
343
100
AcDbEntity
  8
ASSI
100
AcDbLine
 62
7
  6
CONTINUOUS
 10
5.5980438013
 20
15.5976056426
 11
4.9032796149
 21
15.2334526115
  0
LINE
  5
344
100
AcDbEntity
  8
RACCORDO
100
AcDbLine
 62
250
  6
CONTINUOUS
 10
20.0847368444
 20
22.3468911917
 11
5.6597614763
 21
14.878141557
  0
LWPOLYLINE
  5
345
100
AcDbEntity
  8
RACCORDO
100
AcDbPolyline
 62
250
  6
CONTINUOUS
 90
32
 70
0
 10
20.1923961346
 20
16.8005940698
 10
20.2124872396
 20
16.8065407552
 10
20.2318070393
 20
16.8103918615
 10
20.2503326585
 20
16.8121744015
 10
20.2680276584
 20
16.8117904981
 10
20.2848663907
 20
16.8094076456
 10
20.300843583
 20
16.80544826
 10
20.3158833272
 20
16.799987066
 10
20.3299969702
 20
16.7930196393
 10
20.3433195005
 20
16.7848399359
 10
20.355834618
 20
16.7755450463
 10
20.3674903961
 20
16.7651156955
 10
20.3783705415
 20
16.7536709405
 10
20.3884742004
 20
16.7412868586
 10
20.3977229868
 20
16.7279839501
 10
20.4060812213
 20
16.7138037346
 10
20.4135297393
 20
16.6988237067
 10
20.4199978691
 20
16.6830838881
 10
20.4253680325
 20
16.6665773898
 10
20.4296155446
 20
16.6494211736
 10
20.4326652861
 20
16.6316394136
 10
20.4343115801
 20
16.6131043067
 10
20.4345450311
 20
16.593976895
 10
20.4332507825
 20
16.5742851127
 10
20.4300345515
 20
16.5537450957
 10
20.4248930232
 20
16.5325522227
 10
20.4176556671
 20
16.5107936124
 10
20.4076308894
 20
16.4880921434
 10
20.3948241455
 20
16.4647252308
 10
20.3789968371
 20
16.4408262816
 10
20.3590355133
 20
16.4158896998
 10
20.3373310241
 20
16.3928499691
  0
LWPOLYLINE
  5
346
100
AcDbEntity
  8
ASSI
100
AcDbPolyline
 62
7
  6
CONTINUOUS
 90
5
 70
0
 10
4.384336643
 20
-21.1030873016
 10
4.367823697
 20
-21.0845205683
 10
4.349508684
 20
-21.0680859442
 10
4.3295306069
 20
-21.0538484112
 10
4.3103793693
 20
-21.0430669347
  0
LWPOLYLINE
  5
347
100
AcDbEntity
  8
ASSI
100
AcDbPolyline
 62
7
  6
CONTINUOUS
 90
13
 70
0
 10
-8.7668940063
 20
26.3799780197
 10
-8.7680976232
 20
26.4031906557
 10
-8.7717068532
 20
26.4272118603
 10
-8.7776557626
 20
26.4516330738
 10
-8.7858378949
 20
26.476039341
 10
-8.7961124295
 20
26.5000134834
 10
-8.8083064417
 20
26.5231432704
 10
-8.8222138619
 20
26.5450317951
 10
-8.8375942878
 20
26.5653059142
 10
-8.8541811854
 20
26.5836199042
 10
-8.871691606
 20
26.5996600498
 10
-8.8898311099
 20
26.6131498627
 10
-8.9082938234
 20
26.6238566291
  0
LINE
  5
348
100
AcDbEntity
  8
0
100
AcDbLine
 62
250
  6
CONTINUOUS
 10
-9.4553888741
 20
23.0979288255
 11
-9.4553888741
 21
22.9513718497
  0
LINE
  5
349
100
AcDbEntity
  8
0
100
AcDbLine
 62
250
  6
CONTINUOUS
 10
-9.1762966027
 20
22.9583826898
 11
-9.1762966027
 21
22.811825714
  0
LINE
  5
34A
100
AcDbEntity
  8
ASSI
100
AcDbLine
 62
7
  6
CONTINUOUS
 10
-8.7668940063
 20
24.7345033726
 11
-8.7668940063
 21
26.3799780197
  0
LINE
  5
34B
100
AcDbEntity
  8
ASSI
100
AcDbLine
 62
250
  6
CONTINUOUS
 10
-8.2086575958
 20
26.614315355
 11
-8.2086575958
 21
26.2743717602
  0
LINE
  5
34C
100
AcDbEntity
  8
ASSI
100
AcDbLine
 62
7
  6
CONTINUOUS
 10
-8.1525259826
 20
26.6839877686
 11
-8.1525255559
 21
26.3438375975
  0
LINE
  5
34D
100
AcDbEntity
  8
ASSI
100
AcDbLine
 62
7
  6
CONTINUOUS
 10
-7.0893367153
 20
23.5635677343
 11
-7.0893367153
 21
24.7481722401
  0
LWPOLYLINE
  5
34E
100
AcDbEntity
  8
ASSI
100
AcDbPolyline
 62
250
  6
CONTINUOUS
 90
28
 70
0
 10
-7.0307580715
 20
24.6774615618
 10
-7.0307282099
 20
24.6795621716
 10
-7.0305956648
 20
24.6816545177
 10
-7.0303604361
 20
24.6837386
 10
-7.0300270763
 20
24.6858306959
 10
-7.0295910329
 20
24.6879145281
 10
-7.0290386489
 20
24.6899412647
 10
-7.0283657795
 20
24.6919098557
 10
-7.0275765694
 20
24.6938213511
 10
-7.0266697966
 20
24.6956300686
 10
-7.025641161
 20
24.6973328346
 10
-7.0244949626
 20
24.6989328228
 10
-7.0232428786
 20
24.7003938724
 10
-7.0218822789
 20
24.7017109803
 10
-7.0204157936
 20
24.7028891496
 10
-7.0188629904
 20
24.7039072287
 10
-7.0172238331
 20
24.7047609575
 10
-7.015498358
 20
24.705454596
 10
-7.0137062413
 20
24.7059797736
 10
-7.0118470464
 20
24.7063343543
 10
-7.0099212099
 20
24.706520474
 10
-7.0079497171
 20
24.7065361698
 10
-7.0059320014
 20
24.7063795378
 10
-7.0038686294
 20
24.7060524819
 10
-7.0017822864
 20
24.7055587513
 10
-6.9996805343
 20
24.7048995956
 10
-6.9975558113
 20
24.7040737651
 10
-6.9954081173
 20
24.7030812599
  0
LWPOLYLINE
  5
34F
100
AcDbEntity
  8
ASSI
100
AcDbPolyline
 62
250
  6
CONTINUOUS
 90
19
 70
0
 10
-8.2086575958
 20
26.2743717602
 10
-8.208689061
 20
26.2721908604
 10
-8.2088249774
 20
26.2699156568
 10
-8.209065345
 20
26.2675461493
 10
-8.2094056702
 20
26.2650708994
 10
-8.2098504465
 20
26.2625013457
 10
-8.2104131549
 20
26.2598718036
 10
-8.2110976848
 20
26.2571790678
 10
-8.2119001466
 20
26.2544263436
 10
-8.212822353
 20
26.2516575614
 10
-8.2138684918
 20
26.2488711849
 10
-8.2150343751
 20
26.2460687505
 10
-8.2163092514
 20
26.2432987971
 10
-8.2176969129
 20
26.2405619349
 10
-8.2191935674
 20
26.2378575539
 10
-8.2207770862
 20
26.2352323633
 10
-8.2224400932
 20
26.2327019328
 10
-8.2241899647
 20
26.2302506927
 10
-8.2260267005
 20
26.227878643
  0
LINE
  5
350
100
AcDbEntity
  8
0
100
AcDbLine
 62
7
  6
CONTINUOUS
 10
-9.6702890238
 20
-12.590868398
 11
-9.6749909158
 21
-12.8824568926
  0
LINE
  5
351
100
AcDbEntity
  8
0
100
AcDbLine
 62
7
  6
CONTINUOUS
 10
-9.665388205
 20
-12.2991914114
 11
-9.6702890238
 21
-12.590868398
  0
LINE
  5
352
100
AcDbEntity
  8
0
100
AcDbLine
 62
7
  6
CONTINUOUS
 10
-9.6602884653
 20
-12.0074261277
 11
-9.665388205
 21
-12.2991914114
  0
LINE
  5
353
100
AcDbEntity
  8
0
100
AcDbLine
 62
7
  6
CONTINUOUS
 10
-9.6549898129
 20
-11.7155727235
 11
-9.6602884653
 21
-12.0074261277
  0
LINE
  5
354
100
AcDbEntity
  8
0
100
AcDbLine
 62
7
  6
CONTINUOUS
 10
-9.6494924475
 20
-11.4236415339
 11
-9.6549898129
 21
-11.7155727235
  0
LINE
  5
355
100
AcDbEntity
  8
0
100
AcDbLine
 62
7
  6
CONTINUOUS
 10
-9.643796405
 20
-11.1316330236
 11
-9.6494924475
 21
-11.4236415339
  0
LINE
  5
356
100
AcDbEntity
  8
0
100
AcDbLine
 62
7
  6
CONTINUOUS
 10
-9.6379015059
 20
-10.8395373553
 11
-9.643796405
 21
-11.1316330236
  0
LINE
  5
357
100
AcDbEntity
  8
0
100
AcDbLine
 62
7
  6
CONTINUOUS
 10
-9.6318077588
 20
-10.5473547068
 11
-9.6379015059
 21
-10.8395373553
  0
LINE
  5
358
100
AcDbEntity
  8
0
100
AcDbLine
 62
7
  6
CONTINUOUS
 10
-9.6255151702
 20
-10.2550852734
 11
-9.6318077588
 21
-10.5473547068
  0
LINE
  5
359
100
AcDbEntity
  8
ASSI
100
AcDbLine
 62
7
  6
CONTINUOUS
 10
-8.1533199301
 20
26.3236793191
 11
-8.1525257386
 21
26.3438538945
  0
LWPOLYLINE
  5
35A
100
AcDbEntity
  8
0
100
AcDbPolyline
 62
7
  6
CONTINUOUS
 90
46
 70
0
 10
-9.6749909158
 20
-12.8824568926
 10
-9.6811796354
 20
-13.0174685473
 10
-9.6947965868
 20
-13.1464743542
 10
-9.7157591449
 20
-13.2696424726
 10
-9.7443078905
 20
-13.3877441425
 10
-9.7803239083
 20
-13.5003635623
 10
-9.8230997068
 20
-13.6057557192
 10
-9.8725472515
 20
-13.703501548
 10
-9.928814675
 20
-13.7939929745
 10
-9.9913158806
 20
-13.8764881886
 10
-10.0602139858
 20
-13.9508359358
 10
-10.1354880237
 20
-14.0169071304
 10
-10.2160516206
 20
-14.0738386803
 10
-10.3016262442
 20
-14.1211758503
 10
-10.3924607512
 20
-14.1588691416
 10
-10.4880763377
 20
-14.1865843185
 10
-10.589006263
 20
-14.2040395046
 10
-10.6947916546
 20
-14.2110126956
 10
-10.8032142429
 20
-14.207256373
 10
-10.914018894
 20
-14.1922109411
 10
-11.0272226623
 20
-14.1660669067
 10
-11.1406514933
 20
-14.129773645
 10
-11.2534728761
 20
-14.0835936199
 10
-11.3661493119
 20
-14.027218121
 10
-11.4783151907
 20
-13.9608342945
 10
-11.5905839834
 20
-13.8842265009
 10
-11.7023216183
 20
-13.7978514599
 10
-11.8111976115
 20
-13.7029812691
 10
-11.917105082
 20
-13.5994584336
 10
-12.0201506583
 20
-13.4879352539
 10
-12.1180890182
 20
-13.3709056142
 10
-12.2102917993
 20
-13.2490935674
 10
-12.2973640684
 20
-13.1222552265
 10
-12.3787714562
 20
-12.9913616574
 10
-12.4547465938
 20
-12.8563078449
 10
-12.5252738974
 20
-12.7175826714
 10
-12.5893599344
 20
-12.5769275539
 10
-12.6469840968
 20
-12.4344202757
 10
-12.6984105256
 20
-12.2900884553
 10
-12.7429287563
 20
-12.14541244
 10
-12.7806235909
 20
-11.999942304
 10
-12.8117061775
 20
-11.8539667535
 10
-12.8354412388
 20
-11.7098504257
 10
-12.8515629743
 20
-11.5681751061
 10
-12.8604701397
 20
-11.4278890946
 10
-12.8623125915
 20
-11.2887960547
  0
LWPOLYLINE
  5
35B
100
AcDbEntity
  8
0
100
AcDbPolyline
 62
7
  6
CONTINUOUS
 90
3
 70
0
 10
-10.290721912
 20
-12.4235818254
 10
-10.2845195612
 20
-12.3659908617
 10
-10.2817384974
 20
-12.3060642418
  0
LWPOLYLINE
  5
35C
100
AcDbEntity
  8
ASSI
100
AcDbPolyline
 62
7
  6
CONTINUOUS
 90
10
 70
0
 10
-0.5291000055
 20
21.1196808343
 10
-0.5151590231
 20
21.1533606203
 10
-0.5047032863
 20
21.1894296528
 10
-0.4977327952
 20
21.2278879319
 10
-0.4942475496
 20
21.2691665399
 10
-0.4942475496
 20
21.3128343945
 10
-0.4977327952
 20
21.3575982482
 10
-0.5047032863
 20
21.4030270184
 10
-0.5151590231
 20
21.4495517877
 10
-0.5291000055
 20
21.4971725561
  0
LWPOLYLINE
  5
35D
100
AcDbEntity
  8
ASSI
100
AcDbPolyline
 62
7
  6
CONTINUOUS
 90
6
 70
0
 10
0.6797550916
 20
19.3937148738
 10
0.681551389
 20
19.3973948804
 10
0.6867770147
 20
19.4035866759
 10
0.6949742241
 20
19.4119270042
 10
0.7059466746
 20
19.4214887968
 10
0.7195126615
 20
19.4320528557
  0
LWPOLYLINE
  5
35E
100
AcDbEntity
  8
ASSI
100
AcDbPolyline
 62
250
  6
CONTINUOUS
 90
10
 70
0
 10
4.3604740047
 20
19.9346282904
 10
4.3639118607
 20
19.9392589191
 10
4.3669930553
 20
19.9440779836
 10
4.3697175884
 20
19.949085484
 10
4.3721125633
 20
19.9543542438
 10
4.3741508767
 20
19.9598114395
 10
4.375751219
 20
19.9652386007
 10
4.3768864869
 20
19.9705629041
 10
4.3775837837
 20
19.9758571731
 10
4.3778431093
 20
19.9811214076
  0
LWPOLYLINE
  5
35F
100
AcDbEntity
  8
ASSI
100
AcDbPolyline
 62
7
  6
CONTINUOUS
 90
6
 70
0
 10
4.3721348944
 20
19.8783526785
 10
4.3800195505
 20
19.8885930078
 10
4.3939920794
 20
19.9095749792
 10
4.4061708228
 20
19.9320308556
 10
4.4164069767
 20
19.9558395177
 10
4.4243010503
 20
19.9800753376
  0
LINE
  5
360
100
AcDbEntity
  8
ASSI
100
AcDbLine
 62
250
  6
CONTINUOUS
 10
3.8196066988
 20
19.2653408043
 11
4.3604740047
 21
19.9346282904
  0
LINE
  5
361
100
AcDbEntity
  8
ASSI
100
AcDbLine
 62
7
  6
CONTINUOUS
 10
3.8196066988
 20
19.1946361434
 11
4.3721614993
 21
19.8783861305
  0
LWPOLYLINE
  5
362
100
AcDbEntity
  8
DRAFT
100
AcDbPolyline
 62
7
  6
CONTINUOUS
 90
25
 70
0
 10
-10.5963482444
 20
-12.8688804625
 10
-10.6491309741
 20
-12.8837692156
 10
-10.7043601441
 20
-12.8913968609
 10
-10.7622430188
 20
-12.89198485
 10
-10.8212878532
 20
-12.885587189
 10
-10.8813349504
 20
-12.8720300237
 10
-10.942493592
 20
-12.8514357311
 10
-11.0035703877
 20
-12.8242899495
 10
-11.0645358945
 20
-12.7905287892
 10
-11.1253906822
 20
-12.7502317297
 10
-11.1849083368
 20
-12.7040949388
 10
-11.2431599515
 20
-12.6518936143
 10
-11.3000811666
 20
-12.5939278032
 10
-11.3541515584
 20
-12.5316591786
 10
-11.4051408883
 20
-12.4651874334
 10
-11.4532800839
 20
-12.3944915362
 10
-11.4976556163
 20
-12.3208111994
 10
-11.5382914286
 20
-12.2439273052
 10
-11.5752188684
 20
-12.1641216342
 10
-11.6074496644
 20
-12.0833245716
 10
-11.6348235295
 20
-12.0015728661
 10
-11.6575417487
 20
-11.9188196855
 10
-11.6750554945
 20
-11.8367954487
 10
-11.6871672253
 20
-11.7560404667
 10
-11.6941017845
 20
-11.6759482536
  0
LWPOLYLINE
  5
363
100
AcDbEntity
  8
ASSI
100
AcDbPolyline
 62
250
  6
CONTINUOUS
 90
7
 70
0
 10
-12.8275717458
 20
26.289261385
 10
-12.8256656805
 20
26.2755564271
 10
-12.8204525404
 20
26.2628862776
 10
-12.8120119867
 20
26.2506585977
 10
-12.8004852526
 20
26.2390779891
 10
-12.7860652112
 20
26.2283382268
 10
-12.7689931487
 20
26.2186190157
  0
LWPOLYLINE
  5
364
100
AcDbEntity
  8
ASSI
100
AcDbPolyline
 62
250
  6
CONTINUOUS
 90
7
 70
0
 10
-12.8275717844
 20
26.6065701302
 10
-12.8256656874
 20
26.5928252521
 10
-12.8204525524
 20
26.5801550997
 10
-12.8120120013
 20
26.5679274153
 10
-12.8004852665
 20
26.5563468014
 10
-12.7860652204
 20
26.5456070331
 10
-12.7689931487
 20
26.5358878161
  0
LWPOLYLINE
  5
365
100
AcDbEntity
  8
ASSI
100
AcDbPolyline
 62
7
  6
CONTINUOUS
 90
10
 70
0
 10
-8.1525260852
 20
26.6839877685
 10
-8.1534077544
 20
26.7048332245
 10
-8.1577543657
 20
26.7344950956
 10
-8.1657207872
 20
26.7632080723
 10
-8.1772019801
 20
26.7904793594
 10
-8.1918795963
 20
26.8156581596
 10
-8.2094983135
 20
26.838480853
 10
-8.2299014797
 20
26.8587849071
 10
-8.2526588145
 20
26.8761600576
 10
-8.2757724028
 20
26.8895569205
  0
LINE
  5
366
100
AcDbEntity
  8
ASSI
100
AcDbLine
 62
250
  6
CONTINUOUS
 10
-7.0307580715
 20
23.4901887805
 11
-7.0307580715
 21
24.6774615618
  0
LINE
  5
367
100
AcDbEntity
  8
ASSI
100
AcDbLine
 62
250
  6
CONTINUOUS
 10
-4.7401096744
 20
23.5321373633
 11
-4.7401096744
 21
22.3448645819
  0
LWPOLYLINE
  5
368
100
AcDbEntity
  8
ASSI
100
AcDbPolyline
 62
250
  6
CONTINUOUS
 90
12
 70
0
 10
2.1803481439
 20
18.8630792522
 10
2.1698363778
 20
18.8397083312
 10
2.1571516227
 20
18.8179500613
 10
2.1425085169
 20
18.7981726133
 10
2.1261548358
 20
18.7807106409
 10
2.1083672996
 20
18.7658596174
 10
2.0894468906
 20
18.7538708364
 10
2.0697137601
 20
18.7449471599
 10
2.0495018121
 20
18.739239585
 10
2.0291530528
 20
18.7368446892
 10
2.0090118031
 20
18.7378029964
 10
1.9999136912
 20
18.7393668181
  0
LWPOLYLINE
  5
369
100
AcDbEntity
  8
RACCORDO
100
AcDbPolyline
 62
250
  6
CONTINUOUS
 90
47
 70
0
 10
10.688230289
 20
22.9179810942
 10
10.7271630632
 20
22.970023089
 10
10.7764462816
 20
23.0268037664
 10
10.8315799562
 20
23.0823943808
 10
10.8920834345
 20
23.1363369031
 10
10.9579557862
 20
23.1885898026
 10
11.0291979415
 20
23.23919461
 10
11.1053320392
 20
23.2878178885
 10
11.1863486681
 20
23.334445631
 10
11.2722572395
 20
23.3790918447
 10
11.3626081252
 20
23.4214651138
 10
11.4576584054
 20
23.4616243118
 10
11.5571509999
 20
23.4995105652
 10
11.6598650403
 20
23.5346558384
 10
11.766205909
 20
23.5670335583
 10
11.8757682236
 20
23.5966702979
 10
11.986114968
 20
23.62317774
 10
12.097219485
 20
23.6463771335
 10
12.2091084317
 20
23.6664472295
 10
12.3194247638
 20
23.6835359653
 10
12.4278152537
 20
23.6975098612
 10
12.534633129
 20
23.7085023968
 10
12.6385810281
 20
23.717061948
 10
12.7394168625
 20
23.7231645175
 10
12.8373827208
 20
23.7268341027
 10
12.9319075071
 20
23.7286910715
 10
13.0228292472
 20
23.7287569404
 10
13.1103099154
 20
23.7270101929
 10
13.1942643388
 20
23.7240066475
 10
13.2745684122
 20
23.7197878469
 10
13.3513462407
 20
23.7143122484
 10
13.4248849672
 20
23.7080110428
 10
13.4951515009
 20
23.700925009
 10
13.5621789325
 20
23.6930133681
 10
13.6263536766
 20
23.6845849739
 10
13.6876614234
 20
23.6756743334
 10
13.7461164828
 20
23.6662469396
 10
13.8021481993
 20
23.6565081257
 10
13.8557527829
 20
23.646486604
 10
13.9069340236
 20
23.6361536623
 10
13.9561326359
 20
23.6256284975
 10
14.0033517808
 20
23.6149339584
 10
14.0485882973
 20
23.6040471963
 10
14.0922734172
 20
23.5930188626
 10
14.1345508843
 20
23.5818658413
 10
14.1752769547
 20
23.5705712485
 10
14.2144516284
 20
23.5591350842
  0
LWPOLYLINE
  5
36A
100
AcDbEntity
  8
RACCORDO
100
AcDbPolyline
 62
250
  6
CONTINUOUS
 90
10
 70
0
 10
10.6065764194
 20
22.9516387363
 10
10.6088711075
 20
22.954698747
 10
10.6617337586
 20
23.015415845
 10
10.7208126291
 20
23.0746750622
 10
10.7859054085
 20
23.1322829954
 10
10.8567812404
 20
23.188056463
 10
10.9332743781
 20
23.2418843986
 10
11.0152657819
 20
23.2936855822
 10
11.1025143789
 20
23.3433032216
 10
11.1228837583
 20
23.3541722029
  0
LWPOLYLINE
  5
36B
100
AcDbEntity
  8
ASSI
100
AcDbPolyline
 62
7
  6
CONTINUOUS
 90
4
 70
0
 10
0.710179469
 20
-21.7515585855
 10
0.7191650505
 20
-21.775137575
 10
0.7348678755
 20
-21.8090606651
 10
0.7529760748
 20
-21.8419697354
  0
LWPOLYLINE
  5
36C
100
AcDbEntity
  8
ASSI
100
AcDbPolyline
 62
7
  6
CONTINUOUS
 90
13
 70
0
 10
-4.2414106067
 20
23.6409289429
 10
-4.2429151278
 20
23.6699447378
 10
-4.2474266654
 20
23.6999712435
 10
-4.2548628021
 20
23.7304977604
 10
-4.2650904674
 20
23.7610055944
 10
-4.2779336357
 20
23.7909732724
 10
-4.293176151
 20
23.8198855061
 10
-4.3105604262
 20
23.847246162
 10
-4.3297859585
 20
23.8725888109
 10
-4.3505195806
 20
23.8954812984
 10
-4.3724076063
 20
23.9155314804
 10
-4.3950819863
 20
23.9323937465
 10
-4.4181603781
 20
23.9457772045
  0
LINE
  5
36D
100
AcDbEntity
  8
ASSI
100
AcDbLine
 62
7
  6
CONTINUOUS
 10
-3.5593503764
 20
22.8234248322
 11
-3.5836421953
 21
23.9671869241
  0
LINE
  5
36E
100
AcDbEntity
  8
ASSI
100
AcDbLine
 62
250
  6
CONTINUOUS
 10
-4.4597566441
 20
23.5309140613
 11
-4.4597566441
 21
22.352560153
  0
LINE
  5
36F
100
AcDbEntity
  8
ASSI
100
AcDbLine
 62
7
  6
CONTINUOUS
 10
-4.2414106067
 20
22.4717616728
 11
-4.2414106067
 21
23.6409289429
  0
LINE
  5
370
100
AcDbEntity
  8
ASSI
100
AcDbLine
 62
250
  6
CONTINUOUS
 10
-3.3184474703
 20
22.8213062612
 11
-3.3184474703
 21
21.6340334799
  0
LINE
  5
371
100
AcDbEntity
  8
ASSI
100
AcDbLine
 62
7
  6
CONTINUOUS
 10
-3.3770261141
 20
21.7074124336
 11
-3.3770260628
 21
22.8920885602
  0
LWPOLYLINE
  5
372
100
AcDbEntity
  8
RACCORDO
100
AcDbPolyline
 62
250
  6
CONTINUOUS
 90
5
 70
0
 10
-3.0664325322
 20
-22.4560141258
 10
-3.0231058318
 20
-18.4255839014
 10
-2.9478114389
 20
-14.3811606502
 10
-2.8405493535
 20
-10.3227443722
 10
-2.701296121
 20
-6.2497751527
  0
LWPOLYLINE
  5
373
100
AcDbEntity
  8
RACCORDO
100
AcDbPolyline
 62
250
  6
CONTINUOUS
 90
8
 70
0
 10
-3.7394938992
 20
-22.4594313002
 10
-3.6933255186
 20
-18.4266765067
 10
-3.6158599519
 20
-14.3788892155
 10
-3.5070906387
 20
-10.3164309721
 10
-3.3670080599
 20
-6.2394811806
 10
-3.1956225767
 20
-2.148590953
 10
-2.9929729915
 20
1.9553134253
 10
-2.7590955866
 20
6.0716695455
  0
LINE
  5
374
100
AcDbEntity
  8
RACCORDO
100
AcDbLine
 62
250
  6
CONTINUOUS
 10
-2.701296121
 20
-6.2497751527
 11
-2.5300751961
 21
-2.1628129063
  0
LINE
  5
375
100
AcDbEntity
  8
RACCORDO
100
AcDbLine
 62
250
  6
CONTINUOUS
 10
-2.5300751961
 20
-2.1628129063
 11
-2.3269569424
 21
1.9364626224
  0
LWPOLYLINE
  5
376
100
AcDbEntity
  8
ASSI
100
AcDbPolyline
 62
250
  6
CONTINUOUS
 90
13
 70
0
 10
-3.283097516
 20
22.8469259593
 10
-3.2819143378
 20
22.8698755482
 10
-3.2783846002
 20
22.8936243105
 10
-3.2725673644
 20
22.9177748661
 10
-3.2645599674
 20
22.9419231116
 10
-3.2544963937
 20
22.9656649822
 10
-3.2425450331
 20
22.9886032125
 10
-3.2289058634
 20
23.0103539839
 10
-3.2138071039
 20
23.0305533469
 10
-3.1975013974
 20
23.0488633108
 10
-3.1802615822
 20
23.0649774996
 10
-3.1623761267
 20
23.0786262789
 10
-3.1441443028
 20
23.0895812667
  0
LWPOLYLINE
  5
377
100
AcDbEntity
  8
ASSI
100
AcDbPolyline
 62
250
  6
CONTINUOUS
 90
13
 70
0
 10
-1.0631490275
 20
21.736951715
 10
-1.0619658476
 20
21.7599013193
 10
-1.058436106
 20
21.7836500949
 10
-1.0526188646
 20
21.8078006608
 10
-1.0446114614
 20
21.8319489131
 10
-1.034547882
 20
21.8556907866
 10
-1.0225965171
 20
21.8786290159
 10
-1.0089573451
 20
21.9003797828
 10
-0.993858586
 20
21.9205791383
 10
-0.9775528828
 20
21.9388890931
 10
-0.9603130736
 20
21.9550032722
 10
-0.9424276269
 20
21.9686520422
 10
-0.9241958142
 20
21.9796070224
  0
LWPOLYLINE
  5
378
100
AcDbEntity
  8
ASSI
100
AcDbPolyline
 62
7
  6
CONTINUOUS
 90
9
 70
0
 10
-2.1145139337
 20
25.4814429917
 10
-2.1152750147
 20
25.4680653383
 10
-2.1199126274
 20
25.4483162483
 10
-2.1289186988
 20
25.4287593812
 10
-2.1421305705
 20
25.4095175406
 10
-2.158962277
 20
25.3913701931
 10
-2.1792184962
 20
25.374577161
 10
-2.2030945502
 20
25.3588786221
 10
-2.2305904389
 20
25.3442745764
  0
LINE
  5
379
100
AcDbEntity
  8
RACCORDO
100
AcDbLine
 62
250
  6
CONTINUOUS
 10
-2.3269569424
 20
1.9364626224
 11
-2.0919648148
 21
6.0474915188
  0
LINE
  5
37A
100
AcDbEntity
  8
RACCORDO
100
AcDbLine
 62
250
  6
CONTINUOUS
 10
-2.7590955866
 20
6.0716695455
 11
-2.4940155399
 21
10.2002828819
  0
LINE
  5
37B
100
AcDbEntity
  8
RACCORDO
100
AcDbLine
 62
250
  6
CONTINUOUS
 10
-2.0919648148
 20
6.0474915188
 11
-1.8250753584
 21
10.1708336977
  0
LINE
  5
37C
100
AcDbEntity
  8
RACCORDO
100
AcDbLine
 62
250
  6
CONTINUOUS
 10
-2.4940155399
 20
10.2002828819
 11
-2.1977705061
 21
14.3407726192
  0
LINE
  5
37D
100
AcDbEntity
  8
RACCORDO
100
AcDbLine
 62
250
  6
CONTINUOUS
 10
-1.8250753584
 20
10.1708336977
 11
-1.5262885734
 21
14.3064891589
  0
LWPOLYLINE
  5
37E
100
AcDbEntity
  8
RACCORDO
100
AcDbPolyline
 62
250
  6
CONTINUOUS
 90
22
 70
0
 10
-2.1977704964
 20
14.3407726213
 10
-2.1899545332
 20
14.4184195489
 10
-2.1779214014
 20
14.4973509952
 10
-2.1617306292
 20
14.5771622639
 10
-2.1414568444
 20
14.6574350925
 10
-2.1172046337
 20
14.737765913
 10
-2.0891053301
 20
14.8177679255
 10
-2.0572874025
 20
14.8970337653
 10
-2.0219085999
 20
14.9751496982
 10
-1.9831686835
 20
15.0517238956
 10
-1.941251036
 20
15.1263579107
 10
-1.8963596355
 20
15.1986661087
 10
-1.8487481062
 20
15.2682896488
 10
-1.7986414603
 20
15.3348657041
 10
-1.7462844322
 20
15.3980456745
 10
-1.6919785097
 20
15.4575150235
 10
-1.6359870511
 20
15.5129580451
 10
-1.5785783169
 20
15.5640869413
 10
-1.5200731949
 20
15.6106584513
 10
-1.4607680875
 20
15.6524327748
 10
-1.4009339707
 20
15.6891764704
 10
-1.3408592786
 20
15.7206906611
  0
LWPOLYLINE
  5
37F
100
AcDbEntity
  8
RACCORDO
100
AcDbPolyline
 62
250
  6
CONTINUOUS
 90
22
 70
0
 10
-1.5262885734
 20
14.3064891589
 10
-1.5215598538
 20
14.3518673042
 10
-1.5143463887
 20
14.3975513099
 10
-1.5046481781
 20
14.443541176
 10
-1.4923900364
 20
14.490095006
 10
-1.4776471493
 20
14.5369546964
 10
-1.4606450736
 20
14.5833459367
 10
-1.4413511732
 20
14.6292415321
 10
-1.4197980842
 20
14.6746686775
 10
-1.3963092725
 20
14.7189346465
 10
-1.3708526244
 20
14.7620244956
 10
-1.3434602536
 20
14.8039531682
 10
-1.314551967
 20
14.8440727688
 10
-1.2841044593
 20
14.882353753
 10
-1.2521410358
 20
14.9188256651
 10
-1.2191514191
 20
14.9529292419
 10
-1.1851032519
 20
14.9846351844
 10
-1.1500288916
 20
15.0139727917
 10
-1.1145151324
 20
15.0404706976
 10
-1.0787575724
 20
15.0639717804
 10
-1.0425606136
 20
15.0846331618
 10
-1.005924256
 20
15.1024548419
  0
LWPOLYLINE
  5
380
100
AcDbEntity
  8
RACCORDO
100
AcDbPolyline
 62
7
  6
CONTINUOUS
 90
9
 70
0
 10
0.3972426162
 20
23.4626220948
 10
0.3956596221
 20
23.4548050172
 10
0.3922372618
 20
23.44453341
 10
0.3864735231
 20
23.4319770609
 10
0.3781547676
 20
23.4177356415
 10
0.3674761534
 20
23.4026763879
 10
0.3546615991
 20
23.3873070148
 10
0.3398183153
 20
23.3718565117
 10
0.3333813784
 20
23.3657401683
  0
LINE
  5
381
100
AcDbEntity
  8
DRAFT
100
AcDbLine
 62
7
  6
CONTINUOUS
 10
20.3373310241
 20
16.3779297515
 11
21.4080541181
 21
17.0704644086
  0
LWPOLYLINE
  5
382
100
AcDbEntity
  8
ASSI
100
AcDbPolyline
 62
250
  6
CONTINUOUS
 90
6
 70
0
 10
4.3676783445
 20
-21.1389189765
 10
4.3596558865
 20
-21.1161175057
 10
4.3492128871
 20
-21.095082457
 10
4.3365260512
 20
-21.0761697636
 10
4.3218100521
 20
-21.0596994465
 10
4.305313899
 20
-21.0459501994
  0
LWPOLYLINE
  5
383
100
AcDbEntity
  8
ASSI
100
AcDbPolyline
 62
250
  6
CONTINUOUS
 90
7
 70
0
 10
-7.0893367153
 20
24.7481722397
 10
-7.0874305845
 20
24.7343989054
 10
-7.0822174308
 20
24.7217287646
 10
-7.0737768702
 20
24.7095010969
 10
-7.0622501378
 20
24.697920503
 10
-7.0478301091
 20
24.6871807568
 10
-7.0307580715
 20
24.6774615618
  0
LINE
  5
384
100
AcDbEntity
  8
DRAFT
100
AcDbLine
 62
7
  6
CONTINUOUS
 10
1.2740222865
 20
-15.1216056932
 11
1.1110845818
 21
-13.181343656
  0
LWPOLYLINE
  5
385
100
AcDbEntity
  8
ASSI
100
AcDbPolyline
 62
7
  6
CONTINUOUS
 90
12
 70
0
 10
-2.1322526822
 20
26.6685093382
 10
-2.133884046
 20
26.694751377
 10
-2.1394079253
 20
26.7273747125
 10
-2.1488566207
 20
26.7595674904
 10
-2.1622372238
 20
26.7908889961
 10
-2.1794148037
 20
26.8207577147
 10
-2.2002973423
 20
26.8488410175
 10
-2.2248334146
 20
26.8748981091
 10
-2.2526415405
 20
26.8984241913
 10
-2.2832461686
 20
26.9190416835
 10
-2.3168916675
 20
26.9369048419
 10
-2.3531953369
 20
26.9517655964
  0
LWPOLYLINE
  5
386
100
AcDbEntity
  8
ASSI
100
AcDbPolyline
 62
250
  6
CONTINUOUS
 90
28
 70
0
 10
-0.7474460429
 20
21.6747587607
 10
-0.7478122325
 20
21.6860777514
 10
-0.7486718531
 20
21.6978474305
 10
-0.7500518167
 20
21.710047017
 10
-0.7519824258
 20
21.7226792884
 10
-0.7544854998
 20
21.7356868597
 10
-0.7575625471
 20
21.7489495578
 10
-0.7612235404
 20
21.7624272085
 10
-0.765475729
 20
21.7760754769
 10
-0.7702924189
 20
21.7897610023
 10
-0.7756638664
 20
21.8034301616
 10
-0.7815815963
 20
21.817038401
 10
-0.7879993193
 20
21.8304667555
 10
-0.7948871893
 20
21.8436528142
 10
-0.8022282443
 20
21.856564474
 10
-0.8099828893
 20
21.8691333332
 10
-0.8181156752
 20
21.8813068623
 10
-0.8266023877
 20
21.8930536381
 10
-0.8354167984
 20
21.904340259
 10
-0.844527869
 20
21.9151286908
 10
-0.8539026122
 20
21.9253815979
 10
-0.8635113846
 20
21.935068079
 10
-0.8733203894
 20
21.9441547288
 10
-0.8832953073
 20
21.9526104519
 10
-0.8934052456
 20
21.9604095736
 10
-0.90361637
 20
21.9675256206
 10
-0.9138918188
 20
21.9739323152
 10
-0.9241958142
 20
21.9796070224
  0
LWPOLYLINE
  5
387
100
AcDbEntity
  8
ASSI
100
AcDbPolyline
 62
250
  6
CONTINUOUS
 90
15
 70
0
 10
-0.1824924435
 20
19.9253686631
 10
-0.1822798337
 20
19.9148469215
 10
-0.1816175391
 20
19.9042598112
 10
-0.1804678533
 20
19.8936577578
 10
-0.1787893482
 20
19.8830737157
 10
-0.1765477357
 20
19.872591607
 10
-0.1737271372
 20
19.8623377281
 10
-0.1703041321
 20
19.8523721444
 10
-0.1662577083
 20
19.8427585024
 10
-0.161598779
 20
19.8336148619
 10
-0.1563218074
 20
19.8249977239
 10
-0.1504243344
 20
19.8169643004
 10
-0.143945933
 20
19.8096119112
 10
-0.1369001283
 20
19.8029842411
 10
-0.1293029238
 20
19.7971228315
  0
LWPOLYLINE
  5
388
100
AcDbEntity
  8
ASSI
100
AcDbPolyline
 62
250
  6
CONTINUOUS
 90
28
 70
0
 10
-1.0277990732
 20
21.6759820626
 10
-1.0278381083
 20
21.6782671825
 10
-1.027987404
 20
21.680631949
 10
-1.0282469604
 20
21.6830763622
 10
-1.0286142506
 20
21.6856131475
 10
-1.0290918014
 20
21.6882295795
 10
-1.0296871935
 20
21.6908874823
 10
-1.0304046015
 20
21.6935891128
 10
-1.0312398508
 20
21.6963322142
 10
-1.0321879973
 20
21.6990718395
 10
-1.033252509
 20
21.7018073539
 10
-1.0344299179
 20
21.7045393922
 10
-1.0357048761
 20
21.7072249127
 10
-1.0370783891
 20
21.7098600995
 10
-1.0385494514
 20
21.7124487685
 10
-1.0400996993
 20
21.7149593252
 10
-1.0417288959
 20
21.7173887824
 10
-1.0434372781
 20
21.7197401272
 10
-1.0452071935
 20
21.7219907267
 10
-1.0470391896
 20
21.7241397348
 10
-1.0489327188
 20
21.7261879975
 10
-1.0508684864
 20
21.7281154199
 10
-1.0528468195
 20
21.7299208743
 10
-1.0548673909
 20
21.7316054884
 10
-1.056909925
 20
21.7331525507
 10
-1.0589676631
 20
21.7345564906
 10
-1.061047364
 20
21.7358228787
 10
-1.0631490275
 20
21.736951715
  0
LINE
  5
389
100
AcDbEntity
  8
ASSI
100
AcDbLine
 62
7
  6
CONTINUOUS
 10
-2.1145611447
 20
25.481443344
 11
-2.1322528107
 21
26.6685153911
  0
LINE
  5
38A
100
AcDbEntity
  8
ASSI
100
AcDbLine
 62
250
  6
CONTINUOUS
 10
-2.2305904389
 20
25.3442745764
 11
-2.2430344803
 21
26.5376621463
  0
LWPOLYLINE
  5
38B
100
AcDbEntity
  8
ASSI
100
AcDbPolyline
 62
7
  6
CONTINUOUS
 90
9
 70
0
 10
-0.2410709055
 20
19.9960531148
 10
-0.2410418442
 20
19.9922411341
 10
-0.2392344463
 20
19.9657907181
 10
-0.2346076529
 20
19.9398308047
 10
-0.2272101059
 20
19.9147612456
 10
-0.2172080455
 20
19.8910264868
 10
-0.2047212682
 20
19.8687835481
 10
-0.1898662378
 20
19.8481954954
 10
-0.1729078913
 20
19.8295905132
  0
LINE
  5
38C
100
AcDbEntity
  8
ASSI
100
AcDbLine
 62
250
  6
CONTINUOUS
 10
-1.1298984617
 20
24.8218507639
 11
-1.1298984617
 21
25.8705978498
  0
LINE
  5
38D
100
AcDbEntity
  8
ASSI
100
AcDbLine
 62
250
  6
CONTINUOUS
 10
-1.0277990732
 20
20.4887092813
 11
-1.0277990732
 21
21.6759820626
  0
LINE
  5
38E
100
AcDbEntity
  8
RACCORDO
100
AcDbLine
 62
250
  6
CONTINUOUS
 10
-0.8615546133
 20
23.8768528707
 11
-0.8615546133
 21
23.0119343428
  0
LINE
  5
38F
100
AcDbEntity
  8
ASSI
100
AcDbLine
 62
250
  6
CONTINUOUS
 10
-0.7474460429
 20
20.4964048524
 11
-0.7474460429
 21
21.6747587607
  0
LINE
  5
390
100
AcDbEntity
  8
ASSI
100
AcDbLine
 62
7
  6
CONTINUOUS
 10
-0.5291000055
 20
20.6156063722
 11
-0.5291000055
 21
21.7847736422
  0
LINE
  5
391
100
AcDbEntity
  8
RACCORDO
100
AcDbLine
 62
250
  6
CONTINUOUS
 10
-0.448683397
 20
23.989113296
 11
-0.448683397
 21
23.0065286362
  0
LINE
  5
392
100
AcDbEntity
  8
ASSI
100
AcDbLine
 62
7
  6
CONTINUOUS
 10
-0.2410710873
 20
20.3133481416
 11
-0.2410710873
 21
19.9960793416
  0
LINE
  5
393
100
AcDbEntity
  8
ASSI
100
AcDbLine
 62
250
  6
CONTINUOUS
 10
-0.1824924435
 20
20.2426374635
 11
-0.1824924435
 21
19.9253686631
  0
LINE
  5
394
100
AcDbEntity
  8
ASSI
100
AcDbLine
 62
250
  6
CONTINUOUS
 10
0.283830485
 20
24.7877840286
 11
0.283830485
 21
25.3619658845
  0
LINE
  5
395
100
AcDbEntity
  8
RACCORDO
100
AcDbLine
 62
250
  6
CONTINUOUS
 10
0.3097222016
 20
23.6099104967
 11
0.3097222016
 21
23.3438343114
  0
LINE
  5
396
100
AcDbEntity
  8
RACCORDO
100
AcDbLine
 62
7
  6
CONTINUOUS
 10
0.3975852022
 20
23.4674924475
 11
0.3972426162
 21
23.4626220948
  0
LWPOLYLINE
  5
397
100
AcDbEntity
  8
ASSI
100
AcDbPolyline
 62
7
  6
CONTINUOUS
 90
3
 70
0
 10
4.4243010503
 20
19.9800753376
 10
4.4298419559
 20
20.0044989037
 10
4.4331185331
 20
20.0296411101
  0
LWPOLYLINE
  5
398
100
AcDbEntity
  8
RACCORDO
100
AcDbPolyline
 62
7
  6
CONTINUOUS
 90
76
 70
0
 10
20.1923961346
 20
16.8005940698
 10
20.2544095629
 20
16.8522122754
 10
20.3147194559
 20
16.902842916
 10
20.3733258136
 20
16.9524859914
 10
20.4301894026
 20
17.0011105505
 10
20.4853494564
 20
17.0487475444
 10
20.5389236747
 20
17.0954898272
 10
20.5909188984
 20
17.1413403428
 10
20.6413282867
 20
17.1862961473
 10
20.6902490173
 20
17.2304412633
 10
20.7376859538
 20
17.2737762218
 10
20.7836342326
 20
17.3163004919
 10
20.8281764404
 20
17.3580965027
 10
20.8713183297
 20
17.3991643
 10
20.9130541479
 20
17.439503838
 10
20.9534492236
 20
17.4791974083
 10
20.9925110446
 20
17.5182445317
 10
21.0302321231
 20
17.5566456873
 10
21.066655324
 20
17.5944846034
 10
21.1017913488
 20
17.6317601971
 10
21.1356294961
 20
17.6684735514
 10
21.1681805265
 20
17.7047116434
 10
21.1994626048
 20
17.7404746737
 10
21.2294575662
 20
17.7757624416
 10
21.2581216762
 20
17.8106613233
 10
21.2854856869
 20
17.8451739043
 10
21.3115188462
 20
17.8792975989
 10
21.3360851633
 20
17.9131110266
 10
21.3592536162
 20
17.9466593922
 10
21.3809552269
 20
17.9798974908
 10
21.4008470714
 20
18.0127683272
 10
21.4190052952
 20
18.0453889676
 10
21.4353537528
 20
18.0776423458
 10
21.4493210845
 20
18.1091202674
 10
21.4608605309
 20
18.139836125
 10
21.4700188514
 20
18.1697765261
 10
21.4763649635
 20
18.1984930986
 10
21.4797896191
 20
18.225945475
 10
21.4804020663
 20
18.2521740229
 10
21.4780989667
 20
18.2768514733
 10
21.4727148403
 20
18.2999400916
 10
21.464415167
 20
18.3214776124
 10
21.4535930483
 20
18.3412499718
 10
21.4401722716
 20
18.3591281779
 10
21.4242290495
 20
18.3752412226
 10
21.4063851213
 20
18.3897620172
 10
21.3867206481
 20
18.4026400784
 10
21.3651554689
 20
18.4139258896
 10
21.3420708392
 20
18.4239438121
 10
21.3175410611
 20
18.4327222725
 10
21.2914918326
 20
18.4402328442
 10
21.2640815039
 20
18.4467146079
 10
21.2353453988
 20
18.4521991806
 10
21.2052481936
 20
18.4566549454
 10
21.1738422669
 20
18.4602261326
 10
21.141147
 20
18.462933124
 10
21.1071430117
 20
18.4647555379
 10
21.0718245371
 20
18.46577646
 10
21.0352037959
 20
18.4660090527
 10
20.9972685684
 20
18.4654401535
 10
20.9579764308
 20
18.4641133613
 10
20.917332935
 20
18.462037264
 10
20.875332529
 20
18.4592032736
 10
20.8319161333
 20
18.4556292245
 10
20.7870878858
 20
18.4513208356
 10
20.7408436485
 20
18.4462723881
 10
20.6931119289
 20
18.4404845603
 10
20.6439033362
 20
18.4339627664
 10
20.5932072611
 20
18.4267015921
 10
20.5409203822
 20
18.4186854736
 10
20.4870495932
 20
18.4099194543
 10
20.4315880003
 20
18.4003984907
 10
20.374411601
 20
18.3900918893
 10
20.3154790609
 20
18.3789894186
 10
20.2548317143
 20
18.36710131
 10
20.1924695612
 20
18.3544275635
  0
LINE
  5
399
100
AcDbEntity
  8
DRAFT
100
AcDbLine
 62
7
  6
CONTINUOUS
 10
1.9590840544
 20
-2.2194857242
 11
1.5783016488
 21
-2.0290945214
  0
LWPOLYLINE
  5
39A
100
AcDbEntity
  8
ASSI
100
AcDbPolyline
 62
7
  6
CONTINUOUS
 90
5
 70
0
 10
4.4278147717
 20
-21.1940687484
 10
4.4206476454
 20
-21.1692266315
 10
4.4109301019
 20
-21.1456832248
 10
4.3987887426
 20
-21.1235819675
 10
4.384336643
 20
-21.1030873016
  0
LINE
  5
39B
100
AcDbEntity
  8
0
100
AcDbLine
 62
7
  6
CONTINUOUS
 10
3.1200808926
 20
-16.0446349963
 11
1.9590840544
 21
-2.2194857242
  0
LWPOLYLINE
  5
39C
100
AcDbEntity
  8
ASSI
100
AcDbPolyline
 62
7
  6
CONTINUOUS
 90
13
 70
0
 10
-0.5291000055
 20
21.7847736422
 10
-0.5306045266
 20
21.8137894372
 10
-0.5351160641
 20
21.8438159429
 10
-0.5425522009
 20
21.8743424598
 10
-0.5527798662
 20
21.9048502938
 10
-0.5656230345
 20
21.9348179718
 10
-0.5808655497
 20
21.9637302055
 10
-0.598249825
 20
21.9910908614
 10
-0.6174753573
 20
22.0164335103
 10
-0.6382089794
 20
22.0393259978
 10
-0.6600970051
 20
22.0593761798
 10
-0.682771385
 20
22.0762384459
 10
-0.7058497768
 20
22.0896219039
  0
LWPOLYLINE
  5
39D
100
AcDbEntity
  8
ASSI
100
AcDbPolyline
 62
7
  6
CONTINUOUS
 90
16
 70
0
 10
-0.1843456743
 20
25.8155949601
 10
-0.1852553389
 20
25.8339876527
 10
-0.1886337546
 20
25.852256399
 10
-0.1944871027
 20
25.8703891526
 10
-0.2029640051
 20
25.8886664031
 10
-0.2139408028
 20
25.9067555418
 10
-0.2270173454
 20
25.9237180126
 10
-0.2421162777
 20
25.9392878723
 10
-0.2593438827
 20
25.9536481523
 10
-0.2785710592
 20
25.9665342026
 10
-0.2999430488
 20
25.9779407826
 10
-0.3233327282
 20
25.9877571691
 10
-0.34819185
 20
25.99557359
 10
-0.3743302788
 20
26.0012273783
 10
-0.4019200386
 20
26.0047829903
 10
-0.4309441192
 20
26.0061852032
  0
LWPOLYLINE
  5
39E
100
AcDbEntity
  8
ASSI
100
AcDbPolyline
 62
250
  6
CONTINUOUS
 90
9
 70
0
 10
1.8820088713
 20
18.8931353503
 10
1.8832077743
 20
18.8685878979
 10
1.8867899902
 20
18.8455660196
 10
1.8927067205
 20
18.8243807449
 10
1.9008789937
 20
18.805316318
 10
1.9111952789
 20
18.7886321111
 10
1.9235112191
 20
18.7745570158
 10
1.9376572603
 20
18.7632794273
 10
1.9471896645
 20
18.7577958097
  0
LINE
  5
39F
100
AcDbEntity
  8
RACCORDO
100
AcDbLine
 62
7
  6
CONTINUOUS
 10
0.3975901309
 20
23.4675495748
 11
0.3975901664
 21
23.4674505985
  0
LINE
  5
3A0
100
AcDbEntity
  8
ASSI
100
AcDbLine
 62
7
  6
CONTINUOUS
 10
0.4737920331
 20
19.4944946229
 11
0.4737920331
 21
19.0405325185
  0
LINE
  5
3A1
100
AcDbEntity
  8
ASSI
100
AcDbLine
 62
250
  6
CONTINUOUS
 10
0.5470153378
 20
19.4578829706
 11
0.5470153378
 21
18.9488088264
  0
LINE
  5
3A2
100
AcDbEntity
  8
ASSI
100
AcDbLine
 62
7
  6
CONTINUOUS
 10
0.6797527701
 20
18.7575924169
 11
0.6797527701
 21
19.3954378378
  0
LINE
  5
3A3
100
AcDbEntity
  8
ASSI
100
AcDbLine
 62
250
  6
CONTINUOUS
 10
0.7529760748
 20
-21.8419697354
 11
0.7529760748
 21
-21.6280244079
  0
LINE
  5
3A4
100
AcDbEntity
  8
ASSI
100
AcDbLine
 62
250
  6
CONTINUOUS
 10
0.7529760748
 20
18.7068013791
 11
0.7529760748
 21
19.457634404
  0
LWPOLYLINE
  5
3A5
100
AcDbEntity
  8
DRAFT
100
AcDbPolyline
 62
7
  6
CONTINUOUS
 90
18
 70
0
 10
0.9261246917
 20
-17.596248245
 10
0.9261246917
 20
-17.6410701186
 10
0.9304608886
 20
-17.7002202776
 10
0.9392156086
 20
-17.7602164578
 10
0.9523065255
 20
-17.8213614971
 10
0.9694866604
 20
-17.8825254297
 10
0.9909598381
 20
-17.9440300879
 10
1.0165222337
 20
-18.0055536394
 10
1.0453153936
 20
-18.0650006215
 10
1.0773015048
 20
-18.1220512955
 10
1.1125183803
 20
-18.1770254002
 10
1.1502210058
 20
-18.2287866891
 10
1.1905945187
 20
-18.2774272536
 10
1.2334537817
 20
-18.3228550023
 10
1.2774983682
 20
-18.3636574149
 10
1.3222948029
 20
-18.3993636511
 10
1.368276561
 20
-18.4304445511
 10
1.4154436428
 20
-18.456900115
  0
LINE
  5
3A6
100
AcDbEntity
  8
ASSI
100
AcDbLine
 62
250
  6
CONTINUOUS
 10
0.9465403609
 20
-21.9387518784
 11
0.9465403609
 21
-21.1879188535
  0
LINE
  5
3A7
100
AcDbEntity
  8
ASSI
100
AcDbLine
 62
250
  6
CONTINUOUS
 10
0.9465403609
 20
18.610019236
 11
0.9465403609
 21
19.3608522609
  0
LINE
  5
3A8
100
AcDbEntity
  8
RACCORDO
100
AcDbLine
 62
7
  6
CONTINUOUS
 10
1.2740222865
 20
-16.1610142369
 11
1.2740222865
 21
-15.1216056932
  0
LINE
  5
3A9
100
AcDbEntity
  8
ASSI
100
AcDbLine
 62
250
  6
CONTINUOUS
 10
1.2969816488
 20
-21.6924625566
 11
1.2969816488
 21
-21.0666295317
  0
LINE
  5
3AA
100
AcDbEntity
  8
ASSI
100
AcDbLine
 62
250
  6
CONTINUOUS
 10
1.2969816488
 20
18.4856716594
 11
1.2969816488
 21
19.0828998151
  0
LINE
  5
3AB
100
AcDbEntity
  8
ASSI
100
AcDbLine
 62
7
  6
CONTINUOUS
 10
1.8397077115
 20
18.8115367837
 11
1.8397077115
 21
18.3705423419
  0
LINE
  5
3AC
100
AcDbEntity
  8
ASSI
100
AcDbLine
 62
7
  6
CONTINUOUS
 10
1.8397077115
 20
-20.4273957476
 11
1.8397077115
 21
-21.0532287726
  0
LINE
  5
3AD
100
AcDbEntity
  8
ASSI
100
AcDbLine
 62
250
  6
CONTINUOUS
 10
1.8820088792
 20
19.2103868022
 11
1.8820088792
 21
18.8931353458
  0
LINE
  5
3AE
100
AcDbEntity
  8
ASSI
100
AcDbLine
 62
250
  6
CONTINUOUS
 10
1.8820088792
 20
-22.723754938
 11
1.8820088792
 21
-22.4064861376
  0
LINE
  5
3AF
100
AcDbEntity
  8
ASSI
100
AcDbLine
 62
250
  6
CONTINUOUS
 10
2.1623619095
 20
19.2091635003
 11
2.1623619095
 21
18.8918946999
  0
LINE
  5
3B0
100
AcDbEntity
  8
ASSI
100
AcDbLine
 62
250
  6
CONTINUOUS
 10
2.1623619095
 20
-22.7249782399
 11
2.1623619095
 21
-22.4077094395
  0
LINE
  5
3B1
100
AcDbEntity
  8
ASSI
100
AcDbLine
 62
250
  6
CONTINUOUS
 10
2.5667146602
 20
18.6191304535
 11
2.5667146602
 21
17.9389591652
  0
LINE
  5
3B2
100
AcDbEntity
  8
ASSI
100
AcDbLine
 62
250
  6
CONTINUOUS
 10
2.5667146602
 20
-20.7228195197
 11
2.5667146602
 21
-21.4167322469
  0
LWPOLYLINE
  5
3B3
100
AcDbEntity
  8
ASSI
100
AcDbPolyline
 62
250
  6
CONTINUOUS
 90
19
 70
0
 10
2.1623619095
 20
-22.4077094395
 10
2.1623944927
 20
-22.4055290987
 10
2.1625352382
 20
-22.4032563097
 10
2.1627841462
 20
-22.4008910723
 10
2.1631365632
 20
-22.3984218684
 10
2.1635971426
 20
-22.3958602163
 10
2.1641798442
 20
-22.3932406707
 10
2.1648886956
 20
-22.3905600957
 10
2.1657196692
 20
-22.3878216274
 10
2.1666746418
 20
-22.3850692283
 10
2.1677579503
 20
-22.3823014366
 10
2.1689652578
 20
-22.3795197143
 10
2.1702854309
 20
-22.3767724093
 10
2.1717223964
 20
-22.3740601991
 10
2.1732722275
 20
-22.3713824064
 10
2.1749120092
 20
-22.3687853472
 10
2.1766341034
 20
-22.3662844603
 10
2.1784461483
 20
-22.363864307
 10
2.1803481439
 20
-22.3615248872
  0
LWPOLYLINE
  5
3B4
100
AcDbEntity
  8
ASSI
100
AcDbPolyline
 62
250
  6
CONTINUOUS
 90
19
 70
0
 10
1.8820088792
 20
-22.4064861376
 10
1.8822278917
 20
-22.3956171518
 10
1.882909784
 20
-22.384244485
 10
1.8840904724
 20
-22.3723825159
 10
1.8858092433
 20
-22.3600248185
 10
1.8880984686
 20
-22.3472219041
 10
1.8909724792
 20
-22.3340837964
 10
1.8944526562
 20
-22.3206479632
 10
1.8985576711
 20
-22.3069576379
 10
1.903274837
 20
-22.293140545
 10
1.9086078026
 20
-22.2792475328
 10
1.9145569746
 20
-22.265332859
 10
1.9210812707
 20
-22.2515310711
 10
1.9281657931
 20
-22.2378982603
 10
1.9357931634
 20
-22.2244904782
 10
1.9438971774
 20
-22.211435282
 10
1.9524315575
 20
-22.1988059027
 10
1.961378923
 20
-22.1866271205
 10
1.9707057917
 20
-22.1749462462
  0
LINE
  5
3B5
100
AcDbEntity
  8
RACCORDO
100
AcDbLine
 62
7
  6
CONTINUOUS
 10
0.7597715734
 20
-21.5670180449
 11
2.3584913878
 21
16.5936634109
  0
LWPOLYLINE
  5
3B6
100
AcDbEntity
  8
ASSI
100
AcDbPolyline
 62
250
  6
CONTINUOUS
 90
9
 70
0
 10
3.4875143856
 20
23.852666037
 10
3.4872308903
 20
23.8459538394
 10
3.4836584092
 20
23.8265561724
 10
3.4760336569
 20
23.8075088705
 10
3.4644397006
 20
23.789017678
 10
3.4489981643
 20
23.7712757899
 10
3.4298721587
 20
23.7544744405
 10
3.4072679838
 20
23.7388002146
 10
3.3814286985
 20
23.7244247083
  0
LINE
  5
3B7
100
AcDbEntity
  8
0
100
AcDbLine
 62
7
  6
CONTINUOUS
 10
1.9590840544
 20
-2.2194857242
 11
3.1200808926
 21
12.7074084094
  0
LWPOLYLINE
  5
3B8
100
AcDbEntity
  8
RACCORDO
100
AcDbPolyline
 62
250
  6
CONTINUOUS
 90
28
 70
0
 10
20.0847368444
 20
16.6715361983
 10
20.1010153204
 20
16.6860020871
 10
20.1170679469
 20
16.6981564309
 10
20.1328615214
 20
16.7080024195
 10
20.1483926251
 20
16.7155899395
 10
20.1635930445
 20
16.7208744578
 10
20.1783410438
 20
16.7237127442
 10
20.1926346014
 20
16.7239308013
 10
20.2064206008
 20
16.7216964883
 10
20.2195312807
 20
16.7173681991
 10
20.2319144959
 20
16.7108709862
 10
20.2436175721
 20
16.7022568601
 10
20.2546427163
 20
16.6920684199
 10
20.2649592988
 20
16.6803640265
 10
20.2745935568
 20
16.6670638325
 10
20.2836159705
 20
16.6525068921
 10
20.2920053879
 20
16.6367407885
 10
20.299744192
 20
16.6197029477
 10
20.3068726731
 20
16.6015729651
 10
20.3133577724
 20
16.582354921
 10
20.319153858
 20
16.5620316763
 10
20.3242488858
 20
16.5407540268
 10
20.328588869
 20
16.5185198974
 10
20.3321191664
 20
16.4953137128
 10
20.3347965558
 20
16.4712662036
 10
20.3365477792
 20
16.446393312
 10
20.3373050523
 20
16.420651985
 10
20.3373306603
 20
16.4155913626
  0
LINE
  5
3B9
100
AcDbEntity
  8
DRAFT
100
AcDbLine
 62
7
  6
CONTINUOUS
 10
-11.3986038912
 20
-8.4398577065
 11
-11.376624272
 21
-8.4275492742
  0
LWPOLYLINE
  5
3BA
100
AcDbEntity
  8
0
100
AcDbPolyline
 62
7
  6
CONTINUOUS
 90
14
 70
0
 10
-11.3766027254
 20
-8.4275809447
 10
-11.3920689855
 20
-8.4360526756
 10
-11.4288392912
 20
-8.4600773704
 10
-11.463313782
 20
-8.4884064583
 10
-11.4951609142
 20
-8.5208629593
 10
-11.5244696663
 20
-8.5575805749
 10
-11.5511900887
 20
-8.5984146458
 10
-11.5747487847
 20
-8.6427594788
 10
-11.595062398
 20
-8.6906569368
 10
-11.6122392014
 20
-8.7420723007
 10
-11.625943476
 20
-8.7962705431
 10
-11.6360562541
 20
-8.8530123561
 10
-11.6427092821
 20
-8.9125676514
 10
-11.6459259714
 20
-8.9749646412
  0
LINE
  5
3BB
100
AcDbEntity
  8
0
100
AcDbLine
 62
7
  6
CONTINUOUS
 10
-11.353025749
 20
-8.4163128725
 11
-11.3766027254
 21
-8.4275809447
  0
LWPOLYLINE
  5
3BC
100
AcDbEntity
  8
DRAFT
100
AcDbPolyline
 62
7
  6
CONTINUOUS
 90
41
 70
0
 10
-11.376624272
 20
-8.4275492742
 10
-11.3533137009
 20
-8.4164436972
 10
-11.3294816581
 20
-8.4069378838
 10
-11.3049214155
 20
-8.3989553521
 10
-11.2797612636
 20
-8.3925337153
 10
-11.2539913249
 20
-8.3876789452
 10
-11.2276220462
 20
-8.3843936505
 10
-11.2008072599
 20
-8.3827068784
 10
-11.1735178753
 20
-8.3826444276
 10
-11.1457836713
 20
-8.3841873121
 10
-11.1178399849
 20
-8.3872920888
 10
-11.0898028981
 20
-8.3919293852
 10
-11.0615522958
 20
-8.398129097
 10
-11.0329685224
 20
-8.4059354421
 10
-11.0041183035
 20
-8.4152802789
 10
-10.9749440717
 20
-8.4262384579
 10
-10.9451501494
 20
-8.4390753324
 10
-10.9147490788
 20
-8.4537212466
 10
-10.8837594093
 20
-8.4702642035
 10
-10.8519092297
 20
-8.4892151445
 10
-10.8192567545
 20
-8.5104615406
 10
-10.7858003552
 20
-8.5341452947
 10
-10.7511994465
 20
-8.5611703788
 10
-10.7152820087
 20
-8.5916344943
 10
-10.678328455
 20
-8.625490331
 10
-10.6406902792
 20
-8.6634278881
 10
-10.6022753522
 20
-8.7055762193
 10
-10.5633137934
 20
-8.7518548633
 10
-10.5246282763
 20
-8.802627076
 10
-10.4861263927
 20
-8.8581397877
 10
-10.4480600089
 20
-8.9181885971
 10
-10.4117270941
 20
-8.9824392078
 10
-10.3770351467
 20
-9.0514310222
 10
-10.3442407303
 20
-9.1246723443
 10
-10.3150654979
 20
-9.2002525866
 10
-10.289684712
 20
-9.2783035087
 10
-10.2680127646
 20
-9.3587519421
 10
-10.251242514
 20
-9.4393494824
 10
-10.2397540916
 20
-9.5193687477
 10
-10.2332080324
 20
-9.5996290694
 10
-10.2316733299
 20
-9.6801995595
  0
LWPOLYLINE
  5
3BD
100
AcDbEntity
  8
ASSI
100
AcDbPolyline
 62
250
  6
CONTINUOUS
 90
13
 70
0
 10
2.1977065722
 20
19.2695241474
 10
2.1961908399
 20
19.2925810829
 10
2.1923248002
 20
19.3164739987
 10
2.1861745741
 20
19.3407942405
 10
2.1778453509
 20
19.3651258438
 10
2.1674795884
 20
19.3890526506
 10
2.1552545759
 20
19.4121654273
 10
2.1413794022
 20
19.4340688616
 10
2.1260913828
 20
19.4543883211
 10
2.1096519993
 20
19.4727762642
 10
2.0923424259
 20
19.4889181869
 10
2.0744587187
 20
19.5025380016
 10
2.0563067551
 20
19.5134027568
  0
LWPOLYLINE
  5
3BE
100
AcDbEntity
  8
ASSI
100
AcDbPolyline
 62
250
  6
CONTINUOUS
 90
10
 70
0
 10
2.1623619095
 20
18.8918946999
 10
2.1626327843
 20
18.8868890217
 10
2.1633567547
 20
18.8823005781
 10
2.1645338208
 20
18.878129369
 10
2.1661922447
 20
18.8743303866
 10
2.1683037643
 20
18.8709486388
 10
2.1707835927
 20
18.8681191491
 10
2.1736034676
 20
18.8658869254
 10
2.1767916514
 20
18.8642069597
 10
2.1803481439
 20
18.8630792522
  0
LWPOLYLINE
  5
3BF
100
AcDbEntity
  8
ASSI
100
AcDbPolyline
 62
250
  6
CONTINUOUS
 90
10
 70
0
 10
4.3778431093
 20
-21.3184827318
 10
4.3775815286
 20
-21.3134817006
 10
4.3768823985
 20
-21.3089056771
 10
4.375745719
 20
-21.3047546614
 10
4.3741441976
 20
-21.3009841303
 10
4.3721051268
 20
-21.2976386069
 10
4.3697103844
 20
-21.2948516602
 10
4.3669872628
 20
-21.2926678131
 10
4.3639084696
 20
-21.2910425427
 10
4.3604740047
 20
-21.289975849
  0
LWPOLYLINE
  5
3C0
100
AcDbEntity
  8
ASSI
100
AcDbPolyline
 62
250
  6
CONTINUOUS
 90
13
 70
0
 10
1.9406968191
 20
26.8320536236
 10
1.9395139124
 20
26.8552896747
 10
1.9359847918
 20
26.8792693461
 10
1.9301685091
 20
26.9035913918
 10
1.9221623865
 20
26.9278488374
 10
1.9121003886
 20
26.951635789
 10
1.9001508802
 20
26.9745542259
 10
1.8865138092
 20
26.9962206595
 10
1.8714173614
 20
27.0162725509
 10
1.8551141421
 20
27.034374377
 10
1.8378769489
 20
27.0502232445
 10
1.8199942074
 20
27.0635539584
 10
1.801765145
 20
27.0741434589
  0
LWPOLYLINE
  5
3C1
100
AcDbEntity
  8
ASSI
100
AcDbPolyline
 62
7
  6
CONTINUOUS
 90
12
 70
0
 10
2.5649513883
 20
26.4828150024
 10
2.561481243
 20
26.5538315578
 10
2.5518444396
 20
26.6303775134
 10
2.5363065955
 20
26.7028358906
 10
2.5151154013
 20
26.7708387506
 10
2.4884545667
 20
26.8342081898
 10
2.4564087137
 20
26.8928529187
 10
2.4191755283
 20
26.9464458137
 10
2.3770357048
 20
26.9945513422
 10
2.3302887268
 20
27.0367845974
 10
2.2793466607
 20
27.072785314
 10
2.2389258059
 20
27.0953617569
  0
LWPOLYLINE
  5
3C2
100
AcDbEntity
  8
ASSI
100
AcDbPolyline
 62
250
  6
CONTINUOUS
 90
22
 70
0
 10
2.506382244
 20
26.412308961
 10
2.5040802248
 20
26.4632570032
 10
2.4987715739
 20
26.5119549157
 10
2.4904562914
 20
26.5584026985
 10
2.479057156
 20
26.6028591161
 10
2.4646513891
 20
26.6450654039
 10
2.447470654
 20
26.6842452689
 10
2.4274670537
 20
26.7203234385
 10
2.4046884853
 20
26.7533751853
 10
2.3795103036
 20
26.7828500334
 10
2.3518921404
 20
26.8086852236
 10
2.3218743638
 20
26.8309435152
 10
2.2899534332
 20
26.8492627097
 10
2.2561000492
 20
26.8635756096
 10
2.2203435112
 20
26.8739494126
 10
2.1832681764
 20
26.8802235127
 10
2.1448315468
 20
26.8823221347
 10
2.1050761205
 20
26.8803210539
 10
2.0647137493
 20
26.8742869904
 10
2.0239817174
 20
26.8642421842
 10
1.9826427406
 20
26.8501643953
 10
1.9406968191
 20
26.8320536236
  0
LWPOLYLINE
  5
3C3
100
AcDbEntity
  8
ASSI
100
AcDbPolyline
 62
7
  6
CONTINUOUS
 90
12
 70
0
 10
3.4875149682
 20
23.8527885391
 10
3.4863369569
 20
23.8801094149
 10
3.4812143572
 20
23.9135457969
 10
3.4719948523
 20
23.9465414803
 10
3.4586840578
 20
23.9786235312
 10
3.4414325737
 20
24.0091857075
 10
3.4202974344
 20
24.0379447967
 10
3.3952864049
 20
24.0646674652
 10
3.3668239453
 20
24.088761807
 10
3.3354661617
 20
24.1097843945
 10
3.3009756716
 20
24.127905922
 10
3.2637387365
 20
24.142879317
  0
LWPOLYLINE
  5
3C4
100
AcDbEntity
  8
ASSI
100
AcDbPolyline
 62
7
  6
CONTINUOUS
 90
16
 70
0
 10
4.2085154285
 20
17.8137857497
 10
4.206601549
 20
17.8596602247
 10
4.2007873986
 20
17.9070967579
 10
4.1911086261
 20
17.9556057413
 10
4.1775761277
 20
18.0048498382
 10
4.1603519869
 20
18.0541192445
 10
4.1398716983
 20
18.1023498807
 10
4.1166529699
 20
18.1486442836
 10
4.0908426116
 20
18.1929450194
 10
4.0623545886
 20
18.2354293631
 10
4.031167479
 20
18.2759322806
 10
3.9978349671
 20
18.3135587096
 10
3.9631372337
 20
18.3474411487
 10
3.9276259921
 20
18.3771439233
 10
3.8915576138
 20
18.4025343032
 10
3.8553253751
 20
18.4233936819
  0
LWPOLYLINE
  5
3C5
100
AcDbEntity
  8
ASSI
100
AcDbPolyline
 62
250
  6
CONTINUOUS
 90
13
 70
0
 10
3.3814286985
 20
23.7244247083
 10
3.3802862536
 20
23.7536220444
 10
3.3760875137
 20
23.7838051485
 10
3.3689042928
 20
23.8144577792
 10
3.3588594499
 20
23.8450556646
 10
3.3461247888
 20
23.8750754691
 10
3.3309181192
 20
23.9040037447
 10
3.3134995309
 20
23.9313457125
 10
3.2941669452
 20
23.9566337247
 10
3.2732510199
 20
23.9794352643
 10
3.2511094936
 20
23.9993603417
 10
3.2281210674
 20
24.0160681651
 10
3.2046789272
 20
24.0292729699
  0
LWPOLYLINE
  5
3C6
100
AcDbEntity
  8
ASSI
100
AcDbPolyline
 62
250
  6
CONTINUOUS
 90
13
 70
0
 10
4.3437111654
 20
20.3466873463
 10
4.3427972082
 20
20.3700452143
 10
4.3394382156
 20
20.3941916968
 10
4.3336916386
 20
20.418713801
 10
4.3256557645
 20
20.4431921093
 10
4.3154680362
 20
20.4672079532
 10
4.3033027011
 20
20.4903505741
 10
4.2893678308
 20
20.5122241486
 10
4.2739017625
 20
20.5324545588
 10
4.2571690224
 20
20.5506957908
 10
4.2394558014
 20
20.5666358529
 10
4.2210650605
 20
20.5800021118
 10
4.2023113483
 20
20.5905659557
  0
LWPOLYLINE
  5
3C7
100
AcDbEntity
  8
ASSI
100
AcDbPolyline
 62
7
  6
CONTINUOUS
 90
11
 70
0
 10
4.433974704
 20
20.3906887272
 10
4.4335044499
 20
20.4059348884
 10
4.4298641988
 20
20.4356021586
 10
4.4226490378
 20
20.4643465883
 10
4.411970324
 20
20.4916942873
 10
4.398150061
 20
20.5170007051
 10
4.3814382004
 20
20.5400387791
 10
4.3619680224
 20
20.5606916588
 10
4.3401477941
 20
20.5785576479
 10
4.3164150332
 20
20.5933551645
 10
4.3107533697
 20
20.5962940761
  0
LWPOLYLINE
  5
3C8
100
AcDbEntity
  8
ASSI
100
AcDbPolyline
 62
7
  6
CONTINUOUS
 90
8
 70
0
 10
4.1964659495
 20
23.6924801689
 10
4.1962195826
 20
23.7057122675
 10
4.1951266534
 20
23.716497529
 10
4.193305076
 20
23.7248236671
 10
4.190844086
 20
23.730667765
 10
4.1878641383
 20
23.7340369515
 10
4.1845597067
 20
23.7349690581
 10
4.182724622
 20
23.7344626501
  0
LWPOLYLINE
  5
3C9
100
AcDbEntity
  8
ASSI
100
AcDbPolyline
 62
250
  6
CONTINUOUS
 90
28
 70
0
 10
4.3778431093
 20
20.3210650025
 10
4.3778055125
 20
20.3232859589
 10
4.3776620626
 20
20.3254764129
 10
4.3774127598
 20
20.3276363645
 10
4.3770600477
 20
20.3297806003
 10
4.3766014827
 20
20.3318943336
 10
4.3760297336
 20
20.3339332048
 10
4.3753408758
 20
20.3358953736
 10
4.374538834
 20
20.3377826802
 10
4.3736280518
 20
20.3395562847
 10
4.3726052602
 20
20.3412122569
 10
4.3714737282
 20
20.342754527
 10
4.3702477057
 20
20.3441560464
 10
4.3689262017
 20
20.3454121948
 10
4.3675102072
 20
20.3465275926
 10
4.3660169451
 20
20.347489051
 10
4.3644465903
 20
20.3482939011
 10
4.3627989679
 20
20.3489448119
 10
4.3610907765
 20
20.3494366021
 10
4.359321466
 20
20.3497678985
 10
4.3574915864
 20
20.3499400744
 10
4.3556194861
 20
20.3499520679
 10
4.3537048282
 20
20.3498024412
 10
4.3517479495
 20
20.3494926322
 10
4.3497682081
 20
20.3490258929
 10
4.3477720566
 20
20.3484033076
 10
4.3457530423
 20
20.3476237921
 10
4.3437111654
 20
20.3466873463
  0
LINE
  5
3CA
100
AcDbEntity
  8
ASSI
100
AcDbLine
 62
250
  6
CONTINUOUS
 10
2.5105606862
 20
26.1170368921
 11
2.506382244
 21
26.412308961
  0
LINE
  5
3CB
100
AcDbEntity
  8
ASSI
100
AcDbLine
 62
7
  6
CONTINUOUS
 10
2.5697665756
 20
26.1433263958
 11
2.5649624044
 21
26.4828159739
  0
LWPOLYLINE
  5
3CC
100
AcDbEntity
  8
ASSI
100
AcDbPolyline
 62
7
  6
CONTINUOUS
 90
4
 70
0
 10
4.4339755805
 20
-21.248988608
 10
4.4339570709
 20
-21.2459796818
 10
4.4322642464
 20
-21.2197841008
 10
4.4278147717
 20
-21.1940687484
  0
LINE
  5
3CD
100
AcDbEntity
  8
ASSI
100
AcDbLine
 62
250
  6
CONTINUOUS
 10
2.9171559481
 20
18.7067790752
 11
2.9171559481
 21
17.9485786291
  0
LINE
  5
3CE
100
AcDbEntity
  8
ASSI
100
AcDbLine
 62
250
  6
CONTINUOUS
 10
2.9171559481
 20
-20.8564159872
 11
2.9171559481
 21
-21.4936976845
  0
LINE
  5
3CF
100
AcDbEntity
  8
0
100
AcDbLine
 62
7
  6
CONTINUOUS
 10
3.1200808926
 20
-20.5664897304
 11
3.1200808926
 21
-16.0446349963
  0
LINE
  5
3D0
100
AcDbEntity
  8
0
100
AcDbLine
 62
7
  6
CONTINUOUS
 10
3.1200808926
 20
12.7074084094
 11
3.1200808926
 21
17.2292631435
  0
LINE
  5
3D1
100
AcDbEntity
  8
ASSI
100
AcDbLine
 62
7
  6
CONTINUOUS
 10
3.8196066988
 20
-22.0021597167
 11
3.8196066988
 21
-20.4959702899
  0
LINE
  5
3D2
100
AcDbEntity
  8
ASSI
100
AcDbLine
 62
7
  6
CONTINUOUS
 10
3.8196066988
 20
18.44125302
 11
3.8196066988
 21
20.0867276672
  0
LINE
  5
3D3
100
AcDbEntity
  8
ASSI
100
AcDbLine
 62
7
  6
CONTINUOUS
 10
4.2085154285
 20
17.8137857497
 11
4.2085154285
 21
15.3023122823
  0
LINE
  5
3D4
100
AcDbEntity
  8
ASSI
100
AcDbLine
 62
7
  6
CONTINUOUS
 10
4.2085154285
 20
-20.1181265288
 11
4.2085154285
 21
-17.6066530615
  0
LINE
  5
3D5
100
AcDbEntity
  8
ASSI
100
AcDbLine
 62
250
  6
CONTINUOUS
 10
4.3778431093
 20
-21.6584263266
 11
4.3778431093
 21
-21.3184827318
  0
LINE
  5
3D6
100
AcDbEntity
  8
ASSI
100
AcDbLine
 62
250
  6
CONTINUOUS
 10
4.3778431093
 20
19.9811214076
 11
4.3778431093
 21
20.3210650025
  0
LINE
  5
3D7
100
AcDbEntity
  8
ASSI
100
AcDbLine
 62
7
  6
CONTINUOUS
 10
4.4339751493
 20
-21.5889604896
 11
4.4339751493
 21
-21.2490168258
  0
LINE
  5
3D8
100
AcDbEntity
  8
ASSI
100
AcDbLine
 62
7
  6
CONTINUOUS
 10
4.4339751493
 20
20.0505872447
 11
4.4339749
 21
20.3906887273
  0
LINE
  5
3D9
100
AcDbEntity
  8
ASSI
100
AcDbLine
 62
7
  6
CONTINUOUS
 10
4.9032796149
 20
-19.7433514648
 11
4.9032796149
 21
-16.8183440147
  0
LINE
  5
3DA
100
AcDbEntity
  8
ASSI
100
AcDbLine
 62
7
  6
CONTINUOUS
 10
4.9032796149
 20
15.2334526115
 11
4.9032796149
 21
18.1584600616
  0
LINE
  5
3DB
100
AcDbEntity
  8
ASSI
100
AcDbLine
 62
7
  6
CONTINUOUS
 10
3.4803400177
 20
22.6819928291
 11
3.4875149759
 21
23.8527722511
  0
LINE
  5
3DC
100
AcDbEntity
  8
ASSI
100
AcDbLine
 62
250
  6
CONTINUOUS
 10
3.3814286985
 20
23.7244247083
 11
3.3775515568
 21
23.3499270061
  0
LINE
  5
3DD
100
AcDbEntity
  8
ASSI
100
AcDbLine
 62
250
  6
CONTINUOUS
 10
3.375278103
 20
23.1303314195
 11
3.369261935
 21
22.5492226337
  0
LWPOLYLINE
  5
3DE
100
AcDbEntity
  8
ASSI
100
AcDbPolyline
 62
7
  6
CONTINUOUS
 90
9
 70
0
 10
3.4802173508
 20
22.6819941433
 10
3.4800804348
 20
22.6768069413
 10
3.4766982291
 20
22.6563915513
 10
3.4684938973
 20
22.636144326
 10
3.4558422437
 20
22.6161329724
 10
3.4395159523
 20
22.5973371595
 10
3.4197725844
 20
22.5800834435
 10
3.3963545786
 20
22.5640452683
 10
3.369261935
 20
22.5492226337
  0
LINE
  5
3DF
100
AcDbEntity
  8
ASSI
100
AcDbLine
 62
7
  6
CONTINUOUS
 10
4.1964659495
 20
23.6924801689
 11
4.1962455445
 21
23.6858204051
  0
LINE
  5
3E0
100
AcDbEntity
  8
ASSI
100
AcDbLine
 62
7
  6
CONTINUOUS
 10
4.4331185331
 20
20.0296411101
 11
4.4339712184
 21
20.0506270828
  0
LWPOLYLINE
  5
3E1
100
AcDbEntity
  8
ASSI
100
AcDbPolyline
 62
250
  6
CONTINUOUS
 90
8
 70
0
 10
4.3437111654
 20
-21.7193933331
 10
4.3427972121
 20
-21.7412354259
 10
4.3394382307
 20
-21.7615158311
 10
4.3336916697
 20
-21.7798876794
 10
4.325655814
 20
-21.7960367432
 10
4.3154681039
 20
-21.8096868137
 10
4.3033027829
 20
-21.8206044236
 10
4.2948079734
 20
-21.8259436681
  0
LINE
  5
3E2
100
AcDbEntity
  8
ASSI
100
AcDbLine
 62
250
  6
CONTINUOUS
 10
3.8732400718
 20
23.3388157726
 11
3.8828042319
 21
23.5624790111
  0
LWPOLYLINE
  5
3E3
100
AcDbEntity
  8
ASSI
100
AcDbPolyline
 62
7
  6
CONTINUOUS
 90
10
 70
0
 10
4.2085154285
 20
-20.1181926824
 10
4.2065565185
 20
-20.1621879249
 10
4.2007445981
 20
-20.2039843694
 10
4.1910875634
 20
-20.2430981939
 10
4.1775548414
 20
-20.2792074701
 10
4.160298093
 20
-20.3117022015
 10
4.1397871034
 20
-20.3398371375
 10
4.116544294
 20
-20.3632031408
 10
4.090709942
 20
-20.3819076296
 10
4.0827402385
 20
-20.3864661086
  0
LINE
  5
3E4
100
AcDbEntity
  8
ASSI
100
AcDbLine
 62
7
  6
CONTINUOUS
 10
4.1611877657
 20
23.6607656699
 11
4.1601991725
 21
23.6433225367
  0
LINE
  5
3E5
100
AcDbEntity
  8
DRAFT
100
AcDbLine
 62
7
  6
CONTINUOUS
 10
5.6166621054
 20
15.0124525063
 11
5.6105185322
 21
15.091892408
  0
LINE
  5
3E6
100
AcDbEntity
  8
ASSI
100
AcDbLine
 62
7
  6
CONTINUOUS
 10
5.5980438013
 20
15.5976056426
 11
5.5980438013
 21
15.0217616583
  0
LINE
  5
3E7
100
AcDbEntity
  8
ASSI
100
AcDbLine
 62
7
  6
CONTINUOUS
 10
5.5980438013
 20
-15.9898738345
 11
5.5980438013
 21
-16.4630476698
  0
LINE
  5
3E8
100
AcDbEntity
  8
ASSI
100
AcDbLine
 62
7
  6
CONTINUOUS
 10
5.6597614763
 20
14.9909028208
 11
5.6597614763
 21
-15.918062523
  0
LINE
  5
3E9
100
AcDbEntity
  8
ASSI
100
AcDbLine
 62
7
  6
CONTINUOUS
 10
4.4328491462
 20
-21.612969669
 11
4.4339750845
 21
-21.5889298345
  0
LWPOLYLINE
  5
3EA
100
AcDbEntity
  8
0
100
AcDbPolyline
 62
7
  6
CONTINUOUS
 90
12
 70
0
 10
-10.5686295978
 20
-12.8578171266
 10
-10.5298569492
 20
-12.8378275917
 10
-10.4934157792
 20
-12.8135944495
 10
-10.459321992
 20
-12.7850977872
 10
-10.4278879481
 20
-12.7525495969
 10
-10.3990384851
 20
-12.7158165307
 10
-10.3728581113
 20
-12.6750652357
 10
-10.3498575379
 20
-12.6309334797
 10
-10.3300863069
 20
-12.5832529466
 10
-10.3134862259
 20
-12.5321916041
 10
-10.300342578
 20
-12.4788527723
 10
-10.290721912
 20
-12.4235818254
  0
LINE
  5
3EB
100
AcDbEntity
  8
DRAFT
100
AcDbLine
 62
7
  6
CONTINUOUS
 10
5.6105185322
 20
15.091892408
 11
5.5980438013
 21
15.1907211965
  0
LINE
  5
3EC
100
AcDbEntity
  8
DRAFT
100
AcDbLine
 62
7
  6
CONTINUOUS
 10
5.5980438013
 20
-16.0561632237
 11
5.6095548281
 21
-15.9764802332
  0
LWPOLYLINE
  5
3ED
100
AcDbEntity
  8
RACCORDO
100
AcDbPolyline
 62
7
  6
CONTINUOUS
 90
7
 70
0
 10
20.0847368444
 20
16.6715361983
 10
20.0997349599
 20
16.6958203186
 10
20.1159111152
 20
16.7189946489
 10
20.1332653104
 20
16.7410591892
 10
20.1517975453
 20
16.7620139394
 10
20.17150782
 20
16.7818588996
 10
20.1923961346
 20
16.8005940698
  0
LINE
  5
3EE
100
AcDbEntity
  8
0
100
AcDbLine
 62
7
  6
CONTINUOUS
 10
-10.5963266145
 20
-12.8689622249
 11
-10.5686295978
 21
-12.8578171266
  0
LWPOLYLINE
  5
3EF
100
AcDbEntity
  8
RACCORDO
100
AcDbPolyline
 62
250
  6
CONTINUOUS
 90
9
 70
0
 10
-16.8979450086
 20
21.6908598925
 10
-16.9284769398
 20
21.7096390261
 10
-16.9550794759
 20
21.7294241085
 10
-16.9774948594
 20
21.7500234381
 10
-16.995505903
 20
21.7712374236
 10
-17.0089380939
 20
21.7928605184
 10
-17.017661285
 20
21.8146832119
 10
-17.0215909554
 20
21.8364940593
 10
-17.0215750583
 20
21.8502904474
  0
LINE
  5
3F0
100
AcDbEntity
  8
0
100
AcDbLine
 62
7
  6
CONTINUOUS
 10
10.0145074808
 20
23.3192256156
 11
10.0172174772
 21
23.2712162913
  0
LINE
  5
3F1
100
AcDbEntity
  8
ASSI
100
AcDbLine
 62
7
  6
CONTINUOUS
 10
10.4950759999
 20
22.36533853
 11
10.4950759999
 21
22.5563605938
  0
LINE
  5
3F2
100
AcDbEntity
  8
0
100
AcDbLine
 62
250
  6
CONTINUOUS
 10
10.8030687456
 20
24.282975854
 11
10.8030687456
 21
23.9616515718
  0
LINE
  5
3F3
100
AcDbEntity
  8
DRAFT
100
AcDbLine
 62
7
  6
CONTINUOUS
 10
11.4857789436
 20
23.861280873
 11
11.4857789436
 21
24.2942935749
  0
LINE
  5
3F4
100
AcDbEntity
  8
0
100
AcDbLine
 62
7
  6
CONTINUOUS
 10
12.453242656
 20
23.0251507618
 11
12.453242656
 21
22.5592759954
  0
LWPOLYLINE
  5
3F5
100
AcDbEntity
  8
ASSI
100
AcDbPolyline
 62
250
  6
CONTINUOUS
 90
7
 70
0
 10
4.3604740047
 20
-21.289975849
 10
4.3682728081
 20
-21.2652484466
 10
4.3735052634
 20
-21.2397640268
 10
4.3760828326
 20
-21.2139538105
 10
4.3759619005
 20
-21.1882545315
 10
4.3731445135
 20
-21.1631010464
 10
4.3676783445
 20
-21.1389189765
  0
LWPOLYLINE
  5
3F6
100
AcDbEntity
  8
ASSI
100
AcDbPolyline
 62
7
  6
CONTINUOUS
 90
4
 70
0
 10
3.8088449425
 20
-22.0630530144
 10
3.8147938519
 20
-22.0445721583
 10
3.8184030819
 20
-22.0241572907
 10
3.8196066988
 20
-22.0021597167
  0
LWPOLYLINE
  5
3F7
100
AcDbEntity
  8
RACCORDO
100
AcDbPolyline
 62
250
  6
CONTINUOUS
 90
16
 70
0
 10
-2.1977617126
 20
14.3407765721
 10
-2.1591650604
 20
14.3249912448
 10
-2.1177712602
 20
14.3107779036
 10
-2.0739813768
 20
14.2982742614
 10
-2.0282196907
 20
14.2876014662
 10
-1.9809295871
 20
14.2788629268
 10
-1.93256926
 20
14.2721433106
 10
-1.8836072731
 20
14.2675077238
 10
-1.8345180192
 20
14.2650010809
 10
-1.7857771245
 20
14.2646476687
 10
-1.7378568397
 20
14.2664509114
 10
-1.6912214647
 20
14.2703933374
 10
-1.64632285
 20
14.2764367484
 10
-1.6035960184
 20
14.2845225898
 10
-1.5634549506
 20
14.2945725179
 10
-1.5262885735
 20
14.3064891589
  0
LWPOLYLINE
  5
3F8
100
AcDbEntity
  8
RACCORDO
100
AcDbPolyline
 62
250
  6
CONTINUOUS
 90
6
 70
0
 10
-2.1977705061
 20
14.3407726192
 10
-2.7050228583
 20
14.5655021322
 10
-3.2100909332
 20
14.791086463
 10
-3.7129683468
 20
15.0175202801
 10
-4.213530182
 20
15.244744312
 10
-4.71188959
 20
15.4728067532
  0
LWPOLYLINE
  5
3F9
100
AcDbEntity
  8
RACCORDO
100
AcDbPolyline
 62
250
  6
CONTINUOUS
 90
26
 70
0
 10
-4.71188959
 20
15.4728067532
 10
-5.2083932133
 20
15.7018654529
 10
-5.703193768
 20
15.9319931082
 10
-6.1961166377
 20
16.1631108104
 10
-6.6870150346
 20
16.3951501622
 10
-7.1758456157
 20
16.6280903108
 10
-7.6626347352
 20
16.8619435564
 10
-8.1473422305
 20
17.0966902688
 10
-8.630024077
 20
17.3323575116
 10
-9.1106072546
 20
17.5689097016
 10
-9.5888613907
 20
17.8062317877
 10
-10.064478067
 20
18.0441658908
 10
-10.5377579393
 20
18.2828573814
 10
-11.0093781767
 20
18.5226487003
 10
-11.4784430617
 20
18.7630843512
 10
-11.9458282171
 20
19.0046126933
 10
-12.4148136469
 20
19.2489547004
 10
-12.8845499439
 20
19.4957112878
 10
-13.3557734917
 20
19.7453122608
 10
-13.8340164257
 20
20.0007735138
 10
-14.3192894621
 20
20.2622301226
 10
-14.8112861087
 20
20.5296481807
 10
-15.3148979235
 20
20.8058548845
 10
-15.831557448
 20
21.0918629278
 10
-16.3593255466
 20
21.3868357092
 10
-16.8979450119
 20
21.6908598699
  0
LWPOLYLINE
  5
3FA
100
AcDbEntity
  8
ASSI
100
AcDbPolyline
 62
7
  6
CONTINUOUS
 90
4
 70
0
 10
-12.7600308592
 20
26.1234506929
 10
-12.7419322951
 20
26.1074659655
 10
-12.7222235119
 20
26.0935938101
 10
-12.7039924156
 20
26.0833878812
  0
LINE
  5
3FB
100
AcDbEntity
  8
ASSI
100
AcDbLine
 62
7
  6
CONTINUOUS
 10
4.9032796149
 20
16.7958966099
 11
5.5980438013
 21
15.5976056426
  0
LINE
  5
3FC
100
AcDbEntity
  8
DRAFT
100
AcDbLine
 62
7
  6
CONTINUOUS
 10
4.9032796149
 20
16.817272983
 11
5.2085154285
 21
16.290819079
  0
LWPOLYLINE
  5
3FD
100
AcDbEntity
  8
DRAFT
100
AcDbPolyline
 62
7
  6
CONTINUOUS
 90
4
 70
0
 10
5.3313052178
 20
16.0576616463
 10
5.3308357755
 20
16.0586985532
 10
5.2721921885
 20
16.1755437173
 10
5.2085154285
 20
16.290819079
  0
LINE
  5
3FE
100
AcDbEntity
  8
RACCORDO
100
AcDbLine
 62
250
  6
CONTINUOUS
 10
12.8705758369
 20
23.7542659856
 11
12.8705758369
 21
24.2129975517
  0
LINE
  5
3FF
100
AcDbEntity
  8
0
100
AcDbLine
 62
7
  6
CONTINUOUS
 10
12.9029873174
 20
22.9034029286
 11
12.9029873174
 21
22.5502173749
  0
LINE
  5
400
100
AcDbEntity
  8
RACCORDO
100
AcDbLine
 62
250
  6
CONTINUOUS
 10
13.0115887583
 20
23.7551962637
 11
13.0115887583
 21
24.2239934489
  0
LINE
  5
401
100
AcDbEntity
  8
0
100
AcDbLine
 62
7
  6
CONTINUOUS
 10
14.8152247241
 20
26.3243756467
 11
14.8152247241
 21
25.9165243795
  0
LINE
  5
402
100
AcDbEntity
  8
ASSI
100
AcDbLine
 62
7
  6
CONTINUOUS
 10
0.794506049
 20
-20.7379226356
 11
1.2740222865
 21
-20.1445530352
  0
LINE
  5
403
100
AcDbEntity
  8
ASSI
100
AcDbLine
 62
7
  6
CONTINUOUS
 10
1.2969816488
 20
-21.0666295317
 11
1.8397077115
 21
-20.4273957476
  0
LINE
  5
404
100
AcDbEntity
  8
ASSI
100
AcDbLine
 62
7
  6
CONTINUOUS
 10
1.8397077115
 20
-21.0532287726
 11
1.2969816488
 21
-21.6924625566
  0
LINE
  5
405
100
AcDbEntity
  8
ASSI
100
AcDbLine
 62
7
  6
CONTINUOUS
 10
5.6597614763
 20
-15.918062523
 11
4.2085154285
 21
-17.6066530615
  0
LWPOLYLINE
  5
406
100
AcDbEntity
  8
RACCORDO
100
AcDbPolyline
 62
250
  6
CONTINUOUS
 90
31
 70
0
 10
-1.3408592786
 20
15.7206906611
 10
-1.8475403696
 20
15.9436757358
 10
-2.3519624922
 20
16.1675725079
 10
-2.8541256463
 20
16.3923809772
 10
-3.3538930361
 20
16.618039368
 10
-3.8514014574
 20
16.8446094561
 10
-4.347061298
 20
17.0722765688
 10
-4.841079547
 20
17.3011343918
 10
-5.3332492152
 20
17.5310892395
 10
-5.8233597225
 20
17.7620453824
 10
-6.3113533816
 20
17.9939771081
 10
-6.7972878797
 20
18.2269101291
 10
-7.2811256996
 20
18.4608258535
 10
-7.7629369245
 20
18.6957603749
 10
-8.2426514712
 20
18.9316775998
 10
-8.7200215718
 20
19.1684506555
 10
-9.1947531637
 20
19.4059295999
 10
-9.6671403095
 20
19.6442643752
 10
-10.1378174298
 20
19.8837779352
 10
-10.6058977782
 20
20.1239813022
 10
-11.0722681009
 20
20.365363454
 10
-11.5402230578
 20
20.6097142782
 10
-12.0090594419
 20
20.856579464
 10
-12.4794804601
 20
21.1064133222
 10
-12.9568903934
 20
21.3623686732
 10
-13.4416197866
 20
21.6245104186
 10
-13.9333380948
 20
21.8927736567
 10
-14.4364579641
 20
22.1701165034
 10
-14.9524502766
 20
22.4575249973
 10
-15.4798441502
 20
22.7540130996
 10
-16.018639585
 20
23.0595808105
  0
LINE
  5
407
100
AcDbEntity
  8
DRAFT
100
AcDbLine
 62
7
  6
CONTINUOUS
 10
3.1200808926
 20
12.7074084094
 11
2.2146453198
 21
13.1601261958
  0
LWPOLYLINE
  5
408
100
AcDbEntity
  8
RACCORDO
100
AcDbPolyline
 62
250
  6
CONTINUOUS
 90
16
 70
0
 10
-1.3408592786
 20
15.7206906611
 10
-1.3049485756
 20
15.6993801138
 10
-1.269532286
 20
15.6735137714
 10
-1.2349980999
 20
15.6433747839
 10
-1.2017240514
 20
15.6092930724
 10
-1.1700743802
 20
15.5716417181
 10
-1.1403955441
 20
15.5308328776
 10
-1.1130124274
 20
15.4873132716
 10
-1.0882247837
 20
15.4415592944
 10
-1.066303955
 20
15.3940717993
 10
-1.0474899011
 20
15.3453706157
 10
-1.0319885732
 20
15.2959888591
 10
-1.0199696589
 20
15.2464670949
 10
-1.0115647254
 20
15.1973474209
 10
-1.0068657785
 20
15.1491675336
 10
-1.005924256
 20
15.1024548419
  0
LWPOLYLINE
  5
409
100
AcDbEntity
  8
ASSI
100
AcDbPolyline
 62
7
  6
CONTINUOUS
 90
4
 70
0
 10
-0.1729078913
 20
19.8295905132
 10
-0.1541167416
 20
19.8131831719
 10
-0.1336286183
 20
19.7990496356
 10
-0.1175456129
 20
19.7901649585
  0
LWPOLYLINE
  5
40A
100
AcDbEntity
  8
ASSI
100
AcDbPolyline
 62
250
  6
CONTINUOUS
 90
7
 70
0
 10
4.3604740047
 20
19.9346282904
 10
4.3682728469
 20
19.9204126326
 10
4.3735053184
 20
19.9076129586
 10
4.3760828849
 20
19.89644585
 10
4.3759619359
 20
19.8871002628
 10
4.3731445228
 20
19.8797343312
 10
4.3721614995
 20
19.8783861307
  0
LINE
  5
40B
100
AcDbEntity
  8
ASSI
100
AcDbLine
 62
250
  6
CONTINUOUS
 10
1.9707057917
 20
-22.1749462462
 11
2.6034960011
 21
-21.4296330801
  0
LINE
  5
40C
100
AcDbEntity
  8
ASSI
100
AcDbLine
 62
250
  6
CONTINUOUS
 10
2.1803481439
 20
-22.3615248872
 11
2.9171559481
 21
-21.4936976845
  0
LWPOLYLINE
  5
40D
100
AcDbEntity
  8
DRAFT
100
AcDbPolyline
 62
7
  6
CONTINUOUS
 90
4
 70
0
 10
5.2085154285
 20
-16.7667327334
 10
5.2721921885
 20
-16.7151341317
 10
5.3308357755
 20
-16.6569325546
 10
5.3313052178
 20
-16.6563650901
  0
LINE
  5
40E
100
AcDbEntity
  8
ASSI
100
AcDbLine
 62
7
  6
CONTINUOUS
 10
4.9032796149
 20
-16.9665744507
 11
5.5980438013
 21
-16.4630476698
  0
LINE
  5
40F
100
AcDbEntity
  8
DRAFT
100
AcDbLine
 62
7
  6
CONTINUOUS
 10
5.2085154285
 20
-16.7667327334
 11
4.9032796149
 21
-16.9879508239
  0
LWPOLYLINE
  5
410
100
AcDbEntity
  8
DRAFT
100
AcDbPolyline
 62
7
  6
CONTINUOUS
 90
10
 70
0
 10
1.1004584537
 20
-17.2394833287
 10
1.0773015048
 20
-17.2532644549
 10
1.0453153936
 20
-17.2783290178
 10
1.0165222337
 20
-17.30898284
 10
0.9909598381
 20
-17.3449439958
 10
0.9694866604
 20
-17.3849754763
 10
0.9523065255
 20
-17.4289592741
 10
0.9392156086
 20
-17.4770133965
 10
0.9304608886
 20
-17.5282548567
 10
0.9272984393
 20
-17.5682314498
  0
LWPOLYLINE
  5
411
100
AcDbEntity
  8
DRAFT
100
AcDbPolyline
 62
7
  6
CONTINUOUS
 90
27
 70
0
 10
1.7201265915
 20
-18.4791272487
 10
1.7535857808
 20
-18.4601934335
 10
1.7855718919
 20
-18.4351288706
 10
1.8143650519
 20
-18.4044750485
 10
1.8399274475
 20
-18.3685138926
 10
1.8614006252
 20
-18.3284824121
 10
1.87858076
 20
-18.2844986143
 10
1.8916716769
 20
-18.2364444919
 10
1.9004263969
 20
-18.1852030317
 10
1.9047625938
 20
-18.1303890697
 10
1.9047625938
 20
-18.0723877698
 10
1.9004263969
 20
-18.0132376109
 10
1.8916716769
 20
-17.9532414306
 10
1.87858076
 20
-17.8920963913
 10
1.8614006252
 20
-17.8309324587
 10
1.8399274475
 20
-17.7694278005
 10
1.8143650519
 20
-17.7079042491
 10
1.7855718919
 20
-17.648457267
 10
1.7535857808
 20
-17.5914065929
 10
1.7183689053
 20
-17.5364324883
 10
1.6806662797
 20
-17.4846711994
 10
1.6402927668
 20
-17.4360306349
 10
1.5974335038
 20
-17.3906028861
 10
1.5533889173
 20
-17.3498004736
 10
1.5085924827
 20
-17.3140942373
 10
1.4626107245
 20
-17.2830133373
 10
1.4154436428
 20
-17.2565577734
  0
LWPOLYLINE
  5
412
100
AcDbEntity
  8
DRAFT
100
AcDbPolyline
 62
7
  6
CONTINUOUS
 90
27
 70
0
 10
2.0060389382
 20
-18.3439764132
 10
2.0398350397
 20
-18.3248519511
 10
2.0721433768
 20
-18.2995349675
 10
2.1012265288
 20
-18.2685725746
 10
2.1270463428
 20
-18.2322494543
 10
2.148735809
 20
-18.1918148937
 10
2.1660891156
 20
-18.1473880545
 10
2.1793120744
 20
-18.098849775
 10
2.1881551107
 20
-18.0470918571
 10
2.1925350331
 20
-17.9917251164
 10
2.1925350331
 20
-17.9331387374
 10
2.1881551107
 20
-17.8733920744
 10
2.1793120744
 20
-17.8127911201
 10
2.1660891156
 20
-17.7510298818
 10
2.148735809
 20
-17.689249736
 10
2.1270463428
 20
-17.6271257092
 10
2.1012265288
 20
-17.5649827749
 10
2.0721433768
 20
-17.50493723
 10
2.0398350397
 20
-17.4473119093
 10
2.0042633646
 20
-17.3917839781
 10
1.9661809037
 20
-17.3395012292
 10
1.92540067
 20
-17.2903706806
 10
1.8821096505
 20
-17.2444853144
 10
1.8376213579
 20
-17.2032718698
 10
1.79237363
 20
-17.1672059267
 10
1.7459286291
 20
-17.1358119052
 10
1.6982863552
 20
-17.1090898053
  0
LINE
  5
413
100
AcDbEntity
  8
RACCORDO
100
AcDbLine
 62
7
  6
CONTINUOUS
 10
19.3262301496
 20
-9.3979966909
 11
11.7336652494
 21
-13.4130700791
  0
LINE
  5
414
100
AcDbEntity
  8
DRAFT
100
AcDbLine
 62
7
  6
CONTINUOUS
 10
10.9809711654
 20
-13.9585812562
 11
4.9032796149
 21
-17.1725646633
  0
LINE
  5
415
100
AcDbEntity
  8
DRAFT
100
AcDbLine
 62
7
  6
CONTINUOUS
 10
1.3800815638
 20
-17.0918577296
 11
1.1004127286
 21
-17.239497576
  0
LINE
  5
416
100
AcDbEntity
  8
RACCORDO
100
AcDbLine
 62
250
  6
CONTINUOUS
 10
19.7457733605
 20
-9.0939349004
 11
5.2085154285
 21
-16.7667327334
  0
LINE
  5
417
100
AcDbEntity
  8
RACCORDO
100
AcDbLine
 62
250
  6
CONTINUOUS
 10
20.0847368444
 20
-8.2611708779
 11
5.6597614763
 21
-15.7299205126
  0
LINE
  5
418
100
AcDbEntity
  8
ASSI
100
AcDbLine
 62
7
  6
CONTINUOUS
 10
5.5980438013
 20
-16.4630476698
 11
4.9032796149
 21
-16.8183440147
  0
LINE
  5
419
100
AcDbEntity
  8
ASSI
100
AcDbLine
 62
7
  6
CONTINUOUS
 10
10.4724087098
 20
-14.4078449135
 11
4.9032796149
 21
-17.2558489563
  0
LINE
  5
41A
100
AcDbEntity
  8
DRAFT
100
AcDbLine
 62
7
  6
CONTINUOUS
 10
2.0061233671
 20
-18.3439413361
 11
1.7202101889
 21
-18.4790924964
  0
LINE
  5
41B
100
AcDbEntity
  8
RACCORDO
100
AcDbLine
 62
250
  6
CONTINUOUS
 10
0.9808083502
 20
-16.2909753299
 11
1.2740222865
 21
-16.1610142369
  0
LINE
  5
41C
100
AcDbEntity
  8
RACCORDO
100
AcDbLine
 62
7
  6
CONTINUOUS
 10
0.9698965505
 20
-16.5514347999
 11
1.1085807462
 21
-16.4899658605
  0
LWPOLYLINE
  5
41D
100
AcDbEntity
  8
RACCORDO
100
AcDbPolyline
 62
7
  6
CONTINUOUS
 90
7
 70
0
 10
20.1924695612
 20
18.3544275635
 10
20.1714976151
 20
18.3515378314
 10
20.1517322663
 20
18.3509754138
 10
20.1331735149
 20
18.3527403105
 10
20.1158213607
 20
18.3568325216
 10
20.0996758039
 20
18.3632520472
 10
20.0847368444
 20
18.3719988872
  0
LINE
  5
41E
100
AcDbEntity
  8
ASSI
100
AcDbLine
 62
7
  6
CONTINUOUS
 10
4.2085154285
 20
15.3023122823
 11
5.5980438013
 21
15.0217616583
  0
LINE
  5
41F
100
AcDbEntity
  8
ASSI
100
AcDbLine
 62
7
  6
CONTINUOUS
 10
4.2085154285
 20
15.3023122823
 11
5.6597614763
 21
14.9909028208
  0
LWPOLYLINE
  5
420
100
AcDbEntity
  8
RACCORDO
100
AcDbPolyline
 62
250
  6
CONTINUOUS
 90
8
 70
0
 10
-16.0186396086
 20
23.0595807988
 10
-16.0565847683
 20
23.0751981037
 10
-16.0942158083
 20
23.0858552354
 10
-16.1311207865
 20
23.0914355511
 10
-16.1668957232
 20
23.0918779831
 10
-16.2011489881
 20
23.0871777059
 10
-16.2335055926
 20
23.0773862049
 10
-16.2492952544
 20
23.0703988635
  0
LINE
  5
421
100
AcDbEntity
  8
ASSI
100
AcDbLine
 62
7
  6
CONTINUOUS
 10
5.5980438013
 20
15.0217616583
 11
5.6597614763
 21
14.9909028208
  0
LINE
  5
422
100
AcDbEntity
  8
RACCORDO
100
AcDbLine
 62
7
  6
CONTINUOUS
 10
-12.8259283476
 20
24.6366415864
 11
2.0235563652
 21
17.21189923
  0
LINE
  5
423
100
AcDbEntity
  8
0
100
AcDbLine
 62
7
  6
CONTINUOUS
 10
0.4257684303
 20
18.1573501733
 11
-9.8985391374
 21
23.3195039572
  0
LINE
  5
424
100
AcDbEntity
  8
ASSI
100
AcDbLine
 62
7
  6
CONTINUOUS
 10
-11.8335246303
 20
25.0000517316
 11
-11.6399603442
 21
24.9032695886
  0
LINE
  5
425
100
AcDbEntity
  8
ASSI
100
AcDbLine
 62
7
  6
CONTINUOUS
 10
0.7529760748
 20
18.7068013791
 11
0.9465403609
 21
18.610019236
  0
LINE
  5
426
100
AcDbEntity
  8
ASSI
100
AcDbLine
 62
7
  6
CONTINUOUS
 10
2.7668908392
 20
17.8388710757
 11
2.5667146602
 21
17.9389591652
  0
LINE
  5
427
100
AcDbEntity
  8
ASSI
100
AcDbLine
 62
7
  6
CONTINUOUS
 10
0.5470153378
 20
18.9488088264
 11
-10.0197860449
 21
24.2322095178
  0
LINE
  5
428
100
AcDbEntity
  8
ASSI
100
AcDbLine
 62
7
  6
CONTINUOUS
 10
-12.0394853673
 20
25.242059179
 11
-12.2396615463
 21
25.3421472685
  0
LWPOLYLINE
  5
429
100
AcDbEntity
  8
ASSI
100
AcDbPolyline
 62
250
  6
CONTINUOUS
 90
16
 70
0
 10
-10.6393283439
 20
25.0510548214
 10
-10.645523696
 20
25.0544512921
 10
-10.6526572186
 20
25.0591622847
 10
-10.6595300787
 20
25.0646430352
 10
-10.6660975964
 20
25.0709144245
 10
-10.6723131994
 20
25.0779933161
 10
-10.6780968701
 20
25.0858449803
 10
-10.6834095861
 20
25.0944663764
 10
-10.6882125876
 20
25.1038501696
 10
-10.6924451303
 20
25.1139258172
 10
-10.6960802802
 20
25.1246665596
 10
-10.699093227
 20
25.1360427903
 10
-10.7014495839
 20
25.1479542261
 10
-10.7031368392
 20
25.160332982
 10
-10.7041525436
 20
25.173153812
 10
-10.7044918259
 20
25.1863683544
  0
LWPOLYLINE
  5
42A
100
AcDbEntity
  8
ASSI
100
AcDbPolyline
 62
7
  6
CONTINUOUS
 90
9
 70
0
 10
-11.4400159833
 20
25.4514019552
 10
-11.4630487989
 20
25.4642526968
 10
-11.4931181517
 20
25.4847296508
 10
-11.5218192011
 20
25.5081418065
 10
-11.5491039168
 20
25.5339428509
 10
-11.5745875611
 20
25.5617559147
 10
-11.598110192
 20
25.5912900172
 10
-11.6198747615
 20
25.622182235
 10
-11.6399603442
 20
25.6541026135
  0
LWPOLYLINE
  5
42B
100
AcDbEntity
  8
ASSI
100
AcDbPolyline
 62
7
  6
CONTINUOUS
 90
9
 70
0
 10
1.1464847218
 20
19.1581516026
 10
1.1234519062
 20
19.1710023442
 10
1.0933825534
 20
19.1914792982
 10
1.064681504
 20
19.2148914539
 10
1.0373967884
 20
19.2406924984
 10
1.011913144
 20
19.2685055621
 10
0.9883905131
 20
19.2980396646
 10
0.9666259436
 20
19.3289318824
 10
0.9465403609
 20
19.3608522609
  0
LWPOLYLINE
  5
42C
100
AcDbEntity
  8
ASSI
100
AcDbPolyline
 62
250
  6
CONTINUOUS
 90
7
 70
0
 10
-0.1824924435
 20
19.9253686631
 10
-0.1995645182
 20
19.9350878822
 10
-0.2139845657
 20
19.9458276524
 10
-0.2255113007
 20
19.957408268
 10
-0.2339518509
 20
19.9696359538
 10
-0.2391649844
 20
19.9823061072
 10
-0.2410710804
 20
19.9960531148
  0
LWPOLYLINE
  5
42D
100
AcDbEntity
  8
ASSI
100
AcDbPolyline
 62
250
  6
CONTINUOUS
 90
7
 70
0
 10
-0.1824924435
 20
20.2426374635
 10
-0.1995645061
 20
20.2523566746
 10
-0.2139845475
 20
20.263096437
 10
-0.2255112816
 20
20.2746770455
 10
-0.2339518353
 20
20.2869047254
 10
-0.2391649754
 20
20.2995748749
 10
-0.2410710782
 20
20.3133180072
  0
LWPOLYLINE
  5
42E
100
AcDbEntity
  8
ASSI
100
AcDbPolyline
 62
250
  6
CONTINUOUS
 90
9
 70
0
 10
-12.7042396399
 20
26.0835104597
 10
-12.7137300284
 20
26.0889730761
 10
-12.727779266
 20
26.1002022681
 10
-12.7400100727
 20
26.1142347867
 10
-12.7502538867
 20
26.1308827265
 10
-12.7583693035
 20
26.1499186951
 10
-12.7642457667
 20
26.1710838305
 10
-12.7678033141
 20
26.1940933946
 10
-12.7689931396
 20
26.2186363623
  0
LWPOLYLINE
  5
42F
100
AcDbEntity
  8
ASSI
100
AcDbPolyline
 62
250
  6
CONTINUOUS
 90
13
 70
0
 10
-10.53019395
 20
25.8066531093
 10
-10.5120420178
 20
25.7957883755
 10
-10.4941583356
 20
25.7821685872
 10
-10.4768487798
 20
25.7660266925
 10
-10.4604094069
 20
25.7476387769
 10
-10.4451213903
 20
25.7273193409
 10
-10.4312462109
 20
25.7054159209
 10
-10.4190211849
 20
25.6823031454
 10
-10.4086554049
 20
25.6583763274
 10
-10.4003261636
 20
25.6340447027
 10
-10.3941759214
 20
25.6097244311
 10
-10.39030987
 20
25.5858314779
 10
-10.388794133
 20
25.5627745
  0
LWPOLYLINE
  5
430
100
AcDbEntity
  8
ASSI
100
AcDbPolyline
 62
250
  6
CONTINUOUS
 90
3
 70
0
 10
-0.1293029238
 20
19.7971228315
 10
-0.1212197415
 20
19.7920930374
 10
-0.1177518373
 20
19.7902665584
  0
LINE
  5
431
100
AcDbEntity
  8
RACCORDO
100
AcDbLine
 62
250
  6
CONTINUOUS
 10
20.0847368444
 20
22.3468911917
 11
20.0847368444
 21
18.3719988872
  0
LINE
  5
432
100
AcDbEntity
  8
RACCORDO
100
AcDbLine
 62
250
  6
CONTINUOUS
 10
20.0847368444
 20
16.6715361983
 11
20.0847368444
 21
-8.2611708779
  0
LWPOLYLINE
  5
433
100
AcDbEntity
  8
RACCORDO
100
AcDbPolyline
 62
250
  6
CONTINUOUS
 90
10
 70
0
 10
20.3373310241
 20
22.6594874585
 10
20.3346246712
 20
22.6246158691
 10
20.3252744586
 20
22.5860768715
 10
20.3093157064
 20
22.5480842338
 10
20.2868671879
 20
22.5109207173
 10
20.2580959768
 20
22.4748629121
 10
20.2232162034
 20
22.4401791794
 10
20.1824874613
 20
22.4071276537
 10
20.1362128751
 20
22.3759543218
 10
20.0847368444
 20
22.3468911917
  0
LWPOLYLINE
  5
434
100
AcDbEntity
  8
RACCORDO
100
AcDbPolyline
 62
250
  6
CONTINUOUS
 90
3
 70
0
 10
19.7457733605
 20
-9.0939349004
 10
19.7975435119
 20
-9.0521228237
 10
19.8455873812
 20
-9.0044459709
  0
LWPOLYLINE
  5
435
100
AcDbEntity
  8
RACCORDO
100
AcDbPolyline
 62
7
  6
CONTINUOUS
 90
13
 70
0
 10
19.8128841952
 20
-9.0522089808
 10
19.8874389194
 20
-8.9934854023
 10
19.9582317683
 20
-8.9278710066
 10
20.0246072096
 20
-8.8555494388
 10
20.0858678399
 20
-8.7768751422
 10
20.1414961152
 20
-8.69211469
 10
20.1911392269
 20
-8.6013040387
 10
20.2343403969
 20
-8.5046068843
 10
20.2705197186
 20
-8.4025791095
 10
20.2992490729
 20
-8.2956556014
 10
20.320184907
 20
-8.18412909
 10
20.3329897228
 20
-8.0683160211
 10
20.3373310241
 20
-7.9485746112
  0
LINE
  5
436
100
AcDbEntity
  8
DRAFT
100
AcDbLine
 62
7
  6
CONTINUOUS
 10
11.7336652494
 20
-13.4130700791
 11
10.9809711654
 21
-13.9585812562
  0
LINE
  5
437
100
AcDbEntity
  8
RACCORDO
100
AcDbLine
 62
250
  6
CONTINUOUS
 10
19.7457733605
 20
-9.0939349004
 11
19.3262301496
 21
-9.3979966909
  0
LINE
  5
438
100
AcDbEntity
  8
RACCORDO
100
AcDbLine
 62
7
  6
CONTINUOUS
 10
19.8128841952
 20
-9.0522089809
 11
19.3965033556
 21
-9.3539788589
  0
LWPOLYLINE
  5
439
100
AcDbEntity
  8
RACCORDO
100
AcDbPolyline
 62
250
  6
CONTINUOUS
 90
3
 70
0
 10
19.8128841952
 20
-9.0522089809
 10
19.7945957347
 20
-9.0649136109
 10
19.7457733605
 20
-9.0939349004
  0
LWPOLYLINE
  5
43A
100
AcDbEntity
  8
ASSI
100
AcDbPolyline
 62
7
  6
CONTINUOUS
 90
4
 70
0
 10
1.0374157504
 20
-21.8766077092
 10
0.9880429022
 20
-21.9091507662
 10
0.9661992912
 20
-21.9242038325
 10
0.9465403609
 20
-21.9387518784
  0
LWPOLYLINE
  5
43B
100
AcDbEntity
  8
ASSI
100
AcDbPolyline
 62
7
  6
CONTINUOUS
 90
6
 70
0
 10
1.1880218174
 20
-21.7836042591
 10
1.1557456662
 20
-21.8035328881
 10
1.124018519
 20
-21.8225349321
 10
1.0933825534
 20
-21.8408036014
 10
1.0644716459
 20
-21.8588380379
 10
1.0374157504
 20
-21.8766077092
  0
LWPOLYLINE
  5
43C
100
AcDbEntity
  8
RACCORDO
100
AcDbPolyline
 62
7
  6
CONTINUOUS
 90
3
 70
0
 10
19.3262301496
 20
-9.3979966909
 10
19.3826219949
 20
-9.363804679
 10
19.3953563365
 20
-9.3548099213
  0
LINE
  5
43D
100
AcDbEntity
  8
ASSI
100
AcDbLine
 62
250
  6
CONTINUOUS
 10
4.2085154285
 20
-20.1181926824
 11
4.9032796149
 21
-19.7433514648
  0
LINE
  5
43E
100
AcDbEntity
  8
ASSI
100
AcDbLine
 62
7
  6
CONTINUOUS
 10
4.0827753405
 20
-20.3864471971
 11
4.7786171861
 21
-20.0110245576
  0
LINE
  5
43F
100
AcDbEntity
  8
ASSI
100
AcDbLine
 62
7
  6
CONTINUOUS
 10
9.2811503898
 20
-15.130395961
 11
4.9032796149
 21
-17.3901733822
  0
LWPOLYLINE
  5
440
100
AcDbEntity
  8
RACCORDO
100
AcDbPolyline
 62
250
  6
CONTINUOUS
 90
10
 70
0
 10
-2.762038537
 20
-23.1302991596
 10
-2.7302273434
 20
-23.1148784064
 10
-2.7027019638
 20
-23.0952806724
 10
-2.6777726067
 20
-23.0709507871
 10
-2.6557121473
 20
-23.0421551237
 10
-2.6367620426
 20
-23.0092089253
 10
-2.6211297011
 20
-22.9724728587
 10
-2.6089862164
 20
-22.9323490754
 10
-2.6004644924
 20
-22.8892768122
 10
-2.5956577848
 20
-22.8437275727
  0
LINE
  5
441
100
AcDbEntity
  8
ASSI
100
AcDbLine
 62
7
  6
CONTINUOUS
 10
1.8397077115
 20
18.3705423419
 11
1.2969816488
 21
18.4856716594
  0
LINE
  5
442
100
AcDbEntity
  8
ASSI
100
AcDbLine
 62
7
  6
CONTINUOUS
 10
1.9999136919
 20
18.739366818
 11
2.6403009803
 21
18.6035204738
  0
LINE
  5
443
100
AcDbEntity
  8
ASSI
100
AcDbLine
 62
250
  6
CONTINUOUS
 10
2.1803481439
 20
18.8630792522
 11
2.9171559481
 21
18.7067790752
  0
LWPOLYLINE
  5
444
100
AcDbEntity
  8
ASSI
100
AcDbPolyline
 62
250
  6
CONTINUOUS
 90
7
 70
0
 10
-0.0094072863
 20
20.5462597775
 10
-0.0281610263
 20
20.5538478749
 10
-0.0465517892
 20
20.5583652973
 10
-0.0642650254
 20
20.5597347821
 10
-0.0809977743
 20
20.5579329083
 10
-0.0964638446
 20
20.5529904968
 10
-0.1018109839
 20
20.5503813728
  0
LWPOLYLINE
  5
445
100
AcDbEntity
  8
ASSI
100
AcDbPolyline
 62
250
  6
CONTINUOUS
 90
13
 70
0
 10
-10.7044918259
 20
25.1863683544
 10
-10.6850534038
 20
25.1778323231
 10
-10.6635738791
 20
25.1706223024
 10
-10.640412662
 20
25.1648589353
 10
-10.6159573021
 20
25.1606386585
 10
-10.5906170033
 20
25.1580320884
 10
-10.5648157768
 20
25.1570828402
 10
-10.5389853467
 20
25.1578067971
 10
-10.5135579254
 20
25.1601918455
 10
-10.4889589822
 20
25.1641980772
 10
-10.4656001235
 20
25.169758457
 10
-10.4438722058
 20
25.1767799449
 10
-10.4241387956
 20
25.1851450524
  0
LWPOLYLINE
  5
446
100
AcDbEntity
  8
ASSI
100
AcDbPolyline
 62
250
  6
CONTINUOUS
 90
13
 70
0
 10
-10.7044918259
 20
25.5036371547
 10
-10.685053391
 20
25.4951011185
 10
-10.6635738536
 20
25.4878910953
 10
-10.6404126251
 20
25.4821277278
 10
-10.6159572558
 20
25.4779074523
 10
-10.5906169505
 20
25.475300885
 10
-10.5648157215
 20
25.4743516401
 10
-10.538985293
 20
25.4750756006
 10
-10.5135578774
 20
25.4774606519
 10
-10.4889589433
 20
25.4814668852
 10
-10.4656000964
 20
25.4870272648
 10
-10.443872192
 20
25.4940487503
 10
-10.4241387956
 20
25.5024138528
  0
LWPOLYLINE
  5
447
100
AcDbEntity
  8
ASSI
100
AcDbPolyline
 62
250
  6
CONTINUOUS
 90
13
 70
0
 10
-1.0277990732
 20
21.6759820626
 10
-1.0083606886
 20
21.6674460461
 10
-0.9868812015
 20
21.6602360329
 10
-0.9637200186
 20
21.654472667
 10
-0.9392646872
 20
21.6502523863
 10
-0.9139244084
 20
21.6476458084
 10
-0.8881231893
 20
21.6466965499
 10
-0.8622927514
 20
21.6474204965
 10
-0.8368653096
 20
21.6498055369
 10
-0.8122663377
 20
21.6538117643
 10
-0.7889074452
 20
21.6593721449
 10
-0.7671794903
 20
21.6663936395
 10
-0.7474460429
 20
21.6747587607
  0
LWPOLYLINE
  5
448
100
AcDbEntity
  8
ASSI
100
AcDbPolyline
 62
250
  6
CONTINUOUS
 90
14
 70
0
 10
-3.1441443028
 20
23.0895812667
 10
-3.1528891275
 20
23.0935759678
 10
-3.1618616869
 20
23.0971412308
 10
-3.1710357101
 20
23.1002206542
 10
-3.1804029033
 20
23.1027619336
 10
-3.1899063806
 20
23.1046978941
 10
-3.1994435823
 20
23.1059627437
 10
-3.2089757259
 20
23.1065122608
 10
-3.218460456
 20
23.1063034765
 10
-3.2277930248
 20
23.1053039866
 10
-3.2369323728
 20
23.1034902607
 10
-3.2458352735
 20
23.1008417598
 10
-3.2544037862
 20
23.097366047
 10
-3.259495779
 20
23.0948159879
  0
LWPOLYLINE
  5
449
100
AcDbEntity
  8
ASSI
100
AcDbPolyline
 62
7
  6
CONTINUOUS
 90
4
 70
0
 10
1.947216141
 20
18.7577833067
 10
1.9562044104
 20
18.7535398745
 10
1.9779582688
 20
18.7452203976
 10
1.9998569024
 20
18.7393860948
  0
LWPOLYLINE
  5
44A
100
AcDbEntity
  8
ASSI
100
AcDbPolyline
 62
250
  6
CONTINUOUS
 90
28
 70
0
 10
-3.283097516
 20
22.8469259593
 10
-3.2848332434
 20
22.8477566883
 10
-3.2866035974
 20
22.8484780775
 10
-3.2884085782
 20
22.8490901268
 10
-3.2902596323
 20
22.8496040897
 10
-3.2921453131
 20
22.8500087127
 10
-3.2940312811
 20
22.8502702355
 10
-3.2959183602
 20
22.8503840012
 10
-3.2978057265
 20
22.8503546666
 10
-3.2996565684
 20
22.8501624421
 10
-3.3014701917
 20
22.8498015343
 10
-3.3032472907
 20
22.8492777365
 10
-3.3049531369
 20
22.8485886391
 10
-3.3065847062
 20
22.8477292107
 10
-3.3081450226
 20
22.8467044826
 10
-3.3096084304
 20
22.8455271395
 10
-3.3109711744
 20
22.844195269
 10
-3.3122370098
 20
22.8427107835
 10
-3.3133915451
 20
22.8410921057
 10
-3.3144328768
 20
22.8393385436
 10
-3.3153629084
 20
22.8374507892
 10
-3.3161729596
 20
22.8354493414
 10
-3.316861946
 20
22.8333331752
 10
-3.3174309519
 20
22.8311033156
 10
-3.31787455
 20
22.828783337
 10
-3.3181909312
 20
22.8263810974
 10
-3.3183819046
 20
22.8238887388
 10
-3.3184474703
 20
22.8213062612
  0
LWPOLYLINE
  5
44B
100
AcDbEntity
  8
ASSI
100
AcDbPolyline
 62
7
  6
CONTINUOUS
 90
4
 70
0
 10
-10.6393304763
 20
25.0510563669
 10
-10.6332386727
 20
25.0481254468
 10
-10.6101351568
 20
25.0389927109
 10
-10.5866695333
 20
25.0326350417
  0
LINE
  5
44C
100
AcDbEntity
  8
ASSI
100
AcDbLine
 62
7
  6
CONTINUOUS
 10
1.9472148815
 20
18.7577831988
 11
1.1460569233
 21
19.1583621778
  0
LINE
  5
44D
100
AcDbEntity
  8
ASSI
100
AcDbLine
 62
7
  6
CONTINUOUS
 10
0.6781833367
 20
19.3922989711
 11
-0.1177466623
 21
19.7902639706
  0
LINE
  5
44E
100
AcDbEntity
  8
ASSI
100
AcDbLine
 62
7
  6
CONTINUOUS
 10
-10.6392914589
 20
25.0510363689
 11
-11.4404437818
 21
25.4516125304
  0
LINE
  5
44F
100
AcDbEntity
  8
ASSI
100
AcDbLine
 62
7
  6
CONTINUOUS
 10
-11.9083173684
 20
25.6855493237
 11
-12.7042525581
 21
26.0835169186
  0
LINE
  5
450
100
AcDbEntity
  8
ASSI
100
AcDbLine
 62
250
  6
CONTINUOUS
 10
-11.8335246303
 20
25.7508847566
 11
-12.7689931487
 21
26.2186363662
  0
LINE
  5
451
100
AcDbEntity
  8
ASSI
100
AcDbLine
 62
250
  6
CONTINUOUS
 10
0.7529760748
 20
19.457634404
 11
-0.1824924435
 21
19.9253686631
  0
LINE
  5
452
100
AcDbEntity
  8
ASSI
100
AcDbLine
 62
250
  6
CONTINUOUS
 10
-10.7044918259
 20
25.1863683544
 11
-11.6399603442
 21
25.6541026135
  0
LINE
  5
453
100
AcDbEntity
  8
ASSI
100
AcDbLine
 62
250
  6
CONTINUOUS
 10
1.8820088792
 20
18.8931353458
 11
0.9465403609
 21
19.3608522609
  0
LINE
  5
454
100
AcDbEntity
  8
ASSI
100
AcDbLine
 62
7
  6
CONTINUOUS
 10
-1.0277990732
 20
20.4887092813
 11
-3.3184474703
 21
21.6340334799
  0
LINE
  5
455
100
AcDbEntity
  8
ASSI
100
AcDbLine
 62
7
  6
CONTINUOUS
 10
-4.7401096744
 20
22.3448645819
 11
-7.0307580715
 21
23.4901887805
  0
LINE
  5
456
100
AcDbEntity
  8
ASSI
100
AcDbLine
 62
250
  6
CONTINUOUS
 10
1.8820088792
 20
19.2103868022
 11
-0.1824924435
 21
20.2426374635
  0
LINE
  5
457
100
AcDbEntity
  8
ASSI
100
AcDbLine
 62
250
  6
CONTINUOUS
 10
-10.7044918259
 20
25.5036371547
 11
-12.7689931487
 21
26.5358878161
  0
LINE
  5
458
100
AcDbEntity
  8
ASSI
100
AcDbLine
 62
7
  6
CONTINUOUS
 10
-8.7668940063
 20
24.7345033726
 11
-7.0893367153
 21
23.8957247271
  0
LINE
  5
459
100
AcDbEntity
  8
ASSI
100
AcDbLine
 62
7
  6
CONTINUOUS
 10
-4.2414106067
 20
22.4717616728
 11
-3.3770261141
 21
22.0395694265
  0
LINE
  5
45A
100
AcDbEntity
  8
ASSI
100
AcDbLine
 62
7
  6
CONTINUOUS
 10
-0.5291000055
 20
20.6156063722
 11
-0.2020790343
 21
20.4520958866
  0
LINE
  5
45B
100
AcDbEntity
  8
ASSI
100
AcDbLine
 62
7
  6
CONTINUOUS
 10
3.8553253751
 20
18.4233936819
 11
3.8196066988
 21
18.44125302
  0
LINE
  5
45C
100
AcDbEntity
  8
ASSI
100
AcDbLine
 62
250
  6
CONTINUOUS
 10
2.0563067551
 20
19.5134027568
 11
-0.0094072863
 21
20.5462597775
  0
LINE
  5
45D
100
AcDbEntity
  8
ASSI
100
AcDbLine
 62
250
  6
CONTINUOUS
 10
-10.53019395
 20
25.8066531093
 11
-12.5959079914
 21
26.83951013
  0
LINE
  5
45E
100
AcDbEntity
  8
ASSI
100
AcDbLine
 62
7
  6
CONTINUOUS
 10
-8.7668940063
 20
25.4264936241
 11
-8.0987582912
 21
25.0924257665
  0
LINE
  5
45F
100
AcDbEntity
  8
ASSI
100
AcDbLine
 62
7
  6
CONTINUOUS
 10
3.8196066988
 20
19.1332432716
 11
4.5497800722
 21
18.7681565849
  0
LINE
  5
460
100
AcDbEntity
  8
ASSI
100
AcDbLine
 62
7
  6
CONTINUOUS
 10
-3.3770261141
 20
22.732262701
 11
-3.5593503764
 21
22.8234248322
  0
LINE
  5
461
100
AcDbEntity
  8
ASSI
100
AcDbLine
 62
7
  6
CONTINUOUS
 10
-3.3770261141
 20
22.8160875936
 11
-3.561149802
 21
22.9081494375
  0
LINE
  5
462
100
AcDbEntity
  8
ASSI
100
AcDbLine
 62
250
  6
CONTINUOUS
 10
-6.9954081173
 20
24.7030812599
 11
-4.7754596287
 21
23.5931070156
  0
LINE
  5
463
100
AcDbEntity
  8
ASSI
100
AcDbLine
 62
250
  6
CONTINUOUS
 10
-1.0631490275
 20
21.736951715
 11
-3.283097516
 21
22.8469259593
  0
LINE
  5
464
100
AcDbEntity
  8
ASSI
100
AcDbLine
 62
250
  6
CONTINUOUS
 10
-6.856454904
 20
24.9457365673
 11
-4.6365064154
 21
23.835762323
  0
LINE
  5
465
100
AcDbEntity
  8
ASSI
100
AcDbLine
 62
250
  6
CONTINUOUS
 10
-0.9241958142
 20
21.9796070224
 11
-3.1441443028
 21
23.0895812667
  0
LINE
  5
466
100
AcDbEntity
  8
ASSI
100
AcDbLine
 62
7
  6
CONTINUOUS
 10
-6.6456005867
 20
25.0594973088
 11
-4.4181603781
 21
23.9457772045
  0
LINE
  5
467
100
AcDbEntity
  8
ASSI
100
AcDbLine
 62
7
  6
CONTINUOUS
 10
-2.9332899855
 20
23.2033420082
 11
-0.7058497768
 21
22.0896219039
  0
LINE
  5
468
100
AcDbEntity
  8
ASSI
100
AcDbLine
 62
7
  6
CONTINUOUS
 10
-11.0296572453
 20
27.68453834
 11
-8.9082938234
 21
26.6238566291
  0
LINE
  5
469
100
AcDbEntity
  8
ASSI
100
AcDbLine
 62
7
  6
CONTINUOUS
 10
1.5568434599
 20
21.3912879874
 11
3.6782068817
 21
20.3306062765
  0
LINE
  5
46A
100
AcDbEntity
  8
ASSI
100
AcDbLine
 62
7
  6
CONTINUOUS
 10
-0.2900581164
 20
22.5323367788
 11
-2.2568621533
 21
23.5157387972
  0
LINE
  5
46B
100
AcDbEntity
  8
ASSI
100
AcDbLine
 62
7
  6
CONTINUOUS
 10
-3.7649416135
 20
24.2697785273
 11
-5.7317456504
 21
25.2531805457
  0
LWPOLYLINE
  5
46C
100
AcDbEntity
  8
ASSI
100
AcDbPolyline
 62
250
  6
CONTINUOUS
 90
28
 70
0
 10
-4.7754596287
 20
23.5931070156
 10
-4.7737057526
 20
23.5921911439
 10
-4.7719200086
 20
23.5911316052
 10
-4.7701023968
 20
23.5899283993
 10
-4.768241483
 20
23.5885808521
 10
-4.7663487014
 20
23.5870896378
 10
-4.7644583543
 20
23.5854567794
 10
-4.7625697571
 20
23.5836768352
 10
-4.7606835944
 20
23.5817552469
 10
-4.7588362228
 20
23.5797103634
 10
-4.7570286829
 20
23.5775375874
 10
-4.7552599339
 20
23.5752415163
 10
-4.7535632106
 20
23.5728542909
 10
-4.7519418503
 20
23.5703750887
 10
-4.7503925155
 20
23.5678047323
 10
-4.7489384281
 20
23.5651778298
 10
-4.7475825562
 20
23.5624956829
 10
-4.7463219317
 20
23.5597569899
 10
-4.7451708718
 20
23.5569924534
 10
-4.7441308107
 20
23.5542021529
 10
-4.7432003144
 20
23.5513860091
 10
-4.7423893976
 20
23.5485744863
 10
-4.7416993775
 20
23.5457675899
 10
-4.741128937
 20
23.5429653147
 10
-4.74068414
 20
23.5401981095
 10
-4.7403670079
 20
23.5374761241
 10
-4.7401755194
 20
23.5347892086
 10
-4.7401096744
 20
23.5321373633
  0
LWPOLYLINE
  5
46D
100
AcDbEntity
  8
ASSI
100
AcDbPolyline
 62
250
  6
CONTINUOUS
 90
28
 70
0
 10
-4.6365064154
 20
23.835762323
 10
-4.627907254
 20
23.831078407
 10
-4.6190879217
 20
23.8257318296
 10
-4.610073064
 20
23.8196935952
 10
-4.6008691434
 20
23.8129208268
 10
-4.5915307296
 20
23.8054043595
 10
-4.5821580457
 20
23.7971823465
 10
-4.5727876324
 20
23.7882506636
 10
-4.563459233
 20
23.7786099147
 10
-4.5542752413
 20
23.7683340786
 10
-4.545275569
 20
23.7574434693
 10
-4.5364992216
 20
23.7459602485
 10
-4.5280383488
 20
23.7339862668
 10
-4.5199347081
 20
23.7215713586
 10
-4.512213608
 20
23.7087449078
 10
-4.5049312227
 20
23.6955936796
 10
-4.4981208589
 20
23.6821779954
 10
-4.4918004838
 20
23.6685336954
 10
-4.4859959543
 20
23.6547161083
 10
-4.4807290115
 20
23.6407772832
 10
-4.4760178048
 20
23.6267657748
 10
-4.4718792265
 20
23.6127325695
 10
-4.468328183
 20
23.5987281165
 10
-4.4653775794
 20
23.5848034248
 10
-4.4630379638
 20
23.5710101066
 10
-4.4613175884
 20
23.5573983884
 10
-4.4602225444
 20
23.5440169602
 10
-4.4597566441
 20
23.5309140613
  0
LWPOLYLINE
  5
46E
100
AcDbEntity
  8
ASSI
100
AcDbPolyline
 62
250
  6
CONTINUOUS
 90
13
 70
0
 10
-8.3841893568
 20
26.8838163082
 10
-8.3654356212
 20
26.8732524492
 10
-8.3470448618
 20
26.8598861713
 10
-8.329331628
 20
26.8439460889
 10
-8.3125988805
 20
26.8257048368
 10
-8.2971328105
 20
26.8054744094
 10
-8.2831979449
 20
26.7836008242
 10
-8.27103262
 20
26.7604582021
 10
-8.2608449049
 20
26.7364423662
 10
-8.2528090442
 20
26.7119640733
 10
-8.2470624787
 20
26.6874419908
 10
-8.2437034941
 20
26.6632955356
 10
-8.2427895398
 20
26.6399376989
  0
LWPOLYLINE
  5
46F
100
AcDbEntity
  8
ASSI
100
AcDbPolyline
 62
250
  6
CONTINUOUS
 90
7
 70
0
 10
-3.3184474703
 20
22.8213062612
 10
-3.3355195328
 20
22.8310254723
 10
-3.3499395742
 20
22.8417652346
 10
-3.3614663084
 20
22.8533458432
 10
-3.3699068621
 20
22.8655735231
 10
-3.3751200021
 20
22.8782436725
 10
-3.3770261141
 20
22.8920169393
  0
LWPOLYLINE
  5
470
100
AcDbEntity
  8
ASSI
100
AcDbPolyline
 62
7
  6
CONTINUOUS
 90
13
 70
0
 10
3.6782068817
 20
20.3306062765
 10
3.6966581501
 20
20.3198937876
 10
3.7148005472
 20
20.3064054212
 10
3.7323195197
 20
20.2903695516
 10
3.7489107183
 20
20.2720577122
 10
3.7642891629
 20
20.2517826024
 10
3.7781942634
 20
20.2298929178
 10
3.7903905954
 20
20.2067642907
 10
3.8006671112
 20
20.1827911389
 10
3.8088449425
 20
20.1583827212
 10
3.8147852999
 20
20.1339572317
 10
3.8183916369
 20
20.1099345806
 10
3.8196066988
 20
20.0867276672
  0
LWPOLYLINE
  5
471
100
AcDbEntity
  8
RACCORDO
100
AcDbPolyline
 62
250
  6
CONTINUOUS
 90
13
 70
0
 10
-1.0343617433
 20
24.0981722586
 10
-1.0166508076
 20
24.0870503826
 10
-0.9985826942
 20
24.0736458946
 10
-0.9804609329
 20
24.0581840265
 10
-0.9625899475
 20
24.0409245671
 10
-0.9452699279
 20
24.0221574829
 10
-0.9287917894
 20
24.0021980422
 10
-0.9134323193
 20
23.9813815581
 10
-0.8994494824
 20
23.9600576993
 10
-0.8870780897
 20
23.9385845975
 10
-0.8765259158
 20
23.9173229216
 10
-0.8679701952
 20
23.8966298223
 10
-0.8615546117
 20
23.876852872
  0
LINE
  5
472
100
AcDbEntity
  8
0
100
AcDbLine
 62
250
  6
CONTINUOUS
 10
10.388491234
 20
25.3585543942
 11
10.8030687456
 21
24.282975854
  0
LINE
  5
473
100
AcDbEntity
  8
0
100
AcDbLine
 62
7
  6
CONTINUOUS
 10
11.9477730738
 20
22.7829108061
 11
11.7462737159
 21
23.3786352319
  0
LWPOLYLINE
  5
474
100
AcDbEntity
  8
RACCORDO
100
AcDbPolyline
 62
7
  6
CONTINUOUS
 90
10
 70
0
 10
20.3373310241
 20
22.6594874584
 10
20.333526128
 20
22.7734251548
 10
20.322380039
 20
22.8866893518
 10
20.3042417139
 20
22.9990766252
 10
20.2792866127
 20
23.110813402
 10
20.2477396132
 20
23.2214455695
 10
20.2101183471
 20
23.3297519586
 10
20.1668171116
 20
23.4352359296
 10
20.11786433
 20
23.5381628102
 10
20.0633322844
 20
23.6384072199
  0
LINE
  5
475
100
AcDbEntity
  8
RACCORDO
100
AcDbLine
 62
7
  6
CONTINUOUS
 10
20.3373306603
 20
16.4155913626
 11
20.3373309859
 21
16.415132295
  0
LINE
  5
476
100
AcDbEntity
  8
RACCORDO
100
AcDbLine
 62
7
  6
CONTINUOUS
 10
20.3373310241
 20
22.6594874585
 11
20.3373310241
 21
19.2538020118
  0
LINE
  5
477
100
AcDbEntity
  8
RACCORDO
100
AcDbLine
 62
7
  6
CONTINUOUS
 10
20.3373310241
 20
16.4148413423
 11
20.3373310241
 21
-7.9485746111
  0
LINE
  5
478
100
AcDbEntity
  8
RACCORDO
100
AcDbLine
 62
7
  6
CONTINUOUS
 10
20.337330874
 20
19.2527835091
 11
20.3373307862
 21
19.252535929
  0
LWPOLYLINE
  5
479
100
AcDbEntity
  8
RACCORDO
100
AcDbPolyline
 62
250
  6
CONTINUOUS
 90
29
 70
0
 10
20.3373307862
 20
19.252535929
 10
20.3370024153
 20
19.2090816216
 10
20.3357960994
 20
19.1573556722
 10
20.3337651407
 20
19.1070385617
 10
20.3309587866
 20
19.0581390482
 10
20.3274295829
 20
19.0106734938
 10
20.3232286432
 20
18.9646431439
 10
20.3183793821
 20
18.9200332752
 10
20.3129233258
 20
18.8768590646
 10
20.3068969328
 20
18.8351175813
 10
20.3002906772
 20
18.7947680955
 10
20.2931276622
 20
18.7557832284
 10
20.2854337089
 20
18.7182015067
 10
20.2771784358
 20
18.6820838482
 10
20.2683698213
 20
18.6473843635
 10
20.2590258652
 20
18.6141616416
 10
20.249111967
 20
18.5826366155
 10
20.2386307362
 20
18.55277832
 10
20.2275915989
 20
18.5246328726
 10
20.2159564707
 20
18.498540114
 10
20.2037131594
 20
18.4744830166
 10
20.1908755142
 20
18.4524973771
 10
20.1774382199
 20
18.4330043282
 10
20.1633887606
 20
18.4160672742
 10
20.1487432067
 20
18.4016427353
 10
20.1335430706
 20
18.3899904572
 10
20.117809227
 20
18.3812019247
 10
20.1015375739
 20
18.3752019893
 10
20.0847368444
 20
18.3719988872
  0
LWPOLYLINE
  5
47A
100
AcDbEntity
  8
RACCORDO
100
AcDbPolyline
 62
250
  6
CONTINUOUS
 90
11
 70
0
 10
20.3373310241
 20
-7.9485746111
 10
20.3365283844
 20
-7.9675753163
 10
20.3305458311
 20
-8.0037273729
 10
20.3187588419
 20
-8.0395210267
 10
20.301244013
 20
-8.0747236774
 10
20.278115162
 20
-8.1091065656
 10
20.2495225887
 20
-8.1424462585
 10
20.2156520981
 20
-8.1745261025
 10
20.176723793
 20
-8.2051376309
 10
20.1329906438
 20
-8.234081919
 10
20.0847368444
 20
-8.2611708761
  0
LWPOLYLINE
  5
47B
100
AcDbEntity
  8
RACCORDO
100
AcDbPolyline
 62
250
  6
CONTINUOUS
 90
11
 70
0
 10
19.8455873812
 20
-9.0044459709
 10
19.8896992927
 20
-8.9511085983
 10
19.9296903879
 20
-8.892339238
 10
19.9653895165
 20
-8.8283896
 10
19.9966439388
 20
-8.7595334591
 10
20.023319811
 20
-8.6860658775
 10
20.0453030248
 20
-8.6083013432
 10
20.0624996223
 20
-8.5265721607
 10
20.0748359167
 20
-8.4412279865
 10
20.0822589464
 20
-8.3526344509
 10
20.0847368444
 20
-8.2611708779
  0
LWPOLYLINE
  5
47C
100
AcDbEntity
  8
ASSI
100
AcDbPolyline
 62
7
  6
CONTINUOUS
 90
10
 70
0
 10
4.3063776879
 20
-21.8192832075
 10
4.3286173269
 20
-21.8039218269
 10
4.3494632868
 20
-21.7859180722
 10
4.3686018231
 20
-21.7654747212
 10
4.3853243921
 20
-21.7434655934
 10
4.3999328957
 20
-21.7196260047
 10
4.412360526
 20
-21.693867323
 10
4.421968068
 20
-21.6674677343
 10
4.4287597746
 20
-21.6407484945
 10
4.4328491462
 20
-21.612969669
  0
LWPOLYLINE
  5
47D
100
AcDbEntity
  8
ASSI
100
AcDbPolyline
 62
7
  6
CONTINUOUS
 90
5
 70
0
 10
3.7697103242
 20
-22.109245853
 10
3.7781942634
 20
-22.1039125319
 10
3.7903882756
 20
-22.0929790769
 10
3.8006628103
 20
-22.0792814504
 10
3.8088449425
 20
-22.0630530144
  0
LWPOLYLINE
  5
47E
100
AcDbEntity
  8
ASSI
100
AcDbPolyline
 62
250
  6
CONTINUOUS
 90
7
 70
0
 10
4.3778431093
 20
-21.3184827318
 10
4.3945733543
 20
-21.3086159858
 10
4.4086163442
 20
-21.2977519905
 10
4.4197371046
 20
-21.2860725311
 10
4.4277495581
 20
-21.2737730373
 10
4.4325196383
 20
-21.2610593135
 10
4.4339751493
 20
-21.249016825
  0
LWPOLYLINE
  5
47F
100
AcDbEntity
  8
ASSI
100
AcDbPolyline
 62
250
  6
CONTINUOUS
 90
7
 70
0
 10
4.3778431093
 20
-21.6584263266
 10
4.3945733245
 20
-21.6485596215
 10
4.4086163002
 20
-21.6376956627
 10
4.4197370598
 20
-21.6260162333
 10
4.4277495231
 20
-21.6137167617
 10
4.43251962
 20
-21.6010030511
 10
4.4339751493
 20
-21.5889604896
  0
LWPOLYLINE
  5
480
100
AcDbEntity
  8
ASSI
100
AcDbPolyline
 62
250
  6
CONTINUOUS
 90
8
 70
0
 10
2.1426306439
 20
-22.8608444748
 10
2.1552545538
 20
-22.8534398566
 10
2.16747957
 20
-22.8424924051
 10
2.1778453373
 20
-22.8287533103
 10
2.1861745654
 20
-22.8124575619
 10
2.1923247958
 20
-22.7938838774
 10
2.1961908387
 20
-22.7733499359
 10
2.1977065722
 20
-22.7512069431
  0
LINE
  5
481
100
AcDbEntity
  8
ASSI
100
AcDbLine
 62
7
  6
CONTINUOUS
 10
4.2947082893
 20
-21.8259970935
 11
4.3063776879
 21
-21.8192832075
  0
LWPOLYLINE
  5
482
100
AcDbEntity
  8
ASSI
100
AcDbPolyline
 62
250
  6
CONTINUOUS
 90
28
 70
0
 10
4.3437111654
 20
-21.7193933331
 10
4.3455075842
 20
-21.7183772529
 10
4.3473216501
 20
-21.7172196887
 10
4.349153363
 20
-21.7159206406
 10
4.3510136106
 20
-21.7144772811
 10
4.3528915052
 20
-21.7128924376
 10
4.3547543842
 20
-21.7111745926
 10
4.3566023332
 20
-21.7093188074
 10
4.3584352666
 20
-21.7073300207
 10
4.3602202645
 20
-21.7052315305
 10
4.3619554754
 20
-21.7030202609
 10
4.3636427507
 20
-21.700699288
 10
4.3652547248
 20
-21.6983011381
 10
4.366788087
 20
-21.6958263616
 10
4.3682461479
 20
-21.6932744081
 10
4.3696114748
 20
-21.6906761532
 10
4.3708818572
 20
-21.6880330068
 10
4.3720595054
 20
-21.685343559
 10
4.3731336176
 20
-21.6826344556
 10
4.374103311
 20
-21.6799054871
 10
4.3749694682
 20
-21.677156863
 10
4.375723936
 20
-21.6744158579
 10
4.3763656947
 20
-21.6716826021
 10
4.3768957639
 20
-21.6689569652
 10
4.3773090494
 20
-21.6662658308
 10
4.3776038531
 20
-21.6636181602
 10
4.3777818731
 20
-21.6610049922
 10
4.3778431093
 20
-21.6584263266
  0
LINE
  5
483
100
AcDbEntity
  8
ASSI
100
AcDbLine
 62
250
  6
CONTINUOUS
 10
3.8196066988
 20
-22.0021597167
 11
4.3437111654
 21
-21.7193933331
  0
LINE
  5
484
100
AcDbEntity
  8
ASSI
100
AcDbLine
 62
7
  6
CONTINUOUS
 10
3.7697537586
 20
-22.1092224627
 11
4.2948079695
 21
-21.8259436703
  0
LINE
  5
485
100
AcDbEntity
  8
ASSI
100
AcDbLine
 62
7
  6
CONTINUOUS
 10
3.7655438876
 20
-22.1113293574
 11
3.7697103242
 21
-22.109245853
  0
LINE
  5
486
100
AcDbEntity
  8
ASSI
100
AcDbLine
 62
7
  6
CONTINUOUS
 10
4.0827402385
 20
-20.3864661086
 11
4.0649994217
 21
-20.3948848307
  0
LINE
  5
487
100
AcDbEntity
  8
ASSI
100
AcDbLine
 62
250
  6
CONTINUOUS
 10
3.8196066988
 20
-22.0021597167
 11
2.1977065722
 21
-22.7512069431
  0
LINE
  5
488
100
AcDbEntity
  8
ASSI
100
AcDbLine
 62
7
  6
CONTINUOUS
 10
2.1423983453
 20
-22.8609512746
 11
3.7654880819
 21
-22.1113551303
  0
LWPOLYLINE
  5
489
100
AcDbEntity
  8
ASSI
100
AcDbPolyline
 62
250
  6
CONTINUOUS
 90
28
 70
0
 10
2.1977065722
 20
-22.7512069431
 10
2.1959423808
 20
-22.7519834719
 10
2.1941480125
 20
-22.7526491157
 10
2.1923234673
 20
-22.7532038744
 10
2.190457434
 20
-22.7536579072
 10
2.1885612238
 20
-22.7540010549
 10
2.1866687706
 20
-22.7542028399
 10
2.1847794546
 20
-22.7542586751
 10
2.1828938955
 20
-22.7541731477
 10
2.1810478865
 20
-22.753929541
 10
2.1792424681
 20
-22.753522466
 10
2.1774765997
 20
-22.7529573118
 10
2.1757829531
 20
-22.75223353
 10
2.1741647802
 20
-22.7513471786
 10
2.1726188291
 20
-22.7503021997
 10
2.1711680149
 20
-22.749109871
 10
2.1698152301
 20
-22.7477685948
 10
2.1685575823
 20
-22.7462799689
 10
2.1674093098
 20
-22.744660064
 10
2.166371843
 20
-22.7429075523
 10
2.1654437515
 20
-22.7410237617
 10
2.1646349831
 20
-22.7390287464
 10
2.1639468592
 20
-22.736921221
 10
2.1633780585
 20
-22.7347024709
 10
2.1629345648
 20
-22.7323964067
 10
2.1626183727
 20
-22.7300109986
 10
2.1624274876
 20
-22.7275382763
 10
2.1623619095
 20
-22.7249782399
  0
LINE
  5
48A
100
AcDbEntity
  8
ASSI
100
AcDbLine
 62
250
  6
CONTINUOUS
 10
3.1200808926
 20
-20.5664897304
 11
4.2085154285
 21
-20.1181265288
  0
LINE
  5
48B
100
AcDbEntity
  8
ASSI
100
AcDbLine
 62
7
  6
CONTINUOUS
 10
2.9777026704
 20
-20.8427791912
 11
4.0649516765
 21
-20.3949043497
  0
LINE
  5
48C
100
AcDbEntity
  8
RACCORDO
100
AcDbLine
 62
250
  6
CONTINUOUS
 10
0.7597715734
 20
-21.5670180449
 11
-2.5956577848
 21
-22.8437275727
  0
LINE
  5
48D
100
AcDbEntity
  8
RACCORDO
100
AcDbLine
 62
7
  6
CONTINUOUS
 10
-2.7622325943
 20
-23.1303728817
 11
0.5971171438
 21
-21.8521718009
  0
LWPOLYLINE
  5
48E
100
AcDbEntity
  8
RACCORDO
100
AcDbPolyline
 62
250
  6
CONTINUOUS
 90
22
 70
0
 10
-2.5956577848
 20
-22.8437275727
 10
-2.6320612897
 20
-22.8559911634
 10
-2.6677678513
 20
-22.8649469911
 10
-2.7027774696
 20
-22.8705950558
 10
-2.7372792155
 20
-22.8729366817
 10
-2.7710840181
 20
-22.8719705445
 10
-2.8036246642
 20
-22.8676926723
 10
-2.8348651622
 20
-22.8600456129
 10
-2.8648415037
 20
-22.8490868184
 10
-2.8930944503
 20
-22.834984673
 10
-2.9195973596
 20
-22.8176890589
 10
-2.9443768741
 20
-22.797250094
 10
-2.9670536836
 20
-22.7739865159
 10
-2.9875932724
 20
-22.7478559365
 10
-3.0060301561
 20
-22.7189007438
 10
-3.0220885711
 20
-22.6875668405
 10
-3.0357324168
 20
-22.6537987188
 10
-3.0469977938
 20
-22.6176518865
 10
-3.0557172401
 20
-22.5797387685
 10
-3.0618349349
 20
-22.5402635065
 10
-3.0654066989
 20
-22.499021959
 10
-3.0664325322
 20
-22.4560141258
  0
LWPOLYLINE
  5
48F
100
AcDbEntity
  8
ASSI
100
AcDbPolyline
 62
7
  6
CONTINUOUS
 90
3
 70
0
 10
6.5073398805
 20
24.8248734217
 10
6.4498158904
 20
24.8102642136
 10
6.3919877155
 20
24.7901935874
  0
LWPOLYLINE
  5
490
100
AcDbEntity
  8
ASSI
100
AcDbPolyline
 62
7
  6
CONTINUOUS
 90
4
 70
0
 10
1.5027308219
 20
21.4051639006
 10
1.5202412424
 20
21.4036850736
 10
1.5383807464
 20
21.3990324894
 10
1.5568434599
 20
21.3912879874
  0
LINE
  5
491
100
AcDbEntity
  8
ASSI
100
AcDbLine
 62
7
  6
CONTINUOUS
 10
-10.7467929936
 20
24.6637926945
 11
-11.2895190563
 21
24.778922012
  0
LINE
  5
492
100
AcDbEntity
  8
ASSI
100
AcDbLine
 62
250
  6
CONTINUOUS
 10
-9.669344757
 20
25.0000294278
 11
-10.4061525612
 21
25.1563296048
  0
LINE
  5
493
100
AcDbEntity
  8
ASSI
100
AcDbLine
 62
7
  6
CONTINUOUS
 10
-10.5866695992
 20
25.0326347202
 11
-9.9457707011
 21
24.8966798169
  0
LWPOLYLINE
  5
494
100
AcDbEntity
  8
ASSI
100
AcDbPolyline
 62
250
  6
CONTINUOUS
 90
19
 70
0
 10
-10.4061525612
 20
25.1563296048
 10
-10.4076935983
 20
25.1567017964
 10
-10.4092094924
 20
25.1572189956
 10
-10.4107002436
 20
25.1578812025
 10
-10.4121780819
 20
25.1586845435
 10
-10.4136307773
 20
25.1596328921
 10
-10.4150216395
 20
25.1607378687
 10
-10.4163495116
 20
25.1620048265
 10
-10.4176155506
 20
25.1634284122
 10
-10.4187865366
 20
25.165004187
 10
-10.4198598462
 20
25.1667376228
 10
-10.4208381028
 20
25.1686232478
 10
-10.4216959568
 20
25.1706402073
 10
-10.4224295927
 20
25.1727931509
 10
-10.4230428261
 20
25.1750774291
 10
-10.4235217533
 20
25.1774582387
 10
-10.4238617401
 20
25.1799239786
 10
-10.4240674209
 20
25.1824862498
 10
-10.4241387956
 20
25.1851450524
  0
LWPOLYLINE
  5
495
100
AcDbEntity
  8
ASSI
100
AcDbPolyline
 62
7
  6
CONTINUOUS
 90
10
 70
0
 10
2.1970092228
 20
21.6527457127
 10
2.1759669261
 20
21.6605220834
 10
2.1540920037
 20
21.6661448527
 10
2.131611544
 20
21.6695195787
 10
2.1086805317
 20
21.670577728
 10
2.0855408949
 20
21.6692603254
 10
2.0625141144
 20
21.6655551713
 10
2.0398201779
 20
21.6594820308
 10
2.0176623883
 20
21.6510812207
 10
2.0134859927
 20
21.6492060401
  0
LWPOLYLINE
  5
496
100
AcDbEntity
  8
RACCORDO
100
AcDbPolyline
 62
250
  6
CONTINUOUS
 90
8
 70
0
 10
0.4301815713
 20
23.3659006013
 10
0.4113568982
 20
23.3730466619
 10
0.3935032379
 20
23.3776033136
 10
0.3769204939
 20
23.3794940144
 10
0.361887221
 20
23.3786870045
 10
0.3486559464
 20
23.3751958399
 10
0.3374489273
 20
23.3690791649
 10
0.3333812003
 20
23.3657403615
  0
LWPOLYLINE
  5
497
100
AcDbEntity
  8
ASSI
100
AcDbPolyline
 62
7
  6
CONTINUOUS
 90
6
 70
0
 10
-11.0296572453
 20
27.68453834
 10
-11.0481085136
 20
27.6922885645
 10
-11.0662509107
 20
27.6969397021
 10
-11.0837698833
 20
27.6984142531
 10
-11.1003610819
 20
27.6966893113
 10
-11.1169962852
 20
27.6912281714
  0
LWPOLYLINE
  5
498
100
AcDbEntity
  8
ASSI
100
AcDbPolyline
 62
250
  6
CONTINUOUS
 90
6
 70
0
 10
2.0995695226
 20
21.6419368685
 10
2.0814175903
 20
21.6498258469
 10
2.0635339081
 20
21.6545967995
 10
2.0462243523
 20
21.6561681258
 10
2.0297849794
 20
21.6545129503
 10
2.0134859714
 20
21.6492060866
  0
LWPOLYLINE
  5
499
100
AcDbEntity
  8
RACCORDO
100
AcDbPolyline
 62
7
  6
CONTINUOUS
 90
16
 70
0
 10
-0.448683397
 20
23.0065286362
 10
-0.47165112
 20
23.0168352223
 10
-0.4960321946
 20
23.0257900622
 10
-0.5218266209
 20
23.0333931559
 10
-0.5493254417
 20
23.0396943266
 10
-0.5782376142
 20
23.0446437512
 10
-0.6076900093
 20
23.0480919602
 10
-0.6376991073
 20
23.0499931569
 10
-0.668248428
 20
23.0503931379
 10
-0.6984154015
 20
23.0492798242
 10
-0.7281883637
 20
23.0466070505
 10
-0.7575789788
 20
23.042420982
 10
-0.7856996691
 20
23.0368480354
 10
-0.8122545753
 20
23.0299303494
 10
-0.8375395567
 20
23.0216257852
 10
-0.8615546133
 20
23.0119343428
  0
LINE
  5
49A
100
AcDbEntity
  8
ASSI
100
AcDbLine
 62
7
  6
CONTINUOUS
 10
-10.3775574188
 20
27.9404490976
 11
-10.391839626
 21
27.946986451
  0
LINE
  5
49B
100
AcDbEntity
  8
ASSI
100
AcDbLine
 62
7
  6
CONTINUOUS
 10
2.2089318002
 20
21.6472043855
 11
2.1970092228
 21
21.6527457127
  0
LINE
  5
49C
100
AcDbEntity
  8
RACCORDO
100
AcDbLine
 62
250
  6
CONTINUOUS
 10
-0.0049127493
 20
24.9320484974
 11
-0.0014719199
 21
24.9304352305
  0
LWPOLYLINE
  5
49D
100
AcDbEntity
  8
ASSI
100
AcDbPolyline
 62
250
  6
CONTINUOUS
 90
13
 70
0
 10
4.3106440856
 20
20.5963495292
 10
4.307449522
 20
20.597871358
 10
4.2991142264
 20
20.6011776652
 10
4.2904407683
 20
20.6036962174
 10
4.281459197
 20
20.6054198518
 10
4.2722014395
 20
20.6063439417
 10
4.2626963321
 20
20.6064668416
 10
4.2529768219
 20
20.6057887932
 10
4.2430764145
 20
20.6043127728
 10
4.233025375
 20
20.6020437161
 10
4.2228568909
 20
20.5989888563
 10
4.2126071488
 20
20.5951586269
 10
4.2023113483
 20
20.5905659557
  0
LWPOLYLINE
  5
49E
100
AcDbEntity
  8
ASSI
100
AcDbPolyline
 62
250
  6
CONTINUOUS
 90
13
 70
0
 10
2.2086717551
 20
21.6473356946
 10
2.2074008613
 20
21.6479593574
 10
2.1989248793
 20
21.6515437914
 10
2.1900816142
 20
21.6543138419
 10
2.1809044646
 20
21.6562591254
 10
2.1714242659
 20
21.657373186
 10
2.1616757635
 20
21.6576517122
 10
2.1516932926
 20
21.6570936779
 10
2.1415128471
 20
21.6557010642
 10
2.1311730698
 20
21.6534791925
 10
2.1207116905
 20
21.650436659
 10
2.1101652794
 20
21.6465847732
 10
2.0995714481
 20
21.6419377836
  0
LINE
  5
49F
100
AcDbEntity
  8
ASSI
100
AcDbLine
 62
250
  6
CONTINUOUS
 10
4.2023113483
 20
20.5905659557
 11
2.0995714749
 21
21.6419377702
  0
LINE
  5
4A0
100
AcDbEntity
  8
ASSI
100
AcDbLine
 62
250
  6
CONTINUOUS
 10
-8.3841893568
 20
26.8838163082
 11
-10.4869311826
 21
27.9351872211
  0
LINE
  5
4A1
100
AcDbEntity
  8
RACCORDO
100
AcDbLine
 62
7
  6
CONTINUOUS
 10
-0.1927666315
 20
22.8785702534
 11
-0.448683397
 21
23.0065286362
  0
LINE
  5
4A2
100
AcDbEntity
  8
RACCORDO
100
AcDbLine
 62
250
  6
CONTINUOUS
 10
-0.448683397
 20
23.989113296
 11
0.3097222016
 21
23.6099104967
  0
LINE
  5
4A3
100
AcDbEntity
  8
RACCORDO
100
AcDbLine
 62
250
  6
CONTINUOUS
 10
-0.3462430495
 20
24.2068288795
 11
0.4121625492
 21
23.8276260801
  0
LINE
  5
4A4
100
AcDbEntity
  8
RACCORDO
100
AcDbLine
 62
7
  6
CONTINUOUS
 10
-1.0594300906
 20
24.8071802607
 11
1.5785400984
 21
23.4881951662
  0
LINE
  5
4A5
100
AcDbEntity
  8
RACCORDO
100
AcDbLine
 62
250
  6
CONTINUOUS
 10
2.1944921392
 20
23.7832790079
 11
-0.0896876785
 21
24.9253689167
  0
LINE
  5
4A6
100
AcDbEntity
  8
RACCORDO
100
AcDbLine
 62
7
  6
CONTINUOUS
 10
3.5201123988
 20
23.1696430717
 11
3.4834409084
 21
23.1879788169
  0
LINE
  5
4A7
100
AcDbEntity
  8
RACCORDO
100
AcDbLine
 62
7
  6
CONTINUOUS
 10
2.2447175758
 20
23.8073404832
 11
-0.0014790779
 21
24.93043881
  0
LINE
  5
4A8
100
AcDbEntity
  8
ASSI
100
AcDbLine
 62
7
  6
CONTINUOUS
 10
-10.3778337051
 20
27.9405884249
 11
-8.2757744827
 21
26.8895587701
  0
LINE
  5
4A9
100
AcDbEntity
  8
ASSI
100
AcDbLine
 62
7
  6
CONTINUOUS
 10
4.3107557086
 20
20.596293634
 11
2.2086661002
 21
21.6473385222
  0
LWPOLYLINE
  5
4AA
100
AcDbEntity
  8
RACCORDO
100
AcDbPolyline
 62
250
  6
CONTINUOUS
 90
15
 70
0
 10
0.4121625492
 20
23.8276260801
 10
0.4457445256
 20
23.8083829542
 10
0.4750611136
 20
23.7867595513
 10
0.5001123133
 20
23.7627558715
 10
0.5211015054
 20
23.7361235229
 10
0.5378253091
 20
23.7071108973
 10
0.5496735822
 20
23.6764631709
 10
0.5565303758
 20
23.6441032232
 10
0.5585116389
 20
23.6101081747
 10
0.5553550761
 20
23.5754545625
 10
0.5468923368
 20
23.5400884738
 10
0.5332917717
 20
23.5040638215
 10
0.5147961369
 20
23.4685188805
 10
0.4914863513
 20
23.433833076
 10
0.4632814961
 20
23.399626983
  0
LWPOLYLINE
  5
4AB
100
AcDbEntity
  8
ASSI
100
AcDbPolyline
 62
250
  6
CONTINUOUS
 90
13
 70
0
 10
-2.4166654199
 20
26.8383686953
 10
-2.3940113805
 20
26.8252154235
 10
-2.3717828608
 20
26.8086728551
 10
-2.3503476227
 20
26.7890145363
 10
-2.3300603471
 20
26.7665656026
 10
-2.311256703
 20
26.7416973377
 10
-2.294247808
 20
26.7148210124
 10
-2.2793151357
 20
26.6863811433
 10
-2.2667059127
 20
26.6568482976
 10
-2.2566289351
 20
26.6267112424
 10
-2.2492510422
 20
26.5964686855
 10
-2.2446943906
 20
26.5666210121
 10
-2.243034477
 20
26.537662148
  0
LWPOLYLINE
  5
4AC
100
AcDbEntity
  8
RACCORDO
100
AcDbPolyline
 62
250
  6
CONTINUOUS
 90
9
 70
0
 10
0.3097222016
 20
23.6099104967
 10
0.329603378
 20
23.5982965059
 10
0.3472651098
 20
23.5845520238
 10
0.3625166847
 20
23.5687873384
 10
0.3751812685
 20
23.551093576
 10
0.3851249643
 20
23.531629291
 10
0.3922395774
 20
23.5106159389
 10
0.3964159941
 20
23.4881513257
 10
0.3975901309
 20
23.4675495748
  0
LINE
  5
4AD
100
AcDbEntity
  8
DRAFT
100
AcDbLine
 62
7
  6
CONTINUOUS
 10
11.7336652494
 20
20.5541422275
 11
10.9809711654
 21
21.8523474886
  0
LWPOLYLINE
  5
4AE
100
AcDbEntity
  8
RACCORDO
100
AcDbPolyline
 62
7
  6
CONTINUOUS
 90
17
 70
0
 10
6.1844931486
 20
24.693109366
 10
6.1223352965
 20
24.6872939081
 10
6.0558376944
 20
24.6834499517
 10
5.9880615342
 20
24.6819145147
 10
5.9196877405
 20
24.6827383436
 10
5.8518748827
 20
24.6859216789
 10
5.7853074971
 20
24.6913935649
 10
5.7206756166
 20
24.699011673
 10
5.6591038577
 20
24.7085185983
 10
5.6010438012
 20
24.7196875638
 10
5.5471522338
 20
24.7321852972
 10
5.4986638059
 20
24.7454220092
 10
5.4558390929
 20
24.7589628092
 10
5.4187989786
 20
24.7723698574
 10
5.3881464596
 20
24.7849439445
 10
5.3638304064
 20
24.7961527322
 10
5.3595126043
 20
24.7982869283
  0
LWPOLYLINE
  5
4AF
100
AcDbEntity
  8
ASSI
100
AcDbPolyline
 62
7
  6
CONTINUOUS
 90
5
 70
0
 10
3.1013408836
 20
24.1684066203
 10
3.0601177411
 20
24.166295789
 10
3.0190139501
 20
24.160745574
 10
2.9798807933
 20
24.1519577642
 10
2.9431156769
 20
24.1401588991
  0
LWPOLYLINE
  5
4B0
100
AcDbEntity
  8
RACCORDO
100
AcDbPolyline
 62
250
  6
CONTINUOUS
 90
4
 70
0
 10
5.9231018972
 20
24.5679238011
 10
5.8930546295
 20
24.5683833066
 10
5.790068448
 20
24.5736647689
 10
5.7463200577
 20
24.5775370688
  0
LWPOLYLINE
  5
4B1
100
AcDbEntity
  8
RACCORDO
100
AcDbPolyline
 62
7
  6
CONTINUOUS
 90
6
 70
0
 10
-1.1155868011
 20
24.8213128077
 10
-1.1059067907
 20
24.8209753937
 10
-1.0954955943
 20
24.8195205232
 10
-1.0843745546
 20
24.8168432967
 10
-1.0725581136
 20
24.8128661202
 10
-1.060088965
 20
24.8075096979
  0
LWPOLYLINE
  5
4B2
100
AcDbEntity
  8
ASSI
100
AcDbPolyline
 62
7
  6
CONTINUOUS
 90
4
 70
0
 10
-3.000930783
 20
23.2206868996
 10
-2.9790427572
 20
23.2188383659
 10
-2.9563683773
 20
23.2130226356
 10
-2.9332899855
 20
23.2033420082
  0
LWPOLYLINE
  5
4B3
100
AcDbEntity
  8
ASSI
100
AcDbPolyline
 62
7
  6
CONTINUOUS
 90
4
 70
0
 10
-6.7132413842
 20
25.0768422002
 10
-6.6913533585
 20
25.0749936665
 10
-6.6686789785
 20
25.0691779363
 10
-6.6456005867
 20
25.0594973088
  0
LWPOLYLINE
  5
4B4
100
AcDbEntity
  8
RACCORDO
100
AcDbPolyline
 62
7
  6
CONTINUOUS
 90
10
 70
0
 10
-0.1269162013
 20
24.9623155669
 10
-0.2080386597
 20
24.9740359216
 10
-0.2903122788
 20
24.9819391729
 10
-0.3731053404
 20
24.9860281364
 10
-0.4559845111
 20
24.9863264335
 10
-0.5387143411
 20
24.9828344382
 10
-0.6207650874
 20
24.9755388405
 10
-0.701597519
 20
24.9644345415
 10
-0.7809957222
 20
24.9494544887
 10
-0.8585465524
 20
24.9305176396
  0
LWPOLYLINE
  5
4B5
100
AcDbEntity
  8
ASSI
100
AcDbPolyline
 62
250
  6
CONTINUOUS
 90
12
 70
0
 10
-10.5865870056
 20
25.0326171689
 10
-10.5774888403
 20
25.0310533405
 10
-10.5573475669
 20
25.0300950438
 10
-10.5369987902
 20
25.0324899566
 10
-10.5167868324
 20
25.0381975521
 10
-10.4970537017
 20
25.0471212486
 10
-10.4781333025
 20
25.059110044
 10
-10.4603457836
 20
25.0739610736
 10
-10.4439921239
 20
25.0914230426
 10
-10.4293490408
 20
25.1112004767
 10
-10.4166643081
 20
25.1329587211
 10
-10.4061525612
 20
25.1563296048
  0
LWPOLYLINE
  5
4B6
100
AcDbEntity
  8
RACCORDO
100
AcDbPolyline
 62
250
  6
CONTINUOUS
 90
13
 70
0
 10
-0.0896876785
 20
24.9253689167
 10
-0.1594099085
 20
24.9389436615
 10
-0.2301517074
 20
24.9492071626
 10
-0.3019130752
 20
24.9561594201
 10
-0.3753524515
 20
24.9598097947
 10
-0.4498113968
 20
24.9601489257
 10
-0.5233145926
 20
24.9571487311
 10
-0.5958391028
 20
24.9507041694
 10
-0.6674078635
 20
24.9409202821
 10
-0.7361143647
 20
24.9280841116
 10
-0.8013231031
 20
24.9122913388
 10
-0.8636695821
 20
24.8934462828
 10
-0.9231538015
 20
24.8715489436
  0
LINE
  5
4B7
100
AcDbEntity
  8
RACCORDO
100
AcDbLine
 62
7
  6
CONTINUOUS
 10
-0.0474925093
 20
24.9467811797
 11
-0.1269162013
 21
24.9623155669
  0
LWPOLYLINE
  5
4B8
100
AcDbEntity
  8
RACCORDO
100
AcDbPolyline
 62
7
  6
CONTINUOUS
 90
7
 70
0
 10
-0.0474993669
 20
24.9467827042
 10
-0.0396386842
 20
24.9448666987
 10
-0.0305426312
 20
24.9422215556
 10
-0.0215792476
 20
24.9391476436
 10
-0.0127589645
 20
24.9356472925
 10
-0.0041015031
 20
24.9317261669
 10
-0.0014609449
 20
24.9304297405
  0
LWPOLYLINE
  5
4B9
100
AcDbEntity
  8
ASSI
100
AcDbPolyline
 62
7
  6
CONTINUOUS
 90
5
 70
0
 10
3.2637387365
 20
24.142879317
 10
3.2251360693
 20
24.1542800954
 10
3.1848595402
 20
24.162384733
 10
3.1429034855
 20
24.1671452209
 10
3.1013408836
 20
24.1684066203
  0
LWPOLYLINE
  5
4BA
100
AcDbEntity
  8
ASSI
100
AcDbPolyline
 62
7
  6
CONTINUOUS
 90
8
 70
0
 10
-10.391839626
 20
27.946986451
 10
-10.4130679721
 20
27.954547978
 10
-10.4351102369
 20
27.9599266611
 10
-10.4577368982
 20
27.9630302691
 10
-10.4807960014
 20
27.963792832
 10
-10.5040580161
 20
27.962152342
 10
-10.5271802025
 20
27.9580992185
 10
-10.5499036781
 20
27.9516672647
  0
LWPOLYLINE
  5
4BB
100
AcDbEntity
  8
ASSI
100
AcDbPolyline
 62
250
  6
CONTINUOUS
 90
6
 70
0
 10
-2.5961295707
 20
26.9296772189
 10
-2.618819486
 20
26.9395384418
 10
-2.6411740885
 20
26.9455021327
 10
-2.6628110331
 20
26.9474662907
 10
-2.6833602488
 20
26.9453973215
 10
-2.7040344256
 20
26.9386256461
  0
LINE
  5
4BC
100
AcDbEntity
  8
ASSI
100
AcDbLine
 62
7
  6
CONTINUOUS
 10
3.8828042319
 20
23.5624790111
 11
3.486948982
 21
23.760406636
  0
LINE
  5
4BD
100
AcDbEntity
  8
ASSI
100
AcDbLine
 62
7
  6
CONTINUOUS
 10
2.8311742582
 20
24.0882939979
 11
0.283830485
 21
25.3619658845
  0
LINE
  5
4BE
100
AcDbEntity
  8
ASSI
100
AcDbLine
 62
7
  6
CONTINUOUS
 10
4.8526993738
 20
24.0552863511
 11
0.8932882515
 21
26.0349919122
  0
LINE
  5
4BF
100
AcDbEntity
  8
DRAFT
100
AcDbLine
 62
7
  6
CONTINUOUS
 10
10.9809711654
 20
21.8523474886
 11
10.232552072
 21
22.2265570353
  0
LINE
  5
4C0
100
AcDbEntity
  8
ASSI
100
AcDbLine
 62
7
  6
CONTINUOUS
 10
2.569446085
 20
26.1659740551
 11
5.8426278732
 21
24.529383161
  0
LINE
  5
4C1
100
AcDbEntity
  8
RACCORDO
100
AcDbLine
 62
7
  6
CONTINUOUS
 10
5.3595872266
 20
24.7982585393
 11
2.5690562207
 21
26.1935240422
  0
LINE
  5
4C2
100
AcDbEntity
  8
ASSI
100
AcDbLine
 62
250
  6
CONTINUOUS
 10
-1.0515701374
 20
28.5008111001
 11
1.801765145
 21
27.0741434589
  0
LINE
  5
4C3
100
AcDbEntity
  8
ASSI
100
AcDbLine
 62
250
  6
CONTINUOUS
 10
6.4278151075
 20
24.7611184777
 11
9.2811503898
 21
23.3344508365
  0
LINE
  5
4C4
100
AcDbEntity
  8
0
100
AcDbLine
 62
7
  6
CONTINUOUS
 10
11.9582679092
 20
22.7776633884
 11
12.1721603632
 21
22.5801301207
  0
LINE
  5
4C5
100
AcDbEntity
  8
RACCORDO
100
AcDbLine
 62
7
  6
CONTINUOUS
 10
14.8061092654
 20
26.3482694478
 11
14.8152247241
 21
26.3243756467
  0
LINE
  5
4C6
100
AcDbEntity
  8
ASSI
100
AcDbLine
 62
7
  6
CONTINUOUS
 10
0.8932882515
 20
26.0349919122
 11
2.5105606862
 21
26.1170368921
  0
LWPOLYLINE
  5
4C7
100
AcDbEntity
  8
ASSI
100
AcDbPolyline
 62
7
  6
CONTINUOUS
 90
5
 70
0
 10
-2.5120775942
 20
26.9783028646
 10
-2.5526651732
 20
26.976760356
 10
-2.5932488182
 20
26.9718941127
 10
-2.6320164121
 20
26.9638859916
 10
-2.6685731892
 20
26.9529401477
  0
LWPOLYLINE
  5
4C8
100
AcDbEntity
  8
RACCORDO
100
AcDbPolyline
 62
250
  6
CONTINUOUS
 90
4
 70
0
 10
5.2364915626
 20
24.8324513163
 10
5.2816841085
 20
24.8259885369
 10
5.3365301781
 20
24.808725956
 10
5.3595161659
 20
24.7982940592
  0
LWPOLYLINE
  5
4C9
100
AcDbEntity
  8
RACCORDO
100
AcDbPolyline
 62
7
  6
CONTINUOUS
 90
9
 70
0
 10
14.2960501161
 20
23.5702501584
 10
14.2899333756
 20
23.5718496561
 10
14.2801631618
 20
23.57338247
 10
14.2698369664
 20
23.5737979143
 10
14.2590497692
 20
23.5730961419
 10
14.2480865103
 20
23.5712776105
 10
14.2370421696
 20
23.568342473
 10
14.2258217671
 20
23.5642905766
 10
14.2144253028
 20
23.5591219214
  0
LINE
  5
4CA
100
AcDbEntity
  8
0
100
AcDbLine
 62
7
  6
CONTINUOUS
 10
12.9029873174
 20
22.9034029286
 11
12.453242656
 21
23.0251507618
  0
LWPOLYLINE
  5
4CB
100
AcDbEntity
  8
RACCORDO
100
AcDbPolyline
 62
7
  6
CONTINUOUS
 90
28
 70
0
 10
14.2960399799
 20
23.5702262059
 10
14.1873246333
 20
23.6015120517
 10
14.0724695904
 20
23.6308657288
 10
13.9552081664
 20
23.6571927989
 10
13.8358350016
 20
23.6804548907
 10
13.7146146299
 20
23.7006254435
 10
13.5917852605
 20
23.7176847188
 10
13.4676364631
 20
23.7316085603
 10
13.342453
 20
23.7423792293
 10
13.2164724825
 20
23.749986629
 10
13.0899860964
 20
23.7544200077
 10
12.9632833734
 20
23.7556745624
 10
12.836601628
 20
23.7537497893
 10
12.7102303582
 20
23.7486484543
 10
12.5844607676
 20
23.7403792422
 10
12.4595311683
 20
23.7289513667
 10
12.3357322936
 20
23.7143815345
 10
12.2133475413
 20
23.6966915129
 10
12.0925991051
 20
23.6758973375
 10
11.973764184
 20
23.6520257375
 10
11.8571283606
 20
23.6251106857
 10
11.7429167875
 20
23.5951759184
 10
11.6314016093
 20
23.5622588145
 10
11.5228554129
 20
23.5264021797
 10
11.4174885213
 20
23.4876305621
 10
11.3155417389
 20
23.4459777538
 10
11.2172956015
 20
23.4014969793
 10
11.1230115403
 20
23.3542395898
  0
LWPOLYLINE
  5
4CC
100
AcDbEntity
  8
ASSI
100
AcDbPolyline
 62
7
  6
CONTINUOUS
 90
5
 70
0
 10
-2.3531953369
 20
26.9517655964
 10
-2.3908806493
 20
26.9632130325
 10
-2.4302496201
 20
26.9715037669
 10
-2.4712948813
 20
26.9765903099
 10
-2.5120775942
 20
26.9783028646
  0
LWPOLYLINE
  5
4CD
100
AcDbEntity
  8
RACCORDO
100
AcDbPolyline
 62
7
  6
CONTINUOUS
 90
3
 70
0
 10
14.3080907979
 20
23.5654323778
 10
14.2992425876
 20
23.5691996254
 10
14.2960501161
 20
23.5702501584
  0
LWPOLYLINE
  5
4CE
100
AcDbEntity
  8
ASSI
100
AcDbPolyline
 62
250
  6
CONTINUOUS
 90
10
 70
0
 10
2.2388620717
 20
27.0953947655
 10
2.195801104
 20
27.1137366005
 10
2.1514425172
 20
27.1266318973
 10
2.1051603069
 20
27.134443211
 10
2.0572066365
 20
27.137128533
 10
2.0078412336
 20
27.134674557
 10
1.9573365514
 20
27.1270934243
 10
1.9059689683
 20
27.1144264864
 10
1.8540173064
 20
27.0967441625
 10
1.801765145
 20
27.0741434589
  0
LWPOLYLINE
  5
4CF
100
AcDbEntity
  8
ASSI
100
AcDbPolyline
 62
7
  6
CONTINUOUS
 90
8
 70
0
 10
6.8613772751
 20
24.7841341442
 10
6.8282439774
 20
24.7992780025
 10
6.7796428417
 20
24.8164452241
 10
6.7284799255
 20
24.8287462815
 10
6.6751747646
 20
24.8358930923
 10
6.6203327816
 20
24.8376741245
 10
6.5643041689
 20
24.8340112725
 10
6.5073398805
 20
24.8248734217
  0
LINE
  5
4D0
100
AcDbEntity
  8
ASSI
100
AcDbLine
 62
7
  6
CONTINUOUS
 10
6.8604626132
 20
24.7845944947
 11
9.8711495357
 21
23.2792510335
  0
LINE
  5
4D1
100
AcDbEntity
  8
0
100
AcDbLine
 62
7
  6
CONTINUOUS
 10
11.9582679092
 20
22.7776633884
 11
11.2512989691
 21
23.1311478585
  0
LINE
  5
4D2
100
AcDbEntity
  8
0
100
AcDbLine
 62
7
  6
CONTINUOUS
 10
12.453242656
 20
23.0251507618
 11
11.7462737159
 21
23.3786352319
  0
LINE
  5
4D3
100
AcDbEntity
  8
DRAFT
100
AcDbLine
 62
7
  6
CONTINUOUS
 10
11.4857789436
 20
23.861280873
 11
11.0471684711
 21
24.0805861093
  0
LINE
  5
4D4
100
AcDbEntity
  8
ASSI
100
AcDbLine
 62
7
  6
CONTINUOUS
 10
2.2389695525
 20
27.095341004
 11
-0.7718235222
 21
28.6007375624
  0
LINE
  5
4D5
100
AcDbEntity
  8
RACCORDO
100
AcDbLine
 62
7
  6
CONTINUOUS
 10
15.1566189353
 20
23.1411683091
 11
15.2693938205
 21
23.0846759829
  0
LWPOLYLINE
  5
4D6
100
AcDbEntity
  8
RACCORDO
100
AcDbPolyline
 62
7
  6
CONTINUOUS
 90
10
 70
0
 10
15.118674868
 20
23.153835964
 10
15.0211978143
 20
23.2038913957
 10
14.9255846125
 20
23.2528672713
 10
14.8318352626
 20
23.3007635909
 10
14.7399641813
 20
23.3475817787
 10
14.6499569518
 20
23.3933204104
 10
14.5617703238
 20
23.4379752135
 10
14.4753898804
 20
23.4815447636
 10
14.3908300385
 20
23.524030485
 10
14.3080907979
 20
23.5654323778
  0
LWPOLYLINE
  5
4D7
100
AcDbEntity
  8
RACCORDO
100
AcDbPolyline
 62
250
  6
CONTINUOUS
 90
5
 70
0
 10
15.1566189353
 20
23.1411683091
 10
15.1811419256
 20
23.1206639307
 10
15.2055076873
 20
23.0993856662
 10
15.2296444375
 20
23.077323389
 10
15.2377932649
 20
23.0695094193
  0
LWPOLYLINE
  5
4D8
100
AcDbEntity
  8
RACCORDO
100
AcDbPolyline
 62
250
  6
CONTINUOUS
 90
4
 70
0
 10
15.0629823362
 20
23.1348723006
 10
15.0858427656
 20
23.1152935672
 10
15.1084203039
 20
23.0949405206
 10
15.1307149511
 20
23.073813161
  0
LINE
  5
4D9
100
AcDbEntity
  8
RACCORDO
100
AcDbLine
 62
250
  6
CONTINUOUS
 10
15.1307149511
 20
23.073813161
 11
15.1527604494
 21
23.0519832741
  0
LINE
  5
4DA
100
AcDbEntity
  8
RACCORDO
100
AcDbLine
 62
250
  6
CONTINUOUS
 10
15.1527604494
 20
23.0519832741
 11
15.1680934885
 21
23.0360572832
  0
LWPOLYLINE
  5
4DB
100
AcDbEntity
  8
RACCORDO
100
AcDbPolyline
 62
250
  6
CONTINUOUS
 90
35
 70
0
 10
20.3373310241
 20
19.9448070134
 10
20.3489285505
 20
19.9079320929
 10
20.3688660579
 20
19.8350182214
 10
20.385180055
 20
19.764046471
 10
20.3987758153
 20
19.6949801361
 10
20.4098335721
 20
19.6280012668
 10
20.4183609471
 20
19.5630777653
 10
20.4249606285
 20
19.4998262022
 10
20.4297730424
 20
19.4382675138
 10
20.4327925819
 20
19.3784727081
 10
20.43436472
 20
19.3201140032
 10
20.4345808989
 20
19.2631432738
 10
20.4334499519
 20
19.2076668805
 10
20.4311721238
 20
19.1535787786
 10
20.4278109783
 20
19.1008642651
 10
20.4233884021
 20
19.0495781408
 10
20.4180334851
 20
18.9997142042
 10
20.4118047456
 20
18.9512979606
 10
20.4047209775
 20
18.9043320058
 10
20.3968468938
 20
18.8587729607
 10
20.3882402096
 20
18.8146363347
 10
20.378911174
 20
18.7719252245
 10
20.3688492555
 20
18.7305751963
 10
20.3580996638
 20
18.6905476395
 10
20.3466761091
 20
18.6518926035
 10
20.3345201398
 20
18.6146769273
 10
20.3216676962
 20
18.578849877
 10
20.3081378085
 20
18.5444691912
 10
20.293850616
 20
18.5117636283
 10
20.2788391581
 20
18.4806959835
 10
20.2631230598
 20
18.4513083388
 10
20.2466079755
 20
18.4239484685
 10
20.2292796975
 20
18.3987342052
 10
20.2111988625
 20
18.3755532294
 10
20.1923830336
 20
18.3544086962
  0
LINE
  5
4DC
100
AcDbEntity
  8
RACCORDO
100
AcDbLine
 62
7
  6
CONTINUOUS
 10
15.7156919236
 20
23.6215444985
 11
14.9891945348
 21
23.9847931928
  0
LINE
  5
4DD
100
AcDbEntity
  8
DRAFT
100
AcDbLine
 62
7
  6
CONTINUOUS
 10
15.5328622632
 20
23.7286191812
 11
15.2287428792
 21
23.8806788732
  0
LINE
  5
4DE
100
AcDbEntity
  8
DRAFT
100
AcDbLine
 62
7
  6
CONTINUOUS
 10
17.9274622969
 20
24.360405593
 11
14.8152247241
 21
25.9165243795
  0
LWPOLYLINE
  5
4DF
100
AcDbEntity
  8
DRAFT
100
AcDbPolyline
 62
7
  6
CONTINUOUS
 90
10
 70
0
 10
15.5328622632
 20
23.7286191812
 10
15.5014468088
 20
23.7466719935
 10
15.4694298315
 20
23.7644392959
 10
15.4368113313
 20
23.7819210885
 10
15.4035811406
 20
23.7991224551
 10
15.369749427
 20
23.8160383119
 10
15.3353466937
 20
23.8326534073
 10
15.3003831086
 20
23.8489626573
 10
15.2648485037
 20
23.864971146
 10
15.2287428792
 20
23.8806788732
  0
LINE
  5
4E0
100
AcDbEntity
  8
RACCORDO
100
AcDbLine
 62
7
  6
CONTINUOUS
 10
15.1264332967
 20
23.1492494919
 11
15.118674868
 21
23.153835964
  0
LWPOLYLINE
  5
4E1
100
AcDbEntity
  8
RACCORDO
100
AcDbPolyline
 62
7
  6
CONTINUOUS
 90
35
 70
0
 10
20.3373310241
 20
22.0268950852
 10
20.4541045528
 20
21.949792979
 10
20.5939012263
 20
21.8452793327
 10
20.7306390821
 20
21.7307507357
 10
20.8635045256
 20
21.6070342312
 10
20.9918899788
 20
21.4748874561
 10
21.115471579
 20
21.3348200501
 10
21.2338517403
 20
21.1874145464
 10
21.3466061234
 20
21.0333036569
 10
21.4532816895
 20
20.8731968728
 10
21.5534387015
 20
20.7078411157
 10
21.6466546453
 20
20.538023354
 10
21.732607768
 20
20.3644053234
 10
21.8110231496
 20
20.1875673647
 10
21.8815898246
 20
20.0081768009
 10
21.943964407
 20
19.8270422408
 10
21.997849143
 20
19.6449469458
 10
22.0429858661
 20
19.4626423628
 10
22.0791447688
 20
19.2808655258
 10
22.1061205128
 20
19.1003420659
 10
22.1237403181
 20
18.9216396137
 10
22.1318132193
 20
18.7456430979
 10
22.1302131575
 20
18.5734628571
 10
22.1188657854
 20
18.4055468817
 10
22.0977311831
 20
18.2427699454
 10
22.0670018291
 20
18.0866763051
 10
22.0268973367
 20
17.9379343403
 10
21.9775709885
 20
17.7968414099
 10
21.9193758688
 20
17.6641753199
 10
21.8525674852
 20
17.5402779692
 10
21.7774987715
 20
17.425618871
 10
21.6949090661
 20
17.3210212329
 10
21.6054698951
 20
17.2268938935
 10
21.5096455867
 20
17.1433133336
 10
21.4080541172
 20
17.0704644081
  0
LWPOLYLINE
  5
4E2
100
AcDbEntity
  8
RACCORDO
100
AcDbPolyline
 62
250
  6
CONTINUOUS
 90
34
 70
0
 10
20.3373310241
 20
21.9482845642
 10
20.4154261149
 20
21.8927727608
 10
20.5525669848
 20
21.7833171515
 10
20.6871094764
 20
21.663791678
 10
20.8184260553
 20
21.5347538293
 10
20.9459042138
 20
21.3968054809
 10
21.0689493506
 20
21.2505900704
 10
21.186987546
 20
21.0967895916
 10
21.2994682405
 20
20.9361214095
 10
21.4058667952
 20
20.7693349222
 10
21.5056869382
 20
20.5972080666
 10
21.5984630796
 20
20.4205436918
 10
21.6837624848
 20
20.2401658109
 10
21.7611872936
 20
20.0569157571
 10
21.8303763754
 20
19.8716482592
 10
21.8910070131
 20
19.6852274561
 10
21.9427964086
 20
19.4985228663
 10
21.9855030016
 20
19.3124053322
 10
22.0189275967
 20
19.1277429578
 10
22.0429142922
 20
18.9453970601
 10
22.0573512075
 20
18.766218151
 10
22.0621710048
 20
18.591041971
 10
22.0573512032
 20
18.4206855906
 10
22.0429142836
 20
18.2559435994
 10
22.0189275838
 20
18.0975844
 10
21.9855029845
 20
17.9463466238
 10
21.9427963872
 20
17.8029356861
 10
21.8910069876
 20
17.6680204955
 10
21.8303763458
 20
17.5422303341
 10
21.7611872601
 20
17.4261519224
 10
21.6837624474
 20
17.3203266819
 10
21.5984630383
 20
17.225248211
 10
21.5056868932
 20
17.1413599826
 10
21.4080541172
 20
17.0704644081
  0
LINE
  5
4E3
100
AcDbEntity
  8
RACCORDO
100
AcDbLine
 62
250
  6
CONTINUOUS
 10
19.3262301496
 20
24.2422236996
 11
19.7457733605
 21
23.5186186982
  0
LINE
  5
4E4
100
AcDbEntity
  8
RACCORDO
100
AcDbLine
 62
7
  6
CONTINUOUS
 10
19.7164945139
 20
24.2366138858
 11
20.0633322844
 21
23.6384072199
  0
LWPOLYLINE
  5
4E5
100
AcDbEntity
  8
RACCORDO
100
AcDbPolyline
 62
250
  6
CONTINUOUS
 90
13
 70
0
 10
19.7457733605
 20
23.5186186982
 10
19.7975426099
 20
23.4250381807
 10
19.8455859604
 20
23.3293187261
 10
19.8896976828
 20
23.2318702197
 10
19.9296888841
 20
23.1331099506
 10
19.9653883153
 20
23.0334608256
 10
19.9966431056
 20
22.9333495588
 10
20.0233194173
 20
22.8332048421
 10
20.0453030181
 20
22.7334555105
 10
20.0624997709
 20
22.6345287071
 10
20.0748360367
 20
22.5368480519
 10
20.0822589899
 20
22.4408318281
 10
20.0847368444
 20
22.3468911917
  0
LINE
  5
4E6
100
AcDbEntity
  8
RACCORDO
100
AcDbLine
 62
250
  6
CONTINUOUS
 10
19.3262301496
 20
24.2422236996
 11
18.5205582135
 21
24.6450596676
  0
LINE
  5
4E7
100
AcDbEntity
  8
RACCORDO
100
AcDbLine
 62
250
  6
CONTINUOUS
 10
13.8188951344
 20
26.9958912072
 11
12.8477363007
 21
27.481470624
  0
LINE
  5
4E8
100
AcDbEntity
  8
RACCORDO
100
AcDbLine
 62
7
  6
CONTINUOUS
 10
19.6565055271
 20
24.2929058037
 11
18.830746627
 21
24.7057852538
  0
LINE
  5
4E9
100
AcDbEntity
  8
RACCORDO
100
AcDbLine
 62
7
  6
CONTINUOUS
 10
14.2914779059
 20
26.9754196143
 11
13.2391218932
 21
27.5015976207
  0
LWPOLYLINE
  5
4EA
100
AcDbEntity
  8
RACCORDO
100
AcDbPolyline
 62
7
  6
CONTINUOUS
 90
4
 70
0
 10
19.658431079
 20
24.2919428304
 10
19.6720745551
 20
24.2841280886
 10
19.6956102516
 20
24.2647558101
 10
19.7157883944
 20
24.2378779786
  0
LWPOLYLINE
  5
4EB
100
AcDbEntity
  8
RACCORDO
100
AcDbPolyline
 62
250
  6
CONTINUOUS
 90
12
 70
0
 10
20.0633322844
 20
23.6384072199
 10
20.0619731478
 20
23.6400043339
 10
20.0540542297
 20
23.642525937
 10
20.0404096372
 20
23.6416571279
 10
20.0211409205
 20
23.6374043725
 10
19.9963914876
 20
23.6297993222
 10
19.9663455365
 20
23.6188985777
 10
19.9312266851
 20
23.604783268
 10
19.8912963061
 20
23.5875584469
 10
19.8468515821
 20
23.5673523106
 10
19.7982232942
 20
23.5443152436
 10
19.7457733595
 20
23.5186186999
  0
ELLIPSE
  5
4EC
100
AcDbEntity
  8
RACCORDO
100
AcDbEllipse
 62
7
  6
CONTINUOUS
 10
0.406109671
 20
-21.3898780008
 30
0.0
 11
-0.1999840611
 21
0.4586318226
 31
0.0
 40
0.6372798266
 41
-3.1718451134
 42
-2.2231487507
  0
ELLIPSE
  5
4ED
100
AcDbEntity
  8
RACCORDO
100
AcDbEllipse
 62
7
  6
CONTINUOUS
 10
2.0048041182
 20
16.7701979528
 30
0.0
 11
-0.1996736685
 21
0.4584064956
 31
0.0
 40
0.6381227599
 41
-2.2220345828
 42
-0.6519234887
  0
ELLIPSE
  5
4EE
100
AcDbEntity
  8
RACCORDO
100
AcDbEllipse
 62
7
  6
CONTINUOUS
 10
-12.8441958958
 20
24.1946979598
 30
0.0
 11
-0.1999840611
 21
0.4586318226
 31
0.0
 40
0.6372798266
 41
-0.6516671913
 42
0.029873806
  0
ELLIPSE
  5
4EF
100
AcDbEntity
  8
DRAFT
100
AcDbEllipse
 62
7
  6
CONTINUOUS
 10
13.4362589229
 20
22.8860408834
 30
0.0
 11
2.7583300471
 21
-0.038763314
 31
0.0
 40
0.4892375088
 41
0.4291477653
 42
0.6564870977
  0
ELLIPSE
  5
4F0
100
AcDbEntity
  8
DRAFT
100
AcDbEllipse
 62
7
  6
CONTINUOUS
 10
12.7645074808
 20
22.9975385674
 30
0.0
 11
2.7499350056
 21
-0.0386453369
 31
0.0
 40
0.4892375088
 41
8.654981679
 42
9.2672200839
  0
ELLIPSE
  5
4F1
100
AcDbEntity
  8
DRAFT
100
AcDbEllipse
 62
7
  6
CONTINUOUS
 10
13.4362589229
 20
22.8860408834
 30
0.0
 11
2.7583300471
 21
-0.038763314
 31
0.0
 40
0.4892375088
 41
0.9280596999
 42
2.3630697256
  0
ELLIPSE
  5
4F2
100
AcDbEntity
  8
RACCORDO
100
AcDbEllipse
 62
7
  6
CONTINUOUS
 10
18.141973154
 20
24.0439414004
 30
0.0
 11
0.716172246
 21
0.6416715914
 31
0.0
 40
0.2882345029
 41
0.1142323894
 42
0.7807533904
  0
ELLIPSE
  5
4F3
100
AcDbEntity
  8
DRAFT
100
AcDbEllipse
 62
7
  6
CONTINUOUS
 10
13.4362589229
 20
24.8307515946
 30
0.0
 11
2.7583515655
 21
-1.4175703156
 31
0.0
 40
0.0109499087
 41
-0.9155571536
 42
-0.85781018
  0
ELLIPSE
  5
4F4
100
AcDbEntity
  8
DRAFT
100
AcDbEllipse
 62
7
  6
CONTINUOUS
 10
13.4362589229
 20
24.8307515946
 30
0.0
 11
2.7583515655
 21
-1.4175703156
 31
0.0
 40
0.0109499087
 41
-0.7017315251
 42
-0.6439845515
  0
ELLIPSE
  5
4F5
100
AcDbEntity
  8
DRAFT
100
AcDbEllipse
 62
7
  6
CONTINUOUS
 10
13.4362589229
 20
23.3190535852
 30
0.0
 11
2.7583300471
 21
-0.038763314
 31
0.0
 40
0.4892375088
 41
0.1708839954
 42
2.3630697256
  0
ELLIPSE
  5
4F6
100
AcDbEntity
  8
RACCORDO
100
AcDbEllipse
 62
7
  6
CONTINUOUS
 10
14.175266907
 20
26.0272945239
 30
0.0
 11
-0.2796057293
 21
0.9974617846
 31
0.0
 40
0.6760995073
 41
4.8467711056
 42
6.4001141399
  0
ELLIPSE
  5
4F7
100
AcDbEntity
  8
0
100
AcDbEllipse
 62
7
  6
CONTINUOUS
 10
12.7407686618
 20
24.1793007
 30
0.0
 11
3.3311333813
 21
-0.0467042088
 31
0.0
 40
0.4892378494
 41
2.3616770883
 42
5.5059722822
  0
ELLIPSE
  5
4F8
100
AcDbEntity
  8
ASSI
100
AcDbEllipse
 62
7
  6
CONTINUOUS
 10
4.5496723682
 20
-19.5664159315
 30
0.0
 11
-0.2237009107
 21
0.4473351135
 31
0.0
 40
0.6121897086
 41
-3.1230684064
 42
-2.2557347926
  0
ELLIPSE
  5
4F9
100
AcDbEntity
  8
ASSI
100
AcDbEllipse
 62
7
  6
CONTINUOUS
 10
4.5496723682
 20
18.335131775
 30
0.0
 11
-0.2235807756
 21
0.4472283268
 31
0.0
 40
0.6125552124
 41
-2.255296188
 42
-0.6848044477
  0
ELLIPSE
  5
4FA
100
AcDbEntity
  8
ASSI
100
AcDbEllipse
 62
7
  6
CONTINUOUS
 10
1.1233170562
 20
18.5734075837
 30
0.0
 11
0.2497264901
 21
-0.0900037588
 31
0.0
 40
0.1298948903
 41
-2.3094133153
 42
-0.756070281
  0
ELLIPSE
  5
4FB
100
AcDbEntity
  8
ASSI
100
AcDbEllipse
 62
7
  6
CONTINUOUS
 10
0.9297527701
 20
18.6701897267
 30
0.0
 11
0.2497264901
 21
-0.0900037588
 31
0.0
 40
0.1298948903
 41
-3.0936186356
 42
-2.3094133153
  0
ELLIPSE
  5
4FC
100
AcDbEntity
  8
ASSI
100
AcDbEllipse
 62
7
  6
CONTINUOUS
 10
-11.463183649
 20
24.8666579362
 30
0.0
 11
0.2497264901
 21
-0.0900037588
 31
0.0
 40
0.1298948903
 41
-2.3094133153
 42
-0.756070281
  0
ELLIPSE
  5
4FD
100
AcDbEntity
  8
ASSI
100
AcDbEllipse
 62
7
  6
CONTINUOUS
 10
-11.656747935
 20
24.9634400793
 30
0.0
 11
0.2497264901
 21
-0.0900037588
 31
0.0
 40
0.1298948903
 41
-3.0936186356
 42
-2.3094133153
  0
ELLIPSE
  5
4FE
100
AcDbEntity
  8
ASSI
100
AcDbEllipse
 62
7
  6
CONTINUOUS
 10
9.8003118135
 20
22.1966359058
 30
0.0
 11
0.4349639225
 21
0.9005141702
 31
0.0
 40
0.6016116119
 41
-0.8943064336
 42
-0.6381625531
  0
ELLIPSE
  5
4FF
100
AcDbEntity
  8
ASSI
100
AcDbEllipse
 62
7
  6
CONTINUOUS
 10
9.8003118135
 20
-14.5364238839
 30
0.0
 11
0.4349639225
 21
0.9005141702
 31
0.0
 40
0.6016116119
 41
-1.150450314
 42
-0.9391738336
  0
ELLIPSE
  5
500
100
AcDbEntity
  8
ASSI
100
AcDbEllipse
 62
7
  6
CONTINUOUS
 10
9.9759610651
 20
-14.6242485097
 30
0.0
 11
0.9927147821
 21
0.620457446
 31
0.0
 40
0.0764819879
 41
-2.3927159682
 42
-1.0955168143
  0
ELLIPSE
  5
501
100
AcDbEntity
  8
ASSI
100
AcDbEllipse
 62
7
  6
CONTINUOUS
 10
-1.7710622425
 20
27.9823229338
 30
0.0
 11
1.004787277
 21
0.6140102217
 31
0.0
 40
0.0864918533
 41
0.0543763766
 42
0.7212730538
  0
ELLIPSE
  5
502
100
AcDbEntity
  8
ASSI
100
AcDbEllipse
 62
7
  6
CONTINUOUS
 10
-3.7604444324
 20
24.0555234684
 30
0.0
 11
-0.1172693628
 21
0.2208586762
 31
0.0
 40
0.5994421146
 41
-2.2699607138
 42
-0.6994689735
  0
ELLIPSE
  5
503
100
AcDbEntity
  8
ASSI
100
AcDbEllipse
 62
7
  6
CONTINUOUS
 10
5.3870997821
 20
74.9409317127
 30
0.0
 11
3.5378457856
 21
99.5794032239
 31
0.0
 40
0.0069684374
 41
4.1704972465
 42
4.1714623644
  0
ELLIPSE
  5
504
100
AcDbEntity
  8
ASSI
100
AcDbEllipse
 62
7
  6
CONTINUOUS
 10
-2.2520955685
 20
23.3013490364
 30
0.0
 11
-0.1174113663
 21
0.2209958577
 31
0.0
 40
0.5985429242
 41
-0.6989839728
 42
-0.0337839605
  0
ELLIPSE
  5
505
100
AcDbEntity
  8
ASSI
100
AcDbEllipse
 62
7
  6
CONTINUOUS
 10
3.1962653421
 20
23.7070418278
 30
0.0
 11
1.000203771
 21
-0.0143477891
 31
0.0
 40
0.4891226537
 41
-0.7775824994
 42
-0.0140546088
  0
ELLIPSE
  5
506
100
AcDbEntity
  8
0
100
AcDbEllipse
 62
7
  6
CONTINUOUS
 10
0.4254456709
 20
17.983644857
 30
0.0
 11
-0.0888806443
 21
0.1794588445
 31
0.0
 40
0.6133070172
 41
-2.0943865177
 42
-0.6816034901
  0
ELLIPSE
  5
507
100
AcDbEntity
  8
ASSI
100
AcDbEllipse
 62
7
  6
CONTINUOUS
 10
-0.4230339883
 20
77.8459985979
 30
0.0
 11
0.7093717925
 21
100.9935570733
 31
0.0
 40
0.0069790045
 41
-2.1156864167
 42
-2.111971229
  0
ELLIPSE
  5
508
100
AcDbEntity
  8
ASSI
100
AcDbEllipse
 62
7
  6
CONTINUOUS
 10
-0.4230339883
 20
25.0080489491
 30
0.0
 11
1.0
 21
-0.0
 31
0.0
 40
0.5003427338
 41
0.7857407797
 42
1.3334966153
  0
ELLIPSE
  5
509
100
AcDbEntity
  8
ASSI
100
AcDbEllipse
 62
7
  6
CONTINUOUS
 10
-0.4230339883
 20
25.516691493
 30
0.0
 11
0.9999753489
 21
-0.014348771
 31
0.0
 40
0.4893460778
 41
1.5857281126
 42
2.3628734463
  0
ELLIPSE
  5
50A
100
AcDbEntity
  8
ASSI
100
AcDbEllipse
 62
7
  6
CONTINUOUS
 10
3.1749703611
 20
23.2090467744
 30
0.0
 11
1.0006854676
 21
0.0
 31
0.0
 40
0.499657501
 41
0.4959893425
 42
0.7850555471
  0
ELLIPSE
  5
50B
100
AcDbEntity
  8
ASSI
100
AcDbEllipse
 62
7
  6
CONTINUOUS
 10
0.7237920331
 20
19.0485437911
 30
0.0
 11
0.249929385
 21
0.0111824824
 31
0.0
 40
0.5313301283
 41
3.1180383302
 42
3.9032222197
  0
ELLIPSE
  5
50C
100
AcDbEntity
  8
ASSI
100
AcDbEllipse
 62
7
  6
CONTINUOUS
 10
2.7434913555
 20
18.0386941299
 30
0.0
 11
0.249929385
 21
0.0111824824
 31
0.0
 40
0.5313301283
 41
-2.3799630874
 42
-0.8266200532
  0
ELLIPSE
  5
50D
100
AcDbEntity
  8
ASSI
100
AcDbEllipse
 62
7
  6
CONTINUOUS
 10
-9.8430093496
 20
24.3319444825
 30
0.0
 11
0.249929385
 21
0.0111824824
 31
0.0
 40
0.5313301283
 41
-2.3799630874
 42
-0.8266200532
  0
ELLIPSE
  5
50E
100
AcDbEntity
  8
ASSI
100
AcDbEllipse
 62
7
  6
CONTINUOUS
 10
-11.862708672
 20
25.3417941437
 30
0.0
 11
0.249929385
 21
0.0111824824
 31
0.0
 40
0.5313301283
 41
3.1180383322
 42
3.9032222197
  0
ELLIPSE
  5
50F
100
AcDbEntity
  8
ASSI
100
AcDbEllipse
 62
7
  6
CONTINUOUS
 10
2.7434913555
 20
-21.2033438993
 30
0.0
 11
0.220014872
 21
0.1791173313
 31
0.0
 40
0.6627826692
 41
-2.8510033574
 42
-2.6599685648
  0
ELLIPSE
  5
510
100
AcDbEntity
  8
ASSI
100
AcDbEllipse
 62
7
  6
CONTINUOUS
 10
1.1233170562
 20
-21.6003635308
 30
0.0
 11
0.220014872
 21
0.1791173313
 31
0.0
 40
0.6627826692
 41
-1.8038058062
 42
-1.2976603231
  0
ELLIPSE
  5
511
100
AcDbEntity
  8
ASSI
100
AcDbEllipse
 62
7
  6
CONTINUOUS
 10
-3.1770261141
 20
21.7138214516
 30
0.0
 11
0.199943508
 21
0.008945986
 31
0.0
 40
0.5313301283
 41
3.1180383302
 42
3.9032222197
  0
ELLIPSE
  5
512
100
AcDbEntity
  8
ASSI
100
AcDbEllipse
 62
7
  6
CONTINUOUS
 10
-0.886377717
 20
20.5684972531
 30
0.0
 11
0.199943508
 21
0.008945986
 31
0.0
 40
0.5313301283
 41
-2.3799630874
 42
-0.8266200532
  0
ELLIPSE
  5
513
100
AcDbEntity
  8
ASSI
100
AcDbEllipse
 62
7
  6
CONTINUOUS
 10
-4.5986883182
 20
22.4246525537
 30
0.0
 11
0.199943508
 21
0.008945986
 31
0.0
 40
0.5313301283
 41
-2.3799630874
 42
-0.8266200532
  0
ELLIPSE
  5
514
100
AcDbEntity
  8
ASSI
100
AcDbEllipse
 62
7
  6
CONTINUOUS
 10
-6.8893367153
 20
23.5699767523
 30
0.0
 11
0.199943508
 21
0.008945986
 31
0.0
 40
0.5313301283
 41
3.1180383322
 42
3.9032222197
  0
ELLIPSE
  5
515
100
AcDbEntity
  8
ASSI
100
AcDbEllipse
 62
7
  6
CONTINUOUS
 10
-12.2391770137
 20
24.908298057
 30
0.0
 11
-0.2236507175
 21
0.4481039483
 31
0.0
 40
0.6114248242
 41
-0.6832297371
 42
0.8861965936
  0
ELLIPSE
  5
516
100
AcDbEntity
  8
ASSI
100
AcDbEllipse
 62
7
  6
CONTINUOUS
 10
2.7664063066
 20
17.4055063969
 30
0.0
 11
-0.2231080361
 21
0.4476242326
 31
0.0
 40
0.6130677323
 41
-2.2534169372
 42
-0.6839906064
  0
ELLIPSE
  5
517
100
AcDbEntity
  8
ASSI
100
AcDbEllipse
 62
7
  6
CONTINUOUS
 10
2.7664063066
 20
-20.3890583977
 30
0.0
 11
-0.2236507175
 21
0.4481039483
 31
0.0
 40
0.6114248242
 41
2.4583629164
 42
4.0277892472
  0
ELLIPSE
  5
518
100
AcDbEntity
  8
0
100
AcDbEllipse
 62
7
  6
CONTINUOUS
 10
-9.898216378
 20
23.1454758814
 30
0.0
 11
-0.0892456481
 21
0.1797773143
 31
0.0
 40
0.6105754279
 41
5.6028239993
 42
7.0156070268
  0
ELLIPSE
  5
519
100
AcDbEntity
  8
ASSI
100
AcDbEllipse
 62
7
  6
CONTINUOUS
 10
15.5530951082
 20
29.6352269714
 30
0.0
 11
18.2927339069
 21
9.4748417608
 31
0.0
 40
0.0170707209
 41
-2.6536573066
 42
-2.3141694431
  0
ELLIPSE
  5
51A
100
AcDbEntity
  8
ASSI
100
AcDbEllipse
 62
7
  6
CONTINUOUS
 10
15.5530951082
 20
29.6352269714
 30
0.0
 11
18.2927339069
 21
9.4748417608
 31
0.0
 40
0.0170707209
 41
2.2964861198
 42
2.6359739833
  0
ELLIPSE
  5
51B
100
AcDbEntity
  8
ASSI
100
AcDbEllipse
 62
7
  6
CONTINUOUS
 10
2.3691177875
 20
26.1877583414
 30
0.0
 11
0.2002571891
 21
-0.0481060446
 31
0.0
 40
0.261363135
 41
-0.7257858084
 42
0.0669778862
  0
ELLIPSE
  5
51C
100
AcDbEntity
  8
RACCORDO
100
AcDbEllipse
 62
7
  6
CONTINUOUS
 10
0.8496127833
 20
-15.9484533059
 30
0.0
 11
-0.2685822327
 21
0.5369844567
 31
0.0
 40
0.6119614214
 41
-3.1700942144
 42
-2.2560086979
  0
ELLIPSE
  5
51D
100
AcDbEntity
  8
ASSI
100
AcDbEllipse
 62
7
  6
CONTINUOUS
 10
1.1233170562
 20
-20.9745305059
 30
0.0
 11
0.220014872
 21
0.1791173313
 31
0.0
 40
0.6627826692
 41
-2.8510033574
 42
-1.2976603231
  0
ELLIPSE
  5
51E
100
AcDbEntity
  8
ASSI
100
AcDbEllipse
 62
7
  6
CONTINUOUS
 10
9.9759610651
 20
22.10881128
 30
0.0
 11
-0.7356038977
 21
1.2035991204
 31
0.0
 40
0.5552491559
 41
4.9268361304
 42
6.2240352843
  0
ENDSEC
  0
SECTION
  2
OBJECTS
  0
DICTIONARY
  5
C
100
AcDbDictionary
280
0
281
1
  3
ACAD_GROUP
350
D
  3
ACAD_MLINESTYLE
350
17
  3
ACAD_LAYOUT
350
1A
  3
ACAD_PLOTSETTINGS
350
19
  3
ACAD_PLOTSTYLENAME
350
E
  0
DICTIONARY
  5
D
102
{ACAD_REACTORS
330
C
102
}
100
AcDbDictionary
280
0
281
1
  0
ACDBDICTIONARYWDFLT
  5
E
102
{ACAD_REACTORS
330
C
102
}
100
AcDbDictionary
281
1
  3
Normal
350
F
100
AcDbDictionaryWithDefault
340
F
  0
DICTIONARY
  5
17
102
{ACAD_REACTORS
330
C
102
}
100
AcDbDictionary
280
0
281
1
  3
Standard
350
18
  0
DICTIONARY
  5
19
102
{ACAD_REACTORS
330
C
102
}
100
AcDbDictionary
281
1
  0
DICTIONARY
  5
1A
102
{ACAD_REACTORS
330
C
102
}
100
AcDbDictionary
281
1
  3
Model
350
51F
  3
Layout1
350
520
  0
ACDBPLACEHOLDER
  5
F
102
{ACAD_REACTORS
330
E
102
}
  0
MLINESTYLE
  5
18
102
{ACAD_REACTORS
330
17
102
}
100
AcDbMlineStyle
  2
STANDARD
 70
0
  3

 62
256
 51
90.0
 52
90.0
 71
2
 49
0.5
 62
256
  6
BYLAYER
 49
-0.5
 62
256
  6
BYLAYER
  0
LAYOUT
  5
51F
102
{ACAD_REACTORS
330
1A
102
}
100
AcDbPlotSettings
  1

  2
none_device
  4
ISO_A4_(297.00_x_210.00_MM)
  6

 40
0.0
 41
0.0
 42
0.0
 43
0.0
 44
297.0
 45
210.0
 46
0.0
 47
0.0
 48
0.0
 49
0.0
140
0.0
141
0.0
142
1.0
143
1.0
 70
1024
 72
1
 73
0
 74
0
  7

 75
0
147
1.0
148
0.0
149
0.0
100
AcDbLayout
  1
Model
 70
0
 71
0
 10
0.0
 20
0.0
 11
297.0
 21
210.0
 12
0.0
 22
0.0
 32
0.0
 14
0.0
 24
0.0
 34
0.0
 15
0.0
 25
0.0
 35
0.0
146
0.0
 13
0.0
 23
0.0
 33
0.0
 16
1.0
 26
0.0
 36
0.0
 17
0.0
 27
1.0
 37
0.0
 76
0
330
223
345
0
346
0
  0
LAYOUT
  5
520
102
{ACAD_REACTORS
330
1A
102
}
100
AcDbPlotSettings
  1

  2
none_device
  4
ISO_A4_(297.00_x_210.00_MM)
  6

 40
0.0
 41
0.0
 42
0.0
 43
0.0
 44
297.0
 45
210.0
 46
0.0
 47
0.0
 48
0.0
 49
0.0
140
0.0
141
0.0
142
1.0
143
1.0
 70
0
 72
1
 73
0
 74
0
  7

 75
0
147
1.0
148
0.0
149
0.0
100
AcDbLayout
  1
Layout1
 70
0
 71
1
 10
0.0
 20
0.0
 11
297.0
 21
210.0
 12
0.0
 22
0.0
 32
0.0
 14
0.0
 24
0.0
 34
0.0
 15
0.0
 25
0.0
 35
0.0
146
0.0
 13
0.0
 23
0.0
 33
0.0
 16
1.0
 26
0.0
 36
0.0
 17
0.0
 27
1.0
 37
0.0
 76
0
330
224
345
0
346
0
  0
ENDSEC
  0
EOF
