  0
SECTION
  2
HEADER
  9
$ACADVER
  1
AC1024
  9
$DWGCODEPAGE
  3
ANSI_1252
  9
$EXTMAX
 10
297.0
 20
210.0
 30
0.0
  9
$EXTMIN
 10
0.0
 20
0.0
 30
0.0
  9
$LIMMIN
 10
0.0
 20
0.0
  9
$LIMMAX
 10
297.0
 20
210.0
  9
$VIEWCTR
 10
148.5
 20
105.0
  9
$VIEWSIZE
 40
210.0
  9
$CLAYER
  8
0
  9
$LTSCALE
 40
16.335
  9
$CELTYPE
  6
BYLAYER
  9
$DIMSCALE
 40
1.0
  9
$DIMASZ
 40
3.0
  9
$DIMEXO
 40
0.5
  9
$DIMDLI
 40
11.286
  9
$DIMEXE
 40
1.5
  9
$DIMCEN
 40
2.673
  9
$DIMLFAC
 40
1.0
  9
$DIMBLK
  1
_FILLED
  9
$DIMALT
 70
0
  9
$DIMALTF
 40
0.0393700787
  9
$DIMTXT
 40
3.0
  9
$DIMTOL
 70
1
  9
$DIMLIM
 70
0
  9
$DIMTFAC
 40
1.0
  9
$DIMTP
 40
0.01
  9
$DIMTM
 40
0.01
  9
$DIMGAP
 40
0.625
  9
$DIMDSEP
 70
44
  9
$AUNITS
 70
0
  9
$PDMODE
 70
3
  9
$PDSIZE
 40
3.0
  9
$HANDSEED
  5
595
  9
$TILEMODE
 70
1
  9
$MEASUREMENT
 70
1
  9
$INSUNITS
 70
4
  0
ENDSEC
  0
SECTION
  2
CLASSES
  0
CLASS
  1
ACDBDICTIONARYWDFLT
  2
AcDbDictionaryWithDefault
  3
AutoCAD 2000
 90
0
 91
1
280
0
281
0
  0
CLASS
  1
ACDBPLACEHOLDER
  2
AcDbPlaceHolder
  3
AutoCAD 2000
 90
0
 91
1
280
0
281
0
  0
CLASS
  1
LAYOUT
  2
AcDbLayout
  3
AutoCAD 2000
 90
0
 91
0
280
0
281
0
  0
ENDSEC
  0
SECTION
  2
TABLES
  0
TABLE
  2
VPORT
  5
8
100
AcDbSymbolTable
 70
2
  0
VPORT
  5
1F4
100
AcDbSymbolTableRecord
100
AcDbViewportTableRecord
  2
*ACTIVE
 70
0
 10
0.0
 20
0.0
 11
1.0
 21
1.0
 12
148.5
 22
105.0
 13
0.0
 23
0.0
 14
1.0
 24
1.0
 15
0.0
 25
0.0
 16
0.0
 26
0.0
 36
1.0
 17
0.0
 27
0.0
 37
0.0
 40
210.0
 41
1.4142857143
 42
50.0
 43
0.0
 44
0.0
 50
0.0
 51
0.0
 71
0
 72
100
 73
1
 74
1
 75
0
 76
0
 77
0
 78
0
  0
ENDTAB
  0
TABLE
  2
LTYPE
  5
5
100
AcDbSymbolTable
 70
6
  0
LTYPE
  5
14
100
AcDbSymbolTableRecord
100
AcDbLinetypeTableRecord
  2
BYBLOCK
 70
0
  3

 72
65
 73
0
 40
0.0
  0
LTYPE
  5
15
100
AcDbSymbolTableRecord
100
AcDbLinetypeTableRecord
  2
BYLAYER
 70
0
  3

 72
65
 73
0
 40
0.0
  0
LTYPE
  5
16
100
AcDbSymbolTableRecord
100
AcDbLinetypeTableRecord
  2
CONTINUOUS
 70
64
  3
Solid line
 72
65
 73
0
 40
0.0
  0
LTYPE
  5
1F5
100
AcDbSymbolTableRecord
100
AcDbLinetypeTableRecord
  2
CENTER
 70
64
  3
____ _ ____ _ ____ _ ____ _ ____ _ ____ _ ____
 72
65
 73
4
 40
0.6
 49
0.375
 74
0
 49
-0.075
 74
0
 49
0.075
 74
0
 49
-0.075
 74
0
  0
LTYPE
  5
1F6
100
AcDbSymbolTableRecord
100
AcDbLinetypeTableRecord
  2
HIDDEN
 70
64
  3
- - - - - - - - - - - - - - - - - - - -
 72
65
 73
2
 40
0.2
 49
0.1
 74
0
 49
-0.1
 74
0
  0
LTYPE
  5
1F7
100
AcDbSymbolTableRecord
100
AcDbLinetypeTableRecord
  2
PHANTOM
 70
64
  3
_____ _ _ _____ _ _ _____ _ _ _____
 72
65
 73
6
 40
0.8
 49
0.45
 74
0
 49
-0.05
 74
0
 49
0.1
 74
0
 49
-0.05
 74
0
 49
0.1
 74
0
 49
-0.05
 74
0
  0
LTYPE
  5
1F8
100
AcDbSymbolTableRecord
100
AcDbLinetypeTableRecord
  2
DOT
 70
64
  3
. . . . . . . . . . . . . . . . . . . .
 72
65
 73
2
 40
0.2
 49
0.1
 74
0
 49
-0.1
 74
0
  0
LTYPE
  5
1F9
100
AcDbSymbolTableRecord
100
AcDbLinetypeTableRecord
  2
DASHED
 70
64
  3
- - - - - - - - - - - - - - - - - - - -
 72
65
 73
2
 40
0.2
 49
0.1
 74
0
 49
-0.1
 74
0
  0
ENDTAB
  0
TABLE
  2
LAYER
  5
2
100
AcDbSymbolTable
 70
36
  0
LAYER
  5
10
100
AcDbSymbolTableRecord
100
AcDbLayerTableRecord
  2
0
 70
0
 62
7
  6
CONTINUOUS
370
-3
390
F
  0
LAYER
  5
1FA
100
AcDbSymbolTableRecord
100
AcDbLayerTableRecord
  2
DEFAULT_1
 70
0
 62
7
  6
CENTER
370
-3
390
F
  0
LAYER
  5
1FB
100
AcDbSymbolTableRecord
100
AcDbLayerTableRecord
  2
DEFAULT_2
 70
0
 62
7
  6
HIDDEN
370
-3
390
F
  0
LAYER
  5
1FC
100
AcDbSymbolTableRecord
100
AcDbLayerTableRecord
  2
DEFAULT_3
 70
0
 62
7
  6
PHANTOM
370
-3
390
F
  0
LAYER
  5
1FD
100
AcDbSymbolTableRecord
100
AcDbLayerTableRecord
  2
ASSI
 70
0
 62
7
  6
CONTINUOUS
370
-3
390
F
  0
LAYER
  5
1FE
100
AcDbSymbolTableRecord
100
AcDbLayerTableRecord
  2
COLORE_TOP
 70
0
 62
7
  6
CONTINUOUS
370
-3
390
F
  0
LAYER
  5
1FF
100
AcDbSymbolTableRecord
100
AcDbLayerTableRecord
  2
COORDINATE
 70
0
 62
7
  6
CONTINUOUS
370
-3
390
F
  0
LAYER
  5
200
100
AcDbSymbolTableRecord
100
AcDbLayerTableRecord
  2
COORD_ORIGINE
 70
0
 62
7
  6
CONTINUOUS
370
-3
390
F
  0
LAYER
  5
201
100
AcDbSymbolTableRecord
100
AcDbLayerTableRecord
  2
COPY_PUBLISH
 70
0
 62
7
  6
CONTINUOUS
370
-3
390
F
  0
LAYER
  5
202
100
AcDbSymbolTableRecord
100
AcDbLayerTableRecord
  2
COSMETIC
 70
0
 62
7
  6
CONTINUOUS
370
-3
390
F
  0
LAYER
  5
203
100
AcDbSymbolTableRecord
100
AcDbLayerTableRecord
  2
COSMETICHE
 70
0
 62
7
  6
CONTINUOUS
370
-3
390
F
  0
LAYER
  5
204
100
AcDbSymbolTableRecord
100
AcDbLayerTableRecord
  2
COSMETICI
 70
0
 62
7
  6
CONTINUOUS
370
-3
390
F
  0
LAYER
  5
205
100
AcDbSymbolTableRecord
100
AcDbLayerTableRecord
  2
CURVE
 70
0
 62
7
  6
CONTINUOUS
370
-3
390
F
  0
LAYER
  5
206
100
AcDbSymbolTableRecord
100
AcDbLayerTableRecord
  2
DRAFT
 70
0
 62
7
  6
CONTINUOUS
370
-3
390
F
  0
LAYER
  5
207
100
AcDbSymbolTableRecord
100
AcDbLayerTableRecord
  2
IMPIANTO
 70
0
 62
7
  6
CONTINUOUS
370
-3
390
F
  0
LAYER
  5
208
100
AcDbSymbolTableRecord
100
AcDbLayerTableRecord
  2
IMPORTED
 70
0
 62
7
  6
CONTINUOUS
370
-3
390
F
  0
LAYER
  5
209
100
AcDbSymbolTableRecord
100
AcDbLayerTableRecord
  2
IMPORT_IGES
 70
0
 62
7
  6
CONTINUOUS
370
-3
390
F
  0
LAYER
  5
20A
100
AcDbSymbolTableRecord
100
AcDbLayerTableRecord
  2
INCISIONI_LASER
 70
0
 62
7
  6
CONTINUOUS
370
-3
390
F
  0
LAYER
  5
20B
100
AcDbSymbolTableRecord
100
AcDbLayerTableRecord
  2
INTFCLR_11
 70
0
 62
7
  6
CONTINUOUS
370
-3
390
F
  0
LAYER
  5
20C
100
AcDbSymbolTableRecord
100
AcDbLayerTableRecord
  2
INTFCLR_3
 70
0
 62
7
  6
CONTINUOUS
370
-3
390
F
  0
LAYER
  5
20D
100
AcDbSymbolTableRecord
100
AcDbLayerTableRecord
  2
INTF_1
 70
0
 62
7
  6
CONTINUOUS
370
-3
390
F
  0
LAYER
  5
20E
100
AcDbSymbolTableRecord
100
AcDbLayerTableRecord
  2
INTF_11
 70
0
 62
7
  6
CONTINUOUS
370
-3
390
F
  0
LAYER
  5
20F
100
AcDbSymbolTableRecord
100
AcDbLayerTableRecord
  2
INTF_12
 70
0
 62
7
  6
CONTINUOUS
370
-3
390
F
  0
LAYER
  5
210
100
AcDbSymbolTableRecord
100
AcDbLayerTableRecord
  2
INTF_2
 70
0
 62
7
  6
CONTINUOUS
370
-3
390
F
  0
LAYER
  5
211
100
AcDbSymbolTableRecord
100
AcDbLayerTableRecord
  2
INTF_3
 70
0
 62
7
  6
CONTINUOUS
370
-3
390
F
  0
LAYER
  5
212
100
AcDbSymbolTableRecord
100
AcDbLayerTableRecord
  2
NOTE
 70
0
 62
7
  6
CONTINUOUS
370
-3
390
F
  0
LAYER
  5
213
100
AcDbSymbolTableRecord
100
AcDbLayerTableRecord
  2
PIANI
 70
0
 62
7
  6
CONTINUOUS
370
-3
390
F
  0
LAYER
  5
214
100
AcDbSymbolTableRecord
100
AcDbLayerTableRecord
  2
PIANI_ORIGINE
 70
0
 62
7
  6
CONTINUOUS
370
-3
390
F
  0
LAYER
  5
215
100
AcDbSymbolTableRecord
100
AcDbLayerTableRecord
  2
PIANI_SFORMO
 70
0
 62
7
  6
CONTINUOUS
370
-3
390
F
  0
LAYER
  5
216
100
AcDbSymbolTableRecord
100
AcDbLayerTableRecord
  2
PUNTI
 70
0
 62
7
  6
CONTINUOUS
370
-3
390
F
  0
LAYER
  5
217
100
AcDbSymbolTableRecord
100
AcDbLayerTableRecord
  2
RACCORDO
 70
0
 62
7
  6
CONTINUOUS
370
-3
390
F
  0
LAYER
  5
218
100
AcDbSymbolTableRecord
100
AcDbLayerTableRecord
  2
RGB__255__255__255__
 70
0
 62
7
  6
CONTINUOUS
370
-3
390
F
  0
LAYER
  5
219
100
AcDbSymbolTableRecord
100
AcDbLayerTableRecord
  2
RINTRACCIABILITA
 70
0
 62
7
  6
CONTINUOUS
370
-3
390
F
  0
LAYER
  5
21A
100
AcDbSymbolTableRecord
100
AcDbLayerTableRecord
  2
SIMBOLI
 70
0
 62
7
  6
CONTINUOUS
370
-3
390
F
  0
LAYER
  5
21B
100
AcDbSymbolTableRecord
100
AcDbLayerTableRecord
  2
SMUSSO
 70
0
 62
7
  6
CONTINUOUS
370
-3
390
F
  0
LAYER
  5
21C
100
AcDbSymbolTableRecord
100
AcDbLayerTableRecord
  2
SNAPLINE
 70
0
 62
7
  6
CONTINUOUS
370
-3
390
F
  0
LAYER
  5
21D
100
AcDbSymbolTableRecord
100
AcDbLayerTableRecord
  2
SUPERFICI
 70
0
 62
7
  6
CONTINUOUS
370
-3
390
F
  0
LAYER
  5
21E
100
AcDbSymbolTableRecord
100
AcDbLayerTableRecord
  2
TRASH
 70
0
 62
7
  6
CONTINUOUS
370
-3
390
F
  0
LAYER
  5
21F
100
AcDbSymbolTableRecord
100
AcDbLayerTableRecord
  2
XSEC_DATUMS
 70
0
 62
7
  6
CONTINUOUS
370
-3
390
F
  0
LAYER
  5
220
100
AcDbSymbolTableRecord
100
AcDbLayerTableRecord
  2
___SHELL
 70
0
 62
7
  6
CONTINUOUS
370
-3
390
F
  0
ENDTAB
  0
TABLE
  2
STYLE
  5
3
100
AcDbSymbolTable
 70
1
  0
STYLE
  5
11
100
AcDbSymbolTableRecord
100
AcDbTextStyleTableRecord
  2
STANDARD
 70
0
 40
0.0
 41
0.8
 50
0.0
 71
0
 42
0.2
  3
txt
  4

  0
STYLE
  5
221
100
AcDbSymbolTableRecord
100
AcDbTextStyleTableRecord
  2
TEXTSTYLE_1
 70
0
 40
0.0
 41
0.8
 50
0.0
 71
0
 42
0.2
  3
gdt
  4

  0
ENDTAB
  0
TABLE
  2
VIEW
  5
6
100
AcDbSymbolTable
 70
0
  0
ENDTAB
  0
TABLE
  2
UCS
  5
7
100
AcDbSymbolTable
 70
0
  0
ENDTAB
  0
TABLE
  2
APPID
  5
9
100
AcDbSymbolTable
 70
1
  0
APPID
  5
222
100
AcDbSymbolTableRecord
100
AcDbRegAppTableRecord
  2
ACAD
 70
0
  0
ENDTAB
  0
TABLE
  2
BLOCK_RECORD
  5
1
100
AcDbSymbolTable
 70
0
  0
BLOCK_RECORD
  5
223
100
AcDbSymbolTableRecord
100
AcDbBlockTableRecord
  2
*Model_Space
  0
BLOCK_RECORD
  5
224
100
AcDbSymbolTableRecord
100
AcDbBlockTableRecord
  2
*Paper_Space
  0
BLOCK_RECORD
  5
225
100
AcDbSymbolTableRecord
100
AcDbBlockTableRecord
  2
_FILLED
  0
ENDTAB
  0
TABLE
  2
DIMSTYLE
  5
A
100
AcDbSymbolTable
 70
1
100
AcDbDimStyleTable
 71
0
  0
DIMSTYLE
105
226
100
AcDbSymbolTableRecord
100
AcDbDimStyleTableRecord
  2
STANDARD
 70
0
  3

  4

 40
1.0
 41
3.0
 42
0.5
 43
0.38
 44
1.5
 45
0.0
 46
0.0
 47
0.01
 48
0.01
140
3.0
141
0.09
142
0.0
143
25.4
144
1.0
145
0.0
146
1.0
147
0.625
 71
1
 72
0
 73
0
 74
0
 75
0
 76
0
 77
1
 78
8
 79
2
170
0
171
1
172
0
173
0
174
0
175
0
176
0
177
0
178
0
270
2
179
2
271
2
272
2
273
2
274
2
275
0
280
0
281
0
282
0
283
1
284
8
285
0
286
0
287
3
288
0
340
11
278
44
341
225
342
225
343
225
344
225
  0
ENDTAB
  0
ENDSEC
  0
SECTION
  2
BLOCKS
  0
BLOCK
  5
20
100
AcDbEntity
  8
0
100
AcDbBlockBegin
  2
*Model_Space
 70
0
 10
0.0
 20
0.0
 30
0.0
  3
*Model_Space
  1

  0
ENDBLK
  5
21
100
AcDbEntity
  8
0
100
AcDbBlockEnd
  0
BLOCK
  5
1C
100
AcDbEntity
  8
0
100
AcDbBlockBegin
  2
*Paper_Space
 70
0
 10
0.0
 20
0.0
 30
0.0
  3
*Paper_Space
  1

  0
ENDBLK
  5
1D
100
AcDbEntity
  8
0
100
AcDbBlockEnd
  0
BLOCK
  5
227
100
AcDbEntity
  8
0
100
AcDbBlockBegin
  2
_FILLED
 70
64
 10
0.0
 20
0.0
  3
_FILLED
  1

  0
SOLID
  5
228
100
AcDbEntity
  8
0
  6
BYBLOCK
 62
0
100
AcDbTrace
 10
0.0
 20
0.0
 11
-1.0
 21
0.3166666667
 12
-1.0
 22
-0.3166666667
 13
-1.0
 23
-0.3166666667
  0
ENDBLK
  5
229
100
AcDbEntity
  8
0
  6
BYBLOCK
 62
0
100
AcDbBlockEnd
  0
ENDSEC
  0
SECTION
  2
ENTITIES
  0
LWPOLYLINE
  5
22A
100
AcDbEntity
  8
ASSI
100
AcDbPolyline
 62
7
  6
CONTINUOUS
 90
12
 70
0
 10
-13.2230599771
 20
26.584285339
 10
-13.2415836187
 20
26.573218922
 10
-13.2627930069
 20
26.5575775659
 10
-13.2826046741
 20
26.539503749
 10
-13.3007652277
 20
26.5191666728
 10
-13.3166165141
 20
26.4974055277
 10
-13.3304277911
 20
26.4739729031
 10
-13.3421479645
 20
26.448765509
 10
-13.3511948102
 20
26.4229773791
 10
-13.3575667483
 20
26.3969148034
 10
-13.361363907
 20
26.3699006147
 10
-13.362368128
 20
26.3471984692
  0
LINE
  5
22B
100
AcDbEntity
  8
ASSI
100
AcDbLine
 62
7
  6
CONTINUOUS
 10
-13.2232010899
 20
26.584210014
 11
-11.6560005995
 21
27.4297506328
  0
LINE
  5
22C
100
AcDbEntity
  8
ASSI
100
AcDbLine
 62
250
  6
CONTINUOUS
 10
-13.1307044688
 20
26.5801384691
 11
-11.5644537227
 21
27.4251666791
  0
LINE
  5
22D
100
AcDbEntity
  8
ASSI
100
AcDbLine
 62
7
  6
CONTINUOUS
 10
-11.6517927627
 20
27.4318565105
 11
-11.6559582662
 21
27.4297734726
  0
LWPOLYLINE
  5
22E
100
AcDbEntity
  8
ASSI
100
AcDbPolyline
 62
250
  6
CONTINUOUS
 90
7
 70
0
 10
-13.2230602337
 20
26.5842858164
 10
-13.2177609514
 20
26.5868692217
 10
-13.202294883
 20
26.5918116154
 10
-13.1855621429
 20
26.5936134745
 10
-13.167848922
 20
26.5922439807
 10
-13.149458181
 20
26.5877265574
 10
-13.1307044688
 20
26.5801384691
  0
LINE
  5
22F
100
AcDbEntity
  8
ASSI
100
AcDbLine
 62
250
  6
CONTINUOUS
 10
-11.5644537227
 20
27.4251666791
 11
-11.02172766
 21
27.6758155601
  0
LINE
  5
230
100
AcDbEntity
  8
ASSI
100
AcDbLine
 62
7
  6
CONTINUOUS
 10
-11.6517349228
 20
27.4318833005
 11
-11.1078335645
 21
27.6830745463
  0
LWPOLYLINE
  5
231
100
AcDbEntity
  8
ASSI
100
AcDbPolyline
 62
250
  6
CONTINUOUS
 90
14
 70
0
 10
-11.02172766
 20
27.6758155601
 10
-11.0131647605
 20
27.6796319239
 10
-11.00438313
 20
27.6830182255
 10
-10.9954077465
 20
27.6859195125
 10
-10.98624595
 20
27.6882843515
 10
-10.9769522515
 20
27.6900479836
 10
-10.9676256091
 20
27.6911480617
 10
-10.9583028612
 20
27.6915416579
 10
-10.9490241347
 20
27.6911870464
 10
-10.9398904287
 20
27.690054197
 10
-10.9309408895
 20
27.6881202588
 10
-10.9222165675
 20
27.6853651836
 10
-10.9138120208
 20
27.6817974112
 10
-10.9126373496
 20
27.681220347
  0
LINE
  5
232
100
AcDbEntity
  8
ASSI
100
AcDbLine
 62
7
  6
CONTINUOUS
 10
-11.0847001555
 20
27.6922956037
 11
-11.1078334954
 21
27.6830743957
  0
LWPOLYLINE
  5
233
100
AcDbEntity
  8
ASSI
100
AcDbPolyline
 62
250
  6
CONTINUOUS
 90
6
 70
0
 10
-11.1078335645
 20
27.6830745463
 10
-11.091512261
 20
27.68839163
 10
-11.0750728809
 20
27.6900468173
 10
-11.057763313
 20
27.6884754981
 10
-11.0398796137
 20
27.683704546
 10
-11.02172766
 20
27.6758155601
  0
LWPOLYLINE
  5
234
100
AcDbEntity
  8
ASSI
100
AcDbPolyline
 62
250
  6
CONTINUOUS
 90
11
 70
0
 10
-13.2289908122
 20
26.4912535391
 10
-13.2202047223
 20
26.5028015808
 10
-13.2111020385
 20
26.5138421777
 10
-13.2017119247
 20
26.5243434818
 10
-13.1920639489
 20
26.5342740549
 10
-13.1821924974
 20
26.5436000448
 10
-13.1721334022
 20
26.5522890804
 10
-13.1619188889
 20
26.5603139138
 10
-13.1515840481
 20
26.5676473721
 10
-13.1411669019
 20
26.5742631732
 10
-13.1307044688
 20
26.5801384691
  0
LINE
  5
235
100
AcDbEntity
  8
ASSI
100
AcDbLine
 62
7
  6
CONTINUOUS
 10
-12.4017845211
 20
25.4659315473
 11
-12.3683211078
 21
25.4915130956
  0
LWPOLYLINE
  5
236
100
AcDbEntity
  8
RACCORDO
100
AcDbPolyline
 62
250
  6
CONTINUOUS
 90
20
 70
0
 10
-16.6764577957
 20
22.7335077022
 10
-16.7373660992
 20
22.6925349777
 10
-16.7974187752
 20
22.646737244
 10
-16.8563105344
 20
22.5963498583
 10
-16.9137758941
 20
22.5416437854
 10
-16.9695110518
 20
22.4828890529
 10
-17.0232128468
 20
22.420381465
 10
-17.0746310436
 20
22.3544611842
 10
-17.123492264
 20
22.2854624885
 10
-17.1695347051
 20
22.2137298096
 10
-17.2125467846
 20
22.1396430094
 10
-17.2523023281
 20
22.0635766248
 10
-17.2885871923
 20
21.985913722
 10
-17.3212343388
 20
21.9070624906
 10
-17.3500718516
 20
21.8274295804
 10
-17.3749472615
 20
21.7474103569
 10
-17.3957508006
 20
21.6674024051
 10
-17.4123772879
 20
21.5878089964
 10
-17.4247297752
 20
21.5090372321
 10
-17.4327415178
 20
21.4314882001
  0
LINE
  5
237
100
AcDbEntity
  8
ASSI
100
AcDbLine
 62
7
  6
CONTINUOUS
 10
-13.0097115047
 20
25.0904321459
 11
-12.6475051494
 21
25.305148867
  0
LINE
  5
238
100
AcDbEntity
  8
ASSI
100
AcDbLine
 62
250
  6
CONTINUOUS
 10
-12.7744580237
 20
25.0827756075
 11
-12.6475051494
 21
25.1580335496
  0
LWPOLYLINE
  5
239
100
AcDbEntity
  8
RACCORDO
100
AcDbPolyline
 62
7
  6
CONTINUOUS
 90
18
 70
0
 10
-16.7840881227
 20
22.8110198759
 10
-16.8624063225
 20
22.7681422589
 10
-16.9355425882
 20
22.7201958839
 10
-17.0070992756
 20
22.6652378754
 10
-17.0763444146
 20
22.6037037741
 10
-17.1416514813
 20
22.5371761489
 10
-17.2026575337
 20
22.4664411548
 10
-17.2596604851
 20
22.3914892966
 10
-17.3121793944
 20
22.313170598
 10
-17.3600554262
 20
22.232035197
 10
-17.403281405
 20
22.1482746171
 10
-17.4416518607
 20
22.0623881163
 10
-17.4750282764
 20
21.9747280713
 10
-17.5032296908
 20
21.885595137
 10
-17.5260472918
 20
21.7953704523
 10
-17.5432490392
 20
21.7043100184
 10
-17.5545722494
 20
21.6126977644
 10
-17.55636365
 20
21.5909182038
  0
LINE
  5
23A
100
AcDbEntity
  8
ASSI
100
AcDbLine
 62
250
  6
CONTINUOUS
 10
-11.0649904274
 20
25.5472814484
 11
-9.4430903008
 21
26.3644849681
  0
LINE
  5
23B
100
AcDbEntity
  8
ASSI
100
AcDbLine
 62
250
  6
CONTINUOUS
 10
-10.9235906104
 20
25.3034028391
 11
-9.3016904837
 21
26.1206063588
  0
LWPOLYLINE
  5
23C
100
AcDbEntity
  8
RACCORDO
100
AcDbPolyline
 62
250
  6
CONTINUOUS
 90
3
 70
0
 10
-16.55343609
 20
22.8002091359
 10
-16.6150377157
 20
22.7694584145
 10
-16.6764577957
 20
22.7335077022
  0
LINE
  5
23D
100
AcDbEntity
  8
ASSI
100
AcDbLine
 62
250
  6
CONTINUOUS
 10
-9.4430903008
 20
26.3644849681
 11
-8.9189858343
 21
26.6244446473
  0
LINE
  5
23E
100
AcDbEntity
  8
ASSI
100
AcDbLine
 62
250
  6
CONTINUOUS
 10
-9.3016904837
 20
26.1206063588
 11
-8.7775860172
 21
26.380566038
  0
LINE
  5
23F
100
AcDbEntity
  8
RACCORDO
100
AcDbLine
 62
7
  6
CONTINUOUS
 10
-13.5878444886
 20
24.3898346162
 11
-16.7841278543
 21
22.811009364
  0
LINE
  5
240
100
AcDbEntity
  8
RACCORDO
100
AcDbLine
 62
250
  6
CONTINUOUS
 10
-13.360724825
 20
24.3772699255
 11
-16.5534360664
 21
22.8002091476
  0
LWPOLYLINE
  5
241
100
AcDbEntity
  8
ASSI
100
AcDbPolyline
 62
250
  6
CONTINUOUS
 90
28
 70
0
 10
-8.7775860172
 20
26.380566038
 10
-8.7758823573
 20
26.3813728326
 10
-8.774149556
 20
26.3820692598
 10
-8.7723876133
 20
26.3826553197
 10
-8.7705856058
 20
26.3831413654
 10
-8.7687544569
 20
26.3835170438
 10
-8.7669269361
 20
26.383751295
 10
-8.7651024448
 20
26.3838395426
 10
-8.7632815816
 20
26.3837863631
 10
-8.7614989114
 20
26.3835744259
 10
-8.7597554391
 20
26.3831983239
 10
-8.7580501599
 20
26.3826634642
 10
-8.7564146243
 20
26.381968738
 10
-8.754851973
 20
26.3811101474
 10
-8.7533590653
 20
26.3800916902
 10
-8.7519580303
 20
26.3789242511
 10
-8.7506516612
 20
26.3776061828
 10
-8.7494371648
 20
26.3761391325
 10
-8.748328291
 20
26.3745389269
 10
-8.7473264209
 20
26.3728042136
 10
-8.7464301734
 20
26.370936345
 10
-8.7456491549
 20
26.3689552046
 10
-8.7449846413
 20
26.3668594844
 10
-8.7444353569
 20
26.3646504925
 10
-8.74400708
 20
26.3623520367
 10
-8.7437017368
 20
26.359972053
 10
-8.7435174012
 20
26.3575026055
 10
-8.7434540732
 20
26.3549436941
  0
LWPOLYLINE
  5
242
100
AcDbEntity
  8
ASSI
100
AcDbPolyline
 62
250
  6
CONTINUOUS
 90
14
 70
0
 10
-8.9189858343
 20
26.6244446473
 10
-8.9103956599
 20
26.6283278096
 10
-8.9016006404
 20
26.6317660753
 10
-8.8926262018
 20
26.6347061837
 10
-8.8834803976
 20
26.6370987605
 10
-8.8742174722
 20
26.6388810207
 10
-8.8649350848
 20
26.6399925551
 10
-8.8556697365
 20
26.6403930038
 10
-8.8464610714
 20
26.6400433125
 10
-8.8374081696
 20
26.6389158392
 10
-8.8285502517
 20
26.6369909188
 10
-8.8199258695
 20
26.6342513254
 10
-8.8116237942
 20
26.6307064518
 10
-8.8106523902
 20
26.6302278675
  0
LWPOLYLINE
  5
243
100
AcDbEntity
  8
ASSI
100
AcDbPolyline
 62
7
  6
CONTINUOUS
 90
12
 70
0
 10
-10.2041412344
 20
24.7406577668
 10
-10.2261739706
 20
24.7200130077
 10
-10.2500617622
 20
24.7007479137
 10
-10.2756290005
 20
24.6832553163
 10
-10.3028292508
 20
24.6679030571
 10
-10.3312438828
 20
24.6550496985
 10
-10.360058929
 20
24.6449811252
 10
-10.3888886065
 20
24.6378838396
 10
-10.4174371691
 20
24.6339362152
 10
-10.4449742465
 20
24.633195211
 10
-10.4710288247
 20
24.6355875401
 10
-10.4818362378
 20
24.6375775381
  0
LWPOLYLINE
  5
244
100
AcDbEntity
  8
ASSI
100
AcDbPolyline
 62
250
  6
CONTINUOUS
 90
13
 70
0
 10
-7.3912513814
 20
24.6863649063
 10
-7.4094831941
 20
24.6754099262
 10
-7.4273686408
 20
24.6617611562
 10
-7.44460845
 20
24.645646977
 10
-7.4609141532
 20
24.6273370223
 10
-7.4760129123
 20
24.6071376667
 10
-7.4896520843
 20
24.5853868999
 10
-7.5016034492
 20
24.5624486705
 10
-7.5116670286
 20
24.538706797
 10
-7.5196744318
 20
24.5145585447
 10
-7.5254916732
 20
24.4904079788
 10
-7.5290214149
 20
24.4666592033
 10
-7.5302045947
 20
24.4437095989
  0
LWPOLYLINE
  5
245
100
AcDbEntity
  8
ASSI
100
AcDbPolyline
 62
7
  6
CONTINUOUS
 90
12
 70
0
 10
-7.5065775344
 20
24.6916124209
 10
-7.5089409899
 20
24.6903191952
 10
-7.5291482196
 20
24.6776117022
 10
-7.5479269737
 20
24.6627156923
 10
-7.5650059512
 20
24.6458309059
 10
-7.5802750174
 20
24.6270308575
 10
-7.5935054254
 20
24.6065325368
 10
-7.6044939358
 20
24.5846241548
 10
-7.613165021
 20
24.5613998718
 10
-7.6194014446
 20
24.5370238558
 10
-7.6230730806
 20
24.5118215951
 10
-7.6241329892
 20
24.48885101
  0
LINE
  5
246
100
AcDbEntity
  8
ASSI
100
AcDbLine
 62
7
  6
CONTINUOUS
 10
-10.2041412344
 20
23.9824573207
 11
-9.3016904837
 21
24.4751317116
  0
LINE
  5
247
100
AcDbEntity
  8
ASSI
100
AcDbLine
 62
7
  6
CONTINUOUS
 10
-7.2948306601
 20
24.8058555901
 11
-7.5066254954
 21
24.6915874175
  0
LINE
  5
248
100
AcDbEntity
  8
ASSI
100
AcDbLine
 62
250
  6
CONTINUOUS
 10
-7.1803970641
 20
24.8001256479
 11
-7.3912513814
 21
24.6863649063
  0
LWPOLYLINE
  5
249
100
AcDbEntity
  8
ASSI
100
AcDbPolyline
 62
250
  6
CONTINUOUS
 90
9
 70
0
 10
-2.7778309577
 20
26.2782904854
 10
-2.751464575
 20
26.2923994778
 10
-2.7282894586
 20
26.3077722897
 10
-2.708554756
 20
26.3242410689
 10
-2.6924734064
 20
26.3416250323
 10
-2.6802150193
 20
26.3597365676
 10
-2.6719078447
 20
26.3783838965
 10
-2.6676423226
 20
26.3973682276
 10
-2.6670481758
 20
26.4090710814
  0
LWPOLYLINE
  5
24A
100
AcDbEntity
  8
ASSI
100
AcDbPolyline
 62
250
  6
CONTINUOUS
 90
31
 70
0
 10
-2.9514618973
 20
26.5789970343
 10
-2.9424615276
 20
26.5838086442
 10
-2.9346715569
 20
26.5889498748
 10
-2.9280919853
 20
26.594420726
 10
-2.9226728178
 20
26.6002899094
 10
-2.9184640494
 20
26.6064887135
 10
-2.915615665
 20
26.6128110034
 10
-2.914176561
 20
26.619258044
 10
-2.9140978409
 20
26.6258285703
 10
-2.9153828008
 20
26.6323126521
 10
-2.9180758511
 20
26.6387075235
 10
-2.9221325813
 20
26.6450159504
 10
-2.927423056
 20
26.6510363007
 10
-2.9339869791
 20
26.6567592841
 10
-2.9417846467
 20
26.6621941908
 10
-2.9505670119
 20
26.6671672597
 10
-2.9603659404
 20
26.6716635721
 10
-2.9711495665
 20
26.6756980466
 10
-2.9825732457
 20
26.6791416773
 10
-2.9946576586
 20
26.6819754303
 10
-3.0073821245
 20
26.6842183394
 10
-3.0203399569
 20
26.6857985006
 10
-3.0335387133
 20
26.686694419
 10
-3.0469708361
 20
26.6869275894
 10
-3.0602069666
 20
26.6864905918
 10
-3.0732418792
 20
26.6853614966
 10
-3.0860807994
 20
26.6835622333
 10
-3.0983100447
 20
26.6811511709
 10
-3.1097917208
 20
26.6781477657
 10
-3.1206637219
 20
26.6745325613
 10
-3.1309260481
 20
26.6703055579
  0
LINE
  5
24B
100
AcDbEntity
  8
ASSI
100
AcDbLine
 62
7
  6
CONTINUOUS
 10
-7.2947763672
 20
24.8058848279
 11
-7.2895683215
 21
24.8084892085
  0
LWPOLYLINE
  5
24C
100
AcDbEntity
  8
ASSI
100
AcDbPolyline
 62
250
  6
CONTINUOUS
 90
13
 70
0
 10
-7.5065764178
 20
24.6916138783
 10
-7.5012968873
 20
24.694248558
 10
-7.492659095
 20
24.6977241247
 10
-7.4836419962
 20
24.700371147
 10
-7.4742807178
 20
24.702179753
 10
-7.4646076504
 20
24.7031441223
 10
-7.4546579423
 20
24.7032609402
 10
-7.4444677109
 20
24.702529803
 10
-7.4340746051
 20
24.7009534473
 10
-7.4235174286
 20
24.6985381017
 10
-7.4128351376
 20
24.6952930383
 10
-7.4020666407
 20
24.6912302743
 10
-7.3912513814
 20
24.6863649063
  0
LINE
  5
24D
100
AcDbEntity
  8
ASSI
100
AcDbLine
 62
7
  6
CONTINUOUS
 10
-1.5863666148
 20
28.2414394392
 11
-8.6335547686
 21
24.8330541056
  0
LINE
  5
24E
100
AcDbEntity
  8
ASSI
100
AcDbLine
 62
250
  6
CONTINUOUS
 10
-6.2665421278
 20
24.9938088848
 11
-2.9514618973
 21
26.5789970343
  0
LINE
  5
24F
100
AcDbEntity
  8
ASSI
100
AcDbLine
 62
250
  6
CONTINUOUS
 10
-5.8742477572
 20
24.7976616995
 11
-2.7778309577
 21
26.2782904854
  0
LINE
  5
250
100
AcDbEntity
  8
ASSI
100
AcDbLine
 62
7
  6
CONTINUOUS
 10
-3.238830903
 20
26.6792539851
 11
-7.2894985643
 21
24.8085214246
  0
LINE
  5
251
100
AcDbEntity
  8
ASSI
100
AcDbLine
 62
250
  6
CONTINUOUS
 10
-3.1309260481
 20
26.6703055579
 11
-7.1803970641
 21
24.8001256479
  0
LINE
  5
252
100
AcDbEntity
  8
ASSI
100
AcDbLine
 62
7
  6
CONTINUOUS
 10
-3.2033696666
 20
26.6935684867
 11
-3.2389715055
 21
26.6791849827
  0
LINE
  5
253
100
AcDbEntity
  8
0
100
AcDbLine
 62
250
  6
CONTINUOUS
 10
-10.5435504714
 20
22.9686827487
 11
-10.3751068102
 21
23.0310178939
  0
LWPOLYLINE
  5
254
100
AcDbEntity
  8
ASSI
100
AcDbPolyline
 62
7
  6
CONTINUOUS
 90
3
 70
0
 10
-7.2895683215
 20
24.8084892085
 10
-7.2687714836
 20
24.8153170501
 10
-7.2480378616
 20
24.8174705393
  0
LWPOLYLINE
  5
255
100
AcDbEntity
  8
ASSI
100
AcDbPolyline
 62
7
  6
CONTINUOUS
 90
6
 70
0
 10
-12.4415420909
 20
25.4275935655
 10
-12.4397457935
 20
25.431273572
 10
-12.4345201678
 20
25.4374653675
 10
-12.4263229585
 20
25.4458056958
 10
-12.4153505079
 20
25.4553674884
 10
-12.4017845211
 20
25.4659315473
  0
LWPOLYLINE
  5
256
100
AcDbEntity
  8
ASSI
100
AcDbPolyline
 62
250
  6
CONTINUOUS
 90
7
 70
0
 10
-8.7491357346
 20
25.9122647585
 10
-8.7481526703
 20
25.9136130222
 10
-8.7453352828
 20
25.9209789717
 10
-8.7452143503
 20
25.9303245701
 10
-8.7477919192
 20
25.9414916809
 10
-8.7530243745
 20
25.9542913458
 10
-8.7608231779
 20
25.968506982
  0
LWPOLYLINE
  5
257
100
AcDbEntity
  8
ASSI
100
AcDbPolyline
 62
7
  6
CONTINUOUS
 90
6
 70
0
 10
-8.7491609727
 20
25.9122338165
 10
-8.7396861703
 20
25.9246627255
 10
-8.726073683
 20
25.9455173591
 10
-8.7142205519
 20
25.967783906
 10
-8.7042776229
 20
25.9913443343
 10
-8.6966237253
 20
26.0153211515
  0
LINE
  5
258
100
AcDbEntity
  8
ASSI
100
AcDbLine
 62
250
  6
CONTINUOUS
 10
-8.7608231779
 20
25.968506982
 11
-9.3016904837
 21
25.2992194959
  0
LINE
  5
259
100
AcDbEntity
  8
ASSI
100
AcDbLine
 62
7
  6
CONTINUOUS
 10
-8.7491357346
 20
25.9122647585
 11
-9.3016904837
 21
25.228514835
  0
LWPOLYLINE
  5
25A
100
AcDbEntity
  8
ASSI
100
AcDbPolyline
 62
250
  6
CONTINUOUS
 90
13
 70
0
 10
-5.1713028928
 20
23.5763906621
 10
-5.1895347176
 20
23.5654356736
 10
-5.2074201737
 20
23.5517868936
 10
-5.2246599893
 20
23.535672704
 10
-5.240965696
 20
23.5173627394
 10
-5.2560644555
 20
23.4971633758
 10
-5.2697036251
 20
23.475412604
 10
-5.2816549853
 20
23.4524743737
 10
-5.2917185586
 20
23.4287325033
 10
-5.2997259551
 20
23.4045842583
 10
-5.3055431906
 20
23.3804337035
 10
-5.3090729279
 20
23.3566849423
 10
-5.3102561061
 20
23.3337353547
  0
LWPOLYLINE
  5
25B
100
AcDbEntity
  8
ASSI
100
AcDbPolyline
 62
250
  6
CONTINUOUS
 90
7
 70
0
 10
1.9715857666
 20
26.1529373
 10
1.9888344413
 20
26.1627453504
 10
2.0033690107
 20
26.1735435694
 10
2.0149407174
 20
26.1851472396
 10
2.0233514862
 20
26.1973578573
 10
2.0284573078
 20
26.2099665156
 10
2.0301659385
 20
26.2234434976
  0
LWPOLYLINE
  5
25C
100
AcDbEntity
  8
ASSI
100
AcDbPolyline
 62
7
  6
CONTINUOUS
 90
10
 70
0
 10
-3.7944494837
 20
22.8353590423
 10
-3.8025013885
 20
22.8307850559
 10
-3.826161951
 20
22.8144770043
 10
-3.8476941389
 20
22.795009831
 10
-3.866632547
 20
22.7726911721
 10
-3.8825449552
 20
22.7479800262
 10
-3.895294643
 20
22.7209720267
 10
-3.9046026247
 20
22.6919275893
 10
-3.9101541636
 20
22.6614641875
 10
-3.9118220587
 20
22.6327168991
  0
LINE
  5
25D
100
AcDbEntity
  8
ASSI
100
AcDbLine
 62
7
  6
CONTINUOUS
 10
-4.9945531215
 20
22.0931884921
 11
-4.7762070841
 21
22.2123900118
  0
LINE
  5
25E
100
AcDbEntity
  8
ASSI
100
AcDbLine
 62
7
  6
CONTINUOUS
 10
-3.5825200589
 20
22.9497002895
 11
-3.7944431536
 21
22.8353627869
  0
LINE
  5
25F
100
AcDbEntity
  8
ASSI
100
AcDbLine
 62
250
  6
CONTINUOUS
 10
-3.4680864629
 20
22.9439703473
 11
-3.6789407802
 21
22.8302096057
  0
LINE
  5
260
100
AcDbEntity
  8
ASSI
100
AcDbLine
 62
7
  6
CONTINUOUS
 10
-4.7762070841
 20
22.2123900118
 11
-4.0941468538
 21
22.5640531712
  0
LINE
  5
261
100
AcDbEntity
  8
ASSI
100
AcDbLine
 62
250
  6
CONTINUOUS
 10
-5.1713028928
 20
23.5763906621
 11
-4.9529568555
 21
23.6864055436
  0
LINE
  5
262
100
AcDbEntity
  8
ASSI
100
AcDbLine
 62
250
  6
CONTINUOUS
 10
-4.9945531215
 20
23.2715424004
 11
-4.7762070841
 21
23.3815572819
  0
LINE
  5
263
100
AcDbEntity
  8
ASSI
100
AcDbLine
 62
7
  6
CONTINUOUS
 10
-3.582465766
 20
22.9497295273
 11
-3.5772577202
 21
22.9523339079
  0
LINE
  5
264
100
AcDbEntity
  8
ASSI
100
AcDbLine
 62
7
  6
CONTINUOUS
 10
0.3584917741
 20
25.7756202513
 11
-0.7227515955
 21
25.2349985665
  0
LINE
  5
265
100
AcDbEntity
  8
ASSI
100
AcDbLine
 62
250
  6
CONTINUOUS
 10
-4.9529568555
 20
23.6864055436
 11
-4.299738091
 21
24.0104068664
  0
LINE
  5
266
100
AcDbEntity
  8
ASSI
100
AcDbLine
 62
250
  6
CONTINUOUS
 10
-4.7762070841
 20
23.3815572819
 11
-4.1184386727
 21
23.7078152631
  0
LINE
  5
267
100
AcDbEntity
  8
ASSI
100
AcDbLine
 62
250
  6
CONTINUOUS
 10
1.2669686676
 20
26.814771798
 11
-0.9657405966
 21
25.7468135423
  0
LINE
  5
268
100
AcDbEntity
  8
ASSI
100
AcDbLine
 62
250
  6
CONTINUOUS
 10
1.4059003416
 20
26.5726819627
 11
-0.7191421517
 21
25.5562232992
  0
LINE
  5
269
100
AcDbEntity
  8
ASSI
100
AcDbLine
 62
7
  6
CONTINUOUS
 10
-1.6646949391
 20
25.6112261889
 11
-2.7653869163
 21
25.0849029155
  0
LINE
  5
26A
100
AcDbEntity
  8
RACCORDO
100
AcDbLine
 62
7
  6
CONTINUOUS
 10
-1.5414842854
 20
24.6206763693
 11
-1.6795990875
 21
24.555439284
  0
LINE
  5
26B
100
AcDbEntity
  8
SUPERFICI
100
AcDbLine
 62
7
  6
CONTINUOUS
 10
-1.5414842854
 20
24.6206763693
 11
-1.6795990875
 21
24.555439284
  0
LINE
  5
26C
100
AcDbEntity
  8
RACCORDO
100
AcDbLine
 62
250
  6
CONTINUOUS
 10
-1.4579502789
 20
24.6121772826
 11
-1.594226568
 21
24.5478085998
  0
LINE
  5
26D
100
AcDbEntity
  8
SUPERFICI
100
AcDbLine
 62
250
  6
CONTINUOUS
 10
-1.4579502789
 20
24.6121772826
 11
-1.594226568
 21
24.5478085998
  0
LINE
  5
26E
100
AcDbEntity
  8
ASSI
100
AcDbLine
 62
7
  6
CONTINUOUS
 10
-2.899784349
 20
23.2652135614
 11
-3.5771879631
 21
22.952366124
  0
LINE
  5
26F
100
AcDbEntity
  8
ASSI
100
AcDbLine
 62
250
  6
CONTINUOUS
 10
-2.7916586307
 20
23.2563671362
 11
-3.4680864629
 21
22.9439703473
  0
LWPOLYLINE
  5
270
100
AcDbEntity
  8
RACCORDO
100
AcDbPolyline
 62
250
  6
CONTINUOUS
 90
11
 70
0
 10
-0.6244841559
 20
24.6659972558
 10
-0.6153916954
 20
24.6700877069
 10
-0.6063330212
 20
24.6734444921
 10
-0.5973458996
 20
24.6760514642
 10
-0.5884647119
 20
24.6778960684
 10
-0.5797302475
 20
24.678967214
 10
-0.5711888991
 20
24.679258228
 10
-0.5628720738
 20
24.678767734
 10
-0.5548188498
 20
24.6774977216
 10
-0.5470828695
 20
24.6754602054
 10
-0.5397092267
 20
24.6726768365
  0
LWPOLYLINE
  5
271
100
AcDbEntity
  8
SUPERFICI
100
AcDbPolyline
 62
250
  6
CONTINUOUS
 90
11
 70
0
 10
-0.6244841559
 20
24.6659972558
 10
-0.6153916954
 20
24.6700877069
 10
-0.6063330212
 20
24.6734444921
 10
-0.5973458996
 20
24.6760514642
 10
-0.5884647119
 20
24.6778960684
 10
-0.5797302475
 20
24.678967214
 10
-0.5711888991
 20
24.679258228
 10
-0.5628720738
 20
24.678767734
 10
-0.5548188498
 20
24.6774977216
 10
-0.5470828695
 20
24.6754602054
 10
-0.5397092267
 20
24.6726768365
  0
LINE
  5
272
100
AcDbEntity
  8
RACCORDO
100
AcDbLine
 62
7
  6
CONTINUOUS
 10
-1.5414307699
 20
24.6207016468
 11
-1.5382227298
 21
24.6221172764
  0
LINE
  5
273
100
AcDbEntity
  8
SUPERFICI
100
AcDbLine
 62
7
  6
CONTINUOUS
 10
-1.5414307699
 20
24.6207016468
 11
-1.5382227298
 21
24.6221172764
  0
LWPOLYLINE
  5
274
100
AcDbEntity
  8
RACCORDO
100
AcDbPolyline
 62
7
  6
CONTINUOUS
 90
5
 70
0
 10
-1.6797175562
 20
24.5553823817
 10
-1.6748743915
 20
24.557440006
 10
-1.6674480316
 20
24.5597578685
 10
-1.6593016134
 20
24.5612902331
 10
-1.6503832785
 20
24.5619411468
  0
LWPOLYLINE
  5
275
100
AcDbEntity
  8
SUPERFICI
100
AcDbPolyline
 62
7
  6
CONTINUOUS
 90
5
 70
0
 10
-1.6797175562
 20
24.5553823817
 10
-1.6748743915
 20
24.557440006
 10
-1.6674480316
 20
24.5597578685
 10
-1.6593016134
 20
24.5612902331
 10
-1.6503832785
 20
24.5619411468
  0
LWPOLYLINE
  5
276
100
AcDbEntity
  8
ASSI
100
AcDbPolyline
 62
250
  6
CONTINUOUS
 90
13
 70
0
 10
-4.9945531215
 20
23.2715424004
 10
-5.0142865317
 20
23.2631772928
 10
-5.0360144494
 20
23.256155805
 10
-5.0593733081
 20
23.2505954252
 10
-5.0839722513
 20
23.2465891935
 10
-5.1093996726
 20
23.2442041451
 10
-5.1352301027
 20
23.2434801881
 10
-5.1610313291
 20
23.2444294364
 10
-5.186371628
 20
23.2470360064
 10
-5.2108269879
 20
23.2512562833
 10
-5.233988205
 20
23.2570196504
 10
-5.2554677297
 20
23.2642296711
 10
-5.2749061518
 20
23.2727657023
  0
LINE
  5
277
100
AcDbEntity
  8
RACCORDO
100
AcDbLine
 62
7
  6
CONTINUOUS
 10
-1.46838214
 20
24.6482184136
 11
-1.5382230911
 21
24.6221171062
  0
LINE
  5
278
100
AcDbEntity
  8
SUPERFICI
100
AcDbLine
 62
7
  6
CONTINUOUS
 10
-1.46838214
 20
24.6482184136
 11
-1.5382230911
 21
24.6221171062
  0
LWPOLYLINE
  5
279
100
AcDbEntity
  8
ASSI
100
AcDbPolyline
 62
7
  6
CONTINUOUS
 90
3
 70
0
 10
-3.5772577202
 20
22.9523339079
 10
-3.5564608824
 20
22.9591617495
 10
-3.5357272604
 20
22.9613152387
  0
LINE
  5
27A
100
AcDbEntity
  8
RACCORDO
100
AcDbLine
 62
7
  6
CONTINUOUS
 10
-1.3933430298
 20
24.6711459787
 11
-1.46838214
 21
24.6482184136
  0
LINE
  5
27B
100
AcDbEntity
  8
SUPERFICI
100
AcDbLine
 62
7
  6
CONTINUOUS
 10
-1.3933430298
 20
24.6711459787
 11
-1.46838214
 21
24.6482184136
  0
LWPOLYLINE
  5
27C
100
AcDbEntity
  8
ASSI
100
AcDbPolyline
 62
250
  6
CONTINUOUS
 90
6
 70
0
 10
2.3804558068
 20
23.8690705668
 10
2.3997112833
 20
23.874909431
 10
2.4203629182
 20
23.8768890752
 10
2.4420690186
 20
23.8749768713
 10
2.464470429
 20
23.8692045797
 10
2.4871965276
 20
23.8596678219
  0
LWPOLYLINE
  5
27D
100
AcDbEntity
  8
RACCORDO
100
AcDbPolyline
 62
7
  6
CONTINUOUS
 90
6
 70
0
 10
-1.5382227298
 20
24.6221172764
 10
-1.5249944552
 20
24.6260593014
 10
-1.5092108351
 20
24.6273979368
 10
-1.4925735025
 20
24.6255041116
 10
-1.4753849014
 20
24.6204029027
 10
-1.4579502789
 20
24.6121772826
  0
LWPOLYLINE
  5
27E
100
AcDbEntity
  8
SUPERFICI
100
AcDbPolyline
 62
7
  6
CONTINUOUS
 90
6
 70
0
 10
-1.5382227298
 20
24.6221172764
 10
-1.5249944552
 20
24.6260593014
 10
-1.5092108351
 20
24.6273979368
 10
-1.4925735025
 20
24.6255041116
 10
-1.4753849014
 20
24.6204029027
 10
-1.4579502789
 20
24.6121772826
  0
LWPOLYLINE
  5
27F
100
AcDbEntity
  8
RACCORDO
100
AcDbPolyline
 62
7
  6
CONTINUOUS
 90
10
 70
0
 10
-3.9494977642
 20
-23.3835064935
 10
-3.8807709201
 20
-23.4102095701
 10
-3.812994542
 20
-23.4296135515
 10
-3.7426316185
 20
-23.4431058434
 10
-3.6703363548
 20
-23.4503727071
 10
-3.5965437388
 20
-23.4512467778
 10
-3.521737823
 20
-23.4456096311
 10
-3.4465542007
 20
-23.4334245741
 10
-3.3714204201
 20
-23.4147300298
 10
-3.297032153
 20
-23.3897364476
  0
LWPOLYLINE
  5
280
100
AcDbEntity
  8
RACCORDO
100
AcDbPolyline
 62
250
  6
CONTINUOUS
 90
16
 70
0
 10
-4.2742903754
 20
-22.7188029809
 10
-4.2356709412
 20
-22.7340574685
 10
-4.1942391955
 20
-22.747379776
 10
-4.1503965791
 20
-22.7586408208
 10
-4.1045678923
 20
-22.7677314923
 10
-4.0571971785
 20
-22.7745637091
 10
-4.0087434226
 20
-22.7790712723
 10
-3.9596761029
 20
-22.7812105074
 10
-3.9104706429
 20
-22.7809606868
 10
-3.8616038044
 20
-22.7783242311
 10
-3.8135490684
 20
-22.7733266855
 10
-3.7667720472
 20
-22.7660164721
 10
-3.721725973
 20
-22.7564644213
 10
-3.6788473065
 20
-22.7447630847
 10
-3.638551508
 20
-22.731025839
 10
-3.6012290118
 20
-22.7153857873
  0
LWPOLYLINE
  5
281
100
AcDbEntity
  8
RACCORDO
100
AcDbPolyline
 62
250
  6
CONTINUOUS
 90
14
 70
0
 10
-3.9494209232
 20
-23.3835482283
 10
-3.9910839522
 20
-23.3622811672
 10
-4.0345741513
 20
-23.3335304984
 10
-4.0750099778
 20
-23.2994862455
 10
-4.1121606784
 20
-23.2603354945
 10
-4.1458467147
 20
-23.2162759668
 10
-4.1759106607
 20
-23.1675287938
 10
-4.2021800733
 20
-23.1143542144
 10
-4.2245260816
 20
-23.0570277911
 10
-4.2428492468
 20
-22.9958351045
 10
-4.2570472237
 20
-22.9310812979
 10
-4.267045955
 20
-22.8630915281
 10
-4.2728028439
 20
-22.7922120808
 10
-4.2742903997
 20
-22.7188029748
  0
LWPOLYLINE
  5
282
100
AcDbEntity
  8
RACCORDO
100
AcDbPolyline
 62
7
  6
CONTINUOUS
 90
10
 70
0
 10
-18.6786090976
 20
-16.0187733078
 10
-17.2039814061
 20
-16.841932118
 10
-15.6241046903
 20
-17.7001914699
 10
-14.0184931004
 20
-18.5485542192
 10
-12.3875208699
 20
-19.3868316761
 10
-10.7315593615
 20
-20.2148393728
 10
-9.0509874137
 20
-21.0323994013
 10
-7.3461988859
 20
-21.8393357327
 10
-5.6175946588
 20
-22.6354717355
 10
-3.9486643928
 20
-23.3838839477
  0
LINE
  5
283
100
AcDbEntity
  8
RACCORDO
100
AcDbLine
 62
7
  6
CONTINUOUS
 10
-18.6786083172
 20
-16.0187737492
 11
-18.6783494462
 21
-16.0189200792
  0
LWPOLYLINE
  5
284
100
AcDbEntity
  8
RACCORDO
100
AcDbPolyline
 62
250
  6
CONTINUOUS
 90
31
 70
0
 10
-18.9744648816
 20
-15.3687157103
 10
-18.529523264
 20
-15.6205613063
 10
-18.0825623468
 20
-15.8714387121
 10
-17.6335929651
 20
-16.1213445443
 10
-17.1827327202
 20
-16.3702168003
 10
-16.7298866346
 20
-16.6181111515
 10
-16.2747421682
 20
-16.865198964
 10
-15.8171491581
 20
-17.111559145
 10
-15.357269263
 20
-17.3571020492
 10
-14.8952552768
 20
-17.6017452624
 10
-14.4311598932
 20
-17.8454614032
 10
-13.9649478994
 20
-18.088269506
 10
-13.496642459
 20
-18.3301576935
 10
-13.0261825762
 20
-18.5711573209
 10
-12.5536460525
 20
-18.8112284121
 10
-12.0792674267
 20
-19.0502534607
 10
-11.603355715
 20
-19.2880816116
 10
-11.1256280155
 20
-19.5248592074
 10
-10.6454253639
 20
-19.7609120611
 10
-10.1636771215
 20
-19.9957842314
 10
-9.6794685551
 20
-20.2299221503
 10
-9.1893221219
 20
-20.4649814772
 10
-8.6940358898
 20
-20.7005388257
 10
-8.1927381769
 20
-20.9369669722
 10
-7.6793268837
 20
-21.1770599683
 10
-7.1535044993
 20
-21.42083697
 10
-6.6153304539
 20
-21.6681473045
 10
-6.0590874868
 20
-21.9214576105
 10
-5.4827052374
 20
-22.1815023624
 10
-4.8878408369
 20
-22.4473222623
 10
-4.2742903766
 20
-22.7188029609
  0
LWPOLYLINE
  5
285
100
AcDbEntity
  8
RACCORDO
100
AcDbPolyline
 62
250
  6
CONTINUOUS
 90
9
 70
0
 10
-18.9744547705
 20
-15.3687114238
 10
-19.004964302
 20
-15.3494016174
 10
-19.0315294719
 20
-15.3287257537
 10
-19.0538928902
 20
-15.3068841615
 10
-19.0718378777
 20
-15.284088464
 10
-19.0851905651
 20
-15.2605595288
 10
-19.0938215783
 20
-15.2365253277
 10
-19.0976472913
 20
-15.2122187281
 10
-19.0978473053
 20
-15.2041416743
  0
LWPOLYLINE
  5
286
100
AcDbEntity
  8
RACCORDO
100
AcDbPolyline
 62
250
  6
CONTINUOUS
 90
13
 70
0
 10
-18.9744648752
 20
-15.3687157055
 10
-18.9727815388
 20
-15.4422227067
 10
-18.9667052928
 20
-15.5132618353
 10
-18.9562708447
 20
-15.5814694644
 10
-18.9415431128
 20
-15.6464881474
 10
-18.922596749
 20
-15.7079924312
 10
-18.8995125323
 20
-15.7656879572
 10
-18.872413901
 20
-15.8192771452
 10
-18.8414438936
 20
-15.8684773483
 10
-18.8067422308
 20
-15.9130446889
 10
-18.7684970988
 20
-15.9527426552
 10
-18.7269102328
 20
-15.9873624276
 10
-18.6786083172
 20
-16.0187737492
  0
LINE
  5
287
100
AcDbEntity
  8
RACCORDO
100
AcDbLine
 62
7
  6
CONTINUOUS
 10
-1.6943302861
 20
24.5457628528
 11
-3.4454166915
 21
23.013222464
  0
LINE
  5
288
100
AcDbEntity
  8
SUPERFICI
100
AcDbLine
 62
7
  6
CONTINUOUS
 10
-1.6943302861
 20
24.5457628528
 11
-3.4454166915
 21
23.013222464
  0
LINE
  5
289
100
AcDbEntity
  8
RACCORDO
100
AcDbLine
 62
7
  6
CONTINUOUS
 10
-3.9118225915
 20
22.6050267992
 11
-3.9469528095
 21
22.5742810417
  0
LINE
  5
28A
100
AcDbEntity
  8
SUPERFICI
100
AcDbLine
 62
7
  6
CONTINUOUS
 10
-3.9118225915
 20
22.6050267992
 11
-3.9469528095
 21
22.5742810417
  0
LINE
  5
28B
100
AcDbEntity
  8
RACCORDO
100
AcDbLine
 62
250
  6
CONTINUOUS
 10
-1.5948854424
 20
24.548138037
 11
-3.2406117621
 21
23.1078081674
  0
LINE
  5
28C
100
AcDbEntity
  8
SUPERFICI
100
AcDbLine
 62
250
  6
CONTINUOUS
 10
-1.5948854424
 20
24.548138037
 11
-3.2406117621
 21
23.1078081674
  0
LWPOLYLINE
  5
28D
100
AcDbEntity
  8
RACCORDO
100
AcDbPolyline
 62
7
  6
CONTINUOUS
 90
5
 70
0
 10
-1.694427525
 20
24.5456772543
 10
-1.6933467216
 20
24.5466087749
 10
-1.6877983569
 20
24.5507915112
 10
-1.681643897
 20
24.5544291599
 10
-1.6797175562
 20
24.5553823817
  0
LWPOLYLINE
  5
28E
100
AcDbEntity
  8
SUPERFICI
100
AcDbPolyline
 62
7
  6
CONTINUOUS
 90
5
 70
0
 10
-1.694427525
 20
24.5456772543
 10
-1.6933467216
 20
24.5466087749
 10
-1.6877983569
 20
24.5507915112
 10
-1.681643897
 20
24.5544291599
 10
-1.6797175562
 20
24.5553823817
  0
LINE
  5
28F
100
AcDbEntity
  8
RACCORDO
100
AcDbLine
 62
250
  6
CONTINUOUS
 10
-2.498888334
 20
23.1099819879
 11
-1.5691582207
 21
23.8388005976
  0
LINE
  5
290
100
AcDbEntity
  8
SUPERFICI
100
AcDbLine
 62
250
  6
CONTINUOUS
 10
-2.498888334
 20
23.1099819879
 11
-1.5691582207
 21
23.8388005976
  0
LINE
  5
291
100
AcDbEntity
  8
RACCORDO
100
AcDbLine
 62
250
  6
CONTINUOUS
 10
-2.220998671
 20
22.9710371564
 11
-1.3963510907
 21
23.6174812098
  0
LINE
  5
292
100
AcDbEntity
  8
SUPERFICI
100
AcDbLine
 62
250
  6
CONTINUOUS
 10
-2.220998671
 20
22.9710371564
 11
-1.3963510907
 21
23.6174812098
  0
LWPOLYLINE
  5
293
100
AcDbEntity
  8
RACCORDO
100
AcDbPolyline
 62
250
  6
CONTINUOUS
 90
16
 70
0
 10
-1.5691582207
 20
23.8388005976
 10
-1.5279793014
 20
23.8683467276
 10
-1.4847839291
 20
23.8949568637
 10
-1.4395721037
 20
23.9186310061
 10
-1.3917951356
 20
23.9395259741
 10
-1.3420017146
 20
23.9574849484
 10
-1.2918379094
 20
23.9720374706
 10
-1.2413321184
 20
23.9830559687
 10
-1.1904559433
 20
23.9906680147
 10
-1.140770258
 20
23.9947858666
 10
-1.0924153036
 20
23.995324062
 10
-1.045250839
 20
23.9923680633
 10
-1.000417014
 20
23.9860865152
 10
-0.9582938786
 20
23.9765356324
 10
-0.918501383
 20
23.9636592002
 10
-0.8810395269
 20
23.9474572185
  0
LWPOLYLINE
  5
294
100
AcDbEntity
  8
SUPERFICI
100
AcDbPolyline
 62
250
  6
CONTINUOUS
 90
16
 70
0
 10
-1.5691582207
 20
23.8388005976
 10
-1.5279793014
 20
23.8683467276
 10
-1.4847839291
 20
23.8949568637
 10
-1.4395721037
 20
23.9186310061
 10
-1.3917951356
 20
23.9395259741
 10
-1.3420017146
 20
23.9574849484
 10
-1.2918379094
 20
23.9720374706
 10
-1.2413321184
 20
23.9830559687
 10
-1.1904559433
 20
23.9906680147
 10
-1.140770258
 20
23.9947858666
 10
-1.0924153036
 20
23.995324062
 10
-1.045250839
 20
23.9923680633
 10
-1.000417014
 20
23.9860865152
 10
-0.9582938786
 20
23.9765356324
 10
-0.918501383
 20
23.9636592002
 10
-0.8810395269
 20
23.9474572185
  0
LINE
  5
295
100
AcDbEntity
  8
ASSI
100
AcDbLine
 62
250
  6
CONTINUOUS
 10
-1.4589922916
 20
21.7202353614
 11
-1.2406462542
 21
21.830250243
  0
LINE
  5
296
100
AcDbEntity
  8
ASSI
100
AcDbLine
 62
250
  6
CONTINUOUS
 10
-1.2822425203
 20
21.4153870998
 11
-1.0638964829
 21
21.5254019813
  0
LINE
  5
297
100
AcDbEntity
  8
ASSI
100
AcDbLine
 62
250
  6
CONTINUOUS
 10
2.6698824498
 20
23.769901309
 11
-1.2406462542
 21
21.830250243
  0
LINE
  5
298
100
AcDbEntity
  8
ASSI
100
AcDbLine
 62
250
  6
CONTINUOUS
 10
2.8466322211
 20
23.4650530473
 11
-1.0638964829
 21
21.5254019813
  0
LINE
  5
299
100
AcDbEntity
  8
ASSI
100
AcDbLine
 62
7
  6
CONTINUOUS
 10
-0.8868215511
 20
22.3039485965
 11
2.3760990731
 21
23.8671143774
  0
LINE
  5
29A
100
AcDbEntity
  8
ASSI
100
AcDbLine
 62
250
  6
CONTINUOUS
 10
-0.8248545939
 20
22.2729651178
 11
2.4871965276
 21
23.8596678219
  0
LINE
  5
29B
100
AcDbEntity
  8
ASSI
100
AcDbLine
 62
7
  6
CONTINUOUS
 10
2.9484237489
 20
22.8925974958
 11
3.3693022926
 21
23.0942275731
  0
LINE
  5
29C
100
AcDbEntity
  8
ASSI
100
AcDbLine
 62
7
  6
CONTINUOUS
 10
3.6472471825
 20
23.4747240844
 11
5.804162597
 21
24.5077145657
  0
LINE
  5
29D
100
AcDbEntity
  8
ASSI
100
AcDbLine
 62
250
  6
CONTINUOUS
 10
3.6616694721
 20
23.4331085079
 11
5.8930186301
 21
24.5017468167
  0
LINE
  5
29E
100
AcDbEntity
  8
RACCORDO
100
AcDbLine
 62
7
  6
CONTINUOUS
 10
11.9244823408
 20
27.2543132988
 11
6.1272267183
 21
24.5769485379
  0
LINE
  5
29F
100
AcDbEntity
  8
SUPERFICI
100
AcDbLine
 62
7
  6
CONTINUOUS
 10
11.9244823408
 20
27.2543132988
 11
6.1272267183
 21
24.5769485379
  0
LINE
  5
2A0
100
AcDbEntity
  8
RACCORDO
100
AcDbLine
 62
250
  6
CONTINUOUS
 10
12.3129398233
 20
27.2220989631
 11
6.3958763683
 21
24.4894029748
  0
LINE
  5
2A1
100
AcDbEntity
  8
SUPERFICI
100
AcDbLine
 62
250
  6
CONTINUOUS
 10
12.3129398233
 20
27.2220989631
 11
6.3958763683
 21
24.4894029748
  0
LWPOLYLINE
  5
2A2
100
AcDbEntity
  8
ASSI
100
AcDbPolyline
 62
250
  6
CONTINUOUS
 90
7
 70
0
 10
5.8041711854
 20
24.5077186782
 10
5.8072168401
 20
24.5090965982
 10
5.8226740111
 20
24.5138724295
 10
5.839267126
 20
24.5155268093
 10
5.8567185128
 20
24.514031988
 10
5.8747361814
 20
24.5094129144
 10
5.8930186287
 20
24.5017468161
  0
LINE
  5
2A3
100
AcDbEntity
  8
RACCORDO
100
AcDbLine
 62
7
  6
CONTINUOUS
 10
-1.3963510907
 20
22.7525626819
 11
-1.6003596185
 21
22.6607176302
  0
LINE
  5
2A4
100
AcDbEntity
  8
SUPERFICI
100
AcDbLine
 62
7
  6
CONTINUOUS
 10
-1.3963510907
 20
22.7525626819
 11
-1.6003596185
 21
22.6607176302
  0
LINE
  5
2A5
100
AcDbEntity
  8
ASSI
100
AcDbLine
 62
250
  6
CONTINUOUS
 10
2.376099269
 20
23.8671144712
 11
2.3804558068
 21
23.8690705668
  0
LINE
  5
2A6
100
AcDbEntity
  8
ASSI
100
AcDbLine
 62
7
  6
CONTINUOUS
 10
5.8571912381
 20
24.5308219265
 11
5.8041779858
 21
24.5077044795
  0
LWPOLYLINE
  5
2A7
100
AcDbEntity
  8
ASSI
100
AcDbPolyline
 62
250
  6
CONTINUOUS
 90
10
 70
0
 10
5.8930186301
 20
24.5017468167
 10
5.9451886857
 20
24.5243885732
 10
5.9969536973
 20
24.5421642223
 10
6.0480300853
 20
24.5549767577
 10
6.098136289
 20
24.5627571297
 10
6.1469986689
 20
24.5654626172
 10
6.1943529881
 20
24.5630769708
 10
6.2399379752
 20
24.5556142686
 10
6.2835030109
 20
24.5431157474
 10
6.3256674509
 20
24.5252221762
  0
LWPOLYLINE
  5
2A8
100
AcDbEntity
  8
ASSI
100
AcDbPolyline
 62
250
  6
CONTINUOUS
 90
31
 70
0
 10
2.4871965276
 20
23.8596678219
 10
2.4972489629
 20
23.8639715685
 10
2.5079451984
 20
23.8676737571
 10
2.5192852338
 20
23.8707743877
 10
2.5314096867
 20
23.8732958836
 10
2.5441779397
 20
23.8752158216
 10
2.5571681404
 20
23.8764669312
 10
2.5703829536
 20
23.8770257049
 10
2.5838197145
 20
23.8769156503
 10
2.5970485769
 20
23.8761400206
 10
2.6100628328
 20
23.8746771399
 10
2.6228691901
 20
23.8725486841
 10
2.635057926
 20
23.8698229341
 10
2.6466090695
 20
23.8664806271
 10
2.6575425917
 20
23.8625410258
 10
2.6675086826
 20
23.8581301989
 10
2.6764759878
 20
23.8532328926
 10
2.6844758617
 20
23.8478643606
 10
2.6912525577
 20
23.8421964329
 10
2.6967666227
 20
23.8362194593
 10
2.7010575099
 20
23.82994309
 10
2.7039878317
 20
23.823568105
 10
2.7055132733
 20
23.8170913458
 10
2.7056781496
 20
23.8105159709
 10
2.7044780175
 20
23.8040522367
 10
2.701864015
 20
23.7977010987
 10
2.6978850041
 20
23.7914616015
 10
2.6926831278
 20
23.7855411349
 10
2.6863057672
 20
23.780008829
 10
2.6787055412
 20
23.7747955536
 10
2.6698824498
 20
23.769901309
  0
LWPOLYLINE
  5
2A9
100
AcDbEntity
  8
RACCORDO
100
AcDbPolyline
 62
250
  6
CONTINUOUS
 90
9
 70
0
 10
12.3129398233
 20
27.2220989631
 10
12.3669462248
 20
27.245130479
 10
12.420666298
 20
27.2623721156
 10
12.4737021424
 20
27.2736368872
 10
12.5256880677
 20
27.2787808038
 10
12.5761893175
 20
27.2776926648
 10
12.6247174537
 20
27.2703372695
 10
12.6708997464
 20
27.2567431201
 10
12.7043108368
 20
27.2422332488
  0
LWPOLYLINE
  5
2AA
100
AcDbEntity
  8
SUPERFICI
100
AcDbPolyline
 62
250
  6
CONTINUOUS
 90
9
 70
0
 10
12.3129398233
 20
27.2220989631
 10
12.3669462248
 20
27.245130479
 10
12.420666298
 20
27.2623721156
 10
12.4737021424
 20
27.2736368872
 10
12.5256880677
 20
27.2787808038
 10
12.5761893175
 20
27.2776926648
 10
12.6247174537
 20
27.2703372695
 10
12.6708997464
 20
27.2567431201
 10
12.7043108368
 20
27.2422332488
  0
LINE
  5
2AB
100
AcDbEntity
  8
ASSI
100
AcDbLine
 62
7
  6
CONTINUOUS
 10
2.4083191995
 20
23.8807872381
 11
2.376015384
 21
23.8670644597
  0
LWPOLYLINE
  5
2AC
100
AcDbEntity
  8
RACCORDO
100
AcDbPolyline
 62
7
  6
CONTINUOUS
 90
12
 70
0
 10
11.9244823408
 20
27.2543132988
 10
11.9901098168
 20
27.2815329483
 10
12.0588086474
 20
27.3038087177
 10
12.13011613
 20
27.3207081
 10
12.2036727795
 20
27.3318724245
 10
12.2787007618
 20
27.3369441473
 10
12.3540867192
 20
27.3357233005
 10
12.4292722279
 20
27.3281731655
 10
12.5036296595
 20
27.314326534
 10
12.5761510309
 20
27.2944169172
 10
12.6465030625
 20
27.2686274664
 10
12.7043431914
 20
27.2422170713
  0
LWPOLYLINE
  5
2AD
100
AcDbEntity
  8
SUPERFICI
100
AcDbPolyline
 62
7
  6
CONTINUOUS
 90
12
 70
0
 10
11.9244823408
 20
27.2543132988
 10
11.9901098168
 20
27.2815329483
 10
12.0588086474
 20
27.3038087177
 10
12.13011613
 20
27.3207081
 10
12.2036727795
 20
27.3318724245
 10
12.2787007618
 20
27.3369441473
 10
12.3540867192
 20
27.3357233005
 10
12.4292722279
 20
27.3281731655
 10
12.5036296595
 20
27.314326534
 10
12.5761510309
 20
27.2944169172
 10
12.6465030625
 20
27.2686274664
 10
12.7043431914
 20
27.2422170713
  0
LWPOLYLINE
  5
2AE
100
AcDbEntity
  8
RACCORDO
100
AcDbPolyline
 62
250
  6
CONTINUOUS
 90
9
 70
0
 10
11.9244823408
 20
27.2543132988
 10
11.9523949663
 20
27.2657122783
 10
11.9989093793
 20
27.2786913313
 10
12.0477283319
 20
27.2852689246
 10
12.0984804264
 20
27.2853950181
 10
12.1507795584
 20
27.2790686527
 10
12.2042278542
 20
27.266337957
 10
12.2584186976
 20
27.2472997819
 10
12.3129398233
 20
27.2220989631
  0
LWPOLYLINE
  5
2AF
100
AcDbEntity
  8
SUPERFICI
100
AcDbPolyline
 62
250
  6
CONTINUOUS
 90
9
 70
0
 10
11.9244823408
 20
27.2543132988
 10
11.9523949663
 20
27.2657122783
 10
11.9989093793
 20
27.2786913313
 10
12.0477283319
 20
27.2852689246
 10
12.0984804264
 20
27.2853950181
 10
12.1507795584
 20
27.2790686527
 10
12.2042278542
 20
27.266337957
 10
12.2584186976
 20
27.2472997819
 10
12.3129398233
 20
27.2220989631
  0
LWPOLYLINE
  5
2B0
100
AcDbEntity
  8
ASSI
100
AcDbPolyline
 62
7
  6
CONTINUOUS
 90
3
 70
0
 10
0.9347099766
 20
21.138607175
 10
0.9513474468
 20
21.1440694483
 10
0.9679343445
 20
21.1457922396
  0
LINE
  5
2B1
100
AcDbEntity
  8
ASSI
100
AcDbLine
 62
250
  6
CONTINUOUS
 10
3.8256775273
 20
-21.5493475099
 11
3.2848102214
 21
-21.4401445147
  0
LINE
  5
2B2
100
AcDbEntity
  8
ASSI
100
AcDbLine
 62
250
  6
CONTINUOUS
 10
3.7525711001
 20
-21.2945366015
 11
3.2848102214
 21
-21.200094049
  0
LWPOLYLINE
  5
2B3
100
AcDbEntity
  8
ASSI
100
AcDbPolyline
 62
7
  6
CONTINUOUS
 90
4
 70
0
 10
2.0686995237
 20
-21.6890047411
 10
2.0910958775
 20
-21.6942421054
 10
2.11546795
 20
-21.700150437
 10
2.1690529754
 20
-21.7133028194
  0
LWPOLYLINE
  5
2B4
100
AcDbEntity
  8
ASSI
100
AcDbPolyline
 62
7
  6
CONTINUOUS
 90
9
 70
0
 10
2.1690529754
 20
-21.7133028194
 10
2.1975973855
 20
-21.7201413123
 10
2.226424233
 20
-21.7269230858
 10
2.2552378426
 20
-21.7332551899
 10
2.2836523145
 20
-21.738925649
 10
2.3108547488
 20
-21.7439954154
 10
2.3364264796
 20
-21.7482890475
 10
2.3603201229
 20
-21.7514008078
 10
2.3823594707
 20
-21.7530693454
  0
LWPOLYLINE
  5
2B5
100
AcDbEntity
  8
ASSI
100
AcDbPolyline
 62
250
  6
CONTINUOUS
 90
13
 70
0
 10
1.3472124018
 20
-22.9831265989
 10
1.3666508239
 20
-22.9916626302
 10
1.3881303486
 20
-22.9988726509
 10
1.4112915657
 20
-23.004636018
 10
1.4357469256
 20
-23.0088562948
 10
1.4610872245
 20
-23.0114628648
 10
1.4868884509
 20
-23.0124121131
 10
1.512718881
 20
-23.0116881561
 10
1.5381463023
 20
-23.0093031077
 10
1.5627452455
 20
-23.0052968761
 10
1.5861041042
 20
-22.9997364963
 10
1.6078320219
 20
-22.9927150084
 10
1.6275654321
 20
-22.9843499008
  0
LWPOLYLINE
  5
2B6
100
AcDbEntity
  8
ASSI
100
AcDbPolyline
 62
250
  6
CONTINUOUS
 90
13
 70
0
 10
1.3472124018
 20
-22.6658577985
 10
1.3666508401
 20
-22.6743938361
 10
1.3881303809
 20
-22.68160386
 10
1.4112916125
 20
-22.6873672276
 10
1.4357469843
 20
-22.6915875027
 10
1.4610872913
 20
-22.6941940693
 10
1.486888521
 20
-22.6951433133
 10
1.512718949
 20
-22.6944193519
 10
1.538146363
 20
-22.6920342998
 10
1.5627452947
 20
-22.6880280661
 10
1.5861041386
 20
-22.6824676864
 10
1.6078320393
 20
-22.6754462016
 10
1.6275654321
 20
-22.6670811004
  0
LWPOLYLINE
  5
2B7
100
AcDbEntity
  8
ASSI
100
AcDbPolyline
 62
7
  6
CONTINUOUS
 90
10
 70
0
 10
1.4121340185
 20
-23.1183178425
 10
1.4245909237
 20
-23.1240881652
 10
1.4459262455
 20
-23.1318953364
 10
1.4681050198
 20
-23.1374894792
 10
1.4908909812
 20
-23.1407746721
 10
1.5141235837
 20
-23.1416827247
 10
1.5375538895
 20
-23.1401526658
 10
1.5608458617
 20
-23.1361763214
 10
1.5837696847
 20
-23.1297776192
 10
1.6076017945
 20
-23.1203227754
  0
LINE
  5
2B8
100
AcDbEntity
  8
ASSI
100
AcDbLine
 62
7
  6
CONTINUOUS
 10
1.412412774
 20
-23.1184585869
 11
-0.3145931235
 21
-22.2549556382
  0
LINE
  5
2B9
100
AcDbEntity
  8
ASSI
100
AcDbLine
 62
250
  6
CONTINUOUS
 10
1.3472124018
 20
-22.9831265989
 11
-0.197917494
 21
-22.210561651
  0
LINE
  5
2BA
100
AcDbEntity
  8
ASSI
100
AcDbLine
 62
250
  6
CONTINUOUS
 10
1.3472124018
 20
-22.6658577985
 11
0.4117438835
 21
-22.1981235394
  0
LINE
  5
2BB
100
AcDbEntity
  8
ASSI
100
AcDbLine
 62
250
  6
CONTINUOUS
 10
0.2181795974
 20
-22.1013413963
 11
0.1375486065
 21
-22.0610259009
  0
LINE
  5
2BC
100
AcDbEntity
  8
ASSI
100
AcDbLine
 62
250
  6
CONTINUOUS
 10
1.4359093143
 20
-22.4343179071
 11
0.65322534
 21
-22.04297592
  0
LWPOLYLINE
  5
2BD
100
AcDbEntity
  8
ASSI
100
AcDbPolyline
 62
250
  6
CONTINUOUS
 90
16
 70
0
 10
1.4121365217
 20
-23.1183198959
 10
1.405401166
 20
-23.1145726435
 10
1.3977965943
 20
-23.1094089992
 10
1.39063726
 20
-23.1034823262
 10
1.3839552671
 20
-23.0968187996
 10
1.377768204
 20
-23.089435563
 10
1.372101829
 20
-23.0813619431
 10
1.3669770074
 20
-23.0726276868
 10
1.3624111326
 20
-23.063262508
 10
1.3584209787
 20
-23.0533004576
 10
1.3550205911
 20
-23.0427766439
 10
1.3522220524
 20
-23.0317286269
 10
1.3500356338
 20
-23.0201975207
 10
1.3484688537
 20
-23.0082251147
 10
1.3475267722
 20
-22.9958534594
 10
1.3472124018
 20
-22.9831265989
  0
LWPOLYLINE
  5
2BE
100
AcDbEntity
  8
RACCORDO
100
AcDbPolyline
 62
7
  6
CONTINUOUS
 90
14
 70
0
 10
-19.0978473053
 20
-15.2041416743
 10
-19.0978381297
 20
-15.2265653072
 10
-19.0931793811
 20
-15.3223080865
 10
-19.0811153114
 20
-15.4144404678
 10
-19.0616987005
 20
-15.5030140751
 10
-19.0351041199
 20
-15.5874127083
 10
-19.0019567874
 20
-15.6662352811
 10
-18.9630705518
 20
-15.7386813984
 10
-18.9187643389
 20
-15.8050952866
 10
-18.8692395424
 20
-15.865644473
 10
-18.8151227432
 20
-15.9199257168
 10
-18.7569837201
 20
-15.9677547084
 10
-18.6948488282
 20
-16.0093163791
 10
-18.6783669804
 20
-16.0189101638
  0
LWPOLYLINE
  5
2BF
100
AcDbEntity
  8
RACCORDO
100
AcDbPolyline
 62
7
  6
CONTINUOUS
 90
10
 70
0
 10
-17.5563612819
 20
21.5910584637
 10
-17.8450378937
 20
17.5053511163
 10
-18.1086212409
 20
13.3600749839
 10
-18.3417058581
 20
9.2279052364
 10
-18.5442508829
 20
5.1092771278
 10
-18.7162368818
 20
1.0045472314
 10
-18.8576498032
 20
-3.0859577472
 10
-18.968478628
 20
-7.1618851365
 10
-19.0487278871
 20
-11.2228206063
 10
-19.0978551873
 20
-15.2040951671
  0
LWPOLYLINE
  5
2C0
100
AcDbEntity
  8
RACCORDO
100
AcDbPolyline
 62
250
  6
CONTINUOUS
 90
10
 70
0
 10
-17.4327414893
 20
21.4314882087
 10
-17.7276474768
 20
17.2903289479
 10
-17.9917232385
 20
13.1612134687
 10
-18.2249311201
 20
9.0445225866
 10
-18.4272459436
 20
4.9404508275
 10
-18.598631427
 20
0.8495606
 10
-18.7390487676
 20
-3.2272218104
 10
-18.8484876042
 20
-7.2893452918
 10
-18.9269574554
 20
-11.3366304402
 10
-18.9744648816
 20
-15.3687157103
  0
LWPOLYLINE
  5
2C1
100
AcDbEntity
  8
RACCORDO
100
AcDbPolyline
 62
250
  6
CONTINUOUS
 90
10
 70
0
 10
-0.6244841559
 20
24.6659972558
 10
-0.6192270285
 20
24.6715247613
 10
-0.6139925604
 20
24.6762877189
 10
-0.608803354
 20
24.6802633474
 10
-0.6036799161
 20
24.6834332484
 10
-0.5986466795
 20
24.6857795766
 10
-0.5937314844
 20
24.6872884277
 10
-0.5889533629
 20
24.6879538899
 10
-0.5843351592
 20
24.6877727102
 10
-0.5822958443
 20
24.6874110432
  0
LWPOLYLINE
  5
2C2
100
AcDbEntity
  8
SUPERFICI
100
AcDbPolyline
 62
250
  6
CONTINUOUS
 90
10
 70
0
 10
-0.6244841559
 20
24.6659972558
 10
-0.6192270285
 20
24.6715247613
 10
-0.6139925604
 20
24.6762877189
 10
-0.608803354
 20
24.6802633474
 10
-0.6036799161
 20
24.6834332484
 10
-0.5986466795
 20
24.6857795766
 10
-0.5937314844
 20
24.6872884277
 10
-0.5889533629
 20
24.6879538899
 10
-0.5843351592
 20
24.6877727102
 10
-0.5822958443
 20
24.6874110432
  0
LINE
  5
2C3
100
AcDbEntity
  8
RACCORDO
100
AcDbLine
 62
7
  6
CONTINUOUS
 10
-0.1949781621
 20
23.1124848507
 11
-0.201415099
 21
23.1063685074
  0
LINE
  5
2C4
100
AcDbEntity
  8
SUPERFICI
100
AcDbLine
 62
7
  6
CONTINUOUS
 10
-0.1949781621
 20
23.1124848507
 11
-0.201415099
 21
23.1063685074
  0
LWPOLYLINE
  5
2C5
100
AcDbEntity
  8
RACCORDO
100
AcDbPolyline
 62
250
  6
CONTINUOUS
 90
10
 70
0
 10
-0.8810395269
 20
23.9474572185
 10
-0.9000804154
 20
23.9293976534
 10
-0.9179284709
 20
23.9086871881
 10
-0.9342167673
 20
23.8857515951
 10
-0.9486104445
 20
23.8610623918
 10
-0.9608135926
 20
23.8351271468
 10
-0.9705753354
 20
23.8084790453
 10
-0.9776949877
 20
23.7816659277
 10
-0.9820261814
 20
23.7552390267
 10
-0.9834798745
 20
23.7297416351
  0
LWPOLYLINE
  5
2C6
100
AcDbEntity
  8
SUPERFICI
100
AcDbPolyline
 62
250
  6
CONTINUOUS
 90
10
 70
0
 10
-0.8810395269
 20
23.9474572185
 10
-0.9000804154
 20
23.9293976534
 10
-0.9179284709
 20
23.9086871881
 10
-0.9342167673
 20
23.8857515951
 10
-0.9486104445
 20
23.8610623918
 10
-0.9608135926
 20
23.8351271468
 10
-0.9705753354
 20
23.8084790453
 10
-0.9776949877
 20
23.7816659277
 10
-0.9820261814
 20
23.7552390267
 10
-0.9834798745
 20
23.7297416351
  0
LWPOLYLINE
  5
2C7
100
AcDbEntity
  8
RACCORDO
100
AcDbPolyline
 62
250
  6
CONTINUOUS
 90
10
 70
0
 10
-0.1226339282
 20
23.5682544192
 10
-0.1416753808
 20
23.5501942248
 10
-0.1595237726
 20
23.5294831645
 10
-0.1758121884
 20
23.5065471045
 10
-0.1902057892
 20
23.4818576559
 10
-0.2024087286
 20
23.455922419
 10
-0.2121702147
 20
23.429274538
 10
-0.219289623
 20
23.4024618259
 10
-0.2236206366
 20
23.3760355094
 10
-0.2250742736
 20
23.3505388347
  0
LWPOLYLINE
  5
2C8
100
AcDbEntity
  8
SUPERFICI
100
AcDbPolyline
 62
250
  6
CONTINUOUS
 90
10
 70
0
 10
-0.1226339282
 20
23.5682544192
 10
-0.1416753808
 20
23.5501942248
 10
-0.1595237726
 20
23.5294831645
 10
-0.1758121884
 20
23.5065471045
 10
-0.1902057892
 20
23.4818576559
 10
-0.2024087286
 20
23.455922419
 10
-0.2121702147
 20
23.429274538
 10
-0.219289623
 20
23.4024618259
 10
-0.2236206366
 20
23.3760355094
 10
-0.2250742736
 20
23.3505388347
  0
LWPOLYLINE
  5
2C9
100
AcDbEntity
  8
RACCORDO
100
AcDbPolyline
 62
250
  6
CONTINUOUS
 90
16
 70
0
 10
-1.3963510907
 20
23.6174812098
 10
-1.3721217553
 20
23.6403442123
 10
-1.3460804271
 20
23.6613635241
 10
-1.3185251897
 20
23.6804624767
 10
-1.2897562624
 20
23.6976932606
 10
-1.2600985801
 20
23.7128993314
 10
-1.2299007434
 20
23.7257201005
 10
-1.1994860103
 20
23.7361141102
 10
-1.1691692351
 20
23.7441285208
 10
-1.1392813328
 20
23.7495677372
 10
-1.110169589
 20
23.7524446302
 10
-1.0820594314
 20
23.7528554945
 10
-1.055089962
 20
23.7507345542
 10
-1.0294855889
 20
23.7460993665
 10
-1.0055382492
 20
23.7390717511
 10
-0.9834798745
 20
23.7297416351
  0
LWPOLYLINE
  5
2CA
100
AcDbEntity
  8
SUPERFICI
100
AcDbPolyline
 62
250
  6
CONTINUOUS
 90
16
 70
0
 10
-1.3963510907
 20
23.6174812098
 10
-1.3721217553
 20
23.6403442123
 10
-1.3460804271
 20
23.6613635241
 10
-1.3185251897
 20
23.6804624767
 10
-1.2897562624
 20
23.6976932606
 10
-1.2600985801
 20
23.7128993314
 10
-1.2299007434
 20
23.7257201005
 10
-1.1994860103
 20
23.7361141102
 10
-1.1691692351
 20
23.7441285208
 10
-1.1392813328
 20
23.7495677372
 10
-1.110169589
 20
23.7524446302
 10
-1.0820594314
 20
23.7528554945
 10
-1.055089962
 20
23.7507345542
 10
-1.0294855889
 20
23.7460993665
 10
-1.0055382492
 20
23.7390717511
 10
-0.9834798745
 20
23.7297416351
  0
LINE
  5
2CB
100
AcDbEntity
  8
SUPERFICI
100
AcDbLine
 62
7
  6
CONTINUOUS
 10
-0.2015149722
 20
23.106276662
 11
-1.0044926974
 21
22.3627841696
  0
LINE
  5
2CC
100
AcDbEntity
  8
RACCORDO
100
AcDbLine
 62
250
  6
CONTINUOUS
 10
-0.1046149061
 20
23.1065289404
 11
-0.9417476602
 21
22.331411651
  0
LINE
  5
2CD
100
AcDbEntity
  8
SUPERFICI
100
AcDbLine
 62
250
  6
CONTINUOUS
 10
-0.1046149061
 20
23.1065289404
 11
-0.9417476602
 21
22.331411651
  0
LINE
  5
2CE
100
AcDbEntity
  8
RACCORDO
100
AcDbLine
 62
7
  6
CONTINUOUS
 10
-0.2014152771
 20
23.1063687005
 11
-1.0044926974
 21
22.3627841696
  0
LINE
  5
2CF
100
AcDbEntity
  8
SUPERFICI
100
AcDbLine
 62
250
  6
CONTINUOUS
 10
-0.2014152771
 20
23.1063687005
 11
-0.2015149722
 21
23.106276662
  0
LWPOLYLINE
  5
2D0
100
AcDbEntity
  8
ASSI
100
AcDbPolyline
 62
7
  6
CONTINUOUS
 90
9
 70
0
 10
3.6479281445
 20
23.4750909892
 10
3.6462859092
 20
23.4740635256
 10
3.6427319686
 20
23.4700936848
 10
3.6392409891
 20
23.4638184706
 10
3.6358807386
 20
23.4550741848
 10
3.6327606819
 20
23.4440333097
 10
3.6300838894
 20
23.4313328857
 10
3.6279602675
 20
23.4171887672
 10
3.6263912883
 20
23.401394009
  0
LWPOLYLINE
  5
2D1
100
AcDbEntity
  8
ASSI
100
AcDbPolyline
 62
7
  6
CONTINUOUS
 90
12
 70
0
 10
-0.6366073677
 20
20.2910095377
 10
-0.647903001
 20
20.2845237163
 10
-0.6701940467
 20
20.2691817683
 10
-0.691091412
 20
20.2511877204
 10
-0.7102837389
 20
20.2307401407
 10
-0.7270584416
 20
20.2087128596
 10
-0.7417213492
 20
20.1848320216
 10
-0.7541976646
 20
20.1590143365
 10
-0.7638361068
 20
20.1325628218
 10
-0.7706432261
 20
20.1058089124
 10
-0.7747397983
 20
20.0780039508
 10
-0.7758675141
 20
20.0539463463
  0
LWPOLYLINE
  5
2D2
100
AcDbEntity
  8
ASSI
100
AcDbPolyline
 62
250
  6
CONTINUOUS
 90
12
 70
0
 10
-0.5442037637
 20
20.2868881165
 10
-0.5526657783
 20
20.2821955002
 10
-0.5613475967
 20
20.2768582648
 10
-0.5702245319
 20
20.2708461128
 10
-0.5792893592
 20
20.2641146356
 10
-0.5884880279
 20
20.2566531021
 10
-0.5977223864
 20
20.2484975624
 10
-0.6069558901
 20
20.2396414832
 10
-0.6161486502
 20
20.2300828494
 10
-0.6252004034
 20
20.2198922519
 10
-0.6340714246
 20
20.209086678
 10
-0.6427218164
 20
20.1976857233
  0
LINE
  5
2D3
100
AcDbEntity
  8
ASSI
100
AcDbLine
 62
7
  6
CONTINUOUS
 10
-1.0638964829
 20
20.3562347112
 11
-1.2822425203
 21
20.2370331915
  0
LINE
  5
2D4
100
AcDbEntity
  8
ASSI
100
AcDbLine
 62
7
  6
CONTINUOUS
 10
0.9305001056
 20
21.1365002802
 11
-0.6367003846
 21
20.2909596615
  0
LINE
  5
2D5
100
AcDbEntity
  8
ASSI
100
AcDbLine
 62
250
  6
CONTINUOUS
 10
1.0220469824
 20
21.1319163265
 11
-0.5442037637
 21
20.2868881165
  0
LINE
  5
2D6
100
AcDbEntity
  8
0
100
AcDbLine
 62
7
  6
CONTINUOUS
 10
14.2804282467
 20
26.0650039858
 11
10.2682722682
 21
24.0236041931
  0
LINE
  5
2D7
100
AcDbEntity
  8
SUPERFICI
100
AcDbLine
 62
7
  6
CONTINUOUS
 10
14.2804282467
 20
26.0650039858
 11
10.2682722682
 21
24.0236041931
  0
LINE
  5
2D8
100
AcDbEntity
  8
ASSI
100
AcDbLine
 62
7
  6
CONTINUOUS
 10
0.93054354
 20
21.1365236706
 11
0.9347099766
 21
21.138607175
  0
LINE
  5
2D9
100
AcDbEntity
  8
ASSI
100
AcDbLine
 62
7
  6
CONTINUOUS
 10
-1.0638964829
 20
20.3562347112
 11
2.8344654575
 21
22.2898509728
  0
LINE
  5
2DA
100
AcDbEntity
  8
DRAFT
100
AcDbLine
 62
7
  6
CONTINUOUS
 10
14.2804282467
 20
25.6571527185
 11
10.2682722682
 21
23.7022799109
  0
LINE
  5
2DB
100
AcDbEntity
  8
SUPERFICI
100
AcDbLine
 62
7
  6
CONTINUOUS
 10
14.2804282467
 20
25.6571527185
 11
10.2682722682
 21
23.7022799109
  0
LINE
  5
2DC
100
AcDbEntity
  8
RACCORDO
100
AcDbLine
 62
7
  6
CONTINUOUS
 10
13.284098657
 20
26.7365195463
 11
9.8536947565
 21
25.0991827333
  0
LINE
  5
2DD
100
AcDbEntity
  8
SUPERFICI
100
AcDbLine
 62
7
  6
CONTINUOUS
 10
13.284098657
 20
26.7365195463
 11
9.8536947565
 21
25.0991827333
  0
LINE
  5
2DE
100
AcDbEntity
  8
ASSI
100
AcDbLine
 62
7
  6
CONTINUOUS
 10
8.7463539124
 20
23.0750791756
 11
3.3816026402
 21
20.5341003525
  0
LINE
  5
2DF
100
AcDbEntity
  8
ASSI
100
AcDbLine
 62
250
  6
CONTINUOUS
 10
1.5647749975
 20
21.3825661093
 11
1.0220469824
 21
21.1319163265
  0
LINE
  5
2E0
100
AcDbEntity
  8
ASSI
100
AcDbLine
 62
7
  6
CONTINUOUS
 10
1.478689494
 20
21.3898344256
 11
0.9347657823
 21
21.1386329479
  0
LWPOLYLINE
  5
2E1
100
AcDbEntity
  8
ASSI
100
AcDbPolyline
 62
250
  6
CONTINUOUS
 90
13
 70
0
 10
1.6275654321
 20
18.9497918393
 10
1.6078320219
 20
18.9414267317
 10
1.5861041042
 20
18.9344052439
 10
1.5627452455
 20
18.9288448641
 10
1.5381463023
 20
18.9248386324
 10
1.512718881
 20
18.922453584
 10
1.4868884509
 20
18.921729627
 10
1.4610872245
 20
18.9226788753
 10
1.4357469256
 20
18.9252854453
 10
1.4112915657
 20
18.9295057222
 10
1.3881303486
 20
18.9352690893
 10
1.3666508239
 20
18.94247911
 10
1.3472124018
 20
18.9510151412
  0
LWPOLYLINE
  5
2E2
100
AcDbEntity
  8
DRAFT
100
AcDbPolyline
 62
7
  6
CONTINUOUS
 90
8
 70
0
 10
0.8806471654
 20
-18.7162717759
 10
0.9278142471
 20
-18.7369832938
 10
0.9737960053
 20
-18.751884152
 10
1.0185924399
 20
-18.7609743503
 10
1.0626370264
 20
-18.7642165243
 10
1.1054962894
 20
-18.7616480385
 10
1.1458698023
 20
-18.753380987
 10
1.1853301141
 20
-18.7384989096
  0
LWPOLYLINE
  5
2E3
100
AcDbEntity
  8
ASSI
100
AcDbPolyline
 62
250
  6
CONTINUOUS
 90
3
 70
0
 10
3.7756070883
 20
-21.3024500565
 10
3.7696608425
 20
-21.2997541644
 10
3.7525718393
 20
-21.2945369869
  0
LINE
  5
2E4
100
AcDbEntity
  8
ASSI
100
AcDbLine
 62
7
  6
CONTINUOUS
 10
0.2443633934
 20
-21.3636002694
 11
0.4117438835
 21
-21.4472905145
  0
LINE
  5
2E5
100
AcDbEntity
  8
ASSI
100
AcDbLine
 62
7
  6
CONTINUOUS
 10
0.2682158802
 20
-20.7942527566
 11
0.3790204162
 21
-20.8496550246
  0
LINE
  5
2E6
100
AcDbEntity
  8
ASSI
100
AcDbLine
 62
7
  6
CONTINUOUS
 10
1.3049112341
 20
-21.3126004335
 11
2.0319181828
 21
-21.6761039079
  0
LINE
  5
2E7
100
AcDbEntity
  8
ASSI
100
AcDbLine
 62
7
  6
CONTINUOUS
 10
0.7392258091
 20
-20.4039246961
 11
1.3049112341
 21
-20.6867674086
  0
LINE
  5
2E8
100
AcDbEntity
  8
ASSI
100
AcDbLine
 62
7
  6
CONTINUOUS
 10
2.0319181828
 20
-20.9821911806
 11
2.2320943618
 21
-21.0822792701
  0
LINE
  5
2E9
100
AcDbEntity
  8
ASSI
100
AcDbLine
 62
250
  6
CONTINUOUS
 10
3.2848102214
 20
-21.0606650123
 11
3.7525711001
 21
-21.2945366015
  0
LINE
  5
2EA
100
AcDbEntity
  8
ASSI
100
AcDbLine
 62
7
  6
CONTINUOUS
 10
3.7758465064
 20
-21.3025693151
 11
3.2848102214
 21
-21.0570511723
  0
LWPOLYLINE
  5
2EB
100
AcDbEntity
  8
ASSI
100
AcDbPolyline
 62
250
  6
CONTINUOUS
 90
13
 70
0
 10
1.4359093143
 20
-22.4343179071
 10
1.4546223968
 20
-22.4447554792
 10
1.4742153288
 20
-22.456956336
 10
1.494356579
 20
-22.470714027
 10
1.514705338
 20
-22.485795759
 10
1.5349172852
 20
-22.5019463344
 10
1.5546504149
 20
-22.5188924699
 10
1.5735708233
 20
-22.5363474205
 10
1.5913583591
 20
-22.5540158316
 10
1.6077120398
 20
-22.5715987366
 10
1.6223551454
 20
-22.5887986158
 10
1.6350399004
 20
-22.6053244305
 10
1.6455516665
 20
-22.6208965481
  0
LINE
  5
2EC
100
AcDbEntity
  8
RACCORDO
100
AcDbLine
 62
250
  6
CONTINUOUS
 10
-0.0715149813
 20
23.140255322
 11
-0.1046149061
 21
23.1065289404
  0
LINE
  5
2ED
100
AcDbEntity
  8
SUPERFICI
100
AcDbLine
 62
250
  6
CONTINUOUS
 10
-0.0715149813
 20
23.140255322
 11
-0.1046149061
 21
23.1065289404
  0
LWPOLYLINE
  5
2EE
100
AcDbEntity
  8
ASSI
100
AcDbPolyline
 62
7
  6
CONTINUOUS
 90
16
 70
0
 10
2.7573065424
 20
22.733629034
 10
2.7807448893
 20
22.7553564367
 10
2.8009665769
 20
22.7805815693
 10
2.8179716049
 20
22.8093044319
 10
2.831862388
 20
22.8418528721
 10
2.8425365117
 20
22.8778990423
 10
2.8496867323
 20
22.9164593992
 10
2.8532106353
 20
22.9577075853
 10
2.8532106353
 20
23.0014699581
 10
2.8496867323
 20
23.0462420472
 10
2.8425365117
 20
23.0919526247
 10
2.831862388
 20
23.1386729185
 10
2.8179716049
 20
23.1851121419
 10
2.8009665769
 20
23.2308400325
 10
2.7807448893
 20
23.2762868526
 10
2.7573065424
 20
23.3214526023
  0
LINE
  5
2EF
100
AcDbEntity
  8
ASSI
100
AcDbLine
 62
7
  6
CONTINUOUS
 10
0.1847161841
 20
19.1726811948
 11
0.2181795974
 21
19.1982627431
  0
LWPOLYLINE
  5
2F0
100
AcDbEntity
  8
ASSI
100
AcDbPolyline
 62
250
  6
CONTINUOUS
 90
7
 70
0
 10
3.8430466319
 20
20.0616933415
 10
3.859776833
 20
20.0715600372
 10
3.873819802
 20
20.0824239869
 10
3.8849405611
 20
20.0941034082
 10
3.8929530288
 20
20.1064028735
 10
3.8977231336
 20
20.1191165803
 10
3.8991786719
 20
20.1311591785
  0
LWPOLYLINE
  5
2F1
100
AcDbEntity
  8
ASSI
100
AcDbPolyline
 62
250
  6
CONTINUOUS
 90
7
 70
0
 10
3.8430466319
 20
19.7217497467
 10
3.8597768471
 20
19.7316164518
 10
3.8738198228
 20
19.7424804106
 10
3.8849405824
 20
19.75415984
 10
3.8929530457
 20
19.7664593116
 10
3.8977231426
 20
19.7791730222
 10
3.8991786719
 20
19.7912155837
  0
LWPOLYLINE
  5
2F2
100
AcDbEntity
  8
ASSI
100
AcDbPolyline
 62
250
  6
CONTINUOUS
 90
28
 70
0
 10
1.5215102777
 20
19.2540310958
 10
1.5123885525
 20
19.2490210209
 10
1.5031150884
 20
19.2433359064
 10
1.4937181535
 20
19.2369573618
 10
1.4842085393
 20
19.2298541063
 10
1.4746416088
 20
19.2220274451
 10
1.4651143514
 20
19.2135239176
 10
1.4556631539
 20
19.2043494458
 10
1.4463266958
 20
19.194514158
 10
1.4372007053
 20
19.1840973503
 10
1.428324021
 20
19.1731297037
 10
1.4197288336
 20
19.1616368802
 10
1.4114912375
 20
19.1497115491
 10
1.4036486537
 20
19.1374075932
 10
1.3962199501
 20
19.1247544199
 10
1.3892440319
 20
19.1118185719
 10
1.3827482233
 20
19.0986558316
 10
1.3767477794
 20
19.0853026809
 10
1.3712592795
 20
19.0717990014
 10
1.3663003198
 20
19.058190746
 10
1.36188715
 20
19.0445255235
 10
1.3580327966
 20
19.030845708
 10
1.3547499596
 20
19.0171982607
 10
1.352049281
 20
19.0036297913
 10
1.3499389062
 20
18.9901819367
 10
1.3484260144
 20
18.9768991988
 10
1.3475161127
 20
18.9638286712
 10
1.3472124018
 20
18.9510151412
  0
LINE
  5
2F3
100
AcDbEntity
  8
ASSI
100
AcDbLine
 62
7
  6
CONTINUOUS
 10
3.2848102214
 20
18.1818813591
 11
2.3823594707
 21
17.6892069682
  0
LWPOLYLINE
  5
2F4
100
AcDbEntity
  8
0
100
AcDbPolyline
 62
7
  6
CONTINUOUS
 90
13
 70
0
 10
10.2682722682
 20
24.0236041931
 10
10.1392874501
 20
23.9532504747
 10
10.0203741659
 20
23.8785924261
 10
9.9121053324
 20
23.7999897452
 10
9.8150025824
 20
23.717821135
 10
9.729533751
 20
23.6324824788
 10
9.656110622
 20
23.5443849332
 10
9.5950869433
 20
23.4539529467
 10
9.5467567236
 20
23.3616222152
 10
9.5113528147
 20
23.2678375825
 10
9.4890457906
 20
23.1730508973
 10
9.4799431252
 20
23.0777188362
 10
9.4797110034
 20
23.0598539547
  0
LWPOLYLINE
  5
2F5
100
AcDbEntity
  8
SUPERFICI
100
AcDbPolyline
 62
7
  6
CONTINUOUS
 90
13
 70
0
 10
10.2682722682
 20
24.0236041931
 10
10.1392874501
 20
23.9532504747
 10
10.0203741659
 20
23.8785924261
 10
9.9121053324
 20
23.7999897452
 10
9.8150025824
 20
23.717821135
 10
9.729533751
 20
23.6324824788
 10
9.656110622
 20
23.5443849332
 10
9.5950869433
 20
23.4539529467
 10
9.5467567236
 20
23.3616222152
 10
9.5113528147
 20
23.2678375825
 10
9.4890457906
 20
23.1730508973
 10
9.4799431252
 20
23.0777188362
 10
9.4797110034
 20
23.0598539547
  0
LINE
  5
2F6
100
AcDbEntity
  8
ASSI
100
AcDbLine
 62
250
  6
CONTINUOUS
 10
3.3205288976
 20
18.164022021
 11
2.2320943618
 21
17.5794994148
  0
LWPOLYLINE
  5
2F7
100
AcDbEntity
  8
ASSI
100
AcDbPolyline
 62
250
  6
CONTINUOUS
 90
28
 70
0
 10
1.6629100948
 20
19.0101524865
 10
1.6610498486
 20
19.0091683199
 10
1.6591713284
 20
19.0080429829
 10
1.6572745341
 20
19.0067764754
 10
1.6553481914
 20
19.0053661635
 10
1.6534035746
 20
19.0038146811
 10
1.6514745069
 20
19.0021299305
 10
1.6495608996
 20
19.0003069744
 10
1.6476628415
 20
18.99835075
 10
1.6458144221
 20
18.9962839706
 10
1.6440175587
 20
18.9941035273
 10
1.6422703339
 20
18.9918125291
 10
1.6406010858
 20
18.9894430162
 10
1.6390132429
 20
18.98699548
 10
1.6375033765
 20
18.9844694293
 10
1.6360895392
 20
18.9818954296
 10
1.6347740197
 20
18.9792748518
 10
1.6335545293
 20
18.9766063251
 10
1.6324422535
 20
18.9739163035
 10
1.6314381067
 20
18.9712045617
 10
1.6305411746
 20
18.968471325
 10
1.6297599003
 20
18.9657437231
 10
1.6290953397
 20
18.9630218682
 10
1.628546437
 20
18.9603056481
 10
1.6281184673
 20
18.9576218559
 10
1.6278131892
 20
18.9549794225
 10
1.6276288441
 20
18.952369417
 10
1.6275654321
 20
18.9497918393
  0
LINE
  5
2F8
100
AcDbEntity
  8
ASSI
100
AcDbLine
 62
7
  6
CONTINUOUS
 10
9.9602795225
 20
22.1059668691
 11
3.5733906807
 21
18.729581381
  0
LINE
  5
2F9
100
AcDbEntity
  8
0
100
AcDbLine
 62
7
  6
CONTINUOUS
 10
9.9374414081
 20
22.7517021128
 11
10.5882150629
 21
23.0948679289
  0
LINE
  5
2FA
100
AcDbEntity
  8
RACCORDO
100
AcDbLine
 62
250
  6
CONTINUOUS
 10
10.5880872809
 20
23.094800542
 11
10.5882150629
 21
23.0948679289
  0
LINE
  5
2FB
100
AcDbEntity
  8
ASSI
100
AcDbLine
 62
7
  6
CONTINUOUS
 10
9.9376122324
 20
22.5046619844
 11
3.4003364691
 21
19.0782205663
  0
LINE
  5
2FC
100
AcDbEntity
  8
ASSI
100
AcDbLine
 62
250
  6
CONTINUOUS
 10
3.1434104043
 20
20.0712346156
 11
1.5215102777
 21
19.2540310958
  0
LINE
  5
2FD
100
AcDbEntity
  8
ASSI
100
AcDbLine
 62
250
  6
CONTINUOUS
 10
3.2848102214
 20
19.8273560062
 11
1.6629100948
 21
19.0101524865
  0
LINE
  5
2FE
100
AcDbEntity
  8
0
100
AcDbLine
 62
7
  6
CONTINUOUS
 10
10.7165024917
 20
22.8717761975
 11
11.2114772385
 21
23.1192635709
  0
LINE
  5
2FF
100
AcDbEntity
  8
RACCORDO
100
AcDbLine
 62
7
  6
CONTINUOUS
 10
13.679655151
 20
23.2997634232
 11
12.36819084
 21
22.6440312677
  0
LINE
  5
300
100
AcDbEntity
  8
ASSI
100
AcDbLine
 62
250
  6
CONTINUOUS
 10
3.6675148709
 20
20.3311942947
 11
3.1434104043
 21
20.0712346156
  0
LINE
  5
301
100
AcDbEntity
  8
ASSI
100
AcDbLine
 62
250
  6
CONTINUOUS
 10
3.8089146879
 20
20.0873156854
 11
3.2848102214
 21
19.8273560062
  0
LINE
  5
302
100
AcDbEntity
  8
ASSI
100
AcDbLine
 62
250
  6
CONTINUOUS
 10
4.0149835948
 20
18.5087849239
 11
3.3202194084
 21
18.1641767656
  0
LINE
  5
303
100
AcDbEntity
  8
DRAFT
100
AcDbLine
 62
7
  6
CONTINUOUS
 10
10.446174688
 20
21.5929758276
 11
4.0526732628
 21
18.4873383444
  0
LINE
  5
304
100
AcDbEntity
  8
SUPERFICI
100
AcDbLine
 62
7
  6
CONTINUOUS
 10
10.446174688
 20
21.5929758276
 11
4.0526732628
 21
18.4873383444
  0
LWPOLYLINE
  5
305
100
AcDbEntity
  8
RACCORDO
100
AcDbPolyline
 62
7
  6
CONTINUOUS
 90
10
 70
0
 10
14.5281569629
 20
22.8754861917
 10
14.5395534271
 20
22.880654847
 10
14.5507738296
 20
22.8847067433
 10
14.5618181703
 20
22.8876418809
 10
14.5727814292
 20
22.8894604122
 10
14.5835686264
 20
22.8901621847
 10
14.5938948218
 20
22.8897467403
 10
14.6036650356
 20
22.8882139264
 10
14.6129742476
 20
22.8855638957
 10
14.6218224579
 20
22.8817966481
  0
LINE
  5
306
100
AcDbEntity
  8
RACCORDO
100
AcDbLine
 62
250
  6
CONTINUOUS
 10
-1.8756557562
 20
15.461319
 11
1.4887598878
 21
16.9525275691
  0
LWPOLYLINE
  5
307
100
AcDbEntity
  8
ASSI
100
AcDbPolyline
 62
250
  6
CONTINUOUS
 90
13
 70
0
 10
1.6275654321
 20
18.6325230389
 10
1.6078319818
 20
18.6241578957
 10
1.5861040254
 20
18.6171363836
 10
1.5627451333
 20
18.61157599
 10
1.5381461653
 20
18.6075697535
 10
1.5127187299
 20
18.6051847073
 10
1.4868882967
 20
18.604460758
 10
1.4610870791
 20
18.6054100178
 10
1.4357467997
 20
18.6080166011
 10
1.4112914666
 20
18.6122368912
 10
1.3881302809
 20
18.6180002706
 10
1.3666507902
 20
18.6252103017
 10
1.3472124018
 20
18.6337463407
  0
LWPOLYLINE
  5
308
100
AcDbEntity
  8
DRAFT
100
AcDbPolyline
 62
7
  6
CONTINUOUS
 90
9
 70
0
 10
0.8806471654
 20
-17.5159294344
 10
0.8334800836
 20
-17.4952179165
 10
0.7874983254
 20
-17.4803170584
 10
0.7427018908
 20
-17.47122686
 10
0.6986573043
 20
-17.467984686
 10
0.6557980413
 20
-17.4705531718
 10
0.6154245284
 20
-17.4788202233
 10
0.5777219029
 20
-17.4928788867
 10
0.5656619763
 20
-17.4988549897
  0
LWPOLYLINE
  5
309
100
AcDbEntity
  8
DRAFT
100
AcDbPolyline
 62
7
  6
CONTINUOUS
 90
9
 70
0
 10
1.1634898778
 20
-17.3684614663
 10
1.115847604
 20
-17.3475412922
 10
1.0694026031
 20
-17.3324903129
 10
1.0241548752
 20
-17.3233085281
 10
0.9796665826
 20
-17.3200336801
 10
0.9363755631
 20
-17.3226280268
 10
0.8955953294
 20
-17.3309783417
 10
0.8575128685
 20
-17.3451786296
 10
0.8453312568
 20
-17.3512150345
  0
LINE
  5
30A
100
AcDbEntity
  8
ASSI
100
AcDbLine
 62
250
  6
CONTINUOUS
 10
3.7705174216
 20
-21.3053218603
 11
3.7525202453
 21
-21.2945263338
  0
LWPOLYLINE
  5
30B
100
AcDbEntity
  8
ASSI
100
AcDbPolyline
 62
7
  6
CONTINUOUS
 90
9
 70
0
 10
-13.3623686618
 20
26.0298897238
 10
-13.3622350423
 20
26.0217629791
 10
-13.3600522692
 20
25.9959951598
 10
-13.3552046377
 20
25.9708177116
 10
-13.3477418872
 20
25.9465488181
 10
-13.3378375646
 20
25.9235821553
 10
-13.3256267828
 20
25.9020677769
 10
-13.3112096777
 20
25.8821333799
 10
-13.2948273366
 20
25.864079032
  0
LWPOLYLINE
  5
30C
100
AcDbEntity
  8
0
100
AcDbPolyline
 62
7
  6
CONTINUOUS
 90
34
 70
0
 10
-12.5061319123
 20
-11.9901704676
 10
-12.5055626158
 20
-12.048855706
 10
-12.5017554308
 20
-12.108792364
 10
-12.4947099433
 20
-12.1699802659
 10
-12.4843430068
 20
-12.2329235869
 10
-12.4707357736
 20
-12.2971172872
 10
-12.4541344538
 20
-12.3610474673
 10
-12.4343983862
 20
-12.4246603463
 10
-12.4116657985
 20
-12.4880086966
 10
-12.3866023674
 20
-12.5497389778
 10
-12.3592295115
 20
-12.6096082046
 10
-12.3295237335
 20
-12.667858528
 10
-12.2980846141
 20
-12.723864684
 10
-12.2649972547
 20
-12.777483661
 10
-12.2301747971
 20
-12.8288577655
 10
-12.1939597509
 20
-12.8777900891
 10
-12.1562786113
 20
-12.9243611625
 10
-12.1172029561
 20
-12.9684896549
 10
-12.0772938739
 20
-13.0097362798
 10
-12.0365633139
 20
-13.0480544256
 10
-11.9949983047
 20
-13.0834902815
 10
-11.9531238531
 20
-13.1157443287
 10
-11.9113089382
 20
-13.1446685129
 10
-11.869184744
 20
-13.1704109662
 10
-11.8261693903
 20
-13.1931163577
 10
-11.7818214429
 20
-13.2131074336
 10
-11.736579634
 20
-13.2300602454
 10
-11.691182438
 20
-13.243149462
 10
-11.6452967486
 20
-13.2522105888
 10
-11.599254444
 20
-13.2574075405
 10
-11.5547949047
 20
-13.2584091083
 10
-11.5123643793
 20
-13.2549453512
 10
-11.4715203837
 20
-13.2472878231
 10
-11.4312764765
 20
-13.235432214
  0
LINE
  5
30D
100
AcDbEntity
  8
ASSI
100
AcDbLine
 62
7
  6
CONTINUOUS
 10
-13.3623682232
 20
26.0298897241
 11
-13.3623682698
 21
26.3472268331
  0
LINE
  5
30E
100
AcDbEntity
  8
ASSI
100
AcDbLine
 62
250
  6
CONTINUOUS
 10
-13.3037896261
 20
25.9592647053
 11
-13.3037896261
 21
26.2765161551
  0
LINE
  5
30F
100
AcDbEntity
  8
0
100
AcDbLine
 62
7
  6
CONTINUOUS
 10
-13.1276480771
 20
24.8263577287
 11
-13.1276480771
 21
24.2607315515
  0
LINE
  5
310
100
AcDbEntity
  8
ASSI
100
AcDbLine
 62
7
  6
CONTINUOUS
 10
-12.6475051494
 20
25.0744112102
 11
-12.6475051494
 21
25.5283733146
  0
LINE
  5
311
100
AcDbEntity
  8
ASSI
100
AcDbLine
 62
250
  6
CONTINUOUS
 10
-12.5742818447
 20
24.982687518
 11
-12.5742818447
 21
25.4917616622
  0
LINE
  5
312
100
AcDbEntity
  8
ASSI
100
AcDbLine
 62
7
  6
CONTINUOUS
 10
-12.4415444125
 20
24.7914711085
 11
-12.4415444125
 21
25.4293165294
  0
LINE
  5
313
100
AcDbEntity
  8
ASSI
100
AcDbLine
 62
250
  6
CONTINUOUS
 10
-12.3683211078
 20
24.7406800707
 11
-12.3683211078
 21
25.4915130956
  0
LINE
  5
314
100
AcDbEntity
  8
ASSI
100
AcDbLine
 62
250
  6
CONTINUOUS
 10
-12.1747568217
 20
24.6438979276
 11
-12.1747568217
 21
25.3947309526
  0
LINE
  5
315
100
AcDbEntity
  8
0
100
AcDbLine
 62
7
  6
CONTINUOUS
 10
-12.5014597296
 20
-11.7060691922
 11
-12.5061319123
 21
-11.9901704676
  0
LINE
  5
316
100
AcDbEntity
  8
DRAFT
100
AcDbLine
 62
7
  6
CONTINUOUS
 10
-12.5061319375
 20
-11.9901702264
 11
-12.5014564145
 21
-11.7058711516
  0
LINE
  5
317
100
AcDbEntity
  8
0
100
AcDbLine
 62
7
  6
CONTINUOUS
 10
-12.4965360464
 20
-11.4181717156
 11
-12.5014597296
 21
-11.7060691922
  0
LINE
  5
318
100
AcDbEntity
  8
DRAFT
100
AcDbLine
 62
7
  6
CONTINUOUS
 10
-12.5014564145
 20
-11.7058711516
 11
-12.4965282232
 21
-11.4177230821
  0
LINE
  5
319
100
AcDbEntity
  8
0
100
AcDbLine
 62
7
  6
CONTINUOUS
 10
-12.4913529488
 20
-11.1264466708
 11
-12.4965360464
 21
-11.4181717156
  0
LINE
  5
31A
100
AcDbEntity
  8
DRAFT
100
AcDbLine
 62
7
  6
CONTINUOUS
 10
-12.4965282232
 20
-11.4177230821
 11
-12.491341368
 21
-11.1258069254
  0
LINE
  5
31B
100
AcDbEntity
  8
0
100
AcDbLine
 62
7
  6
CONTINUOUS
 10
-12.4859007683
 20
-10.8307784504
 11
-12.4913529488
 21
-11.1264466708
  0
LINE
  5
31C
100
AcDbEntity
  8
DRAFT
100
AcDbLine
 62
7
  6
CONTINUOUS
 10
-12.491341368
 20
-11.1258069254
 11
-12.4858977312
 21
-10.8306181761
  0
LINE
  5
31D
100
AcDbEntity
  8
0
100
AcDbLine
 62
7
  6
CONTINUOUS
 10
-12.4801932626
 20
-10.5322756849
 11
-12.4859007683
 21
-10.8307784504
  0
LINE
  5
31E
100
AcDbEntity
  8
DRAFT
100
AcDbLine
 62
7
  6
CONTINUOUS
 10
-12.4858977312
 20
-10.8306181761
 11
-12.4801942764
 21
-10.5323282415
  0
LWPOLYLINE
  5
31F
100
AcDbEntity
  8
ASSI
100
AcDbPolyline
 62
250
  6
CONTINUOUS
 90
18
 70
0
 10
-13.3037896261
 20
26.2765161551
 10
-13.3035838519
 20
26.2870762482
 10
-13.3029437323
 20
26.2981318504
 10
-13.3018341642
 20
26.3096706673
 10
-13.3002161031
 20
26.3217037494
 10
-13.2980579023
 20
26.3341811386
 10
-13.2953470967
 20
26.3469890596
 10
-13.2920631145
 20
26.3600931679
 10
-13.2881874906
 20
26.3734538823
 10
-13.2837347023
 20
26.3869407169
 10
-13.2787014564
 20
26.4005075273
 10
-13.2730873613
 20
26.4141041431
 10
-13.2669355904
 20
26.4275927356
 10
-13.2602648977
 20
26.4409154431
 10
-13.2530887959
 20
26.4540294185
 10
-13.245462483
 20
26.4668254482
 10
-13.2374231547
 20
26.4792431804
 10
-13.2289908122
 20
26.4912535391
  0
LINE
  5
320
100
AcDbEntity
  8
DRAFT
100
AcDbLine
 62
7
  6
CONTINUOUS
 10
-12.4801942764
 20
-10.5323282415
 11
-12.474334803
 21
-10.236398066
  0
LINE
  5
321
100
AcDbEntity
  8
0
100
AcDbLine
 62
7
  6
CONTINUOUS
 10
-12.4743306978
 20
-10.2361942204
 11
-12.4801932626
 21
-10.5322756849
  0
LINE
  5
322
100
AcDbEntity
  8
DRAFT
100
AcDbLine
 62
7
  6
CONTINUOUS
 10
-12.474334803
 20
-10.236398066
 11
-12.4683341761
 21
-9.9433026691
  0
LINE
  5
323
100
AcDbEntity
  8
0
100
AcDbLine
 62
7
  6
CONTINUOUS
 10
-12.4683316378
 20
-9.9431806827
 11
-12.4743306978
 21
-10.2361942204
  0
LINE
  5
324
100
AcDbEntity
  8
DRAFT
100
AcDbLine
 62
7
  6
CONTINUOUS
 10
-12.4683341761
 20
-9.9433026691
 11
-12.4622052947
 21
-9.653368657
  0
LINE
  5
325
100
AcDbEntity
  8
0
100
AcDbLine
 62
7
  6
CONTINUOUS
 10
-12.4622044537
 20
-9.6533294875
 11
-12.4683316378
 21
-9.9431806827
  0
LINE
  5
326
100
AcDbEntity
  8
0
100
AcDbLine
 62
7
  6
CONTINUOUS
 10
-12.4559561744
 20
-9.3666666924
 11
-12.4622044537
 21
-9.6533294875
  0
LINE
  5
327
100
AcDbEntity
  8
DRAFT
100
AcDbLine
 62
7
  6
CONTINUOUS
 10
-12.4622052947
 20
-9.653368657
 11
-12.4559561802
 21
-9.3666669563
  0
LWPOLYLINE
  5
328
100
AcDbEntity
  8
DRAFT
100
AcDbPolyline
 62
7
  6
CONTINUOUS
 90
3
 70
0
 10
-12.4559561802
 20
-9.3666669563
 10
-12.4515138661
 20
-9.2927232613
 10
-12.4421210937
 20
-9.2229871415
  0
LWPOLYLINE
  5
329
100
AcDbEntity
  8
ASSI
100
AcDbPolyline
 62
7
  6
CONTINUOUS
 90
3
 70
0
 10
-8.6966237253
 20
26.0153211515
 10
-8.6912593793
 20
26.0394781693
 10
-8.6881164075
 20
26.0643076581
  0
LWPOLYLINE
  5
32A
100
AcDbEntity
  8
ASSI
100
AcDbPolyline
 62
250
  6
CONTINUOUS
 90
17
 70
0
 10
-0.6427218164
 20
20.1976857233
 10
-0.6510601016
 20
20.1857886353
 10
-0.6590462297
 20
20.173439273
 10
-0.6666516266
 20
20.1606677023
 10
-0.6738144508
 20
20.1475691265
 10
-0.6805006068
 20
20.1342050223
 10
-0.686693365
 20
20.1206077517
 10
-0.6923657534
 20
20.1068352399
 10
-0.6974962608
 20
20.0929396516
 10
-0.7020675499
 20
20.0789677576
 10
-0.7060629862
 20
20.064970532
 10
-0.7094683175
 20
20.0509975746
 10
-0.712271101
 20
20.0370993547
 10
-0.7144610112
 20
20.0233279906
 10
-0.7160304237
 20
20.0097334647
 10
-0.7169740948
 20
19.9963635041
 10
-0.7172889209
 20
19.9832658026
  0
LINE
  5
32B
100
AcDbEntity
  8
ASSI
100
AcDbLine
 62
250
  6
CONTINUOUS
 10
3.6737189511
 20
17.5544140887
 11
2.5852844152
 21
16.9698914826
  0
LINE
  5
32C
100
AcDbEntity
  8
RACCORDO
100
AcDbLine
 62
7
  6
CONTINUOUS
 10
14.5281858587
 20
22.8755006397
 11
13.6492932076
 21
22.4360543141
  0
LINE
  5
32D
100
AcDbEntity
  8
RACCORDO
100
AcDbLine
 62
250
  6
CONTINUOUS
 10
19.2109768831
 20
23.2592470372
 11
4.6737189511
 21
16.031447418
  0
LINE
  5
32E
100
AcDbEntity
  8
SUPERFICI
100
AcDbLine
 62
250
  6
CONTINUOUS
 10
19.2109768831
 20
23.2592470372
 11
4.6737189511
 21
16.031447418
  0
LINE
  5
32F
100
AcDbEntity
  8
ASSI
100
AcDbLine
 62
250
  6
CONTINUOUS
 10
4.3684831375
 20
17.8990884006
 11
3.6737189511
 21
17.5544802423
  0
LINE
  5
330
100
AcDbEntity
  8
RACCORDO
100
AcDbLine
 62
7
  6
CONTINUOUS
 10
18.7914336722
 20
23.9828520387
 11
11.1988687719
 21
20.2947705666
  0
LINE
  5
331
100
AcDbEntity
  8
SUPERFICI
100
AcDbLine
 62
7
  6
CONTINUOUS
 10
18.7914336722
 20
23.9828520387
 11
11.1988687719
 21
20.2947705666
  0
LINE
  5
332
100
AcDbEntity
  8
RACCORDO
100
AcDbLine
 62
7
  6
CONTINUOUS
 10
17.9857617361
 20
24.3856880067
 11
14.5646156663
 21
22.7437222784
  0
LINE
  5
333
100
AcDbEntity
  8
SUPERFICI
100
AcDbLine
 62
7
  6
CONTINUOUS
 10
17.9857617361
 20
24.3856880067
 11
14.5646156663
 21
22.7437222784
  0
LWPOLYLINE
  5
334
100
AcDbEntity
  8
RACCORDO
100
AcDbPolyline
 62
7
  6
CONTINUOUS
 90
9
 70
0
 10
18.7914336722
 20
23.9828520387
 10
18.8475795499
 20
24.008115077
 10
18.9008122608
 20
24.0275675695
 10
18.9506827212
 20
24.0411971804
 10
18.996653491
 20
24.0491048679
 10
19.0384454525
 20
24.0513378458
 10
19.0760383626
 20
24.0478808315
 10
19.1090726512
 20
24.0389442274
 10
19.1236346016
 20
24.0325711695
  0
LWPOLYLINE
  5
335
100
AcDbEntity
  8
SUPERFICI
100
AcDbPolyline
 62
7
  6
CONTINUOUS
 90
9
 70
0
 10
18.7914336722
 20
23.9828520387
 10
18.8475795499
 20
24.008115077
 10
18.9008122608
 20
24.0275675695
 10
18.9506827212
 20
24.0411971804
 10
18.996653491
 20
24.0491048679
 10
19.0384454525
 20
24.0513378458
 10
19.0760383626
 20
24.0478808315
 10
19.1090726512
 20
24.0389442274
 10
19.1236346016
 20
24.0325711695
  0
LINE
  5
336
100
AcDbEntity
  8
RACCORDO
100
AcDbLine
 62
250
  6
CONTINUOUS
 10
-1.5407207336
 20
14.8430831809
 11
1.8236949104
 21
16.33429175
  0
LINE
  5
337
100
AcDbEntity
  8
DRAFT
100
AcDbLine
 62
7
  6
CONTINUOUS
 10
2.5852844152
 20
-16.3040066572
 11
0.7392258091
 21
-15.3809773542
  0
LWPOLYLINE
  5
338
100
AcDbEntity
  8
0
100
AcDbPolyline
 62
7
  6
CONTINUOUS
 90
25
 70
0
 10
-11.0722354447
 20
-10.0585269492
 10
-11.0732472354
 20
-9.9824076969
 10
-11.079407455
 20
-9.9051782445
 10
-11.0907156084
 20
-9.8268383885
 10
-11.1073238588
 20
-9.746705971
 10
-11.1290761121
 20
-9.6654614329
 10
-11.155509376
 20
-9.585148439
 10
-11.1867414253
 20
-9.505838296
 10
-11.2226481182
 20
-9.4274569442
 10
-11.2624052263
 20
-9.3518307574
 10
-11.3061123581
 20
-9.2790215474
 10
-11.3536624065
 20
-9.2089642736
 10
-11.4039239062
 20
-9.1432963069
 10
-11.4569420998
 20
-9.0821462281
 10
-11.5126653765
 20
-9.0253827359
 10
-11.569821018
 20
-8.9742551643
 10
-11.6284162579
 20
-8.9288952424
 10
-11.6884402587
 20
-8.8891697247
 10
-11.7485978756
 20
-8.8559325405
 10
-11.8089217188
 20
-8.8293080688
 10
-11.8693790157
 20
-8.8091718913
 10
-11.9285815892
 20
-8.7960069457
 10
-11.9865039831
 20
-8.7899819654
 10
-12.0431754134
 20
-8.7909298474
 10
-12.0972946114
 20
-8.7988319117
  0
LINE
  5
339
100
AcDbEntity
  8
ASSI
100
AcDbLine
 62
250
  6
CONTINUOUS
 10
-11.8243155337
 20
24.5195503511
 11
-11.8243155337
 21
25.1167785067
  0
LINE
  5
33A
100
AcDbEntity
  8
ASSI
100
AcDbLine
 62
7
  6
CONTINUOUS
 10
-11.281589471
 20
24.8454154754
 11
-11.281589471
 21
24.4044210335
  0
LINE
  5
33B
100
AcDbEntity
  8
ASSI
100
AcDbLine
 62
250
  6
CONTINUOUS
 10
-11.2392883033
 20
24.9269966934
 11
-11.2392883033
 21
25.2442654938
  0
LINE
  5
33C
100
AcDbEntity
  8
ASSI
100
AcDbLine
 62
250
  6
CONTINUOUS
 10
-10.958935273
 20
24.9257733915
 11
-10.958935273
 21
25.2430421919
  0
LINE
  5
33D
100
AcDbEntity
  8
ASSI
100
AcDbLine
 62
250
  6
CONTINUOUS
 10
-10.5545825223
 20
23.9728378568
 11
-10.5545825223
 21
24.6530091451
  0
LINE
  5
33E
100
AcDbEntity
  8
ASSI
100
AcDbLine
 62
250
  6
CONTINUOUS
 10
-10.2041412344
 20
24.7406577668
 11
-10.2041412344
 21
23.9824573207
  0
LINE
  5
33F
100
AcDbEntity
  8
0
100
AcDbLine
 62
250
  6
CONTINUOUS
 10
-9.9901853515
 20
22.8385571645
 11
-9.9901853515
 21
22.6920001887
  0
LINE
  5
340
100
AcDbEntity
  8
0
100
AcDbLine
 62
250
  6
CONTINUOUS
 10
-9.7110930801
 20
22.6990110288
 11
-9.7110930801
 21
22.552454053
  0
LWPOLYLINE
  5
341
100
AcDbEntity
  8
ASSI
100
AcDbPolyline
 62
250
  6
CONTINUOUS
 90
28
 70
0
 10
-10.958935273
 20
25.2430421919
 10
-10.9589035159
 20
25.2451821387
 10
-10.9587680779
 20
25.2474106577
 10
-10.958528959
 20
25.249727749
 10
-10.9581902588
 20
25.2521449654
 10
-10.9577478777
 20
25.254650754
 10
-10.9571895174
 20
25.2572104562
 10
-10.9565111296
 20
25.2598268581
 10
-10.9557167627
 20
25.2624971737
 10
-10.9548062628
 20
25.2651783864
 10
-10.9537755525
 20
25.2678712978
 10
-10.9526287092
 20
25.2705751064
 10
-10.9513778121
 20
25.2732443912
 10
-10.9500208345
 20
25.2758762575
 10
-10.9485598031
 20
25.2784736
 10
-10.9470128771
 20
25.2809996817
 10
-10.9453798393
 20
25.2834511298
 10
-10.9436609069
 20
25.2858313171
 10
-10.941874891
 20
25.2881136252
 10
-10.9400212376
 20
25.2902966114
 10
-10.9381005007
 20
25.2923817185
 10
-10.9361331538
 20
25.2943466559
 10
-10.9341186362
 20
25.2961901153
 10
-10.9320575086
 20
25.2979134051
 10
-10.9299719267
 20
25.2994981589
 10
-10.9278692756
 20
25.3009382548
 10
-10.9257421702
 20
25.3022398149
 10
-10.9235906104
 20
25.3034028391
  0
LINE
  5
342
100
AcDbEntity
  8
DRAFT
100
AcDbLine
 62
7
  6
CONTINUOUS
 10
-11.1176433209
 20
-12.3913444316
 11
-11.1224275978
 21
-12.6820006188
  0
LINE
  5
343
100
AcDbEntity
  8
0
100
AcDbLine
 62
7
  6
CONTINUOUS
 10
-11.1224276064
 20
-12.6820011526
 11
-11.1176433219
 21
-12.3913444936
  0
LINE
  5
344
100
AcDbEntity
  8
DRAFT
100
AcDbLine
 62
7
  6
CONTINUOUS
 10
-11.112663511
 20
-12.1005966217
 11
-11.1176433209
 21
-12.3913444316
  0
LINE
  5
345
100
AcDbEntity
  8
0
100
AcDbLine
 62
7
  6
CONTINUOUS
 10
-11.1176433219
 20
-12.3913444936
 11
-11.1126635098
 21
-12.1005965493
  0
LINE
  5
346
100
AcDbEntity
  8
DRAFT
100
AcDbLine
 62
7
  6
CONTINUOUS
 10
-11.1074881733
 20
-11.8097574282
 11
-11.112663511
 21
-12.1005966217
  0
LINE
  5
347
100
AcDbEntity
  8
0
100
AcDbLine
 62
7
  6
CONTINUOUS
 10
-11.1126635098
 20
-12.1005965493
 11
-11.107488174
 21
-11.809757467
  0
LINE
  5
348
100
AcDbEntity
  8
DRAFT
100
AcDbLine
 62
7
  6
CONTINUOUS
 10
-11.1021173148
 20
-11.5188272032
 11
-11.1074881733
 21
-11.8097574282
  0
LINE
  5
349
100
AcDbEntity
  8
0
100
AcDbLine
 62
7
  6
CONTINUOUS
 10
-11.107488174
 20
-11.809757467
 11
-11.1021173154
 21
-11.5188272313
  0
LINE
  5
34A
100
AcDbEntity
  8
DRAFT
100
AcDbLine
 62
7
  6
CONTINUOUS
 10
-11.0964814914
 20
-11.2242380695
 11
-11.1021173148
 21
-11.5188272032
  0
LINE
  5
34B
100
AcDbEntity
  8
0
100
AcDbLine
 62
7
  6
CONTINUOUS
 10
-11.1021173154
 20
-11.5188272313
 11
-11.0964771858
 21
-11.2240169081
  0
LWPOLYLINE
  5
34C
100
AcDbEntity
  8
ASSI
100
AcDbPolyline
 62
250
  6
CONTINUOUS
 90
28
 70
0
 10
-11.2392883033
 20
25.2442654938
 10
-11.2390771975
 20
25.2549344912
 10
-11.2384206587
 20
25.2660854712
 10
-11.2372851401
 20
25.2777047787
 10
-11.2356333951
 20
25.289802278
 10
-11.2334354456
 20
25.302326842
 10
-11.2306803856
 20
25.3151636
 10
-11.227349449
 20
25.3282775685
 10
-11.2234263218
 20
25.3416287465
 10
-11.2189276428
 20
25.3550863293
 10
-11.2138526281
 20
25.3686025891
 10
-11.2082023349
 20
25.3821298451
 10
-11.2020197773
 20
25.395536452
 10
-11.1953268693
 20
25.4087613386
 10
-11.188136134
 20
25.4217674131
 10
-11.1804936842
 20
25.4344640981
 10
-11.1724333917
 20
25.4467944674
 10
-11.1639761684
 20
25.4587260187
 10
-11.1551561475
 20
25.4702100331
 10
-11.1460057379
 20
25.4812040746
 10
-11.1365560232
 20
25.4916706155
 10
-11.1268415707
 20
25.5015716627
 10
-11.1168965052
 20
25.5108722474
 10
-11.1067562353
 20
25.519539084
 10
-11.0964586271
 20
25.5275403462
 10
-11.0860408298
 20
25.5348476228
 10
-11.0755390523
 20
25.5414356731
 10
-11.0649904274
 20
25.5472814484
  0
LINE
  5
34D
100
AcDbEntity
  8
DRAFT
100
AcDbLine
 62
7
  6
CONTINUOUS
 10
-11.0906191422
 20
-10.928255826
 11
-11.0964814914
 21
-11.2242380695
  0
LINE
  5
34E
100
AcDbEntity
  8
0
100
AcDbLine
 62
7
  6
CONTINUOUS
 10
-11.0964771858
 20
-11.2240169081
 11
-11.0906098239
 21
-10.927793266
  0
LINE
  5
34F
100
AcDbEntity
  8
DRAFT
100
AcDbLine
 62
7
  6
CONTINUOUS
 10
-11.084616753
 20
-10.6351612676
 11
-11.0906191422
 21
-10.928255826
  0
LINE
  5
350
100
AcDbEntity
  8
0
100
AcDbLine
 62
7
  6
CONTINUOUS
 10
-11.0906098239
 20
-10.927793266
 11
-11.0846083319
 21
-10.6347567492
  0
LINE
  5
351
100
AcDbEntity
  8
DRAFT
100
AcDbLine
 62
7
  6
CONTINUOUS
 10
-11.0784861763
 20
-10.3452280613
 11
-11.084616753
 21
-10.6351612676
  0
LINE
  5
352
100
AcDbEntity
  8
0
100
AcDbLine
 62
7
  6
CONTINUOUS
 10
-11.0846083319
 20
-10.6347567492
 11
-11.0784811385
 21
-10.3449933054
  0
LINE
  5
353
100
AcDbEntity
  8
0
100
AcDbLine
 62
7
  6
CONTINUOUS
 10
-11.0784811385
 20
-10.3449933054
 11
-11.0722354447
 21
-10.0585269492
  0
LINE
  5
354
100
AcDbEntity
  8
DRAFT
100
AcDbLine
 62
7
  6
CONTINUOUS
 10
-11.0722354317
 20
-10.0585271341
 11
-11.0784861763
 21
-10.3452280613
  0
LINE
  5
355
100
AcDbEntity
  8
ASSI
100
AcDbLine
 62
7
  6
CONTINUOUS
 10
-8.6881164075
 20
26.0643076581
 11
-8.687322216
 21
26.0844822335
  0
LWPOLYLINE
  5
356
100
AcDbEntity
  8
DRAFT
100
AcDbPolyline
 62
7
  6
CONTINUOUS
 90
12
 70
0
 10
-11.1224275978
 20
-12.6820006188
 10
-11.126536272
 20
-12.7564418397
 10
-11.1357116581
 20
-12.8265810971
 10
-11.1499532543
 20
-12.8924181942
 10
-11.1694257436
 20
-12.9543478631
 10
-11.1939607178
 20
-13.0119737624
 10
-11.2230578522
 20
-13.0641090239
 10
-11.2568586255
 20
-13.1106917322
 10
-11.2952153906
 20
-13.1517811572
 10
-11.3371958024
 20
-13.1863729918
 10
-11.3828171134
 20
-13.2142956541
 10
-11.4312733946
 20
-13.2354392972
  0
LWPOLYLINE
  5
357
100
AcDbEntity
  8
0
100
AcDbPolyline
 62
7
  6
CONTINUOUS
 90
3
 70
0
 10
-11.1298834926
 20
-12.7886537711
 10
-11.1247404772
 20
-12.7363162634
 10
-11.1224276064
 20
-12.6820011526
  0
LWPOLYLINE
  5
358
100
AcDbEntity
  8
ASSI
100
AcDbPolyline
 62
250
  6
CONTINUOUS
 90
7
 70
0
 10
-8.6873220333
 20
26.4244095311
 10
-8.6887775626
 20
26.4123669696
 10
-8.6935476594
 20
26.399653259
 10
-8.7015601227
 20
26.3873537874
 10
-8.7126808823
 20
26.375674358
 10
-8.7267238581
 20
26.3648103992
 10
-8.7434540732
 20
26.3549436941
  0
LWPOLYLINE
  5
359
100
AcDbEntity
  8
ASSI
100
AcDbPolyline
 62
250
  6
CONTINUOUS
 90
7
 70
0
 10
-8.6873220333
 20
26.0844659363
 10
-8.6887775708
 20
26.0724233411
 10
-8.6935476749
 20
26.059709634
 10
-8.7015601423
 20
26.0474101681
 10
-8.7126809015
 20
26.0357307461
 10
-8.726723871
 20
26.0248667957
 10
-8.7434540732
 20
26.0150000992
  0
LWPOLYLINE
  5
35A
100
AcDbEntity
  8
DRAFT
100
AcDbPolyline
 62
7
  6
CONTINUOUS
 90
7
 70
0
 10
-12.4421210937
 20
-9.2229871415
 10
-12.4277775014
 20
-9.1574584676
 10
-12.4083278236
 20
-9.0957392189
 10
-12.3839237522
 20
-9.0382259092
 10
-12.3550250331
 20
-8.986110087
 10
-12.3214520117
 20
-8.9394296569
 10
-12.2833777716
 20
-8.8981439322
  0
LWPOLYLINE
  5
35B
100
AcDbEntity
  8
ASSI
100
AcDbPolyline
 62
7
  6
CONTINUOUS
 90
14
 70
0
 10
2.3823594707
 20
18.4474074143
 10
2.3647491671
 20
18.430568793
 10
2.3458983646
 20
18.414638296
 10
2.3259042537
 20
18.3998171963
 10
2.3048050975
 20
18.3863034909
 10
2.2828022757
 20
18.3742690306
 10
2.2602639538
 20
18.3638494279
 10
2.2373508262
 20
18.3551710942
 10
2.2142235636
 20
18.3483653367
 10
2.1912741843
 20
18.3435152144
 10
2.1687167351
 20
18.340661736
 10
2.1466977218
 20
18.339838109
 10
2.1255126494
 20
18.3410295173
 10
2.1047644583
 20
18.3443058652
  0
LINE
  5
35C
100
AcDbEntity
  8
ASSI
100
AcDbLine
 62
7
  6
CONTINUOUS
 10
5.0632473239
 20
15.3382339816
 11
4.3684831375
 21
14.9740809506
  0
LINE
  5
35D
100
AcDbEntity
  8
RACCORDO
100
AcDbLine
 62
250
  6
CONTINUOUS
 10
19.549940367
 20
22.0875195308
 11
5.1249649989
 21
14.6187698961
  0
LINE
  5
35E
100
AcDbEntity
  8
SUPERFICI
100
AcDbLine
 62
250
  6
CONTINUOUS
 10
19.549940367
 20
22.0875195308
 11
5.1249649989
 21
14.6187698961
  0
LWPOLYLINE
  5
35F
100
AcDbEntity
  8
RACCORDO
100
AcDbPolyline
 62
250
  6
CONTINUOUS
 90
32
 70
0
 10
19.6575996572
 20
16.5412224089
 10
19.6776907622
 20
16.5471690943
 10
19.6970105618
 20
16.5510202005
 10
19.7155361811
 20
16.5528027406
 10
19.7332311809
 20
16.5524188371
 10
19.7500699133
 20
16.5500359847
 10
19.7660471056
 20
16.5460765991
 10
19.7810868498
 20
16.5406154051
 10
19.7952004928
 20
16.5336479784
 10
19.8085230231
 20
16.5254682749
 10
19.8210381406
 20
16.5161733854
 10
19.8326939187
 20
16.5057440345
 10
19.8435740641
 20
16.4942992796
 10
19.853677723
 20
16.4819151977
 10
19.8629265094
 20
16.4686122892
 10
19.8712847439
 20
16.4544320737
 10
19.8787332619
 20
16.4394520458
 10
19.8852013916
 20
16.4237122271
 10
19.8905715551
 20
16.4072057289
 10
19.8948190672
 20
16.3900495127
 10
19.8978688086
 20
16.3722677527
 10
19.8995151027
 20
16.3537326457
 10
19.8997485537
 20
16.3346052341
 10
19.8984543051
 20
16.3149134518
 10
19.8952380741
 20
16.2943734347
 10
19.8900965458
 20
16.2731805617
 10
19.8828591897
 20
16.2514219514
 10
19.872834412
 20
16.2287204824
 10
19.8600276681
 20
16.2053535698
 10
19.8442003597
 20
16.1814546207
 10
19.8242390359
 20
16.1565180389
 10
19.8025345467
 20
16.1334783082
  0
LWPOLYLINE
  5
360
100
AcDbEntity
  8
SUPERFICI
100
AcDbPolyline
 62
250
  6
CONTINUOUS
 90
32
 70
0
 10
19.6575996572
 20
16.5412224089
 10
19.6776907622
 20
16.5471690943
 10
19.6970105618
 20
16.5510202005
 10
19.7155361811
 20
16.5528027406
 10
19.7332311809
 20
16.5524188371
 10
19.7500699133
 20
16.5500359847
 10
19.7660471056
 20
16.5460765991
 10
19.7810868498
 20
16.5406154051
 10
19.7952004928
 20
16.5336479784
 10
19.8085230231
 20
16.5254682749
 10
19.8210381406
 20
16.5161733854
 10
19.8326939187
 20
16.5057440345
 10
19.8435740641
 20
16.4942992796
 10
19.853677723
 20
16.4819151977
 10
19.8629265094
 20
16.4686122892
 10
19.8712847439
 20
16.4544320737
 10
19.8787332619
 20
16.4394520458
 10
19.8852013916
 20
16.4237122271
 10
19.8905715551
 20
16.4072057289
 10
19.8948190672
 20
16.3900495127
 10
19.8978688086
 20
16.3722677527
 10
19.8995151027
 20
16.3537326457
 10
19.8997485537
 20
16.3346052341
 10
19.8984543051
 20
16.3149134518
 10
19.8952380741
 20
16.2943734347
 10
19.8900965458
 20
16.2731805617
 10
19.8828591897
 20
16.2514219514
 10
19.872834412
 20
16.2287204824
 10
19.8600276681
 20
16.2053535698
 10
19.8442003597
 20
16.1814546207
 10
19.8242390359
 20
16.1565180389
 10
19.8025345467
 20
16.1334783082
  0
LWPOLYLINE
  5
361
100
AcDbEntity
  8
DRAFT
100
AcDbPolyline
 62
7
  6
CONTINUOUS
 90
26
 70
0
 10
-11.4312733946
 20
-13.2354392972
 10
-11.4839198203
 20
-13.2501473837
 10
-11.5386051441
 20
-13.2574042826
 10
-11.5959100969
 20
-13.2576656764
 10
-11.654252625
 20
-13.2509758885
 10
-11.7135334943
 20
-13.2371626124
 10
-11.7738495567
 20
-13.2163971964
 10
-11.8339177668
 20
-13.1892415921
 10
-11.8937115286
 20
-13.155606068
 10
-11.9532578464
 20
-13.1155805655
 10
-12.0113583341
 20
-13.0699984028
 10
-12.0680635508
 20
-13.0186744436
 10
-12.1233258614
 20
-12.9617950675
 10
-12.1758039303
 20
-12.9007527595
 10
-12.2253545215
 20
-12.83557716
 10
-12.2721268194
 20
-12.7662411364
 10
-12.3152217027
 20
-12.6940535837
 10
-12.3546571858
 20
-12.6187743117
 10
-12.3904213946
 20
-12.5406460629
 10
-12.4215730548
 20
-12.4617033259
 10
-12.4479405158
 20
-12.3820664672
 10
-12.469701631
 20
-12.301617719
 10
-12.4864411736
 20
-12.2220351987
 10
-12.4980223798
 20
-12.143878988
 10
-12.5045857858
 20
-12.0665905949
 10
-12.5061319375
 20
-11.9901702264
  0
LWPOLYLINE
  5
362
100
AcDbEntity
  8
ASSI
100
AcDbPolyline
 62
7
  6
CONTINUOUS
 90
5
 70
0
 10
3.8495401656
 20
-21.3624589625
 10
3.8330272196
 20
-21.3438922293
 10
3.8147122066
 20
-21.3274576052
 10
3.7947341295
 20
-21.3132200721
 10
3.7755828919
 20
-21.3024385956
  0
LWPOLYLINE
  5
363
100
AcDbEntity
  8
ASSI
100
AcDbPolyline
 62
250
  6
CONTINUOUS
 90
7
 70
0
 10
-13.3623682232
 20
26.0298897241
 10
-13.3604621579
 20
26.0161847661
 10
-13.3552490178
 20
26.0035146167
 10
-13.3468084642
 20
25.9912869367
 10
-13.33528173
 20
25.9797063282
 10
-13.3208616886
 20
25.9689665658
 10
-13.3037896261
 20
25.9592473548
  0
LWPOLYLINE
  5
364
100
AcDbEntity
  8
ASSI
100
AcDbPolyline
 62
250
  6
CONTINUOUS
 90
7
 70
0
 10
-13.3623682618
 20
26.3471984692
 10
-13.3604621648
 20
26.3334535912
 10
-13.3552490298
 20
26.3207834387
 10
-13.3468084787
 20
26.3085557544
 10
-13.3352817439
 20
26.2969751405
 10
-13.3208616978
 20
26.2862353722
 10
-13.3037896261
 20
26.2765161551
  0
LWPOLYLINE
  5
365
100
AcDbEntity
  8
ASSI
100
AcDbPolyline
 62
7
  6
CONTINUOUS
 90
13
 70
0
 10
-9.3016904837
 20
26.1206063588
 10
-9.3028941006
 20
26.1438189947
 10
-9.3065033306
 20
26.1678401993
 10
-9.3124522401
 20
26.1922614128
 10
-9.3206343723
 20
26.2166676801
 10
-9.3309089069
 20
26.2406418224
 10
-9.3431029191
 20
26.2637716094
 10
-9.3570103393
 20
26.2856601341
 10
-9.3723907652
 20
26.3059342533
 10
-9.3889776628
 20
26.3242482433
 10
-9.4064880834
 20
26.3402883888
 10
-9.4246275874
 20
26.3537782017
 10
-9.4430903008
 20
26.3644849681
  0
LWPOLYLINE
  5
366
100
AcDbEntity
  8
ASSI
100
AcDbPolyline
 62
7
  6
CONTINUOUS
 90
10
 70
0
 10
-8.6873225626
 20
26.4246161076
 10
-8.6882042318
 20
26.4454615636
 10
-8.6925508431
 20
26.4751234347
 10
-8.7005172646
 20
26.5038364113
 10
-8.7119984575
 20
26.5311076985
 10
-8.7266760737
 20
26.5562864987
 10
-8.744294791
 20
26.5791091921
 10
-8.7646979571
 20
26.5994132462
 10
-8.7874552919
 20
26.6167883966
 10
-8.8105688802
 20
26.6301852596
  0
LINE
  5
367
100
AcDbEntity
  8
ASSI
100
AcDbLine
 62
7
  6
CONTINUOUS
 10
-9.3016904837
 20
24.4751317116
 11
-9.3016904837
 21
26.1206063588
  0
LINE
  5
368
100
AcDbEntity
  8
ASSI
100
AcDbLine
 62
250
  6
CONTINUOUS
 10
-8.7434540732
 20
26.3549436941
 11
-8.7434540732
 21
26.0150000992
  0
LINE
  5
369
100
AcDbEntity
  8
ASSI
100
AcDbLine
 62
7
  6
CONTINUOUS
 10
-8.68732246
 20
26.4246161077
 11
-8.6873220333
 21
26.0844659365
  0
LINE
  5
36A
100
AcDbEntity
  8
ASSI
100
AcDbLine
 62
7
  6
CONTINUOUS
 10
-7.6241331927
 20
23.3041960733
 11
-7.6241331927
 21
24.4888005792
  0
LINE
  5
36B
100
AcDbEntity
  8
ASSI
100
AcDbLine
 62
250
  6
CONTINUOUS
 10
-7.5655545489
 20
23.2308171196
 11
-7.5655545489
 21
24.4180899009
  0
LWPOLYLINE
  5
36C
100
AcDbEntity
  8
ASSI
100
AcDbPolyline
 62
250
  6
CONTINUOUS
 90
28
 70
0
 10
-7.5655545489
 20
24.4180899009
 10
-7.5655246873
 20
24.4201905107
 10
-7.5653921422
 20
24.4222828567
 10
-7.5651569135
 20
24.4243669391
 10
-7.5648235537
 20
24.426459035
 10
-7.5643875103
 20
24.4285428672
 10
-7.5638351263
 20
24.4305696037
 10
-7.5631622569
 20
24.4325381947
 10
-7.5623730469
 20
24.4344496901
 10
-7.561466274
 20
24.4362584077
 10
-7.5604376384
 20
24.4379611737
 10
-7.55929144
 20
24.4395611619
 10
-7.558039356
 20
24.4410222114
 10
-7.5566787563
 20
24.4423393193
 10
-7.555212271
 20
24.4435174886
 10
-7.5536594678
 20
24.4445355678
 10
-7.5520203106
 20
24.4453892965
 10
-7.5502948355
 20
24.4460829351
 10
-7.5485027187
 20
24.4466081127
 10
-7.5466435238
 20
24.4469626933
 10
-7.5447176873
 20
24.447148813
 10
-7.5427461945
 20
24.4471645089
 10
-7.5407284788
 20
24.4470078768
 10
-7.5386651068
 20
24.446680821
 10
-7.5365787638
 20
24.4461870903
 10
-7.5344770117
 20
24.4455279346
 10
-7.5323522887
 20
24.4447021042
 10
-7.5302045947
 20
24.4437095989
  0
LWPOLYLINE
  5
36D
100
AcDbEntity
  8
ASSI
100
AcDbPolyline
 62
250
  6
CONTINUOUS
 90
19
 70
0
 10
-8.7434540732
 20
26.0150000992
 10
-8.7434855384
 20
26.0128191995
 10
-8.7436214548
 20
26.0105439958
 10
-8.7438618224
 20
26.0081744883
 10
-8.7442021476
 20
26.0056992385
 10
-8.7446469239
 20
26.0031296848
 10
-8.7452096323
 20
26.0005001426
 10
-8.7458941622
 20
25.9978074069
 10
-8.746696624
 20
25.9950546827
 10
-8.7476188304
 20
25.9922859004
 10
-8.7486649692
 20
25.989499524
 10
-8.7498308526
 20
25.9866970895
 10
-8.7511057288
 20
25.9839271362
 10
-8.7524933903
 20
25.981190274
 10
-8.7539900448
 20
25.978485893
 10
-8.7555735636
 20
25.9758607023
 10
-8.7572365707
 20
25.9733302718
 10
-8.7589864421
 20
25.9708790317
 10
-8.7608231779
 20
25.968506982
  0
LWPOLYLINE
  5
36E
100
AcDbEntity
  8
ASSI
100
AcDbPolyline
 62
7
  6
CONTINUOUS
 90
10
 70
0
 10
-1.0638964829
 20
20.8603091734
 10
-1.0499555005
 20
20.8939889594
 10
-1.0394997637
 20
20.9300579919
 10
-1.0325292726
 20
20.9685162709
 10
-1.029044027
 20
21.009794879
 10
-1.029044027
 20
21.0534627336
 10
-1.0325292726
 20
21.0982265872
 10
-1.0394997637
 20
21.1436553575
 10
-1.0499555005
 20
21.1901801268
 10
-1.0638964829
 20
21.2378008951
  0
LWPOLYLINE
  5
36F
100
AcDbEntity
  8
ASSI
100
AcDbPolyline
 62
7
  6
CONTINUOUS
 90
6
 70
0
 10
0.1449586142
 20
19.1343432129
 10
0.1467549116
 20
19.1380232194
 10
0.1519805373
 20
19.144215015
 10
0.1601777467
 20
19.1525553433
 10
0.1711501972
 20
19.1621171359
 10
0.1847161841
 20
19.1726811948
  0
LWPOLYLINE
  5
370
100
AcDbEntity
  8
ASSI
100
AcDbPolyline
 62
250
  6
CONTINUOUS
 90
10
 70
0
 10
3.8256775273
 20
19.6752566295
 10
3.8291153833
 20
19.6798872581
 10
3.8321965779
 20
19.6847063227
 10
3.834921111
 20
19.6897138231
 10
3.8373160859
 20
19.6949825829
 10
3.8393543993
 20
19.7004397786
 10
3.8409547416
 20
19.7058669398
 10
3.8420900095
 20
19.7111912432
 10
3.8427873063
 20
19.7164855121
 10
3.8430466319
 20
19.7217497467
  0
LWPOLYLINE
  5
371
100
AcDbEntity
  8
ASSI
100
AcDbPolyline
 62
7
  6
CONTINUOUS
 90
6
 70
0
 10
3.837338417
 20
19.6189810175
 10
3.8452230731
 20
19.6292213469
 10
3.859195602
 20
19.6502033183
 10
3.8713743454
 20
19.6726591946
 10
3.8816104993
 20
19.6964678568
 10
3.8895045729
 20
19.7207036766
  0
LINE
  5
372
100
AcDbEntity
  8
ASSI
100
AcDbLine
 62
250
  6
CONTINUOUS
 10
3.2848102214
 20
19.0059691434
 11
3.8256775273
 21
19.6752566295
  0
LINE
  5
373
100
AcDbEntity
  8
ASSI
100
AcDbLine
 62
7
  6
CONTINUOUS
 10
3.2848102214
 20
18.9352644825
 11
3.8373650219
 21
19.6190144695
  0
LWPOLYLINE
  5
374
100
AcDbEntity
  8
ASSI
100
AcDbPolyline
 62
7
  6
CONTINUOUS
 90
4
 70
0
 10
0.1753829916
 20
-22.0109302465
 10
0.1843685731
 20
-22.034509236
 10
0.2000713981
 20
-22.068432326
 10
0.2181795974
 20
-22.1013413963
  0
LINE
  5
375
100
AcDbEntity
  8
ASSI
100
AcDbLine
 62
250
  6
CONTINUOUS
 10
-5.2749061518
 20
23.2727657023
 11
-5.2749061518
 21
22.085492921
  0
LINE
  5
376
100
AcDbEntity
  8
ASSI
100
AcDbLine
 62
250
  6
CONTINUOUS
 10
-4.9945531215
 20
23.2715424004
 11
-4.9945531215
 21
22.0931884921
  0
LINE
  5
377
100
AcDbEntity
  8
ASSI
100
AcDbLine
 62
7
  6
CONTINUOUS
 10
-4.7762070841
 20
22.2123900118
 11
-4.7762070841
 21
23.3815572819
  0
LWPOLYLINE
  5
378
100
AcDbEntity
  8
ASSI
100
AcDbPolyline
 62
250
  6
CONTINUOUS
 90
13
 70
0
 10
-3.8178939934
 20
22.5875542983
 10
-3.8167108152
 20
22.6105038873
 10
-3.8131810777
 20
22.6342526495
 10
-3.8073638418
 20
22.6584032051
 10
-3.7993564448
 20
22.6825514507
 10
-3.7892928711
 20
22.7062933213
 10
-3.7773415106
 20
22.7292315515
 10
-3.7637023408
 20
22.750982323
 10
-3.7486035813
 20
22.771181686
 10
-3.7322978748
 20
22.7894916498
 10
-3.7150580596
 20
22.8056058387
 10
-3.6971726041
 20
22.8192546179
 10
-3.6789407802
 20
22.8302096057
  0
LWPOLYLINE
  5
379
100
AcDbEntity
  8
RACCORDO
100
AcDbPolyline
 62
7
  6
CONTINUOUS
 90
8
 70
0
 10
-0.1375538612
 20
23.2032504339
 10
-0.1391368553
 20
23.1954333563
 10
-0.1425592156
 20
23.1851617491
 10
-0.1483229543
 20
23.1726054
 10
-0.1566417098
 20
23.1583639805
 10
-0.167320324
 20
23.143304727
 10
-0.1801348783
 20
23.1279353538
 10
-0.1949781621
 20
23.1124848507
  0
LWPOLYLINE
  5
37A
100
AcDbEntity
  8
SUPERFICI
100
AcDbPolyline
 62
7
  6
CONTINUOUS
 90
8
 70
0
 10
-0.1375538612
 20
23.2032504339
 10
-0.1391368553
 20
23.1954333563
 10
-0.1425592156
 20
23.1851617491
 10
-0.1483229543
 20
23.1726054
 10
-0.1566417098
 20
23.1583639805
 10
-0.167320324
 20
23.143304727
 10
-0.1801348783
 20
23.1279353538
 10
-0.1949781621
 20
23.1124848507
  0
LWPOLYLINE
  5
37B
100
AcDbEntity
  8
ASSI
100
AcDbPolyline
 62
250
  6
CONTINUOUS
 90
12
 70
0
 10
1.6455516665
 20
18.6037075913
 10
1.6350399004
 20
18.5803366703
 10
1.6223551453
 20
18.5585784003
 10
1.6077120395
 20
18.5388009524
 10
1.5913583584
 20
18.5213389799
 10
1.5735708222
 20
18.5064879564
 10
1.5546504132
 20
18.4944991755
 10
1.5349172827
 20
18.485575499
 10
1.5147053347
 20
18.479867924
 10
1.4943565754
 20
18.4774730282
 10
1.4742153257
 20
18.4784313355
 10
1.4651172138
 20
18.4799951572
  0
LWPOLYLINE
  5
37C
100
AcDbEntity
  8
RACCORDO
100
AcDbPolyline
 62
250
  6
CONTINUOUS
 90
47
 70
0
 10
10.1534338116
 20
22.6586094333
 10
10.1923665858
 20
22.7106514281
 10
10.2416498042
 20
22.7674321055
 10
10.2967834788
 20
22.8230227198
 10
10.3572869571
 20
22.8769652421
 10
10.4231593087
 20
22.9292181416
 10
10.4944014641
 20
22.9798229491
 10
10.5705355617
 20
23.0284462276
 10
10.6515521907
 20
23.0750739701
 10
10.7374607621
 20
23.1197201837
 10
10.8278116478
 20
23.1620934528
 10
10.922861928
 20
23.2022526508
 10
11.0223545225
 20
23.2401389043
 10
11.1250685629
 20
23.2752841775
 10
11.2314094316
 20
23.3076618973
 10
11.3409717462
 20
23.3372986369
 10
11.4513184906
 20
23.3638060791
 10
11.5624230076
 20
23.3870054725
 10
11.6743119543
 20
23.4070755686
 10
11.7846282864
 20
23.4241643044
 10
11.8930187763
 20
23.4381382002
 10
11.9998366516
 20
23.4491307358
 10
12.1037845507
 20
23.457690287
 10
12.2046203851
 20
23.4637928566
 10
12.3025862434
 20
23.4674624418
 10
12.3971110297
 20
23.4693194106
 10
12.4880327698
 20
23.4693852794
 10
12.575513438
 20
23.4676385319
 10
12.6594678614
 20
23.4646349866
 10
12.7397719348
 20
23.4604161859
 10
12.8165497633
 20
23.4549405874
 10
12.8900884898
 20
23.4486393818
 10
12.9603550235
 20
23.441553348
 10
13.027382455
 20
23.4336417071
 10
13.0915571992
 20
23.425213313
 10
13.152864946
 20
23.4163026724
 10
13.2113200054
 20
23.4068752786
 10
13.2673517219
 20
23.3971364648
 10
13.3209563055
 20
23.3871149431
 10
13.3721375461
 20
23.3767820013
 10
13.4213361584
 20
23.3662568366
 10
13.4685553034
 20
23.3555622974
 10
13.5137918199
 20
23.3446755353
 10
13.5574769398
 20
23.3336472017
 10
13.5997544069
 20
23.3224941804
 10
13.6404804773
 20
23.3111995875
 10
13.679655151
 20
23.2997634232
  0
LWPOLYLINE
  5
37D
100
AcDbEntity
  8
RACCORDO
100
AcDbPolyline
 62
250
  6
CONTINUOUS
 90
10
 70
0
 10
10.071779942
 20
22.6922670753
 10
10.0740746301
 20
22.695327086
 10
10.1269372812
 20
22.756044184
 10
10.1860161517
 20
22.8153034013
 10
10.2511089311
 20
22.8729113345
 10
10.321984763
 20
22.9286848021
 10
10.3984779007
 20
22.9825127376
 10
10.4804693045
 20
23.0343139213
 10
10.5677179015
 20
23.0839315606
 10
10.5880872809
 20
23.094800542
  0
LWPOLYLINE
  5
37E
100
AcDbEntity
  8
ASSI
100
AcDbPolyline
 62
7
  6
CONTINUOUS
 90
13
 70
0
 10
-4.7762070841
 20
23.3815572819
 10
-4.7777116052
 20
23.4105730768
 10
-4.7822231428
 20
23.4405995826
 10
-4.7896592795
 20
23.4711260994
 10
-4.7998869448
 20
23.5016339335
 10
-4.8127301131
 20
23.5316016114
 10
-4.8279726284
 20
23.5605138452
 10
-4.8453569036
 20
23.5878745011
 10
-4.8645824359
 20
23.61321715
 10
-4.885316058
 20
23.6361096375
 10
-4.9072040837
 20
23.6561598195
 10
-4.9298784637
 20
23.6730220856
 10
-4.9529568555
 20
23.6864055436
  0
LINE
  5
37F
100
AcDbEntity
  8
ASSI
100
AcDbLine
 62
7
  6
CONTINUOUS
 10
-4.0941468538
 20
22.5640531712
 11
-4.1184386727
 21
23.7078152631
  0
LINE
  5
380
100
AcDbEntity
  8
ASSI
100
AcDbLine
 62
7
  6
CONTINUOUS
 10
-2.6493576221
 20
25.2220716831
 11
-2.6670492881
 21
26.4091437302
  0
LINE
  5
381
100
AcDbEntity
  8
ASSI
100
AcDbLine
 62
250
  6
CONTINUOUS
 10
-2.7653869163
 20
25.0849029155
 11
-2.7778309577
 21
26.2782904854
  0
LINE
  5
382
100
AcDbEntity
  8
ASSI
100
AcDbLine
 62
250
  6
CONTINUOUS
 10
-3.8532439477
 20
22.5619346003
 11
-3.8532439477
 21
21.3746618189
  0
LINE
  5
383
100
AcDbEntity
  8
ASSI
100
AcDbLine
 62
7
  6
CONTINUOUS
 10
-3.9118225915
 20
21.4480407726
 11
-3.9118225402
 21
22.6327168993
  0
LWPOLYLINE
  5
384
100
AcDbEntity
  8
RACCORDO
100
AcDbPolyline
 62
250
  6
CONTINUOUS
 90
5
 70
0
 10
-3.6012290118
 20
-22.7153857873
 10
-3.5579023104
 20
-18.6849555625
 10
-3.4826079168
 20
-14.6405323111
 10
-3.3753458309
 20
-10.5821160329
 10
-3.2360925983
 20
-6.5091468133
  0
LWPOLYLINE
  5
385
100
AcDbEntity
  8
RACCORDO
100
AcDbPolyline
 62
250
  6
CONTINUOUS
 90
8
 70
0
 10
-4.2742903766
 20
-22.7188029609
 10
-4.228121996
 20
-18.6860481674
 10
-4.1506564293
 20
-14.6382608762
 10
-4.0418871161
 20
-10.5758026328
 10
-3.9018045373
 20
-6.4988528413
 10
-3.7304190541
 20
-2.4079626138
 10
-3.5277694689
 20
1.6959417645
 10
-3.293892064
 20
5.8122978847
  0
LINE
  5
386
100
AcDbEntity
  8
RACCORDO
100
AcDbLine
 62
250
  6
CONTINUOUS
 10
-3.2360925983
 20
-6.5091468133
 11
-3.0648716734
 21
-2.4221845671
  0
LINE
  5
387
100
AcDbEntity
  8
RACCORDO
100
AcDbLine
 62
250
  6
CONTINUOUS
 10
-3.0648716734
 20
-2.4221845671
 11
-2.8617534198
 21
1.6770909616
  0
LWPOLYLINE
  5
388
100
AcDbEntity
  8
ASSI
100
AcDbPolyline
 62
250
  6
CONTINUOUS
 90
13
 70
0
 10
-1.5979455049
 20
21.477580054
 10
-1.5967623251
 20
21.5005296584
 10
-1.5932325834
 20
21.5242784339
 10
-1.587415342
 20
21.5484289998
 10
-1.5794079388
 20
21.5725772521
 10
-1.5693443594
 20
21.5963191256
 10
-1.5573929945
 20
21.619257355
 10
-1.5437538225
 20
21.6410081218
 10
-1.5286550634
 20
21.6612074774
 10
-1.5123493602
 20
21.6795174321
 10
-1.495109551
 20
21.6956316113
 10
-1.4772241043
 20
21.7092803813
 10
-1.4589922916
 20
21.7202353614
  0
LWPOLYLINE
  5
389
100
AcDbEntity
  8
ASSI
100
AcDbPolyline
 62
7
  6
CONTINUOUS
 90
9
 70
0
 10
-2.6493104111
 20
25.2220713308
 10
-2.6500714921
 20
25.2086936773
 10
-2.6547091048
 20
25.1889445874
 10
-2.6637151762
 20
25.1693877203
 10
-2.6769270479
 20
25.1501458797
 10
-2.6937587544
 20
25.1319985322
 10
-2.7140149736
 20
25.1152055001
 10
-2.7378910276
 20
25.0995069612
 10
-2.7653869163
 20
25.0849029155
  0
LINE
  5
38A
100
AcDbEntity
  8
RACCORDO
100
AcDbLine
 62
250
  6
CONTINUOUS
 10
-2.8617534198
 20
1.6770909616
 11
-2.6267612922
 21
5.788119858
  0
LINE
  5
38B
100
AcDbEntity
  8
RACCORDO
100
AcDbLine
 62
250
  6
CONTINUOUS
 10
-3.293892064
 20
5.8122978847
 11
-3.0288120174
 21
9.940911221
  0
LINE
  5
38C
100
AcDbEntity
  8
RACCORDO
100
AcDbLine
 62
250
  6
CONTINUOUS
 10
-2.6267612922
 20
5.788119858
 11
-2.3598718359
 21
9.9114620367
  0
LINE
  5
38D
100
AcDbEntity
  8
RACCORDO
100
AcDbLine
 62
250
  6
CONTINUOUS
 10
-3.0288120174
 20
9.940911221
 11
-2.7325669838
 21
14.0814009583
  0
LINE
  5
38E
100
AcDbEntity
  8
RACCORDO
100
AcDbLine
 62
250
  6
CONTINUOUS
 10
-2.3598718359
 20
9.9114620367
 11
-2.061085051
 21
14.0471174979
  0
LWPOLYLINE
  5
38F
100
AcDbEntity
  8
RACCORDO
100
AcDbPolyline
 62
250
  6
CONTINUOUS
 90
22
 70
0
 10
-2.7325669744
 20
14.0814009605
 10
-2.7247510113
 20
14.159047888
 10
-2.7127178795
 20
14.2379793344
 10
-2.6965271074
 20
14.3177906031
 10
-2.6762533225
 20
14.3980634317
 10
-2.6520011118
 20
14.4783942521
 10
-2.6239018082
 20
14.5583962647
 10
-2.5920838807
 20
14.6376621045
 10
-2.556705078
 20
14.7157780374
 10
-2.5179651615
 20
14.7923522347
 10
-2.4760475141
 20
14.8669862498
 10
-2.4311561135
 20
14.9392944478
 10
-2.3835445842
 20
15.0089179879
 10
-2.3334379382
 20
15.0754940432
 10
-2.2810809101
 20
15.1386740136
 10
-2.2267749876
 20
15.1981433625
 10
-2.1707835289
 20
15.2535863841
 10
-2.1133747947
 20
15.3047152803
 10
-2.0548696727
 20
15.3512867903
 10
-1.9955645652
 20
15.3930611138
 10
-1.9357304484
 20
15.4298048094
 10
-1.8756557562
 20
15.461319
  0
LWPOLYLINE
  5
390
100
AcDbEntity
  8
RACCORDO
100
AcDbPolyline
 62
250
  6
CONTINUOUS
 90
22
 70
0
 10
-2.061085051
 20
14.0471174979
 10
-2.0563563314
 20
14.0924956432
 10
-2.0491428663
 20
14.1381796489
 10
-2.0394446558
 20
14.184169515
 10
-2.0271865141
 20
14.230723345
 10
-2.0124436269
 20
14.2775830353
 10
-1.9954415513
 20
14.3239742756
 10
-1.9761476508
 20
14.3698698711
 10
-1.9545945618
 20
14.4152970165
 10
-1.9311057501
 20
14.4595629855
 10
-1.9056491021
 20
14.5026528345
 10
-1.8782567313
 20
14.5445815072
 10
-1.8493484446
 20
14.5847011077
 10
-1.8189009369
 20
14.6229820919
 10
-1.7869375134
 20
14.659454004
 10
-1.7539478967
 20
14.6935575809
 10
-1.7198997296
 20
14.7252635234
 10
-1.6848253692
 20
14.7546011306
 10
-1.64931161
 20
14.7810990366
 10
-1.6135540501
 20
14.8046001193
 10
-1.5773570913
 20
14.8252615007
 10
-1.5407207336
 20
14.8430831809
  0
LINE
  5
391
100
AcDbEntity
  8
DRAFT
100
AcDbLine
 62
7
  6
CONTINUOUS
 10
19.8025345467
 20
16.1185580905
 11
20.8732576407
 21
16.8110927477
  0
LINE
  5
392
100
AcDbEntity
  8
SUPERFICI
100
AcDbLine
 62
7
  6
CONTINUOUS
 10
19.8025345467
 20
16.1185580905
 11
20.8732576407
 21
16.8110927477
  0
LWPOLYLINE
  5
393
100
AcDbEntity
  8
ASSI
100
AcDbPolyline
 62
250
  6
CONTINUOUS
 90
6
 70
0
 10
3.8328818671
 20
-21.3982906374
 10
3.8248594091
 20
-21.3754891667
 10
3.8144164097
 20
-21.354454118
 10
3.8017295738
 20
-21.3355414246
 10
3.7870135747
 20
-21.3190711074
 10
3.7705174216
 20
-21.3053218603
  0
LWPOLYLINE
  5
394
100
AcDbEntity
  8
ASSI
100
AcDbPolyline
 62
7
  6
CONTINUOUS
 90
5
 70
0
 10
3.8930182943
 20
-21.4534404093
 10
3.8858511679
 20
-21.4285982924
 10
3.8761336245
 20
-21.4050548857
 10
3.8639922652
 20
-21.3829536285
 10
3.8495401656
 20
-21.3624589625
  0
LWPOLYLINE
  5
395
100
AcDbEntity
  8
ASSI
100
AcDbPolyline
 62
250
  6
CONTINUOUS
 90
7
 70
0
 10
-7.6241331927
 20
24.4888005787
 10
-7.6222270619
 20
24.4750272444
 10
-7.6170139082
 20
24.4623571036
 10
-7.6085733476
 20
24.4501294359
 10
-7.5970466152
 20
24.438548842
 10
-7.5826265865
 20
24.4278090958
 10
-7.5655545489
 20
24.4180899009
  0
LINE
  5
396
100
AcDbEntity
  8
DRAFT
100
AcDbLine
 62
7
  6
CONTINUOUS
 10
0.7392258091
 20
-15.3809773542
 11
0.5762881044
 21
-13.440715317
  0
LWPOLYLINE
  5
397
100
AcDbEntity
  8
ASSI
100
AcDbPolyline
 62
7
  6
CONTINUOUS
 90
12
 70
0
 10
-2.6670491596
 20
26.4091376773
 10
-2.6686805234
 20
26.435379716
 10
-2.6742044027
 20
26.4680030516
 10
-2.6836530981
 20
26.5001958295
 10
-2.6970337012
 20
26.5315173352
 10
-2.7142112811
 20
26.5613860537
 10
-2.7350938197
 20
26.5894693566
 10
-2.759629892
 20
26.6155264481
 10
-2.7874380179
 20
26.6390525304
 10
-2.818042646
 20
26.6596700225
 10
-2.8516881449
 20
26.677533181
 10
-2.8879918143
 20
26.6923939354
  0
LWPOLYLINE
  5
398
100
AcDbEntity
  8
ASSI
100
AcDbPolyline
 62
7
  6
CONTINUOUS
 90
13
 70
0
 10
-1.0638964829
 20
21.5254019813
 10
-1.065401004
 20
21.5544177762
 10
-1.0699125415
 20
21.5844442819
 10
-1.0773486783
 20
21.6149707988
 10
-1.0875763436
 20
21.6454786329
 10
-1.1004195119
 20
21.6754463108
 10
-1.1156620271
 20
21.7043585446
 10
-1.1330463024
 20
21.7317192005
 10
-1.1522718347
 20
21.7570618494
 10
-1.1730054568
 20
21.7799543369
 10
-1.1948934825
 20
21.8000045188
 10
-1.2175678624
 20
21.8168667849
 10
-1.2406462542
 20
21.830250243
  0
LWPOLYLINE
  5
399
100
AcDbEntity
  8
ASSI
100
AcDbPolyline
 62
250
  6
CONTINUOUS
 90
28
 70
0
 10
-1.2822425203
 20
21.4153870998
 10
-1.2826087099
 20
21.4267060905
 10
-1.2834683305
 20
21.4384757696
 10
-1.2848482941
 20
21.4506753561
 10
-1.2867789032
 20
21.4633076275
 10
-1.2892819772
 20
21.4763151988
 10
-1.2923590245
 20
21.4895778969
 10
-1.2960200178
 20
21.5030555476
 10
-1.3002722064
 20
21.516703816
 10
-1.3050888964
 20
21.5303893413
 10
-1.3104603438
 20
21.5440585006
 10
-1.3163780737
 20
21.55766674
 10
-1.3227957967
 20
21.5710950946
 10
-1.3296836667
 20
21.5842811532
 10
-1.3370247218
 20
21.5971928131
 10
-1.3447793667
 20
21.6097616722
 10
-1.3529121526
 20
21.6219352013
 10
-1.3613988652
 20
21.6336819771
 10
-1.3702132758
 20
21.644968598
 10
-1.3793243464
 20
21.6557570299
 10
-1.3886990896
 20
21.6660099369
 10
-1.398307862
 20
21.6756964181
 10
-1.4081168668
 20
21.6847830678
 10
-1.4180917847
 20
21.693238791
 10
-1.428201723
 20
21.7010379126
 10
-1.4384128474
 20
21.7081539597
 10
-1.4486882962
 20
21.7145606543
 10
-1.4589922916
 20
21.7202353614
  0
LWPOLYLINE
  5
39A
100
AcDbEntity
  8
ASSI
100
AcDbPolyline
 62
250
  6
CONTINUOUS
 90
15
 70
0
 10
-0.7172889209
 20
19.6659970022
 10
-0.7170763112
 20
19.6554752605
 10
-0.7164140165
 20
19.6448881503
 10
-0.7152643307
 20
19.6342860968
 10
-0.7135858256
 20
19.6237020548
 10
-0.7113442131
 20
19.613219946
 10
-0.7085236146
 20
19.6029660671
 10
-0.7051006095
 20
19.5930004835
 10
-0.7010541857
 20
19.5833868415
 10
-0.6963952564
 20
19.574243201
 10
-0.6911182848
 20
19.5656260629
 10
-0.6852208118
 20
19.5575926395
 10
-0.6787424104
 20
19.5502402502
 10
-0.6716966057
 20
19.5436125801
 10
-0.6640994012
 20
19.5377511706
  0
LWPOLYLINE
  5
39B
100
AcDbEntity
  8
ASSI
100
AcDbPolyline
 62
250
  6
CONTINUOUS
 90
28
 70
0
 10
-1.5625955506
 20
21.4166104017
 10
-1.5626345857
 20
21.4188955215
 10
-1.5627838814
 20
21.421260288
 10
-1.5630434378
 20
21.4237047013
 10
-1.563410728
 20
21.4262414866
 10
-1.5638882788
 20
21.4288579185
 10
-1.5644836709
 20
21.4315158213
 10
-1.565201079
 20
21.4342174519
 10
-1.5660363282
 20
21.4369605532
 10
-1.5669844747
 20
21.4397001786
 10
-1.5680489864
 20
21.4424356929
 10
-1.5692263953
 20
21.4451677313
 10
-1.5705013535
 20
21.4478532517
 10
-1.5718748665
 20
21.4504884386
 10
-1.5733459288
 20
21.4530771076
 10
-1.5748961767
 20
21.4555876642
 10
-1.5765253733
 20
21.4580171214
 10
-1.5782337555
 20
21.4603684663
 10
-1.5800036709
 20
21.4626190658
 10
-1.581835667
 20
21.4647680738
 10
-1.5837291962
 20
21.4668163365
 10
-1.5856649639
 20
21.468743759
 10
-1.5876432969
 20
21.4705492134
 10
-1.5896638683
 20
21.4722338275
 10
-1.5917064024
 20
21.4737808897
 10
-1.5937641405
 20
21.4751848297
 10
-1.5958438414
 20
21.4764512178
 10
-1.5979455049
 20
21.477580054
  0
LWPOLYLINE
  5
39C
100
AcDbEntity
  8
ASSI
100
AcDbPolyline
 62
7
  6
CONTINUOUS
 90
9
 70
0
 10
-0.7758673829
 20
19.7366814539
 10
-0.7758383216
 20
19.7328694731
 10
-0.7740309237
 20
19.7064190571
 10
-0.7694041303
 20
19.6804591438
 10
-0.7620065833
 20
19.6553895847
 10
-0.7520045229
 20
19.6316548259
 10
-0.7395177456
 20
19.6094118872
 10
-0.7246627152
 20
19.5888238345
 10
-0.7077043687
 20
19.5702188522
  0
LINE
  5
39D
100
AcDbEntity
  8
RACCORDO
100
AcDbLine
 62
7
  6
CONTINUOUS
 10
-0.1372063465
 20
23.2081779138
 11
-0.137206311
 21
23.2080789376
  0
LINE
  5
39E
100
AcDbEntity
  8
SUPERFICI
100
AcDbLine
 62
250
  6
CONTINUOUS
 10
-0.1372063465
 20
23.2081779138
 11
-0.137206311
 21
23.2080789376
  0
LINE
  5
39F
100
AcDbEntity
  8
ASSI
100
AcDbLine
 62
250
  6
CONTINUOUS
 10
-1.6646949391
 20
24.562479103
 11
-1.6646949391
 21
25.6112261889
  0
LINE
  5
3A0
100
AcDbEntity
  8
ASSI
100
AcDbLine
 62
250
  6
CONTINUOUS
 10
-1.5625955506
 20
20.2293376204
 11
-1.5625955506
 21
21.4166104017
  0
LINE
  5
3A1
100
AcDbEntity
  8
RACCORDO
100
AcDbLine
 62
250
  6
CONTINUOUS
 10
-1.3963510907
 20
23.6174812098
 11
-1.3963510907
 21
22.7525626819
  0
LINE
  5
3A2
100
AcDbEntity
  8
SUPERFICI
100
AcDbLine
 62
250
  6
CONTINUOUS
 10
-1.3963510907
 20
23.6174812098
 11
-1.3963510907
 21
22.7525626819
  0
LINE
  5
3A3
100
AcDbEntity
  8
ASSI
100
AcDbLine
 62
250
  6
CONTINUOUS
 10
-1.2822425203
 20
20.2370331915
 11
-1.2822425203
 21
21.4153870998
  0
LINE
  5
3A4
100
AcDbEntity
  8
ASSI
100
AcDbLine
 62
7
  6
CONTINUOUS
 10
-1.0638964829
 20
20.3562347112
 11
-1.0638964829
 21
21.5254019813
  0
LINE
  5
3A5
100
AcDbEntity
  8
RACCORDO
100
AcDbLine
 62
250
  6
CONTINUOUS
 10
-0.9834798745
 20
23.7297416351
 11
-0.9834798745
 21
22.7471569753
  0
LINE
  5
3A6
100
AcDbEntity
  8
SUPERFICI
100
AcDbLine
 62
250
  6
CONTINUOUS
 10
-0.9834798745
 20
23.7297416351
 11
-0.9834798745
 21
22.7471569753
  0
LINE
  5
3A7
100
AcDbEntity
  8
ASSI
100
AcDbLine
 62
7
  6
CONTINUOUS
 10
-0.7758675647
 20
20.0539764807
 11
-0.7758675647
 21
19.7367076806
  0
LINE
  5
3A8
100
AcDbEntity
  8
ASSI
100
AcDbLine
 62
250
  6
CONTINUOUS
 10
-0.7172889209
 20
19.9832658026
 11
-0.7172889209
 21
19.6659970022
  0
LINE
  5
3A9
100
AcDbEntity
  8
ASSI
100
AcDbLine
 62
250
  6
CONTINUOUS
 10
-0.2509659924
 20
24.5284123676
 11
-0.2509659924
 21
25.1025942235
  0
LINE
  5
3AA
100
AcDbEntity
  8
RACCORDO
100
AcDbLine
 62
250
  6
CONTINUOUS
 10
-0.2250742758
 20
23.3505388357
 11
-0.2250742758
 21
23.0844626505
  0
LINE
  5
3AB
100
AcDbEntity
  8
SUPERFICI
100
AcDbLine
 62
250
  6
CONTINUOUS
 10
-0.2250742758
 20
23.3505388357
 11
-0.2250742758
 21
23.0844626505
  0
LINE
  5
3AC
100
AcDbEntity
  8
ASSI
100
AcDbLine
 62
7
  6
CONTINUOUS
 10
-0.0610044443
 20
19.235122962
 11
-0.0610044443
 21
18.7811608576
  0
LINE
  5
3AD
100
AcDbEntity
  8
ASSI
100
AcDbLine
 62
250
  6
CONTINUOUS
 10
0.0122188604
 20
19.1985113096
 11
0.0122188604
 21
18.6894371655
  0
LINE
  5
3AE
100
AcDbEntity
  8
ASSI
100
AcDbLine
 62
7
  6
CONTINUOUS
 10
0.1449562927
 20
18.498220756
 11
0.1449562927
 21
19.1360661769
  0
LINE
  5
3AF
100
AcDbEntity
  8
ASSI
100
AcDbLine
 62
250
  6
CONTINUOUS
 10
0.2181795974
 20
-22.1013413963
 11
0.2181795974
 21
-21.8873960688
  0
LINE
  5
3B0
100
AcDbEntity
  8
ASSI
100
AcDbLine
 62
250
  6
CONTINUOUS
 10
0.2181795974
 20
18.4474297181
 11
0.2181795974
 21
19.1982627431
  0
LINE
  5
3B1
100
AcDbEntity
  8
RACCORDO
100
AcDbLine
 62
7
  6
CONTINUOUS
 10
-0.1372112752
 20
23.2081207866
 11
-0.1375538612
 21
23.2032504339
  0
LINE
  5
3B2
100
AcDbEntity
  8
SUPERFICI
100
AcDbLine
 62
7
  6
CONTINUOUS
 10
-0.1372112752
 20
23.2081207866
 11
-0.1375538612
 21
23.2032504339
  0
LWPOLYLINE
  5
3B3
100
AcDbEntity
  8
ASSI
100
AcDbPolyline
 62
7
  6
CONTINUOUS
 90
3
 70
0
 10
3.8895045729
 20
19.7207036766
 10
3.8950454785
 20
19.7451272428
 10
3.8983220557
 20
19.7702694492
  0
LWPOLYLINE
  5
3B4
100
AcDbEntity
  8
DRAFT
100
AcDbPolyline
 62
7
  6
CONTINUOUS
 90
3
 70
0
 10
-12.2833777716
 20
-8.8981439322
 10
-12.2417927841
 20
-8.8633273116
 10
-12.1931895774
 20
-8.8333479586
  0
LWPOLYLINE
  5
3B5
100
AcDbEntity
  8
RACCORDO
100
AcDbPolyline
 62
7
  6
CONTINUOUS
 90
76
 70
0
 10
19.6575996572
 20
16.5412224089
 10
19.7196130855
 20
16.5928406145
 10
19.7799229785
 20
16.6434712551
 10
19.8385293361
 20
16.6931143305
 10
19.8953929252
 20
16.7417388895
 10
19.950552979
 20
16.7893758834
 10
20.0041271973
 20
16.8361181663
 10
20.056122421
 20
16.8819686818
 10
20.1065318093
 20
16.9269244863
 10
20.1554525399
 20
16.9710696023
 10
20.2028894764
 20
17.0144045609
 10
20.2488377552
 20
17.056928831
 10
20.2933799629
 20
17.0987248417
 10
20.3365218523
 20
17.1397926391
 10
20.3782576705
 20
17.1801321771
 10
20.4186527462
 20
17.2198257473
 10
20.4577145672
 20
17.2588728707
 10
20.4954356457
 20
17.2972740263
 10
20.5318588466
 20
17.3351129425
 10
20.5669948714
 20
17.3723885362
 10
20.6008330187
 20
17.4091018905
 10
20.6333840491
 20
17.4453399825
 10
20.6646661274
 20
17.4811030127
 10
20.6946610888
 20
17.5163907807
 10
20.7233251988
 20
17.5512896624
 10
20.7506892095
 20
17.5858022433
 10
20.7767223688
 20
17.619925938
 10
20.8012886859
 20
17.6537393656
 10
20.8244571387
 20
17.6872877312
 10
20.8461587494
 20
17.7205258298
 10
20.866050594
 20
17.7533966662
 10
20.8842088178
 20
17.7860173067
 10
20.9005572754
 20
17.8182706848
 10
20.9145246071
 20
17.8497486065
 10
20.9260640535
 20
17.8804644641
 10
20.935222374
 20
17.9104048651
 10
20.9415684861
 20
17.9391214377
 10
20.9449931417
 20
17.9665738141
 10
20.9456055889
 20
17.9928023619
 10
20.9433024893
 20
18.0174798124
 10
20.9379183628
 20
18.0405684306
 10
20.9296186896
 20
18.0621059515
 10
20.9187965709
 20
18.0818783109
 10
20.9053757942
 20
18.099756517
 10
20.8894325721
 20
18.1158695616
 10
20.8715886439
 20
18.1303903562
 10
20.8519241707
 20
18.1432684175
 10
20.8303589915
 20
18.1545542287
 10
20.8072743618
 20
18.1645721511
 10
20.7827445837
 20
18.1733506116
 10
20.7566953552
 20
18.1808611832
 10
20.7292850265
 20
18.187342947
 10
20.7005489214
 20
18.1928275197
 10
20.6704517162
 20
18.1972832844
 10
20.6390457895
 20
18.2008544717
 10
20.6063505226
 20
18.2035614631
 10
20.5723465343
 20
18.205383877
 10
20.5370280596
 20
18.2064047991
 10
20.5004073185
 20
18.2066373917
 10
20.462472091
 20
18.2060684926
 10
20.4231799534
 20
18.2047417003
 10
20.3825364576
 20
18.202665603
 10
20.3405360516
 20
18.1998316126
 10
20.2971196559
 20
18.1962575636
 10
20.2522914083
 20
18.1919491747
 10
20.2060471711
 20
18.1869007272
 10
20.1583154514
 20
18.1811128994
 10
20.1091068588
 20
18.1745911054
 10
20.0584107837
 20
18.1673299311
 10
20.0061239048
 20
18.1593138127
 10
19.9522531158
 20
18.1505477933
 10
19.8967915229
 20
18.1410268298
 10
19.8396151236
 20
18.1307202283
 10
19.7806825835
 20
18.1196177577
 10
19.7200352369
 20
18.1077296491
 10
19.6576730838
 20
18.0950559026
  0
LWPOLYLINE
  5
3B6
100
AcDbEntity
  8
SUPERFICI
100
AcDbPolyline
 62
7
  6
CONTINUOUS
 90
76
 70
0
 10
19.6575996572
 20
16.5412224089
 10
19.7196130855
 20
16.5928406145
 10
19.7799229785
 20
16.6434712551
 10
19.8385293361
 20
16.6931143305
 10
19.8953929252
 20
16.7417388895
 10
19.950552979
 20
16.7893758834
 10
20.0041271973
 20
16.8361181663
 10
20.056122421
 20
16.8819686818
 10
20.1065318093
 20
16.9269244863
 10
20.1554525399
 20
16.9710696023
 10
20.2028894764
 20
17.0144045609
 10
20.2488377552
 20
17.056928831
 10
20.2933799629
 20
17.0987248417
 10
20.3365218523
 20
17.1397926391
 10
20.3782576705
 20
17.1801321771
 10
20.4186527462
 20
17.2198257473
 10
20.4577145672
 20
17.2588728707
 10
20.4954356457
 20
17.2972740263
 10
20.5318588466
 20
17.3351129425
 10
20.5669948714
 20
17.3723885362
 10
20.6008330187
 20
17.4091018905
 10
20.6333840491
 20
17.4453399825
 10
20.6646661274
 20
17.4811030127
 10
20.6946610888
 20
17.5163907807
 10
20.7233251988
 20
17.5512896624
 10
20.7506892095
 20
17.5858022433
 10
20.7767223688
 20
17.619925938
 10
20.8012886859
 20
17.6537393656
 10
20.8244571387
 20
17.6872877312
 10
20.8461587494
 20
17.7205258298
 10
20.866050594
 20
17.7533966662
 10
20.8842088178
 20
17.7860173067
 10
20.9005572754
 20
17.8182706848
 10
20.9145246071
 20
17.8497486065
 10
20.9260640535
 20
17.8804644641
 10
20.935222374
 20
17.9104048651
 10
20.9415684861
 20
17.9391214377
 10
20.9449931417
 20
17.9665738141
 10
20.9456055889
 20
17.9928023619
 10
20.9433024893
 20
18.0174798124
 10
20.9379183628
 20
18.0405684306
 10
20.9296186896
 20
18.0621059515
 10
20.9187965709
 20
18.0818783109
 10
20.9053757942
 20
18.099756517
 10
20.8894325721
 20
18.1158695616
 10
20.8715886439
 20
18.1303903562
 10
20.8519241707
 20
18.1432684175
 10
20.8303589915
 20
18.1545542287
 10
20.8072743618
 20
18.1645721511
 10
20.7827445837
 20
18.1733506116
 10
20.7566953552
 20
18.1808611832
 10
20.7292850265
 20
18.187342947
 10
20.7005489214
 20
18.1928275197
 10
20.6704517162
 20
18.1972832844
 10
20.6390457895
 20
18.2008544717
 10
20.6063505226
 20
18.2035614631
 10
20.5723465343
 20
18.205383877
 10
20.5370280596
 20
18.2064047991
 10
20.5004073185
 20
18.2066373917
 10
20.462472091
 20
18.2060684926
 10
20.4231799534
 20
18.2047417003
 10
20.3825364576
 20
18.202665603
 10
20.3405360516
 20
18.1998316126
 10
20.2971196559
 20
18.1962575636
 10
20.2522914083
 20
18.1919491747
 10
20.2060471711
 20
18.1869007272
 10
20.1583154514
 20
18.1811128994
 10
20.1091068588
 20
18.1745911054
 10
20.0584107837
 20
18.1673299311
 10
20.0061239048
 20
18.1593138127
 10
19.9522531158
 20
18.1505477933
 10
19.8967915229
 20
18.1410268298
 10
19.8396151236
 20
18.1307202283
 10
19.7806825835
 20
18.1196177577
 10
19.7200352369
 20
18.1077296491
 10
19.6576730838
 20
18.0950559026
  0
LINE
  5
3B7
100
AcDbEntity
  8
DRAFT
100
AcDbLine
 62
7
  6
CONTINUOUS
 10
1.424287577
 20
-2.4788573851
 11
1.0435051714
 21
-2.2884661824
  0
LINE
  5
3B8
100
AcDbEntity
  8
0
100
AcDbLine
 62
7
  6
CONTINUOUS
 10
2.5852844152
 20
-16.3040066572
 11
1.424287577
 21
-2.4788573851
  0
LWPOLYLINE
  5
3B9
100
AcDbEntity
  8
ASSI
100
AcDbPolyline
 62
250
  6
CONTINUOUS
 90
10
 70
0
 10
1.6275654321
 20
18.6325230389
 10
1.6278363069
 20
18.6275173608
 10
1.6285602773
 20
18.6229289171
 10
1.6297373434
 20
18.6187577081
 10
1.6313957673
 20
18.6149587257
 10
1.6335072869
 20
18.6115769779
 10
1.6359871153
 20
18.6087474882
 10
1.6388069902
 20
18.6065152645
 10
1.641995174
 20
18.6048352988
 10
1.6455516665
 20
18.6037075913
  0
LWPOLYLINE
  5
3BA
100
AcDbEntity
  8
ASSI
100
AcDbPolyline
 62
250
  6
CONTINUOUS
 90
10
 70
0
 10
3.8430466319
 20
-21.5778543927
 10
3.8427850512
 20
-21.5728533615
 10
3.8420859211
 20
-21.5682773381
 10
3.8409492416
 20
-21.5641263223
 10
3.8393477202
 20
-21.5603557912
 10
3.8373086494
 20
-21.5570102678
 10
3.834913907
 20
-21.5542233211
 10
3.8321907854
 20
-21.552039474
 10
3.8291119922
 20
-21.5504142036
 10
3.8256775273
 20
-21.5493475099
  0
LWPOLYLINE
  5
3BB
100
AcDbEntity
  8
ASSI
100
AcDbPolyline
 62
250
  6
CONTINUOUS
 90
13
 70
0
 10
1.4059003416
 20
26.5726819627
 10
1.404717435
 20
26.5959180138
 10
1.4011883144
 20
26.6198976851
 10
1.3953720317
 20
26.6442197309
 10
1.3873659091
 20
26.6684771764
 10
1.3773039112
 20
26.6922641281
 10
1.3653544028
 20
26.7151825649
 10
1.3517173318
 20
26.7368489985
 10
1.336620884
 20
26.75690089
 10
1.3203176647
 20
26.7750027161
 10
1.3030804715
 20
26.7908515836
 10
1.28519773
 20
26.8041822974
 10
1.2669686676
 20
26.814771798
  0
LWPOLYLINE
  5
3BC
100
AcDbEntity
  8
ASSI
100
AcDbPolyline
 62
7
  6
CONTINUOUS
 90
16
 70
0
 10
-0.7191421517
 20
25.5562232992
 10
-0.7200518163
 20
25.5746159918
 10
-0.723430232
 20
25.5928847381
 10
-0.7292835801
 20
25.6110174916
 10
-0.7377604826
 20
25.6292947422
 10
-0.7487372802
 20
25.6473838808
 10
-0.7618138229
 20
25.6643463517
 10
-0.7769127551
 20
25.6799162113
 10
-0.7941403601
 20
25.6942764913
 10
-0.8133675366
 20
25.7071625417
 10
-0.8347395263
 20
25.7185691216
 10
-0.8581292056
 20
25.7283855082
 10
-0.8829883274
 20
25.7362019291
 10
-0.9091267562
 20
25.7418557173
 10
-0.936716516
 20
25.7454113294
 10
-0.9657405966
 20
25.7468135423
  0
LWPOLYLINE
  5
3BD
100
AcDbEntity
  8
ASSI
100
AcDbPolyline
 62
250
  6
CONTINUOUS
 90
9
 70
0
 10
1.3472123938
 20
18.6337636894
 10
1.3484112969
 20
18.6092162369
 10
1.3519935128
 20
18.5861943587
 10
1.3579102431
 20
18.5650090839
 10
1.3660825163
 20
18.5459446571
 10
1.3763988015
 20
18.5292604502
 10
1.3887147417
 20
18.5151853548
 10
1.4028607829
 20
18.5039077663
 10
1.4123931871
 20
18.4984241487
  0
LINE
  5
3BE
100
AcDbEntity
  8
ASSI
100
AcDbLine
 62
250
  6
CONTINUOUS
 10
1.9757642088
 20
25.8576652312
 11
1.9715857666
 21
26.1529373
  0
LINE
  5
3BF
100
AcDbEntity
  8
ASSI
100
AcDbLine
 62
7
  6
CONTINUOUS
 10
2.0349700982
 20
25.8839547348
 11
2.030165927
 21
26.2234443129
  0
LWPOLYLINE
  5
3C0
100
AcDbEntity
  8
DRAFT
100
AcDbPolyline
 62
7
  6
CONTINUOUS
 90
18
 70
0
 10
0.3913282143
 20
-17.855619906
 10
0.3913282143
 20
-17.9004417796
 10
0.3956644112
 20
-17.9595919385
 10
0.4044191312
 20
-18.0195881188
 10
0.4175100481
 20
-18.0807331581
 10
0.434690183
 20
-18.1418970907
 10
0.4561633606
 20
-18.2034017488
 10
0.4817257563
 20
-18.2649253003
 10
0.5105189162
 20
-18.3243722824
 10
0.5425050274
 20
-18.3814229564
 10
0.5777219029
 20
-18.4363970611
 10
0.6154245284
 20
-18.48815835
 10
0.6557980413
 20
-18.5367989145
 10
0.6986573043
 20
-18.5822266632
 10
0.7427018908
 20
-18.6230290758
 10
0.7874983254
 20
-18.658735312
 10
0.8334800836
 20
-18.6898162121
 10
0.8806471654
 20
-18.7162717759
  0
LINE
  5
3C1
100
AcDbEntity
  8
ASSI
100
AcDbLine
 62
250
  6
CONTINUOUS
 10
0.4117438835
 20
-22.1981235394
 11
0.4117438835
 21
-21.4472905145
  0
LINE
  5
3C2
100
AcDbEntity
  8
ASSI
100
AcDbLine
 62
250
  6
CONTINUOUS
 10
0.4117438835
 20
18.3506475751
 11
0.4117438835
 21
19.1014806
  0
LINE
  5
3C3
100
AcDbEntity
  8
RACCORDO
100
AcDbLine
 62
7
  6
CONTINUOUS
 10
0.7392258091
 20
-16.4203858979
 11
0.7392258091
 21
-15.3809773542
  0
LINE
  5
3C4
100
AcDbEntity
  8
ASSI
100
AcDbLine
 62
250
  6
CONTINUOUS
 10
0.7621851714
 20
-21.9518342176
 11
0.7621851714
 21
-21.3260011927
  0
LINE
  5
3C5
100
AcDbEntity
  8
ASSI
100
AcDbLine
 62
250
  6
CONTINUOUS
 10
0.7621851714
 20
18.2262999985
 11
0.7621851714
 21
18.8235281542
  0
LINE
  5
3C6
100
AcDbEntity
  8
ASSI
100
AcDbLine
 62
7
  6
CONTINUOUS
 10
1.3049112341
 20
18.5521651228
 11
1.3049112341
 21
18.111170681
  0
LINE
  5
3C7
100
AcDbEntity
  8
ASSI
100
AcDbLine
 62
7
  6
CONTINUOUS
 10
1.3049112341
 20
-20.6867674086
 11
1.3049112341
 21
-21.3126004335
  0
LINE
  5
3C8
100
AcDbEntity
  8
ASSI
100
AcDbLine
 62
250
  6
CONTINUOUS
 10
1.3472124018
 20
18.9510151412
 11
1.3472124018
 21
18.6337636849
  0
LINE
  5
3C9
100
AcDbEntity
  8
ASSI
100
AcDbLine
 62
250
  6
CONTINUOUS
 10
1.3472124018
 20
-22.9831265989
 11
1.3472124018
 21
-22.6658577985
  0
LINE
  5
3CA
100
AcDbEntity
  8
ASSI
100
AcDbLine
 62
250
  6
CONTINUOUS
 10
1.6275654321
 20
18.9497918393
 11
1.6275654321
 21
18.6325230389
  0
LINE
  5
3CB
100
AcDbEntity
  8
ASSI
100
AcDbLine
 62
250
  6
CONTINUOUS
 10
1.6275654321
 20
-22.9843499008
 11
1.6275654321
 21
-22.6670811004
  0
LINE
  5
3CC
100
AcDbEntity
  8
ASSI
100
AcDbLine
 62
250
  6
CONTINUOUS
 10
2.0319181828
 20
18.3597587926
 11
2.0319181828
 21
17.6795875043
  0
LINE
  5
3CD
100
AcDbEntity
  8
ASSI
100
AcDbLine
 62
250
  6
CONTINUOUS
 10
2.0319181828
 20
-20.9821911806
 11
2.0319181828
 21
-21.6761039079
  0
LINE
  5
3CE
100
AcDbEntity
  8
ASSI
100
AcDbLine
 62
250
  6
CONTINUOUS
 10
2.3823594707
 20
18.4474074143
 11
2.3823594707
 21
17.6892069682
  0
LINE
  5
3CF
100
AcDbEntity
  8
ASSI
100
AcDbLine
 62
250
  6
CONTINUOUS
 10
2.3823594707
 20
-21.1157876482
 11
2.3823594707
 21
-21.7530693454
  0
LINE
  5
3D0
100
AcDbEntity
  8
0
100
AcDbLine
 62
7
  6
CONTINUOUS
 10
2.5852844152
 20
-20.8258613913
 11
2.5852844152
 21
-16.3040066572
  0
LINE
  5
3D1
100
AcDbEntity
  8
0
100
AcDbLine
 62
7
  6
CONTINUOUS
 10
2.5852844152
 20
12.4480367485
 11
2.5852844152
 21
16.9698914826
  0
LINE
  5
3D2
100
AcDbEntity
  8
ASSI
100
AcDbLine
 62
250
  6
CONTINUOUS
 10
2.8466322211
 20
23.4650530473
 11
2.8427550794
 21
23.0905553452
  0
LINE
  5
3D3
100
AcDbEntity
  8
ASSI
100
AcDbLine
 62
250
  6
CONTINUOUS
 10
2.8404816256
 20
22.8709597586
 11
2.8344654575
 21
22.2898509728
  0
LWPOLYLINE
  5
3D4
100
AcDbEntity
  8
ASSI
100
AcDbPolyline
 62
250
  6
CONTINUOUS
 90
19
 70
0
 10
1.6275654321
 20
-22.6670811004
 10
1.6275980153
 20
-22.6649007597
 10
1.6277387608
 20
-22.6626279706
 10
1.6279876688
 20
-22.6602627333
 10
1.6283400858
 20
-22.6577935294
 10
1.6288006652
 20
-22.6552318772
 10
1.6293833668
 20
-22.6526123316
 10
1.6300922182
 20
-22.6499317567
 10
1.6309231918
 20
-22.6471932883
 10
1.6318781644
 20
-22.6444408892
 10
1.6329614729
 20
-22.6416730976
 10
1.6341687804
 20
-22.6388913752
 10
1.6354889534
 20
-22.6361440703
 10
1.636925919
 20
-22.6334318601
 10
1.6384757501
 20
-22.6307540673
 10
1.6401155318
 20
-22.6281570082
 10
1.641837626
 20
-22.6256561213
 10
1.6436496709
 20
-22.6232359679
 10
1.6455516665
 20
-22.6208965481
  0
LWPOLYLINE
  5
3D5
100
AcDbEntity
  8
ASSI
100
AcDbPolyline
 62
250
  6
CONTINUOUS
 90
19
 70
0
 10
1.3472124018
 20
-22.6658577985
 10
1.3474314143
 20
-22.6549888127
 10
1.3481133066
 20
-22.6436161459
 10
1.349293995
 20
-22.6317541769
 10
1.3510127659
 20
-22.6193964795
 10
1.3533019912
 20
-22.6065935651
 10
1.3561760018
 20
-22.5934554573
 10
1.3596561788
 20
-22.5800196241
 10
1.3637611937
 20
-22.5663292988
 10
1.3684783596
 20
-22.552512206
 10
1.3738113252
 20
-22.5386191937
 10
1.3797604972
 20
-22.5247045199
 10
1.3862847933
 20
-22.5109027321
 10
1.3933693157
 20
-22.4972699212
 10
1.400996686
 20
-22.4838621391
 10
1.4091007
 20
-22.4708069429
 10
1.4176350801
 20
-22.4581775636
 10
1.4265824456
 20
-22.4459987815
 10
1.4359093143
 20
-22.4343179071
  0
LWPOLYLINE
  5
3D6
100
AcDbEntity
  8
ASSI
100
AcDbPolyline
 62
7
  6
CONTINUOUS
 90
9
 70
0
 10
2.9454208734
 20
22.4226224824
 10
2.9452839574
 20
22.4174352803
 10
2.9419017517
 20
22.3970198904
 10
2.9336974198
 20
22.3767726651
 10
2.9210457663
 20
22.3567613115
 10
2.9047194749
 20
22.3379654985
 10
2.884976107
 20
22.3207117826
 10
2.8615581012
 20
22.3046736074
 10
2.8344654575
 20
22.2898509728
  0
LINE
  5
3D7
100
AcDbEntity
  8
RACCORDO
100
AcDbLine
 62
7
  6
CONTINUOUS
 10
0.224975096
 20
-21.8263897059
 11
1.8236949104
 21
16.33429175
  0
LWPOLYLINE
  5
3D8
100
AcDbEntity
  8
ASSI
100
AcDbPolyline
 62
250
  6
CONTINUOUS
 90
9
 70
0
 10
2.9527179082
 20
23.593294376
 10
2.9524344128
 20
23.5865821784
 10
2.9488619318
 20
23.5671845114
 10
2.9412371795
 20
23.5481372095
 10
2.9296432232
 20
23.529646017
 10
2.9142016869
 20
23.5119041289
 10
2.8950756813
 20
23.4951027796
 10
2.8724715064
 20
23.4794285536
 10
2.8466322211
 20
23.4650530473
  0
LINE
  5
3D9
100
AcDbEntity
  8
ASSI
100
AcDbLine
 62
250
  6
CONTINUOUS
 10
3.3384435944
 20
23.0794441116
 11
3.3480077545
 21
23.3031073501
  0
LINE
  5
3DA
100
AcDbEntity
  8
ASSI
100
AcDbLine
 62
7
  6
CONTINUOUS
 10
3.6263912883
 20
23.401394009
 11
3.6254026951
 21
23.3839508758
  0
LINE
  5
3DB
100
AcDbEntity
  8
0
100
AcDbLine
 62
7
  6
CONTINUOUS
 10
1.424287577
 20
-2.4788573851
 11
2.5852844152
 21
12.4480367485
  0
LWPOLYLINE
  5
3DC
100
AcDbEntity
  8
RACCORDO
100
AcDbPolyline
 62
250
  6
CONTINUOUS
 90
28
 70
0
 10
19.549940367
 20
16.4121645374
 10
19.566218843
 20
16.4266304262
 10
19.5822714695
 20
16.4387847699
 10
19.598065044
 20
16.4486307586
 10
19.6135961477
 20
16.4562182786
 10
19.6287965671
 20
16.4615027969
 10
19.6435445664
 20
16.4643410833
 10
19.657838124
 20
16.4645591404
 10
19.6716241234
 20
16.4623248274
 10
19.6847348033
 20
16.4579965382
 10
19.6971180185
 20
16.4514993252
 10
19.7088210947
 20
16.4428851991
 10
19.7198462389
 20
16.432696759
 10
19.7301628214
 20
16.4209923655
 10
19.7397970794
 20
16.4076921715
 10
19.7488194931
 20
16.3931352311
 10
19.7572089105
 20
16.3773691276
 10
19.7649477146
 20
16.3603312868
 10
19.7720761957
 20
16.3422013041
 10
19.778561295
 20
16.3229832601
 10
19.7843573806
 20
16.3026600153
 10
19.7894524084
 20
16.2813823659
 10
19.7937923916
 20
16.2591482365
 10
19.797322689
 20
16.2359420518
 10
19.8000000784
 20
16.2118945426
 10
19.8017513018
 20
16.1870216511
 10
19.8025085749
 20
16.1612803241
 10
19.8025341829
 20
16.1562197017
  0
LWPOLYLINE
  5
3DD
100
AcDbEntity
  8
SUPERFICI
100
AcDbPolyline
 62
250
  6
CONTINUOUS
 90
28
 70
0
 10
19.549940367
 20
16.4121645374
 10
19.566218843
 20
16.4266304262
 10
19.5822714695
 20
16.4387847699
 10
19.598065044
 20
16.4486307586
 10
19.6135961477
 20
16.4562182786
 10
19.6287965671
 20
16.4615027969
 10
19.6435445664
 20
16.4643410833
 10
19.657838124
 20
16.4645591404
 10
19.6716241234
 20
16.4623248274
 10
19.6847348033
 20
16.4579965382
 10
19.6971180185
 20
16.4514993252
 10
19.7088210947
 20
16.4428851991
 10
19.7198462389
 20
16.432696759
 10
19.7301628214
 20
16.4209923655
 10
19.7397970794
 20
16.4076921715
 10
19.7488194931
 20
16.3931352311
 10
19.7572089105
 20
16.3773691276
 10
19.7649477146
 20
16.3603312868
 10
19.7720761957
 20
16.3422013041
 10
19.778561295
 20
16.3229832601
 10
19.7843573806
 20
16.3026600153
 10
19.7894524084
 20
16.2813823659
 10
19.7937923916
 20
16.2591482365
 10
19.797322689
 20
16.2359420518
 10
19.8000000784
 20
16.2118945426
 10
19.8017513018
 20
16.1870216511
 10
19.8025085749
 20
16.1612803241
 10
19.8025341829
 20
16.1562197017
  0
LWPOLYLINE
  5
3DE
100
AcDbEntity
  8
0
100
AcDbPolyline
 62
7
  6
CONTINUOUS
 90
11
 70
0
 10
-12.1931580712
 20
-8.833413405
 10
-12.2430711701
 20
-8.864258937
 10
-12.2846574778
 20
-8.8993053858
 10
-12.3226012774
 20
-8.940800819
 10
-12.3560342302
 20
-8.9877137448
 10
-12.3848317022
 20
-9.0402310945
 10
-12.4091247724
 20
-9.0981686616
 10
-12.4284302951
 20
-9.1599389916
 10
-12.4425889857
 20
-9.2250136987
 10
-12.4517640992
 20
-9.2939228614
 10
-12.4559561744
 20
-9.3666666924
  0
LWPOLYLINE
  5
3DF
100
AcDbEntity
  8
ASSI
100
AcDbPolyline
 62
250
  6
CONTINUOUS
 90
13
 70
0
 10
1.6629100948
 20
19.0101524865
 10
1.6613943625
 20
19.033209422
 10
1.6575283228
 20
19.0571023378
 10
1.6513780967
 20
19.0814225796
 10
1.6430488735
 20
19.1057541829
 10
1.632683111
 20
19.1296809897
 10
1.6204580985
 20
19.1527937664
 10
1.6065829248
 20
19.1746972007
 10
1.5912949053
 20
19.1950166602
 10
1.5748555219
 20
19.2134046032
 10
1.5575459485
 20
19.2295465259
 10
1.5396622413
 20
19.2431663406
 10
1.5215102777
 20
19.2540310958
  0
LWPOLYLINE
  5
3E0
100
AcDbEntity
  8
ASSI
100
AcDbPolyline
 62
7
  6
CONTINUOUS
 90
12
 70
0
 10
2.0301549109
 20
26.2234433415
 10
2.0266847656
 20
26.2944598969
 10
2.0170479622
 20
26.3710058525
 10
2.001510118
 20
26.4434642297
 10
1.9803189239
 20
26.5114670896
 10
1.9536580893
 20
26.5748365289
 10
1.9216122363
 20
26.6334812578
 10
1.8843790509
 20
26.6870741527
 10
1.8422392274
 20
26.7351796813
 10
1.7954922494
 20
26.7774129365
 10
1.7445501833
 20
26.8134136531
 10
1.7041293285
 20
26.835990096
  0
LWPOLYLINE
  5
3E1
100
AcDbEntity
  8
ASSI
100
AcDbPolyline
 62
250
  6
CONTINUOUS
 90
22
 70
0
 10
1.9715857666
 20
26.1529373
 10
1.9692837474
 20
26.2038853423
 10
1.9639750965
 20
26.2525832548
 10
1.955659814
 20
26.2990310376
 10
1.9442606786
 20
26.3434874551
 10
1.9298549117
 20
26.385693743
 10
1.9126741766
 20
26.4248736079
 10
1.8926705763
 20
26.4609517776
 10
1.8698920079
 20
26.4940035243
 10
1.8447138262
 20
26.5234783724
 10
1.817095663
 20
26.5493135627
 10
1.7870778864
 20
26.5715718542
 10
1.7551569558
 20
26.5898910487
 10
1.7213035718
 20
26.6042039487
 10
1.6855470337
 20
26.6145777516
 10
1.648471699
 20
26.6208518517
 10
1.6100350694
 20
26.6229504738
 10
1.5702796431
 20
26.620949393
 10
1.5299172719
 20
26.6149153295
 10
1.48918524
 20
26.6048705233
 10
1.4478462632
 20
26.5907927343
 10
1.4059003416
 20
26.5726819627
  0
LWPOLYLINE
  5
3E2
100
AcDbEntity
  8
ASSI
100
AcDbPolyline
 62
7
  6
CONTINUOUS
 90
12
 70
0
 10
2.9527184908
 20
23.5934168781
 10
2.9515404795
 20
23.6207377539
 10
2.9464178798
 20
23.654174136
 10
2.9371983749
 20
23.6871698194
 10
2.9238875804
 20
23.7192518702
 10
2.9066360963
 20
23.7498140465
 10
2.885500957
 20
23.7785731357
 10
2.8604899274
 20
23.8052958043
 10
2.8320274679
 20
23.8293901461
 10
2.8006696843
 20
23.8504127335
 10
2.7661791942
 20
23.8685342611
 10
2.7289422591
 20
23.8835076561
  0
LWPOLYLINE
  5
3E3
100
AcDbEntity
  8
ASSI
100
AcDbPolyline
 62
7
  6
CONTINUOUS
 90
16
 70
0
 10
3.6737189511
 20
17.5544140887
 10
3.6718050716
 20
17.6002885637
 10
3.6659909212
 20
17.647725097
 10
3.6563121487
 20
17.6962340804
 10
3.6427796503
 20
17.7454781773
 10
3.6255555095
 20
17.7947475836
 10
3.6050752209
 20
17.8429782198
 10
3.5818564925
 20
17.8892726227
 10
3.5560461342
 20
17.9335733584
 10
3.5275581112
 20
17.9760577022
 10
3.4963710016
 20
18.0165606196
 10
3.4630384897
 20
18.0541870486
 10
3.4283407563
 20
18.0880694878
 10
3.3928295147
 20
18.1177722623
 10
3.3567611364
 20
18.1431626423
 10
3.3205288976
 20
18.164022021
  0
LWPOLYLINE
  5
3E4
100
AcDbEntity
  8
ASSI
100
AcDbPolyline
 62
250
  6
CONTINUOUS
 90
13
 70
0
 10
2.8466322211
 20
23.4650530473
 10
2.8454897762
 20
23.4942503834
 10
2.8412910363
 20
23.5244334875
 10
2.8341078154
 20
23.5550861183
 10
2.8240629725
 20
23.5856840036
 10
2.8113283114
 20
23.6157038081
 10
2.7961216418
 20
23.6446320838
 10
2.7787030535
 20
23.6719740515
 10
2.7593704678
 20
23.6972620638
 10
2.7384545425
 20
23.7200636034
 10
2.7163130162
 20
23.7399886807
 10
2.69332459
 20
23.7566965042
 10
2.6698824498
 20
23.769901309
  0
LWPOLYLINE
  5
3E5
100
AcDbEntity
  8
ASSI
100
AcDbPolyline
 62
250
  6
CONTINUOUS
 90
13
 70
0
 10
3.8089146879
 20
20.0873156854
 10
3.8080007308
 20
20.1106735533
 10
3.8046417382
 20
20.1348200359
 10
3.7988951611
 20
20.1593421401
 10
3.7908592871
 20
20.1838204483
 10
3.7806715588
 20
20.2078362922
 10
3.7685062237
 20
20.2309789131
 10
3.7545713534
 20
20.2528524877
 10
3.7391052851
 20
20.2730828979
 10
3.722372545
 20
20.2913241299
 10
3.704659324
 20
20.307264192
 10
3.6862685831
 20
20.3206304509
 10
3.6675148709
 20
20.3311942947
  0
LWPOLYLINE
  5
3E6
100
AcDbEntity
  8
ASSI
100
AcDbPolyline
 62
7
  6
CONTINUOUS
 90
11
 70
0
 10
3.8991782266
 20
20.1313170662
 10
3.8987079725
 20
20.1465632275
 10
3.8950677214
 20
20.1762304977
 10
3.8878525604
 20
20.2049749273
 10
3.8771738466
 20
20.2323226263
 10
3.8633535836
 20
20.2576290442
 10
3.846641723
 20
20.2806671182
 10
3.827171545
 20
20.3013199979
 10
3.8053513166
 20
20.319185987
 10
3.7816185558
 20
20.3339835036
 10
3.7759568923
 20
20.3369224152
  0
LWPOLYLINE
  5
3E7
100
AcDbEntity
  8
ASSI
100
AcDbPolyline
 62
7
  6
CONTINUOUS
 90
8
 70
0
 10
3.6616694721
 20
23.4331085079
 10
3.6614231052
 20
23.4463406066
 10
3.660330176
 20
23.4571258681
 10
3.6585085986
 20
23.4654520062
 10
3.6560476086
 20
23.4712961041
 10
3.6530676609
 20
23.4746652906
 10
3.6497632293
 20
23.4755973971
 10
3.6479281445
 20
23.4750909892
  0
LWPOLYLINE
  5
3E8
100
AcDbEntity
  8
ASSI
100
AcDbPolyline
 62
250
  6
CONTINUOUS
 90
28
 70
0
 10
3.8430466319
 20
20.0616933415
 10
3.8430090351
 20
20.063914298
 10
3.8428655852
 20
20.066104752
 10
3.8426162824
 20
20.0682647036
 10
3.8422635703
 20
20.0704089393
 10
3.8418050052
 20
20.0725226727
 10
3.8412332562
 20
20.0745615438
 10
3.8405443984
 20
20.0765237127
 10
3.8397423566
 20
20.0784110192
 10
3.8388315744
 20
20.0801846238
 10
3.8378087828
 20
20.081840596
 10
3.8366772508
 20
20.0833828661
 10
3.8354512283
 20
20.0847843854
 10
3.8341297243
 20
20.0860405339
 10
3.8327137298
 20
20.0871559316
 10
3.8312204677
 20
20.0881173901
 10
3.8296501129
 20
20.0889222401
 10
3.8280024905
 20
20.0895731509
 10
3.8262942991
 20
20.0900649411
 10
3.8245249886
 20
20.0903962376
 10
3.822695109
 20
20.0905684134
 10
3.8208230086
 20
20.090580407
 10
3.8189083508
 20
20.0904307803
 10
3.8169514721
 20
20.0901209712
 10
3.8149717307
 20
20.089654232
 10
3.8129755792
 20
20.0890316466
 10
3.8109565649
 20
20.0882521311
 10
3.8089146879
 20
20.0873156854
  0
LWPOLYLINE
  5
3E9
100
AcDbEntity
  8
ASSI
100
AcDbPolyline
 62
7
  6
CONTINUOUS
 90
4
 70
0
 10
3.8991791031
 20
-21.5083602689
 10
3.8991605935
 20
-21.5053513427
 10
3.897467769
 20
-21.4791557617
 10
3.8930182943
 20
-21.4534404093
  0
LINE
  5
3EA
100
AcDbEntity
  8
ASSI
100
AcDbLine
 62
7
  6
CONTINUOUS
 10
3.2848102214
 20
-22.2615313776
 11
3.2848102214
 21
-20.7553419508
  0
LINE
  5
3EB
100
AcDbEntity
  8
ASSI
100
AcDbLine
 62
7
  6
CONTINUOUS
 10
3.2848102214
 20
18.1818813591
 11
3.2848102214
 21
19.8273560062
  0
LINE
  5
3EC
100
AcDbEntity
  8
ASSI
100
AcDbLine
 62
7
  6
CONTINUOUS
 10
3.6737189511
 20
17.5544140887
 11
3.6737189511
 21
15.0429406214
  0
LINE
  5
3ED
100
AcDbEntity
  8
ASSI
100
AcDbLine
 62
7
  6
CONTINUOUS
 10
3.6737189511
 20
-20.3774981898
 11
3.6737189511
 21
-17.8660247224
  0
LINE
  5
3EE
100
AcDbEntity
  8
ASSI
100
AcDbLine
 62
250
  6
CONTINUOUS
 10
3.8430466319
 20
-21.9177979876
 11
3.8430466319
 21
-21.5778543927
  0
LINE
  5
3EF
100
AcDbEntity
  8
ASSI
100
AcDbLine
 62
250
  6
CONTINUOUS
 10
3.8430466319
 20
19.7217497467
 11
3.8430466319
 21
20.0616933415
  0
LINE
  5
3F0
100
AcDbEntity
  8
ASSI
100
AcDbLine
 62
7
  6
CONTINUOUS
 10
3.8991786719
 20
-21.8483321505
 11
3.8991786719
 21
-21.5083884868
  0
LINE
  5
3F1
100
AcDbEntity
  8
ASSI
100
AcDbLine
 62
7
  6
CONTINUOUS
 10
3.8991786719
 20
19.7912155837
 11
3.8991784226
 21
20.1313170664
  0
LINE
  5
3F2
100
AcDbEntity
  8
ASSI
100
AcDbLine
 62
7
  6
CONTINUOUS
 10
4.3684831375
 20
-20.0027231257
 11
4.3684831375
 21
-17.0777156756
  0
LINE
  5
3F3
100
AcDbEntity
  8
ASSI
100
AcDbLine
 62
7
  6
CONTINUOUS
 10
4.3684831375
 20
14.9740809506
 11
4.3684831375
 21
17.8990884006
  0
LINE
  5
3F4
100
AcDbEntity
  8
ASSI
100
AcDbLine
 62
7
  6
CONTINUOUS
 10
5.0632473239
 20
15.3382339816
 11
5.0632473239
 21
14.7623899974
  0
LINE
  5
3F5
100
AcDbEntity
  8
ASSI
100
AcDbLine
 62
7
  6
CONTINUOUS
 10
5.0632473239
 20
-16.2492454955
 11
5.0632473239
 21
-16.7224193307
  0
LINE
  5
3F6
100
AcDbEntity
  8
ASSI
100
AcDbLine
 62
7
  6
CONTINUOUS
 10
5.1249649989
 20
14.7315311599
 11
5.1249649989
 21
-16.1774341839
  0
LINE
  5
3F7
100
AcDbEntity
  8
ASSI
100
AcDbLine
 62
7
  6
CONTINUOUS
 10
2.9455435403
 20
22.4226211682
 11
2.9527184985
 21
23.5934005901
  0
LINE
  5
3F8
100
AcDbEntity
  8
ASSI
100
AcDbLine
 62
7
  6
CONTINUOUS
 10
3.6616694721
 20
23.4331085079
 11
3.6614490671
 21
23.4264487441
  0
LINE
  5
3F9
100
AcDbEntity
  8
ASSI
100
AcDbLine
 62
7
  6
CONTINUOUS
 10
3.8983220557
 20
19.7702694492
 11
3.8991747409
 21
19.7912554219
  0
LWPOLYLINE
  5
3FA
100
AcDbEntity
  8
ASSI
100
AcDbPolyline
 62
250
  6
CONTINUOUS
 90
8
 70
0
 10
3.8089146879
 20
-21.9787649941
 10
3.8080007347
 20
-22.0006070868
 10
3.8046417533
 20
-22.0208874921
 10
3.7988951923
 20
-22.0392593403
 10
3.7908593366
 20
-22.0554084041
 10
3.7806716265
 20
-22.0690584746
 10
3.7685063055
 20
-22.0799760846
 10
3.760011496
 20
-22.0853153291
  0
LWPOLYLINE
  5
3FB
100
AcDbEntity
  8
ASSI
100
AcDbPolyline
 62
7
  6
CONTINUOUS
 90
10
 70
0
 10
3.6737189511
 20
-20.3775643433
 10
3.6717600411
 20
-20.4215595858
 10
3.6659481207
 20
-20.4633560304
 10
3.656291086
 20
-20.5024698549
 10
3.642758364
 20
-20.5385791311
 10
3.6255016156
 20
-20.5710738624
 10
3.604990626
 20
-20.5992087984
 10
3.5817478166
 20
-20.6225748017
 10
3.5559134646
 20
-20.6412792906
 10
3.5479437611
 20
-20.6458377696
  0
LINE
  5
3FC
100
AcDbEntity
  8
ASSI
100
AcDbLine
 62
7
  6
CONTINUOUS
 10
3.8980526688
 20
-21.8723413299
 11
3.8991786071
 21
-21.8483014955
  0
LWPOLYLINE
  5
3FD
100
AcDbEntity
  8
DRAFT
100
AcDbPolyline
 62
7
  6
CONTINUOUS
 90
27
 70
0
 10
-12.1931895774
 20
-8.8333479586
 10
-12.1481351887
 20
-8.8135422979
 10
-12.0969352648
 20
-8.7987544429
 10
-12.0429375247
 20
-8.7909604909
 10
-11.9863204818
 20
-8.7900350983
 10
-11.9285394408
 20
-8.7960138228
 10
-11.8696793414
 20
-8.8090460622
 10
-11.8096519911
 20
-8.8289810108
 10
-11.7496578158
 20
-8.8554060229
 10
-11.6896566642
 20
-8.8884484211
 10
-11.6296883549
 20
-8.9279807054
 10
-11.5710779691
 20
-8.9732100513
 10
-11.5137999058
 20
-9.0243404189
 10
-11.4578830437
 20
-9.0811692208
 10
-11.4047392065
 20
-9.1422960195
 10
-11.3545146807
 20
-9.2077280748
 10
-11.307069962
 20
-9.2774610314
 10
-11.2633922034
 20
-9.3500788096
 10
-11.2235020424
 20
-9.4257964489
 10
-11.1873859601
 20
-9.5044019683
 10
-11.1559826643
 20
-9.5838400122
 10
-11.1294723541
 20
-9.663996557
 10
-11.107681472
 20
-9.7449885039
 10
-11.0910197452
 20
-9.8251076496
 10
-11.0796253545
 20
-9.9037853001
 10
-11.0733637876
 20
-9.981591744
 10
-11.0722354317
 20
-10.0585271341
  0
LWPOLYLINE
  5
3FE
100
AcDbEntity
  8
0
100
AcDbPolyline
 62
7
  6
CONTINUOUS
 90
3
 70
0
 10
-12.0972946114
 20
-8.7988319117
 10
-12.148800556
 20
-8.8138543168
 10
-12.1931580712
 20
-8.833413405
  0
LINE
  5
3FF
100
AcDbEntity
  8
DRAFT
100
AcDbLine
 62
7
  6
CONTINUOUS
 10
5.0818656279
 20
14.7530808453
 11
5.0757220548
 21
14.8325207471
  0
LINE
  5
400
100
AcDbEntity
  8
SUPERFICI
100
AcDbLine
 62
7
  6
CONTINUOUS
 10
5.0818656279
 20
14.7530808453
 11
5.0757220548
 21
14.8325207471
  0
LINE
  5
401
100
AcDbEntity
  8
DRAFT
100
AcDbLine
 62
7
  6
CONTINUOUS
 10
5.0632473239
 20
-16.3155348846
 11
5.0747583507
 21
-16.2358518942
  0
LINE
  5
402
100
AcDbEntity
  8
SUPERFICI
100
AcDbLine
 62
7
  6
CONTINUOUS
 10
5.0632473239
 20
-16.3155348846
 11
5.0747583507
 21
-16.2358518942
  0
LINE
  5
403
100
AcDbEntity
  8
DRAFT
100
AcDbLine
 62
7
  6
CONTINUOUS
 10
5.0757220548
 20
14.8325207471
 11
5.0632473239
 21
14.9313495355
  0
LINE
  5
404
100
AcDbEntity
  8
SUPERFICI
100
AcDbLine
 62
7
  6
CONTINUOUS
 10
5.0757220548
 20
14.8325207471
 11
5.0632473239
 21
14.9313495355
  0
LINE
  5
405
100
AcDbEntity
  8
ASSI
100
AcDbLine
 62
7
  6
CONTINUOUS
 10
9.9602795225
 20
22.1059668691
 11
9.9602795225
 21
22.2969889328
  0
LWPOLYLINE
  5
406
100
AcDbEntity
  8
ASSI
100
AcDbPolyline
 62
7
  6
CONTINUOUS
 90
4
 70
0
 10
3.2740484651
 20
-22.3224246753
 10
3.2799973745
 20
-22.3039438192
 10
3.2836066045
 20
-22.2835289516
 10
3.2848102214
 20
-22.2615313776
  0
LWPOLYLINE
  5
407
100
AcDbEntity
  8
RACCORDO
100
AcDbPolyline
 62
7
  6
CONTINUOUS
 90
7
 70
0
 10
19.549940367
 20
16.4121645374
 10
19.5649384825
 20
16.4364486577
 10
19.5811146378
 20
16.459622988
 10
19.598468833
 20
16.4816875283
 10
19.6170010679
 20
16.5026422785
 10
19.6367113426
 20
16.5224872387
 10
19.6575996572
 20
16.5412224089
  0
LWPOLYLINE
  5
408
100
AcDbEntity
  8
SUPERFICI
100
AcDbPolyline
 62
7
  6
CONTINUOUS
 90
7
 70
0
 10
19.549940367
 20
16.4121645374
 10
19.5649384825
 20
16.4364486577
 10
19.5811146378
 20
16.459622988
 10
19.598468833
 20
16.4816875283
 10
19.6170010679
 20
16.5026422785
 10
19.6367113426
 20
16.5224872387
 10
19.6575996572
 20
16.5412224089
  0
LWPOLYLINE
  5
409
100
AcDbEntity
  8
0
100
AcDbPolyline
 62
7
  6
CONTINUOUS
 90
14
 70
0
 10
-11.4312764765
 20
-13.235432214
 10
-11.3959278444
 20
-13.2209023678
 10
-11.361182984
 20
-13.2021760229
 10
-11.3285283611
 20
-13.1800331107
 10
-11.2979213106
 20
-13.1544911657
 10
-11.2694073324
 20
-13.1255338631
 10
-11.2432096778
 20
-13.0934037948
 10
-11.219304363
 20
-13.0580153051
 10
-11.1977176858
 20
-13.0194550336
 10
-11.1787487402
 20
-12.9782242124
 10
-11.1624286659
 20
-12.9342599103
 10
-11.1487282328
 20
-12.8876258769
 10
-11.1378564306
 20
-12.8390135825
 10
-11.1298834926
 20
-12.7886537711
  0
LWPOLYLINE
  5
40A
100
AcDbEntity
  8
RACCORDO
100
AcDbPolyline
 62
250
  6
CONTINUOUS
 90
9
 70
0
 10
-17.4327414861
 20
21.4314882312
 10
-17.4632734172
 20
21.4502673647
 10
-17.4898759531
 20
21.470052447
 10
-17.5122913366
 20
21.4906517765
 10
-17.5303023801
 20
21.511865762
 10
-17.5437345711
 20
21.5334888567
 10
-17.5524577623
 20
21.55531155
 10
-17.5563874328
 20
21.5771223974
 10
-17.5563715359
 20
21.590918784
  0
LINE
  5
40B
100
AcDbEntity
  8
0
100
AcDbLine
 62
7
  6
CONTINUOUS
 10
9.4797110034
 20
23.0598539547
 11
9.4824209998
 21
23.0118446303
  0
LINE
  5
40C
100
AcDbEntity
  8
SUPERFICI
100
AcDbLine
 62
7
  6
CONTINUOUS
 10
9.4797110034
 20
23.0598539547
 11
9.4824209998
 21
23.0118446303
  0
LINE
  5
40D
100
AcDbEntity
  8
0
100
AcDbLine
 62
250
  6
CONTINUOUS
 10
10.2682722682
 20
24.0236041931
 11
10.2682722682
 21
23.7022799109
  0
LINE
  5
40E
100
AcDbEntity
  8
SUPERFICI
100
AcDbLine
 62
250
  6
CONTINUOUS
 10
10.2682722682
 20
24.0236041931
 11
10.2682722682
 21
23.7022799109
  0
LINE
  5
40F
100
AcDbEntity
  8
DRAFT
100
AcDbLine
 62
7
  6
CONTINUOUS
 10
10.9509824662
 20
23.6019092121
 11
10.9509824662
 21
24.034921914
  0
LINE
  5
410
100
AcDbEntity
  8
SUPERFICI
100
AcDbLine
 62
7
  6
CONTINUOUS
 10
10.9509824662
 20
23.6019092121
 11
10.9509824662
 21
24.034921914
  0
LINE
  5
411
100
AcDbEntity
  8
0
100
AcDbLine
 62
7
  6
CONTINUOUS
 10
11.9184461786
 20
22.7657791009
 11
11.9184461786
 21
22.2999043344
  0
LINE
  5
412
100
AcDbEntity
  8
RACCORDO
100
AcDbLine
 62
250
  6
CONTINUOUS
 10
12.3357793595
 20
23.4948943246
 11
12.3357793595
 21
23.9536258908
  0
LINE
  5
413
100
AcDbEntity
  8
SUPERFICI
100
AcDbLine
 62
250
  6
CONTINUOUS
 10
12.3357793595
 20
23.4948943246
 11
12.3357793595
 21
23.9536258908
  0
LINE
  5
414
100
AcDbEntity
  8
0
100
AcDbLine
 62
7
  6
CONTINUOUS
 10
12.36819084
 20
22.6440312677
 11
12.36819084
 21
22.2908457139
  0
LINE
  5
415
100
AcDbEntity
  8
RACCORDO
100
AcDbLine
 62
250
  6
CONTINUOUS
 10
12.4767922809
 20
23.4958246028
 11
12.4767922809
 21
23.9646217879
  0
LINE
  5
416
100
AcDbEntity
  8
SUPERFICI
100
AcDbLine
 62
250
  6
CONTINUOUS
 10
12.4767922809
 20
23.4958246028
 11
12.4767922809
 21
23.9646217879
  0
LWPOLYLINE
  5
417
100
AcDbEntity
  8
ASSI
100
AcDbPolyline
 62
250
  6
CONTINUOUS
 90
7
 70
0
 10
3.8256775273
 20
-21.5493475099
 10
3.8334763307
 20
-21.5246201076
 10
3.838708786
 20
-21.4991356878
 10
3.8412863551
 20
-21.4733254714
 10
3.8411654231
 20
-21.4476261924
 10
3.8383480361
 20
-21.4224727073
 10
3.8328818671
 20
-21.3982906374
  0
LWPOLYLINE
  5
418
100
AcDbEntity
  8
RACCORDO
100
AcDbPolyline
 62
250
  6
CONTINUOUS
 90
16
 70
0
 10
-2.7325581906
 20
14.0814049112
 10
-2.6939615384
 20
14.0656195839
 10
-2.6525677381
 20
14.0514062426
 10
-2.6087778548
 20
14.0389026004
 10
-2.5630161686
 20
14.0282298053
 10
-2.515726065
 20
14.0194912658
 10
-2.4673657379
 20
14.0127716495
 10
-2.4184037509
 20
14.0081360628
 10
-2.369314497
 20
14.0056294199
 10
-2.3205736022
 20
14.0052760077
 10
-2.2726533174
 20
14.0070792504
 10
-2.2260179423
 20
14.0110216763
 10
-2.1811193276
 20
14.0170650874
 10
-2.138392496
 20
14.0251509288
 10
-2.0982514281
 20
14.0352008569
 10
-2.061085051
 20
14.0471174979
  0
LWPOLYLINE
  5
419
100
AcDbEntity
  8
RACCORDO
100
AcDbPolyline
 62
250
  6
CONTINUOUS
 90
6
 70
0
 10
-2.7325669838
 20
14.0814009583
 10
-3.2397954465
 20
14.3061198457
 10
-3.7448481265
 20
14.531697186
 10
-4.2477185433
 20
14.7581276955
 10
-4.7482813611
 20
14.9853520049
 10
-5.2466499571
 20
15.2134185004
  0
LWPOLYLINE
  5
41A
100
AcDbEntity
  8
RACCORDO
100
AcDbPolyline
 62
250
  6
CONTINUOUS
 90
26
 70
0
 10
-5.2466499571
 20
15.2134185004
 10
-5.7431718313
 20
15.4424855189
 10
-6.2380063121
 20
15.6726289487
 10
-6.7309718919
 20
15.9037668188
 10
-7.2219026081
 20
16.1358217356
 10
-7.7107432797
 20
16.3687670646
 10
-8.1975324456
 20
16.602620726
 10
-8.6822468265
 20
16.8373711828
 10
-9.164949308
 20
17.073048969
 10
-9.6455597241
 20
17.3096151351
 10
-10.1238433433
 20
17.5469525388
 10
-10.5994999723
 20
17.7849074603
 10
-11.0728219019
 20
18.0236211684
 10
-11.5444574947
 20
18.2634214323
 10
-12.0134962044
 20
18.5038447897
 10
-12.4808293234
 20
18.7453472088
 10
-12.9497539592
 20
18.9896582859
 10
-13.4194175572
 20
19.2363771514
 10
-13.8905599553
 20
19.485935275
 10
-14.3687397115
 20
19.7413625891
 10
-14.8539745907
 20
20.0027982073
 10
-15.3459505048
 20
20.2702044115
 10
-15.8495630221
 20
20.5464108393
 10
-16.3662457571
 20
20.832431102
 10
-16.894057778
 20
21.1274279625
 10
-17.4327414893
 20
21.4314882087
  0
LINE
  5
41B
100
AcDbEntity
  8
DRAFT
100
AcDbLine
 62
7
  6
CONTINUOUS
 10
2.5852844152
 20
12.4480367485
 11
1.6798488424
 21
12.9007545349
  0
LWPOLYLINE
  5
41C
100
AcDbEntity
  8
RACCORDO
100
AcDbPolyline
 62
250
  6
CONTINUOUS
 90
16
 70
0
 10
-1.8756557562
 20
15.461319
 10
-1.8397450533
 20
15.4400084528
 10
-1.8043287637
 20
15.4141421104
 10
-1.7697945776
 20
15.3840031228
 10
-1.7365205291
 20
15.3499214114
 10
-1.7048708578
 20
15.3122700571
 10
-1.6751920218
 20
15.2714612166
 10
-1.647808905
 20
15.2279416106
 10
-1.6230212613
 20
15.1821876333
 10
-1.6011004326
 20
15.1347001382
 10
-1.5822863788
 20
15.0859989547
 10
-1.5667850508
 20
15.0366171981
 10
-1.5547661366
 20
14.9870954338
 10
-1.546361203
 20
14.9379757598
 10
-1.5416622561
 20
14.8897958725
 10
-1.5407207336
 20
14.8430831809
  0
LWPOLYLINE
  5
41D
100
AcDbEntity
  8
ASSI
100
AcDbPolyline
 62
7
  6
CONTINUOUS
 90
4
 70
0
 10
-13.2948273366
 20
25.864079032
 10
-13.2767287725
 20
25.8480943045
 10
-13.2570199893
 20
25.8342221492
 10
-13.238788893
 20
25.8240162203
  0
LINE
  5
41E
100
AcDbEntity
  8
ASSI
100
AcDbLine
 62
7
  6
CONTINUOUS
 10
4.3684831375
 20
16.536524949
 11
5.0632473239
 21
15.3382339816
  0
LINE
  5
41F
100
AcDbEntity
  8
DRAFT
100
AcDbLine
 62
7
  6
CONTINUOUS
 10
4.3684831375
 20
16.5579013221
 11
4.6737189511
 21
16.031447418
  0
LINE
  5
420
100
AcDbEntity
  8
SUPERFICI
100
AcDbLine
 62
7
  6
CONTINUOUS
 10
4.3684831375
 20
16.5579013221
 11
4.6737189511
 21
16.031447418
  0
LWPOLYLINE
  5
421
100
AcDbEntity
  8
DRAFT
100
AcDbPolyline
 62
7
  6
CONTINUOUS
 90
4
 70
0
 10
4.7965087404
 20
15.7982899854
 10
4.796039298
 20
15.7993268922
 10
4.7373957111
 20
15.9161720563
 10
4.6737189511
 20
16.031447418
  0
LWPOLYLINE
  5
422
100
AcDbEntity
  8
SUPERFICI
100
AcDbPolyline
 62
7
  6
CONTINUOUS
 90
4
 70
0
 10
4.7965087404
 20
15.7982899854
 10
4.796039298
 20
15.7993268922
 10
4.7373957111
 20
15.9161720563
 10
4.6737189511
 20
16.031447418
  0
LINE
  5
423
100
AcDbEntity
  8
0
100
AcDbLine
 62
7
  6
CONTINUOUS
 10
14.2804282467
 20
26.0650039858
 11
14.2804282467
 21
25.6571527185
  0
LINE
  5
424
100
AcDbEntity
  8
SUPERFICI
100
AcDbLine
 62
7
  6
CONTINUOUS
 10
14.2804282467
 20
26.0650039858
 11
14.2804282467
 21
25.6571527185
  0
LINE
  5
425
100
AcDbEntity
  8
ASSI
100
AcDbLine
 62
7
  6
CONTINUOUS
 10
0.2597095716
 20
-20.9972942965
 11
0.7392258091
 21
-20.4039246961
  0
LINE
  5
426
100
AcDbEntity
  8
ASSI
100
AcDbLine
 62
7
  6
CONTINUOUS
 10
0.7621851714
 20
-21.3260011927
 11
1.3049112341
 21
-20.6867674086
  0
LINE
  5
427
100
AcDbEntity
  8
ASSI
100
AcDbLine
 62
7
  6
CONTINUOUS
 10
1.3049112341
 20
-21.3126004335
 11
0.7621851714
 21
-21.9518342176
  0
LINE
  5
428
100
AcDbEntity
  8
ASSI
100
AcDbLine
 62
7
  6
CONTINUOUS
 10
5.1249649989
 20
-16.1774341839
 11
3.6737189511
 21
-17.8660247224
  0
LWPOLYLINE
  5
429
100
AcDbEntity
  8
RACCORDO
100
AcDbPolyline
 62
250
  6
CONTINUOUS
 90
8
 70
0
 10
-16.55343609
 20
22.8002091359
 10
-16.5913812497
 20
22.8158264408
 10
-16.6290122897
 20
22.8264835726
 10
-16.6659172679
 20
22.8320638882
 10
-16.7016922046
 20
22.8325063202
 10
-16.7359454695
 20
22.827806043
 10
-16.768302074
 20
22.818014542
 10
-16.7840917358
 20
22.8110272006
  0
LWPOLYLINE
  5
42A
100
AcDbEntity
  8
RACCORDO
100
AcDbPolyline
 62
250
  6
CONTINUOUS
 90
31
 70
0
 10
-1.8756557562
 20
15.461319
 10
-2.3823124807
 20
15.6842931423
 10
-2.8867188818
 20
15.9081828465
 10
-3.3888749594
 20
16.1329881127
 10
-3.888643727
 20
16.3586469723
 10
-4.3861621711
 20
16.5852213939
 10
-4.8818412517
 20
16.812897283
 10
-5.3758949357
 20
17.0417716997
 10
-5.8681092562
 20
17.2717475841
 10
-6.3582532723
 20
17.502719662
 10
-6.8462563896
 20
17.7346561266
 10
-7.3321892024
 20
17.9675887848
 10
-7.8160325538
 20
18.2015077826
 10
-8.2978636272
 20
18.436452534
 10
-8.7776052392
 20
18.6723836251
 10
-9.2550066819
 20
18.9091729601
 10
-9.7297842158
 20
19.1466760545
 10
-10.2022215805
 20
19.3850373928
 10
-10.6729192875
 20
19.6245623325
 10
-11.1409749045
 20
19.864754075
 10
-11.6072908637
 20
20.1061094189
 10
-12.075174973
 20
20.3504241181
 10
-12.543913412
 20
20.5972377809
 10
-13.014220001
 20
20.847010799
 10
-13.4915440099
 20
21.102920101
 10
-13.9762320971
 20
21.3650388331
 10
-14.4679376041
 20
21.6332938491
 10
-14.9710698251
 20
21.9106426395
 10
-15.4870985248
 20
22.1980710345
 10
-16.0145539386
 20
22.4945932038
 10
-16.5534360664
 20
22.8002091476
  0
LWPOLYLINE
  5
42B
100
AcDbEntity
  8
ASSI
100
AcDbPolyline
 62
7
  6
CONTINUOUS
 90
4
 70
0
 10
-0.7077043687
 20
19.5702188522
 10
-0.688913219
 20
19.5538115109
 10
-0.6684250957
 20
19.5396779747
 10
-0.6523420903
 20
19.5307932975
  0
LWPOLYLINE
  5
42C
100
AcDbEntity
  8
ASSI
100
AcDbPolyline
 62
250
  6
CONTINUOUS
 90
7
 70
0
 10
3.8256775273
 20
19.6752566295
 10
3.8334763695
 20
19.6610409717
 10
3.838708841
 20
19.6482412976
 10
3.8412864075
 20
19.637074189
 10
3.8411654585
 20
19.6277286018
 10
3.8383480454
 20
19.6203626702
 10
3.8373650221
 20
19.6190144697
  0
LINE
  5
42D
100
AcDbEntity
  8
ASSI
100
AcDbLine
 62
250
  6
CONTINUOUS
 10
1.4359093143
 20
-22.4343179071
 11
2.0686995237
 21
-21.6890047411
  0
LINE
  5
42E
100
AcDbEntity
  8
ASSI
100
AcDbLine
 62
250
  6
CONTINUOUS
 10
1.6455516665
 20
-22.6208965481
 11
2.3823594707
 21
-21.7530693454
  0
LWPOLYLINE
  5
42F
100
AcDbEntity
  8
DRAFT
100
AcDbPolyline
 62
7
  6
CONTINUOUS
 90
4
 70
0
 10
4.6737189511
 20
-17.0261043943
 10
4.7373957111
 20
-16.9745057926
 10
4.796039298
 20
-16.9163042155
 10
4.7965087404
 20
-16.9157367511
  0
LWPOLYLINE
  5
430
100
AcDbEntity
  8
SUPERFICI
100
AcDbPolyline
 62
7
  6
CONTINUOUS
 90
4
 70
0
 10
4.6737189511
 20
-17.0261043943
 10
4.7373957111
 20
-16.9745057926
 10
4.796039298
 20
-16.9163042155
 10
4.7965087404
 20
-16.9157367511
  0
LINE
  5
431
100
AcDbEntity
  8
ASSI
100
AcDbLine
 62
7
  6
CONTINUOUS
 10
4.3684831375
 20
-17.2259461117
 11
5.0632473239
 21
-16.7224193307
  0
LINE
  5
432
100
AcDbEntity
  8
DRAFT
100
AcDbLine
 62
7
  6
CONTINUOUS
 10
4.6737189511
 20
-17.0261043943
 11
4.3684831375
 21
-17.2473224848
  0
LINE
  5
433
100
AcDbEntity
  8
SUPERFICI
100
AcDbLine
 62
7
  6
CONTINUOUS
 10
4.6737189511
 20
-17.0261043943
 11
4.3684831375
 21
-17.2473224848
  0
LWPOLYLINE
  5
434
100
AcDbEntity
  8
DRAFT
100
AcDbPolyline
 62
7
  6
CONTINUOUS
 90
10
 70
0
 10
0.5656619763
 20
-17.4988549897
 10
0.5425050274
 20
-17.5126361159
 10
0.5105189162
 20
-17.5377006787
 10
0.4817257563
 20
-17.5683545009
 10
0.4561633606
 20
-17.6043156568
 10
0.434690183
 20
-17.6443471373
 10
0.4175100481
 20
-17.688330935
 10
0.4044191312
 20
-17.7363850574
 10
0.3956644112
 20
-17.7876265177
 10
0.3925019619
 20
-17.8276031108
  0
LWPOLYLINE
  5
435
100
AcDbEntity
  8
DRAFT
100
AcDbPolyline
 62
7
  6
CONTINUOUS
 90
27
 70
0
 10
1.1853301141
 20
-18.7384989096
 10
1.2187893034
 20
-18.7195650944
 10
1.2507754145
 20
-18.6945005316
 10
1.2795685745
 20
-18.6638467094
 10
1.3051309701
 20
-18.6278855535
 10
1.3266041478
 20
-18.587854073
 10
1.3437842826
 20
-18.5438702753
 10
1.3568751995
 20
-18.4958161529
 10
1.3656299195
 20
-18.4445746927
 10
1.3699661164
 20
-18.3897607306
 10
1.3699661164
 20
-18.3317594307
 10
1.3656299195
 20
-18.2726092718
 10
1.3568751995
 20
-18.2126130915
 10
1.3437842826
 20
-18.1514680522
 10
1.3266041478
 20
-18.0903041197
 10
1.3051309701
 20
-18.0287994615
 10
1.2795685745
 20
-17.96727591
 10
1.2507754145
 20
-17.9078289279
 10
1.2187893034
 20
-17.8507782539
 10
1.1835724279
 20
-17.7958041492
 10
1.1458698023
 20
-17.7440428603
 10
1.1054962894
 20
-17.6954022958
 10
1.0626370264
 20
-17.6499745471
 10
1.0185924399
 20
-17.6091721345
 10
0.9737960053
 20
-17.5734658983
 10
0.9278142471
 20
-17.5423849982
 10
0.8806471654
 20
-17.5159294344
  0
LWPOLYLINE
  5
436
100
AcDbEntity
  8
DRAFT
100
AcDbPolyline
 62
7
  6
CONTINUOUS
 90
27
 70
0
 10
1.4712424608
 20
-18.6033480741
 10
1.5050385623
 20
-18.584223612
 10
1.5373468994
 20
-18.5589066285
 10
1.5664300514
 20
-18.5279442355
 10
1.5922498654
 20
-18.4916211152
 10
1.6139393316
 20
-18.4511865546
 10
1.6312926382
 20
-18.4067597154
 10
1.644515597
 20
-18.3582214359
 10
1.6533586333
 20
-18.306463518
 10
1.6577385557
 20
-18.2510967774
 10
1.6577385557
 20
-18.1925103983
 10
1.6533586333
 20
-18.1327637353
 10
1.644515597
 20
-18.072162781
 10
1.6312926382
 20
-18.0104015427
 10
1.6139393316
 20
-17.948621397
 10
1.5922498654
 20
-17.8864973702
 10
1.5664300514
 20
-17.8243544358
 10
1.5373468994
 20
-17.764308891
 10
1.5050385623
 20
-17.7066835703
 10
1.4694668872
 20
-17.651155639
 10
1.4313844263
 20
-17.5988728901
 10
1.3906041926
 20
-17.5497423416
 10
1.347313173
 20
-17.5038569753
 10
1.3028248805
 20
-17.4626435308
 10
1.2575771526
 20
-17.4265775876
 10
1.2111321517
 20
-17.3951835661
 10
1.1634898778
 20
-17.3684614663
  0
LINE
  5
437
100
AcDbEntity
  8
RACCORDO
100
AcDbLine
 62
7
  6
CONTINUOUS
 10
18.7914336722
 20
-9.6573683518
 11
11.1988687719
 21
-13.67244174
  0
LINE
  5
438
100
AcDbEntity
  8
SUPERFICI
100
AcDbLine
 62
7
  6
CONTINUOUS
 10
18.7914336722
 20
-9.6573683518
 11
11.1988687719
 21
-13.67244174
  0
LINE
  5
439
100
AcDbEntity
  8
DRAFT
100
AcDbLine
 62
7
  6
CONTINUOUS
 10
0.8452850864
 20
-17.3512293906
 11
0.5656162512
 21
-17.4988692369
  0
LINE
  5
43A
100
AcDbEntity
  8
RACCORDO
100
AcDbLine
 62
250
  6
CONTINUOUS
 10
19.2109768831
 20
-9.3533065613
 11
4.6737189511
 21
-17.0261043943
  0
LINE
  5
43B
100
AcDbEntity
  8
SUPERFICI
100
AcDbLine
 62
250
  6
CONTINUOUS
 10
19.2109768831
 20
-9.3533065613
 11
4.6737189511
 21
-17.0261043943
  0
LINE
  5
43C
100
AcDbEntity
  8
RACCORDO
100
AcDbLine
 62
250
  6
CONTINUOUS
 10
19.549940367
 20
-8.5205425388
 11
5.1249649989
 21
-15.9892921735
  0
LINE
  5
43D
100
AcDbEntity
  8
SUPERFICI
100
AcDbLine
 62
250
  6
CONTINUOUS
 10
19.549940367
 20
-8.5205425388
 11
5.1249649989
 21
-15.9892921735
  0
LINE
  5
43E
100
AcDbEntity
  8
ASSI
100
AcDbLine
 62
7
  6
CONTINUOUS
 10
5.0632473239
 20
-16.7224193307
 11
4.3684831375
 21
-17.0777156756
  0
LINE
  5
43F
100
AcDbEntity
  8
RACCORDO
100
AcDbLine
 62
250
  6
CONTINUOUS
 10
0.4460118728
 20
-16.5503469909
 11
0.7392258091
 21
-16.4203858979
  0
LINE
  5
440
100
AcDbEntity
  8
RACCORDO
100
AcDbLine
 62
7
  6
CONTINUOUS
 10
0.4351000731
 20
-16.8108064608
 11
0.5737842688
 21
-16.7493375215
  0
LWPOLYLINE
  5
441
100
AcDbEntity
  8
RACCORDO
100
AcDbPolyline
 62
7
  6
CONTINUOUS
 90
7
 70
0
 10
19.6576730838
 20
18.0950559026
 10
19.6367011377
 20
18.0921661705
 10
19.6169357889
 20
18.0916037528
 10
19.5983770374
 20
18.0933686496
 10
19.5810248833
 20
18.0974608607
 10
19.5648793265
 20
18.1038803863
 10
19.549940367
 20
18.1126272262
  0
LWPOLYLINE
  5
442
100
AcDbEntity
  8
SUPERFICI
100
AcDbPolyline
 62
7
  6
CONTINUOUS
 90
7
 70
0
 10
19.6576730838
 20
18.0950559026
 10
19.6367011377
 20
18.0921661705
 10
19.6169357889
 20
18.0916037528
 10
19.5983770374
 20
18.0933686496
 10
19.5810248833
 20
18.0974608607
 10
19.5648793265
 20
18.1038803863
 10
19.549940367
 20
18.1126272262
  0
LINE
  5
443
100
AcDbEntity
  8
ASSI
100
AcDbLine
 62
7
  6
CONTINUOUS
 10
3.6737189511
 20
15.0429406214
 11
5.0632473239
 21
14.7623899974
  0
LINE
  5
444
100
AcDbEntity
  8
ASSI
100
AcDbLine
 62
7
  6
CONTINUOUS
 10
3.6737189511
 20
15.0429406214
 11
5.1249649989
 21
14.7315311599
  0
LWPOLYLINE
  5
445
100
AcDbEntity
  8
ASSI
100
AcDbPolyline
 62
7
  6
CONTINUOUS
 90
4
 70
0
 10
1.4124196636
 20
18.4984116458
 10
1.421407933
 20
18.4941682136
 10
1.4431617914
 20
18.4858487366
 10
1.465060425
 20
18.4800144339
  0
LINE
  5
446
100
AcDbEntity
  8
ASSI
100
AcDbLine
 62
7
  6
CONTINUOUS
 10
5.0632473239
 20
14.7623899974
 11
5.1249649989
 21
14.7315311599
  0
LINE
  5
447
100
AcDbEntity
  8
RACCORDO
100
AcDbLine
 62
7
  6
CONTINUOUS
 10
-13.360724825
 20
24.3772699255
 11
1.4887598878
 21
16.9525275691
  0
LINE
  5
448
100
AcDbEntity
  8
0
100
AcDbLine
 62
7
  6
CONTINUOUS
 10
-0.1090280471
 20
17.8979785124
 11
-10.4333356148
 21
23.0601322962
  0
LINE
  5
449
100
AcDbEntity
  8
ASSI
100
AcDbLine
 62
7
  6
CONTINUOUS
 10
-12.3683211078
 20
24.7406800707
 11
-12.1747568217
 21
24.6438979276
  0
LINE
  5
44A
100
AcDbEntity
  8
ASSI
100
AcDbLine
 62
7
  6
CONTINUOUS
 10
0.2181795974
 20
18.4474297181
 11
0.4117438835
 21
18.3506475751
  0
LINE
  5
44B
100
AcDbEntity
  8
ASSI
100
AcDbLine
 62
7
  6
CONTINUOUS
 10
2.2320943618
 20
17.5794994148
 11
2.0319181828
 21
17.6795875043
  0
LINE
  5
44C
100
AcDbEntity
  8
ASSI
100
AcDbLine
 62
7
  6
CONTINUOUS
 10
0.0122188604
 20
18.6894371655
 11
-10.5545825223
 21
23.9728378568
  0
LINE
  5
44D
100
AcDbEntity
  8
ASSI
100
AcDbLine
 62
7
  6
CONTINUOUS
 10
-12.5742818447
 20
24.982687518
 11
-12.7744580237
 21
25.0827756075
  0
LINE
  5
44E
100
AcDbEntity
  8
ASSI
100
AcDbLine
 62
7
  6
CONTINUOUS
 10
1.4124184041
 20
18.4984115378
 11
0.6112604459
 21
18.8989905169
  0
LINE
  5
44F
100
AcDbEntity
  8
ASSI
100
AcDbLine
 62
7
  6
CONTINUOUS
 10
0.1433868593
 20
19.1329273102
 11
-0.6525431397
 21
19.5308923097
  0
LINE
  5
450
100
AcDbEntity
  8
ASSI
100
AcDbLine
 62
7
  6
CONTINUOUS
 10
-11.1740879363
 20
24.791664708
 11
-11.9752402592
 21
25.1922408695
  0
LINE
  5
451
100
AcDbEntity
  8
ASSI
100
AcDbLine
 62
7
  6
CONTINUOUS
 10
-12.4431138458
 20
25.4261776627
 11
-13.2390490355
 21
25.8241452576
  0
LINE
  5
452
100
AcDbEntity
  8
ASSI
100
AcDbLine
 62
250
  6
CONTINUOUS
 10
-12.3683211078
 20
25.4915130956
 11
-13.3037896261
 21
25.9592647053
  0
LINE
  5
453
100
AcDbEntity
  8
ASSI
100
AcDbLine
 62
250
  6
CONTINUOUS
 10
0.2181795974
 20
19.1982627431
 11
-0.7172889209
 21
19.6659970022
  0
LINE
  5
454
100
AcDbEntity
  8
ASSI
100
AcDbLine
 62
250
  6
CONTINUOUS
 10
-11.2392883033
 20
24.9269966934
 11
-12.1747568217
 21
25.3947309526
  0
LINE
  5
455
100
AcDbEntity
  8
ASSI
100
AcDbLine
 62
250
  6
CONTINUOUS
 10
1.3472124018
 20
18.6337636849
 11
0.4117438835
 21
19.1014806
  0
LWPOLYLINE
  5
456
100
AcDbEntity
  8
ASSI
100
AcDbPolyline
 62
250
  6
CONTINUOUS
 90
16
 70
0
 10
-11.1741248213
 20
24.7916831605
 10
-11.1803201734
 20
24.7950796312
 10
-11.187453696
 20
24.7997906238
 10
-11.1943265561
 20
24.8052713743
 10
-11.2008940738
 20
24.8115427636
 10
-11.2071096768
 20
24.8186216551
 10
-11.2128933475
 20
24.8264733193
 10
-11.2182060635
 20
24.8350947155
 10
-11.223009065
 20
24.8444785087
 10
-11.2272416077
 20
24.8545541563
 10
-11.2308767576
 20
24.8652948987
 10
-11.2338897044
 20
24.8766711294
 10
-11.2362460613
 20
24.8885825652
 10
-11.2379333166
 20
24.9009613211
 10
-11.238949021
 20
24.9137821511
 10
-11.2392883033
 20
24.9269966934
  0
LWPOLYLINE
  5
457
100
AcDbEntity
  8
ASSI
100
AcDbPolyline
 62
7
  6
CONTINUOUS
 90
9
 70
0
 10
-11.9748124607
 20
25.1920302942
 10
-11.9978452763
 20
25.2048810359
 10
-12.0279146291
 20
25.2253579898
 10
-12.0566156785
 20
25.2487701456
 10
-12.0839003942
 20
25.27457119
 10
-12.1093840385
 20
25.3023842537
 10
-12.1329066694
 20
25.3319183562
 10
-12.1546712389
 20
25.362810574
 10
-12.1747568217
 20
25.3947309526
  0
LWPOLYLINE
  5
458
100
AcDbEntity
  8
ASSI
100
AcDbPolyline
 62
7
  6
CONTINUOUS
 90
9
 70
0
 10
0.6116882444
 20
18.8987799417
 10
0.5886554288
 20
18.9116306833
 10
0.558586076
 20
18.9321076373
 10
0.5298850266
 20
18.955519793
 10
0.502600311
 20
18.9813208374
 10
0.4771166666
 20
19.0091339011
 10
0.4535940357
 20
19.0386680037
 10
0.4318294662
 20
19.0695602215
 10
0.4117438835
 20
19.1014806
  0
LWPOLYLINE
  5
459
100
AcDbEntity
  8
ASSI
100
AcDbPolyline
 62
250
  6
CONTINUOUS
 90
7
 70
0
 10
-0.7172889209
 20
19.6659970022
 10
-0.7343609956
 20
19.6757162212
 10
-0.7487810431
 20
19.6864559915
 10
-0.7603077781
 20
19.6980366071
 10
-0.7687483284
 20
19.7102642929
 10
-0.7739614618
 20
19.7229344463
 10
-0.7758675578
 20
19.7366814539
  0
LWPOLYLINE
  5
45A
100
AcDbEntity
  8
ASSI
100
AcDbPolyline
 62
250
  6
CONTINUOUS
 90
7
 70
0
 10
-0.7172889209
 20
19.9832658026
 10
-0.7343609835
 20
19.9929850137
 10
-0.7487810249
 20
20.003724776
 10
-0.760307759
 20
20.0153053845
 10
-0.7687483127
 20
20.0275330645
 10
-0.7739614528
 20
20.0402032139
 10
-0.7758675556
 20
20.0539463463
  0
LWPOLYLINE
  5
45B
100
AcDbEntity
  8
ASSI
100
AcDbPolyline
 62
250
  6
CONTINUOUS
 90
9
 70
0
 10
-13.2390361173
 20
25.8241387987
 10
-13.2485265059
 20
25.8296014152
 10
-13.2625757434
 20
25.8408306071
 10
-13.2748065501
 20
25.8548631257
 10
-13.2850503641
 20
25.8715110656
 10
-13.2931657809
 20
25.8905470342
 10
-13.2990422441
 20
25.9117121695
 10
-13.3025997915
 20
25.9347217337
 10
-13.303789617
 20
25.9592647013
  0
LWPOLYLINE
  5
45C
100
AcDbEntity
  8
ASSI
100
AcDbPolyline
 62
250
  6
CONTINUOUS
 90
13
 70
0
 10
-11.0649904274
 20
25.5472814484
 10
-11.0468384952
 20
25.5364167145
 10
-11.028954813
 20
25.5227969262
 10
-11.0116452572
 20
25.5066550316
 10
-10.9952058843
 20
25.488267116
 10
-10.9799178677
 20
25.4679476799
 10
-10.9660426883
 20
25.4460442599
 10
-10.9538176623
 20
25.4229314845
 10
-10.9434518823
 20
25.3990046664
 10
-10.935122641
 20
25.3746730418
 10
-10.9289723989
 20
25.3503527702
 10
-10.9251063474
 20
25.326459817
 10
-10.9235906104
 20
25.3034028391
  0
LWPOLYLINE
  5
45D
100
AcDbEntity
  8
ASSI
100
AcDbPolyline
 62
250
  6
CONTINUOUS
 90
3
 70
0
 10
-0.6640994012
 20
19.5377511706
 10
-0.6560162189
 20
19.5327213765
 10
-0.6525483147
 20
19.5308948975
  0
LINE
  5
45E
100
AcDbEntity
  8
RACCORDO
100
AcDbLine
 62
7
  6
CONTINUOUS
 10
19.8025341829
 20
16.1562197017
 11
19.8025345085
 21
16.155760634
  0
LINE
  5
45F
100
AcDbEntity
  8
SUPERFICI
100
AcDbLine
 62
250
  6
CONTINUOUS
 10
19.8025341829
 20
16.1562197017
 11
19.8025345085
 21
16.155760634
  0
LINE
  5
460
100
AcDbEntity
  8
RACCORDO
100
AcDbLine
 62
250
  6
CONTINUOUS
 10
19.549940367
 20
22.0875195308
 11
19.549940367
 21
18.1126272262
  0
LINE
  5
461
100
AcDbEntity
  8
SUPERFICI
100
AcDbLine
 62
250
  6
CONTINUOUS
 10
19.549940367
 20
22.0875195308
 11
19.549940367
 21
18.1126272262
  0
LINE
  5
462
100
AcDbEntity
  8
RACCORDO
100
AcDbLine
 62
250
  6
CONTINUOUS
 10
19.549940367
 20
16.4121645374
 11
19.549940367
 21
-8.5205425388
  0
LINE
  5
463
100
AcDbEntity
  8
SUPERFICI
100
AcDbLine
 62
250
  6
CONTINUOUS
 10
19.549940367
 20
16.4121645374
 11
19.549940367
 21
-8.5205425388
  0
LINE
  5
464
100
AcDbEntity
  8
RACCORDO
100
AcDbLine
 62
7
  6
CONTINUOUS
 10
19.8025345467
 20
22.4001157975
 11
19.8025345467
 21
18.9944303509
  0
LINE
  5
465
100
AcDbEntity
  8
SUPERFICI
100
AcDbLine
 62
7
  6
CONTINUOUS
 10
19.8025345467
 20
22.4001157975
 11
19.8025345467
 21
18.9944303509
  0
LINE
  5
466
100
AcDbEntity
  8
RACCORDO
100
AcDbLine
 62
7
  6
CONTINUOUS
 10
19.8025345467
 20
16.1554696814
 11
19.8025345467
 21
-8.2079462721
  0
LINE
  5
467
100
AcDbEntity
  8
SUPERFICI
100
AcDbLine
 62
7
  6
CONTINUOUS
 10
19.8025345467
 20
16.1554696814
 11
19.8025345467
 21
-8.2079462721
  0
LINE
  5
468
100
AcDbEntity
  8
RACCORDO
100
AcDbLine
 62
7
  6
CONTINUOUS
 10
19.8025343965
 20
18.9934118481
 11
19.8025343087
 21
18.993164268
  0
LINE
  5
469
100
AcDbEntity
  8
SUPERFICI
100
AcDbLine
 62
250
  6
CONTINUOUS
 10
19.8025343965
 20
18.9934118481
 11
19.8025343087
 21
18.993164268
  0
LWPOLYLINE
  5
46A
100
AcDbEntity
  8
RACCORDO
100
AcDbPolyline
 62
250
  6
CONTINUOUS
 90
29
 70
0
 10
19.8025343087
 20
18.993164268
 10
19.8022059379
 20
18.9497099607
 10
19.800999622
 20
18.8979840113
 10
19.7989686633
 20
18.8476669007
 10
19.7961623092
 20
18.7987673873
 10
19.7926331055
 20
18.7513018328
 10
19.7884321658
 20
18.7052714829
 10
19.7835829047
 20
18.6606616142
 10
19.7781268484
 20
18.6174874037
 10
19.7721004554
 20
18.5757459203
 10
19.7654941998
 20
18.5353964346
 10
19.7583311848
 20
18.4964115674
 10
19.7506372315
 20
18.4588298457
 10
19.7423819584
 20
18.4227121872
 10
19.7335733439
 20
18.3880127026
 10
19.7242293878
 20
18.3547899806
 10
19.7143154896
 20
18.3232649545
 10
19.7038342588
 20
18.2934066591
 10
19.6927951215
 20
18.2652612117
 10
19.6811599932
 20
18.2391684531
 10
19.6689166819
 20
18.2151113557
 10
19.6560790368
 20
18.1931257161
 10
19.6426417425
 20
18.1736326673
 10
19.6285922832
 20
18.1566956133
 10
19.6139467293
 20
18.1422710744
 10
19.5987465932
 20
18.1306187962
 10
19.5830127496
 20
18.1218302637
 10
19.5667410965
 20
18.1158303284
 10
19.549940367
 20
18.1126272262
  0
LWPOLYLINE
  5
46B
100
AcDbEntity
  8
SUPERFICI
100
AcDbPolyline
 62
250
  6
CONTINUOUS
 90
29
 70
0
 10
19.8025343087
 20
18.993164268
 10
19.8022059379
 20
18.9497099607
 10
19.800999622
 20
18.8979840113
 10
19.7989686633
 20
18.8476669007
 10
19.7961623092
 20
18.7987673873
 10
19.7926331055
 20
18.7513018328
 10
19.7884321658
 20
18.7052714829
 10
19.7835829047
 20
18.6606616142
 10
19.7781268484
 20
18.6174874037
 10
19.7721004554
 20
18.5757459203
 10
19.7654941998
 20
18.5353964346
 10
19.7583311848
 20
18.4964115674
 10
19.7506372315
 20
18.4588298457
 10
19.7423819584
 20
18.4227121872
 10
19.7335733439
 20
18.3880127026
 10
19.7242293878
 20
18.3547899806
 10
19.7143154896
 20
18.3232649545
 10
19.7038342588
 20
18.2934066591
 10
19.6927951215
 20
18.2652612117
 10
19.6811599932
 20
18.2391684531
 10
19.6689166819
 20
18.2151113557
 10
19.6560790368
 20
18.1931257161
 10
19.6426417425
 20
18.1736326673
 10
19.6285922832
 20
18.1566956133
 10
19.6139467293
 20
18.1422710744
 10
19.5987465932
 20
18.1306187962
 10
19.5830127496
 20
18.1218302637
 10
19.5667410965
 20
18.1158303284
 10
19.549940367
 20
18.1126272262
  0
LWPOLYLINE
  5
46C
100
AcDbEntity
  8
RACCORDO
100
AcDbPolyline
 62
250
  6
CONTINUOUS
 90
10
 70
0
 10
19.8025345467
 20
22.4001157975
 10
19.7998281938
 20
22.3652442082
 10
19.7904779812
 20
22.3267052105
 10
19.774519229
 20
22.2887125729
 10
19.7520707105
 20
22.2515490563
 10
19.7232994994
 20
22.2154912512
 10
19.688419726
 20
22.1808075185
 10
19.6476909839
 20
22.1477559928
 10
19.6014163977
 20
22.1165826608
 10
19.549940367
 20
22.0875195308
  0
LWPOLYLINE
  5
46D
100
AcDbEntity
  8
SUPERFICI
100
AcDbPolyline
 62
250
  6
CONTINUOUS
 90
10
 70
0
 10
19.8025345467
 20
22.4001157975
 10
19.7998281938
 20
22.3652442082
 10
19.7904779812
 20
22.3267052105
 10
19.774519229
 20
22.2887125729
 10
19.7520707105
 20
22.2515490563
 10
19.7232994994
 20
22.2154912512
 10
19.688419726
 20
22.1808075185
 10
19.6476909839
 20
22.1477559928
 10
19.6014163977
 20
22.1165826608
 10
19.549940367
 20
22.0875195308
  0
LWPOLYLINE
  5
46E
100
AcDbEntity
  8
RACCORDO
100
AcDbPolyline
 62
250
  6
CONTINUOUS
 90
3
 70
0
 10
19.2109768831
 20
-9.3533065613
 10
19.2627470345
 20
-9.3114944846
 10
19.3107909038
 20
-9.2638176318
  0
LWPOLYLINE
  5
46F
100
AcDbEntity
  8
SUPERFICI
100
AcDbPolyline
 62
250
  6
CONTINUOUS
 90
3
 70
0
 10
19.2109768831
 20
-9.3533065613
 10
19.2627470345
 20
-9.3114944846
 10
19.3107909038
 20
-9.2638176318
  0
LWPOLYLINE
  5
470
100
AcDbEntity
  8
RACCORDO
100
AcDbPolyline
 62
7
  6
CONTINUOUS
 90
13
 70
0
 10
19.2780877178
 20
-9.3115806418
 10
19.352642442
 20
-9.2528570632
 10
19.4234352908
 20
-9.1872426676
 10
19.4898107322
 20
-9.1149210997
 10
19.5510713625
 20
-9.0362468032
 10
19.6066996378
 20
-8.951486351
 10
19.6563427495
 20
-8.8606756996
 10
19.6995439195
 20
-8.7639785452
 10
19.7357232411
 20
-8.6619507705
 10
19.7644525955
 20
-8.5550272623
 10
19.7853884296
 20
-8.4435007509
 10
19.7981932454
 20
-8.327687682
 10
19.8025345467
 20
-8.2079462721
  0
LWPOLYLINE
  5
471
100
AcDbEntity
  8
SUPERFICI
100
AcDbPolyline
 62
7
  6
CONTINUOUS
 90
13
 70
0
 10
19.2780877178
 20
-9.3115806418
 10
19.352642442
 20
-9.2528570632
 10
19.4234352908
 20
-9.1872426676
 10
19.4898107322
 20
-9.1149210997
 10
19.5510713625
 20
-9.0362468032
 10
19.6066996378
 20
-8.951486351
 10
19.6563427495
 20
-8.8606756996
 10
19.6995439195
 20
-8.7639785452
 10
19.7357232411
 20
-8.6619507705
 10
19.7644525955
 20
-8.5550272623
 10
19.7853884296
 20
-8.4435007509
 10
19.7981932454
 20
-8.327687682
 10
19.8025345467
 20
-8.2079462721
  0
LINE
  5
472
100
AcDbEntity
  8
DRAFT
100
AcDbLine
 62
7
  6
CONTINUOUS
 10
11.1988687719
 20
-13.67244174
 11
10.446174688
 21
-14.2179529171
  0
LINE
  5
473
100
AcDbEntity
  8
SUPERFICI
100
AcDbLine
 62
7
  6
CONTINUOUS
 10
11.1988687719
 20
-13.67244174
 11
10.446174688
 21
-14.2179529171
  0
LINE
  5
474
100
AcDbEntity
  8
RACCORDO
100
AcDbLine
 62
250
  6
CONTINUOUS
 10
19.2109768831
 20
-9.3533065613
 11
18.7914336722
 21
-9.6573683518
  0
LINE
  5
475
100
AcDbEntity
  8
SUPERFICI
100
AcDbLine
 62
250
  6
CONTINUOUS
 10
19.2109768831
 20
-9.3533065613
 11
18.7914336722
 21
-9.6573683518
  0
LINE
  5
476
100
AcDbEntity
  8
RACCORDO
100
AcDbLine
 62
7
  6
CONTINUOUS
 10
19.2780877178
 20
-9.3115806418
 11
18.8617068782
 21
-9.6133505198
  0
LINE
  5
477
100
AcDbEntity
  8
SUPERFICI
100
AcDbLine
 62
7
  6
CONTINUOUS
 10
19.2780877178
 20
-9.3115806418
 11
18.8617068782
 21
-9.6133505198
  0
LWPOLYLINE
  5
478
100
AcDbEntity
  8
RACCORDO
100
AcDbPolyline
 62
250
  6
CONTINUOUS
 90
3
 70
0
 10
19.2780877178
 20
-9.3115806418
 10
19.2597992573
 20
-9.3242852718
 10
19.2109768831
 20
-9.3533065613
  0
LWPOLYLINE
  5
479
100
AcDbEntity
  8
SUPERFICI
100
AcDbPolyline
 62
250
  6
CONTINUOUS
 90
3
 70
0
 10
19.2780877178
 20
-9.3115806418
 10
19.2597992573
 20
-9.3242852718
 10
19.2109768831
 20
-9.3533065613
  0
LWPOLYLINE
  5
47A
100
AcDbEntity
  8
ASSI
100
AcDbPolyline
 62
7
  6
CONTINUOUS
 90
4
 70
0
 10
0.502619273
 20
-22.1359793702
 10
0.4532464248
 20
-22.1685224271
 10
0.4314028138
 20
-22.1835754934
 10
0.4117438835
 20
-22.1981235394
  0
LWPOLYLINE
  5
47B
100
AcDbEntity
  8
ASSI
100
AcDbPolyline
 62
7
  6
CONTINUOUS
 90
6
 70
0
 10
0.65322534
 20
-22.04297592
 10
0.6209491888
 20
-22.0629045491
 10
0.5892220416
 20
-22.081906593
 10
0.558586076
 20
-22.1001752624
 10
0.5296751685
 20
-22.1182096988
 10
0.502619273
 20
-22.1359793702
  0
LWPOLYLINE
  5
47C
100
AcDbEntity
  8
RACCORDO
100
AcDbPolyline
 62
7
  6
CONTINUOUS
 90
3
 70
0
 10
18.7914336722
 20
-9.6573683518
 10
18.8478255175
 20
-9.6231763399
 10
18.8605598591
 20
-9.6141815822
  0
LWPOLYLINE
  5
47D
100
AcDbEntity
  8
SUPERFICI
100
AcDbPolyline
 62
7
  6
CONTINUOUS
 90
3
 70
0
 10
18.7914336722
 20
-9.6573683518
 10
18.8478255175
 20
-9.6231763399
 10
18.8605598591
 20
-9.6141815822
  0
LINE
  5
47E
100
AcDbEntity
  8
ASSI
100
AcDbLine
 62
250
  6
CONTINUOUS
 10
3.6737189511
 20
-20.3775643433
 11
4.3684831375
 21
-20.0027231257
  0
LINE
  5
47F
100
AcDbEntity
  8
DRAFT
100
AcDbLine
 62
7
  6
CONTINUOUS
 10
10.446174688
 20
-14.2179529171
 11
4.3684831375
 21
-17.4319363242
  0
LINE
  5
480
100
AcDbEntity
  8
SUPERFICI
100
AcDbLine
 62
7
  6
CONTINUOUS
 10
10.446174688
 20
-14.2179529171
 11
4.3684831375
 21
-17.4319363242
  0
LINE
  5
481
100
AcDbEntity
  8
ASSI
100
AcDbLine
 62
7
  6
CONTINUOUS
 10
8.7463539124
 20
-15.389767622
 11
4.3684831375
 21
-17.6495450431
  0
LINE
  5
482
100
AcDbEntity
  8
ASSI
100
AcDbLine
 62
7
  6
CONTINUOUS
 10
9.9376122324
 20
-14.6672165744
 11
4.3684831375
 21
-17.5152206173
  0
LWPOLYLINE
  5
483
100
AcDbEntity
  8
RACCORDO
100
AcDbPolyline
 62
250
  6
CONTINUOUS
 90
10
 70
0
 10
-3.2968350186
 20
-23.3896708221
 10
-3.265023825
 20
-23.374250069
 10
-3.2374984454
 20
-23.3546523349
 10
-3.2125690883
 20
-23.3303224496
 10
-3.1905086288
 20
-23.3015267862
 10
-3.1715585242
 20
-23.2685805878
 10
-3.1559261827
 20
-23.2318445212
 10
-3.143782698
 20
-23.1917207379
 10
-3.135260974
 20
-23.1486484747
 10
-3.1304542664
 20
-23.1030992352
  0
LINE
  5
484
100
AcDbEntity
  8
DRAFT
100
AcDbLine
 62
7
  6
CONTINUOUS
 10
1.4713268897
 20
-18.6033129971
 11
1.1854137115
 21
-18.7384641574
  0
LINE
  5
485
100
AcDbEntity
  8
ASSI
100
AcDbLine
 62
7
  6
CONTINUOUS
 10
1.3049112341
 20
18.111170681
 11
0.7621851714
 21
18.2262999985
  0
LINE
  5
486
100
AcDbEntity
  8
ASSI
100
AcDbLine
 62
7
  6
CONTINUOUS
 10
1.4651172145
 20
18.479995157
 11
2.1055045029
 21
18.3441488129
  0
LINE
  5
487
100
AcDbEntity
  8
ASSI
100
AcDbLine
 62
250
  6
CONTINUOUS
 10
1.6455516665
 20
18.6037075913
 11
2.3823594707
 21
18.4474074143
  0
LWPOLYLINE
  5
488
100
AcDbEntity
  8
ASSI
100
AcDbPolyline
 62
250
  6
CONTINUOUS
 90
7
 70
0
 10
-0.5442037637
 20
20.2868881165
 10
-0.5629575037
 20
20.294476214
 10
-0.5813482666
 20
20.2989936363
 10
-0.5990615028
 20
20.3003631212
 10
-0.6157942517
 20
20.2985612474
 10
-0.631260322
 20
20.2936188358
 10
-0.6366074613
 20
20.2910097119
  0
LWPOLYLINE
  5
489
100
AcDbEntity
  8
ASSI
100
AcDbPolyline
 62
250
  6
CONTINUOUS
 90
13
 70
0
 10
-11.2392883033
 20
24.9269966934
 10
-11.2198498812
 20
24.9184606621
 10
-11.1983703565
 20
24.9112506414
 10
-11.1752091394
 20
24.9054872744
 10
-11.1507537795
 20
24.9012669975
 10
-11.1254134807
 20
24.8986604275
 10
-11.0996122542
 20
24.8977111792
 10
-11.0737818241
 20
24.8984351362
 10
-11.0483544028
 20
24.9008201846
 10
-11.0237554596
 20
24.9048264162
 10
-11.0003966009
 20
24.9103867961
 10
-10.9786686832
 20
24.9174082839
 10
-10.958935273
 20
24.9257733915
  0
LWPOLYLINE
  5
48A
100
AcDbEntity
  8
ASSI
100
AcDbPolyline
 62
250
  6
CONTINUOUS
 90
13
 70
0
 10
-11.2392883033
 20
25.2442654938
 10
-11.2198498684
 20
25.2357294576
 10
-11.198370331
 20
25.2285194343
 10
-11.1752091025
 20
25.2227560669
 10
-11.1507537332
 20
25.2185357914
 10
-11.1254134279
 20
25.215929224
 10
-11.0996121989
 20
25.2149799792
 10
-11.0737817704
 20
25.2157039396
 10
-11.0483543548
 20
25.218088991
 10
-11.0237554207
 20
25.2220952243
 10
-11.0003965738
 20
25.2276556039
 10
-10.9786686694
 20
25.2346770894
 10
-10.958935273
 20
25.2430421919
  0
LWPOLYLINE
  5
48B
100
AcDbEntity
  8
ASSI
100
AcDbPolyline
 62
250
  6
CONTINUOUS
 90
13
 70
0
 10
-1.5625955506
 20
21.4166104017
 10
-1.5431571661
 20
21.4080743851
 10
-1.5216776789
 20
21.400864372
 10
-1.498516496
 20
21.3951010061
 10
-1.4740611646
 20
21.3908807253
 10
-1.4487208858
 20
21.3882741474
 10
-1.4229196667
 20
21.3873248889
 10
-1.3970892288
 20
21.3880488356
 10
-1.371661787
 20
21.390433876
 10
-1.3470628151
 20
21.3944401034
 10
-1.3237039226
 20
21.4000004839
 10
-1.3019759677
 20
21.4070219786
 10
-1.2822425203
 20
21.4153870998
  0
LWPOLYLINE
  5
48C
100
AcDbEntity
  8
ASSI
100
AcDbPolyline
 62
250
  6
CONTINUOUS
 90
14
 70
0
 10
-3.6789407802
 20
22.8302096057
 10
-3.6876856049
 20
22.8342043069
 10
-3.6966581643
 20
22.8377695698
 10
-3.7058321875
 20
22.8408489932
 10
-3.7151993807
 20
22.8433902726
 10
-3.724702858
 20
22.8453262331
 10
-3.7342400597
 20
22.8465910828
 10
-3.7437722033
 20
22.8471405999
 10
-3.7532569334
 20
22.8469318156
 10
-3.7625895022
 20
22.8459323257
 10
-3.7717288502
 20
22.8441185997
 10
-3.7806317509
 20
22.8414700988
 10
-3.7892002636
 20
22.837994386
 10
-3.7942922564
 20
22.835444327
  0
LWPOLYLINE
  5
48D
100
AcDbEntity
  8
ASSI
100
AcDbPolyline
 62
250
  6
CONTINUOUS
 90
28
 70
0
 10
-3.8178939934
 20
22.5875542983
 10
-3.8196297208
 20
22.5883850274
 10
-3.8214000748
 20
22.5891064166
 10
-3.8232050556
 20
22.5897184659
 10
-3.8250561097
 20
22.5902324288
 10
-3.8269417905
 20
22.5906370518
 10
-3.8288277585
 20
22.5908985746
 10
-3.8307148376
 20
22.5910123402
 10
-3.8326022039
 20
22.5909830056
 10
-3.8344530458
 20
22.5907907811
 10
-3.8362666691
 20
22.5904298733
 10
-3.8380437681
 20
22.5899060756
 10
-3.8397496143
 20
22.5892169782
 10
-3.8413811836
 20
22.5883575497
 10
-3.8429415
 20
22.5873328216
 10
-3.8444049078
 20
22.5861554786
 10
-3.8457676518
 20
22.584823608
 10
-3.8470334872
 20
22.5833391225
 10
-3.8481880225
 20
22.5817204447
 10
-3.8492293542
 20
22.5799668826
 10
-3.8501593858
 20
22.5780791282
 10
-3.850969437
 20
22.5760776805
 10
-3.8516584234
 20
22.5739615142
 10
-3.8522274293
 20
22.5717316546
 10
-3.8526710274
 20
22.569411676
 10
-3.8529874086
 20
22.5670094365
 10
-3.853178382
 20
22.5645170779
 10
-3.8532439477
 20
22.5619346003
  0
LWPOLYLINE
  5
48E
100
AcDbEntity
  8
ASSI
100
AcDbPolyline
 62
7
  6
CONTINUOUS
 90
4
 70
0
 10
-11.1741269537
 20
24.791684706
 10
-11.1680351501
 20
24.7887537858
 10
-11.1449316342
 20
24.7796210499
 10
-11.1214660108
 20
24.7732633808
  0
LINE
  5
48F
100
AcDbEntity
  8
ASSI
100
AcDbLine
 62
7
  6
CONTINUOUS
 10
-1.5625955506
 20
20.2293376204
 11
-3.8532439477
 21
21.3746618189
  0
LINE
  5
490
100
AcDbEntity
  8
ASSI
100
AcDbLine
 62
7
  6
CONTINUOUS
 10
-5.2749061518
 20
22.085492921
 11
-7.5655545489
 21
23.2308171196
  0
LINE
  5
491
100
AcDbEntity
  8
ASSI
100
AcDbLine
 62
250
  6
CONTINUOUS
 10
1.3472124018
 20
18.9510151412
 11
-0.7172889209
 21
19.9832658026
  0
LINE
  5
492
100
AcDbEntity
  8
ASSI
100
AcDbLine
 62
250
  6
CONTINUOUS
 10
-11.2392883033
 20
25.2442654938
 11
-13.3037896261
 21
26.2765161551
  0
LINE
  5
493
100
AcDbEntity
  8
ASSI
100
AcDbLine
 62
7
  6
CONTINUOUS
 10
-9.3016904837
 20
24.4751317116
 11
-7.6241331927
 21
23.6363530661
  0
LINE
  5
494
100
AcDbEntity
  8
ASSI
100
AcDbLine
 62
7
  6
CONTINUOUS
 10
-4.7762070841
 20
22.2123900118
 11
-3.9118225915
 21
21.7801977655
  0
LINE
  5
495
100
AcDbEntity
  8
ASSI
100
AcDbLine
 62
7
  6
CONTINUOUS
 10
-1.0638964829
 20
20.3562347112
 11
-0.7368755117
 21
20.1927242256
  0
LINE
  5
496
100
AcDbEntity
  8
ASSI
100
AcDbLine
 62
7
  6
CONTINUOUS
 10
3.3205288976
 20
18.164022021
 11
3.2848102214
 21
18.1818813591
  0
LINE
  5
497
100
AcDbEntity
  8
ASSI
100
AcDbLine
 62
250
  6
CONTINUOUS
 10
1.5215102777
 20
19.2540310958
 11
-0.5442037637
 21
20.2868881165
  0
LINE
  5
498
100
AcDbEntity
  8
ASSI
100
AcDbLine
 62
250
  6
CONTINUOUS
 10
-11.0649904274
 20
25.5472814484
 11
-13.1307044688
 21
26.5801384691
  0
LINE
  5
499
100
AcDbEntity
  8
ASSI
100
AcDbLine
 62
7
  6
CONTINUOUS
 10
-9.3016904837
 20
25.1671219632
 11
-8.6335547686
 21
24.8330541056
  0
LINE
  5
49A
100
AcDbEntity
  8
ASSI
100
AcDbLine
 62
7
  6
CONTINUOUS
 10
3.2848102214
 20
18.8738716106
 11
4.0149835948
 21
18.5087849239
  0
LINE
  5
49B
100
AcDbEntity
  8
ASSI
100
AcDbLine
 62
7
  6
CONTINUOUS
 10
-3.9118225915
 20
22.4728910401
 11
-4.0941468538
 21
22.5640531712
  0
LINE
  5
49C
100
AcDbEntity
  8
ASSI
100
AcDbLine
 62
7
  6
CONTINUOUS
 10
-3.9118225915
 20
22.5567159326
 11
-4.0959462794
 21
22.6487777766
  0
LINE
  5
49D
100
AcDbEntity
  8
ASSI
100
AcDbLine
 62
250
  6
CONTINUOUS
 10
-7.5302045947
 20
24.4437095989
 11
-5.3102561061
 21
23.3337353547
  0
LINE
  5
49E
100
AcDbEntity
  8
ASSI
100
AcDbLine
 62
250
  6
CONTINUOUS
 10
-1.5979455049
 20
21.477580054
 11
-3.8178939934
 21
22.5875542983
  0
LINE
  5
49F
100
AcDbEntity
  8
ASSI
100
AcDbLine
 62
250
  6
CONTINUOUS
 10
-7.3912513814
 20
24.6863649063
 11
-5.1713028928
 21
23.5763906621
  0
LINE
  5
4A0
100
AcDbEntity
  8
ASSI
100
AcDbLine
 62
250
  6
CONTINUOUS
 10
-1.4589922916
 20
21.7202353614
 11
-3.6789407802
 21
22.8302096057
  0
LINE
  5
4A1
100
AcDbEntity
  8
ASSI
100
AcDbLine
 62
7
  6
CONTINUOUS
 10
-7.1803970641
 20
24.8001256479
 11
-4.9529568555
 21
23.6864055436
  0
LINE
  5
4A2
100
AcDbEntity
  8
ASSI
100
AcDbLine
 62
7
  6
CONTINUOUS
 10
-3.4680864629
 20
22.9439703473
 11
-1.2406462542
 21
21.830250243
  0
LINE
  5
4A3
100
AcDbEntity
  8
ASSI
100
AcDbLine
 62
7
  6
CONTINUOUS
 10
-11.5644537227
 20
27.4251666791
 11
-9.4430903008
 21
26.3644849681
  0
LINE
  5
4A4
100
AcDbEntity
  8
ASSI
100
AcDbLine
 62
7
  6
CONTINUOUS
 10
1.0220469824
 20
21.1319163265
 11
3.1434104043
 21
20.0712346156
  0
LINE
  5
4A5
100
AcDbEntity
  8
ASSI
100
AcDbLine
 62
7
  6
CONTINUOUS
 10
-0.8248545939
 20
22.2729651178
 11
-2.7916586307
 21
23.2563671362
  0
LINE
  5
4A6
100
AcDbEntity
  8
ASSI
100
AcDbLine
 62
7
  6
CONTINUOUS
 10
-4.299738091
 20
24.0104068664
 11
-6.2665421278
 21
24.9938088848
  0
LWPOLYLINE
  5
4A7
100
AcDbEntity
  8
ASSI
100
AcDbPolyline
 62
250
  6
CONTINUOUS
 90
28
 70
0
 10
-5.3102561061
 20
23.3337353547
 10
-5.30850223
 20
23.332819483
 10
-5.3067164861
 20
23.3317599442
 10
-5.3048988742
 20
23.3305567384
 10
-5.3030379604
 20
23.3292091911
 10
-5.3011451788
 20
23.3277179768
 10
-5.2992548317
 20
23.3260851185
 10
-5.2973662345
 20
23.3243051742
 10
-5.2954800718
 20
23.3223835859
 10
-5.2936327002
 20
23.3203387025
 10
-5.2918251603
 20
23.3181659265
 10
-5.2900564114
 20
23.3158698553
 10
-5.288359688
 20
23.3134826299
 10
-5.2867383277
 20
23.3110034278
 10
-5.2851889929
 20
23.3084330714
 10
-5.2837349055
 20
23.3058061689
 10
-5.2823790336
 20
23.303124022
 10
-5.2811184091
 20
23.3003853289
 10
-5.2799673492
 20
23.2976207925
 10
-5.2789272881
 20
23.294830492
 10
-5.2779967918
 20
23.2920143481
 10
-5.277185875
 20
23.2892028254
 10
-5.2764958549
 20
23.286395929
 10
-5.2759254144
 20
23.2835936538
 10
-5.2754806174
 20
23.2808264486
 10
-5.2751634853
 20
23.2781044631
 10
-5.2749719968
 20
23.2754175477
 10
-5.2749061518
 20
23.2727657023
  0
LWPOLYLINE
  5
4A8
100
AcDbEntity
  8
ASSI
100
AcDbPolyline
 62
250
  6
CONTINUOUS
 90
28
 70
0
 10
-5.1713028928
 20
23.5763906621
 10
-5.1627037314
 20
23.5717067461
 10
-5.1538843991
 20
23.5663601687
 10
-5.1448695414
 20
23.5603219342
 10
-5.1356656208
 20
23.5535491658
 10
-5.126327207
 20
23.5460326985
 10
-5.1169545231
 20
23.5378106856
 10
-5.1075841098
 20
23.5288790026
 10
-5.0982557104
 20
23.5192382538
 10
-5.0890717187
 20
23.5089624177
 10
-5.0800720464
 20
23.4980718084
 10
-5.071295699
 20
23.4865885876
 10
-5.0628348262
 20
23.4746146058
 10
-5.0547311855
 20
23.4621996976
 10
-5.0470100854
 20
23.4493732468
 10
-5.0397277001
 20
23.4362220186
 10
-5.0329173363
 20
23.4228063345
 10
-5.0265969612
 20
23.4091620345
 10
-5.0207924317
 20
23.3953444473
 10
-5.0155254889
 20
23.3814056223
 10
-5.0108142822
 20
23.3673941138
 10
-5.0066757039
 20
23.3533609085
 10
-5.0031246604
 20
23.3393564555
 10
-5.0001740568
 20
23.3254317639
 10
-4.9978344412
 20
23.3116384456
 10
-4.9961140658
 20
23.2980267275
 10
-4.9950190218
 20
23.2846452993
 10
-4.9945531215
 20
23.2715424004
  0
LWPOLYLINE
  5
4A9
100
AcDbEntity
  8
ASSI
100
AcDbPolyline
 62
250
  6
CONTINUOUS
 90
13
 70
0
 10
-8.9189858343
 20
26.6244446473
 10
-8.9002320986
 20
26.6138807883
 10
-8.8818413392
 20
26.6005145104
 10
-8.8641281054
 20
26.5845744279
 10
-8.8473953579
 20
26.5663331759
 10
-8.8319292879
 20
26.5461027484
 10
-8.8179944223
 20
26.5242291633
 10
-8.8058290974
 20
26.5010865412
 10
-8.7956413823
 20
26.4770707052
 10
-8.7876055216
 20
26.4525924124
 10
-8.7818589561
 20
26.4280703299
 10
-8.7784999716
 20
26.4039238747
 10
-8.7775860172
 20
26.380566038
  0
LWPOLYLINE
  5
4AA
100
AcDbEntity
  8
ASSI
100
AcDbPolyline
 62
250
  6
CONTINUOUS
 90
7
 70
0
 10
-3.8532439477
 20
22.5619346003
 10
-3.8703160102
 20
22.5716538113
 10
-3.8847360516
 20
22.5823935737
 10
-3.8962627858
 20
22.5939741822
 10
-3.9047033395
 20
22.6062018622
 10
-3.9099164795
 20
22.6188720116
 10
-3.9118225915
 20
22.6326452784
  0
LWPOLYLINE
  5
4AB
100
AcDbEntity
  8
ASSI
100
AcDbPolyline
 62
7
  6
CONTINUOUS
 90
13
 70
0
 10
3.1434104043
 20
20.0712346156
 10
3.1618616727
 20
20.0605221266
 10
3.1800040698
 20
20.0470337603
 10
3.1975230423
 20
20.0309978907
 10
3.2141142409
 20
20.0126860512
 10
3.2294926855
 20
19.9924109414
 10
3.243397786
 20
19.9705212569
 10
3.255594118
 20
19.9473926297
 10
3.2658706338
 20
19.923419478
 10
3.2740484651
 20
19.8990110603
 10
3.2799888225
 20
19.8745855708
 10
3.2835951595
 20
19.8505629196
 10
3.2848102214
 20
19.8273560062
  0
LWPOLYLINE
  5
4AC
100
AcDbEntity
  8
RACCORDO
100
AcDbPolyline
 62
250
  6
CONTINUOUS
 90
13
 70
0
 10
-1.5691582207
 20
23.8388005976
 10
-1.551447285
 20
23.8276787217
 10
-1.5333791716
 20
23.8142742336
 10
-1.5152574103
 20
23.7988123656
 10
-1.4973864249
 20
23.7815529062
 10
-1.4800664053
 20
23.7627858219
 10
-1.4635882668
 20
23.7428263812
 10
-1.4482287967
 20
23.7220098971
 10
-1.4342459598
 20
23.7006860384
 10
-1.4218745671
 20
23.6792129366
 10
-1.4113223932
 20
23.6579512607
 10
-1.4027666726
 20
23.6372581613
 10
-1.3963510891
 20
23.6174812111
  0
LWPOLYLINE
  5
4AD
100
AcDbEntity
  8
SUPERFICI
100
AcDbPolyline
 62
250
  6
CONTINUOUS
 90
13
 70
0
 10
-1.5691582207
 20
23.8388005976
 10
-1.551447285
 20
23.8276787217
 10
-1.5333791716
 20
23.8142742336
 10
-1.5152574103
 20
23.7988123656
 10
-1.4973864249
 20
23.7815529062
 10
-1.4800664053
 20
23.7627858219
 10
-1.4635882668
 20
23.7428263812
 10
-1.4482287967
 20
23.7220098971
 10
-1.4342459598
 20
23.7006860384
 10
-1.4218745671
 20
23.6792129366
 10
-1.4113223932
 20
23.6579512607
 10
-1.4027666726
 20
23.6372581613
 10
-1.3963510891
 20
23.6174812111
  0
LINE
  5
4AE
100
AcDbEntity
  8
0
100
AcDbLine
 62
250
  6
CONTINUOUS
 10
9.8536947565
 20
25.0991827333
 11
10.2682722682
 21
24.0236041931
  0
LINE
  5
4AF
100
AcDbEntity
  8
SUPERFICI
100
AcDbLine
 62
250
  6
CONTINUOUS
 10
9.8536947565
 20
25.0991827333
 11
10.2682722682
 21
24.0236041931
  0
LINE
  5
4B0
100
AcDbEntity
  8
0
100
AcDbLine
 62
7
  6
CONTINUOUS
 10
11.4129765964
 20
22.5235391451
 11
11.2114772385
 21
23.1192635709
  0
LWPOLYLINE
  5
4B1
100
AcDbEntity
  8
RACCORDO
100
AcDbPolyline
 62
7
  6
CONTINUOUS
 90
10
 70
0
 10
19.8025345467
 20
22.4001157975
 10
19.7987296506
 20
22.5140534938
 10
19.7875835616
 20
22.6273176908
 10
19.7694452364
 20
22.7397049643
 10
19.7444901353
 20
22.8514417411
 10
19.7129431358
 20
22.9620739085
 10
19.6753218696
 20
23.0703802977
 10
19.6320206342
 20
23.1758642687
 10
19.5830678525
 20
23.2787911492
 10
19.528535807
 20
23.3790355589
  0
LWPOLYLINE
  5
4B2
100
AcDbEntity
  8
SUPERFICI
100
AcDbPolyline
 62
7
  6
CONTINUOUS
 90
10
 70
0
 10
19.8025345467
 20
22.4001157975
 10
19.7987296506
 20
22.5140534938
 10
19.7875835616
 20
22.6273176908
 10
19.7694452364
 20
22.7397049643
 10
19.7444901353
 20
22.8514417411
 10
19.7129431358
 20
22.9620739085
 10
19.6753218696
 20
23.0703802977
 10
19.6320206342
 20
23.1758642687
 10
19.5830678525
 20
23.2787911492
 10
19.528535807
 20
23.3790355589
  0
LWPOLYLINE
  5
4B3
100
AcDbEntity
  8
RACCORDO
100
AcDbPolyline
 62
250
  6
CONTINUOUS
 90
11
 70
0
 10
19.8025345467
 20
-8.2079462721
 10
19.801731907
 20
-8.2269469773
 10
19.7957493537
 20
-8.2630990338
 10
19.7839623645
 20
-8.2988926876
 10
19.7664475356
 20
-8.3340953384
 10
19.7433186846
 20
-8.3684782265
 10
19.7147261113
 20
-8.4018179195
 10
19.6808556207
 20
-8.4338977634
 10
19.6419273156
 20
-8.4645092918
 10
19.5981941664
 20
-8.4934535799
 10
19.549940367
 20
-8.520542537
  0
LWPOLYLINE
  5
4B4
100
AcDbEntity
  8
SUPERFICI
100
AcDbPolyline
 62
250
  6
CONTINUOUS
 90
11
 70
0
 10
19.8025345467
 20
-8.2079462721
 10
19.801731907
 20
-8.2269469773
 10
19.7957493537
 20
-8.2630990338
 10
19.7839623645
 20
-8.2988926876
 10
19.7664475356
 20
-8.3340953384
 10
19.7433186846
 20
-8.3684782265
 10
19.7147261113
 20
-8.4018179195
 10
19.6808556207
 20
-8.4338977634
 10
19.6419273156
 20
-8.4645092918
 10
19.5981941664
 20
-8.4934535799
 10
19.549940367
 20
-8.520542537
  0
LWPOLYLINE
  5
4B5
100
AcDbEntity
  8
RACCORDO
100
AcDbPolyline
 62
250
  6
CONTINUOUS
 90
11
 70
0
 10
19.3107909038
 20
-9.2638176318
 10
19.3549028153
 20
-9.2104802592
 10
19.3948939105
 20
-9.1517108989
 10
19.430593039
 20
-9.0877612609
 10
19.4618474614
 20
-9.0189051201
 10
19.4885233335
 20
-8.9454375384
 10
19.5105065474
 20
-8.8676730041
 10
19.5277031449
 20
-8.7859438217
 10
19.5400394393
 20
-8.7005996474
 10
19.547462469
 20
-8.6120061118
 10
19.549940367
 20
-8.5205425388
  0
LWPOLYLINE
  5
4B6
100
AcDbEntity
  8
SUPERFICI
100
AcDbPolyline
 62
250
  6
CONTINUOUS
 90
11
 70
0
 10
19.3107909038
 20
-9.2638176318
 10
19.3549028153
 20
-9.2104802592
 10
19.3948939105
 20
-9.1517108989
 10
19.430593039
 20
-9.0877612609
 10
19.4618474614
 20
-9.0189051201
 10
19.4885233335
 20
-8.9454375384
 10
19.5105065474
 20
-8.8676730041
 10
19.5277031449
 20
-8.7859438217
 10
19.5400394393
 20
-8.7005996474
 10
19.547462469
 20
-8.6120061118
 10
19.549940367
 20
-8.5205425388
  0
LWPOLYLINE
  5
4B7
100
AcDbEntity
  8
ASSI
100
AcDbPolyline
 62
7
  6
CONTINUOUS
 90
10
 70
0
 10
3.7715812105
 20
-22.0786548684
 10
3.7938208495
 20
-22.0632934879
 10
3.8146668094
 20
-22.0452897331
 10
3.8338053457
 20
-22.0248463821
 10
3.8505279147
 20
-22.0028372543
 10
3.8651364183
 20
-21.9789976656
 10
3.8775640486
 20
-21.9532389839
 10
3.8871715906
 20
-21.9268393952
 10
3.8939632972
 20
-21.9001201554
 10
3.8980526688
 20
-21.8723413299
  0
LWPOLYLINE
  5
4B8
100
AcDbEntity
  8
ASSI
100
AcDbPolyline
 62
7
  6
CONTINUOUS
 90
5
 70
0
 10
3.2349138468
 20
-22.3686175139
 10
3.243397786
 20
-22.3632841929
 10
3.2555917982
 20
-22.3523507378
 10
3.2658663328
 20
-22.3386531113
 10
3.2740484651
 20
-22.3224246753
  0
LWPOLYLINE
  5
4B9
100
AcDbEntity
  8
ASSI
100
AcDbPolyline
 62
250
  6
CONTINUOUS
 90
7
 70
0
 10
3.8430466319
 20
-21.5778543927
 10
3.8597768768
 20
-21.5679876468
 10
3.8738198668
 20
-21.5571236515
 10
3.8849406272
 20
-21.545444192
 10
3.8929530807
 20
-21.5331446982
 10
3.8977231609
 20
-21.5204309744
 10
3.8991786719
 20
-21.5083884859
  0
LWPOLYLINE
  5
4BA
100
AcDbEntity
  8
ASSI
100
AcDbPolyline
 62
250
  6
CONTINUOUS
 90
7
 70
0
 10
3.8430466319
 20
-21.9177979876
 10
3.8597768471
 20
-21.9079312825
 10
3.8738198228
 20
-21.8970673236
 10
3.8849405824
 20
-21.8853878943
 10
3.8929530457
 20
-21.8730884226
 10
3.8977231426
 20
-21.860374712
 10
3.8991786719
 20
-21.8483321505
  0
LWPOLYLINE
  5
4BB
100
AcDbEntity
  8
ASSI
100
AcDbPolyline
 62
250
  6
CONTINUOUS
 90
8
 70
0
 10
1.6078341665
 20
-23.1202161358
 10
1.6204580763
 20
-23.1128115176
 10
1.6326830926
 20
-23.101864066
 10
1.6430488598
 20
-23.0881249713
 10
1.651378088
 20
-23.0718292228
 10
1.6575283184
 20
-23.0532555383
 10
1.6613943613
 20
-23.0327215968
 10
1.6629100948
 20
-23.010578604
  0
LINE
  5
4BC
100
AcDbEntity
  8
ASSI
100
AcDbLine
 62
7
  6
CONTINUOUS
 10
3.7599118119
 20
-22.0853687545
 11
3.7715812105
 21
-22.0786548684
  0
LWPOLYLINE
  5
4BD
100
AcDbEntity
  8
ASSI
100
AcDbPolyline
 62
250
  6
CONTINUOUS
 90
28
 70
0
 10
3.8089146879
 20
-21.9787649941
 10
3.8107111068
 20
-21.9777489138
 10
3.8125251727
 20
-21.9765913496
 10
3.8143568856
 20
-21.9752923015
 10
3.8162171332
 20
-21.973848942
 10
3.8180950278
 20
-21.9722640985
 10
3.8199579068
 20
-21.9705462535
 10
3.8218058558
 20
-21.9686904683
 10
3.8236387892
 20
-21.9667016816
 10
3.8254237871
 20
-21.9646031915
 10
3.827158998
 20
-21.9623919219
 10
3.8288462733
 20
-21.9600709489
 10
3.8304582474
 20
-21.957672799
 10
3.8319916096
 20
-21.9551980225
 10
3.8334496705
 20
-21.952646069
 10
3.8348149974
 20
-21.9500478141
 10
3.8360853798
 20
-21.9474046678
 10
3.837263028
 20
-21.94471522
 10
3.8383371402
 20
-21.9420061166
 10
3.8393068336
 20
-21.9392771481
 10
3.8401729908
 20
-21.936528524
 10
3.8409274586
 20
-21.9337875188
 10
3.8415692173
 20
-21.931054263
 10
3.8420992865
 20
-21.9283286261
 10
3.842512572
 20
-21.9256374918
 10
3.8428073757
 20
-21.9229898212
 10
3.8429853957
 20
-21.9203766531
 10
3.8430466319
 20
-21.9177979876
  0
LINE
  5
4BE
100
AcDbEntity
  8
ASSI
100
AcDbLine
 62
7
  6
CONTINUOUS
 10
3.5479788631
 20
-20.645818858
 11
4.2438207087
 21
-20.2703962185
  0
LINE
  5
4BF
100
AcDbEntity
  8
ASSI
100
AcDbLine
 62
250
  6
CONTINUOUS
 10
3.2848102214
 20
-22.2615313776
 11
3.8089146879
 21
-21.9787649941
  0
LINE
  5
4C0
100
AcDbEntity
  8
ASSI
100
AcDbLine
 62
7
  6
CONTINUOUS
 10
3.2349572811
 20
-22.3685941236
 11
3.760011492
 21
-22.0853153312
  0
LINE
  5
4C1
100
AcDbEntity
  8
ASSI
100
AcDbLine
 62
7
  6
CONTINUOUS
 10
3.2307474102
 20
-22.3707010183
 11
3.2349138468
 21
-22.3686175139
  0
LINE
  5
4C2
100
AcDbEntity
  8
ASSI
100
AcDbLine
 62
7
  6
CONTINUOUS
 10
3.5479437611
 20
-20.6458377696
 11
3.5302029443
 21
-20.6542564917
  0
LINE
  5
4C3
100
AcDbEntity
  8
ASSI
100
AcDbLine
 62
250
  6
CONTINUOUS
 10
3.2848102214
 20
-22.2615313776
 11
1.6629100948
 21
-23.010578604
  0
LINE
  5
4C4
100
AcDbEntity
  8
ASSI
100
AcDbLine
 62
7
  6
CONTINUOUS
 10
1.6076018679
 20
-23.1203229356
 11
3.2306916045
 21
-22.3707267913
  0
LWPOLYLINE
  5
4C5
100
AcDbEntity
  8
ASSI
100
AcDbPolyline
 62
250
  6
CONTINUOUS
 90
28
 70
0
 10
1.6629100948
 20
-23.010578604
 10
1.6611459034
 20
-23.0113551329
 10
1.6593515351
 20
-23.0120207766
 10
1.6575269899
 20
-23.0125755353
 10
1.6556609566
 20
-23.0130295681
 10
1.6537647464
 20
-23.0133727158
 10
1.6518722932
 20
-23.0135745008
 10
1.6499829772
 20
-23.0136303361
 10
1.6480974181
 20
-23.0135448086
 10
1.6462514091
 20
-23.013301202
 10
1.6444459907
 20
-23.0128941269
 10
1.6426801223
 20
-23.0123289727
 10
1.6409864757
 20
-23.0116051909
 10
1.6393683028
 20
-23.0107188396
 10
1.6378223516
 20
-23.0096738606
 10
1.6363715375
 20
-23.0084815319
 10
1.6350187527
 20
-23.0071402558
 10
1.6337611049
 20
-23.0056516298
 10
1.6326128324
 20
-23.0040317249
 10
1.6315753655
 20
-23.0022792132
 10
1.630647274
 20
-23.0003954226
 10
1.6298385057
 20
-22.9984004073
 10
1.6291503818
 20
-22.9962928819
 10
1.6285815811
 20
-22.9940741319
 10
1.6281380874
 20
-22.9917680677
 10
1.6278218953
 20
-22.9893826595
 10
1.6276310102
 20
-22.9869099372
 10
1.6275654321
 20
-22.9843499008
  0
LINE
  5
4C6
100
AcDbEntity
  8
ASSI
100
AcDbLine
 62
250
  6
CONTINUOUS
 10
2.5852844152
 20
-20.8258613913
 11
3.6737189511
 21
-20.3774981898
  0
LINE
  5
4C7
100
AcDbEntity
  8
ASSI
100
AcDbLine
 62
7
  6
CONTINUOUS
 10
2.442906193
 20
-21.1021508522
 11
3.5301551991
 21
-20.6542760107
  0
LINE
  5
4C8
100
AcDbEntity
  8
RACCORDO
100
AcDbLine
 62
250
  6
CONTINUOUS
 10
0.224975096
 20
-21.8263897059
 11
-3.1304542664
 21
-23.1030992352
  0
LINE
  5
4C9
100
AcDbEntity
  8
RACCORDO
100
AcDbLine
 62
7
  6
CONTINUOUS
 10
-3.2970290759
 20
-23.3897445443
 11
0.0623206664
 21
-22.1115434619
  0
LWPOLYLINE
  5
4CA
100
AcDbEntity
  8
RACCORDO
100
AcDbPolyline
 62
250
  6
CONTINUOUS
 90
22
 70
0
 10
-3.1304542664
 20
-23.1030992352
 10
-3.1668577713
 20
-23.1153628259
 10
-3.2025643329
 20
-23.1243186536
 10
-3.2375739512
 20
-23.1299667184
 10
-3.2720756972
 20
-23.1323083442
 10
-3.3058804998
 20
-23.1313422071
 10
-3.3384211459
 20
-23.1270643349
 10
-3.3696616439
 20
-23.1194172755
 10
-3.3996379854
 20
-23.1084584809
 10
-3.4278909321
 20
-23.0943563356
 10
-3.4543938414
 20
-23.0770607215
 10
-3.4791733559
 20
-23.0566217566
 10
-3.5018501653
 20
-23.0333581785
 10
-3.5223897541
 20
-23.007227599
 10
-3.5408266379
 20
-22.9782724064
 10
-3.5568850529
 20
-22.946938503
 10
-3.5705288987
 20
-22.9131703814
 10
-3.5817942758
 20
-22.8770235491
 10
-3.5905137219
 20
-22.839110431
 10
-3.5966314162
 20
-22.7996351689
 10
-3.6002031795
 20
-22.758393621
 10
-3.6012290118
 20
-22.7153857873
  0
LWPOLYLINE
  5
4CB
100
AcDbEntity
  8
ASSI
100
AcDbPolyline
 62
7
  6
CONTINUOUS
 90
4
 70
0
 10
0.9679343445
 20
21.1457922396
 10
0.985444765
 20
21.1443134127
 10
1.003584269
 20
21.1396608285
 10
1.0220469824
 20
21.1319163265
  0
LINE
  5
4CC
100
AcDbEntity
  8
ASSI
100
AcDbLine
 62
7
  6
CONTINUOUS
 10
-11.281589471
 20
24.4044210335
 11
-11.8243155337
 21
24.5195503511
  0
LINE
  5
4CD
100
AcDbEntity
  8
ASSI
100
AcDbLine
 62
250
  6
CONTINUOUS
 10
-10.2041412344
 20
24.7406577668
 11
-10.9409490386
 21
24.8969579438
  0
LINE
  5
4CE
100
AcDbEntity
  8
ASSI
100
AcDbLine
 62
7
  6
CONTINUOUS
 10
-11.1214660766
 20
24.7732630593
 11
-10.4805671785
 21
24.637308156
  0
LWPOLYLINE
  5
4CF
100
AcDbEntity
  8
ASSI
100
AcDbPolyline
 62
250
  6
CONTINUOUS
 90
19
 70
0
 10
-10.9409490386
 20
24.8969579438
 10
-10.9424900757
 20
24.8973301355
 10
-10.9440059698
 20
24.8978473347
 10
-10.945496721
 20
24.8985095415
 10
-10.9469745593
 20
24.8993128826
 10
-10.9484272547
 20
24.9002612312
 10
-10.9498181169
 20
24.9013662078
 10
-10.951145989
 20
24.9026331655
 10
-10.952412028
 20
24.9040567512
 10
-10.953583014
 20
24.9056325261
 10
-10.9546563236
 20
24.9073659619
 10
-10.9556345802
 20
24.9092515868
 10
-10.9564924342
 20
24.9112685463
 10
-10.9572260701
 20
24.91342149
 10
-10.9578393035
 20
24.9157057682
 10
-10.9583182308
 20
24.9180865778
 10
-10.9586582175
 20
24.9205523176
 10
-10.9588638983
 20
24.9231145889
 10
-10.958935273
 20
24.9257733915
  0
LWPOLYLINE
  5
4D0
100
AcDbEntity
  8
ASSI
100
AcDbPolyline
 62
7
  6
CONTINUOUS
 90
10
 70
0
 10
1.6622127454
 20
21.3933740517
 10
1.6411704487
 20
21.4011504224
 10
1.6192955263
 20
21.4067731918
 10
1.5968150666
 20
21.4101479178
 10
1.5738840543
 20
21.4112060671
 10
1.5507444175
 20
21.4098886644
 10
1.527717637
 20
21.4061835104
 10
1.5050237005
 20
21.4001103698
 10
1.4828659108
 20
21.3917095598
 10
1.4786895153
 20
21.3898343791
  0
LWPOLYLINE
  5
4D1
100
AcDbEntity
  8
RACCORDO
100
AcDbPolyline
 62
250
  6
CONTINUOUS
 90
8
 70
0
 10
-0.1046149061
 20
23.1065289404
 10
-0.1234395792
 20
23.1136750009
 10
-0.1412932395
 20
23.1182316527
 10
-0.1578759836
 20
23.1201223534
 10
-0.1729092564
 20
23.1193153435
 10
-0.186140531
 20
23.115824179
 10
-0.1973475501
 20
23.109707504
 10
-0.2014152771
 20
23.1063687005
  0
LWPOLYLINE
  5
4D2
100
AcDbEntity
  8
SUPERFICI
100
AcDbPolyline
 62
250
  6
CONTINUOUS
 90
8
 70
0
 10
-0.1046149061
 20
23.1065289404
 10
-0.1234395792
 20
23.1136750009
 10
-0.1412932395
 20
23.1182316527
 10
-0.1578759836
 20
23.1201223534
 10
-0.1729092564
 20
23.1193153435
 10
-0.186140531
 20
23.115824179
 10
-0.1973475501
 20
23.109707504
 10
-0.2014152771
 20
23.1063687005
  0
LWPOLYLINE
  5
4D3
100
AcDbEntity
  8
ASSI
100
AcDbPolyline
 62
7
  6
CONTINUOUS
 90
6
 70
0
 10
-11.5644537227
 20
27.4251666791
 10
-11.582904991
 20
27.4329169036
 10
-11.6010473881
 20
27.4375680412
 10
-11.6185663607
 20
27.4390425922
 10
-11.6351575593
 20
27.4373176503
 10
-11.6517927627
 20
27.4318565105
  0
LWPOLYLINE
  5
4D4
100
AcDbEntity
  8
ASSI
100
AcDbPolyline
 62
250
  6
CONTINUOUS
 90
6
 70
0
 10
1.5647730451
 20
21.3825652076
 10
1.5466211129
 20
21.3904541859
 10
1.5287374307
 20
21.3952251386
 10
1.5114278749
 20
21.3967964649
 10
1.494988502
 20
21.3951412894
 10
1.478689494
 20
21.3898344256
  0
LWPOLYLINE
  5
4D5
100
AcDbEntity
  8
RACCORDO
100
AcDbPolyline
 62
7
  6
CONTINUOUS
 90
16
 70
0
 10
-0.9834798745
 20
22.7471569753
 10
-1.0064475974
 20
22.7574635613
 10
-1.030828672
 20
22.7664184012
 10
-1.0566230983
 20
22.774021495
 10
-1.0841219191
 20
22.7803226657
 10
-1.1130340916
 20
22.7852720903
 10
-1.1424864867
 20
22.7887202993
 10
-1.1724955847
 20
22.7906214959
 10
-1.2030449054
 20
22.791021477
 10
-1.2332118789
 20
22.7899081633
 10
-1.2629848411
 20
22.7872353896
 10
-1.2923754562
 20
22.7830493211
 10
-1.3204961465
 20
22.7774763744
 10
-1.3470510527
 20
22.7705586885
 10
-1.3723360341
 20
22.7622541243
 10
-1.3963510907
 20
22.7525626819
  0
LWPOLYLINE
  5
4D6
100
AcDbEntity
  8
SUPERFICI
100
AcDbPolyline
 62
7
  6
CONTINUOUS
 90
16
 70
0
 10
-0.9834798745
 20
22.7471569753
 10
-1.0064475974
 20
22.7574635613
 10
-1.030828672
 20
22.7664184012
 10
-1.0566230983
 20
22.774021495
 10
-1.0841219191
 20
22.7803226657
 10
-1.1130340916
 20
22.7852720903
 10
-1.1424864867
 20
22.7887202993
 10
-1.1724955847
 20
22.7906214959
 10
-1.2030449054
 20
22.791021477
 10
-1.2332118789
 20
22.7899081633
 10
-1.2629848411
 20
22.7872353896
 10
-1.2923754562
 20
22.7830493211
 10
-1.3204961465
 20
22.7774763744
 10
-1.3470510527
 20
22.7705586885
 10
-1.3723360341
 20
22.7622541243
 10
-1.3963510907
 20
22.7525626819
  0
LINE
  5
4D7
100
AcDbEntity
  8
ASSI
100
AcDbLine
 62
7
  6
CONTINUOUS
 10
-10.9123538962
 20
27.6810774367
 11
-10.9266361034
 21
27.68761479
  0
LINE
  5
4D8
100
AcDbEntity
  8
ASSI
100
AcDbLine
 62
7
  6
CONTINUOUS
 10
1.6741353228
 20
21.3878327246
 11
1.6622127454
 21
21.3933740517
  0
LINE
  5
4D9
100
AcDbEntity
  8
RACCORDO
100
AcDbLine
 62
250
  6
CONTINUOUS
 10
-0.5397092267
 20
24.6726768365
 11
-0.5362683973
 21
24.6710635696
  0
LINE
  5
4DA
100
AcDbEntity
  8
SUPERFICI
100
AcDbLine
 62
250
  6
CONTINUOUS
 10
-0.5397092267
 20
24.6726768365
 11
-0.5362683973
 21
24.6710635696
  0
LWPOLYLINE
  5
4DB
100
AcDbEntity
  8
ASSI
100
AcDbPolyline
 62
250
  6
CONTINUOUS
 90
13
 70
0
 10
3.7758476082
 20
20.3369778683
 10
3.7726530446
 20
20.338499697
 10
3.764317749
 20
20.3418060042
 10
3.7556442908
 20
20.3443245564
 10
3.7466627196
 20
20.3460481909
 10
3.737404962
 20
20.3469722808
 10
3.7278998547
 20
20.3470951807
 10
3.7181803445
 20
20.3464171322
 10
3.7082799371
 20
20.3449411118
 10
3.6982288976
 20
20.3426720551
 10
3.6880604135
 20
20.3396171954
 10
3.6778106714
 20
20.3357869659
 10
3.6675148709
 20
20.3311942947
  0
LWPOLYLINE
  5
4DC
100
AcDbEntity
  8
ASSI
100
AcDbPolyline
 62
250
  6
CONTINUOUS
 90
13
 70
0
 10
1.6738752777
 20
21.3879640337
 10
1.6726043839
 20
21.3885876964
 10
1.6641284019
 20
21.3921721304
 10
1.6552851368
 20
21.394942181
 10
1.6461079872
 20
21.3968874644
 10
1.6366277885
 20
21.3980015251
 10
1.6268792861
 20
21.3982800513
 10
1.6168968152
 20
21.397722017
 10
1.6067163697
 20
21.3963294033
 10
1.5963765924
 20
21.3941075315
 10
1.5859152131
 20
21.3910649981
 10
1.575368802
 20
21.3872131122
 10
1.5647749707
 20
21.3825661227
  0
LINE
  5
4DD
100
AcDbEntity
  8
ASSI
100
AcDbLine
 62
250
  6
CONTINUOUS
 10
3.6675148709
 20
20.3311942947
 11
1.5647749975
 21
21.3825661093
  0
LINE
  5
4DE
100
AcDbEntity
  8
ASSI
100
AcDbLine
 62
250
  6
CONTINUOUS
 10
-8.9189858343
 20
26.6244446473
 11
-11.02172766
 21
27.6758155601
  0
LINE
  5
4DF
100
AcDbEntity
  8
RACCORDO
100
AcDbLine
 62
7
  6
CONTINUOUS
 10
-0.7275631089
 20
22.6191985925
 11
-0.9834798745
 21
22.7471569753
  0
LINE
  5
4E0
100
AcDbEntity
  8
SUPERFICI
100
AcDbLine
 62
7
  6
CONTINUOUS
 10
-0.7275631089
 20
22.6191985925
 11
-0.9834798745
 21
22.7471569753
  0
LINE
  5
4E1
100
AcDbEntity
  8
RACCORDO
100
AcDbLine
 62
250
  6
CONTINUOUS
 10
-0.9834798745
 20
23.7297416351
 11
-0.2250742758
 21
23.3505388357
  0
LINE
  5
4E2
100
AcDbEntity
  8
SUPERFICI
100
AcDbLine
 62
250
  6
CONTINUOUS
 10
-0.9834798745
 20
23.7297416351
 11
-0.2250742758
 21
23.3505388357
  0
LINE
  5
4E3
100
AcDbEntity
  8
RACCORDO
100
AcDbLine
 62
250
  6
CONTINUOUS
 10
-0.8810395269
 20
23.9474572185
 11
-0.1226339282
 21
23.5682544192
  0
LINE
  5
4E4
100
AcDbEntity
  8
SUPERFICI
100
AcDbLine
 62
250
  6
CONTINUOUS
 10
-0.8810395269
 20
23.9474572185
 11
-0.1226339282
 21
23.5682544192
  0
LINE
  5
4E5
100
AcDbEntity
  8
RACCORDO
100
AcDbLine
 62
7
  6
CONTINUOUS
 10
-1.594226568
 20
24.5478085998
 11
1.043743621
 21
23.2288235053
  0
LINE
  5
4E6
100
AcDbEntity
  8
SUPERFICI
100
AcDbLine
 62
7
  6
CONTINUOUS
 10
-1.594226568
 20
24.5478085998
 11
1.043743621
 21
23.2288235053
  0
LINE
  5
4E7
100
AcDbEntity
  8
RACCORDO
100
AcDbLine
 62
250
  6
CONTINUOUS
 10
1.6596956618
 20
23.5239073469
 11
-0.6244841559
 21
24.6659972558
  0
LINE
  5
4E8
100
AcDbEntity
  8
SUPERFICI
100
AcDbLine
 62
250
  6
CONTINUOUS
 10
1.6596956618
 20
23.5239073469
 11
-0.6244841559
 21
24.6659972558
  0
LINE
  5
4E9
100
AcDbEntity
  8
RACCORDO
100
AcDbLine
 62
7
  6
CONTINUOUS
 10
2.9853159214
 20
22.9102714108
 11
2.948644431
 21
22.928607156
  0
LINE
  5
4EA
100
AcDbEntity
  8
SUPERFICI
100
AcDbLine
 62
7
  6
CONTINUOUS
 10
2.9853159214
 20
22.9102714108
 11
2.948644431
 21
22.928607156
  0
LINE
  5
4EB
100
AcDbEntity
  8
RACCORDO
100
AcDbLine
 62
7
  6
CONTINUOUS
 10
1.7099210984
 20
23.5479688222
 11
-0.5362755553
 21
24.6710671491
  0
LINE
  5
4EC
100
AcDbEntity
  8
SUPERFICI
100
AcDbLine
 62
7
  6
CONTINUOUS
 10
1.7099210984
 20
23.5479688222
 11
-0.5362755553
 21
24.6710671491
  0
LINE
  5
4ED
100
AcDbEntity
  8
ASSI
100
AcDbLine
 62
7
  6
CONTINUOUS
 10
-10.9126301826
 20
27.6812167639
 11
-8.8105709601
 21
26.6301871091
  0
LINE
  5
4EE
100
AcDbEntity
  8
ASSI
100
AcDbLine
 62
7
  6
CONTINUOUS
 10
3.7759592312
 20
20.336921973
 11
1.6738696228
 21
21.3879668612
  0
LINE
  5
4EF
100
AcDbEntity
  8
SUPERFICI
100
AcDbLine
 62
250
  6
CONTINUOUS
 10
-0.5362574223
 20
24.6710580796
 11
-0.5327084879
 21
24.669161772
  0
LWPOLYLINE
  5
4F0
100
AcDbEntity
  8
RACCORDO
100
AcDbPolyline
 62
250
  6
CONTINUOUS
 90
15
 70
0
 10
-0.1226339282
 20
23.5682544192
 10
-0.0890519518
 20
23.5490112932
 10
-0.0597353638
 20
23.5273878904
 10
-0.0346841641
 20
23.5033842106
 10
-0.013694972
 20
23.4767518619
 10
0.0030288317
 20
23.4477392364
 10
0.0148771048
 20
23.4170915099
 10
0.0217338984
 20
23.3847315623
 10
0.0237151615
 20
23.3507365138
 10
0.0205585987
 20
23.3160829016
 10
0.0120958594
 20
23.2807168129
 10
-0.0015047058
 20
23.2446921605
 10
-0.0200003405
 20
23.2091472196
 10
-0.0433101261
 20
23.1744614151
 10
-0.0715149813
 20
23.140255322
  0
LWPOLYLINE
  5
4F1
100
AcDbEntity
  8
SUPERFICI
100
AcDbPolyline
 62
250
  6
CONTINUOUS
 90
15
 70
0
 10
-0.1226339282
 20
23.5682544192
 10
-0.0890519518
 20
23.5490112932
 10
-0.0597353638
 20
23.5273878904
 10
-0.0346841641
 20
23.5033842106
 10
-0.013694972
 20
23.4767518619
 10
0.0030288317
 20
23.4477392364
 10
0.0148771048
 20
23.4170915099
 10
0.0217338984
 20
23.3847315623
 10
0.0237151615
 20
23.3507365138
 10
0.0205585987
 20
23.3160829016
 10
0.0120958594
 20
23.2807168129
 10
-0.0015047058
 20
23.2446921605
 10
-0.0200003405
 20
23.2091472196
 10
-0.0433101261
 20
23.1744614151
 10
-0.0715149813
 20
23.140255322
  0
LWPOLYLINE
  5
4F2
100
AcDbEntity
  8
ASSI
100
AcDbPolyline
 62
250
  6
CONTINUOUS
 90
13
 70
0
 10
-2.9514618973
 20
26.5789970343
 10
-2.9288078579
 20
26.5658437626
 10
-2.9065793382
 20
26.5493011942
 10
-2.8851441001
 20
26.5296428754
 10
-2.8648568245
 20
26.5071939416
 10
-2.8460531804
 20
26.4823256767
 10
-2.8290442854
 20
26.4554493514
 10
-2.8141116131
 20
26.4270094823
 10
-2.8015023901
 20
26.3974766367
 10
-2.7914254125
 20
26.3673395814
 10
-2.7840475196
 20
26.3370970246
 10
-2.779490868
 20
26.3072493512
 10
-2.7778309544
 20
26.278290487
  0
LWPOLYLINE
  5
4F3
100
AcDbEntity
  8
RACCORDO
100
AcDbPolyline
 62
250
  6
CONTINUOUS
 90
9
 70
0
 10
-0.2250742758
 20
23.3505388357
 10
-0.2051930994
 20
23.3389248449
 10
-0.1875313676
 20
23.3251803629
 10
-0.1722797927
 20
23.3094156775
 10
-0.1596152089
 20
23.2917219151
 10
-0.1496715131
 20
23.27225763
 10
-0.1425569
 20
23.251244278
 10
-0.1383804833
 20
23.2287796648
 10
-0.1372063465
 20
23.2081779138
  0
LWPOLYLINE
  5
4F4
100
AcDbEntity
  8
SUPERFICI
100
AcDbPolyline
 62
250
  6
CONTINUOUS
 90
9
 70
0
 10
-0.2250742758
 20
23.3505388357
 10
-0.2051930994
 20
23.3389248449
 10
-0.1875313676
 20
23.3251803629
 10
-0.1722797927
 20
23.3094156775
 10
-0.1596152089
 20
23.2917219151
 10
-0.1496715131
 20
23.27225763
 10
-0.1425569
 20
23.251244278
 10
-0.1383804833
 20
23.2287796648
 10
-0.1372063465
 20
23.2081779138
  0
LINE
  5
4F5
100
AcDbEntity
  8
DRAFT
100
AcDbLine
 62
7
  6
CONTINUOUS
 10
11.1988687719
 20
20.2947705666
 11
10.446174688
 21
21.5929758276
  0
LINE
  5
4F6
100
AcDbEntity
  8
SUPERFICI
100
AcDbLine
 62
7
  6
CONTINUOUS
 10
11.1988687719
 20
20.2947705666
 11
10.446174688
 21
21.5929758276
  0
LWPOLYLINE
  5
4F7
100
AcDbEntity
  8
ASSI
100
AcDbPolyline
 62
7
  6
CONTINUOUS
 90
3
 70
0
 10
5.9725434031
 20
24.5655017608
 10
5.9150194129
 20
24.5508925526
 10
5.8571912381
 20
24.5308219265
  0
LWPOLYLINE
  5
4F8
100
AcDbEntity
  8
RACCORDO
100
AcDbPolyline
 62
7
  6
CONTINUOUS
 90
17
 70
0
 10
5.6496966712
 20
24.4337377051
 10
5.5875388191
 20
24.4279222471
 10
5.521041217
 20
24.4240782908
 10
5.4532650568
 20
24.4225428537
 10
5.3848912631
 20
24.4233666827
 10
5.3170784053
 20
24.4265500179
 10
5.2505110197
 20
24.432021904
 10
5.1858791391
 20
24.4396400121
 10
5.1243073803
 20
24.4491469373
 10
5.0662473237
 20
24.4603159028
 10
5.0123557564
 20
24.4728136362
 10
4.9638673285
 20
24.4860503482
 10
4.9210426155
 20
24.4995911482
 10
4.8840025012
 20
24.5129981965
 10
4.8533499822
 20
24.5255722835
 10
4.829033929
 20
24.5367810713
 10
4.8247161269
 20
24.5389152674
  0
LWPOLYLINE
  5
4F9
100
AcDbEntity
  8
SUPERFICI
100
AcDbPolyline
 62
7
  6
CONTINUOUS
 90
17
 70
0
 10
5.6496966712
 20
24.4337377051
 10
5.5875388191
 20
24.4279222471
 10
5.521041217
 20
24.4240782908
 10
5.4532650568
 20
24.4225428537
 10
5.3848912631
 20
24.4233666827
 10
5.3170784053
 20
24.4265500179
 10
5.2505110197
 20
24.432021904
 10
5.1858791391
 20
24.4396400121
 10
5.1243073803
 20
24.4491469373
 10
5.0662473237
 20
24.4603159028
 10
5.0123557564
 20
24.4728136362
 10
4.9638673285
 20
24.4860503482
 10
4.9210426155
 20
24.4995911482
 10
4.8840025012
 20
24.5129981965
 10
4.8533499822
 20
24.5255722835
 10
4.829033929
 20
24.5367810713
 10
4.8247161269
 20
24.5389152674
  0
LWPOLYLINE
  5
4FA
100
AcDbEntity
  8
ASSI
100
AcDbPolyline
 62
7
  6
CONTINUOUS
 90
5
 70
0
 10
2.5665444062
 20
23.9090349594
 10
2.5253212637
 20
23.9069241281
 10
2.4842174727
 20
23.9013739131
 10
2.4450843159
 20
23.8925861033
 10
2.4083191995
 20
23.8807872381
  0
LWPOLYLINE
  5
4FB
100
AcDbEntity
  8
RACCORDO
100
AcDbPolyline
 62
250
  6
CONTINUOUS
 90
4
 70
0
 10
5.3883054198
 20
24.3085521402
 10
5.3582581521
 20
24.3090116457
 10
5.2552719706
 20
24.3142931079
 10
5.2115235803
 20
24.3181654078
  0
LWPOLYLINE
  5
4FC
100
AcDbEntity
  8
SUPERFICI
100
AcDbPolyline
 62
250
  6
CONTINUOUS
 90
4
 70
0
 10
5.3883054198
 20
24.3085521402
 10
5.3582581521
 20
24.3090116457
 10
5.2552719706
 20
24.3142931079
 10
5.2115235803
 20
24.3181654078
  0
LWPOLYLINE
  5
4FD
100
AcDbEntity
  8
RACCORDO
100
AcDbPolyline
 62
7
  6
CONTINUOUS
 90
3
 70
0
 10
-1.6503832785
 20
24.5619411468
 10
-1.6407032681
 20
24.5616037328
 10
-1.6302920717
 20
24.5601488622
  0
LWPOLYLINE
  5
4FE
100
AcDbEntity
  8
SUPERFICI
100
AcDbPolyline
 62
7
  6
CONTINUOUS
 90
3
 70
0
 10
-1.6503832785
 20
24.5619411468
 10
-1.6407032681
 20
24.5616037328
 10
-1.6302920717
 20
24.5601488622
  0
LWPOLYLINE
  5
4FF
100
AcDbEntity
  8
ASSI
100
AcDbPolyline
 62
7
  6
CONTINUOUS
 90
4
 70
0
 10
-3.5357272604
 20
22.9613152387
 10
-3.5138392346
 20
22.959466705
 10
-3.4911648547
 20
22.9536509747
 10
-3.4680864629
 20
22.9439703473
  0
LWPOLYLINE
  5
500
100
AcDbEntity
  8
ASSI
100
AcDbPolyline
 62
7
  6
CONTINUOUS
 90
4
 70
0
 10
-7.2480378616
 20
24.8174705393
 10
-7.2261498359
 20
24.8156220056
 10
-7.2034754559
 20
24.8098062753
 10
-7.1803970641
 20
24.8001256479
  0
LWPOLYLINE
  5
501
100
AcDbEntity
  8
RACCORDO
100
AcDbPolyline
 62
7
  6
CONTINUOUS
 90
10
 70
0
 10
-0.6617126787
 20
24.702943906
 10
-0.7428351371
 20
24.7146642607
 10
-0.8251087562
 20
24.7225675119
 10
-0.9079018178
 20
24.7266564754
 10
-0.9907809885
 20
24.7269547726
 10
-1.0735108185
 20
24.7234627772
 10
-1.1555615648
 20
24.7161671796
 10
-1.2363939964
 20
24.7050628806
 10
-1.3157921996
 20
24.6900828278
 10
-1.3933430298
 20
24.6711459787
  0
LWPOLYLINE
  5
502
100
AcDbEntity
  8
SUPERFICI
100
AcDbPolyline
 62
7
  6
CONTINUOUS
 90
10
 70
0
 10
-0.6617126787
 20
24.702943906
 10
-0.7428351371
 20
24.7146642607
 10
-0.8251087562
 20
24.7225675119
 10
-0.9079018178
 20
24.7266564754
 10
-0.9907809885
 20
24.7269547726
 10
-1.0735108185
 20
24.7234627772
 10
-1.1555615648
 20
24.7161671796
 10
-1.2363939964
 20
24.7050628806
 10
-1.3157921996
 20
24.6900828278
 10
-1.3933430298
 20
24.6711459787
  0
LWPOLYLINE
  5
503
100
AcDbEntity
  8
ASSI
100
AcDbPolyline
 62
250
  6
CONTINUOUS
 90
12
 70
0
 10
-11.121383483
 20
24.7732455079
 10
-11.1122853177
 20
24.7716816796
 10
-11.0921440443
 20
24.7707233829
 10
-11.0717952676
 20
24.7731182957
 10
-11.0515833098
 20
24.7788258912
 10
-11.0318501792
 20
24.7877495877
 10
-11.0129297799
 20
24.799738383
 10
-10.995142261
 20
24.8145894126
 10
-10.9787886013
 20
24.8320513817
 10
-10.9641455183
 20
24.8518288158
 10
-10.9514607855
 20
24.8735870602
 10
-10.9409490386
 20
24.8969579438
  0
LWPOLYLINE
  5
504
100
AcDbEntity
  8
RACCORDO
100
AcDbPolyline
 62
250
  6
CONTINUOUS
 90
13
 70
0
 10
-0.6244841559
 20
24.6659972558
 10
-0.6942063859
 20
24.6795720005
 10
-0.7649481848
 20
24.6898355017
 10
-0.8367095527
 20
24.6967877592
 10
-0.9101489289
 20
24.7004381338
 10
-0.9846078742
 20
24.7007772648
 10
-1.05811107
 20
24.6977770702
 10
-1.1306355802
 20
24.6913325085
 10
-1.2022043409
 20
24.6815486212
 10
-1.2709108421
 20
24.6687124507
 10
-1.3361195805
 20
24.6529196778
 10
-1.3984660595
 20
24.6340746218
 10
-1.4579502789
 20
24.6121772826
  0
LWPOLYLINE
  5
505
100
AcDbEntity
  8
SUPERFICI
100
AcDbPolyline
 62
250
  6
CONTINUOUS
 90
13
 70
0
 10
-0.6244841559
 20
24.6659972558
 10
-0.6942063859
 20
24.6795720005
 10
-0.7649481848
 20
24.6898355017
 10
-0.8367095527
 20
24.6967877592
 10
-0.9101489289
 20
24.7004381338
 10
-0.9846078742
 20
24.7007772648
 10
-1.05811107
 20
24.6977770702
 10
-1.1306355802
 20
24.6913325085
 10
-1.2022043409
 20
24.6815486212
 10
-1.2709108421
 20
24.6687124507
 10
-1.3361195805
 20
24.6529196778
 10
-1.3984660595
 20
24.6340746218
 10
-1.4579502789
 20
24.6121772826
  0
LINE
  5
506
100
AcDbEntity
  8
RACCORDO
100
AcDbLine
 62
7
  6
CONTINUOUS
 10
-0.5822889867
 20
24.6874095188
 11
-0.6617126787
 21
24.702943906
  0
LINE
  5
507
100
AcDbEntity
  8
SUPERFICI
100
AcDbLine
 62
7
  6
CONTINUOUS
 10
-0.5822889867
 20
24.6874095188
 11
-0.6617126787
 21
24.702943906
  0
LWPOLYLINE
  5
508
100
AcDbEntity
  8
RACCORDO
100
AcDbPolyline
 62
7
  6
CONTINUOUS
 90
4
 70
0
 10
-1.6302920717
 20
24.5601488622
 10
-1.619171032
 20
24.5574716358
 10
-1.607354591
 20
24.5534944593
 10
-1.5948854424
 20
24.548138037
  0
LWPOLYLINE
  5
509
100
AcDbEntity
  8
SUPERFICI
100
AcDbPolyline
 62
7
  6
CONTINUOUS
 90
4
 70
0
 10
-1.6302920717
 20
24.5601488622
 10
-1.619171032
 20
24.5574716358
 10
-1.607354591
 20
24.5534944593
 10
-1.5948854424
 20
24.548138037
  0
LWPOLYLINE
  5
50A
100
AcDbEntity
  8
RACCORDO
100
AcDbPolyline
 62
7
  6
CONTINUOUS
 90
7
 70
0
 10
-0.5822958443
 20
24.6874110432
 10
-0.5744351616
 20
24.6854950377
 10
-0.5653391086
 20
24.6828498947
 10
-0.556375725
 20
24.6797759827
 10
-0.5475554419
 20
24.6762756315
 10
-0.5388979806
 20
24.672354506
 10
-0.5362574223
 20
24.6710580796
  0
LWPOLYLINE
  5
50B
100
AcDbEntity
  8
SUPERFICI
100
AcDbPolyline
 62
7
  6
CONTINUOUS
 90
7
 70
0
 10
-0.5822958443
 20
24.6874110432
 10
-0.5744351616
 20
24.6854950377
 10
-0.5653391086
 20
24.6828498947
 10
-0.556375725
 20
24.6797759827
 10
-0.5475554419
 20
24.6762756315
 10
-0.5388979806
 20
24.672354506
 10
-0.5362574223
 20
24.6710580796
  0
LWPOLYLINE
  5
50C
100
AcDbEntity
  8
ASSI
100
AcDbPolyline
 62
7
  6
CONTINUOUS
 90
5
 70
0
 10
2.7289422591
 20
23.8835076561
 10
2.6903395919
 20
23.8949084345
 10
2.6500630628
 20
23.9030130721
 10
2.6081070081
 20
23.9077735599
 10
2.5665444062
 20
23.9090349594
  0
LWPOLYLINE
  5
50D
100
AcDbEntity
  8
ASSI
100
AcDbPolyline
 62
7
  6
CONTINUOUS
 90
8
 70
0
 10
-10.9266361034
 20
27.68761479
 10
-10.9478644495
 20
27.6951763171
 10
-10.9699067143
 20
27.7005550001
 10
-10.9925333756
 20
27.7036586081
 10
-11.0155924788
 20
27.704421171
 10
-11.0388544935
 20
27.702780681
 10
-11.0619766799
 20
27.6987275576
 10
-11.0847001555
 20
27.6922956037
  0
LWPOLYLINE
  5
50E
100
AcDbEntity
  8
ASSI
100
AcDbPolyline
 62
250
  6
CONTINUOUS
 90
6
 70
0
 10
-3.1309260481
 20
26.6703055579
 10
-3.1536159634
 20
26.6801667809
 10
-3.175970566
 20
26.6861304718
 10
-3.1976075105
 20
26.6880946298
 10
-3.2181567262
 20
26.6860256606
 10
-3.238830903
 20
26.6792539851
  0
LINE
  5
50F
100
AcDbEntity
  8
SUPERFICI
100
AcDbLine
 62
250
  6
CONTINUOUS
 10
4.8247196885
 20
24.5389223982
 11
4.8247907492
 21
24.5388868783
  0
LINE
  5
510
100
AcDbEntity
  8
ASSI
100
AcDbLine
 62
7
  6
CONTINUOUS
 10
3.3480077545
 20
23.3031073501
 11
2.9521525046
 21
23.5010349751
  0
LINE
  5
511
100
AcDbEntity
  8
ASSI
100
AcDbLine
 62
7
  6
CONTINUOUS
 10
2.2963777807
 20
23.828922337
 11
-0.2509659924
 21
25.1025942235
  0
LINE
  5
512
100
AcDbEntity
  8
ASSI
100
AcDbLine
 62
7
  6
CONTINUOUS
 10
4.3179028964
 20
23.7959146902
 11
0.3584917741
 21
25.7756202513
  0
LINE
  5
513
100
AcDbEntity
  8
DRAFT
100
AcDbLine
 62
7
  6
CONTINUOUS
 10
10.446174688
 20
21.5929758276
 11
9.6977555946
 21
21.9671853743
  0
LINE
  5
514
100
AcDbEntity
  8
SUPERFICI
100
AcDbLine
 62
7
  6
CONTINUOUS
 10
10.446174688
 20
21.5929758276
 11
9.6977555946
 21
21.9671853743
  0
LINE
  5
515
100
AcDbEntity
  8
ASSI
100
AcDbLine
 62
7
  6
CONTINUOUS
 10
2.0346496076
 20
25.9066023942
 11
5.3078313958
 21
24.2700115
  0
LINE
  5
516
100
AcDbEntity
  8
RACCORDO
100
AcDbLine
 62
7
  6
CONTINUOUS
 10
4.8247907492
 20
24.5388868783
 11
2.0342597433
 21
25.9341523813
  0
LINE
  5
517
100
AcDbEntity
  8
SUPERFICI
100
AcDbLine
 62
7
  6
CONTINUOUS
 10
4.8247196885
 20
24.5389223982
 11
2.0342597433
 21
25.9341523813
  0
LINE
  5
518
100
AcDbEntity
  8
ASSI
100
AcDbLine
 62
250
  6
CONTINUOUS
 10
-1.5863666148
 20
28.2414394392
 11
1.2669686676
 21
26.814771798
  0
LINE
  5
519
100
AcDbEntity
  8
ASSI
100
AcDbLine
 62
250
  6
CONTINUOUS
 10
5.8930186301
 20
24.5017468167
 11
8.7463539124
 21
23.0750791756
  0
LWPOLYLINE
  5
51A
100
AcDbEntity
  8
SUPERFICI
100
AcDbPolyline
 62
250
  6
CONTINUOUS
 90
4
 70
0
 10
4.8247907492
 20
24.5388868783
 10
4.8525143855
 20
24.5233547121
 10
4.8986856056
 20
24.4888966948
 10
4.9253854969
 20
24.4612344495
  0
LINE
  5
51B
100
AcDbEntity
  8
0
100
AcDbLine
 62
7
  6
CONTINUOUS
 10
11.4234714318
 20
22.5182917275
 11
11.6373638857
 21
22.3207584598
  0
LINE
  5
51C
100
AcDbEntity
  8
RACCORDO
100
AcDbLine
 62
7
  6
CONTINUOUS
 10
14.271312788
 20
26.0888977869
 11
14.2804282467
 21
26.0650039858
  0
LINE
  5
51D
100
AcDbEntity
  8
SUPERFICI
100
AcDbLine
 62
7
  6
CONTINUOUS
 10
14.271312788
 20
26.0888977869
 11
14.2804282467
 21
26.0650039858
  0
LINE
  5
51E
100
AcDbEntity
  8
ASSI
100
AcDbLine
 62
7
  6
CONTINUOUS
 10
0.3584917741
 20
25.7756202513
 11
1.9757642088
 21
25.8576652312
  0
LWPOLYLINE
  5
51F
100
AcDbEntity
  8
ASSI
100
AcDbPolyline
 62
7
  6
CONTINUOUS
 90
5
 70
0
 10
-3.0468740716
 20
26.7189312036
 10
-3.0874616506
 20
26.7173886951
 10
-3.1280452956
 20
26.7125224517
 10
-3.1668128895
 20
26.7045143306
 10
-3.2033696666
 20
26.6935684867
  0
LWPOLYLINE
  5
520
100
AcDbEntity
  8
RACCORDO
100
AcDbPolyline
 62
250
  6
CONTINUOUS
 90
4
 70
0
 10
4.7016950852
 20
24.5730796554
 10
4.7468876311
 20
24.566616876
 10
4.8017337007
 20
24.549354295
 10
4.8247196885
 20
24.5389223982
  0
LWPOLYLINE
  5
521
100
AcDbEntity
  8
SUPERFICI
100
AcDbPolyline
 62
250
  6
CONTINUOUS
 90
4
 70
0
 10
4.7016950852
 20
24.5730796554
 10
4.7468876311
 20
24.566616876
 10
4.8017337007
 20
24.549354295
 10
4.8247196885
 20
24.5389223982
  0
LWPOLYLINE
  5
522
100
AcDbEntity
  8
RACCORDO
100
AcDbPolyline
 62
7
  6
CONTINUOUS
 90
9
 70
0
 10
13.7612536387
 20
23.3108784974
 10
13.7551368982
 20
23.3124779951
 10
13.7453666844
 20
23.314010809
 10
13.735040489
 20
23.3144262534
 10
13.7242532918
 20
23.3137244809
 10
13.7132900329
 20
23.3119059496
 10
13.7022456922
 20
23.3089708121
 10
13.6910252897
 20
23.3049189157
 10
13.6796288254
 20
23.2997502604
  0
LINE
  5
523
100
AcDbEntity
  8
0
100
AcDbLine
 62
7
  6
CONTINUOUS
 10
12.36819084
 20
22.6440312677
 11
11.9184461786
 21
22.7657791009
  0
LWPOLYLINE
  5
524
100
AcDbEntity
  8
RACCORDO
100
AcDbPolyline
 62
7
  6
CONTINUOUS
 90
28
 70
0
 10
13.7612435025
 20
23.310854545
 10
13.6525281559
 20
23.3421403908
 10
13.537673113
 20
23.3714940678
 10
13.420411689
 20
23.397821138
 10
13.3010385242
 20
23.4210832297
 10
13.1798181525
 20
23.4412537825
 10
13.0569887831
 20
23.4583130578
 10
12.9328399857
 20
23.4722368994
 10
12.8076565226
 20
23.4830075684
 10
12.6816760051
 20
23.4906149681
 10
12.5551896189
 20
23.4950483468
 10
12.428486896
 20
23.4963029015
 10
12.3018051506
 20
23.4943781284
 10
12.1754338808
 20
23.4892767934
 10
12.0496642902
 20
23.4810075812
 10
11.9247346908
 20
23.4695797058
 10
11.8009358162
 20
23.4550098735
 10
11.6785510639
 20
23.437319852
 10
11.5578026277
 20
23.4165256766
 10
11.4389677066
 20
23.3926540766
 10
11.3223318832
 20
23.3657390248
 10
11.2081203101
 20
23.3358042575
 10
11.0966051319
 20
23.3028871536
 10
10.9880589355
 20
23.2670305188
 10
10.8826920439
 20
23.2282589012
 10
10.7807452615
 20
23.1866060928
 10
10.6824991241
 20
23.1421253183
 10
10.5882150629
 20
23.0948679289
  0
LWPOLYLINE
  5
525
100
AcDbEntity
  8
ASSI
100
AcDbPolyline
 62
7
  6
CONTINUOUS
 90
5
 70
0
 10
-2.8879918143
 20
26.6923939354
 10
-2.9256771267
 20
26.7038413716
 10
-2.9650460975
 20
26.712132106
 10
-3.0060913587
 20
26.717218649
 10
-3.0468740716
 20
26.7189312036
  0
LWPOLYLINE
  5
526
100
AcDbEntity
  8
RACCORDO
100
AcDbPolyline
 62
7
  6
CONTINUOUS
 90
3
 70
0
 10
13.7732943205
 20
23.3060607168
 10
13.7644461102
 20
23.3098279644
 10
13.7612536387
 20
23.3108784974
  0
LWPOLYLINE
  5
527
100
AcDbEntity
  8
ASSI
100
AcDbPolyline
 62
250
  6
CONTINUOUS
 90
10
 70
0
 10
1.7040655943
 20
26.8360231045
 10
1.6610046266
 20
26.8543649395
 10
1.6166460398
 20
26.8672602363
 10
1.5703638295
 20
26.8750715501
 10
1.5224101591
 20
26.8777568721
 10
1.4730447562
 20
26.8753028961
 10
1.422540074
 20
26.8677217634
 10
1.3711724909
 20
26.8550548255
 10
1.319220829
 20
26.8373725015
 10
1.2669686676
 20
26.814771798
  0
LWPOLYLINE
  5
528
100
AcDbEntity
  8
ASSI
100
AcDbPolyline
 62
7
  6
CONTINUOUS
 90
8
 70
0
 10
6.3265807977
 20
24.5247624833
 10
6.2934474999
 20
24.5399063416
 10
6.2448463643
 20
24.5570735632
 10
6.1936834481
 20
24.5693746206
 10
6.1403782872
 20
24.5765214314
 10
6.0855363042
 20
24.5783024635
 10
6.0295076915
 20
24.5746396116
 10
5.9725434031
 20
24.5655017608
  0
LINE
  5
529
100
AcDbEntity
  8
ASSI
100
AcDbLine
 62
7
  6
CONTINUOUS
 10
6.3256661358
 20
24.5252228338
 11
9.3363530583
 21
23.0198793725
  0
LINE
  5
52A
100
AcDbEntity
  8
0
100
AcDbLine
 62
7
  6
CONTINUOUS
 10
11.4234714318
 20
22.5182917275
 11
10.7165024917
 21
22.8717761975
  0
LINE
  5
52B
100
AcDbEntity
  8
0
100
AcDbLine
 62
7
  6
CONTINUOUS
 10
11.9184461786
 20
22.7657791009
 11
11.2114772385
 21
23.1192635709
  0
LINE
  5
52C
100
AcDbEntity
  8
DRAFT
100
AcDbLine
 62
7
  6
CONTINUOUS
 10
10.9509824662
 20
23.6019092121
 11
10.5123719936
 21
23.8212144484
  0
LINE
  5
52D
100
AcDbEntity
  8
SUPERFICI
100
AcDbLine
 62
7
  6
CONTINUOUS
 10
10.9509824662
 20
23.6019092121
 11
10.5123719936
 21
23.8212144484
  0
LINE
  5
52E
100
AcDbEntity
  8
ASSI
100
AcDbLine
 62
7
  6
CONTINUOUS
 10
1.7041730751
 20
26.8359693431
 11
-1.3066199996
 21
28.3413659014
  0
LINE
  5
52F
100
AcDbEntity
  8
RACCORDO
100
AcDbLine
 62
7
  6
CONTINUOUS
 10
14.6218224579
 20
22.8817966481
 11
14.7345973431
 21
22.825304322
  0
LWPOLYLINE
  5
530
100
AcDbEntity
  8
RACCORDO
100
AcDbPolyline
 62
7
  6
CONTINUOUS
 90
10
 70
0
 10
14.5838783906
 20
22.8944643031
 10
14.4864013369
 20
22.9445197348
 10
14.3907881351
 20
22.9934956104
 10
14.2970387851
 20
23.04139193
 10
14.2051677039
 20
23.0882101178
 10
14.1151604744
 20
23.1339487495
 10
14.0269738464
 20
23.1786035525
 10
13.940593403
 20
23.2221731027
 10
13.856033561
 20
23.2646588241
 10
13.7732943205
 20
23.3060607168
  0
LINE
  5
531
100
AcDbEntity
  8
RACCORDO
100
AcDbLine
 62
7
  6
CONTINUOUS
 10
14.5916368193
 20
22.889877831
 11
14.5838783906
 21
22.8944643031
  0
LWPOLYLINE
  5
532
100
AcDbEntity
  8
RACCORDO
100
AcDbPolyline
 62
250
  6
CONTINUOUS
 90
5
 70
0
 10
14.6218224579
 20
22.8817966481
 10
14.6463454482
 20
22.8612922697
 10
14.6707112099
 20
22.8400140053
 10
14.6948479601
 20
22.817951728
 10
14.7029967875
 20
22.8101377584
  0
LWPOLYLINE
  5
533
100
AcDbEntity
  8
RACCORDO
100
AcDbPolyline
 62
250
  6
CONTINUOUS
 90
4
 70
0
 10
14.5281858587
 20
22.8755006397
 10
14.5510462882
 20
22.8559219062
 10
14.5736238265
 20
22.8355688597
 10
14.5959184736
 20
22.8144415001
  0
LINE
  5
534
100
AcDbEntity
  8
RACCORDO
100
AcDbLine
 62
250
  6
CONTINUOUS
 10
14.5959184736
 20
22.8144415001
 11
14.617963972
 21
22.7926116131
  0
LINE
  5
535
100
AcDbEntity
  8
RACCORDO
100
AcDbLine
 62
250
  6
CONTINUOUS
 10
14.617963972
 20
22.7926116131
 11
14.6332970111
 21
22.7766856223
  0
LWPOLYLINE
  5
536
100
AcDbEntity
  8
RACCORDO
100
AcDbPolyline
 62
250
  6
CONTINUOUS
 90
35
 70
0
 10
19.8025345467
 20
19.6854353525
 10
19.814132073
 20
19.648560432
 10
19.8340695805
 20
19.5756465605
 10
19.8503835775
 20
19.5046748101
 10
19.8639793378
 20
19.4356084751
 10
19.8750370947
 20
19.3686296058
 10
19.8835644697
 20
19.3037061044
 10
19.8901641511
 20
19.2404545412
 10
19.894976565
 20
19.1788958529
 10
19.8979961045
 20
19.1191010472
 10
19.8995682426
 20
19.0607423423
 10
19.8997844215
 20
19.0037716129
 10
19.8986534745
 20
18.9482952196
 10
19.8963756464
 20
18.8942071177
 10
19.8930145009
 20
18.8414926042
 10
19.8885919247
 20
18.7902064798
 10
19.8832370077
 20
18.7403425433
 10
19.8770082682
 20
18.6919262997
 10
19.8699245001
 20
18.6449603449
 10
19.8620504164
 20
18.5994012998
 10
19.8534437322
 20
18.5552646737
 10
19.8441146966
 20
18.5125535636
 10
19.8340527781
 20
18.4712035354
 10
19.8233031864
 20
18.4311759785
 10
19.8118796316
 20
18.3925209425
 10
19.7997236623
 20
18.3553052664
 10
19.7868712188
 20
18.3194782161
 10
19.7733413311
 20
18.2850975302
 10
19.7590541386
 20
18.2523919674
 10
19.7440426807
 20
18.2213243225
 10
19.7283265824
 20
18.1919366779
 10
19.7118114981
 20
18.1645768076
 10
19.6944832201
 20
18.1393625443
 10
19.6764023851
 20
18.1161815684
 10
19.6575865562
 20
18.0950370353
  0
LWPOLYLINE
  5
537
100
AcDbEntity
  8
SUPERFICI
100
AcDbPolyline
 62
250
  6
CONTINUOUS
 90
35
 70
0
 10
19.8025345467
 20
19.6854353525
 10
19.814132073
 20
19.648560432
 10
19.8340695805
 20
19.5756465605
 10
19.8503835775
 20
19.5046748101
 10
19.8639793378
 20
19.4356084751
 10
19.8750370947
 20
19.3686296058
 10
19.8835644697
 20
19.3037061044
 10
19.8901641511
 20
19.2404545412
 10
19.894976565
 20
19.1788958529
 10
19.8979961045
 20
19.1191010472
 10
19.8995682426
 20
19.0607423423
 10
19.8997844215
 20
19.0037716129
 10
19.8986534745
 20
18.9482952196
 10
19.8963756464
 20
18.8942071177
 10
19.8930145009
 20
18.8414926042
 10
19.8885919247
 20
18.7902064798
 10
19.8832370077
 20
18.7403425433
 10
19.8770082682
 20
18.6919262997
 10
19.8699245001
 20
18.6449603449
 10
19.8620504164
 20
18.5994012998
 10
19.8534437322
 20
18.5552646737
 10
19.8441146966
 20
18.5125535636
 10
19.8340527781
 20
18.4712035354
 10
19.8233031864
 20
18.4311759785
 10
19.8118796316
 20
18.3925209425
 10
19.7997236623
 20
18.3553052664
 10
19.7868712188
 20
18.3194782161
 10
19.7733413311
 20
18.2850975302
 10
19.7590541386
 20
18.2523919674
 10
19.7440426807
 20
18.2213243225
 10
19.7283265824
 20
18.1919366779
 10
19.7118114981
 20
18.1645768076
 10
19.6944832201
 20
18.1393625443
 10
19.6764023851
 20
18.1161815684
 10
19.6575865562
 20
18.0950370353
  0
LINE
  5
538
100
AcDbEntity
  8
RACCORDO
100
AcDbLine
 62
7
  6
CONTINUOUS
 10
15.1808954461
 20
23.3621728375
 11
14.4543980574
 21
23.7254215319
  0
LINE
  5
539
100
AcDbEntity
  8
SUPERFICI
100
AcDbLine
 62
7
  6
CONTINUOUS
 10
15.1808954461
 20
23.3621728375
 11
14.4543980574
 21
23.7254215319
  0
LINE
  5
53A
100
AcDbEntity
  8
DRAFT
100
AcDbLine
 62
7
  6
CONTINUOUS
 10
14.9980657858
 20
23.4692475203
 11
14.6939464018
 21
23.6213072123
  0
LINE
  5
53B
100
AcDbEntity
  8
SUPERFICI
100
AcDbLine
 62
7
  6
CONTINUOUS
 10
14.9980657858
 20
23.4692475203
 11
14.6939464018
 21
23.6213072123
  0
LINE
  5
53C
100
AcDbEntity
  8
DRAFT
100
AcDbLine
 62
7
  6
CONTINUOUS
 10
17.3926658195
 20
24.1010339321
 11
14.2804282467
 21
25.6571527185
  0
LINE
  5
53D
100
AcDbEntity
  8
SUPERFICI
100
AcDbLine
 62
7
  6
CONTINUOUS
 10
17.3926658195
 20
24.1010339321
 11
14.2804282467
 21
25.6571527185
  0
LWPOLYLINE
  5
53E
100
AcDbEntity
  8
DRAFT
100
AcDbPolyline
 62
7
  6
CONTINUOUS
 90
10
 70
0
 10
14.9980657858
 20
23.4692475203
 10
14.9666503313
 20
23.4873003325
 10
14.9346333541
 20
23.505067635
 10
14.9020148539
 20
23.5225494275
 10
14.8687846632
 20
23.5397507942
 10
14.8349529496
 20
23.556666651
 10
14.8005502163
 20
23.5732817463
 10
14.7655866312
 20
23.5895909964
 10
14.7300520263
 20
23.605599485
 10
14.6939464018
 20
23.6213072123
  0
LWPOLYLINE
  5
53F
100
AcDbEntity
  8
SUPERFICI
100
AcDbPolyline
 62
7
  6
CONTINUOUS
 90
10
 70
0
 10
14.9980657858
 20
23.4692475203
 10
14.9666503313
 20
23.4873003325
 10
14.9346333541
 20
23.505067635
 10
14.9020148539
 20
23.5225494275
 10
14.8687846632
 20
23.5397507942
 10
14.8349529496
 20
23.556666651
 10
14.8005502163
 20
23.5732817463
 10
14.7655866312
 20
23.5895909964
 10
14.7300520263
 20
23.605599485
 10
14.6939464018
 20
23.6213072123
  0
LWPOLYLINE
  5
540
100
AcDbEntity
  8
RACCORDO
100
AcDbPolyline
 62
7
  6
CONTINUOUS
 90
35
 70
0
 10
19.8025345467
 20
21.7675234243
 10
19.9193080754
 20
21.690421318
 10
20.0591047489
 20
21.5859076718
 10
20.1958426047
 20
21.4713790747
 10
20.3287080482
 20
21.3476625702
 10
20.4570935014
 20
21.2155157952
 10
20.5806751016
 20
21.0754483892
 10
20.6990552629
 20
20.9280428855
 10
20.811809646
 20
20.773931996
 10
20.9184852121
 20
20.6138252119
 10
21.0186422241
 20
20.4484694548
 10
21.1118581679
 20
20.278651693
 10
21.1978112905
 20
20.1050336624
 10
21.2762266722
 20
19.9281957037
 10
21.3467933472
 20
19.7488051399
 10
21.4091679295
 20
19.5676705799
 10
21.4630526656
 20
19.3855752849
 10
21.5081893887
 20
19.2032707019
 10
21.5443482914
 20
19.0214938648
 10
21.5713240354
 20
18.840970405
 10
21.5889438407
 20
18.6622679527
 10
21.5970167418
 20
18.486271437
 10
21.5954166801
 20
18.3140911962
 10
21.584069308
 20
18.1461752208
 10
21.5629347057
 20
17.9833982845
 10
21.5322053517
 20
17.8273046441
 10
21.4921008593
 20
17.6785626794
 10
21.4427745111
 20
17.5374697489
 10
21.3845793914
 20
17.404803659
 10
21.3177710077
 20
17.2809063082
 10
21.2427022941
 20
17.16624721
 10
21.1601125887
 20
17.0616495719
 10
21.0706734177
 20
16.9675222325
 10
20.9748491093
 20
16.8839416726
 10
20.8732576398
 20
16.8110927471
  0
LWPOLYLINE
  5
541
100
AcDbEntity
  8
SUPERFICI
100
AcDbPolyline
 62
7
  6
CONTINUOUS
 90
35
 70
0
 10
19.8025345467
 20
21.7675234243
 10
19.9193080754
 20
21.690421318
 10
20.0591047489
 20
21.5859076718
 10
20.1958426047
 20
21.4713790747
 10
20.3287080482
 20
21.3476625702
 10
20.4570935014
 20
21.2155157952
 10
20.5806751016
 20
21.0754483892
 10
20.6990552629
 20
20.9280428855
 10
20.811809646
 20
20.773931996
 10
20.9184852121
 20
20.6138252119
 10
21.0186422241
 20
20.4484694548
 10
21.1118581679
 20
20.278651693
 10
21.1978112905
 20
20.1050336624
 10
21.2762266722
 20
19.9281957037
 10
21.3467933472
 20
19.7488051399
 10
21.4091679295
 20
19.5676705799
 10
21.4630526656
 20
19.3855752849
 10
21.5081893887
 20
19.2032707019
 10
21.5443482914
 20
19.0214938648
 10
21.5713240354
 20
18.840970405
 10
21.5889438407
 20
18.6622679527
 10
21.5970167418
 20
18.486271437
 10
21.5954166801
 20
18.3140911962
 10
21.584069308
 20
18.1461752208
 10
21.5629347057
 20
17.9833982845
 10
21.5322053517
 20
17.8273046441
 10
21.4921008593
 20
17.6785626794
 10
21.4427745111
 20
17.5374697489
 10
21.3845793914
 20
17.404803659
 10
21.3177710077
 20
17.2809063082
 10
21.2427022941
 20
17.16624721
 10
21.1601125887
 20
17.0616495719
 10
21.0706734177
 20
16.9675222325
 10
20.9748491093
 20
16.8839416726
 10
20.8732576398
 20
16.8110927471
  0
LWPOLYLINE
  5
542
100
AcDbEntity
  8
RACCORDO
100
AcDbPolyline
 62
250
  6
CONTINUOUS
 90
34
 70
0
 10
19.8025345467
 20
21.6889129033
 10
19.8806296375
 20
21.6334010998
 10
20.0177705074
 20
21.5239454906
 10
20.152312999
 20
21.4044200171
 10
20.2836295779
 20
21.2753821683
 10
20.4111077364
 20
21.13743382
 10
20.5341528732
 20
20.9912184094
 10
20.6521910686
 20
20.8374179306
 10
20.7646717631
 20
20.6767497486
 10
20.8710703178
 20
20.5099632612
 10
20.9708904608
 20
20.3378364057
 10
21.0636666021
 20
20.1611720309
 10
21.1489660074
 20
19.98079415
 10
21.2263908162
 20
19.7975440961
 10
21.295579898
 20
19.6122765983
 10
21.3562105357
 20
19.4258557952
 10
21.4079999312
 20
19.2391512054
 10
21.4507065242
 20
19.0530336712
 10
21.4841311193
 20
18.8683712969
 10
21.5081178148
 20
18.6860253991
 10
21.5225547301
 20
18.5068464901
 10
21.5273745274
 20
18.3316703101
 10
21.5225547258
 20
18.1613139296
 10
21.5081178062
 20
17.9965719385
 10
21.4841311064
 20
17.8382127391
 10
21.4507065071
 20
17.6869749629
 10
21.4079999098
 20
17.5435640251
 10
21.3562105102
 20
17.4086488345
 10
21.2955798684
 20
17.2828586732
 10
21.2263907826
 20
17.1667802614
 10
21.14896597
 20
17.060955021
 10
21.0636665609
 20
16.9658765501
 10
20.9708904158
 20
16.8819883217
 10
20.8732576398
 20
16.8110927471
  0
LWPOLYLINE
  5
543
100
AcDbEntity
  8
SUPERFICI
100
AcDbPolyline
 62
250
  6
CONTINUOUS
 90
34
 70
0
 10
19.8025345467
 20
21.6889129033
 10
19.8806296375
 20
21.6334010998
 10
20.0177705074
 20
21.5239454906
 10
20.152312999
 20
21.4044200171
 10
20.2836295779
 20
21.2753821683
 10
20.4111077364
 20
21.13743382
 10
20.5341528732
 20
20.9912184094
 10
20.6521910686
 20
20.8374179306
 10
20.7646717631
 20
20.6767497486
 10
20.8710703178
 20
20.5099632612
 10
20.9708904608
 20
20.3378364057
 10
21.0636666021
 20
20.1611720309
 10
21.1489660074
 20
19.98079415
 10
21.2263908162
 20
19.7975440961
 10
21.295579898
 20
19.6122765983
 10
21.3562105357
 20
19.4258557952
 10
21.4079999312
 20
19.2391512054
 10
21.4507065242
 20
19.0530336712
 10
21.4841311193
 20
18.8683712969
 10
21.5081178148
 20
18.6860253991
 10
21.5225547301
 20
18.5068464901
 10
21.5273745274
 20
18.3316703101
 10
21.5225547258
 20
18.1613139296
 10
21.5081178062
 20
17.9965719385
 10
21.4841311064
 20
17.8382127391
 10
21.4507065071
 20
17.6869749629
 10
21.4079999098
 20
17.5435640251
 10
21.3562105102
 20
17.4086488345
 10
21.2955798684
 20
17.2828586732
 10
21.2263907826
 20
17.1667802614
 10
21.14896597
 20
17.060955021
 10
21.0636665609
 20
16.9658765501
 10
20.9708904158
 20
16.8819883217
 10
20.8732576398
 20
16.8110927471
  0
LINE
  5
544
100
AcDbEntity
  8
RACCORDO
100
AcDbLine
 62
250
  6
CONTINUOUS
 10
18.7914336722
 20
23.9828520387
 11
19.2109768831
 21
23.2592470372
  0
LINE
  5
545
100
AcDbEntity
  8
SUPERFICI
100
AcDbLine
 62
250
  6
CONTINUOUS
 10
18.7914336722
 20
23.9828520387
 11
19.2109768831
 21
23.2592470372
  0
LINE
  5
546
100
AcDbEntity
  8
RACCORDO
100
AcDbLine
 62
7
  6
CONTINUOUS
 10
19.1816980365
 20
23.9772422248
 11
19.528535807
 21
23.3790355589
  0
LINE
  5
547
100
AcDbEntity
  8
SUPERFICI
100
AcDbLine
 62
7
  6
CONTINUOUS
 10
19.1816980365
 20
23.9772422248
 11
19.528535807
 21
23.3790355589
  0
LWPOLYLINE
  5
548
100
AcDbEntity
  8
RACCORDO
100
AcDbPolyline
 62
250
  6
CONTINUOUS
 90
13
 70
0
 10
19.2109768831
 20
23.2592470372
 10
19.2627461325
 20
23.1656665198
 10
19.310789483
 20
23.0699470652
 10
19.3549012054
 20
22.9724985588
 10
19.3948924066
 20
22.8737382896
 10
19.4305918379
 20
22.7740891646
 10
19.4618466282
 20
22.6739778979
 10
19.4885229399
 20
22.5738331812
 10
19.5105065407
 20
22.4740838496
 10
19.5277032935
 20
22.3751570462
 10
19.5400395593
 20
22.277476391
 10
19.5474625125
 20
22.1814601671
 10
19.549940367
 20
22.0875195308
  0
LWPOLYLINE
  5
549
100
AcDbEntity
  8
SUPERFICI
100
AcDbPolyline
 62
250
  6
CONTINUOUS
 90
13
 70
0
 10
19.2109768831
 20
23.2592470372
 10
19.2627461325
 20
23.1656665198
 10
19.310789483
 20
23.0699470652
 10
19.3549012054
 20
22.9724985588
 10
19.3948924066
 20
22.8737382896
 10
19.4305918379
 20
22.7740891646
 10
19.4618466282
 20
22.6739778979
 10
19.4885229399
 20
22.5738331812
 10
19.5105065407
 20
22.4740838496
 10
19.5277032935
 20
22.3751570462
 10
19.5400395593
 20
22.277476391
 10
19.5474625125
 20
22.1814601671
 10
19.549940367
 20
22.0875195308
  0
LINE
  5
54A
100
AcDbEntity
  8
RACCORDO
100
AcDbLine
 62
250
  6
CONTINUOUS
 10
18.7914336722
 20
23.9828520387
 11
17.9857617361
 21
24.3856880067
  0
LINE
  5
54B
100
AcDbEntity
  8
SUPERFICI
100
AcDbLine
 62
250
  6
CONTINUOUS
 10
18.7914336722
 20
23.9828520387
 11
17.9857617361
 21
24.3856880067
  0
LINE
  5
54C
100
AcDbEntity
  8
RACCORDO
100
AcDbLine
 62
250
  6
CONTINUOUS
 10
13.284098657
 20
26.7365195463
 11
12.3129398233
 21
27.2220989631
  0
LINE
  5
54D
100
AcDbEntity
  8
SUPERFICI
100
AcDbLine
 62
250
  6
CONTINUOUS
 10
13.284098657
 20
26.7365195463
 11
12.3129398233
 21
27.2220989631
  0
LINE
  5
54E
100
AcDbEntity
  8
SUPERFICI
100
AcDbLine
 62
250
  6
CONTINUOUS
 10
12.7043108368
 20
27.2422332488
 11
12.7043431914
 21
27.2422170713
  0
LINE
  5
54F
100
AcDbEntity
  8
RACCORDO
100
AcDbLine
 62
7
  6
CONTINUOUS
 10
19.1217090497
 20
24.0335341428
 11
18.2959501496
 21
24.4464135929
  0
LINE
  5
550
100
AcDbEntity
  8
SUPERFICI
100
AcDbLine
 62
7
  6
CONTINUOUS
 10
19.1217090497
 20
24.0335341428
 11
18.2959501496
 21
24.4464135929
  0
LINE
  5
551
100
AcDbEntity
  8
RACCORDO
100
AcDbLine
 62
7
  6
CONTINUOUS
 10
13.7566814285
 20
26.7160479534
 11
12.7043254158
 21
27.2422259597
  0
LINE
  5
552
100
AcDbEntity
  8
SUPERFICI
100
AcDbLine
 62
7
  6
CONTINUOUS
 10
13.7566814285
 20
26.7160479534
 11
12.7043254158
 21
27.2422259597
  0
LWPOLYLINE
  5
553
100
AcDbEntity
  8
RACCORDO
100
AcDbPolyline
 62
7
  6
CONTINUOUS
 90
4
 70
0
 10
19.1236346016
 20
24.0325711695
 10
19.1372780777
 20
24.0247564276
 10
19.1608137742
 20
24.0053841492
 10
19.180991917
 20
23.9785063176
  0
LWPOLYLINE
  5
554
100
AcDbEntity
  8
SUPERFICI
100
AcDbPolyline
 62
7
  6
CONTINUOUS
 90
4
 70
0
 10
19.1236346016
 20
24.0325711695
 10
19.1372780777
 20
24.0247564276
 10
19.1608137742
 20
24.0053841492
 10
19.180991917
 20
23.9785063176
  0
LWPOLYLINE
  5
555
100
AcDbEntity
  8
RACCORDO
100
AcDbPolyline
 62
250
  6
CONTINUOUS
 90
12
 70
0
 10
19.528535807
 20
23.3790355589
 10
19.5271766704
 20
23.380632673
 10
19.5192577523
 20
23.3831542761
 10
19.5056131598
 20
23.3822854669
 10
19.4863444431
 20
23.3780327116
 10
19.4615950102
 20
23.3704276613
 10
19.4315490591
 20
23.3595269167
 10
19.3964302077
 20
23.3454116071
 10
19.3564998287
 20
23.328186786
 10
19.3120551047
 20
23.3079806497
 10
19.2634268168
 20
23.2849435827
 10
19.2109768821
 20
23.259247039
  0
LWPOLYLINE
  5
556
100
AcDbEntity
  8
SUPERFICI
100
AcDbPolyline
 62
250
  6
CONTINUOUS
 90
12
 70
0
 10
19.528535807
 20
23.3790355589
 10
19.5271766704
 20
23.380632673
 10
19.5192577523
 20
23.3831542761
 10
19.5056131598
 20
23.3822854669
 10
19.4863444431
 20
23.3780327116
 10
19.4615950102
 20
23.3704276613
 10
19.4315490591
 20
23.3595269167
 10
19.3964302077
 20
23.3454116071
 10
19.3564998287
 20
23.328186786
 10
19.3120551047
 20
23.3079806497
 10
19.2634268168
 20
23.2849435827
 10
19.2109768821
 20
23.259247039
  0
ELLIPSE
  5
557
100
AcDbEntity
  8
RACCORDO
100
AcDbEllipse
 62
7
  6
CONTINUOUS
 10
-0.1286868064
 20
-21.6492496617
 30
0.0
 11
-0.1999840611
 21
0.4586318226
 31
0.0
 40
0.6372798266
 41
-3.1718451134
 42
-2.2231487507
  0
ELLIPSE
  5
558
100
AcDbEntity
  8
RACCORDO
100
AcDbEllipse
 62
7
  6
CONTINUOUS
 10
1.4700076408
 20
16.5108262918
 30
0.0
 11
-0.1996736685
 21
0.4584064956
 31
0.0
 40
0.6381227599
 41
-2.2220345828
 42
-0.6519234887
  0
ELLIPSE
  5
559
100
AcDbEntity
  8
RACCORDO
100
AcDbEllipse
 62
7
  6
CONTINUOUS
 10
-13.3789923733
 20
23.9353262988
 30
0.0
 11
-0.1999840611
 21
0.4586318226
 31
0.0
 40
0.6372798266
 41
-0.6516671913
 42
0.029873806
  0
ELLIPSE
  5
55A
100
AcDbEntity
  8
DRAFT
100
AcDbEllipse
 62
7
  6
CONTINUOUS
 10
12.2297110034
 20
22.7381669064
 30
0.0
 11
2.7499350056
 21
-0.0386453369
 31
0.0
 40
0.4892375088
 41
8.654981679
 42
9.2672200839
  0
ELLIPSE
  5
55B
100
AcDbEntity
  8
DRAFT
100
AcDbEllipse
 62
7
  6
CONTINUOUS
 10
12.9014624455
 20
22.6266692224
 30
0.0
 11
2.7583300471
 21
-0.038763314
 31
0.0
 40
0.4892375088
 41
0.9280596999
 42
2.3630697256
  0
ELLIPSE
  5
55C
100
AcDbEntity
  8
RACCORDO
100
AcDbEllipse
 62
7
  6
CONTINUOUS
 10
17.6071766766
 20
23.7845697395
 30
0.0
 11
0.716172246
 21
0.6416715914
 31
0.0
 40
0.2882345029
 41
0.1142323894
 42
0.7807533904
  0
ELLIPSE
  5
55D
100
AcDbEntity
  8
DRAFT
100
AcDbEllipse
 62
7
  6
CONTINUOUS
 10
12.9014624455
 20
22.6266692224
 30
0.0
 11
2.7583300471
 21
-0.038763314
 31
0.0
 40
0.4892375088
 41
0.4291477653
 42
0.6564870977
  0
ELLIPSE
  5
55E
100
AcDbEntity
  8
DRAFT
100
AcDbEllipse
 62
7
  6
CONTINUOUS
 10
12.9014624455
 20
24.5713799336
 30
0.0
 11
2.7583515655
 21
-1.4175703156
 31
0.0
 40
0.0109499087
 41
-0.9155571536
 42
-0.85781018
  0
ELLIPSE
  5
55F
100
AcDbEntity
  8
DRAFT
100
AcDbEllipse
 62
7
  6
CONTINUOUS
 10
12.9014624455
 20
24.5713799336
 30
0.0
 11
2.7583515655
 21
-1.4175703156
 31
0.0
 40
0.0109499087
 41
-0.7017315251
 42
-0.6439845515
  0
ELLIPSE
  5
560
100
AcDbEntity
  8
0
100
AcDbEllipse
 62
7
  6
CONTINUOUS
 10
12.2059721844
 20
23.9199290391
 30
0.0
 11
3.3311333813
 21
-0.0467042088
 31
0.0
 40
0.4892378494
 41
2.3616770883
 42
5.5059722822
  0
ELLIPSE
  5
561
100
AcDbEntity
  8
DRAFT
100
AcDbEllipse
 62
7
  6
CONTINUOUS
 10
12.9014624455
 20
23.0596819243
 30
0.0
 11
2.7583300471
 21
-0.038763314
 31
0.0
 40
0.4892375088
 41
0.1708839954
 42
2.3630697256
  0
ELLIPSE
  5
562
100
AcDbEntity
  8
RACCORDO
100
AcDbEllipse
 62
7
  6
CONTINUOUS
 10
13.6404704296
 20
25.767922863
 30
0.0
 11
-0.2796057293
 21
0.9974617846
 31
0.0
 40
0.6760995073
 41
4.8467711056
 42
6.4001141399
  0
ELLIPSE
  5
563
100
AcDbEntity
  8
ASSI
100
AcDbEllipse
 62
7
  6
CONTINUOUS
 10
4.0148758908
 20
-19.8257875924
 30
0.0
 11
-0.2237009107
 21
0.4473351135
 31
0.0
 40
0.6121897086
 41
-3.1230684064
 42
-2.2557347926
  0
ELLIPSE
  5
564
100
AcDbEntity
  8
ASSI
100
AcDbEllipse
 62
7
  6
CONTINUOUS
 10
4.0148758908
 20
18.0757601141
 30
0.0
 11
-0.2235807756
 21
0.4472283268
 31
0.0
 40
0.6125552124
 41
-2.255296188
 42
-0.6848044477
  0
ELLIPSE
  5
565
100
AcDbEntity
  8
ASSI
100
AcDbEllipse
 62
7
  6
CONTINUOUS
 10
0.5885205788
 20
18.3140359227
 30
0.0
 11
0.2497264901
 21
-0.0900037588
 31
0.0
 40
0.1298948903
 41
-2.3094133153
 42
-0.756070281
  0
ELLIPSE
  5
566
100
AcDbEntity
  8
ASSI
100
AcDbEllipse
 62
7
  6
CONTINUOUS
 10
0.3949562927
 20
18.4108180658
 30
0.0
 11
0.2497264901
 21
-0.0900037588
 31
0.0
 40
0.1298948903
 41
-3.0936186356
 42
-2.3094133153
  0
ELLIPSE
  5
567
100
AcDbEntity
  8
ASSI
100
AcDbEllipse
 62
7
  6
CONTINUOUS
 10
-11.9979801264
 20
24.6072862753
 30
0.0
 11
0.2497264901
 21
-0.0900037588
 31
0.0
 40
0.1298948903
 41
-2.3094133153
 42
-0.756070281
  0
ELLIPSE
  5
568
100
AcDbEntity
  8
ASSI
100
AcDbEllipse
 62
7
  6
CONTINUOUS
 10
-12.1915444125
 20
24.7040684183
 30
0.0
 11
0.2497264901
 21
-0.0900037588
 31
0.0
 40
0.1298948903
 41
-3.0936186356
 42
-2.3094133153
  0
ELLIPSE
  5
569
100
AcDbEntity
  8
ASSI
100
AcDbEllipse
 62
7
  6
CONTINUOUS
 10
9.2655153361
 20
21.9372642449
 30
0.0
 11
0.4349639225
 21
0.9005141702
 31
0.0
 40
0.6016116119
 41
-0.8943064336
 42
-0.6381625531
  0
ELLIPSE
  5
56A
100
AcDbEntity
  8
ASSI
100
AcDbEllipse
 62
7
  6
CONTINUOUS
 10
9.2655153361
 20
-14.7957955448
 30
0.0
 11
0.4349639225
 21
0.9005141702
 31
0.0
 40
0.6016116119
 41
-1.150450314
 42
-0.9391738336
  0
ELLIPSE
  5
56B
100
AcDbEntity
  8
ASSI
100
AcDbEllipse
 62
7
  6
CONTINUOUS
 10
9.4411645877
 20
-14.8836201706
 30
0.0
 11
0.9927147821
 21
0.620457446
 31
0.0
 40
0.0764819879
 41
-2.3927159682
 42
-1.0955168143
  0
ELLIPSE
  5
56C
100
AcDbEntity
  8
ASSI
100
AcDbEllipse
 62
7
  6
CONTINUOUS
 10
-2.30585872
 20
27.7229512729
 30
0.0
 11
1.004787277
 21
0.6140102217
 31
0.0
 40
0.0864918533
 41
0.0543763766
 42
0.7212730538
  0
ELLIPSE
  5
56D
100
AcDbEntity
  8
ASSI
100
AcDbEllipse
 62
7
  6
CONTINUOUS
 10
-4.2952409098
 20
23.7961518074
 30
0.0
 11
-0.1172693628
 21
0.2208586762
 31
0.0
 40
0.5994421146
 41
-2.2699607138
 42
-0.6994689735
  0
ELLIPSE
  5
56E
100
AcDbEntity
  8
ASSI
100
AcDbEllipse
 62
7
  6
CONTINUOUS
 10
4.8523033047
 20
74.6815600517
 30
0.0
 11
3.5378457856
 21
99.5794032239
 31
0.0
 40
0.0069684374
 41
4.1704972465
 42
4.1714623644
  0
ELLIPSE
  5
56F
100
AcDbEntity
  8
ASSI
100
AcDbEllipse
 62
7
  6
CONTINUOUS
 10
-2.7868920459
 20
23.0419773755
 30
0.0
 11
-0.1174113663
 21
0.2209958577
 31
0.0
 40
0.5985429242
 41
-0.6989839728
 42
-0.0337839605
  0
ELLIPSE
  5
570
100
AcDbEntity
  8
ASSI
100
AcDbEllipse
 62
7
  6
CONTINUOUS
 10
2.6614688647
 20
23.4476701669
 30
0.0
 11
1.000203771
 21
-0.0143477891
 31
0.0
 40
0.4891226537
 41
-0.7775824994
 42
-0.0140546088
  0
ELLIPSE
  5
571
100
AcDbEntity
  8
0
100
AcDbEllipse
 62
7
  6
CONTINUOUS
 10
-0.1093508065
 20
17.724273196
 30
0.0
 11
-0.0888806443
 21
0.1794588445
 31
0.0
 40
0.6133070172
 41
-2.0943865177
 42
-0.6816034901
  0
ELLIPSE
  5
572
100
AcDbEntity
  8
ASSI
100
AcDbEllipse
 62
7
  6
CONTINUOUS
 10
-0.9578304657
 20
77.5866269369
 30
0.0
 11
0.7093717925
 21
100.9935570733
 31
0.0
 40
0.0069790045
 41
-2.1156864167
 42
-2.111971229
  0
ELLIPSE
  5
573
100
AcDbEntity
  8
ASSI
100
AcDbEllipse
 62
7
  6
CONTINUOUS
 10
-0.9578304657
 20
24.7486772881
 30
0.0
 11
1.0
 21
0.0
 31
0.0
 40
0.5003427338
 41
0.7857407797
 42
1.3334966153
  0
ELLIPSE
  5
574
100
AcDbEntity
  8
ASSI
100
AcDbEllipse
 62
7
  6
CONTINUOUS
 10
-0.9578304657
 20
25.2573198321
 30
0.0
 11
0.9999753489
 21
-0.014348771
 31
0.0
 40
0.4893460778
 41
1.5857281126
 42
2.3628734463
  0
ELLIPSE
  5
575
100
AcDbEntity
  8
ASSI
100
AcDbEllipse
 62
7
  6
CONTINUOUS
 10
2.6401738836
 20
22.9496751135
 30
0.0
 11
1.0006854676
 21
0.0
 31
0.0
 40
0.499657501
 41
0.4959893425
 42
0.7850555471
  0
ELLIPSE
  5
576
100
AcDbEntity
  8
ASSI
100
AcDbEllipse
 62
7
  6
CONTINUOUS
 10
0.1889955557
 20
18.7891721302
 30
0.0
 11
0.249929385
 21
0.0111824824
 31
0.0
 40
0.5313301283
 41
3.1180383302
 42
3.9032222197
  0
ELLIPSE
  5
577
100
AcDbEntity
  8
ASSI
100
AcDbEllipse
 62
7
  6
CONTINUOUS
 10
2.2086948781
 20
17.779322469
 30
0.0
 11
0.249929385
 21
0.0111824824
 31
0.0
 40
0.5313301283
 41
-2.3799630874
 42
-0.8266200532
  0
ELLIPSE
  5
578
100
AcDbEntity
  8
ASSI
100
AcDbEllipse
 62
7
  6
CONTINUOUS
 10
-10.377805827
 20
24.0725728215
 30
0.0
 11
0.249929385
 21
0.0111824824
 31
0.0
 40
0.5313301283
 41
-2.3799630874
 42
-0.8266200532
  0
ELLIPSE
  5
579
100
AcDbEntity
  8
ASSI
100
AcDbEllipse
 62
7
  6
CONTINUOUS
 10
-12.3975051494
 20
25.0824224827
 30
0.0
 11
0.249929385
 21
0.0111824824
 31
0.0
 40
0.5313301283
 41
3.1180383322
 42
3.9032222197
  0
ELLIPSE
  5
57A
100
AcDbEntity
  8
ASSI
100
AcDbEllipse
 62
7
  6
CONTINUOUS
 10
2.2086948781
 20
-21.4627155602
 30
0.0
 11
0.220014872
 21
0.1791173313
 31
0.0
 40
0.6627826692
 41
-2.8510033574
 42
-2.6599685648
  0
ELLIPSE
  5
57B
100
AcDbEntity
  8
ASSI
100
AcDbEllipse
 62
7
  6
CONTINUOUS
 10
0.5885205788
 20
-21.8597351917
 30
0.0
 11
0.220014872
 21
0.1791173313
 31
0.0
 40
0.6627826692
 41
-1.8038058062
 42
-1.2976603231
  0
ELLIPSE
  5
57C
100
AcDbEntity
  8
ASSI
100
AcDbEllipse
 62
7
  6
CONTINUOUS
 10
-3.7118225915
 20
21.4544497907
 30
0.0
 11
0.199943508
 21
0.008945986
 31
0.0
 40
0.5313301283
 41
3.1180383302
 42
3.9032222197
  0
ELLIPSE
  5
57D
100
AcDbEntity
  8
ASSI
100
AcDbEllipse
 62
7
  6
CONTINUOUS
 10
-1.4211741944
 20
20.3091255921
 30
0.0
 11
0.199943508
 21
0.008945986
 31
0.0
 40
0.5313301283
 41
-2.3799630874
 42
-0.8266200532
  0
ELLIPSE
  5
57E
100
AcDbEntity
  8
ASSI
100
AcDbEllipse
 62
7
  6
CONTINUOUS
 10
-5.1334847956
 20
22.1652808928
 30
0.0
 11
0.199943508
 21
0.008945986
 31
0.0
 40
0.5313301283
 41
-2.3799630874
 42
-0.8266200532
  0
ELLIPSE
  5
57F
100
AcDbEntity
  8
ASSI
100
AcDbEllipse
 62
7
  6
CONTINUOUS
 10
-7.4241331927
 20
23.3106050913
 30
0.0
 11
0.199943508
 21
0.008945986
 31
0.0
 40
0.5313301283
 41
3.1180383322
 42
3.9032222197
  0
ELLIPSE
  5
580
100
AcDbEntity
  8
ASSI
100
AcDbEllipse
 62
7
  6
CONTINUOUS
 10
-12.7739734911
 20
24.6489263961
 30
0.0
 11
-0.2236507175
 21
0.4481039483
 31
0.0
 40
0.6114248242
 41
-0.6832297371
 42
0.8861965936
  0
ELLIPSE
  5
581
100
AcDbEntity
  8
ASSI
100
AcDbEllipse
 62
7
  6
CONTINUOUS
 10
2.2316098292
 20
17.146134736
 30
0.0
 11
-0.2231080361
 21
0.4476242326
 31
0.0
 40
0.6130677323
 41
-2.2534169372
 42
-0.6839906064
  0
ELLIPSE
  5
582
100
AcDbEntity
  8
ASSI
100
AcDbEllipse
 62
7
  6
CONTINUOUS
 10
2.2316098292
 20
-20.6484300587
 30
0.0
 11
-0.2236507175
 21
0.4481039483
 31
0.0
 40
0.6114248242
 41
2.4583629164
 42
4.0277892472
  0
ELLIPSE
  5
583
100
AcDbEntity
  8
0
100
AcDbEllipse
 62
7
  6
CONTINUOUS
 10
-10.4330128554
 20
22.8861042205
 30
0.0
 11
-0.0892456481
 21
0.1797773143
 31
0.0
 40
0.6105754279
 41
5.6028239993
 42
7.0156070268
  0
ELLIPSE
  5
584
100
AcDbEntity
  8
ASSI
100
AcDbEllipse
 62
7
  6
CONTINUOUS
 10
15.0182986308
 20
29.3758553105
 30
0.0
 11
18.2927339069
 21
9.4748417608
 31
0.0
 40
0.0170707209
 41
-2.6536573066
 42
-2.3141694431
  0
ELLIPSE
  5
585
100
AcDbEntity
  8
ASSI
100
AcDbEllipse
 62
7
  6
CONTINUOUS
 10
15.0182986308
 20
29.3758553105
 30
0.0
 11
18.2927339069
 21
9.4748417608
 31
0.0
 40
0.0170707209
 41
2.2964861198
 42
2.6359739833
  0
ELLIPSE
  5
586
100
AcDbEntity
  8
ASSI
100
AcDbEllipse
 62
7
  6
CONTINUOUS
 10
1.8343213101
 20
25.9283866805
 30
0.0
 11
0.2002571891
 21
-0.0481060446
 31
0.0
 40
0.261363135
 41
-0.7257858084
 42
0.0669778862
  0
ELLIPSE
  5
587
100
AcDbEntity
  8
RACCORDO
100
AcDbEllipse
 62
7
  6
CONTINUOUS
 10
0.3148163059
 20
-16.2078249669
 30
0.0
 11
-0.2685822327
 21
0.5369844567
 31
0.0
 40
0.6119614214
 41
-3.1700942144
 42
-2.2560086979
  0
ELLIPSE
  5
588
100
AcDbEntity
  8
ASSI
100
AcDbEllipse
 62
7
  6
CONTINUOUS
 10
0.5885205788
 20
-21.2339021668
 30
0.0
 11
0.220014872
 21
0.1791173313
 31
0.0
 40
0.6627826692
 41
-2.8510033574
 42
-1.2976603231
  0
ELLIPSE
  5
589
100
AcDbEntity
  8
ASSI
100
AcDbEllipse
 62
7
  6
CONTINUOUS
 10
9.4411645877
 20
21.8494396191
 30
0.0
 11
-0.7356038977
 21
1.2035991204
 31
0.0
 40
0.5552491559
 41
4.9268361304
 42
6.2240352843
  0
ELLIPSE
  5
58A
100
AcDbEntity
  8
SUPERFICI
100
AcDbEllipse
 62
7
  6
CONTINUOUS
 10
12.9014624455
 20
22.6266692224
 30
0.0
 11
2.7583300471
 21
-0.038763314
 31
0.0
 40
0.4892375088
 41
0.4291477653
 42
0.6564870977
  0
ELLIPSE
  5
58B
100
AcDbEntity
  8
SUPERFICI
100
AcDbEllipse
 62
7
  6
CONTINUOUS
 10
12.9014624455
 20
22.6266692224
 30
0.0
 11
2.7583300471
 21
-0.038763314
 31
0.0
 40
0.4892375088
 41
0.9280596999
 42
2.3630697256
  0
ELLIPSE
  5
58C
100
AcDbEntity
  8
SUPERFICI
100
AcDbEllipse
 62
7
  6
CONTINUOUS
 10
12.2297110034
 20
22.7381669064
 30
0.0
 11
2.7499350056
 21
-0.0386453369
 31
0.0
 40
0.4892375088
 41
8.654981679
 42
9.2672200839
  0
ELLIPSE
  5
58D
100
AcDbEntity
  8
SUPERFICI
100
AcDbEllipse
 62
7
  6
CONTINUOUS
 10
17.6071766766
 20
23.7845697395
 30
0.0
 11
0.716172246
 21
0.6416715914
 31
0.0
 40
0.2882345029
 41
0.1142323894
 42
0.7807533904
  0
ELLIPSE
  5
58E
100
AcDbEntity
  8
SUPERFICI
100
AcDbEllipse
 62
7
  6
CONTINUOUS
 10
13.6404704296
 20
25.767922863
 30
0.0
 11
-0.2796057293
 21
0.9974617846
 31
0.0
 40
0.6760995073
 41
4.8467711056
 42
6.4001141399
  0
ELLIPSE
  5
58F
100
AcDbEntity
  8
SUPERFICI
100
AcDbEllipse
 62
7
  6
CONTINUOUS
 10
12.9014624455
 20
24.5713799336
 30
0.0
 11
2.7583515655
 21
-1.4175703156
 31
0.0
 40
0.0109499087
 41
-0.9155571536
 42
-0.85781018
  0
ELLIPSE
  5
590
100
AcDbEntity
  8
SUPERFICI
100
AcDbEllipse
 62
7
  6
CONTINUOUS
 10
12.9014624455
 20
24.5713799336
 30
0.0
 11
2.7583515655
 21
-1.4175703156
 31
0.0
 40
0.0109499087
 41
-0.7017315251
 42
-0.6439845515
  0
ELLIPSE
  5
591
100
AcDbEntity
  8
SUPERFICI
100
AcDbEllipse
 62
7
  6
CONTINUOUS
 10
12.2059721844
 20
23.9199290391
 30
0.0
 11
3.3311333813
 21
-0.0467042088
 31
0.0
 40
0.4892378494
 41
2.3616770883
 42
5.5059722822
  0
ELLIPSE
  5
592
100
AcDbEntity
  8
SUPERFICI
100
AcDbEllipse
 62
7
  6
CONTINUOUS
 10
12.9014624455
 20
23.0596819243
 30
0.0
 11
2.7583300471
 21
-0.038763314
 31
0.0
 40
0.4892375088
 41
0.1708839954
 42
2.3630697256
  0
ENDSEC
  0
SECTION
  2
OBJECTS
  0
DICTIONARY
  5
C
100
AcDbDictionary
280
0
281
1
  3
ACAD_GROUP
350
D
  3
ACAD_MLINESTYLE
350
17
  3
ACAD_LAYOUT
350
1A
  3
ACAD_PLOTSETTINGS
350
19
  3
ACAD_PLOTSTYLENAME
350
E
  0
DICTIONARY
  5
D
102
{ACAD_REACTORS
330
C
102
}
100
AcDbDictionary
280
0
281
1
  0
ACDBDICTIONARYWDFLT
  5
E
102
{ACAD_REACTORS
330
C
102
}
100
AcDbDictionary
281
1
  3
Normal
350
F
100
AcDbDictionaryWithDefault
340
F
  0
DICTIONARY
  5
17
102
{ACAD_REACTORS
330
C
102
}
100
AcDbDictionary
280
0
281
1
  3
Standard
350
18
  0
DICTIONARY
  5
19
102
{ACAD_REACTORS
330
C
102
}
100
AcDbDictionary
281
1
  0
DICTIONARY
  5
1A
102
{ACAD_REACTORS
330
C
102
}
100
AcDbDictionary
281
1
  3
Model
350
593
  3
Layout1
350
594
  0
ACDBPLACEHOLDER
  5
F
102
{ACAD_REACTORS
330
E
102
}
  0
MLINESTYLE
  5
18
102
{ACAD_REACTORS
330
17
102
}
100
AcDbMlineStyle
  2
STANDARD
 70
0
  3

 62
256
 51
90.0
 52
90.0
 71
2
 49
0.5
 62
256
  6
BYLAYER
 49
-0.5
 62
256
  6
BYLAYER
  0
LAYOUT
  5
593
102
{ACAD_REACTORS
330
1A
102
}
100
AcDbPlotSettings
  1

  2
none_device
  4
ISO_A4_(297.00_x_210.00_MM)
  6

 40
0.0
 41
0.0
 42
0.0
 43
0.0
 44
297.0
 45
210.0
 46
0.0
 47
0.0
 48
0.0
 49
0.0
140
0.0
141
0.0
142
1.0
143
1.0
 70
1024
 72
1
 73
0
 74
0
  7

 75
0
147
1.0
148
0.0
149
0.0
100
AcDbLayout
  1
Model
 70
0
 71
0
 10
0.0
 20
0.0
 11
297.0
 21
210.0
 12
0.0
 22
0.0
 32
0.0
 14
0.0
 24
0.0
 34
0.0
 15
0.0
 25
0.0
 35
0.0
146
0.0
 13
0.0
 23
0.0
 33
0.0
 16
1.0
 26
0.0
 36
0.0
 17
0.0
 27
1.0
 37
0.0
 76
0
330
223
345
0
346
0
  0
LAYOUT
  5
594
102
{ACAD_REACTORS
330
1A
102
}
100
AcDbPlotSettings
  1

  2
none_device
  4
ISO_A4_(297.00_x_210.00_MM)
  6

 40
0.0
 41
0.0
 42
0.0
 43
0.0
 44
297.0
 45
210.0
 46
0.0
 47
0.0
 48
0.0
 49
0.0
140
0.0
141
0.0
142
1.0
143
1.0
 70
0
 72
1
 73
0
 74
0
  7

 75
0
147
1.0
148
0.0
149
0.0
100
AcDbLayout
  1
Layout1
 70
0
 71
1
 10
0.0
 20
0.0
 11
297.0
 21
210.0
 12
0.0
 22
0.0
 32
0.0
 14
0.0
 24
0.0
 34
0.0
 15
0.0
 25
0.0
 35
0.0
146
0.0
 13
0.0
 23
0.0
 33
0.0
 16
1.0
 26
0.0
 36
0.0
 17
0.0
 27
1.0
 37
0.0
 76
0
330
224
345
0
346
0
  0
ENDSEC
  0
EOF
