  0
SECTION
  2
HEADER
  9
$ACADVER
  1
AC1024
  9
$DWGCODEPAGE
  3
ANSI_1252
  9
$EXTMAX
 10
297.0
 20
210.0
 30
0.0
  9
$EXTMIN
 10
0.0
 20
0.0
 30
0.0
  9
$LIMMIN
 10
0.0
 20
0.0
  9
$LIMMAX
 10
297.0
 20
210.0
  9
$VIEWCTR
 10
148.5
 20
105.0
  9
$VIEWSIZE
 40
210.0
  9
$CLAYER
  8
0
  9
$LTSCALE
 40
16.335
  9
$CELTYPE
  6
BYLAYER
  9
$DIMSCALE
 40
1.0
  9
$DIMASZ
 40
3.0
  9
$DIMEXO
 40
0.5
  9
$DIMDLI
 40
11.286
  9
$DIMEXE
 40
1.5
  9
$DIMCEN
 40
2.673
  9
$DIMLFAC
 40
1.0
  9
$DIMBLK
  1
_FILLED
  9
$DIMALT
 70
0
  9
$DIMALTF
 40
0.0393700787
  9
$DIMTXT
 40
3.0
  9
$DIMTOL
 70
1
  9
$DIMLIM
 70
0
  9
$DIMTFAC
 40
1.0
  9
$DIMTP
 40
0.01
  9
$DIMTM
 40
0.01
  9
$DIMGAP
 40
0.625
  9
$DIMDSEP
 70
44
  9
$AUNITS
 70
0
  9
$PDMODE
 70
3
  9
$PDSIZE
 40
3.0
  9
$HANDSEED
  5
539
  9
$TILEMODE
 70
1
  9
$MEASUREMENT
 70
1
  9
$INSUNITS
 70
4
  0
ENDSEC
  0
SECTION
  2
CLASSES
  0
CLASS
  1
ACDBDICTIONARYWDFLT
  2
AcDbDictionaryWithDefault
  3
AutoCAD 2000
 90
0
 91
1
280
0
281
0
  0
CLASS
  1
ACDBPLACEHOLDER
  2
AcDbPlaceHolder
  3
AutoCAD 2000
 90
0
 91
1
280
0
281
0
  0
CLASS
  1
LAYOUT
  2
AcDbLayout
  3
AutoCAD 2000
 90
0
 91
0
280
0
281
0
  0
ENDSEC
  0
SECTION
  2
TABLES
  0
TABLE
  2
VPORT
  5
8
100
AcDbSymbolTable
 70
2
  0
VPORT
  5
1F4
100
AcDbSymbolTableRecord
100
AcDbViewportTableRecord
  2
*ACTIVE
 70
0
 10
0.0
 20
0.0
 11
1.0
 21
1.0
 12
148.5
 22
105.0
 13
0.0
 23
0.0
 14
1.0
 24
1.0
 15
0.0
 25
0.0
 16
0.0
 26
0.0
 36
1.0
 17
0.0
 27
0.0
 37
0.0
 40
210.0
 41
1.4142857143
 42
50.0
 43
0.0
 44
0.0
 50
0.0
 51
0.0
 71
0
 72
100
 73
1
 74
1
 75
0
 76
0
 77
0
 78
0
  0
ENDTAB
  0
TABLE
  2
LTYPE
  5
5
100
AcDbSymbolTable
 70
6
  0
LTYPE
  5
14
100
AcDbSymbolTableRecord
100
AcDbLinetypeTableRecord
  2
BYBLOCK
 70
0
  3

 72
65
 73
0
 40
0.0
  0
LTYPE
  5
15
100
AcDbSymbolTableRecord
100
AcDbLinetypeTableRecord
  2
BYLAYER
 70
0
  3

 72
65
 73
0
 40
0.0
  0
LTYPE
  5
16
100
AcDbSymbolTableRecord
100
AcDbLinetypeTableRecord
  2
CONTINUOUS
 70
64
  3
Solid line
 72
65
 73
0
 40
0.0
  0
LTYPE
  5
1F5
100
AcDbSymbolTableRecord
100
AcDbLinetypeTableRecord
  2
CENTER
 70
64
  3
____ _ ____ _ ____ _ ____ _ ____ _ ____ _ ____
 72
65
 73
4
 40
0.6
 49
0.375
 74
0
 49
-0.075
 74
0
 49
0.075
 74
0
 49
-0.075
 74
0
  0
LTYPE
  5
1F6
100
AcDbSymbolTableRecord
100
AcDbLinetypeTableRecord
  2
HIDDEN
 70
64
  3
- - - - - - - - - - - - - - - - - - - -
 72
65
 73
2
 40
0.2
 49
0.1
 74
0
 49
-0.1
 74
0
  0
LTYPE
  5
1F7
100
AcDbSymbolTableRecord
100
AcDbLinetypeTableRecord
  2
PHANTOM
 70
64
  3
_____ _ _ _____ _ _ _____ _ _ _____
 72
65
 73
6
 40
0.8
 49
0.45
 74
0
 49
-0.05
 74
0
 49
0.1
 74
0
 49
-0.05
 74
0
 49
0.1
 74
0
 49
-0.05
 74
0
  0
LTYPE
  5
1F8
100
AcDbSymbolTableRecord
100
AcDbLinetypeTableRecord
  2
DOT
 70
64
  3
. . . . . . . . . . . . . . . . . . . .
 72
65
 73
2
 40
0.2
 49
0.1
 74
0
 49
-0.1
 74
0
  0
LTYPE
  5
1F9
100
AcDbSymbolTableRecord
100
AcDbLinetypeTableRecord
  2
DASHED
 70
64
  3
- - - - - - - - - - - - - - - - - - - -
 72
65
 73
2
 40
0.2
 49
0.1
 74
0
 49
-0.1
 74
0
  0
ENDTAB
  0
TABLE
  2
LAYER
  5
2
100
AcDbSymbolTable
 70
36
  0
LAYER
  5
10
100
AcDbSymbolTableRecord
100
AcDbLayerTableRecord
  2
0
 70
0
 62
7
  6
CONTINUOUS
370
-3
390
F
  0
LAYER
  5
1FA
100
AcDbSymbolTableRecord
100
AcDbLayerTableRecord
  2
DEFAULT_1
 70
0
 62
7
  6
CENTER
370
-3
390
F
  0
LAYER
  5
1FB
100
AcDbSymbolTableRecord
100
AcDbLayerTableRecord
  2
DEFAULT_2
 70
0
 62
7
  6
HIDDEN
370
-3
390
F
  0
LAYER
  5
1FC
100
AcDbSymbolTableRecord
100
AcDbLayerTableRecord
  2
DEFAULT_3
 70
0
 62
7
  6
PHANTOM
370
-3
390
F
  0
LAYER
  5
1FD
100
AcDbSymbolTableRecord
100
AcDbLayerTableRecord
  2
ASSI
 70
0
 62
7
  6
CONTINUOUS
370
-3
390
F
  0
LAYER
  5
1FE
100
AcDbSymbolTableRecord
100
AcDbLayerTableRecord
  2
COLORE_TOP
 70
0
 62
7
  6
CONTINUOUS
370
-3
390
F
  0
LAYER
  5
1FF
100
AcDbSymbolTableRecord
100
AcDbLayerTableRecord
  2
COORDINATE
 70
0
 62
7
  6
CONTINUOUS
370
-3
390
F
  0
LAYER
  5
200
100
AcDbSymbolTableRecord
100
AcDbLayerTableRecord
  2
COORD_ORIGINE
 70
0
 62
7
  6
CONTINUOUS
370
-3
390
F
  0
LAYER
  5
201
100
AcDbSymbolTableRecord
100
AcDbLayerTableRecord
  2
COPY_PUBLISH
 70
0
 62
7
  6
CONTINUOUS
370
-3
390
F
  0
LAYER
  5
202
100
AcDbSymbolTableRecord
100
AcDbLayerTableRecord
  2
COSMETIC
 70
0
 62
7
  6
CONTINUOUS
370
-3
390
F
  0
LAYER
  5
203
100
AcDbSymbolTableRecord
100
AcDbLayerTableRecord
  2
COSMETICHE
 70
0
 62
7
  6
CONTINUOUS
370
-3
390
F
  0
LAYER
  5
204
100
AcDbSymbolTableRecord
100
AcDbLayerTableRecord
  2
CURVE
 70
0
 62
7
  6
CONTINUOUS
370
-3
390
F
  0
LAYER
  5
205
100
AcDbSymbolTableRecord
100
AcDbLayerTableRecord
  2
DRAFT
 70
0
 62
7
  6
CONTINUOUS
370
-3
390
F
  0
LAYER
  5
206
100
AcDbSymbolTableRecord
100
AcDbLayerTableRecord
  2
IMPORTED
 70
0
 62
7
  6
CONTINUOUS
370
-3
390
F
  0
LAYER
  5
207
100
AcDbSymbolTableRecord
100
AcDbLayerTableRecord
  2
IMPORT_IGES
 70
0
 62
7
  6
CONTINUOUS
370
-3
390
F
  0
LAYER
  5
208
100
AcDbSymbolTableRecord
100
AcDbLayerTableRecord
  2
INCISIONI_LASER
 70
0
 62
7
  6
CONTINUOUS
370
-3
390
F
  0
LAYER
  5
209
100
AcDbSymbolTableRecord
100
AcDbLayerTableRecord
  2
INTFCLR_11
 70
0
 62
7
  6
CONTINUOUS
370
-3
390
F
  0
LAYER
  5
20A
100
AcDbSymbolTableRecord
100
AcDbLayerTableRecord
  2
INTF_1
 70
0
 62
7
  6
CONTINUOUS
370
-3
390
F
  0
LAYER
  5
20B
100
AcDbSymbolTableRecord
100
AcDbLayerTableRecord
  2
INTF_3
 70
0
 62
7
  6
CONTINUOUS
370
-3
390
F
  0
LAYER
  5
20C
100
AcDbSymbolTableRecord
100
AcDbLayerTableRecord
  2
NOTE
 70
0
 62
7
  6
CONTINUOUS
370
-3
390
F
  0
LAYER
  5
20D
100
AcDbSymbolTableRecord
100
AcDbLayerTableRecord
  2
PIANI
 70
0
 62
7
  6
CONTINUOUS
370
-3
390
F
  0
LAYER
  5
20E
100
AcDbSymbolTableRecord
100
AcDbLayerTableRecord
  2
PIANI_ORIGINE
 70
0
 62
7
  6
CONTINUOUS
370
-3
390
F
  0
LAYER
  5
20F
100
AcDbSymbolTableRecord
100
AcDbLayerTableRecord
  2
PIANI_SFORMO
 70
0
 62
7
  6
CONTINUOUS
370
-3
390
F
  0
LAYER
  5
210
100
AcDbSymbolTableRecord
100
AcDbLayerTableRecord
  2
PUNTI
 70
0
 62
7
  6
CONTINUOUS
370
-3
390
F
  0
LAYER
  5
211
100
AcDbSymbolTableRecord
100
AcDbLayerTableRecord
  2
RACCORDO
 70
0
 62
7
  6
CONTINUOUS
370
-3
390
F
  0
LAYER
  5
212
100
AcDbSymbolTableRecord
100
AcDbLayerTableRecord
  2
SMUSSO
 70
0
 62
7
  6
CONTINUOUS
370
-3
390
F
  0
LAYER
  5
213
100
AcDbSymbolTableRecord
100
AcDbLayerTableRecord
  2
SNAPLINE
 70
0
 62
7
  6
CONTINUOUS
370
-3
390
F
  0
LAYER
  5
214
100
AcDbSymbolTableRecord
100
AcDbLayerTableRecord
  2
SUPERFICI
 70
0
 62
7
  6
CONTINUOUS
370
-3
390
F
  0
LAYER
  5
215
100
AcDbSymbolTableRecord
100
AcDbLayerTableRecord
  2
TRASH
 70
0
 62
7
  6
CONTINUOUS
370
-3
390
F
  0
LAYER
  5
216
100
AcDbSymbolTableRecord
100
AcDbLayerTableRecord
  2
XSEC_DATUMS
 70
0
 62
7
  6
CONTINUOUS
370
-3
390
F
  0
LAYER
  5
217
100
AcDbSymbolTableRecord
100
AcDbLayerTableRecord
  2
___SHELL
 70
0
 62
7
  6
CONTINUOUS
370
-3
390
F
  0
ENDTAB
  0
TABLE
  2
STYLE
  5
3
100
AcDbSymbolTable
 70
1
  0
STYLE
  5
11
100
AcDbSymbolTableRecord
100
AcDbTextStyleTableRecord
  2
STANDARD
 70
0
 40
0.0
 41
0.8
 50
0.0
 71
0
 42
0.2
  3
txt
  4

  0
STYLE
  5
218
100
AcDbSymbolTableRecord
100
AcDbTextStyleTableRecord
  2
TEXTSTYLE_1
 70
0
 40
0.0
 41
0.8
 50
0.0
 71
0
 42
0.2
  3
gdt
  4

  0
ENDTAB
  0
TABLE
  2
VIEW
  5
6
100
AcDbSymbolTable
 70
0
  0
ENDTAB
  0
TABLE
  2
UCS
  5
7
100
AcDbSymbolTable
 70
0
  0
ENDTAB
  0
TABLE
  2
APPID
  5
9
100
AcDbSymbolTable
 70
1
  0
APPID
  5
219
100
AcDbSymbolTableRecord
100
AcDbRegAppTableRecord
  2
ACAD
 70
0
  0
ENDTAB
  0
TABLE
  2
BLOCK_RECORD
  5
1
100
AcDbSymbolTable
 70
0
  0
BLOCK_RECORD
  5
21A
100
AcDbSymbolTableRecord
100
AcDbBlockTableRecord
  2
*Model_Space
  0
BLOCK_RECORD
  5
21B
100
AcDbSymbolTableRecord
100
AcDbBlockTableRecord
  2
*Paper_Space
  0
BLOCK_RECORD
  5
21C
100
AcDbSymbolTableRecord
100
AcDbBlockTableRecord
  2
_FILLED
  0
ENDTAB
  0
TABLE
  2
DIMSTYLE
  5
A
100
AcDbSymbolTable
 70
1
100
AcDbDimStyleTable
 71
0
  0
DIMSTYLE
105
21D
100
AcDbSymbolTableRecord
100
AcDbDimStyleTableRecord
  2
STANDARD
 70
0
  3

  4

 40
1.0
 41
3.0
 42
0.5
 43
0.38
 44
1.5
 45
0.0
 46
0.0
 47
0.01
 48
0.01
140
3.0
141
0.09
142
0.0
143
25.4
144
1.0
145
0.0
146
1.0
147
0.625
 71
1
 72
0
 73
0
 74
0
 75
0
 76
0
 77
1
 78
8
 79
2
170
0
171
1
172
0
173
0
174
0
175
0
176
0
177
0
178
0
270
2
179
2
271
2
272
2
273
2
274
2
275
0
280
0
281
0
282
0
283
1
284
8
285
0
286
0
287
3
288
0
340
11
278
44
341
21C
342
21C
343
21C
344
21C
  0
ENDTAB
  0
ENDSEC
  0
SECTION
  2
BLOCKS
  0
BLOCK
  5
20
100
AcDbEntity
  8
0
100
AcDbBlockBegin
  2
*Model_Space
 70
0
 10
0.0
 20
0.0
 30
0.0
  3
*Model_Space
  1

  0
ENDBLK
  5
21
100
AcDbEntity
  8
0
100
AcDbBlockEnd
  0
BLOCK
  5
1C
100
AcDbEntity
  8
0
100
AcDbBlockBegin
  2
*Paper_Space
 70
0
 10
0.0
 20
0.0
 30
0.0
  3
*Paper_Space
  1

  0
ENDBLK
  5
1D
100
AcDbEntity
  8
0
100
AcDbBlockEnd
  0
BLOCK
  5
21E
100
AcDbEntity
  8
0
100
AcDbBlockBegin
  2
_FILLED
 70
64
 10
0.0
 20
0.0
  3
_FILLED
  1

  0
SOLID
  5
21F
100
AcDbEntity
  8
0
  6
BYBLOCK
 62
0
100
AcDbTrace
 10
0.0
 20
0.0
 11
-1.0
 21
0.3166666667
 12
-1.0
 22
-0.3166666667
 13
-1.0
 23
-0.3166666667
  0
ENDBLK
  5
220
100
AcDbEntity
  8
0
  6
BYBLOCK
 62
0
100
AcDbBlockEnd
  0
ENDSEC
  0
SECTION
  2
ENTITIES
  0
LWPOLYLINE
  5
221
100
AcDbEntity
  8
ASSI
100
AcDbPolyline
 62
7
  6
CONTINUOUS
 90
12
 70
0
 10
-13.3362596619
 20
26.5788328792
 10
-13.3547833034
 20
26.5677664621
 10
-13.3759926916
 20
26.5521251061
 10
-13.3958043588
 20
26.5340512892
 10
-13.4139649124
 20
26.513714213
 10
-13.4298161988
 20
26.4919530679
 10
-13.4436274759
 20
26.4685204433
 10
-13.4553476492
 20
26.4433130492
 10
-13.4643944949
 20
26.4175249192
 10
-13.470766433
 20
26.3914623436
 10
-13.4745635918
 20
26.3644481548
 10
-13.4755678127
 20
26.3417460094
  0
LINE
  5
222
100
AcDbEntity
  8
ASSI
100
AcDbLine
 62
7
  6
CONTINUOUS
 10
-13.3364007747
 20
26.5787575542
 11
-11.7692002842
 21
27.424298173
  0
LINE
  5
223
100
AcDbEntity
  8
ASSI
100
AcDbLine
 62
250
  6
CONTINUOUS
 10
-13.2439041536
 20
26.5746860092
 11
-11.6776534074
 21
27.4197142192
  0
LINE
  5
224
100
AcDbEntity
  8
ASSI
100
AcDbLine
 62
7
  6
CONTINUOUS
 10
-11.7649924474
 20
27.4264040507
 11
-11.7691579509
 21
27.4243210128
  0
LWPOLYLINE
  5
225
100
AcDbEntity
  8
ASSI
100
AcDbPolyline
 62
250
  6
CONTINUOUS
 90
7
 70
0
 10
-13.3362599185
 20
26.5788333566
 10
-13.3309606361
 20
26.5814167619
 10
-13.3154945678
 20
26.5863591555
 10
-13.2987618276
 20
26.5881610147
 10
-13.2810486067
 20
26.5867915209
 10
-13.2626578658
 20
26.5822740976
 10
-13.2439041536
 20
26.5746860092
  0
LINE
  5
226
100
AcDbEntity
  8
ASSI
100
AcDbLine
 62
250
  6
CONTINUOUS
 10
-11.6776534074
 20
27.4197142192
 11
-11.1349273447
 21
27.6703631003
  0
LINE
  5
227
100
AcDbEntity
  8
ASSI
100
AcDbLine
 62
7
  6
CONTINUOUS
 10
-11.7649346076
 20
27.4264308406
 11
-11.2210332492
 21
27.6776220865
  0
LWPOLYLINE
  5
228
100
AcDbEntity
  8
ASSI
100
AcDbPolyline
 62
250
  6
CONTINUOUS
 90
14
 70
0
 10
-11.1349273447
 20
27.6703631003
 10
-11.1263644452
 20
27.6741794641
 10
-11.1175828148
 20
27.6775657657
 10
-11.1086074312
 20
27.6804670527
 10
-11.0994456347
 20
27.6828318917
 10
-11.0901519363
 20
27.6845955238
 10
-11.0808252939
 20
27.6856956019
 10
-11.071502546
 20
27.6860891981
 10
-11.0622238195
 20
27.6857345866
 10
-11.0530901134
 20
27.6846017372
 10
-11.0441405743
 20
27.682667799
 10
-11.0354162523
 20
27.6799127237
 10
-11.0270117056
 20
27.6763449513
 10
-11.0258370343
 20
27.6757678872
  0
LINE
  5
229
100
AcDbEntity
  8
ASSI
100
AcDbLine
 62
7
  6
CONTINUOUS
 10
-11.1978998403
 20
27.6868431439
 11
-11.2210331801
 21
27.6776219359
  0
LWPOLYLINE
  5
22A
100
AcDbEntity
  8
ASSI
100
AcDbPolyline
 62
250
  6
CONTINUOUS
 90
6
 70
0
 10
-11.2210332492
 20
27.6776220865
 10
-11.2047119458
 20
27.6829391702
 10
-11.1882725656
 20
27.6845943575
 10
-11.1709629977
 20
27.6830230383
 10
-11.1530792984
 20
27.6782520862
 10
-11.1349273447
 20
27.6703631003
  0
LWPOLYLINE
  5
22B
100
AcDbEntity
  8
ASSI
100
AcDbPolyline
 62
250
  6
CONTINUOUS
 90
11
 70
0
 10
-13.3421904969
 20
26.4858010792
 10
-13.333404407
 20
26.4973491209
 10
-13.3243017232
 20
26.5083897179
 10
-13.3149116094
 20
26.518891022
 10
-13.3052636336
 20
26.5288215951
 10
-13.2953921822
 20
26.5381475849
 10
-13.285333087
 20
26.5468366206
 10
-13.2751185737
 20
26.554861454
 10
-13.2647837329
 20
26.5621949123
 10
-13.2543665867
 20
26.5688107134
 10
-13.2439041536
 20
26.5746860092
  0
LINE
  5
22C
100
AcDbEntity
  8
ASSI
100
AcDbLine
 62
7
  6
CONTINUOUS
 10
-12.5149842058
 20
25.4604790875
 11
-12.4815207925
 21
25.4860606358
  0
LWPOLYLINE
  5
22D
100
AcDbEntity
  8
RACCORDO
100
AcDbPolyline
 62
250
  6
CONTINUOUS
 90
20
 70
0
 10
-16.8292174316
 20
22.7335077022
 10
-16.8901257352
 20
22.6925349777
 10
-16.9501784112
 20
22.646737244
 10
-17.0090701703
 20
22.5963498583
 10
-17.06653553
 20
22.5416437854
 10
-17.1222706877
 20
22.4828890529
 10
-17.1759724827
 20
22.420381465
 10
-17.2273906795
 20
22.3544611842
 10
-17.2762518999
 20
22.2854624885
 10
-17.322294341
 20
22.2137298096
 10
-17.3653064205
 20
22.1396430094
 10
-17.405061964
 20
22.0635766248
 10
-17.4413468282
 20
21.985913722
 10
-17.4739939747
 20
21.9070624906
 10
-17.5028314875
 20
21.8274295804
 10
-17.5277068974
 20
21.7474103569
 10
-17.5485104365
 20
21.6674024051
 10
-17.5651369238
 20
21.5878089964
 10
-17.5774894111
 20
21.5090372321
 10
-17.5855011537
 20
21.4314882001
  0
LINE
  5
22E
100
AcDbEntity
  8
ASSI
100
AcDbLine
 62
7
  6
CONTINUOUS
 10
-13.1229111895
 20
25.0849796861
 11
-12.7607048342
 21
25.2996964072
  0
LINE
  5
22F
100
AcDbEntity
  8
ASSI
100
AcDbLine
 62
250
  6
CONTINUOUS
 10
-12.8876577084
 20
25.0773231477
 11
-12.7607048342
 21
25.1525810898
  0
LWPOLYLINE
  5
230
100
AcDbEntity
  8
RACCORDO
100
AcDbPolyline
 62
7
  6
CONTINUOUS
 90
18
 70
0
 10
-16.9368477587
 20
22.8110198759
 10
-17.0151659584
 20
22.7681422589
 10
-17.0883022242
 20
22.7201958839
 10
-17.1598589115
 20
22.6652378754
 10
-17.2291040505
 20
22.6037037741
 10
-17.2944111172
 20
22.5371761489
 10
-17.3554171696
 20
22.4664411548
 10
-17.412420121
 20
22.3914892966
 10
-17.4649390303
 20
22.313170598
 10
-17.5128150622
 20
22.232035197
 10
-17.5560410409
 20
22.1482746171
 10
-17.5944114967
 20
22.0623881163
 10
-17.6277879124
 20
21.9747280713
 10
-17.6559893267
 20
21.885595137
 10
-17.6788069277
 20
21.7953704523
 10
-17.6960086751
 20
21.7043100184
 10
-17.7073318853
 20
21.6126977644
 10
-17.7091232859
 20
21.5909182038
  0
LINE
  5
231
100
AcDbEntity
  8
ASSI
100
AcDbLine
 62
250
  6
CONTINUOUS
 10
-11.1781901122
 20
25.5418289886
 11
-9.5562899855
 21
26.3590325083
  0
LINE
  5
232
100
AcDbEntity
  8
ASSI
100
AcDbLine
 62
250
  6
CONTINUOUS
 10
-11.0367902951
 20
25.2979503792
 11
-9.4148901684
 21
26.115153899
  0
LWPOLYLINE
  5
233
100
AcDbEntity
  8
RACCORDO
100
AcDbPolyline
 62
250
  6
CONTINUOUS
 90
3
 70
0
 10
-16.7061957259
 20
22.8002091359
 10
-16.7677973517
 20
22.7694584145
 10
-16.8292174316
 20
22.7335077022
  0
LINE
  5
234
100
AcDbEntity
  8
ASSI
100
AcDbLine
 62
250
  6
CONTINUOUS
 10
-9.5562899855
 20
26.3590325083
 11
-9.032185519
 21
26.6189921875
  0
LINE
  5
235
100
AcDbEntity
  8
ASSI
100
AcDbLine
 62
250
  6
CONTINUOUS
 10
-9.4148901684
 20
26.115153899
 11
-8.8907857019
 21
26.3751135781
  0
LINE
  5
236
100
AcDbEntity
  8
RACCORDO
100
AcDbLine
 62
7
  6
CONTINUOUS
 10
-13.7406041245
 20
24.3898346162
 11
-16.9368874902
 21
22.811009364
  0
LINE
  5
237
100
AcDbEntity
  8
RACCORDO
100
AcDbLine
 62
250
  6
CONTINUOUS
 10
-13.5134844609
 20
24.3772699255
 11
-16.7061957023
 21
22.8002091476
  0
LWPOLYLINE
  5
238
100
AcDbEntity
  8
ASSI
100
AcDbPolyline
 62
250
  6
CONTINUOUS
 90
28
 70
0
 10
-8.8907857019
 20
26.3751135781
 10
-8.8890820421
 20
26.3759203728
 10
-8.8873492408
 20
26.3766168
 10
-8.885587298
 20
26.3772028599
 10
-8.8837852906
 20
26.3776889056
 10
-8.8819541417
 20
26.378064584
 10
-8.8801266208
 20
26.3782988352
 10
-8.8783021295
 20
26.3783870828
 10
-8.8764812663
 20
26.3783339032
 10
-8.8746985962
 20
26.3781219661
 10
-8.8729551239
 20
26.377745864
 10
-8.8712498446
 20
26.3772110044
 10
-8.8696143091
 20
26.3765162782
 10
-8.8680516577
 20
26.3756576875
 10
-8.86655875
 20
26.3746392304
 10
-8.8651577151
 20
26.3734717913
 10
-8.8638513459
 20
26.3721537229
 10
-8.8626368496
 20
26.3706866727
 10
-8.8615279758
 20
26.3690864671
 10
-8.8605261056
 20
26.3673517538
 10
-8.8596298581
 20
26.3654838852
 10
-8.8588488396
 20
26.3635027448
 10
-8.8581843261
 20
26.3614070246
 10
-8.8576350416
 20
26.3591980327
 10
-8.8572067647
 20
26.3568995769
 10
-8.8569014215
 20
26.3545195932
 10
-8.8567170859
 20
26.3520501457
 10
-8.8566537579
 20
26.3494912343
  0
LWPOLYLINE
  5
239
100
AcDbEntity
  8
ASSI
100
AcDbPolyline
 62
250
  6
CONTINUOUS
 90
14
 70
0
 10
-9.032185519
 20
26.6189921875
 10
-9.0235953446
 20
26.6228753498
 10
-9.0148003251
 20
26.6263136154
 10
-9.0058258866
 20
26.6292537239
 10
-8.9966800823
 20
26.6316463007
 10
-8.9874171569
 20
26.6334285609
 10
-8.9781347696
 20
26.6345400953
 10
-8.9688694212
 20
26.634940544
 10
-8.9596607561
 20
26.6345908526
 10
-8.9506078544
 20
26.6334633794
 10
-8.9417499364
 20
26.631538459
 10
-8.9331255542
 20
26.6287988656
 10
-8.9248234789
 20
26.625253992
 10
-8.9238520749
 20
26.6247754077
  0
LWPOLYLINE
  5
23A
100
AcDbEntity
  8
ASSI
100
AcDbPolyline
 62
7
  6
CONTINUOUS
 90
12
 70
0
 10
-10.3173409191
 20
24.735205307
 10
-10.3393736553
 20
24.7145605479
 10
-10.3632614469
 20
24.6952954538
 10
-10.3888286852
 20
24.6778028564
 10
-10.4160289355
 20
24.6624505973
 10
-10.4444435675
 20
24.6495972386
 10
-10.4732586137
 20
24.6395286654
 10
-10.5020882912
 20
24.6324313798
 10
-10.5306368538
 20
24.6284837554
 10
-10.5581739313
 20
24.6277427511
 10
-10.5842285094
 20
24.6301350803
 10
-10.5950359225
 20
24.6321250782
  0
LWPOLYLINE
  5
23B
100
AcDbEntity
  8
ASSI
100
AcDbPolyline
 62
250
  6
CONTINUOUS
 90
13
 70
0
 10
-7.5044510662
 20
24.6809124465
 10
-7.5226828788
 20
24.6699574663
 10
-7.5405683255
 20
24.6563086964
 10
-7.5578081347
 20
24.6401945172
 10
-7.5741138379
 20
24.6218845625
 10
-7.589212597
 20
24.6016852069
 10
-7.602851769
 20
24.57993444
 10
-7.614803134
 20
24.5569962107
 10
-7.6248667134
 20
24.5332543372
 10
-7.6328741165
 20
24.5091060849
 10
-7.6386913579
 20
24.484955519
 10
-7.6422210996
 20
24.4612067435
 10
-7.6434042794
 20
24.4382571391
  0
LWPOLYLINE
  5
23C
100
AcDbEntity
  8
ASSI
100
AcDbPolyline
 62
7
  6
CONTINUOUS
 90
12
 70
0
 10
-7.6197772191
 20
24.686159961
 10
-7.6221406746
 20
24.6848667354
 10
-7.6423479043
 20
24.6721592424
 10
-7.6611266584
 20
24.6572632324
 10
-7.678205636
 20
24.640378446
 10
-7.6934747021
 20
24.6215783977
 10
-7.7067051102
 20
24.601080077
 10
-7.7176936205
 20
24.579171695
 10
-7.7263647057
 20
24.5559474119
 10
-7.7326011293
 20
24.5315713959
 10
-7.7362727653
 20
24.5063691353
 10
-7.7373326739
 20
24.4833985502
  0
LINE
  5
23D
100
AcDbEntity
  8
ASSI
100
AcDbLine
 62
7
  6
CONTINUOUS
 10
-10.3173409191
 20
23.9770048609
 11
-9.4148901684
 21
24.4696792518
  0
LINE
  5
23E
100
AcDbEntity
  8
ASSI
100
AcDbLine
 62
7
  6
CONTINUOUS
 10
-7.4080303449
 20
24.8004031302
 11
-7.6198251801
 21
24.6861349577
  0
LINE
  5
23F
100
AcDbEntity
  8
ASSI
100
AcDbLine
 62
250
  6
CONTINUOUS
 10
-7.2935967488
 20
24.7946731881
 11
-7.5044510662
 21
24.6809124465
  0
LWPOLYLINE
  5
240
100
AcDbEntity
  8
ASSI
100
AcDbPolyline
 62
250
  6
CONTINUOUS
 90
9
 70
0
 10
-2.8910306424
 20
26.2728380255
 10
-2.8646642597
 20
26.286947018
 10
-2.8414891434
 20
26.3023198299
 10
-2.8217544408
 20
26.3187886091
 10
-2.8056730912
 20
26.3361725724
 10
-2.793414704
 20
26.3542841077
 10
-2.7851075295
 20
26.3729314367
 10
-2.7808420073
 20
26.3919157678
 10
-2.7802478605
 20
26.4036186216
  0
LWPOLYLINE
  5
241
100
AcDbEntity
  8
ASSI
100
AcDbPolyline
 62
250
  6
CONTINUOUS
 90
31
 70
0
 10
-3.064661582
 20
26.5735445745
 10
-3.0556612123
 20
26.5783561844
 10
-3.0478712416
 20
26.583497415
 10
-3.04129167
 20
26.5889682661
 10
-3.0358725026
 20
26.5948374496
 10
-3.0316637341
 20
26.6010362537
 10
-3.0288153497
 20
26.6073585435
 10
-3.0273762457
 20
26.6138055841
 10
-3.0272975256
 20
26.6203761105
 10
-3.0285824855
 20
26.6268601923
 10
-3.0312755358
 20
26.6332550637
 10
-3.035332266
 20
26.6395634906
 10
-3.0406227407
 20
26.6455838409
 10
-3.0471866638
 20
26.6513068242
 10
-3.0549843315
 20
26.656741731
 10
-3.0637666966
 20
26.6617147999
 10
-3.0735656252
 20
26.6662111123
 10
-3.0843492513
 20
26.6702455868
 10
-3.0957729304
 20
26.6736892175
 10
-3.1078573433
 20
26.6765229705
 10
-3.1205818092
 20
26.6787658796
 10
-3.1335396416
 20
26.6803460408
 10
-3.146738398
 20
26.6812419592
 10
-3.1601705208
 20
26.6814751296
 10
-3.1734066513
 20
26.681038132
 10
-3.1864415639
 20
26.6799090367
 10
-3.1992804842
 20
26.6781097734
 10
-3.2115097294
 20
26.675698711
 10
-3.2229914055
 20
26.6726953058
 10
-3.2338634067
 20
26.6690801015
 10
-3.2441257329
 20
26.6648530981
  0
LINE
  5
242
100
AcDbEntity
  8
ASSI
100
AcDbLine
 62
7
  6
CONTINUOUS
 10
-7.407976052
 20
24.8004323681
 11
-7.4027680062
 21
24.8030367487
  0
LWPOLYLINE
  5
243
100
AcDbEntity
  8
ASSI
100
AcDbPolyline
 62
250
  6
CONTINUOUS
 90
13
 70
0
 10
-7.6197761026
 20
24.6861614185
 10
-7.614496572
 20
24.6887960981
 10
-7.6058587797
 20
24.6922716649
 10
-7.5968416809
 20
24.6949186871
 10
-7.5874804025
 20
24.6967272932
 10
-7.5778073351
 20
24.6976916625
 10
-7.567857627
 20
24.6978084804
 10
-7.5576673956
 20
24.6970773432
 10
-7.5472742898
 20
24.6955009874
 10
-7.5367171133
 20
24.6930856419
 10
-7.5260348223
 20
24.6898405785
 10
-7.5152663255
 20
24.6857778145
 10
-7.5044510662
 20
24.6809124465
  0
LINE
  5
244
100
AcDbEntity
  8
ASSI
100
AcDbLine
 62
7
  6
CONTINUOUS
 10
-1.6995662995
 20
28.2359869793
 11
-8.7467544533
 21
24.8276016458
  0
LINE
  5
245
100
AcDbEntity
  8
ASSI
100
AcDbLine
 62
250
  6
CONTINUOUS
 10
-6.3797418125
 20
24.988356425
 11
-3.064661582
 21
26.5735445745
  0
LINE
  5
246
100
AcDbEntity
  8
ASSI
100
AcDbLine
 62
250
  6
CONTINUOUS
 10
-5.987447442
 20
24.7922092397
 11
-2.8910306424
 21
26.2728380255
  0
LINE
  5
247
100
AcDbEntity
  8
ASSI
100
AcDbLine
 62
7
  6
CONTINUOUS
 10
-3.3520305878
 20
26.6738015253
 11
-7.4026982491
 21
24.8030689648
  0
LINE
  5
248
100
AcDbEntity
  8
ASSI
100
AcDbLine
 62
250
  6
CONTINUOUS
 10
-3.2441257329
 20
26.6648530981
 11
-7.2935967488
 21
24.7946731881
  0
LINE
  5
249
100
AcDbEntity
  8
ASSI
100
AcDbLine
 62
7
  6
CONTINUOUS
 10
-3.3165693513
 20
26.6881160269
 11
-3.3521711902
 21
26.6737325228
  0
LINE
  5
24A
100
AcDbEntity
  8
0
100
AcDbLine
 62
250
  6
CONTINUOUS
 10
-10.6732173301
 20
22.9571363601
 11
-10.4883064949
 21
23.0255654341
  0
LWPOLYLINE
  5
24B
100
AcDbEntity
  8
ASSI
100
AcDbPolyline
 62
7
  6
CONTINUOUS
 90
3
 70
0
 10
-7.4027680062
 20
24.8030367487
 10
-7.3819711684
 20
24.8098645903
 10
-7.3612375463
 20
24.8120180795
  0
LWPOLYLINE
  5
24C
100
AcDbEntity
  8
ASSI
100
AcDbPolyline
 62
7
  6
CONTINUOUS
 90
6
 70
0
 10
-12.5547417757
 20
25.4221411056
 10
-12.5529454782
 20
25.4258211122
 10
-12.5477198525
 20
25.4320129077
 10
-12.5395226432
 20
25.440353236
 10
-12.5285501926
 20
25.4499150286
 10
-12.5149842058
 20
25.4604790875
  0
LWPOLYLINE
  5
24D
100
AcDbEntity
  8
ASSI
100
AcDbPolyline
 62
250
  6
CONTINUOUS
 90
7
 70
0
 10
-8.8623354194
 20
25.9068122986
 10
-8.861352355
 20
25.9081605624
 10
-8.8585349675
 20
25.9155265119
 10
-8.8584140351
 20
25.9248721103
 10
-8.8609916039
 20
25.9360392211
 10
-8.8662240592
 20
25.948838886
 10
-8.8740228626
 20
25.9630545222
  0
LWPOLYLINE
  5
24E
100
AcDbEntity
  8
ASSI
100
AcDbPolyline
 62
7
  6
CONTINUOUS
 90
6
 70
0
 10
-8.8623606574
 20
25.9067813566
 10
-8.852885855
 20
25.9192102657
 10
-8.8392733677
 20
25.9400648992
 10
-8.8274202366
 20
25.9623314462
 10
-8.8174773077
 20
25.9858918745
 10
-8.8098234101
 20
26.0098686917
  0
LINE
  5
24F
100
AcDbEntity
  8
ASSI
100
AcDbLine
 62
250
  6
CONTINUOUS
 10
-8.8740228626
 20
25.9630545222
 11
-9.4148901684
 21
25.2937670361
  0
LINE
  5
250
100
AcDbEntity
  8
ASSI
100
AcDbLine
 62
7
  6
CONTINUOUS
 10
-8.8623354194
 20
25.9068122986
 11
-9.4148901684
 21
25.2230623752
  0
LWPOLYLINE
  5
251
100
AcDbEntity
  8
ASSI
100
AcDbPolyline
 62
250
  6
CONTINUOUS
 90
13
 70
0
 10
-5.2845025776
 20
23.5709382022
 10
-5.3027344023
 20
23.5599832138
 10
-5.3206198584
 20
23.5463344338
 10
-5.337859674
 20
23.5302202441
 10
-5.3541653807
 20
23.5119102796
 10
-5.3692641402
 20
23.491710916
 10
-5.3829033098
 20
23.4699601442
 10
-5.39485467
 20
23.4470219138
 10
-5.4049182433
 20
23.4232800435
 10
-5.4129256399
 20
23.3991317985
 10
-5.4187428753
 20
23.3749812437
 10
-5.4222726127
 20
23.3512324825
 10
-5.4234557908
 20
23.3282828948
  0
LWPOLYLINE
  5
252
100
AcDbEntity
  8
ASSI
100
AcDbPolyline
 62
250
  6
CONTINUOUS
 90
7
 70
0
 10
1.8583860819
 20
26.1474848402
 10
1.8756347565
 20
26.1572928906
 10
1.890169326
 20
26.1680911096
 10
1.9017410327
 20
26.1796947798
 10
1.9101518014
 20
26.1919053975
 10
1.9152576231
 20
26.2045140557
 10
1.9169662538
 20
26.2179910377
  0
LWPOLYLINE
  5
253
100
AcDbEntity
  8
ASSI
100
AcDbPolyline
 62
7
  6
CONTINUOUS
 90
10
 70
0
 10
-3.9076491684
 20
22.8299065825
 10
-3.9157010732
 20
22.825332596
 10
-3.9393616358
 20
22.8090245445
 10
-3.9608938236
 20
22.7895573712
 10
-3.9798322318
 20
22.7672387122
 10
-3.9957446399
 20
22.7425275664
 10
-4.0084943278
 20
22.7155195669
 10
-4.0178023095
 20
22.6864751295
 10
-4.0233538483
 20
22.6560117277
 10
-4.0250217434
 20
22.6272644393
  0
LINE
  5
254
100
AcDbEntity
  8
ASSI
100
AcDbLine
 62
7
  6
CONTINUOUS
 10
-5.1077528062
 20
22.0877360323
 11
-4.8894067689
 21
22.206937552
  0
LINE
  5
255
100
AcDbEntity
  8
ASSI
100
AcDbLine
 62
7
  6
CONTINUOUS
 10
-3.6957197436
 20
22.9442478296
 11
-3.9076428384
 21
22.8299103271
  0
LINE
  5
256
100
AcDbEntity
  8
ASSI
100
AcDbLine
 62
250
  6
CONTINUOUS
 10
-3.5812861476
 20
22.9385178875
 11
-3.7921404649
 21
22.8247571459
  0
LINE
  5
257
100
AcDbEntity
  8
ASSI
100
AcDbLine
 62
7
  6
CONTINUOUS
 10
-4.8894067689
 20
22.206937552
 11
-4.2073465385
 21
22.5586007114
  0
LINE
  5
258
100
AcDbEntity
  8
ASSI
100
AcDbLine
 62
250
  6
CONTINUOUS
 10
-5.2845025776
 20
23.5709382022
 11
-5.0661565402
 21
23.6809530838
  0
LINE
  5
259
100
AcDbEntity
  8
ASSI
100
AcDbLine
 62
250
  6
CONTINUOUS
 10
-5.1077528062
 20
23.2660899406
 11
-4.8894067689
 21
23.3761048221
  0
LINE
  5
25A
100
AcDbEntity
  8
ASSI
100
AcDbLine
 62
7
  6
CONTINUOUS
 10
-3.6956654507
 20
22.9442770675
 11
-3.690457405
 21
22.946881448
  0
LINE
  5
25B
100
AcDbEntity
  8
ASSI
100
AcDbLine
 62
7
  6
CONTINUOUS
 10
0.2452920894
 20
25.7701677915
 11
-0.8359512802
 21
25.2295461067
  0
LINE
  5
25C
100
AcDbEntity
  8
RACCORDO
100
AcDbLine
 62
7
  6
CONTINUOUS
 10
-1.7923820944
 20
24.5502799369
 11
-1.7308324561
 21
24.5810547561
  0
LINE
  5
25D
100
AcDbEntity
  8
RACCORDO
100
AcDbLine
 62
250
  6
CONTINUOUS
 10
-1.7074262535
 20
24.5423561404
 11
-1.6413897371
 21
24.5753743986
  0
LINE
  5
25E
100
AcDbEntity
  8
ASSI
100
AcDbLine
 62
250
  6
CONTINUOUS
 10
-5.0661565402
 20
23.6809530838
 11
-4.4129377757
 21
24.0049544066
  0
LINE
  5
25F
100
AcDbEntity
  8
ASSI
100
AcDbLine
 62
250
  6
CONTINUOUS
 10
-4.8894067689
 20
23.3761048221
 11
-4.2316383574
 21
23.7023628033
  0
LWPOLYLINE
  5
260
100
AcDbEntity
  8
RACCORDO
100
AcDbPolyline
 62
7
  6
CONTINUOUS
 90
20
 70
0
 10
-1.7923895565
 20
24.5502762059
 10
-1.791523624
 20
24.550700354
 10
-1.7877854329
 20
24.5523383709
 10
-1.7839060754
 20
24.5537335864
 10
-1.7798896388
 20
24.554884416
 10
-1.7757421327
 20
24.5557887542
 10
-1.7714699216
 20
24.5564447582
 10
-1.7670778737
 20
24.5568517915
 10
-1.762572458
 20
24.5570088484
 10
-1.7579604739
 20
24.5569151884
 10
-1.7532474903
 20
24.5565711359
 10
-1.7484403516
 20
24.5559768036
 10
-1.7435462081
 20
24.5551325645
 10
-1.7385712478
 20
24.5540396944
 10
-1.733522608
 20
24.5526994268
 10
-1.7284076956
 20
24.5511132443
 10
-1.7232332166
 20
24.5492833428
 10
-1.7180063796
 20
24.5472120874
 10
-1.712734887
 20
24.5449020199
 10
-1.7074262535
 20
24.5423561404
  0
LWPOLYLINE
  5
261
100
AcDbEntity
  8
RACCORDO
100
AcDbPolyline
 62
250
  6
CONTINUOUS
 90
55
 70
0
 10
-1.6413897371
 20
24.5753743986
 10
-1.6256386311
 20
24.5830421264
 10
-1.6095092263
 20
24.5904871867
 10
-1.5930015226
 20
24.5977095794
 10
-1.5761021652
 20
24.6047145099
 10
-1.558824509
 20
24.6114967729
 10
-1.5412086183
 20
24.6180407523
 10
-1.5232540192
 20
24.6243456991
 10
-1.5049611856
 20
24.6304123625
 10
-1.4863716044
 20
24.6362273731
 10
-1.4674846922
 20
24.6417900879
 10
-1.4483010324
 20
24.6471011499
 10
-1.4288638613
 20
24.6521491201
 10
-1.4091727009
 20
24.656933353
 10
-1.3892280291
 20
24.661454494
 10
-1.3690745166
 20
24.66570304
 10
-1.3487117046
 20
24.6696783525
 10
-1.3281400518
 20
24.6733810701
 10
-1.3074056058
 20
24.6768036052
 10
-1.286508135
 20
24.6799452896
 10
-1.2654478709
 20
24.6828067914
 10
-1.2442715551
 20
24.6853825276
 10
-1.22297903
 20
24.687671839
 10
-1.2015704533
 20
24.6896753847
 10
-1.1800930391
 20
24.6913895592
 10
-1.1585468018
 20
24.6928137069
 10
-1.1369317272
 20
24.6939484835
 10
-1.115294986
 20
24.6947922504
 10
-1.0936366309
 20
24.6953443683
 10
-1.0719566092
 20
24.6956054765
 10
-1.0503019349
 20
24.6955758547
 10
-1.0286728223
 20
24.6952548786
 10
-1.007069057
 20
24.6946431725
 10
-0.9855370097
 20
24.6937428887
 10
-0.9640769213
 20
24.6925534199
 10
-0.9426885509
 20
24.6910753733
 10
-0.9214175468
 20
24.6893127237
 10
-0.9002643057
 20
24.6872648901
 10
-0.8792284309
 20
24.6849324534
 10
-0.8583543804
 20
24.6823211305
 10
-0.8376426273
 20
24.6794303723
 10
-0.8170926986
 20
24.6762607279
 10
-0.7967476331
 20
24.6728195621
 10
-0.7766079706
 20
24.6691063573
 10
-0.7566731713
 20
24.6651216312
 10
-0.7369846549
 20
24.6608743008
 10
-0.717542895
 20
24.6563638457
 10
-0.6983474179
 20
24.6515907863
 10
-0.6794382234
 20
24.6465656021
 10
-0.6608158254
 20
24.6412877552
 10
-0.6424797098
 20
24.6357577834
 10
-0.6244683341
 20
24.6299877796
 10
-0.6067945173
 20
24.6239817745
 10
-0.5894454404
 20
24.6177357375
 10
-0.5724211032
 20
24.6112496683
  0
LINE
  5
262
100
AcDbEntity
  8
ASSI
100
AcDbLine
 62
250
  6
CONTINUOUS
 10
1.1537689828
 20
26.8093193382
 11
-1.0789402813
 21
25.7413610825
  0
LINE
  5
263
100
AcDbEntity
  8
ASSI
100
AcDbLine
 62
250
  6
CONTINUOUS
 10
1.2927006569
 20
26.5672295028
 11
-0.8323418365
 21
25.5507708394
  0
LINE
  5
264
100
AcDbEntity
  8
ASSI
100
AcDbLine
 62
7
  6
CONTINUOUS
 10
-1.7778946238
 20
25.6057737291
 11
-2.8785866011
 21
25.0794504556
  0
LWPOLYLINE
  5
265
100
AcDbEntity
  8
RACCORDO
100
AcDbPolyline
 62
250
  6
CONTINUOUS
 90
17
 70
0
 10
-1.7308324561
 20
24.5810547561
 10
-1.7274815992
 20
24.5826280828
 10
-1.7225056897
 20
24.5846085944
 10
-1.7173753714
 20
24.5862418224
 10
-1.7121004102
 20
24.5875246579
 10
-1.7066908473
 20
24.5884546591
 10
-1.70115698
 20
24.5890300555
 10
-1.6955093425
 20
24.5892497519
 10
-1.6897586852
 20
24.5891133302
 10
-1.683915955
 20
24.5886210499
 10
-1.6779922738
 20
24.5877738482
 10
-1.6719989176
 20
24.5865733377
 10
-1.6659472952
 20
24.5850218039
 10
-1.6598489261
 20
24.5831222
 10
-1.653715419
 20
24.5808781421
 10
-1.6475584492
 20
24.5782939019
 10
-1.6413897371
 20
24.5753743986
  0
LINE
  5
266
100
AcDbEntity
  8
ASSI
100
AcDbLine
 62
7
  6
CONTINUOUS
 10
-3.0129840337
 20
23.2597611016
 11
-3.6903876478
 21
22.9469136642
  0
LINE
  5
267
100
AcDbEntity
  8
ASSI
100
AcDbLine
 62
250
  6
CONTINUOUS
 10
-2.9048583154
 20
23.2509146764
 11
-3.5812861476
 21
22.9385178875
  0
LWPOLYLINE
  5
268
100
AcDbEntity
  8
ASSI
100
AcDbPolyline
 62
250
  6
CONTINUOUS
 90
13
 70
0
 10
-5.1077528062
 20
23.2660899406
 10
-5.1274862164
 20
23.257724833
 10
-5.1492141341
 20
23.2507033451
 10
-5.1725729928
 20
23.2451429653
 10
-5.197171936
 20
23.2411367337
 10
-5.2225993573
 20
23.2387516853
 10
-5.2484297874
 20
23.2380277283
 10
-5.2742310139
 20
23.2389769766
 10
-5.2995713127
 20
23.2415835466
 10
-5.3240266726
 20
23.2458038234
 10
-5.3471878897
 20
23.2515671905
 10
-5.3686674144
 20
23.2587772112
 10
-5.3881058366
 20
23.2673132425
  0
LWPOLYLINE
  5
269
100
AcDbEntity
  8
ASSI
100
AcDbPolyline
 62
7
  6
CONTINUOUS
 90
3
 70
0
 10
-3.690457405
 20
22.946881448
 10
-3.6696605671
 20
22.9537092897
 10
-3.6489269451
 20
22.9558627788
  0
LWPOLYLINE
  5
26A
100
AcDbEntity
  8
ASSI
100
AcDbPolyline
 62
250
  6
CONTINUOUS
 90
6
 70
0
 10
2.2672561221
 20
23.863618107
 10
2.2865115986
 20
23.8694569712
 10
2.3071632335
 20
23.8714366153
 10
2.3288693339
 20
23.8695244115
 10
2.3512707442
 20
23.8637521199
 10
2.3739968428
 20
23.8542153621
  0
LWPOLYLINE
  5
26B
100
AcDbEntity
  8
RACCORDO
100
AcDbPolyline
 62
7
  6
CONTINUOUS
 90
10
 70
0
 10
-4.1022574001
 20
-23.3835064935
 10
-4.033530556
 20
-23.4102095701
 10
-3.965754178
 20
-23.4296135515
 10
-3.8953912544
 20
-23.4431058434
 10
-3.8230959907
 20
-23.4503727071
 10
-3.7493033747
 20
-23.4512467778
 10
-3.6744974589
 20
-23.4456096311
 10
-3.5993138366
 20
-23.4334245741
 10
-3.524180056
 20
-23.4147300298
 10
-3.4497917889
 20
-23.3897364476
  0
LWPOLYLINE
  5
26C
100
AcDbEntity
  8
RACCORDO
100
AcDbPolyline
 62
250
  6
CONTINUOUS
 90
16
 70
0
 10
-4.4270500114
 20
-22.7188029809
 10
-4.3884305771
 20
-22.7340574685
 10
-4.3469988314
 20
-22.747379776
 10
-4.303156215
 20
-22.7586408208
 10
-4.2573275282
 20
-22.7677314923
 10
-4.2099568145
 20
-22.7745637091
 10
-4.1615030585
 20
-22.7790712723
 10
-4.1124357388
 20
-22.7812105074
 10
-4.0632302788
 20
-22.7809606868
 10
-4.0143634404
 20
-22.7783242311
 10
-3.9663087044
 20
-22.7733266855
 10
-3.9195316831
 20
-22.7660164721
 10
-3.8744856089
 20
-22.7564644213
 10
-3.8316069424
 20
-22.7447630847
 10
-3.7913111439
 20
-22.731025839
 10
-3.7539886477
 20
-22.7153857873
  0
LWPOLYLINE
  5
26D
100
AcDbEntity
  8
RACCORDO
100
AcDbPolyline
 62
250
  6
CONTINUOUS
 90
14
 70
0
 10
-4.1021805592
 20
-23.3835482283
 10
-4.1438435881
 20
-23.3622811672
 10
-4.1873337872
 20
-23.3335304984
 10
-4.2277696137
 20
-23.2994862455
 10
-4.2649203144
 20
-23.2603354945
 10
-4.2986063506
 20
-23.2162759668
 10
-4.3286702966
 20
-23.1675287938
 10
-4.3549397092
 20
-23.1143542144
 10
-4.3772857176
 20
-23.0570277911
 10
-4.3956088828
 20
-22.9958351045
 10
-4.4098068597
 20
-22.9310812979
 10
-4.4198055909
 20
-22.8630915281
 10
-4.4255624798
 20
-22.7922120808
 10
-4.4270500356
 20
-22.7188029748
  0
LWPOLYLINE
  5
26E
100
AcDbEntity
  8
RACCORDO
100
AcDbPolyline
 62
7
  6
CONTINUOUS
 90
10
 70
0
 10
-18.8313687335
 20
-16.0187733078
 10
-17.356741042
 20
-16.841932118
 10
-15.7768643262
 20
-17.7001914699
 10
-14.1712527364
 20
-18.5485542192
 10
-12.5402805058
 20
-19.3868316761
 10
-10.8843189974
 20
-20.2148393728
 10
-9.2037470496
 20
-21.0323994013
 10
-7.4989585218
 20
-21.8393357327
 10
-5.7703542947
 20
-22.6354717355
 10
-4.1014240287
 20
-23.3838839477
  0
LINE
  5
26F
100
AcDbEntity
  8
RACCORDO
100
AcDbLine
 62
7
  6
CONTINUOUS
 10
-18.8313679532
 20
-16.0187737492
 11
-18.8311090821
 21
-16.0189200792
  0
LWPOLYLINE
  5
270
100
AcDbEntity
  8
RACCORDO
100
AcDbPolyline
 62
250
  6
CONTINUOUS
 90
31
 70
0
 10
-19.1272245176
 20
-15.3687157103
 10
-18.6822829
 20
-15.6205613063
 10
-18.2353219827
 20
-15.8714387121
 10
-17.786352601
 20
-16.1213445443
 10
-17.3354923561
 20
-16.3702168003
 10
-16.8826462706
 20
-16.6181111515
 10
-16.4275018041
 20
-16.865198964
 10
-15.969908794
 20
-17.111559145
 10
-15.5100288989
 20
-17.3571020492
 10
-15.0480149127
 20
-17.6017452624
 10
-14.5839195291
 20
-17.8454614032
 10
-14.1177075354
 20
-18.088269506
 10
-13.6494020949
 20
-18.3301576935
 10
-13.1789422121
 20
-18.5711573209
 10
-12.7064056885
 20
-18.8112284121
 10
-12.2320270626
 20
-19.0502534607
 10
-11.7561153509
 20
-19.2880816116
 10
-11.2783876514
 20
-19.5248592074
 10
-10.7981849998
 20
-19.7609120611
 10
-10.3164367575
 20
-19.9957842314
 10
-9.832228191
 20
-20.2299221503
 10
-9.3420817578
 20
-20.4649814772
 10
-8.8467955257
 20
-20.7005388257
 10
-8.3454978129
 20
-20.9369669722
 10
-7.8320865197
 20
-21.1770599683
 10
-7.3062641352
 20
-21.42083697
 10
-6.7680900898
 20
-21.6681473045
 10
-6.2118471228
 20
-21.9214576105
 10
-5.6354648733
 20
-22.1815023624
 10
-5.0406004729
 20
-22.4473222623
 10
-4.4270500125
 20
-22.7188029609
  0
LWPOLYLINE
  5
271
100
AcDbEntity
  8
RACCORDO
100
AcDbPolyline
 62
250
  6
CONTINUOUS
 90
9
 70
0
 10
-19.1272144064
 20
-15.3687114238
 10
-19.1577239379
 20
-15.3494016174
 10
-19.1842891078
 20
-15.3287257537
 10
-19.2066525262
 20
-15.3068841615
 10
-19.2245975136
 20
-15.284088464
 10
-19.237950201
 20
-15.2605595288
 10
-19.2465812142
 20
-15.2365253277
 10
-19.2504069272
 20
-15.2122187281
 10
-19.2506069412
 20
-15.2041416743
  0
LWPOLYLINE
  5
272
100
AcDbEntity
  8
RACCORDO
100
AcDbPolyline
 62
250
  6
CONTINUOUS
 90
13
 70
0
 10
-19.1272245111
 20
-15.3687157055
 10
-19.1255411748
 20
-15.4422227067
 10
-19.1194649287
 20
-15.5132618353
 10
-19.1090304806
 20
-15.5814694644
 10
-19.0943027488
 20
-15.6464881474
 10
-19.0753563849
 20
-15.7079924312
 10
-19.0522721682
 20
-15.7656879572
 10
-19.0251735369
 20
-15.8192771452
 10
-18.9942035296
 20
-15.8684773483
 10
-18.9595018667
 20
-15.9130446889
 10
-18.9212567348
 20
-15.9527426552
 10
-18.8796698687
 20
-15.9873624276
 10
-18.8313679532
 20
-16.0187737492
  0
LWPOLYLINE
  5
273
100
AcDbEntity
  8
RACCORDO
100
AcDbPolyline
 62
7
  6
CONTINUOUS
 90
14
 70
0
 10
-19.2506069412
 20
-15.2041416743
 10
-19.2505977656
 20
-15.2265653072
 10
-19.245939017
 20
-15.3223080865
 10
-19.2338749473
 20
-15.4144404678
 10
-19.2144583365
 20
-15.5030140751
 10
-19.1878637559
 20
-15.5874127083
 10
-19.1547164233
 20
-15.6662352811
 10
-19.1158301877
 20
-15.7386813984
 10
-19.0715239748
 20
-15.8050952866
 10
-19.0219991783
 20
-15.865644473
 10
-18.9678823791
 20
-15.9199257168
 10
-18.9097433561
 20
-15.9677547084
 10
-18.8476084642
 20
-16.0093163791
 10
-18.8311266163
 20
-16.0189101638
  0
LINE
  5
274
100
AcDbEntity
  8
RACCORDO
100
AcDbLine
 62
7
  6
CONTINUOUS
 10
-17.7091311718
 20
21.590918784
 11
-17.7091209179
 21
21.5910584637
  0
LINE
  5
275
100
AcDbEntity
  8
RACCORDO
100
AcDbLine
 62
7
  6
CONTINUOUS
 10
-1.8040929513
 20
24.5425315621
 11
-3.6647628923
 21
22.9587480255
  0
LINE
  5
276
100
AcDbEntity
  8
RACCORDO
100
AcDbLine
 62
7
  6
CONTINUOUS
 10
-4.0235059872
 20
22.6533895118
 11
-4.0996493779
 21
22.5885770236
  0
LINE
  5
277
100
AcDbEntity
  8
0
100
AcDbLine
 62
250
  6
CONTINUOUS
 10
-1.7074262535
 20
24.5423561404
 11
-3.4529850524
 21
23.05655405
  0
LINE
  5
278
100
AcDbEntity
  8
0
100
AcDbLine
 62
250
  6
CONTINUOUS
 10
-4.0250222762
 20
22.5696417195
 11
-4.0386238034
 21
22.5580642364
  0
LWPOLYLINE
  5
279
100
AcDbEntity
  8
RACCORDO
100
AcDbPolyline
 62
7
  6
CONTINUOUS
 90
5
 70
0
 10
-1.8040795036
 20
24.5425431164
 10
-1.8018364245
 20
24.5443589895
 10
-1.7985534861
 20
24.5467078285
 10
-1.7951148017
 20
24.5488224499
 10
-1.7923895565
 20
24.5502762059
  0
LINE
  5
27A
100
AcDbEntity
  8
ASSI
100
AcDbLine
 62
250
  6
CONTINUOUS
 10
-1.5721919763
 20
21.7147829016
 11
-1.353845939
 21
21.8247977831
  0
LINE
  5
27B
100
AcDbEntity
  8
ASSI
100
AcDbLine
 62
250
  6
CONTINUOUS
 10
-1.395442205
 20
21.40993464
 11
-1.1770961676
 21
21.5199495215
  0
LINE
  5
27C
100
AcDbEntity
  8
ASSI
100
AcDbLine
 62
250
  6
CONTINUOUS
 10
2.5566827651
 20
23.7644488491
 11
-1.353845939
 21
21.8247977831
  0
LINE
  5
27D
100
AcDbEntity
  8
ASSI
100
AcDbLine
 62
250
  6
CONTINUOUS
 10
2.7334325364
 20
23.4596005875
 11
-1.1770961676
 21
21.5199495215
  0
LINE
  5
27E
100
AcDbEntity
  8
ASSI
100
AcDbLine
 62
7
  6
CONTINUOUS
 10
-1.0000212358
 20
22.2984961366
 11
2.2628993884
 21
23.8616619175
  0
LINE
  5
27F
100
AcDbEntity
  8
ASSI
100
AcDbLine
 62
250
  6
CONTINUOUS
 10
-0.9380542786
 20
22.267512658
 11
2.3739968428
 21
23.8542153621
  0
LINE
  5
280
100
AcDbEntity
  8
ASSI
100
AcDbLine
 62
7
  6
CONTINUOUS
 10
2.8352240642
 20
22.887145036
 11
3.2561026079
 21
23.0887751132
  0
LINE
  5
281
100
AcDbEntity
  8
ASSI
100
AcDbLine
 62
7
  6
CONTINUOUS
 10
3.5340474978
 20
23.4692716245
 11
5.6909629123
 21
24.5022621059
  0
LINE
  5
282
100
AcDbEntity
  8
ASSI
100
AcDbLine
 62
250
  6
CONTINUOUS
 10
3.5484697874
 20
23.4276560481
 11
5.7798189453
 21
24.4962943569
  0
LINE
  5
283
100
AcDbEntity
  8
RACCORDO
100
AcDbLine
 62
250
  6
CONTINUOUS
 10
12.2933938463
 20
27.3094253892
 11
6.3750747791
 21
24.5761495176
  0
LWPOLYLINE
  5
284
100
AcDbEntity
  8
RACCORDO
100
AcDbPolyline
 62
7
  6
CONTINUOUS
 90
81
 70
0
 10
11.8617744213
 20
27.3452190955
 10
5.9412001825
 20
24.610908018
 10
5.9346103764
 20
24.6079531973
 10
5.9274922862
 20
24.6048697594
 10
5.9198382798
 20
24.601668268
 10
5.9116455808
 20
24.5983612749
 10
5.9029168451
 20
24.5949632712
 10
5.8936482866
 20
24.5914858152
 10
5.8838376876
 20
24.5879408413
 10
5.8734921961
 20
24.5843433443
 10
5.8626124215
 20
24.5807056384
 10
5.851197567
 20
24.5770392721
 10
5.8392545884
 20
24.5733578868
 10
5.8267859464
 20
24.5696733548
 10
5.8137936686
 20
24.5659973199
 10
5.800285284
 20
24.5623426012
 10
5.7862647094
 20
24.5587205612
 10
5.7717369761
 20
24.5551426857
 10
5.7567124214
 20
24.5516215319
 10
5.7411948607
 20
24.5481676568
 10
5.72519407
 20
24.5447925953
 10
5.7087309415
 20
24.5415098172
 10
5.6918118999
 20
24.5383293369
 10
5.6744496958
 20
24.5352619381
 10
5.6566769675
 20
24.5323211115
 10
5.6385061106
 20
24.5295162779
 10
5.6199498516
 20
24.5268564812
 10
5.6010436141
 20
24.5243531556
 10
5.5818027432
 20
24.5220142252
 10
5.5622419713
 20
24.5198472831
 10
5.5423975267
 20
24.5178614481
 10
5.522286609
 20
24.5160629168
 10
5.5019260533
 20
24.5144576994
 10
5.4813527578
 20
24.5130526226
 10
5.4605850726
 20
24.5118521606
 10
5.4396416895
 20
24.510860534
 10
5.4185608825
 20
24.5100822972
 10
5.39736118
 20
24.5095201868
 10
5.3760631836
 20
24.5091765278
 10
5.354708826
 20
24.5090534566
 10
5.3333178915
 20
24.5091518766
 10
5.3119108417
 20
24.5094720929
 10
5.2905307814
 20
24.5100134736
 10
5.269198111
 20
24.5107749943
 10
5.2479326087
 20
24.5117550232
 10
5.2267761571
 20
24.5129501538
 10
5.2057491995
 20
24.5143574054
 10
5.1848702127
 20
24.5159733467
 10
5.1641774489
 20
24.5177921719
 10
5.1436893393
 20
24.5198091245
 10
5.1234241252
 20
24.5220190499
 10
5.1034187552
 20
24.5244138432
 10
5.0836899076
 20
24.5269869631
 10
5.0642543943
 20
24.5297316392
 10
5.0451479943
 20
24.5326375385
 10
5.0263853098
 20
24.5356965039
 10
5.0079811052
 20
24.5389001941
 10
4.9899696119
 20
24.5422361338
 10
4.9723631679
 20
24.5456947975
 10
4.9551737639
 20
24.549266403
 10
4.9384327984
 20
24.5529366165
 10
4.9221525769
 20
24.5566942003
 10
4.9063391493
 20
24.5605288885
 10
4.8910122373
 20
24.5644268115
 10
4.8761810491
 20
24.5683761503
 10
4.8618491437
 20
24.5723661473
 10
4.848026173
 20
24.5763839937
 10
4.8347166008
 20
24.580418162
 10
4.8219240327
 20
24.5844571091
 10
4.8096556415
 20
24.5884877185
 10
4.7979131891
 20
24.5924982431
 10
4.7866985188
 20
24.5964768441
 10
4.7760177183
 20
24.6004097761
 10
4.7658694369
 20
24.6042855461
 10
4.7562539408
 20
24.6080918103
 10
4.7471778179
 20
24.6118134267
 10
4.7386384904
 20
24.6154384889
 10
4.7306316999
 20
24.6189555679
 10
4.723159491
 20
24.6223501669
 10
4.7162186754
 20
24.6256098686
 10
4.7098012875
 20
24.6287243009
  0
LWPOLYLINE
  5
285
100
AcDbEntity
  8
ASSI
100
AcDbPolyline
 62
250
  6
CONTINUOUS
 90
7
 70
0
 10
5.6909715006
 20
24.5022662184
 10
5.6940171554
 20
24.5036441383
 10
5.7094743264
 20
24.5084199696
 10
5.7260674412
 20
24.5100743495
 10
5.7435188281
 20
24.5085795281
 10
5.7615364967
 20
24.5039604546
 10
5.779818944
 20
24.4962943563
  0
LWPOLYLINE
  5
286
100
AcDbEntity
  8
RACCORDO
100
AcDbPolyline
 62
250
  6
CONTINUOUS
 90
6
 70
0
 10
6.3750747791
 20
24.5761495176
 10
6.3496569817
 20
24.5646828084
 10
6.3236571487
 20
24.5535077133
 10
6.2970752801
 20
24.542624232
 10
6.269891837
 20
24.5320225758
 10
6.2421263582
 20
24.5217125336
  0
LINE
  5
287
100
AcDbEntity
  8
ASSI
100
AcDbLine
 62
250
  6
CONTINUOUS
 10
2.2628995843
 20
23.8616620114
 11
2.2672561221
 21
23.863618107
  0
LWPOLYLINE
  5
288
100
AcDbEntity
  8
RACCORDO
100
AcDbPolyline
 62
7
  6
CONTINUOUS
 90
34
 70
0
 10
11.8617744213
 20
27.3452190955
 10
11.8861335405
 20
27.3560772163
 10
11.9108069303
 20
27.3662951908
 10
11.9357739468
 20
27.3758615463
 10
11.9610232361
 20
27.3847689724
 10
11.986523358
 20
27.3930038315
 10
12.0122224992
 20
27.400548992
 10
12.0379245082
 20
27.4073555858
 10
12.0637785533
 20
27.413472053
 10
12.0902564093
 20
27.4189910969
 10
12.1177223338
 20
27.4239328888
 10
12.145771624
 20
27.4281687309
 10
12.1737231411
 20
27.4315849802
 10
12.2012418571
 20
27.43417152
 10
12.2286123543
 20
27.4359855636
 10
12.2560824691
 20
27.4370497122
 10
12.2836762412
 20
27.4373580875
 10
12.3113198843
 20
27.4369033847
 10
12.3391126195
 20
27.435674653
 10
12.3672398546
 20
27.4336405291
 10
12.3954587966
 20
27.4307956442
 10
12.4232370519
 20
27.427201784
 10
12.4501278896
 20
27.4229647572
 10
12.4765601437
 20
27.4180638308
 10
12.5033081741
 20
27.4123500898
 10
12.5308652909
 20
27.4056558445
 10
12.5586540677
 20
27.3980580041
 10
12.5858507436
 20
27.3897786715
 10
12.6120212471
 20
27.3810034653
 10
12.6376073792
 20
27.371636149
 10
12.6631134411
 20
27.3614989201
 10
12.6888141276
 20
27.3504502253
 10
12.7143777637
 20
27.3385994336
 10
12.7282694183
 20
27.3317873731
  0
LINE
  5
289
100
AcDbEntity
  8
ASSI
100
AcDbLine
 62
7
  6
CONTINUOUS
 10
5.7439915533
 20
24.5253694666
 11
5.6909783011
 21
24.5022520196
  0
LWPOLYLINE
  5
28A
100
AcDbEntity
  8
ASSI
100
AcDbPolyline
 62
250
  6
CONTINUOUS
 90
10
 70
0
 10
5.7798189453
 20
24.4962943569
 10
5.831989001
 20
24.5189361133
 10
5.8837540125
 20
24.5367117625
 10
5.9348304006
 20
24.5495242979
 10
5.9849366043
 20
24.5573046698
 10
6.0337989841
 20
24.5600101574
 10
6.0811533033
 20
24.557624511
 10
6.1267382904
 20
24.5501618088
 10
6.1703033261
 20
24.5376632876
 10
6.2124677662
 20
24.5197697164
  0
LWPOLYLINE
  5
28B
100
AcDbEntity
  8
ASSI
100
AcDbPolyline
 62
250
  6
CONTINUOUS
 90
31
 70
0
 10
2.3739968428
 20
23.8542153621
 10
2.3840492782
 20
23.8585191087
 10
2.3947455136
 20
23.8622212973
 10
2.4060855491
 20
23.8653219279
 10
2.418210002
 20
23.8678434238
 10
2.430978255
 20
23.8697633617
 10
2.4439684557
 20
23.8710144714
 10
2.4571832689
 20
23.8715732451
 10
2.4706200298
 20
23.8714631905
 10
2.4838488922
 20
23.8706875608
 10
2.496863148
 20
23.8692246801
 10
2.5096695053
 20
23.8670962243
 10
2.5218582412
 20
23.8643704742
 10
2.5334093848
 20
23.8610281673
 10
2.544342907
 20
23.857088566
 10
2.5543089979
 20
23.8526777391
 10
2.5632763031
 20
23.8477804328
 10
2.5712761769
 20
23.8424119008
 10
2.5780528729
 20
23.8367439731
 10
2.583566938
 20
23.8307669995
 10
2.5878578251
 20
23.8244906302
 10
2.590788147
 20
23.8181156452
 10
2.5923135886
 20
23.8116388859
 10
2.5924784649
 20
23.805063511
 10
2.5912783328
 20
23.7985997769
 10
2.5886643303
 20
23.7922486389
 10
2.5846853194
 20
23.7860091417
 10
2.5794834431
 20
23.7800886751
 10
2.5731060824
 20
23.7745563691
 10
2.5655058564
 20
23.7693430938
 10
2.5566827651
 20
23.7644488491
  0
LINE
  5
28C
100
AcDbEntity
  8
ASSI
100
AcDbLine
 62
7
  6
CONTINUOUS
 10
2.2951195147
 20
23.8753347783
 11
2.2628156993
 21
23.8616119999
  0
LINE
  5
28D
100
AcDbEntity
  8
RACCORDO
100
AcDbLine
 62
250
  6
CONTINUOUS
 10
6.2421263582
 20
24.5217125336
 11
6.2224663673
 21
24.5147704158
  0
LWPOLYLINE
  5
28E
100
AcDbEntity
  8
ASSI
100
AcDbPolyline
 62
7
  6
CONTINUOUS
 90
3
 70
0
 10
0.8215102918
 20
21.1331547152
 10
0.8381477621
 20
21.1386169885
 10
0.8547346597
 20
21.1403397798
  0
LINE
  5
28F
100
AcDbEntity
  8
ASSI
100
AcDbLine
 62
250
  6
CONTINUOUS
 10
3.7124778425
 20
-21.5547999697
 11
3.1716105367
 21
-21.4455969746
  0
LINE
  5
290
100
AcDbEntity
  8
ASSI
100
AcDbLine
 62
250
  6
CONTINUOUS
 10
3.6393714153
 20
-21.2999890614
 11
3.1716105367
 21
-21.2055465088
  0
LWPOLYLINE
  5
291
100
AcDbEntity
  8
ASSI
100
AcDbPolyline
 62
7
  6
CONTINUOUS
 90
4
 70
0
 10
1.955499839
 20
-21.6944572009
 10
1.9778961927
 20
-21.6996945653
 10
2.0022682652
 20
-21.7056028968
 10
2.0558532906
 20
-21.7187552793
  0
LWPOLYLINE
  5
292
100
AcDbEntity
  8
ASSI
100
AcDbPolyline
 62
7
  6
CONTINUOUS
 90
9
 70
0
 10
2.0558532906
 20
-21.7187552793
 10
2.0843977007
 20
-21.7255937721
 10
2.1132245483
 20
-21.7323755456
 10
2.1420381579
 20
-21.7387076497
 10
2.1704526298
 20
-21.7443781088
 10
2.1976550641
 20
-21.7494478752
 10
2.2232267949
 20
-21.7537415073
 10
2.2471204382
 20
-21.7568532676
 10
2.269159786
 20
-21.7585218052
  0
LWPOLYLINE
  5
293
100
AcDbEntity
  8
ASSI
100
AcDbPolyline
 62
250
  6
CONTINUOUS
 90
13
 70
0
 10
1.234012717
 20
-22.9885790587
 10
1.2534511392
 20
-22.99711509
 10
1.2749306639
 20
-23.0043251107
 10
1.298091881
 20
-23.0100884778
 10
1.3225472409
 20
-23.0143087546
 10
1.3478875397
 20
-23.0169153246
 10
1.3736887662
 20
-23.0178645729
 10
1.3995191963
 20
-23.017140616
 10
1.4249466176
 20
-23.0147555675
 10
1.4495455608
 20
-23.0107493359
 10
1.4729044195
 20
-23.0051889561
 10
1.4946323372
 20
-22.9981674682
 10
1.5143657474
 20
-22.9898023606
  0
LWPOLYLINE
  5
294
100
AcDbEntity
  8
ASSI
100
AcDbPolyline
 62
250
  6
CONTINUOUS
 90
13
 70
0
 10
1.234012717
 20
-22.6713102584
 10
1.2534511554
 20
-22.6798462959
 10
1.2749306962
 20
-22.6870563198
 10
1.2980919277
 20
-22.6928196874
 10
1.3225472996
 20
-22.6970399625
 10
1.3478876066
 20
-22.6996465292
 10
1.3736888363
 20
-22.7005957731
 10
1.3995192642
 20
-22.6998718117
 10
1.4249466783
 20
-22.6974867596
 10
1.44954561
 20
-22.6934805259
 10
1.4729044539
 20
-22.6879201463
 10
1.4946323546
 20
-22.6808986615
 10
1.5143657474
 20
-22.6725335603
  0
LWPOLYLINE
  5
295
100
AcDbEntity
  8
ASSI
100
AcDbPolyline
 62
7
  6
CONTINUOUS
 90
10
 70
0
 10
1.2989343337
 20
-23.1237703023
 10
1.311391239
 20
-23.129540625
 10
1.3327265608
 20
-23.1373477962
 10
1.354905335
 20
-23.142941939
 10
1.3776912965
 20
-23.1462271319
 10
1.400923899
 20
-23.1471351845
 10
1.4243542047
 20
-23.1456051256
 10
1.447646177
 20
-23.1416287812
 10
1.4705699999
 20
-23.135230079
 10
1.4944021098
 20
-23.1257752352
  0
LINE
  5
296
100
AcDbEntity
  8
ASSI
100
AcDbLine
 62
7
  6
CONTINUOUS
 10
1.2992130893
 20
-23.1239110467
 11
-0.4510805643
 21
-22.2487642199
  0
LINE
  5
297
100
AcDbEntity
  8
ASSI
100
AcDbLine
 62
250
  6
CONTINUOUS
 10
1.234012717
 20
-22.9885790587
 11
-0.3344049349
 21
-22.2043702328
  0
LINE
  5
298
100
AcDbEntity
  8
ASSI
100
AcDbLine
 62
250
  6
CONTINUOUS
 10
1.234012717
 20
-22.6713102584
 11
0.2985441987
 21
-22.2035759992
  0
LINE
  5
299
100
AcDbEntity
  8
ASSI
100
AcDbLine
 62
250
  6
CONTINUOUS
 10
0.1049799126
 20
-22.1067938562
 11
-0.0056230343
 21
-22.0514923827
  0
LINE
  5
29A
100
AcDbEntity
  8
ASSI
100
AcDbLine
 62
250
  6
CONTINUOUS
 10
1.3227096296
 20
-22.439770367
 11
0.5400256553
 21
-22.0484283798
  0
LWPOLYLINE
  5
29B
100
AcDbEntity
  8
ASSI
100
AcDbPolyline
 62
250
  6
CONTINUOUS
 90
16
 70
0
 10
1.298936837
 20
-23.1237723557
 10
1.2922014813
 20
-23.1200251033
 10
1.2845969096
 20
-23.114861459
 10
1.2774375753
 20
-23.108934786
 10
1.2707555824
 20
-23.1022712594
 10
1.2645685193
 20
-23.0948880228
 10
1.2589021443
 20
-23.0868144029
 10
1.2537773227
 20
-23.0780801467
 10
1.2492114479
 20
-23.0687149679
 10
1.2452212939
 20
-23.0587529174
 10
1.2418209064
 20
-23.0482291037
 10
1.2390223677
 20
-23.0371810867
 10
1.2368359491
 20
-23.0256499805
 10
1.235269169
 20
-23.0136775746
 10
1.2343270875
 20
-23.0013059192
 10
1.234012717
 20
-22.9885790587
  0
LWPOLYLINE
  5
29C
100
AcDbEntity
  8
RACCORDO
100
AcDbPolyline
 62
7
  6
CONTINUOUS
 90
10
 70
0
 10
-17.7091209179
 20
21.5910584637
 10
-17.9977975297
 20
17.5053511163
 10
-18.2613808768
 20
13.3600749839
 10
-18.494465494
 20
9.2279052364
 10
-18.6970105188
 20
5.1092771278
 10
-18.8689965177
 20
1.0045472314
 10
-19.0104094391
 20
-3.0859577472
 10
-19.121238264
 20
-7.1618851365
 10
-19.201487523
 20
-11.2228206063
 10
-19.2506148232
 20
-15.2040951671
  0
LWPOLYLINE
  5
29D
100
AcDbEntity
  8
RACCORDO
100
AcDbPolyline
 62
250
  6
CONTINUOUS
 90
10
 70
0
 10
-17.5855011252
 20
21.4314882087
 10
-17.8804071128
 20
17.2903289479
 10
-18.1444828744
 20
13.1612134687
 10
-18.377690756
 20
9.0445225866
 10
-18.5800055795
 20
4.9404508275
 10
-18.7513910629
 20
0.8495606
 10
-18.8918084036
 20
-3.2272218104
 10
-19.0012472401
 20
-7.2893452918
 10
-19.0797170914
 20
-11.3366304402
 10
-19.1272245176
 20
-15.3687157103
  0
LWPOLYLINE
  5
29E
100
AcDbEntity
  8
ASSI
100
AcDbPolyline
 62
7
  6
CONTINUOUS
 90
9
 70
0
 10
3.5347284598
 20
23.4696385294
 10
3.5330862244
 20
23.4686110658
 10
3.5295322839
 20
23.464641225
 10
3.5260413044
 20
23.4583660108
 10
3.5226810539
 20
23.449621725
 10
3.5195609972
 20
23.4385808498
 10
3.5168842047
 20
23.4258804258
 10
3.5147605828
 20
23.4117363074
 10
3.5131916036
 20
23.3959415492
  0
LWPOLYLINE
  5
29F
100
AcDbEntity
  8
ASSI
100
AcDbPolyline
 62
7
  6
CONTINUOUS
 90
12
 70
0
 10
-0.7498070524
 20
20.2855570779
 10
-0.7611026858
 20
20.2790712564
 10
-0.7833937315
 20
20.2637293085
 10
-0.8042910968
 20
20.2457352606
 10
-0.8234834236
 20
20.2252876809
 10
-0.8402581263
 20
20.2032603998
 10
-0.8549210339
 20
20.1793795617
 10
-0.8673973494
 20
20.1535618767
 10
-0.8770357915
 20
20.127110362
 10
-0.8838429108
 20
20.1003564526
 10
-0.887939483
 20
20.072551491
 10
-0.8890671989
 20
20.0484938865
  0
LWPOLYLINE
  5
2A0
100
AcDbEntity
  8
ASSI
100
AcDbPolyline
 62
250
  6
CONTINUOUS
 90
12
 70
0
 10
-0.6574034484
 20
20.2814356567
 10
-0.6658654631
 20
20.2767430403
 10
-0.6745472814
 20
20.2714058049
 10
-0.6834242166
 20
20.265393653
 10
-0.692489044
 20
20.2586621758
 10
-0.7016877126
 20
20.2512006423
 10
-0.7109220711
 20
20.2430451026
 10
-0.7201555748
 20
20.2341890234
 10
-0.7293483349
 20
20.2246303896
 10
-0.7384000881
 20
20.2144397921
 10
-0.7472711094
 20
20.2036342182
 10
-0.7559215011
 20
20.1922332634
  0
LINE
  5
2A1
100
AcDbEntity
  8
ASSI
100
AcDbLine
 62
7
  6
CONTINUOUS
 10
-1.1770961676
 20
20.3507822514
 11
-1.395442205
 21
20.2315807317
  0
LINE
  5
2A2
100
AcDbEntity
  8
ASSI
100
AcDbLine
 62
7
  6
CONTINUOUS
 10
0.8173004209
 20
21.1310478204
 11
-0.7499000694
 21
20.2855072017
  0
LINE
  5
2A3
100
AcDbEntity
  8
ASSI
100
AcDbLine
 62
250
  6
CONTINUOUS
 10
0.9088472977
 20
21.1264638667
 11
-0.6574034484
 21
20.2814356567
  0
LWPOLYLINE
  5
2A4
100
AcDbEntity
  8
0
100
AcDbPolyline
 62
7
  6
CONTINUOUS
 90
38
 70
0
 10
10.1550725835
 20
24.084797071
 10
10.1145621304
 20
24.0641271914
 10
10.0749287601
 20
24.0430165249
 10
10.0361922631
 20
24.0214739265
 10
9.9983634569
 20
23.9995035312
 10
9.9614705104
 20
23.9771194132
 10
9.925556693
 20
23.9543464903
 10
9.8906386477
 20
23.9311955348
 10
9.8567318106
 20
23.9076770105
 10
9.8238729271
 20
23.8838171603
 10
9.7920843203
 20
23.8596350791
 10
9.7613681341
 20
23.8351353773
 10
9.7317288286
 20
23.8103232085
 10
9.7031870132
 20
23.7852180904
 10
9.6757449421
 20
23.7598243422
 10
9.6493833995
 20
23.7341232167
 10
9.6241024478
 20
23.7081107125
 10
9.5999316386
 20
23.6818129817
 10
9.5768972225
 20
23.6552561876
 10
9.5550095156
 20
23.6284514644
 10
9.5342798661
 20
23.6014119247
 10
9.5147310235
 20
23.5741677647
 10
9.4963736355
 20
23.5467372588
 10
9.4792102538
 20
23.5191278859
 10
9.4632480307
 20
23.4913542155
 10
9.4484975201
 20
23.4634399017
 10
9.4349570095
 20
23.4353873995
 10
9.4226179985
 20
23.407179105
 10
9.4114836639
 20
23.3788163785
 10
9.4015659985
 20
23.350323197
 10
9.3928723248
 20
23.3217156021
 10
9.3854066724
 20
23.2930012532
 10
9.379175505
 20
23.2641984858
 10
9.3741859842
 20
23.235339633
 10
9.3704397113
 20
23.2064425473
 10
9.367936327
 20
23.1775158819
 10
9.3666759319
 20
23.1485783173
 10
9.3665113187
 20
23.1336667947
  0
LINE
  5
2A5
100
AcDbEntity
  8
0
100
AcDbLine
 62
7
  6
CONTINUOUS
 10
14.3721751246
 20
26.2001646774
 11
10.1550725835
 21
24.084797071
  0
LINE
  5
2A6
100
AcDbEntity
  8
ASSI
100
AcDbLine
 62
7
  6
CONTINUOUS
 10
0.8173438552
 20
21.1310712107
 11
0.8215102918
 21
21.1331547152
  0
LINE
  5
2A7
100
AcDbEntity
  8
ASSI
100
AcDbLine
 62
7
  6
CONTINUOUS
 10
-1.1770961676
 20
20.3507822514
 11
2.7212657728
 21
22.284398513
  0
LINE
  5
2A8
100
AcDbEntity
  8
0
100
AcDbLine
 62
7
  6
CONTINUOUS
 10
13.3332291283
 20
26.7895077482
 11
9.7780535674
 21
25.0809224022
  0
LINE
  5
2A9
100
AcDbEntity
  8
ASSI
100
AcDbLine
 62
7
  6
CONTINUOUS
 10
8.6331542277
 20
23.0696267158
 11
3.2684029555
 21
20.5286478927
  0
LINE
  5
2AA
100
AcDbEntity
  8
ASSI
100
AcDbLine
 62
250
  6
CONTINUOUS
 10
1.4515753128
 20
21.3771136494
 11
0.9088472977
 21
21.1264638667
  0
LWPOLYLINE
  5
2AB
100
AcDbEntity
  8
0
100
AcDbPolyline
 62
7
  6
CONTINUOUS
 90
30
 70
0
 10
13.3332291283
 20
26.7895077482
 10
13.3496484998
 20
26.7970613794
 10
13.3662636613
 20
26.804031643
 10
13.3830746128
 20
26.810418539
 10
13.4000863635
 20
26.816225426
 10
13.4172939042
 20
26.8214489455
 10
13.4346822071
 20
26.826079022
 10
13.4522514569
 20
26.8301163134
 10
13.4700014688
 20
26.8335601618
 10
13.4879166615
 20
26.8363985183
 10
13.5059974962
 20
26.8386319688
 10
13.5242435116
 20
26.8402599274
 10
13.5426377423
 20
26.8412685886
 10
13.5611807025
 20
26.8416584036
 10
13.5798718779
 20
26.8414289211
 10
13.5986927596
 20
26.8405649821
 10
13.6176442357
 20
26.8390668531
 10
13.6367254181
 20
26.8369342675
 10
13.6559151329
 20
26.8341512676
 10
13.6752144531
 20
26.8307178384
 10
13.6946223056
 20
26.8266339949
 10
13.7141142979
 20
26.821883823
 10
13.7336917436
 20
26.8164669378
 10
13.753353329
 20
26.8103837243
 10
13.7730707202
 20
26.803619424
 10
13.7928452328
 20
26.796173298
 10
13.8126755513
 20
26.7880460851
 10
13.8325293944
 20
26.7792252429
 10
13.8524082862
 20
26.7697095439
 10
13.8547030932
 20
26.768567674
  0
LINE
  5
2AC
100
AcDbEntity
  8
ASSI
100
AcDbLine
 62
7
  6
CONTINUOUS
 10
1.3654898093
 20
21.3843819658
 11
0.8215660975
 21
21.1331804881
  0
LWPOLYLINE
  5
2AD
100
AcDbEntity
  8
ASSI
100
AcDbPolyline
 62
250
  6
CONTINUOUS
 90
13
 70
0
 10
1.5143657474
 20
18.9443393795
 10
1.4946323372
 20
18.9359742719
 10
1.4729044195
 20
18.928952784
 10
1.4495455608
 20
18.9233924042
 10
1.4249466176
 20
18.9193861726
 10
1.3995191963
 20
18.9170011242
 10
1.3736887662
 20
18.9162771672
 10
1.3478875397
 20
18.9172264155
 10
1.3225472409
 20
18.9198329855
 10
1.298091881
 20
18.9240532624
 10
1.2749306639
 20
18.9298166294
 10
1.2534511392
 20
18.9370266501
 10
1.234012717
 20
18.9455626814
  0
LWPOLYLINE
  5
2AE
100
AcDbEntity
  8
DRAFT
100
AcDbPolyline
 62
7
  6
CONTINUOUS
 90
8
 70
0
 10
0.7674474806
 20
-18.7217242358
 10
0.8146145624
 20
-18.7424357536
 10
0.8605963206
 20
-18.7573366118
 10
0.9053927552
 20
-18.7664268102
 10
0.9494373417
 20
-18.7696689841
 10
0.9922966047
 20
-18.7671004984
 10
1.0326701176
 20
-18.7588334468
 10
1.0721304293
 20
-18.7439513695
  0
LWPOLYLINE
  5
2AF
100
AcDbEntity
  8
ASSI
100
AcDbPolyline
 62
250
  6
CONTINUOUS
 90
3
 70
0
 10
3.6624074035
 20
-21.3079025163
 10
3.6564611578
 20
-21.3052066242
 10
3.6393721546
 20
-21.2999894468
  0
LINE
  5
2B0
100
AcDbEntity
  8
ASSI
100
AcDbLine
 62
7
  6
CONTINUOUS
 10
0.1049799126
 20
-21.3559608312
 11
0.2985441987
 21
-21.4527429743
  0
LINE
  5
2B1
100
AcDbEntity
  8
ASSI
100
AcDbLine
 62
7
  6
CONTINUOUS
 10
0.1160441719
 20
-20.7802192046
 11
0.2658207315
 21
-20.8551074844
  0
LINE
  5
2B2
100
AcDbEntity
  8
ASSI
100
AcDbLine
 62
7
  6
CONTINUOUS
 10
1.1917115493
 20
-21.3180528933
 11
1.9187184981
 21
-21.6815563677
  0
LINE
  5
2B3
100
AcDbEntity
  8
ASSI
100
AcDbLine
 62
7
  6
CONTINUOUS
 10
0.6260261244
 20
-20.4093771559
 11
1.1917115493
 21
-20.6922198684
  0
LINE
  5
2B4
100
AcDbEntity
  8
ASSI
100
AcDbLine
 62
7
  6
CONTINUOUS
 10
1.9187184981
 20
-20.9876436404
 11
2.1188946771
 21
-21.0877317299
  0
LINE
  5
2B5
100
AcDbEntity
  8
ASSI
100
AcDbLine
 62
250
  6
CONTINUOUS
 10
3.1716105367
 20
-21.0661174721
 11
3.6393714153
 21
-21.2999890614
  0
LINE
  5
2B6
100
AcDbEntity
  8
ASSI
100
AcDbLine
 62
7
  6
CONTINUOUS
 10
3.6626468217
 20
-21.3080217749
 11
3.1716105367
 21
-21.0625036321
  0
LWPOLYLINE
  5
2B7
100
AcDbEntity
  8
ASSI
100
AcDbPolyline
 62
250
  6
CONTINUOUS
 90
13
 70
0
 10
1.3227096296
 20
-22.439770367
 10
1.341422712
 20
-22.4502079391
 10
1.361015644
 20
-22.4624087958
 10
1.3811568943
 20
-22.4761664868
 10
1.4015056533
 20
-22.4912482188
 10
1.4217176005
 20
-22.5073987942
 10
1.4414507301
 20
-22.5243449297
 10
1.4603711386
 20
-22.5417998803
 10
1.4781586744
 20
-22.5594682914
 10
1.4945123551
 20
-22.5770511964
 10
1.5091554607
 20
-22.5942510756
 10
1.5218402157
 20
-22.6107768904
 10
1.5323519818
 20
-22.6263490079
  0
LWPOLYLINE
  5
2B8
100
AcDbEntity
  8
ASSI
100
AcDbPolyline
 62
7
  6
CONTINUOUS
 90
16
 70
0
 10
2.6441068576
 20
22.7281765742
 10
2.6675452046
 20
22.7499039769
 10
2.6877668921
 20
22.7751291095
 10
2.7047719202
 20
22.8038519721
 10
2.7186627033
 20
22.8364004123
 10
2.7293368269
 20
22.8724465825
 10
2.7364870476
 20
22.9110069394
 10
2.7400109506
 20
22.9522551254
 10
2.7400109506
 20
22.9960174983
 10
2.7364870476
 20
23.0407895874
 10
2.7293368269
 20
23.0865001649
 10
2.7186627033
 20
23.1332204587
 10
2.7047719202
 20
23.1796596821
 10
2.6877668921
 20
23.2253875727
 10
2.6675452046
 20
23.2708343928
 10
2.6441068576
 20
23.3160001425
  0
LINE
  5
2B9
100
AcDbEntity
  8
ASSI
100
AcDbLine
 62
7
  6
CONTINUOUS
 10
0.0715164993
 20
19.167228735
 11
0.1049799126
 21
19.1928102832
  0
LWPOLYLINE
  5
2BA
100
AcDbEntity
  8
ASSI
100
AcDbPolyline
 62
250
  6
CONTINUOUS
 90
7
 70
0
 10
3.7298469472
 20
20.0562408817
 10
3.7465771483
 20
20.0661075774
 10
3.7606201172
 20
20.076971527
 10
3.7717408764
 20
20.0886509483
 10
3.7797533441
 20
20.1009504137
 10
3.7845234489
 20
20.1136641204
 10
3.7859789871
 20
20.1257067187
  0
LWPOLYLINE
  5
2BB
100
AcDbEntity
  8
ASSI
100
AcDbPolyline
 62
250
  6
CONTINUOUS
 90
7
 70
0
 10
3.7298469472
 20
19.7162972869
 10
3.7465771623
 20
19.7261639919
 10
3.7606201381
 20
19.7370279508
 10
3.7717408977
 20
19.7487073802
 10
3.779753361
 20
19.7610068518
 10
3.7845234578
 20
19.7737205624
 10
3.7859789871
 20
19.7857631239
  0
LWPOLYLINE
  5
2BC
100
AcDbEntity
  8
ASSI
100
AcDbPolyline
 62
250
  6
CONTINUOUS
 90
28
 70
0
 10
1.4083105929
 20
19.248578636
 10
1.3991888677
 20
19.2435685611
 10
1.3899154037
 20
19.2378834466
 10
1.3805184688
 20
19.2315049019
 10
1.3710088545
 20
19.2244016465
 10
1.3614419241
 20
19.2165749853
 10
1.3519146667
 20
19.2080714578
 10
1.3424634692
 20
19.198896986
 10
1.333127011
 20
19.1890616982
 10
1.3240010206
 20
19.1786448905
 10
1.3151243362
 20
19.1676772438
 10
1.3065291489
 20
19.1561844204
 10
1.2982915528
 20
19.1442590893
 10
1.290448969
 20
19.1319551334
 10
1.2830202654
 20
19.1193019601
 10
1.2760443472
 20
19.1063661121
 10
1.2695485386
 20
19.0932033718
 10
1.2635480947
 20
19.0798502211
 10
1.2580595947
 20
19.0663465416
 10
1.253100635
 20
19.0527382862
 10
1.2486874653
 20
19.0390730637
 10
1.2448331119
 20
19.0253932482
 10
1.2415502749
 20
19.0117458009
 10
1.2388495963
 20
18.9981773315
 10
1.2367392215
 20
18.9847294769
 10
1.2352263297
 20
18.9714467389
 10
1.2343164279
 20
18.9583762113
 10
1.234012717
 20
18.9455626814
  0
LINE
  5
2BD
100
AcDbEntity
  8
ASSI
100
AcDbLine
 62
7
  6
CONTINUOUS
 10
3.1716105367
 20
18.1764288993
 11
2.269159786
 21
17.6837545083
  0
LINE
  5
2BE
100
AcDbEntity
  8
ASSI
100
AcDbLine
 62
250
  6
CONTINUOUS
 10
3.2073292129
 20
18.1585695611
 11
2.1188946771
 21
17.574046955
  0
LWPOLYLINE
  5
2BF
100
AcDbEntity
  8
ASSI
100
AcDbPolyline
 62
250
  6
CONTINUOUS
 90
28
 70
0
 10
1.54971041
 20
19.0047000267
 10
1.5478501639
 20
19.0037158601
 10
1.5459716437
 20
19.0025905231
 10
1.5440748494
 20
19.0013240156
 10
1.5421485066
 20
18.9999137037
 10
1.5402038898
 20
18.9983622213
 10
1.5382748222
 20
18.9966774706
 10
1.5363612149
 20
18.9948545146
 10
1.5344631568
 20
18.9928982902
 10
1.5326147374
 20
18.9908315108
 10
1.530817874
 20
18.9886510675
 10
1.5290706492
 20
18.9863600693
 10
1.5274014011
 20
18.9839905563
 10
1.5258135582
 20
18.9815430202
 10
1.5243036918
 20
18.9790169694
 10
1.5228898545
 20
18.9764429698
 10
1.521574335
 20
18.973822392
 10
1.5203548445
 20
18.9711538653
 10
1.5192425688
 20
18.9684638437
 10
1.518238422
 20
18.9657521019
 10
1.5173414898
 20
18.9630188652
 10
1.5165602155
 20
18.9602912633
 10
1.515895655
 20
18.9575694084
 10
1.5153467523
 20
18.9548531883
 10
1.5149187826
 20
18.9521693961
 10
1.5146135044
 20
18.9495269627
 10
1.5144291594
 20
18.9469169572
 10
1.5143657474
 20
18.9443393795
  0
LINE
  5
2C0
100
AcDbEntity
  8
ASSI
100
AcDbLine
 62
7
  6
CONTINUOUS
 10
9.8470798378
 20
22.1005144093
 11
3.4601909959
 21
18.7241289212
  0
LINE
  5
2C1
100
AcDbEntity
  8
0
100
AcDbLine
 62
7
  6
CONTINUOUS
 10
9.8460062348
 20
22.7781558868
 11
10.4194275307
 21
23.0805322746
  0
LINE
  5
2C2
100
AcDbEntity
  8
ASSI
100
AcDbLine
 62
7
  6
CONTINUOUS
 10
9.8244125477
 20
22.4992095245
 11
3.2871367844
 21
19.0727681065
  0
LINE
  5
2C3
100
AcDbEntity
  8
ASSI
100
AcDbLine
 62
250
  6
CONTINUOUS
 10
3.0302107196
 20
20.0657821557
 11
1.4083105929
 21
19.248578636
  0
LINE
  5
2C4
100
AcDbEntity
  8
ASSI
100
AcDbLine
 62
250
  6
CONTINUOUS
 10
3.1716105367
 20
19.8219035464
 11
1.54971041
 21
19.0047000267
  0
LINE
  5
2C5
100
AcDbEntity
  8
DRAFT
100
AcDbLine
 62
7
  6
CONTINUOUS
 10
10.8377827814
 20
23.9941958916
 11
14.3775093481
 21
25.7697779918
  0
LINE
  5
2C6
100
AcDbEntity
  8
0
100
AcDbLine
 62
7
  6
CONTINUOUS
 10
10.5679474679
 20
22.868109545
 11
11.0629222147
 21
23.1155969184
  0
LINE
  5
2C7
100
AcDbEntity
  8
RACCORDO
100
AcDbLine
 62
7
  6
CONTINUOUS
 10
13.5044352808
 20
23.2827643474
 11
12.2196358162
 21
22.6403646152
  0
LINE
  5
2C8
100
AcDbEntity
  8
DRAFT
100
AcDbLine
 62
7
  6
CONTINUOUS
 10
10.8377827814
 20
24.0033913395
 11
10.1550725835
 21
23.6633870411
  0
LINE
  5
2C9
100
AcDbEntity
  8
ASSI
100
AcDbLine
 62
250
  6
CONTINUOUS
 10
3.5543151861
 20
20.3257418349
 11
3.0302107196
 21
20.0657821557
  0
LINE
  5
2CA
100
AcDbEntity
  8
ASSI
100
AcDbLine
 62
250
  6
CONTINUOUS
 10
3.6957150032
 20
20.0818632256
 11
3.1716105367
 21
19.8219035464
  0
LINE
  5
2CB
100
AcDbEntity
  8
ASSI
100
AcDbLine
 62
250
  6
CONTINUOUS
 10
3.90178391
 20
18.5033324641
 11
3.2070197236
 21
18.1587243058
  0
LINE
  5
2CC
100
AcDbEntity
  8
DRAFT
100
AcDbLine
 62
7
  6
CONTINUOUS
 10
3.939473578
 20
18.4818858846
 11
10.3329750033
 21
21.5875233678
  0
LINE
  5
2CD
100
AcDbEntity
  8
0
100
AcDbLine
 62
7
  6
CONTINUOUS
 10
17.9955427508
 20
24.458350937
 11
14.4260611286
 21
22.7569186216
  0
LWPOLYLINE
  5
2CE
100
AcDbEntity
  8
0
100
AcDbPolyline
 62
7
  6
CONTINUOUS
 90
30
 70
0
 10
17.9955427508
 20
24.458350937
 10
18.0118102418
 20
24.4659805084
 10
18.0278366486
 20
24.4732451493
 10
18.0436219711
 20
24.4801448599
 10
18.0591718532
 20
24.4866826812
 10
18.0744806511
 20
24.4928555721
 10
18.0895314332
 20
24.498654409
 10
18.1043247526
 20
24.5040796655
 10
18.1188600562
 20
24.5091308681
 10
18.1331187536
 20
24.5137974723
 10
18.1471015431
 20
24.5180799453
 10
18.1608077265
 20
24.52197782
 10
18.1742166184
 20
24.5254791505
 10
18.1873288672
 20
24.5285843212
 10
18.2001438245
 20
24.5312929478
 10
18.2126388602
 20
24.5335919318
 10
18.2248147626
 20
24.5354815896
 10
18.2366707436
 20
24.5369616048
 10
18.2481818086
 20
24.5380179297
 10
18.2593486924
 20
24.5386507188
 10
18.2701706602
 20
24.5388598176
 10
18.2806205139
 20
24.538630715
 10
18.2906989157
 20
24.5379633518
 10
18.3004052033
 20
24.5368577872
 10
18.3097101912
 20
24.5352996885
 10
18.3186143147
 20
24.5332887571
 10
18.3271171385
 20
24.5308252915
 10
18.3351881714
 20
24.5278958544
 10
18.3428276774
 20
24.5244998483
 10
18.3436815502
 20
24.5240784455
  0
LWPOLYLINE
  5
2CF
100
AcDbEntity
  8
0
100
AcDbPolyline
 62
7
  6
CONTINUOUS
 90
100
 70
0
 10
14.4260611286
 20
22.7569186216
 10
14.3778200161
 20
22.7344020366
 10
14.3286606788
 20
22.7123997876
 10
14.2785831169
 20
22.6909118744
 10
14.2275632237
 20
22.6699286468
 10
14.1756251059
 20
22.6494597551
 10
14.1228410828
 20
22.6295341501
 10
14.0692155173
 20
22.610154489
 10
14.0147440465
 20
22.5913181147
 10
13.9594859015
 20
22.5730460063
 10
13.9034323717
 20
22.5553365872
 10
13.8465921676
 20
22.538191434
 10
13.7890506527
 20
22.5216362564
 10
13.7308166331
 20
22.5056743787
 10
13.6718813028
 20
22.4903024766
 10
13.6123036063
 20
22.4755362868
 10
13.5520706326
 20
22.4613738715
 10
13.4911952927
 20
22.4478171685
 10
13.4297752655
 20
22.4348877274
 10
13.3678238491
 20
22.422589191
 10
13.3053277453
 20
22.4109179165
 10
13.2423447378
 20
22.3998845257
 10
13.1788595814
 20
22.3894873097
 10
13.1148875212
 20
22.3797279773
 10
13.0505320765
 20
22.3706222773
 10
12.9858087602
 20
22.3621732589
 10
12.9207020594
 20
22.3543778729
 10
12.8552689539
 20
22.3472427202
 10
12.7894929287
 20
22.3407668493
 10
12.7233904989
 20
22.3349512118
 10
12.6570681895
 20
22.3298052627
 10
12.5905417989
 20
22.3253309844
 10
12.5237955287
 20
22.3215263945
 10
12.456888509
 20
22.3183950015
 10
12.3898046864
 20
22.3159369955
 10
12.3225601142
 20
22.3141521865
 10
12.2552620834
 20
22.3130435127
 10
12.1879248355
 20
22.3126119578
 10
12.120534129
 20
22.3128565382
 10
12.0531545291
 20
22.3137772417
 10
11.9857730224
 20
22.3153751755
 10
11.9184026224
 20
22.3176492323
 10
11.8511469353
 20
22.3205960782
 10
11.7840166584
 20
22.3242161765
 10
11.7170010944
 20
22.3285090639
 10
11.6501717579
 20
22.333470016
 10
11.5835211811
 20
22.3391003604
 10
11.5170568318
 20
22.3453987696
 10
11.450872628
 20
22.3523565361
 10
11.3849736159
 20
22.3599741783
 10
11.3193547494
 20
22.3682511778
 10
11.2540948083
 20
22.3771772733
 10
11.1891933702
 20
22.3867532625
 10
11.1246508576
 20
22.3969783477
 10
11.0605473178
 20
22.4078398738
 10
10.9968809275
 20
22.419339125
 10
10.93365351
 20
22.431474817
 10
10.8709505824
 20
22.4442304417
 10
10.8087785239
 20
22.4576055491
 10
10.7471309553
 20
22.4716005893
 10
10.6860742567
 20
22.4862004042
 10
10.6256008476
 20
22.501407767
 10
10.5657183085
 20
22.5172199045
 10
10.5065157602
 20
22.5336133401
 10
10.4480041627
 20
22.55058588
 10
10.3901725561
 20
22.5681397179
 10
10.3330771814
 20
22.5862579585
 10
10.276707389
 20
22.6049451811
 10
10.2210738285
 20
22.6241968064
 10
10.1662646895
 20
22.6439822011
 10
10.1122931526
 20
22.6642973943
 10
10.0591460371
 20
22.6851463569
 10
10.0068719907
 20
22.7065103684
 10
9.9554596462
 20
22.7283954591
 10
9.9049203707
 20
22.7507955986
 10
9.8553369133
 20
22.7736739755
 10
9.8067227229
 20
22.7970253849
 10
9.7590643506
 20
22.8208550316
 10
9.7124041987
 20
22.8451417189
 10
9.666731919
 20
22.8698921417
 10
9.6220578598
 20
22.8950996051
 10
9.5784554687
 20
22.9207228272
 10
9.5359368082
 20
22.9467561289
 10
9.4944898158
 20
22.9732051893
 10
9.4541517523
 20
23.0000457643
 10
9.4149148146
 20
23.0272843745
 10
9.3767868056
 20
23.0549144994
 10
9.3398283954
 20
23.0828923331
 10
9.3040486923
 20
23.1112125854
 10
9.2694385879
 20
23.1398805467
 10
9.2360314266
 20
23.1688682817
 10
9.2038230049
 20
23.1981811631
 10
9.1728175262
 20
23.2278138182
 10
9.1430609453
 20
23.257722194
 10
9.1145587355
 20
23.287902549
 10
9.0873054234
 20
23.3183586246
 10
9.0613305446
 20
23.3490575915
 10
9.0366333459
 20
23.38000254
 10
9.0132145805
 20
23.4111903798
 10
8.998771381
 20
23.4314604139
  0
LWPOLYLINE
  5
2D0
100
AcDbEntity
  8
RACCORDO
100
AcDbPolyline
 62
7
  6
CONTINUOUS
 90
10
 70
0
 10
14.3530268893
 20
22.8585320143
 10
14.3701958966
 20
22.8663034564
 10
14.3870700366
 20
22.8723939394
 10
14.4036493094
 20
22.876803463
 10
14.4200592286
 20
22.8795303013
 10
14.4361742806
 20
22.8805761804
 10
14.4516179246
 20
22.8799462786
 10
14.466264647
 20
22.8776423222
 10
14.4802399613
 20
22.8736625849
 10
14.4935438677
 20
22.8680070668
  0
LINE
  5
2D1
100
AcDbEntity
  8
RACCORDO
100
AcDbLine
 62
250
  6
CONTINUOUS
 10
-2.0284153921
 20
15.461319
 11
1.3360002519
 21
16.9525275691
  0
LWPOLYLINE
  5
2D2
100
AcDbEntity
  8
ASSI
100
AcDbPolyline
 62
250
  6
CONTINUOUS
 90
13
 70
0
 10
1.5143657474
 20
18.6270705791
 10
1.4946322971
 20
18.6187054359
 10
1.4729043407
 20
18.6116839238
 10
1.4495454486
 20
18.6061235302
 10
1.4249464806
 20
18.6021172936
 10
1.3995190452
 20
18.5997322474
 10
1.373688612
 20
18.5990082982
 10
1.3478873943
 20
18.599957558
 10
1.322547115
 20
18.6025641412
 10
1.2980917818
 20
18.6067844314
 10
1.2749305961
 20
18.6125478108
 10
1.2534511055
 20
18.6197578418
 10
1.234012717
 20
18.6282938809
  0
LWPOLYLINE
  5
2D3
100
AcDbEntity
  8
DRAFT
100
AcDbPolyline
 62
7
  6
CONTINUOUS
 90
9
 70
0
 10
0.7674474806
 20
-17.5213818942
 10
0.7202803989
 20
-17.5006703763
 10
0.6742986407
 20
-17.4857695182
 10
0.6295022061
 20
-17.4766793198
 10
0.5854576196
 20
-17.4734371458
 10
0.5425983566
 20
-17.4760056316
 10
0.5022248437
 20
-17.4842726831
 10
0.4645222181
 20
-17.4983313465
 10
0.4524622915
 20
-17.5043074495
  0
LWPOLYLINE
  5
2D4
100
AcDbEntity
  8
DRAFT
100
AcDbPolyline
 62
7
  6
CONTINUOUS
 90
9
 70
0
 10
1.0502901931
 20
-17.3739139261
 10
1.0026479192
 20
-17.3529937521
 10
0.9562029183
 20
-17.3379427727
 10
0.9109551904
 20
-17.3287609879
 10
0.8664668979
 20
-17.32548614
 10
0.8231758784
 20
-17.3280804866
 10
0.7823956446
 20
-17.3364308015
 10
0.7443131837
 20
-17.3506310895
 10
0.7321315721
 20
-17.3566674943
  0
LINE
  5
2D5
100
AcDbEntity
  8
ASSI
100
AcDbLine
 62
250
  6
CONTINUOUS
 10
3.6573177369
 20
-21.3107743202
 11
3.6393205606
 21
-21.2999787936
  0
LWPOLYLINE
  5
2D6
100
AcDbEntity
  8
ASSI
100
AcDbPolyline
 62
7
  6
CONTINUOUS
 90
9
 70
0
 10
-13.4755683465
 20
26.024437264
 10
-13.475434727
 20
26.0163105193
 10
-13.4732519539
 20
25.9905427
 10
-13.4684043224
 20
25.9653652517
 10
-13.460941572
 20
25.9410963583
 10
-13.4510372494
 20
25.9181296955
 10
-13.4388264675
 20
25.8966153171
 10
-13.4244093624
 20
25.87668092
 10
-13.4080270213
 20
25.8586265722
  0
LWPOLYLINE
  5
2D7
100
AcDbEntity
  8
0
100
AcDbPolyline
 62
7
  6
CONTINUOUS
 90
34
 70
0
 10
-12.6588915483
 20
-11.9901704676
 10
-12.6583222517
 20
-12.048855706
 10
-12.6545150668
 20
-12.108792364
 10
-12.6474695793
 20
-12.1699802659
 10
-12.6371026427
 20
-12.2329235869
 10
-12.6234954095
 20
-12.2971172872
 10
-12.6068940897
 20
-12.3610474673
 10
-12.5871580222
 20
-12.4246603463
 10
-12.5644254344
 20
-12.4880086966
 10
-12.5393620034
 20
-12.5497389778
 10
-12.5119891474
 20
-12.6096082046
 10
-12.4822833695
 20
-12.667858528
 10
-12.45084425
 20
-12.723864684
 10
-12.4177568906
 20
-12.777483661
 10
-12.382934433
 20
-12.8288577655
 10
-12.3467193868
 20
-12.8777900891
 10
-12.3090382472
 20
-12.9243611625
 10
-12.269962592
 20
-12.9684896549
 10
-12.2300535098
 20
-13.0097362798
 10
-12.1893229499
 20
-13.0480544256
 10
-12.1477579406
 20
-13.0834902815
 10
-12.1058834891
 20
-13.1157443287
 10
-12.0640685742
 20
-13.1446685129
 10
-12.0219443799
 20
-13.1704109662
 10
-11.9789290262
 20
-13.1931163577
 10
-11.9345810788
 20
-13.2131074336
 10
-11.8893392699
 20
-13.2300602454
 10
-11.8439420739
 20
-13.243149462
 10
-11.7980563845
 20
-13.2522105888
 10
-11.75201408
 20
-13.2574075405
 10
-11.7075545407
 20
-13.2584091083
 10
-11.6651240152
 20
-13.2549453512
 10
-11.6242800196
 20
-13.2472878231
 10
-11.5840361124
 20
-13.235432214
  0
LINE
  5
2D8
100
AcDbEntity
  8
ASSI
100
AcDbLine
 62
7
  6
CONTINUOUS
 10
-13.4755679079
 20
26.0244372643
 11
-13.4755679546
 21
26.3417743733
  0
LINE
  5
2D9
100
AcDbEntity
  8
ASSI
100
AcDbLine
 62
250
  6
CONTINUOUS
 10
-13.4169893108
 20
25.9538122455
 11
-13.4169893108
 21
26.2710636953
  0
LINE
  5
2DA
100
AcDbEntity
  8
0
100
AcDbLine
 62
7
  6
CONTINUOUS
 10
-13.2408477618
 20
24.8209052689
 11
-13.2408477618
 21
24.2409515759
  0
LINE
  5
2DB
100
AcDbEntity
  8
ASSI
100
AcDbLine
 62
7
  6
CONTINUOUS
 10
-12.7607048342
 20
25.0689587504
 11
-12.7607048342
 21
25.5229208547
  0
LINE
  5
2DC
100
AcDbEntity
  8
ASSI
100
AcDbLine
 62
250
  6
CONTINUOUS
 10
-12.6874815294
 20
24.9772350582
 11
-12.6874815294
 21
25.4863092024
  0
LINE
  5
2DD
100
AcDbEntity
  8
ASSI
100
AcDbLine
 62
7
  6
CONTINUOUS
 10
-12.5547440972
 20
24.7860186487
 11
-12.5547440972
 21
25.4238640696
  0
LINE
  5
2DE
100
AcDbEntity
  8
ASSI
100
AcDbLine
 62
250
  6
CONTINUOUS
 10
-12.4815207925
 20
24.7352276109
 11
-12.4815207925
 21
25.4860606358
  0
LINE
  5
2DF
100
AcDbEntity
  8
ASSI
100
AcDbLine
 62
250
  6
CONTINUOUS
 10
-12.2879565064
 20
24.6384454678
 11
-12.2879565064
 21
25.3892784927
  0
LINE
  5
2E0
100
AcDbEntity
  8
ASSI
100
AcDbLine
 62
250
  6
CONTINUOUS
 10
-11.9375152185
 20
24.5140978912
 11
-11.9375152185
 21
25.1113260469
  0
LINE
  5
2E1
100
AcDbEntity
  8
0
100
AcDbLine
 62
7
  6
CONTINUOUS
 10
-12.6542193655
 20
-11.7060691922
 11
-12.6588915483
 21
-11.9901704676
  0
LINE
  5
2E2
100
AcDbEntity
  8
DRAFT
100
AcDbLine
 62
7
  6
CONTINUOUS
 10
-12.6588915734
 20
-11.9901702264
 11
-12.6542160504
 21
-11.7058711516
  0
LINE
  5
2E3
100
AcDbEntity
  8
0
100
AcDbLine
 62
7
  6
CONTINUOUS
 10
-12.6492956824
 20
-11.4181717156
 11
-12.6542193655
 21
-11.7060691922
  0
LINE
  5
2E4
100
AcDbEntity
  8
DRAFT
100
AcDbLine
 62
7
  6
CONTINUOUS
 10
-12.6542160504
 20
-11.7058711516
 11
-12.6492878591
 21
-11.4177230821
  0
LINE
  5
2E5
100
AcDbEntity
  8
0
100
AcDbLine
 62
7
  6
CONTINUOUS
 10
-12.6441125848
 20
-11.1264466708
 11
-12.6492956824
 21
-11.4181717156
  0
LINE
  5
2E6
100
AcDbEntity
  8
DRAFT
100
AcDbLine
 62
7
  6
CONTINUOUS
 10
-12.6492878591
 20
-11.4177230821
 11
-12.6441010039
 21
-11.1258069254
  0
LINE
  5
2E7
100
AcDbEntity
  8
0
100
AcDbLine
 62
7
  6
CONTINUOUS
 10
-12.6386604043
 20
-10.8307784504
 11
-12.6441125848
 21
-11.1264466708
  0
LINE
  5
2E8
100
AcDbEntity
  8
DRAFT
100
AcDbLine
 62
7
  6
CONTINUOUS
 10
-12.6441010039
 20
-11.1258069254
 11
-12.6386573671
 21
-10.8306181761
  0
LINE
  5
2E9
100
AcDbEntity
  8
0
100
AcDbLine
 62
7
  6
CONTINUOUS
 10
-12.6329528985
 20
-10.5322756849
 11
-12.6386604043
 21
-10.8307784504
  0
LINE
  5
2EA
100
AcDbEntity
  8
DRAFT
100
AcDbLine
 62
7
  6
CONTINUOUS
 10
-12.6386573671
 20
-10.8306181761
 11
-12.6329539124
 21
-10.5323282415
  0
LWPOLYLINE
  5
2EB
100
AcDbEntity
  8
ASSI
100
AcDbPolyline
 62
250
  6
CONTINUOUS
 90
18
 70
0
 10
-13.4169893108
 20
26.2710636953
 10
-13.4167835367
 20
26.2816237884
 10
-13.4161434171
 20
26.2926793906
 10
-13.4150338489
 20
26.3042182075
 10
-13.4134157879
 20
26.3162512896
 10
-13.411257587
 20
26.3287286787
 10
-13.4085467814
 20
26.3415365998
 10
-13.4052627992
 20
26.3546407081
 10
-13.4013871753
 20
26.3680014225
 10
-13.3969343871
 20
26.3814882571
 10
-13.3919011411
 20
26.3950550675
 10
-13.386287046
 20
26.4086516833
 10
-13.3801352751
 20
26.4221402758
 10
-13.3734645824
 20
26.4354629833
 10
-13.3662884806
 20
26.4485769587
 10
-13.3586621677
 20
26.4613729884
 10
-13.3506228394
 20
26.4737907205
 10
-13.3421904969
 20
26.4858010792
  0
LINE
  5
2EC
100
AcDbEntity
  8
DRAFT
100
AcDbLine
 62
7
  6
CONTINUOUS
 10
-12.6329539124
 20
-10.5323282415
 11
-12.6270944389
 21
-10.236398066
  0
LINE
  5
2ED
100
AcDbEntity
  8
0
100
AcDbLine
 62
7
  6
CONTINUOUS
 10
-12.6270903337
 20
-10.2361942204
 11
-12.6329528985
 21
-10.5322756849
  0
LINE
  5
2EE
100
AcDbEntity
  8
DRAFT
100
AcDbLine
 62
7
  6
CONTINUOUS
 10
-12.6270944389
 20
-10.236398066
 11
-12.621093812
 21
-9.9433026691
  0
LINE
  5
2EF
100
AcDbEntity
  8
0
100
AcDbLine
 62
7
  6
CONTINUOUS
 10
-12.6210912737
 20
-9.9431806827
 11
-12.6270903337
 21
-10.2361942204
  0
LINE
  5
2F0
100
AcDbEntity
  8
DRAFT
100
AcDbLine
 62
7
  6
CONTINUOUS
 10
-12.621093812
 20
-9.9433026691
 11
-12.6149649306
 21
-9.653368657
  0
LINE
  5
2F1
100
AcDbEntity
  8
0
100
AcDbLine
 62
7
  6
CONTINUOUS
 10
-12.6149640896
 20
-9.6533294875
 11
-12.6210912737
 21
-9.9431806827
  0
LINE
  5
2F2
100
AcDbEntity
  8
0
100
AcDbLine
 62
7
  6
CONTINUOUS
 10
-12.6087158103
 20
-9.3666666924
 11
-12.6149640896
 21
-9.6533294875
  0
LINE
  5
2F3
100
AcDbEntity
  8
DRAFT
100
AcDbLine
 62
7
  6
CONTINUOUS
 10
-12.6149649306
 20
-9.653368657
 11
-12.6087158161
 21
-9.3666669563
  0
LWPOLYLINE
  5
2F4
100
AcDbEntity
  8
DRAFT
100
AcDbPolyline
 62
7
  6
CONTINUOUS
 90
3
 70
0
 10
-12.6087158161
 20
-9.3666669563
 10
-12.604273502
 20
-9.2927232613
 10
-12.5948807297
 20
-9.2229871415
  0
LWPOLYLINE
  5
2F5
100
AcDbEntity
  8
ASSI
100
AcDbPolyline
 62
250
  6
CONTINUOUS
 90
7
 70
0
 10
-8.800521718
 20
26.4189570713
 10
-8.8019772473
 20
26.4069145098
 10
-8.8067473442
 20
26.3942007992
 10
-8.8147598074
 20
26.3819013276
 10
-8.825880567
 20
26.3702218982
 10
-8.8399235428
 20
26.3593579394
 10
-8.8566537579
 20
26.3494912343
  0
LWPOLYLINE
  5
2F6
100
AcDbEntity
  8
ASSI
100
AcDbPolyline
 62
7
  6
CONTINUOUS
 90
3
 70
0
 10
-8.8098234101
 20
26.0098686917
 10
-8.804459064
 20
26.0340257095
 10
-8.8013160923
 20
26.0588551983
  0
LWPOLYLINE
  5
2F7
100
AcDbEntity
  8
ASSI
100
AcDbPolyline
 62
250
  6
CONTINUOUS
 90
17
 70
0
 10
-0.7559215011
 20
20.1922332634
 10
-0.7642597864
 20
20.1803361755
 10
-0.7722459144
 20
20.1679868132
 10
-0.7798513113
 20
20.1552152425
 10
-0.7870141355
 20
20.1421166667
 10
-0.7937002915
 20
20.1287525625
 10
-0.7998930497
 20
20.1151552919
 10
-0.8055654382
 20
20.1013827801
 10
-0.8106959455
 20
20.0874871918
 10
-0.8152672347
 20
20.0735152978
 10
-0.8192626709
 20
20.0595180722
 10
-0.8226680022
 20
20.0455451148
 10
-0.8254707858
 20
20.0316468949
 10
-0.8276606959
 20
20.0178755308
 10
-0.8292301084
 20
20.0042810049
 10
-0.8301737795
 20
19.9909110443
 10
-0.8304886057
 20
19.9778133428
  0
LINE
  5
2F8
100
AcDbEntity
  8
ASSI
100
AcDbLine
 62
250
  6
CONTINUOUS
 10
3.5605192663
 20
17.5489616289
 11
2.4720847305
 21
16.9644390227
  0
LINE
  5
2F9
100
AcDbEntity
  8
RACCORDO
100
AcDbLine
 62
250
  6
CONTINUOUS
 10
19.1627555746
 20
23.4547824775
 11
4.5605823531
 21
16.0258861497
  0
LINE
  5
2FA
100
AcDbEntity
  8
RACCORDO
100
AcDbLine
 62
7
  6
CONTINUOUS
 10
14.3529605162
 20
22.8584988277
 11
13.5646049003
 21
22.4643210198
  0
LINE
  5
2FB
100
AcDbEntity
  8
ASSI
100
AcDbLine
 62
250
  6
CONTINUOUS
 10
4.2552834527
 20
17.8936359408
 11
3.5605192663
 21
17.5490277825
  0
LWPOLYLINE
  5
2FC
100
AcDbEntity
  8
RACCORDO
100
AcDbPolyline
 62
250
  6
CONTINUOUS
 90
34
 70
0
 10
19.1627555746
 20
23.4547824775
 10
19.1815920899
 20
23.4641055788
 10
19.2000342066
 20
23.4731481159
 10
19.2180682295
 20
23.4819033735
 10
19.2356807664
 20
23.4903648502
 10
19.2528587382
 20
23.4985262623
 10
19.2695893884
 20
23.506381549
 10
19.2858602928
 20
23.5139248771
 10
19.3016593684
 20
23.5211506448
 10
19.3169748828
 20
23.5280534863
 10
19.3317954627
 20
23.5346282753
 10
19.3461101021
 20
23.5408701295
 10
19.359908171
 20
23.5467744136
 10
19.3731794227
 20
23.5523367431
 10
19.3859140021
 20
23.5575529873
 10
19.3981024524
 20
23.5624192727
 10
19.4097357223
 20
23.5669319855
 10
19.4208051728
 20
23.5710877745
 10
19.4313025839
 20
23.5748835536
 10
19.44122016
 20
23.5783165041
 10
19.4505505362
 20
23.5813840767
 10
19.4592867839
 20
23.5840839932
 10
19.4674224154
 20
23.5864142489
 10
19.4749513891
 20
23.5883731131
 10
19.4818681141
 20
23.5899591313
 10
19.4881674538
 20
23.5911711256
 10
19.4938447304
 20
23.5920081961
 10
19.4988957279
 20
23.5924697211
 10
19.5033166953
 20
23.5925553578
 10
19.5071043498
 20
23.5922650428
 10
19.5102558784
 20
23.5915989915
 10
19.512768941
 20
23.5905576985
 10
19.5146416712
 20
23.5891419373
 10
19.5155988065
 20
23.5878808641
  0
LINE
  5
2FD
100
AcDbEntity
  8
RACCORDO
100
AcDbLine
 62
7
  6
CONTINUOUS
 10
18.8198579986
 20
24.0461933131
 11
11.0856690872
 21
20.2893181068
  0
LWPOLYLINE
  5
2FE
100
AcDbEntity
  8
RACCORDO
100
AcDbPolyline
 62
7
  6
CONTINUOUS
 90
33
 70
0
 10
18.8198579986
 20
24.0461933131
 10
18.8351659716
 20
24.0534919976
 10
18.8502961127
 20
24.0604261177
 10
18.8652411113
 20
24.0669945967
 10
18.8799924384
 20
24.0731970062
 10
18.8945442627
 20
24.0790323269
 10
18.9088934462
 20
24.0844988719
 10
18.9230329348
 20
24.089596501
 10
18.9369559577
 20
24.0943251028
 10
18.9506599306
 20
24.0986832442
 10
18.9641380721
 20
24.1026713778
 10
18.977383909
 20
24.1062899974
 10
18.9903954541
 20
24.1095379579
 10
19.0031662195
 20
24.1124162935
 10
19.0156900431
 20
24.1149260901
 10
19.02796557
 20
24.1170665139
 10
19.039986626
 20
24.1188391657
 10
19.0517473728
 20
24.1202457057
 10
19.0632471119
 20
24.1212856244
 10
19.0744800012
 20
24.1219610704
 10
19.0854405382
 20
24.1222742562
 10
19.0961286926
 20
24.1222250003
 10
19.1065389705
 20
24.1218159758
 10
19.1166662153
 20
24.1210499224
 10
19.1265110677
 20
24.1199269812
 10
19.1360683986
 20
24.1184503226
 10
19.1453334021
 20
24.1166231852
 10
19.1543073718
 20
24.1144460217
 10
19.1629855505
 20
24.1119224718
 10
19.1713634933
 20
24.1090562427
 10
19.1794431322
 20
24.1058480812
 10
19.187220091
 20
24.1023020648
 10
19.1887693213
 20
24.101537421
  0
LINE
  5
2FF
100
AcDbEntity
  8
RACCORDO
100
AcDbLine
 62
250
  6
CONTINUOUS
 10
-1.6934803696
 20
14.8430831809
 11
1.6709352745
 21
16.33429175
  0
LINE
  5
300
100
AcDbEntity
  8
DRAFT
100
AcDbLine
 62
7
  6
CONTINUOUS
 10
2.4720847305
 20
-16.309459117
 11
0.6260261244
 21
-15.386429814
  0
LWPOLYLINE
  5
301
100
AcDbEntity
  8
0
100
AcDbPolyline
 62
7
  6
CONTINUOUS
 90
25
 70
0
 10
-11.2249950806
 20
-10.0585269492
 10
-11.2260068713
 20
-9.9824076969
 10
-11.232167091
 20
-9.9051782445
 10
-11.2434752443
 20
-9.8268383885
 10
-11.2600834948
 20
-9.746705971
 10
-11.2818357481
 20
-9.6654614329
 10
-11.3082690119
 20
-9.585148439
 10
-11.3395010612
 20
-9.505838296
 10
-11.3754077541
 20
-9.4274569442
 10
-11.4151648623
 20
-9.3518307574
 10
-11.4588719941
 20
-9.2790215474
 10
-11.5064220424
 20
-9.2089642736
 10
-11.5566835422
 20
-9.1432963069
 10
-11.6097017357
 20
-9.0821462281
 10
-11.6654250124
 20
-9.0253827359
 10
-11.722580654
 20
-8.9742551643
 10
-11.7811758938
 20
-8.9288952424
 10
-11.8411998946
 20
-8.8891697247
 10
-11.9013575115
 20
-8.8559325405
 10
-11.9616813547
 20
-8.8293080688
 10
-12.0221386517
 20
-8.8091718913
 10
-12.0813412251
 20
-8.7960069457
 10
-12.139263619
 20
-8.7899819654
 10
-12.1959350493
 20
-8.7909298474
 10
-12.2500542473
 20
-8.7988319117
  0
LINE
  5
302
100
AcDbEntity
  8
ASSI
100
AcDbLine
 62
7
  6
CONTINUOUS
 10
-11.3947891558
 20
24.8399630155
 11
-11.3947891558
 21
24.3989685737
  0
LINE
  5
303
100
AcDbEntity
  8
ASSI
100
AcDbLine
 62
250
  6
CONTINUOUS
 10
-11.3524879881
 20
24.9215442336
 11
-11.3524879881
 21
25.238813034
  0
LINE
  5
304
100
AcDbEntity
  8
ASSI
100
AcDbLine
 62
250
  6
CONTINUOUS
 10
-11.0721349577
 20
24.9203209317
 11
-11.0721349577
 21
25.237589732
  0
LINE
  5
305
100
AcDbEntity
  8
ASSI
100
AcDbLine
 62
250
  6
CONTINUOUS
 10
-10.667782207
 20
23.967385397
 11
-10.667782207
 21
24.6475566853
  0
LINE
  5
306
100
AcDbEntity
  8
ASSI
100
AcDbLine
 62
250
  6
CONTINUOUS
 10
-10.3173409191
 20
24.735205307
 11
-10.3173409191
 21
23.9770048609
  0
LINE
  5
307
100
AcDbEntity
  8
0
100
AcDbLine
 62
250
  6
CONTINUOUS
 10
-10.1033850362
 20
22.8331047047
 11
-10.1033850362
 21
22.6722202131
  0
LINE
  5
308
100
AcDbEntity
  8
0
100
AcDbLine
 62
250
  6
CONTINUOUS
 10
-9.8242927648
 20
22.693558569
 11
-9.8242927648
 21
22.5326740774
  0
LWPOLYLINE
  5
309
100
AcDbEntity
  8
ASSI
100
AcDbPolyline
 62
250
  6
CONTINUOUS
 90
28
 70
0
 10
-11.0721349577
 20
25.237589732
 10
-11.0721032006
 20
25.2397296788
 10
-11.0719677626
 20
25.2419581979
 10
-11.0717286438
 20
25.2442752892
 10
-11.0713899435
 20
25.2466925055
 10
-11.0709475624
 20
25.2491982942
 10
-11.0703892021
 20
25.2517579964
 10
-11.0697108144
 20
25.2543743983
 10
-11.0689164474
 20
25.2570447138
 10
-11.0680059476
 20
25.2597259266
 10
-11.0669752372
 20
25.262418838
 10
-11.0658283939
 20
25.2651226465
 10
-11.0645774968
 20
25.2677919313
 10
-11.0632205192
 20
25.2704237977
 10
-11.0617594878
 20
25.2730211402
 10
-11.0602125619
 20
25.2755472219
 10
-11.058579524
 20
25.27799867
 10
-11.0568605916
 20
25.2803788573
 10
-11.0550745758
 20
25.2826611653
 10
-11.0532209223
 20
25.2848441516
 10
-11.0513001854
 20
25.2869292587
 10
-11.0493328385
 20
25.288894196
 10
-11.0473183209
 20
25.2907376555
 10
-11.0452571934
 20
25.2924609452
 10
-11.0431716114
 20
25.2940456991
 10
-11.0410689603
 20
25.295485795
 10
-11.0389418549
 20
25.2967873551
 10
-11.0367902951
 20
25.2979503792
  0
LINE
  5
30A
100
AcDbEntity
  8
DRAFT
100
AcDbLine
 62
7
  6
CONTINUOUS
 10
-11.2704029568
 20
-12.3913444316
 11
-11.2751872338
 21
-12.6820006188
  0
LINE
  5
30B
100
AcDbEntity
  8
0
100
AcDbLine
 62
7
  6
CONTINUOUS
 10
-11.2751872424
 20
-12.6820011526
 11
-11.2704029578
 21
-12.3913444936
  0
LINE
  5
30C
100
AcDbEntity
  8
DRAFT
100
AcDbLine
 62
7
  6
CONTINUOUS
 10
-11.265423147
 20
-12.1005966217
 11
-11.2704029568
 21
-12.3913444316
  0
LINE
  5
30D
100
AcDbEntity
  8
0
100
AcDbLine
 62
7
  6
CONTINUOUS
 10
-11.2704029578
 20
-12.3913444936
 11
-11.2654231457
 21
-12.1005965493
  0
LINE
  5
30E
100
AcDbEntity
  8
DRAFT
100
AcDbLine
 62
7
  6
CONTINUOUS
 10
-11.2602478093
 20
-11.8097574282
 11
-11.265423147
 21
-12.1005966217
  0
LINE
  5
30F
100
AcDbEntity
  8
0
100
AcDbLine
 62
7
  6
CONTINUOUS
 10
-11.2654231457
 20
-12.1005965493
 11
-11.26024781
 21
-11.809757467
  0
LINE
  5
310
100
AcDbEntity
  8
DRAFT
100
AcDbLine
 62
7
  6
CONTINUOUS
 10
-11.2548769508
 20
-11.5188272032
 11
-11.2602478093
 21
-11.8097574282
  0
LINE
  5
311
100
AcDbEntity
  8
0
100
AcDbLine
 62
7
  6
CONTINUOUS
 10
-11.26024781
 20
-11.809757467
 11
-11.2548769513
 21
-11.5188272313
  0
LINE
  5
312
100
AcDbEntity
  8
DRAFT
100
AcDbLine
 62
7
  6
CONTINUOUS
 10
-11.2492411274
 20
-11.2242380695
 11
-11.2548769508
 21
-11.5188272032
  0
LINE
  5
313
100
AcDbEntity
  8
0
100
AcDbLine
 62
7
  6
CONTINUOUS
 10
-11.2548769513
 20
-11.5188272313
 11
-11.2492368217
 21
-11.2240169081
  0
LWPOLYLINE
  5
314
100
AcDbEntity
  8
ASSI
100
AcDbPolyline
 62
250
  6
CONTINUOUS
 90
28
 70
0
 10
-11.3524879881
 20
25.238813034
 10
-11.3522768822
 20
25.2494820314
 10
-11.3516203434
 20
25.2606330114
 10
-11.3504848248
 20
25.2722523189
 10
-11.3488330798
 20
25.2843498181
 10
-11.3466351304
 20
25.2968743822
 10
-11.3438800704
 20
25.3097111402
 10
-11.3405491337
 20
25.3228251087
 10
-11.3366260065
 20
25.3361762867
 10
-11.3321273276
 20
25.3496338694
 10
-11.3270523128
 20
25.3631501293
 10
-11.3214020196
 20
25.3766773853
 10
-11.315219462
 20
25.3900839922
 10
-11.3085265541
 20
25.4033088788
 10
-11.3013358187
 20
25.4163149533
 10
-11.2936933689
 20
25.4290116382
 10
-11.2856330764
 20
25.4413420076
 10
-11.2771758531
 20
25.4532735589
 10
-11.2683558323
 20
25.4647575733
 10
-11.2592054226
 20
25.4757516148
 10
-11.249755708
 20
25.4862181557
 10
-11.2400412554
 20
25.4961192029
 10
-11.2300961899
 20
25.5054197875
 10
-11.21995592
 20
25.5140866242
 10
-11.2096583119
 20
25.5220878864
 10
-11.1992405145
 20
25.529395163
 10
-11.188738737
 20
25.5359832133
 10
-11.1781901122
 20
25.5418289886
  0
LINE
  5
315
100
AcDbEntity
  8
DRAFT
100
AcDbLine
 62
7
  6
CONTINUOUS
 10
-11.2433787781
 20
-10.928255826
 11
-11.2492411274
 21
-11.2242380695
  0
LINE
  5
316
100
AcDbEntity
  8
0
100
AcDbLine
 62
7
  6
CONTINUOUS
 10
-11.2492368217
 20
-11.2240169081
 11
-11.2433694598
 21
-10.927793266
  0
LINE
  5
317
100
AcDbEntity
  8
DRAFT
100
AcDbLine
 62
7
  6
CONTINUOUS
 10
-11.2373763889
 20
-10.6351612676
 11
-11.2433787781
 21
-10.928255826
  0
LINE
  5
318
100
AcDbEntity
  8
0
100
AcDbLine
 62
7
  6
CONTINUOUS
 10
-11.2433694598
 20
-10.927793266
 11
-11.2373679678
 21
-10.6347567492
  0
LINE
  5
319
100
AcDbEntity
  8
DRAFT
100
AcDbLine
 62
7
  6
CONTINUOUS
 10
-11.2312458122
 20
-10.3452280613
 11
-11.2373763889
 21
-10.6351612676
  0
LINE
  5
31A
100
AcDbEntity
  8
0
100
AcDbLine
 62
7
  6
CONTINUOUS
 10
-11.2373679678
 20
-10.6347567492
 11
-11.2312407744
 21
-10.3449933054
  0
LINE
  5
31B
100
AcDbEntity
  8
0
100
AcDbLine
 62
7
  6
CONTINUOUS
 10
-11.2312407744
 20
-10.3449933054
 11
-11.2249950806
 21
-10.0585269492
  0
LINE
  5
31C
100
AcDbEntity
  8
DRAFT
100
AcDbLine
 62
7
  6
CONTINUOUS
 10
-11.2249950676
 20
-10.0585271341
 11
-11.2312458122
 21
-10.3452280613
  0
LINE
  5
31D
100
AcDbEntity
  8
ASSI
100
AcDbLine
 62
7
  6
CONTINUOUS
 10
-8.8013160923
 20
26.0588551983
 11
-8.8005219007
 21
26.0790297737
  0
LWPOLYLINE
  5
31E
100
AcDbEntity
  8
DRAFT
100
AcDbPolyline
 62
7
  6
CONTINUOUS
 90
12
 70
0
 10
-11.2751872338
 20
-12.6820006188
 10
-11.279295908
 20
-12.7564418397
 10
-11.288471294
 20
-12.8265810971
 10
-11.3027128902
 20
-12.8924181942
 10
-11.3221853795
 20
-12.9543478631
 10
-11.3467203537
 20
-13.0119737624
 10
-11.3758174881
 20
-13.0641090239
 10
-11.4096182614
 20
-13.1106917322
 10
-11.4479750265
 20
-13.1517811572
 10
-11.4899554383
 20
-13.1863729918
 10
-11.5355767494
 20
-13.2142956541
 10
-11.5840330305
 20
-13.2354392972
  0
LWPOLYLINE
  5
31F
100
AcDbEntity
  8
0
100
AcDbPolyline
 62
7
  6
CONTINUOUS
 90
3
 70
0
 10
-11.2826431285
 20
-12.7886537711
 10
-11.2775001132
 20
-12.7363162634
 10
-11.2751872424
 20
-12.6820011526
  0
LWPOLYLINE
  5
320
100
AcDbEntity
  8
ASSI
100
AcDbPolyline
 62
250
  6
CONTINUOUS
 90
7
 70
0
 10
-8.800521718
 20
26.0790134765
 10
-8.8019772555
 20
26.0669708812
 10
-8.8067473597
 20
26.0542571742
 10
-8.8147598271
 20
26.0419577083
 10
-8.8258805862
 20
26.0302782863
 10
-8.8399235557
 20
26.0194143359
 10
-8.8566537579
 20
26.0095476394
  0
LWPOLYLINE
  5
321
100
AcDbEntity
  8
DRAFT
100
AcDbPolyline
 62
7
  6
CONTINUOUS
 90
7
 70
0
 10
-12.5948807297
 20
-9.2229871415
 10
-12.5805371373
 20
-9.1574584676
 10
-12.5610874595
 20
-9.0957392189
 10
-12.5366833881
 20
-9.0382259092
 10
-12.507784669
 20
-8.986110087
 10
-12.4742116476
 20
-8.9394296569
 10
-12.4361374075
 20
-8.8981439322
  0
LINE
  5
322
100
AcDbEntity
  8
ASSI
100
AcDbLine
 62
250
  6
CONTINUOUS
 10
3.1716105367
 20
19.0005166835
 11
3.7124778425
 21
19.6698041697
  0
LINE
  5
323
100
AcDbEntity
  8
ASSI
100
AcDbLine
 62
7
  6
CONTINUOUS
 10
3.7241653373
 20
19.6135620099
 11
3.7241384308
 21
19.6135288015
  0
LWPOLYLINE
  5
324
100
AcDbEntity
  8
ASSI
100
AcDbPolyline
 62
7
  6
CONTINUOUS
 90
14
 70
0
 10
2.269159786
 20
18.4419549545
 10
2.2515494824
 20
18.4251163332
 10
2.2326986799
 20
18.4091858362
 10
2.212704569
 20
18.3943647364
 10
2.1916054128
 20
18.380851031
 10
2.169602591
 20
18.3688165708
 10
2.1470642691
 20
18.358396968
 10
2.1241511414
 20
18.3497186343
 10
2.1010238789
 20
18.3429128768
 10
2.0780744996
 20
18.3380627546
 10
2.0555170504
 20
18.3352092761
 10
2.0334980371
 20
18.3343856491
 10
2.0123129646
 20
18.3355770575
 10
1.9915647735
 20
18.3388534054
  0
LINE
  5
325
100
AcDbEntity
  8
0
100
AcDbLine
 62
250
  6
CONTINUOUS
 10
12.4301439622
 20
23.4221197794
 11
12.2903464943
 21
23.3010516207
  0
LWPOLYLINE
  5
326
100
AcDbEntity
  8
0
100
AcDbPolyline
 62
7
  6
CONTINUOUS
 90
22
 70
0
 10
12.414608431
 20
23.1041199589
 10
12.4142818581
 20
23.1038573099
 10
12.4129974816
 20
23.1029297011
 10
12.4107259495
 20
23.1014730835
 10
12.4074099629
 20
23.0995784627
 10
12.4030534702
 20
23.0973532971
 10
12.3978340852
 20
23.0949605641
 10
12.3918203825
 20
23.0924776299
 10
12.3850313352
 20
23.0899481492
 10
12.3776116066
 20
23.0874496026
 10
12.369659561
 20
23.0850268082
 10
12.3611794631
 20
23.0826913031
 10
12.3521576569
 20
23.0804508959
 10
12.3426482137
 20
23.0783283413
 10
12.332650666
 20
23.0763323879
 10
12.3220375295
 20
23.0744533077
 10
12.3108099392
 20
23.0727135227
 10
12.299001876
 20
23.0711373515
 10
12.2865219262
 20
23.0697336612
 10
12.2733613874
 20
23.0685282972
 10
12.2595718529
 20
23.0675557052
 10
12.2451532276
 20
23.0668455516
  0
LWPOLYLINE
  5
327
100
AcDbEntity
  8
RACCORDO
100
AcDbPolyline
 62
250
  6
CONTINUOUS
 90
30
 70
0
 10
19.5769060503
 20
22.0231489028
 10
19.5955671889
 20
22.0330782459
 10
19.6136802839
 20
22.0432581439
 10
19.6312318845
 20
22.0536810372
 10
19.6482089568
 20
22.0643391857
 10
19.6645988934
 20
22.0752246747
 10
19.6803895231
 20
22.0863294205
 10
19.6955691198
 20
22.0976451767
 10
19.7101264109
 20
22.1091635401
 10
19.7240505861
 20
22.1208759571
 10
19.7373313053
 20
22.13277373
 10
19.7499587061
 20
22.1448480235
 10
19.7619234113
 20
22.1570898711
 10
19.773216536
 20
22.169490182
 10
19.7838296937
 20
22.1820397476
 10
19.7937550031
 20
22.1947292485
 10
19.8029850935
 20
22.2075492615
 10
19.8115131108
 20
22.2204902664
 10
19.8193327218
 20
22.233542653
 10
19.8264381197
 20
22.2466967286
 10
19.8328240281
 20
22.2599427249
 10
19.8384857047
 20
22.2732708054
 10
19.8434189451
 20
22.2866710726
 10
19.8476200859
 20
22.3001335753
 10
19.8510860072
 20
22.3136483162
 10
19.8538141353
 20
22.3272052592
 10
19.8558024442
 20
22.3407943369
 10
19.8570494575
 20
22.3544054579
 10
19.857554249
 20
22.3680285145
 10
19.8575662499
 20
22.3704763935
  0
LINE
  5
328
100
AcDbEntity
  8
ASSI
100
AcDbLine
 62
7
  6
CONTINUOUS
 10
4.9500476391
 20
15.3327815218
 11
4.2552834527
 21
14.9686284907
  0
LINE
  5
329
100
AcDbEntity
  8
RACCORDO
100
AcDbLine
 62
250
  6
CONTINUOUS
 10
19.5769060503
 20
22.0231489028
 11
5.0117653141
 21
14.6130929553
  0
LWPOLYLINE
  5
32A
100
AcDbEntity
  8
RACCORDO
100
AcDbPolyline
 62
250
  6
CONTINUOUS
 90
13
 70
0
 10
19.5769060503
 20
18.8257040012
 10
19.742233521
 20
18.8932421206
 10
19.9065433986
 20
18.960271784
 10
20.0698356831
 20
19.0267929914
 10
20.2326334691
 20
19.0930185929
 10
20.3944136619
 20
19.1587357383
 10
20.5536069775
 20
19.2233058772
 10
20.7099504039
 20
19.2866192983
 10
20.8637069531
 20
19.3487857129
 10
21.014096376
 20
19.4094957045
 10
21.1608585898
 20
19.4686461341
 10
21.3042536773
 20
19.5263401407
 10
21.4442816387
 20
19.5825777243
  0
LWPOLYLINE
  5
32B
100
AcDbEntity
  8
RACCORDO
100
AcDbPolyline
 62
250
  6
CONTINUOUS
 90
10
 70
0
 10
19.9457358948
 20
19.3274524751
 10
20.115881754
 20
19.3938321621
 10
20.2838395054
 20
19.459203575
 10
20.4496096373
 20
19.5235654228
 10
20.613709871
 20
19.5871083514
 10
20.775622601
 20
19.6496399366
 10
20.9337993613
 20
19.7105801324
 10
21.0877287362
 20
19.7697301153
 10
21.2379318943
 20
19.8272768381
 10
21.3844131637
 20
19.8832148318
  0
LWPOLYLINE
  5
32C
100
AcDbEntity
  8
DRAFT
100
AcDbPolyline
 62
7
  6
CONTINUOUS
 90
26
 70
0
 10
-11.5840330305
 20
-13.2354392972
 10
-11.6366794562
 20
-13.2501473837
 10
-11.69136478
 20
-13.2574042826
 10
-11.7486697329
 20
-13.2576656764
 10
-11.8070122609
 20
-13.2509758885
 10
-11.8662931302
 20
-13.2371626124
 10
-11.9266091926
 20
-13.2163971964
 10
-11.9866774027
 20
-13.1892415921
 10
-12.0464711646
 20
-13.155606068
 10
-12.1060174823
 20
-13.1155805655
 10
-12.16411797
 20
-13.0699984028
 10
-12.2208231867
 20
-13.0186744436
 10
-12.2760854974
 20
-12.9617950675
 10
-12.3285635662
 20
-12.9007527595
 10
-12.3781141574
 20
-12.83557716
 10
-12.4248864553
 20
-12.7662411364
 10
-12.4679813386
 20
-12.6940535837
 10
-12.5074168217
 20
-12.6187743117
 10
-12.5431810305
 20
-12.5406460629
 10
-12.5743326907
 20
-12.4617033259
 10
-12.6007001517
 20
-12.3820664672
 10
-12.6224612669
 20
-12.301617719
 10
-12.6392008095
 20
-12.2220351987
 10
-12.6507820158
 20
-12.143878988
 10
-12.6573454217
 20
-12.0665905949
 10
-12.6588915734
 20
-11.9901702264
  0
LWPOLYLINE
  5
32D
100
AcDbEntity
  8
ASSI
100
AcDbPolyline
 62
7
  6
CONTINUOUS
 90
5
 70
0
 10
3.7363404808
 20
-21.3679114223
 10
3.7198275349
 20
-21.3493446891
 10
3.7015125219
 20
-21.332910065
 10
3.6815344447
 20
-21.318672532
 10
3.6623832072
 20
-21.3078910555
  0
LWPOLYLINE
  5
32E
100
AcDbEntity
  8
ASSI
100
AcDbPolyline
 62
250
  6
CONTINUOUS
 90
7
 70
0
 10
-13.4755679079
 20
26.0244372643
 10
-13.4736618426
 20
26.0107323063
 10
-13.4684487026
 20
25.9980621569
 10
-13.4600081489
 20
25.9858344769
 10
-13.4484814147
 20
25.9742538684
 10
-13.4340613733
 20
25.963514106
 10
-13.4169893108
 20
25.9537948949
  0
LWPOLYLINE
  5
32F
100
AcDbEntity
  8
ASSI
100
AcDbPolyline
 62
250
  6
CONTINUOUS
 90
7
 70
0
 10
-13.4755679465
 20
26.3417460094
 10
-13.4736618495
 20
26.3280011313
 10
-13.4684487145
 20
26.3153309789
 10
-13.4600081635
 20
26.3031032945
 10
-13.4484814286
 20
26.2915226807
 10
-13.4340613826
 20
26.2807829124
 10
-13.4169893108
 20
26.2710636953
  0
LWPOLYLINE
  5
330
100
AcDbEntity
  8
ASSI
100
AcDbPolyline
 62
7
  6
CONTINUOUS
 90
13
 70
0
 10
-9.4148901684
 20
26.115153899
 10
-9.4160937853
 20
26.1383665349
 10
-9.4197030154
 20
26.1623877395
 10
-9.4256519248
 20
26.186808953
 10
-9.433834057
 20
26.2112152202
 10
-9.4441085916
 20
26.2351893626
 10
-9.4563026038
 20
26.2583191496
 10
-9.4702100241
 20
26.2802076743
 10
-9.4855904499
 20
26.3004817935
 10
-9.5021773475
 20
26.3187957834
 10
-9.5196877681
 20
26.334835929
 10
-9.5378272721
 20
26.3483257419
 10
-9.5562899855
 20
26.3590325083
  0
LWPOLYLINE
  5
331
100
AcDbEntity
  8
ASSI
100
AcDbPolyline
 62
7
  6
CONTINUOUS
 90
10
 70
0
 10
-8.8005222473
 20
26.4191636478
 10
-8.8014039166
 20
26.4400091038
 10
-8.8057505278
 20
26.4696709749
 10
-8.8137169493
 20
26.4983839515
 10
-8.8251981422
 20
26.5256552386
 10
-8.8398757584
 20
26.5508340388
 10
-8.8574944757
 20
26.5736567323
 10
-8.8778976418
 20
26.5939607864
 10
-8.9006549767
 20
26.6113359368
 10
-8.9237685649
 20
26.6247327998
  0
LINE
  5
332
100
AcDbEntity
  8
ASSI
100
AcDbLine
 62
7
  6
CONTINUOUS
 10
-9.4148901684
 20
24.4696792518
 11
-9.4148901684
 21
26.115153899
  0
LINE
  5
333
100
AcDbEntity
  8
ASSI
100
AcDbLine
 62
250
  6
CONTINUOUS
 10
-8.8566537579
 20
26.3494912343
 11
-8.8566537579
 21
26.0095476394
  0
LINE
  5
334
100
AcDbEntity
  8
ASSI
100
AcDbLine
 62
7
  6
CONTINUOUS
 10
-8.8005221447
 20
26.4191636479
 11
-8.800521718
 21
26.0790134767
  0
LINE
  5
335
100
AcDbEntity
  8
ASSI
100
AcDbLine
 62
7
  6
CONTINUOUS
 10
-7.7373328774
 20
23.2987436135
 11
-7.7373328774
 21
24.4833481194
  0
LINE
  5
336
100
AcDbEntity
  8
ASSI
100
AcDbLine
 62
250
  6
CONTINUOUS
 10
-7.6787542337
 20
23.2253646597
 11
-7.6787542337
 21
24.4126374411
  0
LWPOLYLINE
  5
337
100
AcDbEntity
  8
ASSI
100
AcDbPolyline
 62
250
  6
CONTINUOUS
 90
28
 70
0
 10
-7.6787542337
 20
24.4126374411
 10
-7.6787243721
 20
24.4147380509
 10
-7.6785918269
 20
24.4168303969
 10
-7.6783565983
 20
24.4189144793
 10
-7.6780232384
 20
24.4210065752
 10
-7.677587195
 20
24.4230904074
 10
-7.6770348111
 20
24.4251171439
 10
-7.6763619416
 20
24.4270857349
 10
-7.6755727316
 20
24.4289972303
 10
-7.6746659587
 20
24.4308059479
 10
-7.6736373231
 20
24.4325087139
 10
-7.6724911247
 20
24.434108702
 10
-7.6712390407
 20
24.4355697516
 10
-7.669878441
 20
24.4368868595
 10
-7.6684119557
 20
24.4380650288
 10
-7.6668591525
 20
24.439083108
 10
-7.6652199953
 20
24.4399368367
 10
-7.6634945202
 20
24.4406304752
 10
-7.6617024034
 20
24.4411556528
 10
-7.6598432086
 20
24.4415102335
 10
-7.657917372
 20
24.4416963532
 10
-7.6559458792
 20
24.441712049
 10
-7.6539281635
 20
24.441555417
 10
-7.6518647915
 20
24.4412283611
 10
-7.6497784486
 20
24.4407346305
 10
-7.6476766965
 20
24.4400754748
 10
-7.6455519734
 20
24.4392496443
 10
-7.6434042794
 20
24.4382571391
  0
LWPOLYLINE
  5
338
100
AcDbEntity
  8
ASSI
100
AcDbPolyline
 62
250
  6
CONTINUOUS
 90
19
 70
0
 10
-8.8566537579
 20
26.0095476394
 10
-8.8566852231
 20
26.0073667396
 10
-8.8568211395
 20
26.005091536
 10
-8.8570615071
 20
26.0027220285
 10
-8.8574018323
 20
26.0002467787
 10
-8.8578466087
 20
25.997677225
 10
-8.858409317
 20
25.9950476828
 10
-8.8590938469
 20
25.9923549471
 10
-8.8598963088
 20
25.9896022229
 10
-8.8608185151
 20
25.9868334406
 10
-8.8618646539
 20
25.9840470642
 10
-8.8630305373
 20
25.9812446297
 10
-8.8643054135
 20
25.9784746764
 10
-8.8656930751
 20
25.9757378142
 10
-8.8671897295
 20
25.9730334331
 10
-8.8687732484
 20
25.9704082425
 10
-8.8704362554
 20
25.967877812
 10
-8.8721861268
 20
25.9654265719
 10
-8.8740228626
 20
25.9630545222
  0
LWPOLYLINE
  5
339
100
AcDbEntity
  8
ASSI
100
AcDbPolyline
 62
7
  6
CONTINUOUS
 90
10
 70
0
 10
-1.1770961676
 20
20.8548567136
 10
-1.1631551853
 20
20.8885364996
 10
-1.1526994485
 20
20.9246055321
 10
-1.1457289573
 20
20.9630638111
 10
-1.1422437117
 20
21.0043424192
 10
-1.1422437117
 20
21.0480102738
 10
-1.1457289573
 20
21.0927741274
 10
-1.1526994485
 20
21.1382028977
 10
-1.1631551853
 20
21.184727667
 10
-1.1770961676
 20
21.2323484353
  0
LWPOLYLINE
  5
33A
100
AcDbEntity
  8
ASSI
100
AcDbPolyline
 62
7
  6
CONTINUOUS
 90
6
 70
0
 10
0.0317589294
 20
19.1288907531
 10
0.0335552269
 20
19.1325707596
 10
0.0387808526
 20
19.1387625551
 10
0.0469780619
 20
19.1471028834
 10
0.0579505125
 20
19.156664676
 10
0.0715164993
 20
19.167228735
  0
LWPOLYLINE
  5
33B
100
AcDbEntity
  8
ASSI
100
AcDbPolyline
 62
250
  6
CONTINUOUS
 90
10
 70
0
 10
3.7124778425
 20
19.6698041697
 10
3.7159156986
 20
19.6744347983
 10
3.7189968931
 20
19.6792538628
 10
3.7217214263
 20
19.6842613633
 10
3.7241164011
 20
19.6895301231
 10
3.7261547146
 20
19.6949873187
 10
3.7277550568
 20
19.70041448
 10
3.7288903248
 20
19.7057387834
 10
3.7295876215
 20
19.7110330523
 10
3.7298469472
 20
19.7162972869
  0
LWPOLYLINE
  5
33C
100
AcDbEntity
  8
ASSI
100
AcDbPolyline
 62
7
  6
CONTINUOUS
 90
6
 70
0
 10
3.7241387323
 20
19.6135285577
 10
3.7320233883
 20
19.623768887
 10
3.7459959173
 20
19.6447508584
 10
3.7581746606
 20
19.6672067348
 10
3.7684108146
 20
19.691015397
 10
3.7763048881
 20
19.7152512168
  0
LINE
  5
33D
100
AcDbEntity
  8
ASSI
100
AcDbLine
 62
7
  6
CONTINUOUS
 10
3.1716105367
 20
18.9298120227
 11
3.7241653372
 21
19.6135620097
  0
LWPOLYLINE
  5
33E
100
AcDbEntity
  8
0
100
AcDbPolyline
 62
250
  6
CONTINUOUS
 90
8
 70
0
 10
9.9477486969
 20
22.7318131246
 10
9.9946731457
 20
22.7805018
 10
10.0540200836
 20
22.8351775733
 10
10.1185652825
 20
22.8883606103
 10
10.1881589084
 20
22.9399274505
 10
10.2626394089
 20
22.9897583858
 10
10.3418335123
 20
23.0377375216
 10
10.4194275365
 20
23.0805322776
  0
LINE
  5
33F
100
AcDbEntity
  8
0
100
AcDbLine
 62
7
  6
CONTINUOUS
 10
12.4260951013
 20
23.4543121381
 11
12.2903464943
 21
23.3185635311
  0
LINE
  5
340
100
AcDbEntity
  8
0
100
AcDbLine
 62
7
  6
CONTINUOUS
 10
12.4146432509
 20
23.1041488756
 11
12.4146068516
 21
23.1041173397
  0
LINE
  5
341
100
AcDbEntity
  8
0
100
AcDbLine
 62
250
  6
CONTINUOUS
 10
12.3883479539
 20
23.0911838635
 11
12.4303464943
 21
23.1275532314
  0
LINE
  5
342
100
AcDbEntity
  8
RACCORDO
100
AcDbLine
 62
250
  6
CONTINUOUS
 10
21.4309372822
 20
19.9072526363
 11
21.4192174263
 21
19.9010685125
  0
LINE
  5
343
100
AcDbEntity
  8
RACCORDO
100
AcDbLine
 62
250
  6
CONTINUOUS
 10
21.4192174263
 20
19.9010685125
 11
21.4062003827
 21
19.8943171372
  0
LWPOLYLINE
  5
344
100
AcDbEntity
  8
RACCORDO
100
AcDbPolyline
 62
250
  6
CONTINUOUS
 90
3
 70
0
 10
21.4062003827
 20
19.8943171372
 10
21.3919632382
 20
19.8870384919
 10
21.3844132067
 20
19.883214798
  0
LWPOLYLINE
  5
345
100
AcDbEntity
  8
RACCORDO
100
AcDbPolyline
 62
250
  6
CONTINUOUS
 90
22
 70
0
 10
19.9457350946
 20
15.879233144
 10
19.9348762197
 20
15.8750902824
 10
19.9233658855
 20
15.8711115739
 10
19.9111894427
 20
15.8673023103
 10
19.8983224434
 20
15.8636628554
 10
19.8847593135
 20
15.8602016972
 10
19.8705145721
 20
15.8569340347
 10
19.8555732371
 20
15.8538593355
 10
19.8399223159
 20
15.8509796486
 10
19.8235809781
 20
15.8483110226
 10
19.8065206119
 20
15.8458476965
 10
19.7887427703
 20
15.843591354
 10
19.7703155536
 20
15.8415646872
 10
19.7512387156
 20
15.839759689
 10
19.7314935779
 20
15.838169162
 10
19.7111245234
 20
15.8368127713
 10
19.6900916584
 20
15.8356776778
 10
19.6684175169
 20
15.8347571523
 10
19.6462470425
 20
15.8340745754
 10
19.6236304571
 20
15.8336255571
 10
19.6005168662
 20
15.8333822107
 10
19.5769060503
 20
15.8333283053
  0
LINE
  5
346
100
AcDbEntity
  8
ASSI
100
AcDbLine
 62
250
  6
CONTINUOUS
 10
-5.3881058366
 20
23.2673132425
 11
-5.3881058366
 21
22.0800404612
  0
LINE
  5
347
100
AcDbEntity
  8
ASSI
100
AcDbLine
 62
250
  6
CONTINUOUS
 10
-5.1077528062
 20
23.2660899406
 11
-5.1077528062
 21
22.0877360323
  0
LINE
  5
348
100
AcDbEntity
  8
ASSI
100
AcDbLine
 62
7
  6
CONTINUOUS
 10
-4.8894067689
 20
22.206937552
 11
-4.8894067689
 21
23.3761048221
  0
LWPOLYLINE
  5
349
100
AcDbEntity
  8
ASSI
100
AcDbPolyline
 62
250
  6
CONTINUOUS
 90
13
 70
0
 10
-3.9310936782
 20
22.5821018385
 10
-3.9299105
 20
22.6050514274
 10
-3.9263807624
 20
22.6288001897
 10
-3.9205635265
 20
22.6529507453
 10
-3.9125561296
 20
22.6770989908
 10
-3.9024925559
 20
22.7008408615
 10
-3.8905411953
 20
22.7237790917
 10
-3.8769020255
 20
22.7455298632
 10
-3.861803266
 20
22.7657292262
 10
-3.8454975595
 20
22.78403919
 10
-3.8282577444
 20
22.8001533788
 10
-3.8103722889
 20
22.8138021581
 10
-3.7921404649
 20
22.8247571459
  0
LWPOLYLINE
  5
34A
100
AcDbEntity
  8
ASSI
100
AcDbPolyline
 62
250
  6
CONTINUOUS
 90
12
 70
0
 10
1.5323519818
 20
18.5982551314
 10
1.5218402157
 20
18.5748842105
 10
1.5091554606
 20
18.5531259405
 10
1.4945123547
 20
18.5333484926
 10
1.4781586737
 20
18.5158865201
 10
1.4603711375
 20
18.5010354966
 10
1.4414507284
 20
18.4890467157
 10
1.421717598
 20
18.4801230392
 10
1.4015056499
 20
18.4744154642
 10
1.3811568906
 20
18.4720205684
 10
1.361015641
 20
18.4729788756
 10
1.351917529
 20
18.4745426973
  0
LWPOLYLINE
  5
34B
100
AcDbEntity
  8
0
100
AcDbPolyline
 62
250
  6
CONTINUOUS
 90
24
 70
0
 10
10.0646662804
 20
22.682980833
 10
10.0788120635
 20
22.7016910471
 10
10.1235762809
 20
22.7534030887
 10
10.1731996795
 20
22.8039922685
 10
10.2276499017
 20
22.8534694658
 10
10.2865611252
 20
22.9015025622
 10
10.3499620351
 20
22.948080666
 10
10.4178239463
 20
22.9932146689
 10
10.4896949802
 20
23.0366051277
 10
10.5656020761
 20
23.0782406257
 10
10.6455182947
 20
23.1181325797
 10
10.7289109401
 20
23.1560157961
 10
10.8157980886
 20
23.1918756797
 10
10.9061616639
 20
23.2257268257
 10
10.9994147413
 20
23.257347827
 10
11.0955817
 20
23.2867261801
 10
11.1946381608
 20
23.3138743884
 10
11.2959240619
 20
23.3386085547
 10
11.399623943
 20
23.3609249726
 10
11.5055532643
 20
23.3808273483
 10
11.6124983448
 20
23.3981429036
 10
11.720054624
 20
23.4128140454
 10
11.8286266624
 20
23.4248983667
 10
11.93821446
 20
23.4343958674
  0
LWPOLYLINE
  5
34C
100
AcDbEntity
  8
RACCORDO
100
AcDbPolyline
 62
7
  6
CONTINUOUS
 90
17
 70
0
 10
21.4442816387
 20
17.1811080953
 10
21.4504354879
 20
17.1844535615
 10
21.4563848775
 20
17.1879433559
 10
21.462124951
 20
17.1915742338
 10
21.4676510241
 20
17.1953432077
 10
21.4729587004
 20
17.1992465868
 10
21.4780438593
 20
17.2032799849
 10
21.482902507
 20
17.2074400659
 10
21.4875308188
 20
17.2117231673
 10
21.4919252397
 20
17.2161243438
 10
21.4960824282
 20
17.2206401158
 10
21.4999992339
 20
17.2252666948
 10
21.5036727271
 20
17.2299986126
 10
21.5071002436
 20
17.2348322712
 10
21.5102793302
 20
17.2397637899
 10
21.5132077329
 20
17.2447872285
 10
21.5137606101
 20
17.2457978176
  0
LINE
  5
34D
100
AcDbEntity
  8
RACCORDO
100
AcDbLine
 62
7
  6
CONTINUOUS
 10
21.4406440466
 20
19.4096980775
 11
21.4442816387
 21
19.4116482652
  0
LINE
  5
34E
100
AcDbEntity
  8
RACCORDO
100
AcDbLine
 62
7
  6
CONTINUOUS
 10
21.4442816387
 20
17.1811080953
 11
21.4406440466
 21
17.1792914461
  0
LWPOLYLINE
  5
34F
100
AcDbEntity
  8
ASSI
100
AcDbPolyline
 62
7
  6
CONTINUOUS
 90
6
 70
0
 10
0.0453786656
 20
-21.9634307454
 10
0.046997024
 20
-21.9701973242
 10
0.0579505125
 20
-22.0052754658
 10
0.0711688884
 20
-22.0399616958
 10
0.0868717134
 20
-22.0738847859
 10
0.1049799126
 20
-22.1067938562
  0
LWPOLYLINE
  5
350
100
AcDbEntity
  8
ASSI
100
AcDbPolyline
 62
7
  6
CONTINUOUS
 90
13
 70
0
 10
-4.8894067689
 20
23.3761048221
 10
-4.8909112899
 20
23.405120617
 10
-4.8954228275
 20
23.4351471227
 10
-4.9028589643
 20
23.4656736396
 10
-4.9130866295
 20
23.4961814737
 10
-4.9259297978
 20
23.5261491516
 10
-4.9411723131
 20
23.5550613854
 10
-4.9585565884
 20
23.5824220413
 10
-4.9777821207
 20
23.6077646902
 10
-4.9985157427
 20
23.6306571777
 10
-5.0204037684
 20
23.6507073596
 10
-5.0430781484
 20
23.6675696257
 10
-5.0661565402
 20
23.6809530838
  0
LINE
  5
351
100
AcDbEntity
  8
ASSI
100
AcDbLine
 62
7
  6
CONTINUOUS
 10
-4.2073465385
 20
22.5586007114
 11
-4.2316383574
 21
23.7023628033
  0
LINE
  5
352
100
AcDbEntity
  8
ASSI
100
AcDbLine
 62
7
  6
CONTINUOUS
 10
-2.7625573069
 20
25.2166192233
 11
-2.7802489728
 21
26.4036912703
  0
LINE
  5
353
100
AcDbEntity
  8
ASSI
100
AcDbLine
 62
250
  6
CONTINUOUS
 10
-2.8785866011
 20
25.0794504556
 11
-2.8910306424
 21
26.2728380255
  0
LINE
  5
354
100
AcDbEntity
  8
ASSI
100
AcDbLine
 62
250
  6
CONTINUOUS
 10
-3.9664436324
 20
22.5564821404
 11
-3.9664436324
 21
21.3692093591
  0
LINE
  5
355
100
AcDbEntity
  8
ASSI
100
AcDbLine
 62
7
  6
CONTINUOUS
 10
-4.0250222762
 20
21.4425883128
 11
-4.0250222249
 21
22.6272644394
  0
LWPOLYLINE
  5
356
100
AcDbEntity
  8
RACCORDO
100
AcDbPolyline
 62
250
  6
CONTINUOUS
 90
5
 70
0
 10
-3.7539886477
 20
-22.7153857873
 10
-3.7106619463
 20
-18.6849555625
 10
-3.6353675527
 20
-14.6405323111
 10
-3.5281054668
 20
-10.5821160329
 10
-3.3888522342
 20
-6.5091468133
  0
LWPOLYLINE
  5
357
100
AcDbEntity
  8
RACCORDO
100
AcDbPolyline
 62
250
  6
CONTINUOUS
 90
9
 70
0
 10
-4.4270500125
 20
-22.7188029609
 10
-4.3808816319
 20
-18.6860481674
 10
-4.3034160653
 20
-14.6382608762
 10
-4.194646752
 20
-10.5758026328
 10
-4.0545641732
 20
-6.4988528413
 10
-3.88317869
 20
-2.4079626138
 10
-3.6805291049
 20
1.6959417645
 10
-3.4466516999
 20
5.8122978847
 10
-3.1815716533
 20
9.940911221
  0
LINE
  5
358
100
AcDbEntity
  8
RACCORDO
100
AcDbLine
 62
250
  6
CONTINUOUS
 10
-3.3888522342
 20
-6.5091468133
 11
-3.2176313093
 21
-2.4221845671
  0
LWPOLYLINE
  5
359
100
AcDbEntity
  8
RACCORDO
100
AcDbPolyline
 62
250
  6
CONTINUOUS
 90
3
 70
0
 10
-3.2176313093
 20
-2.4221845671
 10
-3.0145130558
 20
1.6770909616
 10
-2.7795209281
 20
5.788119858
  0
LWPOLYLINE
  5
35A
100
AcDbEntity
  8
ASSI
100
AcDbPolyline
 62
250
  6
CONTINUOUS
 90
13
 70
0
 10
-1.7111451896
 20
21.4721275942
 10
-1.7099620098
 20
21.4950771986
 10
-1.7064322681
 20
21.5188259741
 10
-1.7006150267
 20
21.54297654
 10
-1.6926076236
 20
21.5671247923
 10
-1.6825440442
 20
21.5908666658
 10
-1.6705926792
 20
21.6138048951
 10
-1.6569535072
 20
21.635555662
 10
-1.6418547481
 20
21.6557550176
 10
-1.6255490449
 20
21.6740649723
 10
-1.6083092357
 20
21.6901791515
 10
-1.590423789
 20
21.7038279214
 10
-1.5721919763
 20
21.7147829016
  0
LWPOLYLINE
  5
35B
100
AcDbEntity
  8
ASSI
100
AcDbPolyline
 62
7
  6
CONTINUOUS
 90
9
 70
0
 10
-2.7625100958
 20
25.2166188709
 10
-2.7632711769
 20
25.2032412175
 10
-2.7679087895
 20
25.1834921275
 10
-2.776914861
 20
25.1639352605
 10
-2.7901267327
 20
25.1446934198
 10
-2.8069584391
 20
25.1265460723
 10
-2.8272146584
 20
25.1097530403
 10
-2.8510907124
 20
25.0940545014
 10
-2.8785866011
 20
25.0794504556
  0
LINE
  5
35C
100
AcDbEntity
  8
RACCORDO
100
AcDbLine
 62
250
  6
CONTINUOUS
 10
-2.7795209281
 20
5.788119858
 11
-2.5126314718
 21
9.9114620367
  0
LINE
  5
35D
100
AcDbEntity
  8
RACCORDO
100
AcDbLine
 62
250
  6
CONTINUOUS
 10
-3.1815716533
 20
9.940911221
 11
-2.8853266197
 21
14.0814009583
  0
LINE
  5
35E
100
AcDbEntity
  8
RACCORDO
100
AcDbLine
 62
250
  6
CONTINUOUS
 10
-2.5126314718
 20
9.9114620367
 11
-2.2138446869
 21
14.0471174979
  0
LWPOLYLINE
  5
35F
100
AcDbEntity
  8
RACCORDO
100
AcDbPolyline
 62
250
  6
CONTINUOUS
 90
22
 70
0
 10
-2.8853266103
 20
14.0814009605
 10
-2.8775106472
 20
14.159047888
 10
-2.8654775154
 20
14.2379793344
 10
-2.8492867433
 20
14.3177906031
 10
-2.8290129585
 20
14.3980634317
 10
-2.8047607478
 20
14.4783942521
 10
-2.7766614442
 20
14.5583962647
 10
-2.7448435166
 20
14.6376621045
 10
-2.7094647139
 20
14.7157780374
 10
-2.6707247975
 20
14.7923522347
 10
-2.62880715
 20
14.8669862498
 10
-2.5839157494
 20
14.9392944478
 10
-2.5363042201
 20
15.0089179879
 10
-2.4861975742
 20
15.0754940432
 10
-2.4338405461
 20
15.1386740136
 10
-2.3795346236
 20
15.1981433625
 10
-2.3235431649
 20
15.2535863841
 10
-2.2661344306
 20
15.3047152803
 10
-2.2076293086
 20
15.3512867903
 10
-2.1483242012
 20
15.3930611138
 10
-2.0884900843
 20
15.4298048094
 10
-2.0284153922
 20
15.461319
  0
LWPOLYLINE
  5
360
100
AcDbEntity
  8
RACCORDO
100
AcDbPolyline
 62
250
  6
CONTINUOUS
 90
22
 70
0
 10
-2.2138446869
 20
14.0471174979
 10
-2.2091159673
 20
14.0924956432
 10
-2.2019025022
 20
14.1381796489
 10
-2.1922042917
 20
14.184169515
 10
-2.17994615
 20
14.230723345
 10
-2.1652032629
 20
14.2775830353
 10
-2.1482011872
 20
14.3239742756
 10
-2.1289072867
 20
14.3698698711
 10
-2.1073541978
 20
14.4152970165
 10
-2.0838653861
 20
14.4595629855
 10
-2.058408738
 20
14.5026528345
 10
-2.0310163672
 20
14.5445815072
 10
-2.0021080806
 20
14.5847011077
 10
-1.9716605729
 20
14.6229820919
 10
-1.9396971493
 20
14.659454004
 10
-1.9067075326
 20
14.6935575809
 10
-1.8726593655
 20
14.7252635234
 10
-1.8375850051
 20
14.7546011306
 10
-1.802071246
 20
14.7810990366
 10
-1.766313686
 20
14.8046001193
 10
-1.7301167272
 20
14.8252615007
 10
-1.6934803696
 20
14.8430831809
  0
LWPOLYLINE
  5
361
100
AcDbEntity
  8
RACCORDO
100
AcDbPolyline
 62
250
  6
CONTINUOUS
 90
10
 70
0
 10
21.3844130544
 20
16.7916006657
 10
21.2388360873
 20
16.6987662653
 10
21.0898249983
 20
16.6038775357
 10
20.937376069
 20
16.5069334044
 10
20.7816531963
 20
16.4080370831
 10
20.6224850428
 20
16.3070834384
 10
20.4593642879
 20
16.2037586897
 10
20.2921184255
 20
16.0979573988
 10
20.1209105123
 20
15.9897827753
 10
19.9457357939
 20
15.8792338358
  0
LWPOLYLINE
  5
362
100
AcDbEntity
  8
RACCORDO
100
AcDbPolyline
 62
250
  6
CONTINUOUS
 90
10
 70
0
 10
21.4442816387
 20
17.0101784767
 10
21.2604781675
 20
16.8936787354
 10
21.0710342609
 20
16.7737852389
 10
20.8759499189
 20
16.6504979872
 10
20.6755987961
 20
16.5240457698
 10
20.4696072379
 20
16.3941997973
 10
20.2568542806
 20
16.2602737014
 10
20.0369662696
 20
16.1220386927
 10
19.8103168595
 20
15.9797235607
 10
19.5769060503
 20
15.8333283053
  0
LINE
  5
363
100
AcDbEntity
  8
RACCORDO
100
AcDbLine
 62
7
  6
CONTINUOUS
 10
19.9793622055
 20
15.8637077384
 11
19.9822848623
 21
15.8655445745
  0
LWPOLYLINE
  5
364
100
AcDbEntity
  8
RACCORDO
100
AcDbPolyline
 62
250
  6
CONTINUOUS
 90
18
 70
0
 10
19.9823307294
 20
15.8655725031
 10
19.9831817107
 20
15.8661075069
 10
19.986454791
 20
15.8684071394
 10
19.9889211146
 20
15.8705842294
 10
19.9905926411
 20
15.8726323651
 10
19.991461929
 20
15.8745227415
 10
19.9915253253
 20
15.8762317589
 10
19.9908012172
 20
15.8777508624
 10
19.9893202991
 20
15.8790640599
 10
19.9870823211
 20
15.8801444943
 10
19.9841064853
 20
15.8809805902
 10
19.9804562972
 20
15.8815724603
 10
19.976136584
 20
15.8818932359
 10
19.9711635242
 20
15.8819292008
 10
19.9656194521
 20
15.8816968482
 10
19.9595388779
 20
15.8811883874
 10
19.952907774
 20
15.8803732862
 10
19.9457357939
 20
15.8792338358
  0
LINE
  5
365
100
AcDbEntity
  8
RACCORDO
100
AcDbLine
 62
7
  6
CONTINUOUS
 10
19.9822862316
 20
15.8655450751
 11
19.9823307294
 21
15.8655725031
  0
LINE
  5
366
100
AcDbEntity
  8
DRAFT
100
AcDbLine
 62
7
  6
CONTINUOUS
 10
19.9816299376
 20
15.8651408912
 11
21.1163391128
 21
16.5639605754
  0
LWPOLYLINE
  5
367
100
AcDbEntity
  8
ASSI
100
AcDbPolyline
 62
250
  6
CONTINUOUS
 90
6
 70
0
 10
3.7196821824
 20
-21.4037430972
 10
3.7116597244
 20
-21.3809416265
 10
3.701216725
 20
-21.3599065778
 10
3.6885298891
 20
-21.3409938844
 10
3.67381389
 20
-21.3245235673
 10
3.6573177369
 20
-21.3107743202
  0
LWPOLYLINE
  5
368
100
AcDbEntity
  8
ASSI
100
AcDbPolyline
 62
7
  6
CONTINUOUS
 90
5
 70
0
 10
3.7798186096
 20
-21.4588928691
 10
3.7726514832
 20
-21.4340507522
 10
3.7629339398
 20
-21.4105073455
 10
3.7507925805
 20
-21.3884060883
 10
3.7363404808
 20
-21.3679114223
  0
LWPOLYLINE
  5
369
100
AcDbEntity
  8
ASSI
100
AcDbPolyline
 62
250
  6
CONTINUOUS
 90
7
 70
0
 10
-7.7373328774
 20
24.4833481189
 10
-7.7354267466
 20
24.4695747846
 10
-7.7302135929
 20
24.4569046438
 10
-7.7217730323
 20
24.4446769761
 10
-7.7102463
 20
24.4330963822
 10
-7.6958262713
 20
24.422356636
 10
-7.6787542337
 20
24.4126374411
  0
LINE
  5
36A
100
AcDbEntity
  8
DRAFT
100
AcDbLine
 62
7
  6
CONTINUOUS
 10
0.6260261244
 20
-15.386429814
 11
0.4365429915
 21
-13.130064843
  0
LINE
  5
36B
100
AcDbEntity
  8
RACCORDO
100
AcDbLine
 62
7
  6
CONTINUOUS
 10
0.7478509753
 20
-5.6992913577
 11
0.7677880925
 21
-5.9386542318
  0
LWPOLYLINE
  5
36C
100
AcDbEntity
  8
ASSI
100
AcDbPolyline
 62
7
  6
CONTINUOUS
 90
12
 70
0
 10
-2.7802488443
 20
26.4036852175
 10
-2.7818802081
 20
26.4299272562
 10
-2.7874040874
 20
26.4625505918
 10
-2.7968527828
 20
26.4947433696
 10
-2.8102333859
 20
26.5260648753
 10
-2.8274109658
 20
26.5559335939
 10
-2.8482935045
 20
26.5840168967
 10
-2.8728295767
 20
26.6100739883
 10
-2.9006377027
 20
26.6336000706
 10
-2.9312423307
 20
26.6542175627
 10
-2.9648878297
 20
26.6720807212
 10
-3.001191499
 20
26.6869414756
  0
LWPOLYLINE
  5
36D
100
AcDbEntity
  8
ASSI
100
AcDbPolyline
 62
7
  6
CONTINUOUS
 90
13
 70
0
 10
-1.1770961676
 20
21.5199495215
 10
-1.1786006887
 20
21.5489653164
 10
-1.1831122263
 20
21.5789918221
 10
-1.190548363
 20
21.609518339
 10
-1.2007760283
 20
21.6400261731
 10
-1.2136191966
 20
21.669993851
 10
-1.2288617119
 20
21.6989060848
 10
-1.2462459871
 20
21.7262667406
 10
-1.2654715194
 20
21.7516093896
 10
-1.2862051415
 20
21.7745018771
 10
-1.3080931672
 20
21.794552059
 10
-1.3307675472
 20
21.8114143251
 10
-1.353845939
 20
21.8247977831
  0
LWPOLYLINE
  5
36E
100
AcDbEntity
  8
ASSI
100
AcDbPolyline
 62
250
  6
CONTINUOUS
 90
28
 70
0
 10
-1.395442205
 20
21.40993464
 10
-1.3958083946
 20
21.4212536307
 10
-1.3966680152
 20
21.4330233097
 10
-1.3980479788
 20
21.4452228963
 10
-1.3999785879
 20
21.4578551677
 10
-1.4024816619
 20
21.4708627389
 10
-1.4055587092
 20
21.484125437
 10
-1.4092197025
 20
21.4976030878
 10
-1.4134718911
 20
21.5112513562
 10
-1.4182885811
 20
21.5249368815
 10
-1.4236600285
 20
21.5386060408
 10
-1.4295777584
 20
21.5522142802
 10
-1.4359954815
 20
21.5656426347
 10
-1.4428833515
 20
21.5788286934
 10
-1.4502244065
 20
21.5917403533
 10
-1.4579790514
 20
21.6043092124
 10
-1.4661118373
 20
21.6164827415
 10
-1.4745985499
 20
21.6282295173
 10
-1.4834129605
 20
21.6395161382
 10
-1.4925240311
 20
21.6503045701
 10
-1.5018987744
 20
21.6605574771
 10
-1.5115075468
 20
21.6702439583
 10
-1.5213165516
 20
21.679330608
 10
-1.5312914694
 20
21.6877863312
 10
-1.5414014077
 20
21.6955854528
 10
-1.5516125321
 20
21.7027014999
 10
-1.561887981
 20
21.7091081945
 10
-1.5721919763
 20
21.7147829016
  0
LWPOLYLINE
  5
36F
100
AcDbEntity
  8
ASSI
100
AcDbPolyline
 62
250
  6
CONTINUOUS
 90
15
 70
0
 10
-0.8304886057
 20
19.6605445424
 10
-0.8302759959
 20
19.6500228007
 10
-0.8296137013
 20
19.6394356905
 10
-0.8284640154
 20
19.628833637
 10
-0.8267855104
 20
19.618249595
 10
-0.8245438978
 20
19.6077674862
 10
-0.8217232993
 20
19.5975136073
 10
-0.8183002942
 20
19.5875480237
 10
-0.8142538704
 20
19.5779343817
 10
-0.8095949412
 20
19.5687907412
 10
-0.8043179695
 20
19.5601736031
 10
-0.7984204965
 20
19.5521401797
 10
-0.7919420952
 20
19.5447877904
 10
-0.7848962904
 20
19.5381601203
 10
-0.777299086
 20
19.5322987108
  0
LWPOLYLINE
  5
370
100
AcDbEntity
  8
ASSI
100
AcDbPolyline
 62
250
  6
CONTINUOUS
 90
28
 70
0
 10
-1.6757952353
 20
21.4111579419
 10
-1.6758342704
 20
21.4134430617
 10
-1.6759835662
 20
21.4158078282
 10
-1.6762431226
 20
21.4182522415
 10
-1.6766104127
 20
21.4207890267
 10
-1.6770879636
 20
21.4234054587
 10
-1.6776833556
 20
21.4260633615
 10
-1.6784007637
 20
21.4287649921
 10
-1.679236013
 20
21.4315080934
 10
-1.6801841595
 20
21.4342477188
 10
-1.6812486711
 20
21.4369832331
 10
-1.68242608
 20
21.4397152714
 10
-1.6837010383
 20
21.4424007919
 10
-1.6850745512
 20
21.4450359788
 10
-1.6865456135
 20
21.4476246477
 10
-1.6880958615
 20
21.4501352044
 10
-1.689725058
 20
21.4525646616
 10
-1.6914334402
 20
21.4549160064
 10
-1.6932033557
 20
21.4571666059
 10
-1.6950353517
 20
21.459315614
 10
-1.6969288809
 20
21.4613638767
 10
-1.6988646486
 20
21.4632912992
 10
-1.7008429816
 20
21.4650967535
 10
-1.702863553
 20
21.4667813676
 10
-1.7049060871
 20
21.4683284299
 10
-1.7069638253
 20
21.4697323698
 10
-1.7090435261
 20
21.4709987579
 10
-1.7111451896
 20
21.4721275942
  0
LWPOLYLINE
  5
371
100
AcDbEntity
  8
ASSI
100
AcDbPolyline
 62
7
  6
CONTINUOUS
 90
9
 70
0
 10
-0.8890670676
 20
19.7312289941
 10
-0.8890380064
 20
19.7274170133
 10
-0.8872306084
 20
19.7009665973
 10
-0.882603815
 20
19.675006684
 10
-0.8752062681
 20
19.6499371249
 10
-0.8652042077
 20
19.6262023661
 10
-0.8527174303
 20
19.6039594274
 10
-0.8378624
 20
19.5833713746
 10
-0.8209040534
 20
19.5647663924
  0
LINE
  5
372
100
AcDbEntity
  8
ASSI
100
AcDbLine
 62
250
  6
CONTINUOUS
 10
-1.7778946238
 20
24.5575236722
 11
-1.7778946238
 21
25.6057737291
  0
LINE
  5
373
100
AcDbEntity
  8
ASSI
100
AcDbLine
 62
250
  6
CONTINUOUS
 10
-1.6757952353
 20
20.2238851606
 11
-1.6757952353
 21
21.4111579419
  0
LINE
  5
374
100
AcDbEntity
  8
ASSI
100
AcDbLine
 62
250
  6
CONTINUOUS
 10
-1.395442205
 20
20.2315807317
 11
-1.395442205
 21
21.40993464
  0
LINE
  5
375
100
AcDbEntity
  8
ASSI
100
AcDbLine
 62
7
  6
CONTINUOUS
 10
-1.1770961676
 20
20.3507822514
 11
-1.1770961676
 21
21.5199495215
  0
LINE
  5
376
100
AcDbEntity
  8
ASSI
100
AcDbLine
 62
7
  6
CONTINUOUS
 10
-0.8890672494
 20
20.0485240209
 11
-0.8890672494
 21
19.7312552208
  0
LINE
  5
377
100
AcDbEntity
  8
ASSI
100
AcDbLine
 62
250
  6
CONTINUOUS
 10
-0.8304886057
 20
19.9778133428
 11
-0.8304886057
 21
19.6605445424
  0
LINE
  5
378
100
AcDbEntity
  8
ASSI
100
AcDbLine
 62
250
  6
CONTINUOUS
 10
-0.3641656771
 20
24.5575236722
 11
-0.3641656771
 21
25.0971417637
  0
LINE
  5
379
100
AcDbEntity
  8
ASSI
100
AcDbLine
 62
7
  6
CONTINUOUS
 10
-0.174204129
 20
19.2296705022
 11
-0.174204129
 21
18.7757083978
  0
LINE
  5
37A
100
AcDbEntity
  8
ASSI
100
AcDbLine
 62
250
  6
CONTINUOUS
 10
-0.1009808243
 20
19.1930588498
 11
-0.1009808243
 21
18.6839847057
  0
LINE
  5
37B
100
AcDbEntity
  8
ASSI
100
AcDbLine
 62
7
  6
CONTINUOUS
 10
0.0317566079
 20
18.4927682962
 11
0.0317566079
 21
19.1306137171
  0
LINE
  5
37C
100
AcDbEntity
  8
ASSI
100
AcDbLine
 62
250
  6
CONTINUOUS
 10
0.1049799126
 20
-22.1067938562
 11
0.1049799126
 21
-21.3559608312
  0
LINE
  5
37D
100
AcDbEntity
  8
ASSI
100
AcDbLine
 62
250
  6
CONTINUOUS
 10
0.1049799126
 20
18.4419772583
 11
0.1049799126
 21
19.1928102832
  0
LINE
  5
37E
100
AcDbEntity
  8
ASSI
100
AcDbLine
 62
250
  6
CONTINUOUS
 10
0.2985441987
 20
-22.2035759992
 11
0.2985441987
 21
-21.4527429743
  0
LINE
  5
37F
100
AcDbEntity
  8
ASSI
100
AcDbLine
 62
250
  6
CONTINUOUS
 10
0.2985441987
 20
18.3451951153
 11
0.2985441987
 21
19.0960281402
  0
LWPOLYLINE
  5
380
100
AcDbEntity
  8
ASSI
100
AcDbPolyline
 62
7
  6
CONTINUOUS
 90
3
 70
0
 10
3.7763048881
 20
19.7152512168
 10
3.7818457938
 20
19.7396747829
 10
3.785122371
 20
19.7648169893
  0
LWPOLYLINE
  5
381
100
AcDbEntity
  8
DRAFT
100
AcDbPolyline
 62
7
  6
CONTINUOUS
 90
3
 70
0
 10
-12.4361374075
 20
-8.8981439322
 10
-12.3945524201
 20
-8.8633273116
 10
-12.3459492133
 20
-8.8333479586
  0
LWPOLYLINE
  5
382
100
AcDbEntity
  8
RACCORDO
100
AcDbPolyline
 62
250
  6
CONTINUOUS
 90
22
 70
0
 10
19.9457364583
 20
15.8792336999
 10
19.9368441402
 20
15.8720829806
 10
19.9282295237
 20
15.8645870055
 10
19.9199054193
 20
15.8567569216
 10
19.9118842052
 20
15.8486043724
 10
19.9041778093
 20
15.8401414812
 10
19.8967976914
 20
15.8313808327
 10
19.889754826
 20
15.8223354543
 10
19.8830596861
 20
15.813018797
 10
19.8767222278
 20
15.803444715
 10
19.870751875
 20
15.7936274453
 10
19.8651575061
 20
15.7835815868
 10
19.85994744
 20
15.7733220779
 10
19.8551294244
 20
15.7628641751
 10
19.8507106238
 20
15.7522234298
 10
19.8466976092
 20
15.7414156651
 10
19.8430963482
 20
15.7304569527
 10
19.8399121959
 20
15.7193635888
 10
19.8371498874
 20
15.7081520695
 10
19.8348135302
 20
15.6968390669
 10
19.8329065987
 20
15.685441404
 10
19.8314319286
 20
15.6739760296
  0
LINE
  5
383
100
AcDbEntity
  8
DRAFT
100
AcDbLine
 62
7
  6
CONTINUOUS
 10
1.3110878922
 20
-2.484309845
 11
0.8913334631
 21
-2.2744326304
  0
LINE
  5
384
100
AcDbEntity
  8
0
100
AcDbLine
 62
7
  6
CONTINUOUS
 10
2.4720847305
 20
-16.309459117
 11
1.3110878922
 21
-2.484309845
  0
LWPOLYLINE
  5
385
100
AcDbEntity
  8
ASSI
100
AcDbPolyline
 62
250
  6
CONTINUOUS
 90
10
 70
0
 10
1.5143657474
 20
18.6270705791
 10
1.5146366222
 20
18.6220649009
 10
1.5153605926
 20
18.6174764573
 10
1.5165376586
 20
18.6133052482
 10
1.5181960826
 20
18.6095062659
 10
1.5203076022
 20
18.6061245181
 10
1.5227874306
 20
18.6032950284
 10
1.5256073055
 20
18.6010628046
 10
1.5287954892
 20
18.599382839
 10
1.5323519818
 20
18.5982551314
  0
LWPOLYLINE
  5
386
100
AcDbEntity
  8
ASSI
100
AcDbPolyline
 62
250
  6
CONTINUOUS
 90
10
 70
0
 10
3.7298469472
 20
-21.5833068525
 10
3.7295853664
 20
-21.5783058214
 10
3.7288862363
 20
-21.5737297979
 10
3.7277495569
 20
-21.5695787821
 10
3.7261480355
 20
-21.565808251
 10
3.7241089647
 20
-21.5624627276
 10
3.7217142222
 20
-21.5596757809
 10
3.7189911007
 20
-21.5574919339
 10
3.7159123074
 20
-21.5558666635
 10
3.7124778425
 20
-21.5547999697
  0
LWPOLYLINE
  5
387
100
AcDbEntity
  8
ASSI
100
AcDbPolyline
 62
250
  6
CONTINUOUS
 90
13
 70
0
 10
1.2927006569
 20
26.5672295028
 10
1.2915177503
 20
26.590465554
 10
1.2879886297
 20
26.6144452253
 10
1.2821723469
 20
26.6387672711
 10
1.2741662244
 20
26.6630247166
 10
1.2641042265
 20
26.6868116683
 10
1.2521547181
 20
26.7097301051
 10
1.2385176471
 20
26.7313965387
 10
1.2234211993
 20
26.7514484301
 10
1.2071179799
 20
26.7695502562
 10
1.1898807868
 20
26.7853991238
 10
1.1719980453
 20
26.7987298376
 10
1.1537689828
 20
26.8093193382
  0
LWPOLYLINE
  5
388
100
AcDbEntity
  8
ASSI
100
AcDbPolyline
 62
7
  6
CONTINUOUS
 90
16
 70
0
 10
-0.8323418365
 20
25.5507708394
 10
-0.833251501
 20
25.569163532
 10
-0.8366299167
 20
25.5874322783
 10
-0.8424832648
 20
25.6055650318
 10
-0.8509601673
 20
25.6238422824
 10
-0.861936965
 20
25.641931421
 10
-0.8750135076
 20
25.6588938918
 10
-0.8901124398
 20
25.6744637515
 10
-0.9073400449
 20
25.6888240315
 10
-0.9265672213
 20
25.7017100819
 10
-0.947939211
 20
25.7131166618
 10
-0.9713288903
 20
25.7229330484
 10
-0.9961880121
 20
25.7307494693
 10
-1.0223264409
 20
25.7364032575
 10
-1.0499162007
 20
25.7399588696
 10
-1.0789402813
 20
25.7413610825
  0
LWPOLYLINE
  5
389
100
AcDbEntity
  8
ASSI
100
AcDbPolyline
 62
250
  6
CONTINUOUS
 90
9
 70
0
 10
1.2340127091
 20
18.6283112296
 10
1.2352116122
 20
18.6037637771
 10
1.2387938281
 20
18.5807418989
 10
1.2447105583
 20
18.5595566241
 10
1.2528828316
 20
18.5404921973
 10
1.2631991168
 20
18.5238079904
 10
1.2755150569
 20
18.509732895
 10
1.2896610982
 20
18.4984553065
 10
1.2991935023
 20
18.4929716889
  0
LINE
  5
38A
100
AcDbEntity
  8
ASSI
100
AcDbLine
 62
250
  6
CONTINUOUS
 10
1.8625645241
 20
25.8522127713
 11
1.8583860819
 21
26.1474848402
  0
LINE
  5
38B
100
AcDbEntity
  8
ASSI
100
AcDbLine
 62
7
  6
CONTINUOUS
 10
1.9217704135
 20
25.878502275
 11
1.9169662422
 21
26.2179918531
  0
LINE
  5
38C
100
AcDbEntity
  8
RACCORDO
100
AcDbLine
 62
7
  6
CONTINUOUS
 10
0.6260261244
 20
-16.4258383577
 11
0.6260261244
 21
-15.386429814
  0
LINE
  5
38D
100
AcDbEntity
  8
ASSI
100
AcDbLine
 62
250
  6
CONTINUOUS
 10
0.6489854866
 20
-21.9572866774
 11
0.6489854866
 21
-21.3314536525
  0
LINE
  5
38E
100
AcDbEntity
  8
ASSI
100
AcDbLine
 62
250
  6
CONTINUOUS
 10
0.6489854866
 20
18.2208475387
 11
0.6489854866
 21
18.8180756943
  0
LINE
  5
38F
100
AcDbEntity
  8
ASSI
100
AcDbLine
 62
7
  6
CONTINUOUS
 10
1.1917115493
 20
18.546712663
 11
1.1917115493
 21
18.1057182211
  0
LINE
  5
390
100
AcDbEntity
  8
ASSI
100
AcDbLine
 62
7
  6
CONTINUOUS
 10
1.1917115493
 20
-20.6922198684
 11
1.1917115493
 21
-21.3180528933
  0
LINE
  5
391
100
AcDbEntity
  8
ASSI
100
AcDbLine
 62
250
  6
CONTINUOUS
 10
1.234012717
 20
18.9455626814
 11
1.234012717
 21
18.628311225
  0
LINE
  5
392
100
AcDbEntity
  8
ASSI
100
AcDbLine
 62
250
  6
CONTINUOUS
 10
1.234012717
 20
-22.9885790587
 11
1.234012717
 21
-22.6713102584
  0
LINE
  5
393
100
AcDbEntity
  8
ASSI
100
AcDbLine
 62
250
  6
CONTINUOUS
 10
1.5143657474
 20
18.9443393795
 11
1.5143657474
 21
18.6270705791
  0
LINE
  5
394
100
AcDbEntity
  8
ASSI
100
AcDbLine
 62
250
  6
CONTINUOUS
 10
1.5143657474
 20
-22.9898023606
 11
1.5143657474
 21
-22.6725335603
  0
LINE
  5
395
100
AcDbEntity
  8
ASSI
100
AcDbLine
 62
250
  6
CONTINUOUS
 10
1.9187184981
 20
18.3543063328
 11
1.9187184981
 21
17.6741350445
  0
LINE
  5
396
100
AcDbEntity
  8
ASSI
100
AcDbLine
 62
250
  6
CONTINUOUS
 10
1.9187184981
 20
-20.9876436404
 11
1.9187184981
 21
-21.6815563677
  0
LINE
  5
397
100
AcDbEntity
  8
ASSI
100
AcDbLine
 62
250
  6
CONTINUOUS
 10
2.269159786
 20
18.4419549545
 11
2.269159786
 21
17.6837545083
  0
LINE
  5
398
100
AcDbEntity
  8
ASSI
100
AcDbLine
 62
250
  6
CONTINUOUS
 10
2.269159786
 20
-21.121240108
 11
2.269159786
 21
-21.7585218052
  0
LINE
  5
399
100
AcDbEntity
  8
0
100
AcDbLine
 62
7
  6
CONTINUOUS
 10
2.4720847305
 20
-20.8313138511
 11
2.4720847305
 21
-16.309459117
  0
LINE
  5
39A
100
AcDbEntity
  8
0
100
AcDbLine
 62
7
  6
CONTINUOUS
 10
2.4720847305
 20
12.4425842886
 11
2.4720847305
 21
16.9644390227
  0
LINE
  5
39B
100
AcDbEntity
  8
ASSI
100
AcDbLine
 62
7
  6
CONTINUOUS
 10
2.8323438555
 20
22.4171687084
 11
2.8395188138
 21
23.5879481303
  0
LINE
  5
39C
100
AcDbEntity
  8
ASSI
100
AcDbLine
 62
250
  6
CONTINUOUS
 10
2.7334325364
 20
23.4596005875
 11
2.7295553947
 21
23.0851028853
  0
LINE
  5
39D
100
AcDbEntity
  8
ASSI
100
AcDbLine
 62
250
  6
CONTINUOUS
 10
2.7272819409
 20
22.8655072988
 11
2.7212657728
 21
22.284398513
  0
LWPOLYLINE
  5
39E
100
AcDbEntity
  8
ASSI
100
AcDbPolyline
 62
250
  6
CONTINUOUS
 90
19
 70
0
 10
1.5143657474
 20
-22.6725335603
 10
1.5143983305
 20
-22.6703532195
 10
1.5145390761
 20
-22.6680804304
 10
1.514787984
 20
-22.6657151931
 10
1.5151404011
 20
-22.6632459892
 10
1.5156009805
 20
-22.660684337
 10
1.516183682
 20
-22.6580647914
 10
1.5168925335
 20
-22.6553842165
 10
1.517723507
 20
-22.6526457481
 10
1.5186784797
 20
-22.649893349
 10
1.5197617882
 20
-22.6471255574
 10
1.5209690957
 20
-22.644343835
 10
1.5222892687
 20
-22.6415965301
 10
1.5237262343
 20
-22.6388843199
 10
1.5252760653
 20
-22.6362065272
 10
1.5269158471
 20
-22.633609468
 10
1.5286379413
 20
-22.6311085811
 10
1.5304499862
 20
-22.6286884277
 10
1.5323519818
 20
-22.6263490079
  0
LWPOLYLINE
  5
39F
100
AcDbEntity
  8
ASSI
100
AcDbPolyline
 62
250
  6
CONTINUOUS
 90
19
 70
0
 10
1.234012717
 20
-22.6713102584
 10
1.2342317295
 20
-22.6604412725
 10
1.2349136218
 20
-22.6490686058
 10
1.2360943103
 20
-22.6372066367
 10
1.2378130812
 20
-22.6248489393
 10
1.2401023065
 20
-22.6120460249
 10
1.2429763171
 20
-22.5989079172
 10
1.246456494
 20
-22.5854720839
 10
1.250561509
 20
-22.5717817587
 10
1.2552786748
 20
-22.5579646658
 10
1.2606116404
 20
-22.5440716536
 10
1.2665608124
 20
-22.5301569798
 10
1.2730851086
 20
-22.5163551919
 10
1.2801696309
 20
-22.502722381
 10
1.2877970013
 20
-22.4893145989
 10
1.2959010152
 20
-22.4762594027
 10
1.3044353954
 20
-22.4636300234
 10
1.3133827608
 20
-22.4514512413
 10
1.3227096296
 20
-22.439770367
  0
LWPOLYLINE
  5
3A0
100
AcDbEntity
  8
ASSI
100
AcDbPolyline
 62
7
  6
CONTINUOUS
 90
9
 70
0
 10
2.8322211887
 20
22.4171700226
 10
2.8320842727
 20
22.4119828205
 10
2.8287020669
 20
22.3915674306
 10
2.8204977351
 20
22.3713202053
 10
2.8078460816
 20
22.3513088516
 10
2.7915197902
 20
22.3325130387
 10
2.7717764222
 20
22.3152593228
 10
2.7483584164
 20
22.2992211475
 10
2.7212657728
 20
22.284398513
  0
LINE
  5
3A1
100
AcDbEntity
  8
RACCORDO
100
AcDbLine
 62
7
  6
CONTINUOUS
 10
0.0722154601
 20
-21.8263897059
 11
1.6709352745
 21
16.33429175
  0
LWPOLYLINE
  5
3A2
100
AcDbEntity
  8
ASSI
100
AcDbPolyline
 62
250
  6
CONTINUOUS
 90
9
 70
0
 10
2.8395182235
 20
23.5878419162
 10
2.8392347281
 20
23.5811297186
 10
2.835662247
 20
23.5617320516
 10
2.8280374948
 20
23.5426847497
 10
2.8164435385
 20
23.5241935572
 10
2.8010020022
 20
23.5064516691
 10
2.7818759966
 20
23.4896503197
 10
2.7592718217
 20
23.4739760938
 10
2.7334325364
 20
23.4596005875
  0
LINE
  5
3A3
100
AcDbEntity
  8
ASSI
100
AcDbLine
 62
250
  6
CONTINUOUS
 10
3.2252439096
 20
23.0739916518
 11
3.2348080697
 21
23.2976548903
  0
LINE
  5
3A4
100
AcDbEntity
  8
ASSI
100
AcDbLine
 62
7
  6
CONTINUOUS
 10
3.5131916036
 20
23.3959415492
 11
3.5122030104
 21
23.3784984159
  0
LINE
  5
3A5
100
AcDbEntity
  8
0
100
AcDbLine
 62
7
  6
CONTINUOUS
 10
1.3110878922
 20
-2.484309845
 11
2.4720847305
 21
12.4425842886
  0
LWPOLYLINE
  5
3A6
100
AcDbEntity
  8
RACCORDO
100
AcDbPolyline
 62
250
  6
CONTINUOUS
 90
22
 70
0
 10
19.5769060503
 20
18.8257040012
 10
19.6005168329
 20
18.8505274754
 10
19.6236303977
 20
18.8755006372
 10
19.6462469644
 20
18.9006045743
 10
19.6684174283
 20
18.925865314
 10
19.6900915663
 20
18.9512189654
 10
19.7111244317
 20
18.9765099402
 10
19.7314934897
 20
19.0016820762
 10
19.7512386343
 20
19.0267508051
 10
19.7703154816
 20
19.0516669432
 10
19.7887427103
 20
19.0764269892
 10
19.8065205658
 20
19.1009970671
 10
19.8235809455
 20
19.1252831873
 10
19.8399222952
 20
19.1492506906
 10
19.8555732281
 20
19.1729011429
 10
19.8705145746
 20
19.1961962377
 10
19.8847593224
 20
19.2191243286
 10
19.8983224591
 20
19.2416694421
 10
19.9111894791
 20
19.2637885144
 10
19.9233659595
 20
19.2854602031
 10
19.9348763416
 20
19.306684538
 10
19.9457352735
 20
19.3274522407
  0
LWPOLYLINE
  5
3A7
100
AcDbEntity
  8
0
100
AcDbPolyline
 62
7
  6
CONTINUOUS
 90
11
 70
0
 10
-12.3459177071
 20
-8.833413405
 10
-12.3958308061
 20
-8.864258937
 10
-12.4374171137
 20
-8.8993053858
 10
-12.4753609133
 20
-8.940800819
 10
-12.5087938662
 20
-8.9877137448
 10
-12.5375913381
 20
-9.0402310945
 10
-12.5618844084
 20
-9.0981686616
 10
-12.5811899311
 20
-9.1599389916
 10
-12.5953486216
 20
-9.2250136987
 10
-12.6045237351
 20
-9.2939228614
 10
-12.6087158103
 20
-9.3666666924
  0
LWPOLYLINE
  5
3A8
100
AcDbEntity
  8
ASSI
100
AcDbPolyline
 62
250
  6
CONTINUOUS
 90
13
 70
0
 10
1.54971041
 20
19.0047000267
 10
1.5481946778
 20
19.0277569622
 10
1.5443286381
 20
19.051649878
 10
1.5381784119
 20
19.0759701198
 10
1.5298491888
 20
19.100301723
 10
1.5194834263
 20
19.1242285298
 10
1.5072584137
 20
19.1473413066
 10
1.4933832401
 20
19.1692447408
 10
1.4780952206
 20
19.1895642004
 10
1.4616558372
 20
19.2079521434
 10
1.4443462637
 20
19.2240940661
 10
1.4264625566
 20
19.2377138808
 10
1.4083105929
 20
19.248578636
  0
LWPOLYLINE
  5
3A9
100
AcDbEntity
  8
ASSI
100
AcDbPolyline
 62
7
  6
CONTINUOUS
 90
12
 70
0
 10
1.9169552261
 20
26.2179908816
 10
1.9134850808
 20
26.2890074371
 10
1.9038482774
 20
26.3655533927
 10
1.8883104333
 20
26.4380117698
 10
1.8671192391
 20
26.5060146298
 10
1.8404584045
 20
26.5693840691
 10
1.8084125515
 20
26.628028798
 10
1.7711793661
 20
26.6816216929
 10
1.7290395426
 20
26.7297272215
 10
1.6822925646
 20
26.7719604766
 10
1.6313504986
 20
26.8079611933
 10
1.5909296438
 20
26.8305376362
  0
LWPOLYLINE
  5
3AA
100
AcDbEntity
  8
ASSI
100
AcDbPolyline
 62
250
  6
CONTINUOUS
 90
22
 70
0
 10
1.8583860819
 20
26.1474848402
 10
1.8560840626
 20
26.1984328824
 10
1.8507754118
 20
26.247130795
 10
1.8424601292
 20
26.2935785778
 10
1.8310609939
 20
26.3380349953
 10
1.8166552269
 20
26.3802412832
 10
1.7994744918
 20
26.4194211481
 10
1.7794708916
 20
26.4554993178
 10
1.7566923232
 20
26.4885510645
 10
1.7315141415
 20
26.5180259126
 10
1.7038959782
 20
26.5438611028
 10
1.6738782017
 20
26.5661193944
 10
1.6419572711
 20
26.5844385889
 10
1.6081038871
 20
26.5987514889
 10
1.572347349
 20
26.6091252918
 10
1.5352720143
 20
26.6153993919
 10
1.4968353846
 20
26.6174980139
 10
1.4570799583
 20
26.6154969332
 10
1.4167175872
 20
26.6094628696
 10
1.3759855552
 20
26.5994180634
 10
1.3346465785
 20
26.5853402745
 10
1.2927006569
 20
26.5672295028
  0
LWPOLYLINE
  5
3AB
100
AcDbEntity
  8
ASSI
100
AcDbPolyline
 62
7
  6
CONTINUOUS
 90
12
 70
0
 10
2.8395188061
 20
23.5879644183
 10
2.8383407948
 20
23.6152852941
 10
2.8332181951
 20
23.6487216761
 10
2.8239986902
 20
23.6817173596
 10
2.8106878957
 20
23.7137994104
 10
2.7934364116
 20
23.7443615867
 10
2.7723012723
 20
23.7731206759
 10
2.7472902427
 20
23.7998433444
 10
2.7188277831
 20
23.8239376863
 10
2.6874699995
 20
23.8449602737
 10
2.6529795095
 20
23.8630818012
 10
2.6157425744
 20
23.8780551963
  0
LWPOLYLINE
  5
3AC
100
AcDbEntity
  8
ASSI
100
AcDbPolyline
 62
7
  6
CONTINUOUS
 90
16
 70
0
 10
3.5605192663
 20
17.5489616289
 10
3.5586053868
 20
17.5948361039
 10
3.5527912365
 20
17.6422726372
 10
3.543112464
 20
17.6907816206
 10
3.5295799656
 20
17.7400257174
 10
3.5123558248
 20
17.7892951238
 10
3.4918755361
 20
17.8375257599
 10
3.4686568078
 20
17.8838201629
 10
3.4428464495
 20
17.9281208986
 10
3.4143584265
 20
17.9706052423
 10
3.3831713169
 20
18.0111081598
 10
3.349838805
 20
18.0487345888
 10
3.3151410716
 20
18.0826170279
 10
3.2796298299
 20
18.1123198025
 10
3.2435614517
 20
18.1377101824
 10
3.2073292129
 20
18.1585695611
  0
LWPOLYLINE
  5
3AD
100
AcDbEntity
  8
ASSI
100
AcDbPolyline
 62
250
  6
CONTINUOUS
 90
13
 70
0
 10
2.7334325364
 20
23.4596005875
 10
2.7322900915
 20
23.4887979236
 10
2.7280913516
 20
23.5189810277
 10
2.7209081306
 20
23.5496336585
 10
2.7108632878
 20
23.5802315438
 10
2.6981286267
 20
23.6102513483
 10
2.6829219571
 20
23.639179624
 10
2.6655033688
 20
23.6665215917
 10
2.6461707831
 20
23.691809604
 10
2.6252548578
 20
23.7146111436
 10
2.6031133315
 20
23.7345362209
 10
2.5801249053
 20
23.7512440444
 10
2.5566827651
 20
23.7644488491
  0
LWPOLYLINE
  5
3AE
100
AcDbEntity
  8
ASSI
100
AcDbPolyline
 62
250
  6
CONTINUOUS
 90
13
 70
0
 10
3.6957150032
 20
20.0818632256
 10
3.6948010461
 20
20.1052210935
 10
3.6914420535
 20
20.1293675761
 10
3.6856954764
 20
20.1538896802
 10
3.6776596024
 20
20.1783679885
 10
3.6674718741
 20
20.2023838324
 10
3.655306539
 20
20.2255264533
 10
3.6413716687
 20
20.2474000279
 10
3.6259056003
 20
20.2676304381
 10
3.6091728602
 20
20.2858716701
 10
3.5914596393
 20
20.3018117321
 10
3.5730688983
 20
20.315177991
 10
3.5543151861
 20
20.3257418349
  0
LWPOLYLINE
  5
3AF
100
AcDbEntity
  8
ASSI
100
AcDbPolyline
 62
7
  6
CONTINUOUS
 90
11
 70
0
 10
3.7859785418
 20
20.1258646064
 10
3.7855082878
 20
20.1411107676
 10
3.7818680367
 20
20.1707780379
 10
3.7746528756
 20
20.1995224675
 10
3.7639741619
 20
20.2268701665
 10
3.7501538988
 20
20.2521765844
 10
3.7334420383
 20
20.2752146583
 10
3.7139718603
 20
20.2958675381
 10
3.6921516319
 20
20.3137335271
 10
3.6684188711
 20
20.3285310438
 10
3.6627572076
 20
20.3314699554
  0
LWPOLYLINE
  5
3B0
100
AcDbEntity
  8
ASSI
100
AcDbPolyline
 62
7
  6
CONTINUOUS
 90
8
 70
0
 10
3.5484697874
 20
23.4276560481
 10
3.5482234205
 20
23.4408881468
 10
3.5471304912
 20
23.4516734083
 10
3.5453089139
 20
23.4599995463
 10
3.5428479239
 20
23.4658436442
 10
3.5398679762
 20
23.4692128308
 10
3.5365635446
 20
23.4701449373
 10
3.5347284598
 20
23.4696385294
  0
LWPOLYLINE
  5
3B1
100
AcDbEntity
  8
ASSI
100
AcDbPolyline
 62
250
  6
CONTINUOUS
 90
28
 70
0
 10
3.7298469472
 20
20.0562408817
 10
3.7298093503
 20
20.0584618381
 10
3.7296659005
 20
20.0606522921
 10
3.7294165977
 20
20.0628122437
 10
3.7290638856
 20
20.0649564795
 10
3.7286053205
 20
20.0670702129
 10
3.7280335715
 20
20.069109084
 10
3.7273447137
 20
20.0710712528
 10
3.7265426719
 20
20.0729585594
 10
3.7256318896
 20
20.074732164
 10
3.7246090981
 20
20.0763881361
 10
3.7234775661
 20
20.0779304062
 10
3.7222515436
 20
20.0793319256
 10
3.7209300396
 20
20.0805880741
 10
3.719514045
 20
20.0817034718
 10
3.718020783
 20
20.0826649302
 10
3.7164504282
 20
20.0834697803
 10
3.7148028058
 20
20.0841206911
 10
3.7130946143
 20
20.0846124813
 10
3.7113253039
 20
20.0849437778
 10
3.7094954243
 20
20.0851159536
 10
3.7076233239
 20
20.0851279472
 10
3.7057086661
 20
20.0849783204
 10
3.7037517874
 20
20.0846685114
 10
3.7017720459
 20
20.0842017722
 10
3.6997758944
 20
20.0835791868
 10
3.6977568802
 20
20.0827996713
 10
3.6957150032
 20
20.0818632256
  0
LWPOLYLINE
  5
3B2
100
AcDbEntity
  8
ASSI
100
AcDbPolyline
 62
7
  6
CONTINUOUS
 90
4
 70
0
 10
3.7859794184
 20
-21.5138127288
 10
3.7859609087
 20
-21.5108038026
 10
3.7842680842
 20
-21.4846082215
 10
3.7798186096
 20
-21.4588928691
  0
LINE
  5
3B3
100
AcDbEntity
  8
ASSI
100
AcDbLine
 62
7
  6
CONTINUOUS
 10
3.1716105367
 20
-22.2669838374
 11
3.1716105367
 21
-20.7607944107
  0
LINE
  5
3B4
100
AcDbEntity
  8
ASSI
100
AcDbLine
 62
7
  6
CONTINUOUS
 10
3.1716105367
 20
18.1764288993
 11
3.1716105367
 21
19.8219035464
  0
LINE
  5
3B5
100
AcDbEntity
  8
ASSI
100
AcDbLine
 62
7
  6
CONTINUOUS
 10
3.5605192663
 20
17.5489616289
 11
3.5605192663
 21
15.0374881616
  0
LINE
  5
3B6
100
AcDbEntity
  8
ASSI
100
AcDbLine
 62
7
  6
CONTINUOUS
 10
3.5605192663
 20
-20.3829506496
 11
3.5605192663
 21
-17.8714771822
  0
LINE
  5
3B7
100
AcDbEntity
  8
ASSI
100
AcDbLine
 62
250
  6
CONTINUOUS
 10
3.7298469472
 20
-21.9232504474
 11
3.7298469472
 21
-21.5833068525
  0
LINE
  5
3B8
100
AcDbEntity
  8
ASSI
100
AcDbLine
 62
250
  6
CONTINUOUS
 10
3.7298469472
 20
19.7162972869
 11
3.7298469472
 21
20.0562408817
  0
LINE
  5
3B9
100
AcDbEntity
  8
ASSI
100
AcDbLine
 62
7
  6
CONTINUOUS
 10
3.7859789871
 20
-21.8537846103
 11
3.7859789871
 21
-21.5138409466
  0
LINE
  5
3BA
100
AcDbEntity
  8
ASSI
100
AcDbLine
 62
7
  6
CONTINUOUS
 10
3.7859789871
 20
19.7857631239
 11
3.7859787378
 21
20.1258646066
  0
LINE
  5
3BB
100
AcDbEntity
  8
ASSI
100
AcDbLine
 62
7
  6
CONTINUOUS
 10
4.2552834527
 20
-20.0081755855
 11
4.2552834527
 21
-17.0831681354
  0
LINE
  5
3BC
100
AcDbEntity
  8
ASSI
100
AcDbLine
 62
7
  6
CONTINUOUS
 10
4.2552834527
 20
14.9686284907
 11
4.2552834527
 21
17.8936359408
  0
LINE
  5
3BD
100
AcDbEntity
  8
ASSI
100
AcDbLine
 62
7
  6
CONTINUOUS
 10
4.9500476391
 20
15.3327815218
 11
4.9500476391
 21
14.7569375375
  0
LINE
  5
3BE
100
AcDbEntity
  8
ASSI
100
AcDbLine
 62
7
  6
CONTINUOUS
 10
4.9500476391
 20
-16.2546979553
 11
4.9500476391
 21
-16.7278717905
  0
LINE
  5
3BF
100
AcDbEntity
  8
ASSI
100
AcDbLine
 62
7
  6
CONTINUOUS
 10
5.0117653141
 20
14.7260787
 11
5.0117653141
 21
-16.1828866438
  0
LINE
  5
3C0
100
AcDbEntity
  8
ASSI
100
AcDbLine
 62
7
  6
CONTINUOUS
 10
3.5484697874
 20
23.4276560481
 11
3.5482493824
 21
23.4209962843
  0
LINE
  5
3C1
100
AcDbEntity
  8
ASSI
100
AcDbLine
 62
7
  6
CONTINUOUS
 10
3.785122371
 20
19.7648169893
 11
3.7859750562
 21
19.785802962
  0
LWPOLYLINE
  5
3C2
100
AcDbEntity
  8
ASSI
100
AcDbPolyline
 62
250
  6
CONTINUOUS
 90
8
 70
0
 10
3.6957150032
 20
-21.9842174539
 10
3.69480105
 20
-22.0060595467
 10
3.6914420686
 20
-22.0263399519
 10
3.6856955075
 20
-22.0447118001
 10
3.6776596519
 20
-22.060860864
 10
3.6674719417
 20
-22.0745109345
 10
3.6553066208
 20
-22.0854285444
 10
3.6468118113
 20
-22.0907677889
  0
LWPOLYLINE
  5
3C3
100
AcDbEntity
  8
ASSI
100
AcDbPolyline
 62
7
  6
CONTINUOUS
 90
10
 70
0
 10
3.5605192663
 20
-20.3830168031
 10
3.5585603563
 20
-20.4270120456
 10
3.5527484359
 20
-20.4688084902
 10
3.5430914013
 20
-20.5079223147
 10
3.5295586793
 20
-20.5440315909
 10
3.5123019309
 20
-20.5765263223
 10
3.4917909413
 20
-20.6046612582
 10
3.4685481319
 20
-20.6280272616
 10
3.4427137799
 20
-20.6467317504
 10
3.4347440764
 20
-20.6512902294
  0
LINE
  5
3C4
100
AcDbEntity
  8
ASSI
100
AcDbLine
 62
7
  6
CONTINUOUS
 10
3.784852984
 20
-21.8777937897
 11
3.7859789224
 21
-21.8537539553
  0
LWPOLYLINE
  5
3C5
100
AcDbEntity
  8
0
100
AcDbPolyline
 62
250
  6
CONTINUOUS
 90
6
 70
0
 10
12.2193153865
 20
23.0663261854
 10
12.2191075148
 20
23.0657568794
 10
12.2190129982
 20
23.0641079601
 10
12.2190877374
 20
23.0613985006
 10
12.2192920404
 20
23.0576586652
 10
12.2196358158
 20
23.0529300384
  0
LWPOLYLINE
  5
3C6
100
AcDbEntity
  8
RACCORDO
100
AcDbPolyline
 62
7
  6
CONTINUOUS
 90
25
 70
0
 10
21.4254599293
 20
16.8260766866
 10
21.4265511253
 20
16.8273229359
 10
21.4347033547
 20
16.8369879883
 10
21.4425811394
 20
16.8469710242
 10
21.4501710131
 20
16.8572619881
 10
21.4574632837
 20
16.867854675
 10
21.464451652
 20
16.8787479351
 10
21.4711251644
 20
16.8899334812
 10
21.4774734398
 20
16.90140236
 10
21.4834909283
 20
16.9131541595
 10
21.489168079
 20
16.9251815141
 10
21.494494732
 20
16.9374742669
 10
21.4994645887
 20
16.9500298762
 10
21.5040691216
 20
16.9628408647
 10
21.5082994568
 20
16.9758977874
 10
21.5121492903
 20
16.9891974885
 10
21.5156113406
 20
17.0027345177
 10
21.5186772218
 20
17.0164988987
 10
21.5213398522
 20
17.0304831544
 10
21.5235923897
 20
17.0446807527
 10
21.5254277706
 20
17.0590846845
 10
21.526839411
 20
17.0736897522
 10
21.5278204405
 20
17.0884916851
 10
21.5283636295
 20
17.1034844323
 10
21.5284796397
 20
17.1143736355
  0
LWPOLYLINE
  5
3C7
100
AcDbEntity
  8
RACCORDO
100
AcDbPolyline
 62
7
  6
CONTINUOUS
 90
13
 70
0
 10
21.4254465399
 20
16.8260615655
 10
21.4020844033
 20
16.8001338669
 10
21.3782555872
 20
16.7749431319
 10
21.3539712926
 20
16.7504931904
 10
21.3292468564
 20
16.726791303
 10
21.3040900172
 20
16.7038368227
 10
21.2785003136
 20
16.6816224463
 10
21.2524904766
 20
16.6601531128
 10
21.2260708165
 20
16.6394312562
 10
21.1992362566
 20
16.6194479261
 10
21.1719923473
 20
16.6002035905
 10
21.1443560716
 20
16.5817065487
 10
21.1163391126
 20
16.5639605754
  0
LWPOLYLINE
  5
3C8
100
AcDbEntity
  8
RACCORDO
100
AcDbPolyline
 62
250
  6
CONTINUOUS
 90
11
 70
0
 10
21.3844130544
 20
16.7916006657
 10
21.3579513226
 20
16.7624330532
 10
21.3307793473
 20
16.7342998322
 10
21.3029087495
 20
16.7072130358
 10
21.2743514477
 20
16.6811842484
 10
21.245119657
 20
16.6562246044
 10
21.215225884
 20
16.6323447833
 10
21.1846829158
 20
16.6095549997
 10
21.1535038144
 20
16.5878649995
 10
21.121701915
 20
16.5672840598
 10
21.1163391126
 20
16.5639605754
  0
LWPOLYLINE
  5
3C9
100
AcDbEntity
  8
RACCORDO
100
AcDbPolyline
 62
250
  6
CONTINUOUS
 90
7
 70
0
 10
21.4254465399
 20
16.8260615655
 10
21.4192173208
 20
16.8193385947
 10
21.4128663028
 20
16.8131489923
 10
21.4062002739
 20
16.8072719376
 10
21.3992291069
 20
16.8017161347
 10
21.3919631264
 20
16.7964898121
 10
21.3844130936
 20
16.7916007102
  0
LWPOLYLINE
  5
3CA
100
AcDbEntity
  8
DRAFT
100
AcDbPolyline
 62
7
  6
CONTINUOUS
 90
27
 70
0
 10
-12.3459492133
 20
-8.8333479586
 10
-12.3008948246
 20
-8.8135422979
 10
-12.2496949007
 20
-8.7987544429
 10
-12.1956971607
 20
-8.7909604909
 10
-12.1390801177
 20
-8.7900350983
 10
-12.0812990767
 20
-8.7960138228
 10
-12.0224389773
 20
-8.8090460622
 10
-11.962411627
 20
-8.8289810108
 10
-11.9024174517
 20
-8.8554060229
 10
-11.8424163001
 20
-8.8884484211
 10
-11.7824479909
 20
-8.9279807054
 10
-11.723837605
 20
-8.9732100513
 10
-11.6665595417
 20
-9.0243404189
 10
-11.6106426796
 20
-9.0811692208
 10
-11.5574988424
 20
-9.1422960195
 10
-11.5072743166
 20
-9.2077280748
 10
-11.4598295979
 20
-9.2774610314
 10
-11.4161518393
 20
-9.3500788096
 10
-11.3762616784
 20
-9.4257964489
 10
-11.340145596
 20
-9.5044019683
 10
-11.3087423002
 20
-9.5838400122
 10
-11.28223199
 20
-9.663996557
 10
-11.260441108
 20
-9.7449885039
 10
-11.2437793812
 20
-9.8251076496
 10
-11.2323849905
 20
-9.9037853001
 10
-11.2261234235
 20
-9.981591744
 10
-11.2249950676
 20
-10.0585271341
  0
LWPOLYLINE
  5
3CB
100
AcDbEntity
  8
0
100
AcDbPolyline
 62
7
  6
CONTINUOUS
 90
3
 70
0
 10
-12.2500542473
 20
-8.7988319117
 10
-12.3015601919
 20
-8.8138543168
 10
-12.3459177071
 20
-8.833413405
  0
LWPOLYLINE
  5
3CC
100
AcDbEntity
  8
0
100
AcDbPolyline
 62
250
  6
CONTINUOUS
 90
9
 70
0
 10
12.0106209157
 20
23.4208265908
 10
12.0122390039
 20
23.427640686
 10
12.013798792
 20
23.4334478454
 10
12.0153002798
 20
23.4382153418
 10
12.0167471456
 20
23.4419149011
 10
12.0181357113
 20
23.4445159791
 10
12.0194549417
 20
23.4459994444
 10
12.0207011585
 20
23.4463606897
 10
12.0216951716
 20
23.4457934864
  0
LWPOLYLINE
  5
3CD
100
AcDbEntity
  8
RACCORDO
100
AcDbPolyline
 62
250
  6
CONTINUOUS
 90
22
 70
0
 10
19.5769060503
 20
18.8257040012
 10
19.5954311361
 20
18.8569116082
 10
19.6134007602
 20
18.8882658875
 10
19.6308032402
 20
18.9197588257
 10
19.6476541024
 20
18.951455545
 10
19.6639139908
 20
18.9832752088
 10
19.6794980656
 20
19.0149874849
 10
19.6943850425
 20
19.0465334722
 10
19.708596418
 20
19.077948716
 10
19.7221224392
 20
19.1091411555
 10
19.7349739566
 20
19.1401159713
 10
19.7471449543
 20
19.1708456712
 10
19.7586077713
 20
19.2011877528
 10
19.7693646978
 20
19.2311045658
 10
19.779433925
 20
19.2606101848
 10
19.7888189851
 20
19.2896386478
 10
19.7975339686
 20
19.3181791754
 10
19.8055905039
 20
19.3462210696
 10
19.8129927996
 20
19.3736984473
 10
19.819754257
 20
19.4005826693
 10
19.8258949554
 20
19.426882766
 10
19.8314318882
 20
19.4525896964
  0
LINE
  5
3CE
100
AcDbEntity
  8
RACCORDO
100
AcDbLine
 62
250
  6
CONTINUOUS
 10
0.7677880925
 20
-5.9386542318
 11
0.737245508
 21
-5.9524388183
  0
LWPOLYLINE
  5
3CF
100
AcDbEntity
  8
0
100
AcDbPolyline
 62
7
  6
CONTINUOUS
 90
6
 70
0
 10
-3.0207356401
 20
19.1308955151
 10
-3.0229114597
 20
19.1355917343
 10
-3.0313053979
 20
19.1469506863
 10
-3.0425180666
 20
19.1576352409
 10
-3.0566349611
 20
19.1678299285
 10
-3.0736560813
 20
19.177534749
  0
LWPOLYLINE
  5
3D0
100
AcDbEntity
  8
0
100
AcDbPolyline
 62
7
  6
CONTINUOUS
 90
5
 70
0
 10
9.3665113187
 20
23.1336667947
 10
9.3666570214
 20
23.119651071
 10
9.3678771771
 20
23.0907393115
 10
9.3703358822
 20
23.0618376302
 10
9.3706249969
 20
23.0595790414
  0
LINE
  5
3D1
100
AcDbEntity
  8
ASSI
100
AcDbLine
 62
7
  6
CONTINUOUS
 10
9.8470798378
 20
22.1005144093
 11
9.8470798378
 21
22.291536473
  0
LWPOLYLINE
  5
3D2
100
AcDbEntity
  8
0
100
AcDbPolyline
 62
250
  6
CONTINUOUS
 90
8
 70
0
 10
12.4303445314
 20
23.1275515333
 10
12.4300530834
 20
23.1247066646
 10
12.4290266668
 20
23.1215700633
 10
12.4272519668
 20
23.1181633016
 10
12.424723989
 20
23.1145118219
 10
12.4214219013
 20
23.110636326
 10
12.417315889
 20
23.1065455821
 10
12.4146432509
 20
23.1041488756
  0
LWPOLYLINE
  5
3D3
100
AcDbEntity
  8
0
100
AcDbPolyline
 62
250
  6
CONTINUOUS
 90
8
 70
0
 10
11.9380091511
 20
23.4518849716
 10
11.9387525622
 20
23.4587298252
 10
11.9394553694
 20
23.4644457741
 10
11.9401243435
 20
23.4690081886
 10
11.9407720126
 20
23.4723992154
 10
11.9413983418
 20
23.4745992941
 10
11.9419895681
 20
23.475595383
 10
11.9421508719
 20
23.4756587569
  0
LWPOLYLINE
  5
3D4
100
AcDbEntity
  8
ASSI
100
AcDbPolyline
 62
250
  6
CONTINUOUS
 90
7
 70
0
 10
3.7124778425
 20
-21.5547999697
 10
3.7202766459
 20
-21.5300725674
 10
3.7255091013
 20
-21.5045881476
 10
3.7280866704
 20
-21.4787779313
 10
3.7279657384
 20
-21.4530786522
 10
3.7251483514
 20
-21.4279251672
 10
3.7196821824
 20
-21.4037430972
  0
LWPOLYLINE
  5
3D5
100
AcDbEntity
  8
ASSI
100
AcDbPolyline
 62
7
  6
CONTINUOUS
 90
4
 70
0
 10
3.1608487803
 20
-22.3278771351
 10
3.1667976897
 20
-22.3093962791
 10
3.1704069198
 20
-22.2889814114
 10
3.1716105367
 20
-22.2669838374
  0
LWPOLYLINE
  5
3D6
100
AcDbEntity
  8
0
100
AcDbPolyline
 62
7
  6
CONTINUOUS
 90
14
 70
0
 10
-11.5840361124
 20
-13.235432214
 10
-11.5486874804
 20
-13.2209023678
 10
-11.5139426199
 20
-13.2021760229
 10
-11.481287997
 20
-13.1800331107
 10
-11.4506809466
 20
-13.1544911657
 10
-11.4221669684
 20
-13.1255338631
 10
-11.3959693137
 20
-13.0934037948
 10
-11.3720639989
 20
-13.0580153051
 10
-11.3504773217
 20
-13.0194550336
 10
-11.3315083761
 20
-12.9782242124
 10
-11.3151883018
 20
-12.9342599103
 10
-11.3014878687
 20
-12.8876258769
 10
-11.2906160665
 20
-12.8390135825
 10
-11.2826431285
 20
-12.7886537711
  0
LWPOLYLINE
  5
3D7
100
AcDbEntity
  8
RACCORDO
100
AcDbPolyline
 62
250
  6
CONTINUOUS
 90
9
 70
0
 10
-17.585501122
 20
21.4314882312
 10
-17.6160330531
 20
21.4502673647
 10
-17.6426355891
 20
21.470052447
 10
-17.6650509725
 20
21.4906517765
 10
-17.6830620161
 20
21.511865762
 10
-17.6964942071
 20
21.5334888567
 10
-17.7052173982
 20
21.55531155
 10
-17.7091470687
 20
21.5771223974
 10
-17.7091311718
 20
21.590918784
  0
LINE
  5
3D8
100
AcDbEntity
  8
0
100
AcDbLine
 62
250
  6
CONTINUOUS
 10
10.1550725835
 20
23.6633870411
 11
10.1550725835
 21
24.084797071
  0
LINE
  5
3D9
100
AcDbEntity
  8
DRAFT
100
AcDbLine
 62
7
  6
CONTINUOUS
 10
10.8377827814
 20
24.0033913395
 11
10.8377827814
 21
23.5703786376
  0
LINE
  5
3DA
100
AcDbEntity
  8
0
100
AcDbLine
 62
7
  6
CONTINUOUS
 10
11.7698911548
 20
22.7621124483
 11
11.7698911548
 21
22.325121029
  0
LINE
  5
3DB
100
AcDbEntity
  8
0
100
AcDbLine
 62
250
  6
CONTINUOUS
 10
11.93821446
 20
23.1529266453
 11
11.93821446
 21
23.4343958674
  0
LINE
  5
3DC
100
AcDbEntity
  8
0
100
AcDbLine
 62
250
  6
CONTINUOUS
 10
12.0089251381
 20
23.1275565314
 11
12.0089251381
 21
23.4090306094
  0
LINE
  5
3DD
100
AcDbEntity
  8
0
100
AcDbLine
 62
250
  6
CONTINUOUS
 10
12.1489251381
 20
23.3185635311
 11
12.1489251381
 21
23.0701657045
  0
LINE
  5
3DE
100
AcDbEntity
  8
0
100
AcDbLine
 62
7
  6
CONTINUOUS
 10
12.2196358162
 20
22.6403646152
 11
12.2196358162
 21
22.312815189
  0
LINE
  5
3DF
100
AcDbEntity
  8
0
100
AcDbLine
 62
250
  6
CONTINUOUS
 10
12.2903464943
 20
23.3185635311
 11
12.2903464943
 21
23.0701638319
  0
LINE
  5
3E0
100
AcDbEntity
  8
DRAFT
100
AcDbLine
 62
7
  6
CONTINUOUS
 10
12.3639986921
 20
23.9455473651
 11
12.3639986921
 21
23.3922157288
  0
LINE
  5
3E1
100
AcDbEntity
  8
0
100
AcDbLine
 62
250
  6
CONTINUOUS
 10
12.4303464943
 20
23.4177701183
 11
12.4303464943
 21
23.1275532314
  0
LINE
  5
3E2
100
AcDbEntity
  8
0
100
AcDbLine
 62
250
  6
CONTINUOUS
 10
12.5010571724
 20
23.4431354094
 11
12.5010571724
 21
23.1529266453
  0
LWPOLYLINE
  5
3E3
100
AcDbEntity
  8
0
100
AcDbPolyline
 62
250
  6
CONTINUOUS
 90
7
 70
0
 10
12.5012440089
 20
23.4496385457
 10
12.5012411905
 20
23.4485841134
 10
12.5012269838
 20
23.4475176859
 10
12.501201434
 20
23.446439433
 10
12.5011645858
 20
23.4453495243
 10
12.5011164839
 20
23.4442481288
 10
12.5010571724
 20
23.4431354151
  0
LWPOLYLINE
  5
3E4
100
AcDbEntity
  8
0
100
AcDbPolyline
 62
250
  6
CONTINUOUS
 90
7
 70
0
 10
12.0089251381
 20
23.4090306094
 10
12.0089669427
 20
23.4111524059
 10
12.0091050773
 20
23.4132118825
 10
12.0093395419
 20
23.4152090394
 10
12.0096703365
 20
23.4171438763
 10
12.0100974611
 20
23.4190163935
 10
12.0106209157
 20
23.4208265908
  0
LWPOLYLINE
  5
3E5
100
AcDbEntity
  8
0
100
AcDbPolyline
 62
250
  6
CONTINUOUS
 90
16
 70
0
 10
12.5010571724
 20
23.1529266453
 10
12.5006793314
 20
23.147287594
 10
12.4992868713
 20
23.1415962437
 10
12.4968797923
 20
23.1358525943
 10
12.4934801598
 20
23.1300178153
 10
12.4890659084
 20
23.1241307372
 10
12.4835708409
 20
23.1183078516
 10
12.4769557025
 20
23.1125512683
 10
12.469259748
 20
23.1068588775
 10
12.4605345453
 20
23.101340841
 10
12.4507702652
 20
23.0960088871
 10
12.4399767368
 20
23.0908512875
 10
12.4282350153
 20
23.0859430189
 10
12.4155668449
 20
23.081291026
 10
12.4019504813
 20
23.076888364
 10
12.3874017472
 20
23.0727891756
  0
LINE
  5
3E6
100
AcDbEntity
  8
RACCORDO
100
AcDbLine
 62
7
  6
CONTINUOUS
 10
21.5293815966
 20
17.2753852346
 11
21.5137606031
 21
17.2457979838
  0
LWPOLYLINE
  5
3E7
100
AcDbEntity
  8
RACCORDO
100
AcDbPolyline
 62
250
  6
CONTINUOUS
 90
16
 70
0
 10
-2.8853178265
 20
14.0814049112
 10
-2.8467211743
 20
14.0656195839
 10
-2.8053273741
 20
14.0514062426
 10
-2.7615374907
 20
14.0389026004
 10
-2.7157758045
 20
14.0282298053
 10
-2.6684857009
 20
14.0194912658
 10
-2.6201253738
 20
14.0127716495
 10
-2.5711633869
 20
14.0081360628
 10
-2.522074133
 20
14.0056294199
 10
-2.4733332382
 20
14.0052760077
 10
-2.4254129533
 20
14.0070792504
 10
-2.3787775783
 20
14.0110216763
 10
-2.3338789635
 20
14.0170650874
 10
-2.2911521319
 20
14.0251509288
 10
-2.2510110641
 20
14.0352008569
 10
-2.2138446869
 20
14.0471174979
  0
LWPOLYLINE
  5
3E8
100
AcDbEntity
  8
RACCORDO
100
AcDbPolyline
 62
250
  6
CONTINUOUS
 90
5
 70
0
 10
-2.8853266197
 20
14.0814009583
 10
-3.3925550825
 20
14.3061198457
 10
-3.8976077624
 20
14.531697186
 10
-4.4004781792
 20
14.7581276955
 10
-4.9010409971
 20
14.9853520049
  0
LINE
  5
3E9
100
AcDbEntity
  8
RACCORDO
100
AcDbLine
 62
250
  6
CONTINUOUS
 10
-4.9010409971
 20
14.9853520049
 11
-5.3994095931
 21
15.2134185004
  0
LWPOLYLINE
  5
3EA
100
AcDbEntity
  8
RACCORDO
100
AcDbPolyline
 62
250
  6
CONTINUOUS
 90
26
 70
0
 10
-5.3994095931
 20
15.2134185004
 10
-5.8959314673
 20
15.4424855189
 10
-6.390765948
 20
15.6726289487
 10
-6.8837315278
 20
15.9037668188
 10
-7.374662244
 20
16.1358217356
 10
-7.8635029156
 20
16.3687670646
 10
-8.3502920816
 20
16.602620726
 10
-8.8350064624
 20
16.8373711828
 10
-9.3177089439
 20
17.073048969
 10
-9.79831936
 20
17.3096151351
 10
-10.2766029792
 20
17.5469525388
 10
-10.7522596083
 20
17.7849074603
 10
-11.2255815379
 20
18.0236211684
 10
-11.6972171306
 20
18.2634214323
 10
-12.1662558403
 20
18.5038447897
 10
-12.6335889593
 20
18.7453472088
 10
-13.1025135952
 20
18.9896582859
 10
-13.5721771931
 20
19.2363771514
 10
-14.0433195912
 20
19.485935275
 10
-14.5214993474
 20
19.7413625891
 10
-15.0067342266
 20
20.0027982073
 10
-15.4987101407
 20
20.2702044115
 10
-16.0023226581
 20
20.5464108393
 10
-16.519005393
 20
20.832431102
 10
-17.046817414
 20
21.1274279625
 10
-17.5855011252
 20
21.4314882087
  0
LINE
  5
3EB
100
AcDbEntity
  8
DRAFT
100
AcDbLine
 62
7
  6
CONTINUOUS
 10
2.4720847305
 20
12.4425842886
 11
1.5276771341
 21
12.9147880868
  0
LWPOLYLINE
  5
3EC
100
AcDbEntity
  8
RACCORDO
100
AcDbPolyline
 62
250
  6
CONTINUOUS
 90
16
 70
0
 10
-2.0284153922
 20
15.461319
 10
-1.9925046892
 20
15.4400084528
 10
-1.9570883996
 20
15.4141421104
 10
-1.9225542135
 20
15.3840031228
 10
-1.889280165
 20
15.3499214114
 10
-1.8576304937
 20
15.3122700571
 10
-1.8279516577
 20
15.2714612166
 10
-1.8005685409
 20
15.2279416106
 10
-1.7757808973
 20
15.1821876333
 10
-1.7538600685
 20
15.1347001382
 10
-1.7350460147
 20
15.0859989547
 10
-1.7195446868
 20
15.0366171981
 10
-1.7075257725
 20
14.9870954338
 10
-1.699120839
 20
14.9379757598
 10
-1.6944218921
 20
14.8897958725
 10
-1.6934803696
 20
14.8430831809
  0
LWPOLYLINE
  5
3ED
100
AcDbEntity
  8
ASSI
100
AcDbPolyline
 62
7
  6
CONTINUOUS
 90
4
 70
0
 10
-13.4080270213
 20
25.8586265722
 10
-13.3899284573
 20
25.8426418447
 10
-13.3702196741
 20
25.8287696894
 10
-13.3519885777
 20
25.8185637605
  0
LINE
  5
3EE
100
AcDbEntity
  8
ASSI
100
AcDbLine
 62
7
  6
CONTINUOUS
 10
4.2552834527
 20
16.5310724891
 11
4.9500476391
 21
15.3327815218
  0
LINE
  5
3EF
100
AcDbEntity
  8
RACCORDO
100
AcDbLine
 62
7
  6
CONTINUOUS
 10
4.2552834527
 20
16.5524488623
 11
4.5605823531
 21
16.0258861497
  0
LWPOLYLINE
  5
3F0
100
AcDbEntity
  8
0
100
AcDbPolyline
 62
250
  6
CONTINUOUS
 90
7
 70
0
 10
12.4301439622
 20
23.4221197794
 10
12.430206091
 20
23.4214131244
 10
12.4302568704
 20
23.420699154
 10
12.4302963005
 20
23.4199778682
 10
12.4303243811
 20
23.419249267
 10
12.4303411124
 20
23.4185133504
 10
12.4303464943
 20
23.4177701183
  0
LWPOLYLINE
  5
3F1
100
AcDbEntity
  8
0
100
AcDbPolyline
 62
250
  6
CONTINUOUS
 90
7
 70
0
 10
11.93821446
 20
23.4343959062
 10
11.9379417117
 20
23.4375533182
 10
11.9377626397
 20
23.4406189816
 10
11.9376785273
 20
23.4435889545
 10
11.9376906831
 20
23.4464592709
 10
11.9378004394
 20
23.4492259444
 10
11.9380091511
 20
23.4518849716
  0
LINE
  5
3F2
100
AcDbEntity
  8
0
100
AcDbLine
 62
250
  6
CONTINUOUS
 10
12.5011122202
 20
23.483594027
 11
12.5012440089
 21
23.4496385457
  0
LINE
  5
3F3
100
AcDbEntity
  8
DRAFT
100
AcDbLine
 62
7
  6
CONTINUOUS
 10
14.3775093481
 20
26.0962402007
 11
14.3775093481
 21
25.7697779918
  0
LWPOLYLINE
  5
3F4
100
AcDbEntity
  8
RACCORDO
100
AcDbPolyline
 62
250
  6
CONTINUOUS
 90
32
 70
0
 10
19.9457358948
 20
19.3274524751
 10
19.9529081666
 20
19.3537032687
 10
19.9595394879
 20
19.3807644899
 10
19.9656202057
 20
19.4086280843
 10
19.9711643449
 20
19.4373212645
 10
19.9761373989
 20
19.4667989784
 10
19.9804570467
 20
19.4969447397
 10
19.9841070939
 20
19.5277715718
 10
19.9870827375
 20
19.5592468798
 10
19.9893205476
 20
19.5911872958
 10
19.9908013476
 20
19.6235959778
 10
19.9915253662
 20
19.6564502919
 10
19.9914619072
 20
19.6895313607
 10
19.9905925958
 20
19.722837307
 10
19.9889210665
 20
19.7563525818
 10
19.9864547075
 20
19.7898424726
 10
19.9831815166
 20
19.8232840164
 10
19.9791047185
 20
19.856686985
 10
19.9742598327
 20
19.8898709142
 10
19.9686436417
 20
19.9228094701
 10
19.962255759
 20
19.9555199975
 10
19.9551400418
 20
19.9878917283
 10
19.9472942761
 20
20.0199183025
 10
19.9387203813
 20
20.0516000065
 10
19.9294715725
 20
20.0828395041
 10
19.9195482942
 20
20.1136295811
 10
19.908952905
 20
20.1439748008
 10
19.897744248
 20
20.173798803
 10
19.8859278974
 20
20.2030901614
 10
19.8735035299
 20
20.2318609948
 10
19.8605231084
 20
20.2600728206
 10
19.8575662499
 20
20.2661149017
  0
LINE
  5
3F5
100
AcDbEntity
  8
ASSI
100
AcDbLine
 62
7
  6
CONTINUOUS
 10
0.1019216579
 20
-21.0579217381
 11
0.6260261244
 21
-20.4093771559
  0
LINE
  5
3F6
100
AcDbEntity
  8
ASSI
100
AcDbLine
 62
7
  6
CONTINUOUS
 10
0.6489854866
 20
-21.3314536525
 11
1.1917115493
 21
-20.6922198684
  0
LINE
  5
3F7
100
AcDbEntity
  8
ASSI
100
AcDbLine
 62
7
  6
CONTINUOUS
 10
1.1917115493
 20
-21.3180528933
 11
0.6489854866
 21
-21.9572866774
  0
LINE
  5
3F8
100
AcDbEntity
  8
ASSI
100
AcDbLine
 62
7
  6
CONTINUOUS
 10
5.0117653141
 20
-16.1828866438
 11
3.5605192663
 21
-17.8714771822
  0
LWPOLYLINE
  5
3F9
100
AcDbEntity
  8
RACCORDO
100
AcDbPolyline
 62
250
  6
CONTINUOUS
 90
8
 70
0
 10
-16.7061957259
 20
22.8002091359
 10
-16.7441408856
 20
22.8158264408
 10
-16.7817719256
 20
22.8264835726
 10
-16.8186769038
 20
22.8320638882
 10
-16.8544518405
 20
22.8325063202
 10
-16.8887051054
 20
22.827806043
 10
-16.9210617099
 20
22.818014542
 10
-16.9368513717
 20
22.8110272006
  0
LWPOLYLINE
  5
3FA
100
AcDbEntity
  8
RACCORDO
100
AcDbPolyline
 62
250
  6
CONTINUOUS
 90
31
 70
0
 10
-2.0284153921
 20
15.461319
 10
-2.5350721167
 20
15.6842931423
 10
-3.0394785177
 20
15.9081828465
 10
-3.5416345954
 20
16.1329881127
 10
-4.0414033629
 20
16.3586469723
 10
-4.538921807
 20
16.5852213939
 10
-5.0346008876
 20
16.812897283
 10
-5.5286545716
 20
17.0417716997
 10
-6.0208688921
 20
17.2717475841
 10
-6.5110129083
 20
17.502719662
 10
-6.9990160255
 20
17.7346561266
 10
-7.4849488384
 20
17.9675887848
 10
-7.9687921898
 20
18.2015077826
 10
-8.4506232632
 20
18.436452534
 10
-8.9303648751
 20
18.6723836251
 10
-9.4077663179
 20
18.9091729601
 10
-9.8825438518
 20
19.1466760545
 10
-10.3549812165
 20
19.3850373928
 10
-10.8256789234
 20
19.6245623325
 10
-11.2937345404
 20
19.864754075
 10
-11.7600504996
 20
20.1061094189
 10
-12.227934609
 20
20.3504241181
 10
-12.6966730479
 20
20.5972377809
 10
-13.166979637
 20
20.847010799
 10
-13.6443036458
 20
21.102920101
 10
-14.128991733
 20
21.3650388331
 10
-14.62069724
 20
21.6332938491
 10
-15.123829461
 20
21.9106426395
 10
-15.6398581608
 20
22.1980710345
 10
-16.1673135745
 20
22.4945932038
 10
-16.7061957023
 20
22.8002091476
  0
LWPOLYLINE
  5
3FB
100
AcDbEntity
  8
ASSI
100
AcDbPolyline
 62
7
  6
CONTINUOUS
 90
4
 70
0
 10
-0.8209040534
 20
19.5647663924
 10
-0.8021129038
 20
19.5483590511
 10
-0.7816247804
 20
19.5342255149
 10
-0.765541775
 20
19.5253408377
  0
LWPOLYLINE
  5
3FC
100
AcDbEntity
  8
ASSI
100
AcDbPolyline
 62
250
  6
CONTINUOUS
 90
7
 70
0
 10
3.7124778425
 20
19.6698041697
 10
3.7202766848
 20
19.6555885118
 10
3.7255091563
 20
19.6427888378
 10
3.7280867228
 20
19.6316217292
 10
3.7279657738
 20
19.622276142
 10
3.7251483607
 20
19.6149102104
 10
3.7241653373
 20
19.6135620099
  0
LWPOLYLINE
  5
3FD
100
AcDbEntity
  8
RACCORDO
100
AcDbPolyline
 62
250
  6
CONTINUOUS
 90
11
 70
0
 10
19.8314318882
 20
19.4525896964
 10
19.8362430592
 20
19.4773232753
 10
19.8406339736
 20
19.5028731422
 10
19.8445791768
 20
19.5292359369
 10
19.8480555053
 20
19.5564460512
 10
19.8510334862
 20
19.5844608332
 10
19.853481783
 20
19.6131602867
 10
19.8553787524
 20
19.6425592193
 10
19.8567008509
 20
19.6726308011
 10
19.8574242801
 20
19.7031913881
 10
19.8575662397
 20
19.7239453802
  0
LINE
  5
3FE
100
AcDbEntity
  8
ASSI
100
AcDbLine
 62
250
  6
CONTINUOUS
 10
1.3227096296
 20
-22.439770367
 11
1.955499839
 21
-21.6944572009
  0
LINE
  5
3FF
100
AcDbEntity
  8
ASSI
100
AcDbLine
 62
250
  6
CONTINUOUS
 10
1.5323519818
 20
-22.6263490079
 11
2.269159786
 21
-21.7585218052
  0
LINE
  5
400
100
AcDbEntity
  8
ASSI
100
AcDbLine
 62
7
  6
CONTINUOUS
 10
4.2552834527
 20
-17.2313985715
 11
4.9500476391
 21
-16.7278717905
  0
LINE
  5
401
100
AcDbEntity
  8
RACCORDO
100
AcDbLine
 62
7
  6
CONTINUOUS
 10
4.5605823531
 20
-17.0315111324
 11
4.2552834527
 21
-17.2527749446
  0
LWPOLYLINE
  5
402
100
AcDbEntity
  8
DRAFT
100
AcDbPolyline
 62
7
  6
CONTINUOUS
 90
27
 70
0
 10
0.4524622915
 20
-17.5043074495
 10
0.4293053426
 20
-17.5180885757
 10
0.3973192315
 20
-17.5431531386
 10
0.3685260715
 20
-17.5738069607
 10
0.3429636759
 20
-17.6097681166
 10
0.3214904982
 20
-17.6497995971
 10
0.3043103634
 20
-17.6937833948
 10
0.2912194465
 20
-17.7418375172
 10
0.2824647265
 20
-17.7930789775
 10
0.2781285296
 20
-17.8478929395
 10
0.2781285296
 20
-17.9058942394
 10
0.2824647265
 20
-17.9650443983
 10
0.2912194465
 20
-18.0250405786
 10
0.3043103634
 20
-18.0861856179
 10
0.3214904982
 20
-18.1473495505
 10
0.3429636759
 20
-18.2088542086
 10
0.3685260715
 20
-18.2703777601
 10
0.3973192315
 20
-18.3298247422
 10
0.4293053426
 20
-18.3868754163
 10
0.4645222181
 20
-18.4418495209
 10
0.5022248437
 20
-18.4936108098
 10
0.5425983566
 20
-18.5422513743
 10
0.5854576196
 20
-18.5876791231
 10
0.6295022061
 20
-18.6284815356
 10
0.6742986407
 20
-18.6641877719
 10
0.7202803989
 20
-18.6952686719
 10
0.7674474806
 20
-18.7217242358
  0
LWPOLYLINE
  5
403
100
AcDbEntity
  8
DRAFT
100
AcDbPolyline
 62
7
  6
CONTINUOUS
 90
27
 70
0
 10
1.0721304293
 20
-18.7439513695
 10
1.1055896186
 20
-18.7250175542
 10
1.1375757298
 20
-18.6999529914
 10
1.1663688897
 20
-18.6692991692
 10
1.1919312854
 20
-18.6333380134
 10
1.213404463
 20
-18.5933065329
 10
1.2305845979
 20
-18.5493227351
 10
1.2436755148
 20
-18.5012686127
 10
1.2524302348
 20
-18.4500271525
 10
1.2567664317
 20
-18.3952131904
 10
1.2567664317
 20
-18.3372118906
 10
1.2524302348
 20
-18.2780617316
 10
1.2436755148
 20
-18.2180655514
 10
1.2305845979
 20
-18.1569205121
 10
1.213404463
 20
-18.0957565795
 10
1.1919312854
 20
-18.0342519213
 10
1.1663688897
 20
-17.9727283698
 10
1.1375757298
 20
-17.9132813877
 10
1.1055896186
 20
-17.8562307137
 10
1.0703727431
 20
-17.801256609
 10
1.0326701176
 20
-17.7494953201
 10
0.9922966047
 20
-17.7008547556
 10
0.9494373417
 20
-17.6554270069
 10
0.9053927552
 20
-17.6146245943
 10
0.8605963206
 20
-17.5789183581
 10
0.8146145624
 20
-17.5478374581
 10
0.7674474806
 20
-17.5213818942
  0
LWPOLYLINE
  5
404
100
AcDbEntity
  8
DRAFT
100
AcDbPolyline
 62
7
  6
CONTINUOUS
 90
27
 70
0
 10
1.358042776
 20
-18.608800534
 10
1.3918388775
 20
-18.5896760718
 10
1.4241472147
 20
-18.5643590883
 10
1.4532303666
 20
-18.5333966953
 10
1.4790501807
 20
-18.497073575
 10
1.5007396469
 20
-18.4566390144
 10
1.5180929535
 20
-18.4122121753
 10
1.5313159122
 20
-18.3636738958
 10
1.5401589486
 20
-18.3119159778
 10
1.544538871
 20
-18.2565492372
 10
1.544538871
 20
-18.1979628581
 10
1.5401589486
 20
-18.1382161951
 10
1.5313159122
 20
-18.0776152408
 10
1.5180929535
 20
-18.0158540026
 10
1.5007396469
 20
-17.9540738568
 10
1.4790501807
 20
-17.89194983
 10
1.4532303666
 20
-17.8298068957
 10
1.4241472147
 20
-17.7697613508
 10
1.3918388775
 20
-17.7121360301
 10
1.3562672025
 20
-17.6566080988
 10
1.3181847416
 20
-17.60432535
 10
1.2774045079
 20
-17.5551948014
 10
1.2341134883
 20
-17.5093094352
 10
1.1896251958
 20
-17.4680959906
 10
1.1443774679
 20
-17.4320300474
 10
1.097932467
 20
-17.4006360259
 10
1.0502901931
 20
-17.3739139261
  0
LWPOLYLINE
  5
405
100
AcDbEntity
  8
RACCORDO
100
AcDbPolyline
 62
250
  6
CONTINUOUS
 90
6
 70
0
 10
19.1627555746
 20
-9.339414442
 10
19.1801130584
 20
-9.3298985515
 10
19.1971371241
 20
-9.319849721
 10
19.2138170543
 20
-9.3092742766
 10
19.2301423482
 20
-9.2981788761
 10
19.2373231687
 20
-9.2930523092
  0
LWPOLYLINE
  5
406
100
AcDbEntity
  8
DRAFT
100
AcDbPolyline
 62
250
  6
CONTINUOUS
 90
30
 70
0
 10
19.5769060503
 20
-8.321931343
 10
19.5955047426
 20
-8.3120361443
 10
19.6135591527
 20
-8.301892064
 10
19.6310559642
 20
-8.2915065841
 10
19.6479822721
 20
-8.2808873647
 10
19.6643255918
 20
-8.2700422381
 10
19.6800738691
 20
-8.2589792034
 10
19.6952154885
 20
-8.2477064204
 10
19.7097392819
 20
-8.2362322036
 10
19.7236345371
 20
-8.224565016
 10
19.7368910053
 20
-8.2127134629
 10
19.7494989088
 20
-8.2006862859
 10
19.7614489486
 20
-8.1884923557
 10
19.7727323105
 20
-8.1761406663
 10
19.7833406723
 20
-8.1636403278
 10
19.7932662095
 20
-8.1510005603
 10
19.8025016014
 20
-8.1382306864
 10
19.8110400363
 20
-8.1253401247
 10
19.8188752163
 20
-8.1123383832
 10
19.8260013626
 20
-8.0992350513
 10
19.832413219
 20
-8.0860397938
 10
19.8381060564
 20
-8.0727623431
 10
19.8430756759
 20
-8.0594124923
 10
19.847318412
 20
-8.0460000879
 10
19.8508311354
 20
-8.0325350223
 10
19.8536112553
 20
-8.0190272272
 10
19.8556567211
 20
-8.0054866654
 10
19.8569660242
 20
-7.9919233241
 10
19.8575381987
 20
-7.9783472072
 10
19.8575662499
 20
-7.9746032913
  0
LINE
  5
407
100
AcDbEntity
  8
RACCORDO
100
AcDbLine
 62
7
  6
CONTINUOUS
 10
18.8198579986
 20
-9.5879277016
 11
11.0856690872
 21
-13.6778941999
  0
LINE
  5
408
100
AcDbEntity
  8
DRAFT
100
AcDbLine
 62
7
  6
CONTINUOUS
 10
4.2552834527
 20
-17.437388784
 11
10.3329750033
 21
-14.2234053769
  0
LINE
  5
409
100
AcDbEntity
  8
DRAFT
100
AcDbLine
 62
7
  6
CONTINUOUS
 10
0.7320854017
 20
-17.3566818504
 11
0.4524165665
 21
-17.5043216968
  0
LINE
  5
40A
100
AcDbEntity
  8
RACCORDO
100
AcDbLine
 62
250
  6
CONTINUOUS
 10
5.0117653141
 20
-15.9945201523
 11
19.5769060503
 21
-8.321931343
  0
LINE
  5
40B
100
AcDbEntity
  8
RACCORDO
100
AcDbLine
 62
250
  6
CONTINUOUS
 10
4.5605823531
 20
-17.0315111324
 11
19.1627555746
 21
-9.339414442
  0
LINE
  5
40C
100
AcDbEntity
  8
ASSI
100
AcDbLine
 62
7
  6
CONTINUOUS
 10
4.9500476391
 20
-16.7278717905
 11
4.2552834527
 21
-17.0831681354
  0
LINE
  5
40D
100
AcDbEntity
  8
DRAFT
100
AcDbLine
 62
7
  6
CONTINUOUS
 10
1.3581272049
 20
-18.6087654569
 11
1.0722140267
 21
-18.7439166172
  0
LINE
  5
40E
100
AcDbEntity
  8
RACCORDO
100
AcDbLine
 62
250
  6
CONTINUOUS
 10
0.2922710062
 20
-16.5737685022
 11
0.6260261244
 21
-16.4258383577
  0
LINE
  5
40F
100
AcDbEntity
  8
RACCORDO
100
AcDbLine
 62
7
  6
CONTINUOUS
 10
0.2813592064
 20
-16.8342279721
 11
0.4605845841
 21
-16.7547899813
  0
LINE
  5
410
100
AcDbEntity
  8
ASSI
100
AcDbLine
 62
7
  6
CONTINUOUS
 10
3.5605192663
 20
15.0374881616
 11
4.9500476391
 21
14.7569375375
  0
LINE
  5
411
100
AcDbEntity
  8
ASSI
100
AcDbLine
 62
7
  6
CONTINUOUS
 10
3.5605192663
 20
15.0374881616
 11
5.0117653141
 21
14.7260787
  0
LWPOLYLINE
  5
412
100
AcDbEntity
  8
0
100
AcDbPolyline
 62
7
  6
CONTINUOUS
 90
6
 70
0
 10
-6.9293037888
 20
21.1053586027
 10
-6.948877255
 20
21.1139510755
 10
-6.9696968508
 20
21.121224633
 10
-6.9917625761
 20
21.1271792754
 10
-7.0154629407
 20
21.1318674748
 10
-7.025350357
 20
21.1332028735
  0
LWPOLYLINE
  5
413
100
AcDbEntity
  8
ASSI
100
AcDbPolyline
 62
7
  6
CONTINUOUS
 90
4
 70
0
 10
1.2992199789
 20
18.492959186
 10
1.3082082483
 20
18.4887157538
 10
1.3299621067
 20
18.4803962768
 10
1.3518607402
 20
18.4745619741
  0
LINE
  5
414
100
AcDbEntity
  8
ASSI
100
AcDbLine
 62
7
  6
CONTINUOUS
 10
4.9500476391
 20
14.7569375375
 11
5.0117653141
 21
14.7260787
  0
LINE
  5
415
100
AcDbEntity
  8
RACCORDO
100
AcDbLine
 62
7
  6
CONTINUOUS
 10
-13.5134844609
 20
24.3772699255
 11
1.3360002519
 21
16.9525275691
  0
LINE
  5
416
100
AcDbEntity
  8
0
100
AcDbLine
 62
7
  6
CONTINUOUS
 10
-3.0736560813
 20
19.177534749
 11
-6.9293037888
 21
21.1053586027
  0
LINE
  5
417
100
AcDbEntity
  8
0
100
AcDbLine
 62
7
  6
CONTINUOUS
 10
-0.2222277318
 20
17.8925260525
 11
-10.5465352995
 21
23.0546798364
  0
LINE
  5
418
100
AcDbEntity
  8
ASSI
100
AcDbLine
 62
7
  6
CONTINUOUS
 10
-12.4815207925
 20
24.7352276109
 11
-12.2879565064
 21
24.6384454678
  0
LINE
  5
419
100
AcDbEntity
  8
ASSI
100
AcDbLine
 62
7
  6
CONTINUOUS
 10
0.1049799126
 20
18.4419772583
 11
0.2985441987
 21
18.3451951153
  0
LINE
  5
41A
100
AcDbEntity
  8
ASSI
100
AcDbLine
 62
7
  6
CONTINUOUS
 10
2.1188946771
 20
17.574046955
 11
1.9187184981
 21
17.6741350445
  0
LINE
  5
41B
100
AcDbEntity
  8
ASSI
100
AcDbLine
 62
7
  6
CONTINUOUS
 10
-0.1009808243
 20
18.6839847057
 11
-10.667782207
 21
23.967385397
  0
LINE
  5
41C
100
AcDbEntity
  8
ASSI
100
AcDbLine
 62
7
  6
CONTINUOUS
 10
-12.6874815294
 20
24.9772350582
 11
-12.8876577084
 21
25.0773231477
  0
LINE
  5
41D
100
AcDbEntity
  8
ASSI
100
AcDbLine
 62
7
  6
CONTINUOUS
 10
1.2992187193
 20
18.492959078
 11
0.4980607612
 21
18.8935380571
  0
LINE
  5
41E
100
AcDbEntity
  8
ASSI
100
AcDbLine
 62
7
  6
CONTINUOUS
 10
0.0301871746
 20
19.1274748504
 11
-0.7657428244
 21
19.5254398499
  0
LINE
  5
41F
100
AcDbEntity
  8
ASSI
100
AcDbLine
 62
7
  6
CONTINUOUS
 10
-11.287287621
 20
24.7862122482
 11
-12.0884399439
 21
25.1867884096
  0
LINE
  5
420
100
AcDbEntity
  8
ASSI
100
AcDbLine
 62
7
  6
CONTINUOUS
 10
-12.5563135305
 20
25.4207252029
 11
-13.3522487203
 21
25.8186927978
  0
LINE
  5
421
100
AcDbEntity
  8
ASSI
100
AcDbLine
 62
250
  6
CONTINUOUS
 10
-12.4815207925
 20
25.4860606358
 11
-13.4169893108
 21
25.9538122455
  0
LINE
  5
422
100
AcDbEntity
  8
ASSI
100
AcDbLine
 62
250
  6
CONTINUOUS
 10
0.1049799126
 20
19.1928102832
 11
-0.8304886057
 21
19.6605445424
  0
LINE
  5
423
100
AcDbEntity
  8
ASSI
100
AcDbLine
 62
250
  6
CONTINUOUS
 10
-11.3524879881
 20
24.9215442336
 11
-12.2879565064
 21
25.3892784927
  0
LINE
  5
424
100
AcDbEntity
  8
ASSI
100
AcDbLine
 62
250
  6
CONTINUOUS
 10
1.234012717
 20
18.628311225
 11
0.2985441987
 21
19.0960281402
  0
LINE
  5
425
100
AcDbEntity
  8
ASSI
100
AcDbLine
 62
7
  6
CONTINUOUS
 10
-1.6757952353
 20
20.2238851606
 11
-3.9664436324
 21
21.3692093591
  0
LINE
  5
426
100
AcDbEntity
  8
ASSI
100
AcDbLine
 62
7
  6
CONTINUOUS
 10
-5.3881058366
 20
22.0800404612
 11
-7.6787542337
 21
23.2253646597
  0
LWPOLYLINE
  5
427
100
AcDbEntity
  8
ASSI
100
AcDbPolyline
 62
250
  6
CONTINUOUS
 90
16
 70
0
 10
-11.287324506
 20
24.7862307006
 10
-11.2935198582
 20
24.7896271713
 10
-11.3006533808
 20
24.794338164
 10
-11.3075262409
 20
24.7998189145
 10
-11.3140937586
 20
24.8060903038
 10
-11.3203093615
 20
24.8131691953
 10
-11.3260930322
 20
24.8210208595
 10
-11.3314057482
 20
24.8296422557
 10
-11.3362087497
 20
24.8390260489
 10
-11.3404412925
 20
24.8491016965
 10
-11.3440764423
 20
24.8598424388
 10
-11.3470893892
 20
24.8712186695
 10
-11.3494457461
 20
24.8831301053
 10
-11.3511330013
 20
24.8955088613
 10
-11.3521487057
 20
24.9083296912
 10
-11.3524879881
 20
24.9215442336
  0
LWPOLYLINE
  5
428
100
AcDbEntity
  8
ASSI
100
AcDbPolyline
 62
7
  6
CONTINUOUS
 90
9
 70
0
 10
-12.0880121454
 20
25.1865778344
 10
-12.111044961
 20
25.199428576
 10
-12.1411143139
 20
25.21990553
 10
-12.1698153632
 20
25.2433176857
 10
-12.1971000789
 20
25.2691187302
 10
-12.2225837232
 20
25.2969317939
 10
-12.2461063541
 20
25.3264658964
 10
-12.2678709236
 20
25.3573581142
 10
-12.2879565064
 20
25.3892784927
  0
LWPOLYLINE
  5
429
100
AcDbEntity
  8
ASSI
100
AcDbPolyline
 62
7
  6
CONTINUOUS
 90
9
 70
0
 10
0.4984885597
 20
18.8933274818
 10
0.4754557441
 20
18.9061782235
 10
0.4453863913
 20
18.9266551774
 10
0.4166853419
 20
18.9500673332
 10
0.3894006262
 20
18.9758683776
 10
0.3639169819
 20
19.0036814413
 10
0.340394351
 20
19.0332155438
 10
0.3186297815
 20
19.0641077616
 10
0.2985441987
 20
19.0960281402
  0
LWPOLYLINE
  5
42A
100
AcDbEntity
  8
ASSI
100
AcDbPolyline
 62
250
  6
CONTINUOUS
 90
7
 70
0
 10
-0.8304886057
 20
19.6605445424
 10
-0.8475606803
 20
19.6702637614
 10
-0.8619807278
 20
19.6810035317
 10
-0.8735074628
 20
19.6925841473
 10
-0.8819480131
 20
19.7048118331
 10
-0.8871611465
 20
19.7174819865
 10
-0.8890672426
 20
19.731228994
  0
LWPOLYLINE
  5
42B
100
AcDbEntity
  8
ASSI
100
AcDbPolyline
 62
250
  6
CONTINUOUS
 90
7
 70
0
 10
-0.8304886057
 20
19.9778133428
 10
-0.8475606682
 20
19.9875325538
 10
-0.8619807096
 20
19.9982723162
 10
-0.8735074438
 20
20.0098529247
 10
-0.8819479975
 20
20.0220806047
 10
-0.8871611375
 20
20.0347507541
 10
-0.8890672403
 20
20.0484938864
  0
LWPOLYLINE
  5
42C
100
AcDbEntity
  8
ASSI
100
AcDbPolyline
 62
250
  6
CONTINUOUS
 90
9
 70
0
 10
-13.352235802
 20
25.8186863389
 10
-13.3617261906
 20
25.8241489554
 10
-13.3757754282
 20
25.8353781473
 10
-13.3880062349
 20
25.8494106659
 10
-13.3982500488
 20
25.8660586058
 10
-13.4063654656
 20
25.8850945743
 10
-13.4122419288
 20
25.9062597097
 10
-13.4157994762
 20
25.9292692739
 10
-13.4169893017
 20
25.9538122415
  0
LWPOLYLINE
  5
42D
100
AcDbEntity
  8
ASSI
100
AcDbPolyline
 62
250
  6
CONTINUOUS
 90
13
 70
0
 10
-11.1781901122
 20
25.5418289886
 10
-11.1600381799
 20
25.5309642547
 10
-11.1421544978
 20
25.5173444664
 10
-11.1248449419
 20
25.5012025718
 10
-11.1084055691
 20
25.4828146562
 10
-11.0931175525
 20
25.4624952201
 10
-11.079242373
 20
25.4405918001
 10
-11.067017347
 20
25.4174790247
 10
-11.056651567
 20
25.3935522066
 10
-11.0483223257
 20
25.369220582
 10
-11.0421720836
 20
25.3449003103
 10
-11.0383060322
 20
25.3210073572
 10
-11.0367902951
 20
25.2979503792
  0
LWPOLYLINE
  5
42E
100
AcDbEntity
  8
ASSI
100
AcDbPolyline
 62
250
  6
CONTINUOUS
 90
3
 70
0
 10
-0.777299086
 20
19.5322987108
 10
-0.7692159037
 20
19.5272689167
 10
-0.7657479995
 20
19.5254424377
  0
LWPOLYLINE
  5
42F
100
AcDbEntity
  8
RACCORDO
100
AcDbPolyline
 62
250
  6
CONTINUOUS
 90
37
 70
0
 10
19.5769060503
 20
22.0231489028
 10
19.5766761215
 20
22.0611511771
 10
19.5757676381
 20
22.0994687283
 10
19.5741809921
 20
22.1380832972
 10
19.5719168671
 20
22.1769763943
 10
19.568976342
 20
22.2161295795
 10
19.565360879
 20
22.2555244756
 10
19.5610721522
 20
22.2951424401
 10
19.5561121669
 20
22.3349644895
 10
19.5504833625
 20
22.374971579
 10
19.5441884117
 20
22.4151446026
 10
19.5372302702
 20
22.4554644882
 10
19.5296122855
 20
22.4959121255
 10
19.5213380719
 20
22.5364682652
 10
19.512411542
 20
22.5771135975
 10
19.5028369584
 20
22.6178288469
 10
19.4926188657
 20
22.6585946697
 10
19.4817621143
 20
22.6993916329
 10
19.4702718875
 20
22.7402002928
 10
19.4581536597
 20
22.7810012367
 10
19.4454131894
 20
22.8217750481
 10
19.4320565418
 20
22.8625022855
 10
19.4180901002
 20
22.9031635511
 10
19.4035205034
 20
22.9437395284
 10
19.3883546395
 20
22.9842109477
 10
19.3725997489
 20
23.0245585651
 10
19.3562633374
 20
23.0647631894
 10
19.3393531116
 20
23.1048057201
 10
19.3218771224
 20
23.1446671818
 10
19.3038437256
 20
23.1843285567
 10
19.2852614968
 20
23.2237708133
 10
19.2661393775
 20
23.2629750936
 10
19.2464864449
 20
23.3019228757
 10
19.2263118638
 20
23.3405958013
 10
19.2056251925
 20
23.3789755384
 10
19.1844363882
 20
23.4170437945
 10
19.1627555746
 20
23.4547824775
  0
LINE
  5
430
100
AcDbEntity
  8
RACCORDO
100
AcDbLine
 62
7
  6
CONTINUOUS
 10
19.8575662499
 20
15.6295693617
 11
19.8575662397
 21
15.6296025783
  0
LINE
  5
431
100
AcDbEntity
  8
RACCORDO
100
AcDbLine
 62
250
  6
CONTINUOUS
 10
19.5769060503
 20
-8.321931343
 11
19.5769060503
 21
15.8333283053
  0
LINE
  5
432
100
AcDbEntity
  8
RACCORDO
100
AcDbLine
 62
250
  6
CONTINUOUS
 10
19.5769060503
 20
18.8257040012
 11
19.5769060503
 21
22.0231489028
  0
LINE
  5
433
100
AcDbEntity
  8
RACCORDO
100
AcDbLine
 62
7
  6
CONTINUOUS
 10
19.8575662397
 20
19.7239453802
 11
19.8575662472
 21
19.7242157356
  0
LINE
  5
434
100
AcDbEntity
  8
RACCORDO
100
AcDbLine
 62
7
  6
CONTINUOUS
 10
19.8575662499
 20
-7.9746021578
 11
19.8575662499
 21
15.6294096532
  0
LINE
  5
435
100
AcDbEntity
  8
RACCORDO
100
AcDbLine
 62
7
  6
CONTINUOUS
 10
19.8575662499
 20
19.7242810216
 11
19.8575662499
 21
22.3704780881
  0
LWPOLYLINE
  5
436
100
AcDbEntity
  8
RACCORDO
100
AcDbPolyline
 62
7
  6
CONTINUOUS
 90
37
 70
0
 10
19.8575665057
 20
15.6295609224
 10
19.857597006
 20
15.6337847567
 10
19.857979088
 20
15.6450975474
 10
19.8587817454
 20
15.6562057725
 10
19.8599833503
 20
15.6670937981
 10
19.8615621869
 20
15.6777484568
 10
19.8634966891
 20
15.6881588683
 10
19.8657651151
 20
15.6983140834
 10
19.8683458046
 20
15.7082046828
 10
19.8712176317
 20
15.7178238343
 10
19.874360062
 20
15.727166536
 10
19.8777513997
 20
15.7362246687
 10
19.8813686327
 20
15.7449883633
 10
19.8851928616
 20
15.7534585701
 10
19.8892014379
 20
15.7616277988
 10
19.8933638117
 20
15.7694758421
 10
19.8976578413
 20
15.7770019904
 10
19.9020627491
 20
15.7842079224
 10
19.9065474838
 20
15.7910798777
 10
19.9110894951
 20
15.797619592
 10
19.9156691401
 20
15.8038328163
 10
19.9202583281
 20
15.8097142078
 10
19.9248336817
 20
15.8152658634
 10
19.9293788648
 20
15.820498221
 10
19.9338765654
 20
15.8254195706
 10
19.9383048042
 20
15.8300328314
 10
19.9426503905
 20
15.8343498686
 10
19.946910955
 20
15.8383914532
 10
19.9510737545
 20
15.8421665205
 10
19.955121767
 20
15.8456797665
 10
19.9590477146
 20
15.8489439187
 10
19.9628382382
 20
15.8519657441
 10
19.9664795785
 20
15.8547514727
 10
19.9699645274
 20
15.8573119117
 10
19.9732801509
 20
15.8596530663
 10
19.9764143821
 20
15.8617814051
 10
19.9793622055
 20
15.8637077384
  0
LWPOLYLINE
  5
437
100
AcDbEntity
  8
RACCORDO
100
AcDbPolyline
 62
250
  6
CONTINUOUS
 90
4
 70
0
 10
19.1627555746
 20
-9.339414442
 10
19.1844363882
 20
-9.3231396525
 10
19.2056251925
 20
-9.3060549406
 10
19.2263118638
 20
-9.2881684695
  0
LWPOLYLINE
  5
438
100
AcDbEntity
  8
RACCORDO
100
AcDbPolyline
 62
7
  6
CONTINUOUS
 90
40
 70
0
 10
19.2373341839
 20
-9.2930443104
 10
19.2570763121
 20
-9.2784674287
 10
19.2851618851
 20
-9.2567755994
 10
19.3127553627
 20
-9.23431517
 10
19.3398287002
 20
-9.2111037507
 10
19.3663689059
 20
-9.187147423
 10
19.3923773792
 20
-9.1624385515
 10
19.4178342389
 20
-9.1369884567
 10
19.4427201582
 20
-9.1108089249
 10
19.4670359254
 20
-9.0838900439
 10
19.4907626174
 20
-9.0562423984
 10
19.5138801357
 20
-9.0278791534
 10
19.5363859009
 20
-8.9987915607
 10
19.5582611047
 20
-8.9689902483
 10
19.5794862717
 20
-8.9384885296
 10
19.6000564254
 20
-8.9072786844
 10
19.6199525596
 20
-8.8753725813
 10
19.6391565589
 20
-8.8427822269
 10
19.6576635322
 20
-8.8094970462
 10
19.6754532016
 20
-8.7755321232
 10
19.6925095887
 20
-8.740895695
 10
19.7088320186
 20
-8.7055631224
 10
19.7244054743
 20
-8.6695352487
 10
19.7392066533
 20
-8.6328322805
 10
19.753221152
 20
-8.5954551047
 10
19.7664359681
 20
-8.5573989931
 10
19.778827484
 20
-8.5186890821
 10
19.7903690044
 20
-8.4793693851
 10
19.8010464472
 20
-8.4394500772
 10
19.8108454062
 20
-8.3989422537
 10
19.8197451494
 20
-8.3578903698
 10
19.8277350363
 20
-8.316302748
 10
19.8348033847
 20
-8.2741914042
 10
19.8409341577
 20
-8.2316054711
 10
19.8461191624
 20
-8.188554294
 10
19.8503496912
 20
-8.1450479007
 10
19.8536147552
 20
-8.1011350229
 10
19.8559074694
 20
-8.0568370115
 10
19.8572223722
 20
-8.0121509007
 10
19.8575662403
 20
-7.9746032913
  0
LINE
  5
439
100
AcDbEntity
  8
DRAFT
100
AcDbLine
 62
7
  6
CONTINUOUS
 10
11.0856690872
 20
-13.6778941999
 11
10.3329750033
 21
-14.2234053769
  0
LINE
  5
43A
100
AcDbEntity
  8
RACCORDO
100
AcDbLine
 62
250
  6
CONTINUOUS
 10
18.8198579986
 20
-9.5879277016
 11
19.1627555746
 21
-9.339414442
  0
LINE
  5
43B
100
AcDbEntity
  8
RACCORDO
100
AcDbLine
 62
7
  6
CONTINUOUS
 10
18.8962072948
 20
-9.5402742893
 11
19.2373231687
 21
-9.2930523092
  0
LWPOLYLINE
  5
43C
100
AcDbEntity
  8
ASSI
100
AcDbPolyline
 62
7
  6
CONTINUOUS
 90
4
 70
0
 10
0.3894195883
 20
-22.14143183
 10
0.3400467401
 20
-22.1739748869
 10
0.318203129
 20
-22.1890279533
 10
0.2985441987
 20
-22.2035759992
  0
LWPOLYLINE
  5
43D
100
AcDbEntity
  8
ASSI
100
AcDbPolyline
 62
7
  6
CONTINUOUS
 90
6
 70
0
 10
0.5400256553
 20
-22.0484283798
 10
0.5077495041
 20
-22.0683570089
 10
0.4760223569
 20
-22.0873590528
 10
0.4453863913
 20
-22.1056277222
 10
0.4164754838
 20
-22.1236621586
 10
0.3894195883
 20
-22.14143183
  0
LWPOLYLINE
  5
43E
100
AcDbEntity
  8
RACCORDO
100
AcDbPolyline
 62
7
  6
CONTINUOUS
 90
7
 70
0
 10
18.8198579986
 20
-9.5879277016
 10
18.8351659716
 20
-9.5795505557
 10
18.8502961127
 20
-9.570710532
 10
18.8652411113
 20
-9.5614138644
 10
18.8799924384
 20
-9.5516665849
 10
18.8945442627
 20
-9.5414755742
 10
18.8961381457
 20
-9.5403238168
  0
LINE
  5
43F
100
AcDbEntity
  8
ASSI
100
AcDbLine
 62
250
  6
CONTINUOUS
 10
3.5605192663
 20
-20.3830168031
 11
4.2552834527
 21
-20.0081755855
  0
LINE
  5
440
100
AcDbEntity
  8
ASSI
100
AcDbLine
 62
7
  6
CONTINUOUS
 10
3.4347791784
 20
-20.6512713178
 11
4.130621024
 21
-20.2758486783
  0
LINE
  5
441
100
AcDbEntity
  8
ASSI
100
AcDbLine
 62
7
  6
CONTINUOUS
 10
8.6331542277
 20
-15.3952200818
 11
4.2552834527
 21
-17.654997503
  0
LINE
  5
442
100
AcDbEntity
  8
ASSI
100
AcDbLine
 62
7
  6
CONTINUOUS
 10
9.8244125477
 20
-14.6726690343
 11
4.2552834527
 21
-17.5206730771
  0
LWPOLYLINE
  5
443
100
AcDbEntity
  8
RACCORDO
100
AcDbPolyline
 62
250
  6
CONTINUOUS
 90
10
 70
0
 10
-3.4495946545
 20
-23.3896708221
 10
-3.4177834609
 20
-23.374250069
 10
-3.3902580813
 20
-23.3546523349
 10
-3.3653287242
 20
-23.3303224496
 10
-3.3432682648
 20
-23.3015267862
 10
-3.3243181601
 20
-23.2685805878
 10
-3.3086858186
 20
-23.2318445212
 10
-3.2965423339
 20
-23.1917207379
 10
-3.2880206099
 20
-23.1486484747
 10
-3.2832139023
 20
-23.1030992352
  0
LWPOLYLINE
  5
444
100
AcDbEntity
  8
0
100
AcDbPolyline
 62
250
  6
CONTINUOUS
 90
9
 70
0
 10
12.3874017472
 20
23.0727891756
 10
12.3719037861
 20
23.068983414
 10
12.3554734544
 20
23.065481126
 10
12.3381771441
 20
23.0623665946
 10
12.3199151601
 20
23.0596332087
 10
12.3007871975
 20
23.0572875795
 10
12.281158734
 20
23.0554338232
 10
12.2611515955
 20
23.0541066452
 10
12.2406439561
 20
23.0532713402
  0
LINE
  5
445
100
AcDbEntity
  8
ASSI
100
AcDbLine
 62
7
  6
CONTINUOUS
 10
1.1917115493
 20
18.1057182211
 11
0.6489854866
 21
18.2208475387
  0
LINE
  5
446
100
AcDbEntity
  8
ASSI
100
AcDbLine
 62
7
  6
CONTINUOUS
 10
1.3519175297
 20
18.4745426972
 11
1.9923048182
 21
18.3386963531
  0
LINE
  5
447
100
AcDbEntity
  8
ASSI
100
AcDbLine
 62
250
  6
CONTINUOUS
 10
1.5323519818
 20
18.5982551314
 11
2.269159786
 21
18.4419549545
  0
LWPOLYLINE
  5
448
100
AcDbEntity
  8
ASSI
100
AcDbPolyline
 62
250
  6
CONTINUOUS
 90
7
 70
0
 10
-0.6574034484
 20
20.2814356567
 10
-0.6761571885
 20
20.2890237542
 10
-0.6945479514
 20
20.2935411765
 10
-0.7122611875
 20
20.2949106613
 10
-0.7289939365
 20
20.2931087876
 10
-0.7444600068
 20
20.288166376
 10
-0.7498071461
 20
20.2855572521
  0
LWPOLYLINE
  5
449
100
AcDbEntity
  8
ASSI
100
AcDbPolyline
 62
250
  6
CONTINUOUS
 90
13
 70
0
 10
-11.3524879881
 20
24.9215442336
 10
-11.3330495659
 20
24.9130082023
 10
-11.3115700412
 20
24.9057981816
 10
-11.2884088242
 20
24.9000348145
 10
-11.2639534642
 20
24.8958145377
 10
-11.2386131654
 20
24.8932079677
 10
-11.2128119389
 20
24.8922587194
 10
-11.1869815088
 20
24.8929826764
 10
-11.1615540876
 20
24.8953677248
 10
-11.1369551443
 20
24.8993739564
 10
-11.1135962856
 20
24.9049343362
 10
-11.0918683679
 20
24.9119558241
 10
-11.0721349577
 20
24.9203209317
  0
LWPOLYLINE
  5
44A
100
AcDbEntity
  8
ASSI
100
AcDbPolyline
 62
250
  6
CONTINUOUS
 90
13
 70
0
 10
-11.3524879881
 20
25.238813034
 10
-11.3330495531
 20
25.2302769977
 10
-11.3115700157
 20
25.2230669745
 10
-11.2884087872
 20
25.217303607
 10
-11.2639534179
 20
25.2130833316
 10
-11.2386131126
 20
25.2104767642
 10
-11.2128118836
 20
25.2095275194
 10
-11.1869814552
 20
25.2102514798
 10
-11.1615540396
 20
25.2126365311
 10
-11.1369551055
 20
25.2166427644
 10
-11.1135962585
 20
25.2222031441
 10
-11.0918683542
 20
25.2292246295
 10
-11.0721349577
 20
25.237589732
  0
LWPOLYLINE
  5
44B
100
AcDbEntity
  8
ASSI
100
AcDbPolyline
 62
250
  6
CONTINUOUS
 90
13
 70
0
 10
-1.6757952353
 20
21.4111579419
 10
-1.6563568508
 20
21.4026219253
 10
-1.6348773636
 20
21.3954119122
 10
-1.6117161807
 20
21.3896485463
 10
-1.5872608493
 20
21.3854282655
 10
-1.5619205705
 20
21.3828216876
 10
-1.5361193514
 20
21.3818724291
 10
-1.5102889135
 20
21.3825963757
 10
-1.4848614718
 20
21.3849814162
 10
-1.4602624998
 20
21.3889876436
 10
-1.4369036073
 20
21.3945480241
 10
-1.4151756524
 20
21.4015695188
 10
-1.395442205
 20
21.40993464
  0
LWPOLYLINE
  5
44C
100
AcDbEntity
  8
ASSI
100
AcDbPolyline
 62
250
  6
CONTINUOUS
 90
14
 70
0
 10
-3.7921404649
 20
22.8247571459
 10
-3.8008852896
 20
22.8287518471
 10
-3.809857849
 20
22.83231711
 10
-3.8190318722
 20
22.8353965334
 10
-3.8283990654
 20
22.8379378128
 10
-3.8379025427
 20
22.8398737733
 10
-3.8474397444
 20
22.841138623
 10
-3.8569718881
 20
22.8416881401
 10
-3.8664566181
 20
22.8414793558
 10
-3.8757891869
 20
22.8404798658
 10
-3.8849285349
 20
22.8386661399
 10
-3.8938314357
 20
22.836017639
 10
-3.9023999483
 20
22.8325419262
 10
-3.9074919412
 20
22.8299918672
  0
LWPOLYLINE
  5
44D
100
AcDbEntity
  8
ASSI
100
AcDbPolyline
 62
250
  6
CONTINUOUS
 90
28
 70
0
 10
-3.9310936782
 20
22.5821018385
 10
-3.9328294055
 20
22.5829325676
 10
-3.9345997595
 20
22.5836539568
 10
-3.9364047403
 20
22.5842660061
 10
-3.9382557944
 20
22.584779969
 10
-3.9401414752
 20
22.585184592
 10
-3.9420274432
 20
22.5854461147
 10
-3.9439145223
 20
22.5855598804
 10
-3.9458018886
 20
22.5855305458
 10
-3.9476527306
 20
22.5853383213
 10
-3.9494663539
 20
22.5849774135
 10
-3.9512434528
 20
22.5844536158
 10
-3.952949299
 20
22.5837645184
 10
-3.9545808683
 20
22.5829050899
 10
-3.9561411848
 20
22.5818803618
 10
-3.9576045925
 20
22.5807030188
 10
-3.9589673366
 20
22.5793711482
 10
-3.9602331719
 20
22.5778866627
 10
-3.9613877072
 20
22.5762679849
 10
-3.9624290389
 20
22.5745144228
 10
-3.9633590706
 20
22.5726266684
 10
-3.9641691218
 20
22.5706252207
 10
-3.9648581081
 20
22.5685090544
 10
-3.965427114
 20
22.5662791948
 10
-3.9658707121
 20
22.5639592162
 10
-3.9661870933
 20
22.5615569766
 10
-3.9663780668
 20
22.5590646181
 10
-3.9664436324
 20
22.5564821404
  0
LWPOLYLINE
  5
44E
100
AcDbEntity
  8
ASSI
100
AcDbPolyline
 62
7
  6
CONTINUOUS
 90
4
 70
0
 10
-11.2873266384
 20
24.7862322461
 10
-11.2812348348
 20
24.783301326
 10
-11.2581313189
 20
24.7741685901
 10
-11.2346656955
 20
24.767810921
  0
LINE
  5
44F
100
AcDbEntity
  8
ASSI
100
AcDbLine
 62
250
  6
CONTINUOUS
 10
1.234012717
 20
18.9455626814
 11
-0.8304886057
 21
19.9778133428
  0
LINE
  5
450
100
AcDbEntity
  8
ASSI
100
AcDbLine
 62
250
  6
CONTINUOUS
 10
-11.3524879881
 20
25.238813034
 11
-13.4169893108
 21
26.2710636953
  0
LINE
  5
451
100
AcDbEntity
  8
ASSI
100
AcDbLine
 62
7
  6
CONTINUOUS
 10
-9.4148901684
 20
24.4696792518
 11
-7.7373328774
 21
23.6309006063
  0
LINE
  5
452
100
AcDbEntity
  8
ASSI
100
AcDbLine
 62
7
  6
CONTINUOUS
 10
-4.8894067689
 20
22.206937552
 11
-4.0250222762
 21
21.7747453057
  0
LINE
  5
453
100
AcDbEntity
  8
ASSI
100
AcDbLine
 62
7
  6
CONTINUOUS
 10
-1.1770961676
 20
20.3507822514
 11
-0.8500751964
 21
20.1872717658
  0
LINE
  5
454
100
AcDbEntity
  8
ASSI
100
AcDbLine
 62
7
  6
CONTINUOUS
 10
3.2073292129
 20
18.1585695611
 11
3.1716105367
 21
18.1764288993
  0
LINE
  5
455
100
AcDbEntity
  8
ASSI
100
AcDbLine
 62
250
  6
CONTINUOUS
 10
1.4083105929
 20
19.248578636
 11
-0.6574034484
 21
20.2814356567
  0
LINE
  5
456
100
AcDbEntity
  8
ASSI
100
AcDbLine
 62
250
  6
CONTINUOUS
 10
-11.1781901122
 20
25.5418289886
 11
-13.2439041536
 21
26.5746860092
  0
LINE
  5
457
100
AcDbEntity
  8
ASSI
100
AcDbLine
 62
7
  6
CONTINUOUS
 10
-9.4148901684
 20
25.1616695034
 11
-8.7467544533
 21
24.8276016458
  0
LINE
  5
458
100
AcDbEntity
  8
ASSI
100
AcDbLine
 62
7
  6
CONTINUOUS
 10
3.1716105367
 20
18.8684191508
 11
3.90178391
 21
18.5033324641
  0
LINE
  5
459
100
AcDbEntity
  8
ASSI
100
AcDbLine
 62
7
  6
CONTINUOUS
 10
-4.0250222762
 20
22.4674385802
 11
-4.2073465385
 21
22.5586007114
  0
LINE
  5
45A
100
AcDbEntity
  8
ASSI
100
AcDbLine
 62
7
  6
CONTINUOUS
 10
-4.0250222762
 20
22.5512634728
 11
-4.2091459641
 21
22.6433253168
  0
LINE
  5
45B
100
AcDbEntity
  8
ASSI
100
AcDbLine
 62
250
  6
CONTINUOUS
 10
-7.6434042794
 20
24.4382571391
 11
-5.4234557908
 21
23.3282828948
  0
LINE
  5
45C
100
AcDbEntity
  8
ASSI
100
AcDbLine
 62
250
  6
CONTINUOUS
 10
-1.7111451896
 20
21.4721275942
 11
-3.9310936782
 21
22.5821018385
  0
LINE
  5
45D
100
AcDbEntity
  8
ASSI
100
AcDbLine
 62
250
  6
CONTINUOUS
 10
-7.5044510662
 20
24.6809124465
 11
-5.2845025776
 21
23.5709382022
  0
LINE
  5
45E
100
AcDbEntity
  8
ASSI
100
AcDbLine
 62
250
  6
CONTINUOUS
 10
-1.5721919763
 20
21.7147829016
 11
-3.7921404649
 21
22.8247571459
  0
LINE
  5
45F
100
AcDbEntity
  8
ASSI
100
AcDbLine
 62
7
  6
CONTINUOUS
 10
-7.2935967488
 20
24.7946731881
 11
-5.0661565402
 21
23.6809530838
  0
LINE
  5
460
100
AcDbEntity
  8
ASSI
100
AcDbLine
 62
7
  6
CONTINUOUS
 10
-3.5812861476
 20
22.9385178875
 11
-1.353845939
 21
21.8247977831
  0
LINE
  5
461
100
AcDbEntity
  8
ASSI
100
AcDbLine
 62
7
  6
CONTINUOUS
 10
-11.6776534074
 20
27.4197142192
 11
-9.5562899855
 21
26.3590325083
  0
LINE
  5
462
100
AcDbEntity
  8
ASSI
100
AcDbLine
 62
7
  6
CONTINUOUS
 10
0.9088472977
 20
21.1264638667
 11
3.0302107196
 21
20.0657821557
  0
LINE
  5
463
100
AcDbEntity
  8
ASSI
100
AcDbLine
 62
7
  6
CONTINUOUS
 10
-0.9380542786
 20
22.267512658
 11
-2.9048583154
 21
23.2509146764
  0
LINE
  5
464
100
AcDbEntity
  8
ASSI
100
AcDbLine
 62
7
  6
CONTINUOUS
 10
-4.4129377757
 20
24.0049544066
 11
-6.3797418125
 21
24.988356425
  0
LINE
  5
465
100
AcDbEntity
  8
ASSI
100
AcDbLine
 62
250
  6
CONTINUOUS
 10
3.5543151861
 20
20.3257418349
 11
1.4515753128
 21
21.3771136494
  0
LINE
  5
466
100
AcDbEntity
  8
ASSI
100
AcDbLine
 62
250
  6
CONTINUOUS
 10
-9.032185519
 20
26.6189921875
 11
-11.1349273447
 21
27.6703631003
  0
LINE
  5
467
100
AcDbEntity
  8
ASSI
100
AcDbLine
 62
7
  6
CONTINUOUS
 10
-11.0258298673
 20
27.6757643041
 11
-8.9237706448
 21
26.6247346493
  0
LINE
  5
468
100
AcDbEntity
  8
ASSI
100
AcDbLine
 62
7
  6
CONTINUOUS
 10
3.6627595465
 20
20.3314695132
 11
1.5606699381
 21
21.3825144014
  0
LWPOLYLINE
  5
469
100
AcDbEntity
  8
ASSI
100
AcDbPolyline
 62
250
  6
CONTINUOUS
 90
28
 70
0
 10
-5.4234557908
 20
23.3282828948
 10
-5.4217019147
 20
23.3273670231
 10
-5.4199161708
 20
23.3263074844
 10
-5.418098559
 20
23.3251042786
 10
-5.4162376452
 20
23.3237567313
 10
-5.4143448635
 20
23.322265517
 10
-5.4124545164
 20
23.3206326587
 10
-5.4105659192
 20
23.3188527144
 10
-5.4086797565
 20
23.3169311261
 10
-5.4068323849
 20
23.3148862426
 10
-5.405024845
 20
23.3127134667
 10
-5.4032560961
 20
23.3104173955
 10
-5.4015593727
 20
23.3080301701
 10
-5.3999380124
 20
23.305550968
 10
-5.3983886777
 20
23.3029806116
 10
-5.3969345903
 20
23.300353709
 10
-5.3955787184
 20
23.2976715621
 10
-5.3943180938
 20
23.2949328691
 10
-5.3931670339
 20
23.2921683326
 10
-5.3921269729
 20
23.2893780322
 10
-5.3911964765
 20
23.2865618883
 10
-5.3903855597
 20
23.2837503656
 10
-5.3896955396
 20
23.2809434692
 10
-5.3891250991
 20
23.278141194
 10
-5.3886803022
 20
23.2753739888
 10
-5.3883631701
 20
23.2726520033
 10
-5.3881716815
 20
23.2699650879
 10
-5.3881058366
 20
23.2673132425
  0
LWPOLYLINE
  5
46A
100
AcDbEntity
  8
ASSI
100
AcDbPolyline
 62
250
  6
CONTINUOUS
 90
28
 70
0
 10
-5.2845025776
 20
23.5709382022
 10
-5.2759034161
 20
23.5662542863
 10
-5.2670840838
 20
23.5609077089
 10
-5.2580692262
 20
23.5548694744
 10
-5.2488653055
 20
23.548096706
 10
-5.2395268918
 20
23.5405802387
 10
-5.2301542078
 20
23.5323582257
 10
-5.2207837945
 20
23.5234265428
 10
-5.2114553951
 20
23.5137857939
 10
-5.2022714035
 20
23.5035099579
 10
-5.1932717312
 20
23.4926193486
 10
-5.1844953837
 20
23.4811361277
 10
-5.1760345109
 20
23.469162146
 10
-5.1679308702
 20
23.4567472378
 10
-5.1602097701
 20
23.443920787
 10
-5.1529273849
 20
23.4307695588
 10
-5.146117021
 20
23.4173538747
 10
-5.1397966459
 20
23.4037095747
 10
-5.1339921164
 20
23.3898919875
 10
-5.1287251736
 20
23.3759531625
 10
-5.1240139669
 20
23.361941654
 10
-5.1198753886
 20
23.3479084487
 10
-5.1163243452
 20
23.3339039957
 10
-5.1133737415
 20
23.319979304
 10
-5.1110341259
 20
23.3061859858
 10
-5.1093137505
 20
23.2925742676
 10
-5.1082187065
 20
23.2791928395
 10
-5.1077528062
 20
23.2660899406
  0
LWPOLYLINE
  5
46B
100
AcDbEntity
  8
ASSI
100
AcDbPolyline
 62
250
  6
CONTINUOUS
 90
13
 70
0
 10
-9.032185519
 20
26.6189921875
 10
-9.0134317833
 20
26.6084283284
 10
-8.9950410239
 20
26.5950620505
 10
-8.9773277901
 20
26.5791219681
 10
-8.9605950426
 20
26.5608807161
 10
-8.9451289726
 20
26.5406502886
 10
-8.931194107
 20
26.5187767034
 10
-8.9190287821
 20
26.4956340813
 10
-8.908841067
 20
26.4716182454
 10
-8.9008052063
 20
26.4471399526
 10
-8.8950586408
 20
26.4226178701
 10
-8.8916996563
 20
26.3984714148
 10
-8.8907857019
 20
26.3751135781
  0
LWPOLYLINE
  5
46C
100
AcDbEntity
  8
ASSI
100
AcDbPolyline
 62
250
  6
CONTINUOUS
 90
7
 70
0
 10
-3.9664436324
 20
22.5564821404
 10
-3.983515695
 20
22.5662013515
 10
-3.9979357364
 20
22.5769411139
 10
-4.0094624705
 20
22.5885217224
 10
-4.0179030242
 20
22.6007494024
 10
-4.0231161643
 20
22.6134195518
 10
-4.0250222762
 20
22.6271928186
  0
LWPOLYLINE
  5
46D
100
AcDbEntity
  8
ASSI
100
AcDbPolyline
 62
7
  6
CONTINUOUS
 90
13
 70
0
 10
3.0302107196
 20
20.0657821557
 10
3.0486619879
 20
20.0550696668
 10
3.066804385
 20
20.0415813005
 10
3.0843233576
 20
20.0255454309
 10
3.1009145562
 20
20.0072335914
 10
3.1162930008
 20
19.9869584816
 10
3.1301981013
 20
19.9650687971
 10
3.1423944332
 20
19.9419401699
 10
3.1526709491
 20
19.9179670182
 10
3.1608487803
 20
19.8935586004
 10
3.1667891378
 20
19.869133111
 10
3.1703954747
 20
19.8451104598
 10
3.1716105367
 20
19.8219035464
  0
LINE
  5
46E
100
AcDbEntity
  8
DRAFT
100
AcDbLine
 62
7
  6
CONTINUOUS
 10
11.0856690872
 20
20.2893181068
 11
10.3329750033
 21
21.5875233678
  0
LINE
  5
46F
100
AcDbEntity
  8
0
100
AcDbLine
 62
250
  6
CONTINUOUS
 10
10.1570566836
 20
24.0857901409
 11
9.7780535674
 21
25.0809224022
  0
LINE
  5
470
100
AcDbEntity
  8
0
100
AcDbLine
 62
7
  6
CONTINUOUS
 10
11.2644215726
 20
22.5198724926
 11
11.0629222147
 21
23.1155969184
  0
LWPOLYLINE
  5
471
100
AcDbEntity
  8
RACCORDO
100
AcDbPolyline
 62
250
  6
CONTINUOUS
 90
11
 70
0
 10
19.8575662397
 20
15.6296025783
 10
19.8574242251
 20
15.6336501891
 10
19.8567006912
 20
15.6394669235
 10
19.8553784673
 20
15.6450248622
 10
19.8534813785
 20
15.6502415383
 10
19.8510330038
 20
15.655113008
 10
19.8480550004
 20
15.6596552349
 10
19.8445787037
 20
15.6638144217
 10
19.8406335886
 20
15.6675752885
 10
19.8362428352
 20
15.6709613726
 10
19.8314319076
 20
15.6739760321
  0
LWPOLYLINE
  5
472
100
AcDbEntity
  8
RACCORDO
100
AcDbPolyline
 62
250
  6
CONTINUOUS
 90
25
 70
0
 10
21.4442816387
 20
17.0101784767
 10
21.4446726178
 20
16.9989045644
 10
21.4448066678
 20
16.9877655459
 10
21.4446834713
 20
16.9767692677
 10
21.4443026674
 20
16.9659234093
 10
21.4436645475
 20
16.955235667
 10
21.442770035
 20
16.9447137608
 10
21.4416195181
 20
16.9343649857
 10
21.4402136136
 20
16.9241967553
 10
21.4385538559
 20
16.9142167887
 10
21.4366412508
 20
16.9044321479
 10
21.4344769332
 20
16.8948496758
 10
21.4320629175
 20
16.8854765475
 10
21.4294007437
 20
16.8763193714
 10
21.4264921142
 20
16.8673845619
 10
21.423339558
 20
16.8586787738
 10
21.4199451392
 20
16.8502080869
 10
21.416311105
 20
16.841978489
 10
21.4124405324
 20
16.8339962391
 10
21.4083360808
 20
16.8262670171
 10
21.4040004778
 20
16.8187961425
 10
21.3994371557
 20
16.8115890704
 10
21.3946493762
 20
16.8046509348
 10
21.3896402433
 20
16.7979865278
 10
21.384413188
 20
16.7916005213
  0
LWPOLYLINE
  5
473
100
AcDbEntity
  8
RACCORDO
100
AcDbPolyline
 62
7
  6
CONTINUOUS
 90
31
 70
0
 10
19.8575662402
 20
22.3704763935
 10
19.857285742
 20
22.4045426494
 10
19.8561572712
 20
22.4470259051
 10
19.8541719953
 20
22.489573128
 10
19.8513362377
 20
22.532189549
 10
19.8476574692
 20
22.5748546778
 10
19.8431466163
 20
22.6175189803
 10
19.8378116342
 20
22.6601763475
 10
19.8316597643
 20
22.7028190245
 10
19.8247055418
 20
22.7453928911
 10
19.8169575625
 20
22.7878913695
 10
19.8084233451
 20
22.8303078715
 10
19.7991212383
 20
22.8725866731
 10
19.7890607627
 20
22.9147190055
 10
19.7782495888
 20
22.9567006048
 10
19.7667079205
 20
22.9984811183
 10
19.7544478018
 20
23.040044301
 10
19.7414752259
 20
23.0813936548
 10
19.7278032903
 20
23.1225071633
 10
19.7134410905
 20
23.1633751136
 10
19.6983951653
 20
23.2039939391
 10
19.6826750089
 20
23.2443495248
 10
19.6662874048
 20
23.2844347534
 10
19.6492381937
 20
23.3242426759
 10
19.6315361564
 20
23.3637585493
 10
19.6131871419
 20
23.4029740185
 10
19.5941954903
 20
23.441881872
 10
19.5745679785
 20
23.4804694353
 10
19.5543089569
 20
23.5187276296
 10
19.5334216615
 20
23.5566487223
 10
19.5155988002
 20
23.5878808605
  0
LWPOLYLINE
  5
474
100
AcDbEntity
  8
RACCORDO
100
AcDbPolyline
 62
7
  6
CONTINUOUS
 90
19
 70
0
 10
21.5284796398
 20
19.6867752475
 10
21.5284337115
 20
19.6936536683
 10
21.5280264683
 20
19.7084487371
 10
21.5272017479
 20
19.7232630302
 10
21.5259623759
 20
19.7381045864
 10
21.5243121174
 20
19.7529593898
 10
21.5222586263
 20
19.7677895316
 10
21.5198063605
 20
19.7825931993
 10
21.5169586213
 20
19.7973681232
 10
21.5137266764
 20
19.8120748122
 10
21.5101147921
 20
19.8267127435
 10
21.5061264638
 20
19.8412796755
 10
21.5017771639
 20
19.8557331721
 10
21.4970713999
 20
19.8700720486
 10
21.4920129532
 20
19.8842951748
 10
21.4866207173
 20
19.8983602238
 10
21.480905194
 20
19.9122529668
 10
21.4748648109
 20
19.9259870335
 10
21.4718947295
 20
19.9324289404
  0
LINE
  5
475
100
AcDbEntity
  8
RACCORDO
100
AcDbLine
 62
250
  6
CONTINUOUS
 10
21.4442816387
 20
19.5825777243
 11
21.4442816387
 21
19.4116482652
  0
LINE
  5
476
100
AcDbEntity
  8
RACCORDO
100
AcDbLine
 62
250
  6
CONTINUOUS
 10
21.4442816387
 20
17.1811080953
 11
21.4442816387
 21
17.0101784767
  0
LINE
  5
477
100
AcDbEntity
  8
RACCORDO
100
AcDbLine
 62
7
  6
CONTINUOUS
 10
21.5284796986
 20
19.6867764798
 11
21.5284796986
 21
19.4971181587
  0
LINE
  5
478
100
AcDbEntity
  8
RACCORDO
100
AcDbLine
 62
7
  6
CONTINUOUS
 10
21.5284796986
 20
17.2736769769
 11
21.5284796986
 21
17.1143772319
  0
LWPOLYLINE
  5
479
100
AcDbEntity
  8
RACCORDO
100
AcDbPolyline
 62
250
  6
CONTINUOUS
 90
16
 70
0
 10
21.4718947829
 20
19.9324288438
 10
21.4718861991
 20
19.9320555265
 10
21.4715011381
 20
19.931448645
 10
21.4707142256
 20
19.9306549037
 10
21.4695266269
 20
19.9296754783
 10
21.467940101
 20
19.9285118193
 10
21.4659569976
 20
19.9271656501
 10
21.4635802537
 20
19.9256389644
 10
21.4608133894
 20
19.9239340234
 10
21.4576605025
 20
19.9220533521
 10
21.4541262626
 20
19.919999736
 10
21.4502159041
 20
19.9177762164
 10
21.4459352184
 20
19.9153860866
 10
21.4412905454
 20
19.9128328864
 10
21.436288764
 20
19.9101203972
 10
21.4309372822
 20
19.9072526363
  0
LWPOLYLINE
  5
47A
100
AcDbEntity
  8
RACCORDO
100
AcDbPolyline
 62
250
  6
CONTINUOUS
 90
22
 70
0
 10
21.5284796986
 20
19.6867752475
 10
21.5283599318
 20
19.6825383871
 10
21.5278414459
 20
19.6769971105
 10
21.5269135268
 20
19.671469209
 10
21.5255774438
 20
19.665962243
 10
21.523835024
 20
19.6604837444
 10
21.5216886507
 20
19.6550412061
 10
21.5191412594
 20
19.6496420716
 10
21.516196334
 20
19.6442937254
 10
21.5128579024
 20
19.6390034823
 10
21.5091305305
 20
19.6337785777
 10
21.5050193162
 20
19.6286261576
 10
21.5005298822
 20
19.6235532689
 10
21.4956683688
 20
19.6185668498
 10
21.490441425
 20
19.6136737202
 10
21.4848561996
 20
19.6088805722
 10
21.4789203314
 20
19.6041939614
 10
21.4726419389
 20
19.5996202976
 10
21.4660296089
 20
19.5951658362
 10
21.459092385
 20
19.5908366694
 10
21.4518397551
 20
19.5866387183
 10
21.4442816387
 20
19.5825777243
  0
LWPOLYLINE
  5
47B
100
AcDbEntity
  8
RACCORDO
100
AcDbPolyline
 62
250
  6
CONTINUOUS
 90
22
 70
0
 10
21.5284796985
 20
17.1143736355
 10
21.5283599327
 20
17.1101391554
 10
21.527841448
 20
17.1045978786
 10
21.5269135301
 20
17.0990699768
 10
21.5255774481
 20
17.0935630104
 10
21.5238350293
 20
17.0880845113
 10
21.5216886568
 20
17.0826419723
 10
21.5191412662
 20
17.0772428372
 10
21.5161963415
 20
17.0718944902
 10
21.5128579104
 20
17.0666042463
 10
21.5091305388
 20
17.0613793408
 10
21.5050193246
 20
17.0562269198
 10
21.5005298906
 20
17.0511540301
 10
21.495668377
 20
17.04616761
 10
21.4904414328
 20
17.0412744793
 10
21.4848562068
 20
17.0364813303
 10
21.4789203378
 20
17.0317947185
 10
21.4726419443
 20
17.0272210537
 10
21.4660296132
 20
17.0227665913
 10
21.459092388
 20
17.0184374236
 10
21.4518397567
 20
17.0142394716
 10
21.4442816387
 20
17.0101784767
  0
LWPOLYLINE
  5
47C
100
AcDbEntity
  8
RACCORDO
100
AcDbPolyline
 62
7
  6
CONTINUOUS
 90
27
 70
0
 10
21.5284796985
 20
19.4971644588
 10
21.5283849529
 20
19.4945215628
 10
21.5280334446
 20
19.4913947898
 10
21.5274220709
 20
19.4882293816
 10
21.5265506771
 20
19.4850292789
 10
21.5254193617
 20
19.4817953693
 10
21.5240284415
 20
19.4785314103
 10
21.522378465
 20
19.4752413673
 10
21.5204702561
 20
19.4719264424
 10
21.5183048435
 20
19.4685903885
 10
21.5158834859
 20
19.4652371606
 10
21.5132077329
 20
19.4618682492
 10
21.5102793302
 20
19.4584873722
 10
21.5071002436
 20
19.4550984377
 10
21.5036727271
 20
19.4517031888
 10
21.4999992339
 20
19.4483052739
 10
21.4960824282
 20
19.4449085233
 10
21.4919252397
 20
19.4415149053
 10
21.4875308188
 20
19.4381279711
 10
21.482902507
 20
19.4347514374
 10
21.4780438593
 20
19.4313874618
 10
21.4729587004
 20
19.4280394681
 10
21.4676510241
 20
19.424711031
 10
21.462124951
 20
19.4214044641
 10
21.4563848775
 20
19.4181227677
 10
21.4504354879
 20
19.4148696198
 10
21.4442816387
 20
19.4116482652
  0
LWPOLYLINE
  5
47D
100
AcDbEntity
  8
RACCORDO
100
AcDbPolyline
 62
250
  6
CONTINUOUS
 90
34
 70
0
 10
19.2263118638
 20
-9.2881684695
 10
19.2464864449
 20
-9.2694888376
 10
19.2661393775
 20
-9.2500249115
 10
19.2852614968
 20
-9.2297858076
 10
19.3038437256
 20
-9.208781105
 10
19.3218771224
 20
-9.1870208731
 10
19.3393531116
 20
-9.1645155026
 10
19.3562633374
 20
-9.1412757503
 10
19.3725997489
 20
-9.1173126617
 10
19.3883546395
 20
-9.0926375868
 10
19.4035205034
 20
-9.0672622716
 10
19.4180901002
 20
-9.0411988035
 10
19.4320565418
 20
-9.0144595367
 10
19.4454131894
 20
-8.9870571728
 10
19.4581536597
 20
-8.9590047752
 10
19.4702718875
 20
-8.9303157109
 10
19.4817621143
 20
-8.9010036259
 10
19.4926188657
 20
-8.8710824707
 10
19.5028369584
 20
-8.8405665145
 10
19.512411542
 20
-8.8094702916
 10
19.5213380719
 20
-8.7778085767
 10
19.5296122855
 20
-8.7455964104
 10
19.5372302702
 20
-8.712849106
 10
19.5441884117
 20
-8.6795822376
 10
19.5504833625
 20
-8.6458116122
 10
19.5561121669
 20
-8.611553225
 10
19.5610721522
 20
-8.5768234147
 10
19.565360879
 20
-8.5416388518
 10
19.568976342
 20
-8.5060163615
 10
19.5719168671
 20
-8.469972778
 10
19.5741809921
 20
-8.4335250933
 10
19.5757676381
 20
-8.3966905757
 10
19.5766761215
 20
-8.3594867682
 10
19.5769060503
 20
-8.321931343
  0
LWPOLYLINE
  5
47E
100
AcDbEntity
  8
ASSI
100
AcDbPolyline
 62
7
  6
CONTINUOUS
 90
10
 70
0
 10
3.6583815258
 20
-22.0841073282
 10
3.6806211648
 20
-22.0687459477
 10
3.7014671247
 20
-22.050742193
 10
3.7206056609
 20
-22.0302988419
 10
3.73732823
 20
-22.0082897141
 10
3.7519367336
 20
-21.9844501255
 10
3.7643643638
 20
-21.9586914437
 10
3.7739719059
 20
-21.9322918551
 10
3.7807636125
 20
-21.9055726152
 10
3.784852984
 20
-21.8777937897
  0
LWPOLYLINE
  5
47F
100
AcDbEntity
  8
ASSI
100
AcDbPolyline
 62
7
  6
CONTINUOUS
 90
5
 70
0
 10
3.1217141621
 20
-22.3740699737
 10
3.1301981013
 20
-22.3687366527
 10
3.1423921135
 20
-22.3578031976
 10
3.1526666481
 20
-22.3441055711
 10
3.1608487803
 20
-22.3278771351
  0
LWPOLYLINE
  5
480
100
AcDbEntity
  8
ASSI
100
AcDbPolyline
 62
250
  6
CONTINUOUS
 90
7
 70
0
 10
3.7298469472
 20
-21.5833068525
 10
3.7465771921
 20
-21.5734401066
 10
3.7606201821
 20
-21.5625761113
 10
3.7717409425
 20
-21.5508966518
 10
3.779753396
 20
-21.538597158
 10
3.7845234762
 20
-21.5258834342
 10
3.7859789871
 20
-21.5138409458
  0
LWPOLYLINE
  5
481
100
AcDbEntity
  8
ASSI
100
AcDbPolyline
 62
250
  6
CONTINUOUS
 90
7
 70
0
 10
3.7298469472
 20
-21.9232504474
 10
3.7465771623
 20
-21.9133837423
 10
3.7606201381
 20
-21.9025197834
 10
3.7717408977
 20
-21.8908403541
 10
3.779753361
 20
-21.8785408825
 10
3.7845234578
 20
-21.8658271718
 10
3.7859789871
 20
-21.8537846103
  0
LWPOLYLINE
  5
482
100
AcDbEntity
  8
ASSI
100
AcDbPolyline
 62
250
  6
CONTINUOUS
 90
8
 70
0
 10
1.4946344818
 20
-23.1256685956
 10
1.5072583916
 20
-23.1182639774
 10
1.5194834079
 20
-23.1073165259
 10
1.5298491751
 20
-23.0935774311
 10
1.5381784032
 20
-23.0772816827
 10
1.5443286337
 20
-23.0587079982
 10
1.5481946765
 20
-23.0381740566
 10
1.54971041
 20
-23.0160310639
  0
LINE
  5
483
100
AcDbEntity
  8
ASSI
100
AcDbLine
 62
7
  6
CONTINUOUS
 10
3.6467121271
 20
-22.0908212143
 11
3.6583815258
 21
-22.0841073282
  0
LWPOLYLINE
  5
484
100
AcDbEntity
  8
ASSI
100
AcDbPolyline
 62
250
  6
CONTINUOUS
 90
28
 70
0
 10
3.6957150032
 20
-21.9842174539
 10
3.697511422
 20
-21.9832013736
 10
3.6993254879
 20
-21.9820438095
 10
3.7011572009
 20
-21.9807447613
 10
3.7030174484
 20
-21.9793014018
 10
3.7048953431
 20
-21.9777165584
 10
3.706758222
 20
-21.9759987134
 10
3.7086061711
 20
-21.9741429282
 10
3.7104391045
 20
-21.9721541414
 10
3.7122241024
 20
-21.9700556513
 10
3.7139593132
 20
-21.9678443817
 10
3.7156465885
 20
-21.9655234087
 10
3.7172585627
 20
-21.9631252589
 10
3.7187919248
 20
-21.9606504823
 10
3.7202499858
 20
-21.9580985289
 10
3.7216153126
 20
-21.955500274
 10
3.722885695
 20
-21.9528571276
 10
3.7240633433
 20
-21.9501676798
 10
3.7251374555
 20
-21.9474585764
 10
3.7261071488
 20
-21.9447296079
 10
3.7269733061
 20
-21.9419809838
 10
3.7277277739
 20
-21.9392399787
 10
3.7283695326
 20
-21.9365067228
 10
3.7288996018
 20
-21.9337810859
 10
3.7293128873
 20
-21.9310899516
 10
3.729607691
 20
-21.928442281
 10
3.7297857109
 20
-21.9258291129
 10
3.7298469472
 20
-21.9232504474
  0
LINE
  5
485
100
AcDbEntity
  8
ASSI
100
AcDbLine
 62
250
  6
CONTINUOUS
 10
3.1716105367
 20
-22.2669838374
 11
3.6957150032
 21
-21.9842174539
  0
LINE
  5
486
100
AcDbEntity
  8
ASSI
100
AcDbLine
 62
7
  6
CONTINUOUS
 10
3.1217575964
 20
-22.3740465834
 11
3.6468118073
 21
-22.090767791
  0
LINE
  5
487
100
AcDbEntity
  8
ASSI
100
AcDbLine
 62
7
  6
CONTINUOUS
 10
3.1175477255
 20
-22.3761534782
 11
3.1217141621
 21
-22.3740699737
  0
LINE
  5
488
100
AcDbEntity
  8
ASSI
100
AcDbLine
 62
7
  6
CONTINUOUS
 10
3.4347440764
 20
-20.6512902294
 11
3.4170032596
 21
-20.6597089515
  0
LINE
  5
489
100
AcDbEntity
  8
ASSI
100
AcDbLine
 62
250
  6
CONTINUOUS
 10
3.1716105367
 20
-22.2669838374
 11
1.54971041
 21
-23.0160310639
  0
LINE
  5
48A
100
AcDbEntity
  8
ASSI
100
AcDbLine
 62
7
  6
CONTINUOUS
 10
1.4944021832
 20
-23.1257753954
 11
3.1174919198
 21
-22.3761792511
  0
LWPOLYLINE
  5
48B
100
AcDbEntity
  8
ASSI
100
AcDbPolyline
 62
250
  6
CONTINUOUS
 90
28
 70
0
 10
1.54971041
 20
-23.0160310639
 10
1.5479462186
 20
-23.0168075927
 10
1.5461518503
 20
-23.0174732365
 10
1.5443273052
 20
-23.0180279951
 10
1.5424612719
 20
-23.0184820279
 10
1.5405650617
 20
-23.0188251757
 10
1.5386726084
 20
-23.0190269607
 10
1.5367832924
 20
-23.0190827959
 10
1.5348977334
 20
-23.0189972684
 10
1.5330517244
 20
-23.0187536618
 10
1.531246306
 20
-23.0183465867
 10
1.5294804376
 20
-23.0177814325
 10
1.5277867909
 20
-23.0170576508
 10
1.5261686181
 20
-23.0161712994
 10
1.5246226669
 20
-23.0151263205
 10
1.5231718528
 20
-23.0139339918
 10
1.5218190679
 20
-23.0125927156
 10
1.5205614201
 20
-23.0111040896
 10
1.5194131477
 20
-23.0094841847
 10
1.5183756808
 20
-23.0077316731
 10
1.5174475893
 20
-23.0058478824
 10
1.516638821
 20
-23.0038528671
 10
1.5159506971
 20
-23.0017453417
 10
1.5153818963
 20
-22.9995265917
 10
1.5149384026
 20
-22.9972205275
 10
1.5146222105
 20
-22.9948351194
 10
1.5144313254
 20
-22.9923623971
 10
1.5143657474
 20
-22.9898023606
  0
LINE
  5
48C
100
AcDbEntity
  8
ASSI
100
AcDbLine
 62
250
  6
CONTINUOUS
 10
2.4720847305
 20
-20.8313138511
 11
3.5605192663
 21
-20.3829506496
  0
LINE
  5
48D
100
AcDbEntity
  8
ASSI
100
AcDbLine
 62
7
  6
CONTINUOUS
 10
2.3297065083
 20
-21.107603312
 11
3.4169555144
 21
-20.6597284705
  0
LINE
  5
48E
100
AcDbEntity
  8
RACCORDO
100
AcDbLine
 62
250
  6
CONTINUOUS
 10
0.0722154601
 20
-21.8263897059
 11
-3.2832139023
 21
-23.1030992352
  0
LINE
  5
48F
100
AcDbEntity
  8
RACCORDO
100
AcDbLine
 62
7
  6
CONTINUOUS
 10
-3.4497887118
 20
-23.3897445443
 11
-0.0904389696
 21
-22.1115434619
  0
LWPOLYLINE
  5
490
100
AcDbEntity
  8
RACCORDO
100
AcDbPolyline
 62
250
  6
CONTINUOUS
 90
22
 70
0
 10
-3.2832139023
 20
-23.1030992352
 10
-3.3196174072
 20
-23.1153628259
 10
-3.3553239688
 20
-23.1243186536
 10
-3.3903335871
 20
-23.1299667184
 10
-3.4248353331
 20
-23.1323083442
 10
-3.4586401357
 20
-23.1313422071
 10
-3.4911807818
 20
-23.1270643349
 10
-3.5224212798
 20
-23.1194172755
 10
-3.5523976213
 20
-23.1084584809
 10
-3.580650568
 20
-23.0943563356
 10
-3.6071534773
 20
-23.0770607215
 10
-3.6319329918
 20
-23.0566217566
 10
-3.6546098013
 20
-23.0333581785
 10
-3.6751493901
 20
-23.007227599
 10
-3.6935862738
 20
-22.9782724064
 10
-3.7096446888
 20
-22.946938503
 10
-3.7232885346
 20
-22.9131703814
 10
-3.7345539117
 20
-22.8770235491
 10
-3.7432733578
 20
-22.839110431
 10
-3.7493910521
 20
-22.7996351689
 10
-3.7529628154
 20
-22.758393621
 10
-3.7539886477
 20
-22.7153857873
  0
LWPOLYLINE
  5
491
100
AcDbEntity
  8
ASSI
100
AcDbPolyline
 62
7
  6
CONTINUOUS
 90
4
 70
0
 10
0.8547346597
 20
21.1403397798
 10
0.8722450803
 20
21.1388609528
 10
0.8903845843
 20
21.1342083686
 10
0.9088472977
 20
21.1264638667
  0
LINE
  5
492
100
AcDbEntity
  8
ASSI
100
AcDbLine
 62
7
  6
CONTINUOUS
 10
-11.3947891558
 20
24.3989685737
 11
-11.9375152185
 21
24.5140978912
  0
LINE
  5
493
100
AcDbEntity
  8
ASSI
100
AcDbLine
 62
250
  6
CONTINUOUS
 10
-10.3173409191
 20
24.735205307
 11
-11.0541487234
 21
24.891505484
  0
LINE
  5
494
100
AcDbEntity
  8
ASSI
100
AcDbLine
 62
7
  6
CONTINUOUS
 10
-11.2346657613
 20
24.7678105995
 11
-10.5937668632
 21
24.6318556962
  0
LWPOLYLINE
  5
495
100
AcDbEntity
  8
ASSI
100
AcDbPolyline
 62
250
  6
CONTINUOUS
 90
19
 70
0
 10
-11.0541487234
 20
24.891505484
 10
-11.0556897604
 20
24.8918776756
 10
-11.0572056546
 20
24.8923948749
 10
-11.0586964058
 20
24.8930570817
 10
-11.0601742441
 20
24.8938604227
 10
-11.0616269394
 20
24.8948087714
 10
-11.0630178016
 20
24.895913748
 10
-11.0643456738
 20
24.8971807057
 10
-11.0656117128
 20
24.8986042914
 10
-11.0667826987
 20
24.9001800663
 10
-11.0678560083
 20
24.9019135021
 10
-11.0688342649
 20
24.903799127
 10
-11.0696921189
 20
24.9058160865
 10
-11.0704257549
 20
24.9079690301
 10
-11.0710389882
 20
24.9102533084
 10
-11.0715179155
 20
24.9126341179
 10
-11.0718579023
 20
24.9150998578
 10
-11.072063583
 20
24.9176621291
 10
-11.0721349577
 20
24.9203209317
  0
LWPOLYLINE
  5
496
100
AcDbEntity
  8
ASSI
100
AcDbPolyline
 62
7
  6
CONTINUOUS
 90
10
 70
0
 10
1.5490130607
 20
21.3879215919
 10
1.527970764
 20
21.3956979626
 10
1.5060958416
 20
21.4013207319
 10
1.4836153819
 20
21.404695458
 10
1.4606843695
 20
21.4057536073
 10
1.4375447327
 20
21.4044362046
 10
1.4145179522
 20
21.4007310506
 10
1.3918240157
 20
21.39465791
 10
1.3696662261
 20
21.3862570999
 10
1.3654898306
 20
21.3843819193
  0
LWPOLYLINE
  5
497
100
AcDbEntity
  8
ASSI
100
AcDbPolyline
 62
7
  6
CONTINUOUS
 90
6
 70
0
 10
-11.6776534074
 20
27.4197142192
 10
-11.6961046758
 20
27.4274644437
 10
-11.7142470728
 20
27.4321155814
 10
-11.7317660454
 20
27.4335901324
 10
-11.748357244
 20
27.4318651905
 10
-11.7649924474
 20
27.4264040507
  0
LWPOLYLINE
  5
498
100
AcDbEntity
  8
ASSI
100
AcDbPolyline
 62
250
  6
CONTINUOUS
 90
6
 70
0
 10
1.4515733604
 20
21.3771127478
 10
1.4334214282
 20
21.3850017261
 10
1.415537746
 20
21.3897726788
 10
1.3982281902
 20
21.3913440051
 10
1.3817888173
 20
21.3896888296
 10
1.3654898093
 20
21.3843819658
  0
LINE
  5
499
100
AcDbEntity
  8
ASSI
100
AcDbLine
 62
7
  6
CONTINUOUS
 10
-11.025553581
 20
27.6756249768
 11
-11.0398357881
 21
27.6821623302
  0
LINE
  5
49A
100
AcDbEntity
  8
ASSI
100
AcDbLine
 62
7
  6
CONTINUOUS
 10
1.560935638
 20
21.3823802647
 11
1.5490130607
 21
21.3879215919
  0
LWPOLYLINE
  5
49B
100
AcDbEntity
  8
ASSI
100
AcDbPolyline
 62
250
  6
CONTINUOUS
 90
13
 70
0
 10
3.6626479235
 20
20.3315254084
 10
3.6594533599
 20
20.3330472372
 10
3.6511180642
 20
20.3363535444
 10
3.6424446061
 20
20.3388720966
 10
3.6334630349
 20
20.340595731
 10
3.6242052773
 20
20.3415198209
 10
3.61470017
 20
20.3416427209
 10
3.6049806598
 20
20.3409646724
 10
3.5950802523
 20
20.339488652
 10
3.5850292129
 20
20.3372195953
 10
3.5748607287
 20
20.3341647355
 10
3.5646109866
 20
20.3303345061
 10
3.5543151861
 20
20.3257418349
  0
LWPOLYLINE
  5
49C
100
AcDbEntity
  8
RACCORDO
100
AcDbPolyline
 62
7
  6
CONTINUOUS
 90
3
 70
0
 10
-0.4881799962
 20
24.6195308318
 10
-0.4904746785
 20
24.6206240607
 10
-0.4933106765
 20
24.6218312841
  0
LWPOLYLINE
  5
49D
100
AcDbEntity
  8
ASSI
100
AcDbPolyline
 62
250
  6
CONTINUOUS
 90
13
 70
0
 10
1.5606755929
 20
21.3825115738
 10
1.5594046991
 20
21.3831352366
 10
1.5509287172
 20
21.3867196706
 10
1.5420854521
 20
21.3894897211
 10
1.5329083025
 20
21.3914350046
 10
1.5234281038
 20
21.3925490653
 10
1.5136796013
 20
21.3928275914
 10
1.5036971305
 20
21.3922695572
 10
1.493516685
 20
21.3908769435
 10
1.4831769077
 20
21.3886550717
 10
1.4727155284
 20
21.3856125383
 10
1.4621691173
 20
21.3817606524
 10
1.451575286
 20
21.3771136628
  0
LINE
  5
49E
100
AcDbEntity
  8
RACCORDO
100
AcDbLine
 62
7
  6
CONTINUOUS
 10
0.9305439363
 20
23.2233710455
 11
-1.7074262535
 21
24.5423561404
  0
LINE
  5
49F
100
AcDbEntity
  8
RACCORDO
100
AcDbLine
 62
250
  6
CONTINUOUS
 10
2.8559397012
 20
22.8970692661
 11
2.8353479812
 21
22.9073651261
  0
LINE
  5
4A0
100
AcDbEntity
  8
RACCORDO
100
AcDbLine
 62
250
  6
CONTINUOUS
 10
1.5805448783
 20
23.5347666775
 11
-0.5724211032
 21
24.6112496683
  0
LINE
  5
4A1
100
AcDbEntity
  8
RACCORDO
100
AcDbLine
 62
7
  6
CONTINUOUS
 10
2.9074189032
 20
22.9217313821
 11
2.8356559201
 21
22.9576128736
  0
LINE
  5
4A2
100
AcDbEntity
  8
RACCORDO
100
AcDbLine
 62
7
  6
CONTINUOUS
 10
1.6320240803
 20
23.5594287935
 11
-0.4881722306
 21
24.619526949
  0
LINE
  5
4A3
100
AcDbEntity
  8
ASSI
100
AcDbLine
 62
7
  6
CONTINUOUS
 10
3.2348080697
 20
23.2976548903
 11
2.8389528198
 21
23.4955825152
  0
LINE
  5
4A4
100
AcDbEntity
  8
ASSI
100
AcDbLine
 62
7
  6
CONTINUOUS
 10
2.183178096
 20
23.8234698772
 11
-0.3641656771
 21
25.0971417637
  0
LWPOLYLINE
  5
4A5
100
AcDbEntity
  8
ASSI
100
AcDbPolyline
 62
250
  6
CONTINUOUS
 90
13
 70
0
 10
-3.064661582
 20
26.5735445745
 10
-3.0420075426
 20
26.5603913028
 10
-3.0197790229
 20
26.5438487344
 10
-2.9983437849
 20
26.5241904155
 10
-2.9780565093
 20
26.5017414818
 10
-2.9592528651
 20
26.4768732169
 10
-2.9422439701
 20
26.4499968916
 10
-2.9273112978
 20
26.4215570225
 10
-2.9147020748
 20
26.3920241769
 10
-2.9046250973
 20
26.3618871216
 10
-2.8972472044
 20
26.3316445648
 10
-2.8926905528
 20
26.3017968913
 10
-2.8910306391
 20
26.2728380272
  0
LWPOLYLINE
  5
4A6
100
AcDbEntity
  8
0
100
AcDbPolyline
 62
7
  6
CONTINUOUS
 90
56
 70
0
 10
8.998771381
 20
23.4314604139
 10
8.9911060425
 20
23.4425790107
 10
8.9703102881
 20
23.4741675451
 10
8.9508247612
 20
23.5059568708
 10
8.9326735878
 20
23.5379075499
 10
8.9158583977
 20
23.5700193383
 10
8.9003775611
 20
23.6022924801
 10
8.8862503153
 20
23.6346882708
 10
8.8734778175
 20
23.6672091912
 10
8.8620589106
 20
23.6998527604
 10
8.8520093601
 20
23.7325728318
 10
8.8433317203
 20
23.7653657229
 10
8.836023437
 20
23.7982351162
 10
8.8300926133
 20
23.8311459118
 10
8.825540434
 20
23.864103332
 10
8.8223657143
 20
23.8971021545
 10
8.8205730031
 20
23.9300916125
 10
8.8201642853
 20
23.9630653286
 10
8.821137576
 20
23.9960296802
 10
8.82349147
 20
24.0289530321
 10
8.8272282876
 20
24.0618422964
 10
8.8323457085
 20
24.094690561
 10
8.8388353661
 20
24.1274454545
 10
8.846697306
 20
24.1600991502
 10
8.8559314826
 20
24.1926594748
 10
8.8665293933
 20
24.2250975364
 10
8.8784954092
 20
24.2574209617
 10
8.8918251592
 20
24.2896221241
 10
8.9064970277
 20
24.3216492512
 10
8.922508734
 20
24.3534943473
 10
8.9398625588
 20
24.3851654082
 10
8.9585437286
 20
24.4166346489
 10
8.9785587763
 20
24.4479095346
 10
8.999901169
 20
24.4789826001
 10
9.0225365345
 20
24.509803665
 10
9.0464610889
 20
24.5403653694
 10
9.071678616
 20
24.5706750731
 10
9.0981660949
 20
24.600704675
 10
9.1259311847
 20
24.6304605252
 10
9.1549662263
 20
24.6599362735
 10
9.1852252214
 20
24.6890847685
 10
9.2167040087
 20
24.7178998203
 10
9.2494067496
 20
24.7463876187
 10
9.2832999297
 20
24.7745195825
 10
9.3183904948
 20
24.8022999073
 10
9.3546714991
 20
24.8297243975
 10
9.3920885915
 20
24.8567518847
 10
9.4306384531
 20
24.8833781982
 10
9.4703244028
 20
24.9096075088
 10
9.5111020456
 20
24.9354111598
 10
9.5529769943
 20
24.9607912473
 10
9.5959436362
 20
24.9857456754
 10
9.6399407378
 20
25.0102394994
 10
9.6849478879
 20
25.0342610711
 10
9.7309854978
 20
25.0578220387
 10
9.7780535674
 20
25.0809224022
  0
LWPOLYLINE
  5
4A7
100
AcDbEntity
  8
0
100
AcDbPolyline
 62
250
  6
CONTINUOUS
 90
4
 70
0
 10
12.0124739416
 20
23.117430977
 10
12.0105219852
 20
23.1209956205
 10
12.009338418
 20
23.1243732686
 10
12.0089263836
 20
23.1275554534
  0
LWPOLYLINE
  5
4A8
100
AcDbEntity
  8
ASSI
100
AcDbPolyline
 62
7
  6
CONTINUOUS
 90
3
 70
0
 10
5.8593437184
 20
24.5600493009
 10
5.8018197282
 20
24.5454400928
 10
5.7439915533
 20
24.5253694666
  0
LWPOLYLINE
  5
4A9
100
AcDbEntity
  8
RACCORDO
100
AcDbPolyline
 62
250
  6
CONTINUOUS
 90
19
 70
0
 10
4.4101279245
 20
24.6568109335
 10
4.4250518683
 20
24.6601502462
 10
4.4437263728
 20
24.663669557
 10
4.4622645053
 20
24.6664996332
 10
4.4806524991
 20
24.6686383734
 10
4.4988766992
 20
24.6700841892
 10
4.5169235724
 20
24.6708360069
 10
4.5347797168
 20
24.6708932683
 10
4.5524318723
 20
24.6702559309
 10
4.5698669305
 20
24.6689244678
 10
4.5870719439
 20
24.666899868
 10
4.604034136
 20
24.6641836348
 10
4.6207409106
 20
24.6607777854
 10
4.6371798611
 20
24.6566848489
 10
4.6533387798
 20
24.6519078648
 10
4.6692056672
 20
24.6464503806
 10
4.6847687403
 20
24.6403164488
 10
4.7000164418
 20
24.6335106248
 10
4.7072999321
 20
24.6299666763
  0
LWPOLYLINE
  5
4AA
100
AcDbEntity
  8
RACCORDO
100
AcDbPolyline
 62
7
  6
CONTINUOUS
 90
13
 70
0
 10
11.9421539841
 20
23.475659024
 10
11.8243761349
 20
23.4660275822
 10
11.6836838991
 20
23.4507511515
 10
11.5445063066
 20
23.431461882
 10
11.4072343501
 20
23.4081800962
 10
11.2722587188
 20
23.3809332236
 10
11.1398399459
 20
23.3497231368
 10
11.0103418582
 20
23.3145703407
 10
10.8841734575
 20
23.2755125477
 10
10.7616337084
 20
23.2325560445
 10
10.6430620852
 20
23.1857142663
 10
10.5288647538
 20
23.1350272377
 10
10.4194275365
 20
23.0805322776
  0
LWPOLYLINE
  5
4AB
100
AcDbEntity
  8
0
100
AcDbPolyline
 62
250
  6
CONTINUOUS
 90
10
 70
0
 10
12.5012440084
 20
23.4496384332
 10
12.4924815541
 20
23.44914655
 10
12.4837836202
 20
23.4479745308
 10
12.4752172303
 20
23.446131407
 10
12.4668483948
 20
23.443631381
 10
12.4587416013
 20
23.4404937172
 10
12.4509593185
 20
23.4367425937
 10
12.4435615145
 20
23.4324069154
 10
12.4366051946
 20
23.4275200918
 10
12.4301439622
 20
23.4221197794
  0
LWPOLYLINE
  5
4AC
100
AcDbEntity
  8
ASSI
100
AcDbPolyline
 62
7
  6
CONTINUOUS
 90
5
 70
0
 10
2.4533447215
 20
23.9035824996
 10
2.412121579
 20
23.9014716682
 10
2.371017788
 20
23.8959214533
 10
2.3318846312
 20
23.8871336435
 10
2.2951195147
 20
23.8753347783
  0
LWPOLYLINE
  5
4AD
100
AcDbEntity
  8
0
100
AcDbPolyline
 62
250
  6
CONTINUOUS
 90
10
 70
0
 10
12.5010571724
 20
23.1529266453
 10
12.4923411042
 20
23.1525969901
 10
12.4836915108
 20
23.1516107086
 10
12.4751742219
 20
23.1499753375
 10
12.4668540685
 20
23.1477033576
 10
12.4587943482
 20
23.144812087
 10
12.4510563482
 20
23.1413235386
 10
12.4436989343
 20
23.1372642726
 10
12.4367780986
 20
23.1326652039
 10
12.4303464944
 20
23.1275613483
  0
LWPOLYLINE
  5
4AE
100
AcDbEntity
  8
0
100
AcDbPolyline
 62
250
  6
CONTINUOUS
 90
10
 70
0
 10
12.5010571724
 20
23.4431354151
 10
12.4923415982
 20
23.4428058663
 10
12.4836923547
 20
23.441819728
 10
12.4751752679
 20
23.4401845051
 10
12.4668551581
 20
23.4379126429
 10
12.4587953463
 20
23.4350214315
 10
12.4510571724
 20
23.4315328748
 10
12.4436995288
 20
23.4274735228
 10
12.4367784115
 20
23.4228742696
 10
12.4303464943
 20
23.4177701183
  0
LWPOLYLINE
  5
4AF
100
AcDbEntity
  8
0
100
AcDbPolyline
 62
7
  6
CONTINUOUS
 90
3
 70
0
 10
12.2451532276
 20
23.0668455516
 10
12.2301283718
 20
23.0664274666
 10
12.2193153865
 20
23.0663261854
  0
LWPOLYLINE
  5
4B0
100
AcDbEntity
  8
RACCORDO
100
AcDbPolyline
 62
250
  6
CONTINUOUS
 90
18
 70
0
 10
5.4399876288
 20
24.382064959
 10
5.4258624247
 20
24.381705686
 10
5.390562386
 20
24.3812172235
 10
5.3552077786
 20
24.381135916
 10
5.3198607905
 20
24.3814620518
 10
5.2845214271
 20
24.3821964649
 10
5.2491896831
 20
24.3833383212
 10
5.2139277298
 20
24.3848854072
 10
5.1787356018
 20
24.3868385678
 10
5.1436132646
 20
24.389196958
 10
5.1086227865
 20
24.391955829
 10
5.0737662068
 20
24.3951157461
 10
5.0390414863
 20
24.398676144
 10
5.0045045759
 20
24.4026305782
 10
4.9701588437
 20
24.406979034
 10
4.9360009217
 20
24.411721526
 10
4.9020766574
 20
24.416851654
 10
4.8841862395
 20
24.419781776
  0
LINE
  5
4B1
100
AcDbEntity
  8
0
100
AcDbLine
 62
250
  6
CONTINUOUS
 10
12.2406439561
 20
23.0532713402
 11
12.2196358157
 21
23.052927908
  0
LWPOLYLINE
  5
4B2
100
AcDbEntity
  8
0
100
AcDbPolyline
 62
7
  6
CONTINUOUS
 90
9
 70
0
 10
12.5011106161
 20
23.4835909338
 10
12.4933107744
 20
23.4836074034
 10
12.4824259665
 20
23.4826102097
 10
12.4717344846
 20
23.4804390052
 10
12.4613654314
 20
23.4771277209
 10
12.4514295895
 20
23.4727187837
 10
12.4420492759
 20
23.467273856
 10
12.4333542892
 20
23.4608840122
 10
12.4260655685
 20
23.4542757418
  0
LINE
  5
4B3
100
AcDbEntity
  8
0
100
AcDbLine
 62
7
  6
CONTINUOUS
 10
12.2193148584
 20
23.0663264601
 11
12.2103576592
 21
23.0664060354
  0
LINE
  5
4B4
100
AcDbEntity
  8
0
100
AcDbLine
 62
250
  6
CONTINUOUS
 10
12.2196358157
 20
23.052927908
 11
12.197645437
 21
23.0533452977
  0
LINE
  5
4B5
100
AcDbEntity
  8
0
100
AcDbLine
 62
7
  6
CONTINUOUS
 10
12.2103576592
 20
23.0664060354
 11
12.1952459307
 21
23.0668027248
  0
LWPOLYLINE
  5
4B6
100
AcDbEntity
  8
0
100
AcDbPolyline
 62
250
  6
CONTINUOUS
 90
10
 70
0
 10
11.93821446
 20
23.1529266453
 10
11.9469300342
 20
23.1525970965
 10
11.9555792777
 20
23.1516109581
 10
11.9640963645
 20
23.1499757353
 10
11.9724164743
 20
23.1477038731
 10
11.9804762861
 20
23.1448126617
 10
11.98821446
 20
23.141324105
 10
11.9955721036
 20
23.1372647529
 10
12.0024932209
 20
23.1326654998
 10
12.0089251381
 20
23.1275613485
  0
LWPOLYLINE
  5
4B7
100
AcDbEntity
  8
0
100
AcDbPolyline
 62
250
  6
CONTINUOUS
 90
10
 70
0
 10
11.93821446
 20
23.4343959062
 10
11.946930092
 20
23.4340663427
 10
11.9555793768
 20
23.4330801859
 10
11.9640964881
 20
23.4314449444
 10
11.9724166047
 20
23.4291730672
 10
11.9804764078
 20
23.4262818477
 10
11.988214562
 20
23.4227932917
 10
11.9955721777
 20
23.4187339509
 10
12.0024932602
 20
23.4141347219
 10
12.0089251381
 20
23.4090306094
  0
LWPOLYLINE
  5
4B8
100
AcDbEntity
  8
0
100
AcDbPolyline
 62
250
  6
CONTINUOUS
 90
9
 70
0
 10
12.197645437
 20
23.0533452977
 10
12.1765003385
 20
23.0542329307
 10
12.1562005202
 20
23.0555908071
 10
12.1367407742
 20
23.0574536195
 10
12.1181263085
 20
23.0597866754
 10
12.1003727469
 20
23.0624858964
 10
12.083484818
 20
23.0655382923
 10
12.0674577934
 20
23.0689568535
 10
12.0522931111
 20
23.0726764732
  0
LWPOLYLINE
  5
4B9
100
AcDbEntity
  8
0
100
AcDbPolyline
 62
7
  6
CONTINUOUS
 90
20
 70
0
 10
12.1952459307
 20
23.0668027248
 10
12.1807347359
 20
23.0674956933
 10
12.1668501851
 20
23.0684525588
 10
12.1535954968
 20
23.0696462567
 10
12.1410211966
 20
23.0710447987
 10
12.129120806
 20
23.0726194944
 10
12.1178090808
 20
23.0743585426
 10
12.1071222878
 20
23.076237255
 10
12.0970548838
 20
23.0782366613
 10
12.0874780165
 20
23.0803654049
 10
12.0783914204
 20
23.082613501
 10
12.0698543264
 20
23.0849564395
 10
12.061853834
 20
23.0873871398
 10
12.0543939498
 20
23.0898936889
 10
12.047572708
 20
23.0924301207
 10
12.0415346686
 20
23.0949182975
 10
12.0362984854
 20
23.0973143867
 10
12.0319272724
 20
23.0995431466
 10
12.0285940636
 20
23.1014440623
 10
12.0271022917
 20
23.1023785494
  0
LWPOLYLINE
  5
4BA
100
AcDbEntity
  8
0
100
AcDbPolyline
 62
250
  6
CONTINUOUS
 90
16
 70
0
 10
12.5010571724
 20
23.4431354094
 10
12.5871145641
 20
23.4383892943
 10
12.6703808249
 20
23.4325276738
 10
12.7508559548
 20
23.4255505477
 10
12.8285334483
 20
23.4173456129
 10
12.9034198109
 20
23.4080251725
 10
12.975534559
 20
23.3979261364
 10
13.0448463453
 20
23.3870660168
 10
13.1113865171
 20
23.3754273015
 10
13.1752686326
 20
23.3632943631
 10
13.2364762475
 20
23.3506850462
 10
13.2950258062
 20
23.3375815063
 10
13.3510801997
 20
23.3242145826
 10
13.4046937252
 20
23.3106612214
 10
13.4558120855
 20
23.2968444763
 10
13.5044352808
 20
23.2827643474
  0
LWPOLYLINE
  5
4BB
100
AcDbEntity
  8
0
100
AcDbPolyline
 62
250
  6
CONTINUOUS
 90
10
 70
0
 10
11.9380092572
 20
23.4518798208
 10
11.9469597835
 20
23.4512269316
 10
11.9558528906
 20
23.4498276665
 10
11.9646161482
 20
23.4476934219
 10
11.9731781839
 20
23.4448415803
 10
11.9814692638
 20
23.4412953684
 10
11.989421861
 20
23.4370836686
 10
11.9969712056
 20
23.4322407831
 10
12.0040558115
 20
23.4268061549
 10
12.0106179781
 20
23.4208240465
  0
LWPOLYLINE
  5
4BC
100
AcDbEntity
  8
ASSI
100
AcDbPolyline
 62
7
  6
CONTINUOUS
 90
4
 70
0
 10
-3.6489269451
 20
22.9558627788
 10
-3.6270389194
 20
22.9540142451
 10
-3.6043645394
 20
22.9481985149
 10
-3.5812861476
 20
22.9385178875
  0
LWPOLYLINE
  5
4BD
100
AcDbEntity
  8
ASSI
100
AcDbPolyline
 62
7
  6
CONTINUOUS
 90
4
 70
0
 10
-7.3612375463
 20
24.8120180795
 10
-7.3393495206
 20
24.8101695457
 10
-7.3166751406
 20
24.8043538155
 10
-7.2935967488
 20
24.7946731881
  0
LWPOLYLINE
  5
4BE
100
AcDbEntity
  8
ASSI
100
AcDbPolyline
 62
250
  6
CONTINUOUS
 90
12
 70
0
 10
-11.2345831677
 20
24.7677930481
 10
-11.2254850024
 20
24.7662292198
 10
-11.205343729
 20
24.7652709231
 10
-11.1849949523
 20
24.7676658358
 10
-11.1647829945
 20
24.7733734314
 10
-11.1450498639
 20
24.7822971278
 10
-11.1261294647
 20
24.7942859232
 10
-11.1083419457
 20
24.8091369528
 10
-11.091988286
 20
24.8265989218
 10
-11.077345203
 20
24.846376356
 10
-11.0646604702
 20
24.8681346003
 10
-11.0541487234
 20
24.891505484
  0
LWPOLYLINE
  5
4BF
100
AcDbEntity
  8
ASSI
100
AcDbPolyline
 62
7
  6
CONTINUOUS
 90
5
 70
0
 10
2.6157425744
 20
23.8780551963
 10
2.5771399072
 20
23.8894559747
 10
2.5368633781
 20
23.8975606123
 10
2.4949073233
 20
23.9023211001
 10
2.4533447215
 20
23.9035824996
  0
LWPOLYLINE
  5
4C0
100
AcDbEntity
  8
ASSI
100
AcDbPolyline
 62
7
  6
CONTINUOUS
 90
5
 70
0
 10
-3.001191499
 20
26.6869414756
 10
-3.0388768115
 20
26.6983889117
 10
-3.0782457822
 20
26.7066796462
 10
-3.1192910435
 20
26.7117661891
 10
-3.1600737563
 20
26.7134787438
  0
LWPOLYLINE
  5
4C1
100
AcDbEntity
  8
RACCORDO
100
AcDbPolyline
 62
7
  6
CONTINUOUS
 90
19
 70
0
 10
-0.49419601
 20
24.6221769535
 10
-0.49801184
 20
24.6235052509
 10
-0.5019172498
 20
24.6246072515
 10
-0.505907855
 20
24.6254818527
 10
-0.5099784626
 20
24.626127876
 10
-0.5141238265
 20
24.6265444418
 10
-0.5183393286
 20
24.6267313096
 10
-0.5226194876
 20
24.6266881297
 10
-0.5269587883
 20
24.6264148518
 10
-0.5313524373
 20
24.6259121
 10
-0.5357947254
 20
24.6251803548
 10
-0.5402799295
 20
24.6242203942
 10
-0.5448031421
 20
24.6230336991
 10
-0.5493584893
 20
24.6216215732
 10
-0.5539401026
 20
24.6199856117
 10
-0.5585430212
 20
24.6181281353
 10
-0.5631616143
 20
24.6160514185
 10
-0.5677895879
 20
24.6137576899
 10
-0.5724209572
 20
24.6112495953
  0
LWPOLYLINE
  5
4C2
100
AcDbEntity
  8
ASSI
100
AcDbPolyline
 62
7
  6
CONTINUOUS
 90
8
 70
0
 10
-11.0398357881
 20
27.6821623302
 10
-11.0610641342
 20
27.6897238573
 10
-11.083106399
 20
27.6951025403
 10
-11.1057330604
 20
27.6982061483
 10
-11.1287921635
 20
27.6989687112
 10
-11.1520541783
 20
27.6973282212
 10
-11.1751763647
 20
27.6932750978
 10
-11.1978998403
 20
27.6868431439
  0
LWPOLYLINE
  5
4C3
100
AcDbEntity
  8
RACCORDO
100
AcDbPolyline
 62
7
  6
CONTINUOUS
 90
51
 70
0
 10
-0.4933106765
 20
24.6218312841
 10
-0.5038818452
 20
24.6259835295
 10
-0.5268432184
 20
24.6345981642
 10
-0.5501138204
 20
24.6427910037
 10
-0.5736797952
 20
24.6505669935
 10
-0.5975351547
 20
24.6579325979
 10
-0.6216619007
 20
24.6648896062
 10
-0.6460421491
 20
24.6714401555
 10
-0.6706693237
 20
24.677588722
 10
-0.6955255391
 20
24.6833363696
 10
-0.7205934573
 20
24.6886845434
 10
-0.7458665901
 20
24.6936363529
 10
-0.7713275845
 20
24.698192439
 10
-0.7969589145
 20
24.7023535939
 10
-0.8227531557
 20
24.7061217276
 10
-0.8486927598
 20
24.709497154
 10
-0.8747605962
 20
24.7124803306
 10
-0.9009492819
 20
24.7150723868
 10
-0.9272412542
 20
24.7172734371
 10
-0.9536195349
 20
24.7190836425
 10
-0.9800772102
 20
24.7205034959
 10
-1.0065970555
 20
24.7215329482
 10
-1.0331618178
 20
24.7221718638
 10
-1.05976434
 20
24.7224201084
 10
-1.0863874384
 20
24.7222774565
 10
-1.1130137596
 20
24.7217435394
 10
-1.1396359201
 20
24.7208176493
 10
-1.1662367939
 20
24.7194993589
 10
-1.192798778
 20
24.717788079
 10
-1.2193140458
 20
24.7156825489
 10
-1.2457652983
 20
24.7131821135
 10
-1.2721347802
 20
24.7102859518
 10
-1.2984144967
 20
24.7069921953
 10
-1.3245884315
 20
24.7032996645
 10
-1.3506370562
 20
24.6992074343
 10
-1.3765479475
 20
24.6947136863
 10
-1.4023046653
 20
24.689816995
 10
-1.4278877367
 20
24.684516287
 10
-1.4532814549
 20
24.6788100049
 10
-1.4784679216
 20
24.6726967781
 10
-1.5034289991
 20
24.6661751297
 10
-1.5281502187
 20
24.6592427365
 10
-1.5526136859
 20
24.6518976962
 10
-1.5768010909
 20
24.6441381409
 10
-1.6006989479
 20
24.6359605845
 10
-1.6242884176
 20
24.6273626027
 10
-1.64755188
 20
24.6183412
 10
-1.6704794064
 20
24.6088898257
 10
-1.6930556986
 20
24.5990028766
 10
-1.7152574141
 20
24.5886782251
 10
-1.7308365156
 20
24.581052698
  0
LWPOLYLINE
  5
4C4
100
AcDbEntity
  8
ASSI
100
AcDbPolyline
 62
250
  6
CONTINUOUS
 90
6
 70
0
 10
-3.2441257329
 20
26.6648530981
 10
-3.2668156481
 20
26.674714321
 10
-3.2891702507
 20
26.680678012
 10
-3.3108071952
 20
26.6826421699
 10
-3.3313564109
 20
26.6805732008
 10
-3.3520305878
 20
26.6738015253
  0
LINE
  5
4C5
100
AcDbEntity
  8
ASSI
100
AcDbLine
 62
7
  6
CONTINUOUS
 10
4.2047032116
 20
23.7904622304
 11
0.2452920894
 21
25.7701677915
  0
LINE
  5
4C6
100
AcDbEntity
  8
DRAFT
100
AcDbLine
 62
7
  6
CONTINUOUS
 10
9.5845559099
 20
21.9617329145
 11
10.3329750033
 21
21.5875233678
  0
LINE
  5
4C7
100
AcDbEntity
  8
ASSI
100
AcDbLine
 62
7
  6
CONTINUOUS
 10
1.9214499228
 20
25.9011499344
 11
5.1946317111
 21
24.2645590402
  0
LINE
  5
4C8
100
AcDbEntity
  8
RACCORDO
100
AcDbLine
 62
7
  6
CONTINUOUS
 10
4.7098012875
 20
24.6287243009
 11
1.9197148593
 21
26.0237592127
  0
LINE
  5
4C9
100
AcDbEntity
  8
ASSI
100
AcDbLine
 62
250
  6
CONTINUOUS
 10
-1.6995662995
 20
28.2359869793
 11
1.1537689828
 21
26.8093193382
  0
LINE
  5
4CA
100
AcDbEntity
  8
ASSI
100
AcDbLine
 62
250
  6
CONTINUOUS
 10
5.7798189453
 20
24.4962943569
 11
8.6331542277
 21
23.0696267158
  0
LINE
  5
4CB
100
AcDbEntity
  8
ASSI
100
AcDbLine
 62
7
  6
CONTINUOUS
 10
6.2124664511
 20
24.519770374
 11
9.2231533736
 21
23.0144269127
  0
LINE
  5
4CC
100
AcDbEntity
  8
ASSI
100
AcDbLine
 62
7
  6
CONTINUOUS
 10
1.5909733904
 20
26.8305168832
 11
-1.4198196843
 21
28.3359134416
  0
LWPOLYLINE
  5
4CD
100
AcDbEntity
  8
RACCORDO
100
AcDbPolyline
 62
250
  6
CONTINUOUS
 90
5
 70
0
 10
19.8314319076
 20
15.6739760321
 10
19.8258949715
 20
15.6771289887
 10
19.8197542703
 20
15.6807216877
 10
19.8129928111
 20
15.68476317
 10
19.8055905154
 20
15.6892713649
  0
LINE
  5
4CE
100
AcDbEntity
  8
RACCORDO
100
AcDbLine
 62
250
  6
CONTINUOUS
 10
19.8055905154
 20
15.6892713649
 11
19.7888190009
 21
15.6996779344
  0
LINE
  5
4CF
100
AcDbEntity
  8
RACCORDO
100
AcDbLine
 62
250
  6
CONTINUOUS
 10
19.6308032776
 20
15.7998145809
 11
19.5769060503
 21
15.8333283053
  0
LINE
  5
4D0
100
AcDbEntity
  8
RACCORDO
100
AcDbLine
 62
250
  6
CONTINUOUS
 10
19.6794981102
 20
15.7691170992
 11
19.6308032776
 21
15.7998145809
  0
LINE
  5
4D1
100
AcDbEntity
  8
RACCORDO
100
AcDbLine
 62
250
  6
CONTINUOUS
 10
19.7888190009
 20
15.6996779344
 11
19.7586077961
 21
15.7187698676
  0
LINE
  5
4D2
100
AcDbEntity
  8
RACCORDO
100
AcDbLine
 62
250
  6
CONTINUOUS
 10
19.7586077961
 20
15.7187698676
 11
19.6794981102
 21
15.7691170992
  0
LINE
  5
4D3
100
AcDbEntity
  8
0
100
AcDbLine
 62
7
  6
CONTINUOUS
 10
11.274916408
 20
22.5146250749
 11
11.4505879705
 21
22.3523894413
  0
LINE
  5
4D4
100
AcDbEntity
  8
0
100
AcDbLine
 62
250
  6
CONTINUOUS
 10
12.0151856367
 20
23.1136940358
 11
12.0124739416
 21
23.117430977
  0
LINE
  5
4D5
100
AcDbEntity
  8
ASSI
100
AcDbLine
 62
7
  6
CONTINUOUS
 10
0.2452920894
 20
25.7701677915
 11
1.8625645241
 21
25.8522127713
  0
LWPOLYLINE
  5
4D6
100
AcDbEntity
  8
ASSI
100
AcDbPolyline
 62
7
  6
CONTINUOUS
 90
5
 70
0
 10
-3.1600737563
 20
26.7134787438
 10
-3.2006613353
 20
26.7119362353
 10
-3.2412449804
 20
26.7070699919
 10
-3.2800125742
 20
26.6990618708
 10
-3.3165693513
 20
26.6881160269
  0
LWPOLYLINE
  5
4D7
100
AcDbEntity
  8
RACCORDO
100
AcDbPolyline
 62
7
  6
CONTINUOUS
 90
9
 70
0
 10
13.6270570285
 20
23.2994612053
 10
13.6177365095
 20
23.3019063909
 10
13.6030897872
 20
23.3042103474
 10
13.5876461432
 20
23.3048402491
 10
13.5715310912
 20
23.3037943701
 10
13.555121172
 20
23.3010675317
 10
13.5385418992
 20
23.2966580081
 10
13.5216677592
 20
23.2905675252
 10
13.5044987519
 20
23.282796083
  0
LINE
  5
4D8
100
AcDbEntity
  8
0
100
AcDbLine
 62
7
  6
CONTINUOUS
 10
12.2196358162
 20
22.6403646152
 11
11.7698911548
 21
22.7621124483
  0
LWPOLYLINE
  5
4D9
100
AcDbEntity
  8
0
100
AcDbPolyline
 62
250
  6
CONTINUOUS
 90
16
 70
0
 10
12.0522931111
 20
23.0726764732
 10
12.0379722485
 20
23.0766953181
 10
12.0245137282
 20
23.0810152216
 10
12.0119745563
 20
23.0855765774
 10
12.0003490609
 20
23.0903835296
 10
11.989642914
 20
23.0954319341
 10
11.9799301367
 20
23.1006497525
 10
11.9712244764
 20
23.1060370893
 10
11.9635121857
 20
23.1115938399
 10
11.9568260444
 20
23.117247652
 10
11.9511810322
 20
23.1229794998
 10
11.9465621693
 20
23.1288084092
 10
11.9429572965
 20
23.1347191058
 10
11.9403623608
 20
23.1407064983
 10
11.9387814153
 20
23.1467756782
 10
11.93821446
 20
23.1529266453
  0
LWPOLYLINE
  5
4DA
100
AcDbEntity
  8
RACCORDO
100
AcDbPolyline
 62
7
  6
CONTINUOUS
 90
10
 70
0
 10
13.627046772
 20
23.2994370016
 10
13.5039409021
 20
23.3347822473
 10
13.3725356999
 20
23.3677771989
 10
13.2383412022
 20
23.3968170936
 10
13.101779101
 20
23.42186722
 10
12.9632063628
 20
23.4429121096
 10
12.8229247655
 20
23.4599444028
 10
12.6813415913
 20
23.4729447207
 10
12.538841624
 20
23.4819035885
 10
12.5011104388
 20
23.483594137
  0
LWPOLYLINE
  5
4DB
100
AcDbEntity
  8
RACCORDO
100
AcDbPolyline
 62
7
  6
CONTINUOUS
 90
3
 70
0
 10
13.6450157302
 20
23.2922711355
 10
13.6317118239
 20
23.2979266536
 10
13.6270570285
 20
23.2994612053
  0
LWPOLYLINE
  5
4DC
100
AcDbEntity
  8
ASSI
100
AcDbPolyline
 62
250
  6
CONTINUOUS
 90
10
 70
0
 10
1.5908659095
 20
26.8305706447
 10
1.5478049419
 20
26.8489124797
 10
1.503446355
 20
26.8618077765
 10
1.4571641447
 20
26.8696190903
 10
1.4092104744
 20
26.8723044123
 10
1.3598450715
 20
26.8698504362
 10
1.3093403893
 20
26.8622693035
 10
1.2579728062
 20
26.8496023656
 10
1.2060211442
 20
26.8319200417
 10
1.1537689828
 20
26.8093193382
  0
LWPOLYLINE
  5
4DD
100
AcDbEntity
  8
ASSI
100
AcDbPolyline
 62
7
  6
CONTINUOUS
 90
8
 70
0
 10
6.213381113
 20
24.5193100235
 10
6.1802478152
 20
24.5344538818
 10
6.1316466796
 20
24.5516211034
 10
6.0804837634
 20
24.5639221607
 10
6.0271786025
 20
24.5710689715
 10
5.9723366195
 20
24.5728500037
 10
5.9163080067
 20
24.5691871518
 10
5.8593437184
 20
24.5600493009
  0
LWPOLYLINE
  5
4DE
100
AcDbEntity
  8
RACCORDO
100
AcDbPolyline
 62
250
  6
CONTINUOUS
 90
25
 70
0
 10
6.3750747791
 20
24.5761495176
 10
6.355932843
 20
24.5857197606
 10
6.3367960698
 20
24.5946207623
 10
6.317678986
 20
24.6028457661
 10
6.2985961032
 20
24.6103885284
 10
6.2795619072
 20
24.6172433236
 10
6.2605908466
 20
24.6234049484
 10
6.2416973222
 20
24.6288687254
 10
6.2228956759
 20
24.6336305071
 10
6.2042001799
 20
24.6376866791
 10
6.1856250257
 20
24.6410341622
 10
6.1671843138
 20
24.6436704154
 10
6.1488920421
 20
24.6455934377
 10
6.1307620963
 20
24.6468017692
 10
6.1128082386
 20
24.6472944927
 10
6.0950440977
 20
24.6470712343
 10
6.0774831581
 20
24.6461321634
 10
6.0601387503
 20
24.6444779929
 10
6.0430240401
 20
24.6421099785
 10
6.0261520193
 20
24.6390299176
 10
6.0095354952
 20
24.6352401485
 10
5.9931870814
 20
24.6307435479
 10
5.9771191877
 20
24.6255435291
 10
5.9613440111
 20
24.6196440395
 10
5.9458735264
 20
24.6130495573
  0
LINE
  5
4DF
100
AcDbEntity
  8
0
100
AcDbLine
 62
7
  6
CONTINUOUS
 10
11.274916408
 20
22.5146250749
 11
10.5679474679
 21
22.868109545
  0
LINE
  5
4E0
100
AcDbEntity
  8
0
100
AcDbLine
 62
7
  6
CONTINUOUS
 10
11.7698911548
 20
22.7621124483
 11
11.0629222147
 21
23.1155969184
  0
LINE
  5
4E1
100
AcDbEntity
  8
DRAFT
100
AcDbLine
 62
7
  6
CONTINUOUS
 10
10.4039116283
 20
23.7873142142
 11
10.8377827814
 21
23.5703786376
  0
LINE
  5
4E2
100
AcDbEntity
  8
RACCORDO
100
AcDbLine
 62
7
  6
CONTINUOUS
 10
14.4935438677
 20
22.8680070668
 11
14.574274133
 21
22.8275659654
  0
LWPOLYLINE
  5
4E3
100
AcDbEntity
  8
RACCORDO
100
AcDbPolyline
 62
7
  6
CONTINUOUS
 90
10
 70
0
 10
14.4097183566
 20
22.9039531125
 10
14.3183030469
 20
22.9508717247
 10
14.2285084229
 20
22.9968485598
 10
14.1403344847
 20
23.0418836178
 10
14.0537926961
 20
23.0859785843
 10
13.9688715933
 20
23.1291317736
 10
13.8855367844
 20
23.1713381291
 10
13.8037768057
 20
23.2125959651
 10
13.723603121
 20
23.2529069672
 10
13.6450157302
 20
23.2922711355
  0
LWPOLYLINE
  5
4E4
100
AcDbEntity
  8
RACCORDO
100
AcDbPolyline
 62
250
  6
CONTINUOUS
 90
22
 70
0
 10
19.9457360856
 20
19.3274542884
 10
19.9368437877
 20
19.3326791836
 10
19.9282291921
 20
19.3380317288
 10
19.9199051089
 20
19.3435039644
 10
19.9118839166
 20
19.349087753
 10
19.9041775428
 20
19.3547747913
 10
19.8967974473
 20
19.3605566224
 10
19.8897546047
 20
19.3664246485
 10
19.8830594879
 20
19.3723701435
 10
19.8767220529
 20
19.3783842664
 10
19.8707517237
 20
19.3844580738
 10
19.8651573784
 20
19.3905825337
 10
19.8599473361
 20
19.3967485389
 10
19.8551293443
 20
19.4029469201
 10
19.8507105675
 20
19.4091684603
 10
19.8466975768
 20
19.4154039076
 10
19.8430963395
 20
19.4216439896
 10
19.8399122109
 20
19.4278794273
 10
19.8371499259
 20
19.4341009481
 10
19.8348135922
 20
19.4402993004
 10
19.8329066839
 20
19.4464652671
 10
19.8314320367
 20
19.452589679
  0
LWPOLYLINE
  5
4E5
100
AcDbEntity
  8
0
100
AcDbPolyline
 62
250
  6
CONTINUOUS
 90
8
 70
0
 10
12.4260652654
 20
23.4542822995
 10
12.4266057053
 20
23.453945576
 10
12.4271341153
 20
23.4521300443
 10
12.4276912063
 20
23.4488820668
 10
12.4282713039
 20
23.4442220134
 10
12.4288725167
 20
23.438182087
 10
12.4294967362
 20
23.4308000051
 10
12.4301439622
 20
23.4221197794
  0
LWPOLYLINE
  5
4E6
100
AcDbEntity
  8
0
100
AcDbPolyline
 62
7
  6
CONTINUOUS
 90
4
 70
0
 10
12.0271022917
 20
23.1023785494
 10
12.0263019621
 20
23.1029108977
 10
12.0249983604
 20
23.1038503388
 10
12.0246604869
 20
23.1041215838
  0
LWPOLYLINE
  5
4E7
100
AcDbEntity
  8
0
100
AcDbPolyline
 62
250
  6
CONTINUOUS
 90
16
 70
0
 10
12.1489251381
 20
23.3010516207
 10
12.156703777
 20
23.2949860499
 10
12.1651719125
 20
23.2896578627
 10
12.1742367659
 20
23.285125436
 10
12.1837990209
 20
23.2814384278
 10
12.1937539113
 20
23.278637234
 10
12.2039923694
 20
23.276752545
 10
12.2144022203
 20
23.2758050097
 10
12.2248694116
 20
23.2758050097
 10
12.2352792625
 20
23.2767525449
 10
12.2455177206
 20
23.2786372339
 10
12.2554726111
 20
23.2814384277
 10
12.2650348662
 20
23.2851254358
 10
12.2740997197
 20
23.2896578626
 10
12.2825678553
 20
23.2949860498
 10
12.2903464944
 20
23.3010516208
  0
LWPOLYLINE
  5
4E8
100
AcDbEntity
  8
0
100
AcDbPolyline
 62
250
  6
CONTINUOUS
 90
3
 70
0
 10
14.4935438677
 20
22.8680070668
 10
14.5258473947
 20
22.8409829909
 10
14.5526362938
 20
22.8172520535
  0
LWPOLYLINE
  5
4E9
100
AcDbEntity
  8
0
100
AcDbPolyline
 62
250
  6
CONTINUOUS
 90
4
 70
0
 10
14.3529605162
 20
22.8584988277
 10
14.3811141709
 20
22.8341951452
 10
14.4087421296
 20
22.8086430301
 10
14.4358443925
 20
22.7818424825
  0
LINE
  5
4EA
100
AcDbEntity
  8
0
100
AcDbLine
 62
250
  6
CONTINUOUS
 10
12.0089251381
 20
23.1275565314
 11
12.0509279044
 21
23.091182514
  0
LINE
  5
4EB
100
AcDbEntity
  8
0
100
AcDbLine
 62
250
  6
CONTINUOUS
 10
12.1489251381
 20
23.3010516207
 11
12.0106209157
 21
23.4208265908
  0
LWPOLYLINE
  5
4EC
100
AcDbEntity
  8
0
100
AcDbPolyline
 62
250
  6
CONTINUOUS
 90
4
 70
0
 10
12.0246436341
 20
23.1041356557
 10
12.0228948034
 20
23.1056840742
 10
12.0186552059
 20
23.1097823673
 10
12.0151856367
 20
23.1136940358
  0
LWPOLYLINE
  5
4ED
100
AcDbEntity
  8
0
100
AcDbPolyline
 62
7
  6
CONTINUOUS
 90
9
 70
0
 10
12.0217159738
 20
23.4457651445
 10
12.0145469396
 20
23.4522981448
 10
12.005452133
 20
23.4590333117
 10
11.9955044927
 20
23.4648145274
 10
11.9849340451
 20
23.4694578778
 10
11.9739037643
 20
23.4728800544
 10
11.9625120681
 20
23.4750396608
 10
11.9509419999
 20
23.4758919639
 10
11.9421464741
 20
23.475658263
  0
LWPOLYLINE
  5
4EE
100
AcDbEntity
  8
RACCORDO
100
AcDbPolyline
 62
7
  6
CONTINUOUS
 90
4
 70
0
 10
14.4409529364
 20
22.8803812728
 10
14.4321569835
 20
22.8888431408
 10
14.4213785283
 20
22.8970534127
 10
14.4097183566
 20
22.9039531125
  0
LINE
  5
4EF
100
AcDbEntity
  8
0
100
AcDbLine
 62
7
  6
CONTINUOUS
 10
12.1489251381
 20
23.3185635311
 11
12.0216211928
 21
23.4458674763
  0
LINE
  5
4F0
100
AcDbEntity
  8
0
100
AcDbLine
 62
250
  6
CONTINUOUS
 10
14.4358443925
 20
22.7818424825
 11
14.4491302474
 21
22.7679147685
  0
LINE
  5
4F1
100
AcDbEntity
  8
RACCORDO
100
AcDbLine
 62
7
  6
CONTINUOUS
 10
21.5284796986
 20
19.503249509
 11
21.5306788231
 21
19.4970486044
  0
LWPOLYLINE
  5
4F2
100
AcDbEntity
  8
RACCORDO
100
AcDbPolyline
 62
7
  6
CONTINUOUS
 90
46
 70
0
 10
21.5306788231
 20
19.4970486044
 10
21.5491373453
 20
19.4436139705
 10
21.5668348139
 20
19.390058302
 10
21.583762707
 20
19.3364039879
 10
21.5999137403
 20
19.2826702436
 10
21.615281684
 20
19.2288729085
 10
21.62985988
 20
19.1750291129
 10
21.6436398371
 20
19.1211633103
 10
21.6566130009
 20
19.0673020288
 10
21.6687711016
 20
19.0134729879
 10
21.6801093285
 20
18.9596899334
 10
21.6906242487
 20
18.9059580943
 10
21.7003106675
 20
18.8522885601
 10
21.7091599401
 20
18.7987117497
 10
21.7171637292
 20
18.7452614003
 10
21.7243160141
 20
18.6919607963
 10
21.7306117444
 20
18.6388276563
 10
21.73604522
 20
18.5858866198
 10
21.7406111678
 20
18.5331625955
 10
21.7443053737
 20
18.4806711027
 10
21.747123743
 20
18.4284221156
 10
21.7490618522
 20
18.3764191517
 10
21.7501139026
 20
18.3246992598
 10
21.7502755167
 20
18.2733213841
 10
21.7495446201
 20
18.2223190932
 10
21.7479191329
 20
18.1716967932
 10
21.745396643
 20
18.1214681563
 10
21.7419743887
 20
18.0716453919
 10
21.7376505459
 20
18.0222540737
 10
21.7324247696
 20
17.9733268215
 10
21.7262936616
 20
17.9248647131
 10
21.7192579794
 20
17.8769032714
 10
21.7113281258
 20
17.8295235082
 10
21.7025117032
 20
17.7827645188
 10
21.6928080042
 20
17.7366177948
 10
21.6822181881
 20
17.6910903494
 10
21.6707392905
 20
17.64617603
 10
21.6583792078
 20
17.6019125301
 10
21.6451583968
 20
17.5583700536
 10
21.6310856335
 20
17.5155676703
 10
21.6161658273
 20
17.4735115829
 10
21.6004193446
 20
17.432248236
 10
21.5838595781
 20
17.3917980195
 10
21.5664923329
 20
17.352161509
 10
21.5483293484
 20
17.3133533838
 10
21.5293815966
 20
17.2753852346
  0
LWPOLYLINE
  5
4F3
100
AcDbEntity
  8
RACCORDO
100
AcDbPolyline
 62
250
  6
CONTINUOUS
 90
46
 70
0
 10
21.4406440466
 20
19.4096980775
 10
21.459585741
 20
19.3542463581
 10
21.4777258301
 20
19.2987131232
 10
21.4950561313
 20
19.2431234233
 10
21.5115688268
 20
19.1875023346
 10
21.527256468
 20
19.1318749471
 10
21.5421119782
 20
19.0762663541
 10
21.5561286563
 20
19.02070164
 10
21.5693001794
 20
18.9652058698
 10
21.5816206057
 20
18.9098040776
 10
21.5930843777
 20
18.8545212551
 10
21.6036863242
 20
18.7993823396
 10
21.6134216626
 20
18.7444122037
 10
21.6222860017
 20
18.6896356438
 10
21.6302753426
 20
18.6350773693
 10
21.6373860815
 20
18.580761991
 10
21.6436150107
 20
18.5267140104
 10
21.6489593204
 20
18.472957808
 10
21.6534165999
 20
18.4195176323
 10
21.6569848386
 20
18.3664175893
 10
21.6596624267
 20
18.3136816326
 10
21.6614481565
 20
18.2613335516
 10
21.6623412224
 20
18.2093969604
 10
21.6623412215
 20
18.157895287
 10
21.6614481539
 20
18.1068517633
 10
21.6596624225
 20
18.0562894149
 10
21.6569848328
 20
18.0062310498
 10
21.6534165926
 20
17.9566992483
 10
21.6489593115
 20
17.9077163534
 10
21.6436150001
 20
17.8593044614
 10
21.6373860693
 20
17.8114854107
 10
21.6302753287
 20
17.7642807723
 10
21.6222859862
 20
17.7177118397
 10
21.6134216455
 20
17.6717996199
 10
21.6036863055
 20
17.6265648242
 10
21.5930843576
 20
17.5820278569
 10
21.581620584
 20
17.5382088075
 10
21.5693001552
 20
17.49512744
 10
21.5561286293
 20
17.4528031906
 10
21.5421119498
 20
17.4112551568
 10
21.5272564406
 20
17.3705020827
 10
21.5115688025
 20
17.330562349
 10
21.4950561112
 20
17.2914539696
 10
21.4777258153
 20
17.2531945851
 10
21.4595857328
 20
17.2158014548
 10
21.4406440466
 20
17.1792914461
  0
LINE
  5
4F4
100
AcDbEntity
  8
DRAFT
100
AcDbLine
 62
7
  6
CONTINUOUS
 10
14.3775093481
 20
25.7697779918
 11
17.4860622878
 21
24.2155015219
  0
LWPOLYLINE
  5
4F5
100
AcDbEntity
  8
RACCORDO
100
AcDbPolyline
 62
7
  6
CONTINUOUS
 90
44
 70
0
 10
19.8575662499
 20
21.7421134511
 10
19.8759578716
 20
21.7325379356
 10
19.9217139061
 20
21.7075187037
 10
19.9673473959
 20
21.6813688357
 10
20.0127833423
 20
21.6541352553
 10
20.0579693263
 20
21.6258569377
 10
20.1029276462
 20
21.5965272716
 10
20.1476947653
 20
21.5661260545
 10
20.1922989487
 20
21.5346336123
 10
20.2366796364
 20
21.5020920195
 10
20.2807400337
 20
21.4685764985
 10
20.3244257177
 20
21.4341375074
 10
20.3677625436
 20
21.3987635427
 10
20.4107743261
 20
21.3624405793
 10
20.4534663255
 20
21.3251669083
 10
20.4958026838
 20
21.2869763939
 10
20.5377448685
 20
21.2479081067
 10
20.5792723514
 20
21.2079866365
 10
20.6203769707
 20
21.1672251464
 10
20.6610392051
 20
21.1256481325
 10
20.7012364417
 20
21.0832843668
 10
20.7409636289
 20
21.0401446893
 10
20.7802269045
 20
20.9962264271
 10
20.8190266304
 20
20.9515313025
 10
20.8573335396
 20
20.9060950054
 10
20.8951094521
 20
20.8599666751
 10
20.9323257815
 20
20.8131870709
 10
20.9689856703
 20
20.7657579917
 10
21.0050985307
 20
20.7176707832
 10
21.040661941
 20
20.6689301386
 10
21.0756510831
 20
20.6195713922
 10
21.1100414084
 20
20.5696317277
 10
21.1438153097
 20
20.5191401888
 10
21.1769657945
 20
20.4681105894
 10
21.2094847407
 20
20.4165580568
 10
21.2413598142
 20
20.3645043741
 10
21.2725792613
 20
20.3119708319
 10
21.3031355412
 20
20.2589717343
 10
21.3330186206
 20
20.2055254674
 10
21.3622149788
 20
20.1516570349
 10
21.3907119181
 20
20.0973907858
 10
21.4184978897
 20
20.0427496203
 10
21.4455624109
 20
19.9877548887
 10
21.4718947829
 20
19.9324288438
  0
LWPOLYLINE
  5
4F6
100
AcDbEntity
  8
RACCORDO
100
AcDbPolyline
 62
250
  6
CONTINUOUS
 90
43
 70
0
 10
19.8575662499
 20
21.6737287726
 10
19.8668984819
 20
21.6682587798
 10
19.9102920518
 20
21.6417177464
 10
19.9535945468
 20
21.6141242351
 10
19.9967874463
 20
21.5854900477
 10
20.0398522767
 20
21.5558274311
 10
20.0827706192
 20
21.5251490719
 10
20.1255241175
 20
21.4934680914
 10
20.1680944858
 20
21.4607980395
 10
20.2104635169
 20
21.4271528893
 10
20.2526130894
 20
21.3925470307
 10
20.2945251758
 20
21.3569952649
 10
20.3361818505
 20
21.3205127973
 10
20.3775652966
 20
21.2831152315
 10
20.4186578146
 20
21.2448185625
 10
20.4594418291
 20
21.2056391698
 10
20.4998998966
 20
21.1655938104
 10
20.5400147134
 20
21.1246996119
 10
20.5797691221
 20
21.0829740647
 10
20.6191461199
 20
21.0404350149
 10
20.6581288651
 20
20.9971006565
 10
20.6967006847
 20
20.9529895236
 10
20.7348450816
 20
20.9081204826
 10
20.7725457414
 20
20.862512724
 10
20.8097865393
 20
20.8161857544
 10
20.8465515476
 20
20.7691593879
 10
20.8828250417
 20
20.7214537376
 10
20.9185915075
 20
20.6730892073
 10
20.9538356477
 20
20.6240864825
 10
20.9885423882
 20
20.5744665218
 10
21.0226968849
 20
20.5242505478
 10
21.0562845296
 20
20.4734600383
 10
21.0892909571
 20
20.4221167161
 10
21.1217020508
 20
20.3702425404
 10
21.1535039489
 20
20.3178596969
 10
21.1846830491
 20
20.2649905908
 10
21.2152260146
 20
20.2116578368
 10
21.2451197827
 20
20.157884243
 10
21.2743515674
 20
20.1036928108
 10
21.3029088643
 20
20.0491067274
 10
21.330779459
 20
19.9941493429
 10
21.3579514325
 20
19.9388441596
 10
21.3844131637
 20
19.8832148318
  0
LINE
  5
4F7
100
AcDbEntity
  8
RACCORDO
100
AcDbLine
 62
250
  6
CONTINUOUS
 10
19.1627555746
 20
23.4547824775
 11
18.8198579986
 21
24.0461933131
  0
LINE
  5
4F8
100
AcDbEntity
  8
RACCORDO
100
AcDbLine
 62
7
  6
CONTINUOUS
 10
19.5155988234
 20
23.5878808349
 11
19.2525518871
 21
24.0415696893
  0
LWPOLYLINE
  5
4F9
100
AcDbEntity
  8
RACCORDO
100
AcDbPolyline
 62
250
  6
CONTINUOUS
 90
25
 70
0
 10
21.384413242
 20
19.8832148639
 10
21.389640293
 20
19.870865291
 10
21.3946494225
 20
19.8584337194
 10
21.3994371992
 20
19.8459291577
 10
21.4040005188
 20
19.8333608273
 10
21.4083361194
 20
19.8207376819
 10
21.4124405686
 20
19.808068398
 10
21.4163111388
 20
19.7953620307
 10
21.4199451706
 20
19.7826279262
 10
21.4233395871
 20
19.7698752395
 10
21.426492141
 20
19.7571133019
 10
21.4294007682
 20
19.7443513025
 10
21.4320629399
 20
19.7315981976
 10
21.4344769534
 20
19.7188632285
 10
21.4366412688
 20
19.706155669
 10
21.4385538719
 20
19.6934845076
 10
21.4402136276
 20
19.6808589316
 10
21.4416195301
 20
19.6682881442
 10
21.4427700451
 20
19.6557811095
 10
21.4436645558
 20
19.6433470564
 10
21.4443026739
 20
19.6309948957
 10
21.4446834761
 20
19.6187330431
 10
21.4448066709
 20
19.6065702393
 10
21.4446726193
 20
19.5945155376
 10
21.4442816387
 20
19.5825777243
  0
LWPOLYLINE
  5
4FA
100
AcDbEntity
  8
RACCORDO
100
AcDbPolyline
 62
250
  6
CONTINUOUS
 90
25
 70
0
 10
12.7209832366
 20
27.3353326673
 10
12.705735535
 20
27.3421384913
 10
12.6901724619
 20
27.3482724231
 10
12.6743055746
 20
27.3537299073
 10
12.6581466558
 20
27.3585068914
 10
12.6417077053
 20
27.3625998279
 10
12.6250009307
 20
27.3660056773
 10
12.6080387387
 20
27.3687219105
 10
12.5908337253
 20
27.3707465104
 10
12.5733986671
 20
27.3720779734
 10
12.5557465115
 20
27.3727153108
 10
12.5378903671
 20
27.3726580494
 10
12.519843494
 20
27.3719062317
 10
12.5016192938
 20
27.3704604159
 10
12.4832313
 20
27.3683216757
 10
12.4646931676
 20
27.3654915995
 10
12.4460186631
 20
27.3619722887
 10
12.4272216542
 20
27.3577663569
 10
12.4083160998
 20
27.3528769274
 10
12.3893160393
 20
27.3473076312
 10
12.3702355821
 20
27.341062604
 10
12.3510888975
 20
27.3341464833
 10
12.331890204
 20
27.3265644053
 10
12.3126537585
 20
27.3183220003
 10
12.2933938463
 20
27.3094253892
  0
LINE
  5
4FB
100
AcDbEntity
  8
0
100
AcDbLine
 62
250
  6
CONTINUOUS
 10
18.8198579986
 20
24.0461933131
 11
17.9955427508
 21
24.458350937
  0
LWPOLYLINE
  5
4FC
100
AcDbEntity
  8
RACCORDO
100
AcDbPolyline
 62
250
  6
CONTINUOUS
 90
26
 70
0
 10
13.3332291283
 20
26.7895077482
 10
12.274251914
 20
27.3189956304
 10
12.2551151445
 20
27.3278966306
 10
12.2359980643
 20
27.3361216331
 10
12.2169151849
 20
27.3436643946
 10
12.1978809922
 20
27.3505191892
 10
12.1789099347
 20
27.3566808136
 10
12.1600164132
 20
27.3621445905
 10
12.1412147697
 20
27.3669063725
 10
12.1225192763
 20
27.3709625449
 10
12.1039441246
 20
27.3743100287
 10
12.0855034149
 20
27.3769462829
 10
12.0672111453
 20
27.3788693062
 10
12.0490812013
 20
27.380077639
 10
12.0311273452
 20
27.380570364
 10
12.0133632056
 20
27.3803471073
 10
11.9958022673
 20
27.3794080381
 10
11.9784578604
 20
27.3777538695
 10
11.961343151
 20
27.3753858571
 10
11.9444711307
 20
27.3723057983
 10
11.927854607
 20
27.3685160313
 10
11.9115061933
 20
27.3640194329
 10
11.8954382995
 20
27.3588194163
 10
11.8796631227
 20
27.3529199288
 10
11.8641926376
 20
27.3463254488
 10
11.8617744213
 20
27.3452190955
  0
LINE
  5
4FD
100
AcDbEntity
  8
RACCORDO
100
AcDbLine
 62
7
  6
CONTINUOUS
 10
19.1886500717
 20
24.1015970464
 11
18.3435098653
 21
24.5241671496
  0
LINE
  5
4FE
100
AcDbEntity
  8
RACCORDO
100
AcDbLine
 62
7
  6
CONTINUOUS
 10
13.855007775
 20
26.7684181948
 11
12.7282667269
 21
27.3317887188
  0
LWPOLYLINE
  5
4FF
100
AcDbEntity
  8
0
100
AcDbPolyline
 62
7
  6
CONTINUOUS
 90
30
 70
0
 10
13.8547030932
 20
26.768567674
 10
13.8723107027
 20
26.7595002155
 10
13.8921997909
 20
26.7485883976
 10
13.9120771142
 20
26.7369723461
 10
13.9319411092
 20
26.7246538051
 10
13.9517502322
 20
26.7116291473
 10
13.9715059753
 20
26.6978961138
 10
13.9912068463
 20
26.6834569634
 10
14.0108068256
 20
26.668314845
 10
14.030307218
 20
26.6524670321
 10
14.0497067187
 20
26.6359162512
 10
14.0689553938
 20
26.6186738315
 10
14.0880543125
 20
26.600736593
 10
14.1070024056
 20
26.5821077158
 10
14.1257465307
 20
26.5628080687
 10
14.1442874071
 20
26.5428341095
 10
14.1626243155
 20
26.5221893805
 10
14.1807019558
 20
26.5009053778
 10
14.1985205672
 20
26.4789783709
 10
14.2160799106
 20
26.4564120903
 10
14.2333239688
 20
26.4332492235
 10
14.2502524436
 20
26.4094860105
 10
14.2668656333
 20
26.3851262112
 10
14.2831084151
 20
26.3602237932
 10
14.2989810301
 20
26.3347729781
 10
14.3144832372
 20
26.3087795442
 10
14.3295591902
 20
26.2823147943
 10
14.3441902737
 20
26.2554024961
 10
14.3583951031
 20
26.228018882
 10
14.3721736785
 20
26.200163952
  0
LWPOLYLINE
  5
500
100
AcDbEntity
  8
RACCORDO
100
AcDbPolyline
 62
7
  6
CONTINUOUS
 90
12
 70
0
 10
19.1887693213
 20
24.101537421
 10
19.1946902879
 20
24.0984223369
 10
19.2018562661
 20
24.0942099177
 10
19.2087140356
 20
24.089669289
 10
19.2152598784
 20
24.0848049972
 10
19.2214969131
 20
24.0796183148
 10
19.2274215372
 20
24.0741140942
 10
19.2330303971
 20
24.0682972517
 10
19.2383271486
 20
24.06216929
 10
19.2433085753
 20
24.055735399
 10
19.247971687
 20
24.0490008313
 10
19.2525483871
 20
24.0415759464
  0
ARC
  5
501
100
AcDbEntity
  8
0
100
AcDbCircle
 62
7
  6
CONTINUOUS
 10
12.2196358162
 20
23.3892742092
 40
0.1
100
AcDbArc
 50
224.9999999475
 51
315.000000007
  0
ELLIPSE
  5
502
100
AcDbEntity
  8
RACCORDO
100
AcDbEllipse
 62
7
  6
CONTINUOUS
 10
-0.2814464424
 20
-21.6492496617
 30
0.0
 11
-0.1999840611
 21
0.4586318226
 31
0.0
 40
0.6372798266
 41
-3.1718451134
 42
-2.2231487507
  0
ELLIPSE
  5
503
100
AcDbEntity
  8
RACCORDO
100
AcDbEllipse
 62
7
  6
CONTINUOUS
 10
1.3172480048
 20
16.5108262918
 30
0.0
 11
-0.1996736685
 21
0.4584064956
 31
0.0
 40
0.6381227599
 41
-2.2220345828
 42
-0.6519234887
  0
ELLIPSE
  5
504
100
AcDbEntity
  8
RACCORDO
100
AcDbEllipse
 62
7
  6
CONTINUOUS
 10
-13.5317520092
 20
23.9353262988
 30
0.0
 11
-0.1999840611
 21
0.4586318226
 31
0.0
 40
0.6372798266
 41
-0.6516671913
 42
0.029873806
  0
ELLIPSE
  5
505
100
AcDbEntity
  8
DRAFT
100
AcDbEllipse
 62
7
  6
CONTINUOUS
 10
12.1165113187
 20
22.6994554335
 30
0.0
 11
2.7499831596
 21
-0.0194567514
 31
0.0
 40
0.4946372042
 41
2.368420792
 42
2.9226874028
  0
ELLIPSE
  5
506
100
AcDbEntity
  8
0
100
AcDbEllipse
 62
7
  6
CONTINUOUS
 10
13.6765733943
 20
25.7396013964
 30
0.0
 11
0.4410298232
 21
0.8975092442
 31
0.0
 40
0.607010042
 41
-0.8902711325
 42
-0.7668222283
  0
ELLIPSE
  5
507
100
AcDbEntity
  8
DRAFT
100
AcDbEllipse
 62
7
  6
CONTINUOUS
 10
12.7882627608
 20
22.5951386479
 30
0.0
 11
2.7583783481
 21
-0.0195161492
 31
0.0
 40
0.4946372042
 41
0.445063606
 42
2.3596941457
  0
ELLIPSE
  5
508
100
AcDbEntity
  8
RACCORDO
100
AcDbEllipse
 62
7
  6
CONTINUOUS
 10
120.403472216
 20
69.5339990158
 30
0.0
 11
111.4440378013
 21
57.7233873698
 31
0.0
 40
0.017156689
 41
2.654821495
 42
3.6105913739
  0
ELLIPSE
  5
509
100
AcDbEntity
  8
RACCORDO
100
AcDbEllipse
 62
7
  6
CONTINUOUS
 10
3.5603038419
 20
15.301248513
 30
0.0
 11
-0.894612936
 21
1.7887945813
 31
0.0
 40
0.6124635976
 41
4.1145380117
 42
4.2145400133
  0
ELLIPSE
  5
50A
100
AcDbEntity
  8
RACCORDO
100
AcDbEllipse
 62
7
  6
CONTINUOUS
 10
3.5603038419
 20
15.301248513
 30
0.0
 11
-0.894612936
 21
1.7887945813
 31
0.0
 40
0.6124635976
 41
-1.6019535362
 42
-1.470288718
  0
ELLIPSE
  5
50B
100
AcDbEntity
  8
DRAFT
100
AcDbEllipse
 62
7
  6
CONTINUOUS
 10
12.7882627608
 20
23.0189559019
 30
0.0
 11
2.7583876426
 21
-0.0130411979
 31
0.0
 40
0.4964289597
 41
0.1919849576
 42
2.3585415194
  0
ELLIPSE
  5
50C
100
AcDbEntity
  8
RACCORDO
100
AcDbEllipse
 62
7
  6
CONTINUOUS
 10
3.5603038419
 20
-15.3065949845
 30
0.0
 11
-0.894811907
 21
1.788971565
 31
0.0
 40
0.6123121697
 41
-3.0410143285
 42
-2.9093495103
  0
ELLIPSE
  5
50D
100
AcDbEntity
  8
RACCORDO
100
AcDbEllipse
 62
7
  6
CONTINUOUS
 10
3.5603038419
 20
-15.3065949845
 30
0.0
 11
-0.894811907
 21
1.788971565
 31
0.0
 40
0.6123121697
 41
-2.4426577527
 42
-2.3910229063
  0
ELLIPSE
  5
50E
100
AcDbEntity
  8
ASSI
100
AcDbEllipse
 62
7
  6
CONTINUOUS
 10
3.901676206
 20
-19.8312400523
 30
0.0
 11
-0.2237009107
 21
0.4473351135
 31
0.0
 40
0.6121897086
 41
-3.1230684064
 42
-2.2557347926
  0
ELLIPSE
  5
50F
100
AcDbEntity
  8
ASSI
100
AcDbEllipse
 62
7
  6
CONTINUOUS
 10
3.901676206
 20
18.0703076542
 30
0.0
 11
-0.2235807756
 21
0.4472283268
 31
0.0
 40
0.6125552124
 41
-2.255296188
 42
-0.6848044477
  0
ELLIPSE
  5
510
100
AcDbEntity
  8
ASSI
100
AcDbEllipse
 62
7
  6
CONTINUOUS
 10
0.475320894
 20
18.3085834629
 30
0.0
 11
0.2497264901
 21
-0.0900037588
 31
0.0
 40
0.1298948903
 41
-2.3094133153
 42
-0.756070281
  0
ELLIPSE
  5
511
100
AcDbEntity
  8
ASSI
100
AcDbEllipse
 62
7
  6
CONTINUOUS
 10
0.2817566079
 20
18.405365606
 30
0.0
 11
0.2497264901
 21
-0.0900037588
 31
0.0
 40
0.1298948903
 41
-3.0936186356
 42
-2.3094133153
  0
ELLIPSE
  5
512
100
AcDbEntity
  8
ASSI
100
AcDbEllipse
 62
7
  6
CONTINUOUS
 10
-12.1111798111
 20
24.6018338155
 30
0.0
 11
0.2497264901
 21
-0.0900037588
 31
0.0
 40
0.1298948903
 41
-2.3094133153
 42
-0.756070281
  0
ELLIPSE
  5
513
100
AcDbEntity
  8
ASSI
100
AcDbEllipse
 62
7
  6
CONTINUOUS
 10
-12.3047440972
 20
24.6986159585
 30
0.0
 11
0.2497264901
 21
-0.0900037588
 31
0.0
 40
0.1298948903
 41
-3.0936186356
 42
-2.3094133153
  0
ELLIPSE
  5
514
100
AcDbEntity
  8
ASSI
100
AcDbEllipse
 62
7
  6
CONTINUOUS
 10
9.1523156514
 20
21.931811785
 30
0.0
 11
0.4349639225
 21
0.9005141702
 31
0.0
 40
0.6016116119
 41
-0.8943064336
 42
-0.6381625531
  0
ELLIPSE
  5
515
100
AcDbEntity
  8
ASSI
100
AcDbEllipse
 62
7
  6
CONTINUOUS
 10
9.1523156514
 20
-14.8012480047
 30
0.0
 11
0.4349639225
 21
0.9005141702
 31
0.0
 40
0.6016116119
 41
-1.150450314
 42
-0.9391738336
  0
ELLIPSE
  5
516
100
AcDbEntity
  8
ASSI
100
AcDbEllipse
 62
7
  6
CONTINUOUS
 10
9.327964903
 20
-14.8890726305
 30
0.0
 11
0.9927147821
 21
0.620457446
 31
0.0
 40
0.0764819879
 41
-2.3927159682
 42
-1.0955168143
  0
ELLIPSE
  5
517
100
AcDbEntity
  8
ASSI
100
AcDbEllipse
 62
7
  6
CONTINUOUS
 10
-2.4190584047
 20
27.7174988131
 30
0.0
 11
1.004787277
 21
0.6140102217
 31
0.0
 40
0.0864918533
 41
0.0543763766
 42
0.7212730538
  0
ELLIPSE
  5
518
100
AcDbEntity
  8
ASSI
100
AcDbEllipse
 62
7
  6
CONTINUOUS
 10
-4.4084405946
 20
23.7906993476
 30
0.0
 11
-0.1172693628
 21
0.2208586762
 31
0.0
 40
0.5994421146
 41
-2.2699607138
 42
-0.6994689735
  0
ELLIPSE
  5
519
100
AcDbEntity
  8
ASSI
100
AcDbEllipse
 62
7
  6
CONTINUOUS
 10
4.7391036199
 20
74.6761075919
 30
0.0
 11
3.5378457856
 21
99.5794032239
 31
0.0
 40
0.0069684374
 41
4.1704972465
 42
4.1714623644
  0
ELLIPSE
  5
51A
100
AcDbEntity
  8
ASSI
100
AcDbEllipse
 62
7
  6
CONTINUOUS
 10
-2.9000917307
 20
23.0365249156
 30
0.0
 11
-0.1174113663
 21
0.2209958577
 31
0.0
 40
0.5985429242
 41
-0.6989839728
 42
-0.0337839605
  0
ELLIPSE
  5
51B
100
AcDbEntity
  8
ASSI
100
AcDbEllipse
 62
7
  6
CONTINUOUS
 10
2.54826918
 20
23.4422177071
 30
0.0
 11
1.000203771
 21
-0.0143477891
 31
0.0
 40
0.4891226537
 41
-0.7775824994
 42
-0.0140546088
  0
ELLIPSE
  5
51C
100
AcDbEntity
  8
0
100
AcDbEllipse
 62
7
  6
CONTINUOUS
 10
-0.2225504912
 20
17.7188207362
 30
0.0
 11
-0.0888806443
 21
0.1794588445
 31
0.0
 40
0.6133070172
 41
-2.1774701296
 42
-0.6816034901
  0
ELLIPSE
  5
51D
100
AcDbEntity
  8
ASSI
100
AcDbEllipse
 62
7
  6
CONTINUOUS
 10
-1.0710301504
 20
77.5811744771
 30
0.0
 11
0.7093717925
 21
100.9935570733
 31
0.0
 40
0.0069790045
 41
-2.1156864167
 42
-2.111971229
  0
ELLIPSE
  5
51E
100
AcDbEntity
  8
ASSI
100
AcDbEllipse
 62
7
  6
CONTINUOUS
 10
-1.0710301504
 20
24.7432248283
 30
0.0
 11
1.0
 21
-0.0
 31
0.0
 40
0.5003427338
 41
0.7857407797
 42
1.3334966153
  0
ELLIPSE
  5
51F
100
AcDbEntity
  8
ASSI
100
AcDbEllipse
 62
7
  6
CONTINUOUS
 10
-1.0710301504
 20
25.2518673723
 30
0.0
 11
0.9999753489
 21
-0.014348771
 31
0.0
 40
0.4893460778
 41
1.5857281126
 42
2.3628734463
  0
ELLIPSE
  5
520
100
AcDbEntity
  8
ASSI
100
AcDbEllipse
 62
7
  6
CONTINUOUS
 10
2.5269741989
 20
22.9442226536
 30
0.0
 11
1.0006854676
 21
-0.0
 31
0.0
 40
0.499657501
 41
0.4959893425
 42
0.7850555471
  0
ELLIPSE
  5
521
100
AcDbEntity
  8
ASSI
100
AcDbEllipse
 62
7
  6
CONTINUOUS
 10
0.075795871
 20
18.7837196704
 30
0.0
 11
0.249929385
 21
0.0111824824
 31
0.0
 40
0.5313301283
 41
3.1180383302
 42
3.9032222197
  0
ELLIPSE
  5
522
100
AcDbEntity
  8
ASSI
100
AcDbEllipse
 62
7
  6
CONTINUOUS
 10
2.0954951934
 20
17.7738700092
 30
0.0
 11
0.249929385
 21
0.0111824824
 31
0.0
 40
0.5313301283
 41
-2.3799630874
 42
-0.8266200532
  0
ELLIPSE
  5
523
100
AcDbEntity
  8
ASSI
100
AcDbEllipse
 62
7
  6
CONTINUOUS
 10
-10.4910055117
 20
24.0671203617
 30
0.0
 11
0.249929385
 21
0.0111824824
 31
0.0
 40
0.5313301283
 41
-2.3799630874
 42
-0.8266200532
  0
ELLIPSE
  5
524
100
AcDbEntity
  8
ASSI
100
AcDbEllipse
 62
7
  6
CONTINUOUS
 10
-12.5107048342
 20
25.0769700229
 30
0.0
 11
0.249929385
 21
0.0111824824
 31
0.0
 40
0.5313301283
 41
3.1180383322
 42
3.9032222197
  0
ELLIPSE
  5
525
100
AcDbEntity
  8
ASSI
100
AcDbEllipse
 62
7
  6
CONTINUOUS
 10
2.0954951934
 20
-21.46816802
 30
0.0
 11
0.220014872
 21
0.1791173313
 31
0.0
 40
0.6627826692
 41
-2.8510033574
 42
-2.6599685648
  0
ELLIPSE
  5
526
100
AcDbEntity
  8
ASSI
100
AcDbEllipse
 62
7
  6
CONTINUOUS
 10
0.475320894
 20
-21.8651876516
 30
0.0
 11
0.220014872
 21
0.1791173313
 31
0.0
 40
0.6627826692
 41
-1.8038058062
 42
-1.2976603231
  0
ELLIPSE
  5
527
100
AcDbEntity
  8
ASSI
100
AcDbEllipse
 62
7
  6
CONTINUOUS
 10
-3.8250222762
 20
21.4489973309
 30
0.0
 11
0.199943508
 21
0.008945986
 31
0.0
 40
0.5313301283
 41
3.1180383302
 42
3.9032222197
  0
ELLIPSE
  5
528
100
AcDbEntity
  8
ASSI
100
AcDbEllipse
 62
7
  6
CONTINUOUS
 10
-1.5343738791
 20
20.3036731323
 30
0.0
 11
0.199943508
 21
0.008945986
 31
0.0
 40
0.5313301283
 41
-2.3799630874
 42
-0.8266200532
  0
ELLIPSE
  5
529
100
AcDbEntity
  8
ASSI
100
AcDbEllipse
 62
7
  6
CONTINUOUS
 10
-5.2466844803
 20
22.1598284329
 30
0.0
 11
0.199943508
 21
0.008945986
 31
0.0
 40
0.5313301283
 41
-2.3799630874
 42
-0.8266200532
  0
ELLIPSE
  5
52A
100
AcDbEntity
  8
ASSI
100
AcDbEllipse
 62
7
  6
CONTINUOUS
 10
-7.5373328774
 20
23.3051526315
 30
0.0
 11
0.199943508
 21
0.008945986
 31
0.0
 40
0.5313301283
 41
3.1180383322
 42
3.9032222197
  0
ELLIPSE
  5
52B
100
AcDbEntity
  8
ASSI
100
AcDbEllipse
 62
7
  6
CONTINUOUS
 10
-12.8871731758
 20
24.6434739363
 30
0.0
 11
-0.2236507175
 21
0.4481039483
 31
0.0
 40
0.6114248242
 41
-0.6832297371
 42
0.8861965936
  0
ELLIPSE
  5
52C
100
AcDbEntity
  8
ASSI
100
AcDbEllipse
 62
7
  6
CONTINUOUS
 10
2.1184101444
 20
17.1406822761
 30
0.0
 11
-0.2231080361
 21
0.4476242326
 31
0.0
 40
0.6130677323
 41
-2.2534169372
 42
-0.6839906064
  0
ELLIPSE
  5
52D
100
AcDbEntity
  8
ASSI
100
AcDbEllipse
 62
7
  6
CONTINUOUS
 10
0.2817566079
 20
-21.1425724836
 30
0.0
 11
0.220014872
 21
0.1791173313
 31
0.0
 40
0.6627826692
 41
-2.9267057565
 42
-2.8510033574
  0
ELLIPSE
  5
52E
100
AcDbEntity
  8
ASSI
100
AcDbEllipse
 62
7
  6
CONTINUOUS
 10
2.1184101444
 20
-20.6538825185
 30
0.0
 11
-0.2236507175
 21
0.4481039483
 31
0.0
 40
0.6114248242
 41
2.4583629164
 42
4.0277892472
  0
ELLIPSE
  5
52F
100
AcDbEntity
  8
0
100
AcDbEllipse
 62
7
  6
CONTINUOUS
 10
-10.5462125402
 20
22.8806517607
 30
0.0
 11
-0.0892456481
 21
0.1797773143
 31
0.0
 40
0.6105754279
 41
5.6028239993
 42
7.0986906388
  0
ELLIPSE
  5
530
100
AcDbEntity
  8
ASSI
100
AcDbEllipse
 62
7
  6
CONTINUOUS
 10
14.905098946
 20
29.3704028507
 30
0.0
 11
18.2927339069
 21
9.4748417608
 31
0.0
 40
0.0170707209
 41
-2.6536573066
 42
-2.3141694431
  0
ELLIPSE
  5
531
100
AcDbEntity
  8
ASSI
100
AcDbEllipse
 62
7
  6
CONTINUOUS
 10
14.905098946
 20
29.3704028507
 30
0.0
 11
18.2927339069
 21
9.4748417608
 31
0.0
 40
0.0170707209
 41
2.2964861198
 42
2.6359739833
  0
ELLIPSE
  5
532
100
AcDbEntity
  8
RACCORDO
100
AcDbEllipse
 62
7
  6
CONTINUOUS
 10
0.5556142131
 20
-5.8324576255
 30
0.0
 11
-0.1570656702
 21
0.2574547774
 31
0.0
 40
0.5599604495
 41
-2.991902462
 42
-2.300981329
  0
ELLIPSE
  5
533
100
AcDbEntity
  8
ASSI
100
AcDbEllipse
 62
7
  6
CONTINUOUS
 10
1.7211216254
 20
25.9229342207
 30
0.0
 11
0.2002571891
 21
-0.0481060446
 31
0.0
 40
0.261363135
 41
-0.7257858084
 42
0.0669778862
  0
ELLIPSE
  5
534
100
AcDbEntity
  8
RACCORDO
100
AcDbEllipse
 62
7
  6
CONTINUOUS
 10
0.2016166212
 20
-16.2132774267
 30
0.0
 11
-0.2685822327
 21
0.5369844567
 31
0.0
 40
0.6119614214
 41
-3.1700942144
 42
-2.2560086979
  0
ELLIPSE
  5
535
100
AcDbEntity
  8
ASSI
100
AcDbEllipse
 62
7
  6
CONTINUOUS
 10
0.475320894
 20
-21.2393546266
 30
0.0
 11
0.220014872
 21
0.1791173313
 31
0.0
 40
0.6627826692
 41
-2.8510033574
 42
-1.2976603231
  0
ELLIPSE
  5
536
100
AcDbEntity
  8
ASSI
100
AcDbEllipse
 62
7
  6
CONTINUOUS
 10
9.327964903
 20
21.8439871592
 30
0.0
 11
-0.7356038977
 21
1.2035991204
 31
0.0
 40
0.5552491559
 41
4.9268361304
 42
6.2240352843
  0
ENDSEC
  0
SECTION
  2
OBJECTS
  0
DICTIONARY
  5
C
100
AcDbDictionary
280
0
281
1
  3
ACAD_GROUP
350
D
  3
ACAD_MLINESTYLE
350
17
  3
ACAD_LAYOUT
350
1A
  3
ACAD_PLOTSETTINGS
350
19
  3
ACAD_PLOTSTYLENAME
350
E
  0
DICTIONARY
  5
D
102
{ACAD_REACTORS
330
C
102
}
100
AcDbDictionary
280
0
281
1
  0
ACDBDICTIONARYWDFLT
  5
E
102
{ACAD_REACTORS
330
C
102
}
100
AcDbDictionary
281
1
  3
Normal
350
F
100
AcDbDictionaryWithDefault
340
F
  0
DICTIONARY
  5
17
102
{ACAD_REACTORS
330
C
102
}
100
AcDbDictionary
280
0
281
1
  3
Standard
350
18
  0
DICTIONARY
  5
19
102
{ACAD_REACTORS
330
C
102
}
100
AcDbDictionary
281
1
  0
DICTIONARY
  5
1A
102
{ACAD_REACTORS
330
C
102
}
100
AcDbDictionary
281
1
  3
Model
350
537
  3
Layout1
350
538
  0
ACDBPLACEHOLDER
  5
F
102
{ACAD_REACTORS
330
E
102
}
  0
MLINESTYLE
  5
18
102
{ACAD_REACTORS
330
17
102
}
100
AcDbMlineStyle
  2
STANDARD
 70
0
  3

 62
256
 51
90.0
 52
90.0
 71
2
 49
0.5
 62
256
  6
BYLAYER
 49
-0.5
 62
256
  6
BYLAYER
  0
LAYOUT
  5
537
102
{ACAD_REACTORS
330
1A
102
}
100
AcDbPlotSettings
  1

  2
none_device
  4
ISO_A4_(297.00_x_210.00_MM)
  6

 40
0.0
 41
0.0
 42
0.0
 43
0.0
 44
297.0
 45
210.0
 46
0.0
 47
0.0
 48
0.0
 49
0.0
140
0.0
141
0.0
142
1.0
143
1.0
 70
1024
 72
1
 73
0
 74
0
  7

 75
0
147
1.0
148
0.0
149
0.0
100
AcDbLayout
  1
Model
 70
0
 71
0
 10
0.0
 20
0.0
 11
297.0
 21
210.0
 12
0.0
 22
0.0
 32
0.0
 14
0.0
 24
0.0
 34
0.0
 15
0.0
 25
0.0
 35
0.0
146
0.0
 13
0.0
 23
0.0
 33
0.0
 16
1.0
 26
0.0
 36
0.0
 17
0.0
 27
1.0
 37
0.0
 76
0
330
21A
345
0
346
0
  0
LAYOUT
  5
538
102
{ACAD_REACTORS
330
1A
102
}
100
AcDbPlotSettings
  1

  2
none_device
  4
ISO_A4_(297.00_x_210.00_MM)
  6

 40
0.0
 41
0.0
 42
0.0
 43
0.0
 44
297.0
 45
210.0
 46
0.0
 47
0.0
 48
0.0
 49
0.0
140
0.0
141
0.0
142
1.0
143
1.0
 70
0
 72
1
 73
0
 74
0
  7

 75
0
147
1.0
148
0.0
149
0.0
100
AcDbLayout
  1
Layout1
 70
0
 71
1
 10
0.0
 20
0.0
 11
297.0
 21
210.0
 12
0.0
 22
0.0
 32
0.0
 14
0.0
 24
0.0
 34
0.0
 15
0.0
 25
0.0
 35
0.0
146
0.0
 13
0.0
 23
0.0
 33
0.0
 16
1.0
 26
0.0
 36
0.0
 17
0.0
 27
1.0
 37
0.0
 76
0
330
21B
345
0
346
0
  0
ENDSEC
  0
EOF
