  0
SECTION
  2
HEADER
  9
$ACADVER
  1
AC1024
  9
$DWGCODEPAGE
  3
ANSI_1252
  9
$EXTMAX
 10
297.0
 20
210.0
 30
0.0
  9
$EXTMIN
 10
0.0
 20
0.0
 30
0.0
  9
$LIMMIN
 10
0.0
 20
0.0
  9
$LIMMAX
 10
297.0
 20
210.0
  9
$VIEWCTR
 10
148.5
 20
105.0
  9
$VIEWSIZE
 40
210.0
  9
$CLAYER
  8
0
  9
$LTSCALE
 40
16.335
  9
$CELTYPE
  6
BYLAYER
  9
$DIMSCALE
 40
1.0
  9
$DIMASZ
 40
3.0
  9
$DIMEXO
 40
0.5
  9
$DIMDLI
 40
11.286
  9
$DIMEXE
 40
1.5
  9
$DIMCEN
 40
2.673
  9
$DIMLFAC
 40
1.0
  9
$DIMBLK
  1
_FILLED
  9
$DIMALT
 70
0
  9
$DIMALTF
 40
0.0393700787
  9
$DIMTXT
 40
3.0
  9
$DIMTOL
 70
1
  9
$DIMLIM
 70
0
  9
$DIMTFAC
 40
1.0
  9
$DIMTP
 40
0.01
  9
$DIMTM
 40
0.01
  9
$DIMGAP
 40
0.625
  9
$DIMDSEP
 70
44
  9
$AUNITS
 70
0
  9
$PDMODE
 70
3
  9
$PDSIZE
 40
3.0
  9
$HANDSEED
  5
55F
  9
$TILEMODE
 70
1
  9
$MEASUREMENT
 70
1
  9
$INSUNITS
 70
4
  0
ENDSEC
  0
SECTION
  2
CLASSES
  0
CLASS
  1
ACDBDICTIONARYWDFLT
  2
AcDbDictionaryWithDefault
  3
AutoCAD 2000
 90
0
 91
1
280
0
281
0
  0
CLASS
  1
ACDBPLACEHOLDER
  2
AcDbPlaceHolder
  3
AutoCAD 2000
 90
0
 91
1
280
0
281
0
  0
CLASS
  1
LAYOUT
  2
AcDbLayout
  3
AutoCAD 2000
 90
0
 91
0
280
0
281
0
  0
ENDSEC
  0
SECTION
  2
TABLES
  0
TABLE
  2
VPORT
  5
8
100
AcDbSymbolTable
 70
2
  0
VPORT
  5
1F4
100
AcDbSymbolTableRecord
100
AcDbViewportTableRecord
  2
*ACTIVE
 70
0
 10
0.0
 20
0.0
 11
1.0
 21
1.0
 12
148.5
 22
105.0
 13
0.0
 23
0.0
 14
1.0
 24
1.0
 15
0.0
 25
0.0
 16
0.0
 26
0.0
 36
1.0
 17
0.0
 27
0.0
 37
0.0
 40
210.0
 41
1.4142857143
 42
50.0
 43
0.0
 44
0.0
 50
0.0
 51
0.0
 71
0
 72
100
 73
1
 74
1
 75
0
 76
0
 77
0
 78
0
  0
ENDTAB
  0
TABLE
  2
LTYPE
  5
5
100
AcDbSymbolTable
 70
6
  0
LTYPE
  5
14
100
AcDbSymbolTableRecord
100
AcDbLinetypeTableRecord
  2
BYBLOCK
 70
0
  3

 72
65
 73
0
 40
0.0
  0
LTYPE
  5
15
100
AcDbSymbolTableRecord
100
AcDbLinetypeTableRecord
  2
BYLAYER
 70
0
  3

 72
65
 73
0
 40
0.0
  0
LTYPE
  5
16
100
AcDbSymbolTableRecord
100
AcDbLinetypeTableRecord
  2
CONTINUOUS
 70
64
  3
Solid line
 72
65
 73
0
 40
0.0
  0
LTYPE
  5
1F5
100
AcDbSymbolTableRecord
100
AcDbLinetypeTableRecord
  2
CENTER
 70
64
  3
____ _ ____ _ ____ _ ____ _ ____ _ ____ _ ____
 72
65
 73
4
 40
0.6
 49
0.375
 74
0
 49
-0.075
 74
0
 49
0.075
 74
0
 49
-0.075
 74
0
  0
LTYPE
  5
1F6
100
AcDbSymbolTableRecord
100
AcDbLinetypeTableRecord
  2
HIDDEN
 70
64
  3
- - - - - - - - - - - - - - - - - - - -
 72
65
 73
2
 40
0.2
 49
0.1
 74
0
 49
-0.1
 74
0
  0
LTYPE
  5
1F7
100
AcDbSymbolTableRecord
100
AcDbLinetypeTableRecord
  2
PHANTOM
 70
64
  3
_____ _ _ _____ _ _ _____ _ _ _____
 72
65
 73
6
 40
0.8
 49
0.45
 74
0
 49
-0.05
 74
0
 49
0.1
 74
0
 49
-0.05
 74
0
 49
0.1
 74
0
 49
-0.05
 74
0
  0
LTYPE
  5
1F8
100
AcDbSymbolTableRecord
100
AcDbLinetypeTableRecord
  2
DOT
 70
64
  3
. . . . . . . . . . . . . . . . . . . .
 72
65
 73
2
 40
0.2
 49
0.1
 74
0
 49
-0.1
 74
0
  0
LTYPE
  5
1F9
100
AcDbSymbolTableRecord
100
AcDbLinetypeTableRecord
  2
DASHED
 70
64
  3
- - - - - - - - - - - - - - - - - - - -
 72
65
 73
2
 40
0.2
 49
0.1
 74
0
 49
-0.1
 74
0
  0
ENDTAB
  0
TABLE
  2
LAYER
  5
2
100
AcDbSymbolTable
 70
36
  0
LAYER
  5
10
100
AcDbSymbolTableRecord
100
AcDbLayerTableRecord
  2
0
 70
0
 62
7
  6
CONTINUOUS
370
-3
390
F
  0
LAYER
  5
1FA
100
AcDbSymbolTableRecord
100
AcDbLayerTableRecord
  2
DEFAULT_1
 70
0
 62
7
  6
CENTER
370
-3
390
F
  0
LAYER
  5
1FB
100
AcDbSymbolTableRecord
100
AcDbLayerTableRecord
  2
DEFAULT_2
 70
0
 62
7
  6
HIDDEN
370
-3
390
F
  0
LAYER
  5
1FC
100
AcDbSymbolTableRecord
100
AcDbLayerTableRecord
  2
DEFAULT_3
 70
0
 62
7
  6
PHANTOM
370
-3
390
F
  0
LAYER
  5
1FD
100
AcDbSymbolTableRecord
100
AcDbLayerTableRecord
  2
ASSI
 70
0
 62
7
  6
CONTINUOUS
370
-3
390
F
  0
LAYER
  5
1FE
100
AcDbSymbolTableRecord
100
AcDbLayerTableRecord
  2
COLORE_TOP
 70
0
 62
7
  6
CONTINUOUS
370
-3
390
F
  0
LAYER
  5
1FF
100
AcDbSymbolTableRecord
100
AcDbLayerTableRecord
  2
COORDINATE
 70
0
 62
7
  6
CONTINUOUS
370
-3
390
F
  0
LAYER
  5
200
100
AcDbSymbolTableRecord
100
AcDbLayerTableRecord
  2
COORD_ORIGINE
 70
0
 62
7
  6
CONTINUOUS
370
-3
390
F
  0
LAYER
  5
201
100
AcDbSymbolTableRecord
100
AcDbLayerTableRecord
  2
COPY-PUBBLISH
 70
0
 62
7
  6
CONTINUOUS
370
-3
390
F
  0
LAYER
  5
202
100
AcDbSymbolTableRecord
100
AcDbLayerTableRecord
  2
COPY_PUBLISH
 70
0
 62
7
  6
CONTINUOUS
370
-3
390
F
  0
LAYER
  5
203
100
AcDbSymbolTableRecord
100
AcDbLayerTableRecord
  2
COSMETIC
 70
0
 62
7
  6
CONTINUOUS
370
-3
390
F
  0
LAYER
  5
204
100
AcDbSymbolTableRecord
100
AcDbLayerTableRecord
  2
COSMETICHE
 70
0
 62
7
  6
CONTINUOUS
370
-3
390
F
  0
LAYER
  5
205
100
AcDbSymbolTableRecord
100
AcDbLayerTableRecord
  2
CURVA_CENTRALE
 70
0
 62
7
  6
CONTINUOUS
370
-3
390
F
  0
LAYER
  5
206
100
AcDbSymbolTableRecord
100
AcDbLayerTableRecord
  2
CURVE
 70
0
 62
7
  6
CONTINUOUS
370
-3
390
F
  0
LAYER
  5
207
100
AcDbSymbolTableRecord
100
AcDbLayerTableRecord
  2
DRAFT
 70
0
 62
7
  6
CONTINUOUS
370
-3
390
F
  0
LAYER
  5
208
100
AcDbSymbolTableRecord
100
AcDbLayerTableRecord
  2
IMPORTED
 70
0
 62
7
  6
CONTINUOUS
370
-3
390
F
  0
LAYER
  5
209
100
AcDbSymbolTableRecord
100
AcDbLayerTableRecord
  2
IMPORT_IGES
 70
0
 62
7
  6
CONTINUOUS
370
-3
390
F
  0
LAYER
  5
20A
100
AcDbSymbolTableRecord
100
AcDbLayerTableRecord
  2
INCISIONI_LASER
 70
0
 62
7
  6
CONTINUOUS
370
-3
390
F
  0
LAYER
  5
20B
100
AcDbSymbolTableRecord
100
AcDbLayerTableRecord
  2
INTFCLR_11
 70
0
 62
7
  6
CONTINUOUS
370
-3
390
F
  0
LAYER
  5
20C
100
AcDbSymbolTableRecord
100
AcDbLayerTableRecord
  2
INTF_1
 70
0
 62
7
  6
CONTINUOUS
370
-3
390
F
  0
LAYER
  5
20D
100
AcDbSymbolTableRecord
100
AcDbLayerTableRecord
  2
INTF_11
 70
0
 62
7
  6
CONTINUOUS
370
-3
390
F
  0
LAYER
  5
20E
100
AcDbSymbolTableRecord
100
AcDbLayerTableRecord
  2
INTF_3
 70
0
 62
7
  6
CONTINUOUS
370
-3
390
F
  0
LAYER
  5
20F
100
AcDbSymbolTableRecord
100
AcDbLayerTableRecord
  2
NOTE
 70
0
 62
7
  6
CONTINUOUS
370
-3
390
F
  0
LAYER
  5
210
100
AcDbSymbolTableRecord
100
AcDbLayerTableRecord
  2
PIANI
 70
0
 62
7
  6
CONTINUOUS
370
-3
390
F
  0
LAYER
  5
211
100
AcDbSymbolTableRecord
100
AcDbLayerTableRecord
  2
PIANI_ORIGINE
 70
0
 62
7
  6
CONTINUOUS
370
-3
390
F
  0
LAYER
  5
212
100
AcDbSymbolTableRecord
100
AcDbLayerTableRecord
  2
PIANI_SFORMO
 70
0
 62
7
  6
CONTINUOUS
370
-3
390
F
  0
LAYER
  5
213
100
AcDbSymbolTableRecord
100
AcDbLayerTableRecord
  2
PUNTI
 70
0
 62
7
  6
CONTINUOUS
370
-3
390
F
  0
LAYER
  5
214
100
AcDbSymbolTableRecord
100
AcDbLayerTableRecord
  2
RACCORDO
 70
0
 62
7
  6
CONTINUOUS
370
-3
390
F
  0
LAYER
  5
215
100
AcDbSymbolTableRecord
100
AcDbLayerTableRecord
  2
SMUSSO
 70
0
 62
7
  6
CONTINUOUS
370
-3
390
F
  0
LAYER
  5
216
100
AcDbSymbolTableRecord
100
AcDbLayerTableRecord
  2
SNAPLINE
 70
0
 62
7
  6
CONTINUOUS
370
-3
390
F
  0
LAYER
  5
217
100
AcDbSymbolTableRecord
100
AcDbLayerTableRecord
  2
SUPERFICI
 70
0
 62
7
  6
CONTINUOUS
370
-3
390
F
  0
LAYER
  5
218
100
AcDbSymbolTableRecord
100
AcDbLayerTableRecord
  2
TRASH
 70
0
 62
7
  6
CONTINUOUS
370
-3
390
F
  0
LAYER
  5
219
100
AcDbSymbolTableRecord
100
AcDbLayerTableRecord
  2
XSEC_DATUMS
 70
0
 62
7
  6
CONTINUOUS
370
-3
390
F
  0
LAYER
  5
21A
100
AcDbSymbolTableRecord
100
AcDbLayerTableRecord
  2
___SHELL
 70
0
 62
7
  6
CONTINUOUS
370
-3
390
F
  0
ENDTAB
  0
TABLE
  2
STYLE
  5
3
100
AcDbSymbolTable
 70
1
  0
STYLE
  5
11
100
AcDbSymbolTableRecord
100
AcDbTextStyleTableRecord
  2
STANDARD
 70
0
 40
0.0
 41
0.8
 50
0.0
 71
0
 42
0.2
  3
txt
  4

  0
STYLE
  5
21B
100
AcDbSymbolTableRecord
100
AcDbTextStyleTableRecord
  2
TEXTSTYLE_1
 70
0
 40
0.0
 41
0.8
 50
0.0
 71
0
 42
0.2
  3
gdt
  4

  0
ENDTAB
  0
TABLE
  2
VIEW
  5
6
100
AcDbSymbolTable
 70
0
  0
ENDTAB
  0
TABLE
  2
UCS
  5
7
100
AcDbSymbolTable
 70
0
  0
ENDTAB
  0
TABLE
  2
APPID
  5
9
100
AcDbSymbolTable
 70
1
  0
APPID
  5
21C
100
AcDbSymbolTableRecord
100
AcDbRegAppTableRecord
  2
ACAD
 70
0
  0
ENDTAB
  0
TABLE
  2
BLOCK_RECORD
  5
1
100
AcDbSymbolTable
 70
0
  0
BLOCK_RECORD
  5
21D
100
AcDbSymbolTableRecord
100
AcDbBlockTableRecord
  2
*Model_Space
  0
BLOCK_RECORD
  5
21E
100
AcDbSymbolTableRecord
100
AcDbBlockTableRecord
  2
*Paper_Space
  0
BLOCK_RECORD
  5
21F
100
AcDbSymbolTableRecord
100
AcDbBlockTableRecord
  2
_FILLED
  0
ENDTAB
  0
TABLE
  2
DIMSTYLE
  5
A
100
AcDbSymbolTable
 70
1
100
AcDbDimStyleTable
 71
0
  0
DIMSTYLE
105
220
100
AcDbSymbolTableRecord
100
AcDbDimStyleTableRecord
  2
STANDARD
 70
0
  3

  4

 40
1.0
 41
3.0
 42
0.5
 43
0.38
 44
1.5
 45
0.0
 46
0.0
 47
0.01
 48
0.01
140
3.0
141
0.09
142
0.0
143
25.4
144
1.0
145
0.0
146
1.0
147
0.625
 71
1
 72
0
 73
0
 74
0
 75
0
 76
0
 77
1
 78
8
 79
2
170
0
171
1
172
0
173
0
174
0
175
0
176
0
177
0
178
0
270
2
179
2
271
2
272
2
273
2
274
2
275
0
280
0
281
0
282
0
283
1
284
8
285
0
286
0
287
3
288
0
340
11
278
44
341
21F
342
21F
343
21F
344
21F
  0
ENDTAB
  0
ENDSEC
  0
SECTION
  2
BLOCKS
  0
BLOCK
  5
20
100
AcDbEntity
  8
0
100
AcDbBlockBegin
  2
*Model_Space
 70
0
 10
0.0
 20
0.0
 30
0.0
  3
*Model_Space
  1

  0
ENDBLK
  5
21
100
AcDbEntity
  8
0
100
AcDbBlockEnd
  0
BLOCK
  5
1C
100
AcDbEntity
  8
0
100
AcDbBlockBegin
  2
*Paper_Space
 70
0
 10
0.0
 20
0.0
 30
0.0
  3
*Paper_Space
  1

  0
ENDBLK
  5
1D
100
AcDbEntity
  8
0
100
AcDbBlockEnd
  0
BLOCK
  5
221
100
AcDbEntity
  8
0
100
AcDbBlockBegin
  2
_FILLED
 70
64
 10
0.0
 20
0.0
  3
_FILLED
  1

  0
SOLID
  5
222
100
AcDbEntity
  8
0
  6
BYBLOCK
 62
0
100
AcDbTrace
 10
0.0
 20
0.0
 11
-1.0
 21
0.3166666667
 12
-1.0
 22
-0.3166666667
 13
-1.0
 23
-0.3166666667
  0
ENDBLK
  5
223
100
AcDbEntity
  8
0
  6
BYBLOCK
 62
0
100
AcDbBlockEnd
  0
ENDSEC
  0
SECTION
  2
ENTITIES
  0
LWPOLYLINE
  5
224
100
AcDbEntity
  8
ASSI
100
AcDbPolyline
 62
7
  6
CONTINUOUS
 90
12
 70
0
 10
-12.2413444239
 20
25.0399520637
 10
-12.2454174383
 20
25.0363065375
 10
-12.2631525376
 20
25.0183616567
 10
-12.2787736391
 20
24.9991954882
 10
-12.2928198564
 20
24.9783842971
 10
-12.3051980991
 20
24.956092572
 10
-12.3154475543
 20
24.9333671849
 10
-12.3238478246
 20
24.9098240444
 10
-12.33043255
 20
24.8850637627
 10
-12.3347951042
 20
24.8602549796
 10
-12.3369071349
 20
24.835576347
 10
-12.3371154643
 20
24.8249817392
  0
LINE
  5
225
100
AcDbEntity
  8
ASSI
100
AcDbLine
 62
7
  6
CONTINUOUS
 10
-12.2414198022
 20
25.0398866107
 11
-10.9798605942
 21
26.1449213499
  0
LINE
  5
226
100
AcDbEntity
  8
ASSI
100
AcDbLine
 62
250
  6
CONTINUOUS
 10
-12.1116419031
 20
25.0516059313
 11
-10.8508260265
 21
26.1559895659
  0
LINE
  5
227
100
AcDbEntity
  8
ASSI
100
AcDbLine
 62
7
  6
CONTINUOUS
 10
-10.9752028274
 20
26.1487387176
 11
-10.9798169194
 21
26.1449596058
  0
LINE
  5
228
100
AcDbEntity
  8
ASSI
100
AcDbLine
 62
7
  6
CONTINUOUS
 10
-10.9751677542
 20
26.148765597
 11
-10.5308903761
 21
26.4886991603
  0
LINE
  5
229
100
AcDbEntity
  8
ASSI
100
AcDbLine
 62
250
  6
CONTINUOUS
 10
-10.8508260265
 20
26.1559895659
 11
-10.4073549777
 21
26.4953061759
  0
LWPOLYLINE
  5
22A
100
AcDbEntity
  8
ASSI
100
AcDbPolyline
 62
250
  6
CONTINUOUS
 90
12
 70
0
 10
-10.4073549777
 20
26.4953061759
 10
-10.4003986917
 20
26.5005504828
 10
-10.3932647847
 20
26.5054297938
 10
-10.3859735177
 20
26.5098873467
 10
-10.3785307776
 20
26.5138730505
 10
-10.3709808487
 20
26.5173152467
 10
-10.3634042035
 20
26.5201361167
 10
-10.3558307192
 20
26.5222879979
 10
-10.3482929497
 20
26.5237237401
 10
-10.3408730376
 20
26.5243957091
 10
-10.3336027409
 20
26.5242747954
 10
-10.3265153538
 20
26.5233341714
  0
LWPOLYLINE
  5
22B
100
AcDbEntity
  8
ASSI
100
AcDbPolyline
 62
250
  6
CONTINUOUS
 90
8
 70
0
 10
-12.2413446702
 20
25.0399523469
 10
-12.228281065
 20
25.049443868
 10
-12.212148497
 20
25.0571217985
 10
-12.1942626568
 20
25.0619317658
 10
-12.1749294575
 20
25.063791502
 10
-12.1544795674
 20
25.0626691987
 10
-12.1332627542
 20
25.0585840515
 10
-12.1116419031
 20
25.0516059313
  0
LWPOLYLINE
  5
22C
100
AcDbEntity
  8
ASSI
100
AcDbPolyline
 62
250
  6
CONTINUOUS
 90
8
 70
0
 10
-10.5308727482
 20
26.4887126447
 10
-10.5223365075
 20
26.4945019795
 10
-10.5062523631
 20
26.502140261
 10
-10.488510949
 20
26.5068319333
 10
-10.469415709
 20
26.508496749
 10
-10.4492932416
 20
26.507106232
 10
-10.4284877142
 20
26.5026841636
 10
-10.4073549777
 20
26.4953061759
  0
LWPOLYLINE
  5
22D
100
AcDbEntity
  8
ASSI
100
AcDbPolyline
 62
7
  6
CONTINUOUS
 90
5
 70
0
 10
-10.4531493713
 20
26.5276865729
 10
-10.4800857693
 20
26.5183098083
 10
-10.505516229
 20
26.5056522423
 10
-10.5285150045
 20
26.4904934499
 10
-10.530872676
 20
26.4887125501
  0
LINE
  5
22E
100
AcDbEntity
  8
ASSI
100
AcDbLine
 62
7
  6
CONTINUOUS
 10
-12.2125417595
 20
23.7028390164
 11
-11.7589098824
 21
24.1312187136
  0
LINE
  5
22F
100
AcDbEntity
  8
ASSI
100
AcDbLine
 62
250
  6
CONTINUOUS
 10
-11.8841992733
 20
23.736090049
 11
-11.7589098824
 21
23.8544049956
  0
LWPOLYLINE
  5
230
100
AcDbEntity
  8
RACCORDO
100
AcDbPolyline
 62
7
  6
CONTINUOUS
 90
18
 70
0
 10
-15.2253458054
 20
20.7871752577
 10
-15.2856135386
 20
20.7326450582
 10
-15.3421760871
 20
20.674074241
 10
-15.39522924
 20
20.6119414114
 10
-15.4451037464
 20
20.5464643189
 10
-15.4919948407
 20
20.4778214887
 10
-15.5359250637
 20
20.4063333706
 10
-15.576919093
 20
20.3322322457
 10
-15.6149032632
 20
20.2558116435
 10
-15.6497959182
 20
20.177374773
 10
-15.6814846943
 20
20.0971917038
 10
-15.709803781
 20
20.015640718
 10
-15.7346146374
 20
19.9329960234
 10
-15.7557250747
 20
19.8495589283
 10
-15.7729390158
 20
19.7656288003
 10
-15.786034199
 20
19.681366807
 10
-15.7947395438
 20
19.5970058419
 10
-15.7961700039
 20
19.576322576
  0
LINE
  5
231
100
AcDbEntity
  8
RACCORDO
100
AcDbLine
 62
7
  6
CONTINUOUS
 10
-12.6559402971
 20
22.9140018801
 11
-15.2253458054
 21
20.7871752577
  0
LINE
  5
232
100
AcDbEntity
  8
RACCORDO
100
AcDbLine
 62
250
  6
CONTINUOUS
 10
-12.3324806877
 20
22.9420462539
 11
-14.8924628213
 21
20.8230742991
  0
LINE
  5
233
100
AcDbEntity
  8
RACCORDO
100
AcDbLine
 62
7
  6
CONTINUOUS
 10
-15.2182515777
 20
20.7931007394
 11
-15.2187866801
 21
20.7926591025
  0
LINE
  5
234
100
AcDbEntity
  8
ASSI
100
AcDbLine
 62
250
  6
CONTINUOUS
 10
-8.3933199893
 20
25.1689997382
 11
-7.971421239
 21
25.5169802696
  0
LINE
  5
235
100
AcDbEntity
  8
ASSI
100
AcDbLine
 62
250
  6
CONTINUOUS
 10
-8.2295145326
 20
24.9394063171
 11
-7.8076157823
 21
25.2873868486
  0
LINE
  5
236
100
AcDbEntity
  8
ASSI
100
AcDbLine
 62
250
  6
CONTINUOUS
 10
-9.7186032208
 20
24.0905076467
 11
-8.3933199893
 21
25.1689997382
  0
LINE
  5
237
100
AcDbEntity
  8
ASSI
100
AcDbLine
 62
250
  6
CONTINUOUS
 10
-9.5547977641
 20
23.8609142257
 11
-8.2295145326
 21
24.9394063171
  0
LWPOLYLINE
  5
238
100
AcDbEntity
  8
RACCORDO
100
AcDbPolyline
 62
250
  6
CONTINUOUS
 90
22
 70
0
 10
-14.8924628402
 20
20.8230742835
 10
-14.9426967383
 20
20.7823300246
 10
-14.9927936241
 20
20.7367074195
 10
-15.0424783698
 20
20.6864342193
 10
-15.0914594027
 20
20.6317559214
 10
-15.1394875412
 20
20.5729527982
 10
-15.1863570578
 20
20.5103370884
 10
-15.2318153485
 20
20.4442191232
 10
-15.2756095899
 20
20.3749331006
 10
-15.3175457008
 20
20.3028534096
 10
-15.357396954
 20
20.2283459614
 10
-15.3949445969
 20
20.1517833053
 10
-15.430024303
 20
20.0735691314
 10
-15.4624487545
 20
19.9940989827
 10
-15.4920389053
 20
19.9137733781
 10
-15.5186649431
 20
19.8330134145
 10
-15.5421849563
 20
19.7522353554
 10
-15.5624711005
 20
19.6718401632
 10
-15.5794380813
 20
19.5922269093
 10
-15.5930004771
 20
19.5137971285
 10
-15.6030757712
 20
19.4369524039
 10
-15.6096085701
 20
19.3620842346
  0
LWPOLYLINE
  5
239
100
AcDbEntity
  8
ASSI
100
AcDbPolyline
 62
250
  6
CONTINUOUS
 90
21
 70
0
 10
-7.8076157823
 20
25.2873868486
 10
-7.8062443535
 20
25.2884818341
 10
-7.8048494661
 20
25.2894781024
 10
-7.8034311202
 20
25.2903756534
 10
-7.8019805226
 20
25.2911864078
 10
-7.8005064664
 20
25.2918984449
 10
-7.7990353308
 20
25.2924760029
 10
-7.7975666339
 20
25.2929148695
 10
-7.7961008576
 20
25.2932192569
 10
-7.7946658263
 20
25.2933660397
 10
-7.7932623488
 20
25.2933499077
 10
-7.7918896164
 20
25.293176171
 10
-7.790573027
 20
25.2928376351
 10
-7.7893151086
 20
25.2923299066
 10
-7.7881133331
 20
25.2916573788
 10
-7.7869855143
 20
25.2908260367
 10
-7.7859339005
 20
25.289833778
 10
-7.7849562433
 20
25.288682705
 10
-7.7840636112
 20
25.2873851092
 10
-7.7832571159
 20
25.2859394425
 10
-7.7825356458
 20
25.284347253
  0
LINE
  5
23A
100
AcDbEntity
  8
RACCORDO
100
AcDbLine
 62
7
  6
CONTINUOUS
 10
-2.7065154169
 20
28.1863425738
 11
-3.4699777791
 21
27.5893135625
  0
LINE
  5
23B
100
AcDbEntity
  8
0
100
AcDbLine
 62
7
  6
CONTINUOUS
 10
-2.7065154169
 20
28.1863425738
 11
-3.4699777791
 21
27.5893135625
  0
LINE
  5
23C
100
AcDbEntity
  8
RACCORDO
100
AcDbLine
 62
250
  6
CONTINUOUS
 10
-8.1444200072
 20
24.0347257871
 11
-3.1849922207
 21
27.9000328414
  0
LINE
  5
23D
100
AcDbEntity
  8
0
100
AcDbLine
 62
250
  6
CONTINUOUS
 10
-8.1444200072
 20
24.0347257871
 11
-3.1849922207
 21
27.9000328414
  0
LWPOLYLINE
  5
23E
100
AcDbEntity
  8
ASSI
100
AcDbPolyline
 62
250
  6
CONTINUOUS
 90
14
 70
0
 10
-7.971421239
 20
25.5169802696
 10
-7.9644637526
 20
25.5223040601
 10
-7.9573402827
 20
25.5272463613
 10
-7.9500714537
 20
25.5317519258
 10
-7.9426638652
 20
25.5357725444
 10
-7.9351614513
 20
25.5392384057
 10
-7.9276432282
 20
25.5420735595
 10
-7.9201388079
 20
25.5442328419
 10
-7.9126803442
 20
25.545671717
 10
-7.9053479938
 20
25.5463449501
 10
-7.8981735645
 20
25.5462264252
 10
-7.8911883343
 20
25.5452924685
 10
-7.8844641161
 20
25.5435348594
 10
-7.8812171454
 20
25.5423495255
  0
LWPOLYLINE
  5
23F
100
AcDbEntity
  8
RACCORDO
100
AcDbPolyline
 62
7
  6
CONTINUOUS
 90
5
 70
0
 10
-2.7065154169
 20
28.1863425738
 10
-2.6937390218
 20
28.1960407108
 10
-2.6808312692
 20
28.2052569067
 10
-2.6677998139
 20
28.2139887214
 10
-2.6546534562
 20
28.2222332943
  0
LWPOLYLINE
  5
240
100
AcDbEntity
  8
0
100
AcDbPolyline
 62
7
  6
CONTINUOUS
 90
5
 70
0
 10
-2.7065154169
 20
28.1863425738
 10
-2.6937390218
 20
28.1960407108
 10
-2.6808312692
 20
28.2052569067
 10
-2.6677998139
 20
28.2139887214
 10
-2.6546534562
 20
28.2222332943
  0
LWPOLYLINE
  5
241
100
AcDbEntity
  8
RACCORDO
100
AcDbPolyline
 62
250
  6
CONTINUOUS
 90
4
 70
0
 10
-3.1849922207
 20
27.9000328414
 10
-3.1688788717
 20
27.9121428638
 10
-3.1523548499
 20
27.9236350047
 10
-3.1354324261
 20
27.9345007301
  0
LWPOLYLINE
  5
242
100
AcDbEntity
  8
0
100
AcDbPolyline
 62
250
  6
CONTINUOUS
 90
5
 70
0
 10
-3.1849922207
 20
27.9000328414
 10
-3.1688788717
 20
27.9121428638
 10
-3.1523548499
 20
27.9236350047
 10
-3.1354324261
 20
27.9345007301
 10
-3.1293379597
 20
27.9382020041
  0
LWPOLYLINE
  5
243
100
AcDbEntity
  8
RACCORDO
100
AcDbPolyline
 62
7
  6
CONTINUOUS
 90
7
 70
0
 10
-3.1787926654
 20
27.9072476326
 10
-3.1979203105
 20
27.8945181854
 10
-3.2168354339
 20
27.8814942436
 10
-3.2355339021
 20
27.8681789107
 10
-3.2540112173
 20
27.8545756544
 10
-3.2722627356
 20
27.8406883219
 10
-8.1517743226
 20
24.037679446
  0
LWPOLYLINE
  5
244
100
AcDbEntity
  8
0
100
AcDbPolyline
 62
7
  6
CONTINUOUS
 90
7
 70
0
 10
-3.1787926654
 20
27.9072476326
 10
-3.1979203105
 20
27.8945181854
 10
-3.2168354339
 20
27.8814942436
 10
-3.2355339021
 20
27.8681789107
 10
-3.2540112173
 20
27.8545756544
 10
-3.2722627356
 20
27.8406883219
 10
-8.1517743226
 20
24.037679446
  0
LWPOLYLINE
  5
245
100
AcDbEntity
  8
RACCORDO
100
AcDbPolyline
 62
7
  6
CONTINUOUS
 90
3
 70
0
 10
-3.1399186976
 20
27.9318095558
 10
-3.1594570956
 20
27.919679262
 10
-3.1787926654
 20
27.9072476326
  0
LWPOLYLINE
  5
246
100
AcDbEntity
  8
RACCORDO
100
AcDbPolyline
 62
250
  6
CONTINUOUS
 90
5
 70
0
 10
-3.1849922207
 20
27.9000328414
 10
-3.2098948631
 20
27.8845967009
 10
-3.2342390174
 20
27.8683915755
 10
-3.2580131474
 20
27.8514251528
 10
-3.276510587
 20
27.8373902433
  0
LWPOLYLINE
  5
247
100
AcDbEntity
  8
0
100
AcDbPolyline
 62
250
  6
CONTINUOUS
 90
5
 70
0
 10
-3.1849922207
 20
27.9000328414
 10
-3.2098948631
 20
27.8845967009
 10
-3.2342390174
 20
27.8683915755
 10
-3.2580131474
 20
27.8514251528
 10
-3.276510587
 20
27.8373902433
  0
LWPOLYLINE
  5
248
100
AcDbEntity
  8
0
100
AcDbPolyline
 62
7
  6
CONTINUOUS
 90
4
 70
0
 10
-3.1354324261
 20
27.9345007301
 10
-3.1399186976
 20
27.9318095558
 10
-3.1594570956
 20
27.919679262
 10
-3.1787926654
 20
27.9072476326
  0
LINE
  5
249
100
AcDbEntity
  8
RACCORDO
100
AcDbLine
 62
7
  6
CONTINUOUS
 10
-2.6522174939
 20
28.2237001335
 11
-2.7086598415
 21
28.1899263061
  0
LINE
  5
24A
100
AcDbEntity
  8
RACCORDO
100
AcDbLine
 62
7
  6
CONTINUOUS
 10
-2.7086598415
 20
28.1899263061
 11
-3.1399186976
 21
27.9318095558
  0
LINE
  5
24B
100
AcDbEntity
  8
0
100
AcDbLine
 62
7
  6
CONTINUOUS
 10
-2.6522174939
 20
28.2237001335
 11
-3.1293343906
 21
27.9382041397
  0
LINE
  5
24C
100
AcDbEntity
  8
RACCORDO
100
AcDbLine
 62
250
  6
CONTINUOUS
 10
-2.7065154169
 20
28.1863425738
 11
-3.1849922207
 21
27.9000328414
  0
LINE
  5
24D
100
AcDbEntity
  8
0
100
AcDbLine
 62
250
  6
CONTINUOUS
 10
-2.7065154169
 20
28.1863425738
 11
-3.1849922207
 21
27.9000328414
  0
LINE
  5
24E
100
AcDbEntity
  8
DRAFT
100
AcDbLine
 62
7
  6
CONTINUOUS
 10
-3.4699777791
 20
27.5893135625
 11
-2.5980148536
 21
28.1110765192
  0
LINE
  5
24F
100
AcDbEntity
  8
0
100
AcDbLine
 62
7
  6
CONTINUOUS
 10
-3.4699777791
 20
27.5893135625
 11
-2.5980148536
 21
28.1110765192
  0
LWPOLYLINE
  5
250
100
AcDbEntity
  8
RACCORDO
100
AcDbPolyline
 62
7
  6
CONTINUOUS
 90
24
 70
0
 10
-2.6522174939
 20
28.2237001335
 10
-2.6413988785
 20
28.229989318
 10
-2.6280405974
 20
28.2372569646
 10
-2.6145864984
 20
28.2440346041
 10
-2.6010443653
 20
28.2503209246
 10
-2.5874185567
 20
28.2561167981
 10
-2.5737170445
 20
28.261421207
 10
-2.5599476741
 20
28.2662334618
 10
-2.5461146098
 20
28.2705551647
 10
-2.5322258808
 20
28.274385906
 10
-2.5182893675
 20
28.2777256068
 10
-2.5043090022
 20
28.2805766131
 10
-2.4902928398
 20
28.2829391144
 10
-2.4762487677
 20
28.284813627
 10
-2.4621804501
 20
28.2862032374
 10
-2.4480959346
 20
28.2871087215
 10
-2.4340030865
 20
28.2875311713
 10
-2.41990527
 20
28.2874743955
 10
-2.4058104925
 20
28.2869397391
 10
-2.3917265678
 20
28.2859288469
 10
-2.3776565294
 20
28.2844462183
 10
-2.3636083072
 20
28.2824937446
 10
-2.3495896393
 20
28.2800735982
 10
-2.3478132945
 20
28.2797074848
  0
LWPOLYLINE
  5
251
100
AcDbEntity
  8
0
100
AcDbPolyline
 62
7
  6
CONTINUOUS
 90
24
 70
0
 10
-2.6522174939
 20
28.2237001335
 10
-2.6413988785
 20
28.229989318
 10
-2.6280405974
 20
28.2372569646
 10
-2.6145864984
 20
28.2440346041
 10
-2.6010443653
 20
28.2503209246
 10
-2.5874185567
 20
28.2561167981
 10
-2.5737170445
 20
28.261421207
 10
-2.5599476741
 20
28.2662334618
 10
-2.5461146098
 20
28.2705551647
 10
-2.5322258808
 20
28.274385906
 10
-2.5182893675
 20
28.2777256068
 10
-2.5043090022
 20
28.2805766131
 10
-2.4902928398
 20
28.2829391144
 10
-2.4762487677
 20
28.284813627
 10
-2.4621804501
 20
28.2862032374
 10
-2.4480959346
 20
28.2871087215
 10
-2.4340030865
 20
28.2875311713
 10
-2.41990527
 20
28.2874743955
 10
-2.4058104925
 20
28.2869397391
 10
-2.3917265678
 20
28.2859288469
 10
-2.3776565294
 20
28.2844462183
 10
-2.3636083072
 20
28.2824937446
 10
-2.3495896393
 20
28.2800735982
 10
-2.3478132945
 20
28.2797074848
  0
LWPOLYLINE
  5
252
100
AcDbEntity
  8
ASSI
100
AcDbPolyline
 62
7
  6
CONTINUOUS
 90
4
 70
0
 10
-2.534143068
 20
26.2778395129
 10
-2.5701557865
 20
26.2607833044
 10
-2.6033154891
 20
26.2405529971
 10
-2.6174607273
 20
26.2302922959
  0
LINE
  5
253
100
AcDbEntity
  8
ASSI
100
AcDbLine
 62
7
  6
CONTINUOUS
 10
0.621715694
 20
25.9257989429
 11
1.9371275652
 21
26.3112748851
  0
LWPOLYLINE
  5
254
100
AcDbEntity
  8
ASSI
100
AcDbPolyline
 62
7
  6
CONTINUOUS
 90
11
 70
0
 10
-8.9669229756
 20
23.4641511839
 10
-8.9853256646
 20
23.4406848868
 10
-9.0060453608
 20
23.4185982807
 10
-9.0289320175
 20
23.3982925458
 10
-9.0539333611
 20
23.3801167747
 10
-9.0806689466
 20
23.3644686659
 10
-9.108397417
 20
23.3517315945
 10
-9.1367344294
 20
23.3421180521
 10
-9.1653514198
 20
23.3358064628
 10
-9.1935093664
 20
23.3329129943
 10
-9.2067816345
 20
23.3327295305
  0
LINE
  5
255
100
AcDbEntity
  8
ASSI
100
AcDbLine
 62
7
  6
CONTINUOUS
 10
-5.9333827996
 20
23.6928432234
 11
-6.1038505898
 21
23.5435257527
  0
LINE
  5
256
100
AcDbEntity
  8
ASSI
100
AcDbLine
 62
250
  6
CONTINUOUS
 10
-5.7720895899
 20
23.7066784934
 11
-5.9418251649
 21
23.5580023903
  0
LINE
  5
257
100
AcDbEntity
  8
ASSI
100
AcDbLine
 62
7
  6
CONTINUOUS
 10
-8.9669229756
 20
22.7469881045
 11
-8.2295145326
 21
23.3829924808
  0
LINE
  5
258
100
AcDbEntity
  8
ASSI
100
AcDbLine
 62
7
  6
CONTINUOUS
 10
-5.9333261024
 20
23.6928927666
 11
-5.9275595845
 21
23.6976157576
  0
LINE
  5
259
100
AcDbEntity
  8
ASSI
100
AcDbLine
 62
7
  6
CONTINUOUS
 10
-1.9972694121
 20
28.4369541507
 11
-7.7010843588
 21
23.856672196
  0
LINE
  5
25A
100
AcDbEntity
  8
ASSI
100
AcDbLine
 62
7
  6
CONTINUOUS
 10
-2.0543066474
 20
28.513510573
 11
-7.8335305854
 21
23.9098655865
  0
LWPOLYLINE
  5
25B
100
AcDbEntity
  8
ASSI
100
AcDbPolyline
 62
250
  6
CONTINUOUS
 90
16
 70
0
 10
-6.1034776396
 20
23.5438509774
 10
-6.0959695637
 20
23.5498254953
 10
-6.0874971011
 20
23.5554318415
 10
-6.0784800101
 20
23.560308348
 10
-6.0689619305
 20
23.5644314544
 10
-6.0589664223
 20
23.5677910274
 10
-6.0485358792
 20
23.570372128
 10
-6.0377109046
 20
23.5721651019
 10
-6.0265289471
 20
23.5731641553
 10
-6.0150306814
 20
23.5733658605
 10
-6.0032578114
 20
23.5727694863
 10
-5.9912538128
 20
23.5713772584
 10
-5.9790635626
 20
23.5691947308
 10
-5.9667320361
 20
23.5662302932
 10
-5.9543040776
 20
23.5624948922
 10
-5.9418251649
 20
23.5580023903
  0
LINE
  5
25C
100
AcDbEntity
  8
ASSI
100
AcDbLine
 62
250
  6
CONTINUOUS
 10
-4.9443196276
 20
24.0191206893
 11
-2.2547345564
 21
26.1531545371
  0
LINE
  5
25D
100
AcDbEntity
  8
ASSI
100
AcDbLine
 62
250
  6
CONTINUOUS
 10
-4.5726985231
 20
23.8698692757
 11
-2.0525192933
 21
25.8694891563
  0
LINE
  5
25E
100
AcDbEntity
  8
DRAFT
100
AcDbLine
 62
7
  6
CONTINUOUS
 10
-7.9239543084
 20
23.9461817922
 11
-2.5980148536
 21
28.1110765192
  0
LINE
  5
25F
100
AcDbEntity
  8
0
100
AcDbLine
 62
7
  6
CONTINUOUS
 10
-7.9239543084
 20
23.9461817922
 11
-2.5980148536
 21
28.1110765192
  0
LINE
  5
260
100
AcDbEntity
  8
ASSI
100
AcDbLine
 62
250
  6
CONTINUOUS
 10
-2.463195321
 20
26.2384396745
 11
-5.7720895899
 21
23.7066784934
  0
LINE
  5
261
100
AcDbEntity
  8
ASSI
100
AcDbLine
 62
7
  6
CONTINUOUS
 10
-2.6174636796
 20
26.2302961556
 11
-5.9275167496
 21
23.6976485323
  0
LWPOLYLINE
  5
262
100
AcDbEntity
  8
ASSI
100
AcDbPolyline
 62
7
  6
CONTINUOUS
 90
3
 70
0
 10
-5.9275595845
 20
23.6976157576
 10
-5.9168783091
 20
23.7048608054
 10
-5.8967398958
 20
23.7144336621
  0
LINE
  5
263
100
AcDbEntity
  8
0
100
AcDbLine
 62
250
  6
CONTINUOUS
 10
-9.3356248004
 20
21.7424806481
 11
-9.1808968842
 21
21.8437812531
  0
LWPOLYLINE
  5
264
100
AcDbEntity
  8
RACCORDO
100
AcDbPolyline
 62
7
  6
CONTINUOUS
 90
12
 70
0
 10
0.4152519255
 20
-23.1416331698
 10
0.476137829
 20
-23.1598455216
 10
0.5334436618
 20
-23.171458864
 10
0.592506675
 20
-23.1781783682
 10
0.6530525259
 20
-23.1797774333
 10
0.7146047051
 20
-23.1760599017
 10
0.776872461
 20
-23.1668850578
 10
0.8395575017
 20
-23.1521419793
 10
0.9023315172
 20
-23.1317537744
 10
0.9650527852
 20
-23.1055952561
 10
1.0276084136
 20
-23.0735236385
 10
1.0911348183
 20
-23.0345585086
  0
LWPOLYLINE
  5
265
100
AcDbEntity
  8
RACCORDO
100
AcDbPolyline
 62
250
  6
CONTINUOUS
 90
16
 70
0
 10
0.1693120952
 20
-22.5810319425
 10
0.2126427653
 20
-22.5944188697
 10
0.2580580692
 20
-22.6053354917
 10
0.3051179687
 20
-22.613676035
 10
0.3533664905
 20
-22.6193596864
 10
0.4023361449
 20
-22.6223313759
 10
0.4515524547
 20
-22.6225623101
 10
0.5005385528
 20
-22.6200502515
 10
0.5488198028
 20
-22.6148195398
 10
0.5959283977
 20
-22.6069208567
 10
0.6414078926
 20
-22.596430734
 10
0.6848176272
 20
-22.5834508127
 10
0.7257369956
 20
-22.5681068579
 10
0.7637695216
 20
-22.5505475405
 10
0.7985467002
 20
-22.5309429963
 10
0.829731568
 20
-22.5094831777
  0
LWPOLYLINE
  5
266
100
AcDbEntity
  8
RACCORDO
100
AcDbPolyline
 62
7
  6
CONTINUOUS
 90
10
 70
0
 10
-16.625529573
 20
-16.2976060851
 10
-14.8877345747
 20
-17.0807833899
 10
-13.0341806612
 20
-17.8930849648
 10
-11.1593749761
 20
-18.6913140517
 10
-9.263749217
 20
-19.4752899363
 10
-7.3477368144
 20
-20.2448340685
 10
-5.41178151
 20
-20.9997744009
 10
-3.4563349055
 20
-21.7399454594
 10
-1.4818502779
 20
-22.4651840582
 10
0.415453097
 20
-23.1417066911
  0
LWPOLYLINE
  5
267
100
AcDbEntity
  8
RACCORDO
100
AcDbPolyline
 62
250
  6
CONTINUOUS
 90
10
 70
0
 10
-16.8601838198
 20
-15.7415931883
 10
-16.8969359436
 20
-15.7228172471
 10
-16.9302919692
 20
-15.7020978113
 10
-16.9599287098
 20
-15.6796356318
 10
-16.9855590149
 20
-15.6556483447
 10
-17.0069345523
 20
-15.6303683629
 10
-17.0238482143
 20
-15.6040406241
 10
-17.0361361244
 20
-15.5769202178
 10
-17.043679225
 20
-15.5492699139
 10
-17.0464044308
 20
-15.5213576163
  0
LWPOLYLINE
  5
268
100
AcDbEntity
  8
ASSI
100
AcDbPolyline
 62
7
  6
CONTINUOUS
 90
6
 70
0
 10
-7.787652079
 20
24.8634537503
 10
-7.7859318906
 20
24.8664098993
 10
-7.7757570863
 20
24.8857280457
 10
-7.7668724252
 20
24.9060223549
 10
-7.7596155443
 20
24.9264300306
 10
-7.7538727205
 20
24.9470758269
  0
LINE
  5
269
100
AcDbEntity
  8
ASSI
100
AcDbLine
 62
250
  6
CONTINUOUS
 10
-7.7941218676
 20
24.9008956212
 11
-8.2295145326
 21
24.1624767664
  0
LINE
  5
26A
100
AcDbEntity
  8
ASSI
100
AcDbLine
 62
7
  6
CONTINUOUS
 10
-7.7876475122
 20
24.8634613271
 11
-8.2295145326
 21
24.1140620712
  0
LWPOLYLINE
  5
26B
100
AcDbEntity
  8
ASSI
100
AcDbPolyline
 62
7
  6
CONTINUOUS
 90
9
 70
0
 10
-6.1034811518
 20
23.5438469828
 10
-6.1175700047
 20
23.5304341512
 10
-6.1344249859
 20
23.5107482366
 10
-6.1488960038
 20
23.4892334834
 10
-6.1608079978
 20
23.4661654222
 10
-6.1700798825
 20
23.441656945
 10
-6.1765525596
 20
23.4159682393
 10
-6.1800813632
 20
23.389549347
 10
-6.1807742164
 20
23.371275384
  0
LWPOLYLINE
  5
26C
100
AcDbEntity
  8
ASSI
100
AcDbPolyline
 62
250
  6
CONTINUOUS
 90
13
 70
0
 10
-5.9418251649
 20
23.5580023903
 10
-5.9566140743
 20
23.5441484904
 10
-5.9711220257
 20
23.5278129391
 10
-5.985106262
 20
23.5092690741
 10
-5.9983327893
 20
23.4888271842
 10
-6.0105802923
 20
23.4668293171
 10
-6.0216438372
 20
23.4436435564
 10
-6.0313383014
 20
23.4196578621
 10
-6.0395014702
 20
23.3952735794
 10
-6.0459967519
 20
23.370898723
 10
-6.050715463
 20
23.3469411498
 10
-6.0535786467
 20
23.3238017343
 10
-6.0545383943
 20
23.3018676613
  0
LWPOLYLINE
  5
26D
100
AcDbEntity
  8
ASSI
100
AcDbPolyline
 62
250
  6
CONTINUOUS
 90
31
 70
0
 10
-2.2547345564
 20
26.1531545371
 10
-2.2476126228
 20
26.1595241727
 10
-2.2417950848
 20
26.1661445258
 10
-2.2372819427
 20
26.1730155965
 10
-2.234048535
 20
26.1802203659
 10
-2.232119523
 20
26.1876758528
 10
-2.2315688903
 20
26.1951331139
 10
-2.2324450539
 20
26.2025886151
 10
-2.2346995968
 20
26.2100458904
 10
-2.2382612517
 20
26.2172665984
 10
-2.2431726042
 20
26.2242430907
 10
-2.2493910688
 20
26.2309830158
 10
-2.256717621
 20
26.2372709774
 10
-2.2651879139
 20
26.2430924087
 10
-2.2747662944
 20
26.2484618765
 10
-2.285146779
 20
26.2532076859
 10
-2.2963553341
 20
26.2573096853
 10
-2.3083659933
 20
26.2607880263
 10
-2.3207948733
 20
26.2635314684
 10
-2.3336555073
 20
26.2655163307
 10
-2.3469343622
 20
26.2667662941
 10
-2.3602069548
 20
26.2672411607
 10
-2.3734730713
 20
26.2669157932
 10
-2.3867329255
 20
26.2658153289
 10
-2.3995626772
 20
26.263974982
 10
-2.4119494175
 20
26.2613704208
 10
-2.4239060552
 20
26.2580259771
 10
-2.4350474758
 20
26.2540498597
 10
-2.4452453079
 20
26.2494781383
 10
-2.454627923
 20
26.2442747432
 10
-2.463195321
 20
26.2384396745
  0
LWPOLYLINE
  5
26E
100
AcDbEntity
  8
ASSI
100
AcDbPolyline
 62
250
  6
CONTINUOUS
 90
7
 70
0
 10
-2.0525192933
 20
25.8694891563
 10
-2.0316319857
 20
25.8881490414
 10
-2.0143349015
 20
25.9079233533
 10
-2.000813165
 20
25.9285966212
 10
-1.9912114981
 20
25.9499422379
 10
-1.9856297156
 20
25.9717302692
 10
-1.9841122491
 20
25.9931266321
  0
LINE
  5
26F
100
AcDbEntity
  8
ASSI
100
AcDbLine
 62
250
  6
CONTINUOUS
 10
-3.19169827
 20
22.6703351657
 11
-2.6658638267
 21
23.104041473
  0
LINE
  5
270
100
AcDbEntity
  8
ASSI
100
AcDbLine
 62
250
  6
CONTINUOUS
 10
-2.9869414492
 20
22.3833433895
 11
-2.4574445864
 21
22.8200704468
  0
LINE
  5
271
100
AcDbEntity
  8
ASSI
100
AcDbLine
 62
7
  6
CONTINUOUS
 10
0.621715694
 20
25.9257989429
 11
-0.2553452185
 21
25.2073527034
  0
LINE
  5
272
100
AcDbEntity
  8
RACCORDO
100
AcDbLine
 62
7
  6
CONTINUOUS
 10
-1.1160526322
 20
24.4036367905
 11
-1.0684002468
 21
24.4426713394
  0
LINE
  5
273
100
AcDbEntity
  8
0
100
AcDbLine
 62
7
  6
CONTINUOUS
 10
-1.1160526322
 20
24.4036367905
 11
-1.0684002468
 21
24.4426713394
  0
LINE
  5
274
100
AcDbEntity
  8
RACCORDO
100
AcDbLine
 62
250
  6
CONTINUOUS
 10
-0.9952289446
 20
24.4079050605
 11
-0.941662792
 21
24.4517838839
  0
LINE
  5
275
100
AcDbEntity
  8
0
100
AcDbLine
 62
250
  6
CONTINUOUS
 10
-0.9952289446
 20
24.4079050605
 11
-0.941662792
 21
24.4517838839
  0
LINE
  5
276
100
AcDbEntity
  8
ASSI
100
AcDbLine
 62
250
  6
CONTINUOUS
 10
-3.3701126725
 20
22.5251446755
 11
-3.19169827
 21
22.6703351657
  0
LINE
  5
277
100
AcDbEntity
  8
ASSI
100
AcDbLine
 62
250
  6
CONTINUOUS
 10
-3.1653558516
 20
22.2381528992
 11
-2.9869414492
 21
22.3833433895
  0
LINE
  5
278
100
AcDbEntity
  8
RACCORDO
100
AcDbLine
 62
250
  6
CONTINUOUS
 10
-1.0684002468
 20
24.4426713394
 11
-1.0671133861
 21
24.4437033227
  0
LINE
  5
279
100
AcDbEntity
  8
0
100
AcDbLine
 62
250
  6
CONTINUOUS
 10
-1.0684002468
 20
24.4426713394
 11
-1.0671133861
 21
24.4437033227
  0
LWPOLYLINE
  5
27A
100
AcDbEntity
  8
RACCORDO
100
AcDbPolyline
 62
250
  6
CONTINUOUS
 90
55
 70
0
 10
-0.941662792
 20
24.4517838839
 10
-0.9288139546
 20
24.4620151261
 10
-0.915515234
 20
24.472032494
 10
-0.9017666301
 20
24.4818359875
 10
-0.8875567988
 20
24.4914328174
 10
-0.8728970841
 20
24.500815773
 10
-0.8578215187
 20
24.5099632219
 10
-0.8423293753
 20
24.5188743654
 10
-0.826421381
 20
24.5275500023
 10
-0.8101337493
 20
24.5359708972
 10
-0.7934656824
 20
24.5441363813
 10
-0.776417978
 20
24.5520471232
 10
-0.7590292428
 20
24.5596858936
 10
-0.7412987819
 20
24.5670520108
 10
-0.7232272903
 20
24.5741461563
 10
-0.7048554596
 20
24.5809531451
 10
-0.6861826159
 20
24.5874723015
 10
-0.6672094331
 20
24.5937043013
 10
-0.6479786239
 20
24.5996359861
 10
-0.6284897282
 20
24.6052666242
 10
-0.608743206
 20
24.6105969474
 10
-0.5887831498
 20
24.6156159928
 10
-0.5686091755
 20
24.6203230314
 10
-0.5482216673
 20
24.6247187922
 10
-0.5276658698
 20
24.6287944994
 10
-0.5069415696
 20
24.6325494108
 10
-0.4860489803
 20
24.6359842686
 10
-0.465033987
 20
24.6390925234
 10
-0.4438964195
 20
24.6418734479
 10
-0.422636448
 20
24.6443277695
 10
-0.4013004693
 20
24.6464511215
 10
-0.3798884777
 20
24.6482427772
 10
-0.3584004788
 20
24.6497034634
 10
-0.3368828864
 20
24.650830993
 10
-0.3153357268
 20
24.6516246558
 10
-0.2937589736
 20
24.6520851621
 10
-0.272198962
 20
24.6522124554
 10
-0.2506558811
 20
24.6520058399
 10
-0.2291295417
 20
24.6514660114
 10
-0.207665712
 20
24.6505950005
 10
-0.1862646672
 20
24.6493921396
 10
-0.1649261322
 20
24.6478580962
 10
-0.1436950496
 20
24.6459969038
 10
-0.1225717713
 20
24.6438079239
 10
-0.1015559455
 20
24.641291795
 10
-0.0806914597
 20
24.6384544657
 10
-0.0599785991
 20
24.6352953006
 10
-0.0394170783
 20
24.6318149351
 10
-0.0190499288
 20
24.6280212239
 10
0.0011225302
 20
24.6239135083
 10
0.0211006179
 20
24.619492447
 10
0.0408422617
 20
24.6147678712
 10
0.0603334371
 20
24.609743058
 10
0.0795881686
 20
24.6044147303
 10
0.0986064559
 20
24.5987828881
  0
LWPOLYLINE
  5
27B
100
AcDbEntity
  8
0
100
AcDbPolyline
 62
250
  6
CONTINUOUS
 90
55
 70
0
 10
-0.941662792
 20
24.4517838839
 10
-0.9288139546
 20
24.4620151261
 10
-0.915515234
 20
24.472032494
 10
-0.9017666301
 20
24.4818359875
 10
-0.8875567988
 20
24.4914328174
 10
-0.8728970841
 20
24.500815773
 10
-0.8578215187
 20
24.5099632219
 10
-0.8423293753
 20
24.5188743654
 10
-0.826421381
 20
24.5275500023
 10
-0.8101337493
 20
24.5359708972
 10
-0.7934656824
 20
24.5441363813
 10
-0.776417978
 20
24.5520471232
 10
-0.7590292428
 20
24.5596858936
 10
-0.7412987819
 20
24.5670520108
 10
-0.7232272903
 20
24.5741461563
 10
-0.7048554596
 20
24.5809531451
 10
-0.6861826159
 20
24.5874723015
 10
-0.6672094331
 20
24.5937043013
 10
-0.6479786239
 20
24.5996359861
 10
-0.6284897282
 20
24.6052666242
 10
-0.608743206
 20
24.6105969474
 10
-0.5887831498
 20
24.6156159928
 10
-0.5686091755
 20
24.6203230314
 10
-0.5482216673
 20
24.6247187922
 10
-0.5276658698
 20
24.6287944994
 10
-0.5069415696
 20
24.6325494108
 10
-0.4860489803
 20
24.6359842686
 10
-0.465033987
 20
24.6390925234
 10
-0.4438964195
 20
24.6418734479
 10
-0.422636448
 20
24.6443277695
 10
-0.4013004693
 20
24.6464511215
 10
-0.3798884777
 20
24.6482427772
 10
-0.3584004788
 20
24.6497034634
 10
-0.3368828864
 20
24.650830993
 10
-0.3153357268
 20
24.6516246558
 10
-0.2937589736
 20
24.6520851621
 10
-0.272198962
 20
24.6522124554
 10
-0.2506558811
 20
24.6520058399
 10
-0.2291295417
 20
24.6514660114
 10
-0.207665712
 20
24.6505950005
 10
-0.1862646672
 20
24.6493921396
 10
-0.1649261322
 20
24.6478580962
 10
-0.1436950496
 20
24.6459969038
 10
-0.1225717713
 20
24.6438079239
 10
-0.1015559455
 20
24.641291795
 10
-0.0806914597
 20
24.6384544657
 10
-0.0599785991
 20
24.6352953006
 10
-0.0394170783
 20
24.6318149351
 10
-0.0190499288
 20
24.6280212239
 10
0.0011225302
 20
24.6239135083
 10
0.0211006179
 20
24.619492447
 10
0.0408422617
 20
24.6147678712
 10
0.0603334371
 20
24.609743058
 10
0.0795881686
 20
24.6044147303
 10
0.0986064559
 20
24.5987828881
  0
LINE
  5
27C
100
AcDbEntity
  8
ASSI
100
AcDbLine
 62
250
  6
CONTINUOUS
 10
1.3081937679
 20
27.1094056176
 11
-0.5031259106
 21
25.6717548323
  0
LINE
  5
27D
100
AcDbEntity
  8
ASSI
100
AcDbLine
 62
250
  6
CONTINUOUS
 10
1.4699971668
 20
26.8810314418
 11
-0.2539761905
 21
25.5127077381
  0
LINE
  5
27E
100
AcDbEntity
  8
ASSI
100
AcDbLine
 62
7
  6
CONTINUOUS
 10
-1.1406925382
 20
25.4470140844
 11
-2.0337040204
 21
24.7384599101
  0
LWPOLYLINE
  5
27F
100
AcDbEntity
  8
RACCORDO
100
AcDbPolyline
 62
7
  6
CONTINUOUS
 90
25
 70
0
 10
-1.1160610092
 20
24.4036299285
 10
-1.1140543041
 20
24.4052133431
 10
-1.1104368238
 20
24.4077872258
 10
-1.1066339074
 20
24.4101520929
 10
-1.1026512416
 20
24.4123039637
 10
-1.0984948906
 20
24.4142390572
 10
-1.0941693695
 20
24.4159553793
 10
-1.0896810569
 20
24.4174499058
 10
-1.0850366958
 20
24.4187198193
 10
-1.0802416771
 20
24.4197639367
 10
-1.075302996
 20
24.420580238
 10
-1.0702279921
 20
24.4211669138
 10
-1.0650228597
 20
24.4215236182
 10
-1.0596951293
 20
24.4216493696
 10
-1.0542526412
 20
24.4215433961
 10
-1.0487022926
 20
24.4212061979
 10
-1.043052051
 20
24.4206378493
 10
-1.0373101611
 20
24.4198386279
 10
-1.0314841226
 20
24.4188098681
 10
-1.0255822433
 20
24.417552703
 10
-1.0196130641
 20
24.4160684571
 10
-1.0135845655
 20
24.4143592681
 10
-1.0075051689
 20
24.4124273551
 10
-1.0013837269
 20
24.4102750259
 10
-0.9952289446
 20
24.4079050605
  0
LWPOLYLINE
  5
280
100
AcDbEntity
  8
0
100
AcDbPolyline
 62
7
  6
CONTINUOUS
 90
25
 70
0
 10
-1.1160610092
 20
24.4036299285
 10
-1.1140543041
 20
24.4052133431
 10
-1.1104368238
 20
24.4077872258
 10
-1.1066339074
 20
24.4101520929
 10
-1.1026512416
 20
24.4123039637
 10
-1.0984948906
 20
24.4142390572
 10
-1.0941693695
 20
24.4159553793
 10
-1.0896810569
 20
24.4174499058
 10
-1.0850366958
 20
24.4187198193
 10
-1.0802416771
 20
24.4197639367
 10
-1.075302996
 20
24.420580238
 10
-1.0702279921
 20
24.4211669138
 10
-1.0650228597
 20
24.4215236182
 10
-1.0596951293
 20
24.4216493696
 10
-1.0542526412
 20
24.4215433961
 10
-1.0487022926
 20
24.4212061979
 10
-1.043052051
 20
24.4206378493
 10
-1.0373101611
 20
24.4198386279
 10
-1.0314841226
 20
24.4188098681
 10
-1.0255822433
 20
24.417552703
 10
-1.0196130641
 20
24.4160684571
 10
-1.0135845655
 20
24.4143592681
 10
-1.0075051689
 20
24.4124273551
 10
-1.0013837269
 20
24.4102750259
 10
-0.9952289446
 20
24.4079050605
  0
LWPOLYLINE
  5
281
100
AcDbEntity
  8
RACCORDO
100
AcDbPolyline
 62
250
  6
CONTINUOUS
 90
21
 70
0
 10
-1.0671133861
 20
24.4437033227
 10
-1.0624512349
 20
24.4471470618
 10
-1.0575083802
 20
24.4503252729
 10
-1.0523450068
 20
24.4531944
 10
-1.0469709435
 20
24.4557489817
 10
-1.0413964202
 20
24.457984155
 10
-1.0356320484
 20
24.4598956652
 10
-1.0296888008
 20
24.4614798737
 10
-1.0235779907
 20
24.4627337649
 10
-1.0173112504
 20
24.4636549518
 10
-1.0109005091
 20
24.4642416811
 10
-1.0043579699
 20
24.4644928357
 10
-0.9976960869
 20
24.4644079376
 10
-0.9909275414
 20
24.4639871485
 10
-0.9840652177
 20
24.4632312694
 10
-0.9771221787
 20
24.462141739
 10
-0.9701116408
 20
24.4607206315
 10
-0.963046949
 20
24.4589706519
 10
-0.9559415513
 20
24.4568951315
 10
-0.9488089732
 20
24.4544980212
 10
-0.941662792
 20
24.4517838839
  0
LWPOLYLINE
  5
282
100
AcDbEntity
  8
0
100
AcDbPolyline
 62
250
  6
CONTINUOUS
 90
21
 70
0
 10
-1.0671133861
 20
24.4437033227
 10
-1.0624512349
 20
24.4471470618
 10
-1.0575083802
 20
24.4503252729
 10
-1.0523450068
 20
24.4531944
 10
-1.0469709435
 20
24.4557489817
 10
-1.0413964202
 20
24.457984155
 10
-1.0356320484
 20
24.4598956652
 10
-1.0296888008
 20
24.4614798737
 10
-1.0235779907
 20
24.4627337649
 10
-1.0173112504
 20
24.4636549518
 10
-1.0109005091
 20
24.4642416811
 10
-1.0043579699
 20
24.4644928357
 10
-0.9976960869
 20
24.4644079376
 10
-0.9909275414
 20
24.4639871485
 10
-0.9840652177
 20
24.4632312694
 10
-0.9771221787
 20
24.462141739
 10
-0.9701116408
 20
24.4607206315
 10
-0.963046949
 20
24.4589706519
 10
-0.9559415513
 20
24.4568951315
 10
-0.9488089732
 20
24.4544980212
 10
-0.941662792
 20
24.4517838839
  0
LWPOLYLINE
  5
283
100
AcDbEntity
  8
ASSI
100
AcDbPolyline
 62
250
  6
CONTINUOUS
 90
13
 70
0
 10
-3.1653558516
 20
22.2381528992
 10
-3.1818842956
 20
22.2267371701
 10
-3.2008435803
 20
22.2166407079
 10
-3.2219164658
 20
22.2080324535
 10
-3.2447503461
 20
22.2010564462
 10
-3.2689631491
 20
22.1958294133
 10
-3.2941497293
 20
22.1924388172
 10
-3.3198886477
 20
22.1909413916
 10
-3.3457492227
 20
22.1913621925
 10
-3.3712987375
 20
22.1936941788
 10
-3.39610968
 20
22.1978983301
 10
-3.4197668964
 20
22.2039042996
 10
-3.4418745378
 20
22.2116115912
  0
LWPOLYLINE
  5
284
100
AcDbEntity
  8
ASSI
100
AcDbPolyline
 62
7
  6
CONTINUOUS
 90
3
 70
0
 10
-1.627011352
 20
21.9704186339
 10
-1.6163300766
 20
21.9776636817
 10
-1.5961916633
 20
21.9872365384
  0
LWPOLYLINE
  5
285
100
AcDbEntity
  8
RACCORDO
100
AcDbPolyline
 62
250
  6
CONTINUOUS
 90
23
 70
0
 10
4.4191767832
 20
25.394840078
 10
4.4340060104
 20
25.4040011295
 10
4.4494180915
 20
25.412907983
 10
4.464753513
 20
25.4211536669
 10
4.4800008867
 20
25.428732058
 10
4.4951488898
 20
25.4356375286
 10
4.5101862735
 20
25.4418649505
 10
4.5251018707
 20
25.4474096994
 10
4.5398846052
 20
25.4522676575
 10
4.5545234991
 20
25.4564352174
 10
4.5690076816
 20
25.4599092843
 10
4.5833263966
 20
25.4626872781
 10
4.597469011
 20
25.4647671361
 10
4.6114250224
 20
25.4661473137
 10
4.6251840669
 20
25.466826786
 10
4.6387359271
 20
25.4668050483
 10
4.6520705392
 20
25.4660821168
 10
4.6651780009
 20
25.4646585285
 10
4.6780485785
 20
25.4625353403
 10
4.6906727142
 20
25.4597141291
 10
4.7030410334
 20
25.4561969899
 10
4.7151443511
 20
25.4519865345
 10
4.7188758044
 20
25.4505270801
  0
LWPOLYLINE
  5
286
100
AcDbEntity
  8
0
100
AcDbPolyline
 62
250
  6
CONTINUOUS
 90
23
 70
0
 10
4.4191767832
 20
25.394840078
 10
4.4340060104
 20
25.4040011295
 10
4.4494180915
 20
25.412907983
 10
4.464753513
 20
25.4211536669
 10
4.4800008867
 20
25.428732058
 10
4.4951488898
 20
25.4356375286
 10
4.5101862735
 20
25.4418649505
 10
4.5251018707
 20
25.4474096994
 10
4.5398846052
 20
25.4522676575
 10
4.5545234991
 20
25.4564352174
 10
4.5690076816
 20
25.4599092843
 10
4.5833263966
 20
25.4626872781
 10
4.597469011
 20
25.4647671361
 10
4.6114250224
 20
25.4661473137
 10
4.6251840669
 20
25.466826786
 10
4.6387359271
 20
25.4668050483
 10
4.6520705392
 20
25.4660821168
 10
4.6651780009
 20
25.4646585285
 10
4.6780485785
 20
25.4625353403
 10
4.6906727142
 20
25.4597141291
 10
4.7030410334
 20
25.4561969899
 10
4.7151443511
 20
25.4519865345
 10
4.7188758044
 20
25.4505270801
  0
LWPOLYLINE
  5
287
100
AcDbEntity
  8
ASSI
100
AcDbPolyline
 62
7
  6
CONTINUOUS
 90
4
 70
0
 10
3.960711423
 20
23.6564600602
 10
3.9250343832
 20
23.637559636
 10
3.8926103704
 20
23.6155097184
 10
3.8876843605
 20
23.6116658945
  0
LWPOLYLINE
  5
288
100
AcDbEntity
  8
ASSI
100
AcDbPolyline
 62
7
  6
CONTINUOUS
 90
3
 70
0
 10
6.6972378304
 20
25.0442921258
 10
6.6462497681
 20
25.0191010423
 10
6.5948327515
 20
24.9877108822
  0
LWPOLYLINE
  5
289
100
AcDbEntity
  8
RACCORDO
100
AcDbPolyline
 62
7
  6
CONTINUOUS
 90
8
 70
0
 10
10.4383226893
 20
24.7801358726
 10
10.2897930922
 20
24.7208489912
 10
10.1461099411
 20
24.657326347
 10
10.0075924675
 20
24.5896768752
 10
9.8745091309
 20
24.5179907257
 10
9.7472182548
 20
24.4424143893
 10
9.6261352967
 20
24.3631567066
 10
9.5809958449
 20
24.3305454609
  0
LWPOLYLINE
  5
28A
100
AcDbEntity
  8
RACCORDO
100
AcDbPolyline
 62
250
  6
CONTINUOUS
 90
9
 70
0
 10
10.4383226893
 20
24.7801358726
 10
10.4197488524
 20
24.7730543446
 10
10.2713719435
 20
24.713018031
 10
10.1283408438
 20
24.6488551196
 10
9.991004313
 20
24.5807220652
 10
9.8596971169
 20
24.5087849789
 10
9.7347390135
 20
24.4332190759
 10
9.6164342532
 20
24.354208349
 10
9.5816231064
 20
24.328493639
  0
LINE
  5
28B
100
AcDbEntity
  8
0
100
AcDbLine
 62
7
  6
CONTINUOUS
 10
10.4383226893
 20
24.7801358726
 11
11.0577729929
 21
25.0147598521
  0
LINE
  5
28C
100
AcDbEntity
  8
RACCORDO
100
AcDbLine
 62
7
  6
CONTINUOUS
 10
11.1746357376
 20
25.0565022709
 11
11.0577729929
 21
25.0147598521
  0
LINE
  5
28D
100
AcDbEntity
  8
ASSI
100
AcDbLine
 62
250
  6
CONTINUOUS
 10
6.7867845207
 20
-19.9484601811
 11
6.3513918557
 21
-19.9505241133
  0
LINE
  5
28E
100
AcDbEntity
  8
ASSI
100
AcDbLine
 62
250
  6
CONTINUOUS
 10
6.6783755874
 20
-19.6954460855
 11
6.3513918557
 21
-19.6969961168
  0
LWPOLYLINE
  5
28F
100
AcDbEntity
  8
ASSI
100
AcDbPolyline
 62
7
  6
CONTINUOUS
 90
11
 70
0
 10
5.3602024495
 20
-20.3978296072
 10
5.3873900457
 20
-20.4021252969
 10
5.4155442896
 20
-20.4062939893
 10
5.4441573746
 20
-20.4101852331
 10
5.4724919114
 20
-20.4136999966
 10
5.5002193688
 20
-20.4164762766
 10
5.5269552226
 20
-20.4183496311
 10
5.551958991
 20
-20.4194904772
 10
5.5748500392
 20
-20.4197913339
 10
5.5955750892
 20
-20.4188696426
 10
5.6139834127
 20
-20.4165078192
  0
LINE
  5
290
100
AcDbEntity
  8
ASSI
100
AcDbLine
 62
7
  6
CONTINUOUS
 10
5.3098277569
 20
-20.3896601334
 11
5.3602024495
 21
-20.3978296072
  0
LWPOLYLINE
  5
291
100
AcDbEntity
  8
ASSI
100
AcDbPolyline
 62
7
  6
CONTINUOUS
 90
10
 70
0
 10
4.770765811
 20
-21.8643272309
 10
4.7957329153
 20
-21.8726514886
 10
4.8226056483
 20
-21.8779601063
 10
4.8506511204
 20
-21.8797677832
 10
4.8791650867
 20
-21.8778213442
 10
4.9071628449
 20
-21.8721331084
 10
4.9342792855
 20
-21.8628161545
 10
4.9598837481
 20
-21.8501763336
 10
4.9830488429
 20
-21.8349914976
 10
4.9858165019
 20
-21.8329055949
  0
LWPOLYLINE
  5
292
100
AcDbEntity
  8
RACCORDO
100
AcDbPolyline
 62
250
  6
CONTINUOUS
 90
14
 70
0
 10
0.4153073886
 20
-23.1416554404
 10
0.397459572
 20
-23.1346054307
 10
0.362399087
 20
-23.1158552371
 10
0.329799055
 20
-23.0915039148
 10
0.2998539544
 20
-23.0616880934
 10
0.2727055653
 20
-23.026558366
 10
0.2484762434
 20
-22.9862909168
 10
0.2273115501
 20
-22.94110188
 10
0.20931356
 20
-22.891225919
 10
0.1945587664
 20
-22.8369119063
 10
0.1831339324
 20
-22.77843085
 10
0.1750990272
 20
-22.7160760696
 10
0.1704847274
 20
-22.6501648977
 10
0.1693120794
 20
-22.5810319389
  0
LWPOLYLINE
  5
293
100
AcDbEntity
  8
RACCORDO
100
AcDbPolyline
 62
250
  6
CONTINUOUS
 90
31
 70
0
 10
-16.8601922433
 20
-15.7415990621
 10
-16.3339063816
 20
-15.9821352711
 10
-15.8060181416
 20
-16.2213505785
 10
-15.2765394141
 20
-16.4592423251
 10
-14.7456073951
 20
-16.6957523368
 10
-14.2131094312
 20
-16.9309340669
 10
-13.6786789134
 20
-17.164949816
 10
-13.1421478704
 20
-17.3978707276
 10
-12.6036996839
 20
-17.6296147792
 10
-12.0634925954
 20
-17.8601130467
 10
-11.5215746171
 20
-18.0893453626
 10
-10.9779175393
 20
-18.3173239987
 10
-10.4325670774
 20
-18.5440299531
 10
-9.8854602829
 20
-18.7694893726
 10
-9.3366798497
 20
-18.9936681849
 10
-8.7864926765
 20
-19.2164590536
 10
-8.2352650108
 20
-19.4377185632
 10
-7.6826577973
 20
-19.6575878216
 10
-7.1278750719
 20
-19.876382587
 10
-6.5719719705
 20
-20.0936872102
 10
-6.0139104517
 20
-20.30990752
 10
-5.4497124162
 20
-20.5265587669
 10
-4.8803075655
 20
-20.7432431309
 10
-4.3047130934
 20
-20.9602926637
 10
-3.7159865729
 20
-21.1802413039
 10
-3.1138407753
 20
-21.4030761692
 10
-2.4983803941
 20
-21.628635091
 10
-1.8631316138
 20
-21.8591294286
 10
-1.2058090118
 20
-22.0951788495
 10
-0.5283797065
 20
-22.3358636565
 10
0.1693120943
 20
-22.5810319237
  0
LWPOLYLINE
  5
294
100
AcDbEntity
  8
RACCORDO
100
AcDbPolyline
 62
250
  6
CONTINUOUS
 90
13
 70
0
 10
-16.8601922386
 20
-15.7415990559
 10
-16.8587927876
 20
-15.8108231085
 10
-16.853808527
 20
-15.8768828674
 10
-16.8452688633
 20
-15.9394403711
 10
-16.8332303317
 20
-15.9981679011
 10
-16.8177535899
 20
-16.0527718626
 10
-16.7989004178
 20
-16.1029912825
 10
-16.7767751112
 20
-16.1485661225
 10
-16.7514961572
 20
-16.1892551272
 10
-16.7231712093
 20
-16.2248573867
 10
-16.6919582582
 20
-16.2551824051
 10
-16.6580247975
 20
-16.2800692623
 10
-16.6255308974
 20
-16.2976054801
  0
LWPOLYLINE
  5
295
100
AcDbEntity
  8
RACCORDO
100
AcDbPolyline
 62
7
  6
CONTINUOUS
 90
14
 70
0
 10
-17.0464093496
 20
-15.5183920756
 10
-17.0463221638
 20
-15.547085195
 10
-17.0416264903
 20
-15.6400067629
 10
-17.0303207841
 20
-15.7277423512
 10
-17.0125798192
 20
-15.810503187
 10
-16.9885078324
 20
-15.8884447542
 10
-16.9582536977
 20
-15.9613716382
 10
-16.9220262555
 20
-16.0290836899
 10
-16.8800257268
 20
-16.091401179
 10
-16.8327328045
 20
-16.1477911882
 10
-16.7807285934
 20
-16.1978405103
 10
-16.7245970378
 20
-16.2412928968
 10
-16.6652009511
 20
-16.277803525
 10
-16.6249243247
 20
-16.2978817149
  0
LWPOLYLINE
  5
296
100
AcDbEntity
  8
RACCORDO
100
AcDbPolyline
 62
7
  6
CONTINUOUS
 90
10
 70
0
 10
-15.796160032
 20
19.5765821007
 10
-16.029171624
 20
15.656648019
 10
-16.2420956844
 20
11.6853008741
 10
-16.4305702523
 20
7.7323210121
 10
-16.5945620945
 20
3.7981278819
 10
-16.7340551763
 20
-0.1169376687
 10
-16.8490377845
 20
-4.0125641098
 10
-16.9395006207
 20
-7.8884159642
 10
-17.0054468159
 20
-11.7441024785
 10
-17.0464154457
 20
-15.51836824
  0
LWPOLYLINE
  5
297
100
AcDbEntity
  8
RACCORDO
100
AcDbPolyline
 62
250
  6
CONTINUOUS
 90
10
 70
0
 10
-15.60960855
 20
19.3620842455
 10
-15.8485918429
 20
15.38845889
 10
-16.0626250335
 20
11.4321609934
 10
-16.2516775783
 20
7.4935579715
 10
-16.4157290539
 20
3.5728386436
 10
-16.5547500298
 20
-0.3294580727
 10
-16.6687090311
 20
-4.2124485953
 10
-16.7575976529
 20
-8.0756096565
 10
-16.8214236165
 20
-11.9187733855
 10
-16.8601922433
 20
-15.7415990621
  0
LWPOLYLINE
  5
298
100
AcDbEntity
  8
RACCORDO
100
AcDbPolyline
 62
7
  6
CONTINUOUS
 90
5
 70
0
 10
-1.125887578
 20
24.3937721068
 10
-1.1237517406
 20
24.3962731229
 10
-1.120716885
 20
24.3994515098
 10
-1.1174827625
 20
24.4024332086
 10
-1.1160610092
 20
24.4036299285
  0
LWPOLYLINE
  5
299
100
AcDbEntity
  8
0
100
AcDbPolyline
 62
7
  6
CONTINUOUS
 90
5
 70
0
 10
-1.125887578
 20
24.3937721068
 10
-1.1237517406
 20
24.3962731229
 10
-1.120716885
 20
24.3994515098
 10
-1.1174827625
 20
24.4024332086
 10
-1.1160610092
 20
24.4036299285
  0
LWPOLYLINE
  5
29A
100
AcDbEntity
  8
ASSI
100
AcDbPolyline
 62
7
  6
CONTINUOUS
 90
9
 70
0
 10
-1.802970997
 20
21.8166175602
 10
-1.8172561933
 20
21.8029927222
 10
-1.8335365434
 20
21.7839975741
 10
-1.8476842244
 20
21.7631506954
 10
-1.8594794244
 20
21.740699139
 10
-1.8687801227
 20
21.7168090263
 10
-1.8754237353
 20
21.6916936773
 10
-1.8792445062
 20
21.6657983673
 10
-1.8802256101
 20
21.6441050343
  0
LWPOLYLINE
  5
29B
100
AcDbEntity
  8
ASSI
100
AcDbPolyline
 62
250
  6
CONTINUOUS
 90
6
 70
0
 10
1.9322870241
 20
26.5905333715
 10
1.9458583723
 20
26.6033365022
 10
1.9563951589
 20
26.616997352
 10
1.9637170151
 20
26.631282222
 10
1.9676985692
 20
26.64594673
 10
1.9684552241
 20
26.6566893256
  0
LWPOLYLINE
  5
29C
100
AcDbEntity
  8
ASSI
100
AcDbPolyline
 62
250
  6
CONTINUOUS
 90
13
 70
0
 10
-3.3701126725
 20
22.5251446755
 10
-3.3849015917
 20
22.5112907654
 10
-3.3994095507
 20
22.4949552028
 10
-3.4133937922
 20
22.4764113267
 10
-3.4266203222
 20
22.4559694268
 10
-3.4388678256
 20
22.433971552
 10
-3.4499313686
 20
22.4107857871
 10
-3.4596258289
 20
22.3868000927
 10
-3.4677889928
 20
22.3624158142
 10
-3.4742842691
 20
22.338040966
 10
-3.4790029754
 20
22.3140834044
 10
-3.4818661556
 20
22.2909440034
 10
-3.482825902
 20
22.2690099465
  0
LINE
  5
29D
100
AcDbEntity
  8
ASSI
100
AcDbLine
 62
7
  6
CONTINUOUS
 10
-1.6328345671
 20
21.9656460996
 11
-1.8033048027
 21
21.8163264869
  0
LINE
  5
29E
100
AcDbEntity
  8
ASSI
100
AcDbLine
 62
250
  6
CONTINUOUS
 10
-1.4715413574
 20
21.9794813696
 11
-1.6412769324
 21
21.8308052666
  0
LINE
  5
29F
100
AcDbEntity
  8
ASSI
100
AcDbLine
 62
7
  6
CONTINUOUS
 10
-3.1653558516
 20
21.123577035
 11
-2.9869414492
 21
21.2774569395
  0
LINE
  5
2A0
100
AcDbEntity
  8
ASSI
100
AcDbLine
 62
7
  6
CONTINUOUS
 10
-2.9869414492
 20
21.2774569395
 11
-2.43788992
 21
21.7429459671
  0
LINE
  5
2A1
100
AcDbEntity
  8
ASSI
100
AcDbLine
 62
7
  6
CONTINUOUS
 10
-1.6327778699
 20
21.9656956428
 11
-1.627011352
 21
21.9704186339
  0
LINE
  5
2A2
100
AcDbEntity
  8
ASSI
100
AcDbLine
 62
7
  6
CONTINUOUS
 10
-1.0728876654
 20
22.3943997966
 11
-1.6269685171
 21
21.9704514085
  0
LINE
  5
2A3
100
AcDbEntity
  8
ASSI
100
AcDbLine
 62
250
  6
CONTINUOUS
 10
-0.918820232
 20
22.4023893792
 11
-1.4715413574
 21
21.9794813696
  0
LWPOLYLINE
  5
2A4
100
AcDbEntity
  8
RACCORDO
100
AcDbPolyline
 62
7
  6
CONTINUOUS
 90
81
 70
0
 10
10.64837397
 20
29.19492894
 10
5.8119706154
 20
25.49441451
 10
5.8104837378
 20
25.4933119778
 10
5.8085602534
 20
25.491934506
 10
5.806189711
 20
25.4902948279
 10
5.8033667901
 20
25.4884088214
 10
5.8000908273
 20
25.4862947204
 10
5.7963556661
 20
25.483966401
 10
5.7921555073
 20
25.4814375147
 10
5.7874905611
 20
25.4787247806
 10
5.7823578346
 20
25.475842425
 10
5.7767525986
 20
25.4728032586
 10
5.7706723357
 20
25.4696209
 10
5.7641151195
 20
25.4663088447
 10
5.7570778559
 20
25.4628797387
 10
5.7495552893
 20
25.4593449586
 10
5.7415458611
 20
25.4557173903
 10
5.7330481661
 20
25.4520096571
 10
5.7240561748
 20
25.448232318
 10
5.7145680106
 20
25.4443976392
 10
5.7045849678
 20
25.440518853
 10
5.6941053173
 20
25.4366077113
 10
5.6831271625
 20
25.4326759175
 10
5.6716552728
 20
25.4287373343
 10
5.6596988203
 20
25.4248067228
 10
5.6472608574
 20
25.4208962899
 10
5.6343463978
 20
25.417018709
 10
5.6209691657
 20
25.4131887227
 10
5.6071351715
 20
25.4094181541
 10
5.5928516206
 20
25.4057188416
 10
5.5781357244
 20
25.4021048131
 10
5.5629957462
 20
25.3985871614
 10
5.5474416396
 20
25.3951769138
 10
5.5314948107
 20
25.3918871183
 10
5.5151665272
 20
25.3887280574
 10
5.4984686355
 20
25.3857096145
 10
5.4814249672
 20
25.3828431737
 10
5.4640482192
 20
25.3801376871
 10
5.4463531767
 20
25.3776019767
 10
5.4283682389
 20
25.3752459856
 10
5.4101074098
 20
25.3730770262
 10
5.3915880881
 20
25.3711025156
 10
5.3728450676
 20
25.3693307772
 10
5.3538955604
 20
25.3677673907
 10
5.3347571453
 20
25.3664177096
 10
5.3154661976
 20
25.3652875777
 10
5.2960413845
 20
25.3643806354
 10
5.2765012075
 20
25.363700133
 10
5.2568824489
 20
25.3632492911
 10
5.2372044374
 20
25.3630297766
 10
5.2174863607
 20
25.3630427078
 10
5.1977650618
 20
25.3632886156
 10
5.1780599068
 20
25.3637671806
 10
5.1583903582
 20
25.3644774538
 10
5.1387932897
 20
25.3654171884
 10
5.1192874448
 20
25.3665840933
 10
5.0998921663
 20
25.3679752121
 10
5.0806447194
 20
25.3695854476
 10
5.0615630465
 20
25.3714104944
 10
5.0426654621
 20
25.3734454479
 10
5.0239888475
 20
25.3756824435
 10
5.0055505727
 20
25.3781150423
 10
4.9873665974
 20
25.3807365806
 10
4.9694703654
 20
25.3835369672
 10
4.9518793621
 20
25.3865075567
 10
4.934605593
 20
25.3896403507
 10
4.9176729246
 20
25.3929245694
 10
4.9010947885
 20
25.39635059
 10
4.8848832544
 20
25.3999087635
 10
4.869058845
 20
25.4035870878
 10
4.8536320403
 20
25.4073750938
 10
4.8386135236
 20
25.4112618173
 10
4.8240226445
 20
25.4152336252
 10
4.8098669744
 20
25.4192793584
 10
4.7961553583
 20
25.4233870178
 10
4.7829070791
 20
25.4275408275
 10
4.7701274805
 20
25.4317287276
 10
4.7578215141
 20
25.4359384015
 10
4.7460054081
 20
25.4401530135
 10
4.7346861202
 20
25.4443582899
 10
4.7238620379
 20
25.4485428378
  0
LWPOLYLINE
  5
2A5
100
AcDbEntity
  8
0
100
AcDbPolyline
 62
7
  6
CONTINUOUS
 90
81
 70
0
 10
10.64837397
 20
29.19492894
 10
5.8119706154
 20
25.49441451
 10
5.8104837378
 20
25.4933119778
 10
5.8085602534
 20
25.491934506
 10
5.806189711
 20
25.4902948279
 10
5.8033667901
 20
25.4884088214
 10
5.8000908273
 20
25.4862947204
 10
5.7963556661
 20
25.483966401
 10
5.7921555073
 20
25.4814375147
 10
5.7874905611
 20
25.4787247806
 10
5.7823578346
 20
25.475842425
 10
5.7767525987
 20
25.4728032586
 10
5.7706723357
 20
25.4696209001
 10
5.7641151195
 20
25.4663088447
 10
5.757077856
 20
25.4628797388
 10
5.7495552893
 20
25.4593449586
 10
5.7415458612
 20
25.4557173903
 10
5.7330481661
 20
25.4520096571
 10
5.7240561748
 20
25.448232318
 10
5.7145680107
 20
25.4443976392
 10
5.7045849678
 20
25.440518853
 10
5.6941053173
 20
25.4366077113
 10
5.6831271625
 20
25.4326759175
 10
5.6716552728
 20
25.4287373343
 10
5.6596988203
 20
25.4248067228
 10
5.6472608574
 20
25.4208962899
 10
5.6343463979
 20
25.417018709
 10
5.6209691657
 20
25.4131887227
 10
5.6071351715
 20
25.4094181541
 10
5.5928516206
 20
25.4057188416
 10
5.5781357244
 20
25.4021048131
 10
5.5629957462
 20
25.3985871615
 10
5.5474416396
 20
25.3951769138
 10
5.5314948107
 20
25.3918871183
 10
5.5151665272
 20
25.3887280574
 10
5.4984686355
 20
25.3857096145
 10
5.4814249672
 20
25.3828431737
 10
5.4640482192
 20
25.3801376871
 10
5.4463531767
 20
25.3776019767
 10
5.4283682389
 20
25.3752459856
 10
5.4101074098
 20
25.3730770262
 10
5.3915880881
 20
25.3711025156
 10
5.3728450676
 20
25.3693307772
 10
5.3538955604
 20
25.3677673907
 10
5.3347571453
 20
25.3664177096
 10
5.3154661976
 20
25.3652875777
 10
5.2960413845
 20
25.3643806354
 10
5.2765012075
 20
25.363700133
 10
5.2568824489
 20
25.3632492911
 10
5.2372044374
 20
25.3630297766
 10
5.2174863607
 20
25.3630427078
 10
5.1977650618
 20
25.3632886156
 10
5.1780599067
 20
25.3637671806
 10
5.1583903582
 20
25.3644774538
 10
5.1387932897
 20
25.3654171884
 10
5.1192874448
 20
25.3665840933
 10
5.0998921663
 20
25.3679752121
 10
5.0806447194
 20
25.3695854476
 10
5.0615630465
 20
25.3714104944
 10
5.0426654621
 20
25.3734454479
 10
5.0239888475
 20
25.3756824435
 10
5.0055505727
 20
25.3781150423
 10
4.9873665974
 20
25.3807365806
 10
4.9694703654
 20
25.3835369672
 10
4.9518793621
 20
25.3865075567
 10
4.934605593
 20
25.3896403507
 10
4.9176729245
 20
25.3929245694
 10
4.9010947885
 20
25.39635059
 10
4.8848832544
 20
25.3999087635
 10
4.869058845
 20
25.4035870878
 10
4.8536320403
 20
25.4073750938
 10
4.8386135236
 20
25.4112618173
 10
4.8240226445
 20
25.4152336252
 10
4.8098669744
 20
25.4192793584
 10
4.7961553582
 20
25.4233870178
 10
4.7829070791
 20
25.4275408275
 10
4.7701274805
 20
25.4317287276
 10
4.757821514
 20
25.4359384015
 10
4.7460054081
 20
25.4401530135
 10
4.7346861201
 20
25.4443582899
 10
4.7238620379
 20
25.4485428378
  0
LWPOLYLINE
  5
2A6
100
AcDbEntity
  8
RACCORDO
100
AcDbPolyline
 62
250
  6
CONTINUOUS
 90
52
 70
0
 10
6.4300879512
 20
25.5277843116
 10
6.4092220665
 20
25.5122013636
 10
6.3876817075
 20
25.4968898907
 10
6.3654668744
 20
25.4818498927
 10
6.3425618731
 20
25.4670682861
 10
6.3189823975
 20
25.4525581546
 10
6.2947755301
 20
25.4383587483
 10
6.2699394348
 20
25.4244718941
 10
6.2444759476
 20
25.4108957652
 10
6.2184376584
 20
25.3976641319
 10
6.191821981
 20
25.3847783031
 10
6.1646315017
 20
25.3722369699
 10
6.1369265685
 20
25.3600699749
 10
6.1087060807
 20
25.3482791831
 10
6.0799711391
 20
25.3368627296
 10
6.0507853948
 20
25.3258448627
 10
6.0211524799
 20
25.3152284717
 10
5.9910687623
 20
25.3050106672
 10
5.9605869974
 20
25.2952070293
 10
5.9297108372
 20
25.2858192356
 10
5.8984366296
 20
25.2768456085
 10
5.8668061738
 20
25.2682966945
 10
5.8348187219
 20
25.2601724772
 10
5.8024750218
 20
25.2524729731
 10
5.769819117
 20
25.2452087787
 10
5.7368476775
 20
25.2383796902
 10
5.7035640333
 20
25.2319859116
 10
5.6700222176
 20
25.2260386504
 10
5.6362201927
 20
25.2205384607
 10
5.6021599962
 20
25.2154847886
 10
5.5679017746
 20
25.2108871802
 10
5.5334452751
 20
25.2067466026
 10
5.4987907505
 20
25.2030620887
 10
5.4639991058
 20
25.1998402843
 10
5.4290700504
 20
25.1970821353
 10
5.394003875
 20
25.1947866958
 10
5.3588623562
 20
25.1929577732
 10
5.323645228
 20
25.191596329
 10
5.2883527564
 20
25.1907014017
 10
5.2530475168
 20
25.190273914
 10
5.2177313089
 20
25.190314714
 10
5.1824023329
 20
25.1908229536
 10
5.1471177646
 20
25.1917970115
 10
5.1118809132
 20
25.1932372133
 10
5.0766884696
 20
25.1951432335
 10
5.041587682
 20
25.197512474
 10
5.0065789126
 20
25.2003450595
 10
4.9716617993
 20
25.2036408653
 10
4.9368825044
 20
25.2073969205
 10
4.9022361705
 20
25.2116143083
 10
4.867727655
 20
25.2162919454
 10
4.8613797894
 20
25.2172413815
  0
LWPOLYLINE
  5
2A7
100
AcDbEntity
  8
0
100
AcDbPolyline
 62
250
  6
CONTINUOUS
 90
52
 70
0
 10
6.4300879512
 20
25.5277843116
 10
6.4092220665
 20
25.5122013636
 10
6.3876817075
 20
25.4968898907
 10
6.3654668744
 20
25.4818498927
 10
6.3425618731
 20
25.4670682861
 10
6.3189823975
 20
25.4525581546
 10
6.2947755301
 20
25.4383587483
 10
6.2699394348
 20
25.4244718941
 10
6.2444759476
 20
25.4108957652
 10
6.2184376584
 20
25.3976641319
 10
6.191821981
 20
25.3847783031
 10
6.1646315017
 20
25.3722369699
 10
6.1369265685
 20
25.3600699749
 10
6.1087060807
 20
25.3482791831
 10
6.0799711391
 20
25.3368627296
 10
6.0507853948
 20
25.3258448627
 10
6.0211524799
 20
25.3152284717
 10
5.9910687623
 20
25.3050106672
 10
5.9605869974
 20
25.2952070293
 10
5.9297108372
 20
25.2858192356
 10
5.8984366296
 20
25.2768456085
 10
5.8668061738
 20
25.2682966945
 10
5.8348187219
 20
25.2601724772
 10
5.8024750218
 20
25.2524729731
 10
5.769819117
 20
25.2452087787
 10
5.7368476775
 20
25.2383796902
 10
5.7035640333
 20
25.2319859116
 10
5.6700222176
 20
25.2260386504
 10
5.6362201927
 20
25.2205384607
 10
5.6021599962
 20
25.2154847886
 10
5.5679017746
 20
25.2108871802
 10
5.5334452751
 20
25.2067466026
 10
5.4987907505
 20
25.2030620887
 10
5.4639991058
 20
25.1998402843
 10
5.4290700504
 20
25.1970821353
 10
5.394003875
 20
25.1947866958
 10
5.3588623562
 20
25.1929577732
 10
5.323645228
 20
25.191596329
 10
5.2883527564
 20
25.1907014017
 10
5.2530475168
 20
25.190273914
 10
5.2177313089
 20
25.190314714
 10
5.1824023329
 20
25.1908229536
 10
5.1471177646
 20
25.1917970115
 10
5.1118809132
 20
25.1932372133
 10
5.0766884696
 20
25.1951432335
 10
5.041587682
 20
25.197512474
 10
5.0065789126
 20
25.2003450595
 10
4.9716617993
 20
25.2036408653
 10
4.9368825044
 20
25.2073969205
 10
4.9022361705
 20
25.2116143083
 10
4.867727655
 20
25.2162919454
 10
4.8613797894
 20
25.2172413815
  0
LWPOLYLINE
  5
2A8
100
AcDbEntity
  8
RACCORDO
100
AcDbPolyline
 62
7
  6
CONTINUOUS
 90
38
 70
0
 10
10.64837397
 20
29.19492894
 10
10.6701866846
 20
29.2111534091
 10
10.6924723069
 20
29.2268062114
 10
10.7152123883
 20
29.241869811
 10
10.7383951608
 20
29.2563319723
 10
10.7619933971
 20
29.2701718257
 10
10.7859632361
 20
29.2833619626
 10
10.8102078231
 20
29.295853018
 10
10.8347768103
 20
29.3076749078
 10
10.8598518873
 20
29.3189058581
 10
10.8855533765
 20
29.3295743186
 10
10.9117278607
 20
29.3395917727
 10
10.9381460574
 20
29.3488628388
 10
10.9647377204
 20
29.3573676387
 10
10.9915191633
 20
29.3651165708
 10
11.018383662
 20
29.3720859218
 10
11.045087914
 20
29.3782330427
 10
11.0718187606
 20
29.3836214614
 10
11.099119945
 20
29.3883479865
 10
11.1273201612
 20
29.3924176963
 10
11.1560415786
 20
29.3957243132
 10
11.1847701831
 20
29.3981938104
 10
11.2133707572
 20
29.3998260094
 10
11.2419208547
 20
29.4006370954
 10
11.270228716
 20
29.4006361297
 10
11.2979136219
 20
29.3998597283
 10
11.3253123465
 20
29.3983346168
 10
11.3532992349
 20
29.3959959332
 10
11.3824811783
 20
29.3927109766
 10
11.412156231
 20
29.3884755823
 10
11.4412464191
 20
29.3834365517
 10
11.4691710738
 20
29.3777605471
 10
11.4964972998
 20
29.3713966685
 10
11.5238813523
 20
29.3642000018
 10
11.5516260344
 20
29.3560531165
 10
11.5793503234
 20
29.3470300109
 10
11.6066782979
 20
29.3372479998
 10
11.6287308028
 20
29.3286926388
  0
LWPOLYLINE
  5
2A9
100
AcDbEntity
  8
0
100
AcDbPolyline
 62
7
  6
CONTINUOUS
 90
38
 70
0
 10
10.64837397
 20
29.19492894
 10
10.6701866846
 20
29.2111534091
 10
10.6924723069
 20
29.2268062114
 10
10.7152123883
 20
29.241869811
 10
10.7383951608
 20
29.2563319723
 10
10.7619933971
 20
29.2701718257
 10
10.7859632361
 20
29.2833619626
 10
10.8102078231
 20
29.295853018
 10
10.8347768103
 20
29.3076749078
 10
10.8598518873
 20
29.3189058581
 10
10.8855533765
 20
29.3295743186
 10
10.9117278607
 20
29.3395917727
 10
10.9381460574
 20
29.3488628388
 10
10.9647377204
 20
29.3573676387
 10
10.9915191633
 20
29.3651165708
 10
11.018383662
 20
29.3720859218
 10
11.045087914
 20
29.3782330427
 10
11.0718187606
 20
29.3836214614
 10
11.099119945
 20
29.3883479865
 10
11.1273201612
 20
29.3924176963
 10
11.1560415786
 20
29.3957243132
 10
11.1847701831
 20
29.3981938104
 10
11.2133707572
 20
29.3998260094
 10
11.2419208547
 20
29.4006370954
 10
11.270228716
 20
29.4006361297
 10
11.2979136219
 20
29.3998597283
 10
11.3253123465
 20
29.3983346168
 10
11.3532992349
 20
29.3959959332
 10
11.3824811783
 20
29.3927109766
 10
11.412156231
 20
29.3884755823
 10
11.4412464191
 20
29.3834365517
 10
11.4691710738
 20
29.3777605471
 10
11.4964972998
 20
29.3713966685
 10
11.5238813523
 20
29.3642000018
 10
11.5516260344
 20
29.3560531165
 10
11.5793503234
 20
29.3470300109
 10
11.6066782979
 20
29.3372479998
 10
11.6247019144
 20
29.3302556628
  0
LWPOLYLINE
  5
2AA
100
AcDbEntity
  8
RACCORDO
100
AcDbPolyline
 62
250
  6
CONTINUOUS
 90
3
 70
0
 10
10.6676940656
 20
29.20891995
 10
10.6526168334
 20
29.1981359538
 10
10.64837397
 20
29.19492894
  0
LWPOLYLINE
  5
2AB
100
AcDbEntity
  8
0
100
AcDbPolyline
 62
250
  6
CONTINUOUS
 90
3
 70
0
 10
10.6676940656
 20
29.20891995
 10
10.6526168334
 20
29.1981359538
 10
10.64837397
 20
29.19492894
  0
LWPOLYLINE
  5
2AC
100
AcDbEntity
  8
ASSI
100
AcDbPolyline
 62
250
  6
CONTINUOUS
 90
31
 70
0
 10
4.0457115509
 20
23.6227533402
 10
4.0540458081
 20
23.6286540892
 10
4.0632251252
 20
23.6339382426
 10
4.0732495021
 20
23.6386058005
 10
4.084248929
 20
23.6426964732
 10
4.0960934157
 20
23.6461705503
 10
4.1083929921
 20
23.6489089011
 10
4.1211586149
 20
23.6508851445
 10
4.1343793275
 20
23.6521256616
 10
4.1476322899
 20
23.6525904644
 10
4.160918614
 20
23.6522542966
 10
4.1742371879
 20
23.6511424146
 10
4.1871618359
 20
23.6492905997
 10
4.1996798023
 20
23.646674984
 10
4.2118038428
 20
23.6433194354
 10
4.2231460492
 20
23.6393313396
 10
4.2336810758
 20
23.6346902168
 10
4.2434342683
 20
23.6294165468
 10
4.2520937561
 20
23.6236791539
 10
4.25962426
 20
23.6174630889
 10
4.2660610592
 20
23.6107833012
 10
4.2711981212
 20
23.6038534638
 10
4.2749930935
 20
23.5966654927
 10
4.2774883286
 20
23.5892274718
 10
4.2786048513
 20
23.5817773261
 10
4.2782943884
 20
23.5743111739
 10
4.2766052131
 20
23.5668328968
 10
4.2736031707
 20
23.5595920643
 10
4.2693102097
 20
23.5526718662
 10
4.2637043815
 20
23.5459891126
 10
4.2567856862
 20
23.5395438036
  0
LWPOLYLINE
  5
2AD
100
AcDbEntity
  8
ASSI
100
AcDbPolyline
 62
250
  6
CONTINUOUS
 90
8
 70
0
 10
6.5408299926
 20
24.9482090903
 10
6.5518366579
 20
24.9557359047
 10
6.5680535818
 20
24.9632771144
 10
6.5858974164
 20
24.9679462466
 10
6.6050695309
 20
24.9696650621
 10
6.6252490963
 20
24.9684047363
 10
6.6460984758
 20
24.9641862978
 10
6.6672687815
 20
24.9570802734
  0
LWPOLYLINE
  5
2AE
100
AcDbEntity
  8
ASSI
100
AcDbPolyline
 62
250
  6
CONTINUOUS
 90
8
 70
0
 10
3.8876768598
 20
23.6116753145
 10
3.9020605143
 20
23.6214399978
 10
3.9222883154
 20
23.630705478
 10
3.944516478
 20
23.6364176473
 10
3.9683772289
 20
23.6384821454
 10
3.993475778
 20
23.6368649339
 10
4.0193968364
 20
23.6315928858
 10
4.0457115509
 20
23.6227533402
  0
LWPOLYLINE
  5
2AF
100
AcDbEntity
  8
ASSI
100
AcDbPolyline
 62
7
  6
CONTINUOUS
 90
5
 70
0
 10
4.1311450824
 20
20.6725756249
 10
4.1046247025
 20
20.6638525686
 10
4.0795131132
 20
20.6519574616
 10
4.0565691549
 20
20.6375191202
 10
4.0500878329
 20
20.6327332867
  0
LINE
  5
2B0
100
AcDbEntity
  8
ASSI
100
AcDbLine
 62
250
  6
CONTINUOUS
 10
6.7895492299
 20
-19.9488001359
 11
6.7867845207
 21
-19.9484601811
  0
LWPOLYLINE
  5
2B1
100
AcDbEntity
  8
ASSI
100
AcDbPolyline
 62
250
  6
CONTINUOUS
 90
3
 70
0
 10
6.6994440978
 20
-19.6993934745
 10
6.6922171481
 20
-19.697097041
 10
6.6783764455
 20
-19.6954464453
  0
LWPOLYLINE
  5
2B2
100
AcDbEntity
  8
ASSI
100
AcDbPolyline
 62
250
  6
CONTINUOUS
 90
13
 70
0
 10
4.7207091902
 20
-21.7498685466
 10
4.7428168316
 20
-21.7575758382
 10
4.7664740479
 20
-21.7635818077
 10
4.7912849904
 20
-21.767785959
 10
4.8168345053
 20
-21.7701179453
 10
4.8426950803
 20
-21.7705387462
 10
4.8684339986
 20
-21.7690413206
 10
4.8936205789
 20
-21.7656507245
 10
4.9178333818
 20
-21.7604236916
 10
4.9406672622
 20
-21.7534476843
 10
4.9617401477
 20
-21.7448394299
 10
4.9806994324
 20
-21.7347429676
 10
4.9972278763
 20
-21.7233272386
  0
LWPOLYLINE
  5
2B3
100
AcDbEntity
  8
ASSI
100
AcDbPolyline
 62
250
  6
CONTINUOUS
 90
13
 70
0
 10
4.7207091902
 20
-21.4497718228
 10
4.7428168497
 20
-21.4574791199
 10
4.766474083
 20
-21.4634850914
 10
4.7912850399
 20
-21.4676892418
 10
4.8168345659
 20
-21.4700212249
 10
4.8426951477
 20
-21.4704420212
 10
4.8684340677
 20
-21.4689445904
 10
4.8936206443
 20
-21.4655539895
 10
4.917833439
 20
-21.4603269532
 10
4.9406673072
 20
-21.4533509446
 10
4.9617401782
 20
-21.4447426919
 10
4.9806994472
 20
-21.4346462349
 10
4.9972278763
 20
-21.4232305148
  0
LINE
  5
2B4
100
AcDbEntity
  8
ASSI
100
AcDbLine
 62
7
  6
CONTINUOUS
 10
4.7711826908
 20
-21.8644971108
 11
3.5698611019
 21
-21.3820192776
  0
LINE
  5
2B5
100
AcDbEntity
  8
ASSI
100
AcDbLine
 62
250
  6
CONTINUOUS
 10
4.7207091902
 20
-21.7498685466
 11
3.65818456
 21
-21.323134701
  0
LINE
  5
2B6
100
AcDbEntity
  8
ASSI
100
AcDbLine
 62
250
  6
CONTINUOUS
 10
4.7207091902
 20
-21.4497718228
 11
3.9157466848
 21
-21.1264807331
  0
LINE
  5
2B7
100
AcDbEntity
  8
ASSI
100
AcDbLine
 62
250
  6
CONTINUOUS
 10
4.7927637035
 20
-21.2138329775
 11
3.9701177308
 21
-20.8834398087
  0
LINE
  5
2B8
100
AcDbEntity
  8
ASSI
100
AcDbLine
 62
7
  6
CONTINUOUS
 10
4.4261295436
 20
-20.0400823908
 11
5.268335055
 21
-20.3783311112
  0
LWPOLYLINE
  5
2B9
100
AcDbEntity
  8
ASSI
100
AcDbPolyline
 62
250
  6
CONTINUOUS
 90
16
 70
0
 10
4.7707706553
 20
-21.8643297255
 10
4.7679798859
 20
-21.8630927166
 10
4.7618021551
 20
-21.8596601459
 10
4.7559861497
 20
-21.8554208711
 10
4.7505579286
 20
-21.850393511
 10
4.7455317414
 20
-21.8445909035
 10
4.7409285665
 20
-21.8380358992
 10
4.7367653373
 20
-21.8307526432
 10
4.7330561545
 20
-21.8227659053
 10
4.7298146843
 20
-21.8141047127
 10
4.7270523288
 20
-21.8047995879
 10
4.7247788799
 20
-21.7948837394
 10
4.7230027033
 20
-21.7843941068
 10
4.721729909
 20
-21.7733687835
 10
4.72096459
 20
-21.761846569
 10
4.7207091902
 20
-21.7498685466
  0
LWPOLYLINE
  5
2BA
100
AcDbEntity
  8
ASSI
100
AcDbPolyline
 62
250
  6
CONTINUOUS
 90
13
 70
0
 10
4.7927637035
 20
-21.2138329775
 10
4.8143176687
 20
-21.2234961747
 10
4.8364774668
 20
-21.2346016045
 10
4.8588681325
 20
-21.2469613523
 10
4.8811107941
 20
-21.2603662792
 10
4.9028290844
 20
-21.274589561
 10
4.9236555088
 20
-21.289390526
 10
4.9432376642
 20
-21.3045187274
 10
4.9612442015
 20
-21.3197181817
 10
4.9773704327
 20
-21.3347316992
 10
4.9913434865
 20
-21.3493052368
 10
5.0029269253
 20
-21.3631921962
 10
5.011924746
 20
-21.3761575965
  0
LWPOLYLINE
  5
2BB
100
AcDbEntity
  8
ASSI
100
AcDbPolyline
 62
250
  6
CONTINUOUS
 90
5
 70
0
 10
-7.7876475122
 20
24.8634613271
 10
-7.7853209555
 20
24.8698128704
 10
-7.7853166167
 20
24.878772772
 10
-7.7882668946
 20
24.8891924594
 10
-7.7941218676
 20
24.9008956212
  0
LINE
  5
2BC
100
AcDbEntity
  8
RACCORDO
100
AcDbLine
 62
7
  6
CONTINUOUS
 10
-1.1258916889
 20
24.3937671419
 11
-2.4563375589
 21
22.7590923453
  0
LINE
  5
2BD
100
AcDbEntity
  8
0
100
AcDbLine
 62
7
  6
CONTINUOUS
 10
-1.1258916889
 20
24.3937671419
 11
-2.4563375589
 21
22.7590923453
  0
LINE
  5
2BE
100
AcDbEntity
  8
0
100
AcDbLine
 62
250
  6
CONTINUOUS
 10
-0.9952289446
 20
24.4079050605
 11
-2.4537376756
 21
22.615883666
  0
LWPOLYLINE
  5
2BF
100
AcDbEntity
  8
ASSI
100
AcDbPolyline
 62
7
  6
CONTINUOUS
 90
16
 70
0
 10
4.4111420864
 20
22.5592109956
 10
4.4167885387
 20
22.5640475503
 10
4.4402144725
 20
22.5880625947
 10
4.4599140481
 20
22.6153613655
 10
4.4760059082
 20
22.6462547519
 10
4.4883714101
 20
22.6804318649
 10
4.4966546255
 20
22.7169600367
 10
4.5007369119
 20
22.7560027256
 10
4.5007369119
 20
22.7973964734
 10
4.4966546255
 20
22.8397182387
 10
4.4883714101
 20
22.8828998628
 10
4.4760059082
 20
22.9270095043
 10
4.4599140481
 20
22.9708285984
 10
4.4402144725
 20
23.0139509565
 10
4.4167885387
 20
23.0567827672
 10
4.3896362466
 20
23.0993240303
  0
LINE
  5
2C0
100
AcDbEntity
  8
ASSI
100
AcDbLine
 62
250
  6
CONTINUOUS
 10
4.2567856862
 20
23.5395438036
 11
1.1088499625
 21
20.943138042
  0
LINE
  5
2C1
100
AcDbEntity
  8
ASSI
100
AcDbLine
 62
250
  6
CONTINUOUS
 10
4.461542507
 20
23.2525520274
 11
1.3136067834
 21
20.6561462657
  0
LINE
  5
2C2
100
AcDbEntity
  8
ASSI
100
AcDbLine
 62
7
  6
CONTINUOUS
 10
1.3136067834
 20
19.5502598157
 11
4.4517483864
 21
22.1385874229
  0
LINE
  5
2C3
100
AcDbEntity
  8
ASSI
100
AcDbLine
 62
7
  6
CONTINUOUS
 10
4.4108211293
 20
22.5587427382
 11
3.4981072559
 21
21.8074942281
  0
LINE
  5
2C4
100
AcDbEntity
  8
ASSI
100
AcDbLine
 62
250
  6
CONTINUOUS
 10
0.93043556
 20
20.7979475517
 11
1.1088499625
 21
20.943138042
  0
LINE
  5
2C5
100
AcDbEntity
  8
ASSI
100
AcDbLine
 62
250
  6
CONTINUOUS
 10
1.1351923809
 20
20.5109557755
 11
1.3136067834
 21
20.6561462657
  0
LINE
  5
2C6
100
AcDbEntity
  8
ASSI
100
AcDbLine
 62
7
  6
CONTINUOUS
 10
1.2638995589
 20
21.5257599029
 11
3.887631967
 21
23.6116396426
  0
LINE
  5
2C7
100
AcDbEntity
  8
ASSI
100
AcDbLine
 62
250
  6
CONTINUOUS
 10
1.3596355689
 20
21.487310163
 11
4.0457115509
 21
23.6227533402
  0
LINE
  5
2C8
100
AcDbEntity
  8
ASSI
100
AcDbLine
 62
7
  6
CONTINUOUS
 10
4.5237315709
 20
22.9719299039
 11
4.6909714099
 21
23.1048863711
  0
LINE
  5
2C9
100
AcDbEntity
  8
ASSI
100
AcDbLine
 62
7
  6
CONTINUOUS
 10
4.812899869
 20
23.5749466471
 11
6.54083014
 21
24.9482092075
  0
LINE
  5
2CA
100
AcDbEntity
  8
ASSI
100
AcDbLine
 62
250
  6
CONTINUOUS
 10
4.8575247271
 20
23.5187966832
 11
6.6672687826
 21
24.9570802742
  0
LINE
  5
2CB
100
AcDbEntity
  8
0
100
AcDbLine
 62
7
  6
CONTINUOUS
 10
12.4717330878
 20
28.7437348938
 11
9.5717256784
 21
26.4471597851
  0
LINE
  5
2CC
100
AcDbEntity
  8
RACCORDO
100
AcDbLine
 62
250
  6
CONTINUOUS
 10
11.2660509613
 20
29.2279640173
 11
6.4300879512
 21
25.5277843116
  0
LINE
  5
2CD
100
AcDbEntity
  8
0
100
AcDbLine
 62
250
  6
CONTINUOUS
 10
11.2660509613
 20
29.2279640173
 11
6.4300879512
 21
25.5277843116
  0
LWPOLYLINE
  5
2CE
100
AcDbEntity
  8
ASSI
100
AcDbPolyline
 62
250
  6
CONTINUOUS
 90
9
 70
0
 10
6.6672687826
 20
24.9570802742
 10
6.7095727652
 20
24.9884959894
 10
6.7515300385
 20
25.0152410078
 10
6.7929105743
 20
25.0371692609
 10
6.8334855062
 20
25.0541617619
 10
6.8730333444
 20
25.0661254416
 10
6.9113411776
 20
25.0729935663
 10
6.9481968049
 20
25.0747295544
 10
6.983397202
 20
25.0713242685
  0
LINE
  5
2CF
100
AcDbEntity
  8
ASSI
100
AcDbLine
 62
7
  6
CONTINUOUS
 10
6.5948327515
 20
24.9877108822
 11
6.540801045
 21
24.9481700679
  0
LWPOLYLINE
  5
2D0
100
AcDbEntity
  8
ASSI
100
AcDbPolyline
 62
7
  6
CONTINUOUS
 90
4
 70
0
 10
3.6057043662
 20
20.2927186529
 10
3.6142493865
 20
20.2985146911
 10
3.6303601172
 20
20.3061729765
 10
3.6481773186
 20
20.3109219108
  0
LWPOLYLINE
  5
2D1
100
AcDbEntity
  8
0
100
AcDbPolyline
 62
250
  6
CONTINUOUS
 90
10
 70
0
 10
-9.0828739504
 20
-12.3509305135
 10
-8.8813278928
 20
-12.4068946401
 10
-8.6839120165
 20
-12.4674083684
 10
-8.4909589713
 20
-12.5323697483
 10
-8.3027937695
 20
-12.601669381
 10
-8.1197336024
 20
-12.6751904711
 10
-7.9420872723
 20
-12.7528089967
 10
-7.7701541993
 20
-12.8343941081
 10
-7.6042239513
 20
-12.9198083749
 10
-7.4445760957
 20
-13.0089078668
  0
LWPOLYLINE
  5
2D2
100
AcDbEntity
  8
DRAFT
100
AcDbPolyline
 62
7
  6
CONTINUOUS
 90
11
 70
0
 10
4.0850292499
 20
-17.6578919257
 10
4.0875095458
 20
-17.6587647561
 10
4.1407773863
 20
-17.6725061706
 10
4.1926720816
 20
-17.6807605237
 10
4.2436957941
 20
-17.6834891459
 10
4.2933463615
 20
-17.6807307066
 10
4.340117297
 20
-17.6726012143
 10
4.3837941271
 20
-17.6590140802
 10
4.4245913254
 20
-17.6400558931
 10
4.4616458256
 20
-17.6161024283
 10
4.4662017298
 20
-17.6125945064
  0
LINE
  5
2D3
100
AcDbEntity
  8
ASSI
100
AcDbLine
 62
7
  6
CONTINUOUS
 10
4.0269627938
 20
-19.2878080207
 11
4.4261295436
 21
-19.4481223865
  0
LINE
  5
2D4
100
AcDbEntity
  8
ASSI
100
AcDbLine
 62
7
  6
CONTINUOUS
 10
5.268335055
 20
-19.7219761976
 11
5.5002303368
 21
-19.8151105707
  0
LINE
  5
2D5
100
AcDbEntity
  8
ASSI
100
AcDbLine
 62
250
  6
CONTINUOUS
 10
6.3513918557
 20
-19.5641279075
 11
6.6783755874
 21
-19.6954460855
  0
LINE
  5
2D6
100
AcDbEntity
  8
ASSI
100
AcDbLine
 62
7
  6
CONTINUOUS
 10
6.6996965839
 20
-19.6994941233
 11
6.3513918557
 21
-19.5596070919
  0
LINE
  5
2D7
100
AcDbEntity
  8
ASSI
100
AcDbLine
 62
250
  6
CONTINUOUS
 10
6.699307901
 20
-19.7055851712
 11
6.6783346498
 21
-19.6954462796
  0
LWPOLYLINE
  5
2D8
100
AcDbEntity
  8
DRAFT
100
AcDbPolyline
 62
250
  6
CONTINUOUS
 90
10
 70
0
 10
-7.4445418219
 20
-13.0065748975
 10
-7.3434841384
 20
-13.0679281224
 10
-7.2453086143
 20
-13.1304884313
 10
-7.1500862703
 20
-13.1942142163
 10
-7.0578847421
 20
-13.2589799264
 10
-6.9687721517
 20
-13.3248298155
 10
-6.8828169041
 20
-13.3919706344
 10
-6.800082436
 20
-13.4604356337
 10
-6.7206273256
 20
-13.5300919247
 10
-6.6445090583
 20
-13.6008891104
  0
LWPOLYLINE
  5
2D9
100
AcDbEntity
  8
ASSI
100
AcDbPolyline
 62
7
  6
CONTINUOUS
 90
7
 70
0
 10
-12.3371160272
 20
24.525058984
 10
-12.3370468832
 20
24.5190686758
 10
-12.3353394935
 20
24.4950332375
 10
-12.3310260074
 20
24.4701892849
 10
-12.3239580029
 20
24.445668569
 10
-12.3141314806
 20
24.4220035659
 10
-12.3014405948
 20
24.3993223457
  0
LINE
  5
2DA
100
AcDbEntity
  8
ASSI
100
AcDbLine
 62
7
  6
CONTINUOUS
 10
-12.3371157121
 20
24.5250279423
 11
-12.3371157121
 21
24.825124666
  0
LINE
  5
2DB
100
AcDbEntity
  8
0
100
AcDbLine
 62
7
  6
CONTINUOUS
 10
-12.2933543853
 20
23.4908397514
 11
-12.2933543853
 21
22.9263322488
  0
LINE
  5
2DC
100
AcDbEntity
  8
ASSI
100
AcDbLine
 62
250
  6
CONTINUOUS
 10
-12.2518309994
 20
24.4310750917
 11
-12.2518309994
 21
24.7311554041
  0
LWPOLYLINE
  5
2DD
100
AcDbEntity
  8
ASSI
100
AcDbPolyline
 62
250
  6
CONTINUOUS
 90
28
 70
0
 10
-12.2518309994
 20
24.7311554041
 10
-12.2516642657
 20
24.7411834426
 10
-12.251145821
 20
24.7517636835
 10
-12.2502471911
 20
24.7628912207
 10
-12.2489366781
 20
24.7745839705
 10
-12.247188638
 20
24.7868007542
 10
-12.2449930402
 20
24.7994363844
 10
-12.2423332215
 20
24.8124623281
 10
-12.2391941798
 20
24.8258446705
 10
-12.2355876668
 20
24.8394572195
 10
-12.231511037
 20
24.8532569729
 10
-12.2269639469
 20
24.8671965369
 10
-12.2219813476
 20
24.8811372374
 10
-12.2165784686
 20
24.8950207614
 10
-12.2107662537
 20
24.9088039839
 10
-12.2045893574
 20
24.922372967
 10
-12.1980779517
 20
24.9356635018
 10
-12.1912482603
 20
24.9486442551
 10
-12.1841320131
 20
24.9612556721
 10
-12.1767593463
 20
24.9734479512
 10
-12.1691539177
 20
24.9851853829
 10
-12.1613395927
 20
24.9964325048
 10
-12.1533442672
 20
25.0071507125
 10
-12.1451970035
 20
25.0173025229
 10
-12.1369238142
 20
25.0268559231
 10
-12.1285531208
 20
25.0357784678
 10
-12.1201158078
 20
25.0440380376
 10
-12.1116419031
 20
25.0516059313
  0
LWPOLYLINE
  5
2DE
100
AcDbEntity
  8
ASSI
100
AcDbPolyline
 62
7
  6
CONTINUOUS
 90
3
 70
0
 10
-7.7538727205
 20
24.9470758269
 10
-7.7495844572
 20
24.9683273937
 10
-7.7469372867
 20
24.9895408821
  0
LWPOLYLINE
  5
2DF
100
AcDbEntity
  8
ASSI
100
AcDbPolyline
 62
7
  6
CONTINUOUS
 90
8
 70
0
 10
4.8030881749
 20
23.5671702997
 10
4.8000253428
 20
23.5643565997
 10
4.7944453995
 20
23.5569529857
 10
4.789466682
 20
23.547207955
 10
4.7853585985
 20
23.5357075441
 10
4.7822508382
 20
23.5226555144
 10
4.7801190635
 20
23.5078699193
 10
4.7789875534
 20
23.491356033
  0
LWPOLYLINE
  5
2E0
100
AcDbEntity
  8
ASSI
100
AcDbPolyline
 62
7
  6
CONTINUOUS
 90
12
 70
0
 10
2.3395482221
 20
19.1839196434
 10
2.3370986321
 20
19.1817463829
 10
2.3193273141
 20
19.1640823473
 10
2.3036300861
 20
19.1451740566
 10
2.2894899999
 20
19.1246295059
 10
2.2769973538
 20
19.1026149221
 10
2.2665975261
 20
19.0801317534
 10
2.258003639
 20
19.0567820338
 10
2.251188163
 20
19.0321974911
 10
2.2465659945
 20
19.0075548925
 10
2.244160075
 20
18.9830271551
 10
2.243790917
 20
18.9689365714
  0
LWPOLYLINE
  5
2E1
100
AcDbEntity
  8
ASSI
100
AcDbPolyline
 62
250
  6
CONTINUOUS
 90
28
 70
0
 10
2.4692644852
 20
19.1955852069
 10
2.4624107914
 20
19.1895204073
 10
2.4553790015
 20
19.1828036746
 10
2.4481891408
 20
19.1754110794
 10
2.4408471369
 20
19.1673019644
 10
2.4333967664
 20
19.1584765674
 10
2.4259174431
 20
19.1489878929
 10
2.418438815
 20
19.1388367581
 10
2.4109932338
 20
19.1280288991
 10
2.4036618132
 20
19.1166504034
 10
2.3964767714
 20
19.1047249498
 10
2.3894704766
 20
19.0922787121
 10
2.3827169308
 20
19.0794231925
 10
2.3762486038
 20
19.066207556
 10
2.3700886912
 20
19.0526657047
 10
2.3642872076
 20
19.0388996119
 10
2.3588717895
 20
19.0249739681
 10
2.3538560275
 20
19.0109225768
 10
2.3492617128
 20
18.9968054404
 10
2.3451062856
 20
18.9826760246
 10
2.341403818
 20
18.9685818848
 10
2.338167742
 20
18.9545744543
 10
2.3354096098
 20
18.9407033827
 10
2.333139523
 20
18.9270187862
 10
2.3313658225
 20
18.9135719582
 10
2.3300946812
 20
18.9004116423
 10
2.3293303642
 20
18.8875839805
 10
2.329075389
 20
18.8751346797
  0
LINE
  5
2E2
100
AcDbEntity
  8
ASSI
100
AcDbLine
 62
7
  6
CONTINUOUS
 10
3.6010457941
 20
20.2889006255
 11
2.3394865863
 21
19.1838658865
  0
LINE
  5
2E3
100
AcDbEntity
  8
ASSI
100
AcDbLine
 62
250
  6
CONTINUOUS
 10
3.7300803619
 20
20.2999688415
 11
2.4692644852
 21
19.1955852069
  0
LINE
  5
2E4
100
AcDbEntity
  8
ASSI
100
AcDbLine
 62
7
  6
CONTINUOUS
 10
1.3136067834
 20
19.5502598157
 11
1.1351923809
 21
19.3963799112
  0
LINE
  5
2E5
100
AcDbEntity
  8
0
100
AcDbLine
 62
7
  6
CONTINUOUS
 10
10.0269572544
 20
25.4839785846
 11
13.4342225382
 21
28.3275421298
  0
LINE
  5
2E6
100
AcDbEntity
  8
DRAFT
100
AcDbLine
 62
7
  6
CONTINUOUS
 10
10.0269572544
 20
25.0959625216
 11
13.4391172019
 21
27.914902462
  0
LINE
  5
2E7
100
AcDbEntity
  8
0
100
AcDbLine
 62
7
  6
CONTINUOUS
 10
10.0269572544
 20
25.0959625216
 11
13.4391172019
 21
27.914902462
  0
LINE
  5
2E8
100
AcDbEntity
  8
ASSI
100
AcDbLine
 62
7
  6
CONTINUOUS
 10
3.6010911519
 20
20.2889402601
 11
3.6057043662
 21
20.2927186529
  0
LINE
  5
2E9
100
AcDbEntity
  8
0
100
AcDbLine
 62
7
  6
CONTINUOUS
 10
10.5525976787
 20
24.3535954756
 11
10.9541011842
 21
24.6824878929
  0
LINE
  5
2EA
100
AcDbEntity
  8
ASSI
100
AcDbLine
 62
7
  6
CONTINUOUS
 10
9.9727319626
 20
23.6295317412
 11
5.5439630551
 21
20.1504944955
  0
LINE
  5
2EB
100
AcDbEntity
  8
ASSI
100
AcDbLine
 62
250
  6
CONTINUOUS
 10
4.173553006
 20
20.6392866721
 11
3.7300803619
 21
20.2999688415
  0
LINE
  5
2EC
100
AcDbEntity
  8
ASSI
100
AcDbLine
 62
7
  6
CONTINUOUS
 10
4.0500878112
 20
20.6327333152
 11
3.6057386341
 21
20.2927448726
  0
LWPOLYLINE
  5
2ED
100
AcDbEntity
  8
ASSI
100
AcDbPolyline
 62
250
  6
CONTINUOUS
 90
13
 70
0
 10
4.9972278763
 20
17.941141935
 10
4.9806994324
 20
17.9297262059
 10
4.9617401477
 20
17.9196297437
 10
4.9406672622
 20
17.9110214893
 10
4.9178333818
 20
17.904045482
 10
4.8936205789
 20
17.8988184491
 10
4.8684339986
 20
17.895427853
 10
4.8426950803
 20
17.8939304274
 10
4.8168345053
 20
17.8943512283
 10
4.7912849904
 20
17.8966832146
 10
4.7664740479
 20
17.9008873658
 10
4.7428168316
 20
17.9068933353
 10
4.7207091902
 20
17.914600627
  0
LWPOLYLINE
  5
2EE
100
AcDbEntity
  8
DRAFT
100
AcDbPolyline
 62
250
  6
CONTINUOUS
 90
10
 70
0
 10
-10.3368807565
 20
-12.1179493938
 10
-10.1932955535
 20
-12.1353900754
 10
-10.0505346725
 20
-12.1549807367
 10
-9.9087014021
 20
-12.1767072043
 10
-9.7678992888
 20
-12.2006371389
 10
-9.6282293012
 20
-12.2266713742
 10
-9.4897896323
 20
-12.2545366007
 10
-9.3526794137
 20
-12.2841215172
 10
-9.2169987686
 20
-12.315484189
 10
-9.0828458877
 20
-12.3485982686
  0
LWPOLYLINE
  5
2EF
100
AcDbEntity
  8
DRAFT
100
AcDbPolyline
 62
250
  6
CONTINUOUS
 90
10
 70
0
 10
-10.3173009954
 20
-10.8722448943
 10
-10.1738221355
 20
-10.8898691174
 10
-10.0311668702
 20
-10.9096289935
 10
-9.8894382693
 20
-10.9315102458
 10
-9.7487387331
 20
-10.9554970649
 10
-9.6091699183
 20
-10.9815721202
 10
-9.4708326646
 20
-11.0097165721
 10
-9.333826922
 20
-11.039910086
 10
-9.1982516784
 20
-11.0721308469
 10
-9.0642048882
 20
-11.1063555749
  0
LWPOLYLINE
  5
2F0
100
AcDbEntity
  8
0
100
AcDbPolyline
 62
250
  6
CONTINUOUS
 90
10
 70
0
 10
-9.0642048882
 20
-11.1063555749
 10
-8.8626593168
 20
-11.1624337365
 10
-8.6652437342
 20
-11.2230332166
 10
-8.4722907805
 20
-11.2880519068
 10
-8.284125576
 20
-11.3573802522
 10
-8.1010651741
 20
-11.4309014366
 10
-7.9234180265
 20
-11.5084915788
 10
-7.7514834638
 20
-11.5900199415
 10
-7.585551191
 20
-11.6753491515
 10
-7.4259007996
 20
-11.7643354316
  0
LWPOLYLINE
  5
2F1
100
AcDbEntity
  8
DRAFT
100
AcDbPolyline
 62
7
  6
CONTINUOUS
 90
4
 70
0
 10
4.2622991348
 20
-16.3105042347
 10
4.2071076601
 20
-16.2910820434
 10
4.1533031733
 20
-16.2772021885
 10
4.134324455
 20
-16.2741834368
  0
LINE
  5
2F2
100
AcDbEntity
  8
DRAFT
100
AcDbLine
 62
7
  6
CONTINUOUS
 10
5.9093854488
 20
-15.2927495403
 11
4.1938345151
 21
-14.6037456092
  0
LWPOLYLINE
  5
2F3
100
AcDbEntity
  8
0
100
AcDbPolyline
 62
250
  6
CONTINUOUS
 90
10
 70
0
 10
-7.4039991799
 20
-10.5173558868
 10
-7.5636510799
 20
-10.4284839464
 10
-7.7295844154
 20
-10.3432406718
 10
-7.9015196053
 20
-10.2617697014
 10
-8.0791670238
 20
-10.1842082884
 10
-8.2622272857
 20
-10.1106871602
 10
-8.4503917303
 20
-10.0413302818
 10
-8.6433432233
 20
-9.9762545342
 10
-8.8407567111
 20
-9.9155695328
 10
-9.042299552
 20
-9.8593775222
  0
LWPOLYLINE
  5
2F4
100
AcDbEntity
  8
DRAFT
100
AcDbPolyline
 62
250
  6
CONTINUOUS
 90
10
 70
0
 10
-7.4259007996
 20
-11.7643354316
 10
-7.3248947433
 20
-11.8245132259
 10
-7.2267706581
 20
-11.8861513841
 10
-7.1315994396
 20
-11.949205372
 10
-7.0394498498
 20
-12.0136296326
 10
-6.9503884678
 20
-12.0793776188
 10
-6.8644796412
 20
-12.1464018269
 10
-6.7817854399
 20
-12.2146538315
 10
-6.7023656112
 20
-12.2840843197
 10
-6.6262775368
 20
-12.3546431275
  0
LWPOLYLINE
  5
2F5
100
AcDbEntity
  8
DRAFT
100
AcDbPolyline
 62
250
  6
CONTINUOUS
 90
10
 70
0
 10
-6.6047555957
 20
-11.1060465425
 10
-6.680818475
 20
-11.0357188634
 10
-6.7602086525
 20
-10.9665070977
 10
-6.8428688372
 20
-10.8984611917
 10
-6.9287406549
 20
-10.8316938006
 10
-7.0177608883
 20
-10.7661906887
 10
-7.1098613887
 20
-10.7018052645
 10
-7.2049742916
 20
-10.6385146829
 10
-7.3030321982
 20
-10.5764252531
 10
-7.4039643272
 20
-10.5155790472
  0
LWPOLYLINE
  5
2F6
100
AcDbEntity
  8
ASSI
100
AcDbPolyline
 62
250
  6
CONTINUOUS
 90
9
 70
0
 10
-12.3371155569
 20
24.8249817387
 10
-12.3368261866
 20
24.8189543493
 10
-12.3337667031
 20
24.8042194947
 10
-12.327416719
 20
24.7898344381
 10
-12.3178824854
 20
24.7760398805
 10
-12.3053235351
 20
24.7630666423
 10
-12.2899500123
 20
24.7511318014
 10
-12.2720191567
 20
24.74043506
 10
-12.2518309994
 20
24.7311554041
  0
LWPOLYLINE
  5
2F7
100
AcDbEntity
  8
ASSI
100
AcDbPolyline
 62
250
  6
CONTINUOUS
 90
9
 70
0
 10
-12.3371157121
 20
24.5250279423
 10
-12.3368261839
 20
24.5188575965
 10
-12.3337666936
 20
24.5041227417
 10
-12.3274167035
 20
24.4897376871
 10
-12.3178824661
 20
24.4759431333
 10
-12.3053235147
 20
24.4629699004
 10
-12.2899499944
 20
24.4510350655
 10
-12.2720191455
 20
24.4403383304
 10
-12.2518309994
 20
24.4310586803
  0
LINE
  5
2F8
100
AcDbEntity
  8
DRAFT
100
AcDbLine
 62
7
  6
CONTINUOUS
 10
-9.0803343324
 20
-12.4239505126
 11
-9.0828458877
 21
-12.3485982686
  0
LWPOLYLINE
  5
2F9
100
AcDbEntity
  8
0
100
AcDbPolyline
 62
7
  6
CONTINUOUS
 90
35
 70
0
 10
-9.0828739504
 20
-12.3509305135
 10
-9.0816429679
 20
-12.4080408679
 10
-9.0766305092
 20
-12.4661365869
 10
-9.0678301825
 20
-12.5252332395
 10
-9.0551528446
 20
-12.585765117
 10
-9.0386986507
 20
-12.6473500129
 10
-9.0187225438
 20
-12.7087585123
 10
-8.9951038734
 20
-12.7699086581
 10
-8.9679397076
 20
-12.830896017
 10
-8.9377653571
 20
-12.8907114953
 10
-8.9046316012
 20
-12.9491412529
 10
-8.8684528701
 20
-13.006379397
 10
-8.8295353432
 20
-13.0619992441
 10
-8.7879262129
 20
-13.115998085
 10
-8.7435684411
 20
-13.1683561393
 10
-8.6966036353
 20
-13.2186076418
 10
-8.6467657741
 20
-13.2669575497
 10
-8.5943464706
 20
-13.3131846601
 10
-8.5402983867
 20
-13.3561598734
 10
-8.4840058807
 20
-13.3958785345
 10
-8.4261103876
 20
-13.4323160318
 10
-8.3693660651
 20
-13.4642600154
 10
-8.3155088467
 20
-13.49092308
 10
-8.2627049855
 20
-13.5130096089
 10
-8.2083599201
 20
-13.5315507298
 10
-8.1508370274
 20
-13.5473100216
 10
-8.0919151778
 20
-13.5595896609
 10
-8.0341294016
 20
-13.5672391969
 10
-7.9778559189
 20
-13.5698118432
 10
-7.9227342424
 20
-13.56778467
 10
-7.8700892216
 20
-13.561346578
 10
-7.820230089
 20
-13.5504545345
 10
-7.7728169283
 20
-13.5351750232
 10
-7.7281526425
 20
-13.5158363459
 10
-7.6830230332
 20
-13.4904872843
  0
LINE
  5
2FA
100
AcDbEntity
  8
ASSI
100
AcDbLine
 62
7
  6
CONTINUOUS
 10
-11.7589098824
 20
23.7651080721
 11
-11.7589098824
 21
24.1387331785
  0
LINE
  5
2FB
100
AcDbEntity
  8
ASSI
100
AcDbLine
 62
250
  6
CONTINUOUS
 10
-11.6523039915
 20
23.6429556759
 11
-11.6523039915
 21
24.0959178494
  0
LINE
  5
2FC
100
AcDbEntity
  8
ASSI
100
AcDbLine
 62
7
  6
CONTINUOUS
 10
-11.2747378373
 20
23.3521344294
 11
-11.2747378373
 21
23.9426829759
  0
LINE
  5
2FD
100
AcDbEntity
  8
ASSI
100
AcDbLine
 62
250
  6
CONTINUOUS
 10
-11.1681319464
 20
23.2856262915
 11
-11.1681319464
 21
23.9958207092
  0
LINE
  5
2FE
100
AcDbEntity
  8
ASSI
100
AcDbLine
 62
250
  6
CONTINUOUS
 10
-10.9438962512
 20
23.1955681811
 11
-10.9438962512
 21
23.9057625987
  0
LINE
  5
2FF
100
AcDbEntity
  8
ASSI
100
AcDbLine
 62
250
  6
CONTINUOUS
 10
-10.5982478935
 20
23.1125738778
 11
-10.5982478935
 21
23.6725851573
  0
LINE
  5
300
100
AcDbEntity
  8
ASSI
100
AcDbLine
 62
7
  6
CONTINUOUS
 10
-10.1547768447
 20
23.4944771862
 11
-10.1547768447
 21
23.1059099221
  0
LINE
  5
301
100
AcDbEntity
  8
ASSI
100
AcDbLine
 62
250
  6
CONTINUOUS
 10
-9.8601971982
 20
23.4705246276
 11
-9.8601971982
 21
23.7706213514
  0
LINE
  5
302
100
AcDbEntity
  8
ASSI
100
AcDbLine
 62
250
  6
CONTINUOUS
 10
-9.583678512
 20
23.4970659356
 11
-9.583678512
 21
23.7971626594
  0
LWPOLYLINE
  5
303
100
AcDbEntity
  8
ASSI
100
AcDbPolyline
 62
250
  6
CONTINUOUS
 90
28
 70
0
 10
-9.583678512
 20
23.7971626594
 10
-9.5836525627
 20
23.7991927644
 10
-9.5835418939
 20
23.8013261781
 10
-9.5833465057
 20
23.8035629007
 10
-9.5830697477
 20
23.8059130874
 10
-9.5827082703
 20
23.8083665829
 10
-9.5822520243
 20
23.8108929211
 10
-9.5816977017
 20
23.8134954998
 10
-9.5810486104
 20
23.8161709213
 10
-9.5803046249
 20
23.8188785263
 10
-9.5794624133
 20
23.8216198409
 10
-9.5785253074
 20
23.8243933391
 10
-9.5775031773
 20
23.8271537828
 10
-9.5763943669
 20
23.8298988158
 10
-9.5752005324
 20
23.8326307944
 10
-9.5739365118
 20
23.8353115492
 10
-9.5726021278
 20
23.8379379309
 10
-9.5711975578
 20
23.8405130888
 10
-9.5697381727
 20
23.8430083018
 10
-9.5682235197
 20
23.8454223097
 10
-9.5666540517
 20
23.8477563728
 10
-9.5650464978
 20
23.8499855502
 10
-9.5634003999
 20
23.8521087103
 10
-9.5617162162
 20
23.8541269849
 10
-9.5600120503
 20
23.8560188282
 10
-9.558293937
 20
23.8577770585
 10
-9.5565558416
 20
23.8594088577
 10
-9.5547977641
 20
23.8609142257
  0
LINE
  5
304
100
AcDbEntity
  8
0
100
AcDbLine
 62
7
  6
CONTINUOUS
 10
-10.3368807565
 20
-12.1179493938
 11
-10.332799841
 21
-11.8413436979
  0
LINE
  5
305
100
AcDbEntity
  8
0
100
AcDbLine
 62
7
  6
CONTINUOUS
 10
-10.332799841
 20
-11.8413436979
 11
-10.3285645565
 21
-11.5646135494
  0
LINE
  5
306
100
AcDbEntity
  8
0
100
AcDbLine
 62
7
  6
CONTINUOUS
 10
-10.3285645565
 20
-11.5646135494
 11
-10.324174906
 21
-11.2877591343
  0
LINE
  5
307
100
AcDbEntity
  8
0
100
AcDbLine
 62
7
  6
CONTINUOUS
 10
-10.324174906
 20
-11.2877591343
 11
-10.3196308895
 21
-11.010780624
  0
LWPOLYLINE
  5
308
100
AcDbEntity
  8
ASSI
100
AcDbPolyline
 62
250
  6
CONTINUOUS
 90
28
 70
0
 10
-9.8601971982
 20
23.7706213514
 10
-9.8600257669
 20
23.7807532238
 10
-9.8594924008
 20
23.7914259763
 10
-9.8585698881
 20
23.8026331181
 10
-9.8572280404
 20
23.8143911262
 10
-9.8554425161
 20
23.8266573694
 10
-9.8532043954
 20
23.8393252443
 10
-9.8504984318
 20
23.8523652422
 10
-9.8473114163
 20
23.8657426645
 10
-9.8436568448
 20
23.879330599
 10
-9.8395340567
 20
23.8930840386
 10
-9.8349439344
 20
23.9069576932
 10
-9.8299214409
 20
23.920818843
 10
-9.8244843402
 20
23.9346055187
 10
-9.8186428023
 20
23.9482802439
 10
-9.8124343404
 20
23.9617485693
 10
-9.8058864287
 20
23.9749501618
 10
-9.7990160313
 20
23.9878502738
 10
-9.7918509474
 20
24.0003963449
 10
-9.784417462
 20
24.012542027
 10
-9.7767407927
 20
24.0242458721
 10
-9.7688491019
 20
24.0354653883
 10
-9.7607700688
 20
24.0461609625
 10
-9.752532417
 20
24.0562943303
 10
-9.7441669897
 20
24.0658282031
 10
-9.7357039635
 20
24.0747286149
 10
-9.727172667
 20
24.0829647338
 10
-9.7186032208
 20
24.0905076467
  0
LINE
  5
309
100
AcDbEntity
  8
0
100
AcDbLine
 62
7
  6
CONTINUOUS
 10
-10.3196308895
 20
-11.010780624
 11
-10.3149326763
 21
-10.7336878293
  0
LINE
  5
30A
100
AcDbEntity
  8
0
100
AcDbLine
 62
7
  6
CONTINUOUS
 10
-10.3149326763
 20
-10.7336878293
 11
-10.3100802856
 21
-10.4564812003
  0
LINE
  5
30B
100
AcDbEntity
  8
0
100
AcDbLine
 62
7
  6
CONTINUOUS
 10
-10.3100802856
 20
-10.4564812003
 11
-10.305073563
 21
-10.1791514016
  0
LINE
  5
30C
100
AcDbEntity
  8
0
100
AcDbLine
 62
7
  6
CONTINUOUS
 10
-10.305073563
 20
-10.1791514016
 11
-10.2999125094
 21
-9.9016986051
  0
LINE
  5
30D
100
AcDbEntity
  8
0
100
AcDbLine
 62
7
  6
CONTINUOUS
 10
-10.2999125094
 20
-9.9016986051
 11
-10.2945971288
 21
-9.6241229973
  0
LWPOLYLINE
  5
30E
100
AcDbEntity
  8
0
100
AcDbPolyline
 62
7
  6
CONTINUOUS
 90
46
 70
0
 10
-10.2945971288
 20
-9.6241229973
 10
-10.2871984596
 20
-9.4930492722
 10
-10.27156949
 20
-9.3679731191
 10
-10.2475692693
 20
-9.2486050366
 10
-10.214713142
 20
-9.1340996539
 10
-10.1733225543
 20
-9.0249542267
 10
-10.1243657312
 20
-8.922910243
 10
-10.0676575062
 20
-8.8282098072
 10
-10.0030625276
 20
-8.7405016367
 10
-9.9314531579
 20
-8.660596032
 10
-9.8524862741
 20
-8.5885661923
 10
-9.7662475338
 20
-8.524549819
 10
-9.6741427172
 20
-8.4693934075
 10
-9.5763054944
 20
-8.4234181667
 10
-9.4723748361
 20
-8.3866241847
 10
-9.3629586797
 20
-8.3593005915
 10
-9.2473859862
 20
-8.3416580799
 10
-9.1263471982
 20
-8.334001906
 10
-9.0024121041
 20
-8.3365626445
 10
-8.8755338858
 20
-8.3496489648
 10
-8.7458123595
 20
-8.3731629138
 10
-8.6158695257
 20
-8.4063433334
 10
-8.486484848
 20
-8.4488404939
 10
-8.3569592137
 20
-8.5008597826
 10
-8.2276284544
 20
-8.5622728113
 10
-8.0979414905
 20
-8.6333774714
 10
-7.9688128828
 20
-8.7138476599
 10
-7.8426703043
 20
-8.8024355296
 10
-7.7194817299
 20
-8.8992300985
 10
-7.5995217372
 20
-9.0038228658
 10
-7.4853618372
 20
-9.1138910375
 10
-7.3775318451
 20
-9.228659245
 10
-7.2754316596
 20
-9.3484027348
 10
-7.1796994209
 20
-9.4722199449
 10
-7.0901140438
 20
-9.6002366146
 10
-7.0068608446
 20
-9.7320815082
 10
-6.9310327022
 20
-9.8660799822
 10
-6.862592968
 20
-10.0021771304
 10
-6.8014316915
 20
-10.140397526
 10
-6.7483421893
 20
-10.2791666227
 10
-6.7032111397
 20
-10.4188696366
 10
-6.666037847
 20
-10.5593971421
 10
-6.6375863601
 20
-10.6984019396
 10
-6.6180123133
 20
-10.8352305711
 10
-6.607045335
 20
-10.9710050251
 10
-6.6047555957
 20
-11.1060465425
  0
LWPOLYLINE
  5
30F
100
AcDbEntity
  8
ASSI
100
AcDbPolyline
 62
250
  6
CONTINUOUS
 90
6
 70
0
 10
-7.74594743
 20
25.333947893
 10
-7.7465191613
 20
25.3252801375
 10
-7.7501383355
 20
25.310587071
 10
-7.7570339226
 20
25.296284894
 10
-7.7670905407
 20
25.2826129201
 10
-7.7801399155
 20
25.2697999185
  0
LWPOLYLINE
  5
310
100
AcDbEntity
  8
ASSI
100
AcDbPolyline
 62
250
  6
CONTINUOUS
 90
6
 70
0
 10
-7.74594743
 20
25.0124036387
 10
-7.746519166
 20
25.0037358499
 10
-7.7501383463
 20
24.9890427895
 10
-7.7570339355
 20
24.9747406208
 10
-7.7670905504
 20
24.9610686571
 10
-7.7801399155
 20
24.9482556665
  0
LWPOLYLINE
  5
311
100
AcDbEntity
  8
ASSI
100
AcDbPolyline
 62
250
  6
CONTINUOUS
 90
28
 70
0
 10
4.8623031676
 20
18.2344869223
 10
4.8548929111
 20
18.2280068407
 10
4.8473594611
 20
18.2208592518
 10
4.8397257473
 20
18.2130321744
 10
4.8320004564
 20
18.2044981234
 10
4.8242285637
 20
18.1952689009
 10
4.8164889448
 20
18.1854069968
 10
4.8088111148
 20
18.1749249815
 10
4.8012264492
 20
18.1638398433
 10
4.7938128023
 20
18.1522448131
 10
4.7866016895
 20
18.1401763438
 10
4.7796192114
 20
18.12766488
 10
4.7729272613
 20
18.1148125598
 10
4.7665562141
 20
18.101677506
 10
4.7605213544
 20
18.0882911587
 10
4.754854348
 20
18.0747238534
 10
4.7495773732
 20
18.0610335792
 10
4.7447027905
 20
18.0472577724
 10
4.7402441142
 20
18.0334372966
 10
4.736215623
 20
18.0196189848
 10
4.7326304928
 20
18.005850984
 10
4.7294993413
 20
17.9921758425
 10
4.7268324775
 20
17.9786404084
 10
4.7246385264
 20
17.9652908107
 10
4.7229241254
 20
17.9521679769
 10
4.7216951076
 20
17.9393153699
 10
4.7209559305
 20
17.9267785945
 10
4.7207091902
 20
17.914600627
  0
LINE
  5
312
100
AcDbEntity
  8
ASSI
100
AcDbLine
 62
7
  6
CONTINUOUS
 10
11.1377215624
 20
22.8499225489
 11
6.8339256791
 21
19.1351272643
  0
LINE
  5
313
100
AcDbEntity
  8
ASSI
100
AcDbLine
 62
7
  6
CONTINUOUS
 10
11.1194746251
 20
23.2226230181
 11
6.8267300905
 21
19.5400859267
  0
LWPOLYLINE
  5
314
100
AcDbEntity
  8
ASSI
100
AcDbPolyline
 62
250
  6
CONTINUOUS
 90
28
 70
0
 10
5.0261086243
 20
18.0048935013
 10
5.0245885843
 20
18.0036121854
 10
5.0230536122
 20
18.0021938976
 10
5.0215037082
 20
18.0006386378
 10
5.0199296595
 20
17.9989417909
 10
5.0183406787
 20
17.997107972
 10
5.0167644035
 20
17.9951510269
 10
5.0152007612
 20
17.993066269
 10
5.0136498244
 20
17.990858385
 10
5.0121394483
 20
17.9885552802
 10
5.0106711994
 20
17.9861543752
 10
5.0092435113
 20
17.9836582495
 10
5.0078795392
 20
17.9811025473
 10
5.0065820846
 20
17.9784883793
 10
5.0053483462
 20
17.9758146347
 10
5.0041930747
 20
17.9731136256
 10
5.0031181406
 20
17.9703870796
 10
5.0021216734
 20
17.9676332691
 10
5.0012128132
 20
17.9648793232
 10
5.0003923071
 20
17.9621252012
 10
4.999659408
 20
17.9593709438
 10
4.999021015
 20
17.9566438029
 10
4.9984779909
 20
17.9539440834
 10
4.9980294727
 20
17.9512714803
 10
4.9976797712
 20
17.9486523303
 10
4.997430323
 20
17.9460954122
 10
4.9972796914
 20
17.9435919471
 10
4.9972278763
 20
17.941141935
  0
LINE
  5
315
100
AcDbEntity
  8
ASSI
100
AcDbLine
 62
250
  6
CONTINUOUS
 10
6.6094851493
 20
19.6609595452
 11
6.1875863991
 21
19.3129790138
  0
LINE
  5
316
100
AcDbEntity
  8
ASSI
100
AcDbLine
 62
250
  6
CONTINUOUS
 10
6.773290606
 20
19.4313661242
 11
6.3513918557
 21
19.0833855927
  0
LINE
  5
317
100
AcDbEntity
  8
ASSI
100
AcDbLine
 62
250
  6
CONTINUOUS
 10
6.9516899226
 20
17.9717877055
 11
6.3924118384
 21
17.5104972066
  0
LINE
  5
318
100
AcDbEntity
  8
RACCORDO
100
AcDbLine
 62
7
  6
CONTINUOUS
 10
13.3220949874
 20
25.1322348576
 11
12.2582881538
 21
24.2608153151
  0
LINE
  5
319
100
AcDbEntity
  8
RACCORDO
100
AcDbLine
 62
7
  6
CONTINUOUS
 10
11.6894838011
 20
23.7948780668
 11
11.4193255492
 21
23.5735773825
  0
LINE
  5
31A
100
AcDbEntity
  8
0
100
AcDbLine
 62
7
  6
CONTINUOUS
 10
14.09708745
 20
24.7021738601
 11
12.6441208844
 21
23.5119733276
  0
LINE
  5
31B
100
AcDbEntity
  8
RACCORDO
100
AcDbLine
 62
7
  6
CONTINUOUS
 10
14.3050795255
 20
24.7374486515
 11
13.2412706069
 21
23.8660274011
  0
LINE
  5
31C
100
AcDbEntity
  8
0
100
AcDbLine
 62
7
  6
CONTINUOUS
 10
13.0056816799
 20
23.5581465924
 11
12.9846851457
 21
23.5409472385
  0
LINE
  5
31D
100
AcDbEntity
  8
ASSI
100
AcDbLine
 62
250
  6
CONTINUOUS
 10
6.1875863991
 20
19.3129790138
 11
4.8623031676
 21
18.2344869223
  0
LINE
  5
31E
100
AcDbEntity
  8
ASSI
100
AcDbLine
 62
250
  6
CONTINUOUS
 10
6.3513918557
 20
19.0833855927
 11
5.0261086243
 21
18.0048935013
  0
LINE
  5
31F
100
AcDbEntity
  8
DRAFT
100
AcDbLine
 62
7
  6
CONTINUOUS
 10
6.4835341283
 20
18.1598096268
 11
11.7006096986
 21
22.3684265441
  0
LINE
  5
320
100
AcDbEntity
  8
0
100
AcDbLine
 62
7
  6
CONTINUOUS
 10
6.4835341283
 20
18.1598096268
 11
11.7006096986
 21
22.3684265441
  0
LINE
  5
321
100
AcDbEntity
  8
0
100
AcDbLine
 62
7
  6
CONTINUOUS
 10
17.8706604001
 20
26.5754039692
 11
14.9818238214
 21
24.2743424031
  0
LWPOLYLINE
  5
322
100
AcDbEntity
  8
RACCORDO
100
AcDbPolyline
 62
7
  6
CONTINUOUS
 90
10
 70
0
 10
14.3050560863
 20
24.7374294512
 10
14.3143004374
 20
24.7445010667
 10
14.3234019743
 20
24.7504826471
 10
14.332360697
 20
24.7553741927
 10
14.3412536495
 20
24.7591940388
 10
14.3500037878
 20
24.76192385
 10
14.3583799801
 20
24.7635086199
 10
14.3663051825
 20
24.7639300129
 10
14.373856439
 20
24.7632063645
 10
14.3810337495
 20
24.7613376748
  0
LINE
  5
323
100
AcDbEntity
  8
RACCORDO
100
AcDbLine
 62
250
  6
CONTINUOUS
 10
2.1110988226
 20
13.9940606104
 11
4.8699929454
 21
16.0331450222
  0
LWPOLYLINE
  5
324
100
AcDbEntity
  8
ASSI
100
AcDbPolyline
 62
250
  6
CONTINUOUS
 90
13
 70
0
 10
4.9972278763
 20
17.6410452112
 10
4.980699398
 20
17.6296294416
 10
4.9617400777
 20
17.6195329514
 10
4.9406671594
 20
17.6109246805
 10
4.917833253
 20
17.603948667
 10
4.8936204332
 20
17.5987216363
 10
4.8684338465
 20
17.595331049
 10
4.8426949336
 20
17.5938336369
 10
4.8168343753
 20
17.5942544536
 10
4.7912848856
 20
17.5965864558
 10
4.7664739743
 20
17.6007906216
 10
4.7428167938
 20
17.6067966031
 10
4.7207091902
 20
17.6145039031
  0
LWPOLYLINE
  5
325
100
AcDbEntity
  8
RACCORDO
100
AcDbPolyline
 62
7
  6
CONTINUOUS
 90
19
 70
0
 10
19.7983007658
 20
20.6904917455
 10
19.7919919594
 20
20.6874920885
 10
19.7858035798
 20
20.6848158948
 10
19.7797356269
 20
20.6824631644
 10
19.7737848951
 20
20.680438876
 10
19.7679545901
 20
20.6787380509
 10
19.7622543285
 20
20.6773457533
 10
19.7566878147
 20
20.676264818
 10
19.7512513443
 20
20.6754924102
 10
19.7459434215
 20
20.6750050904
 10
19.7407660716
 20
20.6748040013
 10
19.7357172691
 20
20.6748880002
 10
19.7307894425
 20
20.6752302189
 10
19.7259826217
 20
20.6758315322
 10
19.7212967768
 20
20.6766910654
 10
19.7167242454
 20
20.6777793261
 10
19.7122624734
 20
20.6790864834
 10
19.707914015
 20
20.6806223682
 10
19.7036788701
 20
20.6823869805
  0
LWPOLYLINE
  5
326
100
AcDbEntity
  8
0
100
AcDbPolyline
 62
7
  6
CONTINUOUS
 90
19
 70
0
 10
19.7983007658
 20
20.6904917455
 10
19.7919919594
 20
20.6874920885
 10
19.7858035798
 20
20.6848158948
 10
19.7797356269
 20
20.6824631644
 10
19.7737848951
 20
20.680438876
 10
19.7679545901
 20
20.6787380509
 10
19.7622543285
 20
20.6773457533
 10
19.7566878147
 20
20.676264818
 10
19.7512513443
 20
20.6754924102
 10
19.7459434215
 20
20.6750050904
 10
19.7407660716
 20
20.6748040013
 10
19.7357172691
 20
20.6748880002
 10
19.7307894425
 20
20.6752302189
 10
19.7259826217
 20
20.6758315322
 10
19.7212967768
 20
20.6766910654
 10
19.7167242454
 20
20.6777793261
 10
19.7122624734
 20
20.6790864834
 10
19.707914015
 20
20.6806223682
 10
19.7036788701
 20
20.6823869805
  0
LWPOLYLINE
  5
327
100
AcDbEntity
  8
DRAFT
100
AcDbPolyline
 62
250
  6
CONTINUOUS
 90
10
 70
0
 10
-9.0422685135
 20
-9.8576064451
 10
-9.176246325
 20
-9.8241042614
 10
-9.3117472136
 20
-9.7923887865
 10
-9.448673406
 20
-9.7624856344
 10
-9.5869250479
 20
-9.7343559186
 10
-9.7264035475
 20
-9.7080890529
 10
-9.8670115314
 20
-9.6838973101
 10
-10.0086485774
 20
-9.661860391
 10
-10.1512114031
 20
-9.6419308261
 10
-10.2945971288
 20
-9.6241229973
  0
LWPOLYLINE
  5
328
100
AcDbEntity
  8
ASSI
100
AcDbPolyline
 62
7
  6
CONTINUOUS
 90
5
 70
0
 10
6.7675097927
 20
-19.7434043337
 10
6.7475258542
 20
-19.7264064978
 10
6.7259979966
 20
-19.7122457563
 10
6.7034845457
 20
-19.7010607878
 10
6.6994276479
 20
-19.6993885067
  0
LWPOLYLINE
  5
329
100
AcDbEntity
  8
0
100
AcDbPolyline
 62
7
  6
CONTINUOUS
 90
36
 70
0
 10
-7.4039991799
 20
-10.5173558868
 10
-7.4050003561
 20
-10.4567644627
 10
-7.4099625057
 20
-10.3957440988
 10
-7.418869093
 20
-10.334260373
 10
-7.4318358233
 20
-10.2719683015
 10
-7.4487497042
 20
-10.2091695865
 10
-7.4692419082
 20
-10.1467960489
 10
-7.4933676293
 20
-10.0848191838
 10
-7.5210768624
 20
-10.0232402093
 10
-7.551805073
 20
-9.9630168717
 10
-7.5854706978
 20
-9.9043139304
 10
-7.6221506213
 20
-9.8469569411
 10
-7.6614886871
 20
-9.7913826049
 10
-7.7034617865
 20
-9.7375946747
 10
-7.748102987
 20
-9.6856134749
 10
-7.7951236889
 20
-9.6358946503
 10
-7.844807586
 20
-9.5882518127
 10
-7.8968971252
 20
-9.5429280631
 10
-7.9502503947
 20
-9.5009940217
 10
-8.0051823772
 20
-9.4624901354
 10
-8.0613648596
 20
-9.4274095191
 10
-8.1166016244
 20
-9.3966699749
 10
-8.1692053673
 20
-9.3708730398
 10
-8.2207391995
 20
-9.3493259408
 10
-8.2738995485
 20
-9.3310204342
 10
-8.3305255369
 20
-9.3152911336
 10
-8.3888899853
 20
-9.3029387807
 10
-8.4463513224
 20
-9.2951588915
 10
-8.5024891469
 20
-9.2923420493
 10
-8.5577210943
 20
-9.2940820295
 10
-8.6105707036
 20
-9.3002702119
 10
-8.6606117785
 20
-9.3109123373
 10
-8.7082412977
 20
-9.3259332166
 10
-8.7531795944
 20
-9.3450586414
 10
-8.7954603945
 20
-9.3682325133
 10
-8.8348686781
 20
-9.3953422751
  0
LINE
  5
32A
100
AcDbEntity
  8
ASSI
100
AcDbLine
 62
250
  6
CONTINUOUS
 10
-9.3125713333
 20
22.7032662923
 11
-9.3125713333
 21
23.3343191623
  0
LINE
  5
32B
100
AcDbEntity
  8
ASSI
100
AcDbLine
 62
250
  6
CONTINUOUS
 10
-8.9669229756
 20
23.4641511839
 11
-8.9669229756
 21
22.7469881045
  0
LINE
  5
32C
100
AcDbEntity
  8
0
100
AcDbLine
 62
250
  6
CONTINUOUS
 10
-8.8564882538
 20
21.7141296214
 11
-8.8564882538
 21
21.5460093281
  0
LINE
  5
32D
100
AcDbEntity
  8
0
100
AcDbLine
 62
250
  6
CONTINUOUS
 10
-8.5810015944
 20
21.6034879683
 11
-8.5810015944
 21
21.4353676749
  0
LINE
  5
32E
100
AcDbEntity
  8
ASSI
100
AcDbLine
 62
7
  6
CONTINUOUS
 10
-8.2295145326
 20
23.3829924808
 11
-8.2295145326
 21
24.9394063171
  0
LINE
  5
32F
100
AcDbEntity
  8
ASSI
100
AcDbLine
 62
250
  6
CONTINUOUS
 10
-7.7801399155
 20
25.2697999185
 11
-7.7801399155
 21
24.9482556665
  0
LINE
  5
330
100
AcDbEntity
  8
ASSI
100
AcDbLine
 62
7
  6
CONTINUOUS
 10
-7.7459475352
 20
25.334065548
 11
-7.74594743
 21
25.0124036412
  0
LWPOLYLINE
  5
331
100
AcDbEntity
  8
ASSI
100
AcDbPolyline
 62
250
  6
CONTINUOUS
 90
19
 70
0
 10
-7.7801399155
 20
24.9482556665
 10
-7.7801652447
 20
24.9461866781
 10
-7.780274656
 20
24.9440081438
 10
-7.7804681495
 20
24.9417200636
 10
-7.7807421078
 20
24.9393124934
 10
-7.7811001482
 20
24.9367953774
 10
-7.7815531227
 20
24.9341985476
 10
-7.7821041623
 20
24.9315182148
 10
-7.7827501359
 20
24.9287581682
 10
-7.7834925026
 20
24.9259596075
 10
-7.7843346337
 20
24.9231202638
 10
-7.7852731579
 20
24.9202424061
 10
-7.7862994203
 20
24.9173740406
 10
-7.7874164736
 20
24.9145150056
 10
-7.7886212652
 20
24.9116654628
 10
-7.7898959817
 20
24.9088739038
 10
-7.7912346854
 20
24.9061564925
 10
-7.7926433141
 20
24.9034970649
 10
-7.7941218676
 20
24.9008956212
  0
LINE
  5
332
100
AcDbEntity
  8
0
100
AcDbLine
 62
7
  6
CONTINUOUS
 10
-9.0790841256
 20
-12.0799472549
 11
-9.0828774761
 21
-12.3509295839
  0
LINE
  5
333
100
AcDbEntity
  8
DRAFT
100
AcDbLine
 62
7
  6
CONTINUOUS
 10
-9.0828455754
 20
-12.3485978861
 11
-9.0790677719
 21
-12.0788005825
  0
LINE
  5
334
100
AcDbEntity
  8
0
100
AcDbLine
 62
7
  6
CONTINUOUS
 10
-7.4445733875
 20
-13.0089094405
 11
-7.4407807051
 21
-12.7379738231
  0
LINE
  5
335
100
AcDbEntity
  8
DRAFT
100
AcDbLine
 62
7
  6
CONTINUOUS
 10
-7.4407636118
 20
-12.7367779047
 11
-7.4445412807
 21
-13.0065746055
  0
LINE
  5
336
100
AcDbEntity
  8
0
100
AcDbLine
 62
7
  6
CONTINUOUS
 10
-9.0750951434
 20
-11.8060065613
 11
-9.0790841256
 21
-12.0799472549
  0
LINE
  5
337
100
AcDbEntity
  8
DRAFT
100
AcDbLine
 62
7
  6
CONTINUOUS
 10
-9.0790677719
 20
-12.0788005825
 11
-9.0750848546
 21
-11.8053139388
  0
LINE
  5
338
100
AcDbEntity
  8
0
100
AcDbLine
 62
7
  6
CONTINUOUS
 10
-7.4407807051
 20
-12.7379738231
 11
-7.4367920451
 21
-12.4640530864
  0
LINE
  5
339
100
AcDbEntity
  8
DRAFT
100
AcDbLine
 62
7
  6
CONTINUOUS
 10
-7.4367807511
 20
-12.4632919292
 11
-7.4407636118
 21
-12.7367779047
  0
LINE
  5
33A
100
AcDbEntity
  8
0
100
AcDbLine
 62
7
  6
CONTINUOUS
 10
-9.070903233
 20
-11.5289463348
 11
-9.0750951434
 21
-11.8060065613
  0
LINE
  5
33B
100
AcDbEntity
  8
DRAFT
100
AcDbLine
 62
7
  6
CONTINUOUS
 10
-9.0750848546
 20
-11.8053139388
 11
-9.0708919312
 21
-11.5282132317
  0
LINE
  5
33C
100
AcDbEntity
  8
0
100
AcDbLine
 62
7
  6
CONTINUOUS
 10
-7.4367920451
 20
-12.4640530864
 11
-7.4326000671
 21
-12.1869860887
  0
LINE
  5
33D
100
AcDbEntity
  8
DRAFT
100
AcDbLine
 62
7
  6
CONTINUOUS
 10
-7.4325878245
 20
-12.186191948
 11
-7.4367807511
 21
-12.4632919292
  0
LINE
  5
33E
100
AcDbEntity
  8
0
100
AcDbLine
 62
7
  6
CONTINUOUS
 10
-9.0664931178
 20
-11.2481323356
 11
-9.070903233
 21
-11.5289463348
  0
LINE
  5
33F
100
AcDbEntity
  8
DRAFT
100
AcDbLine
 62
7
  6
CONTINUOUS
 10
-9.0708919312
 20
-11.5282132317
 11
-9.0664905551
 21
-11.2479735518
  0
LINE
  5
340
100
AcDbEntity
  8
DRAFT
100
AcDbLine
 62
7
  6
CONTINUOUS
 10
-7.4281839263
 20
-11.9057931671
 11
-7.4325878245
 21
-12.186191948
  0
LINE
  5
341
100
AcDbEntity
  8
0
100
AcDbLine
 62
7
  6
CONTINUOUS
 10
-7.4326000671
 20
-12.1869860887
 11
-7.4281866774
 21
-11.9059667426
  0
LINE
  5
342
100
AcDbEntity
  8
0
100
AcDbLine
 62
7
  6
CONTINUOUS
 10
-9.0618786694
 20
-10.9647806652
 11
-9.0664931178
 21
-11.2481323356
  0
LINE
  5
343
100
AcDbEntity
  8
DRAFT
100
AcDbLine
 62
7
  6
CONTINUOUS
 10
-9.0664905551
 20
-11.2479735518
 11
-9.0618787768
 21
-10.964787196
  0
LINE
  5
344
100
AcDbEntity
  8
DRAFT
100
AcDbLine
 62
7
  6
CONTINUOUS
 10
-7.4235747836
 20
-11.6227727321
 11
-7.4281839263
 21
-11.9057931671
  0
LINE
  5
345
100
AcDbEntity
  8
0
100
AcDbLine
 62
7
  6
CONTINUOUS
 10
-7.4281866774
 20
-11.9059667426
 11
-7.4235747293
 21
-11.6227694858
  0
LINE
  5
346
100
AcDbEntity
  8
0
100
AcDbLine
 62
7
  6
CONTINUOUS
 10
-9.0571399856
 20
-10.6838046269
 11
-9.0618786694
 21
-10.9647806652
  0
LINE
  5
347
100
AcDbEntity
  8
DRAFT
100
AcDbLine
 62
7
  6
CONTINUOUS
 10
-9.0618787768
 20
-10.964787196
 11
-9.0571386663
 21
-10.6837277149
  0
LINE
  5
348
100
AcDbEntity
  8
0
100
AcDbLine
 62
7
  6
CONTINUOUS
 10
-7.4235746767
 20
-11.622766285
 11
-7.4188361136
 21
-11.3417970863
  0
LINE
  5
349
100
AcDbEntity
  8
DRAFT
100
AcDbLine
 62
7
  6
CONTINUOUS
 10
-7.4188345349
 20
-11.3417050522
 11
-7.4235747836
 21
-11.6227727321
  0
LINE
  5
34A
100
AcDbEntity
  8
0
100
AcDbLine
 62
7
  6
CONTINUOUS
 10
-9.0522893245
 20
-10.4056513168
 11
-9.0571399856
 21
-10.6838046269
  0
LINE
  5
34B
100
AcDbEntity
  8
DRAFT
100
AcDbLine
 62
7
  6
CONTINUOUS
 10
-9.0571386663
 20
-10.6837277149
 11
-9.0522842629
 21
-10.4053659552
  0
LINE
  5
34C
100
AcDbEntity
  8
0
100
AcDbLine
 62
7
  6
CONTINUOUS
 10
-7.4188361136
 20
-11.3417970863
 11
-7.4139854633
 21
-11.0636440304
  0
LINE
  5
34D
100
AcDbEntity
  8
DRAFT
100
AcDbLine
 62
7
  6
CONTINUOUS
 10
-7.4139801073
 20
-11.063341677
 11
-7.4188345349
 21
-11.3417050522
  0
LINE
  5
34E
100
AcDbEntity
  8
0
100
AcDbLine
 62
7
  6
CONTINUOUS
 10
-9.0473405092
 20
-10.1308008286
 11
-9.0522893245
 21
-10.4056513168
  0
LINE
  5
34F
100
AcDbEntity
  8
DRAFT
100
AcDbLine
 62
7
  6
CONTINUOUS
 10
-9.0522842629
 20
-10.4053659552
 11
-9.0473253134
 21
-10.1299692754
  0
LINE
  5
350
100
AcDbEntity
  8
0
100
AcDbLine
 62
7
  6
CONTINUOUS
 10
-7.4139854633
 20
-11.0636440304
 11
-7.4090365752
 21
-10.7887891786
  0
LINE
  5
351
100
AcDbEntity
  8
DRAFT
100
AcDbLine
 62
7
  6
CONTINUOUS
 10
-7.4090210996
 20
-10.7879434352
 11
-7.4139801073
 21
-11.063341677
  0
LINE
  5
352
100
AcDbEntity
  8
0
100
AcDbLine
 62
7
  6
CONTINUOUS
 10
-9.0423016552
 20
-9.859376965
 11
-9.0473405092
 21
-10.1308008286
  0
LINE
  5
353
100
AcDbEntity
  8
DRAFT
100
AcDbLine
 62
7
  6
CONTINUOUS
 10
-9.0473253134
 20
-10.1299692754
 11
-9.0422683392
 21
-9.857606234
  0
LINE
  5
354
100
AcDbEntity
  8
0
100
AcDbLine
 62
7
  6
CONTINUOUS
 10
-7.4090365752
 20
-10.7887891786
 11
-7.4039975666
 21
-10.5173568217
  0
LINE
  5
355
100
AcDbEntity
  8
DRAFT
100
AcDbLine
 62
7
  6
CONTINUOUS
 10
-7.4039640233
 20
-10.5155788859
 11
-7.4090210996
 21
-10.7879434352
  0
LINE
  5
356
100
AcDbEntity
  8
ASSI
100
AcDbLine
 62
7
  6
CONTINUOUS
 10
-7.7469372867
 20
24.9895408821
 11
-7.7459475561
 21
25.0124191673
  0
LWPOLYLINE
  5
357
100
AcDbEntity
  8
DRAFT
100
AcDbPolyline
 62
7
  6
CONTINUOUS
 90
3
 70
0
 10
-9.0422685135
 20
-9.8576064451
 10
-9.0381437242
 20
-9.7996380866
 10
-9.031526149
 20
-9.7460166713
  0
LINE
  5
358
100
AcDbEntity
  8
DRAFT
100
AcDbLine
 62
7
  6
CONTINUOUS
 10
-9.031526149
 20
-9.7460166713
 11
-9.0223387756
 21
-9.6966746894
  0
LWPOLYLINE
  5
359
100
AcDbEntity
  8
ASSI
100
AcDbPolyline
 62
7
  6
CONTINUOUS
 90
10
 70
0
 10
1.3136067834
 20
20.0270514021
 10
1.3297567971
 20
20.0590152859
 10
1.3418693074
 20
20.0932123475
 10
1.3499443142
 20
20.1296425869
 10
1.3539818176
 20
20.1687137545
 10
1.3539818176
 20
20.2100180998
 10
1.3499443142
 20
20.2523323721
 10
1.3418693074
 20
20.2952488212
 10
1.3297567971
 20
20.3391751972
 10
1.3136067834
 20
20.3841115002
  0
LWPOLYLINE
  5
35A
100
AcDbEntity
  8
ASSI
100
AcDbPolyline
 62
250
  6
CONTINUOUS
 90
6
 70
0
 10
6.8007664728
 20
19.4137791941
 10
6.8138158371
 20
19.4265921837
 10
6.8238724517
 20
19.4402641465
 10
6.8307680411
 20
19.4545663144
 10
6.8343872219
 20
19.4692593742
 10
6.8349589583
 20
19.4779271659
  0
LWPOLYLINE
  5
35B
100
AcDbEntity
  8
ASSI
100
AcDbPolyline
 62
250
  6
CONTINUOUS
 90
6
 70
0
 10
6.8007664728
 20
19.0922349421
 10
6.8138158477
 20
19.1050479437
 10
6.8238724658
 20
19.1187199176
 10
6.8307680528
 20
19.1330220947
 10
6.8343872271
 20
19.1477151611
 10
6.8349589583
 20
19.1563829166
  0
LINE
  5
35C
100
AcDbEntity
  8
ASSI
100
AcDbLine
 62
7
  6
CONTINUOUS
 10
6.3513918557
 20
17.5269717564
 11
5.6139834127
 21
16.8909673801
  0
LINE
  5
35D
100
AcDbEntity
  8
ASSI
100
AcDbLine
 62
250
  6
CONTINUOUS
 10
6.3927703681
 20
17.510353213
 11
5.5002303368
 21
16.7541111948
  0
LINE
  5
35E
100
AcDbEntity
  8
ASSI
100
AcDbLine
 62
250
  6
CONTINUOUS
 10
6.8019254801
 20
16.9364510811
 11
5.9093854488
 21
16.1802090629
  0
LINE
  5
35F
100
AcDbEntity
  8
RACCORDO
100
AcDbLine
 62
250
  6
CONTINUOUS
 10
19.2239037954
 20
25.634679183
 11
7.4693032781
 21
15.7634905049
  0
LINE
  5
360
100
AcDbEntity
  8
0
100
AcDbLine
 62
250
  6
CONTINUOUS
 10
19.2239037954
 20
25.634679183
 11
7.4693032781
 21
15.7634905049
  0
LWPOLYLINE
  5
361
100
AcDbEntity
  8
RACCORDO
100
AcDbPolyline
 62
250
  6
CONTINUOUS
 90
31
 70
0
 10
19.2239037954
 20
25.634679183
 10
19.2390361709
 20
25.6471831863
 10
19.253719803
 20
25.6594144692
 10
19.2679437875
 20
25.6713639485
 10
19.2816975616
 20
25.6830227507
 10
19.2949709116
 20
25.6943822177
 10
19.3077539808
 20
25.7054339139
 10
19.3200372763
 20
25.7161696324
 10
19.3318116765
 20
25.7265814007
 10
19.3430684377
 20
25.736661487
 10
19.3537992005
 20
25.7464024057
 10
19.3639959962
 20
25.7557969232
 10
19.3736512526
 20
25.7648380631
 10
19.3827577997
 20
25.7735191114
 10
19.3913088748
 20
25.7818336214
 10
19.399298128
 20
25.7897754188
 10
19.4067196263
 20
25.797338606
 10
19.4135678585
 20
25.8045175664
 10
19.4198377391
 20
25.811306969
 10
19.4255246121
 20
25.8177017719
 10
19.4306242542
 20
25.8236972263
 10
19.4351328785
 20
25.8292888799
 10
19.4390471369
 20
25.8344725804
 10
19.4423641226
 20
25.8392444782
 10
19.4450813725
 20
25.8436010298
 10
19.4471968685
 20
25.847539
 10
19.4487090399
 20
25.8510554644
 10
19.4496167636
 20
25.8541478116
 10
19.4499193656
 20
25.8568137453
 10
19.4496166211
 20
25.8590512857
 10
19.4488054747
 20
25.8607274615
  0
LWPOLYLINE
  5
362
100
AcDbEntity
  8
0
100
AcDbPolyline
 62
250
  6
CONTINUOUS
 90
31
 70
0
 10
19.2239037954
 20
25.634679183
 10
19.2390361709
 20
25.6471831863
 10
19.253719803
 20
25.6594144692
 10
19.2679437875
 20
25.6713639485
 10
19.2816975616
 20
25.6830227507
 10
19.2949709116
 20
25.6943822177
 10
19.3077539808
 20
25.7054339139
 10
19.3200372763
 20
25.7161696324
 10
19.3318116765
 20
25.7265814007
 10
19.3430684377
 20
25.736661487
 10
19.3537992005
 20
25.7464024057
 10
19.3639959962
 20
25.7557969232
 10
19.3736512526
 20
25.7648380631
 10
19.3827577997
 20
25.7735191114
 10
19.3913088748
 20
25.7818336214
 10
19.399298128
 20
25.7897754188
 10
19.4067196263
 20
25.797338606
 10
19.4135678585
 20
25.8045175664
 10
19.4198377391
 20
25.811306969
 10
19.4255246121
 20
25.8177017719
 10
19.4306242542
 20
25.8236972263
 10
19.4351328785
 20
25.8292888799
 10
19.4390471369
 20
25.8344725804
 10
19.4423641226
 20
25.8392444782
 10
19.4450813725
 20
25.8436010298
 10
19.4471968685
 20
25.847539
 10
19.4487090399
 20
25.8510554644
 10
19.4496167636
 20
25.8541478116
 10
19.4499193656
 20
25.8568137453
 10
19.4496166211
 20
25.8590512857
 10
19.4488054747
 20
25.8607274615
  0
LINE
  5
363
100
AcDbEntity
  8
ASSI
100
AcDbLine
 62
250
  6
CONTINUOUS
 10
7.3612035643
 20
17.3978041529
 11
6.8019254801
 21
16.9365136541
  0
LINE
  5
364
100
AcDbEntity
  8
RACCORDO
100
AcDbLine
 62
7
  6
CONTINUOUS
 10
18.8266720649
 20
26.1914481318
 11
12.5725726241
 21
21.1462636497
  0
LINE
  5
365
100
AcDbEntity
  8
0
100
AcDbLine
 62
7
  6
CONTINUOUS
 10
18.8266720649
 20
26.1914481318
 11
12.5725726241
 21
21.1462636497
  0
LWPOLYLINE
  5
366
100
AcDbEntity
  8
RACCORDO
100
AcDbPolyline
 62
7
  6
CONTINUOUS
 90
34
 70
0
 10
18.8266720649
 20
26.1914481318
 10
18.839025396
 20
26.2013174578
 10
18.8511865249
 20
26.2108332764
 10
18.8631495216
 20
26.2199931695
 10
18.8749071085
 20
26.2287952881
 10
18.8864549146
 20
26.2372373612
 10
18.8977914722
 20
26.245316622
 10
18.9089110055
 20
26.2530316149
 10
18.9198080761
 20
26.2603809095
 10
18.9304818259
 20
26.2673619998
 10
18.9409267023
 20
26.2739740425
 10
18.9511375064
 20
26.2802162375
 10
18.9611140209
 20
26.2860863826
 10
18.9708509335
 20
26.2915842399
 10
18.9803432955
 20
26.2967096299
 10
18.9895915517
 20
26.3014606871
 10
18.9985906472
 20
26.3058377679
 10
19.0073358931
 20
26.3098412997
 10
19.0158284067
 20
26.3134697752
 10
19.0240634063
 20
26.3167241306
 10
19.0320364714
 20
26.3196053821
 10
19.039749391
 20
26.3221123921
 10
19.0471976697
 20
26.3242466573
 10
19.0543771638
 20
26.3260097611
 10
19.061290323
 20
26.3274009377
 10
19.0679329522
 20
26.3284222219
 10
19.0743011879
 20
26.3290757383
 10
19.0803981144
 20
26.3293610854
 10
19.0862198426
 20
26.3292808108
 10
19.0917627971
 20
26.3288375538
 10
19.0970306712
 20
26.3280312655
 10
19.1020198892
 20
26.326864978
 10
19.1067271657
 20
26.3253418151
 10
19.1080199758
 20
26.3248414899
  0
LWPOLYLINE
  5
367
100
AcDbEntity
  8
0
100
AcDbPolyline
 62
7
  6
CONTINUOUS
 90
34
 70
0
 10
18.8266720649
 20
26.1914481318
 10
18.839025396
 20
26.2013174578
 10
18.8511865249
 20
26.2108332764
 10
18.8631495216
 20
26.2199931695
 10
18.8749071085
 20
26.2287952881
 10
18.8864549146
 20
26.2372373612
 10
18.8977914722
 20
26.245316622
 10
18.9089110055
 20
26.2530316149
 10
18.9198080761
 20
26.2603809095
 10
18.9304818259
 20
26.2673619998
 10
18.9409267023
 20
26.2739740425
 10
18.9511375064
 20
26.2802162375
 10
18.9611140209
 20
26.2860863826
 10
18.9708509335
 20
26.2915842399
 10
18.9803432955
 20
26.2967096299
 10
18.9895915517
 20
26.3014606871
 10
18.9985906472
 20
26.3058377679
 10
19.0073358931
 20
26.3098412997
 10
19.0158284067
 20
26.3134697752
 10
19.0240634063
 20
26.3167241306
 10
19.0320364714
 20
26.3196053821
 10
19.039749391
 20
26.3221123921
 10
19.0471976697
 20
26.3242466573
 10
19.0543771638
 20
26.3260097611
 10
19.061290323
 20
26.3274009377
 10
19.0679329522
 20
26.3284222219
 10
19.0743011879
 20
26.3290757383
 10
19.0803981144
 20
26.3293610854
 10
19.0862198426
 20
26.3292808108
 10
19.0917627971
 20
26.3288375538
 10
19.0970306712
 20
26.3280312655
 10
19.1020198892
 20
26.326864978
 10
19.1067271657
 20
26.3253418151
 10
19.1080199758
 20
26.3248414899
  0
LINE
  5
368
100
AcDbEntity
  8
RACCORDO
100
AcDbLine
 62
250
  6
CONTINUOUS
 10
2.5055303009
 20
13.4084567464
 11
5.2644244237
 21
15.4475411582
  0
LWPOLYLINE
  5
369
100
AcDbEntity
  8
ASSI
100
AcDbPolyline
 62
7
  6
CONTINUOUS
 90
13
 70
0
 10
-8.2295145326
 20
24.9394063171
 10
-8.2309108571
 20
24.9613543898
 10
-8.2350914887
 20
24.984047485
 10
-8.241981553
 20
25.00710046
 10
-8.2514594458
 20
25.0301225471
 10
-8.2633623854
 20
25.0527204149
 10
-8.277489014
 20
25.0745049257
 10
-8.2935997446
 20
25.0951017792
 10
-8.3114169461
 20
25.1141603312
 10
-8.3306328829
 20
25.1313561625
 10
-8.3509194185
 20
25.1463945227
 10
-8.3719337368
 20
25.1590152373
 10
-8.3933199893
 20
25.1689997382
  0
LWPOLYLINE
  5
36A
100
AcDbEntity
  8
ASSI
100
AcDbPolyline
 62
250
  6
CONTINUOUS
 90
9
 70
0
 10
-6.1807744464
 20
23.3712753845
 10
-6.1804849357
 20
23.3651621265
 10
-6.1774254268
 20
23.3504272696
 10
-6.1710754205
 20
23.3360422203
 10
-6.1615411726
 20
23.3222476776
 10
-6.1489822186
 20
23.3092744593
 10
-6.1336087052
 20
23.2973396408
 10
-6.1156778745
 20
23.2866429226
 10
-6.0954897585
 20
23.2773632882
  0
LWPOLYLINE
  5
36B
100
AcDbEntity
  8
ASSI
100
AcDbPolyline
 62
7
  6
CONTINUOUS
 90
11
 70
0
 10
-7.7459476045
 20
25.3340655474
 10
-7.7468279407
 20
25.3551563711
 10
-7.7507744322
 20
25.3829322721
 10
-7.758212178
 20
25.4107196948
 10
-7.7691402
 20
25.4374274335
 10
-7.7833016783
 20
25.4622471392
 10
-7.8006120722
 20
25.4849984732
 10
-7.8208537196
 20
25.5052838849
 10
-7.8436366795
 20
25.5226531802
 10
-7.8684945932
 20
25.536745999
 10
-7.8811098917
 20
25.5423057761
  0
LINE
  5
36C
100
AcDbEntity
  8
ASSI
100
AcDbLine
 62
7
  6
CONTINUOUS
 10
-6.1807744713
 20
22.2520731992
 11
-6.1807744713
 21
23.3713325505
  0
LINE
  5
36D
100
AcDbEntity
  8
ASSI
100
AcDbLine
 62
250
  6
CONTINUOUS
 10
-6.0954897585
 20
22.1543512822
 11
-6.0954897585
 21
23.2773632882
  0
LINE
  5
36E
100
AcDbEntity
  8
0
100
AcDbLine
 62
7
  6
CONTINUOUS
 10
-6.6407421407
 20
-13.3241573059
 11
-6.6445090583
 21
-13.6008891104
  0
LINE
  5
36F
100
AcDbEntity
  8
0
100
AcDbLine
 62
7
  6
CONTINUOUS
 10
-6.6368126287
 20
-13.0473043523
 11
-6.6407421407
 21
-13.3241573059
  0
LINE
  5
370
100
AcDbEntity
  8
0
100
AcDbLine
 62
7
  6
CONTINUOUS
 10
-6.6327205275
 20
-12.7703304347
 11
-6.6368126287
 21
-13.0473043523
  0
LINE
  5
371
100
AcDbEntity
  8
0
100
AcDbLine
 62
7
  6
CONTINUOUS
 10
-6.628465845
 20
-12.4932357211
 11
-6.6327205275
 21
-12.7703304347
  0
LINE
  5
372
100
AcDbEntity
  8
0
100
AcDbLine
 62
7
  6
CONTINUOUS
 10
-6.6240487417
 20
-12.2160300263
 11
-6.628465845
 21
-12.4932357211
  0
LINE
  5
373
100
AcDbEntity
  8
0
100
AcDbLine
 62
7
  6
CONTINUOUS
 10
-6.6194692486
 20
-11.9387137957
 11
-6.6240487417
 21
-12.2160300263
  0
LINE
  5
374
100
AcDbEntity
  8
0
100
AcDbLine
 62
7
  6
CONTINUOUS
 10
-6.6147272216
 20
-11.6612776893
 11
-6.6194692486
 21
-11.9387137957
  0
LWPOLYLINE
  5
375
100
AcDbEntity
  8
ASSI
100
AcDbPolyline
 62
250
  6
CONTINUOUS
 90
28
 70
0
 10
-6.0954897585
 20
23.2773632882
 10
-6.0954551652
 20
23.2793504324
 10
-6.0953016175
 20
23.2813305482
 10
-6.0950291154
 20
23.2833036358
 10
-6.0946429327
 20
23.2852850564
 10
-6.0941377957
 20
23.2872594487
 10
-6.0934978832
 20
23.2891807286
 10
-6.0927183936
 20
23.291047935
 10
-6.0918041286
 20
23.2928620289
 10
-6.0907536721
 20
23.2945798103
 10
-6.0895620432
 20
23.29619831
 10
-6.0882342228
 20
23.2977204971
 10
-6.0867837387
 20
23.2991120784
 10
-6.0852075439
 20
23.3003683417
 10
-6.0835086853
 20
23.3014939992
 10
-6.0817098312
 20
23.3024688938
 10
-6.0798109398
 20
23.3032889963
 10
-6.0778120529
 20
23.303958336
 10
-6.0757359646
 20
23.3044688442
 10
-6.0735821693
 20
23.3048185038
 10
-6.0713511726
 20
23.3050093318
 10
-6.069067285
 20
23.3050393106
 10
-6.0667298503
 20
23.3049066434
 10
-6.0643395248
 20
23.3046131271
 10
-6.0619225884
 20
23.3041621335
 10
-6.0594878012
 20
23.3035547866
 10
-6.0570264032
 20
23.3027899626
 10
-6.0545383943
 20
23.3018676613
  0
LINE
  5
376
100
AcDbEntity
  8
0
100
AcDbLine
 62
7
  6
CONTINUOUS
 10
-6.6098226688
 20
-11.3837218763
 11
-6.6147272216
 21
-11.6612776893
  0
LINE
  5
377
100
AcDbEntity
  8
0
100
AcDbLine
 62
7
  6
CONTINUOUS
 10
-6.6047555957
 20
-11.1060465425
 11
-6.6098226688
 21
-11.3837218763
  0
LWPOLYLINE
  5
378
100
AcDbEntity
  8
0
100
AcDbPolyline
 62
7
  6
CONTINUOUS
 90
46
 70
0
 10
-6.6445090583
 20
-13.6008891104
 10
-6.6509189277
 20
-13.7290428571
 10
-6.6658755562
 20
-13.8516038163
 10
-6.6893228106
 20
-13.9687094563
 10
-6.7215669944
 20
-14.0810765092
 10
-6.7624428156
 20
-14.1883253417
 10
-6.8111231855
 20
-14.2888039241
 10
-6.8675547147
 20
-14.3820894728
 10
-6.9319029878
 20
-14.4685570246
 10
-7.0034772787
 20
-14.547506646
 10
-7.0824943585
 20
-14.6187818007
 10
-7.1689170793
 20
-14.6822670363
 10
-7.2614793369
 20
-14.7371416532
 10
-7.3598956183
 20
-14.7829537225
 10
-7.4644639385
 20
-14.8196531859
 10
-7.5746288242
 20
-14.8469206467
 10
-7.6910192205
 20
-14.8644876556
 10
-7.8130752869
 20
-14.8721556605
 10
-7.9382329067
 20
-14.8696705218
 10
-8.0662648513
 20
-14.8564647997
 10
-8.1971622469
 20
-14.8327339771
 10
-8.3283708238
 20
-14.7993782684
 10
-8.4589583091
 20
-14.75662252
 10
-8.5894893986
 20
-14.7041629769
 10
-8.7195402482
 20
-14.6421740091
 10
-8.8497918624
 20
-14.5704720663
 10
-8.9794791898
 20
-14.4895004311
 10
-9.1059395877
 20
-14.400424811
 10
-9.2290761858
 20
-14.3030811501
 10
-9.3489422624
 20
-14.1981244483
 10
-9.4629321435
 20
-14.0878987925
 10
-9.5703498083
 20
-13.9730673314
 10
-9.6718813262
 20
-13.8534118965
 10
-9.7669036538
 20
-13.7298490109
 10
-9.855678963
 20
-13.6022850045
 10
-9.93815917
 20
-13.4711980769
 10
-10.0132007797
 20
-13.3382238737
 10
-10.0807883458
 20
-13.2034313492
 10
-10.1411981394
 20
-13.0668643897
 10
-10.1936193939
 20
-12.9299112678
 10
-10.2381578212
 20
-12.7921431049
 10
-10.2750112615
 20
-12.6538593583
 10
-10.3033367282
 20
-12.5172863779
 10
-10.3228519051
 20
-12.382958867
 10
-10.3339891073
 20
-12.2499007922
 10
-10.3368807565
 20
-12.1179493938
  0
LWPOLYLINE
  5
379
100
AcDbEntity
  8
DRAFT
100
AcDbPolyline
 62
7
  6
CONTINUOUS
 90
10
 70
0
 10
-7.4445418219
 20
-13.0065748975
 10
-7.4490129893
 20
-13.0791724066
 10
-7.4594995024
 20
-13.1475208589
 10
-7.4759705422
 20
-13.2116206651
 10
-7.4986468333
 20
-13.2718434042
 10
-7.5273291833
 20
-13.3278559678
 10
-7.5613358974
 20
-13.3785680658
 10
-7.6008078854
 20
-13.423862729
 10
-7.6456321038
 20
-13.4638331295
 10
-7.6830524362
 20
-13.490431595
  0
LWPOLYLINE
  5
37A
100
AcDbEntity
  8
0
100
AcDbPolyline
 62
7
  6
CONTINUOUS
 90
3
 70
0
 10
-7.4543112006
 20
-13.1204894262
 10
-7.4474620785
 20
-13.0657900643
 10
-7.4445760957
 20
-13.0089078668
  0
LINE
  5
37B
100
AcDbEntity
  8
DRAFT
100
AcDbLine
 62
7
  6
CONTINUOUS
 10
-9.0223387756
 20
-9.6966746894
 11
-9.0100639745
 21
-9.6517579497
  0
LINE
  5
37C
100
AcDbEntity
  8
DRAFT
100
AcDbLine
 62
7
  6
CONTINUOUS
 10
-9.0100639745
 20
-9.6517579497
 11
-8.9950876711
 21
-9.6110064889
  0
LWPOLYLINE
  5
37D
100
AcDbEntity
  8
ASSI
100
AcDbPolyline
 62
7
  6
CONTINUOUS
 90
13
 70
0
 10
5.6139834127
 20
17.6081304595
 10
5.5993317765
 20
17.5890246149
 10
5.5831433685
 20
17.5708210042
 10
5.5655030492
 20
17.5537254322
 10
5.546452287
 20
17.5379269859
 10
5.5261730907
 20
17.5236169072
 10
5.5049932054
 20
17.5109785747
 10
5.4830710729
 20
17.5001474629
 10
5.460574766
 20
17.4912585646
 10
5.4378796483
 20
17.4844351523
 10
5.4152067959
 20
17.4797318913
 10
5.3927256639
 20
17.4771814572
 10
5.3742432033
 20
17.4767069792
  0
LWPOLYLINE
  5
37E
100
AcDbEntity
  8
RACCORDO
100
AcDbPolyline
 62
250
  6
CONTINUOUS
 90
23
 70
0
 10
19.7036788701
 20
24.2837112045
 10
19.7186080795
 20
24.2967872907
 10
19.7329105544
 20
24.3100918498
 10
19.7465756739
 20
24.3236150017
 10
19.7595932901
 20
24.3373467039
 10
19.7719537361
 20
24.3512767594
 10
19.783647833
 20
24.3653948235
 10
19.7946668966
 20
24.3796904121
 10
19.8050027441
 20
24.3941529091
 10
19.8146477
 20
24.4087715748
 10
19.8235946021
 20
24.4235355531
 10
19.8318368062
 20
24.4384338803
 10
19.8393681916
 20
24.4534554928
 10
19.8461831656
 20
24.4685892354
 10
19.8522766672
 20
24.4838238698
 10
19.8576441714
 20
24.4991480826
 10
19.8622816922
 20
24.514550494
 10
19.8661857859
 20
24.530019666
 10
19.8693535532
 20
24.5455441113
 10
19.8717826417
 20
24.5611123011
 10
19.8734712475
 20
24.5767126746
 10
19.8744181167
 20
24.5923336467
 10
19.8746412976
 20
24.6044510773
  0
LWPOLYLINE
  5
37F
100
AcDbEntity
  8
0
100
AcDbPolyline
 62
250
  6
CONTINUOUS
 90
23
 70
0
 10
19.7036788701
 20
24.2837112045
 10
19.7186080795
 20
24.2967872907
 10
19.7329105544
 20
24.3100918498
 10
19.7465756739
 20
24.3236150017
 10
19.7595932901
 20
24.3373467039
 10
19.7719537361
 20
24.3512767594
 10
19.783647833
 20
24.3653948235
 10
19.7946668966
 20
24.3796904121
 10
19.8050027441
 20
24.3941529091
 10
19.8146477
 20
24.4087715748
 10
19.8235946021
 20
24.4235355531
 10
19.8318368062
 20
24.4384338803
 10
19.8393681916
 20
24.4534554928
 10
19.8461831656
 20
24.4685892354
 10
19.8522766672
 20
24.4838238698
 10
19.8576441714
 20
24.4991480826
 10
19.8622816922
 20
24.514550494
 10
19.8661857859
 20
24.530019666
 10
19.8693535532
 20
24.5455441113
 10
19.8717826417
 20
24.5611123011
 10
19.8734712475
 20
24.5767126746
 10
19.8744181167
 20
24.5923336467
 10
19.8746412976
 20
24.6044510773
  0
LINE
  5
380
100
AcDbEntity
  8
ASSI
100
AcDbLine
 62
7
  6
CONTINUOUS
 10
7.9204816486
 20
15.1108893458
 11
7.3612035643
 21
14.6311118344
  0
LINE
  5
381
100
AcDbEntity
  8
RACCORDO
100
AcDbLine
 62
250
  6
CONTINUOUS
 10
19.7036788701
 20
24.2837112045
 11
7.9919788552
 21
14.4485491827
  0
LINE
  5
382
100
AcDbEntity
  8
0
100
AcDbLine
 62
250
  6
CONTINUOUS
 10
19.7036788701
 20
24.2837112045
 11
7.9919788552
 21
14.4485491827
  0
LINE
  5
383
100
AcDbEntity
  8
ASSI
100
AcDbLine
 62
250
  6
CONTINUOUS
 10
-3.4418745378
 20
22.2116115912
 11
-3.4418745378
 21
21.0885995852
  0
LINE
  5
384
100
AcDbEntity
  8
ASSI
100
AcDbLine
 62
250
  6
CONTINUOUS
 10
-3.1653558516
 20
22.2381528992
 11
-3.1653558516
 21
21.123577035
  0
LINE
  5
385
100
AcDbEntity
  8
ASSI
100
AcDbLine
 62
7
  6
CONTINUOUS
 10
-2.9869414492
 20
21.2774569395
 11
-2.9869414492
 21
22.3833433895
  0
LWPOLYLINE
  5
386
100
AcDbEntity
  8
ASSI
100
AcDbPolyline
 62
250
  6
CONTINUOUS
 90
13
 70
0
 10
-1.7539901618
 20
21.5746705375
 10
-1.7530304155
 20
21.5966045957
 10
-1.7501672351
 20
21.6197439978
 10
-1.7454485285
 20
21.6437015602
 10
-1.7389532518
 20
21.668076409
 10
-1.7307900876
 20
21.6924606879
 10
-1.7210956271
 20
21.7164463822
 10
-1.7100320839
 20
21.7396321469
 10
-1.6977845806
 20
21.7616300211
 10
-1.6845580506
 20
21.7820719202
 10
-1.6705738095
 20
21.8006157955
 10
-1.656065851
 20
21.8169513573
 10
-1.6412769324
 20
21.8308052666
  0
LWPOLYLINE
  5
387
100
AcDbEntity
  8
ASSI
100
AcDbPolyline
 62
7
  6
CONTINUOUS
 90
7
 70
0
 10
-1.9620544715
 20
24.8679447267
 10
-1.9639448033
 20
24.844574541
 10
-1.9700772368
 20
24.8214168328
 10
-1.9801491974
 20
24.7991321904
 10
-1.9940612779
 20
24.7780350313
 10
-2.0119128856
 20
24.7578109378
 10
-2.0337040204
 20
24.7384599101
  0
LWPOLYLINE
  5
388
100
AcDbEntity
  8
DRAFT
100
AcDbPolyline
 62
7
  6
CONTINUOUS
 90
4
 70
0
 10
-8.9950876711
 20
-9.6110064889
 10
-8.978699295
 20
-9.5737589987
 10
-8.9610845443
 20
-9.5400586451
 10
-8.9419606918
 20
-9.5097914439
  0
LWPOLYLINE
  5
389
100
AcDbEntity
  8
ASSI
100
AcDbPolyline
 62
7
  6
CONTINUOUS
 90
5
 70
0
 10
6.7932619381
 20
19.0074452731
 10
6.8025306909
 20
19.0244018408
 10
6.8118649211
 20
19.0446649341
 10
6.8195548169
 20
19.0651059813
 10
6.8257393971
 20
19.0858772212
  0
LWPOLYLINE
  5
38A
100
AcDbEntity
  8
ASSI
100
AcDbPolyline
 62
250
  6
CONTINUOUS
 90
3
 70
0
 10
6.7867845207
 20
19.0448748968
 10
6.7895519598
 20
19.0499245592
 10
6.79203229
 20
19.0550829838
  0
LINE
  5
38B
100
AcDbEntity
  8
ASSI
100
AcDbLine
 62
250
  6
CONTINUOUS
 10
6.3513918557
 20
18.306456042
 11
6.7867845207
 21
19.0448748968
  0
LINE
  5
38C
100
AcDbEntity
  8
ASSI
100
AcDbLine
 62
7
  6
CONTINUOUS
 10
6.3513918557
 20
18.2580413468
 11
6.7932589133
 21
19.0074406658
  0
LWPOLYLINE
  5
38D
100
AcDbEntity
  8
RACCORDO
100
AcDbPolyline
 62
250
  6
CONTINUOUS
 90
46
 70
0
 10
19.7983088911
 20
19.1586836263
 10
19.8035882201
 20
19.162705727
 10
19.8088884805
 20
19.1665466451
 10
19.8142085139
 20
19.1702076978
 10
19.819548254
 20
19.1737041318
 10
19.8249050358
 20
19.1770236782
 10
19.8302732618
 20
19.1801268967
 10
19.8356588201
 20
19.1830204869
 10
19.8410512718
 20
19.1857024238
 10
19.8464196074
 20
19.1881210375
 10
19.8517620195
 20
19.1902768309
 10
19.8570737008
 20
19.1921757999
 10
19.8623182546
 20
19.1937752767
 10
19.8674853674
 20
19.1950748898
 10
19.8725767144
 20
19.1960832672
 10
19.8775729065
 20
19.1967720903
 10
19.8824635217
 20
19.197147514
 10
19.8872478855
 20
19.1972139163
 10
19.8919195834
 20
19.1969418577
 10
19.8964729631
 20
19.1963430757
 10
19.9008987313
 20
19.1954201352
 10
19.9051823539
 20
19.1941323932
 10
19.90931824
 20
19.1924931304
 10
19.9132917313
 20
19.1905087164
 10
19.9170712947
 20
19.1881314324
 10
19.9206473263
 20
19.1853763432
 10
19.9240029329
 20
19.1822545856
 10
19.9270918288
 20
19.1787163025
 10
19.9299000949
 20
19.174781517
 10
19.9324081781
 20
19.1704641553
 10
19.9345568923
 20
19.1657097114
 10
19.9363294109
 20
19.1605515503
 10
19.937701057
 20
19.1549997925
 10
19.9385938368
 20
19.1489723852
 10
19.938991583
 20
19.1425194105
 10
19.9388557745
 20
19.1356502591
 10
19.9380621073
 20
19.1282354642
 10
19.93657577
 20
19.1202999085
 10
19.9343521732
 20
19.1119084819
 10
19.9312432414
 20
19.1030019102
 10
19.9271750783
 20
19.093571404
 10
19.922132841
 20
19.083732182
 10
19.9160735559
 20
19.073593139
 10
19.9089529066
 20
19.0631729675
 10
19.9007625064
 20
19.0525253662
 10
19.8915478183
 20
19.0417724451
  0
LWPOLYLINE
  5
38E
100
AcDbEntity
  8
0
100
AcDbPolyline
 62
250
  6
CONTINUOUS
 90
46
 70
0
 10
19.7983088911
 20
19.1586836263
 10
19.8035882201
 20
19.162705727
 10
19.8088884805
 20
19.1665466451
 10
19.8142085139
 20
19.1702076978
 10
19.819548254
 20
19.1737041318
 10
19.8249050358
 20
19.1770236782
 10
19.8302732618
 20
19.1801268967
 10
19.8356588201
 20
19.1830204869
 10
19.8410512718
 20
19.1857024238
 10
19.8464196074
 20
19.1881210375
 10
19.8517620195
 20
19.1902768309
 10
19.8570737008
 20
19.1921757999
 10
19.8623182546
 20
19.1937752767
 10
19.8674853674
 20
19.1950748898
 10
19.8725767144
 20
19.1960832672
 10
19.8775729065
 20
19.1967720903
 10
19.8824635217
 20
19.197147514
 10
19.8872478855
 20
19.1972139163
 10
19.8919195834
 20
19.1969418577
 10
19.8964729631
 20
19.1963430757
 10
19.9008987313
 20
19.1954201352
 10
19.9051823539
 20
19.1941323932
 10
19.90931824
 20
19.1924931304
 10
19.9132917313
 20
19.1905087164
 10
19.9170712947
 20
19.1881314324
 10
19.9206473263
 20
19.1853763432
 10
19.9240029329
 20
19.1822545856
 10
19.9270918288
 20
19.1787163025
 10
19.9299000949
 20
19.174781517
 10
19.9324081781
 20
19.1704641553
 10
19.9345568923
 20
19.1657097114
 10
19.9363294109
 20
19.1605515503
 10
19.937701057
 20
19.1549997925
 10
19.9385938368
 20
19.1489723852
 10
19.938991583
 20
19.1425194105
 10
19.9388557745
 20
19.1356502591
 10
19.9380621073
 20
19.1282354642
 10
19.93657577
 20
19.1202999085
 10
19.9343521732
 20
19.1119084819
 10
19.9312432414
 20
19.1030019102
 10
19.9271750783
 20
19.093571404
 10
19.922132841
 20
19.083732182
 10
19.9160735559
 20
19.073593139
 10
19.9089529066
 20
19.0631729675
 10
19.9007625064
 20
19.0525253662
 10
19.8915478183
 20
19.0417724451
  0
LWPOLYLINE
  5
38F
100
AcDbEntity
  8
ASSI
100
AcDbPolyline
 62
250
  6
CONTINUOUS
 90
6
 70
0
 10
6.7780945735
 20
-19.796505574
 10
6.7667673725
 20
-19.7739233013
 10
6.7529732577
 20
-19.7532089155
 10
6.7369456384
 20
-19.734712924
 10
6.7189557172
 20
-19.718748297
 10
6.699307901
 20
-19.7055851712
  0
LWPOLYLINE
  5
390
100
AcDbEntity
  8
ASSI
100
AcDbPolyline
 62
7
  6
CONTINUOUS
 90
13
 70
0
 10
-2.9869414492
 20
22.3833433895
 10
-2.9886868548
 20
22.4107784803
 10
-2.9939126443
 20
22.4391448493
 10
-3.0025252247
 20
22.4679610681
 10
-3.0143725906
 20
22.4967386769
 10
-3.0292512651
 20
22.5249860117
 10
-3.0469095509
 20
22.5522166502
 10
-3.0670479641
 20
22.5779627171
 10
-3.089319466
 20
22.6017859071
 10
-3.113339387
 20
22.6232806962
 10
-3.1386975565
 20
22.6420786464
 10
-3.1649654544
 20
22.6578545397
 10
-3.19169827
 20
22.6703351657
  0
LWPOLYLINE
  5
391
100
AcDbEntity
  8
ASSI
100
AcDbPolyline
 62
7
  6
CONTINUOUS
 90
16
 70
0
 10
-1.9841293998
 20
25.9932316503
 10
-1.9853812949
 20
26.0150130975
 10
-1.9907190395
 20
26.0493050765
 10
-2.0002224201
 20
26.0831292104
 10
-2.0138738551
 20
26.1159863846
 10
-2.0315030307
 20
26.1473039712
 10
-2.0529719577
 20
26.176735946
 10
-2.0781887709
 20
26.2040001352
 10
-2.1067914545
 20
26.2286141721
 10
-2.1383303633
 20
26.2502398858
 10
-2.1730006817
 20
26.2689600782
 10
-2.2103908145
 20
26.2844486873
 10
-2.2492284413
 20
26.2962788191
 10
-2.2897553137
 20
26.3046068769
 10
-2.3318490127
 20
26.309356239
 10
-2.3736751956
 20
26.3103371112
  0
LINE
  5
392
100
AcDbEntity
  8
ASSI
100
AcDbLine
 62
7
  6
CONTINUOUS
 10
-1.9620553395
 20
24.8679447293
 11
-1.9841142073
 21
25.9932244643
  0
LINE
  5
393
100
AcDbEntity
  8
ASSI
100
AcDbLine
 62
7
  6
CONTINUOUS
 10
-2.43788992
 20
21.7429459671
 11
-2.4574445864
 21
22.8200704468
  0
LINE
  5
394
100
AcDbEntity
  8
ASSI
100
AcDbLine
 62
250
  6
CONTINUOUS
 10
-2.0337040204
 20
24.7384599101
 11
-2.0525192933
 21
25.8694891563
  0
LINE
  5
395
100
AcDbEntity
  8
ASSI
100
AcDbLine
 62
250
  6
CONTINUOUS
 10
-1.1325672906
 20
24.3855650511
 11
-1.1406925382
 21
25.4470140844
  0
LINE
  5
396
100
AcDbEntity
  8
ASSI
100
AcDbLine
 62
7
  6
CONTINUOUS
 10
-1.8802262387
 20
21.6441354265
 11
-1.8802262387
 21
20.5248760751
  0
LINE
  5
397
100
AcDbEntity
  8
ASSI
100
AcDbLine
 62
250
  6
CONTINUOUS
 10
-1.794941526
 20
21.5501661645
 11
-1.794941526
 21
20.4271541585
  0
LWPOLYLINE
  5
398
100
AcDbEntity
  8
ASSI
100
AcDbPolyline
 62
250
  6
CONTINUOUS
 90
13
 70
0
 10
0.8177223306
 20
20.5418128227
 10
0.8186820782
 20
20.5637468957
 10
0.8215452619
 20
20.5868863112
 10
0.826263973
 20
20.6108438844
 10
0.8327592547
 20
20.6352187408
 10
0.8409224235
 20
20.6596030234
 10
0.8506168877
 20
20.6835887177
 10
0.8616804326
 20
20.7067744785
 10
0.8739279356
 20
20.7287723456
 10
0.8871544629
 20
20.7492142355
 10
0.9011386992
 20
20.7677581005
 10
0.9156466506
 20
20.7840936518
 10
0.93043556
 20
20.7979475517
  0
LWPOLYLINE
  5
399
100
AcDbEntity
  8
ASSI
100
AcDbPolyline
 62
250
  6
CONTINUOUS
 90
11
 70
0
 10
5.011924746
 20
17.6171774814
 10
5.0029269253
 20
17.5933076232
 10
4.9913434864
 20
17.5709826122
 10
4.9773704325
 20
17.5505802091
 10
4.9612442009
 20
17.5324456424
 10
4.9432376632
 20
17.5168857664
 10
4.9236555075
 20
17.5041638692
 10
4.9028290824
 20
17.4944952176
 10
4.8811107914
 20
17.4880434145
 10
4.8588681296
 20
17.4849176308
 10
4.8471332937
 20
17.4846277582
  0
LWPOLYLINE
  5
39A
100
AcDbEntity
  8
ASSI
100
AcDbPolyline
 62
250
  6
CONTINUOUS
 90
7
 70
0
 10
6.79203229
 20
19.0550829838
 10
6.7942255113
 20
19.0603501707
 10
6.7961534417
 20
19.0658002812
 10
6.7977942632
 20
19.0713591539
 10
6.7990825224
 20
19.0768043048
 10
6.7999964015
 20
19.0820615724
 10
6.8005577183
 20
19.0872051182
  0
LWPOLYLINE
  5
39B
100
AcDbEntity
  8
DRAFT
100
AcDbPolyline
 62
7
  6
CONTINUOUS
 90
4
 70
0
 10
-8.9419606918
 20
-9.5097914439
 10
-8.9219306519
 20
-9.4820777476
 10
-8.9010703045
 20
-9.4567817475
 10
-8.8792500748
 20
-9.4340048245
  0
LINE
  5
39C
100
AcDbEntity
  8
DRAFT
100
AcDbLine
 62
7
  6
CONTINUOUS
 10
4.9573427487
 20
-2.4327958546
 11
4.632083591
 21
-2.3021644441
  0
LINE
  5
39D
100
AcDbEntity
  8
ASSI
100
AcDbLine
 62
250
  6
CONTINUOUS
 10
6.7867631936
 20
-19.8205736197
 11
6.7780945735
 21
-19.796505574
  0
LWPOLYLINE
  5
39E
100
AcDbEntity
  8
ASSI
100
AcDbPolyline
 62
7
  6
CONTINUOUS
 90
13
 70
0
 10
1.3136067834
 20
20.6561462657
 10
1.3118613777
 20
20.6835813566
 10
1.3066355882
 20
20.7119477255
 10
1.2980230078
 20
20.7407639443
 10
1.2861756419
 20
20.7695415532
 10
1.2712969674
 20
20.7977888879
 10
1.2536386816
 20
20.8250195264
 10
1.2335002684
 20
20.8507655933
 10
1.2112287665
 20
20.8745887833
 10
1.1872088455
 20
20.8960835724
 10
1.161850676
 20
20.9148815226
 10
1.1355827781
 20
20.9306574159
 10
1.1088499625
 20
20.943138042
  0
LWPOLYLINE
  5
39F
100
AcDbEntity
  8
ASSI
100
AcDbPolyline
 62
7
  6
CONTINUOUS
 90
16
 70
0
 10
-0.2539761905
 20
25.5127077381
 10
-0.2550437125
 20
25.5301052103
 10
-0.2586432611
 20
25.547192907
 10
-0.264776453
 20
25.5639564514
 10
-0.2735894016
 20
25.5806462163
 10
-0.2849412358
 20
25.5969498056
 10
-0.2984026088
 20
25.6120006435
 10
-0.3138783267
 20
25.6255448201
 10
-0.3314613032
 20
25.6377386517
 10
-0.351000175
 20
25.6483318479
 10
-0.3726212572
 20
25.6572961342
 10
-0.3961730436
 20
25.6645255121
 10
-0.4210818637
 20
25.6696691262
 10
-0.4471395429
 20
25.6725809727
 10
-0.4744999735
 20
25.6732966709
 10
-0.5031259106
 20
25.6717548323
  0
LWPOLYLINE
  5
3A0
100
AcDbEntity
  8
ASSI
100
AcDbPolyline
 62
250
  6
CONTINUOUS
 90
28
 70
0
 10
1.1351923809
 20
20.5109557755
 10
1.1348114651
 20
20.5216363973
 10
1.1338574487
 20
20.5327403115
 10
1.1322988119
 20
20.5442478373
 10
1.13010011
 20
20.5561615494
 10
1.1272356681
 20
20.5684272119
 10
1.123703374
 20
20.5809313378
 10
1.1194914068
 20
20.5936359925
 10
1.1145910527
 20
20.6064993523
 10
1.1090329752
 20
20.6193956171
 10
1.1028283076
 20
20.632274223
 10
1.0959866812
 20
20.6450931914
 10
1.0885616047
 20
20.6577404127
 10
1.0805876261
 20
20.6701570975
 10
1.0720843521
 20
20.6823130333
 10
1.0630976509
 20
20.6941438248
 10
1.0536686458
 20
20.7056000278
 10
1.0438254277
 20
20.7166520846
 10
1.0335984019
 20
20.7272685918
 10
1.0230236133
 20
20.7374137652
 10
1.0121393669
 20
20.747052495
 10
1.0009800385
 20
20.7561557616
 10
0.9895849141
 20
20.7646921559
 10
0.9779938882
 20
20.7726324569
 10
0.9662428009
 20
20.7799525885
 10
0.9543709812
 20
20.7866276997
 10
0.9424213519
 20
20.792633101
 10
0.93043556
 20
20.7979475517
  0
LWPOLYLINE
  5
3A1
100
AcDbEntity
  8
ASSI
100
AcDbPolyline
 62
250
  6
CONTINUOUS
 90
28
 70
0
 10
0.8586736947
 20
20.4844144675
 10
0.8586284743
 20
20.4865756062
 10
0.8584555218
 20
20.4888112346
 10
0.8581548371
 20
20.4911213524
 10
0.8577293476
 20
20.4935180158
 10
0.857176126
 20
20.4959891687
 10
0.8564863906
 20
20.4984986433
 10
0.855655305
 20
20.5010485423
 10
0.8546877055
 20
20.5036367631
 10
0.8535893195
 20
20.5062208295
 10
0.8523561297
 20
20.5088001141
 10
0.8509921534
 20
20.5113752444
 10
0.8495151704
 20
20.5139056257
 10
0.8479240162
 20
20.5163876413
 10
0.8462198554
 20
20.5188249081
 10
0.8444239614
 20
20.5211876825
 10
0.842536609
 20
20.5234731409
 10
0.8405575235
 20
20.525684107
 10
0.8385071545
 20
20.5277993083
 10
0.8363848678
 20
20.5298179402
 10
0.8341912976
 20
20.5317408073
 10
0.8319487961
 20
20.5335490504
 10
0.8296569845
 20
20.5352416001
 10
0.8273162416
 20
20.5368195258
 10
0.8249500558
 20
20.5382671761
 10
0.8225662569
 20
20.5395793337
 10
0.8201570151
 20
20.540761216
 10
0.8177223306
 20
20.5418128227
  0
LINE
  5
3A2
100
AcDbEntity
  8
ASSI
100
AcDbLine
 62
250
  6
CONTINUOUS
 10
1.9371275652
 20
26.3112748851
 11
1.9322870241
 21
26.5905333715
  0
LINE
  5
3A3
100
AcDbEntity
  8
ASSI
100
AcDbLine
 62
7
  6
CONTINUOUS
 10
1.9738757054
 20
26.3439989613
 11
1.9684515289
 21
26.6569282917
  0
LWPOLYLINE
  5
3A4
100
AcDbEntity
  8
ASSI
100
AcDbPolyline
 62
250
  6
CONTINUOUS
 90
16
 70
0
 10
2.329075389
 20
18.5750379559
 10
2.3292476651
 20
18.565126518
 10
2.3297840704
 20
18.5552397129
 10
2.3307151906
 20
18.5454324584
 10
2.3320746609
 20
18.5357438439
 10
2.3338902641
 20
18.5262598322
 10
2.3361747894
 20
18.5171029734
 10
2.3389472104
 20
18.5083345803
 10
2.3422245955
 20
18.5000188659
 10
2.3459980734
 20
18.4922654201
 10
2.3502721085
 20
18.4851287603
 10
2.3550487224
 20
18.478663459
 10
2.3602958768
 20
18.4729539561
 10
2.3660025787
 20
18.4680389938
 10
2.3721558688
 20
18.463954788
 10
2.3790464655
 20
18.4606111764
  0
LINE
  5
3A5
100
AcDbEntity
  8
ASSI
100
AcDbLine
 62
250
  6
CONTINUOUS
 10
0.2592277259
 20
24.5859706785
 11
0.2552564469
 21
25.1047622847
  0
LINE
  5
3A6
100
AcDbEntity
  8
ASSI
100
AcDbLine
 62
250
  6
CONTINUOUS
 10
0.8586736947
 20
19.3614024615
 11
0.8586736947
 21
20.4844144675
  0
LINE
  5
3A7
100
AcDbEntity
  8
ASSI
100
AcDbLine
 62
250
  6
CONTINUOUS
 10
1.1351923809
 20
19.3963799112
 11
1.1351923809
 21
20.5109557755
  0
LINE
  5
3A8
100
AcDbEntity
  8
ASSI
100
AcDbLine
 62
7
  6
CONTINUOUS
 10
1.3136067834
 20
19.5502598157
 11
1.3136067834
 21
20.6561462657
  0
LINE
  5
3A9
100
AcDbEntity
  8
ASSI
100
AcDbLine
 62
7
  6
CONTINUOUS
 10
2.2437906763
 20
18.9691039417
 11
2.2437906763
 21
18.6690072182
  0
LINE
  5
3AA
100
AcDbEntity
  8
ASSI
100
AcDbLine
 62
250
  6
CONTINUOUS
 10
2.329075389
 20
18.8751346797
 11
2.329075389
 21
18.5750379559
  0
LWPOLYLINE
  5
3AB
100
AcDbEntity
  8
RACCORDO
100
AcDbPolyline
 62
250
  6
CONTINUOUS
 90
5
 70
0
 10
0.829731568
 20
-22.5094831777
 10
0.8637429519
 20
-18.6883005541
 10
0.9239686067
 20
-14.8479096571
 10
1.0104085323
 20
-10.9883104867
 10
1.1230817541
 20
-7.1089689412
  0
LWPOLYLINE
  5
3AC
100
AcDbEntity
  8
RACCORDO
100
AcDbPolyline
 62
250
  6
CONTINUOUS
 90
5
 70
0
 10
0.1693120943
 20
-22.5810319237
 10
0.2065294956
 20
-18.7575832395
 10
0.2691920397
 20
-14.9139522545
 10
0.3573050483
 20
-11.0504796893
 10
0.4708762426
 20
-7.1673334146
  0
LWPOLYLINE
  5
3AD
100
AcDbEntity
  8
RACCORDO
100
AcDbPolyline
 62
250
  6
CONTINUOUS
 90
5
 70
0
 10
0.4708762426
 20
-7.1673334146
 10
0.6098972183
 20
-3.2650366982
 10
0.7743365005
 20
0.6555268778
 10
0.9641646587
 20
4.5938183958
 10
1.1793612691
 20
8.5496490364
  0
LWPOLYLINE
  5
3AE
100
AcDbEntity
  8
RACCORDO
100
AcDbPolyline
 62
250
  6
CONTINUOUS
 90
6
 70
0
 10
1.1230817541
 20
-7.1089689412
 10
1.2619692468
 20
-3.2104191223
 10
1.4270139341
 20
0.7057366647
 10
1.6181967907
 20
4.6389643182
 10
1.8355368419
 20
8.5897979398
 10
2.0790340877
 20
12.5582375296
  0
LINE
  5
3AF
100
AcDbEntity
  8
RACCORDO
100
AcDbLine
 62
250
  6
CONTINUOUS
 10
1.1793612691
 20
8.5496490364
 11
1.4198957881
 21
12.5226513842
  0
LWPOLYLINE
  5
3B0
100
AcDbEntity
  8
RACCORDO
100
AcDbPolyline
 62
250
  6
CONTINUOUS
 90
22
 70
0
 10
1.4198957966
 20
12.5226513879
 10
1.4262017933
 20
12.5976106515
 10
1.4359071279
 20
12.6746039642
 10
1.4489647665
 20
12.7532364692
 10
1.4653180503
 20
12.8330961973
 10
1.4848822459
 20
12.9137813379
 10
1.5075470764
 20
12.9949028553
 10
1.5332125006
 20
13.0760486221
 10
1.5617530192
 20
13.156795782
 10
1.5930009116
 20
13.2367384627
 10
1.6268127666
 20
13.315461833
 10
1.66302698
 20
13.3925600234
 10
1.7014305213
 20
13.4676489042
 10
1.7418472586
 20
13.540338809
 10
1.784083647
 20
13.6102504996
 10
1.827886232
 20
13.6770334324
 10
1.8730482998
 20
13.7403348904
 10
1.9193584199
 20
13.7998280066
 10
1.96654668
 20
13.8552263218
 10
2.0143741936
 20
13.9062454292
 10
2.0626338105
 20
13.9526059246
 10
2.1110988225
 20
13.9940606104
  0
LWPOLYLINE
  5
3B1
100
AcDbEntity
  8
RACCORDO
100
AcDbPolyline
 62
250
  6
CONTINUOUS
 90
22
 70
0
 10
2.0790340877
 20
12.5582375296
 10
2.0828953671
 20
12.6020517499
 10
2.0887944928
 20
12.6466193515
 10
2.0967314648
 20
12.6919403344
 10
2.106767852
 20
12.7382729245
 10
2.1188420856
 20
12.785358896
 10
2.1327694589
 20
12.8324235708
 10
2.1485767503
 20
12.8794473154
 10
2.1662371816
 20
12.9264497634
 10
2.1854857114
 20
12.9727151376
 10
2.2063486849
 20
13.0182352976
 10
2.228799757
 20
13.0630183837
 10
2.2524948517
 20
13.1063730409
 10
2.2774530948
 20
13.1482756703
 10
2.3036553605
 20
13.1887498707
 10
2.330700195
 20
13.2271750836
 10
2.3586141484
 20
13.2635296324
 10
2.3873706706
 20
13.2978351937
 10
2.4164886573
 20
13.3295362387
 10
2.4458077406
 20
13.358447591
 10
2.4754882885
 20
13.3847544269
 10
2.5055303009
 20
13.4084567464
  0
LWPOLYLINE
  5
3B2
100
AcDbEntity
  8
ASSI
100
AcDbPolyline
 62
7
  6
CONTINUOUS
 90
3
 70
0
 10
6.8257393971
 20
19.0858772212
 10
6.8304633726
 20
19.1073270856
 10
6.833519115
 20
19.1287700804
  0
LWPOLYLINE
  5
3B3
100
AcDbEntity
  8
RACCORDO
100
AcDbPolyline
 62
250
  6
CONTINUOUS
 90
17
 70
0
 10
9.9540546595
 20
24.0574446561
 10
9.9671366292
 20
24.09772037
 10
9.998109351
 20
24.1715791427
 10
10.0357101706
 20
24.2444100497
 10
10.0798070191
 20
24.3159744481
 10
10.1302361658
 20
24.3860423997
 10
10.1868729551
 20
24.4544719215
 10
10.2496283629
 20
24.521159401
 10
10.3183194324
 20
24.5859036948
 10
10.3927889733
 20
24.6485504998
 10
10.4730191989
 20
24.709053828
 10
10.5590500486
 20
24.7673705659
 10
10.6504994403
 20
24.8231728529
 10
10.746647088
 20
24.8760222441
 10
10.8474946724
 20
24.9259392286
 10
10.9524582438
 20
24.9726533938
 10
11.0577729929
 20
25.0147598521
  0
LINE
  5
3B4
100
AcDbEntity
  8
RACCORDO
100
AcDbLine
 62
250
  6
CONTINUOUS
 10
19.8915478183
 20
19.0417724451
 11
19.8896497723
 21
19.0397357326
  0
LINE
  5
3B5
100
AcDbEntity
  8
0
100
AcDbLine
 62
250
  6
CONTINUOUS
 10
19.8915478183
 20
19.0417724451
 11
19.8896497723
 21
19.0397357326
  0
LINE
  5
3B6
100
AcDbEntity
  8
DRAFT
100
AcDbLine
 62
7
  6
CONTINUOUS
 10
19.8893773204
 20
19.0392738315
 11
20.7567880079
 21
19.9398066208
  0
LINE
  5
3B7
100
AcDbEntity
  8
0
100
AcDbLine
 62
7
  6
CONTINUOUS
 10
19.8893773204
 20
19.0392738315
 11
20.7567880079
 21
19.9398066208
  0
LINE
  5
3B8
100
AcDbEntity
  8
DRAFT
100
AcDbLine
 62
7
  6
CONTINUOUS
 10
-8.8792500748
 20
-9.4340048245
 11
-8.856813655
 21
-9.4132648109
  0
LWPOLYLINE
  5
3B9
100
AcDbEntity
  8
0
100
AcDbPolyline
 62
7
  6
CONTINUOUS
 90
11
 70
0
 10
-8.8568429647
 20
-9.4132375697
 10
-8.8715938531
 20
-9.4266062511
 10
-8.9051684369
 20
-9.4617617699
 10
-8.9357176923
 20
-9.5008052954
 10
-8.9625890184
 20
-9.5431533468
 10
-8.985690884
 20
-9.588842217
 10
-9.0051407433
 20
-9.6378441187
 10
-9.0205595621
 20
-9.689456
 10
-9.0318165959
 20
-9.7434468472
 10
-9.0390566162
 20
-9.8000771306
 10
-9.042299552
 20
-9.8593775222
  0
LWPOLYLINE
  5
3BA
100
AcDbEntity
  8
DRAFT
100
AcDbPolyline
 62
7
  6
CONTINUOUS
 90
46
 70
0
 10
-8.856813655
 20
-9.4132648109
 10
-8.8337471939
 20
-9.3944263552
 10
-8.8100306381
 20
-9.3776056598
 10
-8.7856584534
 20
-9.3623978219
 10
-8.7606953839
 20
-9.3487367952
 10
-8.7350606173
 20
-9.3366834094
 10
-8.708573034
 20
-9.3260601465
 10
-8.6811246161
 20
-9.3168012311
 10
-8.6528240045
 20
-9.3089821168
 10
-8.6238186062
 20
-9.3026400072
 10
-8.5940972562
 20
-9.2977803282
 10
-8.5636715452
 20
-9.2944058981
 10
-8.5327192444
 20
-9.2925456042
 10
-8.5012080503
 20
-9.2922228859
 10
-8.4691712303
 20
-9.2934206647
 10
-8.4368796545
 20
-9.2961005854
 10
-8.4044681978
 20
-9.3002355453
 10
-8.3717995711
 20
-9.3058519159
 10
-8.3387359405
 20
-9.3129901893
 10
-8.3053509882
 20
-9.3215883388
 10
-8.2715794063
 20
-9.3317159906
 10
-8.2370833087
 20
-9.3436194081
 10
-8.2018685975
 20
-9.357237369
 10
-8.1659557984
 20
-9.3726537655
 10
-8.1290410204
 20
-9.3903439179
 10
-8.0911776126
 20
-9.4102092935
 10
-8.0523599848
 20
-9.4323860628
 10
-8.0122132358
 20
-9.4577162532
 10
-7.9705155481
 20
-9.4863028901
 10
-7.9275798231
 20
-9.5181096994
 10
-7.88384429
 20
-9.553775601
 10
-7.8391779157
 20
-9.5934348233
 10
-7.7938275436
 20
-9.6370234758
 10
-7.7487874226
 20
-9.6848696484
 10
-7.703924902
 20
-9.7372197487
 10
-7.6595045104
 20
-9.7938967961
 10
-7.6170801365
 20
-9.8545679503
 10
-7.5765238544
 20
-9.9197537021
 10
-7.5380947141
 20
-9.9890111425
 10
-7.5038412976
 20
-10.0605176577
 10
-7.4739648189
 20
-10.1344001844
 10
-7.4483288918
 20
-10.2106085569
 10
-7.428360335
 20
-10.2870014283
 10
-7.4145174823
 20
-10.3628841917
 10
-7.4063674894
 20
-10.4390501844
 10
-7.4039643272
 20
-10.5155790472
  0
LINE
  5
3BB
100
AcDbEntity
  8
0
100
AcDbLine
 62
7
  6
CONTINUOUS
 10
-8.8348686781
 20
-9.3953422751
 11
-8.8568429647
 21
-9.4132375697
  0
LWPOLYLINE
  5
3BC
100
AcDbEntity
  8
ASSI
100
AcDbPolyline
 62
250
  6
CONTINUOUS
 90
8
 70
0
 10
-7.7825356458
 20
25.284347253
 10
-7.7819069339
 20
25.282625477
 10
-7.7813720073
 20
25.2807726286
 10
-7.7809298389
 20
25.2787901937
 10
-7.7805850803
 20
25.2766995658
 10
-7.7803392822
 20
25.2745078763
 10
-7.7801908939
 20
25.2722079938
 10
-7.7801399155
 20
25.2697999185
  0
LWPOLYLINE
  5
3BD
100
AcDbEntity
  8
ASSI
100
AcDbPolyline
 62
7
  6
CONTINUOUS
 90
6
 70
0
 10
6.8297038858
 20
-19.8568414129
 10
6.8229182705
 20
-19.8318061317
 10
6.8132795269
 20
-19.8076102055
 10
6.8006617297
 20
-19.7843671438
 10
6.7853160772
 20
-19.7628214292
 10
6.7675097927
 20
-19.7434043337
  0
LINE
  5
3BE
100
AcDbEntity
  8
0
100
AcDbLine
 62
7
  6
CONTINUOUS
 10
5.9093854488
 20
-15.2927495403
 11
4.9573427487
 21
-2.4327958546
  0
LWPOLYLINE
  5
3BF
100
AcDbEntity
  8
ASSI
100
AcDbPolyline
 62
250
  6
CONTINUOUS
 90
13
 70
0
 10
1.4699971668
 20
26.8810314418
 10
1.4685161567
 20
26.9030593524
 10
1.4643190128
 20
26.925771646
 10
1.4574759648
 20
26.9487882836
 10
1.4481015158
 20
26.9717241335
 10
1.4363525259
 20
26.9941954162
 10
1.4224255881
 20
27.0158261253
 10
1.4065537381
 20
27.0362543197
 10
1.3890025556
 20
27.0551381795
 10
1.3700657203
 20
27.0721617261
 10
1.3500600975
 20
27.0870401088
 10
1.3293204362
 20
27.0995243714
 10
1.3081937679
 20
27.1094056176
  0
LWPOLYLINE
  5
3C0
100
AcDbEntity
  8
ASSI
100
AcDbPolyline
 62
7
  6
CONTINUOUS
 90
12
 70
0
 10
1.9684464244
 20
26.6566891735
 10
1.9640786024
 20
26.7370568525
 10
1.9548844155
 20
26.8069043346
 10
1.9404954443
 20
26.8735039899
 10
1.9208135788
 20
26.9362025347
 10
1.8960883464
 20
26.9937944281
 10
1.8664735027
 20
27.0459798727
 10
1.8319656045
 20
27.0927588152
 10
1.7930115635
 20
27.1334920682
 10
1.7499878034
 20
27.1678587765
 10
1.7034469772
 20
27.1955428719
 10
1.6738162377
 20
27.2089488023
  0
LWPOLYLINE
  5
3C1
100
AcDbEntity
  8
ASSI
100
AcDbPolyline
 62
7
  6
CONTINUOUS
 90
6
 70
0
 10
2.2437907994
 20
18.6690255914
 10
2.2452131902
 20
18.6421209906
 10
2.2493386424
 20
18.6165936865
 10
2.2563442749
 20
18.5913795268
 10
2.2662431016
 20
18.567062818
 10
2.2791606268
 20
18.5437648739
  0
LWPOLYLINE
  5
3C2
100
AcDbEntity
  8
ASSI
100
AcDbPolyline
 62
250
  6
CONTINUOUS
 90
3
 70
0
 10
1.9322870241
 20
26.5905333715
 10
1.9301654697
 20
26.6384175646
 10
1.9256087018
 20
26.68359564
  0
LINE
  5
3C3
100
AcDbEntity
  8
ASSI
100
AcDbLine
 62
7
  6
CONTINUOUS
 10
2.8219965059
 20
18.2827124541
 11
2.8219965059
 21
17.9090873473
  0
LINE
  5
3C4
100
AcDbEntity
  8
ASSI
100
AcDbLine
 62
250
  6
CONTINUOUS
 10
2.9286023968
 20
18.239897125
 11
2.9286023968
 21
17.7869349515
  0
LINE
  5
3C5
100
AcDbEntity
  8
ASSI
100
AcDbLine
 62
7
  6
CONTINUOUS
 10
3.3061685511
 20
17.496113705
 11
3.3061685511
 21
18.0866622515
  0
LINE
  5
3C6
100
AcDbEntity
  8
ASSI
100
AcDbLine
 62
250
  6
CONTINUOUS
 10
3.412774442
 20
17.4296055671
 11
3.412774442
 21
18.1397999847
  0
LINE
  5
3C7
100
AcDbEntity
  8
ASSI
100
AcDbLine
 62
250
  6
CONTINUOUS
 10
3.6370101372
 20
17.3395474567
 11
3.6370101372
 21
18.0497418743
  0
LINE
  5
3C8
100
AcDbEntity
  8
ASSI
100
AcDbLine
 62
250
  6
CONTINUOUS
 10
3.9826584949
 20
-20.746951865
 11
3.9826584949
 21
-20.5314225763
  0
LINE
  5
3C9
100
AcDbEntity
  8
ASSI
100
AcDbLine
 62
250
  6
CONTINUOUS
 10
3.9826584949
 20
17.2565531534
 11
3.9826584949
 21
17.8165644329
  0
LINE
  5
3CA
100
AcDbEntity
  8
ASSI
100
AcDbLine
 62
7
  6
CONTINUOUS
 10
4.4261295436
 20
17.6384564618
 11
4.4261295436
 21
17.2498891977
  0
LINE
  5
3CB
100
AcDbEntity
  8
ASSI
100
AcDbLine
 62
7
  6
CONTINUOUS
 10
4.4261295436
 20
-19.4481223865
 11
4.4261295436
 21
-20.0400823908
  0
LINE
  5
3CC
100
AcDbEntity
  8
ASSI
100
AcDbLine
 62
250
  6
CONTINUOUS
 10
4.7207091902
 20
17.914600627
 11
4.7207091902
 21
17.6145203085
  0
LINE
  5
3CD
100
AcDbEntity
  8
ASSI
100
AcDbLine
 62
250
  6
CONTINUOUS
 10
4.7207091902
 20
-21.7498685466
 11
4.7207091902
 21
-21.4497718228
  0
LINE
  5
3CE
100
AcDbEntity
  8
ASSI
100
AcDbLine
 62
250
  6
CONTINUOUS
 10
4.9972278763
 20
17.941141935
 11
4.9972278763
 21
17.6410452112
  0
LINE
  5
3CF
100
AcDbEntity
  8
ASSI
100
AcDbLine
 62
250
  6
CONTINUOUS
 10
4.9972278763
 20
-21.7233272386
 11
4.9972278763
 21
-21.4232305148
  0
LINE
  5
3D0
100
AcDbEntity
  8
ASSI
100
AcDbLine
 62
7
  6
CONTINUOUS
 10
4.5194074324
 20
22.2616248807
 11
4.5261614435
 21
23.3710763057
  0
LINE
  5
3D1
100
AcDbEntity
  8
ASSI
100
AcDbLine
 62
250
  6
CONTINUOUS
 10
4.461542507
 20
23.2525520274
 11
4.4590815799
 21
22.9726508707
  0
LINE
  5
3D2
100
AcDbEntity
  8
ASSI
100
AcDbLine
 62
250
  6
CONTINUOUS
 10
4.4558912316
 20
22.6097867303
 11
4.4517483864
 21
22.1385874229
  0
LWPOLYLINE
  5
3D3
100
AcDbEntity
  8
ASSI
100
AcDbPolyline
 62
250
  6
CONTINUOUS
 90
19
 70
0
 10
4.7207091902
 20
-21.4497718228
 10
4.7208870399
 20
-21.4394492746
 10
4.7214410032
 20
-21.4285619948
 10
4.7224002138
 20
-21.4171167049
 10
4.7237965114
 20
-21.4050997877
 10
4.7256561828
 20
-21.3925528351
 10
4.7279909356
 20
-21.3795772153
 10
4.7308181375
 20
-21.3662042858
 10
4.7341529101
 20
-21.3524713513
 10
4.7379849735
 20
-21.338501659
 10
4.7423173133
 20
-21.3243426201
 10
4.7471502336
 20
-21.3100454638
 10
4.7524503432
 20
-21.2957452884
 10
4.75820558
 20
-21.2814980142
 10
4.764401825
 20
-21.2673599757
 10
4.7709852418
 20
-21.2534644348
 10
4.7779182474
 20
-21.2398894986
 10
4.7851867877
 20
-21.2266619586
 10
4.7927637035
 20
-21.2138329775
  0
LINE
  5
3D4
100
AcDbEntity
  8
RACCORDO
100
AcDbLine
 62
7
  6
CONTINUOUS
 10
3.967607538
 20
-20.9539005179
 11
5.2644244237
 21
15.4475411582
  0
LINE
  5
3D5
100
AcDbEntity
  8
0
100
AcDbLine
 62
7
  6
CONTINUOUS
 10
4.9573427487
 20
-2.4327958546
 11
5.9093854488
 21
11.9030983301
  0
LWPOLYLINE
  5
3D6
100
AcDbEntity
  8
ASSI
100
AcDbPolyline
 62
250
  6
CONTINUOUS
 90
7
 70
0
 10
4.5261610459
 20
23.3710078375
 10
4.5251684857
 20
23.3562006099
 10
4.5202786202
 20
23.3340997539
 10
4.5113562421
 20
23.3124532678
 10
4.4984942201
 20
23.2914941538
 10
4.4818301747
 20
23.2714541434
 10
4.461542507
 20
23.2525520274
  0
LWPOLYLINE
  5
3D7
100
AcDbEntity
  8
ASSI
100
AcDbPolyline
 62
7
  6
CONTINUOUS
 90
7
 70
0
 10
4.5193277388
 20
22.2616259703
 10
4.5182493363
 20
22.2472169511
 10
4.512939572
 20
22.2232437374
 10
4.5035935602
 20
22.2002752574
 10
4.4903480831
 20
22.1787079121
 10
4.4730663585
 20
22.1581453006
 10
4.4517483864
 20
22.1385874229
  0
LWPOLYLINE
  5
3D8
100
AcDbEntity
  8
RACCORDO
100
AcDbPolyline
 62
250
  6
CONTINUOUS
 90
48
 70
0
 10
10.0585455456
 20
24.001106192
 10
10.0698035844
 20
24.0495453434
 10
10.0923826202
 20
24.1193645887
 10
10.1211973934
 20
24.1884197752
 10
10.1561870459
 20
24.2567132262
 10
10.197037299
 20
24.3236796213
 10
10.2437616601
 20
24.3892719498
 10
10.2963466218
 20
24.4535372226
 10
10.354437384
 20
24.5160511524
 10
10.4180295433
 20
24.5767969778
 10
10.4871275032
 20
24.6357914603
 10
10.561389674
 20
24.6926605972
 10
10.6410487838
 20
24.7474965046
 10
10.7258721045
 20
24.8002070664
 10
10.8148198625
 20
24.8501419317
 10
10.9083005104
 20
24.8973114567
 10
11.0059055956
 20
24.9417052852
 10
11.1053699869
 20
24.9826419977
 10
11.2067295118
 20
25.0199169992
 10
11.3099483428
 20
25.0537348847
 10
11.4126538663
 20
25.0840280197
 10
11.514544578
 20
25.1106104271
 10
11.6159219822
 20
25.1336680839
 10
11.7153179782
 20
25.1536912863
 10
11.8125024896
 20
25.1706288118
 10
11.9077055928
 20
25.1845318828
 10
12.0001494167
 20
25.1960444632
 10
12.0896669753
 20
25.205174728
 10
12.1764252546
 20
25.2119145021
 10
12.260147342
 20
25.2168832245
 10
12.3406965901
 20
25.2201154658
 10
12.4182096464
 20
25.2215766554
 10
12.4928195401
 20
25.2217825198
 10
12.564479521
 20
25.2207758321
 10
12.6332363393
 20
25.2185138191
 10
12.6993632754
 20
25.2153838879
 10
12.7628342528
 20
25.2114235966
 10
12.823675348
 20
25.206595387
 10
12.8822380714
 20
25.2011739923
 10
12.9385087189
 20
25.1951914717
 10
12.9925009945
 20
25.188615766
 10
13.0446075206
 20
25.1816254303
 10
13.0948234751
 20
25.1742465922
 10
13.1431536802
 20
25.1664531242
 10
13.190005225
 20
25.1583451994
 10
13.235513806
 20
25.1499562089
 10
13.2795437268
 20
25.1412527617
 10
13.3220949874
 20
25.1322348576
  0
LWPOLYLINE
  5
3D9
100
AcDbEntity
  8
RACCORDO
100
AcDbPolyline
 62
250
  6
CONTINUOUS
 90
50
 70
0
 10
19.7036788701
 20
19.0058599663
 10
19.7083890565
 20
19.0119610953
 10
19.7130585607
 20
19.0178540262
 10
19.7176862913
 20
19.0235387468
 10
19.7222665378
 20
19.0290155015
 10
19.7268029343
 20
19.034283952
 10
19.7313078234
 20
19.0393434035
 10
19.7357811557
 20
19.0441974694
 10
19.740219508
 20
19.048842853
 10
19.7446291879
 20
19.053268805
 10
19.7490094519
 20
19.0574775887
 10
19.7533566862
 20
19.061467423
 10
19.7576722964
 20
19.0652216519
 10
19.7619525887
 20
19.068739844
 10
19.7661964389
 20
19.0720229009
 10
19.7704084785
 20
19.0750563141
 10
19.7745769146
 20
19.0778387318
 10
19.7787080038
 20
19.0803720082
 10
19.7828309911
 20
19.0826470762
 10
19.7869375796
 20
19.0846728942
 10
19.7910258507
 20
19.0864420018
 10
19.7951296542
 20
19.0879219082
 10
19.7992530291
 20
19.0891227752
 10
19.8033741788
 20
19.0900373052
 10
19.8074849334
 20
19.0906074671
 10
19.8115788077
 20
19.0908302625
 10
19.8156431326
 20
19.0907111112
 10
19.8196607088
 20
19.0902043625
 10
19.8236212462
 20
19.0893046266
 10
19.827516007
 20
19.0880188602
 10
19.8313309974
 20
19.0863195458
 10
19.8350511147
 20
19.0842073667
 10
19.8386724998
 20
19.0816823434
 10
19.8421964759
 20
19.0787159856
 10
19.8456082213
 20
19.0753132938
 10
19.8488984628
 20
19.0714698007
 10
19.852071389
 20
19.0671433179
 10
19.8551112937
 20
19.0623346124
 10
19.8580005682
 20
19.0570432971
 10
19.8607334514
 20
19.0512259087
 10
19.8632895803
 20
19.044878852
 10
19.8656464912
 20
19.0380051434
 10
19.8677884683
 20
19.0305713135
 10
19.869689593
 20
19.0225727533
 10
19.8713235363
 20
19.014011564
 10
19.8726668421
 20
19.0048640374
 10
19.8736874832
 20
18.9951301025
 10
19.8743544085
 20
18.9848043227
 10
19.8746349255
 20
18.9738542474
 10
19.8746412854
 20
18.9719951863
  0
LWPOLYLINE
  5
3DA
100
AcDbEntity
  8
0
100
AcDbPolyline
 62
250
  6
CONTINUOUS
 90
49
 70
0
 10
19.7036788701
 20
19.0058599663
 10
19.7083890565
 20
19.0119610953
 10
19.7130585607
 20
19.0178540262
 10
19.7176862913
 20
19.0235387468
 10
19.7222665378
 20
19.0290155015
 10
19.7268029343
 20
19.034283952
 10
19.7313078234
 20
19.0393434035
 10
19.7357811557
 20
19.0441974694
 10
19.740219508
 20
19.048842853
 10
19.7446291879
 20
19.053268805
 10
19.7490094519
 20
19.0574775887
 10
19.7533566862
 20
19.061467423
 10
19.7576722964
 20
19.0652216519
 10
19.7619525887
 20
19.068739844
 10
19.7661964389
 20
19.0720229009
 10
19.7704084785
 20
19.0750563141
 10
19.7745769146
 20
19.0778387318
 10
19.7787080038
 20
19.0803720082
 10
19.7828309911
 20
19.0826470762
 10
19.7869375796
 20
19.0846728942
 10
19.7910258507
 20
19.0864420018
 10
19.7951296542
 20
19.0879219082
 10
19.7992530291
 20
19.0891227752
 10
19.8033741788
 20
19.0900373052
 10
19.8074849334
 20
19.0906074671
 10
19.8115788077
 20
19.0908302625
 10
19.8156431326
 20
19.0907111112
 10
19.8196607088
 20
19.0902043625
 10
19.8236212462
 20
19.0893046266
 10
19.827516007
 20
19.0880188602
 10
19.8313309974
 20
19.0863195458
 10
19.8350511147
 20
19.0842073667
 10
19.8386724998
 20
19.0816823434
 10
19.8421964759
 20
19.0787159856
 10
19.8456082213
 20
19.0753132938
 10
19.8488984628
 20
19.0714698007
 10
19.852071389
 20
19.0671433179
 10
19.8551112937
 20
19.0623346124
 10
19.8580005682
 20
19.0570432971
 10
19.8607334514
 20
19.0512259087
 10
19.8632895803
 20
19.044878852
 10
19.8656464912
 20
19.0380051434
 10
19.8677884683
 20
19.0305713135
 10
19.869689593
 20
19.0225727533
 10
19.8713235363
 20
19.014011564
 10
19.8726668421
 20
19.0048640374
 10
19.8736874832
 20
18.9951301025
 10
19.8743544085
 20
18.9848043227
 10
19.8746349255
 20
18.9738542474
  0
LWPOLYLINE
  5
3DB
100
AcDbEntity
  8
RACCORDO
100
AcDbPolyline
 62
7
  6
CONTINUOUS
 90
136
 70
0
 10
19.7983007517
 20
19.1586737732
 10
19.8460897731
 20
19.2163044244
 10
19.8923680381
 20
19.272420264
 10
19.9371355468
 20
19.327021292
 10
19.9803479856
 20
19.3800640879
 10
20.0220496681
 20
19.4315920722
 10
20.0623735347
 20
19.4817355061
 10
20.1013255409
 20
19.5305006161
 10
20.1388997312
 20
19.5778811756
 10
20.1752111803
 20
19.6239887664
 10
20.2102632919
 20
19.6688266272
 10
20.2440526624
 20
19.7123915193
 10
20.2766841552
 20
19.7547853074
 10
20.3081609047
 20
19.7960109871
 10
20.3384797767
 20
19.836065563
 10
20.367736232
 20
19.8750419134
 10
20.3959331654
 20
19.9129428293
 10
20.4230676822
 20
19.9497655198
 10
20.4492265595
 20
19.9855944904
 10
20.4744124703
 20
20.0204323558
 10
20.4986227417
 20
20.0542765012
 10
20.5219361322
 20
20.0872035887
 10
20.5443551112
 20
20.1192160914
 10
20.5658772092
 20
20.1503115361
 10
20.5865737762
 20
20.1805591651
 10
20.6064470896
 20
20.2099613454
 10
20.6254948719
 20
20.2385157099
 10
20.6437816409
 20
20.266284399
 10
20.661309485
 20
20.2932697115
 10
20.6780763156
 20
20.3194693485
 10
20.6941403853
 20
20.3449385544
 10
20.7095035831
 20
20.3696795968
 10
20.72416402
 20
20.393690208
 10
20.7381742815
 20
20.4170188294
 10
20.751536024
 20
20.4396677253
 10
20.7642475911
 20
20.4616346314
 10
20.7763565993
 20
20.4829611964
 10
20.7878644072
 20
20.5036496849
 10
20.7987696562
 20
20.5236978323
 10
20.8091158876
 20
20.5431404943
 10
20.8189040544
 20
20.5619798843
 10
20.8281332036
 20
20.5802137888
 10
20.8368440166
 20
20.5978704227
 10
20.8450368425
 20
20.6149516685
 10
20.8527113322
 20
20.6314556437
 10
20.8599071202
 20
20.6474049156
 10
20.8666239848
 20
20.6628011642
 10
20.8728621476
 20
20.6776427095
 10
20.8786619079
 20
20.6919470788
 10
20.8840221761
 20
20.7057148123
 10
20.8889440416
 20
20.7189453699
 10
20.8934710719
 20
20.7316546583
 10
20.8975995091
 20
20.7438330582
 10
20.901333111
 20
20.7554901891
 10
20.9047267177
 20
20.7666708158
 10
20.9077787355
 20
20.7773616863
 10
20.9104907581
 20
20.7875760527
 10
20.9129224066
 20
20.797398437
 10
20.9150780131
 20
20.8068278676
 10
20.9169532455
 20
20.815865316
 10
20.9185947294
 20
20.8245982187
 10
20.9200084363
 20
20.8330328397
 10
20.9211883946
 20
20.841162915
 10
20.9221633148
 20
20.8490570895
 10
20.9229382409
 20
20.856720625
 10
20.9235081289
 20
20.8641482595
 10
20.9238865564
 20
20.8713928524
 10
20.9240780491
 20
20.8784585385
 10
20.9240780812
 20
20.8853411828
 10
20.9238866542
 20
20.89208124
 10
20.9235082938
 20
20.8986822707
 10
20.9229384743
 20
20.9051407142
 10
20.9221636192
 20
20.911486344
 10
20.9211887728
 20
20.9177224793
 10
20.9200088909
 20
20.9238458009
 10
20.9185952653
 20
20.9298761245
 10
20.9169538684
 20
20.9358173403
 10
20.9150787278
 20
20.9416655582
 10
20.9129232181
 20
20.9474289235
 10
20.9104916734
 20
20.9531157742
 10
20.9077797596
 20
20.9587177724
 10
20.9047278487
 20
20.9642180501
 10
20.9013343459
 20
20.9696271538
 10
20.897600846
 20
20.974934537
 10
20.8934725056
 20
20.980091692
 10
20.8889455659
 20
20.985101848
 10
20.8840237857
 20
20.9899617757
 10
20.8786635978
 20
20.9946132796
 10
20.8728639141
 20
20.999053965
 10
20.8666258228
 20
21.0032862265
 10
20.8599090217
 20
21.0072590517
 10
20.8527132883
 20
21.0109703841
 10
20.8450388451
 20
21.0144222802
 10
20.8368460573
 20
21.0175698971
 10
20.828135274
 20
21.0204119457
 10
20.8189061461
 20
21.0229497152
 10
20.8091179919
 20
21.0251422306
 10
20.7987717643
 20
21.0269888992
 10
20.7878665103
 20
21.0284903138
 10
20.7763586894
 20
21.0296072772
 10
20.7642496599
 20
21.0303398351
 10
20.7515380634
 20
21.0306879418
 10
20.7381762842
 20
21.030612263
 10
20.7241659786
 20
21.0301133514
 10
20.7095054904
 20
21.0291906542
 10
20.6941422351
 20
21.0278031796
 10
20.6780781017
 20
21.0259518721
 10
20.6613112012
 20
21.0236357871
 10
20.6437832827
 20
21.0208110978
 10
20.6254964346
 20
21.0174790572
 10
20.6064485684
 20
21.0136384123
 10
20.5865751682
 20
21.0092415776
 10
20.5658785113
 20
21.0042900591
 10
20.5443563204
 20
20.9987823507
 10
20.5219372472
 20
20.9926663492
 10
20.4986237612
 20
20.985943781
 10
20.4744133929
 20
20.9786129197
 10
20.4492273858
 20
20.9706164818
 10
20.4230684127
 20
20.9619563988
 10
20.3959338007
 20
20.9526307392
 10
20.3677367749
 20
20.9425764261
 10
20.3384802296
 20
20.9317955914
 10
20.3081612704
 20
20.9202861031
 10
20.2766844386
 20
20.9079784886
 10
20.2440528682
 20
20.8948750827
 10
20.2102634252
 20
20.8809735506
 10
20.1752112484
 20
20.866197415
 10
20.1388997415
 20
20.8505492256
 10
20.1013255009
 20
20.8340264327
 10
20.0623734545
 20
20.8165449096
 10
20.0220495543
 20
20.7981085566
 10
19.9803478484
 20
20.7787134735
 10
19.9371354093
 20
20.7582638335
 10
19.8923679279
 20
20.7367276944
 10
19.8460897134
 20
20.7141369984
 10
19.7983007658
 20
20.6904917455
  0
LWPOLYLINE
  5
3DC
100
AcDbEntity
  8
0
100
AcDbPolyline
 62
7
  6
CONTINUOUS
 90
136
 70
0
 10
19.7983007517
 20
19.1586737732
 10
19.8460897731
 20
19.2163044244
 10
19.8923680381
 20
19.272420264
 10
19.9371355468
 20
19.327021292
 10
19.9803479856
 20
19.3800640879
 10
20.0220496681
 20
19.4315920722
 10
20.0623735347
 20
19.4817355061
 10
20.1013255409
 20
19.5305006161
 10
20.1388997312
 20
19.5778811756
 10
20.1752111803
 20
19.6239887664
 10
20.2102632919
 20
19.6688266272
 10
20.2440526624
 20
19.7123915193
 10
20.2766841552
 20
19.7547853074
 10
20.3081609047
 20
19.7960109871
 10
20.3384797767
 20
19.836065563
 10
20.367736232
 20
19.8750419134
 10
20.3959331654
 20
19.9129428293
 10
20.4230676822
 20
19.9497655198
 10
20.4492265595
 20
19.9855944904
 10
20.4744124703
 20
20.0204323558
 10
20.4986227417
 20
20.0542765012
 10
20.5219361322
 20
20.0872035887
 10
20.5443551112
 20
20.1192160914
 10
20.5658772092
 20
20.1503115361
 10
20.5865737762
 20
20.1805591651
 10
20.6064470896
 20
20.2099613454
 10
20.6254948719
 20
20.2385157099
 10
20.6437816409
 20
20.266284399
 10
20.661309485
 20
20.2932697115
 10
20.6780763156
 20
20.3194693485
 10
20.6941403853
 20
20.3449385544
 10
20.7095035831
 20
20.3696795968
 10
20.72416402
 20
20.393690208
 10
20.7381742815
 20
20.4170188294
 10
20.751536024
 20
20.4396677253
 10
20.7642475911
 20
20.4616346314
 10
20.7763565993
 20
20.4829611964
 10
20.7878644072
 20
20.5036496849
 10
20.7987696562
 20
20.5236978323
 10
20.8091158876
 20
20.5431404943
 10
20.8189040544
 20
20.5619798843
 10
20.8281332036
 20
20.5802137888
 10
20.8368440166
 20
20.5978704227
 10
20.8450368425
 20
20.6149516685
 10
20.8527113322
 20
20.6314556437
 10
20.8599071202
 20
20.6474049156
 10
20.8666239848
 20
20.6628011642
 10
20.8728621476
 20
20.6776427095
 10
20.8786619079
 20
20.6919470788
 10
20.8840221761
 20
20.7057148123
 10
20.8889440416
 20
20.7189453699
 10
20.8934710719
 20
20.7316546583
 10
20.8975995091
 20
20.7438330582
 10
20.901333111
 20
20.7554901891
 10
20.9047267177
 20
20.7666708158
 10
20.9077787355
 20
20.7773616863
 10
20.9104907581
 20
20.7875760527
 10
20.9129224066
 20
20.797398437
 10
20.9150780131
 20
20.8068278676
 10
20.9169532455
 20
20.815865316
 10
20.9185947294
 20
20.8245982187
 10
20.9200084363
 20
20.8330328397
 10
20.9211883946
 20
20.841162915
 10
20.9221633148
 20
20.8490570895
 10
20.9229382409
 20
20.856720625
 10
20.9235081289
 20
20.8641482595
 10
20.9238865564
 20
20.8713928524
 10
20.9240780491
 20
20.8784585385
 10
20.9240780812
 20
20.8853411828
 10
20.9238866542
 20
20.89208124
 10
20.9235082938
 20
20.8986822707
 10
20.9229384743
 20
20.9051407142
 10
20.9221636192
 20
20.911486344
 10
20.9211887728
 20
20.9177224793
 10
20.9200088909
 20
20.9238458009
 10
20.9185952653
 20
20.9298761245
 10
20.9169538684
 20
20.9358173403
 10
20.9150787278
 20
20.9416655582
 10
20.9129232181
 20
20.9474289235
 10
20.9104916734
 20
20.9531157742
 10
20.9077797596
 20
20.9587177724
 10
20.9047278487
 20
20.9642180501
 10
20.9013343459
 20
20.9696271538
 10
20.897600846
 20
20.974934537
 10
20.8934725056
 20
20.980091692
 10
20.8889455659
 20
20.985101848
 10
20.8840237857
 20
20.9899617757
 10
20.8786635978
 20
20.9946132796
 10
20.8728639141
 20
20.999053965
 10
20.8666258228
 20
21.0032862265
 10
20.8599090217
 20
21.0072590517
 10
20.8527132883
 20
21.0109703841
 10
20.8450388451
 20
21.0144222802
 10
20.8368460573
 20
21.0175698971
 10
20.828135274
 20
21.0204119457
 10
20.8189061461
 20
21.0229497152
 10
20.8091179919
 20
21.0251422306
 10
20.7987717643
 20
21.0269888992
 10
20.7878665103
 20
21.0284903138
 10
20.7763586894
 20
21.0296072772
 10
20.7642496599
 20
21.0303398351
 10
20.7515380634
 20
21.0306879418
 10
20.7381762842
 20
21.030612263
 10
20.7241659786
 20
21.0301133514
 10
20.7095054904
 20
21.0291906542
 10
20.6941422351
 20
21.0278031796
 10
20.6780781017
 20
21.0259518721
 10
20.6613112012
 20
21.0236357871
 10
20.6437832827
 20
21.0208110978
 10
20.6254964346
 20
21.0174790572
 10
20.6064485684
 20
21.0136384123
 10
20.5865751682
 20
21.0092415776
 10
20.5658785113
 20
21.0042900591
 10
20.5443563204
 20
20.9987823507
 10
20.5219372472
 20
20.9926663492
 10
20.4986237612
 20
20.985943781
 10
20.4744133929
 20
20.9786129197
 10
20.4492273858
 20
20.9706164818
 10
20.4230684127
 20
20.9619563988
 10
20.3959338007
 20
20.9526307392
 10
20.3677367749
 20
20.9425764261
 10
20.3384802296
 20
20.9317955914
 10
20.3081612704
 20
20.9202861031
 10
20.2766844386
 20
20.9079784886
 10
20.2440528682
 20
20.8948750827
 10
20.2102634252
 20
20.8809735506
 10
20.1752112484
 20
20.866197415
 10
20.1388997415
 20
20.8505492256
 10
20.1013255009
 20
20.8340264327
 10
20.0623734545
 20
20.8165449096
 10
20.0220495543
 20
20.7981085566
 10
19.9803478484
 20
20.7787134735
 10
19.9371354093
 20
20.7582638335
 10
19.8923679279
 20
20.7367276944
 10
19.8460897134
 20
20.7141369984
 10
19.7983007658
 20
20.6904917455
  0
LWPOLYLINE
  5
3DD
100
AcDbEntity
  8
0
100
AcDbPolyline
 62
7
  6
CONTINUOUS
 90
8
 70
0
 10
-7.6108804194
 20
-13.4339390376
 10
-7.5777769979
 20
-13.3988046707
 10
-7.5477730121
 20
-13.3598861229
 10
-7.5214575167
 20
-13.3177919296
 10
-7.4988964085
 20
-13.2723587631
 10
-7.4800111391
 20
-13.2237509477
 10
-7.4651219609
 20
-13.173019695
 10
-7.4543112006
 20
-13.1204894262
  0
LWPOLYLINE
  5
3DE
100
AcDbEntity
  8
ASSI
100
AcDbPolyline
 62
7
  6
CONTINUOUS
 90
4
 70
0
 10
-12.3014405948
 20
24.3993223457
 10
-12.286128134
 20
24.3783116974
 10
-12.2684498858
 20
24.3593766692
 10
-12.2486792147
 20
24.3427947419
  0
LWPOLYLINE
  5
3DF
100
AcDbEntity
  8
ASSI
100
AcDbPolyline
 62
250
  6
CONTINUOUS
 90
3
 70
0
 10
6.7955854332
 20
-19.8715197624
 10
6.7926265514
 20
-19.8457201839
 10
6.7867631936
 20
-19.8205736197
  0
LWPOLYLINE
  5
3E0
100
AcDbEntity
  8
ASSI
100
AcDbPolyline
 62
250
  6
CONTINUOUS
 90
13
 70
0
 10
5.0261086243
 20
18.0048935013
 10
5.0244572131
 20
18.0266355346
 10
5.0200666262
 20
18.049158968
 10
5.013011956
 20
18.0720785705
 10
5.0034138607
 20
18.0950023333
 10
4.9914365002
 20
18.1175381778
 10
4.9772847272
 20
18.1393006607
 10
4.9612005849
 20
18.1599175645
 10
4.9434591698
 20
18.1790362616
 10
4.924363926
 20
18.1963297479
 10
4.9042414522
 20
18.2115022389
 10
4.8834359156
 20
18.2242942278
 10
4.8623031676
 20
18.2344869223
  0
LWPOLYLINE
  5
3E1
100
AcDbEntity
  8
ASSI
100
AcDbPolyline
 62
250
  6
CONTINUOUS
 90
13
 70
0
 10
4.461542507
 20
23.2525520274
 10
4.4600884119
 20
23.2802294461
 10
4.4551142941
 20
23.3088049353
 10
4.4467052294
 20
23.3377897497
 10
4.4350050433
 20
23.366688143
 10
4.4202138519
 20
23.3950058472
 10
4.402584639
 20
23.4222585267
 10
4.3824189288
 20
23.4479800612
 10
4.3600616283
 20
23.4717305184
 10
4.3358951291
 20
23.4931036789
 10
4.3103327664
 20
23.5117339836
 10
4.28381175
 20
23.5273027863
 10
4.2567856862
 20
23.5395438036
  0
LWPOLYLINE
  5
3E2
100
AcDbEntity
  8
ASSI
100
AcDbPolyline
 62
7
  6
CONTINUOUS
 90
3
 70
0
 10
6.8349592813
 20
-19.9078964099
 10
6.8336560302
 20
-19.8821577728
 10
6.8297038858
 20
-19.8568414129
  0
LWPOLYLINE
  5
3E3
100
AcDbEntity
  8
ASSI
100
AcDbPolyline
 62
250
  6
CONTINUOUS
 90
10
 70
0
 10
4.9972278763
 20
17.6410452112
 10
4.9974492129
 20
17.6363614888
 10
4.9980407819
 20
17.6321577686
 10
4.9990025834
 20
17.6284340504
 10
5.0003577109
 20
17.6251530863
 10
5.0020830708
 20
17.6223521243
 10
5.0041093824
 20
17.6201429084
 10
5.006413552
 20
17.6185626866
 10
5.0090186732
 20
17.617574211
 10
5.011924746
 20
17.6171774814
  0
LWPOLYLINE
  5
3E4
100
AcDbEntity
  8
ASSI
100
AcDbPolyline
 62
250
  6
CONTINUOUS
 90
9
 70
0
 10
6.8007664728
 20
-19.9720407839
 10
6.800555903
 20
-19.9673613857
 10
6.7999931104
 20
-19.9631692227
 10
6.799078095
 20
-19.9594642948
 10
6.7977888866
 20
-19.9562098053
 10
6.7961474554
 20
-19.953442551
 10
6.7942197122
 20
-19.9512729224
 10
6.7920276271
 20
-19.9497377163
 10
6.7895492299
 20
-19.9488001359
  0
LWPOLYLINE
  5
3E5
100
AcDbEntity
  8
ASSI
100
AcDbPolyline
 62
250
  6
CONTINUOUS
 90
9
 70
0
 10
4.7207091808
 20
17.6145203128
 10
4.7216832597
 20
17.5915302691
 10
4.724593294
 20
17.5704382595
 10
4.7293997004
 20
17.5515291328
 10
4.7360385904
 20
17.5350565337
 10
4.7444193247
 20
17.5212445248
 10
4.754424297
 20
17.5102822308
 10
4.7659158023
 20
17.5023154661
 10
4.7711849508
 20
17.4998744315
  0
LWPOLYLINE
  5
3E6
100
AcDbEntity
  8
ASSI
100
AcDbPolyline
 62
7
  6
CONTINUOUS
 90
16
 70
0
 10
4.526147817
 20
23.3710606158
 10
4.525211712
 20
23.3961521705
 10
4.5201276559
 20
23.4317026826
 10
4.5105942041
 20
23.4667433315
 10
4.4966464522
 20
23.5007195394
 10
4.4784846762
 20
23.5330149891
 10
4.4562425275
 20
23.5633014646
 10
4.4299927163
 20
23.5912961874
 10
4.4001566902
 20
23.6164467015
 10
4.3672658973
 20
23.6383646088
 10
4.3310842014
 20
23.657156996
 10
4.2920731009
 20
23.6724861766
 10
4.2516933381
 20
23.6838823344
 10
4.2097158348
 20
23.691535773
 10
4.1662352589
 20
23.6953680545
 10
4.1232439912
 20
23.6952311352
  0
LWPOLYLINE
  5
3E7
100
AcDbEntity
  8
ASSI
100
AcDbPolyline
 62
7
  6
CONTINUOUS
 90
11
 70
0
 10
6.8349588221
 20
19.4779409103
 10
6.8345940157
 20
19.4916273779
 10
6.8315763914
 20
19.5191019605
 10
6.8251448065
 20
19.5469500374
 10
6.8152366057
 20
19.5739316281
 10
6.8020442827
 20
19.5992232993
 10
6.7855832587
 20
19.6226708161
 10
6.766079925
 20
19.6437788929
 10
6.7439065279
 20
19.6620663571
 10
6.7195059085
 20
19.6771506648
 10
6.6997641968
 20
19.68629795
  0
LWPOLYLINE
  5
3E8
100
AcDbEntity
  8
ASSI
100
AcDbPolyline
 62
250
  6
CONTINUOUS
 90
20
 70
0
 10
6.8007664728
 20
19.4137791941
 10
6.8007362077
 20
19.4158726184
 10
6.8006207321
 20
19.4179165719
 10
6.8004200459
 20
19.4199110547
 10
6.8001361162
 20
19.4218705291
 10
6.799766976
 20
19.4237805327
 10
6.7993067239
 20
19.4255976787
 10
6.7987522003
 20
19.4273194621
 10
6.7981065649
 20
19.4289483879
 10
6.7973733945
 20
19.430448584
 10
6.7965500577
 20
19.4318156961
 10
6.795639186
 20
19.4330540785
 10
6.7946522504
 20
19.4341409223
 10
6.7935884531
 20
19.4350716644
 10
6.792448592
 20
19.4358508679
 10
6.7912465312
 20
19.4364694129
 10
6.7899824116
 20
19.436924809
 10
6.7886560924
 20
19.4372195466
 10
6.7872810157
 20
19.4373519776
 10
6.7858567388
 20
19.4373206962
  0
LINE
  5
3E9
100
AcDbEntity
  8
ASSI
100
AcDbLine
 62
250
  6
CONTINUOUS
 10
5.268335055
 20
17.4782984379
 11
5.268335055
 21
16.8472455679
  0
LINE
  5
3EA
100
AcDbEntity
  8
ASSI
100
AcDbLine
 62
250
  6
CONTINUOUS
 10
5.268335055
 20
-19.7219761976
 11
5.268335055
 21
-20.3783311112
  0
LINE
  5
3EB
100
AcDbEntity
  8
ASSI
100
AcDbLine
 62
250
  6
CONTINUOUS
 10
5.6139834127
 20
17.6081304595
 11
5.6139834127
 21
16.8909673801
  0
LINE
  5
3EC
100
AcDbEntity
  8
ASSI
100
AcDbLine
 62
250
  6
CONTINUOUS
 10
5.6139834127
 20
-19.8441634627
 11
5.6139834127
 21
-20.4165078192
  0
LINE
  5
3ED
100
AcDbEntity
  8
0
100
AcDbLine
 62
7
  6
CONTINUOUS
 10
5.9093854488
 20
-19.5698602731
 11
5.9093854488
 21
-15.2927495403
  0
LINE
  5
3EE
100
AcDbEntity
  8
0
100
AcDbLine
 62
7
  6
CONTINUOUS
 10
5.9093854488
 20
11.9030983301
 11
5.9093854488
 21
16.1802090629
  0
LINE
  5
3EF
100
AcDbEntity
  8
ASSI
100
AcDbLine
 62
7
  6
CONTINUOUS
 10
6.3513918557
 20
-20.727453664
 11
6.3513918557
 21
-19.417177271
  0
LINE
  5
3F0
100
AcDbEntity
  8
ASSI
100
AcDbLine
 62
7
  6
CONTINUOUS
 10
6.3513918557
 20
17.5269717564
 11
6.3513918557
 21
19.0833855927
  0
LINE
  5
3F1
100
AcDbEntity
  8
ASSI
100
AcDbLine
 62
250
  6
CONTINUOUS
 10
6.8007664728
 20
-20.2935850359
 11
6.8007664728
 21
-19.9720407839
  0
LINE
  5
3F2
100
AcDbEntity
  8
ASSI
100
AcDbLine
 62
250
  6
CONTINUOUS
 10
6.8007664728
 20
19.0922349421
 11
6.8007664728
 21
19.4137791941
  0
LINE
  5
3F3
100
AcDbEntity
  8
ASSI
100
AcDbLine
 62
7
  6
CONTINUOUS
 10
6.8019254801
 20
16.9364510811
 11
6.8019254801
 21
14.5609103453
  0
LINE
  5
3F4
100
AcDbEntity
  8
ASSI
100
AcDbLine
 62
7
  6
CONTINUOUS
 10
6.8019254801
 20
-18.9424080735
 11
6.8019254801
 21
-16.5668673377
  0
LINE
  5
3F5
100
AcDbEntity
  8
ASSI
100
AcDbLine
 62
7
  6
CONTINUOUS
 10
6.8349589583
 20
-20.2294370613
 11
6.8349589583
 21
-19.9078927518
  0
LINE
  5
3F6
100
AcDbEntity
  8
ASSI
100
AcDbLine
 62
7
  6
CONTINUOUS
 10
6.8349589583
 20
19.1563829166
 11
6.8349589583
 21
19.4779271687
  0
LINE
  5
3F7
100
AcDbEntity
  8
ASSI
100
AcDbLine
 62
7
  6
CONTINUOUS
 10
7.3612035643
 20
-18.4525834435
 11
7.3612035643
 21
-15.685891125
  0
LINE
  5
3F8
100
AcDbEntity
  8
ASSI
100
AcDbLine
 62
7
  6
CONTINUOUS
 10
7.3612035643
 20
14.6311118344
 11
7.3612035643
 21
17.3978041529
  0
LINE
  5
3F9
100
AcDbEntity
  8
ASSI
100
AcDbLine
 62
7
  6
CONTINUOUS
 10
6.8348825235
 20
19.1500888299
 11
6.8349562301
 21
19.156408605
  0
LWPOLYLINE
  5
3FA
100
AcDbEntity
  8
ASSI
100
AcDbPolyline
 62
250
  6
CONTINUOUS
 90
19
 70
0
 10
4.9972278763
 20
-21.4232305148
 10
4.9972545006
 20
-21.4211620465
 10
4.9973695063
 20
-21.418985759
 10
4.9975728933
 20
-21.4167016523
 10
4.9978608595
 20
-21.4142997081
 10
4.9982372071
 20
-21.4117899446
 10
4.9987133428
 20
-21.4092024168
 10
4.9992925578
 20
-21.4065333999
 10
4.999971561
 20
-21.4037866187
 10
5.000751886
 20
-21.401003303
 10
5.0016370765
 20
-21.3981812529
 10
5.0026235888
 20
-21.3953226683
 10
5.0037023255
 20
-21.3924753777
 10
5.0048764955
 20
-21.389639282
 10
5.0061428898
 20
-21.3868144802
 10
5.0074827844
 20
-21.3840490982
 10
5.008889938
 20
-21.3813591779
 10
5.0103705918
 20
-21.3787286773
 10
5.011924746
 20
-21.3761575965
  0
LINE
  5
3FB
100
AcDbEntity
  8
ASSI
100
AcDbLine
 62
7
  6
CONTINUOUS
 10
6.8345882528
 20
-20.2433858369
 11
6.834958706
 21
-20.2292688843
  0
LINE
  5
3FC
100
AcDbEntity
  8
ASSI
100
AcDbLine
 62
250
  6
CONTINUOUS
 10
6.8005577183
 20
19.0872051182
 11
6.8007664728
 21
19.0922349421
  0
LINE
  5
3FD
100
AcDbEntity
  8
ASSI
100
AcDbLine
 62
7
  6
CONTINUOUS
 10
6.833519115
 20
19.1287700804
 11
6.8348825235
 21
19.1500888299
  0
LINE
  5
3FE
100
AcDbEntity
  8
0
100
AcDbLine
 62
7
  6
CONTINUOUS
 10
13.0056816799
 20
23.5581465924
 11
13.0015332149
 21
23.5428654152
  0
LWPOLYLINE
  5
3FF
100
AcDbEntity
  8
0
100
AcDbPolyline
 62
7
  6
CONTINUOUS
 90
3
 70
0
 10
-7.6830230332
 20
-13.4904872843
 10
-7.6469944239
 20
-13.4651261585
 10
-7.6108804194
 20
-13.4339390376
  0
LWPOLYLINE
  5
400
100
AcDbEntity
  8
DRAFT
100
AcDbPolyline
 62
7
  6
CONTINUOUS
 90
28
 70
0
 10
-7.6830524362
 20
-13.490431595
 10
-7.6946539765
 20
-13.49761906
 10
-7.7478195664
 20
-13.5249737741
 10
-7.8051795436
 20
-13.546060051
 10
-7.8656464985
 20
-13.56056679
 10
-7.9294017518
 20
-13.5683247815
 10
-7.9962626693
 20
-13.5694278487
 10
-8.0645034283
 20
-13.5639144077
 10
-8.1339564467
 20
-13.5516095669
 10
-8.2047404533
 20
-13.5326340842
 10
-8.275470899
 20
-13.5074392428
 10
-8.3461206675
 20
-13.4759606836
 10
-8.4166828045
 20
-13.4382776196
 10
-8.4857396836
 20
-13.3950374733
 10
-8.5533816883
 20
-13.3460239074
 10
-8.6195158364
 20
-13.2915299884
 10
-8.6823787369
 20
-13.2329276898
 10
-8.7417150764
 20
-13.170303503
 10
-8.7977808589
 20
-13.103645403
 10
-8.8495152159
 20
-13.0341203601
 10
-8.8969519609
 20
-12.9615180833
 10
-8.9401092537
 20
-12.8861149531
 10
-8.9778368091
 20
-12.8097321551
 10
-9.009960077
 20
-12.7323973237
 10
-9.0366980234
 20
-12.6540752312
 10
-9.0574089376
 20
-12.5764015582
 10
-9.0718700568
 20
-12.4998826365
 10
-9.0803343324
 20
-12.4239505126
  0
LWPOLYLINE
  5
401
100
AcDbEntity
  8
ASSI
100
AcDbPolyline
 62
250
  6
CONTINUOUS
 90
3
 70
0
 10
2.2471396823
 20
18.6481020559
 10
2.2440802009
 20
18.6628369105
 10
2.2437906763
 20
18.6690072207
  0
LINE
  5
402
100
AcDbEntity
  8
ASSI
100
AcDbLine
 62
250
  6
CONTINUOUS
 10
1.9256087018
 20
26.68359564
 11
1.9186167204
 21
26.7260675977
  0
LWPOLYLINE
  5
403
100
AcDbEntity
  8
ASSI
100
AcDbPolyline
 62
250
  6
CONTINUOUS
 90
13
 70
0
 10
6.773290606
 20
19.4313661242
 10
6.772127329
 20
19.453508058
 10
6.7681480342
 20
19.4763684485
 10
6.7614207822
 20
19.4995562996
 10
6.7520606336
 20
19.5226750142
 10
6.740227681
 20
19.545329178
 10
6.7261243112
 20
19.567131322
 10
6.7099917432
 20
19.58770855
 10
6.692105903
 20
19.6067089162
 10
6.6727727037
 20
19.623807445
 10
6.6523228136
 20
19.638711689
 10
6.6311060005
 20
19.6511667313
 10
6.6094851493
 20
19.6609595452
  0
LWPOLYLINE
  5
404
100
AcDbEntity
  8
ASSI
100
AcDbPolyline
 62
7
  6
CONTINUOUS
 90
16
 70
0
 10
6.8019254801
 20
16.9364510811
 10
6.7997117092
 20
16.9798261377
 10
6.7930070431
 20
17.0246342667
 10
6.7818455965
 20
17.0704164354
 10
6.7662368767
 20
17.1168552986
 10
6.7463581216
 20
17.1632862879
 10
6.7226983512
 20
17.2087144546
 10
6.6958521875
 20
17.2522975948
 10
6.6659913756
 20
17.2939816246
 10
6.6330112755
 20
17.3339361963
 10
6.5968841831
 20
17.3720065722
 10
6.558246931
 20
17.4073528129
 10
6.5179966683
 20
17.439163882
 10
6.4767731501
 20
17.4670315925
 10
6.4348780221
 20
17.4908299041
 10
6.3927703681
 20
17.510353213
  0
LINE
  5
405
100
AcDbEntity
  8
ASSI
100
AcDbLine
 62
7
  6
CONTINUOUS
 10
7.9204816486
 20
15.1108893458
 11
7.9204816486
 21
14.5662127406
  0
LINE
  5
406
100
AcDbEntity
  8
ASSI
100
AcDbLine
 62
7
  6
CONTINUOUS
 10
7.9204816486
 20
-14.8107770892
 11
7.9204816486
 21
-15.2144909344
  0
LINE
  5
407
100
AcDbEntity
  8
ASSI
100
AcDbLine
 62
7
  6
CONTINUOUS
 10
7.9919788552
 20
14.5374978506
 11
7.9919788552
 21
-14.6985292193
  0
LWPOLYLINE
  5
408
100
AcDbEntity
  8
0
100
AcDbPolyline
 62
7
  6
CONTINUOUS
 90
30
 70
0
 10
9.5433042731
 20
24.5905660896
 10
9.5433728938
 20
24.6017089677
 10
9.5444067526
 20
24.6352256424
 10
9.5466821732
 20
24.6687221461
 10
9.5501981278
 20
24.7021833501
 10
9.5549530285
 20
24.7355941412
 10
9.5609447276
 20
24.7689394292
 10
9.568170519
 20
24.8022041534
 10
9.5766271391
 20
24.8353732897
 10
9.5863107683
 20
24.8684318567
 10
9.597217033
 20
24.9013649235
 10
9.6093410073
 20
24.9341576154
 10
9.6226772153
 20
24.9667951215
 10
9.6372196335
 20
24.9992627007
 10
9.6529616939
 20
25.0315456887
 10
9.6698962862
 20
25.0636295048
 10
9.688015762
 20
25.0954996579
 10
9.7073119374
 20
25.1271417537
 10
9.7277760972
 20
25.1585415008
 10
9.7493989984
 20
25.1896847172
 10
9.772170875
 20
25.2205573369
 10
9.7960814419
 20
25.2511454159
 10
9.8211198996
 20
25.2814351389
 10
9.8472749394
 20
25.3114128253
 10
9.874534748
 20
25.3410649355
 10
9.9028870135
 20
25.3703780768
 10
9.9323189302
 20
25.3993390097
 10
9.962817205
 20
25.4279346538
 10
9.9943680632
 20
25.4561520937
 10
10.0269572544
 20
25.4839785846
  0
LWPOLYLINE
  5
409
100
AcDbEntity
  8
ASSI
100
AcDbPolyline
 62
7
  6
CONTINUOUS
 90
8
 70
0
 10
6.8019254801
 20
-18.9424706466
 10
6.7996743689
 20
-18.9841093304
 10
6.7929691462
 20
-19.0237027925
 10
6.7818213181
 20
-19.0607945855
 10
6.7662065363
 20
-19.0950863
 10
6.7462935892
 20
-19.1259961363
 10
6.7226005842
 20
-19.1528017482
 10
6.7141121307
 20
-19.1606199986
  0
LWPOLYLINE
  5
40A
100
AcDbEntity
  8
ASSI
100
AcDbPolyline
 62
250
  6
CONTINUOUS
 90
6
 70
0
 10
6.773290606
 20
-20.3579008341
 10
6.7721273337
 20
-20.378512427
 10
6.768148052
 20
-20.3976743326
 10
6.7614208185
 20
-20.4150588118
 10
6.7520606912
 20
-20.430368525
 10
6.7392630532
 20
-20.4441990017
  0
LINE
  5
40B
100
AcDbEntity
  8
ASSI
100
AcDbLine
 62
7
  6
CONTINUOUS
 10
6.8321790122
 20
-20.2679203695
 11
6.8345882528
 21
-20.2433858369
  0
LWPOLYLINE
  5
40C
100
AcDbEntity
  8
RACCORDO
100
AcDbPolyline
 62
7
  6
CONTINUOUS
 90
19
 70
0
 10
19.7036788701
 20
19.0058528203
 10
19.7079176846
 20
19.0148276742
 10
19.7122690752
 20
19.0237648579
 10
19.7167330418
 20
19.0326643714
 10
19.7213069999
 20
19.0415315248
 10
19.725993534
 20
19.0503610081
 10
19.7308003985
 20
19.0591368906
 10
19.7357275458
 20
19.067858263
 10
19.7407750235
 20
19.0765260348
 10
19.7459507284
 20
19.0851270033
 10
19.7512566213
 20
19.0936634587
 10
19.7566907415
 20
19.1021331107
 10
19.7622551039
 20
19.1105158871
 10
19.7679533297
 20
19.1188152538
 10
19.7737817976
 20
19.1270277447
 10
19.7797316586
 20
19.1351228892
 10
19.7857999632
 20
19.1430905303
 10
19.7919896608
 20
19.150940825
 10
19.7983007517
 20
19.1586737732
  0
LWPOLYLINE
  5
40D
100
AcDbEntity
  8
0
100
AcDbPolyline
 62
7
  6
CONTINUOUS
 90
19
 70
0
 10
19.7036788701
 20
19.0058528203
 10
19.7079176846
 20
19.0148276742
 10
19.7122690752
 20
19.0237648579
 10
19.7167330418
 20
19.0326643714
 10
19.7213069999
 20
19.0415315248
 10
19.725993534
 20
19.0503610081
 10
19.7308003985
 20
19.0591368906
 10
19.7357275458
 20
19.067858263
 10
19.7407750235
 20
19.0765260348
 10
19.7459507284
 20
19.0851270033
 10
19.7512566213
 20
19.0936634587
 10
19.7566907415
 20
19.1021331107
 10
19.7622551039
 20
19.1105158871
 10
19.7679533297
 20
19.1188152538
 10
19.7737817976
 20
19.1270277447
 10
19.7797316586
 20
19.1351228892
 10
19.7857999632
 20
19.1430905303
 10
19.7919896608
 20
19.150940825
 10
19.7983007517
 20
19.1586737732
  0
LWPOLYLINE
  5
40E
100
AcDbEntity
  8
ASSI
100
AcDbPolyline
 62
250
  6
CONTINUOUS
 90
19
 70
0
 10
1.9186167204
 20
26.7260675977
 10
1.9091254356
 20
26.766064175
 10
1.8971989372
 20
26.8033546346
 10
1.8830294952
 20
26.8372467647
 10
1.8665785076
 20
26.8676600609
 10
1.8478845764
 20
26.8946750275
 10
1.8272557763
 20
26.9178409662
 10
1.80465957
 20
26.9370906731
 10
1.780128495
 20
26.9524913519
 10
1.7540682377
 20
26.9637939159
 10
1.7264552883
 20
26.9709290572
 10
1.6973131567
 20
26.9739660837
 10
1.6671180595
 20
26.9728638317
 10
1.6358357902
 20
26.967542347
 10
1.6035005555
 20
26.958081584
 10
1.570691192
 20
26.944680242
 10
1.5376006456
 20
26.9274045542
 10
1.5040359705
 20
26.9061882875
 10
1.4699971668
 20
26.8810314418
  0
LINE
  5
40F
100
AcDbEntity
  8
0
100
AcDbLine
 62
250
  6
CONTINUOUS
 10
10.0269572544
 20
25.0959625216
 11
10.0269572544
 21
25.4839785846
  0
LINE
  5
410
100
AcDbEntity
  8
DRAFT
100
AcDbLine
 62
7
  6
CONTINUOUS
 10
10.5786567879
 20
25.5517465041
 11
10.5786567879
 21
25.142170482
  0
LINE
  5
411
100
AcDbEntity
  8
0
100
AcDbLine
 62
7
  6
CONTINUOUS
 10
10.5786567879
 20
25.5517465041
 11
10.5786567879
 21
25.142170482
  0
LINE
  5
412
100
AcDbEntity
  8
ASSI
100
AcDbLine
 62
7
  6
CONTINUOUS
 10
11.1377215624
 20
22.8499225489
 11
11.1377215624
 21
23.030605602
  0
LINE
  5
413
100
AcDbEntity
  8
DRAFT
100
AcDbLine
 62
7
  6
CONTINUOUS
 10
11.3930020485
 20
25.5770220633
 11
11.3930020485
 21
25.1217185276
  0
LINE
  5
414
100
AcDbEntity
  8
0
100
AcDbLine
 62
7
  6
CONTINUOUS
 10
11.3930020485
 20
25.5770220633
 11
11.3930020485
 21
25.1217185276
  0
LINE
  5
415
100
AcDbEntity
  8
0
100
AcDbLine
 62
7
  6
CONTINUOUS
 10
11.6894838011
 20
23.7948780668
 11
11.6894838011
 21
23.5374323923
  0
LINE
  5
416
100
AcDbEntity
  8
0
100
AcDbLine
 62
7
  6
CONTINUOUS
 10
11.7730935457
 20
24.3535620967
 11
11.7730935457
 21
23.5288796111
  0
LINE
  5
417
100
AcDbEntity
  8
0
100
AcDbLine
 62
7
  6
CONTINUOUS
 10
12.2582881538
 20
24.2608153151
 11
12.2582881538
 21
23.5033899395
  0
LWPOLYLINE
  5
418
100
AcDbEntity
  8
ASSI
100
AcDbPolyline
 62
250
  6
CONTINUOUS
 90
4
 70
0
 10
6.7867845207
 20
-19.9484601811
 10
6.7926394937
 20
-19.9233280844
 10
6.7955897717
 20
-19.8975358014
 10
6.7955854332
 20
-19.8715197624
  0
LWPOLYLINE
  5
419
100
AcDbEntity
  8
ASSI
100
AcDbPolyline
 62
7
  6
CONTINUOUS
 90
3
 70
0
 10
6.8207334413
 20
-20.3171540778
 10
6.8275529736
 20
-20.292567219
 10
6.8321790122
 20
-20.2679203695
  0
LWPOLYLINE
  5
41A
100
AcDbEntity
  8
RACCORDO
100
AcDbPolyline
 62
250
  6
CONTINUOUS
 90
16
 70
0
 10
1.4199026993
 20
12.5226569248
 10
1.4632147686
 20
12.5087635902
 10
1.5085991796
 20
12.4969969537
 10
1.5556162025
 20
12.4874710222
 10
1.6038102892
 20
12.4802780926
 10
1.6527144867
 20
12.4754878571
 10
1.7018549621
 20
12.4731467282
 10
1.7507555931
 20
12.4732773889
 10
1.798942581
 20
12.4758785734
 10
1.8459490419
 20
12.4809250787
 10
1.89131953
 20
12.4883680092
 10
1.9346144503
 20
12.4981352503
 10
1.9754143182
 20
12.5101321672
 10
2.0133238233
 20
12.5242425217
 10
2.0479756604
 20
12.5403295984
 10
2.0790340876
 20
12.5582375296
  0
LWPOLYLINE
  5
41B
100
AcDbEntity
  8
RACCORDO
100
AcDbPolyline
 62
250
  6
CONTINUOUS
 90
7
 70
0
 10
1.4198957881
 20
12.5226513842
 10
0.8430760982
 20
12.725601565
 10
0.2680585808
 20
12.9297625615
 10
-0.3051485724
 20
13.1351289584
 10
-0.8764018187
 20
13.3416462695
 10
-1.4458291379
 20
13.5493575709
 10
-2.013826394
 20
13.7584064868
  0
LWPOLYLINE
  5
41C
100
AcDbEntity
  8
RACCORDO
100
AcDbPolyline
 62
250
  6
CONTINUOUS
 90
25
 70
0
 10
-2.013826394
 20
13.7584064868
 10
-2.5805691296
 20
13.968859881
 10
-3.145858191
 20
14.1806461136
 10
-3.7095254653
 20
14.3937026404
 10
-4.2715210595
 20
14.6080102379
 10
-4.8318751631
 20
14.8235801579
 10
-5.3905414514
 20
15.0403942481
 10
-5.9475844364
 20
15.2584775012
 10
-6.502919861
 20
15.4777969969
 10
-7.0562809007
 20
15.698245707
 10
-7.6073088998
 20
15.9196759414
 10
-8.156350315
 20
16.1422219209
 10
-8.7041910603
 20
16.366203118
 10
-9.2497905503
 20
16.5911940111
 10
-9.7941671735
 20
16.817614098
 10
-10.3411510657
 20
17.0470821202
 10
-10.8897675235
 20
17.2792320345
 10
-11.440892738
 20
17.5144769719
 10
-12.0010292669
 20
17.7556767972
 10
-12.5702375167
 20
18.0029845986
 10
-13.1482070005
 20
18.2563942522
 10
-13.7407477534
 20
18.5186182894
 10
-14.3496300209
 20
18.7906622031
 10
-14.9726562751
 20
19.0717754304
 10
-15.60960855
 20
19.3620842455
  0
LWPOLYLINE
  5
41D
100
AcDbEntity
  8
RACCORDO
100
AcDbPolyline
 62
250
  6
CONTINUOUS
 90
11
 70
0
 10
-15.6096085473
 20
19.3620842675
 10
-15.6463789618
 20
19.3803540323
 10
-15.6797654101
 20
19.4002238033
 10
-15.7094444043
 20
19.4215010584
 10
-15.7351283783
 20
19.4439796377
 10
-15.7565684748
 20
19.4674417417
 10
-15.7735569562
 20
19.4916600412
 10
-15.7859292178
 20
19.51639988
 10
-15.7935653819
 20
19.5414215488
 10
-15.7963914603
 20
19.5664826075
 10
-15.7961759174
 20
19.5763229418
  0
LWPOLYLINE
  5
41E
100
AcDbEntity
  8
ASSI
100
AcDbPolyline
 62
7
  6
CONTINUOUS
 90
10
 70
0
 10
4.8575247271
 20
23.5187966832
 10
4.852242677
 20
23.5339558025
 10
4.846375798
 20
23.5465844544
 10
4.8400431666
 20
23.5566811983
 10
4.8333027223
 20
23.5642490954
 10
4.8263061779
 20
23.56928937
 10
4.8193404637
 20
23.5718066677
 10
4.8125769989
 20
23.5717770399
 10
4.8060853157
 20
23.5692518386
 10
4.8030881749
 20
23.5671702997
  0
LWPOLYLINE
  5
41F
100
AcDbEntity
  8
RACCORDO
100
AcDbPolyline
 62
7
  6
CONTINUOUS
 90
13
 70
0
 10
14.09708745
 20
24.8305664969
 10
14.0967892708
 20
24.8421703302
 10
14.0958872355
 20
24.8531476529
 10
14.0943813439
 20
24.8634984649
 10
14.092258169
 20
24.8732886583
 10
14.0895311378
 20
24.882452341
 10
14.0862405322
 20
24.8907918374
 10
14.0823693376
 20
24.8982809381
 10
14.0779345685
 20
24.9049458525
 10
14.0730275503
 20
24.9106675326
 10
14.0676787248
 20
24.9154062959
 10
14.0618576502
 20
24.9192018249
 10
14.0555643265
 20
24.9220541197
  0
LINE
  5
420
100
AcDbEntity
  8
0
100
AcDbLine
 62
7
  6
CONTINUOUS
 10
13.2412706069
 20
23.8660274011
 11
13.2412706069
 21
23.576760775
  0
LINE
  5
421
100
AcDbEntity
  8
DRAFT
100
AcDbLine
 62
7
  6
CONTINUOUS
 10
13.4391172019
 20
28.2241715726
 11
13.4391172019
 21
27.914902462
  0
LINE
  5
422
100
AcDbEntity
  8
0
100
AcDbLine
 62
7
  6
CONTINUOUS
 10
13.4391172019
 20
28.2241715726
 11
13.4391172019
 21
27.914902462
  0
LINE
  5
423
100
AcDbEntity
  8
RACCORDO
100
AcDbLine
 62
7
  6
CONTINUOUS
 10
14.09708745
 20
24.8305664969
 11
14.09708745
 21
24.7021738601
  0
LWPOLYLINE
  5
424
100
AcDbEntity
  8
ASSI
100
AcDbPolyline
 62
7
  6
CONTINUOUS
 90
4
 70
0
 10
6.3389248353
 20
-20.785133734
 10
6.3458148997
 20
-20.7676067008
 10
6.3499955312
 20
-20.7482688125
 10
6.3513918557
 20
-20.727453664
  0
LINE
  5
425
100
AcDbEntity
  8
ASSI
100
AcDbLine
 62
7
  6
CONTINUOUS
 10
3.996876362
 20
-20.13232933
 11
4.4261295436
 21
-19.4481223865
  0
LINE
  5
426
100
AcDbEntity
  8
ASSI
100
AcDbLine
 62
7
  6
CONTINUOUS
 10
4.4261295436
 20
-20.0400823908
 11
3.9826584949
 21
-20.746951865
  0
LINE
  5
427
100
AcDbEntity
  8
ASSI
100
AcDbLine
 62
7
  6
CONTINUOUS
 10
7.9919788552
 20
-14.6985292193
 11
6.8019254801
 21
-16.5668673377
  0
LINE
  5
428
100
AcDbEntity
  8
ASSI
100
AcDbLine
 62
7
  6
CONTINUOUS
 10
6.8019254801
 20
14.5609103453
 11
7.9204816486
 21
14.5662127406
  0
LINE
  5
429
100
AcDbEntity
  8
ASSI
100
AcDbLine
 62
7
  6
CONTINUOUS
 10
6.8019254801
 20
14.5609103453
 11
7.9919788552
 21
14.5374978506
  0
LWPOLYLINE
  5
42A
100
AcDbEntity
  8
RACCORDO
100
AcDbPolyline
 62
250
  6
CONTINUOUS
 90
31
 70
0
 10
2.1110988226
 20
13.9940606104
 10
1.535022759
 20
14.195321828
 10
0.9608312276
 20
14.3978504413
 10
0.3885242284
 20
14.6016464504
 10
-0.1817421426
 20
14.8066537308
 10
-0.7501239815
 20
15.012928407
 10
-1.317089576
 20
15.2206388521
 10
-1.8828751946
 20
15.4298702291
 10
-2.4472445689
 20
15.640537375
 10
-3.0099571816
 20
15.852553174
 10
-3.5709473277
 20
16.0658943428
 10
-4.1302807122
 20
16.2805841648
 10
-4.6879139325
 20
16.496605374
 10
-5.2439285547
 20
16.7139917723
 10
-5.7982430128
 20
16.9327095579
 10
-6.3505692065
 20
17.1526400592
 10
-6.9005654327
 20
17.3736431538
 10
-7.4485733944
 20
17.5958589641
 10
-7.9953301008
 20
17.8195891857
 10
-8.5397919319
 20
18.0443694505
 10
-9.0830025076
 20
18.2706641266
 10
-9.6288296963
 20
18.5001680134
 10
-10.1764220117
 20
18.7324372788
 10
-10.7266309401
 20
18.9679157549
 10
-11.2858788082
 20
19.2096297382
 10
-11.8545125242
 20
19.4576190157
 10
-12.4321851799
 20
19.7118438004
 10
-13.0242783773
 20
19.9752110276
 10
-13.6325859836
 20
20.2486896756
 10
-14.2553141316
 20
20.5313107661
 10
-14.8924628213
 20
20.8230742991
  0
LINE
  5
42B
100
AcDbEntity
  8
DRAFT
100
AcDbLine
 62
7
  6
CONTINUOUS
 10
5.9093854488
 20
11.9030983301
 11
5.1490312644
 21
12.2084737123
  0
LWPOLYLINE
  5
42C
100
AcDbEntity
  8
RACCORDO
100
AcDbPolyline
 62
250
  6
CONTINUOUS
 90
16
 70
0
 10
2.1110988225
 20
13.9940606104
 10
2.1530529818
 20
13.9739921565
 10
2.1944657037
 20
13.9495941141
 10
2.2348836572
 20
13.9211335604
 10
2.2738644004
 20
13.8889220434
 10
2.3109812246
 20
13.8533121716
 10
2.3458278247
 20
13.8146937545
 10
2.3780227467
 20
13.7734895348
 10
2.4072135638
 20
13.7301505612
 10
2.4330807339
 20
13.6851512506
 10
2.455341098
 20
13.6389841953
 10
2.4737509793
 20
13.5921547704
 10
2.4881088512
 20
13.5451756018
 10
2.4982575428
 20
13.4985609544
 10
2.50408596
 20
13.4528211031
 10
2.5055303009
 20
13.4084567464
  0
LWPOLYLINE
  5
42D
100
AcDbEntity
  8
ASSI
100
AcDbPolyline
 62
7
  6
CONTINUOUS
 90
4
 70
0
 10
-12.2486792147
 20
24.3427947419
 10
-12.2274071864
 20
24.3289541265
 10
-12.2051566069
 20
24.3179908586
 10
-12.2015984429
 20
24.3165292024
  0
LWPOLYLINE
  5
42E
100
AcDbEntity
  8
ASSI
100
AcDbPolyline
 62
7
  6
CONTINUOUS
 90
4
 70
0
 10
2.2791606268
 20
18.5437648739
 10
2.2948456026
 20
18.5222073246
 10
2.3130200802
 20
18.5028250974
 10
2.3333893433
 20
18.4859191638
  0
LWPOLYLINE
  5
42F
100
AcDbEntity
  8
ASSI
100
AcDbPolyline
 62
250
  6
CONTINUOUS
 90
5
 70
0
 10
6.7867845207
 20
19.0448748968
 10
6.7926395223
 20
19.0331717236
 10
6.7955898062
 20
19.0227520345
 10
6.7955854556
 20
19.0137921397
 10
6.7932617089
 20
19.0074454087
  0
LWPOLYLINE
  5
430
100
AcDbEntity
  8
ASSI
100
AcDbPolyline
 62
7
  6
CONTINUOUS
 90
4
 70
0
 10
6.7892395636
 20
-20.384994777
 10
6.8017337136
 20
-20.362984342
 10
6.812135995
 20
-20.3405038146
 10
6.8207334413
 20
-20.3171540778
  0
LINE
  5
431
100
AcDbEntity
  8
ASSI
100
AcDbLine
 62
250
  6
CONTINUOUS
 10
4.7927637035
 20
-21.2138329775
 11
5.3098277569
 21
-20.3896601334
  0
LINE
  5
432
100
AcDbEntity
  8
ASSI
100
AcDbLine
 62
250
  6
CONTINUOUS
 10
5.011924746
 20
-21.3761575965
 11
5.6139834127
 21
-20.4165078192
  0
LWPOLYLINE
  5
433
100
AcDbEntity
  8
DRAFT
100
AcDbPolyline
 62
7
  6
CONTINUOUS
 90
24
 70
0
 10
4.4662017298
 20
-17.6125945064
 10
4.4950014325
 20
-17.5868867291
 10
4.5246143413
 20
-17.5526757522
 10
4.5494900713
 20
-17.514646143
 10
4.5693925004
 20
-17.4729110864
 10
4.5845577507
 20
-17.4273573975
 10
4.5946997081
 20
-17.3788221676
 10
4.5997230011
 20
-17.3269417114
 10
4.5997230011
 20
-17.2720797141
 10
4.5946997081
 20
-17.2161643225
 10
4.5845577507
 20
-17.1594826151
 10
4.5693925004
 20
-17.1017475134
 10
4.5494900713
 20
-17.0440259283
 10
4.5246143413
 20
-16.9860150112
 10
4.4950014325
 20
-16.9280176107
 10
4.4616458256
 20
-16.8720091841
 10
4.4245913254
 20
-16.818291874
 10
4.3837941271
 20
-16.7665635377
 10
4.340117297
 20
-16.7178932043
 10
4.2933463615
 20
-16.6721951878
 10
4.2436957941
 20
-16.6295551741
 10
4.1926720816
 20
-16.5912992498
 10
4.1407773863
 20
-16.5578694437
 10
4.1245335678
 20
-16.5490120666
  0
LWPOLYLINE
  5
434
100
AcDbEntity
  8
DRAFT
100
AcDbPolyline
 62
7
  6
CONTINUOUS
 90
25
 70
0
 10
4.6999980647
 20
-17.4301038889
 10
4.7290875685
 20
-17.4041375329
 10
4.7589986852
 20
-17.3695822069
 10
4.784124976
 20
-17.3311696741
 10
4.8042280169
 20
-17.2890142263
 10
4.8195462319
 20
-17.2430015717
 10
4.8297904998
 20
-17.1939771593
 10
4.8348644469
 20
-17.1415735079
 10
4.8348644469
 20
-17.0861580986
 10
4.8297904998
 20
-17.0296788241
 10
4.8195462319
 20
-16.9724257538
 10
4.8042280169
 20
-16.9141088182
 10
4.784124976
 20
-16.8558057015
 10
4.7589986852
 20
-16.7972105991
 10
4.7290875685
 20
-16.7386293155
 10
4.6953960187
 20
-16.682056949
 10
4.6579682339
 20
-16.6277985681
 10
4.6167600159
 20
-16.5755491043
 10
4.5726431632
 20
-16.5263884502
 10
4.5254010597
 20
-16.4802300917
 10
4.4752503213
 20
-16.4371605429
 10
4.423712595
 20
-16.3985192393
 10
4.3712950962
 20
-16.3647526593
 10
4.3174906095
 20
-16.3354143244
 10
4.2622991348
 20
-16.3105042347
  0
LWPOLYLINE
  5
435
100
AcDbEntity
  8
RACCORDO
100
AcDbPolyline
 62
250
  6
CONTINUOUS
 90
32
 70
0
 10
19.3501103758
 20
-5.2934733324
 10
19.3656265193
 20
-5.2798033308
 10
19.3871280899
 20
-5.2597795717
 10
19.4079960198
 20
-5.2390465305
 10
19.4282203631
 20
-5.2176140954
 10
19.4477914563
 20
-5.1954925138
 10
19.4666999941
 20
-5.1726923062
 10
19.484937041
 20
-5.1492242636
 10
19.5024939123
 20
-5.1250995592
 10
19.5193622349
 20
-5.1003296897
 10
19.5355340247
 20
-5.0749263908
 10
19.5510015948
 20
-5.0489017299
 10
19.5657575591
 20
-5.0222681167
 10
19.5797948895
 20
-4.9950382405
 10
19.5931069132
 20
-4.9672250519
 10
19.6056872905
 20
-4.9388417894
 10
19.617530018
 20
-4.9099019904
 10
19.6286294686
 20
-4.8804194355
 10
19.6389803733
 20
-4.8504081322
 10
19.6485777988
 20
-4.8198823424
 10
19.6574171979
 20
-4.7888565727
 10
19.6654943731
 20
-4.7573455766
 10
19.6728054543
 20
-4.7253643353
 10
19.6793469962
 20
-4.6929279898
 10
19.6851158862
 20
-4.6600520062
 10
19.6901093098
 20
-4.6267521775
 10
19.6943249171
 20
-4.5930444196
 10
19.6977607457
 20
-4.5589446559
 10
19.700415115
 20
-4.5244689772
 10
19.7022867589
 20
-4.4896337168
 10
19.7033748399
 20
-4.4544554493
 10
19.7036788701
 20
-4.4189508755
  0
LWPOLYLINE
  5
436
100
AcDbEntity
  8
0
100
AcDbPolyline
 62
250
  6
CONTINUOUS
 90
32
 70
0
 10
19.3501103758
 20
-5.2934733324
 10
19.3656265193
 20
-5.2798033308
 10
19.3871280899
 20
-5.2597795717
 10
19.4079960198
 20
-5.2390465305
 10
19.4282203631
 20
-5.2176140954
 10
19.4477914563
 20
-5.1954925138
 10
19.4666999941
 20
-5.1726923062
 10
19.484937041
 20
-5.1492242636
 10
19.5024939123
 20
-5.1250995592
 10
19.5193622349
 20
-5.1003296897
 10
19.5355340247
 20
-5.0749263908
 10
19.5510015948
 20
-5.0489017299
 10
19.5657575591
 20
-5.0222681167
 10
19.5797948895
 20
-4.9950382405
 10
19.5931069132
 20
-4.9672250519
 10
19.6056872905
 20
-4.9388417894
 10
19.617530018
 20
-4.9099019904
 10
19.6286294686
 20
-4.8804194355
 10
19.6389803733
 20
-4.8504081322
 10
19.6485777988
 20
-4.8198823424
 10
19.6574171979
 20
-4.7888565727
 10
19.6654943731
 20
-4.7573455766
 10
19.6728054543
 20
-4.7253643353
 10
19.6793469962
 20
-4.6929279898
 10
19.6851158862
 20
-4.6600520062
 10
19.6901093098
 20
-4.6267521775
 10
19.6943249171
 20
-4.5930444196
 10
19.6977607457
 20
-4.5589446559
 10
19.700415115
 20
-4.5244689772
 10
19.7022867589
 20
-4.4896337168
 10
19.7033748399
 20
-4.4544554493
 10
19.7036788701
 20
-4.4189508755
  0
LWPOLYLINE
  5
437
100
AcDbEntity
  8
DRAFT
100
AcDbPolyline
 62
250
  6
CONTINUOUS
 90
23
 70
0
 10
19.7036788701
 20
-4.4189508755
 10
19.718558113
 20
-4.4059198777
 10
19.7328149351
 20
-4.392661933
 10
19.7464388214
 20
-4.3791868194
 10
19.7594197239
 20
-4.3655044755
 10
19.7717480686
 20
-4.3516249925
 10
19.7834147629
 20
-4.337558607
 10
19.7944112022
 20
-4.3233156935
 10
19.8047292761
 20
-4.3089067568
 10
19.8143613748
 20
-4.2943424239
 10
19.8233003941
 20
-4.2796334367
 10
19.8315397413
 20
-4.2647906434
 10
19.8390733394
 20
-4.2498249914
 10
19.8458956321
 20
-4.2347475183
 10
19.8520015878
 20
-4.2195693443
 10
19.8573867031
 20
-4.2043016638
 10
19.8620470062
 20
-4.1889557375
 10
19.86597906
 20
-4.1735428835
 10
19.8691799645
 20
-4.1580744694
 10
19.8716473588
 20
-4.1425619037
 10
19.8733794232
 20
-4.1270166275
 10
19.8743748803
 20
-4.111450106
 10
19.8746412975
 20
-4.098215011
  0
LWPOLYLINE
  5
438
100
AcDbEntity
  8
0
100
AcDbPolyline
 62
250
  6
CONTINUOUS
 90
23
 70
0
 10
19.7036788701
 20
-4.4189508755
 10
19.718558113
 20
-4.4059198777
 10
19.7328149351
 20
-4.392661933
 10
19.7464388214
 20
-4.3791868194
 10
19.7594197239
 20
-4.3655044755
 10
19.7717480686
 20
-4.3516249925
 10
19.7834147629
 20
-4.337558607
 10
19.7944112022
 20
-4.3233156935
 10
19.8047292761
 20
-4.3089067568
 10
19.8143613748
 20
-4.2943424239
 10
19.8233003941
 20
-4.2796334367
 10
19.8315397413
 20
-4.2647906434
 10
19.8390733394
 20
-4.2498249914
 10
19.8458956321
 20
-4.2347475183
 10
19.8520015878
 20
-4.2195693443
 10
19.8573867031
 20
-4.2043016638
 10
19.8620470062
 20
-4.1889557375
 10
19.86597906
 20
-4.1735428835
 10
19.8691799645
 20
-4.1580744694
 10
19.8716473588
 20
-4.1425619037
 10
19.8733794232
 20
-4.1270166275
 10
19.8743748803
 20
-4.111450106
 10
19.8746412975
 20
-4.098215011
  0
LWPOLYLINE
  5
439
100
AcDbEntity
  8
RACCORDO
100
AcDbPolyline
 62
7
  6
CONTINUOUS
 90
37
 70
0
 10
19.3500944555
 20
-5.2934870363
 10
19.363806375
 20
-5.2815315567
 10
19.3905612714
 20
-5.2573079822
 10
19.416724019
 20
-5.2324088637
 10
19.442270799
 20
-5.2068560723
 10
19.4671925786
 20
-5.1806580046
 10
19.4914934891
 20
-5.1538077504
 10
19.5151570339
 20
-5.1263200075
 10
19.5381671536
 20
-5.0982102729
 10
19.5605265156
 20
-5.0694704718
 10
19.5822187187
 20
-5.0401151895
 10
19.6032278271
 20
-5.0101601676
 10
19.6235547835
 20
-4.9795965719
 10
19.6431840935
 20
-4.9484380089
 10
19.6620990556
 20
-4.9167013542
 10
19.6802968722
 20
-4.8843806214
 10
19.6977621297
 20
-4.8514903995
 10
19.714479035
 20
-4.8180471856
 10
19.7304426215
 20
-4.7840459588
 10
19.7456377546
 20
-4.7495022156
 10
19.7600496232
 20
-4.7144320748
 10
19.7736722112
 20
-4.6788295233
 10
19.7864920198
 20
-4.6427064285
 10
19.7984933494
 20
-4.6060825635
 10
19.8096659079
 20
-4.5689619178
 10
19.819996506
 20
-4.5313576916
 10
19.8294712717
 20
-4.4932884337
 10
19.8380787344
 20
-4.4547642814
 10
19.8458063495
 20
-4.4158007478
 10
19.8526423301
 20
-4.3764140068
 10
19.8585762001
 20
-4.3366131065
 10
19.8635965356
 20
-4.2964121111
 10
19.8676922991
 20
-4.2558274393
 10
19.8708532165
 20
-4.214869377
 10
19.8730686399
 20
-4.1735506051
 10
19.8743283393
 20
-4.1318894423
 10
19.8746412861
 20
-4.098215011
  0
LWPOLYLINE
  5
43A
100
AcDbEntity
  8
0
100
AcDbPolyline
 62
7
  6
CONTINUOUS
 90
37
 70
0
 10
19.3500944555
 20
-5.2934870363
 10
19.363806375
 20
-5.2815315567
 10
19.3905612714
 20
-5.2573079822
 10
19.416724019
 20
-5.2324088637
 10
19.442270799
 20
-5.2068560723
 10
19.4671925786
 20
-5.1806580046
 10
19.4914934891
 20
-5.1538077504
 10
19.5151570339
 20
-5.1263200075
 10
19.5381671536
 20
-5.0982102729
 10
19.5605265156
 20
-5.0694704718
 10
19.5822187187
 20
-5.0401151895
 10
19.6032278271
 20
-5.0101601676
 10
19.6235547835
 20
-4.9795965719
 10
19.6431840935
 20
-4.9484380089
 10
19.6620990556
 20
-4.9167013542
 10
19.6802968722
 20
-4.8843806214
 10
19.6977621297
 20
-4.8514903995
 10
19.714479035
 20
-4.8180471856
 10
19.7304426215
 20
-4.7840459588
 10
19.7456377546
 20
-4.7495022156
 10
19.7600496232
 20
-4.7144320748
 10
19.7736722112
 20
-4.6788295233
 10
19.7864920198
 20
-4.6427064285
 10
19.7984933494
 20
-4.6060825635
 10
19.8096659079
 20
-4.5689619178
 10
19.819996506
 20
-4.5313576916
 10
19.8294712717
 20
-4.4932884337
 10
19.8380787344
 20
-4.4547642814
 10
19.8458063495
 20
-4.4158007478
 10
19.8526423301
 20
-4.3764140068
 10
19.8585762001
 20
-4.3366131065
 10
19.8635965356
 20
-4.2964121111
 10
19.8676922991
 20
-4.2558274393
 10
19.8708532165
 20
-4.214869377
 10
19.8730686399
 20
-4.1735506051
 10
19.8743283393
 20
-4.1318894423
 10
19.8746412861
 20
-4.098215011
  0
LINE
  5
43B
100
AcDbEntity
  8
RACCORDO
100
AcDbLine
 62
250
  6
CONTINUOUS
 10
7.9919788552
 20
-14.5021590164
 11
19.7036788701
 21
-4.4189508755
  0
LINE
  5
43C
100
AcDbEntity
  8
0
100
AcDbLine
 62
250
  6
CONTINUOUS
 10
7.9919788552
 20
-14.5021590164
 11
19.7036788701
 21
-4.4189508755
  0
LINE
  5
43D
100
AcDbEntity
  8
RACCORDO
100
AcDbLine
 62
7
  6
CONTINUOUS
 10
7.9204816486
 20
-15.1338317161
 11
19.350114288
 21
-5.2934699641
  0
LINE
  5
43E
100
AcDbEntity
  8
0
100
AcDbLine
 62
7
  6
CONTINUOUS
 10
7.9204816486
 20
-15.1338317161
 11
19.350114288
 21
-5.2934699641
  0
LINE
  5
43F
100
AcDbEntity
  8
ASSI
100
AcDbLine
 62
7
  6
CONTINUOUS
 10
7.9204816486
 20
-15.2144909344
 11
7.3652348295
 21
-15.6824932819
  0
LINE
  5
440
100
AcDbEntity
  8
DRAFT
100
AcDbLine
 62
7
  6
CONTINUOUS
 10
4.7000849396
 20
-17.4300575044
 11
4.4662877481
 21
-17.6125485836
  0
LWPOLYLINE
  5
441
100
AcDbEntity
  8
RACCORDO
100
AcDbPolyline
 62
250
  6
CONTINUOUS
 90
10
 70
0
 10
-14.8924628402
 20
20.8230742835
 10
-14.936067437
 20
20.8373680792
 10
-14.9792768212
 20
20.8469560013
 10
-15.0216179854
 20
20.8517331104
 10
-15.062627443
 20
20.8516471303
 10
-15.101856261
 20
20.8466990192
 10
-15.1388749812
 20
20.8369429742
 10
-15.1732783773
 20
20.8224858286
 10
-15.2046898712
 20
20.803485871
 10
-15.2182515777
 20
20.7931007394
  0
LINE
  5
442
100
AcDbEntity
  8
ASSI
100
AcDbLine
 62
7
  6
CONTINUOUS
 10
7.9204816486
 20
14.5662127406
 11
7.9919788552
 21
14.5374978506
  0
LINE
  5
443
100
AcDbEntity
  8
RACCORDO
100
AcDbLine
 62
7
  6
CONTINUOUS
 10
-12.3324806877
 20
22.9420462539
 11
4.8699929454
 21
16.0331450222
  0
LINE
  5
444
100
AcDbEntity
  8
0
100
AcDbLine
 62
7
  6
CONTINUOUS
 10
2.7881431977
 20
17.0373831084
 11
-9.1721121342
 21
21.8408912873
  0
LWPOLYLINE
  5
445
100
AcDbEntity
  8
ASSI
100
AcDbPolyline
 62
250
  6
CONTINUOUS
 90
9
 70
0
 10
-12.201853348
 20
24.3166292605
 10
-12.2070706851
 20
24.3190494894
 10
-12.2184500502
 20
24.3269712214
 10
-12.2283564067
 20
24.3378939006
 10
-12.2366531937
 20
24.3516721656
 10
-12.2432262195
 20
24.3681182838
 10
-12.2479859749
 20
24.3870086685
 10
-12.2508674279
 20
24.4080892178
 10
-12.2518309891
 20
24.4310750881
  0
LWPOLYLINE
  5
446
100
AcDbEntity
  8
ASSI
100
AcDbPolyline
 62
7
  6
CONTINUOUS
 90
3
 70
0
 10
2.3333893433
 20
18.4859191638
 10
2.3553304656
 20
18.4719018189
 10
2.3792843417
 20
18.4605172258
  0
LINE
  5
447
100
AcDbEntity
  8
ASSI
100
AcDbLine
 62
7
  6
CONTINUOUS
 10
7.3612035643
 20
15.8947861173
 11
7.9204816486
 21
15.1108893458
  0
LINE
  5
448
100
AcDbEntity
  8
RACCORDO
100
AcDbLine
 62
7
  6
CONTINUOUS
 10
7.3612035643
 20
15.9150055008
 11
7.4693032781
 21
15.7634905049
  0
LINE
  5
449
100
AcDbEntity
  8
0
100
AcDbLine
 62
7
  6
CONTINUOUS
 10
7.3612035643
 20
15.9150055008
 11
7.4693032781
 21
15.7634905049
  0
LWPOLYLINE
  5
44A
100
AcDbEntity
  8
0
100
AcDbPolyline
 62
7
  6
CONTINUOUS
 90
11
 70
0
 10
9.5906050755
 20
24.2993952591
 10
9.5898305066
 20
24.3016465836
 10
9.5797365407
 20
24.3346647445
 10
9.5708681796
 20
24.3677984853
 10
9.5632294287
 20
24.4010328409
 10
9.5568237382
 20
24.4343528007
 10
9.5516540012
 20
24.4677433154
 10
9.5477225526
 20
24.5011893041
 10
9.5450311683
 20
24.5346756606
 10
9.5435810637
 20
24.5681872604
 10
9.5433042731
 20
24.5905660896
  0
LWPOLYLINE
  5
44B
100
AcDbEntity
  8
ASSI
100
AcDbPolyline
 62
7
  6
CONTINUOUS
 90
3
 70
0
 10
6.316575609
 20
-20.814442575
 10
6.3294469426
 20
-20.8005470093
 10
6.3389248353
 20
-20.785133734
  0
LWPOLYLINE
  5
44C
100
AcDbEntity
  8
ASSI
100
AcDbPolyline
 62
250
  6
CONTINUOUS
 90
6
 70
0
 10
6.8007664728
 20
-19.9720407839
 10
6.81381587
 20
-19.9592277369
 10
6.8238724954
 20
-19.9455557236
 10
6.8307680774
 20
-19.9312535149
 10
6.8343872378
 20
-19.9165604262
 10
6.8349589582
 20
-19.9078964106
  0
LWPOLYLINE
  5
44D
100
AcDbEntity
  8
ASSI
100
AcDbPolyline
 62
250
  6
CONTINUOUS
 90
6
 70
0
 10
6.8007664728
 20
-20.2935850359
 10
6.8138158477
 20
-20.2807720342
 10
6.8238724658
 20
-20.2671000604
 10
6.8307680528
 20
-20.2527978833
 10
6.8343872271
 20
-20.2381048168
 10
6.8349589583
 20
-20.2294370613
  0
LWPOLYLINE
  5
44E
100
AcDbEntity
  8
ASSI
100
AcDbPolyline
 62
250
  6
CONTINUOUS
 90
28
 70
0
 10
6.773290606
 20
-20.3579008341
 10
6.7747367049
 20
-20.3565898218
 10
6.7761970094
 20
-20.3551415458
 10
6.7776715196
 20
-20.3535560061
 10
6.7791689999
 20
-20.3518284076
 10
6.780680686
 20
-20.3499635454
 10
6.7821802845
 20
-20.3479758053
 10
6.7836678647
 20
-20.3458604992
 10
6.7851433574
 20
-20.343622315
 10
6.7865802625
 20
-20.3412897027
 10
6.7879770895
 20
-20.3388601131
 10
6.7893353289
 20
-20.3363360952
 10
6.7906329517
 20
-20.3337537456
 10
6.7918672926
 20
-20.3311142297
 10
6.7930410168
 20
-20.328416382
 10
6.794140091
 20
-20.3256928028
 10
6.7951627358
 20
-20.3229452563
 10
6.7961107307
 20
-20.3201719781
 10
6.79697538
 20
-20.3174002762
 10
6.7977559733
 20
-20.3146301243
 10
6.798453221
 20
-20.3118615486
 10
6.7990605599
 20
-20.3091219356
 10
6.7995771691
 20
-20.3064116072
 10
6.8000038694
 20
-20.3037302417
 10
6.80033656
 20
-20.3011042596
 10
6.800573874
 20
-20.2985424681
 10
6.8007171783
 20
-20.2960360602
 10
6.8007664728
 20
-20.2935850359
  0
LINE
  5
44F
100
AcDbEntity
  8
ASSI
100
AcDbLine
 62
250
  6
CONTINUOUS
 10
6.8019254801
 20
-18.9424706466
 11
7.3612035643
 21
-18.4525834435
  0
LINE
  5
450
100
AcDbEntity
  8
ASSI
100
AcDbLine
 62
7
  6
CONTINUOUS
 10
6.7142216968
 20
-19.1605240488
 11
7.2741991214
 21
-18.6700242741
  0
LINE
  5
451
100
AcDbEntity
  8
ASSI
100
AcDbLine
 62
7
  6
CONTINUOUS
 10
6.7141121307
 20
-19.1606199986
 11
6.6950696372
 21
-19.175572537
  0
LINE
  5
452
100
AcDbEntity
  8
ASSI
100
AcDbLine
 62
250
  6
CONTINUOUS
 10
5.9093854488
 20
-19.5698602731
 11
6.8019254801
 21
-18.9424080735
  0
LINE
  5
453
100
AcDbEntity
  8
ASSI
100
AcDbLine
 62
7
  6
CONTINUOUS
 10
5.8032561269
 20
-19.8025145742
 11
6.6949954229
 21
-19.1756252885
  0
LWPOLYLINE
  5
454
100
AcDbEntity
  8
RACCORDO
100
AcDbPolyline
 62
250
  6
CONTINUOUS
 90
9
 70
0
 10
1.0914215838
 20
-23.0343760213
 10
1.0976154894
 20
-23.030108388
 10
1.1259229784
 20
-23.0066011612
 10
1.1508165973
 20
-22.9788440417
 10
1.1720238809
 20
-22.9471409025
 10
1.1893127176
 20
-22.9118388023
 10
1.2024938854
 20
-22.8733241945
 10
1.2114231257
 20
-22.8320187
 10
1.2160027265
 20
-22.7883744816
  0
LINE
  5
455
100
AcDbEntity
  8
RACCORDO
100
AcDbLine
 62
250
  6
CONTINUOUS
 10
3.967607538
 20
-20.9539005179
 11
1.2160027265
 21
-22.7883744816
  0
LWPOLYLINE
  5
456
100
AcDbEntity
  8
ASSI
100
AcDbPolyline
 62
250
  6
CONTINUOUS
 90
9
 70
0
 10
6.7858567388
 20
19.4373206962
 10
6.7843837045
 20
19.4371271081
 10
6.7828766827
 20
19.4367737833
 10
6.7813354027
 20
19.436259296
 10
6.7797601353
 20
19.4355850719
 10
6.7781664636
 20
19.434757958
 10
6.776559582
 20
19.4337802366
 10
6.7749342962
 20
19.4326496253
 10
6.773290606
 20
19.4313661242
  0
LINE
  5
457
100
AcDbEntity
  8
ASSI
100
AcDbLine
 62
7
  6
CONTINUOUS
 10
4.4261295436
 20
17.2498891977
 11
3.9826584949
 21
17.2565531534
  0
LINE
  5
458
100
AcDbEntity
  8
ASSI
100
AcDbLine
 62
7
  6
CONTINUOUS
 10
4.8471163216
 20
17.4846280122
 11
5.3743868462
 21
17.4767048176
  0
LINE
  5
459
100
AcDbEntity
  8
ASSI
100
AcDbLine
 62
250
  6
CONTINUOUS
 10
5.011924746
 20
17.6171774814
 11
5.6139834127
 21
17.6081304595
  0
LWPOLYLINE
  5
45A
100
AcDbEntity
  8
ASSI
100
AcDbPolyline
 62
7
  6
CONTINUOUS
 90
9
 70
0
 10
3.3074526401
 20
18.0885946159
 10
3.3098457742
 20
18.0882014324
 10
3.3169359786
 20
18.0892054215
 10
3.3271025417
 20
18.0929249315
 10
3.3398734239
 20
18.0991431787
 10
3.3551076594
 20
18.10693598
 10
3.3726125724
 20
18.1160851728
 10
3.3919477802
 20
18.1270205801
 10
3.412774442
 20
18.1397999847
  0
LWPOLYLINE
  5
45B
100
AcDbEntity
  8
ASSI
100
AcDbPolyline
 62
250
  6
CONTINUOUS
 90
8
 70
0
 10
2.4692644852
 20
19.1955852069
 10
2.447643602
 20
19.2025633355
 10
2.4264267635
 20
19.2066484816
 10
2.4059768558
 20
19.2077707763
 10
2.3866436461
 20
19.2059110262
 10
2.3687578035
 20
19.2011010419
 10
2.352625242
 20
19.1934230949
 10
2.3395481323
 20
19.1839197466
  0
LWPOLYLINE
  5
45C
100
AcDbEntity
  8
ASSI
100
AcDbPolyline
 62
250
  6
CONTINUOUS
 90
13
 70
0
 10
-9.8601971982
 20
23.4705246276
 10
-9.8380895568
 20
23.4628173359
 10
-9.8144323404
 20
23.4568113664
 10
-9.7896213979
 20
23.4526072152
 10
-9.7640718831
 20
23.4502752289
 10
-9.738211308
 20
23.449854428
 10
-9.7124723897
 20
23.4513518535
 10
-9.6872858095
 20
23.4547424497
 10
-9.6630730065
 20
23.4599694826
 10
-9.6402391262
 20
23.4669454899
 10
-9.6191662406
 20
23.4755537443
 10
-9.600206956
 20
23.4856502065
 10
-9.583678512
 20
23.4970659356
  0
LWPOLYLINE
  5
45D
100
AcDbEntity
  8
ASSI
100
AcDbPolyline
 62
250
  6
CONTINUOUS
 90
13
 70
0
 10
-9.8601971982
 20
23.7706213514
 10
-9.8380895425
 20
23.7629140554
 10
-9.8144323127
 20
23.7569080843
 10
-9.7896213588
 20
23.7527039338
 10
-9.7640718352
 20
23.75037195
 10
-9.7382112548
 20
23.7499511527
 10
-9.7124723351
 20
23.7514485824
 10
-9.6872857578
 20
23.7548391824
 10
-9.6630729614
 20
23.7600662179
 10
-9.6402390906
 20
23.7670422262
 10
-9.6191662166
 20
23.7756504793
 10
-9.6002069442
 20
23.7857469374
 10
-9.583678512
 20
23.7971626594
  0
LWPOLYLINE
  5
45E
100
AcDbEntity
  8
ASSI
100
AcDbPolyline
 62
250
  6
CONTINUOUS
 90
13
 70
0
 10
0.8586736947
 20
20.4844144675
 10
0.8807812941
 20
20.4767071886
 10
0.9044384709
 20
20.4707012239
 10
0.9292493794
 20
20.4664970706
 10
0.9547988675
 20
20.464165077
 10
0.9806594256
 20
20.4637442652
 10
1.0063983402
 20
20.4652416784
 10
1.0315849317
 20
20.4686322637
 10
1.0557977576
 20
20.4738592896
 10
1.0786316676
 20
20.480835295
 10
1.0997045862
 20
20.4894435536
 10
1.118663905
 20
20.4995400272
 10
1.1351923809
 20
20.5109557755
  0
LWPOLYLINE
  5
45F
100
AcDbEntity
  8
ASSI
100
AcDbPolyline
 62
7
  6
CONTINUOUS
 90
5
 70
0
 10
-9.8096470808
 20
23.3558656781
 10
-9.7986830296
 20
23.3518152384
 10
-9.7717421073
 20
23.3446367474
 10
-9.7439679732
 20
23.3410448404
 10
-9.7341577578
 20
23.3406550276
  0
LWPOLYLINE
  5
460
100
AcDbEntity
  8
ASSI
100
AcDbPolyline
 62
250
  6
CONTINUOUS
 90
28
 70
0
 10
-1.7539901618
 20
21.5746705375
 10
-1.7560009254
 20
21.5754429809
 10
-1.7580518026
 20
21.5761117365
 10
-1.7601427933
 20
21.5766768044
 10
-1.7622871579
 20
21.5771487412
 10
-1.764471636
 20
21.5775169903
 10
-1.7666564468
 20
21.5777498823
 10
-1.7688425448
 20
21.5778430059
 10
-1.7710289754
 20
21.5778007723
 10
-1.7731730943
 20
21.5776047455
 10
-1.7752740969
 20
21.577249451
 10
-1.7773327878
 20
21.5767403633
 10
-1.7793089355
 20
21.5760754696
 10
-1.7811990365
 20
21.5752500341
 10
-1.7830065944
 20
21.5742687927
 10
-1.7847018878
 20
21.5731439404
 10
-1.7862805667
 20
21.571873697
 10
-1.7877469812
 20
21.5704598427
 10
-1.7890844594
 20
21.5689199136
 10
-1.7902907963
 20
21.5672532696
 10
-1.791368197
 20
21.5654605508
 10
-1.7923066056
 20
21.5635612131
 10
-1.793104766
 20
21.5615542953
 10
-1.7937639342
 20
21.5594407587
 10
-1.794277823
 20
21.5572429433
 10
-1.7946443367
 20
21.5549682958
 10
-1.7948655711
 20
21.5526093695
 10
-1.794941526
 20
21.5501661645
  0
LWPOLYLINE
  5
461
100
AcDbEntity
  8
ASSI
100
AcDbPolyline
 62
7
  6
CONTINUOUS
 90
5
 70
0
 10
4.7712518397
 20
17.4998493166
 10
4.7758098176
 20
17.4980809631
 10
4.7986596579
 20
17.4909631665
 10
4.822302996
 20
17.4864514901
 10
4.8471333667
 20
17.4846344072
  0
LINE
  5
462
100
AcDbEntity
  8
ASSI
100
AcDbLine
 62
7
  6
CONTINUOUS
 10
-11.1681319464
 20
23.2856262915
 11
-10.9438962512
 21
23.1955681811
  0
LINE
  5
463
100
AcDbEntity
  8
ASSI
100
AcDbLine
 62
7
  6
CONTINUOUS
 10
3.412774442
 20
17.4296055671
 11
3.6370101372
 21
17.3395474567
  0
LINE
  5
464
100
AcDbEntity
  8
ASSI
100
AcDbLine
 62
7
  6
CONTINUOUS
 10
5.5002303368
 20
16.7541111948
 11
5.268335055
 21
16.8472455679
  0
LINE
  5
465
100
AcDbEntity
  8
ASSI
100
AcDbLine
 62
7
  6
CONTINUOUS
 10
2.9286023968
 20
17.7869349515
 11
-9.3125713333
 21
22.7032662923
  0
LINE
  5
466
100
AcDbEntity
  8
ASSI
100
AcDbLine
 62
7
  6
CONTINUOUS
 10
-11.6523039915
 20
23.6429556759
 11
-11.8841992733
 21
23.736090049
  0
LINE
  5
467
100
AcDbEntity
  8
ASSI
100
AcDbLine
 62
7
  6
CONTINUOUS
 10
4.7712326782
 20
17.4998552937
 11
3.8400867347
 21
17.8738244659
  0
LINE
  5
468
100
AcDbEntity
  8
ASSI
100
AcDbLine
 62
7
  6
CONTINUOUS
 10
3.3101419185
 20
18.0866622515
 11
2.379047002
 21
18.4606109609
  0
LINE
  5
469
100
AcDbEntity
  8
ASSI
100
AcDbLine
 62
7
  6
CONTINUOUS
 10
-9.8097237825
 20
23.3558960974
 11
-10.7408196536
 21
23.7298451903
  0
LINE
  5
46A
100
AcDbEntity
  8
ASSI
100
AcDbLine
 62
7
  6
CONTINUOUS
 10
-11.2707644699
 20
23.9426829759
 11
-12.2018662412
 21
24.3166344384
  0
LINE
  5
46B
100
AcDbEntity
  8
ASSI
100
AcDbLine
 62
250
  6
CONTINUOUS
 10
-11.1681319464
 20
23.9958207092
 11
-12.2518309994
 21
24.4310750917
  0
LINE
  5
46C
100
AcDbEntity
  8
ASSI
100
AcDbLine
 62
250
  6
CONTINUOUS
 10
3.412774442
 20
18.1397999847
 11
2.329075389
 21
18.5750379559
  0
LINE
  5
46D
100
AcDbEntity
  8
ASSI
100
AcDbLine
 62
250
  6
CONTINUOUS
 10
-9.8601971982
 20
23.4705246276
 11
-10.9438962512
 21
23.9057625987
  0
LINE
  5
46E
100
AcDbEntity
  8
ASSI
100
AcDbLine
 62
250
  6
CONTINUOUS
 10
4.7207091902
 20
17.6145203085
 11
3.6370101372
 21
18.0497418743
  0
LINE
  5
46F
100
AcDbEntity
  8
ASSI
100
AcDbLine
 62
7
  6
CONTINUOUS
 10
0.8586736947
 20
19.3614024615
 11
-1.794941526
 21
20.4271541585
  0
LINE
  5
470
100
AcDbEntity
  8
ASSI
100
AcDbLine
 62
7
  6
CONTINUOUS
 10
-3.4418745378
 20
21.0885995852
 11
-6.0954897585
 21
22.1543512822
  0
LINE
  5
471
100
AcDbEntity
  8
ASSI
100
AcDbLine
 62
250
  6
CONTINUOUS
 10
4.7207091902
 20
17.914600627
 11
2.329075389
 21
18.8751346797
  0
LINE
  5
472
100
AcDbEntity
  8
ASSI
100
AcDbLine
 62
250
  6
CONTINUOUS
 10
-9.8601971982
 20
23.7706213514
 11
-12.2518309994
 21
24.7311554041
  0
LINE
  5
473
100
AcDbEntity
  8
ASSI
100
AcDbLine
 62
7
  6
CONTINUOUS
 10
-8.2295145326
 20
23.3829924808
 11
-6.1807744713
 21
22.5601722844
  0
LINE
  5
474
100
AcDbEntity
  8
ASSI
100
AcDbLine
 62
7
  6
CONTINUOUS
 10
-2.9869414492
 20
21.2774569395
 11
-1.8802262387
 21
20.8329751607
  0
LINE
  5
475
100
AcDbEntity
  8
ASSI
100
AcDbLine
 62
7
  6
CONTINUOUS
 10
1.3136067834
 20
19.5502598157
 11
2.3082809086
 21
19.1507762626
  0
LINE
  5
476
100
AcDbEntity
  8
ASSI
100
AcDbLine
 62
7
  6
CONTINUOUS
 10
6.3927703681
 20
17.510353213
 11
6.3513918557
 21
17.5269717564
  0
LINE
  5
477
100
AcDbEntity
  8
ASSI
100
AcDbLine
 62
250
  6
CONTINUOUS
 10
4.8623031676
 20
18.2344869223
 11
2.4692644852
 21
19.1955852069
  0
LINE
  5
478
100
AcDbEntity
  8
ASSI
100
AcDbLine
 62
250
  6
CONTINUOUS
 10
-9.7186032208
 20
24.0905076467
 11
-12.1116419031
 21
25.0516059313
  0
LINE
  5
479
100
AcDbEntity
  8
ASSI
100
AcDbLine
 62
7
  6
CONTINUOUS
 10
-8.2295145326
 20
24.0689016669
 11
-7.7010843588
 21
23.856672196
  0
LINE
  5
47A
100
AcDbEntity
  8
ASSI
100
AcDbLine
 62
7
  6
CONTINUOUS
 10
6.3513918557
 20
18.2128809425
 11
6.9516899226
 21
17.9717877055
  0
LINE
  5
47B
100
AcDbEntity
  8
ASSI
100
AcDbLine
 62
7
  6
CONTINUOUS
 10
-1.8802262387
 20
21.5189756604
 11
-2.43788992
 21
21.7429459671
  0
LINE
  5
47C
100
AcDbEntity
  8
ASSI
100
AcDbLine
 62
250
  6
CONTINUOUS
 10
-6.0545383943
 20
23.3018676613
 11
-3.482825902
 21
22.2690099465
  0
LINE
  5
47D
100
AcDbEntity
  8
ASSI
100
AcDbLine
 62
250
  6
CONTINUOUS
 10
0.8177223306
 20
20.5418128227
 11
-1.7539901618
 21
21.5746705375
  0
LINE
  5
47E
100
AcDbEntity
  8
ASSI
100
AcDbLine
 62
7
  6
CONTINUOUS
 10
-1.8855146973
 20
21.6309372848
 11
-2.4398986147
 21
21.8535903643
  0
LINE
  5
47F
100
AcDbEntity
  8
ASSI
100
AcDbLine
 62
250
  6
CONTINUOUS
 10
-5.9418251649
 20
23.5580023903
 11
-3.3701126725
 21
22.5251446755
  0
LINE
  5
480
100
AcDbEntity
  8
ASSI
100
AcDbLine
 62
250
  6
CONTINUOUS
 10
0.93043556
 20
20.7979475517
 11
-1.6412769324
 21
21.8308052666
  0
LWPOLYLINE
  5
481
100
AcDbEntity
  8
ASSI
100
AcDbPolyline
 62
250
  6
CONTINUOUS
 90
28
 70
0
 10
-3.482825902
 20
22.2690099465
 10
-3.4807941138
 20
22.2681571082
 10
-3.4787254081
 20
22.2671686234
 10
-3.4766197849
 20
22.266044492
 10
-3.4744639983
 20
22.264784164
 10
-3.4722712942
 20
22.2633881895
 10
-3.4700814104
 20
22.2618582188
 10
-3.4678935537
 20
22.2601891096
 10
-3.4657085174
 20
22.2583860042
 10
-3.4635684188
 20
22.2564659792
 10
-3.4614744634
 20
22.254424678
 10
-3.4594254458
 20
22.2522664573
 10
-3.4574598665
 20
22.2500214632
 10
-3.4555815921
 20
22.2476888921
 10
-3.4537867561
 20
22.2452695476
 10
-3.4521022599
 20
22.2427959863
 10
-3.450531542
 20
22.240269417
 10
-3.449071164
 20
22.237688631
 10
-3.4477377119
 20
22.2350825593
 10
-3.446532847
 20
22.2324512661
 10
-3.445454908
 20
22.2297946873
 10
-3.4445154966
 20
22.2271415617
 10
-3.4437161387
 20
22.2244918841
 10
-3.4430553085
 20
22.2218456596
 10
-3.4425400309
 20
22.2192316427
 10
-3.4421726473
 20
22.216659418
 10
-3.4419508163
 20
22.2141194009
 10
-3.4418745378
 20
22.2116115912
  0
LWPOLYLINE
  5
482
100
AcDbEntity
  8
ASSI
100
AcDbPolyline
 62
250
  6
CONTINUOUS
 90
16
 70
0
 10
-9.8096434539
 20
23.3558639097
 10
-9.8122933717
 20
23.3570037039
 10
-9.8180884507
 20
23.3600980461
 10
-9.8236717224
 20
23.3639702116
 10
-9.8290069374
 20
23.368648505
 10
-9.8340563249
 20
23.3741578005
 10
-9.8387547805
 20
23.3804804689
 10
-9.8430706356
 20
23.3876210998
 10
-9.8469724649
 20
23.395580187
 10
-9.8504108435
 20
23.4043025596
 10
-9.8533638999
 20
23.4137680524
 10
-9.8558115327
 20
23.4239534256
 10
-9.8577257675
 20
23.434770367
 10
-9.8590964285
 20
23.4461570478
 10
-9.8599215558
 20
23.4580900717
 10
-9.8601971982
 20
23.4705246276
  0
LWPOLYLINE
  5
483
100
AcDbEntity
  8
ASSI
100
AcDbPolyline
 62
250
  6
CONTINUOUS
 90
28
 70
0
 10
-3.3701126725
 20
22.5251446755
 10
-3.3601098359
 20
22.5207585286
 10
-3.3498529328
 20
22.5157478016
 10
-3.3393708793
 20
22.5100850726
 10
-3.3286715352
 20
22.5037299332
 10
-3.3178185481
 20
22.4966735239
 10
-3.3069284194
 20
22.4889513741
 10
-3.2960438018
 20
22.4805594724
 10
-3.285211105
 20
22.4714982806
 10
-3.2745492455
 20
22.4618371449
 10
-3.2641046747
 20
22.4515950875
 10
-3.2539228419
 20
22.4407929106
 10
-3.2441106619
 20
22.4295263314
 10
-3.2347165887
 20
22.4178422087
 10
-3.2257700475
 20
22.4057681982
 10
-3.2173361378
 20
22.3933859502
 10
-3.2094534093
 20
22.3807522478
 10
-3.2021426712
 20
22.3679008504
 10
-3.1954338535
 20
22.3548838808
 10
-3.1893520556
 20
22.3417503585
 10
-3.1839182269
 20
22.3285460304
 10
-3.1791518923
 20
22.3153189706
 10
-3.1750701833
 20
22.3021167104
 10
-3.1716879132
 20
22.2889873271
 10
-3.169017231
 20
22.2759795206
 10
-3.1670675454
 20
22.2631406559
 10
-3.1658456844
 20
22.25051662
 10
-3.1653558516
 20
22.2381528992
  0
LWPOLYLINE
  5
484
100
AcDbEntity
  8
ASSI
100
AcDbPolyline
 62
7
  6
CONTINUOUS
 90
9
 70
0
 10
-10.7400651227
 20
23.7295455099
 10
-10.7570558585
 20
23.7371298631
 10
-10.786882155
 20
23.753616747
 10
-10.8160181498
 20
23.7733641618
 10
-10.844351514
 20
23.7958257229
 10
-10.8713500578
 20
23.8206021273
 10
-10.896810674
 20
23.8474099371
 10
-10.9209713577
 20
23.8759058412
 10
-10.9438962512
 20
23.9057625987
  0
LWPOLYLINE
  5
485
100
AcDbEntity
  8
ASSI
100
AcDbPolyline
 62
7
  6
CONTINUOUS
 90
9
 70
0
 10
3.8408412656
 20
17.8735247855
 10
3.8238505299
 20
17.8811091386
 10
3.7940242334
 20
17.8975960226
 10
3.7648882386
 20
17.9173434374
 10
3.7365548743
 20
17.9398049985
 10
3.7095563305
 20
17.9645814029
 10
3.6840957143
 20
17.9913892127
 10
3.6599350306
 20
18.0198851168
 10
3.6370101372
 20
18.0497418743
  0
LWPOLYLINE
  5
486
100
AcDbEntity
  8
ASSI
100
AcDbPolyline
 62
250
  6
CONTINUOUS
 90
7
 70
0
 10
2.329075389
 20
18.5750379559
 10
2.3088872282
 20
18.5843176138
 10
2.2909563706
 20
18.5950143572
 10
2.275582847
 20
18.6069492
 10
2.263023897
 20
18.6199224398
 10
2.2534896646
 20
18.6337169987
 10
2.2471396823
 20
18.6481020559
  0
LWPOLYLINE
  5
487
100
AcDbEntity
  8
ASSI
100
AcDbPolyline
 62
250
  6
CONTINUOUS
 90
9
 70
0
 10
2.329075389
 20
18.8751346797
 10
2.3088872429
 20
18.8844143298
 10
2.290956394
 20
18.8951110649
 10
2.2755828737
 20
18.9070458999
 10
2.2630239223
 20
18.9200191327
 10
2.2534896848
 20
18.9338136865
 10
2.2471396947
 20
18.9481987411
 10
2.2440802045
 20
18.9629335959
 10
2.2437908891
 20
18.9689365713
  0
LWPOLYLINE
  5
488
100
AcDbEntity
  8
ASSI
100
AcDbPolyline
 62
250
  6
CONTINUOUS
 90
9
 70
0
 10
-1.794941526
 20
21.5501661645
 10
-1.8151296721
 20
21.5594458146
 10
-1.833060521
 20
21.5701425497
 10
-1.8484340413
 20
21.5820773846
 10
-1.8609929927
 20
21.5950506175
 10
-1.8705272302
 20
21.6088451713
 10
-1.8768772202
 20
21.6232302259
 10
-1.8799367105
 20
21.6379650807
 10
-1.8802262317
 20
21.6441050357
  0
LWPOLYLINE
  5
489
100
AcDbEntity
  8
ASSI
100
AcDbPolyline
 62
250
  6
CONTINUOUS
 90
13
 70
0
 10
-9.7186032208
 20
24.0905076467
 10
-9.6974705092
 20
24.0803149723
 10
-9.6766650017
 20
24.0675230082
 10
-9.6565425484
 20
24.0523505436
 10
-9.6374473167
 20
24.0350570832
 10
-9.6197059049
 20
24.0159384082
 10
-9.6036217558
 20
23.9953215178
 10
-9.5894699671
 20
23.9735590362
 10
-9.5774925861
 20
23.9510231811
 10
-9.5678944698
 20
23.9280993982
 10
-9.5608397811
 20
23.9051797677
 10
-9.5564491807
 20
23.882656299
 10
-9.5547977641
 20
23.8609142257
  0
LINE
  5
48A
100
AcDbEntity
  8
0
100
AcDbLine
 62
7
  6
CONTINUOUS
 10
11.1984786044
 20
24.0941951348
 11
10.9541011842
 21
24.6824878929
  0
LWPOLYLINE
  5
48B
100
AcDbEntity
  8
RACCORDO
100
AcDbPolyline
 62
7
  6
CONTINUOUS
 90
31
 70
0
 10
19.8746412861
 20
24.6044538003
 10
19.874327872
 20
24.6382680285
 10
19.8730274643
 20
24.6813504981
 10
19.8707127613
 20
24.7246587279
 10
19.8673769309
 20
24.7681970594
 10
19.8630162126
 20
24.8119305686
 10
19.8576337645
 20
24.855784359
 10
19.8512284138
 20
24.8997468484
 10
19.8437993256
 20
24.9438027607
 10
19.8353581139
 20
24.9878732792
 10
19.8259072227
 20
25.0319474636
 10
19.8154490054
 20
25.0760116763
 10
19.8040038782
 20
25.1199846989
 10
19.7915779476
 20
25.1638547329
 10
19.7781759894
 20
25.2076113622
 10
19.7638255462
 20
25.2511767712
 10
19.7485369785
 20
25.2945350696
 10
19.732315916
 20
25.3376823174
 10
19.7151895485
 20
25.3805596615
 10
19.697168216
 20
25.4231551586
 10
19.6782597116
 20
25.4654623585
 10
19.6584915388
 20
25.5074311677
 10
19.6378734354
 20
25.5490531598
 10
19.6164146695
 20
25.5903193533
 10
19.5941465483
 20
25.6311794034
 10
19.5710800959
 20
25.6716243668
 10
19.5472246257
 20
25.7116460913
 10
19.5226137793
 20
25.7511972568
 10
19.4972662544
 20
25.7902578847
 10
19.4711846771
 20
25.8288322631
 10
19.4488054064
 20
25.8607275434
  0
LWPOLYLINE
  5
48C
100
AcDbEntity
  8
0
100
AcDbPolyline
 62
7
  6
CONTINUOUS
 90
31
 70
0
 10
19.8746412861
 20
24.6044538003
 10
19.874327872
 20
24.6382680285
 10
19.8730274643
 20
24.6813504981
 10
19.8707127613
 20
24.7246587279
 10
19.8673769309
 20
24.7681970594
 10
19.8630162126
 20
24.8119305686
 10
19.8576337645
 20
24.855784359
 10
19.8512284138
 20
24.8997468484
 10
19.8437993256
 20
24.9438027607
 10
19.8353581139
 20
24.9878732792
 10
19.8259072227
 20
25.0319474636
 10
19.8154490054
 20
25.0760116763
 10
19.8040038782
 20
25.1199846989
 10
19.7915779476
 20
25.1638547329
 10
19.7781759894
 20
25.2076113622
 10
19.7638255462
 20
25.2511767712
 10
19.7485369785
 20
25.2945350696
 10
19.732315916
 20
25.3376823174
 10
19.7151895485
 20
25.3805596615
 10
19.697168216
 20
25.4231551586
 10
19.6782597116
 20
25.4654623585
 10
19.6584915388
 20
25.5074311677
 10
19.6378734354
 20
25.5490531598
 10
19.6164146695
 20
25.5903193533
 10
19.5941465483
 20
25.6311794034
 10
19.5710800959
 20
25.6716243668
 10
19.5472246257
 20
25.7116460913
 10
19.5226137793
 20
25.7511972568
 10
19.4972662544
 20
25.7902578847
 10
19.4711846771
 20
25.8288322631
 10
19.4488054064
 20
25.8607275434
  0
LWPOLYLINE
  5
48D
100
AcDbEntity
  8
RACCORDO
100
AcDbPolyline
 62
250
  6
CONTINUOUS
 90
37
 70
0
 10
19.7036788701
 20
24.2837112045
 10
19.7033748399
 20
24.3196747928
 10
19.7022867589
 20
24.3559303137
 10
19.700415115
 20
24.3924604811
 10
19.6977607457
 20
24.4292477874
 10
19.6943249171
 20
24.4662747905
 10
19.6901093098
 20
24.5035241258
 10
19.6851158862
 20
24.5409781607
 10
19.6793469962
 20
24.5786189402
 10
19.6728054543
 20
24.6164284753
 10
19.6654943731
 20
24.6543887056
 10
19.6574171979
 20
24.692481603
 10
19.6485777988
 20
24.7306891213
 10
19.6389803733
 20
24.7689930752
 10
19.6286294686
 20
24.8073752224
 10
19.617530018
 20
24.8458173657
 10
19.6056872905
 20
24.8843012414
 10
19.5931069132
 20
24.9228085007
 10
19.5797948895
 20
24.9613207932
 10
19.5657575591
 20
24.9998197999
 10
19.5510015948
 20
25.0382871982
 10
19.5355340247
 20
25.0767046449
 10
19.5193622349
 20
25.1150538452
 10
19.5024939123
 20
25.1533165815
 10
19.484937041
 20
25.1914746774
 10
19.4666999941
 20
25.2295099936
 10
19.4477914563
 20
25.2674044413
 10
19.4282203631
 20
25.3051400084
 10
19.4079960198
 20
25.3426988198
 10
19.3871280899
 20
25.3800629599
 10
19.3656265193
 20
25.4172144867
 10
19.3435016397
 20
25.454135646
 10
19.3207639432
 20
25.4908090003
 10
19.2974240602
 20
25.5272172481
 10
19.2734930477
 20
25.5633431316
 10
19.2489823947
 20
25.599169449
 10
19.2239037954
 20
25.634679183
  0
LWPOLYLINE
  5
48E
100
AcDbEntity
  8
0
100
AcDbPolyline
 62
250
  6
CONTINUOUS
 90
37
 70
0
 10
19.7036788701
 20
24.2837112045
 10
19.7033748399
 20
24.3196747928
 10
19.7022867589
 20
24.3559303137
 10
19.700415115
 20
24.3924604811
 10
19.6977607457
 20
24.4292477874
 10
19.6943249171
 20
24.4662747905
 10
19.6901093098
 20
24.5035241258
 10
19.6851158862
 20
24.5409781607
 10
19.6793469962
 20
24.5786189402
 10
19.6728054543
 20
24.6164284753
 10
19.6654943731
 20
24.6543887056
 10
19.6574171979
 20
24.692481603
 10
19.6485777988
 20
24.7306891213
 10
19.6389803733
 20
24.7689930752
 10
19.6286294686
 20
24.8073752224
 10
19.617530018
 20
24.8458173657
 10
19.6056872905
 20
24.8843012414
 10
19.5931069132
 20
24.9228085007
 10
19.5797948895
 20
24.9613207932
 10
19.5657575591
 20
24.9998197999
 10
19.5510015948
 20
25.0382871982
 10
19.5355340247
 20
25.0767046449
 10
19.5193622349
 20
25.1150538452
 10
19.5024939123
 20
25.1533165815
 10
19.484937041
 20
25.1914746774
 10
19.4666999941
 20
25.2295099936
 10
19.4477914563
 20
25.2674044413
 10
19.4282203631
 20
25.3051400084
 10
19.4079960198
 20
25.3426988198
 10
19.3871280899
 20
25.3800629599
 10
19.3656265193
 20
25.4172144867
 10
19.3435016397
 20
25.454135646
 10
19.3207639432
 20
25.4908090003
 10
19.2974240602
 20
25.5272172481
 10
19.2734930477
 20
25.5633431316
 10
19.2489823947
 20
25.599169449
 10
19.2239037954
 20
25.634679183
  0
LINE
  5
48F
100
AcDbEntity
  8
RACCORDO
100
AcDbLine
 62
250
  6
CONTINUOUS
 10
19.7036788701
 20
-4.4189508755
 11
19.7036788701
 21
19.0058528203
  0
LINE
  5
490
100
AcDbEntity
  8
0
100
AcDbLine
 62
250
  6
CONTINUOUS
 10
19.7036788701
 20
-4.4189508755
 11
19.7036788701
 21
19.0058528203
  0
LINE
  5
491
100
AcDbEntity
  8
RACCORDO
100
AcDbLine
 62
250
  6
CONTINUOUS
 10
19.7036788701
 20
20.6823869805
 11
19.7036788701
 21
24.2837112045
  0
LINE
  5
492
100
AcDbEntity
  8
0
100
AcDbLine
 62
250
  6
CONTINUOUS
 10
19.7036788701
 20
20.6823869805
 11
19.7036788701
 21
24.2837112045
  0
LINE
  5
493
100
AcDbEntity
  8
RACCORDO
100
AcDbLine
 62
7
  6
CONTINUOUS
 10
19.8746412976
 20
-4.0982110027
 11
19.8746412976
 21
18.9718476699
  0
LINE
  5
494
100
AcDbEntity
  8
0
100
AcDbLine
 62
7
  6
CONTINUOUS
 10
19.8746412976
 20
-4.0982110027
 11
19.8746412976
 21
18.9718476699
  0
LINE
  5
495
100
AcDbEntity
  8
RACCORDO
100
AcDbLine
 62
7
  6
CONTINUOUS
 10
19.8746412976
 20
21.3578789709
 11
19.8746412976
 21
24.6044510773
  0
LINE
  5
496
100
AcDbEntity
  8
0
100
AcDbLine
 62
7
  6
CONTINUOUS
 10
19.8746412976
 20
21.3578789709
 11
19.8746412976
 21
24.6044510773
  0
LINE
  5
497
100
AcDbEntity
  8
RACCORDO
100
AcDbLine
 62
7
  6
CONTINUOUS
 10
19.8746412854
 20
18.9719951863
 11
19.8746412974
 21
18.9718997097
  0
LINE
  5
498
100
AcDbEntity
  8
0
100
AcDbLine
 62
250
  6
CONTINUOUS
 10
19.8746349255
 20
18.9738542474
 11
19.8746412974
 21
18.9718997097
  0
LINE
  5
499
100
AcDbEntity
  8
RACCORDO
100
AcDbLine
 62
7
  6
CONTINUOUS
 10
19.8746412975
 20
21.3578006996
 11
19.8746412822
 21
21.3575127084
  0
LWPOLYLINE
  5
49A
100
AcDbEntity
  8
RACCORDO
100
AcDbPolyline
 62
250
  6
CONTINUOUS
 90
50
 70
0
 10
19.8746412822
 20
21.3575127084
 10
19.8746332251
 20
21.3510121366
 10
19.8743442979
 20
21.316736697
 10
19.8736704901
 20
21.2838540463
 10
19.8726442684
 20
21.2522143035
 10
19.8712964149
 20
21.2217993004
 10
19.8696588662
 20
21.192632679
 10
19.8677549795
 20
21.1646265906
 10
19.8656109454
 20
21.1377841699
 10
19.8632526012
 20
21.1121047736
 10
19.8606957523
 20
21.0874945802
 10
19.8579628777
 20
21.0639630205
 10
19.8550742608
 20
21.0415012259
 10
19.8520356931
 20
21.0199879963
 10
19.8488647498
 20
20.9994265469
 10
19.8455771358
 20
20.9798132689
 10
19.8421687912
 20
20.9610171774
 10
19.8386490413
 20
20.9430208544
 10
19.8350326814
 20
20.9258411652
 10
19.831318435
 20
20.90939905
 10
19.8275103645
 20
20.8936730032
 10
19.8236234135
 20
20.878683804
 10
19.8196710207
 20
20.8644158511
 10
19.8156620438
 20
20.8508718676
 10
19.8116065656
 20
20.8380475679
 10
19.8075205712
 20
20.8259164856
 10
19.8034160882
 20
20.8144889201
 10
19.7992999267
 20
20.8037522138
 10
19.7951804167
 20
20.7936452365
 10
19.7910789984
 20
20.7841920716
 10
19.7869917771
 20
20.7753658224
 10
19.7828859188
 20
20.7670295151
 10
19.7787637823
 20
20.7591671565
 10
19.7746332083
 20
20.7517932469
 10
19.7704646804
 20
20.7448177425
 10
19.7662518328
 20
20.7382209431
 10
19.7620065028
 20
20.7320220665
 10
19.7577240022
 20
20.7261900827
 10
19.7534052794
 20
20.72072251
 10
19.7490541394
 20
20.7156213822
 10
19.74466957
 20
20.7108625843
 10
19.7402551855
 20
20.7064468663
 10
19.7358117135
 20
20.7023730045
 10
19.7313332531
 20
20.6986140709
 10
19.726823237
 20
20.6951697638
 10
19.7222817254
 20
20.6920400646
 10
19.7176968197
 20
20.6891987682
 10
19.7130650591
 20
20.6866372382
 10
19.7083920369
 20
20.6843641868
 10
19.7036788701
 20
20.6823796179
  0
LWPOLYLINE
  5
49B
100
AcDbEntity
  8
0
100
AcDbPolyline
 62
250
  6
CONTINUOUS
 90
50
 70
0
 10
19.8746412975
 20
21.3578006996
 10
19.8746332251
 20
21.3510121366
 10
19.8743442979
 20
21.316736697
 10
19.8736704901
 20
21.2838540463
 10
19.8726442684
 20
21.2522143035
 10
19.8712964149
 20
21.2217993004
 10
19.8696588662
 20
21.192632679
 10
19.8677549795
 20
21.1646265906
 10
19.8656109454
 20
21.1377841699
 10
19.8632526012
 20
21.1121047736
 10
19.8606957523
 20
21.0874945802
 10
19.8579628777
 20
21.0639630205
 10
19.8550742608
 20
21.0415012259
 10
19.8520356931
 20
21.0199879963
 10
19.8488647498
 20
20.9994265469
 10
19.8455771358
 20
20.9798132689
 10
19.8421687912
 20
20.9610171774
 10
19.8386490413
 20
20.9430208544
 10
19.8350326814
 20
20.9258411652
 10
19.831318435
 20
20.90939905
 10
19.8275103645
 20
20.8936730032
 10
19.8236234135
 20
20.878683804
 10
19.8196710207
 20
20.8644158511
 10
19.8156620438
 20
20.8508718676
 10
19.8116065656
 20
20.8380475679
 10
19.8075205712
 20
20.8259164856
 10
19.8034160882
 20
20.8144889201
 10
19.7992999267
 20
20.8037522138
 10
19.7951804167
 20
20.7936452365
 10
19.7910789984
 20
20.7841920716
 10
19.7869917771
 20
20.7753658224
 10
19.7828859188
 20
20.7670295151
 10
19.7787637823
 20
20.7591671565
 10
19.7746332083
 20
20.7517932469
 10
19.7704646804
 20
20.7448177425
 10
19.7662518328
 20
20.7382209431
 10
19.7620065028
 20
20.7320220665
 10
19.7577240022
 20
20.7261900827
 10
19.7534052794
 20
20.72072251
 10
19.7490541394
 20
20.7156213822
 10
19.74466957
 20
20.7108625843
 10
19.7402551855
 20
20.7064468663
 10
19.7358117135
 20
20.7023730045
 10
19.7313332531
 20
20.6986140709
 10
19.726823237
 20
20.6951697638
 10
19.7222817254
 20
20.6920400646
 10
19.7176968197
 20
20.6891987682
 10
19.7130650591
 20
20.6866372382
 10
19.7083920369
 20
20.6843641868
 10
19.7036788701
 20
20.6823796179
  0
LWPOLYLINE
  5
49C
100
AcDbEntity
  8
RACCORDO
100
AcDbPolyline
 62
7
  6
CONTINUOUS
 90
17
 70
0
 10
19.8746413786
 20
18.9718953071
 10
19.8746832512
 20
18.9759036767
 10
19.8750274403
 20
18.9839713119
 10
19.8756731574
 20
18.9914930556
 10
19.8765620416
 20
18.9984297441
 10
19.8776416655
 20
19.0047940143
 10
19.87887445
 20
19.0106459882
 10
19.8802178341
 20
19.0159871321
 10
19.8816241938
 20
19.0207985451
 10
19.8830595222
 20
19.0251065843
 10
19.8844848261
 20
19.0289133875
 10
19.885855347
 20
19.03220733
 10
19.8871307549
 20
19.0349904485
 10
19.8882706285
 20
19.0372645889
 10
19.8892276898
 20
19.0390201555
 10
19.8899474652
 20
19.0402404259
 10
19.8903836382
 20
19.0409279453
  0
LWPOLYLINE
  5
49D
100
AcDbEntity
  8
0
100
AcDbPolyline
 62
7
  6
CONTINUOUS
 90
17
 70
0
 10
19.8746413786
 20
18.9718953071
 10
19.8746832512
 20
18.9759036767
 10
19.8750274403
 20
18.9839713119
 10
19.8756731574
 20
18.9914930556
 10
19.8765620416
 20
18.9984297441
 10
19.8776416655
 20
19.0047940143
 10
19.87887445
 20
19.0106459882
 10
19.8802178341
 20
19.0159871321
 10
19.8816241938
 20
19.0207985451
 10
19.8830595222
 20
19.0251065843
 10
19.8844848261
 20
19.0289133875
 10
19.885855347
 20
19.03220733
 10
19.8871307549
 20
19.0349904485
 10
19.8882706285
 20
19.0372645889
 10
19.8892276898
 20
19.0390201555
 10
19.8899474652
 20
19.0402404259
 10
19.8903836382
 20
19.0409279453
  0
LWPOLYLINE
  5
49E
100
AcDbEntity
  8
ASSI
100
AcDbPolyline
 62
7
  6
CONTINUOUS
 90
5
 70
0
 10
6.7392020174
 20
-20.4442522054
 10
6.7416374588
 20
-20.4420916569
 10
6.7594039089
 20
-20.4244356162
 10
6.775099268
 20
-20.4055340367
 10
6.7892395636
 20
-20.384994777
  0
LINE
  5
49F
100
AcDbEntity
  8
ASSI
100
AcDbLine
 62
250
  6
CONTINUOUS
 10
6.3513918557
 20
-20.727453664
 11
6.773290606
 21
-20.3579008341
  0
LINE
  5
4A0
100
AcDbEntity
  8
ASSI
100
AcDbLine
 62
7
  6
CONTINUOUS
 10
6.3166209668
 20
-20.8144029404
 11
6.7392630485
 21
-20.4441990058
  0
LWPOLYLINE
  5
4A1
100
AcDbEntity
  8
ASSI
100
AcDbPolyline
 62
250
  6
CONTINUOUS
 90
7
 70
0
 10
4.9858385687
 20
-21.8328888753
 10
4.9914364788
 20
-21.8282374482
 10
5.0034138449
 20
-21.8151460464
 10
5.0130119459
 20
-21.7996414005
 10
5.0200666211
 20
-21.7819886972
 10
5.0244572117
 20
-21.7624898634
 10
5.0261086243
 20
-21.7414784006
  0
LINE
  5
4A2
100
AcDbEntity
  8
ASSI
100
AcDbLine
 62
7
  6
CONTINUOUS
 10
6.3119623947
 20
-20.8182209678
 11
6.316575609
 21
-20.814442575
  0
LINE
  5
4A3
100
AcDbEntity
  8
ASSI
100
AcDbLine
 62
250
  6
CONTINUOUS
 10
6.3513918557
 20
-20.727453664
 11
5.0261086243
 21
-21.7414784006
  0
LINE
  5
4A4
100
AcDbEntity
  8
ASSI
100
AcDbLine
 62
7
  6
CONTINUOUS
 10
6.3119281268
 20
-20.8182471875
 11
4.985838566
 21
-21.8328888774
  0
LWPOLYLINE
  5
4A5
100
AcDbEntity
  8
ASSI
100
AcDbPolyline
 62
250
  6
CONTINUOUS
 90
28
 70
0
 10
5.0261086243
 20
-21.7414784006
 10
5.0246670723
 20
-21.7425452231
 10
5.0232008623
 20
-21.7435128466
 10
5.0217099942
 20
-21.7443812712
 10
5.0201852255
 20
-21.7451622367
 10
5.0186357986
 20
-21.7458440033
 10
5.0170894417
 20
-21.7463913507
 10
5.0155456482
 20
-21.7468000568
 10
5.0140049246
 20
-21.7470743437
 10
5.0124965181
 20
-21.7471916573
 10
5.0110212788
 20
-21.7471467041
 10
5.0095783566
 20
-21.7469447777
 10
5.008194448
 20
-21.7465792048
 10
5.0068722104
 20
-21.7460456443
 10
5.0056089864
 20
-21.7453484374
 10
5.0044235005
 20
-21.7444939349
 10
5.0033181162
 20
-21.7434800807
 10
5.0022904699
 20
-21.742308931
 10
5.0013521962
 20
-21.7409930045
 10
5.0005044637
 20
-21.739530776
 10
4.9997461038
 20
-21.7379237708
 10
4.9990852449
 20
-21.7361890838
 10
4.9985229667
 20
-21.7343252504
 10
4.9980581896
 20
-21.7323337353
 10
4.997695803
 20
-21.7302360276
 10
4.9974374369
 20
-21.7280392905
 10
4.9972814613
 20
-21.7257363608
 10
4.9972278763
 20
-21.7233272386
  0
LINE
  5
4A6
100
AcDbEntity
  8
RACCORDO
100
AcDbLine
 62
7
  6
CONTINUOUS
 10
1.0911386947
 20
-23.0345643394
 11
3.8461048906
 21
-21.1978496484
  0
LWPOLYLINE
  5
4A7
100
AcDbEntity
  8
RACCORDO
100
AcDbPolyline
 62
250
  6
CONTINUOUS
 90
22
 70
0
 10
1.2160027265
 20
-22.7883744816
 10
1.1861495948
 20
-22.8067749443
 10
1.1568668373
 20
-22.8219158624
 10
1.1281544541
 20
-22.8337972361
 10
1.0998573716
 20
-22.8424556259
 10
1.0721306633
 20
-22.8478544713
 10
1.04543955
 20
-22.8498840898
 10
1.01981353
 20
-22.8484834062
 10
0.9952231049
 20
-22.8437134958
 10
0.972045001
 20
-22.8356479023
 10
0.9503010512
 20
-22.824234235
 10
0.9299694224
 20
-22.8095248846
 10
0.9113613417
 20
-22.7917505666
 10
0.8945051022
 20
-22.770864733
 10
0.8793724107
 20
-22.7469139319
 10
0.8661896143
 20
-22.7202685231
 10
0.8549863013
 20
-22.6908692506
 10
0.8457328834
 20
-22.6587753705
 10
0.8385669429
 20
-22.6245350104
 10
0.8335343405
 20
-22.5883308795
 10
0.8305892156
 20
-22.5499802686
 10
0.829731568
 20
-22.5094831777
  0
LWPOLYLINE
  5
4A8
100
AcDbEntity
  8
ASSI
100
AcDbPolyline
 62
7
  6
CONTINUOUS
 90
6
 70
0
 10
-1.5961916633
 20
21.9872365384
 10
-1.5739201614
 20
21.9931727063
 10
-1.5499002404
 20
21.995368288
 10
-1.5245420709
 20
21.9937868274
 10
-1.498274173
 20
21.9884595796
 10
-1.4715413574
 20
21.9794813696
  0
LWPOLYLINE
  5
4A9
100
AcDbEntity
  8
ASSI
100
AcDbPolyline
 62
7
  6
CONTINUOUS
 90
5
 70
0
 10
3.6481773186
 20
20.3109219108
 10
3.6673932555
 20
20.3126783762
 10
3.6876797911
 20
20.3114132077
 10
3.7086941094
 20
20.3071514095
 10
3.7300803619
 20
20.2999688415
  0
LWPOLYLINE
  5
4AA
100
AcDbEntity
  8
ASSI
100
AcDbPolyline
 62
7
  6
CONTINUOUS
 90
9
 70
0
 10
-11.2734537482
 20
23.9446153403
 10
-11.2710606141
 20
23.9442221568
 10
-11.2639704098
 20
23.9452261459
 10
-11.2538038467
 20
23.9489456559
 10
-11.2410329644
 20
23.9551639031
 10
-11.2257987289
 20
23.9629567044
 10
-11.2082938159
 20
23.9721058972
 10
-11.1889586082
 20
23.9830413045
 10
-11.1681319464
 20
23.9958207092
  0
LWPOLYLINE
  5
4AB
100
AcDbEntity
  8
ASSI
100
AcDbPolyline
 62
250
  6
CONTINUOUS
 90
12
 70
0
 10
4.2611501416
 20
20.6655654304
 10
4.2542645058
 20
20.6673379248
 10
4.2470805396
 20
20.6682699845
 10
4.239625331
 20
20.6683581863
 10
4.2319238961
 20
20.6676023279
 10
4.224004544
 20
20.6660049194
 10
4.2158951253
 20
20.6635715668
 10
4.2076248373
 20
20.6603110372
 10
4.1992251526
 20
20.6562356981
 10
4.190726718
 20
20.6513608843
 10
4.1821591558
 20
20.6457043194
 10
4.1735529749
 20
20.6392866846
  0
LWPOLYLINE
  5
4AC
100
AcDbEntity
  8
ASSI
100
AcDbPolyline
 62
7
  6
CONTINUOUS
 90
6
 70
0
 10
-10.3158329224
 20
26.5201440123
 10
-10.3423441189
 20
26.5288696518
 10
-10.3690747467
 20
26.5339514091
 10
-10.3969688229
 20
26.5355725019
 10
-10.425324492
 20
26.5334787258
 10
-10.4531493713
 20
26.5276865729
  0
LWPOLYLINE
  5
4AD
100
AcDbEntity
  8
ASSI
100
AcDbPolyline
 62
7
  6
CONTINUOUS
 90
6
 70
0
 10
4.2650642693
 20
20.6641265713
 10
4.2403634493
 20
20.6723771402
 10
4.213847179
 20
20.6776701296
 10
4.1863510137
 20
20.6795558278
 10
4.1585078854
 20
20.677849494
 10
4.1311450824
 20
20.6725756249
  0
LWPOLYLINE
  5
4AE
100
AcDbEntity
  8
ASSI
100
AcDbPolyline
 62
7
  6
CONTINUOUS
 90
8
 70
0
 10
-10.8508260265
 20
26.1559895659
 10
-10.8722029952
 20
26.1631797387
 10
-10.8932196603
 20
26.1674396146
 10
-10.9135131329
 20
26.1686991006
 10
-10.9327325585
 20
26.1669397774
 10
-10.9505481529
 20
26.1621921595
 10
-10.9666570018
 20
26.1545354155
 10
-10.9752028274
 20
26.1487387176
  0
LWPOLYLINE
  5
4AF
100
AcDbEntity
  8
ASSI
100
AcDbPolyline
 62
250
  6
CONTINUOUS
 90
13
 70
0
 10
6.6997004354
 20
19.686324308
 10
6.6946410439
 20
19.6880739017
 10
6.6878899522
 20
19.6895994553
 10
6.6808649308
 20
19.6903149262
 10
6.6735903587
 20
19.6902192923
 10
6.6660921295
 20
19.6893142943
 10
6.6583935194
 20
19.6876039595
 10
6.6505212531
 20
19.6850948269
 10
6.6425025095
 20
19.6817961286
 10
6.6343617253
 20
19.6777183898
 10
6.626125783
 20
19.6728748283
 10
6.6178240735
 20
19.6672822235
 10
6.6094851493
 20
19.6609595452
  0
LWPOLYLINE
  5
4B0
100
AcDbEntity
  8
ASSI
100
AcDbPolyline
 62
250
  6
CONTINUOUS
 90
8
 70
0
 10
4.1735514106
 20
20.6392854515
 10
4.1524186991
 20
20.6466634322
 10
4.1316131916
 20
20.6510855013
 10
4.1114907383
 20
20.652476025
 10
4.0923955066
 20
20.6508112205
 10
4.0746540947
 20
20.646119562
 10
4.0585699456
 20
20.6384812939
 10
4.0500878112
 20
20.6327333152
  0
LINE
  5
4B1
100
AcDbEntity
  8
ASSI
100
AcDbLine
 62
250
  6
CONTINUOUS
 10
4.26467568
 20
20.6642851461
 11
4.2611501416
 21
20.6655654304
  0
LWPOLYLINE
  5
4B2
100
AcDbEntity
  8
ASSI
100
AcDbPolyline
 62
250
  6
CONTINUOUS
 90
17
 70
0
 10
-1.6412769324
 20
21.8308052666
 10
-1.6513667552
 20
21.8344951034
 10
-1.6617212867
 20
21.8377774673
 10
-1.6723104655
 20
21.8405994084
 10
-1.6831250673
 20
21.8429117201
 10
-1.6940996311
 20
21.8446515321
 10
-1.7051157486
 20
21.8457576138
 10
-1.716128829
 20
21.846188613
 10
-1.7270901885
 20
21.8459044146
 10
-1.7378787869
 20
21.8448753338
 10
-1.7484472902
 20
21.8430795518
 10
-1.7587459096
 20
21.8404981247
 10
-1.7686613618
 20
21.837139052
 10
-1.7781462557
 20
21.8330068065
 10
-1.7871655209
 20
21.828104528
 10
-1.795640876
 20
21.8224680919
 10
-1.8029663123
 20
21.8166218002
  0
LINE
  5
4B3
100
AcDbEntity
  8
ASSI
100
AcDbLine
 62
7
  6
CONTINUOUS
 10
-5.7720895899
 20
23.7066784934
 11
-3.19169827
 21
22.6703351657
  0
LINE
  5
4B4
100
AcDbEntity
  8
ASSI
100
AcDbLine
 62
7
  6
CONTINUOUS
 10
-1.4715413574
 20
21.9794813696
 11
1.1088499625
 21
20.943138042
  0
LINE
  5
4B5
100
AcDbEntity
  8
ASSI
100
AcDbLine
 62
7
  6
CONTINUOUS
 10
-10.8508260265
 20
26.1559895659
 11
-8.3933199893
 21
25.1689997382
  0
LINE
  5
4B6
100
AcDbEntity
  8
ASSI
100
AcDbLine
 62
7
  6
CONTINUOUS
 10
3.7300803619
 20
20.2999688415
 11
6.1875863991
 21
19.3129790138
  0
LINE
  5
4B7
100
AcDbEntity
  8
ASSI
100
AcDbLine
 62
7
  6
CONTINUOUS
 10
1.3596355689
 20
21.487310163
 11
-0.918820232
 21
22.4023893792
  0
LINE
  5
4B8
100
AcDbEntity
  8
ASSI
100
AcDbLine
 62
7
  6
CONTINUOUS
 10
-2.6658638267
 20
23.104041473
 11
-4.9443196276
 21
24.0191206893
  0
LINE
  5
4B9
100
AcDbEntity
  8
ASSI
100
AcDbLine
 62
250
  6
CONTINUOUS
 10
6.6094851493
 20
19.6609595452
 11
4.173553006
 21
20.6392866721
  0
LINE
  5
4BA
100
AcDbEntity
  8
ASSI
100
AcDbLine
 62
250
  6
CONTINUOUS
 10
-7.971421239
 20
25.5169802696
 11
-10.4073549777
 21
26.4953061759
  0
LINE
  5
4BB
100
AcDbEntity
  8
ASSI
100
AcDbLine
 62
7
  6
CONTINUOUS
 10
6.6997030195
 20
19.6863232702
 11
4.264672079
 21
20.6642865924
  0
LINE
  5
4BC
100
AcDbEntity
  8
ASSI
100
AcDbLine
 62
7
  6
CONTINUOUS
 10
-10.3162345204
 20
26.5203074015
 11
-7.8811142712
 21
25.5423081193
  0
LWPOLYLINE
  5
4BD
100
AcDbEntity
  8
ASSI
100
AcDbPolyline
 62
250
  6
CONTINUOUS
 90
13
 70
0
 10
-7.971421239
 20
25.5169802696
 10
-7.9498003608
 20
25.5071874416
 10
-7.9285835264
 20
25.4947323815
 10
-7.9081336214
 20
25.4798281183
 10
-7.8888004134
 20
25.4627295706
 10
-7.8709145712
 20
25.4437291881
 10
-7.8547820086
 20
25.42315195
 10
-7.8406786506
 20
25.4013498047
 10
-7.8288457131
 20
25.3786956483
 10
-7.8194855799
 20
25.3555769481
 10
-7.8127583413
 20
25.3323891175
 10
-7.808779056
 20
25.3095287528
 10
-7.8076157823
 20
25.2873868486
  0
LWPOLYLINE
  5
4BE
100
AcDbEntity
  8
ASSI
100
AcDbPolyline
 62
7
  6
CONTINUOUS
 90
13
 70
0
 10
6.1875863991
 20
19.3129790138
 10
6.2089633677
 20
19.3029869081
 10
6.2299800328
 20
19.2903681158
 10
6.2502735054
 20
19.2753354381
 10
6.269492931
 20
19.2581424647
 10
6.2873085254
 20
19.2390825962
 10
6.3034173744
 20
19.2184842013
 10
6.3175458846
 20
19.1967012319
 10
6.3294504313
 20
19.1741046806
 10
6.3389248353
 20
19.1510797356
 10
6.3458079626
 20
19.1280210781
 10
6.3499862474
 20
19.1053260606
 10
6.3513918557
 20
19.0833855927
  0
LINE
  5
4BF
100
AcDbEntity
  8
0
100
AcDbLine
 62
250
  6
CONTINUOUS
 10
10.0269572544
 20
25.4839785846
 11
9.5717256784
 21
26.4471597851
  0
LWPOLYLINE
  5
4C0
100
AcDbEntity
  8
ASSI
100
AcDbPolyline
 62
7
  6
CONTINUOUS
 90
6
 70
0
 10
-5.8967398958
 20
23.7144336621
 10
-5.8744683939
 20
23.72036983
 10
-5.8504484729
 20
23.7225654118
 10
-5.8250903034
 20
23.7209839512
 10
-5.7988224055
 20
23.7156567034
 10
-5.7720895899
 20
23.7066784934
  0
LWPOLYLINE
  5
4C1
100
AcDbEntity
  8
ASSI
100
AcDbPolyline
 62
7
  6
CONTINUOUS
 90
5
 70
0
 10
4.1232439912
 20
23.6952311352
 10
4.0807287052
 20
23.6912451144
 10
4.0385382937
 20
23.6832848812
 10
3.9984656309
 20
23.6716485933
 10
3.960711423
 20
23.6564600602
  0
LWPOLYLINE
  5
4C2
100
AcDbEntity
  8
ASSI
100
AcDbPolyline
 62
250
  6
CONTINUOUS
 90
11
 70
0
 10
-9.7337900604
 20
23.3406487365
 10
-9.7220381657
 20
23.3409383609
 10
-9.6997954864
 20
23.3440641623
 10
-9.6780771867
 20
23.3505159863
 10
-9.6572507634
 20
23.3601846578
 10
-9.6376686199
 20
23.3729065691
 10
-9.6196621019
 20
23.3884664506
 10
-9.6035358934
 20
23.406601013
 10
-9.589562863
 20
23.4270034013
 10
-9.577979446
 20
23.4493283858
 10
-9.5689816423
 20
23.4731982058
  0
LINE
  5
4C3
100
AcDbEntity
  8
ASSI
100
AcDbLine
 62
7
  6
CONTINUOUS
 10
-10.1547768447
 20
23.1059099221
 11
-10.5982478935
 21
23.1125738778
  0
LINE
  5
4C4
100
AcDbEntity
  8
ASSI
100
AcDbLine
 62
250
  6
CONTINUOUS
 10
-8.9669229756
 20
23.4641511839
 11
-9.5689816423
 21
23.4731982058
  0
LINE
  5
4C5
100
AcDbEntity
  8
ASSI
100
AcDbLine
 62
7
  6
CONTINUOUS
 10
-9.7341577618
 20
23.3406547184
 11
-9.2061853165
 21
23.3327205197
  0
LWPOLYLINE
  5
4C6
100
AcDbEntity
  8
ASSI
100
AcDbPolyline
 62
250
  6
CONTINUOUS
 90
19
 70
0
 10
-9.5689816423
 20
23.4731982058
 10
-9.5702408509
 20
23.4732599655
 10
-9.5714795148
 20
23.4734636205
 10
-9.5726976339
 20
23.4738091709
 10
-9.5739052017
 20
23.474290649
 10
-9.5750922247
 20
23.4749140224
 10
-9.5762287228
 20
23.4756971939
 10
-9.5773137506
 20
23.4766454449
 10
-9.5783482534
 20
23.4777534941
 10
-9.5793050867
 20
23.4790234004
 10
-9.5801821069
 20
23.4804608338
 10
-9.5809814577
 20
23.4820601244
 10
-9.5816824253
 20
23.4838063215
 10
-9.5822818922
 20
23.4857045417
 10
-9.582782976
 20
23.4877496685
 10
-9.5831743159
 20
23.4899114014
 10
-9.5834521251
 20
23.4921796401
 10
-9.5836201905
 20
23.4945644848
 10
-9.583678512
 20
23.4970659356
  0
LWPOLYLINE
  5
4C7
100
AcDbEntity
  8
RACCORDO
100
AcDbPolyline
 62
7
  6
CONTINUOUS
 90
19
 70
0
 10
0.1603775014
 20
24.6249912284
 10
0.1573614885
 20
24.6254748593
 10
0.1542750292
 20
24.6257261111
 10
0.1511214435
 20
24.625744906
 10
0.1479049515
 20
24.6255311195
 10
0.1446298007
 20
24.6250849287
 10
0.1412994767
 20
24.6244071285
 10
0.1379184333
 20
24.6234984337
 10
0.1344911365
 20
24.6223598574
 10
0.1310211904
 20
24.6209930581
 10
0.1275132337
 20
24.61939958
 10
0.123971901
 20
24.617581259
 10
0.1204008663
 20
24.615540598
 10
0.1168049014
 20
24.6132799516
 10
0.1131887596
 20
24.6108019565
 10
0.1095561364
 20
24.6081099316
 10
0.1059114896
 20
24.6052071646
 10
0.1022600343
 20
24.6020969112
 10
0.0986066251
 20
24.5987828201
  0
LWPOLYLINE
  5
4C8
100
AcDbEntity
  8
0
100
AcDbPolyline
 62
7
  6
CONTINUOUS
 90
19
 70
0
 10
0.1603775014
 20
24.6249912284
 10
0.1573614885
 20
24.6254748593
 10
0.1542750292
 20
24.6257261111
 10
0.1511214435
 20
24.625744906
 10
0.1479049515
 20
24.6255311195
 10
0.1446298007
 20
24.6250849287
 10
0.1412994767
 20
24.6244071285
 10
0.1379184333
 20
24.6234984337
 10
0.1344911365
 20
24.6223598574
 10
0.1310211904
 20
24.6209930581
 10
0.1275132337
 20
24.61939958
 10
0.123971901
 20
24.617581259
 10
0.1204008663
 20
24.615540598
 10
0.1168049014
 20
24.6132799516
 10
0.1131887596
 20
24.6108019565
 10
0.1095561364
 20
24.6081099316
 10
0.1059114896
 20
24.6052071646
 10
0.1022600343
 20
24.6020969112
 10
0.0986066251
 20
24.5987828201
  0
LINE
  5
4C9
100
AcDbEntity
  8
RACCORDO
100
AcDbLine
 62
7
  6
CONTINUOUS
 10
0.1633190861
 20
24.6242758814
 11
0.1603775014
 21
24.6249912284
  0
LINE
  5
4CA
100
AcDbEntity
  8
0
100
AcDbLine
 62
7
  6
CONTINUOUS
 10
0.1633190861
 20
24.6242758814
 11
0.1603775014
 21
24.6249912284
  0
LWPOLYLINE
  5
4CB
100
AcDbEntity
  8
ASSI
100
AcDbPolyline
 62
250
  6
CONTINUOUS
 90
3
 70
0
 10
-10.3265153538
 20
26.5233341714
 10
-10.3196877815
 20
26.5215638177
 10
-10.3162497316
 20
26.5203135077
  0
LINE
  5
4CC
100
AcDbEntity
  8
RACCORDO
100
AcDbLine
 62
7
  6
CONTINUOUS
 10
0.1641833905
 20
24.6240171907
 11
0.1633190861
 21
24.6242758814
  0
LINE
  5
4CD
100
AcDbEntity
  8
0
100
AcDbLine
 62
7
  6
CONTINUOUS
 10
0.1641833905
 20
24.6240171907
 11
0.1633190861
 21
24.6242758814
  0
LWPOLYLINE
  5
4CE
100
AcDbEntity
  8
RACCORDO
100
AcDbPolyline
 62
7
  6
CONTINUOUS
 90
51
 70
0
 10
0.1641833375
 20
24.6240172119
 10
0.1526119092
 20
24.6275721166
 10
0.1276210684
 20
24.6348475525
 10
0.1023777649
 20
24.6416569416
 10
0.0768973572
 20
24.6480015192
 10
0.0511904925
 20
24.653883138
 10
0.0252753587
 20
24.6593013949
 10
-0.000830157
 20
24.6642564743
 10
-0.0271154882
 20
24.6687495165
 10
-0.0535625495
 20
24.6727800688
 10
-0.0801535436
 20
24.6763481424
 10
-0.1068779559
 20
24.6794542559
 10
-0.1337178808
 20
24.6820979544
 10
-0.1606553055
 20
24.6842790849
 10
-0.187679207
 20
24.6859976338
 10
-0.2147716333
 20
24.6872532054
 10
-0.241914563
 20
24.6880455672
 10
-0.2690966189
 20
24.688374313
 10
-0.2962999172
 20
24.6882391246
 10
-0.3235062867
 20
24.6876397045
 10
-0.3507038706
 20
24.6865753471
 10
-0.3778746915
 20
24.6850457977
 10
-0.4050005584
 20
24.6830507035
 10
-0.432069526
 20
24.6805890923
 10
-0.4590638712
 20
24.6776606671
 10
-0.4859649755
 20
24.674265014
 10
-0.5127601025
 20
24.67040097
 10
-0.5394315699
 20
24.6660681387
 10
-0.565960484
 20
24.6612660412
 10
-0.5923331766
 20
24.655993386
 10
-0.6185318202
 20
24.6502496282
 10
-0.6445373771
 20
24.6440341826
 10
-0.6703355379
 20
24.6373455604
 10
-0.6959134646
 20
24.6301814527
 10
-0.7212466191
 20
24.6225424255
 10
-0.746305078
 20
24.6144316987
 10
-0.7710745978
 20
24.6058476633
 10
-0.7955329067
 20
24.5967911982
 10
-0.8196411934
 20
24.5872705886
 10
-0.8433828268
 20
24.5772862105
 10
-0.8667401962
 20
24.5668387446
 10
-0.8896768091
 20
24.5559382802
 10
-0.91217845
 20
24.5445850886
 10
-0.9342274915
 20
24.5327811717
 10
-0.9557863001
 20
24.5205403491
 10
-0.9768408173
 20
24.507864205
 10
-0.997376479
 20
24.4947546336
 10
-1.0173590187
 20
24.4812269507
 10
-1.0367692215
 20
24.4672881235
 10
-1.0555994688
 20
24.4529374466
 10
-1.068402263
 20
24.4426696477
  0
LWPOLYLINE
  5
4CF
100
AcDbEntity
  8
0
100
AcDbPolyline
 62
7
  6
CONTINUOUS
 90
51
 70
0
 10
0.1641833375
 20
24.6240172119
 10
0.1526119092
 20
24.6275721166
 10
0.1276210684
 20
24.6348475525
 10
0.1023777649
 20
24.6416569416
 10
0.0768973572
 20
24.6480015192
 10
0.0511904925
 20
24.653883138
 10
0.0252753587
 20
24.6593013949
 10
-0.000830157
 20
24.6642564743
 10
-0.0271154882
 20
24.6687495165
 10
-0.0535625495
 20
24.6727800688
 10
-0.0801535436
 20
24.6763481424
 10
-0.1068779559
 20
24.6794542559
 10
-0.1337178808
 20
24.6820979544
 10
-0.1606553055
 20
24.6842790849
 10
-0.187679207
 20
24.6859976338
 10
-0.2147716333
 20
24.6872532054
 10
-0.241914563
 20
24.6880455672
 10
-0.2690966189
 20
24.688374313
 10
-0.2962999172
 20
24.6882391246
 10
-0.3235062867
 20
24.6876397045
 10
-0.3507038706
 20
24.6865753471
 10
-0.3778746915
 20
24.6850457977
 10
-0.4050005584
 20
24.6830507035
 10
-0.432069526
 20
24.6805890923
 10
-0.4590638712
 20
24.6776606671
 10
-0.4859649755
 20
24.674265014
 10
-0.5127601025
 20
24.67040097
 10
-0.5394315699
 20
24.6660681387
 10
-0.565960484
 20
24.6612660412
 10
-0.5923331766
 20
24.655993386
 10
-0.6185318202
 20
24.6502496282
 10
-0.6445373771
 20
24.6440341826
 10
-0.6703355379
 20
24.6373455604
 10
-0.6959134646
 20
24.6301814527
 10
-0.7212466191
 20
24.6225424255
 10
-0.746305078
 20
24.6144316987
 10
-0.7710745978
 20
24.6058476633
 10
-0.7955329067
 20
24.5967911982
 10
-0.8196411934
 20
24.5872705886
 10
-0.8433828268
 20
24.5772862105
 10
-0.8667401962
 20
24.5668387446
 10
-0.8896768091
 20
24.5559382802
 10
-0.91217845
 20
24.5445850886
 10
-0.9342274915
 20
24.5327811717
 10
-0.9557863001
 20
24.5205403491
 10
-0.9768408173
 20
24.507864205
 10
-0.997376479
 20
24.4947546336
 10
-1.0173590187
 20
24.4812269507
 10
-1.0367692215
 20
24.4672881235
 10
-1.0555994688
 20
24.4529374466
 10
-1.068402263
 20
24.4426696477
  0
LWPOLYLINE
  5
4D0
100
AcDbEntity
  8
ASSI
100
AcDbPolyline
 62
250
  6
CONTINUOUS
 90
8
 70
0
 10
-2.463195321
 20
26.2384396745
 10
-2.4896112104
 20
26.2476621505
 10
-2.5156180946
 20
26.2531897368
 10
-2.5407711611
 20
26.2549278917
 10
-2.5646402003
 20
26.2528468863
 10
-2.5868169647
 20
26.2469823135
 10
-2.6069221507
 20
26.2374344787
 10
-2.6174636796
 20
26.2302961556
  0
LINE
  5
4D1
100
AcDbEntity
  8
RACCORDO
100
AcDbLine
 62
7
  6
CONTINUOUS
 10
0.1669595335
 20
24.6230276647
 11
0.1641833905
 21
24.6240171907
  0
LINE
  5
4D2
100
AcDbEntity
  8
0
100
AcDbLine
 62
7
  6
CONTINUOUS
 10
0.1669595335
 20
24.6230276647
 11
0.1641833905
 21
24.6240171907
  0
LINE
  5
4D3
100
AcDbEntity
  8
RACCORDO
100
AcDbLine
 62
7
  6
CONTINUOUS
 10
2.914228129
 20
22.8377789631
 11
-0.9952289446
 21
24.4079050605
  0
LINE
  5
4D4
100
AcDbEntity
  8
0
100
AcDbLine
 62
7
  6
CONTINUOUS
 10
2.914228129
 20
22.8377789631
 11
-0.9952289446
 21
24.4079050605
  0
LINE
  5
4D5
100
AcDbEntity
  8
RACCORDO
100
AcDbLine
 62
250
  6
CONTINUOUS
 10
3.4408639368
 20
23.2564569343
 11
0.0986064559
 21
24.5987828881
  0
LINE
  5
4D6
100
AcDbEntity
  8
0
100
AcDbLine
 62
250
  6
CONTINUOUS
 10
3.4408639368
 20
23.2564569343
 11
0.0986064559
 21
24.5987828881
  0
LINE
  5
4D7
100
AcDbEntity
  8
RACCORDO
100
AcDbLine
 62
7
  6
CONTINUOUS
 10
3.4840661215
 20
23.2908028766
 11
0.166966222
 21
24.6230249785
  0
LINE
  5
4D8
100
AcDbEntity
  8
0
100
AcDbLine
 62
7
  6
CONTINUOUS
 10
3.4840661215
 20
23.2908028766
 11
0.166966222
 21
24.6230249785
  0
LINE
  5
4D9
100
AcDbEntity
  8
ASSI
100
AcDbLine
 62
7
  6
CONTINUOUS
 10
3.9188745617
 20
23.6333706555
 11
0.2552564469
 21
25.1047622847
  0
LINE
  5
4DA
100
AcDbEntity
  8
ASSI
100
AcDbLine
 62
7
  6
CONTINUOUS
 10
5.3709045497
 20
24.0184176305
 11
0.621715694
 21
25.9257989429
  0
LWPOLYLINE
  5
4DB
100
AcDbEntity
  8
ASSI
100
AcDbPolyline
 62
250
  6
CONTINUOUS
 90
13
 70
0
 10
-2.2547345564
 20
26.1531545371
 10
-2.2284783807
 20
26.1408804654
 10
-2.2026976322
 20
26.1253880015
 10
-2.1778188423
 20
26.1069333257
 10
-2.1542536702
 20
26.0858216645
 10
-2.1323920195
 20
26.0624021833
 10
-2.1125956035
 20
26.0370621915
 10
-2.0951920242
 20
26.0102207945
 10
-2.0804694152
 20
25.9823221098
 10
-2.0686715667
 20
25.9538278579
 10
-2.0599938081
 20
25.9252095607
 10
-2.0545798166
 20
25.8969407282
 10
-2.0525192906
 20
25.8694891585
  0
LINE
  5
4DC
100
AcDbEntity
  8
DRAFT
100
AcDbLine
 62
7
  6
CONTINUOUS
 10
12.5725726241
 20
21.1462636497
 11
11.7006096986
 21
22.3684265441
  0
LINE
  5
4DD
100
AcDbEntity
  8
0
100
AcDbLine
 62
7
  6
CONTINUOUS
 10
12.5725726241
 20
21.1462636497
 11
11.7006096986
 21
22.3684265441
  0
LWPOLYLINE
  5
4DE
100
AcDbEntity
  8
RACCORDO
100
AcDbPolyline
 62
250
  6
CONTINUOUS
 90
48
 70
0
 10
19.8746412976
 20
21.9730688572
 10
19.8815560877
 20
21.9424705968
 10
19.8917605182
 20
21.8926026779
 10
19.9009445568
 20
21.8424650907
 10
19.9091233169
 20
21.7921410867
 10
19.9162325151
 20
21.7424142017
 10
19.9222764643
 20
21.6932621957
 10
19.9273031651
 20
21.644737235
 10
19.9313518332
 20
21.5977472283
 10
19.9344359308
 20
21.5525794029
 10
19.9366330958
 20
21.5089823675
 10
19.9380956604
 20
21.4670607877
 10
19.9388692943
 20
21.4269673243
 10
19.938987445
 20
21.3885751768
 10
19.9385740918
 20
21.3515667039
 10
19.9376676288
 20
21.3159061061
 10
19.936284171
 20
21.2816446517
 10
19.9345014906
 20
21.2485919449
 10
19.9323443024
 20
21.2167201627
 10
19.9298292922
 20
21.1860672353
 10
19.927015147
 20
21.1565397274
 10
19.9239211469
 20
21.1281379732
 10
19.9205613062
 20
21.1008686553
 10
19.9169819686
 20
21.0746469393
 10
19.9132000029
 20
21.0494829001
 10
19.9092249563
 20
21.0253713612
 10
19.9050884122
 20
21.0022039339
 10
19.9008049985
 20
20.97998865
 10
19.8963802764
 20
20.9587208513
 10
19.8918288437
 20
20.9382725563
 10
19.8871599138
 20
20.9186368732
 10
19.8823791701
 20
20.899822984
 10
19.8774932659
 20
20.881726601
 10
19.8725029927
 20
20.8643263784
 10
19.8674186196
 20
20.8476452788
 10
19.8622593688
 20
20.8316452543
 10
19.8570239089
 20
20.8163164786
 10
19.8517221686
 20
20.8016700919
 10
19.8463892739
 20
20.7876994272
 10
19.8410300213
 20
20.7744166033
 10
19.8356461796
 20
20.7618106773
 10
19.8302674403
 20
20.7498403358
 10
19.8249035749
 20
20.7385222196
 10
19.8195493303
 20
20.7278406965
 10
19.8142109522
 20
20.717705928
 10
19.8088913224
 20
20.7080882034
 10
19.8035902849
 20
20.699018014
 10
19.7983089955
 20
20.6904957454
  0
LWPOLYLINE
  5
4DF
100
AcDbEntity
  8
0
100
AcDbPolyline
 62
250
  6
CONTINUOUS
 90
48
 70
0
 10
19.8746412976
 20
21.9730688572
 10
19.8815560877
 20
21.9424705968
 10
19.8917605182
 20
21.8926026779
 10
19.9009445568
 20
21.8424650907
 10
19.9091233169
 20
21.7921410867
 10
19.9162325151
 20
21.7424142017
 10
19.9222764643
 20
21.6932621957
 10
19.9273031651
 20
21.644737235
 10
19.9313518332
 20
21.5977472283
 10
19.9344359308
 20
21.5525794029
 10
19.9366330958
 20
21.5089823675
 10
19.9380956604
 20
21.4670607877
 10
19.9388692943
 20
21.4269673243
 10
19.938987445
 20
21.3885751768
 10
19.9385740918
 20
21.3515667039
 10
19.9376676288
 20
21.3159061061
 10
19.936284171
 20
21.2816446517
 10
19.9345014906
 20
21.2485919449
 10
19.9323443024
 20
21.2167201627
 10
19.9298292922
 20
21.1860672353
 10
19.927015147
 20
21.1565397274
 10
19.9239211469
 20
21.1281379732
 10
19.9205613062
 20
21.1008686553
 10
19.9169819686
 20
21.0746469393
 10
19.9132000029
 20
21.0494829001
 10
19.9092249563
 20
21.0253713612
 10
19.9050884122
 20
21.0022039339
 10
19.9008049985
 20
20.97998865
 10
19.8963802764
 20
20.9587208513
 10
19.8918288437
 20
20.9382725563
 10
19.8871599138
 20
20.9186368732
 10
19.8823791701
 20
20.899822984
 10
19.8774932659
 20
20.881726601
 10
19.8725029927
 20
20.8643263784
 10
19.8674186196
 20
20.8476452788
 10
19.8622593688
 20
20.8316452543
 10
19.8570239089
 20
20.8163164786
 10
19.8517221686
 20
20.8016700919
 10
19.8463892739
 20
20.7876994272
 10
19.8410300213
 20
20.7744166033
 10
19.8356461796
 20
20.7618106773
 10
19.8302674403
 20
20.7498403358
 10
19.8249035749
 20
20.7385222196
 10
19.8195493303
 20
20.7278406965
 10
19.8142109522
 20
20.717705928
 10
19.8088913224
 20
20.7080882034
 10
19.8035902849
 20
20.699018014
 10
19.7983089955
 20
20.6904957454
  0
LWPOLYLINE
  5
4E0
100
AcDbEntity
  8
ASSI
100
AcDbPolyline
 62
7
  6
CONTINUOUS
 90
5
 70
0
 10
-2.3736751956
 20
26.3103371112
 10
-2.4152591901
 20
26.3076687298
 10
-2.4567216924
 20
26.3012369179
 10
-2.4964001245
 20
26.2912648267
 10
-2.534143068
 20
26.2778395129
  0
LINE
  5
4E1
100
AcDbEntity
  8
0
100
AcDbLine
 62
7
  6
CONTINUOUS
 10
12.2582881538
 20
24.2608153151
 11
11.7730935457
 21
24.3535620967
  0
LWPOLYLINE
  5
4E2
100
AcDbEntity
  8
ASSI
100
AcDbPolyline
 62
250
  6
CONTINUOUS
 90
3
 70
0
 10
6.983397202
 20
25.0713242685
 10
7.0167546186
 20
25.0627942542
 10
7.0272057051
 20
25.0589105139
  0
LWPOLYLINE
  5
4E3
100
AcDbEntity
  8
ASSI
100
AcDbPolyline
 62
7
  6
CONTINUOUS
 90
8
 70
0
 10
7.0282206763
 20
25.058495917
 10
6.9862178182
 20
25.0726487084
 10
6.9419555949
 20
25.0818400363
 10
6.8953841089
 20
25.0857908954
 10
6.8470433592
 20
25.0841425518
 10
6.7977223263
 20
25.0767205839
 10
6.7477680001
 20
25.0634656998
 10
6.6972378304
 20
25.0442921258
  0
LWPOLYLINE
  5
4E4
100
AcDbEntity
  8
ASSI
100
AcDbPolyline
 62
250
  6
CONTINUOUS
 90
11
 70
0
 10
1.6736126758
 20
27.2090341684
 10
1.662809952
 20
27.2130591342
 10
1.6284365342
 20
27.2219971975
 10
1.592316843
 20
27.2257716925
 10
1.5546535134
 20
27.224360096
 10
1.5156513583
 20
27.2177708265
 10
1.47552079
 20
27.2060411844
 10
1.4344842384
 20
27.1892340803
 10
1.392766366
 20
27.1674413092
 10
1.3505928665
 20
27.1407831321
 10
1.3081937679
 20
27.1094056176
  0
LINE
  5
4E5
100
AcDbEntity
  8
DRAFT
100
AcDbLine
 62
7
  6
CONTINUOUS
 10
-2.5980148536
 20
28.1110765192
 11
-2.5724133484
 21
28.1007943776
  0
LINE
  5
4E6
100
AcDbEntity
  8
0
100
AcDbLine
 62
7
  6
CONTINUOUS
 10
-2.5980148536
 20
28.1110765192
 11
-2.5724133484
 21
28.1007943776
  0
LINE
  5
4E7
100
AcDbEntity
  8
DRAFT
100
AcDbLine
 62
7
  6
CONTINUOUS
 10
10.9357653556
 20
22.6756052753
 11
11.7006096986
 21
22.3684265441
  0
LINE
  5
4E8
100
AcDbEntity
  8
0
100
AcDbLine
 62
7
  6
CONTINUOUS
 10
10.9357653556
 20
22.6756052753
 11
11.7006096986
 21
22.3684265441
  0
LINE
  5
4E9
100
AcDbEntity
  8
RACCORDO
100
AcDbLine
 62
250
  6
CONTINUOUS
 10
-2.5459656985
 20
28.1218621874
 11
-2.7065154169
 21
28.1863425738
  0
LINE
  5
4EA
100
AcDbEntity
  8
0
100
AcDbLine
 62
250
  6
CONTINUOUS
 10
-2.5459656985
 20
28.1218621874
 11
-2.7065154169
 21
28.1863425738
  0
LINE
  5
4EB
100
AcDbEntity
  8
ASSI
100
AcDbLine
 62
7
  6
CONTINUOUS
 10
1.9733009248
 20
26.3771589637
 11
6.2019098624
 21
24.6788542826
  0
LINE
  5
4EC
100
AcDbEntity
  8
RACCORDO
100
AcDbLine
 62
7
  6
CONTINUOUS
 10
4.7238620379
 20
25.4485428378
 11
1.9702279102
 21
26.5544460412
  0
LINE
  5
4ED
100
AcDbEntity
  8
0
100
AcDbLine
 62
7
  6
CONTINUOUS
 10
4.7238620379
 20
25.4485428378
 11
1.9702279102
 21
26.5544460412
  0
LINE
  5
4EE
100
AcDbEntity
  8
ASSI
100
AcDbLine
 62
250
  6
CONTINUOUS
 10
-1.9972694121
 20
28.4369541507
 11
1.3081937679
 21
27.1094056176
  0
LINE
  5
4EF
100
AcDbEntity
  8
ASSI
100
AcDbLine
 62
250
  6
CONTINUOUS
 10
6.6672687826
 20
24.9570802742
 11
9.9727319626
 21
23.6295317412
  0
LINE
  5
4F0
100
AcDbEntity
  8
ASSI
100
AcDbLine
 62
7
  6
CONTINUOUS
 10
7.0271851693
 20
25.0589187615
 11
10.5256423511
 21
23.6538594864
  0
LINE
  5
4F1
100
AcDbEntity
  8
0
100
AcDbLine
 62
7
  6
CONTINUOUS
 10
11.3715900402
 20
24.0246696795
 11
10.5525976787
 21
24.3535954756
  0
LINE
  5
4F2
100
AcDbEntity
  8
0
100
AcDbLine
 62
7
  6
CONTINUOUS
 10
13.0337533423
 20
23.5468723799
 11
13.0056816799
 21
23.5581465924
  0
LINE
  5
4F3
100
AcDbEntity
  8
ASSI
100
AcDbLine
 62
7
  6
CONTINUOUS
 10
1.6738632839
 20
27.2089333464
 11
-1.8248238022
 21
28.6140851283
  0
LWPOLYLINE
  5
4F4
100
AcDbEntity
  8
RACCORDO
100
AcDbPolyline
 62
250
  6
CONTINUOUS
 90
33
 70
0
 10
6.4300879512
 20
25.5277843116
 10
6.4077964526
 20
25.5367512656
 10
6.3855142767
 20
25.5450834715
 10
6.3632583377
 20
25.5527746042
 10
6.3410455299
 20
25.5598188256
 10
6.3188927149
 20
25.5662107885
 10
6.2968167087
 20
25.5719456407
 10
6.2748342689
 20
25.577019029
 10
6.2529620824
 20
25.5814271022
 10
6.2312167521
 20
25.5851665143
 10
6.2096147847
 20
25.5882344267
 10
6.1881725781
 20
25.5906285105
 10
6.1669064089
 20
25.5923469484
 10
6.14583242
 20
25.5933884361
 10
6.1249666086
 20
25.593752183
 10
6.1043248136
 20
25.5934379128
 10
6.0839227042
 20
25.5924458643
 10
6.0637757674
 20
25.5907767905
 10
6.0438992965
 20
25.5884319584
 10
6.0243083796
 20
25.5854131479
 10
6.0050178881
 20
25.5817226507
 10
5.986042465
 20
25.5773632681
 10
5.9673965146
 20
25.5723383093
 10
5.9490941908
 20
25.5666515889
 10
5.9311493867
 20
25.5603074234
 10
5.9135757241
 20
25.5533106288
 10
5.8963865429
 20
25.5456665163
 10
5.8795948914
 20
25.5373808884
 10
5.8632135158
 20
25.5284600348
 10
5.8472548513
 20
25.5189107272
 10
5.8317310118
 20
25.5087402143
 10
5.8166537813
 20
25.4979562167
 10
5.8124109598
 20
25.4947492342
  0
LWPOLYLINE
  5
4F5
100
AcDbEntity
  8
0
100
AcDbPolyline
 62
250
  6
CONTINUOUS
 90
33
 70
0
 10
6.4300879512
 20
25.5277843116
 10
6.4077964526
 20
25.5367512656
 10
6.3855142767
 20
25.5450834715
 10
6.3632583377
 20
25.5527746042
 10
6.3410455299
 20
25.5598188256
 10
6.3188927149
 20
25.5662107885
 10
6.2968167087
 20
25.5719456407
 10
6.2748342689
 20
25.577019029
 10
6.2529620824
 20
25.5814271022
 10
6.2312167521
 20
25.5851665143
 10
6.2096147847
 20
25.5882344267
 10
6.1881725781
 20
25.5906285105
 10
6.1669064089
 20
25.5923469484
 10
6.14583242
 20
25.5933884361
 10
6.1249666086
 20
25.593752183
 10
6.1043248136
 20
25.5934379128
 10
6.0839227042
 20
25.5924458643
 10
6.0637757674
 20
25.5907767905
 10
6.0438992965
 20
25.5884319584
 10
6.0243083796
 20
25.5854131479
 10
6.0050178881
 20
25.5817226507
 10
5.986042465
 20
25.5773632681
 10
5.9673965146
 20
25.5723383093
 10
5.9490941908
 20
25.5666515889
 10
5.9311493867
 20
25.5603074234
 10
5.9135757241
 20
25.5533106288
 10
5.8963865429
 20
25.5456665163
 10
5.8795948914
 20
25.5373808884
 10
5.8632135158
 20
25.5284600348
 10
5.8472548513
 20
25.5189107272
 10
5.8317310118
 20
25.5087402143
 10
5.8166537813
 20
25.4979562167
 10
5.8124109598
 20
25.4947492342
  0
LINE
  5
4F6
100
AcDbEntity
  8
0
100
AcDbLine
 62
7
  6
CONTINUOUS
 10
11.3715900402
 20
24.0246696795
 11
11.6894838011
 21
23.7948780668
  0
LWPOLYLINE
  5
4F7
100
AcDbEntity
  8
RACCORDO
100
AcDbPolyline
 62
7
  6
CONTINUOUS
 90
10
 70
0
 10
13.3931216655
 20
25.1575413797
 10
13.3908739858
 20
25.1579942785
 10
13.3833227294
 20
25.1587179269
 10
13.3753975269
 20
25.1582965339
 10
13.3670213346
 20
25.156711764
 10
13.3582711964
 20
25.1539819528
 10
13.3493782439
 20
25.1501621067
 10
13.3404195212
 20
25.1452705611
 10
13.3313179843
 20
25.1392889807
 10
13.3220736331
 20
25.1322173652
  0
LWPOLYLINE
  5
4F8
100
AcDbEntity
  8
RACCORDO
100
AcDbPolyline
 62
7
  6
CONTINUOUS
 90
18
 70
0
 10
13.3931161215
 20
25.1575260335
 10
13.2671096966
 20
25.1836430738
 10
13.137197932
 20
25.2061985973
 10
13.0056101931
 20
25.224726961
 10
12.8726969646
 20
25.2391946495
 10
12.7387906775
 20
25.2495787613
 10
12.6042071997
 20
25.2558638865
 10
12.4692973411
 20
25.2580394091
 10
12.3344025563
 20
25.2561034597
 10
12.199826544
 20
25.2500597651
 10
12.0659136184
 20
25.2399190347
 10
11.933009148
 20
25.2257004863
 10
11.8014146848
 20
25.2074252881
 10
11.6714660456
 20
25.1851243521
 10
11.5435048635
 20
25.1588379004
 10
11.4178317435
 20
25.1286048566
 10
11.2947630331
 20
25.0944726761
 10
11.1746357376
 20
25.0565022709
  0
LINE
  5
4F9
100
AcDbEntity
  8
RACCORDO
100
AcDbLine
 62
7
  6
CONTINUOUS
 10
13.3980512963
 20
25.1561255888
 11
13.3931216655
 21
25.1575413797
  0
LWPOLYLINE
  5
4FA
100
AcDbEntity
  8
0
100
AcDbPolyline
 62
7
  6
CONTINUOUS
 90
3
 70
0
 10
14.09708745
 20
24.7021738601
 10
14.2168299227
 20
24.6674433778
 10
14.2188422491
 20
24.6668072103
  0
LWPOLYLINE
  5
4FB
100
AcDbEntity
  8
DRAFT
100
AcDbPolyline
 62
7
  6
CONTINUOUS
 90
10
 70
0
 10
14.2393826356
 20
25.580592993
 10
14.2803949653
 20
25.5664437207
 10
14.3209494066
 20
25.5518977958
 10
14.3610459594
 20
25.5369552182
 10
14.4006964046
 20
25.5216112565
 10
14.4398889612
 20
25.5058706422
 10
14.4785882873
 20
25.4897475694
 10
14.516782602
 20
25.4732467696
 10
14.5544836861
 20
25.4563635113
 10
14.5916915396
 20
25.4390977945
  0
LWPOLYLINE
  5
4FC
100
AcDbEntity
  8
0
100
AcDbPolyline
 62
7
  6
CONTINUOUS
 90
10
 70
0
 10
14.2393826356
 20
25.580592993
 10
14.2803949653
 20
25.5664437207
 10
14.3209494066
 20
25.5518977958
 10
14.3610459594
 20
25.5369552182
 10
14.4006964046
 20
25.5216112565
 10
14.4398889612
 20
25.5058706422
 10
14.4785882873
 20
25.4897475694
 10
14.516782602
 20
25.4732467696
 10
14.5544836861
 20
25.4563635113
 10
14.5916915396
 20
25.4390977945
  0
LWPOLYLINE
  5
4FD
100
AcDbEntity
  8
RACCORDO
100
AcDbPolyline
 62
7
  6
CONTINUOUS
 90
10
 70
0
 10
14.3810337495
 20
24.7613376748
 10
14.4479995342
 20
24.7380757237
 10
14.5164786429
 20
24.7141246066
 10
14.5864710756
 20
24.6894843236
 10
14.6579641916
 20
24.6641513165
 10
14.7309706315
 20
24.6381291435
 10
14.8055283181
 20
24.6114284786
 10
14.881649892
 20
24.5840528796
 10
14.9593227125
 20
24.5559987886
 10
15.0385467796
 20
24.5272662057
  0
LWPOLYLINE
  5
4FE
100
AcDbEntity
  8
RACCORDO
100
AcDbPolyline
 62
7
  6
CONTINUOUS
 90
10
 70
0
 10
14.0555643265
 20
24.9220541197
 10
13.976494881
 20
24.9507309876
 10
13.8989373168
 20
24.978743705
 10
13.8228916339
 20
25.0060922719
 10
13.7483695266
 20
25.0327807967
 10
13.6753593006
 20
25.058805171
 10
13.6038258729
 20
25.0841530698
 10
13.5337575491
 20
25.1088203849
 10
13.4651660236
 20
25.1328112246
 10
13.3980512963
 20
25.1561255888
  0
LINE
  5
4FF
100
AcDbEntity
  8
0
100
AcDbLine
 62
7
  6
CONTINUOUS
 10
11.7730935457
 20
24.3535620967
 11
10.9541011842
 21
24.6824878929
  0
LINE
  5
500
100
AcDbEntity
  8
DRAFT
100
AcDbLine
 62
7
  6
CONTINUOUS
 10
10.2450627616
 20
25.2761493636
 11
10.5786567879
 21
25.142170482
  0
LINE
  5
501
100
AcDbEntity
  8
0
100
AcDbLine
 62
7
  6
CONTINUOUS
 10
10.2450627616
 20
25.2761493636
 11
10.5786567879
 21
25.142170482
  0
LINE
  5
502
100
AcDbEntity
  8
DRAFT
100
AcDbLine
 62
7
  6
CONTINUOUS
 10
14.2393826356
 20
25.580592993
 11
14.5916915396
 21
25.4390977945
  0
LINE
  5
503
100
AcDbEntity
  8
0
100
AcDbLine
 62
7
  6
CONTINUOUS
 10
14.2393826356
 20
25.580592993
 11
14.5916915396
 21
25.4390977945
  0
LINE
  5
504
100
AcDbEntity
  8
RACCORDO
100
AcDbLine
 62
7
  6
CONTINUOUS
 10
15.0385467796
 20
24.5272662057
 11
15.0451611327
 21
24.524236049
  0
LINE
  5
505
100
AcDbEntity
  8
RACCORDO
100
AcDbLine
 62
250
  6
CONTINUOUS
 10
15.165134835
 20
24.4525977559
 11
15.0385467796
 21
24.5272662057
  0
LWPOLYLINE
  5
506
100
AcDbEntity
  8
RACCORDO
100
AcDbPolyline
 62
7
  6
CONTINUOUS
 90
3
 70
0
 10
15.1883027182
 20
24.4388102228
 10
15.1602592803
 20
24.45679275
 10
15.0451601352
 20
24.5242337561
  0
LINE
  5
507
100
AcDbEntity
  8
RACCORDO
100
AcDbLine
 62
250
  6
CONTINUOUS
 10
15.1874038961
 20
24.4380942789
 11
15.165134835
 21
24.4525977559
  0
LWPOLYLINE
  5
508
100
AcDbEntity
  8
RACCORDO
100
AcDbPolyline
 62
250
  6
CONTINUOUS
 90
19
 70
0
 10
14.3810337495
 20
24.7613376748
 10
14.4123052764
 20
24.7406158672
 10
14.4436907311
 20
24.7190041212
 10
14.4751229382
 20
24.6964838465
 10
14.5064410818
 20
24.6731063048
 10
14.5376677411
 20
24.6487874645
 10
14.5689837935
 20
24.6232975282
 10
14.6002858621
 20
24.5966120007
 10
14.6314654612
 20
24.5687077401
 10
14.6626397409
 20
24.539339961
 10
14.6936619888
 20
24.5084790401
 10
14.7243768071
 20
24.4760985288
 10
14.75482094
 20
24.4419430658
 10
14.784790723
 20
24.4059828017
 10
14.8140719152
 20
24.3681914874
 10
14.8426042281
 20
24.3283070713
 10
14.8701122733
 20
24.2863063314
 10
14.8963076641
 20
24.2421710444
 10
14.9088302499
 20
24.2185855834
  0
LWPOLYLINE
  5
509
100
AcDbEntity
  8
RACCORDO
100
AcDbPolyline
 62
250
  6
CONTINUOUS
 90
20
 70
0
 10
14.3050795255
 20
24.7374486515
 10
14.3343922764
 20
24.7176069763
 10
14.36369535
 20
24.6968623641
 10
14.3929887464
 20
24.6752148149
 10
14.4222807643
 20
24.6527487877
 10
14.4515631049
 20
24.6293798234
 10
14.4808108721
 20
24.6048545455
 10
14.5100680867
 20
24.5791794928
 10
14.5392907279
 20
24.5523481264
 10
14.5683218377
 20
24.5240874523
 10
14.5972186802
 20
24.494401014
 10
14.6259239914
 20
24.4632852681
 10
14.6541090207
 20
24.4304565893
 10
14.6818441481
 20
24.3959139083
 10
14.7090589936
 20
24.3596582945
 10
14.7352136666
 20
24.3214093313
 10
14.7603941368
 20
24.2811571138
 10
14.7845144344
 20
24.2389115469
 10
14.8067767602
 20
24.1944219284
 10
14.8227456778
 20
24.1579830552
  0
LINE
  5
50A
100
AcDbEntity
  8
0
100
AcDbLine
 62
7
  6
CONTINUOUS
 10
13.5562011182
 20
23.6383777931
 11
13.2412706069
 21
23.8660274011
  0
LWPOLYLINE
  5
50B
100
AcDbEntity
  8
RACCORDO
100
AcDbPolyline
 62
250
  6
CONTINUOUS
 90
26
 70
0
 10
11.6247019144
 20
29.3302556628
 10
11.6128941895
 20
29.3343632885
 10
11.6005258704
 20
29.3378804277
 10
11.5879017346
 20
29.3407016389
 10
11.575031157
 20
29.342824827
 10
11.5619236953
 20
29.3442484154
 10
11.5485890832
 20
29.3449713469
 10
11.5350372231
 20
29.3449930845
 10
11.5212781785
 20
29.3443136123
 10
11.5073221672
 20
29.3429334347
 10
11.4931795528
 20
29.3408535767
 10
11.4788608378
 20
29.3380755828
 10
11.4643766553
 20
29.334601516
 10
11.4497377613
 20
29.3304339561
 10
11.4349550269
 20
29.3255759979
 10
11.4200394296
 20
29.3200312491
 10
11.405002046
 20
29.3138038271
 10
11.3898540428
 20
29.3068983566
 10
11.3746066691
 20
29.2993199655
 10
11.3592712476
 20
29.2910742815
 10
11.3438591666
 20
29.2821674281
 10
11.328381871
 20
29.2726060194
 10
11.3128508545
 20
29.2623971558
 10
11.2972776504
 20
29.2515484185
 10
11.2816738235
 20
29.2400678638
 10
11.2660509613
 20
29.2279640173
  0
LWPOLYLINE
  5
50C
100
AcDbEntity
  8
0
100
AcDbPolyline
 62
250
  6
CONTINUOUS
 90
26
 70
0
 10
11.6247019144
 20
29.3302556628
 10
11.6128941895
 20
29.3343632885
 10
11.6005258704
 20
29.3378804277
 10
11.5879017346
 20
29.3407016389
 10
11.575031157
 20
29.342824827
 10
11.5619236953
 20
29.3442484154
 10
11.5485890832
 20
29.3449713469
 10
11.5350372231
 20
29.3449930845
 10
11.5212781785
 20
29.3443136123
 10
11.5073221672
 20
29.3429334347
 10
11.4931795528
 20
29.3408535767
 10
11.4788608378
 20
29.3380755828
 10
11.4643766553
 20
29.334601516
 10
11.4497377613
 20
29.3304339561
 10
11.4349550269
 20
29.3255759979
 10
11.4200394296
 20
29.3200312491
 10
11.405002046
 20
29.3138038271
 10
11.3898540428
 20
29.3068983566
 10
11.3746066691
 20
29.2993199655
 10
11.3592712476
 20
29.2910742815
 10
11.3438591666
 20
29.2821674281
 10
11.328381871
 20
29.2726060194
 10
11.3128508545
 20
29.2623971558
 10
11.2972776504
 20
29.2515484185
 10
11.2816738235
 20
29.2400678638
 10
11.2660509613
 20
29.2279640173
  0
LINE
  5
50D
100
AcDbEntity
  8
0
100
AcDbLine
 62
250
  6
CONTINUOUS
 10
11.6287289605
 20
29.3286933787
 11
11.6247019144
 21
29.3302556628
  0
LINE
  5
50E
100
AcDbEntity
  8
DRAFT
100
AcDbLine
 62
7
  6
CONTINUOUS
 10
13.4391172019
 20
27.914902462
 11
17.503172089
 21
26.2826863974
  0
LINE
  5
50F
100
AcDbEntity
  8
0
100
AcDbLine
 62
7
  6
CONTINUOUS
 10
13.4391172019
 20
27.914902462
 11
17.503172089
 21
26.2826863974
  0
LINE
  5
510
100
AcDbEntity
  8
0
100
AcDbLine
 62
250
  6
CONTINUOUS
 10
18.8266720649
 20
26.1914481318
 11
17.8706604001
 21
26.5754039692
  0
LINE
  5
511
100
AcDbEntity
  8
RACCORDO
100
AcDbLine
 62
7
  6
CONTINUOUS
 10
19.107923054
 20
26.3248804163
 11
18.1242833984
 21
26.7199322776
  0
LINE
  5
512
100
AcDbEntity
  8
0
100
AcDbLine
 62
7
  6
CONTINUOUS
 10
19.107923054
 20
26.3248804163
 11
18.1242833984
 21
26.7199322776
  0
LINE
  5
513
100
AcDbEntity
  8
RACCORDO
100
AcDbLine
 62
7
  6
CONTINUOUS
 10
12.9434660879
 20
28.8006653083
 11
11.6287289605
 21
29.3286933787
  0
LINE
  5
514
100
AcDbEntity
  8
0
100
AcDbLine
 62
7
  6
CONTINUOUS
 10
12.9434660879
 20
28.8006653083
 11
11.6287289605
 21
29.3286933787
  0
LWPOLYLINE
  5
515
100
AcDbEntity
  8
RACCORDO
100
AcDbPolyline
 62
250
  6
CONTINUOUS
 90
31
 70
0
 10
12.4717330878
 20
28.7437348938
 10
11.2437594671
 20
29.2369309696
 10
11.2214772955
 20
29.245263174
 10
11.1992213606
 20
29.2529543057
 10
11.1770085568
 20
29.2599985262
 10
11.1548557456
 20
29.2663904885
 10
11.132779743
 20
29.2721253404
 10
11.1107973067
 20
29.2771987287
 10
11.0889251234
 20
29.2816068022
 10
11.0671797962
 20
29.2853462147
 10
11.0455778316
 20
29.2884141277
 10
11.0241356275
 20
29.2908082124
 10
11.0028694607
 20
29.2925266514
 10
10.9817954739
 20
29.2935681404
 10
10.9609296643
 20
29.2939318886
 10
10.940287871
 20
29.2936176201
 10
10.9198857629
 20
29.2926255732
 10
10.8997388272
 20
29.2909565012
 10
10.8798623572
 20
29.288611671
 10
10.860271441
 20
29.2855928625
 10
10.8409809498
 20
29.2819023672
 10
10.8220055269
 20
29.2775429867
 10
10.8033595764
 20
29.27251803
 10
10.7850572523
 20
29.2668313116
 10
10.7671124476
 20
29.2604871482
 10
10.7495387843
 20
29.2534903556
 10
10.7323496022
 20
29.2458462451
 10
10.7155579496
 20
29.2375606191
 10
10.6991765728
 20
29.2286397673
 10
10.6832179068
 20
29.2190904613
 10
10.6676940656
 20
29.20891995
  0
LWPOLYLINE
  5
516
100
AcDbEntity
  8
0
100
AcDbPolyline
 62
250
  6
CONTINUOUS
 90
31
 70
0
 10
12.4717330878
 20
28.7437348938
 10
11.2437594671
 20
29.2369309696
 10
11.2214772955
 20
29.245263174
 10
11.1992213606
 20
29.2529543057
 10
11.1770085568
 20
29.2599985262
 10
11.1548557456
 20
29.2663904885
 10
11.132779743
 20
29.2721253404
 10
11.1107973067
 20
29.2771987287
 10
11.0889251234
 20
29.2816068022
 10
11.0671797962
 20
29.2853462147
 10
11.0455778316
 20
29.2884141277
 10
11.0241356275
 20
29.2908082124
 10
11.0028694607
 20
29.2925266514
 10
10.9817954739
 20
29.2935681404
 10
10.9609296643
 20
29.2939318886
 10
10.940287871
 20
29.2936176201
 10
10.9198857629
 20
29.2926255732
 10
10.8997388272
 20
29.2909565012
 10
10.8798623572
 20
29.288611671
 10
10.860271441
 20
29.2855928625
 10
10.8409809498
 20
29.2819023672
 10
10.8220055269
 20
29.2775429867
 10
10.8033595764
 20
29.27251803
 10
10.7850572523
 20
29.2668313116
 10
10.7671124476
 20
29.2604871482
 10
10.7495387843
 20
29.2534903556
 10
10.7323496022
 20
29.2458462451
 10
10.7155579496
 20
29.2375606191
 10
10.6991765728
 20
29.2286397673
 10
10.6832179068
 20
29.2190904613
 10
10.6676940656
 20
29.20891995
  0
LWPOLYLINE
  5
517
100
AcDbEntity
  8
RACCORDO
100
AcDbPolyline
 62
7
  6
CONTINUOUS
 90
84
 70
0
 10
19.8746412976
 20
23.9254385737
 10
19.8777537127
 20
23.9227678244
 10
19.9237804845
 20
23.882046836
 10
19.9692802865
 20
23.8405547976
 10
20.0142334442
 20
23.7983114603
 10
20.0586287644
 20
23.7553287928
 10
20.1024534716
 20
23.7116199524
 10
20.1456841132
 20
23.6672089821
 10
20.1882937786
 20
23.6221247066
 10
20.230261236
 20
23.576391261
 10
20.2715736763
 20
23.5300241478
 10
20.3122173316
 20
23.4830398833
 10
20.3521755314
 20
23.4354585105
 10
20.3914318021
 20
23.387300274
 10
20.4299726865
 20
23.3385820072
 10
20.4677820289
 20
23.2893241404
 10
20.5048438909
 20
23.2395472817
 10
20.5411451839
 20
23.1892685165
 10
20.5766743074
 20
23.1385027974
 10
20.61141166
 20
23.0872768157
 10
20.6453330375
 20
23.0356256744
 10
20.678418515
 20
22.9835800328
 10
20.7106601243
 20
22.9311525606
 10
20.7420520786
 20
22.8783514786
 10
20.772580926
 20
22.8251972399
 10
20.8022322119
 20
22.7717125611
 10
20.8309979532
 20
22.7179085876
 10
20.8588734379
 20
22.6637889718
 10
20.8858353756
 20
22.6093933503
 10
20.9118501043
 20
22.5547871923
 10
20.9368946575
 20
22.5000201682
 10
20.9609717166
 20
22.4450876585
 10
20.984086889
 20
22.3899736294
 10
21.0062323153
 20
22.3346898514
 10
21.0273919616
 20
22.2792687346
 10
21.0475572493
 20
22.2237245904
 10
21.0667271753
 20
22.1680481854
 10
21.084878754
 20
22.1122932177
 10
21.1019753184
 20
22.0565682226
 10
21.1179959348
 20
22.0009494935
 10
21.1329521233
 20
21.945405156
 10
21.1468569717
 20
21.8898811712
 10
21.1597084259
 20
21.8343670128
 10
21.1714889014
 20
21.778917674
 10
21.1821856046
 20
21.7235770724
 10
21.191795446
 20
21.6683418503
 10
21.2003062276
 20
21.6132596647
 10
21.2076991059
 20
21.5584493857
 10
21.2139673243
 20
21.5039907009
 10
21.2191192183
 20
21.4498447876
 10
21.2231600079
 20
21.3959521454
 10
21.2260869626
 20
21.34229122
 10
21.2278920131
 20
21.2889268799
 10
21.2285709486
 20
21.2359291562
 10
21.2281227483
 20
21.1833027427
 10
21.2265466099
 20
21.1310839755
 10
21.2238483401
 20
21.0793869486
 10
21.2200390888
 20
21.0282858233
 10
21.2151231146
 20
20.9777409426
 10
21.2090974827
 20
20.9276950572
 10
21.2019575632
 20
20.8781234353
 10
21.1937108201
 20
20.8290903024
 10
21.1843719129
 20
20.7806720416
 10
21.1739462925
 20
20.7328782904
 10
21.1624429852
 20
20.6857341634
 10
21.1498920623
 20
20.6393345178
 10
21.1363247376
 20
20.5937489971
 10
21.1217404971
 20
20.5489339714
 10
21.1061216237
 20
20.5048151236
 10
21.0894632067
 20
20.4613752752
 10
21.0717864204
 20
20.4186665955
 10
21.0531084299
 20
20.3767220635
 10
21.0334337446
 20
20.3355435707
 10
21.0127806535
 20
20.2951615366
 10
20.9911935486
 20
20.2556479861
 10
20.9687132842
 20
20.2170540619
 10
20.945336307
 20
20.1793509693
 10
20.9210410837
 20
20.1424913046
 10
20.8958266003
 20
20.1064686035
 10
20.8697220693
 20
20.0713196939
 10
20.8427483659
 20
20.0370653196
 10
20.8149240725
 20
20.0037210037
 10
20.7862646946
 20
19.9712973224
 10
20.7567880074
 20
19.9398066203
  0
LWPOLYLINE
  5
518
100
AcDbEntity
  8
0
100
AcDbPolyline
 62
7
  6
CONTINUOUS
 90
84
 70
0
 10
19.8746412976
 20
23.9254385737
 10
19.8777537127
 20
23.9227678244
 10
19.9237804845
 20
23.882046836
 10
19.9692802865
 20
23.8405547976
 10
20.0142334442
 20
23.7983114603
 10
20.0586287644
 20
23.7553287928
 10
20.1024534716
 20
23.7116199524
 10
20.1456841132
 20
23.6672089821
 10
20.1882937786
 20
23.6221247066
 10
20.230261236
 20
23.576391261
 10
20.2715736763
 20
23.5300241478
 10
20.3122173316
 20
23.4830398833
 10
20.3521755314
 20
23.4354585105
 10
20.3914318021
 20
23.387300274
 10
20.4299726865
 20
23.3385820072
 10
20.4677820289
 20
23.2893241404
 10
20.5048438909
 20
23.2395472817
 10
20.5411451839
 20
23.1892685165
 10
20.5766743074
 20
23.1385027974
 10
20.61141166
 20
23.0872768157
 10
20.6453330375
 20
23.0356256744
 10
20.678418515
 20
22.9835800328
 10
20.7106601243
 20
22.9311525606
 10
20.7420520786
 20
22.8783514786
 10
20.772580926
 20
22.8251972399
 10
20.8022322119
 20
22.7717125611
 10
20.8309979532
 20
22.7179085876
 10
20.8588734379
 20
22.6637889718
 10
20.8858353756
 20
22.6093933503
 10
20.9118501043
 20
22.5547871923
 10
20.9368946575
 20
22.5000201682
 10
20.9609717166
 20
22.4450876585
 10
20.984086889
 20
22.3899736294
 10
21.0062323153
 20
22.3346898514
 10
21.0273919616
 20
22.2792687346
 10
21.0475572493
 20
22.2237245904
 10
21.0667271753
 20
22.1680481854
 10
21.084878754
 20
22.1122932177
 10
21.1019753184
 20
22.0565682226
 10
21.1179959348
 20
22.0009494935
 10
21.1329521233
 20
21.945405156
 10
21.1468569717
 20
21.8898811712
 10
21.1597084259
 20
21.8343670128
 10
21.1714889014
 20
21.778917674
 10
21.1821856046
 20
21.7235770724
 10
21.191795446
 20
21.6683418503
 10
21.2003062276
 20
21.6132596647
 10
21.2076991059
 20
21.5584493857
 10
21.2139673243
 20
21.5039907009
 10
21.2191192183
 20
21.4498447876
 10
21.2231600079
 20
21.3959521454
 10
21.2260869626
 20
21.34229122
 10
21.2278920131
 20
21.2889268799
 10
21.2285709486
 20
21.2359291562
 10
21.2281227483
 20
21.1833027427
 10
21.2265466099
 20
21.1310839755
 10
21.2238483401
 20
21.0793869486
 10
21.2200390888
 20
21.0282858233
 10
21.2151231146
 20
20.9777409426
 10
21.2090974827
 20
20.9276950572
 10
21.2019575632
 20
20.8781234353
 10
21.1937108201
 20
20.8290903024
 10
21.1843719129
 20
20.7806720416
 10
21.1739462925
 20
20.7328782904
 10
21.1624429852
 20
20.6857341634
 10
21.1498920623
 20
20.6393345178
 10
21.1363247376
 20
20.5937489971
 10
21.1217404971
 20
20.5489339714
 10
21.1061216237
 20
20.5048151236
 10
21.0894632067
 20
20.4613752752
 10
21.0717864204
 20
20.4186665955
 10
21.0531084299
 20
20.3767220635
 10
21.0334337446
 20
20.3355435707
 10
21.0127806535
 20
20.2951615366
 10
20.9911935486
 20
20.2556479861
 10
20.9687132842
 20
20.2170540619
 10
20.945336307
 20
20.1793509693
 10
20.9210410837
 20
20.1424913046
 10
20.8958266003
 20
20.1064686035
 10
20.8697220693
 20
20.0713196939
 10
20.8427483659
 20
20.0370653196
 10
20.8149240725
 20
20.0037210037
 10
20.7862646946
 20
19.9712973224
 10
20.7851648004
 20
19.9701926073
  0
LWPOLYLINE
  5
519
100
AcDbEntity
  8
RACCORDO
100
AcDbPolyline
 62
250
  6
CONTINUOUS
 90
82
 70
0
 10
19.8746412976
 20
23.8216606418
 10
19.8930374873
 20
23.8048864213
 10
19.9375902379
 20
23.7630735353
 10
19.9816325587
 20
23.7205382982
 10
20.0251451402
 20
23.6772993578
 10
20.0681088982
 20
23.6333756784
 10
20.1105049936
 20
23.5887865215
 10
20.1523148618
 20
23.5435514133
 10
20.1935202032
 20
23.4976901526
 10
20.2341029762
 20
23.4512228176
 10
20.2740453813
 20
23.4041697871
 10
20.3133298908
 20
23.3565517089
 10
20.3519392741
 20
23.3083894714
 10
20.3898566306
 20
23.2597041588
 10
20.4270653721
 20
23.2105170704
 10
20.4635492107
 20
23.1608497345
 10
20.4992921396
 20
23.1107239393
 10
20.5342784684
 20
23.0601616892
 10
20.5684928486
 20
23.0091851688
 10
20.6019203076
 20
22.9578166894
 10
20.6345462253
 20
22.9060787176
 10
20.6663563219
 20
22.853993895
 10
20.6973366383
 20
22.8015850739
 10
20.7274735721
 20
22.7488752654
 10
20.7567539017
 20
22.6958875983
 10
20.7851648152
 20
22.6426452614
 10
20.8126938879
 20
22.5891715391
 10
20.8393290704
 20
22.5354898321
 10
20.865058674
 20
22.4816236945
 10
20.8898714017
 20
22.4275967766
 10
20.9137563685
 20
22.373432784
 10
20.9367031234
 20
22.3191554211
 10
20.9587016301
 20
22.2647884275
 10
20.9797422587
 20
22.2103555978
 10
20.9998157759
 20
22.1558808133
 10
21.0189133703
 20
22.1013879866
 10
21.0370266656
 20
22.0469010231
 10
21.0541477352
 20
21.9924437724
 10
21.0702690886
 20
21.9380400602
 10
21.0853836666
 20
21.8837137031
 10
21.0994848379
 20
21.8294885304
 10
21.112566415
 20
21.7753883356
 10
21.1246226621
 20
21.7214368445
 10
21.1356483021
 20
21.6676576793
 10
21.1456385086
 20
21.6140743803
 10
21.1545889058
 20
21.5607104131
 10
21.162495568
 20
21.5075891769
 10
21.1693550275
 20
21.454733968
 10
21.1751642782
 20
21.4021679575
 10
21.179920776
 20
21.3499141697
 10
21.183622438
 20
21.2979954909
 10
21.186267642
 20
21.2464346671
 10
21.1878552282
 20
21.1952542974
 10
21.1883845007
 20
21.1444768128
 10
21.1878552276
 20
21.0941244638
 10
21.1862676408
 20
21.0442193151
 10
21.1836224363
 20
20.9947832386
 10
21.1799207738
 20
20.945837902
 10
21.1751642753
 20
20.8974047481
 10
21.1693550242
 20
20.8495049899
 10
21.162495564
 20
20.8021596086
 10
21.1545889013
 20
20.7553893601
 10
21.1456385036
 20
20.7092147558
 10
21.1356482964
 20
20.6636560415
 10
21.124622656
 20
20.6187331678
 10
21.1125664083
 20
20.5744657985
 10
21.0994848307
 20
20.5308733166
 10
21.0853836588
 20
20.4879748409
 10
21.0702690803
 20
20.4457891948
 10
21.0541477264
 20
20.4043348809
 10
21.0370266562
 20
20.3636300456
 10
21.0189133603
 20
20.323692498
 10
20.9998157655
 20
20.2845397207
 10
20.9797422478
 20
20.246188891
 10
20.9587016188
 20
20.2086568434
 10
20.9367031114
 20
20.1719600426
 10
20.9137563559
 20
20.1361145482
 10
20.8898713886
 20
20.1011360382
 10
20.8650586605
 20
20.0670398227
 10
20.8393290566
 20
20.0338408635
 10
20.8126938737
 20
20.0015537368
 10
20.7851648004
 20
19.9701926073
  0
LWPOLYLINE
  5
51A
100
AcDbEntity
  8
0
100
AcDbPolyline
 62
250
  6
CONTINUOUS
 90
83
 70
0
 10
19.8746412976
 20
23.8216606418
 10
19.8930374873
 20
23.8048864213
 10
19.9375902379
 20
23.7630735353
 10
19.9816325587
 20
23.7205382982
 10
20.0251451402
 20
23.6772993578
 10
20.0681088982
 20
23.6333756784
 10
20.1105049936
 20
23.5887865215
 10
20.1523148618
 20
23.5435514133
 10
20.1935202032
 20
23.4976901526
 10
20.2341029762
 20
23.4512228176
 10
20.2740453813
 20
23.4041697871
 10
20.3133298908
 20
23.3565517089
 10
20.3519392741
 20
23.3083894714
 10
20.3898566306
 20
23.2597041588
 10
20.4270653721
 20
23.2105170704
 10
20.4635492107
 20
23.1608497345
 10
20.4992921396
 20
23.1107239393
 10
20.5342784684
 20
23.0601616892
 10
20.5684928486
 20
23.0091851688
 10
20.6019203076
 20
22.9578166894
 10
20.6345462253
 20
22.9060787176
 10
20.6663563219
 20
22.853993895
 10
20.6973366383
 20
22.8015850739
 10
20.7274735721
 20
22.7488752654
 10
20.7567539017
 20
22.6958875983
 10
20.7851648152
 20
22.6426452614
 10
20.8126938879
 20
22.5891715391
 10
20.8393290704
 20
22.5354898321
 10
20.865058674
 20
22.4816236945
 10
20.8898714017
 20
22.4275967766
 10
20.9137563685
 20
22.373432784
 10
20.9367031234
 20
22.3191554211
 10
20.9587016301
 20
22.2647884275
 10
20.9797422587
 20
22.2103555978
 10
20.9998157759
 20
22.1558808133
 10
21.0189133703
 20
22.1013879866
 10
21.0370266656
 20
22.0469010231
 10
21.0541477352
 20
21.9924437724
 10
21.0702690886
 20
21.9380400602
 10
21.0853836666
 20
21.8837137031
 10
21.0994848379
 20
21.8294885304
 10
21.112566415
 20
21.7753883356
 10
21.1246226621
 20
21.7214368445
 10
21.1356483021
 20
21.6676576793
 10
21.1456385086
 20
21.6140743803
 10
21.1545889058
 20
21.5607104131
 10
21.162495568
 20
21.5075891769
 10
21.1693550275
 20
21.454733968
 10
21.1751642782
 20
21.4021679575
 10
21.179920776
 20
21.3499141697
 10
21.183622438
 20
21.2979954909
 10
21.186267642
 20
21.2464346671
 10
21.1878552282
 20
21.1952542974
 10
21.1883845007
 20
21.1444768128
 10
21.1878552276
 20
21.0941244638
 10
21.1862676408
 20
21.0442193151
 10
21.1836224363
 20
20.9947832386
 10
21.1799207738
 20
20.945837902
 10
21.1751642753
 20
20.8974047481
 10
21.1693550242
 20
20.8495049899
 10
21.162495564
 20
20.8021596086
 10
21.1545889013
 20
20.7553893601
 10
21.1456385036
 20
20.7092147558
 10
21.1356482964
 20
20.6636560415
 10
21.124622656
 20
20.6187331678
 10
21.1125664083
 20
20.5744657985
 10
21.0994848307
 20
20.5308733166
 10
21.0853836588
 20
20.4879748409
 10
21.0702690803
 20
20.4457891948
 10
21.0541477264
 20
20.4043348809
 10
21.0370266562
 20
20.3636300456
 10
21.0189133603
 20
20.323692498
 10
20.9998157655
 20
20.2845397207
 10
20.9797422478
 20
20.246188891
 10
20.9587016188
 20
20.2086568434
 10
20.9367031114
 20
20.1719600426
 10
20.9137563559
 20
20.1361145482
 10
20.8898713886
 20
20.1011360382
 10
20.8650586605
 20
20.0670398227
 10
20.8393290566
 20
20.0338408635
 10
20.8126938737
 20
20.0015537368
 10
20.7851648004
 20
19.9701926073
 10
20.7567880077
 20
19.9398066206
  0
LINE
  5
51B
100
AcDbEntity
  8
RACCORDO
100
AcDbLine
 62
250
  6
CONTINUOUS
 10
19.2239037954
 20
25.634679183
 11
18.8266720649
 21
26.1914481318
  0
LINE
  5
51C
100
AcDbEntity
  8
0
100
AcDbLine
 62
250
  6
CONTINUOUS
 10
19.2239037954
 20
25.634679183
 11
18.8266720649
 21
26.1914481318
  0
LINE
  5
51D
100
AcDbEntity
  8
RACCORDO
100
AcDbLine
 62
7
  6
CONTINUOUS
 10
19.4488054747
 20
25.8607274615
 11
19.1300889636
 21
26.3074477089
  0
LINE
  5
51E
100
AcDbEntity
  8
0
100
AcDbLine
 62
7
  6
CONTINUOUS
 10
19.4488054747
 20
25.8607274615
 11
19.1300889636
 21
26.3074477089
  0
LWPOLYLINE
  5
51F
100
AcDbEntity
  8
RACCORDO
100
AcDbPolyline
 62
7
  6
CONTINUOUS
 90
8
 70
0
 10
19.1080199758
 20
26.3248414899
 10
19.1111567669
 20
26.3234620628
 10
19.1153054347
 20
26.3212292072
 10
19.1191701746
 20
26.3186468255
 10
19.122755784
 20
26.3157155181
 10
19.126059323
 20
26.3124391941
 10
19.1290780888
 20
26.3088218521
 10
19.1300370392
 20
26.3075193284
  0
LWPOLYLINE
  5
520
100
AcDbEntity
  8
0
100
AcDbPolyline
 62
7
  6
CONTINUOUS
 90
8
 70
0
 10
19.1080199758
 20
26.3248414899
 10
19.1111567669
 20
26.3234620628
 10
19.1153054347
 20
26.3212292072
 10
19.1191701746
 20
26.3186468255
 10
19.122755784
 20
26.3157155181
 10
19.126059323
 20
26.3124391941
 10
19.1290780888
 20
26.3088218521
 10
19.1300370392
 20
26.3075193284
  0
ELLIPSE
  5
521
100
AcDbEntity
  8
RACCORDO
100
AcDbEllipse
 62
7
  6
CONTINUOUS
 10
3.5579014047
 20
-20.789060372
 30
0.0
 11
-0.2986895364
 21
0.4014048671
 31
0.0
 40
0.6996338907
 41
-3.1775348962
 42
-2.423621663
  0
ELLIPSE
  5
522
100
AcDbEntity
  8
RACCORDO
100
AcDbEllipse
 62
7
  6
CONTINUOUS
 10
4.8546977136
 20
15.611803716
 30
0.0
 11
-0.2985879503
 21
0.4010570841
 31
0.0
 40
0.7005847088
 41
-2.4232048661
 42
-0.853093772
  0
ELLIPSE
  5
523
100
AcDbEntity
  8
RACCORDO
100
AcDbEllipse
 62
7
  6
CONTINUOUS
 10
-12.3472144173
 20
22.5204794358
 30
0.0
 11
-0.2986895364
 21
0.4014048671
 31
0.0
 40
0.6996338907
 41
-0.8521401035
 42
0.0366699141
  0
ELLIPSE
  5
524
100
AcDbEntity
  8
DRAFT
100
AcDbEllipse
 62
7
  6
CONTINUOUS
 10
12.8382018877
 20
26.1079810303
 30
0.0
 11
2.7583774253
 21
-1.0875888242
 31
0.0
 40
0.0091152074
 41
1.0415643967
 42
1.0642495048
  0
ELLIPSE
  5
525
100
AcDbEntity
  8
0
100
AcDbEllipse
 62
7
  6
CONTINUOUS
 10
12.8726893972
 20
27.7514542106
 30
0.0
 11
0.3667674849
 21
0.9303298023
 31
0.0
 40
0.4639756799
 41
-0.8664843406
 42
-0.734926305
  0
ELLIPSE
  5
526
100
AcDbEntity
  8
DRAFT
100
AcDbEllipse
 62
7
  6
CONTINUOUS
 10
12.8382018877
 20
26.1079810303
 30
0.0
 11
2.7583774253
 21
-1.0875888242
 31
0.0
 40
0.0091152074
 41
0.8628006337
 42
0.8854857418
  0
ELLIPSE
  5
527
100
AcDbEntity
  8
DRAFT
100
AcDbEllipse
 62
7
  6
CONTINUOUS
 10
12.8382018877
 20
24.2346862297
 30
0.0
 11
2.7583879104
 21
-0.0111625084
 31
0.0
 40
0.5696663125
 41
1.0629608177
 42
2.5330327089
  0
ELLIPSE
  5
528
100
AcDbEntity
  8
DRAFT
100
AcDbEllipse
 62
7
  6
CONTINUOUS
 10
12.8382018877
 20
24.2346862297
 30
0.0
 11
2.7583879104
 21
-0.0111625084
 31
0.0
 40
0.5696663125
 41
0.2901636124
 42
0.8615119465
  0
ELLIPSE
  5
529
100
AcDbEntity
  8
0
100
AcDbEllipse
 62
7
  6
CONTINUOUS
 10
17.3876417217
 20
25.9381475698
 30
0.0
 11
0.7426163521
 21
0.7780442769
 31
0.0
 40
0.1249403664
 41
0.0499834504
 42
0.7397086271
  0
ELLIPSE
  5
52A
100
AcDbEntity
  8
DRAFT
100
AcDbEllipse
 62
7
  6
CONTINUOUS
 10
12.2933042731
 20
24.2024356598
 30
0.0
 11
2.7499926927
 21
-0.0111285351
 31
0.0
 40
0.5696663125
 41
2.5417593552
 42
3.0226891475
  0
ELLIPSE
  5
52B
100
AcDbEntity
  8
0
100
AcDbEllipse
 62
7
  6
CONTINUOUS
 10
12.9347311881
 20
27.7265368287
 30
0.0
 11
-0.3047210096
 21
1.0986358117
 31
0.0
 40
0.6117276799
 41
5.1139705116
 42
6.5357555103
  0
ELLIPSE
  5
52C
100
AcDbEntity
  8
RACCORDO
100
AcDbEllipse
 62
7
  6
CONTINUOUS
 10
6.3105247046
 20
-13.8808074656
 30
0.0
 11
-1.2677684437
 21
1.5472787173
 31
0.0
 40
0.6709103902
 41
-2.642391107
 42
-2.6219244942
  0
ELLIPSE
  5
52D
100
AcDbEntity
  8
0
100
AcDbEllipse
 62
7
  6
CONTINUOUS
 10
12.2742151833
 20
25.3587182258
 30
0.0
 11
3.3022389943
 21
-0.03944562
 31
0.0
 40
0.561818812
 41
2.5360631738
 42
5.6803583678
  0
ELLIPSE
  5
52E
100
AcDbEntity
  8
RACCORDO
100
AcDbEllipse
 62
7
  6
CONTINUOUS
 10
6.3105247046
 20
15.0703958856
 30
0.0
 11
1.2677055941
 21
-1.5470103314
 31
0.0
 40
0.6710763966
 41
7.0562762252
 42
7.1562782268
  0
ELLIPSE
  5
52F
100
AcDbEntity
  8
RACCORDO
100
AcDbEllipse
 62
7
  6
CONTINUOUS
 10
6.3105247046
 20
15.0703958856
 30
0.0
 11
1.2677055941
 21
-1.5470103314
 31
0.0
 40
0.6710763966
 41
1.3397846773
 42
1.4714494955
  0
ELLIPSE
  5
530
100
AcDbEntity
  8
DRAFT
100
AcDbEllipse
 62
7
  6
CONTINUOUS
 10
12.8382018877
 20
24.6442622518
 30
0.0
 11
2.7583879104
 21
-0.0111625084
 31
0.0
 40
0.5696663125
 41
0.0792068312
 42
2.5330327089
  0
ELLIPSE
  5
531
100
AcDbEntity
  8
ASSI
100
AcDbEllipse
 62
7
  6
CONTINUOUS
 10
6.9515651523
 20
-18.2879386518
 30
0.0
 11
-0.3169109156
 21
0.3869345179
 31
0.0
 40
0.670809718
 41
-3.1189696451
 42
-2.4553554967
  0
ELLIPSE
  5
532
100
AcDbEntity
  8
ASSI
100
AcDbEllipse
 62
7
  6
CONTINUOUS
 10
6.9515651523
 20
17.562199404
 30
0.0
 11
-0.3168729153
 21
0.3867726039
 31
0.0
 40
0.6712104788
 41
-2.4552091068
 42
-0.8847173665
  0
ELLIPSE
  5
533
100
AcDbEntity
  8
ASSI
100
AcDbEllipse
 62
7
  6
CONTINUOUS
 10
3.7804042463
 20
17.3387746209
 30
0.0
 11
0.2497065505
 21
-0.0699912687
 31
0.0
 40
0.1730136333
 41
-2.1332048293
 42
-0.579861795
  0
ELLIPSE
  5
534
100
AcDbEntity
  8
ASSI
100
AcDbEllipse
 62
7
  6
CONTINUOUS
 10
3.5561685511
 20
17.4288327314
 30
0.0
 11
0.2497065505
 21
-0.0699912687
 31
0.0
 40
0.1730136333
 41
-3.0915361384
 42
-2.1332048293
  0
ELLIPSE
  5
535
100
AcDbEntity
  8
ASSI
100
AcDbEllipse
 62
7
  6
CONTINUOUS
 10
-10.8005021421
 20
23.1947953453
 30
0.0
 11
0.2497065505
 21
-0.0699912687
 31
0.0
 40
0.1730136333
 41
-2.1332048293
 42
-0.579861795
  0
ELLIPSE
  5
536
100
AcDbEntity
  8
ASSI
100
AcDbEllipse
 62
7
  6
CONTINUOUS
 10
-11.0247378373
 20
23.2848534558
 30
0.0
 11
0.2497065505
 21
-0.0699912687
 31
0.0
 40
0.1730136333
 41
-3.0915361384
 42
-2.1332048293
  0
ELLIPSE
  5
537
100
AcDbEntity
  8
ASSI
100
AcDbEllipse
 62
7
  6
CONTINUOUS
 10
10.5784434782
 20
22.5550167511
 30
0.0
 11
0.3609241303
 21
0.9326631928
 31
0.0
 40
0.458075675
 41
-0.8693289497
 42
-0.6131850692
  0
ELLIPSE
  5
538
100
AcDbEntity
  8
ASSI
100
AcDbEllipse
 62
7
  6
CONTINUOUS
 10
-2.6622626766
 20
22.9022689926
 30
0.0
 11
-0.1625146743
 21
0.1900010152
 31
0.0
 40
0.6563705712
 41
-2.4691737663
 42
-0.898682026
  0
ELLIPSE
  5
539
100
AcDbEntity
  8
ASSI
100
AcDbEllipse
 62
7
  6
CONTINUOUS
 10
6.0286965766
 20
72.1127563639
 30
0.0
 11
3.361656165
 21
94.6073573123
 31
0.0
 40
0.0058809093
 41
-2.1140604322
 42
-2.1103452444
  0
ELLIPSE
  5
53A
100
AcDbEntity
  8
ASSI
100
AcDbEllipse
 62
7
  6
CONTINUOUS
 10
-0.9149069897
 20
22.2004915556
 30
0.0
 11
-0.1625608641
 21
0.1902058938
 31
0.0
 40
0.6553964474
 41
-0.8974928192
 42
-0.0349831269
  0
ELLIPSE
  5
53B
100
AcDbEntity
  8
0
100
AcDbEllipse
 62
7
  6
CONTINUOUS
 10
2.7877692952
 20
16.8730770617
 30
0.0
 11
-0.1262532163
 21
0.1552737229
 31
0.0
 40
0.6729644614
 41
-2.450216817
 42
-0.8817019636
  0
ELLIPSE
  5
53C
100
AcDbEntity
  8
ASSI
100
AcDbEllipse
 62
7
  6
CONTINUOUS
 10
-2.8264834231
 20
27.9387376017
 30
0.0
 11
1.0048735789
 21
0.6729900454
 31
0.0
 40
0.0652557815
 41
-0.6453210963
 42
0.6518780575
  0
ELLIPSE
  5
53D
100
AcDbEntity
  8
ASSI
100
AcDbEllipse
 62
7
  6
CONTINUOUS
 10
-0.7020873477
 20
74.8159909299
 30
0.0
 11
0.085060811
 21
95.923252966
 31
0.0
 40
0.0059773055
 41
-2.1143322489
 42
-2.1106170612
  0
ELLIPSE
  5
53E
100
AcDbEntity
  8
ASSI
100
AcDbEllipse
 62
7
  6
CONTINUOUS
 10
-0.317955105
 20
24.6345294026
 30
0.0
 11
1.0000206696
 21
-0.0002005927
 31
0.0
 40
0.5739458546
 41
0.9605060513
 42
1.5082618869
  0
ELLIPSE
  5
53F
100
AcDbEntity
  8
ASSI
100
AcDbEllipse
 62
7
  6
CONTINUOUS
 10
-0.3216529397
 20
25.1175993632
 30
0.0
 11
1.0000607388
 21
-0.0124020305
 31
0.0
 40
0.5618375086
 41
1.7602321161
 42
2.5373774498
  0
ELLIPSE
  5
540
100
AcDbEntity
  8
ASSI
100
AcDbEllipse
 62
7
  6
CONTINUOUS
 10
3.8711458346
 20
23.433676851
 30
0.0
 11
1.000275873
 21
-0.0122714276
 31
0.0
 40
0.561597706
 41
5.6799562128
 42
6.4571015466
  0
ELLIPSE
  5
541
100
AcDbEntity
  8
ASSI
100
AcDbEllipse
 62
7
  6
CONTINUOUS
 10
3.8501743721
 20
22.9605146363
 30
0.0
 11
1.0006647985
 21
0.0002002106
 31
0.0
 40
0.5732071936
 41
0.4116008068
 42
0.8294147643
  0
ELLIPSE
  5
542
100
AcDbEntity
  8
ASSI
100
AcDbEllipse
 62
7
  6
CONTINUOUS
 10
3.0719965059
 20
17.915129014
 30
0.0
 11
0.2499293568
 21
0.009771784
 31
0.0
 40
0.6081570881
 41
3.1179734409
 42
4.077750384
  0
ELLIPSE
  5
543
100
AcDbEntity
  8
ASSI
100
AcDbEllipse
 62
7
  6
CONTINUOUS
 10
5.4117291641
 20
16.9754396304
 30
0.0
 11
0.2499293568
 21
0.009771784
 31
0.0
 40
0.6081570881
 41
-2.2054349231
 42
-0.6520918889
  0
ELLIPSE
  5
544
100
AcDbEntity
  8
ASSI
100
AcDbEllipse
 62
7
  6
CONTINUOUS
 10
-9.1691772242
 20
22.8314603548
 30
0.0
 11
0.2499293568
 21
0.009771784
 31
0.0
 40
0.6081570881
 41
-2.2054349231
 42
-0.6520918889
  0
ELLIPSE
  5
545
100
AcDbEntity
  8
ASSI
100
AcDbEllipse
 62
7
  6
CONTINUOUS
 10
-11.5089098824
 20
23.7711497384
 30
0.0
 11
0.2499293568
 21
0.009771784
 31
0.0
 40
0.6081570881
 41
3.1179733728
 42
4.077750384
  0
ELLIPSE
  5
546
100
AcDbEntity
  8
ASSI
100
AcDbEllipse
 62
7
  6
CONTINUOUS
 10
5.4117291641
 20
-20.1426351203
 30
0.0
 11
0.1997382246
 21
0.198664618
 31
0.0
 40
0.7567950566
 41
-2.8269058184
 42
-2.6358710258
  0
ELLIPSE
  5
547
100
AcDbEntity
  8
ASSI
100
AcDbEllipse
 62
7
  6
CONTINUOUS
 10
3.7804042463
 20
-20.6606034474
 30
0.0
 11
0.1997382246
 21
0.198664618
 31
0.0
 40
0.7567950566
 41
-1.3266310272
 42
-1.2735627841
  0
ELLIPSE
  5
548
100
AcDbEntity
  8
ASSI
100
AcDbEllipse
 62
7
  6
CONTINUOUS
 10
-1.6802262387
 20
20.5297094084
 30
0.0
 11
0.1999434854
 21
0.0078174272
 31
0.0
 40
0.6081570881
 41
3.1179734409
 42
4.077750384
  0
ELLIPSE
  5
549
100
AcDbEntity
  8
ASSI
100
AcDbEllipse
 62
7
  6
CONTINUOUS
 10
0.973388982
 20
19.4639577114
 30
0.0
 11
0.1999434854
 21
0.0078174272
 31
0.0
 40
0.6081570881
 41
-2.2054349231
 42
-0.6520918889
  0
ELLIPSE
  5
54A
100
AcDbEntity
  8
ASSI
100
AcDbEllipse
 62
7
  6
CONTINUOUS
 10
-3.3271592505
 20
21.1911548352
 30
0.0
 11
0.1999434854
 21
0.0078174272
 31
0.0
 40
0.6081570881
 41
-2.2054349231
 42
-0.6520918889
  0
ELLIPSE
  5
54B
100
AcDbEntity
  8
ASSI
100
AcDbEllipse
 62
7
  6
CONTINUOUS
 10
-5.9807744713
 20
22.2569065322
 30
0.0
 11
0.1999434854
 21
0.0078174272
 31
0.0
 40
0.6081570881
 41
3.1179733728
 42
4.077750384
  0
ELLIPSE
  5
54C
100
AcDbEntity
  8
ASSI
100
AcDbEllipse
 62
7
  6
CONTINUOUS
 10
-11.8836379636
 20
23.3257265122
 30
0.0
 11
-0.3166934957
 21
0.3878404978
 31
0.0
 40
0.6702436759
 41
-0.8821199121
 42
0.6873064187
  0
ELLIPSE
  5
54D
100
AcDbEntity
  8
ASSI
100
AcDbEllipse
 62
7
  6
CONTINUOUS
 10
5.4996690271
 20
16.3441985273
 30
0.0
 11
-0.3165198962
 21
0.3871139532
 31
0.0
 40
0.6720475734
 41
-2.4536186814
 42
-0.8841923507
  0
ELLIPSE
  5
54E
100
AcDbEntity
  8
ASSI
100
AcDbEllipse
 62
7
  6
CONTINUOUS
 10
14.2596098292
 20
31.2143709721
 30
0.0
 11
14.7248791155
 21
12.5261813432
 31
0.0
 40
0.014760238
 41
-2.6573712457
 42
-2.4030044782
  0
ELLIPSE
  5
54F
100
AcDbEntity
  8
ASSI
100
AcDbEllipse
 62
7
  6
CONTINUOUS
 10
5.4996690271
 20
-19.4047470339
 30
0.0
 11
-0.3166934957
 21
0.3878404978
 31
0.0
 40
0.6702436759
 41
2.2594727415
 42
3.8288990723
  0
ELLIPSE
  5
550
100
AcDbEntity
  8
0
100
AcDbEllipse
 62
7
  6
CONTINUOUS
 10
-9.1717382317
 20
21.6762849053
 30
0.0
 11
-0.1263730777
 21
0.1557547309
 31
0.0
 40
0.6699552963
 41
5.404898426
 42
6.9734132794
  0
ELLIPSE
  5
551
100
AcDbEntity
  8
ASSI
100
AcDbEllipse
 62
7
  6
CONTINUOUS
 10
14.2596098292
 20
31.2143709721
 30
0.0
 11
14.7248791155
 21
12.5261813432
 31
0.0
 40
0.014760238
 41
2.2927721807
 42
2.6322600442
  0
ELLIPSE
  5
552
100
AcDbEntity
  8
ASSI
100
AcDbEllipse
 62
7
  6
CONTINUOUS
 10
1.7732722004
 20
26.3770828936
 30
0.0
 11
0.2002557398
 21
-0.0380654797
 31
0.0
 40
0.3171006239
 41
-0.5548407301
 42
0.0670296361
  0
ELLIPSE
  5
553
100
AcDbEntity
  8
ASSI
100
AcDbEllipse
 62
7
  6
CONTINUOUS
 10
10.7819253954
 20
22.4732938257
 30
0.0
 11
-0.7858461616
 21
1.1731918886
 31
0.0
 40
0.5191454105
 41
5.0253281695
 42
6.3225273233
  0
ELLIPSE
  5
554
100
AcDbEntity
  8
0
100
AcDbEllipse
 62
7
  6
CONTINUOUS
 10
12.2933042731
 20
24.2024356598
 30
0.0
 11
2.7499926927
 21
-0.0111285351
 31
0.0
 40
0.5696663125
 41
2.5417593552
 42
3.0226891475
  0
ELLIPSE
  5
555
100
AcDbEntity
  8
0
100
AcDbEllipse
 62
7
  6
CONTINUOUS
 10
12.8382018877
 20
26.1079810303
 30
0.0
 11
2.7583774253
 21
-1.0875888242
 31
0.0
 40
0.0091152074
 41
1.0415643967
 42
1.0642495048
  0
ELLIPSE
  5
556
100
AcDbEntity
  8
0
100
AcDbEllipse
 62
7
  6
CONTINUOUS
 10
12.8382018877
 20
26.1079810303
 30
0.0
 11
2.7583774253
 21
-1.0875888242
 31
0.0
 40
0.0091152074
 41
0.8628006337
 42
0.8854857418
  0
ELLIPSE
  5
557
100
AcDbEntity
  8
0
100
AcDbEllipse
 62
7
  6
CONTINUOUS
 10
12.8382018877
 20
24.2346862297
 30
0.0
 11
2.7583879104
 21
-0.0111625084
 31
0.0
 40
0.5696663125
 41
1.0629608177
 42
2.5330327089
  0
ELLIPSE
  5
558
100
AcDbEntity
  8
0
100
AcDbEllipse
 62
7
  6
CONTINUOUS
 10
12.8382018877
 20
24.2346862297
 30
0.0
 11
2.7583879104
 21
-0.0111625084
 31
0.0
 40
0.5696663125
 41
0.2901636124
 42
0.8615119465
  0
ELLIPSE
  5
559
100
AcDbEntity
  8
0
100
AcDbEllipse
 62
7
  6
CONTINUOUS
 10
12.8382018877
 20
24.6442622518
 30
0.0
 11
2.7583879104
 21
-0.0111625084
 31
0.0
 40
0.5696663125
 41
0.0792068312
 42
2.5330327089
  0
ELLIPSE
  5
55A
100
AcDbEntity
  8
0
100
AcDbEllipse
 62
7
  6
CONTINUOUS
 10
6.3105247046
 20
-13.8808074656
 30
0.0
 11
-1.2677684437
 21
1.5472787173
 31
0.0
 40
0.6709103902
 41
-2.642391107
 42
-2.6219244942
  0
ELLIPSE
  5
55B
100
AcDbEntity
  8
0
100
AcDbEllipse
 62
7
  6
CONTINUOUS
 10
6.3105247046
 20
15.0703958856
 30
0.0
 11
1.2677055941
 21
-1.5470103314
 31
0.0
 40
0.6710763966
 41
7.0562762252
 42
7.1562782268
  0
ELLIPSE
  5
55C
100
AcDbEntity
  8
0
100
AcDbEllipse
 62
7
  6
CONTINUOUS
 10
6.3105247046
 20
15.0703958856
 30
0.0
 11
1.2677055941
 21
-1.5470103314
 31
0.0
 40
0.6710763966
 41
1.3397846773
 42
1.4714494955
  0
ENDSEC
  0
SECTION
  2
OBJECTS
  0
DICTIONARY
  5
C
100
AcDbDictionary
280
0
281
1
  3
ACAD_GROUP
350
D
  3
ACAD_MLINESTYLE
350
17
  3
ACAD_LAYOUT
350
1A
  3
ACAD_PLOTSETTINGS
350
19
  3
ACAD_PLOTSTYLENAME
350
E
  0
DICTIONARY
  5
D
102
{ACAD_REACTORS
330
C
102
}
100
AcDbDictionary
280
0
281
1
  0
ACDBDICTIONARYWDFLT
  5
E
102
{ACAD_REACTORS
330
C
102
}
100
AcDbDictionary
281
1
  3
Normal
350
F
100
AcDbDictionaryWithDefault
340
F
  0
DICTIONARY
  5
17
102
{ACAD_REACTORS
330
C
102
}
100
AcDbDictionary
280
0
281
1
  3
Standard
350
18
  0
DICTIONARY
  5
19
102
{ACAD_REACTORS
330
C
102
}
100
AcDbDictionary
281
1
  0
DICTIONARY
  5
1A
102
{ACAD_REACTORS
330
C
102
}
100
AcDbDictionary
281
1
  3
Model
350
55D
  3
Layout1
350
55E
  0
ACDBPLACEHOLDER
  5
F
102
{ACAD_REACTORS
330
E
102
}
  0
MLINESTYLE
  5
18
102
{ACAD_REACTORS
330
17
102
}
100
AcDbMlineStyle
  2
STANDARD
 70
0
  3

 62
256
 51
90.0
 52
90.0
 71
2
 49
0.5
 62
256
  6
BYLAYER
 49
-0.5
 62
256
  6
BYLAYER
  0
LAYOUT
  5
55D
102
{ACAD_REACTORS
330
1A
102
}
100
AcDbPlotSettings
  1

  2
none_device
  4
ISO_A4_(297.00_x_210.00_MM)
  6

 40
0.0
 41
0.0
 42
0.0
 43
0.0
 44
297.0
 45
210.0
 46
0.0
 47
0.0
 48
0.0
 49
0.0
140
0.0
141
0.0
142
1.0
143
1.0
 70
1024
 72
1
 73
0
 74
0
  7

 75
0
147
1.0
148
0.0
149
0.0
100
AcDbLayout
  1
Model
 70
0
 71
0
 10
0.0
 20
0.0
 11
297.0
 21
210.0
 12
0.0
 22
0.0
 32
0.0
 14
0.0
 24
0.0
 34
0.0
 15
0.0
 25
0.0
 35
0.0
146
0.0
 13
0.0
 23
0.0
 33
0.0
 16
1.0
 26
0.0
 36
0.0
 17
0.0
 27
1.0
 37
0.0
 76
0
330
21D
345
0
346
0
  0
LAYOUT
  5
55E
102
{ACAD_REACTORS
330
1A
102
}
100
AcDbPlotSettings
  1

  2
none_device
  4
ISO_A4_(297.00_x_210.00_MM)
  6

 40
0.0
 41
0.0
 42
0.0
 43
0.0
 44
297.0
 45
210.0
 46
0.0
 47
0.0
 48
0.0
 49
0.0
140
0.0
141
0.0
142
1.0
143
1.0
 70
0
 72
1
 73
0
 74
0
  7

 75
0
147
1.0
148
0.0
149
0.0
100
AcDbLayout
  1
Layout1
 70
0
 71
1
 10
0.0
 20
0.0
 11
297.0
 21
210.0
 12
0.0
 22
0.0
 32
0.0
 14
0.0
 24
0.0
 34
0.0
 15
0.0
 25
0.0
 35
0.0
146
0.0
 13
0.0
 23
0.0
 33
0.0
 16
1.0
 26
0.0
 36
0.0
 17
0.0
 27
1.0
 37
0.0
 76
0
330
21E
345
0
346
0
  0
ENDSEC
  0
EOF
