  0
SECTION
  2
HEADER
  9
$ACADVER
  1
AC1024
  9
$DWGCODEPAGE
  3
ANSI_1252
  9
$EXTMAX
 10
297.0
 20
210.0
 30
0.0
  9
$EXTMIN
 10
0.0
 20
0.0
 30
0.0
  9
$LIMMIN
 10
0.0
 20
0.0
  9
$LIMMAX
 10
297.0
 20
210.0
  9
$VIEWCTR
 10
148.5
 20
105.0
  9
$VIEWSIZE
 40
210.0
  9
$CLAYER
  8
0
  9
$LTSCALE
 40
16.335
  9
$CELTYPE
  6
BYLAYER
  9
$DIMSCALE
 40
1.0
  9
$DIMASZ
 40
3.0
  9
$DIMEXO
 40
0.5
  9
$DIMDLI
 40
11.286
  9
$DIMEXE
 40
1.5
  9
$DIMCEN
 40
2.673
  9
$DIMLFAC
 40
1.0
  9
$DIMBLK
  1
_FILLED
  9
$DIMALT
 70
0
  9
$DIMALTF
 40
0.0393700787
  9
$DIMTXT
 40
3.0
  9
$DIMTOL
 70
1
  9
$DIMLIM
 70
0
  9
$DIMTFAC
 40
1.0
  9
$DIMTP
 40
0.01
  9
$DIMTM
 40
0.01
  9
$DIMGAP
 40
0.625
  9
$DIMDSEP
 70
44
  9
$AUNITS
 70
0
  9
$PDMODE
 70
3
  9
$PDSIZE
 40
3.0
  9
$HANDSEED
  5
54A
  9
$TILEMODE
 70
1
  9
$MEASUREMENT
 70
1
  9
$INSUNITS
 70
4
  0
ENDSEC
  0
SECTION
  2
CLASSES
  0
CLASS
  1
ACDBDICTIONARYWDFLT
  2
AcDbDictionaryWithDefault
  3
AutoCAD 2000
 90
0
 91
1
280
0
281
0
  0
CLASS
  1
ACDBPLACEHOLDER
  2
AcDbPlaceHolder
  3
AutoCAD 2000
 90
0
 91
1
280
0
281
0
  0
CLASS
  1
LAYOUT
  2
AcDbLayout
  3
AutoCAD 2000
 90
0
 91
0
280
0
281
0
  0
ENDSEC
  0
SECTION
  2
TABLES
  0
TABLE
  2
VPORT
  5
8
100
AcDbSymbolTable
 70
2
  0
VPORT
  5
1F4
100
AcDbSymbolTableRecord
100
AcDbViewportTableRecord
  2
*ACTIVE
 70
0
 10
0.0
 20
0.0
 11
1.0
 21
1.0
 12
148.5
 22
105.0
 13
0.0
 23
0.0
 14
1.0
 24
1.0
 15
0.0
 25
0.0
 16
0.0
 26
0.0
 36
1.0
 17
0.0
 27
0.0
 37
0.0
 40
210.0
 41
1.4142857143
 42
50.0
 43
0.0
 44
0.0
 50
0.0
 51
0.0
 71
0
 72
100
 73
1
 74
1
 75
0
 76
0
 77
0
 78
0
  0
ENDTAB
  0
TABLE
  2
LTYPE
  5
5
100
AcDbSymbolTable
 70
6
  0
LTYPE
  5
14
100
AcDbSymbolTableRecord
100
AcDbLinetypeTableRecord
  2
BYBLOCK
 70
0
  3

 72
65
 73
0
 40
0.0
  0
LTYPE
  5
15
100
AcDbSymbolTableRecord
100
AcDbLinetypeTableRecord
  2
BYLAYER
 70
0
  3

 72
65
 73
0
 40
0.0
  0
LTYPE
  5
16
100
AcDbSymbolTableRecord
100
AcDbLinetypeTableRecord
  2
CONTINUOUS
 70
64
  3
Solid line
 72
65
 73
0
 40
0.0
  0
LTYPE
  5
1F5
100
AcDbSymbolTableRecord
100
AcDbLinetypeTableRecord
  2
CENTER
 70
64
  3
____ _ ____ _ ____ _ ____ _ ____ _ ____ _ ____
 72
65
 73
4
 40
0.6
 49
0.375
 74
0
 49
-0.075
 74
0
 49
0.075
 74
0
 49
-0.075
 74
0
  0
LTYPE
  5
1F6
100
AcDbSymbolTableRecord
100
AcDbLinetypeTableRecord
  2
HIDDEN
 70
64
  3
- - - - - - - - - - - - - - - - - - - -
 72
65
 73
2
 40
0.2
 49
0.1
 74
0
 49
-0.1
 74
0
  0
LTYPE
  5
1F7
100
AcDbSymbolTableRecord
100
AcDbLinetypeTableRecord
  2
PHANTOM
 70
64
  3
_____ _ _ _____ _ _ _____ _ _ _____
 72
65
 73
6
 40
0.8
 49
0.45
 74
0
 49
-0.05
 74
0
 49
0.1
 74
0
 49
-0.05
 74
0
 49
0.1
 74
0
 49
-0.05
 74
0
  0
LTYPE
  5
1F8
100
AcDbSymbolTableRecord
100
AcDbLinetypeTableRecord
  2
DOT
 70
64
  3
. . . . . . . . . . . . . . . . . . . .
 72
65
 73
2
 40
0.2
 49
0.1
 74
0
 49
-0.1
 74
0
  0
LTYPE
  5
1F9
100
AcDbSymbolTableRecord
100
AcDbLinetypeTableRecord
  2
DASHED
 70
64
  3
- - - - - - - - - - - - - - - - - - - -
 72
65
 73
2
 40
0.2
 49
0.1
 74
0
 49
-0.1
 74
0
  0
ENDTAB
  0
TABLE
  2
LAYER
  5
2
100
AcDbSymbolTable
 70
36
  0
LAYER
  5
10
100
AcDbSymbolTableRecord
100
AcDbLayerTableRecord
  2
0
 70
0
 62
7
  6
CONTINUOUS
370
-3
390
F
  0
LAYER
  5
1FA
100
AcDbSymbolTableRecord
100
AcDbLayerTableRecord
  2
DEFAULT_1
 70
0
 62
7
  6
CENTER
370
-3
390
F
  0
LAYER
  5
1FB
100
AcDbSymbolTableRecord
100
AcDbLayerTableRecord
  2
DEFAULT_2
 70
0
 62
7
  6
HIDDEN
370
-3
390
F
  0
LAYER
  5
1FC
100
AcDbSymbolTableRecord
100
AcDbLayerTableRecord
  2
DEFAULT_3
 70
0
 62
7
  6
PHANTOM
370
-3
390
F
  0
LAYER
  5
1FD
100
AcDbSymbolTableRecord
100
AcDbLayerTableRecord
  2
ASSI
 70
0
 62
7
  6
CONTINUOUS
370
-3
390
F
  0
LAYER
  5
1FE
100
AcDbSymbolTableRecord
100
AcDbLayerTableRecord
  2
COLORE_TOP
 70
0
 62
7
  6
CONTINUOUS
370
-3
390
F
  0
LAYER
  5
1FF
100
AcDbSymbolTableRecord
100
AcDbLayerTableRecord
  2
COORDINATE
 70
0
 62
7
  6
CONTINUOUS
370
-3
390
F
  0
LAYER
  5
200
100
AcDbSymbolTableRecord
100
AcDbLayerTableRecord
  2
COORD_ORIGINE
 70
0
 62
7
  6
CONTINUOUS
370
-3
390
F
  0
LAYER
  5
201
100
AcDbSymbolTableRecord
100
AcDbLayerTableRecord
  2
COPY-PUBBLISH
 70
0
 62
7
  6
CONTINUOUS
370
-3
390
F
  0
LAYER
  5
202
100
AcDbSymbolTableRecord
100
AcDbLayerTableRecord
  2
COPY_PUBLISH
 70
0
 62
7
  6
CONTINUOUS
370
-3
390
F
  0
LAYER
  5
203
100
AcDbSymbolTableRecord
100
AcDbLayerTableRecord
  2
COSMETIC
 70
0
 62
7
  6
CONTINUOUS
370
-3
390
F
  0
LAYER
  5
204
100
AcDbSymbolTableRecord
100
AcDbLayerTableRecord
  2
COSMETICHE
 70
0
 62
7
  6
CONTINUOUS
370
-3
390
F
  0
LAYER
  5
205
100
AcDbSymbolTableRecord
100
AcDbLayerTableRecord
  2
CURVA_CENTRALE
 70
0
 62
7
  6
CONTINUOUS
370
-3
390
F
  0
LAYER
  5
206
100
AcDbSymbolTableRecord
100
AcDbLayerTableRecord
  2
CURVE
 70
0
 62
7
  6
CONTINUOUS
370
-3
390
F
  0
LAYER
  5
207
100
AcDbSymbolTableRecord
100
AcDbLayerTableRecord
  2
DRAFT
 70
0
 62
7
  6
CONTINUOUS
370
-3
390
F
  0
LAYER
  5
208
100
AcDbSymbolTableRecord
100
AcDbLayerTableRecord
  2
IMPIANTO
 70
0
 62
7
  6
CONTINUOUS
370
-3
390
F
  0
LAYER
  5
209
100
AcDbSymbolTableRecord
100
AcDbLayerTableRecord
  2
IMPORTED
 70
0
 62
7
  6
CONTINUOUS
370
-3
390
F
  0
LAYER
  5
20A
100
AcDbSymbolTableRecord
100
AcDbLayerTableRecord
  2
IMPORT_IGES
 70
0
 62
7
  6
CONTINUOUS
370
-3
390
F
  0
LAYER
  5
20B
100
AcDbSymbolTableRecord
100
AcDbLayerTableRecord
  2
INCISIONI_LASER
 70
0
 62
7
  6
CONTINUOUS
370
-3
390
F
  0
LAYER
  5
20C
100
AcDbSymbolTableRecord
100
AcDbLayerTableRecord
  2
INTFCLR_11
 70
0
 62
7
  6
CONTINUOUS
370
-3
390
F
  0
LAYER
  5
20D
100
AcDbSymbolTableRecord
100
AcDbLayerTableRecord
  2
INTFCLR_3
 70
0
 62
7
  6
CONTINUOUS
370
-3
390
F
  0
LAYER
  5
20E
100
AcDbSymbolTableRecord
100
AcDbLayerTableRecord
  2
INTF_1
 70
0
 62
7
  6
CONTINUOUS
370
-3
390
F
  0
LAYER
  5
20F
100
AcDbSymbolTableRecord
100
AcDbLayerTableRecord
  2
INTF_11
 70
0
 62
7
  6
CONTINUOUS
370
-3
390
F
  0
LAYER
  5
210
100
AcDbSymbolTableRecord
100
AcDbLayerTableRecord
  2
INTF_12
 70
0
 62
7
  6
CONTINUOUS
370
-3
390
F
  0
LAYER
  5
211
100
AcDbSymbolTableRecord
100
AcDbLayerTableRecord
  2
INTF_2
 70
0
 62
7
  6
CONTINUOUS
370
-3
390
F
  0
LAYER
  5
212
100
AcDbSymbolTableRecord
100
AcDbLayerTableRecord
  2
INTF_3
 70
0
 62
7
  6
CONTINUOUS
370
-3
390
F
  0
LAYER
  5
213
100
AcDbSymbolTableRecord
100
AcDbLayerTableRecord
  2
NOTE
 70
0
 62
7
  6
CONTINUOUS
370
-3
390
F
  0
LAYER
  5
214
100
AcDbSymbolTableRecord
100
AcDbLayerTableRecord
  2
PIANI
 70
0
 62
7
  6
CONTINUOUS
370
-3
390
F
  0
LAYER
  5
215
100
AcDbSymbolTableRecord
100
AcDbLayerTableRecord
  2
PIANI_ORIGINE
 70
0
 62
7
  6
CONTINUOUS
370
-3
390
F
  0
LAYER
  5
216
100
AcDbSymbolTableRecord
100
AcDbLayerTableRecord
  2
PIANI_SFORMO
 70
0
 62
7
  6
CONTINUOUS
370
-3
390
F
  0
LAYER
  5
217
100
AcDbSymbolTableRecord
100
AcDbLayerTableRecord
  2
PUNTI
 70
0
 62
7
  6
CONTINUOUS
370
-3
390
F
  0
LAYER
  5
218
100
AcDbSymbolTableRecord
100
AcDbLayerTableRecord
  2
RACCORDO
 70
0
 62
7
  6
CONTINUOUS
370
-3
390
F
  0
LAYER
  5
219
100
AcDbSymbolTableRecord
100
AcDbLayerTableRecord
  2
RGB__255__255__255__
 70
0
 62
7
  6
CONTINUOUS
370
-3
390
F
  0
LAYER
  5
21A
100
AcDbSymbolTableRecord
100
AcDbLayerTableRecord
  2
RINTRACCIABILITA
 70
0
 62
7
  6
CONTINUOUS
370
-3
390
F
  0
LAYER
  5
21B
100
AcDbSymbolTableRecord
100
AcDbLayerTableRecord
  2
SMUSSO
 70
0
 62
7
  6
CONTINUOUS
370
-3
390
F
  0
LAYER
  5
21C
100
AcDbSymbolTableRecord
100
AcDbLayerTableRecord
  2
SNAPLINE
 70
0
 62
7
  6
CONTINUOUS
370
-3
390
F
  0
LAYER
  5
21D
100
AcDbSymbolTableRecord
100
AcDbLayerTableRecord
  2
SUPERFICI
 70
0
 62
7
  6
CONTINUOUS
370
-3
390
F
  0
LAYER
  5
21E
100
AcDbSymbolTableRecord
100
AcDbLayerTableRecord
  2
TRASH
 70
0
 62
7
  6
CONTINUOUS
370
-3
390
F
  0
LAYER
  5
21F
100
AcDbSymbolTableRecord
100
AcDbLayerTableRecord
  2
XSEC_DATUMS
 70
0
 62
7
  6
CONTINUOUS
370
-3
390
F
  0
LAYER
  5
220
100
AcDbSymbolTableRecord
100
AcDbLayerTableRecord
  2
___SHELL
 70
0
 62
7
  6
CONTINUOUS
370
-3
390
F
  0
ENDTAB
  0
TABLE
  2
STYLE
  5
3
100
AcDbSymbolTable
 70
1
  0
STYLE
  5
11
100
AcDbSymbolTableRecord
100
AcDbTextStyleTableRecord
  2
STANDARD
 70
0
 40
0.0
 41
0.8
 50
0.0
 71
0
 42
0.2
  3
txt
  4

  0
STYLE
  5
221
100
AcDbSymbolTableRecord
100
AcDbTextStyleTableRecord
  2
TEXTSTYLE_1
 70
0
 40
0.0
 41
0.8
 50
0.0
 71
0
 42
0.2
  3
gdt
  4

  0
ENDTAB
  0
TABLE
  2
VIEW
  5
6
100
AcDbSymbolTable
 70
0
  0
ENDTAB
  0
TABLE
  2
UCS
  5
7
100
AcDbSymbolTable
 70
0
  0
ENDTAB
  0
TABLE
  2
APPID
  5
9
100
AcDbSymbolTable
 70
1
  0
APPID
  5
222
100
AcDbSymbolTableRecord
100
AcDbRegAppTableRecord
  2
ACAD
 70
0
  0
ENDTAB
  0
TABLE
  2
BLOCK_RECORD
  5
1
100
AcDbSymbolTable
 70
0
  0
BLOCK_RECORD
  5
223
100
AcDbSymbolTableRecord
100
AcDbBlockTableRecord
  2
*Model_Space
  0
BLOCK_RECORD
  5
224
100
AcDbSymbolTableRecord
100
AcDbBlockTableRecord
  2
*Paper_Space
  0
BLOCK_RECORD
  5
225
100
AcDbSymbolTableRecord
100
AcDbBlockTableRecord
  2
_FILLED
  0
ENDTAB
  0
TABLE
  2
DIMSTYLE
  5
A
100
AcDbSymbolTable
 70
1
100
AcDbDimStyleTable
 71
0
  0
DIMSTYLE
105
226
100
AcDbSymbolTableRecord
100
AcDbDimStyleTableRecord
  2
STANDARD
 70
0
  3

  4

 40
1.0
 41
3.0
 42
0.5
 43
0.38
 44
1.5
 45
0.0
 46
0.0
 47
0.01
 48
0.01
140
3.0
141
0.09
142
0.0
143
25.4
144
1.0
145
0.0
146
1.0
147
0.625
 71
1
 72
0
 73
0
 74
0
 75
0
 76
0
 77
1
 78
8
 79
2
170
0
171
1
172
0
173
0
174
0
175
0
176
0
177
0
178
0
270
2
179
2
271
2
272
2
273
2
274
2
275
0
280
0
281
0
282
0
283
1
284
8
285
0
286
0
287
3
288
0
340
11
278
44
341
225
342
225
343
225
344
225
  0
ENDTAB
  0
ENDSEC
  0
SECTION
  2
BLOCKS
  0
BLOCK
  5
20
100
AcDbEntity
  8
0
100
AcDbBlockBegin
  2
*Model_Space
 70
0
 10
0.0
 20
0.0
 30
0.0
  3
*Model_Space
  1

  0
ENDBLK
  5
21
100
AcDbEntity
  8
0
100
AcDbBlockEnd
  0
BLOCK
  5
1C
100
AcDbEntity
  8
0
100
AcDbBlockBegin
  2
*Paper_Space
 70
0
 10
0.0
 20
0.0
 30
0.0
  3
*Paper_Space
  1

  0
ENDBLK
  5
1D
100
AcDbEntity
  8
0
100
AcDbBlockEnd
  0
BLOCK
  5
227
100
AcDbEntity
  8
0
100
AcDbBlockBegin
  2
_FILLED
 70
64
 10
0.0
 20
0.0
  3
_FILLED
  1

  0
SOLID
  5
228
100
AcDbEntity
  8
0
  6
BYBLOCK
 62
0
100
AcDbTrace
 10
0.0
 20
0.0
 11
-1.0
 21
0.3166666667
 12
-1.0
 22
-0.3166666667
 13
-1.0
 23
-0.3166666667
  0
ENDBLK
  5
229
100
AcDbEntity
  8
0
  6
BYBLOCK
 62
0
100
AcDbBlockEnd
  0
ENDSEC
  0
SECTION
  2
ENTITIES
  0
LWPOLYLINE
  5
22A
100
AcDbEntity
  8
ASSI
100
AcDbPolyline
 62
7
  6
CONTINUOUS
 90
12
 70
0
 10
-13.2323395512
 20
26.584285339
 10
-13.2508631928
 20
26.573218922
 10
-13.272072581
 20
26.5575775659
 10
-13.2918842482
 20
26.539503749
 10
-13.3100448017
 20
26.5191666728
 10
-13.3258960882
 20
26.4974055277
 10
-13.3397073652
 20
26.4739729031
 10
-13.3514275386
 20
26.448765509
 10
-13.3604743843
 20
26.4229773791
 10
-13.3668463224
 20
26.3969148034
 10
-13.3706434811
 20
26.3699006147
 10
-13.3716477021
 20
26.3471984692
  0
LINE
  5
22B
100
AcDbEntity
  8
ASSI
100
AcDbLine
 62
7
  6
CONTINUOUS
 10
-13.232480664
 20
26.584210014
 11
-11.6652801736
 21
27.4297506328
  0
LINE
  5
22C
100
AcDbEntity
  8
ASSI
100
AcDbLine
 62
250
  6
CONTINUOUS
 10
-13.1399840429
 20
26.5801384691
 11
-11.5737332968
 21
27.4251666791
  0
LINE
  5
22D
100
AcDbEntity
  8
ASSI
100
AcDbLine
 62
7
  6
CONTINUOUS
 10
-11.6610723367
 20
27.4318565105
 11
-11.6652378402
 21
27.4297734726
  0
LWPOLYLINE
  5
22E
100
AcDbEntity
  8
ASSI
100
AcDbPolyline
 62
250
  6
CONTINUOUS
 90
7
 70
0
 10
-13.2323398078
 20
26.5842858164
 10
-13.2270405254
 20
26.5868692217
 10
-13.2115744571
 20
26.5918116154
 10
-13.194841717
 20
26.5936134745
 10
-13.1771284961
 20
26.5922439807
 10
-13.1587377551
 20
26.5877265574
 10
-13.1399840429
 20
26.5801384691
  0
LINE
  5
22F
100
AcDbEntity
  8
ASSI
100
AcDbLine
 62
250
  6
CONTINUOUS
 10
-11.5737332968
 20
27.4251666791
 11
-11.0310072341
 21
27.6758155601
  0
LINE
  5
230
100
AcDbEntity
  8
ASSI
100
AcDbLine
 62
7
  6
CONTINUOUS
 10
-11.6610144969
 20
27.4318833005
 11
-11.1171131386
 21
27.6830745463
  0
LWPOLYLINE
  5
231
100
AcDbEntity
  8
ASSI
100
AcDbPolyline
 62
250
  6
CONTINUOUS
 90
14
 70
0
 10
-11.0310072341
 20
27.6758155601
 10
-11.0224443346
 20
27.6796319239
 10
-11.0136627041
 20
27.6830182255
 10
-11.0046873206
 20
27.6859195125
 10
-10.9955255241
 20
27.6882843515
 10
-10.9862318256
 20
27.6900479836
 10
-10.9769051832
 20
27.6911480617
 10
-10.9675824353
 20
27.6915416579
 10
-10.9583037088
 20
27.6911870464
 10
-10.9491700028
 20
27.690054197
 10
-10.9402204636
 20
27.6881202588
 10
-10.9314961416
 20
27.6853651836
 10
-10.9230915949
 20
27.6817974112
 10
-10.9219169237
 20
27.681220347
  0
LINE
  5
232
100
AcDbEntity
  8
ASSI
100
AcDbLine
 62
7
  6
CONTINUOUS
 10
-11.0939797296
 20
27.6922956037
 11
-11.1171130695
 21
27.6830743957
  0
LWPOLYLINE
  5
233
100
AcDbEntity
  8
ASSI
100
AcDbPolyline
 62
250
  6
CONTINUOUS
 90
6
 70
0
 10
-11.1171131386
 20
27.6830745463
 10
-11.1007918351
 20
27.68839163
 10
-11.084352455
 20
27.6900468173
 10
-11.0670428871
 20
27.6884754981
 10
-11.0491591878
 20
27.683704546
 10
-11.0310072341
 20
27.6758155601
  0
LWPOLYLINE
  5
234
100
AcDbEntity
  8
ASSI
100
AcDbPolyline
 62
250
  6
CONTINUOUS
 90
11
 70
0
 10
-13.2382703863
 20
26.4912535391
 10
-13.2294842964
 20
26.5028015808
 10
-13.2203816126
 20
26.5138421777
 10
-13.2109914988
 20
26.5243434818
 10
-13.201343523
 20
26.5342740549
 10
-13.1914720715
 20
26.5436000448
 10
-13.1814129763
 20
26.5522890804
 10
-13.171198463
 20
26.5603139138
 10
-13.1608636222
 20
26.5676473721
 10
-13.150446476
 20
26.5742631732
 10
-13.1399840429
 20
26.5801384691
  0
LINE
  5
235
100
AcDbEntity
  8
ASSI
100
AcDbLine
 62
7
  6
CONTINUOUS
 10
-12.4110640951
 20
25.4659315473
 11
-12.3776006818
 21
25.4915130956
  0
LWPOLYLINE
  5
236
100
AcDbEntity
  8
RACCORDO
100
AcDbPolyline
 62
250
  6
CONTINUOUS
 90
20
 70
0
 10
-16.6857373698
 20
22.7335077022
 10
-16.7466456733
 20
22.6925349777
 10
-16.8066983493
 20
22.646737244
 10
-16.8655901085
 20
22.5963498583
 10
-16.9230554682
 20
22.5416437854
 10
-16.9787906258
 20
22.4828890529
 10
-17.0324924209
 20
22.420381465
 10
-17.0839106177
 20
22.3544611842
 10
-17.1327718381
 20
22.2854624885
 10
-17.1788142792
 20
22.2137298096
 10
-17.2218263587
 20
22.1396430094
 10
-17.2615819022
 20
22.0635766248
 10
-17.2978667664
 20
21.985913722
 10
-17.3305139129
 20
21.9070624906
 10
-17.3593514257
 20
21.8274295804
 10
-17.3842268356
 20
21.7474103569
 10
-17.4050303747
 20
21.6674024051
 10
-17.421656862
 20
21.5878089964
 10
-17.4340093493
 20
21.5090372321
 10
-17.4420210919
 20
21.4314882001
  0
LINE
  5
237
100
AcDbEntity
  8
ASSI
100
AcDbLine
 62
7
  6
CONTINUOUS
 10
-13.0189910788
 20
25.0904321459
 11
-12.6567847235
 21
25.305148867
  0
LINE
  5
238
100
AcDbEntity
  8
ASSI
100
AcDbLine
 62
250
  6
CONTINUOUS
 10
-12.7837375978
 20
25.0827756075
 11
-12.6567847235
 21
25.1580335496
  0
LWPOLYLINE
  5
239
100
AcDbEntity
  8
RACCORDO
100
AcDbPolyline
 62
7
  6
CONTINUOUS
 90
18
 70
0
 10
-16.7933676968
 20
22.8110198759
 10
-16.8716858966
 20
22.7681422589
 10
-16.9448221623
 20
22.7201958839
 10
-17.0163788497
 20
22.6652378754
 10
-17.0856239887
 20
22.6037037741
 10
-17.1509310554
 20
22.5371761489
 10
-17.2119371078
 20
22.4664411548
 10
-17.2689400592
 20
22.3914892966
 10
-17.3214589685
 20
22.313170598
 10
-17.3693350003
 20
22.232035197
 10
-17.4125609791
 20
22.1482746171
 10
-17.4509314348
 20
22.0623881163
 10
-17.4843078505
 20
21.9747280713
 10
-17.5125092649
 20
21.885595137
 10
-17.5353268658
 20
21.7953704523
 10
-17.5525286133
 20
21.7043100184
 10
-17.5638518235
 20
21.6126977644
 10
-17.5656432241
 20
21.5909182038
  0
LINE
  5
23A
100
AcDbEntity
  8
ASSI
100
AcDbLine
 62
250
  6
CONTINUOUS
 10
-11.0742700015
 20
25.5472814484
 11
-9.4523698749
 21
26.3644849681
  0
LINE
  5
23B
100
AcDbEntity
  8
ASSI
100
AcDbLine
 62
250
  6
CONTINUOUS
 10
-10.9328701845
 20
25.3034028391
 11
-9.3109700578
 21
26.1206063588
  0
LWPOLYLINE
  5
23C
100
AcDbEntity
  8
RACCORDO
100
AcDbPolyline
 62
250
  6
CONTINUOUS
 90
3
 70
0
 10
-16.562715664
 20
22.8002091359
 10
-16.6243172898
 20
22.7694584145
 10
-16.6857373698
 20
22.7335077022
  0
LINE
  5
23D
100
AcDbEntity
  8
ASSI
100
AcDbLine
 62
250
  6
CONTINUOUS
 10
-9.4523698749
 20
26.3644849681
 11
-8.9282654083
 21
26.6244446473
  0
LINE
  5
23E
100
AcDbEntity
  8
ASSI
100
AcDbLine
 62
250
  6
CONTINUOUS
 10
-9.3109700578
 20
26.1206063588
 11
-8.7868655913
 21
26.380566038
  0
LINE
  5
23F
100
AcDbEntity
  8
RACCORDO
100
AcDbLine
 62
7
  6
CONTINUOUS
 10
-13.5971240627
 20
24.3898346162
 11
-16.7934074284
 21
22.811009364
  0
LINE
  5
240
100
AcDbEntity
  8
RACCORDO
100
AcDbLine
 62
250
  6
CONTINUOUS
 10
-13.3700043991
 20
24.3772699255
 11
-16.5627156405
 21
22.8002091476
  0
LWPOLYLINE
  5
241
100
AcDbEntity
  8
ASSI
100
AcDbPolyline
 62
250
  6
CONTINUOUS
 90
28
 70
0
 10
-8.7868655913
 20
26.380566038
 10
-8.7851619314
 20
26.3813728326
 10
-8.7834291301
 20
26.3820692598
 10
-8.7816671873
 20
26.3826553197
 10
-8.7798651799
 20
26.3831413654
 10
-8.778034031
 20
26.3835170438
 10
-8.7762065102
 20
26.383751295
 10
-8.7743820189
 20
26.3838395426
 10
-8.7725611557
 20
26.3837863631
 10
-8.7707784855
 20
26.3835744259
 10
-8.7690350132
 20
26.3831983239
 10
-8.767329734
 20
26.3826634642
 10
-8.7656941984
 20
26.381968738
 10
-8.764131547
 20
26.3811101474
 10
-8.7626386394
 20
26.3800916902
 10
-8.7612376044
 20
26.3789242511
 10
-8.7599312353
 20
26.3776061828
 10
-8.7587167389
 20
26.3761391325
 10
-8.7576078651
 20
26.3745389269
 10
-8.756605995
 20
26.3728042136
 10
-8.7557097475
 20
26.370936345
 10
-8.7549287289
 20
26.3689552046
 10
-8.7542642154
 20
26.3668594844
 10
-8.7537149309
 20
26.3646504925
 10
-8.753286654
 20
26.3623520367
 10
-8.7529813109
 20
26.359972053
 10
-8.7527969753
 20
26.3575026055
 10
-8.7527336473
 20
26.3549436941
  0
LWPOLYLINE
  5
242
100
AcDbEntity
  8
ASSI
100
AcDbPolyline
 62
250
  6
CONTINUOUS
 90
14
 70
0
 10
-8.9282654083
 20
26.6244446473
 10
-8.919675234
 20
26.6283278096
 10
-8.9108802145
 20
26.6317660753
 10
-8.9019057759
 20
26.6347061837
 10
-8.8927599716
 20
26.6370987605
 10
-8.8834970462
 20
26.6388810207
 10
-8.8742146589
 20
26.6399925551
 10
-8.8649493106
 20
26.6403930038
 10
-8.8557406455
 20
26.6400433125
 10
-8.8466877437
 20
26.6389158392
 10
-8.8378298258
 20
26.6369909188
 10
-8.8292054436
 20
26.6342513254
 10
-8.8209033683
 20
26.6307064518
 10
-8.8199319643
 20
26.6302278675
  0
LWPOLYLINE
  5
243
100
AcDbEntity
  8
ASSI
100
AcDbPolyline
 62
7
  6
CONTINUOUS
 90
12
 70
0
 10
-10.2134208085
 20
24.7406577668
 10
-10.2354535447
 20
24.7200130077
 10
-10.2593413363
 20
24.7007479137
 10
-10.2849085746
 20
24.6832553163
 10
-10.3121088249
 20
24.6679030571
 10
-10.3405234568
 20
24.6550496985
 10
-10.3693385031
 20
24.6449811252
 10
-10.3981681806
 20
24.6378838396
 10
-10.4267167431
 20
24.6339362152
 10
-10.4542538206
 20
24.633195211
 10
-10.4803083988
 20
24.6355875401
 10
-10.4911158119
 20
24.6375775381
  0
LWPOLYLINE
  5
244
100
AcDbEntity
  8
ASSI
100
AcDbPolyline
 62
250
  6
CONTINUOUS
 90
13
 70
0
 10
-7.4005309555
 20
24.6863649063
 10
-7.4187627682
 20
24.6754099262
 10
-7.4366482149
 20
24.6617611562
 10
-7.4538880241
 20
24.645646977
 10
-7.4701937273
 20
24.6273370223
 10
-7.4852924864
 20
24.6071376667
 10
-7.4989316584
 20
24.5853868999
 10
-7.5108830233
 20
24.5624486705
 10
-7.5209466027
 20
24.538706797
 10
-7.5289540059
 20
24.5145585447
 10
-7.5347712473
 20
24.4904079788
 10
-7.5383009889
 20
24.4666592033
 10
-7.5394841688
 20
24.4437095989
  0
LWPOLYLINE
  5
245
100
AcDbEntity
  8
ASSI
100
AcDbPolyline
 62
7
  6
CONTINUOUS
 90
12
 70
0
 10
-7.5158571085
 20
24.6916124209
 10
-7.518220564
 20
24.6903191952
 10
-7.5384277937
 20
24.6776117022
 10
-7.5572065478
 20
24.6627156923
 10
-7.5742855253
 20
24.6458309059
 10
-7.5895545915
 20
24.6270308575
 10
-7.6027849995
 20
24.6065325368
 10
-7.6137735099
 20
24.5846241548
 10
-7.622444595
 20
24.5613998718
 10
-7.6286810187
 20
24.5370238558
 10
-7.6323526547
 20
24.5118215951
 10
-7.6334125633
 20
24.48885101
  0
LINE
  5
246
100
AcDbEntity
  8
ASSI
100
AcDbLine
 62
7
  6
CONTINUOUS
 10
-10.2134208085
 20
23.9824573207
 11
-9.3109700578
 21
24.4751317116
  0
LINE
  5
247
100
AcDbEntity
  8
ASSI
100
AcDbLine
 62
7
  6
CONTINUOUS
 10
-7.3041102342
 20
24.8058555901
 11
-7.5159050695
 21
24.6915874175
  0
LINE
  5
248
100
AcDbEntity
  8
ASSI
100
AcDbLine
 62
250
  6
CONTINUOUS
 10
-7.1896766382
 20
24.8001256479
 11
-7.4005309555
 21
24.6863649063
  0
LWPOLYLINE
  5
249
100
AcDbEntity
  8
ASSI
100
AcDbPolyline
 62
250
  6
CONTINUOUS
 90
9
 70
0
 10
-2.7871105318
 20
26.2782904854
 10
-2.7607441491
 20
26.2923994778
 10
-2.7375690327
 20
26.3077722897
 10
-2.7178343301
 20
26.3242410689
 10
-2.7017529805
 20
26.3416250323
 10
-2.6894945933
 20
26.3597365676
 10
-2.6811874188
 20
26.3783838965
 10
-2.6769218967
 20
26.3973682276
 10
-2.6763277499
 20
26.4090710814
  0
LWPOLYLINE
  5
24A
100
AcDbEntity
  8
ASSI
100
AcDbPolyline
 62
250
  6
CONTINUOUS
 90
31
 70
0
 10
-2.9607414714
 20
26.5789970343
 10
-2.9517411016
 20
26.5838086442
 10
-2.943951131
 20
26.5889498748
 10
-2.9373715594
 20
26.594420726
 10
-2.9319523919
 20
26.6002899094
 10
-2.9277436235
 20
26.6064887135
 10
-2.9248952391
 20
26.6128110034
 10
-2.923456135
 20
26.619258044
 10
-2.923377415
 20
26.6258285703
 10
-2.9246623749
 20
26.6323126521
 10
-2.9273554252
 20
26.6387075235
 10
-2.9314121554
 20
26.6450159504
 10
-2.9367026301
 20
26.6510363007
 10
-2.9432665532
 20
26.6567592841
 10
-2.9510642208
 20
26.6621941908
 10
-2.959846586
 20
26.6671672597
 10
-2.9696455145
 20
26.6716635721
 10
-2.9804291406
 20
26.6756980466
 10
-2.9918528198
 20
26.6791416773
 10
-3.0039372327
 20
26.6819754303
 10
-3.0166616986
 20
26.6842183394
 10
-3.029619531
 20
26.6857985006
 10
-3.0428182874
 20
26.686694419
 10
-3.0562504102
 20
26.6869275894
 10
-3.0694865407
 20
26.6864905918
 10
-3.0825214533
 20
26.6853614966
 10
-3.0953603735
 20
26.6835622333
 10
-3.1075896188
 20
26.6811511709
 10
-3.1190712949
 20
26.6781477657
 10
-3.129943296
 20
26.6745325613
 10
-3.1402056222
 20
26.6703055579
  0
LINE
  5
24B
100
AcDbEntity
  8
ASSI
100
AcDbLine
 62
7
  6
CONTINUOUS
 10
-7.3040559413
 20
24.8058848279
 11
-7.2988478956
 21
24.8084892085
  0
LWPOLYLINE
  5
24C
100
AcDbEntity
  8
ASSI
100
AcDbPolyline
 62
250
  6
CONTINUOUS
 90
13
 70
0
 10
-7.5158559919
 20
24.6916138783
 10
-7.5105764614
 20
24.694248558
 10
-7.5019386691
 20
24.6977241247
 10
-7.4929215703
 20
24.700371147
 10
-7.4835602918
 20
24.702179753
 10
-7.4738872245
 20
24.7031441223
 10
-7.4639375164
 20
24.7032609402
 10
-7.453747285
 20
24.702529803
 10
-7.4433541792
 20
24.7009534473
 10
-7.4327970027
 20
24.6985381017
 10
-7.4221147116
 20
24.6952930383
 10
-7.4113462148
 20
24.6912302743
 10
-7.4005309555
 20
24.6863649063
  0
LINE
  5
24D
100
AcDbEntity
  8
ASSI
100
AcDbLine
 62
7
  6
CONTINUOUS
 10
-1.5956461889
 20
28.2414394392
 11
-8.6428343427
 21
24.8330541056
  0
LINE
  5
24E
100
AcDbEntity
  8
ASSI
100
AcDbLine
 62
250
  6
CONTINUOUS
 10
-6.2758217019
 20
24.9938088848
 11
-2.9607414714
 21
26.5789970343
  0
LINE
  5
24F
100
AcDbEntity
  8
ASSI
100
AcDbLine
 62
250
  6
CONTINUOUS
 10
-5.8835273313
 20
24.7976616995
 11
-2.7871105318
 21
26.2782904854
  0
LINE
  5
250
100
AcDbEntity
  8
ASSI
100
AcDbLine
 62
7
  6
CONTINUOUS
 10
-3.2481104771
 20
26.6792539851
 11
-7.2987781384
 21
24.8085214246
  0
LINE
  5
251
100
AcDbEntity
  8
ASSI
100
AcDbLine
 62
250
  6
CONTINUOUS
 10
-3.1402056222
 20
26.6703055579
 11
-7.1896766382
 21
24.8001256479
  0
LINE
  5
252
100
AcDbEntity
  8
ASSI
100
AcDbLine
 62
7
  6
CONTINUOUS
 10
-3.2126492407
 20
26.6935684867
 11
-3.2482510796
 21
26.6791849827
  0
LINE
  5
253
100
AcDbEntity
  8
0
100
AcDbLine
 62
250
  6
CONTINUOUS
 10
-10.5528300455
 20
22.9686827487
 11
-10.3843863843
 21
23.0310178939
  0
LWPOLYLINE
  5
254
100
AcDbEntity
  8
ASSI
100
AcDbPolyline
 62
7
  6
CONTINUOUS
 90
3
 70
0
 10
-7.2988478956
 20
24.8084892085
 10
-7.2780510577
 20
24.8153170501
 10
-7.2573174357
 20
24.8174705393
  0
LWPOLYLINE
  5
255
100
AcDbEntity
  8
ASSI
100
AcDbPolyline
 62
7
  6
CONTINUOUS
 90
6
 70
0
 10
-12.450821665
 20
25.4275935655
 10
-12.4490253676
 20
25.431273572
 10
-12.4437997419
 20
25.4374653675
 10
-12.4356025326
 20
25.4458056958
 10
-12.424630082
 20
25.4553674884
 10
-12.4110640951
 20
25.4659315473
  0
LWPOLYLINE
  5
256
100
AcDbEntity
  8
ASSI
100
AcDbPolyline
 62
250
  6
CONTINUOUS
 90
7
 70
0
 10
-8.7584153087
 20
25.9122647585
 10
-8.7574322443
 20
25.9136130222
 10
-8.7546148569
 20
25.9209789717
 10
-8.7544939244
 20
25.9303245701
 10
-8.7570714933
 20
25.9414916809
 10
-8.7623039485
 20
25.9542913458
 10
-8.7701027519
 20
25.968506982
  0
LWPOLYLINE
  5
257
100
AcDbEntity
  8
ASSI
100
AcDbPolyline
 62
7
  6
CONTINUOUS
 90
6
 70
0
 10
-8.7584405468
 20
25.9122338165
 10
-8.7489657444
 20
25.9246627255
 10
-8.7353532571
 20
25.9455173591
 10
-8.723500126
 20
25.967783906
 10
-8.713557197
 20
25.9913443343
 10
-8.7059032994
 20
26.0153211515
  0
LINE
  5
258
100
AcDbEntity
  8
ASSI
100
AcDbLine
 62
250
  6
CONTINUOUS
 10
-8.7701027519
 20
25.968506982
 11
-9.3109700578
 21
25.2992194959
  0
LINE
  5
259
100
AcDbEntity
  8
ASSI
100
AcDbLine
 62
7
  6
CONTINUOUS
 10
-8.7584153087
 20
25.9122647585
 11
-9.3109700578
 21
25.228514835
  0
LWPOLYLINE
  5
25A
100
AcDbEntity
  8
ASSI
100
AcDbPolyline
 62
250
  6
CONTINUOUS
 90
13
 70
0
 10
-5.1805824669
 20
23.5763906621
 10
-5.1988142917
 20
23.5654356736
 10
-5.2166997478
 20
23.5517868936
 10
-5.2339395634
 20
23.535672704
 10
-5.25024527
 20
23.5173627394
 10
-5.2653440296
 20
23.4971633758
 10
-5.2789831992
 20
23.475412604
 10
-5.2909345594
 20
23.4524743737
 10
-5.3009981327
 20
23.4287325033
 10
-5.3090055292
 20
23.4045842583
 10
-5.3148227647
 20
23.3804337035
 10
-5.318352502
 20
23.3566849423
 10
-5.3195356802
 20
23.3337353547
  0
LWPOLYLINE
  5
25B
100
AcDbEntity
  8
ASSI
100
AcDbPolyline
 62
250
  6
CONTINUOUS
 90
7
 70
0
 10
1.9623061925
 20
26.1529373
 10
1.9795548672
 20
26.1627453504
 10
1.9940894367
 20
26.1735435694
 10
2.0056611433
 20
26.1851472396
 10
2.0140719121
 20
26.1973578573
 10
2.0191777337
 20
26.2099665156
 10
2.0208863644
 20
26.2234434976
  0
LWPOLYLINE
  5
25C
100
AcDbEntity
  8
ASSI
100
AcDbPolyline
 62
7
  6
CONTINUOUS
 90
10
 70
0
 10
-3.8037290578
 20
22.8353590423
 10
-3.8117809626
 20
22.8307850559
 10
-3.8354415251
 20
22.8144770043
 10
-3.856973713
 20
22.795009831
 10
-3.8759121211
 20
22.7726911721
 10
-3.8918245293
 20
22.7479800262
 10
-3.9045742171
 20
22.7209720267
 10
-3.9138821988
 20
22.6919275893
 10
-3.9194337377
 20
22.6614641875
 10
-3.9211016328
 20
22.6327168991
  0
LINE
  5
25D
100
AcDbEntity
  8
ASSI
100
AcDbLine
 62
7
  6
CONTINUOUS
 10
-5.0038326956
 20
22.0931884921
 11
-4.7854866582
 21
22.2123900118
  0
LINE
  5
25E
100
AcDbEntity
  8
ASSI
100
AcDbLine
 62
7
  6
CONTINUOUS
 10
-3.591799633
 20
22.9497002895
 11
-3.8037227277
 21
22.8353627869
  0
LINE
  5
25F
100
AcDbEntity
  8
ASSI
100
AcDbLine
 62
250
  6
CONTINUOUS
 10
-3.477366037
 20
22.9439703473
 11
-3.6882203543
 21
22.8302096057
  0
LINE
  5
260
100
AcDbEntity
  8
ASSI
100
AcDbLine
 62
7
  6
CONTINUOUS
 10
-4.7854866582
 20
22.2123900118
 11
-4.1034264279
 21
22.5640531712
  0
LINE
  5
261
100
AcDbEntity
  8
ASSI
100
AcDbLine
 62
250
  6
CONTINUOUS
 10
-5.1805824669
 20
23.5763906621
 11
-4.9622364296
 21
23.6864055436
  0
LINE
  5
262
100
AcDbEntity
  8
ASSI
100
AcDbLine
 62
250
  6
CONTINUOUS
 10
-5.0038326956
 20
23.2715424004
 11
-4.7854866582
 21
23.3815572819
  0
LINE
  5
263
100
AcDbEntity
  8
ASSI
100
AcDbLine
 62
7
  6
CONTINUOUS
 10
-3.5917453401
 20
22.9497295273
 11
-3.5865372943
 21
22.9523339079
  0
LINE
  5
264
100
AcDbEntity
  8
ASSI
100
AcDbLine
 62
7
  6
CONTINUOUS
 10
0.3492122
 20
25.7756202513
 11
-0.7320311696
 21
25.2349985665
  0
LINE
  5
265
100
AcDbEntity
  8
RACCORDO
100
AcDbLine
 62
7
  6
CONTINUOUS
 10
-1.6884619838
 20
24.5557323967
 11
-1.6269123455
 21
24.5865072159
  0
LINE
  5
266
100
AcDbEntity
  8
0
100
AcDbLine
 62
7
  6
CONTINUOUS
 10
-1.6884619838
 20
24.5557323967
 11
-1.6269123455
 21
24.5865072159
  0
LINE
  5
267
100
AcDbEntity
  8
RACCORDO
100
AcDbLine
 62
250
  6
CONTINUOUS
 10
-1.6035061429
 20
24.5478086002
 11
-1.5374696264
 21
24.5808268584
  0
LINE
  5
268
100
AcDbEntity
  8
0
100
AcDbLine
 62
250
  6
CONTINUOUS
 10
-1.6035061429
 20
24.5478086002
 11
-1.5374696264
 21
24.5808268584
  0
LINE
  5
269
100
AcDbEntity
  8
ASSI
100
AcDbLine
 62
250
  6
CONTINUOUS
 10
-4.9622364296
 20
23.6864055436
 11
-4.309017665
 21
24.0104068664
  0
LINE
  5
26A
100
AcDbEntity
  8
ASSI
100
AcDbLine
 62
250
  6
CONTINUOUS
 10
-4.7854866582
 20
23.3815572819
 11
-4.1277182468
 21
23.7078152631
  0
LWPOLYLINE
  5
26B
100
AcDbEntity
  8
RACCORDO
100
AcDbPolyline
 62
7
  6
CONTINUOUS
 90
20
 70
0
 10
-1.6884694458
 20
24.5557286657
 10
-1.6876035134
 20
24.5561528138
 10
-1.6838653223
 20
24.5577908307
 10
-1.6799859647
 20
24.5591860462
 10
-1.6759695282
 20
24.5603368759
 10
-1.671822022
 20
24.561241214
 10
-1.667549811
 20
24.561897218
 10
-1.663157763
 20
24.5623042513
 10
-1.6586523474
 20
24.5624613082
 10
-1.6540403633
 20
24.5623676482
 10
-1.6493273796
 20
24.5620235957
 10
-1.6445202409
 20
24.5614292634
 10
-1.6396260974
 20
24.5605850244
 10
-1.6346511371
 20
24.5594921542
 10
-1.6296024973
 20
24.5581518866
 10
-1.624487585
 20
24.5565657041
 10
-1.619313106
 20
24.5547358027
 10
-1.6140862689
 20
24.5526645472
 10
-1.6088147763
 20
24.5503544797
 10
-1.6035061429
 20
24.5478086002
  0
LWPOLYLINE
  5
26C
100
AcDbEntity
  8
0
100
AcDbPolyline
 62
7
  6
CONTINUOUS
 90
20
 70
0
 10
-1.6884694458
 20
24.5557286657
 10
-1.6876035134
 20
24.5561528138
 10
-1.6838653223
 20
24.5577908307
 10
-1.6799859647
 20
24.5591860462
 10
-1.6759695282
 20
24.5603368759
 10
-1.671822022
 20
24.561241214
 10
-1.667549811
 20
24.561897218
 10
-1.663157763
 20
24.5623042513
 10
-1.6586523474
 20
24.5624613082
 10
-1.6540403633
 20
24.5623676482
 10
-1.6493273796
 20
24.5620235957
 10
-1.6445202409
 20
24.5614292634
 10
-1.6396260974
 20
24.5605850244
 10
-1.6346511371
 20
24.5594921542
 10
-1.6296024973
 20
24.5581518866
 10
-1.624487585
 20
24.5565657041
 10
-1.619313106
 20
24.5547358027
 10
-1.6140862689
 20
24.5526645472
 10
-1.6088147763
 20
24.5503544797
 10
-1.6035061429
 20
24.5478086002
  0
LWPOLYLINE
  5
26D
100
AcDbEntity
  8
RACCORDO
100
AcDbPolyline
 62
250
  6
CONTINUOUS
 90
55
 70
0
 10
-1.5374696264
 20
24.5808268584
 10
-1.5217185205
 20
24.5884945862
 10
-1.5055891156
 20
24.5959396465
 10
-1.4890814119
 20
24.6031620392
 10
-1.4721820546
 20
24.6101669697
 10
-1.4549043983
 20
24.6169492327
 10
-1.4372885077
 20
24.6234932121
 10
-1.4193339085
 20
24.629798159
 10
-1.401041075
 20
24.6358648223
 10
-1.3824514937
 20
24.641679833
 10
-1.3635645816
 20
24.6472425477
 10
-1.3443809218
 20
24.6525536098
 10
-1.3249437507
 20
24.6576015799
 10
-1.3052525902
 20
24.6623858128
 10
-1.2853079185
 20
24.6669069538
 10
-1.265154406
 20
24.6711554998
 10
-1.2447915939
 20
24.6751308123
 10
-1.2242199412
 20
24.6788335299
 10
-1.2034854951
 20
24.682256065
 10
-1.1825880243
 20
24.6853977494
 10
-1.1615277603
 20
24.6882592512
 10
-1.1403514445
 20
24.6908349874
 10
-1.1190589194
 20
24.6931242988
 10
-1.0976503426
 20
24.6951278445
 10
-1.0761729284
 20
24.6968420191
 10
-1.0546266912
 20
24.6982661668
 10
-1.0330116165
 20
24.6994009433
 10
-1.0113748754
 20
24.7002447102
 10
-0.9897165202
 20
24.7007968281
 10
-0.9680364986
 20
24.7010579364
 10
-0.9463818242
 20
24.7010283146
 10
-0.9247527116
 20
24.7007073385
 10
-0.9031489463
 20
24.7000956323
 10
-0.8816168991
 20
24.6991953485
 10
-0.8601568106
 20
24.6980058797
 10
-0.8387684402
 20
24.6965278332
 10
-0.8174974361
 20
24.6947651835
 10
-0.796344195
 20
24.6927173499
 10
-0.7753083202
 20
24.6903849132
 10
-0.7544342698
 20
24.6877735903
 10
-0.7337225167
 20
24.6848828321
 10
-0.713172588
 20
24.6817131877
 10
-0.6928275225
 20
24.6782720219
 10
-0.6726878599
 20
24.6745588172
 10
-0.6527530606
 20
24.670574091
 10
-0.6330645443
 20
24.6663267606
 10
-0.6136227843
 20
24.6618163055
 10
-0.5944273073
 20
24.6570432461
 10
-0.5755181127
 20
24.6520180619
 10
-0.5568957147
 20
24.646740215
 10
-0.5385595992
 20
24.6412102432
 10
-0.5205482235
 20
24.6354402394
 10
-0.5028744067
 20
24.6294342344
 10
-0.4855253297
 20
24.6231881973
 10
-0.4685009926
 20
24.6167021281
  0
LWPOLYLINE
  5
26E
100
AcDbEntity
  8
0
100
AcDbPolyline
 62
250
  6
CONTINUOUS
 90
55
 70
0
 10
-1.5374696264
 20
24.5808268584
 10
-1.5217185205
 20
24.5884945862
 10
-1.5055891156
 20
24.5959396465
 10
-1.4890814119
 20
24.6031620392
 10
-1.4721820546
 20
24.6101669697
 10
-1.4549043983
 20
24.6169492327
 10
-1.4372885077
 20
24.6234932121
 10
-1.4193339085
 20
24.629798159
 10
-1.401041075
 20
24.6358648223
 10
-1.3824514937
 20
24.641679833
 10
-1.3635645816
 20
24.6472425477
 10
-1.3443809218
 20
24.6525536098
 10
-1.3249437507
 20
24.6576015799
 10
-1.3052525902
 20
24.6623858128
 10
-1.2853079185
 20
24.6669069538
 10
-1.265154406
 20
24.6711554998
 10
-1.2447915939
 20
24.6751308123
 10
-1.2242199412
 20
24.6788335299
 10
-1.2034854951
 20
24.682256065
 10
-1.1825880243
 20
24.6853977494
 10
-1.1615277603
 20
24.6882592512
 10
-1.1403514445
 20
24.6908349874
 10
-1.1190589194
 20
24.6931242988
 10
-1.0976503426
 20
24.6951278445
 10
-1.0761729284
 20
24.6968420191
 10
-1.0546266912
 20
24.6982661668
 10
-1.0330116165
 20
24.6994009433
 10
-1.0113748754
 20
24.7002447102
 10
-0.9897165202
 20
24.7007968281
 10
-0.9680364986
 20
24.7010579364
 10
-0.9463818242
 20
24.7010283146
 10
-0.9247527116
 20
24.7007073385
 10
-0.9031489463
 20
24.7000956323
 10
-0.8816168991
 20
24.6991953485
 10
-0.8601568106
 20
24.6980058797
 10
-0.8387684402
 20
24.6965278332
 10
-0.8174974361
 20
24.6947651835
 10
-0.796344195
 20
24.6927173499
 10
-0.7753083202
 20
24.6903849132
 10
-0.7544342698
 20
24.6877735903
 10
-0.7337225167
 20
24.6848828321
 10
-0.713172588
 20
24.6817131877
 10
-0.6928275225
 20
24.6782720219
 10
-0.6726878599
 20
24.6745588172
 10
-0.6527530606
 20
24.670574091
 10
-0.6330645443
 20
24.6663267606
 10
-0.6136227843
 20
24.6618163055
 10
-0.5944273073
 20
24.6570432461
 10
-0.5755181127
 20
24.6520180619
 10
-0.5568957147
 20
24.646740215
 10
-0.5385595992
 20
24.6412102432
 10
-0.5205482235
 20
24.6354402394
 10
-0.5028744067
 20
24.6294342344
 10
-0.4855253297
 20
24.6231881973
 10
-0.4685009926
 20
24.6167021281
  0
LINE
  5
26F
100
AcDbEntity
  8
ASSI
100
AcDbLine
 62
250
  6
CONTINUOUS
 10
1.2576890935
 20
26.814771798
 11
-0.9750201707
 21
25.7468135423
  0
LINE
  5
270
100
AcDbEntity
  8
ASSI
100
AcDbLine
 62
250
  6
CONTINUOUS
 10
1.3966207676
 20
26.5726819627
 11
-0.7284217258
 21
25.5562232992
  0
LINE
  5
271
100
AcDbEntity
  8
ASSI
100
AcDbLine
 62
7
  6
CONTINUOUS
 10
-1.6739745132
 20
25.6112261889
 11
-2.7746664904
 21
25.0849029155
  0
LWPOLYLINE
  5
272
100
AcDbEntity
  8
RACCORDO
100
AcDbPolyline
 62
250
  6
CONTINUOUS
 90
17
 70
0
 10
-1.6269123455
 20
24.5865072159
 10
-1.6235614885
 20
24.5880805426
 10
-1.6185855791
 20
24.5900610542
 10
-1.6134552608
 20
24.5916942822
 10
-1.6081802996
 20
24.5929771178
 10
-1.6027707367
 20
24.5939071189
 10
-1.5972368694
 20
24.5944825153
 10
-1.5915892318
 20
24.5947022118
 10
-1.5858385746
 20
24.59456579
 10
-1.5799958444
 20
24.5940735097
 10
-1.5740721632
 20
24.593226308
 10
-1.568078807
 20
24.5920257976
 10
-1.5620271845
 20
24.5904742637
 10
-1.5559288155
 20
24.5885746598
 10
-1.5497953083
 20
24.5863306019
 10
-1.5436383386
 20
24.5837463617
 10
-1.5374696264
 20
24.5808268584
  0
LWPOLYLINE
  5
273
100
AcDbEntity
  8
0
100
AcDbPolyline
 62
250
  6
CONTINUOUS
 90
17
 70
0
 10
-1.6269123455
 20
24.5865072159
 10
-1.6235614885
 20
24.5880805426
 10
-1.6185855791
 20
24.5900610542
 10
-1.6134552608
 20
24.5916942822
 10
-1.6081802996
 20
24.5929771178
 10
-1.6027707367
 20
24.5939071189
 10
-1.5972368694
 20
24.5944825153
 10
-1.5915892318
 20
24.5947022118
 10
-1.5858385746
 20
24.59456579
 10
-1.5799958444
 20
24.5940735097
 10
-1.5740721632
 20
24.593226308
 10
-1.568078807
 20
24.5920257976
 10
-1.5620271845
 20
24.5904742637
 10
-1.5559288155
 20
24.5885746598
 10
-1.5497953083
 20
24.5863306019
 10
-1.5436383386
 20
24.5837463617
 10
-1.5374696264
 20
24.5808268584
  0
LINE
  5
274
100
AcDbEntity
  8
ASSI
100
AcDbLine
 62
7
  6
CONTINUOUS
 10
-2.909063923
 20
23.2652135614
 11
-3.5864675372
 21
22.952366124
  0
LINE
  5
275
100
AcDbEntity
  8
ASSI
100
AcDbLine
 62
250
  6
CONTINUOUS
 10
-2.8009382048
 20
23.2563671362
 11
-3.477366037
 21
22.9439703473
  0
LWPOLYLINE
  5
276
100
AcDbEntity
  8
ASSI
100
AcDbPolyline
 62
250
  6
CONTINUOUS
 90
13
 70
0
 10
-5.0038326956
 20
23.2715424004
 10
-5.0235661058
 20
23.2631772928
 10
-5.0452940235
 20
23.256155805
 10
-5.0686528822
 20
23.2505954252
 10
-5.0932518254
 20
23.2465891935
 10
-5.1186792466
 20
23.2442041451
 10
-5.1445096768
 20
23.2434801881
 10
-5.1703109032
 20
23.2444294364
 10
-5.1956512021
 20
23.2470360064
 10
-5.220106562
 20
23.2512562833
 10
-5.243267779
 20
23.2570196504
 10
-5.2647473038
 20
23.2642296711
 10
-5.2841857259
 20
23.2727657023
  0
LWPOLYLINE
  5
277
100
AcDbEntity
  8
ASSI
100
AcDbPolyline
 62
7
  6
CONTINUOUS
 90
3
 70
0
 10
-3.5865372943
 20
22.9523339079
 10
-3.5657404565
 20
22.9591617495
 10
-3.5450068344
 20
22.9613152387
  0
LWPOLYLINE
  5
278
100
AcDbEntity
  8
ASSI
100
AcDbPolyline
 62
250
  6
CONTINUOUS
 90
6
 70
0
 10
2.3711762327
 20
23.8690705668
 10
2.3904317092
 20
23.874909431
 10
2.4110833441
 20
23.8768890752
 10
2.4327894445
 20
23.8749768713
 10
2.4551908549
 20
23.8692045797
 10
2.4779169535
 20
23.8596678219
  0
LWPOLYLINE
  5
279
100
AcDbEntity
  8
RACCORDO
100
AcDbPolyline
 62
7
  6
CONTINUOUS
 90
10
 70
0
 10
-3.9587773382
 20
-23.3835064935
 10
-3.8900504942
 20
-23.4102095701
 10
-3.8222741161
 20
-23.4296135515
 10
-3.7519111926
 20
-23.4431058434
 10
-3.6796159288
 20
-23.4503727071
 10
-3.6058233129
 20
-23.4512467778
 10
-3.5310173971
 20
-23.4456096311
 10
-3.4558337748
 20
-23.4334245741
 10
-3.3806999942
 20
-23.4147300298
 10
-3.306311727
 20
-23.3897364476
  0
LWPOLYLINE
  5
27A
100
AcDbEntity
  8
RACCORDO
100
AcDbPolyline
 62
250
  6
CONTINUOUS
 90
16
 70
0
 10
-4.2835699495
 20
-22.7188029809
 10
-4.2449505153
 20
-22.7340574685
 10
-4.2035187696
 20
-22.747379776
 10
-4.1596761532
 20
-22.7586408208
 10
-4.1138474663
 20
-22.7677314923
 10
-4.0664767526
 20
-22.7745637091
 10
-4.0180229967
 20
-22.7790712723
 10
-3.968955677
 20
-22.7812105074
 10
-3.919750217
 20
-22.7809606868
 10
-3.8708833785
 20
-22.7783242311
 10
-3.8228286425
 20
-22.7733266855
 10
-3.7760516213
 20
-22.7660164721
 10
-3.7310055471
 20
-22.7564644213
 10
-3.6881268806
 20
-22.7447630847
 10
-3.6478310821
 20
-22.731025839
 10
-3.6105085859
 20
-22.7153857873
  0
LWPOLYLINE
  5
27B
100
AcDbEntity
  8
RACCORDO
100
AcDbPolyline
 62
250
  6
CONTINUOUS
 90
14
 70
0
 10
-3.9587004973
 20
-23.3835482283
 10
-4.0003635262
 20
-23.3622811672
 10
-4.0438537254
 20
-23.3335304984
 10
-4.0842895519
 20
-23.2994862455
 10
-4.1214402525
 20
-23.2603354945
 10
-4.1551262887
 20
-23.2162759668
 10
-4.1851902348
 20
-23.1675287938
 10
-4.2114596474
 20
-23.1143542144
 10
-4.2338056557
 20
-23.0570277911
 10
-4.2521288209
 20
-22.9958351045
 10
-4.2663267978
 20
-22.9310812979
 10
-4.2763255291
 20
-22.8630915281
 10
-4.282082418
 20
-22.7922120808
 10
-4.2835699738
 20
-22.7188029748
  0
LWPOLYLINE
  5
27C
100
AcDbEntity
  8
RACCORDO
100
AcDbPolyline
 62
7
  6
CONTINUOUS
 90
10
 70
0
 10
-18.6878886716
 20
-16.0187733078
 10
-17.2132609802
 20
-16.841932118
 10
-15.6333842644
 20
-17.7001914699
 10
-14.0277726745
 20
-18.5485542192
 10
-12.396800444
 20
-19.3868316761
 10
-10.7408389355
 20
-20.2148393728
 10
-9.0602669878
 20
-21.0323994013
 10
-7.35547846
 20
-21.8393357327
 10
-5.6268742329
 20
-22.6354717355
 10
-3.9579439669
 20
-23.3838839477
  0
LINE
  5
27D
100
AcDbEntity
  8
RACCORDO
100
AcDbLine
 62
7
  6
CONTINUOUS
 10
-18.6878878913
 20
-16.0187737492
 11
-18.6876290203
 21
-16.0189200792
  0
LWPOLYLINE
  5
27E
100
AcDbEntity
  8
RACCORDO
100
AcDbPolyline
 62
250
  6
CONTINUOUS
 90
31
 70
0
 10
-18.9837444557
 20
-15.3687157103
 10
-18.5388028381
 20
-15.6205613063
 10
-18.0918419209
 20
-15.8714387121
 10
-17.6428725392
 20
-16.1213445443
 10
-17.1920122943
 20
-16.3702168003
 10
-16.7391662087
 20
-16.6181111515
 10
-16.2840217423
 20
-16.865198964
 10
-15.8264287322
 20
-17.111559145
 10
-15.366548837
 20
-17.3571020492
 10
-14.9045348509
 20
-17.6017452624
 10
-14.4404394673
 20
-17.8454614032
 10
-13.9742274735
 20
-18.088269506
 10
-13.5059220331
 20
-18.3301576935
 10
-13.0354621502
 20
-18.5711573209
 10
-12.5629256266
 20
-18.8112284121
 10
-12.0885470008
 20
-19.0502534607
 10
-11.6126352891
 20
-19.2880816116
 10
-11.1349075896
 20
-19.5248592074
 10
-10.654704938
 20
-19.7609120611
 10
-10.1729566956
 20
-19.9957842314
 10
-9.6887481292
 20
-20.2299221503
 10
-9.198601696
 20
-20.4649814772
 10
-8.7033154639
 20
-20.7005388257
 10
-8.202017751
 20
-20.9369669722
 10
-7.6886064578
 20
-21.1770599683
 10
-7.1627840734
 20
-21.42083697
 10
-6.624610028
 20
-21.6681473045
 10
-6.0683670609
 20
-21.9214576105
 10
-5.4919848115
 20
-22.1815023624
 10
-4.897120411
 20
-22.4473222623
 10
-4.2835699507
 20
-22.7188029609
  0
LWPOLYLINE
  5
27F
100
AcDbEntity
  8
RACCORDO
100
AcDbPolyline
 62
250
  6
CONTINUOUS
 90
9
 70
0
 10
-18.9837343446
 20
-15.3687114238
 10
-19.0142438761
 20
-15.3494016174
 10
-19.040809046
 20
-15.3287257537
 10
-19.0631724643
 20
-15.3068841615
 10
-19.0811174518
 20
-15.284088464
 10
-19.0944701392
 20
-15.2605595288
 10
-19.1031011524
 20
-15.2365253277
 10
-19.1069268654
 20
-15.2122187281
 10
-19.1071268793
 20
-15.2041416743
  0
LWPOLYLINE
  5
280
100
AcDbEntity
  8
RACCORDO
100
AcDbPolyline
 62
250
  6
CONTINUOUS
 90
13
 70
0
 10
-18.9837444492
 20
-15.3687157055
 10
-18.9820611129
 20
-15.4422227067
 10
-18.9759848669
 20
-15.5132618353
 10
-18.9655504188
 20
-15.5814694644
 10
-18.9508226869
 20
-15.6464881474
 10
-18.9318763231
 20
-15.7079924312
 10
-18.9087921063
 20
-15.7656879572
 10
-18.8816934751
 20
-15.8192771452
 10
-18.8507234677
 20
-15.8684773483
 10
-18.8160218049
 20
-15.9130446889
 10
-18.7777766729
 20
-15.9527426552
 10
-18.7361898069
 20
-15.9873624276
 10
-18.6878878913
 20
-16.0187737492
  0
LINE
  5
281
100
AcDbEntity
  8
RACCORDO
100
AcDbLine
 62
7
  6
CONTINUOUS
 10
-1.7001728406
 20
24.5479840219
 11
-3.5608427816
 21
22.9642004853
  0
LINE
  5
282
100
AcDbEntity
  8
0
100
AcDbLine
 62
7
  6
CONTINUOUS
 10
-1.7001728406
 20
24.5479840219
 11
-3.5608427816
 21
22.9642004853
  0
LINE
  5
283
100
AcDbEntity
  8
RACCORDO
100
AcDbLine
 62
7
  6
CONTINUOUS
 10
-3.9195858766
 20
22.6588419716
 11
-3.9957292672
 21
22.5940294835
  0
LINE
  5
284
100
AcDbEntity
  8
0
100
AcDbLine
 62
7
  6
CONTINUOUS
 10
-3.9195858766
 20
22.6588419716
 11
-3.9957292672
 21
22.5940294835
  0
LINE
  5
285
100
AcDbEntity
  8
0
100
AcDbLine
 62
250
  6
CONTINUOUS
 10
-1.6035061429
 20
24.5478086002
 11
-3.3490649418
 21
23.0620065098
  0
LINE
  5
286
100
AcDbEntity
  8
0
100
AcDbLine
 62
250
  6
CONTINUOUS
 10
-3.9211021656
 20
22.5750941793
 11
-3.9347036927
 21
22.5635166962
  0
LWPOLYLINE
  5
287
100
AcDbEntity
  8
RACCORDO
100
AcDbPolyline
 62
7
  6
CONTINUOUS
 90
5
 70
0
 10
-1.7001593929
 20
24.5479955762
 10
-1.6979163139
 20
24.5498114493
 10
-1.6946333755
 20
24.5521602883
 10
-1.6911946911
 20
24.5542749097
 10
-1.6884694458
 20
24.5557286657
  0
LWPOLYLINE
  5
288
100
AcDbEntity
  8
0
100
AcDbPolyline
 62
7
  6
CONTINUOUS
 90
5
 70
0
 10
-1.7001593929
 20
24.5479955762
 10
-1.6979163139
 20
24.5498114493
 10
-1.6946333755
 20
24.5521602883
 10
-1.6911946911
 20
24.5542749097
 10
-1.6884694458
 20
24.5557286657
  0
LINE
  5
289
100
AcDbEntity
  8
ASSI
100
AcDbLine
 62
250
  6
CONTINUOUS
 10
-1.4682718657
 20
21.7202353614
 11
-1.2499258283
 21
21.830250243
  0
LINE
  5
28A
100
AcDbEntity
  8
ASSI
100
AcDbLine
 62
250
  6
CONTINUOUS
 10
-1.2915220944
 20
21.4153870998
 11
-1.073176057
 21
21.5254019813
  0
LINE
  5
28B
100
AcDbEntity
  8
ASSI
100
AcDbLine
 62
250
  6
CONTINUOUS
 10
2.6606028757
 20
23.769901309
 11
-1.2499258283
 21
21.830250243
  0
LINE
  5
28C
100
AcDbEntity
  8
ASSI
100
AcDbLine
 62
250
  6
CONTINUOUS
 10
2.8373526471
 20
23.4650530473
 11
-1.073176057
 21
21.5254019813
  0
LINE
  5
28D
100
AcDbEntity
  8
ASSI
100
AcDbLine
 62
7
  6
CONTINUOUS
 10
-0.8961011252
 20
22.3039485965
 11
2.366819499
 21
23.8671143774
  0
LINE
  5
28E
100
AcDbEntity
  8
ASSI
100
AcDbLine
 62
250
  6
CONTINUOUS
 10
-0.8341341679
 20
22.2729651178
 11
2.4779169535
 21
23.8596678219
  0
LINE
  5
28F
100
AcDbEntity
  8
ASSI
100
AcDbLine
 62
7
  6
CONTINUOUS
 10
2.9391441748
 20
22.8925974958
 11
3.3600227185
 21
23.0942275731
  0
LINE
  5
290
100
AcDbEntity
  8
ASSI
100
AcDbLine
 62
7
  6
CONTINUOUS
 10
3.6379676084
 20
23.4747240844
 11
5.7948830229
 21
24.5077145657
  0
LINE
  5
291
100
AcDbEntity
  8
ASSI
100
AcDbLine
 62
250
  6
CONTINUOUS
 10
3.652389898
 20
23.4331085079
 11
5.883739056
 21
24.5017468167
  0
LINE
  5
292
100
AcDbEntity
  8
RACCORDO
100
AcDbLine
 62
250
  6
CONTINUOUS
 10
12.397313957
 20
27.314877849
 11
6.4789948897
 21
24.5816019774
  0
LINE
  5
293
100
AcDbEntity
  8
0
100
AcDbLine
 62
250
  6
CONTINUOUS
 10
12.397313957
 20
27.314877849
 11
6.4789948897
 21
24.5816019774
  0
LWPOLYLINE
  5
294
100
AcDbEntity
  8
RACCORDO
100
AcDbPolyline
 62
7
  6
CONTINUOUS
 90
81
 70
0
 10
11.9656945319
 20
27.3506715554
 10
6.0451202931
 20
24.6163604778
 10
6.038530487
 20
24.6134056571
 10
6.0314123968
 20
24.6103222192
 10
6.0237583905
 20
24.6071207278
 10
6.0155656915
 20
24.6038137347
 10
6.0068369558
 20
24.600415731
 10
5.9975683973
 20
24.596938275
 10
5.9877577982
 20
24.5933933011
 10
5.9774123068
 20
24.5897958041
 10
5.9665325322
 20
24.5861580983
 10
5.9551176776
 20
24.5824917319
 10
5.9431746991
 20
24.5788103466
 10
5.930706057
 20
24.5751258146
 10
5.9177137792
 20
24.5714497797
 10
5.9042053946
 20
24.567795061
 10
5.89018482
 20
24.564173021
 10
5.8756570868
 20
24.5605951456
 10
5.860632532
 20
24.5570739918
 10
5.8451149714
 20
24.5536201167
 10
5.8291141807
 20
24.5502450551
 10
5.8126510522
 20
24.546962277
 10
5.7957320105
 20
24.5437817967
 10
5.7783698064
 20
24.540714398
 10
5.7605970782
 20
24.5377735713
 10
5.7424262212
 20
24.5349687377
 10
5.7238699623
 20
24.5323089411
 10
5.7049637248
 20
24.5298056154
 10
5.6857228538
 20
24.5274666851
 10
5.666162082
 20
24.5252997429
 10
5.6463176374
 20
24.5233139079
 10
5.6262067197
 20
24.5215153766
 10
5.605846164
 20
24.5199101592
 10
5.5852728684
 20
24.5185050825
 10
5.5645051833
 20
24.5173046204
 10
5.5435618002
 20
24.5163129938
 10
5.5224809931
 20
24.515534757
 10
5.5012812907
 20
24.5149726466
 10
5.4799832942
 20
24.5146289876
 10
5.4586289366
 20
24.5145059164
 10
5.4372380022
 20
24.5146043364
 10
5.4158309523
 20
24.5149245527
 10
5.3944508921
 20
24.5154659334
 10
5.3731182217
 20
24.5162274541
 10
5.3518527193
 20
24.517207483
 10
5.3306962677
 20
24.5184026136
 10
5.3096693102
 20
24.5198098652
 10
5.2887903233
 20
24.5214258066
 10
5.2680975595
 20
24.5232446318
 10
5.24760945
 20
24.5252615843
 10
5.2273442359
 20
24.5274715097
 10
5.2073388658
 20
24.5298663031
 10
5.1876100182
 20
24.5324394229
 10
5.168174505
 20
24.535184099
 10
5.149068105
 20
24.5380899983
 10
5.1303054205
 20
24.5411489637
 10
5.1119012159
 20
24.5443526539
 10
5.0938897225
 20
24.5476885936
 10
5.0762832785
 20
24.5511472573
 10
5.0590938746
 20
24.5547188629
 10
5.0423529091
 20
24.5583890763
 10
5.0260726876
 20
24.5621466601
 10
5.01025926
 20
24.5659813483
 10
4.994932348
 20
24.5698792713
 10
4.9801011598
 20
24.5738286101
 10
4.9657692543
 20
24.5778186071
 10
4.9519462836
 20
24.5818364535
 10
4.9386367114
 20
24.5858706218
 10
4.9258441434
 20
24.5899095689
 10
4.9135757521
 20
24.5939401783
 10
4.9018332997
 20
24.5979507029
 10
4.8906186294
 20
24.6019293039
 10
4.8799378289
 20
24.6058622359
 10
4.8697895475
 20
24.6097380059
 10
4.8601740515
 20
24.6135442701
 10
4.8510979285
 20
24.6172658865
 10
4.842558601
 20
24.6208909487
 10
4.8345518105
 20
24.6244080277
 10
4.8270796016
 20
24.6278026268
 10
4.820138786
 20
24.6310623284
 10
4.8137213981
 20
24.6341767607
  0
LINE
  5
295
100
AcDbEntity
  8
0
100
AcDbLine
 62
7
  6
CONTINUOUS
 10
11.9656945319
 20
27.3506715554
 11
6.049793637
 21
24.6185020171
  0
LWPOLYLINE
  5
296
100
AcDbEntity
  8
0
100
AcDbPolyline
 62
7
  6
CONTINUOUS
 90
81
 70
0
 10
6.0473754646
 20
24.6173956837
 10
6.0451202932
 20
24.6163604778
 10
6.038530487
 20
24.6134056571
 10
6.0314123968
 20
24.6103222193
 10
6.0237583905
 20
24.6071207278
 10
6.0155656915
 20
24.6038137347
 10
6.0068369558
 20
24.600415731
 10
5.9975683973
 20
24.596938275
 10
5.9877577982
 20
24.5933933011
 10
5.9774123068
 20
24.5897958041
 10
5.9665325322
 20
24.5861580983
 10
5.9551176777
 20
24.5824917319
 10
5.9431746991
 20
24.5788103466
 10
5.930706057
 20
24.5751258146
 10
5.9177137793
 20
24.5714497797
 10
5.9042053946
 20
24.5677950611
 10
5.8901848201
 20
24.564173021
 10
5.8756570868
 20
24.5605951456
 10
5.8606325321
 20
24.5570739918
 10
5.8451149714
 20
24.5536201167
 10
5.8291141807
 20
24.5502450551
 10
5.8126510522
 20
24.546962277
 10
5.7957320106
 20
24.5437817967
 10
5.7783698064
 20
24.540714398
 10
5.7605970782
 20
24.5377735713
 10
5.7424262212
 20
24.5349687377
 10
5.7238699623
 20
24.5323089411
 10
5.7049637248
 20
24.5298056154
 10
5.6857228539
 20
24.5274666851
 10
5.666162082
 20
24.5252997429
 10
5.6463176374
 20
24.5233139079
 10
5.6262067197
 20
24.5215153766
 10
5.605846164
 20
24.5199101592
 10
5.5852728684
 20
24.5185050825
 10
5.5645051833
 20
24.5173046204
 10
5.5435618002
 20
24.5163129938
 10
5.5224809931
 20
24.515534757
 10
5.5012812907
 20
24.5149726466
 10
5.4799832942
 20
24.5146289876
 10
5.4586289366
 20
24.5145059164
 10
5.4372380022
 20
24.5146043364
 10
5.4158309523
 20
24.5149245527
 10
5.3944508921
 20
24.5154659334
 10
5.3731182217
 20
24.5162274541
 10
5.3518527193
 20
24.517207483
 10
5.3306962677
 20
24.5184026136
 10
5.3096693102
 20
24.5198098652
 10
5.2887903233
 20
24.5214258066
 10
5.2680975595
 20
24.5232446318
 10
5.24760945
 20
24.5252615843
 10
5.2273442359
 20
24.5274715097
 10
5.2073388658
 20
24.5298663031
 10
5.1876100182
 20
24.5324394229
 10
5.168174505
 20
24.535184099
 10
5.149068105
 20
24.5380899983
 10
5.1303054205
 20
24.5411489637
 10
5.1119012159
 20
24.5443526539
 10
5.0938897225
 20
24.5476885936
 10
5.0762832785
 20
24.5511472573
 10
5.0590938746
 20
24.5547188629
 10
5.0423529091
 20
24.5583890763
 10
5.0260726876
 20
24.5621466601
 10
5.01025926
 20
24.5659813483
 10
4.994932348
 20
24.5698792713
 10
4.9801011597
 20
24.5738286101
 10
4.9657692543
 20
24.5778186071
 10
4.9519462836
 20
24.5818364535
 10
4.9386367114
 20
24.5858706218
 10
4.9258441434
 20
24.5899095689
 10
4.9135757521
 20
24.5939401783
 10
4.9018332997
 20
24.5979507029
 10
4.8906186294
 20
24.6019293039
 10
4.8799378289
 20
24.6058622359
 10
4.8697895475
 20
24.6097380059
 10
4.8601740515
 20
24.6135442701
 10
4.8510979285
 20
24.6172658865
 10
4.842558601
 20
24.6208909487
 10
4.8345518105
 20
24.6244080277
 10
4.8270796016
 20
24.6278026268
 10
4.820138786
 20
24.6310623284
 10
4.8137213981
 20
24.6341767607
  0
LWPOLYLINE
  5
297
100
AcDbEntity
  8
ASSI
100
AcDbPolyline
 62
250
  6
CONTINUOUS
 90
7
 70
0
 10
5.7948916113
 20
24.5077186782
 10
5.797937266
 20
24.5090965982
 10
5.813394437
 20
24.5138724295
 10
5.8299875519
 20
24.5155268093
 10
5.8474389387
 20
24.514031988
 10
5.8654566073
 20
24.5094129144
 10
5.8837390546
 20
24.5017468161
  0
LWPOLYLINE
  5
298
100
AcDbEntity
  8
RACCORDO
100
AcDbPolyline
 62
250
  6
CONTINUOUS
 90
6
 70
0
 10
6.4789948897
 20
24.5816019774
 10
6.4535770923
 20
24.5701352683
 10
6.4275772593
 20
24.5589601731
 10
6.4009953908
 20
24.5480766919
 10
6.3738119476
 20
24.5374750357
 10
6.3460464688
 20
24.5271649934
  0
LWPOLYLINE
  5
299
100
AcDbEntity
  8
0
100
AcDbPolyline
 62
250
  6
CONTINUOUS
 90
6
 70
0
 10
6.4789948897
 20
24.5816019774
 10
6.4535770923
 20
24.5701352683
 10
6.4275772593
 20
24.5589601731
 10
6.4009953908
 20
24.5480766919
 10
6.3738119476
 20
24.5374750357
 10
6.3460464688
 20
24.5271649934
  0
LINE
  5
29A
100
AcDbEntity
  8
ASSI
100
AcDbLine
 62
250
  6
CONTINUOUS
 10
2.3668196949
 20
23.8671144712
 11
2.3711762327
 21
23.8690705668
  0
LINE
  5
29B
100
AcDbEntity
  8
0
100
AcDbLine
 62
250
  6
CONTINUOUS
 10
11.9695714117
 20
27.3523996814
 11
11.9656945319
 21
27.3506715554
  0
LWPOLYLINE
  5
29C
100
AcDbEntity
  8
RACCORDO
100
AcDbPolyline
 62
7
  6
CONTINUOUS
 90
34
 70
0
 10
11.9656945319
 20
27.3506715554
 10
11.9900536511
 20
27.3615296761
 10
12.014727041
 20
27.3717476506
 10
12.0396940574
 20
27.3813140061
 10
12.0649433467
 20
27.3902214323
 10
12.0904434687
 20
27.3984562913
 10
12.1161426098
 20
27.4060014518
 10
12.1418446188
 20
27.4128080457
 10
12.1676986639
 20
27.4189245129
 10
12.1941765199
 20
27.4244435567
 10
12.2216424445
 20
27.4293853486
 10
12.2496917347
 20
27.4336211908
 10
12.2776432518
 20
27.43703744
 10
12.3051619678
 20
27.4396239798
 10
12.332532465
 20
27.4414380234
 10
12.3600025798
 20
27.442502172
 10
12.3875963518
 20
27.4428105473
 10
12.415239995
 20
27.4423558445
 10
12.4430327302
 20
27.4411271128
 10
12.4711599652
 20
27.4390929889
 10
12.4993789072
 20
27.4362481041
 10
12.5271571626
 20
27.4326542438
 10
12.5540480002
 20
27.428417217
 10
12.5804802544
 20
27.4235162906
 10
12.6072282848
 20
27.4178025496
 10
12.6347854016
 20
27.4111083043
 10
12.6625741783
 20
27.403510464
 10
12.6897708543
 20
27.3952311313
 10
12.7159413577
 20
27.3864559251
 10
12.7415274898
 20
27.3770886088
 10
12.7670335517
 20
27.3669513799
 10
12.7927342382
 20
27.3559026851
 10
12.8182978743
 20
27.3440518935
 10
12.8321895289
 20
27.337239833
  0
LWPOLYLINE
  5
29D
100
AcDbEntity
  8
0
100
AcDbPolyline
 62
7
  6
CONTINUOUS
 90
34
 70
0
 10
11.9695714117
 20
27.3523996814
 10
11.9900536511
 20
27.3615296761
 10
12.014727041
 20
27.3717476506
 10
12.0396940574
 20
27.3813140061
 10
12.0649433467
 20
27.3902214323
 10
12.0904434687
 20
27.3984562913
 10
12.1161426098
 20
27.4060014518
 10
12.1418446188
 20
27.4128080457
 10
12.1676986639
 20
27.4189245129
 10
12.1941765199
 20
27.4244435567
 10
12.2216424445
 20
27.4293853486
 10
12.2496917347
 20
27.4336211908
 10
12.2776432518
 20
27.43703744
 10
12.3051619678
 20
27.4396239798
 10
12.332532465
 20
27.4414380234
 10
12.3600025798
 20
27.442502172
 10
12.3875963518
 20
27.4428105473
 10
12.415239995
 20
27.4423558445
 10
12.4430327302
 20
27.4411271128
 10
12.4711599652
 20
27.4390929889
 10
12.4993789072
 20
27.4362481041
 10
12.5271571626
 20
27.4326542438
 10
12.5540480002
 20
27.428417217
 10
12.5804802544
 20
27.4235162906
 10
12.6072282848
 20
27.4178025496
 10
12.6347854016
 20
27.4111083043
 10
12.6625741783
 20
27.403510464
 10
12.6897708543
 20
27.3952311313
 10
12.7159413577
 20
27.3864559251
 10
12.7415274898
 20
27.3770886088
 10
12.7670335517
 20
27.3669513799
 10
12.7927342382
 20
27.3559026851
 10
12.8182978743
 20
27.3440518935
 10
12.8249033472
 20
27.3407851271
  0
LINE
  5
29E
100
AcDbEntity
  8
ASSI
100
AcDbLine
 62
7
  6
CONTINUOUS
 10
5.847911664
 20
24.5308219265
 11
5.7948984117
 21
24.5077044795
  0
LWPOLYLINE
  5
29F
100
AcDbEntity
  8
ASSI
100
AcDbPolyline
 62
250
  6
CONTINUOUS
 90
10
 70
0
 10
5.883739056
 20
24.5017468167
 10
5.9359091116
 20
24.5243885732
 10
5.9876741232
 20
24.5421642223
 10
6.0387505112
 20
24.5549767577
 10
6.088856715
 20
24.5627571297
 10
6.1377190948
 20
24.5654626172
 10
6.185073414
 20
24.5630769708
 10
6.2306584011
 20
24.5556142686
 10
6.2742234368
 20
24.5431157474
 10
6.3163878768
 20
24.5252221762
  0
LWPOLYLINE
  5
2A0
100
AcDbEntity
  8
ASSI
100
AcDbPolyline
 62
250
  6
CONTINUOUS
 90
31
 70
0
 10
2.4779169535
 20
23.8596678219
 10
2.4879693889
 20
23.8639715685
 10
2.4986656243
 20
23.8676737571
 10
2.5100056597
 20
23.8707743877
 10
2.5221301127
 20
23.8732958836
 10
2.5348983656
 20
23.8752158216
 10
2.5478885663
 20
23.8764669312
 10
2.5611033795
 20
23.8770257049
 10
2.5745401405
 20
23.8769156503
 10
2.5877690028
 20
23.8761400206
 10
2.6007832587
 20
23.8746771399
 10
2.613589616
 20
23.8725486841
 10
2.6257783519
 20
23.8698229341
 10
2.6373294954
 20
23.8664806271
 10
2.6482630176
 20
23.8625410258
 10
2.6582291085
 20
23.8581301989
 10
2.6671964137
 20
23.8532328926
 10
2.6751962876
 20
23.8478643606
 10
2.6819729836
 20
23.8421964329
 10
2.6874870486
 20
23.8362194593
 10
2.6917779358
 20
23.82994309
 10
2.6947082576
 20
23.823568105
 10
2.6962336992
 20
23.8170913458
 10
2.6963985756
 20
23.8105159709
 10
2.6951984435
 20
23.8040522367
 10
2.6925844409
 20
23.7977010987
 10
2.68860543
 20
23.7914616015
 10
2.6834035537
 20
23.7855411349
 10
2.6770261931
 20
23.780008829
 10
2.6694259671
 20
23.7747955536
 10
2.6606028757
 20
23.769901309
  0
LINE
  5
2A1
100
AcDbEntity
  8
ASSI
100
AcDbLine
 62
7
  6
CONTINUOUS
 10
2.3990396254
 20
23.8807872381
 11
2.3667358099
 21
23.8670644597
  0
LINE
  5
2A2
100
AcDbEntity
  8
RACCORDO
100
AcDbLine
 62
250
  6
CONTINUOUS
 10
6.3460464688
 20
24.5271649934
 11
6.3263864779
 21
24.5202228757
  0
LINE
  5
2A3
100
AcDbEntity
  8
0
100
AcDbLine
 62
250
  6
CONTINUOUS
 10
6.3460464688
 20
24.5271649934
 11
6.3263864779
 21
24.5202228757
  0
LWPOLYLINE
  5
2A4
100
AcDbEntity
  8
ASSI
100
AcDbPolyline
 62
7
  6
CONTINUOUS
 90
3
 70
0
 10
0.9254304025
 20
21.138607175
 10
0.9420678727
 20
21.1440694483
 10
0.9586547704
 20
21.1457922396
  0
LINE
  5
2A5
100
AcDbEntity
  8
ASSI
100
AcDbLine
 62
250
  6
CONTINUOUS
 10
3.8163979532
 20
-21.5493475099
 11
3.2755306473
 21
-21.4401445147
  0
LINE
  5
2A6
100
AcDbEntity
  8
ASSI
100
AcDbLine
 62
250
  6
CONTINUOUS
 10
3.743291526
 20
-21.2945366015
 11
3.2755306473
 21
-21.200094049
  0
LWPOLYLINE
  5
2A7
100
AcDbEntity
  8
ASSI
100
AcDbPolyline
 62
7
  6
CONTINUOUS
 90
4
 70
0
 10
2.0594199496
 20
-21.6890047411
 10
2.0818163034
 20
-21.6942421054
 10
2.1061883759
 20
-21.700150437
 10
2.1597734013
 20
-21.7133028194
  0
LWPOLYLINE
  5
2A8
100
AcDbEntity
  8
ASSI
100
AcDbPolyline
 62
7
  6
CONTINUOUS
 90
9
 70
0
 10
2.1597734013
 20
-21.7133028194
 10
2.1883178114
 20
-21.7201413123
 10
2.2171446589
 20
-21.7269230858
 10
2.2459582685
 20
-21.7332551899
 10
2.2743727404
 20
-21.738925649
 10
2.3015751747
 20
-21.7439954154
 10
2.3271469056
 20
-21.7482890475
 10
2.3510405488
 20
-21.7514008078
 10
2.3730798966
 20
-21.7530693454
  0
LWPOLYLINE
  5
2A9
100
AcDbEntity
  8
ASSI
100
AcDbPolyline
 62
250
  6
CONTINUOUS
 90
13
 70
0
 10
1.3379328277
 20
-22.9831265989
 10
1.3573712498
 20
-22.9916626302
 10
1.3788507746
 20
-22.9988726509
 10
1.4020119916
 20
-23.004636018
 10
1.4264673515
 20
-23.0088562948
 10
1.4518076504
 20
-23.0114628648
 10
1.4776088768
 20
-23.0124121131
 10
1.503439307
 20
-23.0116881561
 10
1.5288667282
 20
-23.0093031077
 10
1.5534656714
 20
-23.0052968761
 10
1.5768245301
 20
-22.9997364963
 10
1.5985524478
 20
-22.9927150084
 10
1.618285858
 20
-22.9843499008
  0
LWPOLYLINE
  5
2AA
100
AcDbEntity
  8
ASSI
100
AcDbPolyline
 62
250
  6
CONTINUOUS
 90
13
 70
0
 10
1.3379328277
 20
-22.6658577985
 10
1.357371266
 20
-22.6743938361
 10
1.3788508068
 20
-22.68160386
 10
1.4020120384
 20
-22.6873672276
 10
1.4264674102
 20
-22.6915875027
 10
1.4518077172
 20
-22.6941940693
 10
1.4776089469
 20
-22.6951433133
 10
1.5034393749
 20
-22.6944193519
 10
1.528866789
 20
-22.6920342998
 10
1.5534657207
 20
-22.6880280661
 10
1.5768245645
 20
-22.6824676864
 10
1.5985524652
 20
-22.6754462016
 10
1.618285858
 20
-22.6670811004
  0
LWPOLYLINE
  5
2AB
100
AcDbEntity
  8
ASSI
100
AcDbPolyline
 62
7
  6
CONTINUOUS
 90
10
 70
0
 10
1.4028544444
 20
-23.1183178425
 10
1.4153113496
 20
-23.1240881652
 10
1.4366466714
 20
-23.1318953364
 10
1.4588254457
 20
-23.1374894792
 10
1.4816114071
 20
-23.1407746721
 10
1.5048440096
 20
-23.1416827247
 10
1.5282743154
 20
-23.1401526658
 10
1.5515662876
 20
-23.1361763214
 10
1.5744901106
 20
-23.1297776192
 10
1.5983222204
 20
-23.1203227754
  0
LINE
  5
2AC
100
AcDbEntity
  8
ASSI
100
AcDbLine
 62
7
  6
CONTINUOUS
 10
1.4031331999
 20
-23.1184585869
 11
-0.3238726976
 21
-22.2549556382
  0
LINE
  5
2AD
100
AcDbEntity
  8
ASSI
100
AcDbLine
 62
250
  6
CONTINUOUS
 10
1.3379328277
 20
-22.9831265989
 11
-0.2071970681
 21
-22.210561651
  0
LINE
  5
2AE
100
AcDbEntity
  8
ASSI
100
AcDbLine
 62
250
  6
CONTINUOUS
 10
1.3379328277
 20
-22.6658577985
 11
0.4024643094
 21
-22.1981235394
  0
LINE
  5
2AF
100
AcDbEntity
  8
ASSI
100
AcDbLine
 62
250
  6
CONTINUOUS
 10
0.2089000233
 20
-22.1013413963
 11
0.1282690324
 21
-22.0610259009
  0
LINE
  5
2B0
100
AcDbEntity
  8
ASSI
100
AcDbLine
 62
250
  6
CONTINUOUS
 10
1.4266297402
 20
-22.4343179071
 11
0.6439457659
 21
-22.04297592
  0
LWPOLYLINE
  5
2B1
100
AcDbEntity
  8
ASSI
100
AcDbPolyline
 62
250
  6
CONTINUOUS
 90
16
 70
0
 10
1.4028569476
 20
-23.1183198959
 10
1.3961215919
 20
-23.1145726435
 10
1.3885170202
 20
-23.1094089992
 10
1.3813576859
 20
-23.1034823262
 10
1.374675693
 20
-23.0968187996
 10
1.3684886299
 20
-23.089435563
 10
1.3628222549
 20
-23.0813619431
 10
1.3576974333
 20
-23.0726276868
 10
1.3531315585
 20
-23.063262508
 10
1.3491414046
 20
-23.0533004576
 10
1.3457410171
 20
-23.0427766439
 10
1.3429424783
 20
-23.0317286269
 10
1.3407560597
 20
-23.0201975207
 10
1.3391892796
 20
-23.0082251147
 10
1.3382471981
 20
-22.9958534594
 10
1.3379328277
 20
-22.9831265989
  0
LWPOLYLINE
  5
2B2
100
AcDbEntity
  8
RACCORDO
100
AcDbPolyline
 62
7
  6
CONTINUOUS
 90
14
 70
0
 10
-19.1071268793
 20
-15.2041416743
 10
-19.1071177038
 20
-15.2265653072
 10
-19.1024589552
 20
-15.3223080865
 10
-19.0903948855
 20
-15.4144404678
 10
-19.0709782746
 20
-15.5030140751
 10
-19.044383694
 20
-15.5874127083
 10
-19.0112363615
 20
-15.6662352811
 10
-18.9723501259
 20
-15.7386813984
 10
-18.9280439129
 20
-15.8050952866
 10
-18.8785191165
 20
-15.865644473
 10
-18.8244023173
 20
-15.9199257168
 10
-18.7662632942
 20
-15.9677547084
 10
-18.7041284023
 20
-16.0093163791
 10
-18.6876465545
 20
-16.0189101638
  0
LWPOLYLINE
  5
2B3
100
AcDbEntity
  8
RACCORDO
100
AcDbPolyline
 62
7
  6
CONTINUOUS
 90
10
 70
0
 10
-17.565640856
 20
21.5910584637
 10
-17.8543174678
 20
17.5053511163
 10
-18.117900815
 20
13.3600749839
 10
-18.3509854322
 20
9.2279052364
 10
-18.553530457
 20
5.1092771278
 10
-18.7255164558
 20
1.0045472314
 10
-18.8669293772
 20
-3.0859577472
 10
-18.9777582021
 20
-7.1618851365
 10
-19.0580074612
 20
-11.2228206063
 10
-19.1071347614
 20
-15.2040951671
  0
LWPOLYLINE
  5
2B4
100
AcDbEntity
  8
RACCORDO
100
AcDbPolyline
 62
250
  6
CONTINUOUS
 90
10
 70
0
 10
-17.4420210634
 20
21.4314882087
 10
-17.7369270509
 20
17.2903289479
 10
-18.0010028126
 20
13.1612134687
 10
-18.2342106941
 20
9.0445225866
 10
-18.4365255177
 20
4.9404508275
 10
-18.6079110011
 20
0.8495606
 10
-18.7483283417
 20
-3.2272218104
 10
-18.8577671782
 20
-7.2893452918
 10
-18.9362370295
 20
-11.3366304402
 10
-18.9837444557
 20
-15.3687157103
  0
LWPOLYLINE
  5
2B5
100
AcDbEntity
  8
ASSI
100
AcDbPolyline
 62
7
  6
CONTINUOUS
 90
9
 70
0
 10
3.6386485705
 20
23.4750909892
 10
3.6370063351
 20
23.4740635256
 10
3.6334523945
 20
23.4700936848
 10
3.629961415
 20
23.4638184706
 10
3.6266011645
 20
23.4550741848
 10
3.6234811078
 20
23.4440333097
 10
3.6208043153
 20
23.4313328857
 10
3.6186806934
 20
23.4171887672
 10
3.6171117142
 20
23.401394009
  0
LWPOLYLINE
  5
2B6
100
AcDbEntity
  8
ASSI
100
AcDbPolyline
 62
7
  6
CONTINUOUS
 90
12
 70
0
 10
-0.6458869418
 20
20.2910095377
 10
-0.6571825751
 20
20.2845237163
 10
-0.6794736208
 20
20.2691817683
 10
-0.7003709861
 20
20.2511877204
 10
-0.719563313
 20
20.2307401407
 10
-0.7363380157
 20
20.2087128596
 10
-0.7510009233
 20
20.1848320216
 10
-0.7634772387
 20
20.1590143365
 10
-0.7731156809
 20
20.1325628218
 10
-0.7799228002
 20
20.1058089124
 10
-0.7840193724
 20
20.0780039508
 10
-0.7851470882
 20
20.0539463463
  0
LWPOLYLINE
  5
2B7
100
AcDbEntity
  8
ASSI
100
AcDbPolyline
 62
250
  6
CONTINUOUS
 90
12
 70
0
 10
-0.5534833378
 20
20.2868881165
 10
-0.5619453524
 20
20.2821955002
 10
-0.5706271708
 20
20.2768582648
 10
-0.579504106
 20
20.2708461128
 10
-0.5885689333
 20
20.2641146356
 10
-0.597767602
 20
20.2566531021
 10
-0.6070019605
 20
20.2484975624
 10
-0.6162354642
 20
20.2396414832
 10
-0.6254282243
 20
20.2300828494
 10
-0.6344799775
 20
20.2198922519
 10
-0.6433509987
 20
20.209086678
 10
-0.6520013905
 20
20.1976857233
  0
LINE
  5
2B8
100
AcDbEntity
  8
ASSI
100
AcDbLine
 62
7
  6
CONTINUOUS
 10
-1.073176057
 20
20.3562347112
 11
-1.2915220944
 21
20.2370331915
  0
LINE
  5
2B9
100
AcDbEntity
  8
ASSI
100
AcDbLine
 62
7
  6
CONTINUOUS
 10
0.9212205315
 20
21.1365002802
 11
-0.6459799587
 21
20.2909596615
  0
LINE
  5
2BA
100
AcDbEntity
  8
ASSI
100
AcDbLine
 62
250
  6
CONTINUOUS
 10
1.0127674084
 20
21.1319163265
 11
-0.5534833378
 21
20.2868881165
  0
LINE
  5
2BB
100
AcDbEntity
  8
0
100
AcDbLine
 62
7
  6
CONTINUOUS
 10
10.2589926941
 20
24.0669054633
 11
14.4753724719
 21
26.21221508
  0
LINE
  5
2BC
100
AcDbEntity
  8
ASSI
100
AcDbLine
 62
7
  6
CONTINUOUS
 10
0.9212639659
 20
21.1365236706
 11
0.9254304025
 21
21.138607175
  0
LINE
  5
2BD
100
AcDbEntity
  8
ASSI
100
AcDbLine
 62
7
  6
CONTINUOUS
 10
-1.073176057
 20
20.3562347112
 11
2.8251858835
 21
22.2898509728
  0
LINE
  5
2BE
100
AcDbEntity
  8
0
100
AcDbLine
 62
7
  6
CONTINUOUS
 10
13.4380804588
 20
26.7944945981
 11
9.8650067603
 21
25.0890612813
  0
LINE
  5
2BF
100
AcDbEntity
  8
ASSI
100
AcDbLine
 62
7
  6
CONTINUOUS
 10
8.7370743383
 20
23.0750791756
 11
3.3723230661
 21
20.5341003525
  0
LINE
  5
2C0
100
AcDbEntity
  8
ASSI
100
AcDbLine
 62
250
  6
CONTINUOUS
 10
1.5554954234
 20
21.3825661093
 11
1.0127674084
 21
21.1319163265
  0
LINE
  5
2C1
100
AcDbEntity
  8
ASSI
100
AcDbLine
 62
7
  6
CONTINUOUS
 10
1.4694099199
 20
21.3898344256
 11
0.9254862082
 21
21.1386329479
  0
LWPOLYLINE
  5
2C2
100
AcDbEntity
  8
ASSI
100
AcDbPolyline
 62
250
  6
CONTINUOUS
 90
13
 70
0
 10
1.618285858
 20
18.9497918393
 10
1.5985524478
 20
18.9414267317
 10
1.5768245301
 20
18.9344052439
 10
1.5534656714
 20
18.9288448641
 10
1.5288667282
 20
18.9248386324
 10
1.503439307
 20
18.922453584
 10
1.4776088768
 20
18.921729627
 10
1.4518076504
 20
18.9226788753
 10
1.4264673515
 20
18.9252854453
 10
1.4020119916
 20
18.9295057222
 10
1.3788507746
 20
18.9352690893
 10
1.3573712498
 20
18.94247911
 10
1.3379328277
 20
18.9510151412
  0
LWPOLYLINE
  5
2C3
100
AcDbEntity
  8
DRAFT
100
AcDbPolyline
 62
7
  6
CONTINUOUS
 90
8
 70
0
 10
0.8713675913
 20
-18.7162717759
 10
0.918534673
 20
-18.7369832938
 10
0.9645164312
 20
-18.751884152
 10
1.0093128658
 20
-18.7609743503
 10
1.0533574523
 20
-18.7642165243
 10
1.0962167153
 20
-18.7616480385
 10
1.1365902283
 20
-18.753380987
 10
1.17605054
 20
-18.7384989096
  0
LWPOLYLINE
  5
2C4
100
AcDbEntity
  8
ASSI
100
AcDbPolyline
 62
250
  6
CONTINUOUS
 90
3
 70
0
 10
3.7663275142
 20
-21.3024500565
 10
3.7603812684
 20
-21.2997541644
 10
3.7432922652
 20
-21.2945369869
  0
LINE
  5
2C5
100
AcDbEntity
  8
ASSI
100
AcDbLine
 62
7
  6
CONTINUOUS
 10
0.2350838194
 20
-21.3636002694
 11
0.4024643094
 21
-21.4472905145
  0
LINE
  5
2C6
100
AcDbEntity
  8
ASSI
100
AcDbLine
 62
7
  6
CONTINUOUS
 10
0.2589363061
 20
-20.7942527566
 11
0.3697408421
 21
-20.8496550246
  0
LINE
  5
2C7
100
AcDbEntity
  8
ASSI
100
AcDbLine
 62
7
  6
CONTINUOUS
 10
1.29563166
 20
-21.3126004335
 11
2.0226386087
 21
-21.6761039079
  0
LINE
  5
2C8
100
AcDbEntity
  8
ASSI
100
AcDbLine
 62
7
  6
CONTINUOUS
 10
0.729946235
 20
-20.4039246961
 11
1.29563166
 21
-20.6867674086
  0
LINE
  5
2C9
100
AcDbEntity
  8
ASSI
100
AcDbLine
 62
7
  6
CONTINUOUS
 10
2.0226386087
 20
-20.9821911806
 11
2.2228147877
 21
-21.0822792701
  0
LINE
  5
2CA
100
AcDbEntity
  8
ASSI
100
AcDbLine
 62
250
  6
CONTINUOUS
 10
3.2755306473
 20
-21.0606650123
 11
3.743291526
 21
-21.2945366015
  0
LINE
  5
2CB
100
AcDbEntity
  8
ASSI
100
AcDbLine
 62
7
  6
CONTINUOUS
 10
3.7665669323
 20
-21.3025693151
 11
3.2755306473
 21
-21.0570511723
  0
LWPOLYLINE
  5
2CC
100
AcDbEntity
  8
ASSI
100
AcDbPolyline
 62
250
  6
CONTINUOUS
 90
13
 70
0
 10
1.4266297402
 20
-22.4343179071
 10
1.4453428227
 20
-22.4447554792
 10
1.4649357547
 20
-22.456956336
 10
1.4850770049
 20
-22.470714027
 10
1.5054257639
 20
-22.485795759
 10
1.5256377111
 20
-22.5019463344
 10
1.5453708408
 20
-22.5188924699
 10
1.5642912493
 20
-22.5363474205
 10
1.582078785
 20
-22.5540158316
 10
1.5984324657
 20
-22.5715987366
 10
1.6130755713
 20
-22.5887986158
 10
1.6257603263
 20
-22.6053244305
 10
1.6362720924
 20
-22.6208965481
  0
LWPOLYLINE
  5
2CD
100
AcDbEntity
  8
ASSI
100
AcDbPolyline
 62
7
  6
CONTINUOUS
 90
16
 70
0
 10
2.7480269683
 20
22.733629034
 10
2.7714653153
 20
22.7553564367
 10
2.7916870028
 20
22.7805815693
 10
2.8086920308
 20
22.8093044319
 10
2.8225828139
 20
22.8418528721
 10
2.8332569376
 20
22.8778990423
 10
2.8404071582
 20
22.9164593992
 10
2.8439310612
 20
22.9577075853
 10
2.8439310612
 20
23.0014699581
 10
2.8404071582
 20
23.0462420472
 10
2.8332569376
 20
23.0919526247
 10
2.8225828139
 20
23.1386729185
 10
2.8086920308
 20
23.1851121419
 10
2.7916870028
 20
23.2308400325
 10
2.7714653153
 20
23.2762868526
 10
2.7480269683
 20
23.3214526023
  0
LINE
  5
2CE
100
AcDbEntity
  8
ASSI
100
AcDbLine
 62
7
  6
CONTINUOUS
 10
0.17543661
 20
19.1726811948
 11
0.2089000233
 21
19.1982627431
  0
LWPOLYLINE
  5
2CF
100
AcDbEntity
  8
ASSI
100
AcDbPolyline
 62
250
  6
CONTINUOUS
 90
7
 70
0
 10
3.8337670578
 20
20.0616933415
 10
3.8504972589
 20
20.0715600372
 10
3.8645402279
 20
20.0824239869
 10
3.875660987
 20
20.0941034082
 10
3.8836734547
 20
20.1064028735
 10
3.8884435595
 20
20.1191165803
 10
3.8898990978
 20
20.1311591785
  0
LWPOLYLINE
  5
2D0
100
AcDbEntity
  8
ASSI
100
AcDbPolyline
 62
250
  6
CONTINUOUS
 90
7
 70
0
 10
3.8337670578
 20
19.7217497467
 10
3.850497273
 20
19.7316164518
 10
3.8645402487
 20
19.7424804106
 10
3.8756610083
 20
19.75415984
 10
3.8836734716
 20
19.7664593116
 10
3.8884435685
 20
19.7791730222
 10
3.8898990978
 20
19.7912155837
  0
LWPOLYLINE
  5
2D1
100
AcDbEntity
  8
ASSI
100
AcDbPolyline
 62
250
  6
CONTINUOUS
 90
28
 70
0
 10
1.5122307036
 20
19.2540310958
 10
1.5031089784
 20
19.2490210209
 10
1.4938355144
 20
19.2433359064
 10
1.4844385794
 20
19.2369573618
 10
1.4749289652
 20
19.2298541063
 10
1.4653620347
 20
19.2220274451
 10
1.4558347773
 20
19.2135239176
 10
1.4463835798
 20
19.2043494458
 10
1.4370471217
 20
19.194514158
 10
1.4279211312
 20
19.1840973503
 10
1.4190444469
 20
19.1731297037
 10
1.4104492596
 20
19.1616368802
 10
1.4022116634
 20
19.1497115491
 10
1.3943690796
 20
19.1374075932
 10
1.386940376
 20
19.1247544199
 10
1.3799644578
 20
19.1118185719
 10
1.3734686492
 20
19.0986558316
 10
1.3674682054
 20
19.0853026809
 10
1.3619797054
 20
19.0717990014
 10
1.3570207457
 20
19.058190746
 10
1.3526075759
 20
19.0445255235
 10
1.3487532225
 20
19.030845708
 10
1.3454703855
 20
19.0171982607
 10
1.3427697069
 20
19.0036297913
 10
1.3406593321
 20
18.9901819367
 10
1.3391464403
 20
18.9768991988
 10
1.3382365386
 20
18.9638286712
 10
1.3379328277
 20
18.9510151412
  0
LINE
  5
2D2
100
AcDbEntity
  8
ASSI
100
AcDbLine
 62
7
  6
CONTINUOUS
 10
3.2755306473
 20
18.1818813591
 11
2.3730798966
 21
17.6892069682
  0
LINE
  5
2D3
100
AcDbEntity
  8
ASSI
100
AcDbLine
 62
250
  6
CONTINUOUS
 10
3.3112493236
 20
18.164022021
 11
2.2228147877
 21
17.5794994148
  0
LWPOLYLINE
  5
2D4
100
AcDbEntity
  8
ASSI
100
AcDbPolyline
 62
250
  6
CONTINUOUS
 90
28
 70
0
 10
1.6536305207
 20
19.0101524865
 10
1.6517702745
 20
19.0091683199
 10
1.6498917543
 20
19.0080429829
 10
1.64799496
 20
19.0067764754
 10
1.6460686173
 20
19.0053661635
 10
1.6441240005
 20
19.0038146811
 10
1.6421949328
 20
19.0021299305
 10
1.6402813255
 20
19.0003069744
 10
1.6383832674
 20
18.99835075
 10
1.636534848
 20
18.9962839706
 10
1.6347379846
 20
18.9941035273
 10
1.6329907599
 20
18.9918125291
 10
1.6313215118
 20
18.9894430162
 10
1.6297336688
 20
18.98699548
 10
1.6282238025
 20
18.9844694293
 10
1.6268099651
 20
18.9818954296
 10
1.6254944456
 20
18.9792748518
 10
1.6242749552
 20
18.9766063251
 10
1.6231626794
 20
18.9739163035
 10
1.6221585326
 20
18.9712045617
 10
1.6212616005
 20
18.968471325
 10
1.6204803262
 20
18.9657437231
 10
1.6198157656
 20
18.9630218682
 10
1.6192668629
 20
18.9603056481
 10
1.6188388932
 20
18.9576218559
 10
1.6185336151
 20
18.9549794225
 10
1.61834927
 20
18.952369417
 10
1.618285858
 20
18.9497918393
  0
LINE
  5
2D5
100
AcDbEntity
  8
ASSI
100
AcDbLine
 62
7
  6
CONTINUOUS
 10
9.9509999484
 20
22.1059668691
 11
3.5641111066
 21
18.729581381
  0
LINE
  5
2D6
100
AcDbEntity
  8
0
100
AcDbLine
 62
7
  6
CONTINUOUS
 10
9.9466474226
 20
22.7614499292
 11
10.5789354888
 21
23.0948679289
  0
LINE
  5
2D7
100
AcDbEntity
  8
RACCORDO
100
AcDbLine
 62
250
  6
CONTINUOUS
 10
10.5788077068
 20
23.094800542
 11
10.5789354888
 21
23.0948679289
  0
LINE
  5
2D8
100
AcDbEntity
  8
ASSI
100
AcDbLine
 62
7
  6
CONTINUOUS
 10
9.9283326583
 20
22.5046619844
 11
3.391056895
 21
19.0782205663
  0
LINE
  5
2D9
100
AcDbEntity
  8
ASSI
100
AcDbLine
 62
250
  6
CONTINUOUS
 10
3.1341308302
 20
20.0712346156
 11
1.5122307036
 21
19.2540310958
  0
LINE
  5
2DA
100
AcDbEntity
  8
ASSI
100
AcDbLine
 62
250
  6
CONTINUOUS
 10
3.2755306473
 20
19.8273560062
 11
1.6536305207
 21
19.0101524865
  0
LINE
  5
2DB
100
AcDbEntity
  8
DRAFT
100
AcDbLine
 62
7
  6
CONTINUOUS
 10
10.2589926941
 20
23.6566864203
 11
14.4814294587
 21
25.7747266128
  0
LINE
  5
2DC
100
AcDbEntity
  8
0
100
AcDbLine
 62
7
  6
CONTINUOUS
 10
10.2589926941
 20
23.6566864203
 11
14.4814294587
 21
25.7747266128
  0
LINE
  5
2DD
100
AcDbEntity
  8
0
100
AcDbLine
 62
7
  6
CONTINUOUS
 10
10.7072229176
 20
22.8717761975
 11
11.2021976644
 21
23.1192635709
  0
LINE
  5
2DE
100
AcDbEntity
  8
RACCORDO
100
AcDbLine
 62
7
  6
CONTINUOUS
 10
13.6703755769
 20
23.2997634232
 11
12.3589112659
 21
22.6440312677
  0
LINE
  5
2DF
100
AcDbEntity
  8
ASSI
100
AcDbLine
 62
250
  6
CONTINUOUS
 10
3.6582352968
 20
20.3311942947
 11
3.1341308302
 21
20.0712346156
  0
LINE
  5
2E0
100
AcDbEntity
  8
ASSI
100
AcDbLine
 62
250
  6
CONTINUOUS
 10
3.7996351139
 20
20.0873156854
 11
3.2755306473
 21
19.8273560062
  0
LINE
  5
2E1
100
AcDbEntity
  8
ASSI
100
AcDbLine
 62
250
  6
CONTINUOUS
 10
4.0057040207
 20
18.5087849239
 11
3.3109398343
 21
18.1641767656
  0
LINE
  5
2E2
100
AcDbEntity
  8
DRAFT
100
AcDbLine
 62
7
  6
CONTINUOUS
 10
4.0433936887
 20
18.4873383444
 11
10.4368951139
 21
21.5929758276
  0
LINE
  5
2E3
100
AcDbEntity
  8
0
100
AcDbLine
 62
7
  6
CONTINUOUS
 10
4.0433936887
 20
18.4873383444
 11
10.4368951139
 21
21.5929758276
  0
LWPOLYLINE
  5
2E4
100
AcDbEntity
  8
RACCORDO
100
AcDbPolyline
 62
7
  6
CONTINUOUS
 90
10
 70
0
 10
14.5188773888
 20
22.8754861917
 10
14.530273853
 20
22.880654847
 10
14.5414942555
 20
22.8847067433
 10
14.5525385962
 20
22.8876418809
 10
14.5635018552
 20
22.8894604122
 10
14.5742890523
 20
22.8901621847
 10
14.5846152478
 20
22.8897467403
 10
14.5943854615
 20
22.8882139264
 10
14.6036946735
 20
22.8855638957
 10
14.6125428838
 20
22.8817966481
  0
LINE
  5
2E5
100
AcDbEntity
  8
RACCORDO
100
AcDbLine
 62
250
  6
CONTINUOUS
 10
-1.8849353303
 20
15.461319
 11
1.4794803137
 21
16.9525275691
  0
LWPOLYLINE
  5
2E6
100
AcDbEntity
  8
ASSI
100
AcDbPolyline
 62
250
  6
CONTINUOUS
 90
13
 70
0
 10
1.618285858
 20
18.6325230389
 10
1.5985524077
 20
18.6241578957
 10
1.5768244513
 20
18.6171363836
 10
1.5534655592
 20
18.61157599
 10
1.5288665912
 20
18.6075697535
 10
1.5034391558
 20
18.6051847073
 10
1.4776087226
 20
18.604460758
 10
1.451807505
 20
18.6054100178
 10
1.4264672256
 20
18.6080166011
 10
1.4020118925
 20
18.6122368912
 10
1.3788507068
 20
18.6180002706
 10
1.3573712161
 20
18.6252103017
 10
1.3379328277
 20
18.6337463407
  0
LWPOLYLINE
  5
2E7
100
AcDbEntity
  8
DRAFT
100
AcDbPolyline
 62
7
  6
CONTINUOUS
 90
9
 70
0
 10
0.8713675913
 20
-17.5159294344
 10
0.8242005095
 20
-17.4952179165
 10
0.7782187514
 20
-17.4803170584
 10
0.7334223167
 20
-17.47122686
 10
0.6893777302
 20
-17.467984686
 10
0.6465184672
 20
-17.4705531718
 10
0.6061449543
 20
-17.4788202233
 10
0.5684423288
 20
-17.4928788867
 10
0.5563824022
 20
-17.4988549897
  0
LWPOLYLINE
  5
2E8
100
AcDbEntity
  8
DRAFT
100
AcDbPolyline
 62
7
  6
CONTINUOUS
 90
9
 70
0
 10
1.1542103038
 20
-17.3684614663
 10
1.1065680299
 20
-17.3475412922
 10
1.060123029
 20
-17.3324903129
 10
1.0148753011
 20
-17.3233085281
 10
0.9703870085
 20
-17.3200336801
 10
0.927095989
 20
-17.3226280268
 10
0.8863157553
 20
-17.3309783417
 10
0.8482332944
 20
-17.3451786296
 10
0.8360516827
 20
-17.3512150345
  0
LINE
  5
2E9
100
AcDbEntity
  8
ASSI
100
AcDbLine
 62
250
  6
CONTINUOUS
 10
3.7612378475
 20
-21.3053218603
 11
3.7432406712
 21
-21.2945263338
  0
LWPOLYLINE
  5
2EA
100
AcDbEntity
  8
ASSI
100
AcDbPolyline
 62
7
  6
CONTINUOUS
 90
9
 70
0
 10
-13.3716482359
 20
26.0298897238
 10
-13.3715146163
 20
26.0217629791
 10
-13.3693318433
 20
25.9959951598
 10
-13.3644842118
 20
25.9708177116
 10
-13.3570214613
 20
25.9465488181
 10
-13.3471171387
 20
25.9235821553
 10
-13.3349063569
 20
25.9020677769
 10
-13.3204892517
 20
25.8821333799
 10
-13.3041069106
 20
25.864079032
  0
LWPOLYLINE
  5
2EB
100
AcDbEntity
  8
0
100
AcDbPolyline
 62
7
  6
CONTINUOUS
 90
34
 70
0
 10
-12.5154114864
 20
-11.9901704676
 10
-12.5148421899
 20
-12.048855706
 10
-12.5110350049
 20
-12.108792364
 10
-12.5039895174
 20
-12.1699802659
 10
-12.4936225809
 20
-12.2329235869
 10
-12.4800153477
 20
-12.2971172872
 10
-12.4634140278
 20
-12.3610474673
 10
-12.4436779603
 20
-12.4246603463
 10
-12.4209453726
 20
-12.4880086966
 10
-12.3958819415
 20
-12.5497389778
 10
-12.3685090856
 20
-12.6096082046
 10
-12.3388033076
 20
-12.667858528
 10
-12.3073641882
 20
-12.723864684
 10
-12.2742768288
 20
-12.777483661
 10
-12.2394543712
 20
-12.8288577655
 10
-12.203239325
 20
-12.8777900891
 10
-12.1655581854
 20
-12.9243611625
 10
-12.1264825302
 20
-12.9684896549
 10
-12.0865734479
 20
-13.0097362798
 10
-12.045842888
 20
-13.0480544256
 10
-12.0042778787
 20
-13.0834902815
 10
-11.9624034272
 20
-13.1157443287
 10
-11.9205885123
 20
-13.1446685129
 10
-11.8784643181
 20
-13.1704109662
 10
-11.8354489644
 20
-13.1931163577
 10
-11.791101017
 20
-13.2131074336
 10
-11.7458592081
 20
-13.2300602454
 10
-11.700462012
 20
-13.243149462
 10
-11.6545763227
 20
-13.2522105888
 10
-11.6085340181
 20
-13.2574075405
 10
-11.5640744788
 20
-13.2584091083
 10
-11.5216439534
 20
-13.2549453512
 10
-11.4807999578
 20
-13.2472878231
 10
-11.4405560505
 20
-13.235432214
  0
LINE
  5
2EC
100
AcDbEntity
  8
ASSI
100
AcDbLine
 62
7
  6
CONTINUOUS
 10
-13.3716477972
 20
26.0298897241
 11
-13.3716478439
 21
26.3472268331
  0
LINE
  5
2ED
100
AcDbEntity
  8
ASSI
100
AcDbLine
 62
250
  6
CONTINUOUS
 10
-13.3130692001
 20
25.9592647053
 11
-13.3130692001
 21
26.2765161551
  0
LINE
  5
2EE
100
AcDbEntity
  8
0
100
AcDbLine
 62
7
  6
CONTINUOUS
 10
-13.1369276512
 20
24.8263577287
 11
-13.1369276512
 21
24.2607315515
  0
LINE
  5
2EF
100
AcDbEntity
  8
ASSI
100
AcDbLine
 62
7
  6
CONTINUOUS
 10
-12.6567847235
 20
25.0744112102
 11
-12.6567847235
 21
25.5283733146
  0
LINE
  5
2F0
100
AcDbEntity
  8
ASSI
100
AcDbLine
 62
250
  6
CONTINUOUS
 10
-12.5835614188
 20
24.982687518
 11
-12.5835614188
 21
25.4917616622
  0
LINE
  5
2F1
100
AcDbEntity
  8
ASSI
100
AcDbLine
 62
7
  6
CONTINUOUS
 10
-12.4508239865
 20
24.7914711085
 11
-12.4508239865
 21
25.4293165294
  0
LINE
  5
2F2
100
AcDbEntity
  8
ASSI
100
AcDbLine
 62
250
  6
CONTINUOUS
 10
-12.3776006818
 20
24.7406800707
 11
-12.3776006818
 21
25.4915130956
  0
LINE
  5
2F3
100
AcDbEntity
  8
ASSI
100
AcDbLine
 62
250
  6
CONTINUOUS
 10
-12.1840363957
 20
24.6438979276
 11
-12.1840363957
 21
25.3947309526
  0
LINE
  5
2F4
100
AcDbEntity
  8
0
100
AcDbLine
 62
7
  6
CONTINUOUS
 10
-12.5107393037
 20
-11.7060691922
 11
-12.5154114864
 21
-11.9901704676
  0
LINE
  5
2F5
100
AcDbEntity
  8
DRAFT
100
AcDbLine
 62
7
  6
CONTINUOUS
 10
-12.5154115116
 20
-11.9901702264
 11
-12.5107359886
 21
-11.7058711516
  0
LINE
  5
2F6
100
AcDbEntity
  8
0
100
AcDbLine
 62
7
  6
CONTINUOUS
 10
-12.5058156205
 20
-11.4181717156
 11
-12.5107393037
 21
-11.7060691922
  0
LINE
  5
2F7
100
AcDbEntity
  8
DRAFT
100
AcDbLine
 62
7
  6
CONTINUOUS
 10
-12.5107359886
 20
-11.7058711516
 11
-12.5058077973
 21
-11.4177230821
  0
LINE
  5
2F8
100
AcDbEntity
  8
0
100
AcDbLine
 62
7
  6
CONTINUOUS
 10
-12.5006325229
 20
-11.1264466708
 11
-12.5058156205
 21
-11.4181717156
  0
LINE
  5
2F9
100
AcDbEntity
  8
DRAFT
100
AcDbLine
 62
7
  6
CONTINUOUS
 10
-12.5058077973
 20
-11.4177230821
 11
-12.5006209421
 21
-11.1258069254
  0
LINE
  5
2FA
100
AcDbEntity
  8
0
100
AcDbLine
 62
7
  6
CONTINUOUS
 10
-12.4951803424
 20
-10.8307784504
 11
-12.5006325229
 21
-11.1264466708
  0
LINE
  5
2FB
100
AcDbEntity
  8
DRAFT
100
AcDbLine
 62
7
  6
CONTINUOUS
 10
-12.5006209421
 20
-11.1258069254
 11
-12.4951773053
 21
-10.8306181761
  0
LINE
  5
2FC
100
AcDbEntity
  8
0
100
AcDbLine
 62
7
  6
CONTINUOUS
 10
-12.4894728366
 20
-10.5322756849
 11
-12.4951803424
 21
-10.8307784504
  0
LINE
  5
2FD
100
AcDbEntity
  8
DRAFT
100
AcDbLine
 62
7
  6
CONTINUOUS
 10
-12.4951773053
 20
-10.8306181761
 11
-12.4894738505
 21
-10.5323282415
  0
LWPOLYLINE
  5
2FE
100
AcDbEntity
  8
ASSI
100
AcDbPolyline
 62
250
  6
CONTINUOUS
 90
18
 70
0
 10
-13.3130692001
 20
26.2765161551
 10
-13.312863426
 20
26.2870762482
 10
-13.3122233064
 20
26.2981318504
 10
-13.3111137383
 20
26.3096706673
 10
-13.3094956772
 20
26.3217037494
 10
-13.3073374763
 20
26.3341811386
 10
-13.3046266708
 20
26.3469890596
 10
-13.3013426886
 20
26.3600931679
 10
-13.2974670647
 20
26.3734538823
 10
-13.2930142764
 20
26.3869407169
 10
-13.2879810305
 20
26.4005075273
 10
-13.2823669354
 20
26.4141041431
 10
-13.2762151645
 20
26.4275927356
 10
-13.2695444718
 20
26.4409154431
 10
-13.2623683699
 20
26.4540294185
 10
-13.2547420571
 20
26.4668254482
 10
-13.2467027288
 20
26.4792431804
 10
-13.2382703863
 20
26.4912535391
  0
LINE
  5
2FF
100
AcDbEntity
  8
DRAFT
100
AcDbLine
 62
7
  6
CONTINUOUS
 10
-12.4894738505
 20
-10.5323282415
 11
-12.4836143771
 21
-10.236398066
  0
LINE
  5
300
100
AcDbEntity
  8
0
100
AcDbLine
 62
7
  6
CONTINUOUS
 10
-12.4836102719
 20
-10.2361942204
 11
-12.4894728366
 21
-10.5322756849
  0
LINE
  5
301
100
AcDbEntity
  8
DRAFT
100
AcDbLine
 62
7
  6
CONTINUOUS
 10
-12.4836143771
 20
-10.236398066
 11
-12.4776137502
 21
-9.9433026691
  0
LINE
  5
302
100
AcDbEntity
  8
0
100
AcDbLine
 62
7
  6
CONTINUOUS
 10
-12.4776112118
 20
-9.9431806827
 11
-12.4836102719
 21
-10.2361942204
  0
LINE
  5
303
100
AcDbEntity
  8
DRAFT
100
AcDbLine
 62
7
  6
CONTINUOUS
 10
-12.4776137502
 20
-9.9433026691
 11
-12.4714848688
 21
-9.653368657
  0
LINE
  5
304
100
AcDbEntity
  8
0
100
AcDbLine
 62
7
  6
CONTINUOUS
 10
-12.4714840278
 20
-9.6533294875
 11
-12.4776112118
 21
-9.9431806827
  0
LINE
  5
305
100
AcDbEntity
  8
0
100
AcDbLine
 62
7
  6
CONTINUOUS
 10
-12.4652357485
 20
-9.3666666924
 11
-12.4714840278
 21
-9.6533294875
  0
LINE
  5
306
100
AcDbEntity
  8
DRAFT
100
AcDbLine
 62
7
  6
CONTINUOUS
 10
-12.4714848688
 20
-9.653368657
 11
-12.4652357543
 21
-9.3666669563
  0
LWPOLYLINE
  5
307
100
AcDbEntity
  8
DRAFT
100
AcDbPolyline
 62
7
  6
CONTINUOUS
 90
3
 70
0
 10
-12.4652357543
 20
-9.3666669563
 10
-12.4607934402
 20
-9.2927232613
 10
-12.4514006678
 20
-9.2229871415
  0
LWPOLYLINE
  5
308
100
AcDbEntity
  8
ASSI
100
AcDbPolyline
 62
7
  6
CONTINUOUS
 90
3
 70
0
 10
-8.7059032994
 20
26.0153211515
 10
-8.7005389534
 20
26.0394781693
 10
-8.6973959816
 20
26.0643076581
  0
LWPOLYLINE
  5
309
100
AcDbEntity
  8
ASSI
100
AcDbPolyline
 62
250
  6
CONTINUOUS
 90
17
 70
0
 10
-0.6520013905
 20
20.1976857233
 10
-0.6603396757
 20
20.1857886353
 10
-0.6683258038
 20
20.173439273
 10
-0.6759312007
 20
20.1606677023
 10
-0.6830940249
 20
20.1475691265
 10
-0.6897801809
 20
20.1342050223
 10
-0.6959729391
 20
20.1206077517
 10
-0.7016453275
 20
20.1068352399
 10
-0.7067758349
 20
20.0929396516
 10
-0.711347124
 20
20.0789677576
 10
-0.7153425603
 20
20.064970532
 10
-0.7187478915
 20
20.0509975746
 10
-0.7215506751
 20
20.0370993547
 10
-0.7237405853
 20
20.0233279906
 10
-0.7253099978
 20
20.0097334647
 10
-0.7262536689
 20
19.9963635041
 10
-0.726568495
 20
19.9832658026
  0
LINE
  5
30A
100
AcDbEntity
  8
ASSI
100
AcDbLine
 62
250
  6
CONTINUOUS
 10
3.664439377
 20
17.5544140887
 11
2.5760048411
 21
16.9698914826
  0
LINE
  5
30B
100
AcDbEntity
  8
RACCORDO
100
AcDbLine
 62
250
  6
CONTINUOUS
 10
19.2666756853
 20
23.4602349373
 11
4.6645024637
 21
16.0313386095
  0
LINE
  5
30C
100
AcDbEntity
  8
0
100
AcDbLine
 62
250
  6
CONTINUOUS
 10
19.2666756853
 20
23.4602349373
 11
4.6645024637
 21
16.0313386095
  0
LINE
  5
30D
100
AcDbEntity
  8
RACCORDO
100
AcDbLine
 62
7
  6
CONTINUOUS
 10
14.5189062847
 20
22.8755006397
 11
13.6971224589
 21
22.4646087268
  0
LINE
  5
30E
100
AcDbEntity
  8
ASSI
100
AcDbLine
 62
250
  6
CONTINUOUS
 10
4.3592035634
 20
17.8990884006
 11
3.664439377
 21
17.5544802423
  0
LWPOLYLINE
  5
30F
100
AcDbEntity
  8
RACCORDO
100
AcDbPolyline
 62
250
  6
CONTINUOUS
 90
34
 70
0
 10
19.2666756853
 20
23.4602349373
 10
19.2855122005
 20
23.4695580386
 10
19.3039543172
 20
23.4786005757
 10
19.3219883401
 20
23.4873558334
 10
19.339600877
 20
23.49581731
 10
19.3567788488
 20
23.5039787221
 10
19.373509499
 20
23.5118340088
 10
19.3897804034
 20
23.5193773369
 10
19.405579479
 20
23.5266031047
 10
19.4208949935
 20
23.5335059461
 10
19.4357155733
 20
23.5400807351
 10
19.4500302127
 20
23.5463225893
 10
19.4638282816
 20
23.5522268734
 10
19.4770995334
 20
23.5577892029
 10
19.4898341128
 20
23.5630054472
 10
19.502022563
 20
23.5678717325
 10
19.5136558329
 20
23.5723844453
 10
19.5247252835
 20
23.5765402343
 10
19.5352226945
 20
23.5803360135
 10
19.5451402706
 20
23.583768964
 10
19.5544706469
 20
23.5868365365
 10
19.5632068946
 20
23.5895364531
 10
19.571342526
 20
23.5918667087
 10
19.5788714998
 20
23.5938255729
 10
19.5857882247
 20
23.5954115911
 10
19.5920875644
 20
23.5966235855
 10
19.597764841
 20
23.5974606559
 10
19.6028158385
 20
23.5979221809
 10
19.607236806
 20
23.5980078176
 10
19.6110244604
 20
23.5977175026
 10
19.6141759891
 20
23.5970514513
 10
19.6166890516
 20
23.5960101584
 10
19.6185617819
 20
23.5945943971
 10
19.6195189171
 20
23.5933333239
  0
LWPOLYLINE
  5
310
100
AcDbEntity
  8
0
100
AcDbPolyline
 62
250
  6
CONTINUOUS
 90
34
 70
0
 10
19.2666756853
 20
23.4602349373
 10
19.2855122005
 20
23.4695580386
 10
19.3039543172
 20
23.4786005757
 10
19.3219883401
 20
23.4873558334
 10
19.339600877
 20
23.49581731
 10
19.3567788488
 20
23.5039787221
 10
19.373509499
 20
23.5118340088
 10
19.3897804034
 20
23.5193773369
 10
19.405579479
 20
23.5266031047
 10
19.4208949935
 20
23.5335059461
 10
19.4357155733
 20
23.5400807351
 10
19.4500302127
 20
23.5463225893
 10
19.4638282816
 20
23.5522268734
 10
19.4770995334
 20
23.5577892029
 10
19.4898341128
 20
23.5630054472
 10
19.502022563
 20
23.5678717325
 10
19.5136558329
 20
23.5723844453
 10
19.5247252835
 20
23.5765402343
 10
19.5352226945
 20
23.5803360135
 10
19.5451402706
 20
23.583768964
 10
19.5544706469
 20
23.5868365365
 10
19.5632068946
 20
23.5895364531
 10
19.571342526
 20
23.5918667087
 10
19.5788714998
 20
23.5938255729
 10
19.5857882247
 20
23.5954115911
 10
19.5920875644
 20
23.5966235855
 10
19.597764841
 20
23.5974606559
 10
19.6028158385
 20
23.5979221809
 10
19.607236806
 20
23.5980078176
 10
19.6110244604
 20
23.5977175026
 10
19.6141759891
 20
23.5970514513
 10
19.6166890516
 20
23.5960101584
 10
19.6185617819
 20
23.5945943971
 10
19.6195189171
 20
23.5933333239
  0
LINE
  5
311
100
AcDbEntity
  8
RACCORDO
100
AcDbLine
 62
7
  6
CONTINUOUS
 10
18.9237781093
 20
24.0516457729
 11
11.1895891979
 21
20.2947705666
  0
LINE
  5
312
100
AcDbEntity
  8
0
100
AcDbLine
 62
7
  6
CONTINUOUS
 10
18.9237781093
 20
24.0516457729
 11
11.1895891979
 21
20.2947705666
  0
LINE
  5
313
100
AcDbEntity
  8
0
100
AcDbLine
 62
7
  6
CONTINUOUS
 10
18.0985316416
 20
24.4642690067
 11
14.5351008051
 21
22.7540142589
  0
LWPOLYLINE
  5
314
100
AcDbEntity
  8
RACCORDO
100
AcDbPolyline
 62
7
  6
CONTINUOUS
 90
33
 70
0
 10
18.9237781093
 20
24.0516457729
 10
18.9390860823
 20
24.0589444574
 10
18.9542162233
 20
24.0658785775
 10
18.9691612219
 20
24.0724470566
 10
18.9839125491
 20
24.078649466
 10
18.9984643733
 20
24.0844847867
 10
19.0128135569
 20
24.0899513317
 10
19.0269530454
 20
24.0950489609
 10
19.0408760684
 20
24.0997775626
 10
19.0545800412
 20
24.1041357041
 10
19.0680581828
 20
24.1081238376
 10
19.0813040197
 20
24.1117424572
 10
19.0943155647
 20
24.1149904177
 10
19.1070863301
 20
24.1178687533
 10
19.1196101538
 20
24.1203785499
 10
19.1318856807
 20
24.1225189737
 10
19.1439067366
 20
24.1242916255
 10
19.1556674834
 20
24.1256981655
 10
19.1671672225
 20
24.1267380842
 10
19.1784001118
 20
24.1274135302
 10
19.1893606489
 20
24.127726716
 10
19.2000488032
 20
24.1276774602
 10
19.2104590811
 20
24.1272684356
 10
19.220586326
 20
24.1265023822
 10
19.2304311783
 20
24.125379441
 10
19.2399885092
 20
24.1239027824
 10
19.2492535127
 20
24.1220756451
 10
19.2582274824
 20
24.1198984815
 10
19.2669056612
 20
24.1173749316
 10
19.2752836039
 20
24.1145087025
 10
19.2833632428
 20
24.111300541
 10
19.2911402017
 20
24.1077545246
 10
19.2926894319
 20
24.1069898808
  0
LWPOLYLINE
  5
315
100
AcDbEntity
  8
0
100
AcDbPolyline
 62
7
  6
CONTINUOUS
 90
33
 70
0
 10
18.9237781093
 20
24.0516457729
 10
18.9390860823
 20
24.0589444574
 10
18.9542162233
 20
24.0658785775
 10
18.9691612219
 20
24.0724470566
 10
18.9839125491
 20
24.078649466
 10
18.9984643733
 20
24.0844847867
 10
19.0128135569
 20
24.0899513317
 10
19.0269530454
 20
24.0950489609
 10
19.0408760684
 20
24.0997775626
 10
19.0545800412
 20
24.1041357041
 10
19.0680581828
 20
24.1081238376
 10
19.0813040197
 20
24.1117424572
 10
19.0943155647
 20
24.1149904177
 10
19.1070863301
 20
24.1178687533
 10
19.1196101538
 20
24.1203785499
 10
19.1318856807
 20
24.1225189737
 10
19.1439067366
 20
24.1242916255
 10
19.1556674834
 20
24.1256981655
 10
19.1671672225
 20
24.1267380842
 10
19.1784001118
 20
24.1274135302
 10
19.1893606489
 20
24.127726716
 10
19.2000488032
 20
24.1276774602
 10
19.2104590811
 20
24.1272684356
 10
19.220586326
 20
24.1265023822
 10
19.2304311783
 20
24.125379441
 10
19.2399885092
 20
24.1239027824
 10
19.2492535127
 20
24.1220756451
 10
19.2582274824
 20
24.1198984815
 10
19.2669056612
 20
24.1173749316
 10
19.2752836039
 20
24.1145087025
 10
19.2833632428
 20
24.111300541
 10
19.2911402017
 20
24.1077545246
 10
19.2926894319
 20
24.1069898808
  0
LINE
  5
316
100
AcDbEntity
  8
RACCORDO
100
AcDbLine
 62
250
  6
CONTINUOUS
 10
-1.5500003077
 20
14.8430831809
 11
1.8144153363
 21
16.33429175
  0
LINE
  5
317
100
AcDbEntity
  8
DRAFT
100
AcDbLine
 62
7
  6
CONTINUOUS
 10
2.5760048411
 20
-16.3040066572
 11
0.729946235
 21
-15.3809773542
  0
LWPOLYLINE
  5
318
100
AcDbEntity
  8
0
100
AcDbPolyline
 62
7
  6
CONTINUOUS
 90
25
 70
0
 10
-11.0815150188
 20
-10.0585269492
 10
-11.0825268094
 20
-9.9824076969
 10
-11.0886870291
 20
-9.9051782445
 10
-11.0999951825
 20
-9.8268383885
 10
-11.1166034329
 20
-9.746705971
 10
-11.1383556862
 20
-9.6654614329
 10
-11.1647889501
 20
-9.585148439
 10
-11.1960209994
 20
-9.505838296
 10
-11.2319276923
 20
-9.4274569442
 10
-11.2716848004
 20
-9.3518307574
 10
-11.3153919322
 20
-9.2790215474
 10
-11.3629419806
 20
-9.2089642736
 10
-11.4132034803
 20
-9.1432963069
 10
-11.4662216739
 20
-9.0821462281
 10
-11.5219449506
 20
-9.0253827359
 10
-11.5791005921
 20
-8.9742551643
 10
-11.6376958319
 20
-8.9288952424
 10
-11.6977198327
 20
-8.8891697247
 10
-11.7578774496
 20
-8.8559325405
 10
-11.8182012929
 20
-8.8293080688
 10
-11.8786585898
 20
-8.8091718913
 10
-11.9378611632
 20
-8.7960069457
 10
-11.9957835572
 20
-8.7899819654
 10
-12.0524549875
 20
-8.7909298474
 10
-12.1065741855
 20
-8.7988319117
  0
LINE
  5
319
100
AcDbEntity
  8
ASSI
100
AcDbLine
 62
250
  6
CONTINUOUS
 10
-11.8335951078
 20
24.5195503511
 11
-11.8335951078
 21
25.1167785067
  0
LINE
  5
31A
100
AcDbEntity
  8
ASSI
100
AcDbLine
 62
7
  6
CONTINUOUS
 10
-11.2908690451
 20
24.8454154754
 11
-11.2908690451
 21
24.4044210335
  0
LINE
  5
31B
100
AcDbEntity
  8
ASSI
100
AcDbLine
 62
250
  6
CONTINUOUS
 10
-11.2485678774
 20
24.9269966934
 11
-11.2485678774
 21
25.2442654938
  0
LINE
  5
31C
100
AcDbEntity
  8
ASSI
100
AcDbLine
 62
250
  6
CONTINUOUS
 10
-10.9682148471
 20
24.9257733915
 11
-10.9682148471
 21
25.2430421919
  0
LINE
  5
31D
100
AcDbEntity
  8
ASSI
100
AcDbLine
 62
250
  6
CONTINUOUS
 10
-10.5638620964
 20
23.9728378568
 11
-10.5638620964
 21
24.6530091451
  0
LINE
  5
31E
100
AcDbEntity
  8
ASSI
100
AcDbLine
 62
250
  6
CONTINUOUS
 10
-10.2134208085
 20
24.7406577668
 11
-10.2134208085
 21
23.9824573207
  0
LINE
  5
31F
100
AcDbEntity
  8
0
100
AcDbLine
 62
250
  6
CONTINUOUS
 10
-9.9994649255
 20
22.8385571645
 11
-9.9994649255
 21
22.6920001887
  0
LINE
  5
320
100
AcDbEntity
  8
0
100
AcDbLine
 62
250
  6
CONTINUOUS
 10
-9.7203726542
 20
22.6990110288
 11
-9.7203726542
 21
22.552454053
  0
LWPOLYLINE
  5
321
100
AcDbEntity
  8
ASSI
100
AcDbPolyline
 62
250
  6
CONTINUOUS
 90
28
 70
0
 10
-10.9682148471
 20
25.2430421919
 10
-10.96818309
 20
25.2451821387
 10
-10.968047652
 20
25.2474106577
 10
-10.9678085331
 20
25.249727749
 10
-10.9674698329
 20
25.2521449654
 10
-10.9670274518
 20
25.254650754
 10
-10.9664690915
 20
25.2572104562
 10
-10.9657907037
 20
25.2598268581
 10
-10.9649963368
 20
25.2624971737
 10
-10.9640858369
 20
25.2651783864
 10
-10.9630551266
 20
25.2678712978
 10
-10.9619082833
 20
25.2705751064
 10
-10.9606573862
 20
25.2732443912
 10
-10.9593004086
 20
25.2758762575
 10
-10.9578393772
 20
25.2784736
 10
-10.9562924512
 20
25.2809996817
 10
-10.9546594134
 20
25.2834511298
 10
-10.952940481
 20
25.2858313171
 10
-10.9511544651
 20
25.2881136252
 10
-10.9493008117
 20
25.2902966114
 10
-10.9473800748
 20
25.2923817185
 10
-10.9454127279
 20
25.2943466559
 10
-10.9433982103
 20
25.2961901153
 10
-10.9413370827
 20
25.2979134051
 10
-10.9392515008
 20
25.2994981589
 10
-10.9371488497
 20
25.3009382548
 10
-10.9350217443
 20
25.3022398149
 10
-10.9328701845
 20
25.3034028391
  0
LINE
  5
322
100
AcDbEntity
  8
DRAFT
100
AcDbLine
 62
7
  6
CONTINUOUS
 10
-11.1269228949
 20
-12.3913444316
 11
-11.1317071719
 21
-12.6820006188
  0
LINE
  5
323
100
AcDbEntity
  8
0
100
AcDbLine
 62
7
  6
CONTINUOUS
 10
-11.1317071805
 20
-12.6820011526
 11
-11.126922896
 21
-12.3913444936
  0
LINE
  5
324
100
AcDbEntity
  8
DRAFT
100
AcDbLine
 62
7
  6
CONTINUOUS
 10
-11.1219430851
 20
-12.1005966217
 11
-11.1269228949
 21
-12.3913444316
  0
LINE
  5
325
100
AcDbEntity
  8
0
100
AcDbLine
 62
7
  6
CONTINUOUS
 10
-11.126922896
 20
-12.3913444936
 11
-11.1219430839
 21
-12.1005965493
  0
LINE
  5
326
100
AcDbEntity
  8
DRAFT
100
AcDbLine
 62
7
  6
CONTINUOUS
 10
-11.1167677474
 20
-11.8097574282
 11
-11.1219430851
 21
-12.1005966217
  0
LINE
  5
327
100
AcDbEntity
  8
0
100
AcDbLine
 62
7
  6
CONTINUOUS
 10
-11.1219430839
 20
-12.1005965493
 11
-11.1167677481
 21
-11.809757467
  0
LINE
  5
328
100
AcDbEntity
  8
DRAFT
100
AcDbLine
 62
7
  6
CONTINUOUS
 10
-11.1113968889
 20
-11.5188272032
 11
-11.1167677474
 21
-11.8097574282
  0
LINE
  5
329
100
AcDbEntity
  8
0
100
AcDbLine
 62
7
  6
CONTINUOUS
 10
-11.1167677481
 20
-11.809757467
 11
-11.1113968895
 21
-11.5188272313
  0
LINE
  5
32A
100
AcDbEntity
  8
DRAFT
100
AcDbLine
 62
7
  6
CONTINUOUS
 10
-11.1057610655
 20
-11.2242380695
 11
-11.1113968889
 21
-11.5188272032
  0
LINE
  5
32B
100
AcDbEntity
  8
0
100
AcDbLine
 62
7
  6
CONTINUOUS
 10
-11.1113968895
 20
-11.5188272313
 11
-11.1057567599
 21
-11.2240169081
  0
LWPOLYLINE
  5
32C
100
AcDbEntity
  8
ASSI
100
AcDbPolyline
 62
250
  6
CONTINUOUS
 90
28
 70
0
 10
-11.2485678774
 20
25.2442654938
 10
-11.2483567716
 20
25.2549344912
 10
-11.2477002328
 20
25.2660854712
 10
-11.2465647142
 20
25.2777047787
 10
-11.2449129692
 20
25.289802278
 10
-11.2427150197
 20
25.302326842
 10
-11.2399599597
 20
25.3151636
 10
-11.2366290231
 20
25.3282775685
 10
-11.2327058958
 20
25.3416287465
 10
-11.2282072169
 20
25.3550863293
 10
-11.2231322021
 20
25.3686025891
 10
-11.2174819089
 20
25.3821298451
 10
-11.2112993513
 20
25.395536452
 10
-11.2046064434
 20
25.4087613386
 10
-11.1974157081
 20
25.4217674131
 10
-11.1897732583
 20
25.4344640981
 10
-11.1817129657
 20
25.4467944674
 10
-11.1732557424
 20
25.4587260187
 10
-11.1644357216
 20
25.4702100331
 10
-11.155285312
 20
25.4812040746
 10
-11.1458355973
 20
25.4916706155
 10
-11.1361211448
 20
25.5015716627
 10
-11.1261760793
 20
25.5108722474
 10
-11.1160358094
 20
25.519539084
 10
-11.1057382012
 20
25.5275403462
 10
-11.0953204038
 20
25.5348476228
 10
-11.0848186264
 20
25.5414356731
 10
-11.0742700015
 20
25.5472814484
  0
LINE
  5
32D
100
AcDbEntity
  8
DRAFT
100
AcDbLine
 62
7
  6
CONTINUOUS
 10
-11.0998987163
 20
-10.928255826
 11
-11.1057610655
 21
-11.2242380695
  0
LINE
  5
32E
100
AcDbEntity
  8
0
100
AcDbLine
 62
7
  6
CONTINUOUS
 10
-11.1057567599
 20
-11.2240169081
 11
-11.0998893979
 21
-10.927793266
  0
LINE
  5
32F
100
AcDbEntity
  8
DRAFT
100
AcDbLine
 62
7
  6
CONTINUOUS
 10
-11.093896327
 20
-10.6351612676
 11
-11.0998987163
 21
-10.928255826
  0
LINE
  5
330
100
AcDbEntity
  8
0
100
AcDbLine
 62
7
  6
CONTINUOUS
 10
-11.0998893979
 20
-10.927793266
 11
-11.0938879059
 21
-10.6347567492
  0
LINE
  5
331
100
AcDbEntity
  8
DRAFT
100
AcDbLine
 62
7
  6
CONTINUOUS
 10
-11.0877657503
 20
-10.3452280613
 11
-11.093896327
 21
-10.6351612676
  0
LINE
  5
332
100
AcDbEntity
  8
0
100
AcDbLine
 62
7
  6
CONTINUOUS
 10
-11.0938879059
 20
-10.6347567492
 11
-11.0877607126
 21
-10.3449933054
  0
LINE
  5
333
100
AcDbEntity
  8
0
100
AcDbLine
 62
7
  6
CONTINUOUS
 10
-11.0877607126
 20
-10.3449933054
 11
-11.0815150188
 21
-10.0585269492
  0
LINE
  5
334
100
AcDbEntity
  8
DRAFT
100
AcDbLine
 62
7
  6
CONTINUOUS
 10
-11.0815150058
 20
-10.0585271341
 11
-11.0877657503
 21
-10.3452280613
  0
LINE
  5
335
100
AcDbEntity
  8
ASSI
100
AcDbLine
 62
7
  6
CONTINUOUS
 10
-8.6973959816
 20
26.0643076581
 11
-8.6966017901
 21
26.0844822335
  0
LWPOLYLINE
  5
336
100
AcDbEntity
  8
DRAFT
100
AcDbPolyline
 62
7
  6
CONTINUOUS
 90
12
 70
0
 10
-11.1317071719
 20
-12.6820006188
 10
-11.1358158461
 20
-12.7564418397
 10
-11.1449912321
 20
-12.8265810971
 10
-11.1592328283
 20
-12.8924181942
 10
-11.1787053177
 20
-12.9543478631
 10
-11.2032402919
 20
-13.0119737624
 10
-11.2323374263
 20
-13.0641090239
 10
-11.2661381995
 20
-13.1106917322
 10
-11.3044949646
 20
-13.1517811572
 10
-11.3464753764
 20
-13.1863729918
 10
-11.3920966875
 20
-13.2142956541
 10
-11.4405529686
 20
-13.2354392972
  0
LWPOLYLINE
  5
337
100
AcDbEntity
  8
0
100
AcDbPolyline
 62
7
  6
CONTINUOUS
 90
3
 70
0
 10
-11.1391630667
 20
-12.7886537711
 10
-11.1340200513
 20
-12.7363162634
 10
-11.1317071805
 20
-12.6820011526
  0
LWPOLYLINE
  5
338
100
AcDbEntity
  8
ASSI
100
AcDbPolyline
 62
250
  6
CONTINUOUS
 90
7
 70
0
 10
-8.6966016074
 20
26.4244095311
 10
-8.6980571366
 20
26.4123669696
 10
-8.7028272335
 20
26.399653259
 10
-8.7108396968
 20
26.3873537874
 10
-8.7219604564
 20
26.375674358
 10
-8.7360034322
 20
26.3648103992
 10
-8.7527336473
 20
26.3549436941
  0
LWPOLYLINE
  5
339
100
AcDbEntity
  8
ASSI
100
AcDbPolyline
 62
250
  6
CONTINUOUS
 90
7
 70
0
 10
-8.6966016074
 20
26.0844659363
 10
-8.6980571449
 20
26.0724233411
 10
-8.702827249
 20
26.059709634
 10
-8.7108397164
 20
26.0474101681
 10
-8.7219604756
 20
26.0357307461
 10
-8.7360034451
 20
26.0248667957
 10
-8.7527336473
 20
26.0150000992
  0
LWPOLYLINE
  5
33A
100
AcDbEntity
  8
DRAFT
100
AcDbPolyline
 62
7
  6
CONTINUOUS
 90
7
 70
0
 10
-12.4514006678
 20
-9.2229871415
 10
-12.4370570754
 20
-9.1574584676
 10
-12.4176073977
 20
-9.0957392189
 10
-12.3932033263
 20
-9.0382259092
 10
-12.3643046072
 20
-8.986110087
 10
-12.3307315858
 20
-8.9394296569
 10
-12.2926573457
 20
-8.8981439322
  0
LWPOLYLINE
  5
33B
100
AcDbEntity
  8
ASSI
100
AcDbPolyline
 62
7
  6
CONTINUOUS
 90
14
 70
0
 10
2.3730798966
 20
18.4474074143
 10
2.355469593
 20
18.430568793
 10
2.3366187905
 20
18.414638296
 10
2.3166246796
 20
18.3998171963
 10
2.2955255234
 20
18.3863034909
 10
2.2735227016
 20
18.3742690306
 10
2.2509843797
 20
18.3638494279
 10
2.2280712521
 20
18.3551710942
 10
2.2049439895
 20
18.3483653367
 10
2.1819946102
 20
18.3435152144
 10
2.159437161
 20
18.340661736
 10
2.1374181477
 20
18.339838109
 10
2.1162330753
 20
18.3410295173
 10
2.0954848842
 20
18.3443058652
  0
LWPOLYLINE
  5
33C
100
AcDbEntity
  8
RACCORDO
100
AcDbPolyline
 62
250
  6
CONTINUOUS
 90
30
 70
0
 10
19.6808261609
 20
22.0286013627
 10
19.6994872995
 20
22.0385307057
 10
19.7176003946
 20
22.0487106037
 10
19.7351519952
 20
22.059133497
 10
19.7521290674
 20
22.0697916456
 10
19.768519004
 20
22.0806771346
 10
19.7843096338
 20
22.0917818804
 10
19.7994892304
 20
22.1030976365
 10
19.8140465215
 20
22.1146159999
 10
19.8279706967
 20
22.1263284169
 10
19.8412514159
 20
22.1382261898
 10
19.8538788167
 20
22.1503004833
 10
19.865843522
 20
22.1625423309
 10
19.8771366466
 20
22.1749426418
 10
19.8877498043
 20
22.1874922074
 10
19.8976751137
 20
22.2001817083
 10
19.9069052042
 20
22.2130017213
 10
19.9154332214
 20
22.2259427262
 10
19.9232528324
 20
22.2389951128
 10
19.9303582304
 20
22.2521491884
 10
19.9367441388
 20
22.2653951847
 10
19.9424058153
 20
22.2787232652
 10
19.9473390557
 20
22.2921235324
 10
19.9515401965
 20
22.3055860351
 10
19.9550061178
 20
22.319100776
 10
19.9577342459
 20
22.3326577191
 10
19.9597225549
 20
22.3462467967
 10
19.9609695681
 20
22.3598579177
 10
19.9614743597
 20
22.3734809743
 10
19.9614863606
 20
22.3759288533
  0
LWPOLYLINE
  5
33D
100
AcDbEntity
  8
0
100
AcDbPolyline
 62
250
  6
CONTINUOUS
 90
30
 70
0
 10
19.6808261609
 20
22.0286013627
 10
19.6994872995
 20
22.0385307057
 10
19.7176003946
 20
22.0487106037
 10
19.7351519952
 20
22.059133497
 10
19.7521290674
 20
22.0697916456
 10
19.768519004
 20
22.0806771346
 10
19.7843096338
 20
22.0917818804
 10
19.7994892304
 20
22.1030976365
 10
19.8140465215
 20
22.1146159999
 10
19.8279706967
 20
22.1263284169
 10
19.8412514159
 20
22.1382261898
 10
19.8538788167
 20
22.1503004833
 10
19.865843522
 20
22.1625423309
 10
19.8771366466
 20
22.1749426418
 10
19.8877498043
 20
22.1874922074
 10
19.8976751137
 20
22.2001817083
 10
19.9069052042
 20
22.2130017213
 10
19.9154332214
 20
22.2259427262
 10
19.9232528324
 20
22.2389951128
 10
19.9303582304
 20
22.2521491884
 10
19.9367441388
 20
22.2653951847
 10
19.9424058153
 20
22.2787232652
 10
19.9473390557
 20
22.2921235324
 10
19.9515401965
 20
22.3055860351
 10
19.9550061178
 20
22.319100776
 10
19.9577342459
 20
22.3326577191
 10
19.9597225549
 20
22.3462467967
 10
19.9609695681
 20
22.3598579177
 10
19.9614743597
 20
22.3734809743
 10
19.9614863606
 20
22.3759288533
  0
LINE
  5
33E
100
AcDbEntity
  8
ASSI
100
AcDbLine
 62
7
  6
CONTINUOUS
 10
5.0539677498
 20
15.3382339816
 11
4.3592035634
 21
14.9740809506
  0
LINE
  5
33F
100
AcDbEntity
  8
RACCORDO
100
AcDbLine
 62
250
  6
CONTINUOUS
 10
19.6808261609
 20
22.0286013627
 11
5.1156854248
 21
14.6185454151
  0
LINE
  5
340
100
AcDbEntity
  8
0
100
AcDbLine
 62
250
  6
CONTINUOUS
 10
19.6808261609
 20
22.0286013627
 11
5.1156854248
 21
14.6185454151
  0
LWPOLYLINE
  5
341
100
AcDbEntity
  8
DRAFT
100
AcDbPolyline
 62
7
  6
CONTINUOUS
 90
26
 70
0
 10
-11.4405529686
 20
-13.2354392972
 10
-11.4931993943
 20
-13.2501473837
 10
-11.5478847182
 20
-13.2574042826
 10
-11.605189671
 20
-13.2576656764
 10
-11.6635321991
 20
-13.2509758885
 10
-11.7228130684
 20
-13.2371626124
 10
-11.7831291308
 20
-13.2163971964
 10
-11.8431973408
 20
-13.1892415921
 10
-11.9029911027
 20
-13.155606068
 10
-11.9625374205
 20
-13.1155805655
 10
-12.0206379082
 20
-13.0699984028
 10
-12.0773431249
 20
-13.0186744436
 10
-12.1326054355
 20
-12.9617950675
 10
-12.1850835044
 20
-12.9007527595
 10
-12.2346340956
 20
-12.83557716
 10
-12.2814063935
 20
-12.7662411364
 10
-12.3245012768
 20
-12.6940535837
 10
-12.3639367599
 20
-12.6187743117
 10
-12.3997009687
 20
-12.5406460629
 10
-12.4308526289
 20
-12.4617033259
 10
-12.4572200899
 20
-12.3820664672
 10
-12.478981205
 20
-12.301617719
 10
-12.4957207477
 20
-12.2220351987
 10
-12.5073019539
 20
-12.143878988
 10
-12.5138653599
 20
-12.0665905949
 10
-12.5154115116
 20
-11.9901702264
  0
LWPOLYLINE
  5
342
100
AcDbEntity
  8
ASSI
100
AcDbPolyline
 62
7
  6
CONTINUOUS
 90
5
 70
0
 10
3.8402605915
 20
-21.3624589625
 10
3.8237476455
 20
-21.3438922293
 10
3.8054326325
 20
-21.3274576052
 10
3.7854545554
 20
-21.3132200721
 10
3.7663033178
 20
-21.3024385956
  0
LWPOLYLINE
  5
343
100
AcDbEntity
  8
ASSI
100
AcDbPolyline
 62
250
  6
CONTINUOUS
 90
7
 70
0
 10
-13.3716477972
 20
26.0298897241
 10
-13.369741732
 20
26.0161847661
 10
-13.3645285919
 20
26.0035146167
 10
-13.3560880382
 20
25.9912869367
 10
-13.3445613041
 20
25.9797063282
 10
-13.3301412627
 20
25.9689665658
 10
-13.3130692001
 20
25.9592473548
  0
LWPOLYLINE
  5
344
100
AcDbEntity
  8
ASSI
100
AcDbPolyline
 62
250
  6
CONTINUOUS
 90
7
 70
0
 10
-13.3716478359
 20
26.3471984692
 10
-13.3697417389
 20
26.3334535912
 10
-13.3645286039
 20
26.3207834387
 10
-13.3560880528
 20
26.3085557544
 10
-13.344561318
 20
26.2969751405
 10
-13.3301412719
 20
26.2862353722
 10
-13.3130692001
 20
26.2765161551
  0
LWPOLYLINE
  5
345
100
AcDbEntity
  8
ASSI
100
AcDbPolyline
 62
7
  6
CONTINUOUS
 90
13
 70
0
 10
-9.3109700578
 20
26.1206063588
 10
-9.3121736747
 20
26.1438189947
 10
-9.3157829047
 20
26.1678401993
 10
-9.3217318141
 20
26.1922614128
 10
-9.3299139464
 20
26.2166676801
 10
-9.340188481
 20
26.2406418224
 10
-9.3523824932
 20
26.2637716094
 10
-9.3662899134
 20
26.2856601341
 10
-9.3816703393
 20
26.3059342533
 10
-9.3982572369
 20
26.3242482433
 10
-9.4157676575
 20
26.3402883888
 10
-9.4339071614
 20
26.3537782017
 10
-9.4523698749
 20
26.3644849681
  0
LWPOLYLINE
  5
346
100
AcDbEntity
  8
ASSI
100
AcDbPolyline
 62
7
  6
CONTINUOUS
 90
10
 70
0
 10
-8.6966021367
 20
26.4246161076
 10
-8.6974838059
 20
26.4454615636
 10
-8.7018304172
 20
26.4751234347
 10
-8.7097968387
 20
26.5038364113
 10
-8.7212780316
 20
26.5311076985
 10
-8.7359556478
 20
26.5562864987
 10
-8.753574365
 20
26.5791091921
 10
-8.7739775312
 20
26.5994132462
 10
-8.796734866
 20
26.6167883966
 10
-8.8198484543
 20
26.6301852596
  0
LINE
  5
347
100
AcDbEntity
  8
ASSI
100
AcDbLine
 62
7
  6
CONTINUOUS
 10
-9.3109700578
 20
24.4751317116
 11
-9.3109700578
 21
26.1206063588
  0
LINE
  5
348
100
AcDbEntity
  8
ASSI
100
AcDbLine
 62
250
  6
CONTINUOUS
 10
-8.7527336473
 20
26.3549436941
 11
-8.7527336473
 21
26.0150000992
  0
LINE
  5
349
100
AcDbEntity
  8
ASSI
100
AcDbLine
 62
7
  6
CONTINUOUS
 10
-8.6966020341
 20
26.4246161077
 11
-8.6966016074
 21
26.0844659365
  0
LINE
  5
34A
100
AcDbEntity
  8
ASSI
100
AcDbLine
 62
7
  6
CONTINUOUS
 10
-7.6334127668
 20
23.3041960733
 11
-7.6334127668
 21
24.4888005792
  0
LINE
  5
34B
100
AcDbEntity
  8
ASSI
100
AcDbLine
 62
250
  6
CONTINUOUS
 10
-7.574834123
 20
23.2308171196
 11
-7.574834123
 21
24.4180899009
  0
LWPOLYLINE
  5
34C
100
AcDbEntity
  8
ASSI
100
AcDbPolyline
 62
250
  6
CONTINUOUS
 90
28
 70
0
 10
-7.574834123
 20
24.4180899009
 10
-7.5748042614
 20
24.4201905107
 10
-7.5746717163
 20
24.4222828567
 10
-7.5744364876
 20
24.4243669391
 10
-7.5741031278
 20
24.426459035
 10
-7.5736670844
 20
24.4285428672
 10
-7.5731147004
 20
24.4305696037
 10
-7.572441831
 20
24.4325381947
 10
-7.5716526209
 20
24.4344496901
 10
-7.5707458481
 20
24.4362584077
 10
-7.5697172125
 20
24.4379611737
 10
-7.5685710141
 20
24.4395611619
 10
-7.5673189301
 20
24.4410222114
 10
-7.5659583304
 20
24.4423393193
 10
-7.5644918451
 20
24.4435174886
 10
-7.5629390419
 20
24.4445355678
 10
-7.5612998846
 20
24.4453892965
 10
-7.5595744095
 20
24.4460829351
 10
-7.5577822928
 20
24.4466081127
 10
-7.5559230979
 20
24.4469626933
 10
-7.5539972614
 20
24.447148813
 10
-7.5520257686
 20
24.4471645089
 10
-7.5500080529
 20
24.4470078768
 10
-7.5479446809
 20
24.446680821
 10
-7.5458583379
 20
24.4461870903
 10
-7.5437565858
 20
24.4455279346
 10
-7.5416318628
 20
24.4447021042
 10
-7.5394841688
 20
24.4437095989
  0
LWPOLYLINE
  5
34D
100
AcDbEntity
  8
ASSI
100
AcDbPolyline
 62
250
  6
CONTINUOUS
 90
19
 70
0
 10
-8.7527336473
 20
26.0150000992
 10
-8.7527651125
 20
26.0128191995
 10
-8.7529010289
 20
26.0105439958
 10
-8.7531413965
 20
26.0081744883
 10
-8.7534817217
 20
26.0056992385
 10
-8.753926498
 20
26.0031296848
 10
-8.7544892064
 20
26.0005001426
 10
-8.7551737362
 20
25.9978074069
 10
-8.7559761981
 20
25.9950546827
 10
-8.7568984045
 20
25.9922859004
 10
-8.7579445433
 20
25.989499524
 10
-8.7591104266
 20
25.9866970895
 10
-8.7603853029
 20
25.9839271362
 10
-8.7617729644
 20
25.981190274
 10
-8.7632696189
 20
25.978485893
 10
-8.7648531377
 20
25.9758607023
 10
-8.7665161447
 20
25.9733302718
 10
-8.7682660162
 20
25.9708790317
 10
-8.7701027519
 20
25.968506982
  0
LWPOLYLINE
  5
34E
100
AcDbEntity
  8
ASSI
100
AcDbPolyline
 62
7
  6
CONTINUOUS
 90
10
 70
0
 10
-1.073176057
 20
20.8603091734
 10
-1.0592350746
 20
20.8939889594
 10
-1.0487793378
 20
20.9300579919
 10
-1.0418088466
 20
20.9685162709
 10
-1.0383236011
 20
21.009794879
 10
-1.0383236011
 20
21.0534627336
 10
-1.0418088466
 20
21.0982265872
 10
-1.0487793378
 20
21.1436553575
 10
-1.0592350746
 20
21.1901801268
 10
-1.073176057
 20
21.2378008951
  0
LWPOLYLINE
  5
34F
100
AcDbEntity
  8
ASSI
100
AcDbPolyline
 62
7
  6
CONTINUOUS
 90
6
 70
0
 10
0.1356790401
 20
19.1343432129
 10
0.1374753376
 20
19.1380232194
 10
0.1427009632
 20
19.144215015
 10
0.1508981726
 20
19.1525553433
 10
0.1618706231
 20
19.1621171359
 10
0.17543661
 20
19.1726811948
  0
LWPOLYLINE
  5
350
100
AcDbEntity
  8
ASSI
100
AcDbPolyline
 62
250
  6
CONTINUOUS
 90
10
 70
0
 10
3.8163979532
 20
19.6752566295
 10
3.8198358092
 20
19.6798872581
 10
3.8229170038
 20
19.6847063227
 10
3.8256415369
 20
19.6897138231
 10
3.8280365118
 20
19.6949825829
 10
3.8300748252
 20
19.7004397786
 10
3.8316751675
 20
19.7058669398
 10
3.8328104354
 20
19.7111912432
 10
3.8335077322
 20
19.7164855121
 10
3.8337670578
 20
19.7217497467
  0
LWPOLYLINE
  5
351
100
AcDbEntity
  8
ASSI
100
AcDbPolyline
 62
7
  6
CONTINUOUS
 90
6
 70
0
 10
3.8280588429
 20
19.6189810175
 10
3.835943499
 20
19.6292213469
 10
3.8499160279
 20
19.6502033183
 10
3.8620947713
 20
19.6726591946
 10
3.8723309252
 20
19.6964678568
 10
3.8802249988
 20
19.7207036766
  0
LINE
  5
352
100
AcDbEntity
  8
ASSI
100
AcDbLine
 62
250
  6
CONTINUOUS
 10
3.2755306473
 20
19.0059691434
 11
3.8163979532
 21
19.6752566295
  0
LINE
  5
353
100
AcDbEntity
  8
ASSI
100
AcDbLine
 62
7
  6
CONTINUOUS
 10
3.2755306473
 20
18.9352644825
 11
3.8280854478
 21
19.6190144695
  0
LWPOLYLINE
  5
354
100
AcDbEntity
  8
RACCORDO
100
AcDbPolyline
 62
250
  6
CONTINUOUS
 90
9
 70
0
 10
10.0734292152
 20
22.7052441272
 10
10.1176577071
 20
22.756044184
 10
10.1767365776
 20
22.8153034013
 10
10.241829357
 20
22.8729113345
 10
10.3127051889
 20
22.9286848021
 10
10.3891983267
 20
22.9825127376
 10
10.4711897304
 20
23.0343139213
 10
10.5584383274
 20
23.0839315606
 10
10.5788077068
 20
23.094800542
  0
LWPOLYLINE
  5
355
100
AcDbEntity
  8
RACCORDO
100
AcDbPolyline
 62
250
  6
CONTINUOUS
 90
56
 70
0
 10
19.7983804663
 20
16.5861015758
 10
19.8054778836
 20
16.5886492958
 10
19.8126517917
 20
16.5909669668
 10
19.8199011909
 20
16.5930559893
 10
19.8272235621
 20
16.5949340991
 10
19.8346190666
 20
16.5965867278
 10
19.842090258
 20
16.5979673692
 10
19.849646527
 20
16.599080237
 10
19.8572745547
 20
16.5999260914
 10
19.864942035
 20
16.6004541585
 10
19.8726490038
 20
16.6006639351
 10
19.8803897154
 20
16.6005628415
 10
19.8881224248
 20
16.6001128022
 10
19.8958351342
 20
16.5993155287
 10
19.9035323848
 20
16.5981780991
 10
19.9111963985
 20
16.5966713936
 10
19.9188142912
 20
16.5948045444
 10
19.9263893684
 20
16.5925796324
 10
19.9339267147
 20
16.589958606
 10
19.9414211632
 20
16.5869541026
 10
19.9488649794
 20
16.58356871
 10
19.9562571028
 20
16.5797520219
 10
19.9635947196
 20
16.5755167968
 10
19.970863164
 20
16.5708711925
 10
19.9780406636
 20
16.5657614047
 10
19.9851207345
 20
16.5602022414
 10
19.992086988
 20
16.554206781
 10
19.9988994976
 20
16.5477226189
 10
20.0055468445
 20
16.5407706302
 10
20.0120115537
 20
16.5333660663
 10
20.0182407742
 20
16.5254528727
 10
20.0242170473
 20
16.5170683672
 10
20.0299220051
 20
16.5082214967
 10
20.0352953616
 20
16.4988214378
 10
20.0403211954
 20
16.4889225423
 10
20.04496822
 20
16.4785337175
 10
20.0491420712
 20
16.4675104664
 10
20.0528333337
 20
16.4558657935
 10
20.0559828825
 20
16.4436821599
 10
20.0584139303
 20
16.4309300814
 10
20.0600856513
 20
16.4175857089
 10
20.0609622698
 20
16.4037860324
 10
20.0608888349
 20
16.3897238466
 10
20.0598155266
 20
16.3754268164
 10
20.0577466708
 20
16.3609441797
 10
20.0546383528
 20
16.346459306
 10
20.0504482715
 20
16.3319568212
 10
20.0452014037
 20
16.3174927049
 10
20.0389881206
 20
16.3033079234
 10
20.0318340462
 20
16.2894447955
 10
20.0237376849
 20
16.2758387516
 10
20.0147697445
 20
16.2625377966
 10
20.004942386
 20
16.2495297985
 10
19.9942681161
 20
16.236801218
 10
19.9828226241
 20
16.22439037
 10
19.9706270682
 20
16.2122882947
  0
LWPOLYLINE
  5
356
100
AcDbEntity
  8
0
100
AcDbPolyline
 62
250
  6
CONTINUOUS
 90
56
 70
0
 10
19.7983804663
 20
16.5861015758
 10
19.8054778836
 20
16.5886492958
 10
19.8126517917
 20
16.5909669668
 10
19.8199011909
 20
16.5930559893
 10
19.8272235621
 20
16.5949340991
 10
19.8346190666
 20
16.5965867278
 10
19.842090258
 20
16.5979673692
 10
19.849646527
 20
16.599080237
 10
19.8572745547
 20
16.5999260914
 10
19.864942035
 20
16.6004541585
 10
19.8726490038
 20
16.6006639351
 10
19.8803897154
 20
16.6005628415
 10
19.8881224248
 20
16.6001128022
 10
19.8958351342
 20
16.5993155287
 10
19.9035323848
 20
16.5981780991
 10
19.9111963985
 20
16.5966713936
 10
19.9188142912
 20
16.5948045444
 10
19.9263893684
 20
16.5925796324
 10
19.9339267147
 20
16.589958606
 10
19.9414211632
 20
16.5869541026
 10
19.9488649794
 20
16.58356871
 10
19.9562571028
 20
16.5797520219
 10
19.9635947196
 20
16.5755167968
 10
19.970863164
 20
16.5708711925
 10
19.9780406636
 20
16.5657614047
 10
19.9851207345
 20
16.5602022414
 10
19.992086988
 20
16.554206781
 10
19.9988994976
 20
16.5477226189
 10
20.0055468445
 20
16.5407706302
 10
20.0120115537
 20
16.5333660663
 10
20.0182407742
 20
16.5254528727
 10
20.0242170473
 20
16.5170683672
 10
20.0299220051
 20
16.5082214967
 10
20.0352953616
 20
16.4988214378
 10
20.0403211954
 20
16.4889225423
 10
20.04496822
 20
16.4785337175
 10
20.0491420712
 20
16.4675104664
 10
20.0528333337
 20
16.4558657935
 10
20.0559828825
 20
16.4436821599
 10
20.0584139303
 20
16.4309300814
 10
20.0600856513
 20
16.4175857089
 10
20.0609622698
 20
16.4037860324
 10
20.0608888349
 20
16.3897238466
 10
20.0598155266
 20
16.3754268164
 10
20.0577466708
 20
16.3609441797
 10
20.0546383528
 20
16.346459306
 10
20.0504482715
 20
16.3319568212
 10
20.0452014037
 20
16.3174927049
 10
20.0389881206
 20
16.3033079234
 10
20.0318340462
 20
16.2894447955
 10
20.0237376849
 20
16.2758387516
 10
20.0147697445
 20
16.2625377966
 10
20.004942386
 20
16.2495297985
 10
19.9942681161
 20
16.236801218
 10
19.9828226241
 20
16.22439037
 10
19.9706270682
 20
16.2122882947
  0
LWPOLYLINE
  5
357
100
AcDbEntity
  8
ASSI
100
AcDbPolyline
 62
7
  6
CONTINUOUS
 90
4
 70
0
 10
0.1661034175
 20
-22.0109302465
 10
0.175088999
 20
-22.034509236
 10
0.190791824
 20
-22.068432326
 10
0.2089000233
 20
-22.1013413963
  0
LINE
  5
358
100
AcDbEntity
  8
ASSI
100
AcDbLine
 62
250
  6
CONTINUOUS
 10
-5.2841857259
 20
23.2727657023
 11
-5.2841857259
 21
22.085492921
  0
LINE
  5
359
100
AcDbEntity
  8
ASSI
100
AcDbLine
 62
250
  6
CONTINUOUS
 10
-5.0038326956
 20
23.2715424004
 11
-5.0038326956
 21
22.0931884921
  0
LINE
  5
35A
100
AcDbEntity
  8
ASSI
100
AcDbLine
 62
7
  6
CONTINUOUS
 10
-4.7854866582
 20
22.2123900118
 11
-4.7854866582
 21
23.3815572819
  0
LWPOLYLINE
  5
35B
100
AcDbEntity
  8
ASSI
100
AcDbPolyline
 62
250
  6
CONTINUOUS
 90
13
 70
0
 10
-3.8271735675
 20
22.5875542983
 10
-3.8259903893
 20
22.6105038873
 10
-3.8224606517
 20
22.6342526495
 10
-3.8166434159
 20
22.6584032051
 10
-3.8086360189
 20
22.6825514507
 10
-3.7985724452
 20
22.7062933213
 10
-3.7866210846
 20
22.7292315515
 10
-3.7729819149
 20
22.750982323
 10
-3.7578831554
 20
22.771181686
 10
-3.7415774489
 20
22.7894916498
 10
-3.7243376337
 20
22.8056058387
 10
-3.7064521782
 20
22.8192546179
 10
-3.6882203543
 20
22.8302096057
  0
LWPOLYLINE
  5
35C
100
AcDbEntity
  8
ASSI
100
AcDbPolyline
 62
250
  6
CONTINUOUS
 90
12
 70
0
 10
1.6362720924
 20
18.6037075913
 10
1.6257603263
 20
18.5803366703
 10
1.6130755712
 20
18.5585784003
 10
1.5984324654
 20
18.5388009524
 10
1.5820787843
 20
18.5213389799
 10
1.5642912481
 20
18.5064879564
 10
1.5453708391
 20
18.4944991755
 10
1.5256377086
 20
18.485575499
 10
1.5054257606
 20
18.479867924
 10
1.4850770013
 20
18.4774730282
 10
1.4649357516
 20
18.4784313355
 10
1.4558376397
 20
18.4799951572
  0
LWPOLYLINE
  5
35D
100
AcDbEntity
  8
RACCORDO
100
AcDbPolyline
 62
250
  6
CONTINUOUS
 90
47
 70
0
 10
10.1543202321
 20
22.6721984633
 10
10.1830870117
 20
22.7106514281
 10
10.2323702301
 20
22.7674321055
 10
10.2875039047
 20
22.8230227198
 10
10.3480073831
 20
22.8769652421
 10
10.4138797347
 20
22.9292181416
 10
10.48512189
 20
22.9798229491
 10
10.5612559877
 20
23.0284462276
 10
10.6422726166
 20
23.0750739701
 10
10.728181188
 20
23.1197201837
 10
10.8185320737
 20
23.1620934528
 10
10.9135823539
 20
23.2022526508
 10
11.0130749484
 20
23.2401389043
 10
11.1157889888
 20
23.2752841775
 10
11.2221298576
 20
23.3076618973
 10
11.3316921721
 20
23.3372986369
 10
11.4420389165
 20
23.3638060791
 10
11.5531434335
 20
23.3870054725
 10
11.6650323802
 20
23.4070755686
 10
11.7753487123
 20
23.4241643044
 10
11.8837392022
 20
23.4381382002
 10
11.9905570775
 20
23.4491307358
 10
12.0945049766
 20
23.457690287
 10
12.195340811
 20
23.4637928566
 10
12.2933066693
 20
23.4674624418
 10
12.3878314556
 20
23.4693194106
 10
12.4787531957
 20
23.4693852794
 10
12.5662338639
 20
23.4676385319
 10
12.6501882873
 20
23.4646349866
 10
12.7304923607
 20
23.4604161859
 10
12.8072701892
 20
23.4549405874
 10
12.8808089157
 20
23.4486393818
 10
12.9510754494
 20
23.441553348
 10
13.018102881
 20
23.4336417071
 10
13.0822776251
 20
23.425213313
 10
13.1435853719
 20
23.4163026724
 10
13.2020404314
 20
23.4068752786
 10
13.2580721479
 20
23.3971364648
 10
13.3116767314
 20
23.3871149431
 10
13.3628579721
 20
23.3767820013
 10
13.4120565844
 20
23.3662568366
 10
13.4592757293
 20
23.3555622974
 10
13.5045122458
 20
23.3446755353
 10
13.5481973657
 20
23.3336472017
 10
13.5904748328
 20
23.3224941804
 10
13.6312009032
 20
23.3111995875
 10
13.6703755769
 20
23.2997634232
  0
LWPOLYLINE
  5
35E
100
AcDbEntity
  8
ASSI
100
AcDbPolyline
 62
7
  6
CONTINUOUS
 90
13
 70
0
 10
-4.7854866582
 20
23.3815572819
 10
-4.7869911793
 20
23.4105730768
 10
-4.7915027169
 20
23.4405995826
 10
-4.7989388536
 20
23.4711260994
 10
-4.8091665189
 20
23.5016339335
 10
-4.8220096872
 20
23.5316016114
 10
-4.8372522024
 20
23.5605138452
 10
-4.8546364777
 20
23.5878745011
 10
-4.87386201
 20
23.61321715
 10
-4.8945956321
 20
23.6361096375
 10
-4.9164836578
 20
23.6561598195
 10
-4.9391580378
 20
23.6730220856
 10
-4.9622364296
 20
23.6864055436
  0
LINE
  5
35F
100
AcDbEntity
  8
ASSI
100
AcDbLine
 62
7
  6
CONTINUOUS
 10
-4.1034264279
 20
22.5640531712
 11
-4.1277182468
 21
23.7078152631
  0
LINE
  5
360
100
AcDbEntity
  8
ASSI
100
AcDbLine
 62
7
  6
CONTINUOUS
 10
-2.6586371962
 20
25.2220716831
 11
-2.6763288622
 21
26.4091437302
  0
LINE
  5
361
100
AcDbEntity
  8
ASSI
100
AcDbLine
 62
250
  6
CONTINUOUS
 10
-2.7746664904
 20
25.0849029155
 11
-2.7871105318
 21
26.2782904854
  0
LINE
  5
362
100
AcDbEntity
  8
ASSI
100
AcDbLine
 62
250
  6
CONTINUOUS
 10
-3.8625235218
 20
22.5619346003
 11
-3.8625235218
 21
21.3746618189
  0
LINE
  5
363
100
AcDbEntity
  8
ASSI
100
AcDbLine
 62
7
  6
CONTINUOUS
 10
-3.9211021656
 20
21.4480407726
 11
-3.9211021143
 21
22.6327168993
  0
LWPOLYLINE
  5
364
100
AcDbEntity
  8
RACCORDO
100
AcDbPolyline
 62
250
  6
CONTINUOUS
 90
5
 70
0
 10
-3.6105085859
 20
-22.7153857873
 10
-3.5671818845
 20
-18.6849555625
 10
-3.4918874909
 20
-14.6405323111
 10
-3.384625405
 20
-10.5821160329
 10
-3.2453721724
 20
-6.5091468133
  0
LWPOLYLINE
  5
365
100
AcDbEntity
  8
RACCORDO
100
AcDbPolyline
 62
250
  6
CONTINUOUS
 90
9
 70
0
 10
-4.2835699507
 20
-22.7188029609
 10
-4.2374015701
 20
-18.6860481674
 10
-4.1599360034
 20
-14.6382608762
 10
-4.0511666902
 20
-10.5758026328
 10
-3.9110841114
 20
-6.4988528413
 10
-3.7396986282
 20
-2.4079626138
 10
-3.537049043
 20
1.6959417645
 10
-3.3031716381
 20
5.8122978847
 10
-3.0380915915
 20
9.940911221
  0
LINE
  5
366
100
AcDbEntity
  8
RACCORDO
100
AcDbLine
 62
250
  6
CONTINUOUS
 10
-3.2453721724
 20
-6.5091468133
 11
-3.0741512475
 21
-2.4221845671
  0
LINE
  5
367
100
AcDbEntity
  8
RACCORDO
100
AcDbLine
 62
250
  6
CONTINUOUS
 10
-3.0741512475
 20
-2.4221845671
 11
-2.8710329939
 21
1.6770909616
  0
LWPOLYLINE
  5
368
100
AcDbEntity
  8
ASSI
100
AcDbPolyline
 62
250
  6
CONTINUOUS
 90
13
 70
0
 10
-1.607225079
 20
21.477580054
 10
-1.6060418991
 20
21.5005296584
 10
-1.6025121575
 20
21.5242784339
 10
-1.5966949161
 20
21.5484289998
 10
-1.5886875129
 20
21.5725772521
 10
-1.5786239335
 20
21.5963191256
 10
-1.5666725686
 20
21.619257355
 10
-1.5530333966
 20
21.6410081218
 10
-1.5379346375
 20
21.6612074774
 10
-1.5216289343
 20
21.6795174321
 10
-1.5043891251
 20
21.6956316113
 10
-1.4865036784
 20
21.7092803813
 10
-1.4682718657
 20
21.7202353614
  0
LWPOLYLINE
  5
369
100
AcDbEntity
  8
ASSI
100
AcDbPolyline
 62
7
  6
CONTINUOUS
 90
9
 70
0
 10
-2.6585899852
 20
25.2220713308
 10
-2.6593510662
 20
25.2086936773
 10
-2.6639886789
 20
25.1889445874
 10
-2.6729947503
 20
25.1693877203
 10
-2.686206622
 20
25.1501458797
 10
-2.7030383285
 20
25.1319985322
 10
-2.7232945477
 20
25.1152055001
 10
-2.7471706017
 20
25.0995069612
 10
-2.7746664904
 20
25.0849029155
  0
LINE
  5
36A
100
AcDbEntity
  8
RACCORDO
100
AcDbLine
 62
250
  6
CONTINUOUS
 10
-2.8710329939
 20
1.6770909616
 11
-2.6360408663
 21
5.788119858
  0
LINE
  5
36B
100
AcDbEntity
  8
RACCORDO
100
AcDbLine
 62
250
  6
CONTINUOUS
 10
-2.6360408663
 20
5.788119858
 11
-2.36915141
 21
9.9114620367
  0
LINE
  5
36C
100
AcDbEntity
  8
RACCORDO
100
AcDbLine
 62
250
  6
CONTINUOUS
 10
-3.0380915915
 20
9.940911221
 11
-2.7418465578
 21
14.0814009583
  0
LINE
  5
36D
100
AcDbEntity
  8
RACCORDO
100
AcDbLine
 62
250
  6
CONTINUOUS
 10
-2.36915141
 20
9.9114620367
 11
-2.070364625
 21
14.0471174979
  0
LWPOLYLINE
  5
36E
100
AcDbEntity
  8
RACCORDO
100
AcDbPolyline
 62
250
  6
CONTINUOUS
 90
22
 70
0
 10
-2.7418465485
 20
14.0814009605
 10
-2.7340305854
 20
14.159047888
 10
-2.7219974536
 20
14.2379793344
 10
-2.7058066815
 20
14.3177906031
 10
-2.6855328966
 20
14.3980634317
 10
-2.6612806859
 20
14.4783942521
 10
-2.6331813823
 20
14.5583962647
 10
-2.6013634547
 20
14.6376621045
 10
-2.5659846521
 20
14.7157780374
 10
-2.5272447356
 20
14.7923522347
 10
-2.4853270882
 20
14.8669862498
 10
-2.4404356876
 20
14.9392944478
 10
-2.3928241583
 20
15.0089179879
 10
-2.3427175123
 20
15.0754940432
 10
-2.2903604842
 20
15.1386740136
 10
-2.2360545617
 20
15.1981433625
 10
-2.180063103
 20
15.2535863841
 10
-2.1226543688
 20
15.3047152803
 10
-2.0641492467
 20
15.3512867903
 10
-2.0048441393
 20
15.3930611138
 10
-1.9450100224
 20
15.4298048094
 10
-1.8849353303
 20
15.461319
  0
LWPOLYLINE
  5
36F
100
AcDbEntity
  8
RACCORDO
100
AcDbPolyline
 62
250
  6
CONTINUOUS
 90
22
 70
0
 10
-2.070364625
 20
14.0471174979
 10
-2.0656359055
 20
14.0924956432
 10
-2.0584224404
 20
14.1381796489
 10
-2.0487242298
 20
14.184169515
 10
-2.0364660882
 20
14.230723345
 10
-2.021723201
 20
14.2775830353
 10
-2.0047211253
 20
14.3239742756
 10
-1.9854272249
 20
14.3698698711
 10
-1.9638741359
 20
14.4152970165
 10
-1.9403853242
 20
14.4595629855
 10
-1.9149286762
 20
14.5026528345
 10
-1.8875363054
 20
14.5445815072
 10
-1.8586280187
 20
14.5847011077
 10
-1.828180511
 20
14.6229820919
 10
-1.7962170875
 20
14.659454004
 10
-1.7632274708
 20
14.6935575809
 10
-1.7291793036
 20
14.7252635234
 10
-1.6941049433
 20
14.7546011306
 10
-1.6585911841
 20
14.7810990366
 10
-1.6228336242
 20
14.8046001193
 10
-1.5866366654
 20
14.8252615007
 10
-1.5500003077
 20
14.8430831809
  0
LINE
  5
370
100
AcDbEntity
  8
DRAFT
100
AcDbLine
 62
7
  6
CONTINUOUS
 10
19.9614863606
 20
16.1962295403
 11
20.8766631477
 21
16.7881581595
  0
LINE
  5
371
100
AcDbEntity
  8
0
100
AcDbLine
 62
7
  6
CONTINUOUS
 10
19.9614863606
 20
16.1962295403
 11
20.8766631477
 21
16.7881581595
  0
LWPOLYLINE
  5
372
100
AcDbEntity
  8
ASSI
100
AcDbPolyline
 62
250
  6
CONTINUOUS
 90
6
 70
0
 10
3.823602293
 20
-21.3982906374
 10
3.815579835
 20
-21.3754891667
 10
3.8051368356
 20
-21.354454118
 10
3.7924499997
 20
-21.3355414246
 10
3.7777340006
 20
-21.3190711074
 10
3.7612378475
 20
-21.3053218603
  0
LWPOLYLINE
  5
373
100
AcDbEntity
  8
ASSI
100
AcDbPolyline
 62
7
  6
CONTINUOUS
 90
5
 70
0
 10
3.8837387202
 20
-21.4534404093
 10
3.8765715939
 20
-21.4285982924
 10
3.8668540504
 20
-21.4050548857
 10
3.8547126911
 20
-21.3829536285
 10
3.8402605915
 20
-21.3624589625
  0
LWPOLYLINE
  5
374
100
AcDbEntity
  8
ASSI
100
AcDbPolyline
 62
250
  6
CONTINUOUS
 90
7
 70
0
 10
-7.6334127668
 20
24.4888005787
 10
-7.631506636
 20
24.4750272444
 10
-7.6262934823
 20
24.4623571036
 10
-7.6178529217
 20
24.4501294359
 10
-7.6063261893
 20
24.438548842
 10
-7.5919061606
 20
24.4278090958
 10
-7.574834123
 20
24.4180899009
  0
LINE
  5
375
100
AcDbEntity
  8
DRAFT
100
AcDbLine
 62
7
  6
CONTINUOUS
 10
0.729946235
 20
-15.3809773542
 11
0.5670085303
 21
-13.440715317
  0
LWPOLYLINE
  5
376
100
AcDbEntity
  8
ASSI
100
AcDbPolyline
 62
7
  6
CONTINUOUS
 90
12
 70
0
 10
-2.6763287337
 20
26.4091376773
 10
-2.6779600975
 20
26.435379716
 10
-2.6834839768
 20
26.4680030516
 10
-2.6929326722
 20
26.5001958295
 10
-2.7063132753
 20
26.5315173352
 10
-2.7234908552
 20
26.5613860537
 10
-2.7443733938
 20
26.5894693566
 10
-2.7689094661
 20
26.6155264481
 10
-2.796717592
 20
26.6390525304
 10
-2.8273222201
 20
26.6596700225
 10
-2.860967719
 20
26.677533181
 10
-2.8972713884
 20
26.6923939354
  0
LWPOLYLINE
  5
377
100
AcDbEntity
  8
ASSI
100
AcDbPolyline
 62
7
  6
CONTINUOUS
 90
13
 70
0
 10
-1.073176057
 20
21.5254019813
 10
-1.0746805781
 20
21.5544177762
 10
-1.0791921156
 20
21.5844442819
 10
-1.0866282524
 20
21.6149707988
 10
-1.0968559177
 20
21.6454786329
 10
-1.109699086
 20
21.6754463108
 10
-1.1249416012
 20
21.7043585446
 10
-1.1423258765
 20
21.7317192005
 10
-1.1615514088
 20
21.7570618494
 10
-1.1822850309
 20
21.7799543369
 10
-1.2041730566
 20
21.8000045188
 10
-1.2268474365
 20
21.8168667849
 10
-1.2499258283
 20
21.830250243
  0
LWPOLYLINE
  5
378
100
AcDbEntity
  8
ASSI
100
AcDbPolyline
 62
250
  6
CONTINUOUS
 90
28
 70
0
 10
-1.2915220944
 20
21.4153870998
 10
-1.291888284
 20
21.4267060905
 10
-1.2927479045
 20
21.4384757696
 10
-1.2941278682
 20
21.4506753561
 10
-1.2960584773
 20
21.4633076275
 10
-1.2985615513
 20
21.4763151988
 10
-1.3016385986
 20
21.4895778969
 10
-1.3052995919
 20
21.5030555476
 10
-1.3095517805
 20
21.516703816
 10
-1.3143684704
 20
21.5303893413
 10
-1.3197399179
 20
21.5440585006
 10
-1.3256576478
 20
21.55766674
 10
-1.3320753708
 20
21.5710950946
 10
-1.3389632408
 20
21.5842811532
 10
-1.3463042958
 20
21.5971928131
 10
-1.3540589408
 20
21.6097616722
 10
-1.3621917267
 20
21.6219352013
 10
-1.3706784392
 20
21.6336819771
 10
-1.3794928499
 20
21.644968598
 10
-1.3886039205
 20
21.6557570299
 10
-1.3979786637
 20
21.6660099369
 10
-1.4075874361
 20
21.6756964181
 10
-1.4173964409
 20
21.6847830678
 10
-1.4273713588
 20
21.693238791
 10
-1.4374812971
 20
21.7010379126
 10
-1.4476924215
 20
21.7081539597
 10
-1.4579678703
 20
21.7145606543
 10
-1.4682718657
 20
21.7202353614
  0
LWPOLYLINE
  5
379
100
AcDbEntity
  8
ASSI
100
AcDbPolyline
 62
250
  6
CONTINUOUS
 90
15
 70
0
 10
-0.726568495
 20
19.6659970022
 10
-0.7263558852
 20
19.6554752605
 10
-0.7256935906
 20
19.6448881503
 10
-0.7245439048
 20
19.6342860968
 10
-0.7228653997
 20
19.6237020548
 10
-0.7206237872
 20
19.613219946
 10
-0.7178031887
 20
19.6029660671
 10
-0.7143801836
 20
19.5930004835
 10
-0.7103337598
 20
19.5833868415
 10
-0.7056748305
 20
19.574243201
 10
-0.7003978589
 20
19.5656260629
 10
-0.6945003859
 20
19.5575926395
 10
-0.6880219845
 20
19.5502402502
 10
-0.6809761798
 20
19.5436125801
 10
-0.6733789753
 20
19.5377511706
  0
LWPOLYLINE
  5
37A
100
AcDbEntity
  8
ASSI
100
AcDbPolyline
 62
250
  6
CONTINUOUS
 90
28
 70
0
 10
-1.5718751247
 20
21.4166104017
 10
-1.5719141598
 20
21.4188955215
 10
-1.5720634555
 20
21.421260288
 10
-1.5723230119
 20
21.4237047013
 10
-1.5726903021
 20
21.4262414866
 10
-1.5731678529
 20
21.4288579185
 10
-1.573763245
 20
21.4315158213
 10
-1.574480653
 20
21.4342174519
 10
-1.5753159023
 20
21.4369605532
 10
-1.5762640488
 20
21.4397001786
 10
-1.5773285605
 20
21.4424356929
 10
-1.5785059694
 20
21.4451677313
 10
-1.5797809276
 20
21.4478532517
 10
-1.5811544405
 20
21.4504884386
 10
-1.5826255029
 20
21.4530771076
 10
-1.5841757508
 20
21.4555876642
 10
-1.5858049474
 20
21.4580171214
 10
-1.5875133296
 20
21.4603684663
 10
-1.589283245
 20
21.4626190658
 10
-1.5911152411
 20
21.4647680738
 10
-1.5930087703
 20
21.4668163365
 10
-1.5949445379
 20
21.468743759
 10
-1.596922871
 20
21.4705492134
 10
-1.5989434424
 20
21.4722338275
 10
-1.6009859765
 20
21.4737808897
 10
-1.6030437146
 20
21.4751848297
 10
-1.6051234155
 20
21.4764512178
 10
-1.607225079
 20
21.477580054
  0
LWPOLYLINE
  5
37B
100
AcDbEntity
  8
ASSI
100
AcDbPolyline
 62
7
  6
CONTINUOUS
 90
9
 70
0
 10
-0.785146957
 20
19.7366814539
 10
-0.7851178957
 20
19.7328694731
 10
-0.7833104978
 20
19.7064190571
 10
-0.7786837044
 20
19.6804591438
 10
-0.7712861574
 20
19.6553895847
 10
-0.761284097
 20
19.6316548259
 10
-0.7487973197
 20
19.6094118872
 10
-0.7339422893
 20
19.5888238345
 10
-0.7169839428
 20
19.5702188522
  0
LINE
  5
37C
100
AcDbEntity
  8
ASSI
100
AcDbLine
 62
250
  6
CONTINUOUS
 10
-1.6739745132
 20
24.5629761321
 11
-1.6739745132
 21
25.6112261889
  0
LINE
  5
37D
100
AcDbEntity
  8
ASSI
100
AcDbLine
 62
250
  6
CONTINUOUS
 10
-1.5718751247
 20
20.2293376204
 11
-1.5718751247
 21
21.4166104017
  0
LINE
  5
37E
100
AcDbEntity
  8
ASSI
100
AcDbLine
 62
250
  6
CONTINUOUS
 10
-1.2915220944
 20
20.2370331915
 11
-1.2915220944
 21
21.4153870998
  0
LINE
  5
37F
100
AcDbEntity
  8
ASSI
100
AcDbLine
 62
7
  6
CONTINUOUS
 10
-1.073176057
 20
20.3562347112
 11
-1.073176057
 21
21.5254019813
  0
LINE
  5
380
100
AcDbEntity
  8
ASSI
100
AcDbLine
 62
7
  6
CONTINUOUS
 10
-0.7851471388
 20
20.0539764807
 11
-0.7851471388
 21
19.7367076806
  0
LINE
  5
381
100
AcDbEntity
  8
ASSI
100
AcDbLine
 62
250
  6
CONTINUOUS
 10
-0.726568495
 20
19.9832658026
 11
-0.726568495
 21
19.6659970022
  0
LINE
  5
382
100
AcDbEntity
  8
ASSI
100
AcDbLine
 62
250
  6
CONTINUOUS
 10
-0.2602455665
 20
24.5629761321
 11
-0.2602455665
 21
25.1025942235
  0
LINE
  5
383
100
AcDbEntity
  8
ASSI
100
AcDbLine
 62
7
  6
CONTINUOUS
 10
-0.0702840184
 20
19.235122962
 11
-0.0702840184
 21
18.7811608576
  0
LINE
  5
384
100
AcDbEntity
  8
ASSI
100
AcDbLine
 62
250
  6
CONTINUOUS
 10
0.0029392863
 20
19.1985113096
 11
0.0029392863
 21
18.6894371655
  0
LINE
  5
385
100
AcDbEntity
  8
ASSI
100
AcDbLine
 62
7
  6
CONTINUOUS
 10
0.1356767186
 20
18.498220756
 11
0.1356767186
 21
19.1360661769
  0
LINE
  5
386
100
AcDbEntity
  8
ASSI
100
AcDbLine
 62
250
  6
CONTINUOUS
 10
0.2089000233
 20
-22.1013413963
 11
0.2089000233
 21
-21.8873960688
  0
LINE
  5
387
100
AcDbEntity
  8
ASSI
100
AcDbLine
 62
250
  6
CONTINUOUS
 10
0.2089000233
 20
18.4474297181
 11
0.2089000233
 21
19.1982627431
  0
LWPOLYLINE
  5
388
100
AcDbEntity
  8
ASSI
100
AcDbPolyline
 62
7
  6
CONTINUOUS
 90
3
 70
0
 10
3.8802249988
 20
19.7207036766
 10
3.8857659044
 20
19.7451272428
 10
3.8890424816
 20
19.7702694492
  0
LWPOLYLINE
  5
389
100
AcDbEntity
  8
DRAFT
100
AcDbPolyline
 62
7
  6
CONTINUOUS
 90
3
 70
0
 10
-12.2926573457
 20
-8.8981439322
 10
-12.2510723582
 20
-8.8633273116
 10
-12.2024691515
 20
-8.8333479586
  0
LWPOLYLINE
  5
38A
100
AcDbEntity
  8
RACCORDO
100
AcDbPolyline
 62
7
  6
CONTINUOUS
 90
136
 70
0
 10
19.7983703601
 20
16.5860932378
 10
19.8577363562
 20
16.6347959157
 10
19.9152256126
 20
16.6822835933
 10
19.9708381292
 20
16.7285562708
 10
20.0245188576
 20
16.7735793796
 10
20.0763228461
 20
16.8173874882
 10
20.1264152406
 20
16.8600843018
 10
20.1748034389
 20
16.9016748798
 10
20.2214800431
 20
16.9421541628
 10
20.2665880048
 20
16.9816106783
 10
20.3101315523
 20
17.0200469796
 10
20.3521064573
 20
17.0574605134
 10
20.3926429868
 20
17.0939321465
 10
20.4317450344
 20
17.129464244
 10
20.4694087066
 20
17.1640544408
 10
20.5057525898
 20
17.1977765086
 10
20.54078028
 20
17.2306326575
 10
20.5744881813
 20
17.2626206775
 10
20.6069840928
 20
17.2938077096
 10
20.6382713349
 20
17.3241958343
 10
20.6683465873
 20
17.3537829713
 10
20.6973076877
 20
17.3826300205
 10
20.7251577039
 20
17.4107389651
 10
20.7518935681
 20
17.438107822
 10
20.7776039149
 20
17.4647915423
 10
20.8022915735
 20
17.4907920461
 10
20.8259537148
 20
17.5161074134
 10
20.8486704858
 20
17.5407868349
 10
20.870444481
 20
17.5648322068
 10
20.8912731059
 20
17.5882416329
 10
20.9112287248
 20
17.6110586163
 10
20.9303136844
 20
17.633285071
 10
20.9485256379
 20
17.6549190829
 10
20.96592991
 20
17.6759984125
 10
20.9825285581
 20
17.6965250298
 10
20.9983195248
 20
17.7164969648
 10
21.0133619617
 20
17.7359460679
 10
21.0276575563
 20
17.7548743856
 10
21.0412046211
 20
17.7732798713
 10
21.0540572452
 20
17.7911882362
 10
21.0662166128
 20
17.8086015766
 10
21.0776815396
 20
17.8255177962
 10
21.0885025624
 20
17.8419563168
 10
21.0986801148
 20
17.8579190395
 10
21.1082137632
 20
17.8734040633
 10
21.1171527435
 20
17.8884251073
 10
21.1254967804
 20
17.9029840043
 10
21.1332461492
 20
17.9170789215
 10
21.1404509116
 20
17.9307180797
 10
21.1471097142
 20
17.9439023286
 10
21.1532239104
 20
17.9566308183
 10
21.1588476217
 20
17.9689092205
 10
21.1639761802
 20
17.9807283263
 10
21.1686142537
 20
17.9920973445
 10
21.1728299676
 20
18.003049572
 10
21.1766213421
 20
18.013571406
 10
21.1799903569
 20
18.0236764494
 10
21.1830110766
 20
18.0334388079
 10
21.1856888825
 20
18.042856346
 10
21.1880183933
 20
18.0519311992
 10
21.1900575295
 20
18.0607438791
 10
21.1918137095
 20
18.0692994805
 10
21.1932795148
 20
18.0775929087
 10
21.1944906111
 20
18.0856893916
 10
21.1954532645
 20
18.0935932017
 10
21.1961612088
 20
18.1013000664
 10
21.196631311
 20
18.1088623961
 10
21.1968691931
 20
18.1162834046
 10
21.1968692331
 20
18.123559878
 10
21.1966314325
 20
18.1307345856
 10
21.1961614137
 20
18.1378101338
 10
21.1954535543
 20
18.1447839162
 10
21.1944909893
 20
18.1516908829
 10
21.1932799845
 20
18.1585332528
 10
21.1918142742
 20
18.1653088071
 10
21.1900581953
 20
18.1720458398
 10
21.1880191671
 20
18.1787469357
 10
21.1856897704
 20
18.18540951
 10
21.1830120847
 20
18.1920541022
 10
21.179991494
 20
18.1986884186
 10
21.1766226143
 20
18.205304753
 10
21.1728313726
 20
18.2119005265
 10
21.1686157877
 20
18.2184872972
 10
21.1639778409
 20
18.2250535071
 10
21.1588494028
 20
18.2315619031
 10
21.1532258039
 20
18.2380168609
 10
21.1471117137
 20
18.2444140049
 10
21.140453011
 20
18.2507029548
 10
21.1332483437
 20
18.2568814577
 10
21.1254990637
 20
18.2629517666
 10
21.1171551057
 20
18.2688702605
 10
21.1082161932
 20
18.2746348221
 10
21.0986826026
 20
18.2802475687
 10
21.0885050976
 20
18.2856712311
 10
21.0776841116
 20
18.290904357
 10
21.0662192112
 20
18.2959483988
 10
21.0540598593
 20
18.3007704441
 10
21.0412072398
 20
18.3053696228
 10
21.0276601689
 20
18.3097468052
 10
21.0133645581
 20
18.31387169
 10
20.9983220948
 20
18.3177439782
 10
20.9825310916
 20
18.3213639688
 10
20.9659323978
 20
18.3247022582
 10
20.948528071
 20
18.327759007
 10
20.9303160536
 20
18.3305340544
 10
20.9112310227
 20
18.3329975154
 10
20.8912753246
 20
18.3351499057
 10
20.870446613
 20
18.3369907094
 10
20.8486725253
 20
18.3384884942
 10
20.825955656
 20
18.3396440506
 10
20.8022934106
 20
18.3404565881
 10
20.7776056442
 20
18.3408923031
 10
20.7518951857
 20
18.3409522053
 10
20.725159206
 20
18.3406352851
 10
20.6973090728
 20
18.3399047103
 10
20.6683478537
 20
18.3387616748
 10
20.638272481
 20
18.3372049847
 10
20.6069851192
 20
18.3351942271
 10
20.5744890887
 20
18.3327307598
 10
20.5407810692
 20
18.3298132249
 10
20.5057532641
 20
18.3263971354
 10
20.4694092692
 20
18.3224840046
 10
20.4317454887
 20
18.3180723192
 10
20.3926433389
 20
18.3131130519
 10
20.352106713
 20
18.3076078695
 10
20.3101317178
 20
18.3015551053
 10
20.2665880893
 20
18.294900732
 10
20.2214800559
 20
18.2876465747
 10
20.1748033892
 20
18.2797908082
 10
20.1264151409
 20
18.2712739308
 10
20.0763227048
 20
18.2620985431
 10
20.0245186871
 20
18.2522620443
 10
19.9708379584
 20
18.2416971307
 10
19.9152254757
 20
18.2303813678
 10
19.8577362821
 20
18.2183371901
 10
19.7983703776
 20
18.2055645976
  0
LWPOLYLINE
  5
38B
100
AcDbEntity
  8
0
100
AcDbPolyline
 62
7
  6
CONTINUOUS
 90
136
 70
0
 10
19.7983703601
 20
16.5860932378
 10
19.8577363562
 20
16.6347959157
 10
19.9152256126
 20
16.6822835933
 10
19.9708381292
 20
16.7285562708
 10
20.0245188576
 20
16.7735793796
 10
20.0763228461
 20
16.8173874882
 10
20.1264152406
 20
16.8600843018
 10
20.1748034389
 20
16.9016748798
 10
20.2214800431
 20
16.9421541628
 10
20.2665880048
 20
16.9816106783
 10
20.3101315523
 20
17.0200469796
 10
20.3521064573
 20
17.0574605134
 10
20.3926429868
 20
17.0939321465
 10
20.4317450344
 20
17.129464244
 10
20.4694087066
 20
17.1640544408
 10
20.5057525898
 20
17.1977765086
 10
20.54078028
 20
17.2306326575
 10
20.5744881813
 20
17.2626206775
 10
20.6069840928
 20
17.2938077096
 10
20.6382713349
 20
17.3241958343
 10
20.6683465873
 20
17.3537829713
 10
20.6973076877
 20
17.3826300205
 10
20.7251577039
 20
17.4107389651
 10
20.7518935681
 20
17.438107822
 10
20.7776039149
 20
17.4647915423
 10
20.8022915735
 20
17.4907920461
 10
20.8259537148
 20
17.5161074134
 10
20.8486704858
 20
17.5407868349
 10
20.870444481
 20
17.5648322068
 10
20.8912731059
 20
17.5882416329
 10
20.9112287248
 20
17.6110586163
 10
20.9303136844
 20
17.633285071
 10
20.9485256379
 20
17.6549190829
 10
20.96592991
 20
17.6759984125
 10
20.9825285581
 20
17.6965250298
 10
20.9983195248
 20
17.7164969648
 10
21.0133619617
 20
17.7359460679
 10
21.0276575563
 20
17.7548743856
 10
21.0412046211
 20
17.7732798713
 10
21.0540572452
 20
17.7911882362
 10
21.0662166128
 20
17.8086015766
 10
21.0776815396
 20
17.8255177962
 10
21.0885025624
 20
17.8419563168
 10
21.0986801148
 20
17.8579190395
 10
21.1082137632
 20
17.8734040633
 10
21.1171527435
 20
17.8884251073
 10
21.1254967804
 20
17.9029840043
 10
21.1332461492
 20
17.9170789215
 10
21.1404509116
 20
17.9307180797
 10
21.1471097142
 20
17.9439023286
 10
21.1532239104
 20
17.9566308183
 10
21.1588476217
 20
17.9689092205
 10
21.1639761802
 20
17.9807283263
 10
21.1686142537
 20
17.9920973445
 10
21.1728299676
 20
18.003049572
 10
21.1766213421
 20
18.013571406
 10
21.1799903569
 20
18.0236764494
 10
21.1830110766
 20
18.0334388079
 10
21.1856888825
 20
18.042856346
 10
21.1880183933
 20
18.0519311992
 10
21.1900575295
 20
18.0607438791
 10
21.1918137095
 20
18.0692994805
 10
21.1932795148
 20
18.0775929087
 10
21.1944906111
 20
18.0856893916
 10
21.1954532645
 20
18.0935932017
 10
21.1961612088
 20
18.1013000664
 10
21.196631311
 20
18.1088623961
 10
21.1968691931
 20
18.1162834046
 10
21.1968692331
 20
18.123559878
 10
21.1966314325
 20
18.1307345856
 10
21.1961614137
 20
18.1378101338
 10
21.1954535543
 20
18.1447839162
 10
21.1944909893
 20
18.1516908829
 10
21.1932799845
 20
18.1585332528
 10
21.1918142742
 20
18.1653088071
 10
21.1900581953
 20
18.1720458398
 10
21.1880191671
 20
18.1787469357
 10
21.1856897704
 20
18.18540951
 10
21.1830120847
 20
18.1920541022
 10
21.179991494
 20
18.1986884186
 10
21.1766226143
 20
18.205304753
 10
21.1728313726
 20
18.2119005265
 10
21.1686157877
 20
18.2184872972
 10
21.1639778409
 20
18.2250535071
 10
21.1588494028
 20
18.2315619031
 10
21.1532258039
 20
18.2380168609
 10
21.1471117137
 20
18.2444140049
 10
21.140453011
 20
18.2507029548
 10
21.1332483437
 20
18.2568814577
 10
21.1254990637
 20
18.2629517666
 10
21.1171551057
 20
18.2688702605
 10
21.1082161932
 20
18.2746348221
 10
21.0986826026
 20
18.2802475687
 10
21.0885050976
 20
18.2856712311
 10
21.0776841116
 20
18.290904357
 10
21.0662192112
 20
18.2959483988
 10
21.0540598593
 20
18.3007704441
 10
21.0412072398
 20
18.3053696228
 10
21.0276601689
 20
18.3097468052
 10
21.0133645581
 20
18.31387169
 10
20.9983220948
 20
18.3177439782
 10
20.9825310916
 20
18.3213639688
 10
20.9659323978
 20
18.3247022582
 10
20.948528071
 20
18.327759007
 10
20.9303160536
 20
18.3305340544
 10
20.9112310227
 20
18.3329975154
 10
20.8912753246
 20
18.3351499057
 10
20.870446613
 20
18.3369907094
 10
20.8486725253
 20
18.3384884942
 10
20.825955656
 20
18.3396440506
 10
20.8022934106
 20
18.3404565881
 10
20.7776056442
 20
18.3408923031
 10
20.7518951857
 20
18.3409522053
 10
20.725159206
 20
18.3406352851
 10
20.6973090728
 20
18.3399047103
 10
20.6683478537
 20
18.3387616748
 10
20.638272481
 20
18.3372049847
 10
20.6069851192
 20
18.3351942271
 10
20.5744890887
 20
18.3327307598
 10
20.5407810692
 20
18.3298132249
 10
20.5057532641
 20
18.3263971354
 10
20.4694092692
 20
18.3224840046
 10
20.4317454887
 20
18.3180723192
 10
20.3926433389
 20
18.3131130519
 10
20.352106713
 20
18.3076078695
 10
20.3101317178
 20
18.3015551053
 10
20.2665880893
 20
18.294900732
 10
20.2214800559
 20
18.2876465747
 10
20.1748033892
 20
18.2797908082
 10
20.1264151409
 20
18.2712739308
 10
20.0763227048
 20
18.2620985431
 10
20.0245186871
 20
18.2522620443
 10
19.9708379584
 20
18.2416971307
 10
19.9152254757
 20
18.2303813678
 10
19.8577362821
 20
18.2183371901
 10
19.7983703776
 20
18.2055645976
  0
LINE
  5
38C
100
AcDbEntity
  8
DRAFT
100
AcDbLine
 62
7
  6
CONTINUOUS
 10
1.4150080029
 20
-2.4788573851
 11
1.0342255973
 21
-2.2884661824
  0
LINE
  5
38D
100
AcDbEntity
  8
0
100
AcDbLine
 62
7
  6
CONTINUOUS
 10
2.5760048411
 20
-16.3040066572
 11
1.4150080029
 21
-2.4788573851
  0
LWPOLYLINE
  5
38E
100
AcDbEntity
  8
ASSI
100
AcDbPolyline
 62
250
  6
CONTINUOUS
 90
10
 70
0
 10
1.618285858
 20
18.6325230389
 10
1.6185567328
 20
18.6275173608
 10
1.6192807032
 20
18.6229289171
 10
1.6204577693
 20
18.6187577081
 10
1.6221161932
 20
18.6149587257
 10
1.6242277128
 20
18.6115769779
 10
1.6267075412
 20
18.6087474882
 10
1.6295274162
 20
18.6065152645
 10
1.6327155999
 20
18.6048352988
 10
1.6362720924
 20
18.6037075913
  0
LWPOLYLINE
  5
38F
100
AcDbEntity
  8
ASSI
100
AcDbPolyline
 62
250
  6
CONTINUOUS
 90
10
 70
0
 10
3.8337670578
 20
-21.5778543927
 10
3.8335054771
 20
-21.5728533615
 10
3.832806347
 20
-21.5682773381
 10
3.8316696675
 20
-21.5641263223
 10
3.8300681461
 20
-21.5603557912
 10
3.8280290753
 20
-21.5570102678
 10
3.8256343329
 20
-21.5542233211
 10
3.8229112113
 20
-21.552039474
 10
3.8198324181
 20
-21.5504142036
 10
3.8163979532
 20
-21.5493475099
  0
LWPOLYLINE
  5
390
100
AcDbEntity
  8
ASSI
100
AcDbPolyline
 62
250
  6
CONTINUOUS
 90
13
 70
0
 10
1.3966207676
 20
26.5726819627
 10
1.395437861
 20
26.5959180138
 10
1.3919087403
 20
26.6198976851
 10
1.3860924576
 20
26.6442197309
 10
1.378086335
 20
26.6684771764
 10
1.3680243371
 20
26.6922641281
 10
1.3560748287
 20
26.7151825649
 10
1.3424377577
 20
26.7368489985
 10
1.3273413099
 20
26.75690089
 10
1.3110380906
 20
26.7750027161
 10
1.2938008974
 20
26.7908515836
 10
1.2759181559
 20
26.8041822974
 10
1.2576890935
 20
26.814771798
  0
LWPOLYLINE
  5
391
100
AcDbEntity
  8
ASSI
100
AcDbPolyline
 62
7
  6
CONTINUOUS
 90
16
 70
0
 10
-0.7284217258
 20
25.5562232992
 10
-0.7293313904
 20
25.5746159918
 10
-0.7327098061
 20
25.5928847381
 10
-0.7385631542
 20
25.6110174916
 10
-0.7470400566
 20
25.6292947422
 10
-0.7580168543
 20
25.6473838808
 10
-0.7710933969
 20
25.6643463517
 10
-0.7861923292
 20
25.6799162113
 10
-0.8034199342
 20
25.6942764913
 10
-0.8226471107
 20
25.7071625417
 10
-0.8440191003
 20
25.7185691216
 10
-0.8674087796
 20
25.7283855082
 10
-0.8922679014
 20
25.7362019291
 10
-0.9184063303
 20
25.7418557173
 10
-0.9459960901
 20
25.7454113294
 10
-0.9750201707
 20
25.7468135423
  0
LWPOLYLINE
  5
392
100
AcDbEntity
  8
ASSI
100
AcDbPolyline
 62
250
  6
CONTINUOUS
 90
9
 70
0
 10
1.3379328198
 20
18.6337636894
 10
1.3391317228
 20
18.6092162369
 10
1.3427139387
 20
18.5861943587
 10
1.348630669
 20
18.5650090839
 10
1.3568029422
 20
18.5459446571
 10
1.3671192274
 20
18.5292604502
 10
1.3794351676
 20
18.5151853548
 10
1.3935812088
 20
18.5039077663
 10
1.403113613
 20
18.4984241487
  0
LINE
  5
393
100
AcDbEntity
  8
ASSI
100
AcDbLine
 62
250
  6
CONTINUOUS
 10
1.9664846347
 20
25.8576652312
 11
1.9623061925
 21
26.1529373
  0
LINE
  5
394
100
AcDbEntity
  8
ASSI
100
AcDbLine
 62
7
  6
CONTINUOUS
 10
2.0256905241
 20
25.8839547348
 11
2.0208863529
 21
26.2234443129
  0
LWPOLYLINE
  5
395
100
AcDbEntity
  8
DRAFT
100
AcDbPolyline
 62
7
  6
CONTINUOUS
 90
18
 70
0
 10
0.3820486403
 20
-17.855619906
 10
0.3820486403
 20
-17.9004417796
 10
0.3863848371
 20
-17.9595919385
 10
0.3951395571
 20
-18.0195881188
 10
0.408230474
 20
-18.0807331581
 10
0.4254106089
 20
-18.1418970907
 10
0.4468837866
 20
-18.2034017488
 10
0.4724461822
 20
-18.2649253003
 10
0.5012393421
 20
-18.3243722824
 10
0.5332254533
 20
-18.3814229564
 10
0.5684423288
 20
-18.4363970611
 10
0.6061449543
 20
-18.48815835
 10
0.6465184672
 20
-18.5367989145
 10
0.6893777302
 20
-18.5822266632
 10
0.7334223167
 20
-18.6230290758
 10
0.7782187514
 20
-18.658735312
 10
0.8242005095
 20
-18.6898162121
 10
0.8713675913
 20
-18.7162717759
  0
LINE
  5
396
100
AcDbEntity
  8
ASSI
100
AcDbLine
 62
250
  6
CONTINUOUS
 10
0.4024643094
 20
-22.1981235394
 11
0.4024643094
 21
-21.4472905145
  0
LINE
  5
397
100
AcDbEntity
  8
ASSI
100
AcDbLine
 62
250
  6
CONTINUOUS
 10
0.4024643094
 20
18.3506475751
 11
0.4024643094
 21
19.1014806
  0
LINE
  5
398
100
AcDbEntity
  8
RACCORDO
100
AcDbLine
 62
7
  6
CONTINUOUS
 10
0.729946235
 20
-16.4203858979
 11
0.729946235
 21
-15.3809773542
  0
LINE
  5
399
100
AcDbEntity
  8
ASSI
100
AcDbLine
 62
250
  6
CONTINUOUS
 10
0.7529055973
 20
-21.9518342176
 11
0.7529055973
 21
-21.3260011927
  0
LINE
  5
39A
100
AcDbEntity
  8
ASSI
100
AcDbLine
 62
250
  6
CONTINUOUS
 10
0.7529055973
 20
18.2262999985
 11
0.7529055973
 21
18.8235281542
  0
LINE
  5
39B
100
AcDbEntity
  8
ASSI
100
AcDbLine
 62
7
  6
CONTINUOUS
 10
1.29563166
 20
18.5521651228
 11
1.29563166
 21
18.111170681
  0
LINE
  5
39C
100
AcDbEntity
  8
ASSI
100
AcDbLine
 62
7
  6
CONTINUOUS
 10
1.29563166
 20
-20.6867674086
 11
1.29563166
 21
-21.3126004335
  0
LINE
  5
39D
100
AcDbEntity
  8
ASSI
100
AcDbLine
 62
250
  6
CONTINUOUS
 10
1.3379328277
 20
18.9510151412
 11
1.3379328277
 21
18.6337636849
  0
LINE
  5
39E
100
AcDbEntity
  8
ASSI
100
AcDbLine
 62
250
  6
CONTINUOUS
 10
1.3379328277
 20
-22.9831265989
 11
1.3379328277
 21
-22.6658577985
  0
LINE
  5
39F
100
AcDbEntity
  8
ASSI
100
AcDbLine
 62
250
  6
CONTINUOUS
 10
1.618285858
 20
18.9497918393
 11
1.618285858
 21
18.6325230389
  0
LINE
  5
3A0
100
AcDbEntity
  8
ASSI
100
AcDbLine
 62
250
  6
CONTINUOUS
 10
1.618285858
 20
-22.9843499008
 11
1.618285858
 21
-22.6670811004
  0
LINE
  5
3A1
100
AcDbEntity
  8
ASSI
100
AcDbLine
 62
250
  6
CONTINUOUS
 10
2.0226386087
 20
18.3597587926
 11
2.0226386087
 21
17.6795875043
  0
LINE
  5
3A2
100
AcDbEntity
  8
ASSI
100
AcDbLine
 62
250
  6
CONTINUOUS
 10
2.0226386087
 20
-20.9821911806
 11
2.0226386087
 21
-21.6761039079
  0
LINE
  5
3A3
100
AcDbEntity
  8
ASSI
100
AcDbLine
 62
250
  6
CONTINUOUS
 10
2.3730798966
 20
18.4474074143
 11
2.3730798966
 21
17.6892069682
  0
LINE
  5
3A4
100
AcDbEntity
  8
ASSI
100
AcDbLine
 62
250
  6
CONTINUOUS
 10
2.3730798966
 20
-21.1157876482
 11
2.3730798966
 21
-21.7530693454
  0
LINE
  5
3A5
100
AcDbEntity
  8
0
100
AcDbLine
 62
7
  6
CONTINUOUS
 10
2.5760048411
 20
-20.8258613913
 11
2.5760048411
 21
-16.3040066572
  0
LINE
  5
3A6
100
AcDbEntity
  8
0
100
AcDbLine
 62
7
  6
CONTINUOUS
 10
2.5760048411
 20
12.4480367485
 11
2.5760048411
 21
16.9698914826
  0
LINE
  5
3A7
100
AcDbEntity
  8
ASSI
100
AcDbLine
 62
250
  6
CONTINUOUS
 10
2.8373526471
 20
23.4650530473
 11
2.8334755053
 21
23.0905553452
  0
LINE
  5
3A8
100
AcDbEntity
  8
ASSI
100
AcDbLine
 62
250
  6
CONTINUOUS
 10
2.8312020515
 20
22.8709597586
 11
2.8251858835
 21
22.2898509728
  0
LWPOLYLINE
  5
3A9
100
AcDbEntity
  8
ASSI
100
AcDbPolyline
 62
250
  6
CONTINUOUS
 90
19
 70
0
 10
1.618285858
 20
-22.6670811004
 10
1.6183184412
 20
-22.6649007597
 10
1.6184591867
 20
-22.6626279706
 10
1.6187080947
 20
-22.6602627333
 10
1.6190605117
 20
-22.6577935294
 10
1.6195210911
 20
-22.6552318772
 10
1.6201037927
 20
-22.6526123316
 10
1.6208126441
 20
-22.6499317567
 10
1.6216436177
 20
-22.6471932883
 10
1.6225985903
 20
-22.6444408892
 10
1.6236818988
 20
-22.6416730976
 10
1.6248892063
 20
-22.6388913752
 10
1.6262093794
 20
-22.6361440703
 10
1.6276463449
 20
-22.6334318601
 10
1.629196176
 20
-22.6307540673
 10
1.6308359577
 20
-22.6281570082
 10
1.6325580519
 20
-22.6256561213
 10
1.6343700968
 20
-22.6232359679
 10
1.6362720924
 20
-22.6208965481
  0
LWPOLYLINE
  5
3AA
100
AcDbEntity
  8
ASSI
100
AcDbPolyline
 62
250
  6
CONTINUOUS
 90
19
 70
0
 10
1.3379328277
 20
-22.6658577985
 10
1.3381518402
 20
-22.6549888127
 10
1.3388337325
 20
-22.6436161459
 10
1.3400144209
 20
-22.6317541769
 10
1.3417331918
 20
-22.6193964795
 10
1.3440224171
 20
-22.6065935651
 10
1.3468964277
 20
-22.5934554573
 10
1.3503766047
 20
-22.5800196241
 10
1.3544816196
 20
-22.5663292988
 10
1.3591987855
 20
-22.552512206
 10
1.3645317511
 20
-22.5386191937
 10
1.3704809231
 20
-22.5247045199
 10
1.3770052192
 20
-22.5109027321
 10
1.3840897416
 20
-22.4972699212
 10
1.3917171119
 20
-22.4838621391
 10
1.3998211259
 20
-22.4708069429
 10
1.408355506
 20
-22.4581775636
 10
1.4173028715
 20
-22.4459987815
 10
1.4266297402
 20
-22.4343179071
  0
LWPOLYLINE
  5
3AB
100
AcDbEntity
  8
ASSI
100
AcDbPolyline
 62
7
  6
CONTINUOUS
 90
9
 70
0
 10
2.9361412993
 20
22.4226224824
 10
2.9360043833
 20
22.4174352803
 10
2.9326221776
 20
22.3970198904
 10
2.9244178458
 20
22.3767726651
 10
2.9117661922
 20
22.3567613115
 10
2.8954399008
 20
22.3379654985
 10
2.8756965329
 20
22.3207117826
 10
2.8522785271
 20
22.3046736074
 10
2.8251858835
 20
22.2898509728
  0
LINE
  5
3AC
100
AcDbEntity
  8
RACCORDO
100
AcDbLine
 62
7
  6
CONTINUOUS
 10
0.2156955219
 20
-21.8263897059
 11
1.8144153363
 21
16.33429175
  0
LWPOLYLINE
  5
3AD
100
AcDbEntity
  8
ASSI
100
AcDbPolyline
 62
250
  6
CONTINUOUS
 90
9
 70
0
 10
2.9434383341
 20
23.593294376
 10
2.9431548388
 20
23.5865821784
 10
2.9395823577
 20
23.5671845114
 10
2.9319576054
 20
23.5481372095
 10
2.9203636491
 20
23.529646017
 10
2.9049221128
 20
23.5119041289
 10
2.8857961072
 20
23.4951027796
 10
2.8631919323
 20
23.4794285536
 10
2.8373526471
 20
23.4650530473
  0
LINE
  5
3AE
100
AcDbEntity
  8
ASSI
100
AcDbLine
 62
250
  6
CONTINUOUS
 10
3.3291640203
 20
23.0794441116
 11
3.3387281804
 21
23.3031073501
  0
LINE
  5
3AF
100
AcDbEntity
  8
ASSI
100
AcDbLine
 62
7
  6
CONTINUOUS
 10
3.6171117142
 20
23.401394009
 11
3.616123121
 21
23.3839508758
  0
LINE
  5
3B0
100
AcDbEntity
  8
0
100
AcDbLine
 62
7
  6
CONTINUOUS
 10
1.4150080029
 20
-2.4788573851
 11
2.5760048411
 21
12.4480367485
  0
LINE
  5
3B1
100
AcDbEntity
  8
RACCORDO
100
AcDbLine
 62
250
  6
CONTINUOUS
 10
19.9706270682
 20
16.2122882947
 11
19.9614863606
 21
16.2039400732
  0
LINE
  5
3B2
100
AcDbEntity
  8
0
100
AcDbLine
 62
250
  6
CONTINUOUS
 10
19.9706270682
 20
16.2122882947
 11
19.9614863606
 21
16.2039400732
  0
LWPOLYLINE
  5
3B3
100
AcDbEntity
  8
RACCORDO
100
AcDbPolyline
 62
250
  6
CONTINUOUS
 90
56
 70
0
 10
19.6808261609
 20
16.448741944
 10
19.6866885544
 20
16.4539798759
 10
19.6925229077
 20
16.4589933353
 10
19.6983281423
 20
16.4637824063
 10
19.7040973489
 20
16.468348687
 10
19.7098353634
 20
16.4726906791
 10
19.7155582094
 20
16.4768040369
 10
19.7212663718
 20
16.4806922344
 10
19.7269560417
 20
16.4843523711
 10
19.7326359368
 20
16.4877708897
 10
19.7383058352
 20
16.4909499126
 10
19.7439618137
 20
16.4938881097
 10
19.749606498
 20
16.496566935
 10
19.7552358991
 20
16.4989864835
 10
19.7608494037
 20
16.5011474822
 10
19.7664541266
 20
16.5030325137
 10
19.7720353682
 20
16.5046431983
 10
19.777602528
 20
16.5059788279
 10
19.7831966367
 20
16.5070192485
 10
19.7888085313
 20
16.5077753029
 10
19.7944377681
 20
16.5082383215
 10
19.8001339341
 20
16.5083603465
 10
19.8059066714
 20
16.5081480523
 10
19.8117297172
 20
16.5075987653
 10
19.8175957816
 20
16.5066513469
 10
19.8235001801
 20
16.5053020727
 10
19.829429467
 20
16.5035584091
 10
19.8353633768
 20
16.5013757705
 10
19.841291577
 20
16.4987494827
 10
19.8472061358
 20
16.4956872173
 10
19.853091137
 20
16.4921624986
 10
19.8589285632
 20
16.4881794242
 10
19.8647179712
 20
16.4837361472
 10
19.870468287
 20
16.4787974278
 10
19.8761630778
 20
16.473371045
 10
19.881795209
 20
16.4674517696
 10
19.8873823313
 20
16.4609857563
 10
19.8929096491
 20
16.4539747384
 10
19.8983592642
 20
16.4464202013
 10
19.9037373237
 20
16.4382689349
 10
19.9090244985
 20
16.4295184307
 10
19.9141977664
 20
16.4201744189
 10
19.9192510572
 20
16.410196704
 10
19.9241582919
 20
16.3995830276
 10
19.9288933364
 20
16.3883380315
 10
19.933442928
 20
16.3764322299
 10
19.9377722696
 20
16.3638704664
 10
19.941852371
 20
16.3506486457
 10
19.9456679333
 20
16.3367242069
 10
19.949172357
 20
16.3221152816
 10
19.952330035
 20
16.3068020981
 10
19.9551206268
 20
16.2906857546
 10
19.9574870554
 20
16.2737323104
 10
19.9593636285
 20
16.2559703848
 10
19.9606912153
 20
16.2373943597
 10
19.9613963869
 20
16.2178416965
  0
LWPOLYLINE
  5
3B4
100
AcDbEntity
  8
0
100
AcDbPolyline
 62
250
  6
CONTINUOUS
 90
56
 70
0
 10
19.6808261609
 20
16.448741944
 10
19.6866885544
 20
16.4539798759
 10
19.6925229077
 20
16.4589933353
 10
19.6983281423
 20
16.4637824063
 10
19.7040973489
 20
16.468348687
 10
19.7098353634
 20
16.4726906791
 10
19.7155582094
 20
16.4768040369
 10
19.7212663718
 20
16.4806922344
 10
19.7269560417
 20
16.4843523711
 10
19.7326359368
 20
16.4877708897
 10
19.7383058352
 20
16.4909499126
 10
19.7439618137
 20
16.4938881097
 10
19.749606498
 20
16.496566935
 10
19.7552358991
 20
16.4989864835
 10
19.7608494037
 20
16.5011474822
 10
19.7664541266
 20
16.5030325137
 10
19.7720353682
 20
16.5046431983
 10
19.777602528
 20
16.5059788279
 10
19.7831966367
 20
16.5070192485
 10
19.7888085313
 20
16.5077753029
 10
19.7944377681
 20
16.5082383215
 10
19.8001339341
 20
16.5083603465
 10
19.8059066714
 20
16.5081480523
 10
19.8117297172
 20
16.5075987653
 10
19.8175957816
 20
16.5066513469
 10
19.8235001801
 20
16.5053020727
 10
19.829429467
 20
16.5035584091
 10
19.8353633768
 20
16.5013757705
 10
19.841291577
 20
16.4987494827
 10
19.8472061358
 20
16.4956872173
 10
19.853091137
 20
16.4921624986
 10
19.8589285632
 20
16.4881794242
 10
19.8647179712
 20
16.4837361472
 10
19.870468287
 20
16.4787974278
 10
19.8761630778
 20
16.473371045
 10
19.881795209
 20
16.4674517696
 10
19.8873823313
 20
16.4609857563
 10
19.8929096491
 20
16.4539747384
 10
19.8983592642
 20
16.4464202013
 10
19.9037373237
 20
16.4382689349
 10
19.9090244985
 20
16.4295184307
 10
19.9141977664
 20
16.4201744189
 10
19.9192510572
 20
16.410196704
 10
19.9241582919
 20
16.3995830276
 10
19.9288933364
 20
16.3883380315
 10
19.933442928
 20
16.3764322299
 10
19.9377722696
 20
16.3638704664
 10
19.941852371
 20
16.3506486457
 10
19.9456679333
 20
16.3367242069
 10
19.949172357
 20
16.3221152816
 10
19.952330035
 20
16.3068020981
 10
19.9551206268
 20
16.2906857546
 10
19.9574870554
 20
16.2737323104
 10
19.9593636285
 20
16.2559703848
 10
19.9606912153
 20
16.2373943597
 10
19.9613963869
 20
16.2178416965
  0
LWPOLYLINE
  5
3B5
100
AcDbEntity
  8
0
100
AcDbPolyline
 62
7
  6
CONTINUOUS
 90
11
 70
0
 10
-12.2024376453
 20
-8.833413405
 10
-12.2523507442
 20
-8.864258937
 10
-12.2939370518
 20
-8.8993053858
 10
-12.3318808515
 20
-8.940800819
 10
-12.3653138043
 20
-8.9877137448
 10
-12.3941112763
 20
-9.0402310945
 10
-12.4184043465
 20
-9.0981686616
 10
-12.4377098692
 20
-9.1599389916
 10
-12.4518685598
 20
-9.2250136987
 10
-12.4610436733
 20
-9.2939228614
 10
-12.4652357485
 20
-9.3666666924
  0
LWPOLYLINE
  5
3B6
100
AcDbEntity
  8
ASSI
100
AcDbPolyline
 62
250
  6
CONTINUOUS
 90
13
 70
0
 10
1.6536305207
 20
19.0101524865
 10
1.6521147884
 20
19.033209422
 10
1.6482487487
 20
19.0571023378
 10
1.6420985226
 20
19.0814225796
 10
1.6337692994
 20
19.1057541829
 10
1.623403537
 20
19.1296809897
 10
1.6111785244
 20
19.1527937664
 10
1.5973033507
 20
19.1746972007
 10
1.5820153313
 20
19.1950166602
 10
1.5655759478
 20
19.2134046032
 10
1.5482663744
 20
19.2295465259
 10
1.5303826672
 20
19.2431663406
 10
1.5122307036
 20
19.2540310958
  0
LWPOLYLINE
  5
3B7
100
AcDbEntity
  8
ASSI
100
AcDbPolyline
 62
7
  6
CONTINUOUS
 90
12
 70
0
 10
2.0208753368
 20
26.2234433415
 10
2.0174051915
 20
26.2944598969
 10
2.0077683881
 20
26.3710058525
 10
1.992230544
 20
26.4434642297
 10
1.9710393498
 20
26.5114670896
 10
1.9443785152
 20
26.5748365289
 10
1.9123326622
 20
26.6334812578
 10
1.8750994768
 20
26.6870741527
 10
1.8329596533
 20
26.7351796813
 10
1.7862126753
 20
26.7774129365
 10
1.7352706092
 20
26.8134136531
 10
1.6948497544
 20
26.835990096
  0
LWPOLYLINE
  5
3B8
100
AcDbEntity
  8
ASSI
100
AcDbPolyline
 62
250
  6
CONTINUOUS
 90
22
 70
0
 10
1.9623061925
 20
26.1529373
 10
1.9600041733
 20
26.2038853423
 10
1.9546955224
 20
26.2525832548
 10
1.9463802399
 20
26.2990310376
 10
1.9349811046
 20
26.3434874551
 10
1.9205753376
 20
26.385693743
 10
1.9033946025
 20
26.4248736079
 10
1.8833910022
 20
26.4609517776
 10
1.8606124338
 20
26.4940035243
 10
1.8354342521
 20
26.5234783724
 10
1.8078160889
 20
26.5493135627
 10
1.7777983123
 20
26.5715718542
 10
1.7458773817
 20
26.5898910487
 10
1.7120239977
 20
26.6042039487
 10
1.6762674597
 20
26.6145777516
 10
1.6391921249
 20
26.6208518517
 10
1.6007554953
 20
26.6229504738
 10
1.561000069
 20
26.620949393
 10
1.5206376978
 20
26.6149153295
 10
1.4799056659
 20
26.6048705233
 10
1.4385666891
 20
26.5907927343
 10
1.3966207676
 20
26.5726819627
  0
LWPOLYLINE
  5
3B9
100
AcDbEntity
  8
ASSI
100
AcDbPolyline
 62
7
  6
CONTINUOUS
 90
12
 70
0
 10
2.9434389167
 20
23.5934168781
 10
2.9422609055
 20
23.6207377539
 10
2.9371383057
 20
23.654174136
 10
2.9279188008
 20
23.6871698194
 10
2.9146080063
 20
23.7192518702
 10
2.8973565222
 20
23.7498140465
 10
2.8762213829
 20
23.7785731357
 10
2.8512103534
 20
23.8052958043
 10
2.8227478938
 20
23.8293901461
 10
2.7913901102
 20
23.8504127335
 10
2.7568996201
 20
23.8685342611
 10
2.719662685
 20
23.8835076561
  0
LWPOLYLINE
  5
3BA
100
AcDbEntity
  8
ASSI
100
AcDbPolyline
 62
7
  6
CONTINUOUS
 90
16
 70
0
 10
3.664439377
 20
17.5544140887
 10
3.6625254975
 20
17.6002885637
 10
3.6567113472
 20
17.647725097
 10
3.6470325746
 20
17.6962340804
 10
3.6335000762
 20
17.7454781773
 10
3.6162759354
 20
17.7947475836
 10
3.5957956468
 20
17.8429782198
 10
3.5725769184
 20
17.8892726227
 10
3.5467665601
 20
17.9335733584
 10
3.5182785371
 20
17.9760577022
 10
3.4870914275
 20
18.0165606196
 10
3.4537589156
 20
18.0541870486
 10
3.4190611822
 20
18.0880694878
 10
3.3835499406
 20
18.1177722623
 10
3.3474815623
 20
18.1431626423
 10
3.3112493236
 20
18.164022021
  0
LWPOLYLINE
  5
3BB
100
AcDbEntity
  8
ASSI
100
AcDbPolyline
 62
250
  6
CONTINUOUS
 90
13
 70
0
 10
2.8373526471
 20
23.4650530473
 10
2.8362102021
 20
23.4942503834
 10
2.8320114623
 20
23.5244334875
 10
2.8248282413
 20
23.5550861183
 10
2.8147833984
 20
23.5856840036
 10
2.8020487373
 20
23.6157038081
 10
2.7868420677
 20
23.6446320838
 10
2.7694234794
 20
23.6719740515
 10
2.7500908937
 20
23.6972620638
 10
2.7291749684
 20
23.7200636034
 10
2.7070334421
 20
23.7399886807
 10
2.6840450159
 20
23.7566965042
 10
2.6606028757
 20
23.769901309
  0
LWPOLYLINE
  5
3BC
100
AcDbEntity
  8
ASSI
100
AcDbPolyline
 62
250
  6
CONTINUOUS
 90
13
 70
0
 10
3.7996351139
 20
20.0873156854
 10
3.7987211567
 20
20.1106735533
 10
3.7953621641
 20
20.1348200359
 10
3.7896155871
 20
20.1593421401
 10
3.781579713
 20
20.1838204483
 10
3.7713919847
 20
20.2078362922
 10
3.7592266496
 20
20.2309789131
 10
3.7452917793
 20
20.2528524877
 10
3.729825711
 20
20.2730828979
 10
3.7130929709
 20
20.2913241299
 10
3.6953797499
 20
20.307264192
 10
3.676989009
 20
20.3206304509
 10
3.6582352968
 20
20.3311942947
  0
LWPOLYLINE
  5
3BD
100
AcDbEntity
  8
ASSI
100
AcDbPolyline
 62
7
  6
CONTINUOUS
 90
11
 70
0
 10
3.8898986525
 20
20.1313170662
 10
3.8894283984
 20
20.1465632275
 10
3.8857881473
 20
20.1762304977
 10
3.8785729863
 20
20.2049749273
 10
3.8678942725
 20
20.2323226263
 10
3.8540740095
 20
20.2576290442
 10
3.8373621489
 20
20.2806671182
 10
3.8178919709
 20
20.3013199979
 10
3.7960717426
 20
20.319185987
 10
3.7723389817
 20
20.3339835036
 10
3.7666773182
 20
20.3369224152
  0
LWPOLYLINE
  5
3BE
100
AcDbEntity
  8
ASSI
100
AcDbPolyline
 62
7
  6
CONTINUOUS
 90
8
 70
0
 10
3.652389898
 20
23.4331085079
 10
3.6521435311
 20
23.4463406066
 10
3.6510506019
 20
23.4571258681
 10
3.6492290245
 20
23.4654520062
 10
3.6467680345
 20
23.4712961041
 10
3.6437880868
 20
23.4746652906
 10
3.6404836552
 20
23.4755973971
 10
3.6386485705
 20
23.4750909892
  0
LWPOLYLINE
  5
3BF
100
AcDbEntity
  8
ASSI
100
AcDbPolyline
 62
250
  6
CONTINUOUS
 90
28
 70
0
 10
3.8337670578
 20
20.0616933415
 10
3.833729461
 20
20.063914298
 10
3.8335860112
 20
20.066104752
 10
3.8333367084
 20
20.0682647036
 10
3.8329839962
 20
20.0704089393
 10
3.8325254312
 20
20.0725226727
 10
3.8319536821
 20
20.0745615438
 10
3.8312648243
 20
20.0765237127
 10
3.8304627825
 20
20.0784110192
 10
3.8295520003
 20
20.0801846238
 10
3.8285292087
 20
20.081840596
 10
3.8273976767
 20
20.0833828661
 10
3.8261716542
 20
20.0847843854
 10
3.8248501502
 20
20.0860405339
 10
3.8234341557
 20
20.0871559316
 10
3.8219408936
 20
20.0881173901
 10
3.8203705388
 20
20.0889222401
 10
3.8187229164
 20
20.0895731509
 10
3.817014725
 20
20.0900649411
 10
3.8152454145
 20
20.0903962376
 10
3.8134155349
 20
20.0905684134
 10
3.8115434346
 20
20.090580407
 10
3.8096287767
 20
20.0904307803
 10
3.807671898
 20
20.0901209712
 10
3.8056921566
 20
20.089654232
 10
3.8036960051
 20
20.0890316466
 10
3.8016769908
 20
20.0882521311
 10
3.7996351139
 20
20.0873156854
  0
LWPOLYLINE
  5
3C0
100
AcDbEntity
  8
ASSI
100
AcDbPolyline
 62
7
  6
CONTINUOUS
 90
4
 70
0
 10
3.889899529
 20
-21.5083602689
 10
3.8898810194
 20
-21.5053513427
 10
3.8881881949
 20
-21.4791557617
 10
3.8837387202
 20
-21.4534404093
  0
LINE
  5
3C1
100
AcDbEntity
  8
ASSI
100
AcDbLine
 62
7
  6
CONTINUOUS
 10
3.2755306473
 20
-22.2615313776
 11
3.2755306473
 21
-20.7553419508
  0
LINE
  5
3C2
100
AcDbEntity
  8
ASSI
100
AcDbLine
 62
7
  6
CONTINUOUS
 10
3.2755306473
 20
18.1818813591
 11
3.2755306473
 21
19.8273560062
  0
LINE
  5
3C3
100
AcDbEntity
  8
ASSI
100
AcDbLine
 62
7
  6
CONTINUOUS
 10
3.664439377
 20
17.5544140887
 11
3.664439377
 21
15.0429406214
  0
LINE
  5
3C4
100
AcDbEntity
  8
ASSI
100
AcDbLine
 62
7
  6
CONTINUOUS
 10
3.664439377
 20
-20.3774981898
 11
3.664439377
 21
-17.8660247224
  0
LINE
  5
3C5
100
AcDbEntity
  8
ASSI
100
AcDbLine
 62
250
  6
CONTINUOUS
 10
3.8337670578
 20
-21.9177979876
 11
3.8337670578
 21
-21.5778543927
  0
LINE
  5
3C6
100
AcDbEntity
  8
ASSI
100
AcDbLine
 62
250
  6
CONTINUOUS
 10
3.8337670578
 20
19.7217497467
 11
3.8337670578
 21
20.0616933415
  0
LINE
  5
3C7
100
AcDbEntity
  8
ASSI
100
AcDbLine
 62
7
  6
CONTINUOUS
 10
3.8898990978
 20
-21.8483321505
 11
3.8898990978
 21
-21.5083884868
  0
LINE
  5
3C8
100
AcDbEntity
  8
ASSI
100
AcDbLine
 62
7
  6
CONTINUOUS
 10
3.8898990978
 20
19.7912155837
 11
3.8898988485
 21
20.1313170664
  0
LINE
  5
3C9
100
AcDbEntity
  8
ASSI
100
AcDbLine
 62
7
  6
CONTINUOUS
 10
4.3592035634
 20
-20.0027231257
 11
4.3592035634
 21
-17.0777156756
  0
LINE
  5
3CA
100
AcDbEntity
  8
ASSI
100
AcDbLine
 62
7
  6
CONTINUOUS
 10
4.3592035634
 20
14.9740809506
 11
4.3592035634
 21
17.8990884006
  0
LINE
  5
3CB
100
AcDbEntity
  8
ASSI
100
AcDbLine
 62
7
  6
CONTINUOUS
 10
5.0539677498
 20
15.3382339816
 11
5.0539677498
 21
14.7623899974
  0
LINE
  5
3CC
100
AcDbEntity
  8
ASSI
100
AcDbLine
 62
7
  6
CONTINUOUS
 10
5.0539677498
 20
-16.2492454955
 11
5.0539677498
 21
-16.7224193307
  0
LINE
  5
3CD
100
AcDbEntity
  8
ASSI
100
AcDbLine
 62
7
  6
CONTINUOUS
 10
5.1156854248
 20
14.7315311599
 11
5.1156854248
 21
-16.1774341839
  0
LINE
  5
3CE
100
AcDbEntity
  8
ASSI
100
AcDbLine
 62
7
  6
CONTINUOUS
 10
2.9362639662
 20
22.4226211682
 11
2.9434389245
 21
23.5934005901
  0
LINE
  5
3CF
100
AcDbEntity
  8
ASSI
100
AcDbLine
 62
7
  6
CONTINUOUS
 10
3.652389898
 20
23.4331085079
 11
3.652169493
 21
23.4264487441
  0
LINE
  5
3D0
100
AcDbEntity
  8
ASSI
100
AcDbLine
 62
7
  6
CONTINUOUS
 10
3.8890424816
 20
19.7702694492
 11
3.8898951669
 21
19.7912554219
  0
LWPOLYLINE
  5
3D1
100
AcDbEntity
  8
ASSI
100
AcDbPolyline
 62
250
  6
CONTINUOUS
 90
8
 70
0
 10
3.7996351139
 20
-21.9787649941
 10
3.7987211606
 20
-22.0006070868
 10
3.7953621792
 20
-22.0208874921
 10
3.7896156182
 20
-22.0392593403
 10
3.7815797625
 20
-22.0554084041
 10
3.7713920524
 20
-22.0690584746
 10
3.7592267314
 20
-22.0799760846
 10
3.7507319219
 20
-22.0853153291
  0
LWPOLYLINE
  5
3D2
100
AcDbEntity
  8
ASSI
100
AcDbPolyline
 62
7
  6
CONTINUOUS
 90
10
 70
0
 10
3.664439377
 20
-20.3775643433
 10
3.662480467
 20
-20.4215595858
 10
3.6566685466
 20
-20.4633560304
 10
3.6470115119
 20
-20.5024698549
 10
3.6334787899
 20
-20.5385791311
 10
3.6162220415
 20
-20.5710738624
 10
3.5957110519
 20
-20.5992087984
 10
3.5724682425
 20
-20.6225748017
 10
3.5466338905
 20
-20.6412792906
 10
3.538664187
 20
-20.6458377696
  0
LINE
  5
3D3
100
AcDbEntity
  8
ASSI
100
AcDbLine
 62
7
  6
CONTINUOUS
 10
3.8887730947
 20
-21.8723413299
 11
3.889899033
 21
-21.8483014955
  0
LWPOLYLINE
  5
3D4
100
AcDbEntity
  8
DRAFT
100
AcDbPolyline
 62
7
  6
CONTINUOUS
 90
27
 70
0
 10
-12.2024691515
 20
-8.8333479586
 10
-12.1574147628
 20
-8.8135422979
 10
-12.1062148389
 20
-8.7987544429
 10
-12.0522170988
 20
-8.7909604909
 10
-11.9956000559
 20
-8.7900350983
 10
-11.9378190149
 20
-8.7960138228
 10
-11.8789589154
 20
-8.8090460622
 10
-11.8189315651
 20
-8.8289810108
 10
-11.7589373899
 20
-8.8554060229
 10
-11.6989362382
 20
-8.8884484211
 10
-11.638967929
 20
-8.9279807054
 10
-11.5803575432
 20
-8.9732100513
 10
-11.5230794799
 20
-9.0243404189
 10
-11.4671626178
 20
-9.0811692208
 10
-11.4140187806
 20
-9.1422960195
 10
-11.3637942548
 20
-9.2077280748
 10
-11.3163495361
 20
-9.2774610314
 10
-11.2726717774
 20
-9.3500788096
 10
-11.2327816165
 20
-9.4257964489
 10
-11.1966655342
 20
-9.5044019683
 10
-11.1652622384
 20
-9.5838400122
 10
-11.1387519282
 20
-9.663996557
 10
-11.1169610461
 20
-9.7449885039
 10
-11.1002993193
 20
-9.8251076496
 10
-11.0889049286
 20
-9.9037853001
 10
-11.0826433617
 20
-9.981591744
 10
-11.0815150058
 20
-10.0585271341
  0
LWPOLYLINE
  5
3D5
100
AcDbEntity
  8
0
100
AcDbPolyline
 62
7
  6
CONTINUOUS
 90
3
 70
0
 10
-12.1065741855
 20
-8.7988319117
 10
-12.1580801301
 20
-8.8138543168
 10
-12.2024376453
 20
-8.833413405
  0
LINE
  5
3D6
100
AcDbEntity
  8
ASSI
100
AcDbLine
 62
7
  6
CONTINUOUS
 10
9.9509999484
 20
22.1059668691
 11
9.9509999484
 21
22.2969889328
  0
LWPOLYLINE
  5
3D7
100
AcDbEntity
  8
0
100
AcDbPolyline
 62
7
  6
CONTINUOUS
 90
38
 70
0
 10
9.4704314293
 20
23.1031552249
 10
9.4706156877
 20
23.119072094
 10
9.4719131762
 20
23.1482867339
 10
9.4744520553
 20
23.1774809898
 10
9.4782311781
 20
23.2066416758
 10
9.4832488378
 20
23.2357556213
 10
9.4895027681
 20
23.2648096768
 10
9.4969901444
 20
23.2937907197
 10
9.505707585
 20
23.3226856606
 10
9.5156511525
 20
23.3514814488
 10
9.5268163559
 20
23.3801650785
 10
9.5391981522
 20
23.4087235944
 10
9.5527909493
 20
23.4371440979
 10
9.5675886077
 20
23.4654137526
 10
9.583584444
 20
23.4935197903
 10
9.6007712335
 20
23.5214495167
 10
9.6191412137
 20
23.5491903172
 10
9.6386860877
 20
23.5767296622
 10
9.6593970278
 20
23.6040551136
 10
9.6812646797
 20
23.6311543295
 10
9.7042791669
 20
23.6580150703
 10
9.7284300945
 20
23.6846252041
 10
9.7537065547
 20
23.7109727124
 10
9.780097131
 20
23.737045695
 10
9.8075899041
 20
23.7628323758
 10
9.8361724565
 20
23.7883211082
 10
9.8658318788
 20
23.8135003798
 10
9.8965547749
 20
23.8383588183
 10
9.9283272687
 20
23.8628851961
 10
9.9611350099
 20
23.8870684358
 10
9.9949631806
 20
23.9108976148
 10
10.0297965019
 20
23.9343619703
 10
10.0656192412
 20
23.9574509047
 10
10.1024152189
 20
23.9801539894
 10
10.1401678156
 20
24.0024609706
 10
10.1788599803
 20
24.0243617732
 10
10.2184742371
 20
24.0458465053
 10
10.2589926941
 20
24.0669054633
  0
LWPOLYLINE
  5
3D8
100
AcDbEntity
  8
ASSI
100
AcDbPolyline
 62
7
  6
CONTINUOUS
 90
4
 70
0
 10
3.264768891
 20
-22.3224246753
 10
3.2707178004
 20
-22.3039438192
 10
3.2743270304
 20
-22.2835289516
 10
3.2755306473
 20
-22.2615313776
  0
LWPOLYLINE
  5
3D9
100
AcDbEntity
  8
RACCORDO
100
AcDbPolyline
 62
7
  6
CONTINUOUS
 90
19
 70
0
 10
19.6808261609
 20
16.448734389
 10
19.6860918357
 20
16.4571383988
 10
19.6914973583
 20
16.4654737828
 10
19.6970427288
 20
16.4737405411
 10
19.7027247362
 20
16.4819449489
 10
19.7085465915
 20
16.4900807309
 10
19.7145179274
 20
16.4981290614
 10
19.7206386848
 20
16.5060889912
 10
19.7269089228
 20
16.5139614694
 10
19.7333384514
 20
16.5217305179
 10
19.7399297062
 20
16.529398056
 10
19.7466802516
 20
16.5369621643
 10
19.7535925906
 20
16.5444011063
 10
19.7606712216
 20
16.55171762
 10
19.7679116462
 20
16.5589089673
 10
19.7753028716
 20
16.5659451978
 10
19.7828412336
 20
16.5728163279
 10
19.7905303964
 20
16.5795323413
 10
19.7983703601
 20
16.5860932378
  0
LWPOLYLINE
  5
3DA
100
AcDbEntity
  8
0
100
AcDbPolyline
 62
7
  6
CONTINUOUS
 90
19
 70
0
 10
19.6808261609
 20
16.448734389
 10
19.6860918357
 20
16.4571383988
 10
19.6914973583
 20
16.4654737828
 10
19.6970427288
 20
16.4737405411
 10
19.7027247362
 20
16.4819449489
 10
19.7085465915
 20
16.4900807309
 10
19.7145179274
 20
16.4981290614
 10
19.7206386848
 20
16.5060889912
 10
19.7269089228
 20
16.5139614694
 10
19.7333384514
 20
16.5217305179
 10
19.7399297062
 20
16.529398056
 10
19.7466802516
 20
16.5369621643
 10
19.7535925906
 20
16.5444011063
 10
19.7606712216
 20
16.55171762
 10
19.7679116462
 20
16.5589089673
 10
19.7753028716
 20
16.5659451978
 10
19.7828412336
 20
16.5728163279
 10
19.7905303964
 20
16.5795323413
 10
19.7983703601
 20
16.5860932378
  0
LWPOLYLINE
  5
3DB
100
AcDbEntity
  8
0
100
AcDbPolyline
 62
7
  6
CONTINUOUS
 90
14
 70
0
 10
-11.4405560505
 20
-13.235432214
 10
-11.4052074185
 20
-13.2209023678
 10
-11.3704625581
 20
-13.2021760229
 10
-11.3378079352
 20
-13.1800331107
 10
-11.3072008847
 20
-13.1544911657
 10
-11.2786869065
 20
-13.1255338631
 10
-11.2524892519
 20
-13.0934037948
 10
-11.228583937
 20
-13.0580153051
 10
-11.2069972599
 20
-13.0194550336
 10
-11.1880283143
 20
-12.9782242124
 10
-11.17170824
 20
-12.9342599103
 10
-11.1580078069
 20
-12.8876258769
 10
-11.1471360047
 20
-12.8390135825
 10
-11.1391630667
 20
-12.7886537711
  0
LWPOLYLINE
  5
3DC
100
AcDbEntity
  8
RACCORDO
100
AcDbPolyline
 62
250
  6
CONTINUOUS
 90
9
 70
0
 10
-17.4420210602
 20
21.4314882312
 10
-17.4725529912
 20
21.4502673647
 10
-17.4991555272
 20
21.470052447
 10
-17.5215709106
 20
21.4906517765
 10
-17.5395819542
 20
21.511865762
 10
-17.5530141452
 20
21.5334888567
 10
-17.5617373364
 20
21.55531155
 10
-17.5656670069
 20
21.5771223974
 10
-17.56565111
 20
21.590918784
  0
LWPOLYLINE
  5
3DD
100
AcDbEntity
  8
0
100
AcDbPolyline
 62
7
  6
CONTINUOUS
 90
4
 70
0
 10
9.4738760457
 20
23.0350282456
 10
9.4717466651
 20
23.0606344457
 10
9.4705601756
 20
23.0898502652
 10
9.4704314293
 20
23.1031552249
  0
LINE
  5
3DE
100
AcDbEntity
  8
0
100
AcDbLine
 62
250
  6
CONTINUOUS
 10
10.2589926941
 20
23.6566864203
 11
10.2589926941
 21
24.0669054633
  0
LINE
  5
3DF
100
AcDbEntity
  8
DRAFT
100
AcDbLine
 62
7
  6
CONTINUOUS
 10
10.9417028921
 20
23.9991445126
 11
10.9417028921
 21
23.5661318107
  0
LINE
  5
3E0
100
AcDbEntity
  8
0
100
AcDbLine
 62
7
  6
CONTINUOUS
 10
10.9417028921
 20
23.9991445126
 11
10.9417028921
 21
23.5661318107
  0
LINE
  5
3E1
100
AcDbEntity
  8
0
100
AcDbLine
 62
7
  6
CONTINUOUS
 10
11.9091666045
 20
22.7657791009
 11
11.9091666045
 21
22.3134544605
  0
LINE
  5
3E2
100
AcDbEntity
  8
0
100
AcDbLine
 62
7
  6
CONTINUOUS
 10
12.3589112659
 20
22.6440312677
 11
12.3589112659
 21
22.3044066779
  0
LINE
  5
3E3
100
AcDbEntity
  8
DRAFT
100
AcDbLine
 62
7
  6
CONTINUOUS
 10
12.3972081246
 20
23.9397219467
 11
12.3972081246
 21
23.4959686508
  0
LINE
  5
3E4
100
AcDbEntity
  8
0
100
AcDbLine
 62
7
  6
CONTINUOUS
 10
12.3972081246
 20
23.9397219467
 11
12.3972081246
 21
23.4959686508
  0
LWPOLYLINE
  5
3E5
100
AcDbEntity
  8
ASSI
100
AcDbPolyline
 62
250
  6
CONTINUOUS
 90
7
 70
0
 10
3.8163979532
 20
-21.5493475099
 10
3.8241967566
 20
-21.5246201076
 10
3.8294292119
 20
-21.4991356878
 10
3.8320067811
 20
-21.4733254714
 10
3.831885849
 20
-21.4476261924
 10
3.829068462
 20
-21.4224727073
 10
3.823602293
 20
-21.3982906374
  0
LWPOLYLINE
  5
3E6
100
AcDbEntity
  8
RACCORDO
100
AcDbPolyline
 62
250
  6
CONTINUOUS
 90
16
 70
0
 10
-2.7418377647
 20
14.0814049112
 10
-2.7032411124
 20
14.0656195839
 10
-2.6618473122
 20
14.0514062426
 10
-2.6180574288
 20
14.0389026004
 10
-2.5722957427
 20
14.0282298053
 10
-2.525005639
 20
14.0194912658
 10
-2.476645312
 20
14.0127716495
 10
-2.427683325
 20
14.0081360628
 10
-2.3785940711
 20
14.0056294199
 10
-2.3298531763
 20
14.0052760077
 10
-2.2819328915
 20
14.0070792504
 10
-2.2352975164
 20
14.0110216763
 10
-2.1903989017
 20
14.0170650874
 10
-2.1476720701
 20
14.0251509288
 10
-2.1075310022
 20
14.0352008569
 10
-2.0703646251
 20
14.0471174979
  0
LWPOLYLINE
  5
3E7
100
AcDbEntity
  8
RACCORDO
100
AcDbPolyline
 62
250
  6
CONTINUOUS
 90
6
 70
0
 10
-2.7418465578
 20
14.0814009583
 10
-3.2490750206
 20
14.3061198457
 10
-3.7541277006
 20
14.531697186
 10
-4.2569981174
 20
14.7581276955
 10
-4.7575609352
 20
14.9853520049
 10
-5.2559295312
 20
15.2134185004
  0
LWPOLYLINE
  5
3E8
100
AcDbEntity
  8
RACCORDO
100
AcDbPolyline
 62
250
  6
CONTINUOUS
 90
26
 70
0
 10
-5.2559295312
 20
15.2134185004
 10
-5.7524514054
 20
15.4424855189
 10
-6.2472858862
 20
15.6726289487
 10
-6.740251466
 20
15.9037668188
 10
-7.2311821822
 20
16.1358217356
 10
-7.7200228538
 20
16.3687670646
 10
-8.2068120197
 20
16.602620726
 10
-8.6915264006
 20
16.8373711828
 10
-9.1742288821
 20
17.073048969
 10
-9.6548392981
 20
17.3096151351
 10
-10.1331229174
 20
17.5469525388
 10
-10.6087795464
 20
17.7849074603
 10
-11.082101476
 20
18.0236211684
 10
-11.5537370688
 20
18.2634214323
 10
-12.0227757785
 20
18.5038447897
 10
-12.4901088975
 20
18.7453472088
 10
-12.9590335333
 20
18.9896582859
 10
-13.4286971313
 20
19.2363771514
 10
-13.8998395294
 20
19.485935275
 10
-14.3780192856
 20
19.7413625891
 10
-14.8632541648
 20
20.0027982073
 10
-15.3552300788
 20
20.2702044115
 10
-15.8588425962
 20
20.5464108393
 10
-16.3755253312
 20
20.832431102
 10
-16.9033373521
 20
21.1274279625
 10
-17.4420210634
 20
21.4314882087
  0
LINE
  5
3E9
100
AcDbEntity
  8
DRAFT
100
AcDbLine
 62
7
  6
CONTINUOUS
 10
2.5760048411
 20
12.4480367485
 11
1.6705692683
 21
12.9007545349
  0
LWPOLYLINE
  5
3EA
100
AcDbEntity
  8
RACCORDO
100
AcDbPolyline
 62
250
  6
CONTINUOUS
 90
16
 70
0
 10
-1.8849353303
 20
15.461319
 10
-1.8490246274
 20
15.4400084528
 10
-1.8136083378
 20
15.4141421104
 10
-1.7790741516
 20
15.3840031228
 10
-1.7458001031
 20
15.3499214114
 10
-1.7141504319
 20
15.3122700571
 10
-1.6844715959
 20
15.2714612166
 10
-1.6570884791
 20
15.2279416106
 10
-1.6323008354
 20
15.1821876333
 10
-1.6103800067
 20
15.1347001382
 10
-1.5915659528
 20
15.0859989547
 10
-1.5760646249
 20
15.0366171981
 10
-1.5640457107
 20
14.9870954338
 10
-1.5556407771
 20
14.9379757598
 10
-1.5509418302
 20
14.8897958725
 10
-1.5500003077
 20
14.8430831809
  0
LWPOLYLINE
  5
3EB
100
AcDbEntity
  8
ASSI
100
AcDbPolyline
 62
7
  6
CONTINUOUS
 90
4
 70
0
 10
-13.3041069106
 20
25.864079032
 10
-13.2860083466
 20
25.8480943045
 10
-13.2662995634
 20
25.8342221492
 10
-13.2480684671
 20
25.8240162203
  0
LINE
  5
3EC
100
AcDbEntity
  8
ASSI
100
AcDbLine
 62
7
  6
CONTINUOUS
 10
4.3592035634
 20
16.536524949
 11
5.0539677498
 21
15.3382339816
  0
LINE
  5
3ED
100
AcDbEntity
  8
RACCORDO
100
AcDbLine
 62
7
  6
CONTINUOUS
 10
4.3592035634
 20
16.5579013221
 11
4.6645024637
 21
16.0313386095
  0
LINE
  5
3EE
100
AcDbEntity
  8
0
100
AcDbLine
 62
7
  6
CONTINUOUS
 10
4.3592035634
 20
16.5579013221
 11
4.6645024637
 21
16.0313386095
  0
LINE
  5
3EF
100
AcDbEntity
  8
DRAFT
100
AcDbLine
 62
7
  6
CONTINUOUS
 10
14.4814294587
 20
26.1016926605
 11
14.4814294587
 21
25.7747266128
  0
LINE
  5
3F0
100
AcDbEntity
  8
0
100
AcDbLine
 62
7
  6
CONTINUOUS
 10
14.4814294587
 20
26.1016926605
 11
14.4814294587
 21
25.7747266128
  0
LINE
  5
3F1
100
AcDbEntity
  8
RACCORDO
100
AcDbLine
 62
7
  6
CONTINUOUS
 10
19.9624663579
 20
16.2150675777
 11
19.9624875907
 21
16.2151251161
  0
LINE
  5
3F2
100
AcDbEntity
  8
0
100
AcDbLine
 62
7
  6
CONTINUOUS
 10
19.9624663579
 20
16.2150675777
 11
19.9624875907
 21
16.2151251161
  0
LINE
  5
3F3
100
AcDbEntity
  8
ASSI
100
AcDbLine
 62
7
  6
CONTINUOUS
 10
0.2504299975
 20
-20.9972942965
 11
0.729946235
 21
-20.4039246961
  0
LINE
  5
3F4
100
AcDbEntity
  8
ASSI
100
AcDbLine
 62
7
  6
CONTINUOUS
 10
0.7529055973
 20
-21.3260011927
 11
1.29563166
 21
-20.6867674086
  0
LINE
  5
3F5
100
AcDbEntity
  8
ASSI
100
AcDbLine
 62
7
  6
CONTINUOUS
 10
1.29563166
 20
-21.3126004335
 11
0.7529055973
 21
-21.9518342176
  0
LINE
  5
3F6
100
AcDbEntity
  8
ASSI
100
AcDbLine
 62
7
  6
CONTINUOUS
 10
5.1156854248
 20
-16.1774341839
 11
3.664439377
 21
-17.8660247224
  0
LWPOLYLINE
  5
3F7
100
AcDbEntity
  8
RACCORDO
100
AcDbPolyline
 62
7
  6
CONTINUOUS
 90
19
 70
0
 10
19.7983703776
 20
18.2055645976
 10
19.7905332518
 20
18.2040072553
 10
19.7828457263
 20
18.2027610772
 10
19.7753078011
 20
18.2018260631
 10
19.7679154941
 20
18.2012082968
 10
19.7606727874
 20
18.2009016945
 10
19.7535916274
 20
18.2008880058
 10
19.7466766158
 20
18.2011692798
 10
19.7399231509
 20
18.2017434672
 10
19.7333293744
 20
18.20258617
 10
19.7268978023
 20
18.2036980781
 10
19.7206259186
 20
18.2050785015
 10
19.7145043172
 20
18.2067009718
 10
19.7085330357
 20
18.208566406
 10
19.7027120365
 20
18.210673887
 10
19.6970318013
 20
18.2129941952
 10
19.6914891572
 20
18.2155175904
 10
19.6860872771
 20
18.2182538127
 10
19.6808261609
 20
18.221202862
  0
LWPOLYLINE
  5
3F8
100
AcDbEntity
  8
0
100
AcDbPolyline
 62
7
  6
CONTINUOUS
 90
19
 70
0
 10
19.7983703776
 20
18.2055645976
 10
19.7905332518
 20
18.2040072553
 10
19.7828457263
 20
18.2027610772
 10
19.7753078011
 20
18.2018260631
 10
19.7679154941
 20
18.2012082968
 10
19.7606727874
 20
18.2009016945
 10
19.7535916274
 20
18.2008880058
 10
19.7466766158
 20
18.2011692798
 10
19.7399231509
 20
18.2017434672
 10
19.7333293744
 20
18.20258617
 10
19.7268978023
 20
18.2036980781
 10
19.7206259186
 20
18.2050785015
 10
19.7145043172
 20
18.2067009718
 10
19.7085330357
 20
18.208566406
 10
19.7027120365
 20
18.210673887
 10
19.6970318013
 20
18.2129941952
 10
19.6914891572
 20
18.2155175904
 10
19.6860872771
 20
18.2182538127
 10
19.6808261609
 20
18.221202862
  0
LWPOLYLINE
  5
3F9
100
AcDbEntity
  8
RACCORDO
100
AcDbPolyline
 62
250
  6
CONTINUOUS
 90
8
 70
0
 10
-16.562715664
 20
22.8002091359
 10
-16.6006608238
 20
22.8158264408
 10
-16.6382918637
 20
22.8264835726
 10
-16.675196842
 20
22.8320638882
 10
-16.7109717787
 20
22.8325063202
 10
-16.7452250436
 20
22.827806043
 10
-16.777581648
 20
22.818014542
 10
-16.7933713099
 20
22.8110272006
  0
LWPOLYLINE
  5
3FA
100
AcDbEntity
  8
RACCORDO
100
AcDbPolyline
 62
250
  6
CONTINUOUS
 90
31
 70
0
 10
-1.8849353303
 20
15.461319
 10
-2.3915920548
 20
15.6842931423
 10
-2.8959984559
 20
15.9081828465
 10
-3.3981545335
 20
16.1329881127
 10
-3.8979233011
 20
16.3586469723
 10
-4.3954417452
 20
16.5852213939
 10
-4.8911208258
 20
16.812897283
 10
-5.3851745098
 20
17.0417716997
 10
-5.8773888303
 20
17.2717475841
 10
-6.3675328464
 20
17.502719662
 10
-6.8555359637
 20
17.7346561266
 10
-7.3414687765
 20
17.9675887848
 10
-7.8253121279
 20
18.2015077826
 10
-8.3071432013
 20
18.436452534
 10
-8.7868848133
 20
18.6723836251
 10
-9.264286256
 20
18.9091729601
 10
-9.7390637899
 20
19.1466760545
 10
-10.2115011546
 20
19.3850373928
 10
-10.6821988616
 20
19.6245623325
 10
-11.1502544786
 20
19.864754075
 10
-11.6165704378
 20
20.1061094189
 10
-12.0844545471
 20
20.3504241181
 10
-12.5531929861
 20
20.5972377809
 10
-13.0234995751
 20
20.847010799
 10
-13.500823584
 20
21.102920101
 10
-13.9855116712
 20
21.3650388331
 10
-14.4772171782
 20
21.6332938491
 10
-14.9803493992
 20
21.9106426395
 10
-15.4963780989
 20
22.1980710345
 10
-16.0238335127
 20
22.4945932038
 10
-16.5627156405
 20
22.8002091476
  0
LWPOLYLINE
  5
3FB
100
AcDbEntity
  8
ASSI
100
AcDbPolyline
 62
7
  6
CONTINUOUS
 90
4
 70
0
 10
-0.7169839428
 20
19.5702188522
 10
-0.6981927931
 20
19.5538115109
 10
-0.6777046698
 20
19.5396779747
 10
-0.6616216644
 20
19.5307932975
  0
LWPOLYLINE
  5
3FC
100
AcDbEntity
  8
ASSI
100
AcDbPolyline
 62
250
  6
CONTINUOUS
 90
7
 70
0
 10
3.8163979532
 20
19.6752566295
 10
3.8241967954
 20
19.6610409717
 10
3.8294292669
 20
19.6482412976
 10
3.8320068334
 20
19.637074189
 10
3.8318858844
 20
19.6277286018
 10
3.8290684713
 20
19.6203626702
 10
3.828085448
 20
19.6190144697
  0
LINE
  5
3FD
100
AcDbEntity
  8
ASSI
100
AcDbLine
 62
250
  6
CONTINUOUS
 10
1.4266297402
 20
-22.4343179071
 11
2.0594199496
 21
-21.6890047411
  0
LINE
  5
3FE
100
AcDbEntity
  8
ASSI
100
AcDbLine
 62
250
  6
CONTINUOUS
 10
1.6362720924
 20
-22.6208965481
 11
2.3730798966
 21
-21.7530693454
  0
LINE
  5
3FF
100
AcDbEntity
  8
ASSI
100
AcDbLine
 62
7
  6
CONTINUOUS
 10
4.3592035634
 20
-17.2259461117
 11
5.0539677498
 21
-16.7224193307
  0
LINE
  5
400
100
AcDbEntity
  8
RACCORDO
100
AcDbLine
 62
7
  6
CONTINUOUS
 10
4.6645024637
 20
-17.0260586725
 11
4.3592035634
 21
-17.2473224848
  0
LINE
  5
401
100
AcDbEntity
  8
0
100
AcDbLine
 62
7
  6
CONTINUOUS
 10
4.6645024637
 20
-17.0260586725
 11
4.3592035634
 21
-17.2473224848
  0
LWPOLYLINE
  5
402
100
AcDbEntity
  8
DRAFT
100
AcDbPolyline
 62
7
  6
CONTINUOUS
 90
10
 70
0
 10
0.5563824022
 20
-17.4988549897
 10
0.5332254533
 20
-17.5126361159
 10
0.5012393421
 20
-17.5377006787
 10
0.4724461822
 20
-17.5683545009
 10
0.4468837866
 20
-17.6043156568
 10
0.4254106089
 20
-17.6443471373
 10
0.408230474
 20
-17.688330935
 10
0.3951395571
 20
-17.7363850574
 10
0.3863848371
 20
-17.7876265177
 10
0.3832223878
 20
-17.8276031108
  0
LWPOLYLINE
  5
403
100
AcDbEntity
  8
DRAFT
100
AcDbPolyline
 62
7
  6
CONTINUOUS
 90
27
 70
0
 10
1.17605054
 20
-18.7384989096
 10
1.2095097293
 20
-18.7195650944
 10
1.2414958404
 20
-18.6945005316
 10
1.2702890004
 20
-18.6638467094
 10
1.295851396
 20
-18.6278855535
 10
1.3173245737
 20
-18.587854073
 10
1.3345047085
 20
-18.5438702753
 10
1.3475956254
 20
-18.4958161529
 10
1.3563503454
 20
-18.4445746927
 10
1.3606865423
 20
-18.3897607306
 10
1.3606865423
 20
-18.3317594307
 10
1.3563503454
 20
-18.2726092718
 10
1.3475956254
 20
-18.2126130915
 10
1.3345047085
 20
-18.1514680522
 10
1.3173245737
 20
-18.0903041197
 10
1.295851396
 20
-18.0287994615
 10
1.2702890004
 20
-17.96727591
 10
1.2414958404
 20
-17.9078289279
 10
1.2095097293
 20
-17.8507782539
 10
1.1742928538
 20
-17.7958041492
 10
1.1365902283
 20
-17.7440428603
 10
1.0962167153
 20
-17.6954022958
 10
1.0533574523
 20
-17.6499745471
 10
1.0093128658
 20
-17.6091721345
 10
0.9645164312
 20
-17.5734658983
 10
0.918534673
 20
-17.5423849982
 10
0.8713675913
 20
-17.5159294344
  0
LWPOLYLINE
  5
404
100
AcDbEntity
  8
DRAFT
100
AcDbPolyline
 62
7
  6
CONTINUOUS
 90
27
 70
0
 10
1.4619628867
 20
-18.6033480741
 10
1.4957589882
 20
-18.584223612
 10
1.5280673254
 20
-18.5589066285
 10
1.5571504773
 20
-18.5279442355
 10
1.5829702913
 20
-18.4916211152
 10
1.6046597575
 20
-18.4511865546
 10
1.6220130641
 20
-18.4067597154
 10
1.6352360229
 20
-18.3582214359
 10
1.6440790592
 20
-18.306463518
 10
1.6484589816
 20
-18.2510967774
 10
1.6484589816
 20
-18.1925103983
 10
1.6440790592
 20
-18.1327637353
 10
1.6352360229
 20
-18.072162781
 10
1.6220130641
 20
-18.0104015427
 10
1.6046597575
 20
-17.948621397
 10
1.5829702913
 20
-17.8864973702
 10
1.5571504773
 20
-17.8243544358
 10
1.5280673254
 20
-17.764308891
 10
1.4957589882
 20
-17.7066835703
 10
1.4601873131
 20
-17.651155639
 10
1.4221048522
 20
-17.5988728901
 10
1.3813246185
 20
-17.5497423416
 10
1.338033599
 20
-17.5038569753
 10
1.2935453064
 20
-17.4626435308
 10
1.2482975785
 20
-17.4265775876
 10
1.2018525776
 20
-17.3951835661
 10
1.1542103038
 20
-17.3684614663
  0
LWPOLYLINE
  5
405
100
AcDbEntity
  8
DRAFT
100
AcDbPolyline
 62
250
  6
CONTINUOUS
 90
29
 70
0
 10
19.6808261609
 20
-8.3164788832
 10
19.6994244418
 20
-8.3065839094
 10
19.7174784652
 20
-8.2964400651
 10
19.7349749156
 20
-8.2860548317
 10
19.7519008889
 20
-8.2754358686
 10
19.7682439012
 20
-8.2645910079
 10
19.7839918992
 20
-8.253528248
 10
19.7991332681
 20
-8.242255748
 10
19.8136568405
 20
-8.2307818219
 10
19.8275519046
 20
-8.2191149322
 10
19.8408082125
 20
-8.2072636836
 10
19.8534159871
 20
-8.1952368169
 10
19.8653659295
 20
-8.1830432023
 10
19.8766492264
 20
-8.1706918331
 10
19.8872575558
 20
-8.1581918189
 10
19.8971830938
 20
-8.1455523789
 10
19.9064185197
 20
-8.1327828353
 10
19.9149570222
 20
-8.119892606
 10
19.9227923039
 20
-8.106891198
 10
19.9299185857
 20
-8.0937882005
 10
19.936330612
 20
-8.0805932773
 10
19.9420236534
 20
-8.0673161602
 10
19.9469935113
 20
-8.0539666417
 10
19.9512365202
 20
-8.0405545674
 10
19.9547495506
 20
-8.0270898292
 10
19.9575300116
 20
-8.0135823581
 10
19.9595758525
 20
-8.0000421161
 10
19.9608855644
 20
-7.9864790899
 10
19.9614509091
 20
-7.9730756958
  0
LWPOLYLINE
  5
406
100
AcDbEntity
  8
0
100
AcDbPolyline
 62
250
  6
CONTINUOUS
 90
29
 70
0
 10
19.6808261609
 20
-8.3164788832
 10
19.6994244418
 20
-8.3065839094
 10
19.7174784652
 20
-8.2964400651
 10
19.7349749156
 20
-8.2860548317
 10
19.7519008889
 20
-8.2754358686
 10
19.7682439012
 20
-8.2645910079
 10
19.7839918992
 20
-8.253528248
 10
19.7991332681
 20
-8.242255748
 10
19.8136568405
 20
-8.2307818219
 10
19.8275519046
 20
-8.2191149322
 10
19.8408082125
 20
-8.2072636836
 10
19.8534159871
 20
-8.1952368169
 10
19.8653659295
 20
-8.1830432023
 10
19.8766492264
 20
-8.1706918331
 10
19.8872575558
 20
-8.1581918189
 10
19.8971830938
 20
-8.1455523789
 10
19.9064185197
 20
-8.1327828353
 10
19.9149570222
 20
-8.119892606
 10
19.9227923039
 20
-8.106891198
 10
19.9299185857
 20
-8.0937882005
 10
19.936330612
 20
-8.0805932773
 10
19.9420236534
 20
-8.0673161602
 10
19.9469935113
 20
-8.0539666417
 10
19.9512365202
 20
-8.0405545674
 10
19.9547495506
 20
-8.0270898292
 10
19.9575300116
 20
-8.0135823581
 10
19.9595758525
 20
-8.0000421161
 10
19.9608855644
 20
-7.9864790899
 10
19.9614509091
 20
-7.9730756958
  0
LINE
  5
407
100
AcDbEntity
  8
RACCORDO
100
AcDbLine
 62
7
  6
CONTINUOUS
 10
18.9237781093
 20
-9.5824752418
 11
11.1895891979
 21
-13.67244174
  0
LINE
  5
408
100
AcDbEntity
  8
0
100
AcDbLine
 62
7
  6
CONTINUOUS
 10
18.9237781093
 20
-9.5824752418
 11
11.1895891979
 21
-13.67244174
  0
LINE
  5
409
100
AcDbEntity
  8
DRAFT
100
AcDbLine
 62
7
  6
CONTINUOUS
 10
0.8360055123
 20
-17.3512293906
 11
0.5563366772
 21
-17.4988692369
  0
LINE
  5
40A
100
AcDbEntity
  8
RACCORDO
100
AcDbLine
 62
250
  6
CONTINUOUS
 10
5.1156854248
 20
-15.9890676925
 11
19.6808261609
 21
-8.3164788832
  0
LINE
  5
40B
100
AcDbEntity
  8
0
100
AcDbLine
 62
250
  6
CONTINUOUS
 10
5.1156854248
 20
-15.9890676925
 11
19.6808261609
 21
-8.3164788832
  0
LINE
  5
40C
100
AcDbEntity
  8
RACCORDO
100
AcDbLine
 62
250
  6
CONTINUOUS
 10
4.6645024637
 20
-17.0260586725
 11
19.2666756853
 21
-9.3339619822
  0
LINE
  5
40D
100
AcDbEntity
  8
0
100
AcDbLine
 62
250
  6
CONTINUOUS
 10
4.6645024637
 20
-17.0260586725
 11
19.2666756853
 21
-9.3339619822
  0
LINE
  5
40E
100
AcDbEntity
  8
ASSI
100
AcDbLine
 62
7
  6
CONTINUOUS
 10
5.0539677498
 20
-16.7224193307
 11
4.3592035634
 21
-17.0777156756
  0
LINE
  5
40F
100
AcDbEntity
  8
RACCORDO
100
AcDbLine
 62
250
  6
CONTINUOUS
 10
0.4367322987
 20
-16.5503469909
 11
0.729946235
 21
-16.4203858979
  0
LINE
  5
410
100
AcDbEntity
  8
RACCORDO
100
AcDbLine
 62
7
  6
CONTINUOUS
 10
0.425820499
 20
-16.8108064608
 11
0.5645046948
 21
-16.7493375215
  0
LINE
  5
411
100
AcDbEntity
  8
ASSI
100
AcDbLine
 62
7
  6
CONTINUOUS
 10
3.664439377
 20
15.0429406214
 11
5.0539677498
 21
14.7623899974
  0
LINE
  5
412
100
AcDbEntity
  8
ASSI
100
AcDbLine
 62
7
  6
CONTINUOUS
 10
3.664439377
 20
15.0429406214
 11
5.1156854248
 21
14.7315311599
  0
LWPOLYLINE
  5
413
100
AcDbEntity
  8
ASSI
100
AcDbPolyline
 62
7
  6
CONTINUOUS
 90
4
 70
0
 10
1.4031400895
 20
18.4984116458
 10
1.4121283589
 20
18.4941682136
 10
1.4338822173
 20
18.4858487366
 10
1.4557808509
 20
18.4800144339
  0
LINE
  5
414
100
AcDbEntity
  8
ASSI
100
AcDbLine
 62
7
  6
CONTINUOUS
 10
5.0539677498
 20
14.7623899974
 11
5.1156854248
 21
14.7315311599
  0
LINE
  5
415
100
AcDbEntity
  8
RACCORDO
100
AcDbLine
 62
7
  6
CONTINUOUS
 10
-13.3700043991
 20
24.3772699255
 11
1.4794803137
 21
16.9525275691
  0
LINE
  5
416
100
AcDbEntity
  8
0
100
AcDbLine
 62
7
  6
CONTINUOUS
 10
-0.1183076212
 20
17.8979785124
 11
-10.4426151889
 21
23.0601322962
  0
LINE
  5
417
100
AcDbEntity
  8
ASSI
100
AcDbLine
 62
7
  6
CONTINUOUS
 10
-12.3776006818
 20
24.7406800707
 11
-12.1840363957
 21
24.6438979276
  0
LINE
  5
418
100
AcDbEntity
  8
ASSI
100
AcDbLine
 62
7
  6
CONTINUOUS
 10
0.2089000233
 20
18.4474297181
 11
0.4024643094
 21
18.3506475751
  0
LINE
  5
419
100
AcDbEntity
  8
ASSI
100
AcDbLine
 62
7
  6
CONTINUOUS
 10
2.2228147877
 20
17.5794994148
 11
2.0226386087
 21
17.6795875043
  0
LINE
  5
41A
100
AcDbEntity
  8
ASSI
100
AcDbLine
 62
7
  6
CONTINUOUS
 10
0.0029392863
 20
18.6894371655
 11
-10.5638620964
 21
23.9728378568
  0
LINE
  5
41B
100
AcDbEntity
  8
ASSI
100
AcDbLine
 62
7
  6
CONTINUOUS
 10
-12.5835614188
 20
24.982687518
 11
-12.7837375978
 21
25.0827756075
  0
LINE
  5
41C
100
AcDbEntity
  8
ASSI
100
AcDbLine
 62
7
  6
CONTINUOUS
 10
1.40313883
 20
18.4984115378
 11
0.6019808718
 21
18.8989905169
  0
LINE
  5
41D
100
AcDbEntity
  8
ASSI
100
AcDbLine
 62
7
  6
CONTINUOUS
 10
0.1341072852
 20
19.1329273102
 11
-0.6618227138
 21
19.5308923097
  0
LINE
  5
41E
100
AcDbEntity
  8
ASSI
100
AcDbLine
 62
7
  6
CONTINUOUS
 10
-11.1833675104
 20
24.791664708
 11
-11.9845198333
 21
25.1922408695
  0
LINE
  5
41F
100
AcDbEntity
  8
ASSI
100
AcDbLine
 62
7
  6
CONTINUOUS
 10
-12.4523934199
 20
25.4261776627
 11
-13.2483286096
 21
25.8241452576
  0
LINE
  5
420
100
AcDbEntity
  8
ASSI
100
AcDbLine
 62
250
  6
CONTINUOUS
 10
-12.3776006818
 20
25.4915130956
 11
-13.3130692001
 21
25.9592647053
  0
LINE
  5
421
100
AcDbEntity
  8
ASSI
100
AcDbLine
 62
250
  6
CONTINUOUS
 10
0.2089000233
 20
19.1982627431
 11
-0.726568495
 21
19.6659970022
  0
LINE
  5
422
100
AcDbEntity
  8
ASSI
100
AcDbLine
 62
250
  6
CONTINUOUS
 10
-11.2485678774
 20
24.9269966934
 11
-12.1840363957
 21
25.3947309526
  0
LINE
  5
423
100
AcDbEntity
  8
ASSI
100
AcDbLine
 62
250
  6
CONTINUOUS
 10
1.3379328277
 20
18.6337636849
 11
0.4024643094
 21
19.1014806
  0
LWPOLYLINE
  5
424
100
AcDbEntity
  8
ASSI
100
AcDbPolyline
 62
250
  6
CONTINUOUS
 90
16
 70
0
 10
-11.1834043954
 20
24.7916831605
 10
-11.1895997475
 20
24.7950796312
 10
-11.1967332701
 20
24.7997906238
 10
-11.2036061302
 20
24.8052713743
 10
-11.2101736479
 20
24.8115427636
 10
-11.2163892509
 20
24.8186216551
 10
-11.2221729216
 20
24.8264733193
 10
-11.2274856375
 20
24.8350947155
 10
-11.2322886391
 20
24.8444785087
 10
-11.2365211818
 20
24.8545541563
 10
-11.2401563317
 20
24.8652948987
 10
-11.2431692785
 20
24.8766711294
 10
-11.2455256354
 20
24.8885825652
 10
-11.2472128907
 20
24.9009613211
 10
-11.2482285951
 20
24.9137821511
 10
-11.2485678774
 20
24.9269966934
  0
LWPOLYLINE
  5
425
100
AcDbEntity
  8
ASSI
100
AcDbPolyline
 62
7
  6
CONTINUOUS
 90
9
 70
0
 10
-11.9840920348
 20
25.1920302942
 10
-12.0071248504
 20
25.2048810359
 10
-12.0371942032
 20
25.2253579898
 10
-12.0658952526
 20
25.2487701456
 10
-12.0931799683
 20
25.27457119
 10
-12.1186636126
 20
25.3023842537
 10
-12.1421862435
 20
25.3319183562
 10
-12.163950813
 20
25.362810574
 10
-12.1840363957
 20
25.3947309526
  0
LWPOLYLINE
  5
426
100
AcDbEntity
  8
ASSI
100
AcDbPolyline
 62
7
  6
CONTINUOUS
 90
9
 70
0
 10
0.6024086703
 20
18.8987799417
 10
0.5793758547
 20
18.9116306833
 10
0.5493065019
 20
18.9321076373
 10
0.5206054526
 20
18.955519793
 10
0.4933207369
 20
18.9813208374
 10
0.4678370925
 20
19.0091339011
 10
0.4443144616
 20
19.0386680037
 10
0.4225498921
 20
19.0695602215
 10
0.4024643094
 20
19.1014806
  0
LWPOLYLINE
  5
427
100
AcDbEntity
  8
ASSI
100
AcDbPolyline
 62
250
  6
CONTINUOUS
 90
7
 70
0
 10
-0.726568495
 20
19.6659970022
 10
-0.7436405696
 20
19.6757162212
 10
-0.7580606172
 20
19.6864559915
 10
-0.7695873522
 20
19.6980366071
 10
-0.7780279024
 20
19.7102642929
 10
-0.7832410359
 20
19.7229344463
 10
-0.7851471319
 20
19.7366814539
  0
LWPOLYLINE
  5
428
100
AcDbEntity
  8
ASSI
100
AcDbPolyline
 62
250
  6
CONTINUOUS
 90
7
 70
0
 10
-0.726568495
 20
19.9832658026
 10
-0.7436405576
 20
19.9929850137
 10
-0.758060599
 20
20.003724776
 10
-0.7695873331
 20
20.0153053845
 10
-0.7780278868
 20
20.0275330645
 10
-0.7832410269
 20
20.0402032139
 10
-0.7851471297
 20
20.0539463463
  0
LWPOLYLINE
  5
429
100
AcDbEntity
  8
ASSI
100
AcDbPolyline
 62
250
  6
CONTINUOUS
 90
9
 70
0
 10
-13.2483156914
 20
25.8241387987
 10
-13.2578060799
 20
25.8296014152
 10
-13.2718553175
 20
25.8408306071
 10
-13.2840861242
 20
25.8548631257
 10
-13.2943299382
 20
25.8715110656
 10
-13.302445355
 20
25.8905470342
 10
-13.3083218182
 20
25.9117121695
 10
-13.3118793656
 20
25.9347217337
 10
-13.3130691911
 20
25.9592647013
  0
LWPOLYLINE
  5
42A
100
AcDbEntity
  8
ASSI
100
AcDbPolyline
 62
250
  6
CONTINUOUS
 90
13
 70
0
 10
-11.0742700015
 20
25.5472814484
 10
-11.0561180693
 20
25.5364167145
 10
-11.0382343871
 20
25.5227969262
 10
-11.0209248313
 20
25.5066550316
 10
-11.0044854584
 20
25.488267116
 10
-10.9891974418
 20
25.4679476799
 10
-10.9753222624
 20
25.4460442599
 10
-10.9630972364
 20
25.4229314845
 10
-10.9527314564
 20
25.3990046664
 10
-10.9444022151
 20
25.3746730418
 10
-10.9382519729
 20
25.3503527702
 10
-10.9343859215
 20
25.326459817
 10
-10.9328701845
 20
25.3034028391
  0
LWPOLYLINE
  5
42B
100
AcDbEntity
  8
ASSI
100
AcDbPolyline
 62
250
  6
CONTINUOUS
 90
3
 70
0
 10
-0.6733789753
 20
19.5377511706
 10
-0.665295793
 20
19.5327213765
 10
-0.6618278888
 20
19.5308948975
  0
LWPOLYLINE
  5
42C
100
AcDbEntity
  8
RACCORDO
100
AcDbPolyline
 62
250
  6
CONTINUOUS
 90
37
 70
0
 10
19.6808261609
 20
22.0286013627
 10
19.6805962321
 20
22.0666036369
 10
19.6796877487
 20
22.1049211882
 10
19.6781011028
 20
22.143535757
 10
19.6758369777
 20
22.1824288541
 10
19.6728964527
 20
22.2215820393
 10
19.6692809897
 20
22.2609769354
 10
19.6649922628
 20
22.3005949
 10
19.6600322775
 20
22.3404169493
 10
19.6544034731
 20
22.3804240389
 10
19.6481085223
 20
22.4205970624
 10
19.6411503809
 20
22.460916948
 10
19.6335323962
 20
22.5013645853
 10
19.6252581826
 20
22.541920725
 10
19.6163316526
 20
22.5825660573
 10
19.606757069
 20
22.6232813067
 10
19.5965389764
 20
22.6640471295
 10
19.5856822249
 20
22.7048440927
 10
19.5741919981
 20
22.7456527526
 10
19.5620737704
 20
22.7864536965
 10
19.5493333001
 20
22.8272275079
 10
19.5359766525
 20
22.8679547454
 10
19.5220102108
 20
22.9086160109
 10
19.507440614
 20
22.9491919882
 10
19.4922747501
 20
22.9896634075
 10
19.4765198595
 20
23.0300110249
 10
19.460183448
 20
23.0702156492
 10
19.4432732223
 20
23.1102581799
 10
19.425797233
 20
23.1501196416
 10
19.4077638362
 20
23.1897810166
 10
19.3891816074
 20
23.2292232731
 10
19.3700594882
 20
23.2684275534
 10
19.3504065556
 20
23.3073753355
 10
19.3302319744
 20
23.3460482612
 10
19.3095453031
 20
23.3844279982
 10
19.2883564988
 20
23.4224962543
 10
19.2666756853
 20
23.4602349373
  0
LWPOLYLINE
  5
42D
100
AcDbEntity
  8
0
100
AcDbPolyline
 62
250
  6
CONTINUOUS
 90
37
 70
0
 10
19.6808261609
 20
22.0286013627
 10
19.6805962321
 20
22.0666036369
 10
19.6796877487
 20
22.1049211882
 10
19.6781011028
 20
22.143535757
 10
19.6758369777
 20
22.1824288541
 10
19.6728964527
 20
22.2215820393
 10
19.6692809897
 20
22.2609769354
 10
19.6649922628
 20
22.3005949
 10
19.6600322775
 20
22.3404169493
 10
19.6544034731
 20
22.3804240389
 10
19.6481085223
 20
22.4205970624
 10
19.6411503809
 20
22.460916948
 10
19.6335323962
 20
22.5013645853
 10
19.6252581826
 20
22.541920725
 10
19.6163316526
 20
22.5825660573
 10
19.606757069
 20
22.6232813067
 10
19.5965389764
 20
22.6640471295
 10
19.5856822249
 20
22.7048440927
 10
19.5741919981
 20
22.7456527526
 10
19.5620737704
 20
22.7864536965
 10
19.5493333001
 20
22.8272275079
 10
19.5359766525
 20
22.8679547454
 10
19.5220102108
 20
22.9086160109
 10
19.507440614
 20
22.9491919882
 10
19.4922747501
 20
22.9896634075
 10
19.4765198595
 20
23.0300110249
 10
19.460183448
 20
23.0702156492
 10
19.4432732223
 20
23.1102581799
 10
19.425797233
 20
23.1501196416
 10
19.4077638362
 20
23.1897810166
 10
19.3891816074
 20
23.2292232731
 10
19.3700594882
 20
23.2684275534
 10
19.3504065556
 20
23.3073753355
 10
19.3302319744
 20
23.3460482612
 10
19.3095453031
 20
23.3844279982
 10
19.2883564988
 20
23.4224962543
 10
19.2666756853
 20
23.4602349373
  0
LINE
  5
42E
100
AcDbEntity
  8
RACCORDO
100
AcDbLine
 62
250
  6
CONTINUOUS
 10
19.6808261609
 20
-8.3164788832
 11
19.6808261609
 21
16.448734389
  0
LINE
  5
42F
100
AcDbEntity
  8
0
100
AcDbLine
 62
250
  6
CONTINUOUS
 10
19.6808261609
 20
-8.3164788832
 11
19.6808261609
 21
16.448734389
  0
LINE
  5
430
100
AcDbEntity
  8
RACCORDO
100
AcDbLine
 62
250
  6
CONTINUOUS
 10
19.6808261609
 20
18.221202862
 11
19.6808261609
 21
22.0286013627
  0
LINE
  5
431
100
AcDbEntity
  8
0
100
AcDbLine
 62
250
  6
CONTINUOUS
 10
19.6808261609
 20
18.221202862
 11
19.6808261609
 21
22.0286013627
  0
LWPOLYLINE
  5
432
100
AcDbEntity
  8
RACCORDO
100
AcDbPolyline
 62
7
  6
CONTINUOUS
 90
4
 70
0
 10
19.9614868783
 20
16.2079155755
 10
19.9615389539
 20
16.209688103
 10
19.9617394252
 20
16.2117595229
 10
19.9620133603
 20
16.2133616055
  0
LWPOLYLINE
  5
433
100
AcDbEntity
  8
0
100
AcDbPolyline
 62
7
  6
CONTINUOUS
 90
4
 70
0
 10
19.9614868783
 20
16.2079155755
 10
19.9615389539
 20
16.209688103
 10
19.9617394252
 20
16.2117595229
 10
19.9620133603
 20
16.2133616055
  0
LWPOLYLINE
  5
434
100
AcDbEntity
  8
RACCORDO
100
AcDbPolyline
 62
250
  6
CONTINUOUS
 90
4
 70
0
 10
19.2666756853
 20
-9.3339619822
 10
19.2883564988
 20
-9.3176871927
 10
19.3095453031
 20
-9.3006024807
 10
19.3302319744
 20
-9.2827160097
  0
LWPOLYLINE
  5
435
100
AcDbEntity
  8
0
100
AcDbPolyline
 62
250
  6
CONTINUOUS
 90
4
 70
0
 10
19.2666756853
 20
-9.3339619822
 10
19.2883564988
 20
-9.3176871927
 10
19.3095453031
 20
-9.3006024807
 10
19.3302319744
 20
-9.2827160097
  0
LWPOLYLINE
  5
436
100
AcDbEntity
  8
RACCORDO
100
AcDbPolyline
 62
7
  6
CONTINUOUS
 90
40
 70
0
 10
19.3412453191
 20
-9.2875983557
 10
19.3693895691
 20
-9.2666521474
 10
19.3970441691
 20
-9.2449619355
 10
19.4242258296
 20
-9.2225094396
 10
19.4509147756
 20
-9.1993034875
 10
19.4770890434
 20
-9.1753558735
 10
19.5027475658
 20
-9.1506596529
 10
19.5278713977
 20
-9.1252238365
 10
19.5524396315
 20
-9.0990603498
 10
19.5764472093
 20
-9.0721643711
 10
19.5998752872
 20
-9.0445459536
 10
19.6227037773
 20
-9.0162176948
 10
19.6449250529
 20
-8.9871767819
 10
19.66652013
 20
-8.9574346817
 10
19.687470782
 20
-8.9270035595
 10
19.7077698939
 20
-8.8958792832
 10
19.7273986731
 20
-8.8640745139
 10
19.7463403252
 20
-8.8316004102
 10
19.7645897688
 20
-8.7984477126
 10
19.782125718
 20
-8.7646350297
 10
19.7989349916
 20
-8.7301670117
 10
19.8150217959
 20
-8.6950093734
 10
19.8303737123
 20
-8.659156271
 10
19.84496467
 20
-8.6226335563
 10
19.8587770054
 20
-8.5854509705
 10
19.8717972453
 20
-8.5476068979
 10
19.8840037256
 20
-8.5091230785
 10
19.8953706625
 20
-8.4700429052
 10
19.905884427
 20
-8.4303767391
 10
19.9155312915
 20
-8.3901350589
 10
19.9242915052
 20
-8.3493604845
 10
19.9321548221
 20
-8.3080609676
 10
19.9391099312
 20
-8.266248413
 10
19.9451414125
 20
-8.223970495
 10
19.9502413026
 20
-8.1812364853
 10
19.9544012092
 20
-8.1380559927
 10
19.957610552
 20
-8.0944757695
 10
19.9598626075
 20
-8.0505163921
 10
19.9611520184
 20
-8.0061753141
 10
19.9614863509
 20
-7.9691508185
  0
LWPOLYLINE
  5
437
100
AcDbEntity
  8
0
100
AcDbPolyline
 62
7
  6
CONTINUOUS
 90
40
 70
0
 10
19.3412453191
 20
-9.2875983557
 10
19.3693895691
 20
-9.2666521474
 10
19.3970441691
 20
-9.2449619355
 10
19.4242258296
 20
-9.2225094396
 10
19.4509147756
 20
-9.1993034875
 10
19.4770890434
 20
-9.1753558735
 10
19.5027475658
 20
-9.1506596529
 10
19.5278713977
 20
-9.1252238365
 10
19.5524396315
 20
-9.0990603498
 10
19.5764472093
 20
-9.0721643711
 10
19.5998752872
 20
-9.0445459536
 10
19.6227037773
 20
-9.0162176948
 10
19.6449250529
 20
-8.9871767819
 10
19.66652013
 20
-8.9574346817
 10
19.687470782
 20
-8.9270035595
 10
19.7077698939
 20
-8.8958792832
 10
19.7273986731
 20
-8.8640745139
 10
19.7463403252
 20
-8.8316004102
 10
19.7645897688
 20
-8.7984477126
 10
19.782125718
 20
-8.7646350297
 10
19.7989349916
 20
-8.7301670117
 10
19.8150217959
 20
-8.6950093734
 10
19.8303737123
 20
-8.659156271
 10
19.84496467
 20
-8.6226335563
 10
19.8587770054
 20
-8.5854509705
 10
19.8717972453
 20
-8.5476068979
 10
19.8840037256
 20
-8.5091230785
 10
19.8953706625
 20
-8.4700429052
 10
19.905884427
 20
-8.4303767391
 10
19.9155312915
 20
-8.3901350589
 10
19.9242915052
 20
-8.3493604845
 10
19.9321548221
 20
-8.3080609676
 10
19.9391099312
 20
-8.266248413
 10
19.9451414125
 20
-8.223970495
 10
19.9502413026
 20
-8.1812364853
 10
19.9544012092
 20
-8.1380559927
 10
19.957610552
 20
-8.0944757695
 10
19.9598626075
 20
-8.0505163921
 10
19.9611520184
 20
-8.0061753141
 10
19.9614509091
 20
-7.9730756958
  0
LINE
  5
438
100
AcDbEntity
  8
DRAFT
100
AcDbLine
 62
7
  6
CONTINUOUS
 10
11.1895891979
 20
-13.67244174
 11
10.4368951139
 21
-14.2179529171
  0
LINE
  5
439
100
AcDbEntity
  8
0
100
AcDbLine
 62
7
  6
CONTINUOUS
 10
11.1895891979
 20
-13.67244174
 11
10.4368951139
 21
-14.2179529171
  0
LINE
  5
43A
100
AcDbEntity
  8
RACCORDO
100
AcDbLine
 62
250
  6
CONTINUOUS
 10
18.9237781093
 20
-9.5824752418
 11
19.2666756853
 21
-9.3339619822
  0
LINE
  5
43B
100
AcDbEntity
  8
0
100
AcDbLine
 62
250
  6
CONTINUOUS
 10
18.9237781093
 20
-9.5824752418
 11
19.2666756853
 21
-9.3339619822
  0
LINE
  5
43C
100
AcDbEntity
  8
RACCORDO
100
AcDbLine
 62
7
  6
CONTINUOUS
 10
19.0001274055
 20
-9.5348218295
 11
19.3412432793
 21
-9.2875998494
  0
LINE
  5
43D
100
AcDbEntity
  8
0
100
AcDbLine
 62
7
  6
CONTINUOUS
 10
19.0001274055
 20
-9.5348218295
 11
19.3412432793
 21
-9.2875998494
  0
LWPOLYLINE
  5
43E
100
AcDbEntity
  8
ASSI
100
AcDbPolyline
 62
7
  6
CONTINUOUS
 90
4
 70
0
 10
0.4933396989
 20
-22.1359793702
 10
0.4439668507
 20
-22.1685224271
 10
0.4221232397
 20
-22.1835754934
 10
0.4024643094
 20
-22.1981235394
  0
LWPOLYLINE
  5
43F
100
AcDbEntity
  8
ASSI
100
AcDbPolyline
 62
7
  6
CONTINUOUS
 90
6
 70
0
 10
0.6439457659
 20
-22.04297592
 10
0.6116696147
 20
-22.0629045491
 10
0.5799424675
 20
-22.081906593
 10
0.5493065019
 20
-22.1001752624
 10
0.5203955944
 20
-22.1182096988
 10
0.4933396989
 20
-22.1359793702
  0
LWPOLYLINE
  5
440
100
AcDbEntity
  8
RACCORDO
100
AcDbPolyline
 62
7
  6
CONTINUOUS
 90
7
 70
0
 10
18.9237781093
 20
-9.5824752418
 10
18.9390887433
 20
-9.5740980764
 10
18.954218388
 20
-9.5652580563
 10
18.9691612219
 20
-9.5559614046
 10
18.983912099
 20
-9.5462141284
 10
18.9984651144
 20
-9.536023109
 10
19.0000590749
 20
-9.534871351
  0
LWPOLYLINE
  5
441
100
AcDbEntity
  8
0
100
AcDbPolyline
 62
7
  6
CONTINUOUS
 90
7
 70
0
 10
18.9237781093
 20
-9.5824752418
 10
18.9390887433
 20
-9.5740980764
 10
18.954218388
 20
-9.5652580563
 10
18.9691612219
 20
-9.5559614046
 10
18.983912099
 20
-9.5462141284
 10
18.9984651144
 20
-9.536023109
 10
19.0000590749
 20
-9.534871351
  0
LWPOLYLINE
  5
442
100
AcDbEntity
  8
DRAFT
100
AcDbPolyline
 62
250
  6
CONTINUOUS
 90
6
 70
0
 10
19.2666756853
 20
-9.3339619822
 10
19.2826057817
 20
-9.3252558555
 10
19.2982562375
 20
-9.3161011108
 10
19.3136187667
 20
-9.3065025948
 10
19.328685236
 20
-9.2964653892
 10
19.3412432793
 20
-9.2875998494
  0
LWPOLYLINE
  5
443
100
AcDbEntity
  8
0
100
AcDbPolyline
 62
250
  6
CONTINUOUS
 90
6
 70
0
 10
19.2666756853
 20
-9.3339619822
 10
19.2826057817
 20
-9.3252558555
 10
19.2982562375
 20
-9.3161011108
 10
19.3136187667
 20
-9.3065025948
 10
19.328685236
 20
-9.2964653892
 10
19.3412432793
 20
-9.2875998494
  0
LINE
  5
444
100
AcDbEntity
  8
ASSI
100
AcDbLine
 62
250
  6
CONTINUOUS
 10
3.664439377
 20
-20.3775643433
 11
4.3592035634
 21
-20.0027231257
  0
LINE
  5
445
100
AcDbEntity
  8
DRAFT
100
AcDbLine
 62
7
  6
CONTINUOUS
 10
4.3592035634
 20
-17.4319363242
 11
10.4368951139
 21
-14.2179529171
  0
LINE
  5
446
100
AcDbEntity
  8
0
100
AcDbLine
 62
7
  6
CONTINUOUS
 10
4.3592035634
 20
-17.4319363242
 11
10.4368951139
 21
-14.2179529171
  0
LINE
  5
447
100
AcDbEntity
  8
ASSI
100
AcDbLine
 62
7
  6
CONTINUOUS
 10
8.7370743383
 20
-15.389767622
 11
4.3592035634
 21
-17.6495450431
  0
LINE
  5
448
100
AcDbEntity
  8
ASSI
100
AcDbLine
 62
7
  6
CONTINUOUS
 10
9.9283326583
 20
-14.6672165744
 11
4.3592035634
 21
-17.5152206173
  0
LWPOLYLINE
  5
449
100
AcDbEntity
  8
RACCORDO
100
AcDbPolyline
 62
250
  6
CONTINUOUS
 90
10
 70
0
 10
-3.3061145927
 20
-23.3896708221
 10
-3.2743033991
 20
-23.374250069
 10
-3.2467780195
 20
-23.3546523349
 10
-3.2218486624
 20
-23.3303224496
 10
-3.1997882029
 20
-23.3015267862
 10
-3.1808380983
 20
-23.2685805878
 10
-3.1652057568
 20
-23.2318445212
 10
-3.1530622721
 20
-23.1917207379
 10
-3.144540548
 20
-23.1486484747
 10
-3.1397338404
 20
-23.1030992352
  0
LINE
  5
44A
100
AcDbEntity
  8
DRAFT
100
AcDbLine
 62
7
  6
CONTINUOUS
 10
1.4620473156
 20
-18.6033129971
 11
1.1761341374
 21
-18.7384641574
  0
LINE
  5
44B
100
AcDbEntity
  8
ASSI
100
AcDbLine
 62
7
  6
CONTINUOUS
 10
1.29563166
 20
18.111170681
 11
0.7529055973
 21
18.2262999985
  0
LINE
  5
44C
100
AcDbEntity
  8
ASSI
100
AcDbLine
 62
7
  6
CONTINUOUS
 10
1.4558376404
 20
18.479995157
 11
2.0962249288
 21
18.3441488129
  0
LINE
  5
44D
100
AcDbEntity
  8
ASSI
100
AcDbLine
 62
250
  6
CONTINUOUS
 10
1.6362720924
 20
18.6037075913
 11
2.3730798966
 21
18.4474074143
  0
LWPOLYLINE
  5
44E
100
AcDbEntity
  8
ASSI
100
AcDbPolyline
 62
250
  6
CONTINUOUS
 90
7
 70
0
 10
-0.5534833378
 20
20.2868881165
 10
-0.5722370778
 20
20.294476214
 10
-0.5906278407
 20
20.2989936363
 10
-0.6083410769
 20
20.3003631212
 10
-0.6250738258
 20
20.2985612474
 10
-0.6405398961
 20
20.2936188358
 10
-0.6458870354
 20
20.2910097119
  0
LWPOLYLINE
  5
44F
100
AcDbEntity
  8
ASSI
100
AcDbPolyline
 62
250
  6
CONTINUOUS
 90
13
 70
0
 10
-11.2485678774
 20
24.9269966934
 10
-11.2291294553
 20
24.9184606621
 10
-11.2076499306
 20
24.9112506414
 10
-11.1844887135
 20
24.9054872744
 10
-11.1600333536
 20
24.9012669975
 10
-11.1346930547
 20
24.8986604275
 10
-11.1088918283
 20
24.8977111792
 10
-11.0830613982
 20
24.8984351362
 10
-11.0576339769
 20
24.9008201846
 10
-11.0330350337
 20
24.9048264162
 10
-11.009676175
 20
24.9103867961
 10
-10.9879482573
 20
24.9174082839
 10
-10.9682148471
 20
24.9257733915
  0
LWPOLYLINE
  5
450
100
AcDbEntity
  8
ASSI
100
AcDbPolyline
 62
250
  6
CONTINUOUS
 90
13
 70
0
 10
-11.2485678774
 20
25.2442654938
 10
-11.2291294425
 20
25.2357294576
 10
-11.2076499051
 20
25.2285194343
 10
-11.1844886766
 20
25.2227560669
 10
-11.1600333072
 20
25.2185357914
 10
-11.134693002
 20
25.215929224
 10
-11.108891773
 20
25.2149799792
 10
-11.0830613445
 20
25.2157039396
 10
-11.0576339289
 20
25.218088991
 10
-11.0330349948
 20
25.2220952243
 10
-11.0096761478
 20
25.2276556039
 10
-10.9879482435
 20
25.2346770894
 10
-10.9682148471
 20
25.2430421919
  0
LWPOLYLINE
  5
451
100
AcDbEntity
  8
ASSI
100
AcDbPolyline
 62
250
  6
CONTINUOUS
 90
13
 70
0
 10
-1.5718751247
 20
21.4166104017
 10
-1.5524367401
 20
21.4080743851
 10
-1.530957253
 20
21.400864372
 10
-1.50779607
 20
21.3951010061
 10
-1.4833407387
 20
21.3908807253
 10
-1.4580004599
 20
21.3882741474
 10
-1.4321992408
 20
21.3873248889
 10
-1.4063688029
 20
21.3880488356
 10
-1.3809413611
 20
21.390433876
 10
-1.3563423892
 20
21.3944401034
 10
-1.3329834967
 20
21.4000004839
 10
-1.3112555418
 20
21.4070219786
 10
-1.2915220944
 20
21.4153870998
  0
LWPOLYLINE
  5
452
100
AcDbEntity
  8
ASSI
100
AcDbPolyline
 62
250
  6
CONTINUOUS
 90
14
 70
0
 10
-3.6882203543
 20
22.8302096057
 10
-3.696965179
 20
22.8342043069
 10
-3.7059377384
 20
22.8377695698
 10
-3.7151117616
 20
22.8408489932
 10
-3.7244789548
 20
22.8433902726
 10
-3.733982432
 20
22.8453262331
 10
-3.7435196338
 20
22.8465910828
 10
-3.7530517774
 20
22.8471405999
 10
-3.7625365075
 20
22.8469318156
 10
-3.7718690762
 20
22.8459323257
 10
-3.7810084243
 20
22.8441185997
 10
-3.789911325
 20
22.8414700988
 10
-3.7984798377
 20
22.837994386
 10
-3.8035718305
 20
22.835444327
  0
LWPOLYLINE
  5
453
100
AcDbEntity
  8
ASSI
100
AcDbPolyline
 62
250
  6
CONTINUOUS
 90
28
 70
0
 10
-3.8271735675
 20
22.5875542983
 10
-3.8289092948
 20
22.5883850274
 10
-3.8306796489
 20
22.5891064166
 10
-3.8324846297
 20
22.5897184659
 10
-3.8343356838
 20
22.5902324288
 10
-3.8362213646
 20
22.5906370518
 10
-3.8381073325
 20
22.5908985746
 10
-3.8399944117
 20
22.5910123402
 10
-3.8418817779
 20
22.5909830056
 10
-3.8437326199
 20
22.5907907811
 10
-3.8455462432
 20
22.5904298733
 10
-3.8473233422
 20
22.5899060756
 10
-3.8490291884
 20
22.5892169782
 10
-3.8506607577
 20
22.5883575497
 10
-3.8522210741
 20
22.5873328216
 10
-3.8536844819
 20
22.5861554786
 10
-3.8550472259
 20
22.584823608
 10
-3.8563130613
 20
22.5833391225
 10
-3.8574675966
 20
22.5817204447
 10
-3.8585089283
 20
22.5799668826
 10
-3.8594389599
 20
22.5780791282
 10
-3.8602490111
 20
22.5760776805
 10
-3.8609379975
 20
22.5739615142
 10
-3.8615070034
 20
22.5717316546
 10
-3.8619506015
 20
22.569411676
 10
-3.8622669827
 20
22.5670094365
 10
-3.8624579561
 20
22.5645170779
 10
-3.8625235218
 20
22.5619346003
  0
LWPOLYLINE
  5
454
100
AcDbEntity
  8
ASSI
100
AcDbPolyline
 62
7
  6
CONTINUOUS
 90
4
 70
0
 10
-11.1834065278
 20
24.791684706
 10
-11.1773147242
 20
24.7887537858
 10
-11.1542112083
 20
24.7796210499
 10
-11.1307455848
 20
24.7732633808
  0
LINE
  5
455
100
AcDbEntity
  8
ASSI
100
AcDbLine
 62
7
  6
CONTINUOUS
 10
-1.5718751247
 20
20.2293376204
 11
-3.8625235218
 21
21.3746618189
  0
LINE
  5
456
100
AcDbEntity
  8
ASSI
100
AcDbLine
 62
7
  6
CONTINUOUS
 10
-5.2841857259
 20
22.085492921
 11
-7.574834123
 21
23.2308171196
  0
LINE
  5
457
100
AcDbEntity
  8
ASSI
100
AcDbLine
 62
250
  6
CONTINUOUS
 10
1.3379328277
 20
18.9510151412
 11
-0.726568495
 21
19.9832658026
  0
LINE
  5
458
100
AcDbEntity
  8
ASSI
100
AcDbLine
 62
250
  6
CONTINUOUS
 10
-11.2485678774
 20
25.2442654938
 11
-13.3130692001
 21
26.2765161551
  0
LINE
  5
459
100
AcDbEntity
  8
ASSI
100
AcDbLine
 62
7
  6
CONTINUOUS
 10
-9.3109700578
 20
24.4751317116
 11
-7.6334127668
 21
23.6363530661
  0
LINE
  5
45A
100
AcDbEntity
  8
ASSI
100
AcDbLine
 62
7
  6
CONTINUOUS
 10
-4.7854866582
 20
22.2123900118
 11
-3.9211021656
 21
21.7801977655
  0
LINE
  5
45B
100
AcDbEntity
  8
ASSI
100
AcDbLine
 62
7
  6
CONTINUOUS
 10
-1.073176057
 20
20.3562347112
 11
-0.7461550858
 21
20.1927242256
  0
LINE
  5
45C
100
AcDbEntity
  8
ASSI
100
AcDbLine
 62
7
  6
CONTINUOUS
 10
3.3112493236
 20
18.164022021
 11
3.2755306473
 21
18.1818813591
  0
LINE
  5
45D
100
AcDbEntity
  8
ASSI
100
AcDbLine
 62
250
  6
CONTINUOUS
 10
1.5122307036
 20
19.2540310958
 11
-0.5534833378
 21
20.2868881165
  0
LINE
  5
45E
100
AcDbEntity
  8
ASSI
100
AcDbLine
 62
250
  6
CONTINUOUS
 10
-11.0742700015
 20
25.5472814484
 11
-13.1399840429
 21
26.5801384691
  0
LINE
  5
45F
100
AcDbEntity
  8
ASSI
100
AcDbLine
 62
7
  6
CONTINUOUS
 10
-9.3109700578
 20
25.1671219632
 11
-8.6428343427
 21
24.8330541056
  0
LINE
  5
460
100
AcDbEntity
  8
ASSI
100
AcDbLine
 62
7
  6
CONTINUOUS
 10
3.2755306473
 20
18.8738716106
 11
4.0057040207
 21
18.5087849239
  0
LINE
  5
461
100
AcDbEntity
  8
ASSI
100
AcDbLine
 62
7
  6
CONTINUOUS
 10
-3.9211021656
 20
22.4728910401
 11
-4.1034264279
 21
22.5640531712
  0
LINE
  5
462
100
AcDbEntity
  8
ASSI
100
AcDbLine
 62
7
  6
CONTINUOUS
 10
-3.9211021656
 20
22.5567159326
 11
-4.1052258535
 21
22.6487777766
  0
LINE
  5
463
100
AcDbEntity
  8
ASSI
100
AcDbLine
 62
250
  6
CONTINUOUS
 10
-7.5394841688
 20
24.4437095989
 11
-5.3195356802
 21
23.3337353547
  0
LINE
  5
464
100
AcDbEntity
  8
ASSI
100
AcDbLine
 62
250
  6
CONTINUOUS
 10
-1.607225079
 20
21.477580054
 11
-3.8271735675
 21
22.5875542983
  0
LINE
  5
465
100
AcDbEntity
  8
ASSI
100
AcDbLine
 62
250
  6
CONTINUOUS
 10
-7.4005309555
 20
24.6863649063
 11
-5.1805824669
 21
23.5763906621
  0
LINE
  5
466
100
AcDbEntity
  8
ASSI
100
AcDbLine
 62
250
  6
CONTINUOUS
 10
-1.4682718657
 20
21.7202353614
 11
-3.6882203543
 21
22.8302096057
  0
LINE
  5
467
100
AcDbEntity
  8
ASSI
100
AcDbLine
 62
7
  6
CONTINUOUS
 10
-7.1896766382
 20
24.8001256479
 11
-4.9622364296
 21
23.6864055436
  0
LINE
  5
468
100
AcDbEntity
  8
ASSI
100
AcDbLine
 62
7
  6
CONTINUOUS
 10
-3.477366037
 20
22.9439703473
 11
-1.2499258283
 21
21.830250243
  0
LINE
  5
469
100
AcDbEntity
  8
ASSI
100
AcDbLine
 62
7
  6
CONTINUOUS
 10
-11.5737332968
 20
27.4251666791
 11
-9.4523698749
 21
26.3644849681
  0
LINE
  5
46A
100
AcDbEntity
  8
ASSI
100
AcDbLine
 62
7
  6
CONTINUOUS
 10
1.0127674084
 20
21.1319163265
 11
3.1341308302
 21
20.0712346156
  0
LINE
  5
46B
100
AcDbEntity
  8
ASSI
100
AcDbLine
 62
7
  6
CONTINUOUS
 10
-0.8341341679
 20
22.2729651178
 11
-2.8009382048
 21
23.2563671362
  0
LINE
  5
46C
100
AcDbEntity
  8
ASSI
100
AcDbLine
 62
7
  6
CONTINUOUS
 10
-4.309017665
 20
24.0104068664
 11
-6.2758217019
 21
24.9938088848
  0
LINE
  5
46D
100
AcDbEntity
  8
ASSI
100
AcDbLine
 62
250
  6
CONTINUOUS
 10
3.6582352968
 20
20.3311942947
 11
1.5554954234
 21
21.3825661093
  0
LINE
  5
46E
100
AcDbEntity
  8
ASSI
100
AcDbLine
 62
250
  6
CONTINUOUS
 10
-8.9282654083
 20
26.6244446473
 11
-11.0310072341
 21
27.6758155601
  0
LWPOLYLINE
  5
46F
100
AcDbEntity
  8
ASSI
100
AcDbPolyline
 62
250
  6
CONTINUOUS
 90
28
 70
0
 10
-5.3195356802
 20
23.3337353547
 10
-5.3177818041
 20
23.332819483
 10
-5.3159960601
 20
23.3317599442
 10
-5.3141784483
 20
23.3305567384
 10
-5.3123175345
 20
23.3292091911
 10
-5.3104247529
 20
23.3277179768
 10
-5.3085344058
 20
23.3260851185
 10
-5.3066458085
 20
23.3243051742
 10
-5.3047596459
 20
23.3223835859
 10
-5.3029122743
 20
23.3203387025
 10
-5.3011047343
 20
23.3181659265
 10
-5.2993359854
 20
23.3158698553
 10
-5.2976392621
 20
23.3134826299
 10
-5.2960179018
 20
23.3110034278
 10
-5.294468567
 20
23.3084330714
 10
-5.2930144796
 20
23.3058061689
 10
-5.2916586077
 20
23.303124022
 10
-5.2903979832
 20
23.3003853289
 10
-5.2892469233
 20
23.2976207925
 10
-5.2882068622
 20
23.294830492
 10
-5.2872763659
 20
23.2920143481
 10
-5.2864654491
 20
23.2892028254
 10
-5.285775429
 20
23.286395929
 10
-5.2852049885
 20
23.2835936538
 10
-5.2847601915
 20
23.2808264486
 10
-5.2844430594
 20
23.2781044631
 10
-5.2842515709
 20
23.2754175477
 10
-5.2841857259
 20
23.2727657023
  0
LWPOLYLINE
  5
470
100
AcDbEntity
  8
ASSI
100
AcDbPolyline
 62
250
  6
CONTINUOUS
 90
28
 70
0
 10
-5.1805824669
 20
23.5763906621
 10
-5.1719833055
 20
23.5717067461
 10
-5.1631639732
 20
23.5663601687
 10
-5.1541491155
 20
23.5603219342
 10
-5.1449451949
 20
23.5535491658
 10
-5.1356067811
 20
23.5460326985
 10
-5.1262340972
 20
23.5378106856
 10
-5.1168636839
 20
23.5288790026
 10
-5.1075352845
 20
23.5192382538
 10
-5.0983512928
 20
23.5089624177
 10
-5.0893516205
 20
23.4980718084
 10
-5.0805752731
 20
23.4865885876
 10
-5.0721144002
 20
23.4746146058
 10
-5.0640107596
 20
23.4621996976
 10
-5.0562896595
 20
23.4493732468
 10
-5.0490072742
 20
23.4362220186
 10
-5.0421969104
 20
23.4228063345
 10
-5.0358765353
 20
23.4091620345
 10
-5.0300720058
 20
23.3953444473
 10
-5.024805063
 20
23.3814056223
 10
-5.0200938563
 20
23.3673941138
 10
-5.0159552779
 20
23.3533609085
 10
-5.0124042345
 20
23.3393564555
 10
-5.0094536308
 20
23.3254317639
 10
-5.0071140153
 20
23.3116384456
 10
-5.0053936399
 20
23.2980267275
 10
-5.0042985959
 20
23.2846452993
 10
-5.0038326956
 20
23.2715424004
  0
LWPOLYLINE
  5
471
100
AcDbEntity
  8
ASSI
100
AcDbPolyline
 62
250
  6
CONTINUOUS
 90
13
 70
0
 10
-8.9282654083
 20
26.6244446473
 10
-8.9095116727
 20
26.6138807883
 10
-8.8911209133
 20
26.6005145104
 10
-8.8734076795
 20
26.5845744279
 10
-8.856674932
 20
26.5663331759
 10
-8.841208862
 20
26.5461027484
 10
-8.8272739964
 20
26.5242291633
 10
-8.8151086715
 20
26.5010865412
 10
-8.8049209564
 20
26.4770707052
 10
-8.7968850957
 20
26.4525924124
 10
-8.7911385302
 20
26.4280703299
 10
-8.7877795456
 20
26.4039238747
 10
-8.7868655913
 20
26.380566038
  0
LWPOLYLINE
  5
472
100
AcDbEntity
  8
ASSI
100
AcDbPolyline
 62
250
  6
CONTINUOUS
 90
7
 70
0
 10
-3.8625235218
 20
22.5619346003
 10
-3.8795955843
 20
22.5716538113
 10
-3.8940156257
 20
22.5823935737
 10
-3.9055423599
 20
22.5939741822
 10
-3.9139829136
 20
22.6062018622
 10
-3.9191960536
 20
22.6188720116
 10
-3.9211021656
 20
22.6326452784
  0
LWPOLYLINE
  5
473
100
AcDbEntity
  8
ASSI
100
AcDbPolyline
 62
7
  6
CONTINUOUS
 90
13
 70
0
 10
3.1341308302
 20
20.0712346156
 10
3.1525820986
 20
20.0605221266
 10
3.1707244957
 20
20.0470337603
 10
3.1882434682
 20
20.0309978907
 10
3.2048346669
 20
20.0126860512
 10
3.2202131114
 20
19.9924109414
 10
3.2341182119
 20
19.9705212569
 10
3.2463145439
 20
19.9473926297
 10
3.2565910597
 20
19.923419478
 10
3.264768891
 20
19.8990110603
 10
3.2707092484
 20
19.8745855708
 10
3.2743155854
 20
19.8505629196
 10
3.2755306473
 20
19.8273560062
  0
LINE
  5
474
100
AcDbEntity
  8
0
100
AcDbLine
 62
250
  6
CONTINUOUS
 10
10.2589926941
 20
24.0669054633
 11
9.8650067603
 21
25.0890612813
  0
LINE
  5
475
100
AcDbEntity
  8
0
100
AcDbLine
 62
7
  6
CONTINUOUS
 10
11.4036970223
 20
22.5235391451
 11
11.2021976644
 21
23.1192635709
  0
LINE
  5
476
100
AcDbEntity
  8
RACCORDO
100
AcDbLine
 62
250
  6
CONTINUOUS
 10
19.9613963869
 20
16.2178416965
 11
19.9614859772
 21
16.2085379696
  0
LINE
  5
477
100
AcDbEntity
  8
0
100
AcDbLine
 62
250
  6
CONTINUOUS
 10
19.9613963869
 20
16.2178416965
 11
19.9614859772
 21
16.2085379696
  0
LWPOLYLINE
  5
478
100
AcDbEntity
  8
RACCORDO
100
AcDbPolyline
 62
7
  6
CONTINUOUS
 90
31
 70
0
 10
19.9614863509
 20
22.3759288533
 10
19.9612058526
 20
22.4099951093
 10
19.9600773819
 20
22.4524783649
 10
19.9580921059
 20
22.4950255878
 10
19.9552563483
 20
22.5376420088
 10
19.9515775798
 20
22.5803071376
 10
19.9470667269
 20
22.6229714401
 10
19.9417317448
 20
22.6656288073
 10
19.9355798749
 20
22.7082714844
 10
19.9286256525
 20
22.7508453509
 10
19.9208776732
 20
22.7933438293
 10
19.9123434557
 20
22.8357603313
 10
19.9030413489
 20
22.8780391329
 10
19.8929808734
 20
22.9201714653
 10
19.8821696994
 20
22.9621530646
 10
19.8706280311
 20
23.0039335781
 10
19.8583679125
 20
23.0454967608
 10
19.8453953365
 20
23.0868461146
 10
19.8317234009
 20
23.1279596232
 10
19.8173612011
 20
23.1688275734
 10
19.8023152759
 20
23.2094463989
 10
19.7865951196
 20
23.2498019846
 10
19.7702075154
 20
23.2898872132
 10
19.7531583043
 20
23.3296951357
 10
19.735456267
 20
23.3692110091
 10
19.7171072526
 20
23.4084264783
 10
19.698115601
 20
23.4473343318
 10
19.6784880891
 20
23.4859218952
 10
19.6582290676
 20
23.5241800894
 10
19.6373417722
 20
23.5621011821
 10
19.6195189108
 20
23.5933333203
  0
LWPOLYLINE
  5
479
100
AcDbEntity
  8
0
100
AcDbPolyline
 62
7
  6
CONTINUOUS
 90
31
 70
0
 10
19.9614863509
 20
22.3759288533
 10
19.9612058526
 20
22.4099951093
 10
19.9600773819
 20
22.4524783649
 10
19.9580921059
 20
22.4950255878
 10
19.9552563483
 20
22.5376420088
 10
19.9515775798
 20
22.5803071376
 10
19.9470667269
 20
22.6229714401
 10
19.9417317448
 20
22.6656288073
 10
19.9355798749
 20
22.7082714844
 10
19.9286256525
 20
22.7508453509
 10
19.9208776732
 20
22.7933438293
 10
19.9123434557
 20
22.8357603313
 10
19.9030413489
 20
22.8780391329
 10
19.8929808734
 20
22.9201714653
 10
19.8821696994
 20
22.9621530646
 10
19.8706280311
 20
23.0039335781
 10
19.8583679125
 20
23.0454967608
 10
19.8453953365
 20
23.0868461146
 10
19.8317234009
 20
23.1279596232
 10
19.8173612011
 20
23.1688275734
 10
19.8023152759
 20
23.2094463989
 10
19.7865951196
 20
23.2498019846
 10
19.7702075154
 20
23.2898872132
 10
19.7531583043
 20
23.3296951357
 10
19.735456267
 20
23.3692110091
 10
19.7171072526
 20
23.4084264783
 10
19.698115601
 20
23.4473343318
 10
19.6784880891
 20
23.4859218952
 10
19.6582290676
 20
23.5241800894
 10
19.6373417722
 20
23.5621011821
 10
19.6195189108
 20
23.5933333203
  0
LINE
  5
47A
100
AcDbEntity
  8
0
100
AcDbLine
 62
250
  6
CONTINUOUS
 10
19.9614859772
 20
16.2085379696
 11
19.9614863602
 21
16.2079080419
  0
LINE
  5
47B
100
AcDbEntity
  8
RACCORDO
100
AcDbLine
 62
7
  6
CONTINUOUS
 10
19.9614863606
 20
-7.9691496979
 11
19.9614859772
 21
16.2085379696
  0
LINE
  5
47C
100
AcDbEntity
  8
0
100
AcDbLine
 62
7
  6
CONTINUOUS
 10
19.9614863606
 20
-7.9691496979
 11
19.9614863606
 21
16.2078578948
  0
LINE
  5
47D
100
AcDbEntity
  8
0
100
AcDbLine
 62
7
  6
CONTINUOUS
 10
19.9614863606
 20
19.1567386941
 11
19.9614863606
 21
22.3759305479
  0
LINE
  5
47E
100
AcDbEntity
  8
RACCORDO
100
AcDbLine
 62
7
  6
CONTINUOUS
 10
19.9614863606
 20
22.3759305479
 11
19.9614859632
 21
19.1551557093
  0
LWPOLYLINE
  5
47F
100
AcDbEntity
  8
RACCORDO
100
AcDbPolyline
 62
250
  6
CONTINUOUS
 90
57
 70
0
 10
19.9614859632
 20
19.1551557093
 10
19.9613877069
 20
19.1322400055
 10
19.9606660269
 20
19.0862422031
 10
19.9593242241
 20
19.0424599015
 10
19.9574365989
 20
19.0005477067
 10
19.9550612155
 20
18.9603542851
 10
19.9522625505
 20
18.9219303455
 10
19.9490980572
 20
18.8852304644
 10
19.9455884347
 20
18.8499586004
 10
19.9417697694
 20
18.8160669687
 10
19.9376883204
 20
18.7836049271
 10
19.933358589
 20
18.7524226691
 10
19.9288090735
 20
18.7224995064
 10
19.9240746983
 20
18.6938553811
 10
19.9191687206
 20
18.6664017869
 10
19.9141170973
 20
18.6401396564
 10
19.9089458632
 20
18.6150656787
 10
19.9036613832
 20
18.5910853308
 10
19.8982867405
 20
18.5682060112
 10
19.8928411349
 20
18.5464170912
 10
19.8873185106
 20
18.5255976524
 10
19.8817367172
 20
18.5057492127
 10
19.8761105606
 20
18.4868670267
 10
19.8704226172
 20
18.4688217799
 10
19.8646800968
 20
18.4515955439
 10
19.8588993767
 20
18.4352036785
 10
19.8530715969
 20
18.4195677013
 10
19.8471975015
 20
18.4046666618
 10
19.8412948439
 20
18.3905192369
 10
19.835378707
 20
18.3771065524
 10
19.8294572232
 20
18.3644311061
 10
19.8235404397
 20
18.3524874143
 10
19.8176469035
 20
18.3412442673
 10
19.8117892232
 20
18.330711008
 10
19.8059726277
 20
18.3208746333
 10
19.800204693
 20
18.3116702039
 10
19.7945112396
 20
18.3031182303
 10
19.7888828744
 20
18.2951942633
 10
19.7832714293
 20
18.2877667354
 10
19.7776779511
 20
18.2808193715
 10
19.7721109858
 20
18.2743662797
 10
19.766529144
 20
18.2683229149
 10
19.760922894
 20
18.2626711442
 10
19.7553070098
 20
18.2574282114
 10
19.7496743141
 20
18.2525633986
 10
19.7440252037
 20
18.2480743524
 10
19.7383638275
 20
18.2439626291
 10
19.7326880791
 20
18.2402035499
 10
19.7270018865
 20
18.2367973519
 10
19.7213054544
 20
18.2337430144
 10
19.7155905862
 20
18.2310141467
 10
19.7098610992
 20
18.228609845
 10
19.7041165189
 20
18.2265304349
 10
19.6983413766
 20
18.2247517073
 10
19.6925310432
 20
18.223265633
 10
19.686692271
 20
18.2220801212
 10
19.6808261609
 20
18.2211950781
  0
LWPOLYLINE
  5
480
100
AcDbEntity
  8
0
100
AcDbPolyline
 62
250
  6
CONTINUOUS
 90
57
 70
0
 10
19.961486359
 20
19.1568048573
 10
19.9613877069
 20
19.1322400055
 10
19.9606660269
 20
19.0862422031
 10
19.9593242241
 20
19.0424599015
 10
19.9574365989
 20
19.0005477067
 10
19.9550612155
 20
18.9603542851
 10
19.9522625505
 20
18.9219303455
 10
19.9490980572
 20
18.8852304644
 10
19.9455884347
 20
18.8499586004
 10
19.9417697694
 20
18.8160669687
 10
19.9376883204
 20
18.7836049271
 10
19.933358589
 20
18.7524226691
 10
19.9288090735
 20
18.7224995064
 10
19.9240746983
 20
18.6938553811
 10
19.9191687206
 20
18.6664017869
 10
19.9141170973
 20
18.6401396564
 10
19.9089458632
 20
18.6150656787
 10
19.9036613832
 20
18.5910853308
 10
19.8982867405
 20
18.5682060112
 10
19.8928411349
 20
18.5464170912
 10
19.8873185106
 20
18.5255976524
 10
19.8817367172
 20
18.5057492127
 10
19.8761105606
 20
18.4868670267
 10
19.8704226172
 20
18.4688217799
 10
19.8646800968
 20
18.4515955439
 10
19.8588993767
 20
18.4352036785
 10
19.8530715969
 20
18.4195677013
 10
19.8471975015
 20
18.4046666618
 10
19.8412948439
 20
18.3905192369
 10
19.835378707
 20
18.3771065524
 10
19.8294572232
 20
18.3644311061
 10
19.8235404397
 20
18.3524874143
 10
19.8176469035
 20
18.3412442673
 10
19.8117892232
 20
18.330711008
 10
19.8059726277
 20
18.3208746333
 10
19.800204693
 20
18.3116702039
 10
19.7945112396
 20
18.3031182303
 10
19.7888828744
 20
18.2951942633
 10
19.7832714293
 20
18.2877667354
 10
19.7776779511
 20
18.2808193715
 10
19.7721109858
 20
18.2743662797
 10
19.766529144
 20
18.2683229149
 10
19.760922894
 20
18.2626711442
 10
19.7553070098
 20
18.2574282114
 10
19.7496743141
 20
18.2525633986
 10
19.7440252037
 20
18.2480743524
 10
19.7383638275
 20
18.2439626291
 10
19.7326880791
 20
18.2402035499
 10
19.7270018865
 20
18.2367973519
 10
19.7213054544
 20
18.2337430144
 10
19.7155905862
 20
18.2310141467
 10
19.7098610992
 20
18.228609845
 10
19.7041165189
 20
18.2265304349
 10
19.6983413766
 20
18.2247517073
 10
19.6925310432
 20
18.223265633
 10
19.686692271
 20
18.2220801212
 10
19.6808261609
 20
18.2211950781
  0
LINE
  5
481
100
AcDbEntity
  8
DRAFT
100
AcDbLine
 62
250
  6
CONTINUOUS
 10
19.9614509091
 20
-7.9730756958
 11
19.9614863606
 21
-7.9691508185
  0
LINE
  5
482
100
AcDbEntity
  8
0
100
AcDbLine
 62
250
  6
CONTINUOUS
 10
19.9614509091
 20
-7.9730756958
 11
19.9614863606
 21
-7.9691508185
  0
LWPOLYLINE
  5
483
100
AcDbEntity
  8
RACCORDO
100
AcDbPolyline
 62
250
  6
CONTINUOUS
 90
34
 70
0
 10
19.3302319744
 20
-9.2827160097
 10
19.3504065556
 20
-9.2640363778
 10
19.3700594882
 20
-9.2445724517
 10
19.3891816074
 20
-9.2243333478
 10
19.4077638362
 20
-9.2033286451
 10
19.425797233
 20
-9.1815684133
 10
19.4432732223
 20
-9.1590630428
 10
19.460183448
 20
-9.1358232905
 10
19.4765198595
 20
-9.1118602019
 10
19.4922747501
 20
-9.087185127
 10
19.507440614
 20
-9.0618098118
 10
19.5220102108
 20
-9.0357463437
 10
19.5359766525
 20
-9.0090070769
 10
19.5493333001
 20
-8.981604713
 10
19.5620737704
 20
-8.9535523154
 10
19.5741919981
 20
-8.924863251
 10
19.5856822249
 20
-8.8955511661
 10
19.5965389764
 20
-8.8656300109
 10
19.606757069
 20
-8.8351140547
 10
19.6163316526
 20
-8.8040178318
 10
19.6252581826
 20
-8.7723561169
 10
19.6335323962
 20
-8.7401439506
 10
19.6411503809
 20
-8.7073966462
 10
19.6481085223
 20
-8.6741297777
 10
19.6544034731
 20
-8.6403591524
 10
19.6600322775
 20
-8.6061007652
 10
19.6649922628
 20
-8.5713709549
 10
19.6692809897
 20
-8.536186392
 10
19.6728964527
 20
-8.5005639017
 10
19.6758369777
 20
-8.4645203181
 10
19.6781011028
 20
-8.4280726335
 10
19.6796877487
 20
-8.3912381159
 10
19.6805962321
 20
-8.3540343083
 10
19.6808261609
 20
-8.3164788832
  0
LWPOLYLINE
  5
484
100
AcDbEntity
  8
0
100
AcDbPolyline
 62
250
  6
CONTINUOUS
 90
34
 70
0
 10
19.3302319744
 20
-9.2827160097
 10
19.3504065556
 20
-9.2640363778
 10
19.3700594882
 20
-9.2445724517
 10
19.3891816074
 20
-9.2243333478
 10
19.4077638362
 20
-9.2033286451
 10
19.425797233
 20
-9.1815684133
 10
19.4432732223
 20
-9.1590630428
 10
19.460183448
 20
-9.1358232905
 10
19.4765198595
 20
-9.1118602019
 10
19.4922747501
 20
-9.087185127
 10
19.507440614
 20
-9.0618098118
 10
19.5220102108
 20
-9.0357463437
 10
19.5359766525
 20
-9.0090070769
 10
19.5493333001
 20
-8.981604713
 10
19.5620737704
 20
-8.9535523154
 10
19.5741919981
 20
-8.924863251
 10
19.5856822249
 20
-8.8955511661
 10
19.5965389764
 20
-8.8656300109
 10
19.606757069
 20
-8.8351140547
 10
19.6163316526
 20
-8.8040178318
 10
19.6252581826
 20
-8.7723561169
 10
19.6335323962
 20
-8.7401439506
 10
19.6411503809
 20
-8.7073966462
 10
19.6481085223
 20
-8.6741297777
 10
19.6544034731
 20
-8.6403591524
 10
19.6600322775
 20
-8.6061007652
 10
19.6649922628
 20
-8.5713709549
 10
19.6692809897
 20
-8.536186392
 10
19.6728964527
 20
-8.5005639017
 10
19.6758369777
 20
-8.4645203181
 10
19.6781011028
 20
-8.4280726335
 10
19.6796877487
 20
-8.3912381159
 10
19.6805962321
 20
-8.3540343083
 10
19.6808261609
 20
-8.3164788832
  0
LWPOLYLINE
  5
485
100
AcDbEntity
  8
ASSI
100
AcDbPolyline
 62
7
  6
CONTINUOUS
 90
10
 70
0
 10
3.7623016364
 20
-22.0786548684
 10
3.7845412755
 20
-22.0632934879
 10
3.8053872353
 20
-22.0452897331
 10
3.8245257716
 20
-22.0248463821
 10
3.8412483406
 20
-22.0028372543
 10
3.8558568443
 20
-21.9789976656
 10
3.8682844745
 20
-21.9532389839
 10
3.8778920165
 20
-21.9268393952
 10
3.8846837231
 20
-21.9001201554
 10
3.8887730947
 20
-21.8723413299
  0
LWPOLYLINE
  5
486
100
AcDbEntity
  8
ASSI
100
AcDbPolyline
 62
7
  6
CONTINUOUS
 90
5
 70
0
 10
3.2256342727
 20
-22.3686175139
 10
3.2341182119
 20
-22.3632841929
 10
3.2463122241
 20
-22.3523507378
 10
3.2565867588
 20
-22.3386531113
 10
3.264768891
 20
-22.3224246753
  0
LWPOLYLINE
  5
487
100
AcDbEntity
  8
ASSI
100
AcDbPolyline
 62
250
  6
CONTINUOUS
 90
7
 70
0
 10
3.8337670578
 20
-21.5778543927
 10
3.8504973028
 20
-21.5679876468
 10
3.8645402927
 20
-21.5571236515
 10
3.8756610531
 20
-21.545444192
 10
3.8836735066
 20
-21.5331446982
 10
3.8884435868
 20
-21.5204309744
 10
3.8898990978
 20
-21.5083884859
  0
LWPOLYLINE
  5
488
100
AcDbEntity
  8
ASSI
100
AcDbPolyline
 62
250
  6
CONTINUOUS
 90
7
 70
0
 10
3.8337670578
 20
-21.9177979876
 10
3.850497273
 20
-21.9079312825
 10
3.8645402487
 20
-21.8970673236
 10
3.8756610083
 20
-21.8853878943
 10
3.8836734716
 20
-21.8730884226
 10
3.8884435685
 20
-21.860374712
 10
3.8898990978
 20
-21.8483321505
  0
LWPOLYLINE
  5
489
100
AcDbEntity
  8
ASSI
100
AcDbPolyline
 62
250
  6
CONTINUOUS
 90
8
 70
0
 10
1.5985545924
 20
-23.1202161358
 10
1.6111785023
 20
-23.1128115176
 10
1.6234035185
 20
-23.101864066
 10
1.6337692858
 20
-23.0881249713
 10
1.6420985139
 20
-23.0718292228
 10
1.6482487443
 20
-23.0532555383
 10
1.6521147872
 20
-23.0327215968
 10
1.6536305207
 20
-23.010578604
  0
LINE
  5
48A
100
AcDbEntity
  8
ASSI
100
AcDbLine
 62
7
  6
CONTINUOUS
 10
3.7506322378
 20
-22.0853687545
 11
3.7623016364
 21
-22.0786548684
  0
LWPOLYLINE
  5
48B
100
AcDbEntity
  8
ASSI
100
AcDbPolyline
 62
250
  6
CONTINUOUS
 90
28
 70
0
 10
3.7996351139
 20
-21.9787649941
 10
3.8014315327
 20
-21.9777489138
 10
3.8032455986
 20
-21.9765913496
 10
3.8050773115
 20
-21.9752923015
 10
3.8069375591
 20
-21.973848942
 10
3.8088154537
 20
-21.9722640985
 10
3.8106783327
 20
-21.9705462535
 10
3.8125262817
 20
-21.9686904683
 10
3.8143592152
 20
-21.9667016816
 10
3.816144213
 20
-21.9646031915
 10
3.8178794239
 20
-21.9623919219
 10
3.8195666992
 20
-21.9600709489
 10
3.8211786733
 20
-21.957672799
 10
3.8227120355
 20
-21.9551980225
 10
3.8241700964
 20
-21.952646069
 10
3.8255354233
 20
-21.9500478141
 10
3.8268058057
 20
-21.9474046678
 10
3.8279834539
 20
-21.94471522
 10
3.8290575661
 20
-21.9420061166
 10
3.8300272595
 20
-21.9392771481
 10
3.8308934167
 20
-21.936528524
 10
3.8316478845
 20
-21.9337875188
 10
3.8322896432
 20
-21.931054263
 10
3.8328197124
 20
-21.9283286261
 10
3.8332329979
 20
-21.9256374918
 10
3.8335278016
 20
-21.9229898212
 10
3.8337058216
 20
-21.9203766531
 10
3.8337670578
 20
-21.9177979876
  0
LINE
  5
48C
100
AcDbEntity
  8
ASSI
100
AcDbLine
 62
7
  6
CONTINUOUS
 10
3.538699289
 20
-20.645818858
 11
4.2345411346
 21
-20.2703962185
  0
LINE
  5
48D
100
AcDbEntity
  8
ASSI
100
AcDbLine
 62
250
  6
CONTINUOUS
 10
3.2755306473
 20
-22.2615313776
 11
3.7996351139
 21
-21.9787649941
  0
LINE
  5
48E
100
AcDbEntity
  8
ASSI
100
AcDbLine
 62
7
  6
CONTINUOUS
 10
3.2256777071
 20
-22.3685941236
 11
3.750731918
 21
-22.0853153312
  0
LINE
  5
48F
100
AcDbEntity
  8
ASSI
100
AcDbLine
 62
7
  6
CONTINUOUS
 10
3.2214678361
 20
-22.3707010183
 11
3.2256342727
 21
-22.3686175139
  0
LINE
  5
490
100
AcDbEntity
  8
ASSI
100
AcDbLine
 62
7
  6
CONTINUOUS
 10
3.538664187
 20
-20.6458377696
 11
3.5209233702
 21
-20.6542564917
  0
LINE
  5
491
100
AcDbEntity
  8
ASSI
100
AcDbLine
 62
250
  6
CONTINUOUS
 10
3.2755306473
 20
-22.2615313776
 11
1.6536305207
 21
-23.010578604
  0
LINE
  5
492
100
AcDbEntity
  8
ASSI
100
AcDbLine
 62
7
  6
CONTINUOUS
 10
1.5983222938
 20
-23.1203229356
 11
3.2214120304
 21
-22.3707267913
  0
LWPOLYLINE
  5
493
100
AcDbEntity
  8
ASSI
100
AcDbPolyline
 62
250
  6
CONTINUOUS
 90
28
 70
0
 10
1.6536305207
 20
-23.010578604
 10
1.6518663293
 20
-23.0113551329
 10
1.650071961
 20
-23.0120207766
 10
1.6482474158
 20
-23.0125755353
 10
1.6463813825
 20
-23.0130295681
 10
1.6444851723
 20
-23.0133727158
 10
1.6425927191
 20
-23.0135745008
 10
1.6407034031
 20
-23.0136303361
 10
1.638817844
 20
-23.0135448086
 10
1.636971835
 20
-23.013301202
 10
1.6351664166
 20
-23.0128941269
 10
1.6334005482
 20
-23.0123289727
 10
1.6317069016
 20
-23.0116051909
 10
1.6300887287
 20
-23.0107188396
 10
1.6285427776
 20
-23.0096738606
 10
1.6270919634
 20
-23.0084815319
 10
1.6257391786
 20
-23.0071402558
 10
1.6244815308
 20
-23.0056516298
 10
1.6233332583
 20
-23.0040317249
 10
1.6222957915
 20
-23.0022792132
 10
1.6213677
 20
-23.0003954226
 10
1.6205589316
 20
-22.9984004073
 10
1.6198708077
 20
-22.9962928819
 10
1.619302007
 20
-22.9940741319
 10
1.6188585133
 20
-22.9917680677
 10
1.6185423212
 20
-22.9893826595
 10
1.6183514361
 20
-22.9869099372
 10
1.618285858
 20
-22.9843499008
  0
LINE
  5
494
100
AcDbEntity
  8
ASSI
100
AcDbLine
 62
250
  6
CONTINUOUS
 10
2.5760048411
 20
-20.8258613913
 11
3.664439377
 21
-20.3774981898
  0
LINE
  5
495
100
AcDbEntity
  8
ASSI
100
AcDbLine
 62
7
  6
CONTINUOUS
 10
2.4336266189
 20
-21.1021508522
 11
3.520875625
 21
-20.6542760107
  0
LINE
  5
496
100
AcDbEntity
  8
RACCORDO
100
AcDbLine
 62
250
  6
CONTINUOUS
 10
0.2156955219
 20
-21.8263897059
 11
-3.1397338404
 21
-23.1030992352
  0
LINE
  5
497
100
AcDbEntity
  8
RACCORDO
100
AcDbLine
 62
7
  6
CONTINUOUS
 10
-3.30630865
 20
-23.3897445443
 11
0.0530410923
 21
-22.1115434619
  0
LWPOLYLINE
  5
498
100
AcDbEntity
  8
RACCORDO
100
AcDbPolyline
 62
250
  6
CONTINUOUS
 90
22
 70
0
 10
-3.1397338404
 20
-23.1030992352
 10
-3.1761373454
 20
-23.1153628259
 10
-3.211843907
 20
-23.1243186536
 10
-3.2468535253
 20
-23.1299667184
 10
-3.2813552712
 20
-23.1323083442
 10
-3.3151600739
 20
-23.1313422071
 10
-3.34770072
 20
-23.1270643349
 10
-3.378941218
 20
-23.1194172755
 10
-3.4089175595
 20
-23.1084584809
 10
-3.4371705062
 20
-23.0943563356
 10
-3.4636734155
 20
-23.0770607215
 10
-3.48845293
 20
-23.0566217566
 10
-3.5111297394
 20
-23.0333581785
 10
-3.5316693282
 20
-23.007227599
 10
-3.550106212
 20
-22.9782724064
 10
-3.566164627
 20
-22.946938503
 10
-3.5798084728
 20
-22.9131703814
 10
-3.5910738499
 20
-22.8770235491
 10
-3.599793296
 20
-22.839110431
 10
-3.6059109903
 20
-22.7996351689
 10
-3.6094827536
 20
-22.758393621
 10
-3.6105085859
 20
-22.7153857873
  0
LWPOLYLINE
  5
499
100
AcDbEntity
  8
ASSI
100
AcDbPolyline
 62
7
  6
CONTINUOUS
 90
4
 70
0
 10
0.9586547704
 20
21.1457922396
 10
0.9761651909
 20
21.1443134127
 10
0.9943046949
 20
21.1396608285
 10
1.0127674084
 20
21.1319163265
  0
LINE
  5
49A
100
AcDbEntity
  8
ASSI
100
AcDbLine
 62
7
  6
CONTINUOUS
 10
-11.2908690451
 20
24.4044210335
 11
-11.8335951078
 21
24.5195503511
  0
LINE
  5
49B
100
AcDbEntity
  8
ASSI
100
AcDbLine
 62
250
  6
CONTINUOUS
 10
-10.2134208085
 20
24.7406577668
 11
-10.9502286127
 21
24.8969579438
  0
LINE
  5
49C
100
AcDbEntity
  8
ASSI
100
AcDbLine
 62
7
  6
CONTINUOUS
 10
-11.1307456507
 20
24.7732630593
 11
-10.4898467526
 21
24.637308156
  0
LWPOLYLINE
  5
49D
100
AcDbEntity
  8
ASSI
100
AcDbPolyline
 62
250
  6
CONTINUOUS
 90
19
 70
0
 10
-10.9502286127
 20
24.8969579438
 10
-10.9517696498
 20
24.8973301355
 10
-10.9532855439
 20
24.8978473347
 10
-10.9547762951
 20
24.8985095415
 10
-10.9562541334
 20
24.8993128826
 10
-10.9577068288
 20
24.9002612312
 10
-10.959097691
 20
24.9013662078
 10
-10.9604255631
 20
24.9026331655
 10
-10.9616916021
 20
24.9040567512
 10
-10.9628625881
 20
24.9056325261
 10
-10.9639358977
 20
24.9073659619
 10
-10.9649141543
 20
24.9092515868
 10
-10.9657720083
 20
24.9112685463
 10
-10.9665056442
 20
24.91342149
 10
-10.9671188776
 20
24.9157057682
 10
-10.9675978048
 20
24.9180865778
 10
-10.9679377916
 20
24.9205523176
 10
-10.9681434724
 20
24.9231145889
 10
-10.9682148471
 20
24.9257733915
  0
LWPOLYLINE
  5
49E
100
AcDbEntity
  8
ASSI
100
AcDbPolyline
 62
7
  6
CONTINUOUS
 90
10
 70
0
 10
1.6529331713
 20
21.3933740517
 10
1.6318908746
 20
21.4011504224
 10
1.6100159523
 20
21.4067731918
 10
1.5875354925
 20
21.4101479178
 10
1.5646044802
 20
21.4112060671
 10
1.5414648434
 20
21.4098886644
 10
1.5184380629
 20
21.4061835104
 10
1.4957441264
 20
21.4001103698
 10
1.4735863368
 20
21.3917095598
 10
1.4694099412
 20
21.3898343791
  0
LWPOLYLINE
  5
49F
100
AcDbEntity
  8
ASSI
100
AcDbPolyline
 62
7
  6
CONTINUOUS
 90
6
 70
0
 10
-11.5737332968
 20
27.4251666791
 10
-11.5921845651
 20
27.4329169036
 10
-11.6103269622
 20
27.4375680412
 10
-11.6278459347
 20
27.4390425922
 10
-11.6444371334
 20
27.4373176503
 10
-11.6610723367
 20
27.4318565105
  0
LWPOLYLINE
  5
4A0
100
AcDbEntity
  8
ASSI
100
AcDbPolyline
 62
250
  6
CONTINUOUS
 90
6
 70
0
 10
1.5554934711
 20
21.3825652076
 10
1.5373415388
 20
21.3904541859
 10
1.5194578566
 20
21.3952251386
 10
1.5021483008
 20
21.3967964649
 10
1.4857089279
 20
21.3951412894
 10
1.4694099199
 20
21.3898344256
  0
LINE
  5
4A1
100
AcDbEntity
  8
ASSI
100
AcDbLine
 62
7
  6
CONTINUOUS
 10
-10.9216334703
 20
27.6810774367
 11
-10.9359156775
 21
27.68761479
  0
LINE
  5
4A2
100
AcDbEntity
  8
ASSI
100
AcDbLine
 62
7
  6
CONTINUOUS
 10
1.6648557487
 20
21.3878327246
 11
1.6529331713
 21
21.3933740517
  0
LWPOLYLINE
  5
4A3
100
AcDbEntity
  8
ASSI
100
AcDbPolyline
 62
250
  6
CONTINUOUS
 90
13
 70
0
 10
3.7665680341
 20
20.3369778683
 10
3.7633734705
 20
20.338499697
 10
3.7550381749
 20
20.3418060042
 10
3.7463647168
 20
20.3443245564
 10
3.7373831455
 20
20.3460481909
 10
3.728125388
 20
20.3469722808
 10
3.7186202806
 20
20.3470951807
 10
3.7089007704
 20
20.3464171322
 10
3.699000363
 20
20.3449411118
 10
3.6889493235
 20
20.3426720551
 10
3.6787808394
 20
20.3396171954
 10
3.6685310973
 20
20.3357869659
 10
3.6582352968
 20
20.3311942947
  0
LWPOLYLINE
  5
4A4
100
AcDbEntity
  8
RACCORDO
100
AcDbPolyline
 62
7
  6
CONTINUOUS
 90
3
 70
0
 10
-0.3842598855
 20
24.6249832916
 10
-0.3865545678
 20
24.6260765205
 10
-0.3893905659
 20
24.6272837439
  0
LWPOLYLINE
  5
4A5
100
AcDbEntity
  8
0
100
AcDbPolyline
 62
7
  6
CONTINUOUS
 90
3
 70
0
 10
-0.3842598855
 20
24.6249832916
 10
-0.3865545678
 20
24.6260765205
 10
-0.3893905659
 20
24.6272837439
  0
LWPOLYLINE
  5
4A6
100
AcDbEntity
  8
ASSI
100
AcDbPolyline
 62
250
  6
CONTINUOUS
 90
13
 70
0
 10
1.6645957036
 20
21.3879640337
 10
1.6633248098
 20
21.3885876964
 10
1.6548488278
 20
21.3921721304
 10
1.6460055627
 20
21.394942181
 10
1.6368284131
 20
21.3968874644
 10
1.6273482144
 20
21.3980015251
 10
1.617599712
 20
21.3982800513
 10
1.6076172411
 20
21.397722017
 10
1.5974367956
 20
21.3963294033
 10
1.5870970183
 20
21.3941075315
 10
1.576635639
 20
21.3910649981
 10
1.5660892279
 20
21.3872131122
 10
1.5554953966
 20
21.3825661227
  0
LINE
  5
4A7
100
AcDbEntity
  8
RACCORDO
100
AcDbLine
 62
7
  6
CONTINUOUS
 10
1.0344640469
 20
23.2288235053
 11
-1.6035061429
 21
24.5478086002
  0
LINE
  5
4A8
100
AcDbEntity
  8
0
100
AcDbLine
 62
7
  6
CONTINUOUS
 10
1.0344640469
 20
23.2288235053
 11
-1.6035061429
 21
24.5478086002
  0
LINE
  5
4A9
100
AcDbEntity
  8
RACCORDO
100
AcDbLine
 62
250
  6
CONTINUOUS
 10
2.9598598119
 20
22.9025217259
 11
2.9392680919
 21
22.9128175859
  0
LINE
  5
4AA
100
AcDbEntity
  8
0
100
AcDbLine
 62
250
  6
CONTINUOUS
 10
2.9598598119
 20
22.9025217259
 11
2.9392680919
 21
22.9128175859
  0
LINE
  5
4AB
100
AcDbEntity
  8
RACCORDO
100
AcDbLine
 62
250
  6
CONTINUOUS
 10
1.684464989
 20
23.5402191374
 11
-0.4685009926
 21
24.6167021281
  0
LINE
  5
4AC
100
AcDbEntity
  8
0
100
AcDbLine
 62
250
  6
CONTINUOUS
 10
1.684464989
 20
23.5402191374
 11
-0.4685009926
 21
24.6167021281
  0
LINE
  5
4AD
100
AcDbEntity
  8
RACCORDO
100
AcDbLine
 62
7
  6
CONTINUOUS
 10
3.0113390138
 20
22.9271838419
 11
2.9395760308
 21
22.9630653334
  0
LINE
  5
4AE
100
AcDbEntity
  8
0
100
AcDbLine
 62
7
  6
CONTINUOUS
 10
3.0113390138
 20
22.9271838419
 11
2.9395760308
 21
22.9630653334
  0
LINE
  5
4AF
100
AcDbEntity
  8
RACCORDO
100
AcDbLine
 62
7
  6
CONTINUOUS
 10
1.7359441909
 20
23.5648812534
 11
-0.38425212
 21
24.6249794088
  0
LINE
  5
4B0
100
AcDbEntity
  8
0
100
AcDbLine
 62
7
  6
CONTINUOUS
 10
1.7359441909
 20
23.5648812534
 11
-0.38425212
 21
24.6249794088
  0
LINE
  5
4B1
100
AcDbEntity
  8
ASSI
100
AcDbLine
 62
7
  6
CONTINUOUS
 10
-10.9219097566
 20
27.6812167639
 11
-8.8198505342
 21
26.6301871091
  0
LINE
  5
4B2
100
AcDbEntity
  8
ASSI
100
AcDbLine
 62
7
  6
CONTINUOUS
 10
3.7666796571
 20
20.336921973
 11
1.6645900487
 21
21.3879668612
  0
LWPOLYLINE
  5
4B3
100
AcDbEntity
  8
ASSI
100
AcDbPolyline
 62
250
  6
CONTINUOUS
 90
13
 70
0
 10
-2.9607414714
 20
26.5789970343
 10
-2.938087432
 20
26.5658437626
 10
-2.9158589123
 20
26.5493011942
 10
-2.8944236742
 20
26.5296428754
 10
-2.8741363986
 20
26.5071939416
 10
-2.8553327545
 20
26.4823256767
 10
-2.8383238595
 20
26.4554493514
 10
-2.8233911872
 20
26.4270094823
 10
-2.8107819642
 20
26.3974766367
 10
-2.8007049866
 20
26.3673395814
 10
-2.7933270937
 20
26.3370970246
 10
-2.7887704421
 20
26.3072493512
 10
-2.7871105285
 20
26.278290487
  0
LINE
  5
4B4
100
AcDbEntity
  8
DRAFT
100
AcDbLine
 62
7
  6
CONTINUOUS
 10
11.1895891979
 20
20.2947705666
 11
10.4368951139
 21
21.5929758276
  0
LINE
  5
4B5
100
AcDbEntity
  8
0
100
AcDbLine
 62
7
  6
CONTINUOUS
 10
11.1895891979
 20
20.2947705666
 11
10.4368951139
 21
21.5929758276
  0
LWPOLYLINE
  5
4B6
100
AcDbEntity
  8
ASSI
100
AcDbPolyline
 62
7
  6
CONTINUOUS
 90
3
 70
0
 10
5.963263829
 20
24.5655017608
 10
5.9057398389
 20
24.5508925526
 10
5.847911664
 20
24.5308219265
  0
LWPOLYLINE
  5
4B7
100
AcDbEntity
  8
RACCORDO
100
AcDbPolyline
 62
250
  6
CONTINUOUS
 90
19
 70
0
 10
4.5140480351
 20
24.6622633934
 10
4.528971979
 20
24.665602706
 10
4.5476464835
 20
24.6691220168
 10
4.5661846159
 20
24.6719520931
 10
4.5845726097
 20
24.6740908332
 10
4.6027968099
 20
24.675536649
 10
4.620843683
 20
24.6762884667
 10
4.6386998274
 20
24.6763457281
 10
4.656351983
 20
24.6757083907
 10
4.6737870411
 20
24.6743769277
 10
4.6909920545
 20
24.6723523278
 10
4.7079542466
 20
24.6696360947
 10
4.7246610212
 20
24.6662302452
 10
4.7410999717
 20
24.6621373087
 10
4.7572588905
 20
24.6573603247
 10
4.7731257778
 20
24.6519028404
 10
4.7886888509
 20
24.6457689087
 10
4.8039365525
 20
24.6389630846
 10
4.8112200428
 20
24.6354191361
  0
LWPOLYLINE
  5
4B8
100
AcDbEntity
  8
0
100
AcDbPolyline
 62
250
  6
CONTINUOUS
 90
19
 70
0
 10
4.5140480351
 20
24.6622633934
 10
4.528971979
 20
24.665602706
 10
4.5476464835
 20
24.6691220168
 10
4.5661846159
 20
24.6719520931
 10
4.5845726097
 20
24.6740908332
 10
4.6027968099
 20
24.675536649
 10
4.620843683
 20
24.6762884667
 10
4.6386998274
 20
24.6763457281
 10
4.656351983
 20
24.6757083907
 10
4.6737870411
 20
24.6743769277
 10
4.6909920545
 20
24.6723523278
 10
4.7079542466
 20
24.6696360947
 10
4.7246610212
 20
24.6662302452
 10
4.7410999717
 20
24.6621373087
 10
4.7572588905
 20
24.6573603247
 10
4.7731257778
 20
24.6519028404
 10
4.7886888509
 20
24.6457689087
 10
4.8039365525
 20
24.6389630846
 10
4.8112200428
 20
24.6354191361
  0
LWPOLYLINE
  5
4B9
100
AcDbEntity
  8
ASSI
100
AcDbPolyline
 62
7
  6
CONTINUOUS
 90
5
 70
0
 10
2.5572648321
 20
23.9090349594
 10
2.5160416896
 20
23.9069241281
 10
2.4749378986
 20
23.9013739131
 10
2.4358047419
 20
23.8925861033
 10
2.3990396254
 20
23.8807872381
  0
LWPOLYLINE
  5
4BA
100
AcDbEntity
  8
RACCORDO
100
AcDbPolyline
 62
250
  6
CONTINUOUS
 90
18
 70
0
 10
5.5439077394
 20
24.3875174188
 10
5.5297825354
 20
24.3871581458
 10
5.4944824967
 20
24.3866696833
 10
5.4591278893
 20
24.3865883758
 10
5.4237809011
 20
24.3869145116
 10
5.3884415378
 20
24.3876489247
 10
5.3531097937
 20
24.388790781
 10
5.3178478405
 20
24.390337867
 10
5.2826557124
 20
24.3922910276
 10
5.2475333752
 20
24.3946494178
 10
5.2125428972
 20
24.3974082888
 10
5.1776863174
 20
24.4005682059
 10
5.1429615969
 20
24.4041286038
 10
5.1084246866
 20
24.408083038
 10
5.0740789544
 20
24.4124314938
 10
5.0399210324
 20
24.4171739858
 10
5.005996768
 20
24.4223041138
 10
4.9881063501
 20
24.4252342359
  0
LWPOLYLINE
  5
4BB
100
AcDbEntity
  8
0
100
AcDbPolyline
 62
250
  6
CONTINUOUS
 90
18
 70
0
 10
5.5439077394
 20
24.3875174188
 10
5.5297825354
 20
24.3871581458
 10
5.4944824967
 20
24.3866696833
 10
5.4591278893
 20
24.3865883758
 10
5.4237809011
 20
24.3869145116
 10
5.3884415378
 20
24.3876489247
 10
5.3531097937
 20
24.388790781
 10
5.3178478405
 20
24.390337867
 10
5.2826557124
 20
24.3922910276
 10
5.2475333752
 20
24.3946494178
 10
5.2125428972
 20
24.3974082888
 10
5.1776863174
 20
24.4005682059
 10
5.1429615969
 20
24.4041286038
 10
5.1084246866
 20
24.408083038
 10
5.0740789544
 20
24.4124314938
 10
5.0399210324
 20
24.4171739858
 10
5.005996768
 20
24.4223041138
 10
4.9881063501
 20
24.4252342359
  0
LWPOLYLINE
  5
4BC
100
AcDbEntity
  8
ASSI
100
AcDbPolyline
 62
7
  6
CONTINUOUS
 90
4
 70
0
 10
-3.5450068344
 20
22.9613152387
 10
-3.5231188087
 20
22.959466705
 10
-3.5004444288
 20
22.9536509747
 10
-3.477366037
 20
22.9439703473
  0
LWPOLYLINE
  5
4BD
100
AcDbEntity
  8
ASSI
100
AcDbPolyline
 62
7
  6
CONTINUOUS
 90
4
 70
0
 10
-7.2573174357
 20
24.8174705393
 10
-7.23542941
 20
24.8156220056
 10
-7.21275503
 20
24.8098062753
 10
-7.1896766382
 20
24.8001256479
  0
LWPOLYLINE
  5
4BE
100
AcDbEntity
  8
ASSI
100
AcDbPolyline
 62
250
  6
CONTINUOUS
 90
12
 70
0
 10
-11.1306630571
 20
24.7732455079
 10
-11.1215648918
 20
24.7716816796
 10
-11.1014236184
 20
24.7707233829
 10
-11.0810748417
 20
24.7731182957
 10
-11.0608628839
 20
24.7788258912
 10
-11.0411297532
 20
24.7877495877
 10
-11.022209354
 20
24.799738383
 10
-11.0044218351
 20
24.8145894126
 10
-10.9880681754
 20
24.8320513817
 10
-10.9734250923
 20
24.8518288158
 10
-10.9607403596
 20
24.8735870602
 10
-10.9502286127
 20
24.8969579438
  0
LWPOLYLINE
  5
4BF
100
AcDbEntity
  8
RACCORDO
100
AcDbPolyline
 62
7
  6
CONTINUOUS
 90
18
 70
0
 10
-0.3940917294
 20
24.6289577107
 10
-0.3979971392
 20
24.6300597113
 10
-0.4019877443
 20
24.6309343125
 10
-0.4060583519
 20
24.6315803358
 10
-0.4102037159
 20
24.6319969016
 10
-0.414419218
 20
24.6321837695
 10
-0.418699377
 20
24.6321405895
 10
-0.4230386777
 20
24.6318673117
 10
-0.4274323267
 20
24.6313645598
 10
-0.4318746147
 20
24.6306328146
 10
-0.4363598188
 20
24.6296728541
 10
-0.4408830314
 20
24.6284861589
 10
-0.4454383787
 20
24.627074033
 10
-0.450019992
 20
24.6254380715
 10
-0.4546229106
 20
24.6235805952
 10
-0.4592415036
 20
24.6215038783
 10
-0.4638694772
 20
24.6192101497
 10
-0.4685008466
 20
24.6167020551
  0
LWPOLYLINE
  5
4C0
100
AcDbEntity
  8
0
100
AcDbPolyline
 62
7
  6
CONTINUOUS
 90
18
 70
0
 10
-0.3940917294
 20
24.6289577107
 10
-0.3979971392
 20
24.6300597113
 10
-0.4019877443
 20
24.6309343125
 10
-0.4060583519
 20
24.6315803358
 10
-0.4102037159
 20
24.6319969016
 10
-0.414419218
 20
24.6321837695
 10
-0.418699377
 20
24.6321405895
 10
-0.4230386777
 20
24.6318673117
 10
-0.4274323267
 20
24.6313645598
 10
-0.4318746147
 20
24.6306328146
 10
-0.4363598188
 20
24.6296728541
 10
-0.4408830314
 20
24.6284861589
 10
-0.4454383787
 20
24.627074033
 10
-0.450019992
 20
24.6254380715
 10
-0.4546229106
 20
24.6235805952
 10
-0.4592415036
 20
24.6215038783
 10
-0.4638694772
 20
24.6192101497
 10
-0.4685008466
 20
24.6167020551
  0
LWPOLYLINE
  5
4C1
100
AcDbEntity
  8
ASSI
100
AcDbPolyline
 62
7
  6
CONTINUOUS
 90
5
 70
0
 10
2.719662685
 20
23.8835076561
 10
2.6810600178
 20
23.8949084345
 10
2.6407834887
 20
23.9030130721
 10
2.598827434
 20
23.9077735599
 10
2.5572648321
 20
23.9090349594
  0
LWPOLYLINE
  5
4C2
100
AcDbEntity
  8
ASSI
100
AcDbPolyline
 62
7
  6
CONTINUOUS
 90
5
 70
0
 10
-2.8972713884
 20
26.6923939354
 10
-2.9349567008
 20
26.7038413716
 10
-2.9743256716
 20
26.712132106
 10
-3.0153709328
 20
26.717218649
 10
-3.0561536457
 20
26.7189312036
  0
LINE
  5
4C3
100
AcDbEntity
  8
RACCORDO
100
AcDbLine
 62
7
  6
CONTINUOUS
 10
-0.3893905659
 20
24.6272837439
 11
-0.3940917294
 21
24.6289577107
  0
LINE
  5
4C4
100
AcDbEntity
  8
0
100
AcDbLine
 62
7
  6
CONTINUOUS
 10
-0.3893905659
 20
24.6272837439
 11
-0.3940917294
 21
24.6289577107
  0
LWPOLYLINE
  5
4C5
100
AcDbEntity
  8
ASSI
100
AcDbPolyline
 62
7
  6
CONTINUOUS
 90
8
 70
0
 10
-10.9359156775
 20
27.68761479
 10
-10.9571440236
 20
27.6951763171
 10
-10.9791862884
 20
27.7005550001
 10
-11.0018129497
 20
27.7036586081
 10
-11.0248720529
 20
27.704421171
 10
-11.0481340676
 20
27.702780681
 10
-11.071256254
 20
27.6987275576
 10
-11.0939797296
 20
27.6922956037
  0
LWPOLYLINE
  5
4C6
100
AcDbEntity
  8
RACCORDO
100
AcDbPolyline
 62
7
  6
CONTINUOUS
 90
51
 70
0
 10
-0.3893906277
 20
24.6272837746
 10
-0.3999617345
 20
24.6314359894
 10
-0.4229231077
 20
24.640050624
 10
-0.4461937097
 20
24.6482434636
 10
-0.4697596846
 20
24.6560194533
 10
-0.493615044
 20
24.6633850577
 10
-0.51774179
 20
24.6703420661
 10
-0.5421220384
 20
24.6768926153
 10
-0.5667492131
 20
24.6830411818
 10
-0.5916054285
 20
24.6887888295
 10
-0.6166733466
 20
24.6941370033
 10
-0.6419464794
 20
24.6990888128
 10
-0.6674074739
 20
24.7036448989
 10
-0.6930388038
 20
24.7078060538
 10
-0.718833045
 20
24.7115741874
 10
-0.7447726492
 20
24.7149496139
 10
-0.7708404856
 20
24.7179327904
 10
-0.7970291713
 20
24.7205248467
 10
-0.8233211435
 20
24.7227258969
 10
-0.8496994243
 20
24.7245361023
 10
-0.8761570996
 20
24.7259559557
 10
-0.9026769448
 20
24.726985408
 10
-0.9292417072
 20
24.7276243236
 10
-0.9558442294
 20
24.7278725682
 10
-0.9824673278
 20
24.7277299163
 10
-1.009093649
 20
24.7271959992
 10
-1.0357158095
 20
24.7262701091
 10
-1.0623166833
 20
24.7249518187
 10
-1.0888786674
 20
24.7232405388
 10
-1.1153939352
 20
24.7211350087
 10
-1.1418451876
 20
24.7186345733
 10
-1.1682146695
 20
24.7157384116
 10
-1.194494386
 20
24.7124446551
 10
-1.2206683209
 20
24.7087521243
 10
-1.2467169456
 20
24.7046598941
 10
-1.2726278369
 20
24.7001661461
 10
-1.2983845547
 20
24.6952694548
 10
-1.323967626
 20
24.6899687469
 10
-1.3493613443
 20
24.6842624647
 10
-1.3745478109
 20
24.6781492379
 10
-1.3995088885
 20
24.6716275896
 10
-1.424230108
 20
24.6646951963
 10
-1.4486935752
 20
24.657350156
 10
-1.4728809802
 20
24.6495906007
 10
-1.4967788373
 20
24.6414130443
 10
-1.520368307
 20
24.6328150625
 10
-1.5436317694
 20
24.6237936598
 10
-1.5665592957
 20
24.6143422855
 10
-1.589135588
 20
24.6044553365
 10
-1.6113373035
 20
24.5941306849
 10
-1.6269164049
 20
24.5865051579
  0
LWPOLYLINE
  5
4C7
100
AcDbEntity
  8
0
100
AcDbPolyline
 62
7
  6
CONTINUOUS
 90
51
 70
0
 10
-0.3893906277
 20
24.6272837746
 10
-0.3999617345
 20
24.6314359894
 10
-0.4229231077
 20
24.640050624
 10
-0.4461937097
 20
24.6482434636
 10
-0.4697596846
 20
24.6560194533
 10
-0.493615044
 20
24.6633850577
 10
-0.51774179
 20
24.6703420661
 10
-0.5421220384
 20
24.6768926153
 10
-0.5667492131
 20
24.6830411818
 10
-0.5916054285
 20
24.6887888295
 10
-0.6166733466
 20
24.6941370033
 10
-0.6419464794
 20
24.6990888128
 10
-0.6674074739
 20
24.7036448989
 10
-0.6930388038
 20
24.7078060538
 10
-0.718833045
 20
24.7115741874
 10
-0.7447726492
 20
24.7149496139
 10
-0.7708404856
 20
24.7179327904
 10
-0.7970291713
 20
24.7205248467
 10
-0.8233211435
 20
24.7227258969
 10
-0.8496994243
 20
24.7245361023
 10
-0.8761570996
 20
24.7259559557
 10
-0.9026769448
 20
24.726985408
 10
-0.9292417072
 20
24.7276243236
 10
-0.9558442294
 20
24.7278725682
 10
-0.9824673278
 20
24.7277299163
 10
-1.009093649
 20
24.7271959992
 10
-1.0357158095
 20
24.7262701091
 10
-1.0623166833
 20
24.7249518187
 10
-1.0888786674
 20
24.7232405388
 10
-1.1153939352
 20
24.7211350087
 10
-1.1418451876
 20
24.7186345733
 10
-1.1682146695
 20
24.7157384116
 10
-1.194494386
 20
24.7124446551
 10
-1.2206683209
 20
24.7087521243
 10
-1.2467169456
 20
24.7046598941
 10
-1.2726278369
 20
24.7001661461
 10
-1.2983845547
 20
24.6952694548
 10
-1.323967626
 20
24.6899687469
 10
-1.3493613443
 20
24.6842624647
 10
-1.3745478109
 20
24.6781492379
 10
-1.3995088885
 20
24.6716275896
 10
-1.424230108
 20
24.6646951963
 10
-1.4486935752
 20
24.657350156
 10
-1.4728809802
 20
24.6495906007
 10
-1.4967788373
 20
24.6414130443
 10
-1.520368307
 20
24.6328150625
 10
-1.5436317694
 20
24.6237936598
 10
-1.5665592957
 20
24.6143422855
 10
-1.589135588
 20
24.6044553365
 10
-1.6113373035
 20
24.5941306849
 10
-1.6269164049
 20
24.5865051579
  0
LWPOLYLINE
  5
4C8
100
AcDbEntity
  8
ASSI
100
AcDbPolyline
 62
250
  6
CONTINUOUS
 90
6
 70
0
 10
-3.1402056222
 20
26.6703055579
 10
-3.1628955375
 20
26.6801667809
 10
-3.18525014
 20
26.6861304718
 10
-3.2068870846
 20
26.6880946298
 10
-3.2274363003
 20
26.6860256606
 10
-3.2481104771
 20
26.6792539851
  0
LINE
  5
4C9
100
AcDbEntity
  8
ASSI
100
AcDbLine
 62
7
  6
CONTINUOUS
 10
3.3387281804
 20
23.3031073501
 11
2.9428729305
 21
23.5010349751
  0
LINE
  5
4CA
100
AcDbEntity
  8
ASSI
100
AcDbLine
 62
7
  6
CONTINUOUS
 10
2.2870982067
 20
23.828922337
 11
-0.2602455665
 21
25.1025942235
  0
LINE
  5
4CB
100
AcDbEntity
  8
ASSI
100
AcDbLine
 62
7
  6
CONTINUOUS
 10
4.3086233223
 20
23.7959146902
 11
0.3492122
 21
25.7756202513
  0
LINE
  5
4CC
100
AcDbEntity
  8
DRAFT
100
AcDbLine
 62
7
  6
CONTINUOUS
 10
9.6884760205
 20
21.9671853743
 11
10.4368951139
 21
21.5929758276
  0
LINE
  5
4CD
100
AcDbEntity
  8
0
100
AcDbLine
 62
7
  6
CONTINUOUS
 10
9.6884760205
 20
21.9671853743
 11
10.4368951139
 21
21.5929758276
  0
LINE
  5
4CE
100
AcDbEntity
  8
ASSI
100
AcDbLine
 62
7
  6
CONTINUOUS
 10
2.0253700335
 20
25.9066023942
 11
5.2985518218
 21
24.2700115
  0
LINE
  5
4CF
100
AcDbEntity
  8
RACCORDO
100
AcDbLine
 62
7
  6
CONTINUOUS
 10
4.8137213981
 20
24.6341767607
 11
2.02363497
 21
26.0292116725
  0
LINE
  5
4D0
100
AcDbEntity
  8
0
100
AcDbLine
 62
7
  6
CONTINUOUS
 10
4.8137213981
 20
24.6341767607
 11
2.02363497
 21
26.0292116725
  0
LINE
  5
4D1
100
AcDbEntity
  8
ASSI
100
AcDbLine
 62
250
  6
CONTINUOUS
 10
-1.5956461889
 20
28.2414394392
 11
1.2576890935
 21
26.814771798
  0
LINE
  5
4D2
100
AcDbEntity
  8
ASSI
100
AcDbLine
 62
250
  6
CONTINUOUS
 10
5.883739056
 20
24.5017468167
 11
8.7370743383
 21
23.0750791756
  0
LINE
  5
4D3
100
AcDbEntity
  8
0
100
AcDbLine
 62
7
  6
CONTINUOUS
 10
11.4141918577
 20
22.5182917275
 11
11.6115825249
 21
22.3359981366
  0
LINE
  5
4D4
100
AcDbEntity
  8
ASSI
100
AcDbLine
 62
7
  6
CONTINUOUS
 10
0.3492122
 20
25.7756202513
 11
1.9664846347
 21
25.8576652312
  0
LWPOLYLINE
  5
4D5
100
AcDbEntity
  8
ASSI
100
AcDbPolyline
 62
7
  6
CONTINUOUS
 90
5
 70
0
 10
-3.0561536457
 20
26.7189312036
 10
-3.0967412247
 20
26.7173886951
 10
-3.1373248697
 20
26.7125224517
 10
-3.1760924636
 20
26.7045143306
 10
-3.2126492407
 20
26.6935684867
  0
LWPOLYLINE
  5
4D6
100
AcDbEntity
  8
RACCORDO
100
AcDbPolyline
 62
7
  6
CONTINUOUS
 90
9
 70
0
 10
13.7519740646
 20
23.3108784974
 10
13.7458573241
 20
23.3124779951
 10
13.7360871103
 20
23.314010809
 10
13.7257609149
 20
23.3144262534
 10
13.7149737177
 20
23.3137244809
 10
13.7040104588
 20
23.3119059496
 10
13.6929661181
 20
23.3089708121
 10
13.6817457156
 20
23.3049189157
 10
13.6703492513
 20
23.2997502604
  0
LINE
  5
4D7
100
AcDbEntity
  8
0
100
AcDbLine
 62
7
  6
CONTINUOUS
 10
12.3589112659
 20
22.6440312677
 11
11.9091666045
 21
22.7657791009
  0
LWPOLYLINE
  5
4D8
100
AcDbEntity
  8
RACCORDO
100
AcDbPolyline
 62
7
  6
CONTINUOUS
 90
28
 70
0
 10
13.7519639284
 20
23.310854545
 10
13.6432485818
 20
23.3421403908
 10
13.5283935389
 20
23.3714940678
 10
13.4111321149
 20
23.397821138
 10
13.2917589501
 20
23.4210832297
 10
13.1705385784
 20
23.4412537825
 10
13.047709209
 20
23.4583130578
 10
12.9235604116
 20
23.4722368994
 10
12.7983769485
 20
23.4830075684
 10
12.672396431
 20
23.4906149681
 10
12.5459100449
 20
23.4950483468
 10
12.4192073219
 20
23.4963029015
 10
12.2925255765
 20
23.4943781284
 10
12.1661543067
 20
23.4892767934
 10
12.0403847161
 20
23.4810075812
 10
11.9154551168
 20
23.4695797058
 10
11.7916562421
 20
23.4550098735
 10
11.6692714898
 20
23.437319852
 10
11.5485230536
 20
23.4165256766
 10
11.4296881325
 20
23.3926540766
 10
11.3130523091
 20
23.3657390248
 10
11.198840736
 20
23.3358042575
 10
11.0873255578
 20
23.3028871536
 10
10.9787793614
 20
23.2670305188
 10
10.8734124699
 20
23.2282589012
 10
10.7714656874
 20
23.1866060928
 10
10.67321955
 20
23.1421253183
 10
10.5789354888
 20
23.0948679289
  0
LWPOLYLINE
  5
4D9
100
AcDbEntity
  8
RACCORDO
100
AcDbPolyline
 62
7
  6
CONTINUOUS
 90
3
 70
0
 10
13.7640147464
 20
23.3060607168
 10
13.7551665361
 20
23.3098279644
 10
13.7519740646
 20
23.3108784974
  0
LWPOLYLINE
  5
4DA
100
AcDbEntity
  8
ASSI
100
AcDbPolyline
 62
250
  6
CONTINUOUS
 90
10
 70
0
 10
1.6947860202
 20
26.8360231045
 10
1.6517250525
 20
26.8543649395
 10
1.6073664657
 20
26.8672602363
 10
1.5610842554
 20
26.8750715501
 10
1.513130585
 20
26.8777568721
 10
1.4637651821
 20
26.8753028961
 10
1.4132604999
 20
26.8677217634
 10
1.3618929168
 20
26.8550548255
 10
1.3099412549
 20
26.8373725015
 10
1.2576890935
 20
26.814771798
  0
LWPOLYLINE
  5
4DB
100
AcDbEntity
  8
ASSI
100
AcDbPolyline
 62
7
  6
CONTINUOUS
 90
8
 70
0
 10
6.3173012236
 20
24.5247624833
 10
6.2841679259
 20
24.5399063416
 10
6.2355667902
 20
24.5570735632
 10
6.184403874
 20
24.5693746206
 10
6.1310987131
 20
24.5765214314
 10
6.0762567301
 20
24.5783024635
 10
6.0202281174
 20
24.5746396116
 10
5.963263829
 20
24.5655017608
  0
LINE
  5
4DC
100
AcDbEntity
  8
ASSI
100
AcDbLine
 62
7
  6
CONTINUOUS
 10
6.3163865617
 20
24.5252228338
 11
9.3270734842
 21
23.0198793725
  0
LWPOLYLINE
  5
4DD
100
AcDbEntity
  8
RACCORDO
100
AcDbPolyline
 62
250
  6
CONTINUOUS
 90
25
 70
0
 10
6.4789948897
 20
24.5816019774
 10
6.4598529536
 20
24.5911722204
 10
6.4407161804
 20
24.6000732221
 10
6.4215990966
 20
24.6082982259
 10
6.4025162139
 20
24.6158409882
 10
6.3834820178
 20
24.6226957834
 10
6.3645109572
 20
24.6288574082
 10
6.3456174328
 20
24.6343211852
 10
6.3268157865
 20
24.639082967
 10
6.3081202905
 20
24.6431391389
 10
6.2895451364
 20
24.646486622
 10
6.2711044244
 20
24.6491228753
 10
6.2528121528
 20
24.6510458975
 10
6.2346822069
 20
24.652254229
 10
6.2167283493
 20
24.6527469525
 10
6.1989642083
 20
24.6525236941
 10
6.1814032688
 20
24.6515846232
 10
6.1640588609
 20
24.6499304527
 10
6.1469441508
 20
24.6475624383
 10
6.1300721299
 20
24.6444823775
 10
6.1134556059
 20
24.6406926083
 10
6.097107192
 20
24.6361960077
 10
6.0810392983
 20
24.6309959889
 10
6.0652641217
 20
24.6250964993
 10
6.049793637
 20
24.6185020171
  0
LWPOLYLINE
  5
4DE
100
AcDbEntity
  8
0
100
AcDbPolyline
 62
250
  6
CONTINUOUS
 90
26
 70
0
 10
6.4789948897
 20
24.5816019774
 10
6.4598529536
 20
24.5911722204
 10
6.4407161804
 20
24.6000732221
 10
6.4215990966
 20
24.6082982259
 10
6.4025162139
 20
24.6158409882
 10
6.3834820178
 20
24.6226957834
 10
6.3645109572
 20
24.6288574082
 10
6.3456174328
 20
24.6343211852
 10
6.3268157865
 20
24.639082967
 10
6.3081202905
 20
24.6431391389
 10
6.2895451364
 20
24.646486622
 10
6.2711044244
 20
24.6491228753
 10
6.2528121528
 20
24.6510458975
 10
6.2346822069
 20
24.652254229
 10
6.2167283493
 20
24.6527469525
 10
6.1989642083
 20
24.6525236941
 10
6.1814032688
 20
24.6515846232
 10
6.1640588609
 20
24.6499304527
 10
6.1469441508
 20
24.6475624383
 10
6.1300721299
 20
24.6444823775
 10
6.1134556059
 20
24.6406926083
 10
6.097107192
 20
24.6361960077
 10
6.0810392983
 20
24.6309959889
 10
6.0652641217
 20
24.6250964993
 10
6.049793637
 20
24.6185020171
 10
6.0473754646
 20
24.6173956837
  0
LINE
  5
4DF
100
AcDbEntity
  8
0
100
AcDbLine
 62
7
  6
CONTINUOUS
 10
11.4141918577
 20
22.5182917275
 11
10.7072229176
 21
22.8717761975
  0
LINE
  5
4E0
100
AcDbEntity
  8
0
100
AcDbLine
 62
7
  6
CONTINUOUS
 10
11.9091666045
 20
22.7657791009
 11
11.2021976644
 21
23.1192635709
  0
LINE
  5
4E1
100
AcDbEntity
  8
DRAFT
100
AcDbLine
 62
7
  6
CONTINUOUS
 10
10.5093886413
 20
23.7822889361
 11
10.9417028921
 21
23.5661318107
  0
LINE
  5
4E2
100
AcDbEntity
  8
0
100
AcDbLine
 62
7
  6
CONTINUOUS
 10
10.5093886413
 20
23.7822889361
 11
10.9417028921
 21
23.5661318107
  0
LINE
  5
4E3
100
AcDbEntity
  8
ASSI
100
AcDbLine
 62
7
  6
CONTINUOUS
 10
1.694893501
 20
26.8359693431
 11
-1.3158995737
 21
28.3413659014
  0
LINE
  5
4E4
100
AcDbEntity
  8
RACCORDO
100
AcDbLine
 62
7
  6
CONTINUOUS
 10
14.6125428838
 20
22.8817966481
 11
14.704955045
 21
22.8355351397
  0
LWPOLYLINE
  5
4E5
100
AcDbEntity
  8
RACCORDO
100
AcDbPolyline
 62
7
  6
CONTINUOUS
 90
10
 70
0
 10
14.5745988165
 20
22.8944643031
 10
14.4771217628
 20
22.9445197348
 10
14.381508561
 20
22.9934956104
 10
14.2877592111
 20
23.04139193
 10
14.1958881298
 20
23.0882101178
 10
14.1058809004
 20
23.1339487495
 10
14.0176942723
 20
23.1786035525
 10
13.9313138289
 20
23.2221731027
 10
13.846753987
 20
23.2646588241
 10
13.7640147464
 20
23.3060607168
  0
LINE
  5
4E6
100
AcDbEntity
  8
RACCORDO
100
AcDbLine
 62
7
  6
CONTINUOUS
 10
14.5823572452
 20
22.889877831
 11
14.5745988165
 21
22.8944643031
  0
LWPOLYLINE
  5
4E7
100
AcDbEntity
  8
RACCORDO
100
AcDbPolyline
 62
250
  6
CONTINUOUS
 90
4
 70
0
 10
14.6125428838
 20
22.8817966481
 10
14.6370658741
 20
22.8612922697
 10
14.6614316358
 20
22.8400140053
 10
14.6796294596
 20
22.8233802236
  0
LWPOLYLINE
  5
4E8
100
AcDbEntity
  8
RACCORDO
100
AcDbPolyline
 62
250
  6
CONTINUOUS
 90
6
 70
0
 10
14.5189062847
 20
22.8755006397
 10
14.5417667141
 20
22.8559219062
 10
14.5643442524
 20
22.8355688597
 10
14.5866388996
 20
22.8144415001
 10
14.6086843979
 20
22.7926116131
 10
14.6108450442
 20
22.7903674114
  0
LWPOLYLINE
  5
4E9
100
AcDbEntity
  8
RACCORDO
100
AcDbPolyline
 62
250
  6
CONTINUOUS
 90
57
 70
0
 10
19.9614863606
 20
19.8573288396
 10
19.970820773
 20
19.8273721019
 10
19.9830200497
 20
19.7848372598
 10
19.9944654364
 20
19.7412941102
 10
20.0051384343
 20
19.6967517932
 10
20.0149707254
 20
19.6512309002
 10
20.0239617421
 20
19.6046312232
 10
20.0320833137
 20
19.5570495515
 10
20.0392340956
 20
19.5088074891
 10
20.0453991999
 20
19.4598366666
 10
20.0505795359
 20
19.4102130775
 10
20.0547176649
 20
19.3604861692
 10
20.0577986207
 20
19.3105970784
 10
20.0598488362
 20
19.2606249267
 10
20.0609020558
 20
19.2113399559
 10
20.0609503573
 20
19.1627262678
 10
20.0600468209
 20
19.1148310331
 10
20.0583494682
 20
19.0685323245
 10
20.0558963848
 20
19.0241163381
 10
20.0527281245
 20
18.9813341264
 10
20.0490209592
 20
18.9402658833
 10
20.0448336852
 20
18.9010599674
 10
20.0401758017
 20
18.863594806
 10
20.0351409866
 20
18.8275424725
 10
20.0297602594
 20
18.7928662438
 10
20.0240496539
 20
18.7596188152
 10
20.0180693306
 20
18.7276029295
 10
20.011837869
 20
18.6967908068
 10
20.0053724273
 20
18.6672206226
 10
19.9987249549
 20
18.6387923371
 10
19.9919124319
 20
18.6115059474
 10
19.9849466185
 20
18.5853686416
 10
19.9778677973
 20
18.5602902238
 10
19.9706924047
 20
18.5362799965
 10
19.9634268071
 20
18.5133336511
 10
19.956092921
 20
18.4913398852
 10
19.9487054016
 20
18.4703057564
 10
19.9412670213
 20
18.4502276325
 10
19.9337789504
 20
18.4309776102
 10
19.9262488276
 20
18.4125485452
 10
19.9186818734
 20
18.3949498988
 10
19.9110733431
 20
18.3780782539
 10
19.9034201265
 20
18.3619135282
 10
19.8957348815
 20
18.3464774359
 10
19.8880350939
 20
18.3317290314
 10
19.8803167019
 20
18.317659847
 10
19.8725911887
 20
18.3042796792
 10
19.8648985059
 20
18.2915749114
 10
19.8572443426
 20
18.2795573056
 10
19.8496286772
 20
18.2682162969
 10
19.8420821243
 20
18.2575047279
 10
19.83461708
 20
18.2474375226
 10
19.8272250488
 20
18.2380007915
 10
19.8199045227
 20
18.2291040407
 10
19.8126556897
 20
18.2207173489
 10
19.8054807148
 20
18.2128714437
 10
19.7983805958
 20
18.2055667244
  0
LWPOLYLINE
  5
4EA
100
AcDbEntity
  8
0
100
AcDbPolyline
 62
250
  6
CONTINUOUS
 90
57
 70
0
 10
19.9614863606
 20
19.8573288396
 10
19.970820773
 20
19.8273721019
 10
19.9830200497
 20
19.7848372598
 10
19.9944654364
 20
19.7412941102
 10
20.0051384343
 20
19.6967517932
 10
20.0149707254
 20
19.6512309002
 10
20.0239617421
 20
19.6046312232
 10
20.0320833137
 20
19.5570495515
 10
20.0392340956
 20
19.5088074891
 10
20.0453991999
 20
19.4598366666
 10
20.0505795359
 20
19.4102130775
 10
20.0547176649
 20
19.3604861692
 10
20.0577986207
 20
19.3105970784
 10
20.0598488362
 20
19.2606249267
 10
20.0609020558
 20
19.2113399559
 10
20.0609503573
 20
19.1627262678
 10
20.0600468209
 20
19.1148310331
 10
20.0583494682
 20
19.0685323245
 10
20.0558963848
 20
19.0241163381
 10
20.0527281245
 20
18.9813341264
 10
20.0490209592
 20
18.9402658833
 10
20.0448336852
 20
18.9010599674
 10
20.0401758017
 20
18.863594806
 10
20.0351409866
 20
18.8275424725
 10
20.0297602594
 20
18.7928662438
 10
20.0240496539
 20
18.7596188152
 10
20.0180693306
 20
18.7276029295
 10
20.011837869
 20
18.6967908068
 10
20.0053724273
 20
18.6672206226
 10
19.9987249549
 20
18.6387923371
 10
19.9919124319
 20
18.6115059474
 10
19.9849466185
 20
18.5853686416
 10
19.9778677973
 20
18.5602902238
 10
19.9706924047
 20
18.5362799965
 10
19.9634268071
 20
18.5133336511
 10
19.956092921
 20
18.4913398852
 10
19.9487054016
 20
18.4703057564
 10
19.9412670213
 20
18.4502276325
 10
19.9337789504
 20
18.4309776102
 10
19.9262488276
 20
18.4125485452
 10
19.9186818734
 20
18.3949498988
 10
19.9110733431
 20
18.3780782539
 10
19.9034201265
 20
18.3619135282
 10
19.8957348815
 20
18.3464774359
 10
19.8880350939
 20
18.3317290314
 10
19.8803167019
 20
18.317659847
 10
19.8725911887
 20
18.3042796792
 10
19.8648985059
 20
18.2915749114
 10
19.8572443426
 20
18.2795573056
 10
19.8496286772
 20
18.2682162969
 10
19.8420821243
 20
18.2575047279
 10
19.83461708
 20
18.2474375226
 10
19.8272250488
 20
18.2380007915
 10
19.8199045227
 20
18.2291040407
 10
19.8126556897
 20
18.2207173489
 10
19.8054807148
 20
18.2128714437
 10
19.7983805958
 20
18.2055667244
  0
LWPOLYLINE
  5
4EB
100
AcDbEntity
  8
DRAFT
100
AcDbPolyline
 62
7
  6
CONTINUOUS
 90
10
 70
0
 10
14.6846668277
 20
23.6213072123
 10
14.7207724473
 20
23.6055994874
 10
14.7563070497
 20
23.5895909999
 10
14.7912706349
 20
23.5732817498
 10
14.8256733721
 20
23.5566666525
 10
14.8595050921
 20
23.5397507925
 10
14.8927352868
 20
23.5225494238
 10
14.925353787
 20
23.5050676313
 10
14.957370762
 20
23.4873003301
 10
14.9887862117
 20
23.4692475203
  0
LWPOLYLINE
  5
4EC
100
AcDbEntity
  8
0
100
AcDbPolyline
 62
7
  6
CONTINUOUS
 90
10
 70
0
 10
14.6846668277
 20
23.6213072123
 10
14.7207724473
 20
23.6055994874
 10
14.7563070497
 20
23.5895909999
 10
14.7912706349
 20
23.5732817498
 10
14.8256733721
 20
23.5566666525
 10
14.8595050921
 20
23.5397507925
 10
14.8927352868
 20
23.5225494238
 10
14.925353787
 20
23.5050676313
 10
14.957370762
 20
23.4873003301
 10
14.9887862117
 20
23.4692475203
  0
LINE
  5
4ED
100
AcDbEntity
  8
DRAFT
100
AcDbLine
 62
7
  6
CONTINUOUS
 10
14.5011289867
 20
23.6974162802
 11
15.1326603078
 21
23.3816506197
  0
LINE
  5
4EE
100
AcDbEntity
  8
0
100
AcDbLine
 62
7
  6
CONTINUOUS
 10
14.5011289867
 20
23.6974162802
 11
15.1326603078
 21
23.3816506197
  0
LINE
  5
4EF
100
AcDbEntity
  8
DRAFT
100
AcDbLine
 62
7
  6
CONTINUOUS
 10
14.6846668277
 20
23.6213072123
 11
14.9887862117
 21
23.4692475203
  0
LINE
  5
4F0
100
AcDbEntity
  8
0
100
AcDbLine
 62
7
  6
CONTINUOUS
 10
14.6846668277
 20
23.6213072123
 11
14.9887862117
 21
23.4692475203
  0
LINE
  5
4F1
100
AcDbEntity
  8
DRAFT
100
AcDbLine
 62
7
  6
CONTINUOUS
 10
14.4814294587
 20
25.7747266128
 11
17.5902450295
 21
24.2203188274
  0
LINE
  5
4F2
100
AcDbEntity
  8
0
100
AcDbLine
 62
7
  6
CONTINUOUS
 10
14.4814294587
 20
25.7747266128
 11
17.5902450295
 21
24.2203188274
  0
LWPOLYLINE
  5
4F3
100
AcDbEntity
  8
RACCORDO
100
AcDbPolyline
 62
7
  6
CONTINUOUS
 90
104
 70
0
 10
19.9614863606
 20
21.676401616
 10
19.974207682
 20
21.6671468079
 10
20.0190292946
 20
21.6332784864
 10
20.0635131425
 20
21.5984035741
 10
20.1076708034
 20
21.5625187865
 10
20.1515013815
 20
21.5256285952
 10
20.1949731348
 20
21.4877632613
 10
20.2380507562
 20
21.4489584244
 10
20.2807136778
 20
21.4092384022
 10
20.3229513855
 20
21.3686185981
 10
20.3647438877
 20
21.3271236684
 10
20.4060700146
 20
21.2847803979
 10
20.4469207691
 20
21.2416036133
 10
20.4872938917
 20
21.1976002363
 10
20.5271847162
 20
21.1527785534
 10
20.5665671896
 20
21.1071708761
 10
20.6054071157
 20
21.0608212534
 10
20.6436760148
 20
21.0137697882
 10
20.6813746421
 20
20.9660215459
 10
20.7185123801
 20
20.9175683837
 10
20.7550880831
 20
20.8684132436
 10
20.7910732794
 20
20.8185956685
 10
20.8264362314
 20
20.7681626277
 10
20.8611535198
 20
20.7171521849
 10
20.8952225435
 20
20.6655727094
 10
20.928643116
 20
20.6134273439
 10
20.9614070882
 20
20.5607302338
 10
20.9934957865
 20
20.5075126769
 10
21.024892924
 20
20.4538034329
 10
21.0555842687
 20
20.3996288355
 10
21.0855592028
 20
20.3450094543
 10
21.114807237
 20
20.2899657741
 10
21.1433158414
 20
20.2345224662
 10
21.1710737788
 20
20.1787022866
 10
21.1980724615
 20
20.1225228434
 10
21.224301123
 20
20.0660062477
 10
21.2497476062
 20
20.00917816
 10
21.2744013127
 20
19.9520614874
 10
21.2982518322
 20
19.8946791833
 10
21.3212880351
 20
19.8370565587
 10
21.3434987046
 20
19.7792200792
 10
21.3648711705
 20
19.7212013841
 10
21.3853985214
 20
19.6630175307
 10
21.4050778451
 20
19.6046728794
 10
21.4239046246
 20
19.5461738177
 10
21.4418628011
 20
19.4875625523
 10
21.4589332286
 20
19.4288969975
 10
21.4751010993
 20
19.3702275432
 10
21.4903665561
 20
19.3115527192
 10
21.5047328282
 20
19.2528523886
 10
21.518197019
 20
19.1941227719
 10
21.5307430894
 20
19.1354165679
 10
21.5423548316
 20
19.0767978632
 10
21.5530217369
 20
19.0183137511
 10
21.5627422825
 20
18.9599653694
 10
21.5715146668
 20
18.9017473182
 10
21.5793338001
 20
18.843667072
 10
21.5861900254
 20
18.7857656884
 10
21.5920746942
 20
18.7280875168
 10
21.5969821125
 20
18.6706589072
 10
21.6009072967
 20
18.613500958
 10
21.603844699
 20
18.5566488884
 10
21.6057898475
 20
18.5001358445
 10
21.6067393446
 20
18.4439748762
 10
21.606689211
 20
18.3881703298
 10
21.6056338971
 20
18.3327118999
 10
21.6035687099
 20
18.2776568679
 10
21.6004946926
 20
18.2231084226
 10
21.5964162664
 20
18.1691342421
 10
21.5913317954
 20
18.1157070358
 10
21.585234427
 20
18.0627861772
 10
21.5781122006
 20
18.010329333
 10
21.5699696438
 20
17.9584243138
 10
21.560829009
 20
17.9072221961
 10
21.5507087838
 20
17.8568006165
 10
21.5396043346
 20
17.8071141154
 10
21.5275077634
 20
17.758125658
 10
21.514408247
 20
17.7098055806
 10
21.5003204688
 20
17.6622219379
 10
21.4852773695
 20
17.6154818134
 10
21.4692956802
 20
17.5696203314
 10
21.4523779364
 20
17.5246294584
 10
21.4345432211
 20
17.4805456881
 10
21.4158072039
 20
17.4373910954
 10
21.3961773857
 20
17.3951675022
 10
21.375662096
 20
17.3538801071
 10
21.3542532331
 20
17.3135050692
 10
21.3319809297
 20
17.2740922278
 10
21.308918119
 20
17.2357512094
 10
21.2851252162
 20
17.1985488366
 10
21.2605843889
 20
17.1624250116
 10
21.2352526865
 20
17.1272989927
 10
21.209112761
 20
17.093141284
 10
21.1822096783
 20
17.0600055031
 10
21.1545920077
 20
17.027939366
 10
21.1262948429
 20
16.996966914
 10
21.0973227196
 20
16.9670767999
 10
21.0676814353
 20
16.9382617833
 10
21.0373933923
 20
16.9105316378
 10
21.0064761473
 20
16.8838905836
 10
20.9749269325
 20
16.8583265135
 10
20.942757631
 20
16.8338417008
 10
20.9099961271
 20
16.810449978
 10
20.876663147
 20
16.788158159
  0
LWPOLYLINE
  5
4F4
100
AcDbEntity
  8
0
100
AcDbPolyline
 62
7
  6
CONTINUOUS
 90
104
 70
0
 10
19.9614863606
 20
21.676401616
 10
19.974207682
 20
21.6671468079
 10
20.0190292946
 20
21.6332784864
 10
20.0635131425
 20
21.5984035741
 10
20.1076708034
 20
21.5625187865
 10
20.1515013815
 20
21.5256285952
 10
20.1949731348
 20
21.4877632613
 10
20.2380507562
 20
21.4489584244
 10
20.2807136778
 20
21.4092384022
 10
20.3229513855
 20
21.3686185981
 10
20.3647438877
 20
21.3271236684
 10
20.4060700146
 20
21.2847803979
 10
20.4469207691
 20
21.2416036133
 10
20.4872938917
 20
21.1976002363
 10
20.5271847162
 20
21.1527785534
 10
20.5665671896
 20
21.1071708761
 10
20.6054071157
 20
21.0608212534
 10
20.6436760148
 20
21.0137697882
 10
20.6813746421
 20
20.9660215459
 10
20.7185123801
 20
20.9175683837
 10
20.7550880831
 20
20.8684132436
 10
20.7910732794
 20
20.8185956685
 10
20.8264362314
 20
20.7681626277
 10
20.8611535198
 20
20.7171521849
 10
20.8952225435
 20
20.6655727094
 10
20.928643116
 20
20.6134273439
 10
20.9614070882
 20
20.5607302338
 10
20.9934957865
 20
20.5075126769
 10
21.024892924
 20
20.4538034329
 10
21.0555842687
 20
20.3996288355
 10
21.0855592028
 20
20.3450094543
 10
21.114807237
 20
20.2899657741
 10
21.1433158414
 20
20.2345224662
 10
21.1710737788
 20
20.1787022866
 10
21.1980724615
 20
20.1225228434
 10
21.224301123
 20
20.0660062477
 10
21.2497476062
 20
20.00917816
 10
21.2744013127
 20
19.9520614874
 10
21.2982518322
 20
19.8946791833
 10
21.3212880351
 20
19.8370565587
 10
21.3434987046
 20
19.7792200792
 10
21.3648711705
 20
19.7212013841
 10
21.3853985214
 20
19.6630175307
 10
21.4050778451
 20
19.6046728794
 10
21.4239046246
 20
19.5461738177
 10
21.4418628011
 20
19.4875625523
 10
21.4589332286
 20
19.4288969975
 10
21.4751010993
 20
19.3702275432
 10
21.4903665561
 20
19.3115527192
 10
21.5047328282
 20
19.2528523886
 10
21.518197019
 20
19.1941227719
 10
21.5307430894
 20
19.1354165679
 10
21.5423548316
 20
19.0767978632
 10
21.5530217369
 20
19.0183137511
 10
21.5627422825
 20
18.9599653694
 10
21.5715146668
 20
18.9017473182
 10
21.5793338001
 20
18.843667072
 10
21.5861900254
 20
18.7857656884
 10
21.5920746942
 20
18.7280875168
 10
21.5969821125
 20
18.6706589072
 10
21.6009072967
 20
18.613500958
 10
21.603844699
 20
18.5566488884
 10
21.6057898475
 20
18.5001358445
 10
21.6067393446
 20
18.4439748762
 10
21.606689211
 20
18.3881703298
 10
21.6056338971
 20
18.3327118999
 10
21.6035687099
 20
18.2776568679
 10
21.6004946926
 20
18.2231084226
 10
21.5964162664
 20
18.1691342421
 10
21.5913317954
 20
18.1157070358
 10
21.585234427
 20
18.0627861772
 10
21.5781122006
 20
18.010329333
 10
21.5699696438
 20
17.9584243138
 10
21.560829009
 20
17.9072221961
 10
21.5507087838
 20
17.8568006165
 10
21.5396043346
 20
17.8071141154
 10
21.5275077634
 20
17.758125658
 10
21.514408247
 20
17.7098055806
 10
21.5003204688
 20
17.6622219379
 10
21.4852773695
 20
17.6154818134
 10
21.4692956802
 20
17.5696203314
 10
21.4523779364
 20
17.5246294584
 10
21.4345432211
 20
17.4805456881
 10
21.4158072039
 20
17.4373910954
 10
21.3961773857
 20
17.3951675022
 10
21.375662096
 20
17.3538801071
 10
21.3542532331
 20
17.3135050692
 10
21.3319809297
 20
17.2740922278
 10
21.308918119
 20
17.2357512094
 10
21.2851252162
 20
17.1985488366
 10
21.2605843889
 20
17.1624250116
 10
21.2352526865
 20
17.1272989927
 10
21.209112761
 20
17.093141284
 10
21.1822096783
 20
17.0600055031
 10
21.1545920077
 20
17.027939366
 10
21.1262948429
 20
16.996966914
 10
21.0973227196
 20
16.9670767999
 10
21.0676814353
 20
16.9382617833
 10
21.0373933923
 20
16.9105316378
 10
21.0064761473
 20
16.8838905836
 10
20.9749269325
 20
16.8583265135
 10
20.942757631
 20
16.8338417008
 10
20.9099961271
 20
16.810449978
 10
20.876663147
 20
16.788158159
  0
LWPOLYLINE
  5
4F5
100
AcDbEntity
  8
RACCORDO
100
AcDbPolyline
 62
250
  6
CONTINUOUS
 90
104
 70
0
 10
19.9614863606
 20
21.5861800319
 10
19.9713026556
 20
21.5783105232
 10
20.0134589152
 20
21.5433622687
 10
20.0553688796
 20
21.5074594647
 10
20.0970141904
 20
21.4706178383
 10
20.1383766008
 20
21.4328535314
 10
20.1794379834
 20
21.3941830942
 10
20.2201803444
 20
21.3546234726
 10
20.260585832
 20
21.3141920001
 10
20.300636739
 20
21.272906395
 10
20.34031551
 20
21.2307847541
 10
20.3796047529
 20
21.1878455408
 10
20.4184872564
 20
21.1441075661
 10
20.4569459922
 20
21.0995899844
 10
20.4949641158
 20
21.0543122929
 10
20.532524959
 20
21.0082943416
 10
20.5696120478
 20
20.9615563139
 10
20.60620912
 20
20.9141187052
 10
20.6423001504
 20
20.8660022892
 10
20.6778693424
 20
20.8172281257
 10
20.7129011221
 20
20.7678175683
 10
20.7473801247
 20
20.7177922865
 10
20.7812912201
 20
20.6671742325
 10
20.8146195343
 20
20.6159856106
 10
20.8473504786
 20
20.5642488298
 10
20.8794697336
 20
20.5119865245
 10
20.9109632394
 20
20.4592215689
 10
20.9418171787
 20
20.4059771101
 10
20.9720180071
 20
20.3522765216
 10
21.0015524756
 20
20.298143365
 10
21.0304076596
 20
20.2436013329
 10
21.0585709387
 20
20.1886742802
 10
21.0860299863
 20
20.1333862439
 10
21.1127727528
 20
20.077761482
 10
21.1387874962
 20
20.0218244173
 10
21.1640628034
 20
19.9655995949
 10
21.188587615
 20
19.9091116202
 10
21.2123512058
 20
19.852385197
 10
21.2353431746
 20
19.7954451495
 10
21.2575534313
 20
19.7383164612
 10
21.2789722242
 20
19.6810242153
 10
21.2995901572
 20
19.6235935499
 10
21.3193982088
 20
19.5660495989
 10
21.3383877156
 20
19.5084175307
 10
21.3565503647
 20
19.450722569
 10
21.3738781859
 20
19.3929900263
 10
21.3903635729
 20
19.3352452453
 10
21.4059992953
 20
19.2775135577
 10
21.4207785106
 20
19.2198202337
 10
21.4346947529
 20
19.1621905146
 10
21.4477419285
 20
19.1046496295
 10
21.4599143132
 20
19.0472228174
 10
21.4712065659
 20
18.9899352768
 10
21.4816137353
 20
18.9328121313
 10
21.4911312661
 20
18.8758783919
 10
21.4997549921
 20
18.8191589795
 10
21.5074811359
 20
18.7626787332
 10
21.514306309
 20
18.7064624186
 10
21.5202275179
 20
18.6505346896
 10
21.5252421675
 20
18.5949200638
 10
21.5293480621
 20
18.5396429012
 10
21.5325434033
 20
18.4847274121
 10
21.5348267909
 20
18.4301976555
 10
21.5361972239
 20
18.3760775318
 10
21.5366541014
 20
18.3223907603
 10
21.5361972234
 20
18.2691608665
 10
21.5348267899
 20
18.2164111758
 10
21.5325434018
 20
18.1641648071
 10
21.5293480601
 20
18.1124446596
 10
21.5252421651
 20
18.0612733919
 10
21.520227515
 20
18.0106734162
 10
21.5143063056
 20
17.9606668963
 10
21.5074811321
 20
17.911275755
 10
21.4997549877
 20
17.862521653
 10
21.4911312612
 20
17.814425967
 10
21.4816137301
 20
17.7670097586
 10
21.4712065601
 20
17.720293783
 10
21.459914307
 20
17.6742984955
 10
21.4477419218
 20
17.6290440687
 10
21.4346947457
 20
17.5845503596
 10
21.420778503
 20
17.5408368831
 10
21.4059992872
 20
17.4979227748
 10
21.3903635643
 20
17.45582681
 10
21.3738781769
 20
17.4145674166
 10
21.3565503553
 20
17.3741626957
 10
21.3383877058
 20
17.3346303837
 10
21.3193981986
 20
17.2959878227
 10
21.2995901464
 20
17.2582519236
 10
21.2789722129
 20
17.2214391916
 10
21.2575534197
 20
17.1855657393
 10
21.2353431627
 20
17.1506473085
 10
21.2123511936
 20
17.1166992304
 10
21.1885876023
 20
17.0837363984
 10
21.1640627901
 20
17.0517732357
 10
21.1387874823
 20
17.0208237209
 10
21.1127727387
 20
16.9909014004
 10
21.0860299721
 20
16.9620194058
 10
21.0585709243
 20
16.9341904179
 10
21.0304076446
 20
16.9074266448
 10
21.00155246
 20
16.881739797
 10
20.9720179909
 20
16.8571411093
 10
20.9418171624
 20
16.8336413501
 10
20.9109632231
 20
16.8112508315
 10
20.8766631475
 20
16.7881581594
  0
LWPOLYLINE
  5
4F6
100
AcDbEntity
  8
0
100
AcDbPolyline
 62
250
  6
CONTINUOUS
 90
104
 70
0
 10
19.9614863606
 20
21.5861800319
 10
19.9713026556
 20
21.5783105232
 10
20.0134589152
 20
21.5433622687
 10
20.0553688796
 20
21.5074594647
 10
20.0970141904
 20
21.4706178383
 10
20.1383766008
 20
21.4328535314
 10
20.1794379834
 20
21.3941830942
 10
20.2201803444
 20
21.3546234726
 10
20.260585832
 20
21.3141920001
 10
20.300636739
 20
21.272906395
 10
20.34031551
 20
21.2307847541
 10
20.3796047529
 20
21.1878455408
 10
20.4184872564
 20
21.1441075661
 10
20.4569459922
 20
21.0995899844
 10
20.4949641158
 20
21.0543122929
 10
20.532524959
 20
21.0082943416
 10
20.5696120478
 20
20.9615563139
 10
20.60620912
 20
20.9141187052
 10
20.6423001504
 20
20.8660022892
 10
20.6778693424
 20
20.8172281257
 10
20.7129011221
 20
20.7678175683
 10
20.7473801247
 20
20.7177922865
 10
20.7812912201
 20
20.6671742325
 10
20.8146195343
 20
20.6159856106
 10
20.8473504786
 20
20.5642488298
 10
20.8794697336
 20
20.5119865245
 10
20.9109632394
 20
20.4592215689
 10
20.9418171787
 20
20.4059771101
 10
20.9720180071
 20
20.3522765216
 10
21.0015524756
 20
20.298143365
 10
21.0304076596
 20
20.2436013329
 10
21.0585709387
 20
20.1886742802
 10
21.0860299863
 20
20.1333862439
 10
21.1127727528
 20
20.077761482
 10
21.1387874962
 20
20.0218244173
 10
21.1640628034
 20
19.9655995949
 10
21.188587615
 20
19.9091116202
 10
21.2123512058
 20
19.852385197
 10
21.2353431746
 20
19.7954451495
 10
21.2575534313
 20
19.7383164612
 10
21.2789722242
 20
19.6810242153
 10
21.2995901572
 20
19.6235935499
 10
21.3193982088
 20
19.5660495989
 10
21.3383877156
 20
19.5084175307
 10
21.3565503647
 20
19.450722569
 10
21.3738781859
 20
19.3929900263
 10
21.3903635729
 20
19.3352452453
 10
21.4059992953
 20
19.2775135577
 10
21.4207785106
 20
19.2198202337
 10
21.4346947529
 20
19.1621905146
 10
21.4477419285
 20
19.1046496295
 10
21.4599143132
 20
19.0472228174
 10
21.4712065659
 20
18.9899352768
 10
21.4816137353
 20
18.9328121313
 10
21.4911312661
 20
18.8758783919
 10
21.4997549921
 20
18.8191589795
 10
21.5074811359
 20
18.7626787332
 10
21.514306309
 20
18.7064624186
 10
21.5202275179
 20
18.6505346896
 10
21.5252421675
 20
18.5949200638
 10
21.5293480621
 20
18.5396429012
 10
21.5325434033
 20
18.4847274121
 10
21.5348267909
 20
18.4301976555
 10
21.5361972239
 20
18.3760775318
 10
21.5366541014
 20
18.3223907603
 10
21.5361972234
 20
18.2691608665
 10
21.5348267899
 20
18.2164111758
 10
21.5325434018
 20
18.1641648071
 10
21.5293480601
 20
18.1124446596
 10
21.5252421651
 20
18.0612733919
 10
21.520227515
 20
18.0106734162
 10
21.5143063056
 20
17.9606668963
 10
21.5074811321
 20
17.911275755
 10
21.4997549877
 20
17.862521653
 10
21.4911312612
 20
17.814425967
 10
21.4816137301
 20
17.7670097586
 10
21.4712065601
 20
17.720293783
 10
21.459914307
 20
17.6742984955
 10
21.4477419218
 20
17.6290440687
 10
21.4346947457
 20
17.5845503596
 10
21.420778503
 20
17.5408368831
 10
21.4059992872
 20
17.4979227748
 10
21.3903635643
 20
17.45582681
 10
21.3738781769
 20
17.4145674166
 10
21.3565503553
 20
17.3741626957
 10
21.3383877058
 20
17.3346303837
 10
21.3193981986
 20
17.2959878227
 10
21.2995901464
 20
17.2582519236
 10
21.2789722129
 20
17.2214391916
 10
21.2575534197
 20
17.1855657393
 10
21.2353431627
 20
17.1506473085
 10
21.2123511936
 20
17.1166992304
 10
21.1885876023
 20
17.0837363984
 10
21.1640627901
 20
17.0517732357
 10
21.1387874823
 20
17.0208237209
 10
21.1127727387
 20
16.9909014004
 10
21.0860299721
 20
16.9620194058
 10
21.0585709243
 20
16.9341904179
 10
21.0304076446
 20
16.9074266448
 10
21.00155246
 20
16.881739797
 10
20.9720179909
 20
16.8571411093
 10
20.9418171624
 20
16.8336413501
 10
20.9109632231
 20
16.8112508315
 10
20.8766631475
 20
16.7881581594
  0
LINE
  5
4F7
100
AcDbEntity
  8
RACCORDO
100
AcDbLine
 62
250
  6
CONTINUOUS
 10
19.2666756853
 20
23.4602349373
 11
18.9237781093
 21
24.0516457729
  0
LINE
  5
4F8
100
AcDbEntity
  8
0
100
AcDbLine
 62
250
  6
CONTINUOUS
 10
19.2666756853
 20
23.4602349373
 11
18.9237781093
 21
24.0516457729
  0
LINE
  5
4F9
100
AcDbEntity
  8
RACCORDO
100
AcDbLine
 62
7
  6
CONTINUOUS
 10
19.619518934
 20
23.5933332948
 11
19.3564719977
 21
24.0470221491
  0
LINE
  5
4FA
100
AcDbEntity
  8
0
100
AcDbLine
 62
7
  6
CONTINUOUS
 10
19.619518934
 20
23.5933332948
 11
19.3564719977
 21
24.0470221491
  0
LWPOLYLINE
  5
4FB
100
AcDbEntity
  8
RACCORDO
100
AcDbPolyline
 62
250
  6
CONTINUOUS
 90
25
 70
0
 10
12.8249033472
 20
27.3407851271
 10
12.8096556456
 20
27.3475909512
 10
12.7940925726
 20
27.3537248829
 10
12.7782256852
 20
27.3591823672
 10
12.7620667664
 20
27.3639593513
 10
12.745627816
 20
27.3680522877
 10
12.7289210414
 20
27.3714581372
 10
12.7119588493
 20
27.3741743703
 10
12.6947538359
 20
27.3761989702
 10
12.6773187777
 20
27.3775304332
 10
12.6596666222
 20
27.3781677706
 10
12.6418104778
 20
27.3781105092
 10
12.6237636046
 20
27.3773586915
 10
12.6055394045
 20
27.3759128757
 10
12.5871514107
 20
27.3737741356
 10
12.5686132782
 20
27.3709440593
 10
12.5499387737
 20
27.3674247485
 10
12.5311417649
 20
27.3632188167
 10
12.5122362105
 20
27.3583293873
 10
12.4932361499
 20
27.352760091
 10
12.4741556927
 20
27.3465150638
 10
12.4550090081
 20
27.3395989432
 10
12.4358103146
 20
27.3320168651
 10
12.4165738692
 20
27.3237744601
 10
12.397313957
 20
27.314877849
  0
LWPOLYLINE
  5
4FC
100
AcDbEntity
  8
0
100
AcDbPolyline
 62
250
  6
CONTINUOUS
 90
26
 70
0
 10
12.8321868375
 20
27.3372411786
 10
12.8249033472
 20
27.3407851271
 10
12.8096556456
 20
27.3475909512
 10
12.7940925726
 20
27.3537248829
 10
12.7782256852
 20
27.3591823672
 10
12.7620667664
 20
27.3639593513
 10
12.745627816
 20
27.3680522877
 10
12.7289210414
 20
27.3714581372
 10
12.7119588493
 20
27.3741743703
 10
12.6947538359
 20
27.3761989702
 10
12.6773187777
 20
27.3775304332
 10
12.6596666222
 20
27.3781677706
 10
12.6418104778
 20
27.3781105092
 10
12.6237636046
 20
27.3773586915
 10
12.6055394045
 20
27.3759128757
 10
12.5871514107
 20
27.3737741356
 10
12.5686132782
 20
27.3709440593
 10
12.5499387737
 20
27.3674247485
 10
12.5311417649
 20
27.3632188167
 10
12.5122362105
 20
27.3583293873
 10
12.4932361499
 20
27.352760091
 10
12.4741556927
 20
27.3465150638
 10
12.4550090081
 20
27.3395989432
 10
12.4358103146
 20
27.3320168651
 10
12.4165738692
 20
27.3237744601
 10
12.397313957
 20
27.314877849
  0
LINE
  5
4FD
100
AcDbEntity
  8
0
100
AcDbLine
 62
250
  6
CONTINUOUS
 10
18.9237781093
 20
24.0516457729
 11
18.0985316416
 21
24.4642690067
  0
LWPOLYLINE
  5
4FE
100
AcDbEntity
  8
RACCORDO
100
AcDbPolyline
 62
250
  6
CONTINUOUS
 90
25
 70
0
 10
13.4380804588
 20
26.7944945981
 10
12.3781720247
 20
27.3244480902
 10
12.3590352551
 20
27.3333490904
 10
12.3399181749
 20
27.341574093
 10
12.3208352956
 20
27.3491168544
 10
12.3018011028
 20
27.355971649
 10
12.2828300453
 20
27.3621332734
 10
12.2639365239
 20
27.3675970503
 10
12.2451348804
 20
27.3723588323
 10
12.226439387
 20
27.3764150047
 10
12.2078642353
 20
27.3797624885
 10
12.1894235255
 20
27.3823987427
 10
12.1711312559
 20
27.384321766
 10
12.1530013119
 20
27.3855300988
 10
12.1350474558
 20
27.3860228239
 10
12.1172833163
 20
27.3857995671
 10
12.0997223779
 20
27.384860498
 10
12.082377971
 20
27.3832063293
 10
12.0652632616
 20
27.3808383169
 10
12.0483912414
 20
27.3777582581
 10
12.0317747177
 20
27.3739684911
 10
12.0154263039
 20
27.3694718927
 10
11.9993584101
 20
27.3642718761
 10
11.9835832333
 20
27.3583723886
 10
11.9695714117
 20
27.3523996814
  0
LWPOLYLINE
  5
4FF
100
AcDbEntity
  8
0
100
AcDbPolyline
 62
250
  6
CONTINUOUS
 90
25
 70
0
 10
13.4380804588
 20
26.7944945981
 10
12.3781720247
 20
27.3244480902
 10
12.3590352551
 20
27.3333490904
 10
12.3399181749
 20
27.341574093
 10
12.3208352956
 20
27.3491168544
 10
12.3018011028
 20
27.355971649
 10
12.2828300453
 20
27.3621332734
 10
12.2639365239
 20
27.3675970503
 10
12.2451348804
 20
27.3723588323
 10
12.226439387
 20
27.3764150047
 10
12.2078642353
 20
27.3797624885
 10
12.1894235255
 20
27.3823987427
 10
12.1711312559
 20
27.384321766
 10
12.1530013119
 20
27.3855300988
 10
12.1350474558
 20
27.3860228239
 10
12.1172833163
 20
27.3857995671
 10
12.0997223779
 20
27.384860498
 10
12.082377971
 20
27.3832063293
 10
12.0652632616
 20
27.3808383169
 10
12.0483912414
 20
27.3777582581
 10
12.0317747177
 20
27.3739684911
 10
12.0154263039
 20
27.3694718927
 10
11.9993584101
 20
27.3642718761
 10
11.9835832333
 20
27.3583723886
 10
11.9695714117
 20
27.3523996814
  0
LINE
  5
500
100
AcDbEntity
  8
RACCORDO
100
AcDbLine
 62
7
  6
CONTINUOUS
 10
19.2925701823
 20
24.1070495063
 11
18.4450225741
 21
24.5308233104
  0
LINE
  5
501
100
AcDbEntity
  8
0
100
AcDbLine
 62
7
  6
CONTINUOUS
 10
19.2925701823
 20
24.1070495063
 11
18.4450225741
 21
24.5308233104
  0
LINE
  5
502
100
AcDbEntity
  8
RACCORDO
100
AcDbLine
 62
7
  6
CONTINUOUS
 10
13.9613352874
 20
26.7726669537
 11
12.8321868375
 21
27.3372411786
  0
LINE
  5
503
100
AcDbEntity
  8
0
100
AcDbLine
 62
7
  6
CONTINUOUS
 10
13.9613352874
 20
26.7726669537
 11
12.8321868375
 21
27.3372411786
  0
LWPOLYLINE
  5
504
100
AcDbEntity
  8
RACCORDO
100
AcDbPolyline
 62
7
  6
CONTINUOUS
 90
12
 70
0
 10
19.2926894319
 20
24.1069898808
 10
19.2986103985
 20
24.1038747967
 10
19.3057763767
 20
24.0996623775
 10
19.3126341462
 20
24.0951217488
 10
19.319179989
 20
24.090257457
 10
19.3254170238
 20
24.0850707746
 10
19.3313416478
 20
24.0795665541
 10
19.3369505077
 20
24.0737497115
 10
19.3422472593
 20
24.0676217498
 10
19.347228686
 20
24.0611878589
 10
19.3518917977
 20
24.0544532911
 10
19.3564684977
 20
24.0470284062
  0
LWPOLYLINE
  5
505
100
AcDbEntity
  8
0
100
AcDbPolyline
 62
7
  6
CONTINUOUS
 90
12
 70
0
 10
19.2926894319
 20
24.1069898808
 10
19.2986103985
 20
24.1038747967
 10
19.3057763767
 20
24.0996623775
 10
19.3126341462
 20
24.0951217488
 10
19.319179989
 20
24.090257457
 10
19.3254170238
 20
24.0850707746
 10
19.3313416478
 20
24.0795665541
 10
19.3369505077
 20
24.0737497115
 10
19.3422472593
 20
24.0676217498
 10
19.347228686
 20
24.0611878589
 10
19.3518917977
 20
24.0544532911
 10
19.3564684977
 20
24.0470284062
  0
ELLIPSE
  5
506
100
AcDbEntity
  8
RACCORDO
100
AcDbEllipse
 62
7
  6
CONTINUOUS
 10
-0.1379663805
 20
-21.6492496617
 30
0.0
 11
-0.1999840611
 21
0.4586318226
 31
0.0
 40
0.6372798266
 41
-3.1718451134
 42
-2.2231487507
  0
ELLIPSE
  5
507
100
AcDbEntity
  8
RACCORDO
100
AcDbEllipse
 62
7
  6
CONTINUOUS
 10
1.4607280667
 20
16.5108262918
 30
0.0
 11
-0.1996736685
 21
0.4584064956
 31
0.0
 40
0.6381227599
 41
-2.2220345828
 42
-0.6519234887
  0
ELLIPSE
  5
508
100
AcDbEntity
  8
RACCORDO
100
AcDbEllipse
 62
7
  6
CONTINUOUS
 10
-13.3882719473
 20
23.9353262988
 30
0.0
 11
-0.1999840611
 21
0.4586318226
 31
0.0
 40
0.6372798266
 41
-0.6516671913
 42
0.029873806
  0
ELLIPSE
  5
509
100
AcDbEntity
  8
0
100
AcDbEllipse
 62
7
  6
CONTINUOUS
 10
13.7804935049
 20
25.7450538562
 30
0.0
 11
0.4410298232
 21
0.8975092442
 31
0.0
 40
0.607010042
 41
-0.8902711325
 42
-0.7587130969
  0
ELLIPSE
  5
50A
100
AcDbEntity
  8
DRAFT
100
AcDbEllipse
 62
7
  6
CONTINUOUS
 10
12.8921828714
 20
22.590891821
 30
0.0
 11
2.7583876426
 21
-0.0130411979
 31
0.0
 40
0.4964289597
 41
0.8884696282
 42
2.3585415194
  0
ELLIPSE
  5
50B
100
AcDbEntity
  8
DRAFT
100
AcDbEllipse
 62
7
  6
CONTINUOUS
 10
12.8921828714
 20
22.590891821
 30
0.0
 11
2.7583876426
 21
-0.0130411979
 31
0.0
 40
0.4964289597
 41
0.4412294433
 42
0.6870207571
  0
ELLIPSE
  5
50C
100
AcDbEntity
  8
0
100
AcDbEllipse
 62
7
  6
CONTINUOUS
 10
17.6778815755
 20
23.7963598209
 30
0.0
 11
0.79574694
 21
0.7129684349
 31
0.0
 40
0.2882345029
 41
0.1136090155
 42
0.7807533904
  0
ELLIPSE
  5
50D
100
AcDbEntity
  8
DRAFT
100
AcDbEllipse
 62
7
  6
CONTINUOUS
 10
12.2204314293
 20
22.6928152708
 30
0.0
 11
2.7499924258
 21
-0.0130015067
 31
0.0
 40
0.4964289597
 41
2.3672681657
 42
2.9293761949
  0
ELLIPSE
  5
50E
100
AcDbEntity
  8
0
100
AcDbEllipse
 62
7
  6
CONTINUOUS
 10
13.834049095
 20
25.7182760612
 30
0.0
 11
-0.3106730325
 21
1.1082908718
 31
0.0
 40
0.6760995073
 41
4.9783291412
 42
6.4001141399
  0
ELLIPSE
  5
50F
100
AcDbEntity
  8
0
100
AcDbEllipse
 62
7
  6
CONTINUOUS
 10
12.1968983411
 20
23.9200275064
 30
0.0
 11
3.3022643479
 21
-0.04629945
 31
0.0
 40
0.4892378494
 41
2.3616770883
 42
5.5059722822
  0
ELLIPSE
  5
510
100
AcDbEntity
  8
DRAFT
100
AcDbEllipse
 62
7
  6
CONTINUOUS
 10
12.8921828714
 20
24.5713799336
 30
0.0
 11
2.7583515655
 21
-1.4175703156
 31
0.0
 40
0.0109499087
 41
-0.8804952881
 42
-0.85781018
  0
ELLIPSE
  5
511
100
AcDbEntity
  8
DRAFT
100
AcDbEllipse
 62
7
  6
CONTINUOUS
 10
12.8921828714
 20
24.5713799336
 30
0.0
 11
2.7583515655
 21
-1.4175703156
 31
0.0
 40
0.0109499087
 41
-0.7017315251
 42
-0.679046417
  0
ELLIPSE
  5
512
100
AcDbEntity
  8
RACCORDO
100
AcDbEllipse
 62
7
  6
CONTINUOUS
 10
3.6642239526
 20
15.3067009728
 30
0.0
 11
-0.894612936
 21
1.7887945813
 31
0.0
 40
0.6124635976
 41
4.1145380117
 42
4.2145400133
  0
ELLIPSE
  5
513
100
AcDbEntity
  8
RACCORDO
100
AcDbEllipse
 62
7
  6
CONTINUOUS
 10
3.6642239526
 20
15.3067009728
 30
0.0
 11
-0.894612936
 21
1.7887945813
 31
0.0
 40
0.6124635976
 41
-1.6019535362
 42
-1.470288718
  0
ELLIPSE
  5
514
100
AcDbEntity
  8
RACCORDO
100
AcDbEllipse
 62
7
  6
CONTINUOUS
 10
3.6642239526
 20
-15.3011425247
 30
0.0
 11
-0.894811907
 21
1.788971565
 31
0.0
 40
0.6123121697
 41
-3.0410143285
 42
-2.9093495103
  0
ELLIPSE
  5
515
100
AcDbEntity
  8
RACCORDO
100
AcDbEllipse
 62
7
  6
CONTINUOUS
 10
3.6642239526
 20
-15.3011425247
 30
0.0
 11
-0.894811907
 21
1.788971565
 31
0.0
 40
0.6123121697
 41
-2.4426577527
 42
-2.3910229063
  0
ELLIPSE
  5
516
100
AcDbEntity
  8
DRAFT
100
AcDbEllipse
 62
7
  6
CONTINUOUS
 10
12.8921828714
 20
23.0239045229
 30
0.0
 11
2.7583876426
 21
-0.0130411979
 31
0.0
 40
0.4964289597
 41
0.1877225706
 42
2.3585415194
  0
ELLIPSE
  5
517
100
AcDbEntity
  8
ASSI
100
AcDbEllipse
 62
7
  6
CONTINUOUS
 10
4.0055963167
 20
-19.8257875924
 30
0.0
 11
-0.2237009107
 21
0.4473351135
 31
0.0
 40
0.6121897086
 41
-3.1230684064
 42
-2.2557347926
  0
ELLIPSE
  5
518
100
AcDbEntity
  8
ASSI
100
AcDbEllipse
 62
7
  6
CONTINUOUS
 10
4.0055963167
 20
18.0757601141
 30
0.0
 11
-0.2235807756
 21
0.4472283268
 31
0.0
 40
0.6125552124
 41
-2.255296188
 42
-0.6848044477
  0
ELLIPSE
  5
519
100
AcDbEntity
  8
ASSI
100
AcDbEllipse
 62
7
  6
CONTINUOUS
 10
0.5792410047
 20
18.3140359227
 30
0.0
 11
0.2497264901
 21
-0.0900037588
 31
0.0
 40
0.1298948903
 41
-2.3094133153
 42
-0.756070281
  0
ELLIPSE
  5
51A
100
AcDbEntity
  8
ASSI
100
AcDbEllipse
 62
7
  6
CONTINUOUS
 10
0.3856767186
 20
18.4108180658
 30
0.0
 11
0.2497264901
 21
-0.0900037588
 31
0.0
 40
0.1298948903
 41
-3.0936186356
 42
-2.3094133153
  0
ELLIPSE
  5
51B
100
AcDbEntity
  8
ASSI
100
AcDbEllipse
 62
7
  6
CONTINUOUS
 10
-12.0072597004
 20
24.6072862753
 30
0.0
 11
0.2497264901
 21
-0.0900037588
 31
0.0
 40
0.1298948903
 41
-2.3094133153
 42
-0.756070281
  0
ELLIPSE
  5
51C
100
AcDbEntity
  8
ASSI
100
AcDbEllipse
 62
7
  6
CONTINUOUS
 10
-12.2008239865
 20
24.7040684183
 30
0.0
 11
0.2497264901
 21
-0.0900037588
 31
0.0
 40
0.1298948903
 41
-3.0936186356
 42
-2.3094133153
  0
ELLIPSE
  5
51D
100
AcDbEntity
  8
ASSI
100
AcDbEllipse
 62
7
  6
CONTINUOUS
 10
9.256235762
 20
21.9372642449
 30
0.0
 11
0.4349639225
 21
0.9005141702
 31
0.0
 40
0.6016116119
 41
-0.8943064336
 42
-0.6381625531
  0
ELLIPSE
  5
51E
100
AcDbEntity
  8
ASSI
100
AcDbEllipse
 62
7
  6
CONTINUOUS
 10
9.256235762
 20
-14.7957955448
 30
0.0
 11
0.4349639225
 21
0.9005141702
 31
0.0
 40
0.6016116119
 41
-1.150450314
 42
-0.9391738336
  0
ELLIPSE
  5
51F
100
AcDbEntity
  8
ASSI
100
AcDbEllipse
 62
7
  6
CONTINUOUS
 10
9.4318850136
 20
-14.8836201706
 30
0.0
 11
0.9927147821
 21
0.620457446
 31
0.0
 40
0.0764819879
 41
-2.3927159682
 42
-1.0955168143
  0
ELLIPSE
  5
520
100
AcDbEntity
  8
ASSI
100
AcDbEllipse
 62
7
  6
CONTINUOUS
 10
-2.315138294
 20
27.7229512729
 30
0.0
 11
1.004787277
 21
0.6140102217
 31
0.0
 40
0.0864918533
 41
0.0543763766
 42
0.7212730538
  0
ELLIPSE
  5
521
100
AcDbEntity
  8
ASSI
100
AcDbEllipse
 62
7
  6
CONTINUOUS
 10
-4.3045204839
 20
23.7961518074
 30
0.0
 11
-0.1172693628
 21
0.2208586762
 31
0.0
 40
0.5994421146
 41
-2.2699607138
 42
-0.6994689735
  0
ELLIPSE
  5
522
100
AcDbEntity
  8
ASSI
100
AcDbEllipse
 62
7
  6
CONTINUOUS
 10
4.8430237306
 20
74.6815600517
 30
0.0
 11
3.5378457856
 21
99.5794032239
 31
0.0
 40
0.0069684374
 41
4.1704972465
 42
4.1714623644
  0
ELLIPSE
  5
523
100
AcDbEntity
  8
ASSI
100
AcDbEllipse
 62
7
  6
CONTINUOUS
 10
-2.79617162
 20
23.0419773755
 30
0.0
 11
-0.1174113663
 21
0.2209958577
 31
0.0
 40
0.5985429242
 41
-0.6989839728
 42
-0.0337839605
  0
ELLIPSE
  5
524
100
AcDbEntity
  8
ASSI
100
AcDbEllipse
 62
7
  6
CONTINUOUS
 10
2.6521892906
 20
23.4476701669
 30
0.0
 11
1.000203771
 21
-0.0143477891
 31
0.0
 40
0.4891226537
 41
-0.7775824994
 42
-0.0140546088
  0
ELLIPSE
  5
525
100
AcDbEntity
  8
0
100
AcDbEllipse
 62
7
  6
CONTINUOUS
 10
-0.1186303806
 20
17.724273196
 30
0.0
 11
-0.0888806443
 21
0.1794588445
 31
0.0
 40
0.6133070172
 41
-2.0943865177
 42
-0.6816034901
  0
ELLIPSE
  5
526
100
AcDbEntity
  8
ASSI
100
AcDbEllipse
 62
7
  6
CONTINUOUS
 10
-0.9671100398
 20
77.5866269369
 30
0.0
 11
0.7093717925
 21
100.9935570733
 31
0.0
 40
0.0069790045
 41
-2.1156864167
 42
-2.111971229
  0
ELLIPSE
  5
527
100
AcDbEntity
  8
ASSI
100
AcDbEllipse
 62
7
  6
CONTINUOUS
 10
-0.9671100398
 20
24.7486772881
 30
0.0
 11
1.0
 21
0.0
 31
0.0
 40
0.5003427338
 41
0.7857407797
 42
1.3334966153
  0
ELLIPSE
  5
528
100
AcDbEntity
  8
ASSI
100
AcDbEllipse
 62
7
  6
CONTINUOUS
 10
-0.9671100398
 20
25.2573198321
 30
0.0
 11
0.9999753489
 21
-0.014348771
 31
0.0
 40
0.4893460778
 41
1.5857281126
 42
2.3628734463
  0
ELLIPSE
  5
529
100
AcDbEntity
  8
ASSI
100
AcDbEllipse
 62
7
  6
CONTINUOUS
 10
2.6308943096
 20
22.9496751135
 30
0.0
 11
1.0006854676
 21
-0.0
 31
0.0
 40
0.499657501
 41
0.4959893425
 42
0.7850555471
  0
ELLIPSE
  5
52A
100
AcDbEntity
  8
ASSI
100
AcDbEllipse
 62
7
  6
CONTINUOUS
 10
0.1797159816
 20
18.7891721302
 30
0.0
 11
0.249929385
 21
0.0111824824
 31
0.0
 40
0.5313301283
 41
3.1180383302
 42
3.9032222197
  0
ELLIPSE
  5
52B
100
AcDbEntity
  8
ASSI
100
AcDbEllipse
 62
7
  6
CONTINUOUS
 10
2.199415304
 20
17.779322469
 30
0.0
 11
0.249929385
 21
0.0111824824
 31
0.0
 40
0.5313301283
 41
-2.3799630874
 42
-0.8266200532
  0
ELLIPSE
  5
52C
100
AcDbEntity
  8
ASSI
100
AcDbEllipse
 62
7
  6
CONTINUOUS
 10
-10.3870854011
 20
24.0725728215
 30
0.0
 11
0.249929385
 21
0.0111824824
 31
0.0
 40
0.5313301283
 41
-2.3799630874
 42
-0.8266200532
  0
ELLIPSE
  5
52D
100
AcDbEntity
  8
ASSI
100
AcDbEllipse
 62
7
  6
CONTINUOUS
 10
-12.4067847235
 20
25.0824224827
 30
0.0
 11
0.249929385
 21
0.0111824824
 31
0.0
 40
0.5313301283
 41
3.1180383322
 42
3.9032222197
  0
ELLIPSE
  5
52E
100
AcDbEntity
  8
ASSI
100
AcDbEllipse
 62
7
  6
CONTINUOUS
 10
2.199415304
 20
-21.4627155602
 30
0.0
 11
0.220014872
 21
0.1791173313
 31
0.0
 40
0.6627826692
 41
-2.8510033574
 42
-2.6599685648
  0
ELLIPSE
  5
52F
100
AcDbEntity
  8
ASSI
100
AcDbEllipse
 62
7
  6
CONTINUOUS
 10
0.5792410047
 20
-21.8597351917
 30
0.0
 11
0.220014872
 21
0.1791173313
 31
0.0
 40
0.6627826692
 41
-1.8038058062
 42
-1.2976603231
  0
ELLIPSE
  5
530
100
AcDbEntity
  8
ASSI
100
AcDbEllipse
 62
7
  6
CONTINUOUS
 10
-3.7211021656
 20
21.4544497907
 30
0.0
 11
0.199943508
 21
0.008945986
 31
0.0
 40
0.5313301283
 41
3.1180383302
 42
3.9032222197
  0
ELLIPSE
  5
531
100
AcDbEntity
  8
ASSI
100
AcDbEllipse
 62
7
  6
CONTINUOUS
 10
-1.4304537684
 20
20.3091255921
 30
0.0
 11
0.199943508
 21
0.008945986
 31
0.0
 40
0.5313301283
 41
-2.3799630874
 42
-0.8266200532
  0
ELLIPSE
  5
532
100
AcDbEntity
  8
ASSI
100
AcDbEllipse
 62
7
  6
CONTINUOUS
 10
-5.1427643697
 20
22.1652808928
 30
0.0
 11
0.199943508
 21
0.008945986
 31
0.0
 40
0.5313301283
 41
-2.3799630874
 42
-0.8266200532
  0
ELLIPSE
  5
533
100
AcDbEntity
  8
ASSI
100
AcDbEllipse
 62
7
  6
CONTINUOUS
 10
-7.4334127668
 20
23.3106050913
 30
0.0
 11
0.199943508
 21
0.008945986
 31
0.0
 40
0.5313301283
 41
3.1180383322
 42
3.9032222197
  0
ELLIPSE
  5
534
100
AcDbEntity
  8
ASSI
100
AcDbEllipse
 62
7
  6
CONTINUOUS
 10
-12.7832530652
 20
24.6489263961
 30
0.0
 11
-0.2236507175
 21
0.4481039483
 31
0.0
 40
0.6114248242
 41
-0.6832297371
 42
0.8861965936
  0
ELLIPSE
  5
535
100
AcDbEntity
  8
ASSI
100
AcDbEllipse
 62
7
  6
CONTINUOUS
 10
2.2223302551
 20
17.146134736
 30
0.0
 11
-0.2231080361
 21
0.4476242326
 31
0.0
 40
0.6130677323
 41
-2.2534169372
 42
-0.6839906064
  0
ELLIPSE
  5
536
100
AcDbEntity
  8
ASSI
100
AcDbEllipse
 62
7
  6
CONTINUOUS
 10
2.2223302551
 20
-20.6484300587
 30
0.0
 11
-0.2236507175
 21
0.4481039483
 31
0.0
 40
0.6114248242
 41
2.4583629164
 42
4.0277892472
  0
ELLIPSE
  5
537
100
AcDbEntity
  8
0
100
AcDbEllipse
 62
7
  6
CONTINUOUS
 10
-10.4422924295
 20
22.8861042205
 30
0.0
 11
-0.0892456481
 21
0.1797773143
 31
0.0
 40
0.6105754279
 41
5.6028239993
 42
7.0156070268
  0
ELLIPSE
  5
538
100
AcDbEntity
  8
ASSI
100
AcDbEllipse
 62
7
  6
CONTINUOUS
 10
15.0090190567
 20
29.3758553105
 30
0.0
 11
18.2927339069
 21
9.4748417608
 31
0.0
 40
0.0170707209
 41
-2.6536573066
 42
-2.3141694431
  0
ELLIPSE
  5
539
100
AcDbEntity
  8
ASSI
100
AcDbEllipse
 62
7
  6
CONTINUOUS
 10
15.0090190567
 20
29.3758553105
 30
0.0
 11
18.2927339069
 21
9.4748417608
 31
0.0
 40
0.0170707209
 41
2.2964861198
 42
2.6359739833
  0
ELLIPSE
  5
53A
100
AcDbEntity
  8
ASSI
100
AcDbEllipse
 62
7
  6
CONTINUOUS
 10
1.825041736
 20
25.9283866805
 30
0.0
 11
0.2002571891
 21
-0.0481060446
 31
0.0
 40
0.261363135
 41
-0.7257858084
 42
0.0669778862
  0
ELLIPSE
  5
53B
100
AcDbEntity
  8
RACCORDO
100
AcDbEllipse
 62
7
  6
CONTINUOUS
 10
0.3055367318
 20
-16.2078249669
 30
0.0
 11
-0.2685822327
 21
0.5369844567
 31
0.0
 40
0.6119614214
 41
-3.1700942144
 42
-2.2560086979
  0
ELLIPSE
  5
53C
100
AcDbEntity
  8
ASSI
100
AcDbEllipse
 62
7
  6
CONTINUOUS
 10
0.5792410047
 20
-21.2339021668
 30
0.0
 11
0.220014872
 21
0.1791173313
 31
0.0
 40
0.6627826692
 41
-2.8510033574
 42
-1.2976603231
  0
ELLIPSE
  5
53D
100
AcDbEntity
  8
ASSI
100
AcDbEllipse
 62
7
  6
CONTINUOUS
 10
9.4318850136
 20
21.8494396191
 30
0.0
 11
-0.7356038977
 21
1.2035991204
 31
0.0
 40
0.5552491559
 41
4.9268361304
 42
6.2240352843
  0
ELLIPSE
  5
53E
100
AcDbEntity
  8
0
100
AcDbEllipse
 62
7
  6
CONTINUOUS
 10
12.2204314293
 20
22.6928152708
 30
0.0
 11
2.7499924258
 21
-0.0130015067
 31
0.0
 40
0.4964289597
 41
2.3672681657
 42
2.9293761949
  0
ELLIPSE
  5
53F
100
AcDbEntity
  8
0
100
AcDbEllipse
 62
7
  6
CONTINUOUS
 10
12.8921828714
 20
22.590891821
 30
0.0
 11
2.7583876426
 21
-0.0130411979
 31
0.0
 40
0.4964289597
 41
0.8884696282
 42
2.3585415194
  0
ELLIPSE
  5
540
100
AcDbEntity
  8
0
100
AcDbEllipse
 62
7
  6
CONTINUOUS
 10
12.8921828714
 20
22.590891821
 30
0.0
 11
2.7583876426
 21
-0.0130411979
 31
0.0
 40
0.4964289597
 41
0.4412294433
 42
0.6870207571
  0
ELLIPSE
  5
541
100
AcDbEntity
  8
0
100
AcDbEllipse
 62
7
  6
CONTINUOUS
 10
12.8921828714
 20
23.0239045229
 30
0.0
 11
2.7583876426
 21
-0.0130411979
 31
0.0
 40
0.4964289597
 41
0.1877225706
 42
2.3585415194
  0
ELLIPSE
  5
542
100
AcDbEntity
  8
0
100
AcDbEllipse
 62
7
  6
CONTINUOUS
 10
3.6642239526
 20
15.3067009728
 30
0.0
 11
-0.894612936
 21
1.7887945813
 31
0.0
 40
0.6124635976
 41
4.1145380117
 42
4.2145400133
  0
ELLIPSE
  5
543
100
AcDbEntity
  8
0
100
AcDbEllipse
 62
7
  6
CONTINUOUS
 10
3.6642239526
 20
15.3067009728
 30
0.0
 11
-0.894612936
 21
1.7887945813
 31
0.0
 40
0.6124635976
 41
-1.6019535362
 42
-1.470288718
  0
ELLIPSE
  5
544
100
AcDbEntity
  8
0
100
AcDbEllipse
 62
7
  6
CONTINUOUS
 10
3.6642239526
 20
-15.3011425247
 30
0.0
 11
-0.894811907
 21
1.788971565
 31
0.0
 40
0.6123121697
 41
-3.0410143285
 42
-2.9093495103
  0
ELLIPSE
  5
545
100
AcDbEntity
  8
0
100
AcDbEllipse
 62
7
  6
CONTINUOUS
 10
3.6642239526
 20
-15.3011425247
 30
0.0
 11
-0.894811907
 21
1.788971565
 31
0.0
 40
0.6123121697
 41
-2.4426577527
 42
-2.3910229063
  0
ELLIPSE
  5
546
100
AcDbEntity
  8
0
100
AcDbEllipse
 62
7
  6
CONTINUOUS
 10
12.8921828714
 20
24.5713799336
 30
0.0
 11
2.7583515655
 21
-1.4175703156
 31
0.0
 40
0.0109499087
 41
-0.8804952881
 42
-0.85781018
  0
ELLIPSE
  5
547
100
AcDbEntity
  8
0
100
AcDbEllipse
 62
7
  6
CONTINUOUS
 10
12.8921828714
 20
24.5713799336
 30
0.0
 11
2.7583515655
 21
-1.4175703156
 31
0.0
 40
0.0109499087
 41
-0.7017315251
 42
-0.679046417
  0
ENDSEC
  0
SECTION
  2
OBJECTS
  0
DICTIONARY
  5
C
100
AcDbDictionary
280
0
281
1
  3
ACAD_GROUP
350
D
  3
ACAD_MLINESTYLE
350
17
  3
ACAD_LAYOUT
350
1A
  3
ACAD_PLOTSETTINGS
350
19
  3
ACAD_PLOTSTYLENAME
350
E
  0
DICTIONARY
  5
D
102
{ACAD_REACTORS
330
C
102
}
100
AcDbDictionary
280
0
281
1
  0
ACDBDICTIONARYWDFLT
  5
E
102
{ACAD_REACTORS
330
C
102
}
100
AcDbDictionary
281
1
  3
Normal
350
F
100
AcDbDictionaryWithDefault
340
F
  0
DICTIONARY
  5
17
102
{ACAD_REACTORS
330
C
102
}
100
AcDbDictionary
280
0
281
1
  3
Standard
350
18
  0
DICTIONARY
  5
19
102
{ACAD_REACTORS
330
C
102
}
100
AcDbDictionary
281
1
  0
DICTIONARY
  5
1A
102
{ACAD_REACTORS
330
C
102
}
100
AcDbDictionary
281
1
  3
Model
350
548
  3
Layout1
350
549
  0
ACDBPLACEHOLDER
  5
F
102
{ACAD_REACTORS
330
E
102
}
  0
MLINESTYLE
  5
18
102
{ACAD_REACTORS
330
17
102
}
100
AcDbMlineStyle
  2
STANDARD
 70
0
  3

 62
256
 51
90.0
 52
90.0
 71
2
 49
0.5
 62
256
  6
BYLAYER
 49
-0.5
 62
256
  6
BYLAYER
  0
LAYOUT
  5
548
102
{ACAD_REACTORS
330
1A
102
}
100
AcDbPlotSettings
  1

  2
none_device
  4
ISO_A4_(297.00_x_210.00_MM)
  6

 40
0.0
 41
0.0
 42
0.0
 43
0.0
 44
297.0
 45
210.0
 46
0.0
 47
0.0
 48
0.0
 49
0.0
140
0.0
141
0.0
142
1.0
143
1.0
 70
1024
 72
1
 73
0
 74
0
  7

 75
0
147
1.0
148
0.0
149
0.0
100
AcDbLayout
  1
Model
 70
0
 71
0
 10
0.0
 20
0.0
 11
297.0
 21
210.0
 12
0.0
 22
0.0
 32
0.0
 14
0.0
 24
0.0
 34
0.0
 15
0.0
 25
0.0
 35
0.0
146
0.0
 13
0.0
 23
0.0
 33
0.0
 16
1.0
 26
0.0
 36
0.0
 17
0.0
 27
1.0
 37
0.0
 76
0
330
223
345
0
346
0
  0
LAYOUT
  5
549
102
{ACAD_REACTORS
330
1A
102
}
100
AcDbPlotSettings
  1

  2
none_device
  4
ISO_A4_(297.00_x_210.00_MM)
  6

 40
0.0
 41
0.0
 42
0.0
 43
0.0
 44
297.0
 45
210.0
 46
0.0
 47
0.0
 48
0.0
 49
0.0
140
0.0
141
0.0
142
1.0
143
1.0
 70
0
 72
1
 73
0
 74
0
  7

 75
0
147
1.0
148
0.0
149
0.0
100
AcDbLayout
  1
Layout1
 70
0
 71
1
 10
0.0
 20
0.0
 11
297.0
 21
210.0
 12
0.0
 22
0.0
 32
0.0
 14
0.0
 24
0.0
 34
0.0
 15
0.0
 25
0.0
 35
0.0
146
0.0
 13
0.0
 23
0.0
 33
0.0
 16
1.0
 26
0.0
 36
0.0
 17
0.0
 27
1.0
 37
0.0
 76
0
330
224
345
0
346
0
  0
ENDSEC
  0
EOF
