  0
SECTION
  2
HEADER
  9
$ACADVER
  1
AC1024
  9
$DWGCODEPAGE
  3
ANSI_1252
  9
$EXTMAX
 10
297.0
 20
210.0
 30
0.0
  9
$EXTMIN
 10
0.0
 20
0.0
 30
0.0
  9
$LIMMIN
 10
0.0
 20
0.0
  9
$LIMMAX
 10
297.0
 20
210.0
  9
$VIEWCTR
 10
148.5
 20
105.0
  9
$VIEWSIZE
 40
210.0
  9
$CLAYER
  8
0
  9
$LTSCALE
 40
16.335
  9
$CELTYPE
  6
BYLAYER
  9
$DIMSCALE
 40
1.0
  9
$DIMASZ
 40
3.0
  9
$DIMEXO
 40
0.5
  9
$DIMDLI
 40
11.286
  9
$DIMEXE
 40
1.5
  9
$DIMCEN
 40
2.673
  9
$DIMLFAC
 40
1.0
  9
$DIMBLK
  1
_FILLED
  9
$DIMALT
 70
0
  9
$DIMALTF
 40
0.0393700787
  9
$DIMTXT
 40
3.0
  9
$DIMTOL
 70
1
  9
$DIMLIM
 70
0
  9
$DIMTFAC
 40
1.0
  9
$DIMTP
 40
0.01
  9
$DIMTM
 40
0.01
  9
$DIMGAP
 40
0.625
  9
$DIMDSEP
 70
44
  9
$AUNITS
 70
0
  9
$PDMODE
 70
3
  9
$PDSIZE
 40
3.0
  9
$HANDSEED
  5
537
  9
$TILEMODE
 70
1
  9
$MEASUREMENT
 70
1
  9
$INSUNITS
 70
4
  0
ENDSEC
  0
SECTION
  2
CLASSES
  0
CLASS
  1
ACDBDICTIONARYWDFLT
  2
AcDbDictionaryWithDefault
  3
AutoCAD 2000
 90
0
 91
1
280
0
281
0
  0
CLASS
  1
ACDBPLACEHOLDER
  2
AcDbPlaceHolder
  3
AutoCAD 2000
 90
0
 91
1
280
0
281
0
  0
CLASS
  1
LAYOUT
  2
AcDbLayout
  3
AutoCAD 2000
 90
0
 91
0
280
0
281
0
  0
ENDSEC
  0
SECTION
  2
TABLES
  0
TABLE
  2
VPORT
  5
8
100
AcDbSymbolTable
 70
2
  0
VPORT
  5
1F4
100
AcDbSymbolTableRecord
100
AcDbViewportTableRecord
  2
*ACTIVE
 70
0
 10
0.0
 20
0.0
 11
1.0
 21
1.0
 12
148.5
 22
105.0
 13
0.0
 23
0.0
 14
1.0
 24
1.0
 15
0.0
 25
0.0
 16
0.0
 26
0.0
 36
1.0
 17
0.0
 27
0.0
 37
0.0
 40
210.0
 41
1.4142857143
 42
50.0
 43
0.0
 44
0.0
 50
0.0
 51
0.0
 71
0
 72
100
 73
1
 74
1
 75
0
 76
0
 77
0
 78
0
  0
ENDTAB
  0
TABLE
  2
LTYPE
  5
5
100
AcDbSymbolTable
 70
6
  0
LTYPE
  5
14
100
AcDbSymbolTableRecord
100
AcDbLinetypeTableRecord
  2
BYBLOCK
 70
0
  3

 72
65
 73
0
 40
0.0
  0
LTYPE
  5
15
100
AcDbSymbolTableRecord
100
AcDbLinetypeTableRecord
  2
BYLAYER
 70
0
  3

 72
65
 73
0
 40
0.0
  0
LTYPE
  5
16
100
AcDbSymbolTableRecord
100
AcDbLinetypeTableRecord
  2
CONTINUOUS
 70
64
  3
Solid line
 72
65
 73
0
 40
0.0
  0
LTYPE
  5
1F5
100
AcDbSymbolTableRecord
100
AcDbLinetypeTableRecord
  2
CENTER
 70
64
  3
____ _ ____ _ ____ _ ____ _ ____ _ ____ _ ____
 72
65
 73
4
 40
0.6
 49
0.375
 74
0
 49
-0.075
 74
0
 49
0.075
 74
0
 49
-0.075
 74
0
  0
LTYPE
  5
1F6
100
AcDbSymbolTableRecord
100
AcDbLinetypeTableRecord
  2
HIDDEN
 70
64
  3
- - - - - - - - - - - - - - - - - - - -
 72
65
 73
2
 40
0.2
 49
0.1
 74
0
 49
-0.1
 74
0
  0
LTYPE
  5
1F7
100
AcDbSymbolTableRecord
100
AcDbLinetypeTableRecord
  2
PHANTOM
 70
64
  3
_____ _ _ _____ _ _ _____ _ _ _____
 72
65
 73
6
 40
0.8
 49
0.45
 74
0
 49
-0.05
 74
0
 49
0.1
 74
0
 49
-0.05
 74
0
 49
0.1
 74
0
 49
-0.05
 74
0
  0
LTYPE
  5
1F8
100
AcDbSymbolTableRecord
100
AcDbLinetypeTableRecord
  2
DOT
 70
64
  3
. . . . . . . . . . . . . . . . . . . .
 72
65
 73
2
 40
0.2
 49
0.1
 74
0
 49
-0.1
 74
0
  0
LTYPE
  5
1F9
100
AcDbSymbolTableRecord
100
AcDbLinetypeTableRecord
  2
DASHED
 70
64
  3
- - - - - - - - - - - - - - - - - - - -
 72
65
 73
2
 40
0.2
 49
0.1
 74
0
 49
-0.1
 74
0
  0
ENDTAB
  0
TABLE
  2
LAYER
  5
2
100
AcDbSymbolTable
 70
36
  0
LAYER
  5
10
100
AcDbSymbolTableRecord
100
AcDbLayerTableRecord
  2
0
 70
0
 62
7
  6
CONTINUOUS
370
-3
390
F
  0
LAYER
  5
1FA
100
AcDbSymbolTableRecord
100
AcDbLayerTableRecord
  2
DEFAULT_1
 70
0
 62
7
  6
CENTER
370
-3
390
F
  0
LAYER
  5
1FB
100
AcDbSymbolTableRecord
100
AcDbLayerTableRecord
  2
DEFAULT_2
 70
0
 62
7
  6
HIDDEN
370
-3
390
F
  0
LAYER
  5
1FC
100
AcDbSymbolTableRecord
100
AcDbLayerTableRecord
  2
DEFAULT_3
 70
0
 62
7
  6
PHANTOM
370
-3
390
F
  0
LAYER
  5
1FD
100
AcDbSymbolTableRecord
100
AcDbLayerTableRecord
  2
ASSI
 70
0
 62
7
  6
CONTINUOUS
370
-3
390
F
  0
LAYER
  5
1FE
100
AcDbSymbolTableRecord
100
AcDbLayerTableRecord
  2
COLORE_TOP
 70
0
 62
7
  6
CONTINUOUS
370
-3
390
F
  0
LAYER
  5
1FF
100
AcDbSymbolTableRecord
100
AcDbLayerTableRecord
  2
COORDINATE
 70
0
 62
7
  6
CONTINUOUS
370
-3
390
F
  0
LAYER
  5
200
100
AcDbSymbolTableRecord
100
AcDbLayerTableRecord
  2
COORD_ORIGINE
 70
0
 62
7
  6
CONTINUOUS
370
-3
390
F
  0
LAYER
  5
201
100
AcDbSymbolTableRecord
100
AcDbLayerTableRecord
  2
COPY_PUBLISH
 70
0
 62
7
  6
CONTINUOUS
370
-3
390
F
  0
LAYER
  5
202
100
AcDbSymbolTableRecord
100
AcDbLayerTableRecord
  2
COSMETIC
 70
0
 62
7
  6
CONTINUOUS
370
-3
390
F
  0
LAYER
  5
203
100
AcDbSymbolTableRecord
100
AcDbLayerTableRecord
  2
COSMETICHE
 70
0
 62
7
  6
CONTINUOUS
370
-3
390
F
  0
LAYER
  5
204
100
AcDbSymbolTableRecord
100
AcDbLayerTableRecord
  2
CURVE
 70
0
 62
7
  6
CONTINUOUS
370
-3
390
F
  0
LAYER
  5
205
100
AcDbSymbolTableRecord
100
AcDbLayerTableRecord
  2
DRAFT
 70
0
 62
7
  6
CONTINUOUS
370
-3
390
F
  0
LAYER
  5
206
100
AcDbSymbolTableRecord
100
AcDbLayerTableRecord
  2
IMPORTED
 70
0
 62
7
  6
CONTINUOUS
370
-3
390
F
  0
LAYER
  5
207
100
AcDbSymbolTableRecord
100
AcDbLayerTableRecord
  2
IMPORT_IGES
 70
0
 62
7
  6
CONTINUOUS
370
-3
390
F
  0
LAYER
  5
208
100
AcDbSymbolTableRecord
100
AcDbLayerTableRecord
  2
INCISIONI_LASER
 70
0
 62
7
  6
CONTINUOUS
370
-3
390
F
  0
LAYER
  5
209
100
AcDbSymbolTableRecord
100
AcDbLayerTableRecord
  2
INTFCLR_11
 70
0
 62
7
  6
CONTINUOUS
370
-3
390
F
  0
LAYER
  5
20A
100
AcDbSymbolTableRecord
100
AcDbLayerTableRecord
  2
INTF_1
 70
0
 62
7
  6
CONTINUOUS
370
-3
390
F
  0
LAYER
  5
20B
100
AcDbSymbolTableRecord
100
AcDbLayerTableRecord
  2
INTF_3
 70
0
 62
7
  6
CONTINUOUS
370
-3
390
F
  0
LAYER
  5
20C
100
AcDbSymbolTableRecord
100
AcDbLayerTableRecord
  2
NOTE
 70
0
 62
7
  6
CONTINUOUS
370
-3
390
F
  0
LAYER
  5
20D
100
AcDbSymbolTableRecord
100
AcDbLayerTableRecord
  2
PIANI
 70
0
 62
7
  6
CONTINUOUS
370
-3
390
F
  0
LAYER
  5
20E
100
AcDbSymbolTableRecord
100
AcDbLayerTableRecord
  2
PIANI_ORIGINE
 70
0
 62
7
  6
CONTINUOUS
370
-3
390
F
  0
LAYER
  5
20F
100
AcDbSymbolTableRecord
100
AcDbLayerTableRecord
  2
PIANI_SFORMO
 70
0
 62
7
  6
CONTINUOUS
370
-3
390
F
  0
LAYER
  5
210
100
AcDbSymbolTableRecord
100
AcDbLayerTableRecord
  2
PUNTI
 70
0
 62
7
  6
CONTINUOUS
370
-3
390
F
  0
LAYER
  5
211
100
AcDbSymbolTableRecord
100
AcDbLayerTableRecord
  2
RACCORDO
 70
0
 62
7
  6
CONTINUOUS
370
-3
390
F
  0
LAYER
  5
212
100
AcDbSymbolTableRecord
100
AcDbLayerTableRecord
  2
SMUSSO
 70
0
 62
7
  6
CONTINUOUS
370
-3
390
F
  0
LAYER
  5
213
100
AcDbSymbolTableRecord
100
AcDbLayerTableRecord
  2
SNAPLINE
 70
0
 62
7
  6
CONTINUOUS
370
-3
390
F
  0
LAYER
  5
214
100
AcDbSymbolTableRecord
100
AcDbLayerTableRecord
  2
SUPERFICI
 70
0
 62
7
  6
CONTINUOUS
370
-3
390
F
  0
LAYER
  5
215
100
AcDbSymbolTableRecord
100
AcDbLayerTableRecord
  2
TRASH
 70
0
 62
7
  6
CONTINUOUS
370
-3
390
F
  0
LAYER
  5
216
100
AcDbSymbolTableRecord
100
AcDbLayerTableRecord
  2
XSEC_DATUMS
 70
0
 62
7
  6
CONTINUOUS
370
-3
390
F
  0
LAYER
  5
217
100
AcDbSymbolTableRecord
100
AcDbLayerTableRecord
  2
___SHELL
 70
0
 62
7
  6
CONTINUOUS
370
-3
390
F
  0
ENDTAB
  0
TABLE
  2
STYLE
  5
3
100
AcDbSymbolTable
 70
1
  0
STYLE
  5
11
100
AcDbSymbolTableRecord
100
AcDbTextStyleTableRecord
  2
STANDARD
 70
0
 40
0.0
 41
0.8
 50
0.0
 71
0
 42
0.2
  3
txt
  4

  0
STYLE
  5
218
100
AcDbSymbolTableRecord
100
AcDbTextStyleTableRecord
  2
TEXTSTYLE_1
 70
0
 40
0.0
 41
0.8
 50
0.0
 71
0
 42
0.2
  3
gdt
  4

  0
ENDTAB
  0
TABLE
  2
VIEW
  5
6
100
AcDbSymbolTable
 70
0
  0
ENDTAB
  0
TABLE
  2
UCS
  5
7
100
AcDbSymbolTable
 70
0
  0
ENDTAB
  0
TABLE
  2
APPID
  5
9
100
AcDbSymbolTable
 70
1
  0
APPID
  5
219
100
AcDbSymbolTableRecord
100
AcDbRegAppTableRecord
  2
ACAD
 70
0
  0
ENDTAB
  0
TABLE
  2
BLOCK_RECORD
  5
1
100
AcDbSymbolTable
 70
0
  0
BLOCK_RECORD
  5
21A
100
AcDbSymbolTableRecord
100
AcDbBlockTableRecord
  2
*Model_Space
  0
BLOCK_RECORD
  5
21B
100
AcDbSymbolTableRecord
100
AcDbBlockTableRecord
  2
*Paper_Space
  0
BLOCK_RECORD
  5
21C
100
AcDbSymbolTableRecord
100
AcDbBlockTableRecord
  2
_FILLED
  0
ENDTAB
  0
TABLE
  2
DIMSTYLE
  5
A
100
AcDbSymbolTable
 70
1
100
AcDbDimStyleTable
 71
0
  0
DIMSTYLE
105
21D
100
AcDbSymbolTableRecord
100
AcDbDimStyleTableRecord
  2
STANDARD
 70
0
  3

  4

 40
1.0
 41
3.0
 42
0.5
 43
0.38
 44
1.5
 45
0.0
 46
0.0
 47
0.01
 48
0.01
140
3.0
141
0.09
142
0.0
143
25.4
144
1.0
145
0.0
146
1.0
147
0.625
 71
1
 72
0
 73
0
 74
0
 75
0
 76
0
 77
1
 78
8
 79
2
170
0
171
1
172
0
173
0
174
0
175
0
176
0
177
0
178
0
270
2
179
2
271
2
272
2
273
2
274
2
275
0
280
0
281
0
282
0
283
1
284
8
285
0
286
0
287
3
288
0
340
11
278
44
341
21C
342
21C
343
21C
344
21C
  0
ENDTAB
  0
ENDSEC
  0
SECTION
  2
BLOCKS
  0
BLOCK
  5
20
100
AcDbEntity
  8
0
100
AcDbBlockBegin
  2
*Model_Space
 70
0
 10
0.0
 20
0.0
 30
0.0
  3
*Model_Space
  1

  0
ENDBLK
  5
21
100
AcDbEntity
  8
0
100
AcDbBlockEnd
  0
BLOCK
  5
1C
100
AcDbEntity
  8
0
100
AcDbBlockBegin
  2
*Paper_Space
 70
0
 10
0.0
 20
0.0
 30
0.0
  3
*Paper_Space
  1

  0
ENDBLK
  5
1D
100
AcDbEntity
  8
0
100
AcDbBlockEnd
  0
BLOCK
  5
21E
100
AcDbEntity
  8
0
100
AcDbBlockBegin
  2
_FILLED
 70
64
 10
0.0
 20
0.0
  3
_FILLED
  1

  0
SOLID
  5
21F
100
AcDbEntity
  8
0
  6
BYBLOCK
 62
0
100
AcDbTrace
 10
0.0
 20
0.0
 11
-1.0
 21
0.3166666667
 12
-1.0
 22
-0.3166666667
 13
-1.0
 23
-0.3166666667
  0
ENDBLK
  5
220
100
AcDbEntity
  8
0
  6
BYBLOCK
 62
0
100
AcDbBlockEnd
  0
ENDSEC
  0
SECTION
  2
ENTITIES
  0
LWPOLYLINE
  5
221
100
AcDbEntity
  8
ASSI
100
AcDbPolyline
 62
7
  6
CONTINUOUS
 90
12
 70
0
 10
-13.3185819923
 20
26.5965105487
 10
-13.3371056339
 20
26.5854441317
 10
-13.3583150221
 20
26.5698027756
 10
-13.3781266893
 20
26.5517289587
 10
-13.3962872429
 20
26.5313918825
 10
-13.4121385293
 20
26.5096307374
 10
-13.4259498063
 20
26.4861981128
 10
-13.4376699797
 20
26.4609907187
 10
-13.4467168254
 20
26.4352025888
 10
-13.4530887635
 20
26.4091400131
 10
-13.4568859222
 20
26.3821258244
 10
-13.4578901432
 20
26.3594236789
  0
LINE
  5
222
100
AcDbEntity
  8
ASSI
100
AcDbLine
 62
7
  6
CONTINUOUS
 10
-13.3187231051
 20
26.5964352237
 11
-11.7515226147
 21
27.4419758425
  0
LINE
  5
223
100
AcDbEntity
  8
ASSI
100
AcDbLine
 62
250
  6
CONTINUOUS
 10
-13.226226484
 20
26.5923636788
 11
-11.6599757379
 21
27.4373918888
  0
LINE
  5
224
100
AcDbEntity
  8
ASSI
100
AcDbLine
 62
7
  6
CONTINUOUS
 10
-11.7473147779
 20
27.4440817202
 11
-11.7514802814
 21
27.4419986823
  0
LWPOLYLINE
  5
225
100
AcDbEntity
  8
ASSI
100
AcDbPolyline
 62
250
  6
CONTINUOUS
 90
7
 70
0
 10
-13.3185822489
 20
26.5965110262
 10
-13.3132829666
 20
26.5990944314
 10
-13.2978168982
 20
26.6040368251
 10
-13.2810841581
 20
26.6058386842
 10
-13.2633709372
 20
26.6044691904
 10
-13.2449801962
 20
26.5999517672
 10
-13.226226484
 20
26.5923636788
  0
LINE
  5
226
100
AcDbEntity
  8
ASSI
100
AcDbLine
 62
250
  6
CONTINUOUS
 10
-11.6599757379
 20
27.4373918888
 11
-11.1172496752
 21
27.6880407699
  0
LINE
  5
227
100
AcDbEntity
  8
ASSI
100
AcDbLine
 62
7
  6
CONTINUOUS
 10
-11.747256938
 20
27.4441085102
 11
-11.2033555797
 21
27.695299756
  0
LWPOLYLINE
  5
228
100
AcDbEntity
  8
ASSI
100
AcDbPolyline
 62
250
  6
CONTINUOUS
 90
14
 70
0
 10
-11.1172496752
 20
27.6880407699
 10
-11.1086867757
 20
27.6918571336
 10
-11.0999051452
 20
27.6952434352
 10
-11.0909297617
 20
27.6981447222
 10
-11.0817679652
 20
27.7005095612
 10
-11.0724742667
 20
27.7022731933
 10
-11.0631476243
 20
27.7033732714
 10
-11.0538248764
 20
27.7037668676
 10
-11.0445461499
 20
27.7034122561
 10
-11.0354124439
 20
27.7022794067
 10
-11.0264629047
 20
27.7003454685
 10
-11.0177385827
 20
27.6975903933
 10
-11.009334036
 20
27.6940226209
 10
-11.0081593648
 20
27.6934455567
  0
LINE
  5
229
100
AcDbEntity
  8
ASSI
100
AcDbLine
 62
7
  6
CONTINUOUS
 10
-11.1802221707
 20
27.7045208134
 11
-11.2033555106
 21
27.6952996054
  0
LWPOLYLINE
  5
22A
100
AcDbEntity
  8
ASSI
100
AcDbPolyline
 62
250
  6
CONTINUOUS
 90
6
 70
0
 10
-11.2033555797
 20
27.695299756
 10
-11.1870342762
 20
27.7006168398
 10
-11.1705948961
 20
27.702272027
 10
-11.1532853282
 20
27.7007007078
 10
-11.1354016289
 20
27.6959297557
 10
-11.1172496752
 20
27.6880407699
  0
LWPOLYLINE
  5
22B
100
AcDbEntity
  8
ASSI
100
AcDbPolyline
 62
250
  6
CONTINUOUS
 90
11
 70
0
 10
-13.3245128274
 20
26.5034787488
 10
-13.3157267375
 20
26.5150267905
 10
-13.3066240537
 20
26.5260673874
 10
-13.2972339399
 20
26.5365686915
 10
-13.2875859641
 20
26.5464992647
 10
-13.2777145126
 20
26.5558252545
 10
-13.2676554174
 20
26.5645142901
 10
-13.2574409041
 20
26.5725391235
 10
-13.2471060633
 20
26.5798725818
 10
-13.2366889171
 20
26.5864883829
 10
-13.226226484
 20
26.5923636788
  0
LINE
  5
22C
100
AcDbEntity
  8
ASSI
100
AcDbLine
 62
7
  6
CONTINUOUS
 10
-12.4973065363
 20
25.4781567571
 11
-12.463843123
 21
25.5037383053
  0
LWPOLYLINE
  5
22D
100
AcDbEntity
  8
RACCORDO
100
AcDbPolyline
 62
250
  6
CONTINUOUS
 90
20
 70
0
 10
-16.8468951012
 20
22.7335077022
 10
-16.9078034047
 20
22.6925349777
 10
-16.9678560807
 20
22.646737244
 10
-17.0267478398
 20
22.5963498583
 10
-17.0842131996
 20
22.5416437854
 10
-17.1399483572
 20
22.4828890529
 10
-17.1936501523
 20
22.420381465
 10
-17.245068349
 20
22.3544611842
 10
-17.2939295694
 20
22.2854624885
 10
-17.3399720106
 20
22.2137298096
 10
-17.3829840901
 20
22.1396430094
 10
-17.4227396335
 20
22.0635766248
 10
-17.4590244977
 20
21.985913722
 10
-17.4916716442
 20
21.9070624906
 10
-17.520509157
 20
21.8274295804
 10
-17.5453845669
 20
21.7474103569
 10
-17.566188106
 20
21.6674024051
 10
-17.5828145933
 20
21.5878089964
 10
-17.5951670806
 20
21.5090372321
 10
-17.6031788233
 20
21.4314882001
  0
LINE
  5
22E
100
AcDbEntity
  8
ASSI
100
AcDbLine
 62
7
  6
CONTINUOUS
 10
-13.1052335199
 20
25.1026573556
 11
-12.7430271646
 21
25.3173740767
  0
LINE
  5
22F
100
AcDbEntity
  8
ASSI
100
AcDbLine
 62
250
  6
CONTINUOUS
 10
-12.8699800389
 20
25.0950008172
 11
-12.7430271646
 21
25.1702587593
  0
LWPOLYLINE
  5
230
100
AcDbEntity
  8
RACCORDO
100
AcDbPolyline
 62
7
  6
CONTINUOUS
 90
18
 70
0
 10
-16.9545254282
 20
22.8110198759
 10
-17.0328436279
 20
22.7681422589
 10
-17.1059798937
 20
22.7201958839
 10
-17.1775365811
 20
22.6652378754
 10
-17.24678172
 20
22.6037037741
 10
-17.3120887868
 20
22.5371761489
 10
-17.3730948391
 20
22.4664411548
 10
-17.4300977905
 20
22.3914892966
 10
-17.4826166999
 20
22.313170598
 10
-17.5304927317
 20
22.232035197
 10
-17.5737187105
 20
22.1482746171
 10
-17.6120891662
 20
22.0623881163
 10
-17.6454655819
 20
21.9747280713
 10
-17.6736669962
 20
21.885595137
 10
-17.6964845972
 20
21.7953704523
 10
-17.7136863446
 20
21.7043100184
 10
-17.7250095548
 20
21.6126977644
 10
-17.7268009554
 20
21.5909182038
  0
LINE
  5
231
100
AcDbEntity
  8
ASSI
100
AcDbLine
 62
250
  6
CONTINUOUS
 10
-11.1605124426
 20
25.5595066581
 11
-9.538612316
 21
26.3767101778
  0
LINE
  5
232
100
AcDbEntity
  8
ASSI
100
AcDbLine
 62
250
  6
CONTINUOUS
 10
-11.0191126256
 20
25.3156280488
 11
-9.3972124989
 21
26.1328315685
  0
LWPOLYLINE
  5
233
100
AcDbEntity
  8
RACCORDO
100
AcDbPolyline
 62
250
  6
CONTINUOUS
 90
3
 70
0
 10
-16.7238733954
 20
22.8002091359
 10
-16.7854750212
 20
22.7694584145
 10
-16.8468951012
 20
22.7335077022
  0
LINE
  5
234
100
AcDbEntity
  8
ASSI
100
AcDbLine
 62
250
  6
CONTINUOUS
 10
-9.538612316
 20
26.3767101778
 11
-9.0145078495
 21
26.636669857
  0
LINE
  5
235
100
AcDbEntity
  8
ASSI
100
AcDbLine
 62
250
  6
CONTINUOUS
 10
-9.3972124989
 20
26.1328315685
 11
-8.8731080324
 21
26.3927912477
  0
LINE
  5
236
100
AcDbEntity
  8
RACCORDO
100
AcDbLine
 62
7
  6
CONTINUOUS
 10
-13.7582817941
 20
24.3898346162
 11
-16.9545651598
 21
22.811009364
  0
LINE
  5
237
100
AcDbEntity
  8
RACCORDO
100
AcDbLine
 62
250
  6
CONTINUOUS
 10
-13.5311621304
 20
24.3772699255
 11
-16.7238733718
 21
22.8002091476
  0
LWPOLYLINE
  5
238
100
AcDbEntity
  8
ASSI
100
AcDbPolyline
 62
250
  6
CONTINUOUS
 90
28
 70
0
 10
-8.8731080324
 20
26.3927912477
 10
-8.8714043725
 20
26.3935980423
 10
-8.8696715712
 20
26.3942944695
 10
-8.8679096285
 20
26.3948805294
 10
-8.866107621
 20
26.3953665752
 10
-8.8642764721
 20
26.3957422535
 10
-8.8624489513
 20
26.3959765047
 10
-8.86062446
 20
26.3960647523
 10
-8.8588035968
 20
26.3960115728
 10
-8.8570209266
 20
26.3957996356
 10
-8.8552774543
 20
26.3954235336
 10
-8.8535721751
 20
26.3948886739
 10
-8.8519366395
 20
26.3941939477
 10
-8.8503739882
 20
26.3933353571
 10
-8.8488810805
 20
26.3923168999
 10
-8.8474800455
 20
26.3911494608
 10
-8.8461736764
 20
26.3898313925
 10
-8.84495918
 20
26.3883643422
 10
-8.8438503062
 20
26.3867641367
 10
-8.8428484361
 20
26.3850294234
 10
-8.8419521886
 20
26.3831615547
 10
-8.8411711701
 20
26.3811804143
 10
-8.8405066565
 20
26.3790846941
 10
-8.8399573721
 20
26.3768757022
 10
-8.8395290952
 20
26.3745772464
 10
-8.839223752
 20
26.3721972627
 10
-8.8390394164
 20
26.3697278152
 10
-8.8389760884
 20
26.3671689038
  0
LWPOLYLINE
  5
239
100
AcDbEntity
  8
ASSI
100
AcDbPolyline
 62
250
  6
CONTINUOUS
 90
14
 70
0
 10
-9.0145078495
 20
26.636669857
 10
-9.0059176751
 20
26.6405530193
 10
-8.9971226556
 20
26.643991285
 10
-8.988148217
 20
26.6469313935
 10
-8.9790024128
 20
26.6493239702
 10
-8.9697394874
 20
26.6511062304
 10
-8.9604571
 20
26.6522177648
 10
-8.9511917517
 20
26.6526182135
 10
-8.9419830866
 20
26.6522685222
 10
-8.9329301848
 20
26.6511410489
 10
-8.9240722669
 20
26.6492161285
 10
-8.9154478847
 20
26.6464765351
 10
-8.9071458094
 20
26.6429316615
 10
-8.9061744054
 20
26.6424530772
  0
LWPOLYLINE
  5
23A
100
AcDbEntity
  8
ASSI
100
AcDbPolyline
 62
7
  6
CONTINUOUS
 90
12
 70
0
 10
-10.2996632496
 20
24.7528829766
 10
-10.3216959858
 20
24.7322382174
 10
-10.3455837774
 20
24.7129731234
 10
-10.3711510157
 20
24.695480526
 10
-10.398351266
 20
24.6801282668
 10
-10.426765898
 20
24.6672749082
 10
-10.4555809442
 20
24.6572063349
 10
-10.4844106217
 20
24.6501090493
 10
-10.5129591843
 20
24.6461614249
 10
-10.5404962617
 20
24.6454204207
 10
-10.5665508399
 20
24.6478127498
 10
-10.577358253
 20
24.6498027478
  0
LWPOLYLINE
  5
23B
100
AcDbEntity
  8
ASSI
100
AcDbPolyline
 62
250
  6
CONTINUOUS
 90
13
 70
0
 10
-7.4867733966
 20
24.6985901161
 10
-7.5050052093
 20
24.6876351359
 10
-7.522890656
 20
24.6739863659
 10
-7.5401304652
 20
24.6578721867
 10
-7.5564361684
 20
24.639562232
 10
-7.5715349275
 20
24.6193628764
 10
-7.5851740995
 20
24.5976121096
 10
-7.5971254644
 20
24.5746738802
 10
-7.6071890438
 20
24.5509320067
 10
-7.615196447
 20
24.5267837544
 10
-7.6210136884
 20
24.5026331886
 10
-7.6245434301
 20
24.478884413
 10
-7.6257266099
 20
24.4559348086
  0
LWPOLYLINE
  5
23C
100
AcDbEntity
  8
ASSI
100
AcDbPolyline
 62
7
  6
CONTINUOUS
 90
12
 70
0
 10
-7.6020995496
 20
24.7038376306
 10
-7.6044630051
 20
24.7025444049
 10
-7.6246702348
 20
24.6898369119
 10
-7.6434489889
 20
24.674940902
 10
-7.6605279664
 20
24.6580561156
 10
-7.6757970326
 20
24.6392560672
 10
-7.6890274406
 20
24.6187577465
 10
-7.700015951
 20
24.5968493645
 10
-7.7086870362
 20
24.5736250815
 10
-7.7149234598
 20
24.5492490655
 10
-7.7185950958
 20
24.5240468048
 10
-7.7196550044
 20
24.5010762197
  0
LINE
  5
23D
100
AcDbEntity
  8
ASSI
100
AcDbLine
 62
7
  6
CONTINUOUS
 10
-10.2996632496
 20
23.9946825304
 11
-9.3972124989
 21
24.4873569214
  0
LINE
  5
23E
100
AcDbEntity
  8
ASSI
100
AcDbLine
 62
7
  6
CONTINUOUS
 10
-7.3903526753
 20
24.8180807998
 11
-7.6021475106
 21
24.7038126272
  0
LINE
  5
23F
100
AcDbEntity
  8
ASSI
100
AcDbLine
 62
250
  6
CONTINUOUS
 10
-7.2759190793
 20
24.8123508576
 11
-7.4867733966
 21
24.6985901161
  0
LWPOLYLINE
  5
240
100
AcDbEntity
  8
ASSI
100
AcDbPolyline
 62
250
  6
CONTINUOUS
 90
9
 70
0
 10
-2.8733529729
 20
26.2905156951
 10
-2.8469865902
 20
26.3046246875
 10
-2.8238114738
 20
26.3199974994
 10
-2.8040767712
 20
26.3364662787
 10
-2.7879954216
 20
26.353850242
 10
-2.7757370345
 20
26.3719617773
 10
-2.7674298599
 20
26.3906091062
 10
-2.7631643378
 20
26.4095934373
 10
-2.762570191
 20
26.4212962911
  0
LWPOLYLINE
  5
241
100
AcDbEntity
  8
ASSI
100
AcDbPolyline
 62
250
  6
CONTINUOUS
 90
31
 70
0
 10
-3.0469839125
 20
26.591222244
 10
-3.0379835428
 20
26.5960338539
 10
-3.0301935721
 20
26.6011750845
 10
-3.0236140005
 20
26.6066459357
 10
-3.018194833
 20
26.6125151191
 10
-3.0139860646
 20
26.6187139233
 10
-3.0111376802
 20
26.6250362131
 10
-3.0096985762
 20
26.6314832537
 10
-3.0096198561
 20
26.63805378
 10
-3.010904816
 20
26.6445378618
 10
-3.0135978663
 20
26.6509327332
 10
-3.0176545965
 20
26.6572411601
 10
-3.0229450712
 20
26.6632615104
 10
-3.0295089943
 20
26.6689844938
 10
-3.0373066619
 20
26.6744194005
 10
-3.0460890271
 20
26.6793924694
 10
-3.0558879556
 20
26.6838887818
 10
-3.0666715817
 20
26.6879232563
 10
-3.0780952609
 20
26.691366887
 10
-3.0901796738
 20
26.69420064
 10
-3.1029041397
 20
26.6964435491
 10
-3.1158619721
 20
26.6980237103
 10
-3.1290607285
 20
26.6989196287
 10
-3.1424928513
 20
26.6991527991
 10
-3.1557289818
 20
26.6987158015
 10
-3.1687638944
 20
26.6975867063
 10
-3.1816028146
 20
26.695787443
 10
-3.1938320599
 20
26.6933763806
 10
-3.205313736
 20
26.6903729754
 10
-3.2161857371
 20
26.6867577711
 10
-3.2264480633
 20
26.6825307676
  0
LINE
  5
242
100
AcDbEntity
  8
ASSI
100
AcDbLine
 62
7
  6
CONTINUOUS
 10
-7.3902983824
 20
24.8181100377
 11
-7.3850903367
 21
24.8207144182
  0
LWPOLYLINE
  5
243
100
AcDbEntity
  8
ASSI
100
AcDbPolyline
 62
250
  6
CONTINUOUS
 90
13
 70
0
 10
-7.602098433
 20
24.703839088
 10
-7.5968189025
 20
24.7064737677
 10
-7.5881811102
 20
24.7099493344
 10
-7.5791640114
 20
24.7125963567
 10
-7.569802733
 20
24.7144049627
 10
-7.5601296656
 20
24.715369332
 10
-7.5501799575
 20
24.7154861499
 10
-7.5399897261
 20
24.7147550127
 10
-7.5295966203
 20
24.713178657
 10
-7.5190394438
 20
24.7107633114
 10
-7.5083571528
 20
24.707518248
 10
-7.4975886559
 20
24.703455484
 10
-7.4867733966
 20
24.6985901161
  0
LINE
  5
244
100
AcDbEntity
  8
ASSI
100
AcDbLine
 62
7
  6
CONTINUOUS
 10
-1.68188863
 20
28.2536646489
 11
-8.7290767838
 21
24.8452793153
  0
LINE
  5
245
100
AcDbEntity
  8
ASSI
100
AcDbLine
 62
250
  6
CONTINUOUS
 10
-6.362064143
 20
25.0060340945
 11
-3.0469839125
 21
26.591222244
  0
LINE
  5
246
100
AcDbEntity
  8
ASSI
100
AcDbLine
 62
250
  6
CONTINUOUS
 10
-5.9697697724
 20
24.8098869092
 11
-2.8733529729
 21
26.2905156951
  0
LINE
  5
247
100
AcDbEntity
  8
ASSI
100
AcDbLine
 62
7
  6
CONTINUOUS
 10
-3.3343529182
 20
26.6914791948
 11
-7.3850205795
 21
24.8207466343
  0
LINE
  5
248
100
AcDbEntity
  8
ASSI
100
AcDbLine
 62
250
  6
CONTINUOUS
 10
-3.2264480633
 20
26.6825307676
 11
-7.2759190793
 21
24.8123508576
  0
LINE
  5
249
100
AcDbEntity
  8
ASSI
100
AcDbLine
 62
7
  6
CONTINUOUS
 10
-3.2988916818
 20
26.7057936964
 11
-3.3344935207
 21
26.6914101924
  0
LINE
  5
24A
100
AcDbEntity
  8
0
100
AcDbLine
 62
250
  6
CONTINUOUS
 10
-10.6700047051
 20
22.9694610193
 11
-10.4706288254
 21
23.0432431036
  0
LWPOLYLINE
  5
24B
100
AcDbEntity
  8
ASSI
100
AcDbPolyline
 62
7
  6
CONTINUOUS
 90
3
 70
0
 10
-7.3850903367
 20
24.8207144182
 10
-7.3642934988
 20
24.8275422598
 10
-7.3435598768
 20
24.829695749
  0
LWPOLYLINE
  5
24C
100
AcDbEntity
  8
ASSI
100
AcDbPolyline
 62
7
  6
CONTINUOUS
 90
6
 70
0
 10
-12.5370641061
 20
25.4398187752
 10
-12.5352678087
 20
25.4434987817
 10
-12.530042183
 20
25.4496905772
 10
-12.5218449737
 20
25.4580309055
 10
-12.5108725231
 20
25.4675926981
 10
-12.4973065363
 20
25.4781567571
  0
LWPOLYLINE
  5
24D
100
AcDbEntity
  8
ASSI
100
AcDbPolyline
 62
250
  6
CONTINUOUS
 90
7
 70
0
 10
-8.8446577498
 20
25.9244899682
 10
-8.8436746855
 20
25.9258382319
 10
-8.840857298
 20
25.9332041814
 10
-8.8407363655
 20
25.9425497798
 10
-8.8433139344
 20
25.9537168906
 10
-8.8485463897
 20
25.9665165555
 10
-8.8563451931
 20
25.9807321917
  0
LWPOLYLINE
  5
24E
100
AcDbEntity
  8
ASSI
100
AcDbPolyline
 62
7
  6
CONTINUOUS
 90
6
 70
0
 10
-8.8446829879
 20
25.9244590262
 10
-8.8352081855
 20
25.9368879352
 10
-8.8215956982
 20
25.9577425688
 10
-8.8097425671
 20
25.9800091157
 10
-8.7997996381
 20
26.003569544
 10
-8.7921457405
 20
26.0275463612
  0
LINE
  5
24F
100
AcDbEntity
  8
ASSI
100
AcDbLine
 62
250
  6
CONTINUOUS
 10
-8.8563451931
 20
25.9807321917
 11
-9.3972124989
 21
25.3114447056
  0
LINE
  5
250
100
AcDbEntity
  8
ASSI
100
AcDbLine
 62
7
  6
CONTINUOUS
 10
-8.8446577498
 20
25.9244899682
 11
-9.3972124989
 21
25.2407400448
  0
LWPOLYLINE
  5
251
100
AcDbEntity
  8
ASSI
100
AcDbPolyline
 62
250
  6
CONTINUOUS
 90
13
 70
0
 10
-5.266824908
 20
23.5886158718
 10
-5.2850567328
 20
23.5776608833
 10
-5.3029421889
 20
23.5640121033
 10
-5.3201820045
 20
23.5478979137
 10
-5.3364877112
 20
23.5295879491
 10
-5.3515864707
 20
23.5093885855
 10
-5.3652256403
 20
23.4876378137
 10
-5.3771770005
 20
23.4646995834
 10
-5.3872405738
 20
23.440957713
 10
-5.3952479703
 20
23.416809468
 10
-5.4010652058
 20
23.3926589132
 10
-5.4045949431
 20
23.368910152
 10
-5.4057781213
 20
23.3459605644
  0
LWPOLYLINE
  5
252
100
AcDbEntity
  8
ASSI
100
AcDbPolyline
 62
250
  6
CONTINUOUS
 90
7
 70
0
 10
1.8760637514
 20
26.1651625097
 10
1.8933124261
 20
26.1749705601
 10
1.9078469955
 20
26.1857687791
 10
1.9194187022
 20
26.1973724493
 10
1.927829471
 20
26.209583067
 10
1.9329352926
 20
26.2221917253
 10
1.9346439233
 20
26.2356687073
  0
LWPOLYLINE
  5
253
100
AcDbEntity
  8
ASSI
100
AcDbPolyline
 62
7
  6
CONTINUOUS
 90
10
 70
0
 10
-3.8899714989
 20
22.8475842521
 10
-3.8980234037
 20
22.8430102656
 10
-3.9216839662
 20
22.826702214
 10
-3.9432161541
 20
22.8072350407
 10
-3.9621545622
 20
22.7849163818
 10
-3.9780669704
 20
22.7602052359
 10
-3.9908166582
 20
22.7331972364
 10
-4.0001246399
 20
22.704152799
 10
-4.0056761788
 20
22.6736893972
 10
-4.0073440739
 20
22.6449421088
  0
LINE
  5
254
100
AcDbEntity
  8
ASSI
100
AcDbLine
 62
7
  6
CONTINUOUS
 10
-5.0900751367
 20
22.1054137018
 11
-4.8717290993
 21
22.2246152216
  0
LINE
  5
255
100
AcDbEntity
  8
ASSI
100
AcDbLine
 62
7
  6
CONTINUOUS
 10
-3.6780420741
 20
22.9619254992
 11
-3.8899651688
 21
22.8475879966
  0
LINE
  5
256
100
AcDbEntity
  8
ASSI
100
AcDbLine
 62
250
  6
CONTINUOUS
 10
-3.5636084781
 20
22.956195557
 11
-3.7744627954
 21
22.8424348154
  0
LINE
  5
257
100
AcDbEntity
  8
ASSI
100
AcDbLine
 62
7
  6
CONTINUOUS
 10
-4.8717290993
 20
22.2246152216
 11
-4.189668869
 21
22.5762783809
  0
LINE
  5
258
100
AcDbEntity
  8
ASSI
100
AcDbLine
 62
250
  6
CONTINUOUS
 10
-5.266824908
 20
23.5886158718
 11
-5.0484788707
 21
23.6986307533
  0
LINE
  5
259
100
AcDbEntity
  8
ASSI
100
AcDbLine
 62
250
  6
CONTINUOUS
 10
-5.0900751367
 20
23.2837676101
 11
-4.8717290993
 21
23.3937824916
  0
LINE
  5
25A
100
AcDbEntity
  8
ASSI
100
AcDbLine
 62
7
  6
CONTINUOUS
 10
-3.6779877812
 20
22.961954737
 11
-3.6727797354
 21
22.9645591176
  0
LINE
  5
25B
100
AcDbEntity
  8
ASSI
100
AcDbLine
 62
7
  6
CONTINUOUS
 10
0.2629697589
 20
25.787845461
 11
-0.8182736107
 21
25.2472237762
  0
LINE
  5
25C
100
AcDbEntity
  8
RACCORDO
100
AcDbLine
 62
7
  6
CONTINUOUS
 10
-1.7747044249
 20
24.5679576065
 11
-1.7131547866
 21
24.5987324256
  0
LINE
  5
25D
100
AcDbEntity
  8
RACCORDO
100
AcDbLine
 62
250
  6
CONTINUOUS
 10
-1.689748584
 20
24.5600338099
 11
-1.6237120676
 21
24.5930520681
  0
LINE
  5
25E
100
AcDbEntity
  8
ASSI
100
AcDbLine
 62
250
  6
CONTINUOUS
 10
-5.0484788707
 20
23.6986307533
 11
-4.3952601062
 21
24.0226320761
  0
LINE
  5
25F
100
AcDbEntity
  8
ASSI
100
AcDbLine
 62
250
  6
CONTINUOUS
 10
-4.8717290993
 20
23.3937824916
 11
-4.2139606879
 21
23.7200404728
  0
LWPOLYLINE
  5
260
100
AcDbEntity
  8
RACCORDO
100
AcDbPolyline
 62
7
  6
CONTINUOUS
 90
20
 70
0
 10
-1.774711887
 20
24.5679538754
 10
-1.7738459545
 20
24.5683780235
 10
-1.7701077634
 20
24.5700160404
 10
-1.7662284058
 20
24.5714112559
 10
-1.7622119693
 20
24.5725620856
 10
-1.7580644631
 20
24.5734664238
 10
-1.7537922521
 20
24.5741224277
 10
-1.7494002041
 20
24.574529461
 10
-1.7448947885
 20
24.5746865179
 10
-1.7402828044
 20
24.5745928579
 10
-1.7355698207
 20
24.5742488054
 10
-1.730762682
 20
24.5736544731
 10
-1.7258685385
 20
24.5728102341
 10
-1.7208935782
 20
24.5717173639
 10
-1.7158449384
 20
24.5703770963
 10
-1.7107300261
 20
24.5687909139
 10
-1.7055555471
 20
24.5669610124
 10
-1.70032871
 20
24.5648897569
 10
-1.6950572175
 20
24.5625796894
 10
-1.689748584
 20
24.5600338099
  0
LWPOLYLINE
  5
261
100
AcDbEntity
  8
RACCORDO
100
AcDbPolyline
 62
250
  6
CONTINUOUS
 90
55
 70
0
 10
-1.6237120676
 20
24.5930520681
 10
-1.6079609616
 20
24.6007197959
 10
-1.5918315568
 20
24.6081648562
 10
-1.5753238531
 20
24.6153872489
 10
-1.5584244957
 20
24.6223921794
 10
-1.5411468394
 20
24.6291744424
 10
-1.5235309488
 20
24.6357184218
 10
-1.5055763496
 20
24.6420233687
 10
-1.4872835161
 20
24.648090032
 10
-1.4686939348
 20
24.6539050427
 10
-1.4498070227
 20
24.6594677574
 10
-1.4306233629
 20
24.6647788195
 10
-1.4111861918
 20
24.6698267896
 10
-1.3914950313
 20
24.6746110225
 10
-1.3715503596
 20
24.6791321635
 10
-1.3513968471
 20
24.6833807095
 10
-1.331034035
 20
24.687356022
 10
-1.3104623823
 20
24.6910587396
 10
-1.2897279362
 20
24.6944812747
 10
-1.2688304655
 20
24.6976229591
 10
-1.2477702014
 20
24.7004844609
 10
-1.2265938856
 20
24.7030601972
 10
-1.2053013605
 20
24.7053495085
 10
-1.1838927837
 20
24.7073530542
 10
-1.1624153695
 20
24.7090672288
 10
-1.1408691323
 20
24.7104913765
 10
-1.1192540576
 20
24.711626153
 10
-1.0976173165
 20
24.7124699199
 10
-1.0759589613
 20
24.7130220378
 10
-1.0542789397
 20
24.7132831461
 10
-1.0326242654
 20
24.7132535243
 10
-1.0109951527
 20
24.7129325482
 10
-0.9893913874
 20
24.712320842
 10
-0.9678593402
 20
24.7114205582
 10
-0.9463992517
 20
24.7102310894
 10
-0.9250108813
 20
24.7087530429
 10
-0.9037398772
 20
24.7069903932
 10
-0.8825866361
 20
24.7049425596
 10
-0.8615507613
 20
24.7026101229
 10
-0.8406767109
 20
24.6999988
 10
-0.8199649578
 20
24.6971080418
 10
-0.7994150291
 20
24.6939383974
 10
-0.7790699636
 20
24.6904972316
 10
-0.758930301
 20
24.6867840269
 10
-0.7389955018
 20
24.6827993007
 10
-0.7193069854
 20
24.6785519704
 10
-0.6998652254
 20
24.6740415152
 10
-0.6806697484
 20
24.6692684558
 10
-0.6617605538
 20
24.6642432716
 10
-0.6431381558
 20
24.6589654247
 10
-0.6248020403
 20
24.6534354529
 10
-0.6067906646
 20
24.6476654491
 10
-0.5891168478
 20
24.6416594441
 10
-0.5717677708
 20
24.635413407
 10
-0.5547434337
 20
24.6289273378
  0
LINE
  5
262
100
AcDbEntity
  8
ASSI
100
AcDbLine
 62
250
  6
CONTINUOUS
 10
1.1714466524
 20
26.8269970077
 11
-1.0612626118
 21
25.759038752
  0
LINE
  5
263
100
AcDbEntity
  8
ASSI
100
AcDbLine
 62
250
  6
CONTINUOUS
 10
1.3103783264
 20
26.5849071724
 11
-0.8146641669
 21
25.5684485089
  0
LINE
  5
264
100
AcDbEntity
  8
ASSI
100
AcDbLine
 62
7
  6
CONTINUOUS
 10
-1.7602169543
 20
25.6234513986
 11
-2.8609089315
 21
25.0971281252
  0
LWPOLYLINE
  5
265
100
AcDbEntity
  8
RACCORDO
100
AcDbPolyline
 62
250
  6
CONTINUOUS
 90
17
 70
0
 10
-1.7131547866
 20
24.5987324256
 10
-1.7098039297
 20
24.6003057523
 10
-1.7048280202
 20
24.6022862639
 10
-1.6996977019
 20
24.6039194919
 10
-1.6944227407
 20
24.6052023275
 10
-1.6890131778
 20
24.6061323286
 10
-1.6834793105
 20
24.606707725
 10
-1.677831673
 20
24.6069274215
 10
-1.6720810157
 20
24.6067909997
 10
-1.6662382855
 20
24.6062987194
 10
-1.6603146043
 20
24.6054515177
 10
-1.6543212481
 20
24.6042510073
 10
-1.6482696256
 20
24.6026994734
 10
-1.6421712566
 20
24.6007998695
 10
-1.6360377494
 20
24.5985558116
 10
-1.6298807797
 20
24.5959715714
 10
-1.6237120676
 20
24.5930520681
  0
LINE
  5
266
100
AcDbEntity
  8
ASSI
100
AcDbLine
 62
7
  6
CONTINUOUS
 10
-2.9953063642
 20
23.2774387711
 11
-3.6727099783
 21
22.9645913337
  0
LINE
  5
267
100
AcDbEntity
  8
ASSI
100
AcDbLine
 62
250
  6
CONTINUOUS
 10
-2.8871806459
 20
23.2685923459
 11
-3.5636084781
 21
22.956195557
  0
LWPOLYLINE
  5
268
100
AcDbEntity
  8
ASSI
100
AcDbPolyline
 62
250
  6
CONTINUOUS
 90
13
 70
0
 10
-5.0900751367
 20
23.2837676101
 10
-5.1098085469
 20
23.2754025025
 10
-5.1315364646
 20
23.2683810147
 10
-5.1548953233
 20
23.2628206349
 10
-5.1794942665
 20
23.2588144032
 10
-5.2049216878
 20
23.2564293548
 10
-5.2307521179
 20
23.2557053978
 10
-5.2565533443
 20
23.2566546461
 10
-5.2818936432
 20
23.2592612161
 10
-5.3063490031
 20
23.263481493
 10
-5.3295102202
 20
23.2692448601
 10
-5.3509897449
 20
23.2764548808
 10
-5.370428167
 20
23.284990912
  0
LWPOLYLINE
  5
269
100
AcDbEntity
  8
ASSI
100
AcDbPolyline
 62
7
  6
CONTINUOUS
 90
3
 70
0
 10
-3.6727797354
 20
22.9645591176
 10
-3.6519828976
 20
22.9713869592
 10
-3.6312492756
 20
22.9735404484
  0
LWPOLYLINE
  5
26A
100
AcDbEntity
  8
ASSI
100
AcDbPolyline
 62
250
  6
CONTINUOUS
 90
6
 70
0
 10
2.2849337916
 20
23.8812957765
 10
2.3041892681
 20
23.8871346407
 10
2.324840903
 20
23.8891142849
 10
2.3465470034
 20
23.887202081
 10
2.3689484138
 20
23.8814297894
 10
2.3916745124
 20
23.8718930316
  0
LWPOLYLINE
  5
26B
100
AcDbEntity
  8
RACCORDO
100
AcDbPolyline
 62
7
  6
CONTINUOUS
 90
10
 70
0
 10
-4.1199350696
 20
-23.3835064935
 10
-4.0512082256
 20
-23.4102095701
 10
-3.9834318475
 20
-23.4296135515
 10
-3.9130689239
 20
-23.4431058434
 10
-3.8407736602
 20
-23.4503727071
 10
-3.7669810443
 20
-23.4512467778
 10
-3.6921751284
 20
-23.4456096311
 10
-3.6169915062
 20
-23.4334245741
 10
-3.5418577256
 20
-23.4147300298
 10
-3.4674694584
 20
-23.3897364476
  0
LWPOLYLINE
  5
26C
100
AcDbEntity
  8
RACCORDO
100
AcDbPolyline
 62
250
  6
CONTINUOUS
 90
16
 70
0
 10
-4.4447276809
 20
-22.7188029809
 10
-4.4061082466
 20
-22.7340574685
 10
-4.364676501
 20
-22.747379776
 10
-4.3208338846
 20
-22.7586408208
 10
-4.2750051977
 20
-22.7677314923
 10
-4.227634484
 20
-22.7745637091
 10
-4.179180728
 20
-22.7790712723
 10
-4.1301134084
 20
-22.7812105074
 10
-4.0809079483
 20
-22.7809606868
 10
-4.0320411099
 20
-22.7783242311
 10
-3.9839863739
 20
-22.7733266855
 10
-3.9372093527
 20
-22.7660164721
 10
-3.8921632784
 20
-22.7564644213
 10
-3.8492846119
 20
-22.7447630847
 10
-3.8089888134
 20
-22.731025839
 10
-3.7716663173
 20
-22.7153857873
  0
LWPOLYLINE
  5
26D
100
AcDbEntity
  8
RACCORDO
100
AcDbPolyline
 62
250
  6
CONTINUOUS
 90
14
 70
0
 10
-4.1198582287
 20
-23.3835482283
 10
-4.1615212576
 20
-23.3622811672
 10
-4.2050114567
 20
-23.3335304984
 10
-4.2454472832
 20
-23.2994862455
 10
-4.2825979839
 20
-23.2603354945
 10
-4.3162840201
 20
-23.2162759668
 10
-4.3463479662
 20
-23.1675287938
 10
-4.3726173788
 20
-23.1143542144
 10
-4.3949633871
 20
-23.0570277911
 10
-4.4132865523
 20
-22.9958351045
 10
-4.4274845292
 20
-22.9310812979
 10
-4.4374832604
 20
-22.8630915281
 10
-4.4432401494
 20
-22.7922120808
 10
-4.4447277051
 20
-22.7188029748
  0
LWPOLYLINE
  5
26E
100
AcDbEntity
  8
RACCORDO
100
AcDbPolyline
 62
7
  6
CONTINUOUS
 90
10
 70
0
 10
-18.849046403
 20
-16.0187733078
 10
-17.3744187115
 20
-16.841932118
 10
-15.7945419957
 20
-17.7001914699
 10
-14.1889304059
 20
-18.5485542192
 10
-12.5579581753
 20
-19.3868316761
 10
-10.9019966669
 20
-20.2148393728
 10
-9.2214247191
 20
-21.0323994013
 10
-7.5166361914
 20
-21.8393357327
 10
-5.7880319643
 20
-22.6354717355
 10
-4.1191016983
 20
-23.3838839477
  0
LINE
  5
26F
100
AcDbEntity
  8
RACCORDO
100
AcDbLine
 62
7
  6
CONTINUOUS
 10
-18.8490456227
 20
-16.0187737492
 11
-18.8487867516
 21
-16.0189200792
  0
LWPOLYLINE
  5
270
100
AcDbEntity
  8
RACCORDO
100
AcDbPolyline
 62
250
  6
CONTINUOUS
 90
31
 70
0
 10
-19.1449021871
 20
-15.3687157103
 10
-18.6999605695
 20
-15.6205613063
 10
-18.2529996523
 20
-15.8714387121
 10
-17.8040302706
 20
-16.1213445443
 10
-17.3531700256
 20
-16.3702168003
 10
-16.9003239401
 20
-16.6181111515
 10
-16.4451794737
 20
-16.865198964
 10
-15.9875864635
 20
-17.111559145
 10
-15.5277065684
 20
-17.3571020492
 10
-15.0656925823
 20
-17.6017452624
 10
-14.6015971986
 20
-17.8454614032
 10
-14.1353852049
 20
-18.088269506
 10
-13.6670797644
 20
-18.3301576935
 10
-13.1966198816
 20
-18.5711573209
 10
-12.724083358
 20
-18.8112284121
 10
-12.2497047322
 20
-19.0502534607
 10
-11.7737930204
 20
-19.2880816116
 10
-11.2960653209
 20
-19.5248592074
 10
-10.8158626694
 20
-19.7609120611
 10
-10.334114427
 20
-19.9957842314
 10
-9.8499058606
 20
-20.2299221503
 10
-9.3597594274
 20
-20.4649814772
 10
-8.8644731953
 20
-20.7005388257
 10
-8.3631754824
 20
-20.9369669722
 10
-7.8497641892
 20
-21.1770599683
 10
-7.3239418047
 20
-21.42083697
 10
-6.7857677593
 20
-21.6681473045
 10
-6.2295247923
 20
-21.9214576105
 10
-5.6531425429
 20
-22.1815023624
 10
-5.0582781424
 20
-22.4473222623
 10
-4.444727682
 20
-22.7188029609
  0
LWPOLYLINE
  5
271
100
AcDbEntity
  8
RACCORDO
100
AcDbPolyline
 62
250
  6
CONTINUOUS
 90
9
 70
0
 10
-19.144892076
 20
-15.3687114238
 10
-19.1754016074
 20
-15.3494016174
 10
-19.2019667774
 20
-15.3287257537
 10
-19.2243301957
 20
-15.3068841615
 10
-19.2422751831
 20
-15.284088464
 10
-19.2556278706
 20
-15.2605595288
 10
-19.2642588837
 20
-15.2365253277
 10
-19.2680845968
 20
-15.2122187281
 10
-19.2682846107
 20
-15.2041416743
  0
LWPOLYLINE
  5
272
100
AcDbEntity
  8
RACCORDO
100
AcDbPolyline
 62
250
  6
CONTINUOUS
 90
13
 70
0
 10
-19.1449021806
 20
-15.3687157055
 10
-19.1432188443
 20
-15.4422227067
 10
-19.1371425983
 20
-15.5132618353
 10
-19.1267081502
 20
-15.5814694644
 10
-19.1119804183
 20
-15.6464881474
 10
-19.0930340545
 20
-15.7079924312
 10
-19.0699498377
 20
-15.7656879572
 10
-19.0428512065
 20
-15.8192771452
 10
-19.0118811991
 20
-15.8684773483
 10
-18.9771795362
 20
-15.9130446889
 10
-18.9389344043
 20
-15.9527426552
 10
-18.8973475382
 20
-15.9873624276
 10
-18.8490456227
 20
-16.0187737492
  0
LWPOLYLINE
  5
273
100
AcDbEntity
  8
RACCORDO
100
AcDbPolyline
 62
7
  6
CONTINUOUS
 90
14
 70
0
 10
-19.2682846107
 20
-15.2041416743
 10
-19.2682754352
 20
-15.2265653072
 10
-19.2636166866
 20
-15.3223080865
 10
-19.2515526169
 20
-15.4144404678
 10
-19.232136006
 20
-15.5030140751
 10
-19.2055414254
 20
-15.5874127083
 10
-19.1723940929
 20
-15.6662352811
 10
-19.1335078573
 20
-15.7386813984
 10
-19.0892016443
 20
-15.8050952866
 10
-19.0396768478
 20
-15.865644473
 10
-18.9855600486
 20
-15.9199257168
 10
-18.9274210256
 20
-15.9677547084
 10
-18.8652861337
 20
-16.0093163791
 10
-18.8488042858
 20
-16.0189101638
  0
LINE
  5
274
100
AcDbEntity
  8
RACCORDO
100
AcDbLine
 62
7
  6
CONTINUOUS
 10
-17.7268088414
 20
21.590918784
 11
-17.7267985874
 21
21.5910584637
  0
LINE
  5
275
100
AcDbEntity
  8
RACCORDO
100
AcDbLine
 62
7
  6
CONTINUOUS
 10
-1.7864152817
 20
24.5602092316
 11
-3.6470852227
 21
22.976425695
  0
LINE
  5
276
100
AcDbEntity
  8
RACCORDO
100
AcDbLine
 62
7
  6
CONTINUOUS
 10
-4.0058283177
 20
22.6710671813
 11
-4.0819717083
 21
22.6062546932
  0
LINE
  5
277
100
AcDbEntity
  8
0
100
AcDbLine
 62
250
  6
CONTINUOUS
 10
-1.689748584
 20
24.5600338099
 11
-3.4353073829
 21
23.0742317195
  0
LINE
  5
278
100
AcDbEntity
  8
0
100
AcDbLine
 62
250
  6
CONTINUOUS
 10
-4.0073446067
 20
22.587319389
 11
-4.0209461338
 21
22.5757419059
  0
LWPOLYLINE
  5
279
100
AcDbEntity
  8
RACCORDO
100
AcDbPolyline
 62
7
  6
CONTINUOUS
 90
5
 70
0
 10
-1.786401834
 20
24.5602207859
 10
-1.784158755
 20
24.562036659
 10
-1.7808758166
 20
24.564385498
 10
-1.7774371322
 20
24.5665001194
 10
-1.774711887
 20
24.5679538754
  0
LINE
  5
27A
100
AcDbEntity
  8
ASSI
100
AcDbLine
 62
250
  6
CONTINUOUS
 10
-1.5545143068
 20
21.7324605712
 11
-1.3361682694
 21
21.8424754527
  0
LINE
  5
27B
100
AcDbEntity
  8
ASSI
100
AcDbLine
 62
250
  6
CONTINUOUS
 10
-1.3777645355
 20
21.4276123095
 11
-1.1594184981
 21
21.537627191
  0
LINE
  5
27C
100
AcDbEntity
  8
ASSI
100
AcDbLine
 62
250
  6
CONTINUOUS
 10
2.5743604346
 20
23.7821265187
 11
-1.3361682694
 21
21.8424754527
  0
LINE
  5
27D
100
AcDbEntity
  8
ASSI
100
AcDbLine
 62
250
  6
CONTINUOUS
 10
2.7511102059
 20
23.477278257
 11
-1.1594184981
 21
21.537627191
  0
LINE
  5
27E
100
AcDbEntity
  8
ASSI
100
AcDbLine
 62
7
  6
CONTINUOUS
 10
-0.9823435663
 20
22.3161738062
 11
2.2805770579
 21
23.8793395871
  0
LINE
  5
27F
100
AcDbEntity
  8
ASSI
100
AcDbLine
 62
250
  6
CONTINUOUS
 10
-0.9203766091
 20
22.2851903275
 11
2.3916745124
 21
23.8718930316
  0
LINE
  5
280
100
AcDbEntity
  8
ASSI
100
AcDbLine
 62
7
  6
CONTINUOUS
 10
2.8529017337
 20
22.9048227055
 11
3.2737802774
 21
23.1064527828
  0
LINE
  5
281
100
AcDbEntity
  8
ASSI
100
AcDbLine
 62
7
  6
CONTINUOUS
 10
3.5517251673
 20
23.4869492941
 11
5.7086405818
 21
24.5199397754
  0
LINE
  5
282
100
AcDbEntity
  8
ASSI
100
AcDbLine
 62
250
  6
CONTINUOUS
 10
3.5661474569
 20
23.4453337177
 11
5.7974966149
 21
24.5139720264
  0
LINE
  5
283
100
AcDbEntity
  8
RACCORDO
100
AcDbLine
 62
250
  6
CONTINUOUS
 10
12.3110715159
 20
27.3271030587
 11
6.3927524486
 21
24.5938271871
  0
LWPOLYLINE
  5
284
100
AcDbEntity
  8
RACCORDO
100
AcDbPolyline
 62
7
  6
CONTINUOUS
 90
81
 70
0
 10
11.8794520908
 20
27.3628967651
 10
5.958877852
 20
24.6285856875
 10
5.9522880459
 20
24.6256308668
 10
5.9451699557
 20
24.622547429
 10
5.9375159494
 20
24.6193459375
 10
5.9293232504
 20
24.6160389444
 10
5.9205945147
 20
24.6126409407
 10
5.9113259562
 20
24.6091634847
 10
5.9015153571
 20
24.6056185108
 10
5.8911698657
 20
24.6020210138
 10
5.880290091
 20
24.598383308
 10
5.8688752365
 20
24.5947169416
 10
5.856932258
 20
24.5910355563
 10
5.8444636159
 20
24.5873510243
 10
5.8314713381
 20
24.5836749894
 10
5.8179629535
 20
24.5800202708
 10
5.8039423789
 20
24.5763982307
 10
5.7894146456
 20
24.5728203553
 10
5.7743900909
 20
24.5692992015
 10
5.7588725302
 20
24.5658453264
 10
5.7428717395
 20
24.5624702648
 10
5.726408611
 20
24.5591874867
 10
5.7094895694
 20
24.5560070064
 10
5.6921273653
 20
24.5529396077
 10
5.6743546371
 20
24.549998781
 10
5.6561837801
 20
24.5471939474
 10
5.6376275212
 20
24.5445341508
 10
5.6187212837
 20
24.5420308251
 10
5.5994804127
 20
24.5396918948
 10
5.5799196408
 20
24.5375249526
 10
5.5600751963
 20
24.5355391176
 10
5.5399642786
 20
24.5337405863
 10
5.5196037229
 20
24.5321353689
 10
5.4990304273
 20
24.5307302922
 10
5.4782627422
 20
24.5295298301
 10
5.4573193591
 20
24.5285382035
 10
5.436238552
 20
24.5277599668
 10
5.4150388496
 20
24.5271978563
 10
5.3937408531
 20
24.5268541973
 10
5.3723864955
 20
24.5267311261
 10
5.3509955611
 20
24.5268295461
 10
5.3295885112
 20
24.5271497624
 10
5.308208451
 20
24.5276911431
 10
5.2868757806
 20
24.5284526638
 10
5.2656102782
 20
24.5294326927
 10
5.2444538266
 20
24.5306278233
 10
5.2234268691
 20
24.5320350749
 10
5.2025478822
 20
24.5336510163
 10
5.1818551184
 20
24.5354698415
 10
5.1613670089
 20
24.5374867941
 10
5.1411017948
 20
24.5396967194
 10
5.1210964247
 20
24.5420915128
 10
5.1013675771
 20
24.5446646326
 10
5.0819320639
 20
24.5474093087
 10
5.0628256639
 20
24.550315208
 10
5.0440629794
 20
24.5533741735
 10
5.0256587748
 20
24.5565778636
 10
5.0076472814
 20
24.5599138033
 10
4.9900408374
 20
24.563372467
 10
4.9728514335
 20
24.5669440726
 10
4.956110468
 20
24.5706142861
 10
4.9398302465
 20
24.5743718698
 10
4.9240168189
 20
24.578206558
 10
4.9086899069
 20
24.582104481
 10
4.8938587186
 20
24.5860538198
 10
4.8795268132
 20
24.5900438168
 10
4.8657038425
 20
24.5940616632
 10
4.8523942703
 20
24.5980958315
 10
4.8396017023
 20
24.6021347786
 10
4.827333311
 20
24.606165388
 10
4.8155908586
 20
24.6101759126
 10
4.8043761883
 20
24.6141545136
 10
4.7936953878
 20
24.6180874456
 10
4.7835471064
 20
24.6219632156
 10
4.7739316104
 20
24.6257694798
 10
4.7648554874
 20
24.6294910962
 10
4.7563161599
 20
24.6331161584
 10
4.7483093694
 20
24.6366332374
 10
4.7408371605
 20
24.6400278365
 10
4.7338963449
 20
24.6432875381
 10
4.727478957
 20
24.6464019704
  0
LWPOLYLINE
  5
285
100
AcDbEntity
  8
ASSI
100
AcDbPolyline
 62
250
  6
CONTINUOUS
 90
7
 70
0
 10
5.7086491702
 20
24.5199438879
 10
5.7116948249
 20
24.5213218079
 10
5.7271519959
 20
24.5260976392
 10
5.7437451108
 20
24.527752019
 10
5.7611964976
 20
24.5262571977
 10
5.7792141662
 20
24.5216381241
 10
5.7974966135
 20
24.5139720258
  0
LWPOLYLINE
  5
286
100
AcDbEntity
  8
RACCORDO
100
AcDbPolyline
 62
250
  6
CONTINUOUS
 90
6
 70
0
 10
6.3927524486
 20
24.5938271871
 10
6.3673346512
 20
24.582360478
 10
6.3413348182
 20
24.5711853828
 10
6.3147529496
 20
24.5603019016
 10
6.2875695065
 20
24.5497002454
 10
6.2598040277
 20
24.5393902031
  0
LINE
  5
287
100
AcDbEntity
  8
ASSI
100
AcDbLine
 62
250
  6
CONTINUOUS
 10
2.2805772538
 20
23.8793396809
 11
2.2849337916
 21
23.8812957765
  0
LWPOLYLINE
  5
288
100
AcDbEntity
  8
RACCORDO
100
AcDbPolyline
 62
7
  6
CONTINUOUS
 90
34
 70
0
 10
11.8794520908
 20
27.3628967651
 10
11.90381121
 20
27.3737548858
 10
11.9284845998
 20
27.3839728604
 10
11.9534516163
 20
27.3935392158
 10
11.9787009056
 20
27.402446642
 10
12.0042010275
 20
27.410681501
 10
12.0299001687
 20
27.4182266616
 10
12.0556021777
 20
27.4250332554
 10
12.0814562228
 20
27.4311497226
 10
12.1079340788
 20
27.4366687664
 10
12.1354000034
 20
27.4416105583
 10
12.1634492935
 20
27.4458464005
 10
12.1914008107
 20
27.4492626497
 10
12.2189195266
 20
27.4518491895
 10
12.2462900238
 20
27.4536632331
 10
12.2737601386
 20
27.4547273818
 10
12.3013539107
 20
27.455035757
 10
12.3289975539
 20
27.4545810542
 10
12.3567902891
 20
27.4533523225
 10
12.3849175241
 20
27.4513181986
 10
12.4131364661
 20
27.4484733138
 10
12.4409147215
 20
27.4448794535
 10
12.4678055591
 20
27.4406424267
 10
12.4942378132
 20
27.4357415003
 10
12.5209858437
 20
27.4300277593
 10
12.5485429605
 20
27.423333514
 10
12.5763317372
 20
27.4157356737
 10
12.6035284132
 20
27.407456341
 10
12.6296989166
 20
27.3986811348
 10
12.6552850487
 20
27.3893138185
 10
12.6807911106
 20
27.3791765896
 10
12.7064917971
 20
27.3681278949
 10
12.7320554332
 20
27.3562771032
 10
12.7459470878
 20
27.3494650427
  0
LINE
  5
289
100
AcDbEntity
  8
ASSI
100
AcDbLine
 62
7
  6
CONTINUOUS
 10
5.7616692229
 20
24.5430471362
 11
5.7086559706
 21
24.5199296892
  0
LWPOLYLINE
  5
28A
100
AcDbEntity
  8
ASSI
100
AcDbPolyline
 62
250
  6
CONTINUOUS
 90
10
 70
0
 10
5.7974966149
 20
24.5139720264
 10
5.8496666705
 20
24.5366137829
 10
5.9014316821
 20
24.554389432
 10
5.9525080701
 20
24.5672019674
 10
6.0026142738
 20
24.5749823394
 10
6.0514766537
 20
24.5776878269
 10
6.0988309729
 20
24.5753021805
 10
6.14441596
 20
24.5678394783
 10
6.1879809957
 20
24.5553409571
 10
6.2301454357
 20
24.5374473859
  0
LWPOLYLINE
  5
28B
100
AcDbEntity
  8
ASSI
100
AcDbPolyline
 62
250
  6
CONTINUOUS
 90
31
 70
0
 10
2.3916745124
 20
23.8718930316
 10
2.4017269477
 20
23.8761967782
 10
2.4124231832
 20
23.8798989668
 10
2.4237632186
 20
23.8829995974
 10
2.4358876715
 20
23.8855210934
 10
2.4486559245
 20
23.8874410313
 10
2.4616461252
 20
23.888692141
 10
2.4748609384
 20
23.8892509146
 10
2.4882976993
 20
23.88914086
 10
2.5015265617
 20
23.8883652303
 10
2.5145408176
 20
23.8869023496
 10
2.5273471749
 20
23.8847738939
 10
2.5395359108
 20
23.8820481438
 10
2.5510870543
 20
23.8787058368
 10
2.5620205765
 20
23.8747662355
 10
2.5719866674
 20
23.8703554086
 10
2.5809539726
 20
23.8654581023
 10
2.5889538465
 20
23.8600895703
 10
2.5957305425
 20
23.8544216426
 10
2.6012446075
 20
23.848444669
 10
2.6055354947
 20
23.8421682997
 10
2.6084658165
 20
23.8357933147
 10
2.6099912581
 20
23.8293165555
 10
2.6101561344
 20
23.8227411806
 10
2.6089560023
 20
23.8162774464
 10
2.6063419998
 20
23.8099263085
 10
2.6023629889
 20
23.8036868112
 10
2.5971611126
 20
23.7977663446
 10
2.590783752
 20
23.7922340387
 10
2.583183526
 20
23.7870207634
 10
2.5743604346
 20
23.7821265187
  0
LINE
  5
28C
100
AcDbEntity
  8
ASSI
100
AcDbLine
 62
7
  6
CONTINUOUS
 10
2.3127971843
 20
23.8930124478
 11
2.2804933688
 21
23.8792896694
  0
LINE
  5
28D
100
AcDbEntity
  8
RACCORDO
100
AcDbLine
 62
250
  6
CONTINUOUS
 10
6.2598040277
 20
24.5393902031
 11
6.2401440368
 21
24.5324480854
  0
LWPOLYLINE
  5
28E
100
AcDbEntity
  8
ASSI
100
AcDbPolyline
 62
7
  6
CONTINUOUS
 90
3
 70
0
 10
0.8391879614
 20
21.1508323847
 10
0.8558254316
 20
21.156294658
 10
0.8724123293
 20
21.1580174493
  0
LINE
  5
28F
100
AcDbEntity
  8
ASSI
100
AcDbLine
 62
250
  6
CONTINUOUS
 10
3.7301555121
 20
-21.5371223002
 11
3.1892882062
 21
-21.427919305
  0
LINE
  5
290
100
AcDbEntity
  8
ASSI
100
AcDbLine
 62
250
  6
CONTINUOUS
 10
3.6570490849
 20
-21.2823113918
 11
3.1892882062
 21
-21.1878688393
  0
LWPOLYLINE
  5
291
100
AcDbEntity
  8
ASSI
100
AcDbPolyline
 62
7
  6
CONTINUOUS
 90
4
 70
0
 10
1.9731775085
 20
-21.6767795314
 10
1.9955738623
 20
-21.6820168957
 10
2.0199459348
 20
-21.6879252273
 10
2.0735309602
 20
-21.7010776097
  0
LWPOLYLINE
  5
292
100
AcDbEntity
  8
ASSI
100
AcDbPolyline
 62
7
  6
CONTINUOUS
 90
9
 70
0
 10
2.0735309602
 20
-21.7010776097
 10
2.1020753703
 20
-21.7079161026
 10
2.1309022178
 20
-21.7146978761
 10
2.1597158274
 20
-21.7210299802
 10
2.1881302993
 20
-21.7267004393
 10
2.2153327336
 20
-21.7317702057
 10
2.2409044644
 20
-21.7360638377
 10
2.2647981077
 20
-21.7391755981
 10
2.2868374555
 20
-21.7408441357
  0
LWPOLYLINE
  5
293
100
AcDbEntity
  8
ASSI
100
AcDbPolyline
 62
250
  6
CONTINUOUS
 90
13
 70
0
 10
1.2516903866
 20
-22.9709013892
 10
1.2711288087
 20
-22.9794374205
 10
1.2926083334
 20
-22.9866474412
 10
1.3157695505
 20
-22.9924108082
 10
1.3402249104
 20
-22.9966310851
 10
1.3655652093
 20
-22.9992376551
 10
1.3913664357
 20
-23.0001869034
 10
1.4171968658
 20
-22.9994629464
 10
1.4426242871
 20
-22.997077898
 10
1.4672232303
 20
-22.9930716664
 10
1.490582089
 20
-22.9875112866
 10
1.5123100067
 20
-22.9804897987
 10
1.5320434169
 20
-22.9721246911
  0
LWPOLYLINE
  5
294
100
AcDbEntity
  8
ASSI
100
AcDbPolyline
 62
250
  6
CONTINUOUS
 90
13
 70
0
 10
1.2516903866
 20
-22.6536325888
 10
1.2711288249
 20
-22.6621686264
 10
1.2926083657
 20
-22.6693786503
 10
1.3157695973
 20
-22.6751420179
 10
1.3402249691
 20
-22.679362293
 10
1.3655652761
 20
-22.6819688596
 10
1.3913665058
 20
-22.6829181036
 10
1.4171969338
 20
-22.6821941422
 10
1.4426243478
 20
-22.6798090901
 10
1.4672232795
 20
-22.6758028564
 10
1.4905821234
 20
-22.6702424767
 10
1.5123100241
 20
-22.6632209919
 10
1.5320434169
 20
-22.6548558907
  0
LWPOLYLINE
  5
295
100
AcDbEntity
  8
ASSI
100
AcDbPolyline
 62
7
  6
CONTINUOUS
 90
10
 70
0
 10
1.3166120033
 20
-23.1060926328
 10
1.3290689085
 20
-23.1118629555
 10
1.3504042303
 20
-23.1196701267
 10
1.3725830046
 20
-23.1252642695
 10
1.395368966
 20
-23.1285494624
 10
1.4186015685
 20
-23.129457515
 10
1.4420318743
 20
-23.1279274561
 10
1.4653238465
 20
-23.1239511116
 10
1.4882476695
 20
-23.1175524095
 10
1.5120797793
 20
-23.1080975657
  0
LINE
  5
296
100
AcDbEntity
  8
ASSI
100
AcDbLine
 62
7
  6
CONTINUOUS
 10
1.3168907588
 20
-23.1062333772
 11
-0.4286041008
 21
-22.2334859474
  0
LINE
  5
297
100
AcDbEntity
  8
ASSI
100
AcDbLine
 62
250
  6
CONTINUOUS
 10
1.2516903866
 20
-22.9709013892
 11
-0.3119284714
 21
-22.1890919602
  0
LINE
  5
298
100
AcDbEntity
  8
ASSI
100
AcDbLine
 62
250
  6
CONTINUOUS
 10
1.2516903866
 20
-22.6536325888
 11
0.3162218683
 21
-22.1858983297
  0
LINE
  5
299
100
AcDbEntity
  8
ASSI
100
AcDbLine
 62
250
  6
CONTINUOUS
 10
0.1226575822
 20
-22.0891161866
 11
-0.0039081498
 21
-22.0258333206
  0
LINE
  5
29A
100
AcDbEntity
  8
ASSI
100
AcDbLine
 62
250
  6
CONTINUOUS
 10
1.3403872991
 20
-22.4220926974
 11
0.5577033248
 21
-22.0307507103
  0
LWPOLYLINE
  5
29B
100
AcDbEntity
  8
ASSI
100
AcDbPolyline
 62
250
  6
CONTINUOUS
 90
16
 70
0
 10
1.3166145065
 20
-23.1060946862
 10
1.3098791508
 20
-23.1023474338
 10
1.3022745791
 20
-23.0971837895
 10
1.2951152448
 20
-23.0912571165
 10
1.2884332519
 20
-23.0845935899
 10
1.2822461888
 20
-23.0772103533
 10
1.2765798138
 20
-23.0691367334
 10
1.2714549922
 20
-23.0604024771
 10
1.2668891174
 20
-23.0510372983
 10
1.2628989635
 20
-23.0410752479
 10
1.2594985759
 20
-23.0305514341
 10
1.2567000372
 20
-23.0195034172
 10
1.2545136186
 20
-23.007972311
 10
1.2529468385
 20
-22.995999905
 10
1.252004757
 20
-22.9836282497
 10
1.2516903866
 20
-22.9709013892
  0
LWPOLYLINE
  5
29C
100
AcDbEntity
  8
RACCORDO
100
AcDbPolyline
 62
7
  6
CONTINUOUS
 90
10
 70
0
 10
-17.7267985874
 20
21.5910584637
 10
-18.0154751992
 20
17.5053511163
 10
-18.2790585464
 20
13.3600749839
 10
-18.5121431636
 20
9.2279052364
 10
-18.7146881884
 20
5.1092771278
 10
-18.8866741872
 20
1.0045472314
 10
-19.0280871086
 20
-3.0859577472
 10
-19.1389159335
 20
-7.1618851365
 10
-19.2191651925
 20
-11.2228206063
 10
-19.2682924928
 20
-15.2040951671
  0
LWPOLYLINE
  5
29D
100
AcDbEntity
  8
RACCORDO
100
AcDbPolyline
 62
250
  6
CONTINUOUS
 90
10
 70
0
 10
-17.6031787948
 20
21.4314882087
 10
-17.8980847823
 20
17.2903289479
 10
-18.162160544
 20
13.1612134687
 10
-18.3953684255
 20
9.0445225866
 10
-18.597683249
 20
4.9404508275
 10
-18.7690687325
 20
0.8495606
 10
-18.9094860731
 20
-3.2272218104
 10
-19.0189249096
 20
-7.2893452918
 10
-19.0973947609
 20
-11.3366304402
 10
-19.1449021871
 20
-15.3687157103
  0
LWPOLYLINE
  5
29E
100
AcDbEntity
  8
ASSI
100
AcDbPolyline
 62
7
  6
CONTINUOUS
 90
9
 70
0
 10
3.5524061293
 20
23.4873161989
 10
3.550763894
 20
23.4862887353
 10
3.5472099534
 20
23.4823188945
 10
3.5437189739
 20
23.4760436803
 10
3.5403587234
 20
23.4672993946
 10
3.5372386667
 20
23.4562585194
 10
3.5345618742
 20
23.4435580954
 10
3.5324382523
 20
23.4294139769
 10
3.5308692731
 20
23.4136192187
  0
LWPOLYLINE
  5
29F
100
AcDbEntity
  8
ASSI
100
AcDbPolyline
 62
7
  6
CONTINUOUS
 90
12
 70
0
 10
-0.7321293829
 20
20.3032347474
 10
-0.7434250162
 20
20.296748926
 10
-0.7657160619
 20
20.281406978
 10
-0.7866134272
 20
20.2634129302
 10
-0.8058057541
 20
20.2429653505
 10
-0.8225804568
 20
20.2209380693
 10
-0.8372433644
 20
20.1970572313
 10
-0.8497196798
 20
20.1712395462
 10
-0.859358122
 20
20.1447880315
 10
-0.8661652413
 20
20.1180341221
 10
-0.8702618135
 20
20.0902291605
 10
-0.8713895293
 20
20.066171556
  0
LWPOLYLINE
  5
2A0
100
AcDbEntity
  8
ASSI
100
AcDbPolyline
 62
250
  6
CONTINUOUS
 90
12
 70
0
 10
-0.6397257789
 20
20.2991133262
 10
-0.6481877935
 20
20.2944207099
 10
-0.6568696119
 20
20.2890834745
 10
-0.6657465471
 20
20.2830713225
 10
-0.6748113744
 20
20.2763398453
 10
-0.6840100431
 20
20.2688783118
 10
-0.6932444016
 20
20.2607227721
 10
-0.7024779053
 20
20.2518666929
 10
-0.7116706654
 20
20.2423080591
 10
-0.7207224186
 20
20.2321174616
 10
-0.7295934398
 20
20.2213118877
 10
-0.7382438316
 20
20.209910933
  0
LINE
  5
2A1
100
AcDbEntity
  8
ASSI
100
AcDbLine
 62
7
  6
CONTINUOUS
 10
-1.1594184981
 20
20.3684599209
 11
-1.3777645355
 21
20.2492584012
  0
LINE
  5
2A2
100
AcDbEntity
  8
ASSI
100
AcDbLine
 62
7
  6
CONTINUOUS
 10
0.8349780904
 20
21.14872549
 11
-0.7322223998
 21
20.3031848712
  0
LINE
  5
2A3
100
AcDbEntity
  8
ASSI
100
AcDbLine
 62
250
  6
CONTINUOUS
 10
0.9265249672
 20
21.1441415362
 11
-0.6397257789
 21
20.2991133262
  0
LINE
  5
2A4
100
AcDbEntity
  8
0
100
AcDbLine
 62
7
  6
CONTINUOUS
 10
10.172750253
 20
24.079130673
 11
14.3891300308
 21
26.2244402897
  0
LINE
  5
2A5
100
AcDbEntity
  8
ASSI
100
AcDbLine
 62
7
  6
CONTINUOUS
 10
0.8350215248
 20
21.1487488803
 11
0.8391879614
 21
21.1508323847
  0
LINE
  5
2A6
100
AcDbEntity
  8
ASSI
100
AcDbLine
 62
7
  6
CONTINUOUS
 10
-1.1594184981
 20
20.3684599209
 11
2.7389434423
 21
22.3020761825
  0
LINE
  5
2A7
100
AcDbEntity
  8
0
100
AcDbLine
 62
7
  6
CONTINUOUS
 10
13.3518380177
 20
26.8067198078
 11
9.7787643192
 21
25.101286491
  0
LINE
  5
2A8
100
AcDbEntity
  8
ASSI
100
AcDbLine
 62
7
  6
CONTINUOUS
 10
8.6508318972
 20
23.0873043853
 11
3.286080625
 21
20.5463255622
  0
LINE
  5
2A9
100
AcDbEntity
  8
ASSI
100
AcDbLine
 62
250
  6
CONTINUOUS
 10
1.4692529823
 20
21.394791319
 11
0.9265249672
 21
21.1441415362
  0
LINE
  5
2AA
100
AcDbEntity
  8
ASSI
100
AcDbLine
 62
7
  6
CONTINUOUS
 10
1.3831674788
 20
21.4020596353
 11
0.8392437671
 21
21.1508581576
  0
LWPOLYLINE
  5
2AB
100
AcDbEntity
  8
ASSI
100
AcDbPolyline
 62
250
  6
CONTINUOUS
 90
13
 70
0
 10
1.5320434169
 20
18.962017049
 10
1.5123100067
 20
18.9536519415
 10
1.490582089
 20
18.9466304536
 10
1.4672232303
 20
18.9410700738
 10
1.4426242871
 20
18.9370638421
 10
1.4171968658
 20
18.9346787937
 10
1.3913664357
 20
18.9339548367
 10
1.3655652093
 20
18.934904085
 10
1.3402249104
 20
18.937510655
 10
1.3157695505
 20
18.9417309319
 10
1.2926083334
 20
18.947494299
 10
1.2711288087
 20
18.9547043197
 10
1.2516903866
 20
18.9632403509
  0
LWPOLYLINE
  5
2AC
100
AcDbEntity
  8
DRAFT
100
AcDbPolyline
 62
7
  6
CONTINUOUS
 90
8
 70
0
 10
0.7851251502
 20
-18.7040465662
 10
0.8322922319
 20
-18.7247580841
 10
0.8782739901
 20
-18.7396589422
 10
0.9230704247
 20
-18.7487491406
 10
0.9671150112
 20
-18.7519913146
 10
1.0099742742
 20
-18.7494228288
 10
1.0503477871
 20
-18.7411557773
 10
1.0898080989
 20
-18.7262736999
  0
LWPOLYLINE
  5
2AD
100
AcDbEntity
  8
ASSI
100
AcDbPolyline
 62
250
  6
CONTINUOUS
 90
3
 70
0
 10
3.6800850731
 20
-21.2902248468
 10
3.6741388273
 20
-21.2875289547
 10
3.6570498241
 20
-21.2823117772
  0
LINE
  5
2AE
100
AcDbEntity
  8
ASSI
100
AcDbLine
 62
7
  6
CONTINUOUS
 10
0.1226575822
 20
-21.3382831617
 11
0.3162218683
 21
-21.4350653047
  0
LINE
  5
2AF
100
AcDbEntity
  8
ASSI
100
AcDbLine
 62
7
  6
CONTINUOUS
 10
0.0998173037
 20
-20.7455892662
 11
0.283498401
 21
-20.8374298149
  0
LINE
  5
2B0
100
AcDbEntity
  8
ASSI
100
AcDbLine
 62
7
  6
CONTINUOUS
 10
1.2093892189
 20
-21.3003752238
 11
1.9363961676
 21
-21.6638786982
  0
LINE
  5
2B1
100
AcDbEntity
  8
ASSI
100
AcDbLine
 62
7
  6
CONTINUOUS
 10
0.6437037939
 20
-20.3916994864
 11
1.2093892189
 21
-20.6745421989
  0
LINE
  5
2B2
100
AcDbEntity
  8
ASSI
100
AcDbLine
 62
7
  6
CONTINUOUS
 10
1.9363961676
 20
-20.9699659709
 11
2.1365723466
 21
-21.0700540604
  0
LINE
  5
2B3
100
AcDbEntity
  8
ASSI
100
AcDbLine
 62
250
  6
CONTINUOUS
 10
3.1892882062
 20
-21.0484398025
 11
3.6570490849
 21
-21.2823113918
  0
LINE
  5
2B4
100
AcDbEntity
  8
ASSI
100
AcDbLine
 62
7
  6
CONTINUOUS
 10
3.6803244912
 20
-21.2903441054
 11
3.1892882062
 21
-21.0448259626
  0
LWPOLYLINE
  5
2B5
100
AcDbEntity
  8
ASSI
100
AcDbPolyline
 62
250
  6
CONTINUOUS
 90
13
 70
0
 10
1.3403872991
 20
-22.4220926974
 10
1.3591003815
 20
-22.4325302695
 10
1.3786933136
 20
-22.4447311263
 10
1.3988345638
 20
-22.4584888173
 10
1.4191833228
 20
-22.4735705493
 10
1.43939527
 20
-22.4897211247
 10
1.4591283997
 20
-22.5066672602
 10
1.4780488081
 20
-22.5241222108
 10
1.4958363439
 20
-22.5417906219
 10
1.5121900246
 20
-22.5593735269
 10
1.5268331302
 20
-22.5765734061
 10
1.5395178852
 20
-22.5930992208
 10
1.5500296513
 20
-22.6086713384
  0
LWPOLYLINE
  5
2B6
100
AcDbEntity
  8
ASSI
100
AcDbPolyline
 62
7
  6
CONTINUOUS
 90
16
 70
0
 10
2.6617845272
 20
22.7458542437
 10
2.6852228741
 20
22.7675816464
 10
2.7054445617
 20
22.792806779
 10
2.7224495897
 20
22.8215296416
 10
2.7363403728
 20
22.8540780818
 10
2.7470144965
 20
22.890124252
 10
2.7541647171
 20
22.9286846089
 10
2.7576886201
 20
22.969932795
 10
2.7576886201
 20
23.0136951678
 10
2.7541647171
 20
23.0584672569
 10
2.7470144965
 20
23.1041778344
 10
2.7363403728
 20
23.1508981282
 10
2.7224495897
 20
23.1973373516
 10
2.7054445617
 20
23.2430652422
 10
2.6852228741
 20
23.2885120623
 10
2.6617845272
 20
23.333677812
  0
LINE
  5
2B7
100
AcDbEntity
  8
ASSI
100
AcDbLine
 62
7
  6
CONTINUOUS
 10
0.0891941689
 20
19.1849064045
 11
0.1226575822
 21
19.2104879528
  0
LWPOLYLINE
  5
2B8
100
AcDbEntity
  8
ASSI
100
AcDbPolyline
 62
250
  6
CONTINUOUS
 90
7
 70
0
 10
3.7475246167
 20
20.0739185512
 10
3.7642548178
 20
20.0837852469
 10
3.7782977868
 20
20.0946491966
 10
3.7894185459
 20
20.1063286179
 10
3.7974310136
 20
20.1186280832
 10
3.8022011184
 20
20.13134179
 10
3.8036566567
 20
20.1433843882
  0
LWPOLYLINE
  5
2B9
100
AcDbEntity
  8
ASSI
100
AcDbPolyline
 62
250
  6
CONTINUOUS
 90
7
 70
0
 10
3.7475246167
 20
19.7339749564
 10
3.7642548319
 20
19.7438416615
 10
3.7782978076
 20
19.7547056203
 10
3.7894185672
 20
19.7663850497
 10
3.7974310305
 20
19.7786845213
 10
3.8022011274
 20
19.7913982319
 10
3.8036566567
 20
19.8034407934
  0
LWPOLYLINE
  5
2BA
100
AcDbEntity
  8
ASSI
100
AcDbPolyline
 62
250
  6
CONTINUOUS
 90
28
 70
0
 10
1.4259882625
 20
19.2662563055
 10
1.4168665373
 20
19.2612462306
 10
1.4075930732
 20
19.2555611161
 10
1.3981961383
 20
19.2491825715
 10
1.3886865241
 20
19.242079316
 10
1.3791195936
 20
19.2342526548
 10
1.3695923362
 20
19.2257491274
 10
1.3601411387
 20
19.2165746555
 10
1.3508046806
 20
19.2067393677
 10
1.3416786901
 20
19.19632256
 10
1.3328020058
 20
19.1853549134
 10
1.3242068184
 20
19.1738620899
 10
1.3159692223
 20
19.1619367588
 10
1.3081266385
 20
19.1496328029
 10
1.3006979349
 20
19.1369796296
 10
1.2937220167
 20
19.1240437816
 10
1.2872262081
 20
19.1108810414
 10
1.2812257642
 20
19.0975278906
 10
1.2757372643
 20
19.0840242111
 10
1.2707783046
 20
19.0704159557
 10
1.2663651348
 20
19.0567507332
 10
1.2625107814
 20
19.0430709177
 10
1.2592279444
 20
19.0294234704
 10
1.2565272658
 20
19.015855001
 10
1.254416891
 20
19.0024071464
 10
1.2529039992
 20
18.9891244085
 10
1.2519940975
 20
18.9760538809
 10
1.2516903866
 20
18.9632403509
  0
LINE
  5
2BB
100
AcDbEntity
  8
ASSI
100
AcDbLine
 62
7
  6
CONTINUOUS
 10
3.1892882062
 20
18.1941065688
 11
2.2868374555
 21
17.7014321779
  0
LINE
  5
2BC
100
AcDbEntity
  8
ASSI
100
AcDbLine
 62
250
  6
CONTINUOUS
 10
3.2250068824
 20
18.1762472307
 11
2.1365723466
 21
17.5917246245
  0
LWPOLYLINE
  5
2BD
100
AcDbEntity
  8
ASSI
100
AcDbPolyline
 62
250
  6
CONTINUOUS
 90
28
 70
0
 10
1.5673880796
 20
19.0223776962
 10
1.5655278334
 20
19.0213935296
 10
1.5636493132
 20
19.0202681926
 10
1.5617525189
 20
19.0190016851
 10
1.5598261762
 20
19.0175913732
 10
1.5578815594
 20
19.0160398908
 10
1.5559524917
 20
19.0143551402
 10
1.5540388844
 20
19.0125321841
 10
1.5521408263
 20
19.0105759597
 10
1.5502924069
 20
19.0085091803
 10
1.5484955435
 20
19.006328737
 10
1.5467483187
 20
19.0040377388
 10
1.5450790706
 20
19.0016682259
 10
1.5434912277
 20
18.9992206898
 10
1.5419813613
 20
18.996694639
 10
1.540567524
 20
18.9941206393
 10
1.5392520045
 20
18.9915000615
 10
1.5380325141
 20
18.9888315348
 10
1.5369202383
 20
18.9861415132
 10
1.5359160915
 20
18.9834297714
 10
1.5350191594
 20
18.9806965347
 10
1.5342378851
 20
18.9779689328
 10
1.5335733245
 20
18.975247078
 10
1.5330244218
 20
18.9725308578
 10
1.5325964521
 20
18.9698470656
 10
1.532291174
 20
18.9672046322
 10
1.5321068289
 20
18.9645946267
 10
1.5320434169
 20
18.962017049
  0
LINE
  5
2BE
100
AcDbEntity
  8
ASSI
100
AcDbLine
 62
7
  6
CONTINUOUS
 10
9.8647575073
 20
22.1181920788
 11
3.4778686655
 21
18.7418065907
  0
LINE
  5
2BF
100
AcDbEntity
  8
0
100
AcDbLine
 62
7
  6
CONTINUOUS
 10
9.9509520632
 20
22.7328880654
 11
10.5431712174
 21
23.0451769355
  0
LINE
  5
2C0
100
AcDbEntity
  8
ASSI
100
AcDbLine
 62
7
  6
CONTINUOUS
 10
9.8420902172
 20
22.5168871941
 11
3.3048144539
 21
19.090445776
  0
LINE
  5
2C1
100
AcDbEntity
  8
ASSI
100
AcDbLine
 62
250
  6
CONTINUOUS
 10
3.0478883891
 20
20.0834598253
 11
1.4259882625
 21
19.2662563055
  0
LINE
  5
2C2
100
AcDbEntity
  8
ASSI
100
AcDbLine
 62
250
  6
CONTINUOUS
 10
3.1892882062
 20
19.839581216
 11
1.5673880796
 21
19.0223776962
  0
LINE
  5
2C3
100
AcDbEntity
  8
DRAFT
100
AcDbLine
 62
7
  6
CONTINUOUS
 10
10.855460451
 20
24.0118735611
 11
14.3951870176
 21
25.7874556613
  0
LINE
  5
2C4
100
AcDbEntity
  8
0
100
AcDbLine
 62
7
  6
CONTINUOUS
 10
10.6916911546
 20
22.8327542059
 11
11.1866659014
 21
23.0802415793
  0
LINE
  5
2C5
100
AcDbEntity
  8
RACCORDO
100
AcDbLine
 62
7
  6
CONTINUOUS
 10
13.6281789675
 20
23.2474090084
 11
12.3433795029
 21
22.6050092761
  0
LINE
  5
2C6
100
AcDbEntity
  8
DRAFT
100
AcDbLine
 62
7
  6
CONTINUOUS
 10
10.855460451
 20
24.021069009
 11
10.172750253
 21
23.6810647106
  0
LINE
  5
2C7
100
AcDbEntity
  8
ASSI
100
AcDbLine
 62
250
  6
CONTINUOUS
 10
3.5719928557
 20
20.3434195044
 11
3.0478883891
 21
20.0834598253
  0
LINE
  5
2C8
100
AcDbEntity
  8
ASSI
100
AcDbLine
 62
250
  6
CONTINUOUS
 10
3.7133926727
 20
20.0995408951
 11
3.1892882062
 21
19.839581216
  0
LINE
  5
2C9
100
AcDbEntity
  8
ASSI
100
AcDbLine
 62
250
  6
CONTINUOUS
 10
3.9194615796
 20
18.5210101336
 11
3.2246973932
 21
18.1764019753
  0
LINE
  5
2CA
100
AcDbEntity
  8
DRAFT
100
AcDbLine
 62
7
  6
CONTINUOUS
 10
3.9571512476
 20
18.4995635541
 11
10.3506526728
 21
21.6052010373
  0
LWPOLYLINE
  5
2CB
100
AcDbEntity
  8
RACCORDO
100
AcDbPolyline
 62
7
  6
CONTINUOUS
 90
9
 70
0
 10
14.476770576
 20
22.8231766752
 10
14.4939395833
 20
22.8309481174
 10
14.5108137233
 20
22.8370386003
 10
14.5273929961
 20
22.841448124
 10
14.5438029154
 20
22.8441749623
 10
14.5599179673
 20
22.8452208414
 10
14.5753616113
 20
22.8445909396
 10
14.5900083337
 20
22.8422869831
 10
14.6008661493
 20
22.839195013
  0
LINE
  5
2CC
100
AcDbEntity
  8
RACCORDO
100
AcDbLine
 62
250
  6
CONTINUOUS
 10
-2.0460930617
 20
15.461319
 11
1.3183225823
 21
16.9525275691
  0
LWPOLYLINE
  5
2CD
100
AcDbEntity
  8
ASSI
100
AcDbPolyline
 62
250
  6
CONTINUOUS
 90
13
 70
0
 10
1.5320434169
 20
18.6447482486
 10
1.5123099666
 20
18.6363831054
 10
1.4905820102
 20
18.6293615933
 10
1.4672231181
 20
18.6238011997
 10
1.4426241501
 20
18.6197949632
 10
1.4171967147
 20
18.617409917
 10
1.3913662815
 20
18.6166859677
 10
1.3655650639
 20
18.6176352275
 10
1.3402247845
 20
18.6202418108
 10
1.3157694514
 20
18.6244621009
 10
1.2926082657
 20
18.6302254803
 10
1.271128775
 20
18.6374355114
 10
1.2516903866
 20
18.6459715505
  0
LWPOLYLINE
  5
2CE
100
AcDbEntity
  8
DRAFT
100
AcDbPolyline
 62
7
  6
CONTINUOUS
 90
9
 70
0
 10
0.7851251502
 20
-17.5037042247
 10
0.7379580684
 20
-17.4829927068
 10
0.6919763102
 20
-17.4680918486
 10
0.6471798756
 20
-17.4590016503
 10
0.6031352891
 20
-17.4557594763
 10
0.5602760261
 20
-17.4583279621
 10
0.5199025132
 20
-17.4665950136
 10
0.4821998877
 20
-17.480653677
 10
0.4701399611
 20
-17.48662978
  0
LWPOLYLINE
  5
2CF
100
AcDbEntity
  8
DRAFT
100
AcDbPolyline
 62
7
  6
CONTINUOUS
 90
9
 70
0
 10
1.0679678626
 20
-17.3562362566
 10
1.0203255888
 20
-17.3353160825
 10
0.9738805879
 20
-17.3202651031
 10
0.92863286
 20
-17.3110833184
 10
0.8841445674
 20
-17.3078084704
 10
0.8408535479
 20
-17.3104028171
 10
0.8000733142
 20
-17.318753132
 10
0.7619908533
 20
-17.3329534199
 10
0.7498092416
 20
-17.3389898248
  0
LINE
  5
2D0
100
AcDbEntity
  8
ASSI
100
AcDbLine
 62
250
  6
CONTINUOUS
 10
3.6749954064
 20
-21.2930966506
 11
3.6569982301
 21
-21.2823011241
  0
LWPOLYLINE
  5
2D1
100
AcDbEntity
  8
ASSI
100
AcDbPolyline
 62
7
  6
CONTINUOUS
 90
9
 70
0
 10
-13.457890677
 20
26.0421149335
 10
-13.4577570575
 20
26.0339881888
 10
-13.4555742844
 20
26.0082203695
 10
-13.4507266529
 20
25.9830429213
 10
-13.4432639024
 20
25.9587740279
 10
-13.4333595798
 20
25.935807365
 10
-13.421148798
 20
25.9142929866
 10
-13.4067316929
 20
25.8943585896
 10
-13.3903493518
 20
25.8763042417
  0
LWPOLYLINE
  5
2D2
100
AcDbEntity
  8
0
100
AcDbPolyline
 62
7
  6
CONTINUOUS
 90
34
 70
0
 10
-12.6765692178
 20
-11.9901704676
 10
-12.6759999213
 20
-12.048855706
 10
-12.6721927363
 20
-12.108792364
 10
-12.6651472488
 20
-12.1699802659
 10
-12.6547803122
 20
-12.2329235869
 10
-12.641173079
 20
-12.2971172872
 10
-12.6245717592
 20
-12.3610474673
 10
-12.6048356917
 20
-12.4246603463
 10
-12.5821031039
 20
-12.4880086966
 10
-12.5570396729
 20
-12.5497389778
 10
-12.529666817
 20
-12.6096082046
 10
-12.499961039
 20
-12.667858528
 10
-12.4685219195
 20
-12.723864684
 10
-12.4354345602
 20
-12.777483661
 10
-12.4006121026
 20
-12.8288577655
 10
-12.3643970564
 20
-12.8777900891
 10
-12.3267159168
 20
-12.9243611625
 10
-12.2876402616
 20
-12.9684896549
 10
-12.2477311793
 20
-13.0097362798
 10
-12.2070006194
 20
-13.0480544256
 10
-12.1654356101
 20
-13.0834902815
 10
-12.1235611586
 20
-13.1157443287
 10
-12.0817462437
 20
-13.1446685129
 10
-12.0396220494
 20
-13.1704109662
 10
-11.9966066957
 20
-13.1931163577
 10
-11.9522587484
 20
-13.2131074336
 10
-11.9070169395
 20
-13.2300602454
 10
-11.8616197434
 20
-13.243149462
 10
-11.8157340541
 20
-13.2522105888
 10
-11.7696917495
 20
-13.2574075405
 10
-11.7252322102
 20
-13.2584091083
 10
-11.6828016847
 20
-13.2549453512
 10
-11.6419576892
 20
-13.2472878231
 10
-11.6017137819
 20
-13.235432214
  0
LINE
  5
2D3
100
AcDbEntity
  8
ASSI
100
AcDbLine
 62
7
  6
CONTINUOUS
 10
-13.4578902384
 20
26.0421149338
 11
-13.457890285
 21
26.3594520428
  0
LINE
  5
2D4
100
AcDbEntity
  8
ASSI
100
AcDbLine
 62
250
  6
CONTINUOUS
 10
-13.3993116413
 20
25.971489915
 11
-13.3993116413
 21
26.2887413648
  0
LINE
  5
2D5
100
AcDbEntity
  8
0
100
AcDbLine
 62
7
  6
CONTINUOUS
 10
-13.2231700923
 20
24.8385829384
 11
-13.2231700923
 21
24.2232739064
  0
LINE
  5
2D6
100
AcDbEntity
  8
ASSI
100
AcDbLine
 62
7
  6
CONTINUOUS
 10
-12.7430271646
 20
25.0866364199
 11
-12.7430271646
 21
25.5405985243
  0
LINE
  5
2D7
100
AcDbEntity
  8
ASSI
100
AcDbLine
 62
250
  6
CONTINUOUS
 10
-12.6698038599
 20
24.9949127277
 11
-12.6698038599
 21
25.5039868719
  0
LINE
  5
2D8
100
AcDbEntity
  8
ASSI
100
AcDbLine
 62
7
  6
CONTINUOUS
 10
-12.5370664277
 20
24.8036963183
 11
-12.5370664277
 21
25.4415417392
  0
LINE
  5
2D9
100
AcDbEntity
  8
ASSI
100
AcDbLine
 62
250
  6
CONTINUOUS
 10
-12.463843123
 20
24.7529052804
 11
-12.463843123
 21
25.5037383053
  0
LINE
  5
2DA
100
AcDbEntity
  8
ASSI
100
AcDbLine
 62
250
  6
CONTINUOUS
 10
-12.2702788369
 20
24.6561231374
 11
-12.2702788369
 21
25.4069561623
  0
LINE
  5
2DB
100
AcDbEntity
  8
ASSI
100
AcDbLine
 62
250
  6
CONTINUOUS
 10
-11.9198375489
 20
24.5317755608
 11
-11.9198375489
 21
25.1290037164
  0
LINE
  5
2DC
100
AcDbEntity
  8
0
100
AcDbLine
 62
7
  6
CONTINUOUS
 10
-12.671897035
 20
-11.7060691922
 11
-12.6765692178
 21
-11.9901704676
  0
LINE
  5
2DD
100
AcDbEntity
  8
DRAFT
100
AcDbLine
 62
7
  6
CONTINUOUS
 10
-12.676569243
 20
-11.9901702264
 11
-12.67189372
 21
-11.7058711516
  0
LINE
  5
2DE
100
AcDbEntity
  8
0
100
AcDbLine
 62
7
  6
CONTINUOUS
 10
-12.6669733519
 20
-11.4181717156
 11
-12.671897035
 21
-11.7060691922
  0
LINE
  5
2DF
100
AcDbEntity
  8
DRAFT
100
AcDbLine
 62
7
  6
CONTINUOUS
 10
-12.67189372
 20
-11.7058711516
 11
-12.6669655287
 21
-11.4177230821
  0
LINE
  5
2E0
100
AcDbEntity
  8
0
100
AcDbLine
 62
7
  6
CONTINUOUS
 10
-12.6617902543
 20
-11.1264466708
 11
-12.6669733519
 21
-11.4181717156
  0
LINE
  5
2E1
100
AcDbEntity
  8
DRAFT
100
AcDbLine
 62
7
  6
CONTINUOUS
 10
-12.6669655287
 20
-11.4177230821
 11
-12.6617786735
 21
-11.1258069254
  0
LINE
  5
2E2
100
AcDbEntity
  8
0
100
AcDbLine
 62
7
  6
CONTINUOUS
 10
-12.6563380738
 20
-10.8307784504
 11
-12.6617902543
 21
-11.1264466708
  0
LINE
  5
2E3
100
AcDbEntity
  8
DRAFT
100
AcDbLine
 62
7
  6
CONTINUOUS
 10
-12.6617786735
 20
-11.1258069254
 11
-12.6563350366
 21
-10.8306181761
  0
LINE
  5
2E4
100
AcDbEntity
  8
0
100
AcDbLine
 62
7
  6
CONTINUOUS
 10
-12.650630568
 20
-10.5322756849
 11
-12.6563380738
 21
-10.8307784504
  0
LINE
  5
2E5
100
AcDbEntity
  8
DRAFT
100
AcDbLine
 62
7
  6
CONTINUOUS
 10
-12.6563350366
 20
-10.8306181761
 11
-12.6506315819
 21
-10.5323282415
  0
LWPOLYLINE
  5
2E6
100
AcDbEntity
  8
ASSI
100
AcDbPolyline
 62
250
  6
CONTINUOUS
 90
18
 70
0
 10
-13.3993116413
 20
26.2887413648
 10
-13.3991058671
 20
26.2993014579
 10
-13.3984657475
 20
26.3103570601
 10
-13.3973561794
 20
26.321895877
 10
-13.3957381183
 20
26.3339289591
 10
-13.3935799175
 20
26.3464063483
 10
-13.3908691119
 20
26.3592142693
 10
-13.3875851297
 20
26.3723183776
 10
-13.3837095058
 20
26.3856790921
 10
-13.3792567175
 20
26.3991659266
 10
-13.3742234716
 20
26.412732737
 10
-13.3686093765
 20
26.4263293528
 10
-13.3624576056
 20
26.4398179453
 10
-13.3557869129
 20
26.4531406528
 10
-13.3486108111
 20
26.4662546282
 10
-13.3409844982
 20
26.4790506579
 10
-13.3329451699
 20
26.4914683901
 10
-13.3245128274
 20
26.5034787488
  0
LINE
  5
2E7
100
AcDbEntity
  8
DRAFT
100
AcDbLine
 62
7
  6
CONTINUOUS
 10
-12.6506315819
 20
-10.5323282415
 11
-12.6447721085
 21
-10.236398066
  0
LINE
  5
2E8
100
AcDbEntity
  8
0
100
AcDbLine
 62
7
  6
CONTINUOUS
 10
-12.6447680033
 20
-10.2361942204
 11
-12.650630568
 21
-10.5322756849
  0
LINE
  5
2E9
100
AcDbEntity
  8
DRAFT
100
AcDbLine
 62
7
  6
CONTINUOUS
 10
-12.6447721085
 20
-10.236398066
 11
-12.6387714815
 21
-9.9433026691
  0
LINE
  5
2EA
100
AcDbEntity
  8
0
100
AcDbLine
 62
7
  6
CONTINUOUS
 10
-12.6387689432
 20
-9.9431806827
 11
-12.6447680033
 21
-10.2361942204
  0
LINE
  5
2EB
100
AcDbEntity
  8
DRAFT
100
AcDbLine
 62
7
  6
CONTINUOUS
 10
-12.6387714815
 20
-9.9433026691
 11
-12.6326426001
 21
-9.653368657
  0
LINE
  5
2EC
100
AcDbEntity
  8
0
100
AcDbLine
 62
7
  6
CONTINUOUS
 10
-12.6326417592
 20
-9.6533294875
 11
-12.6387689432
 21
-9.9431806827
  0
LINE
  5
2ED
100
AcDbEntity
  8
0
100
AcDbLine
 62
7
  6
CONTINUOUS
 10
-12.6263934798
 20
-9.3666666924
 11
-12.6326417592
 21
-9.6533294875
  0
LINE
  5
2EE
100
AcDbEntity
  8
DRAFT
100
AcDbLine
 62
7
  6
CONTINUOUS
 10
-12.6326426001
 20
-9.653368657
 11
-12.6263934857
 21
-9.3666669563
  0
LWPOLYLINE
  5
2EF
100
AcDbEntity
  8
DRAFT
100
AcDbPolyline
 62
7
  6
CONTINUOUS
 90
3
 70
0
 10
-12.6263934857
 20
-9.3666669563
 10
-12.6219511716
 20
-9.2927232613
 10
-12.6125583992
 20
-9.2229871415
  0
LWPOLYLINE
  5
2F0
100
AcDbEntity
  8
ASSI
100
AcDbPolyline
 62
250
  6
CONTINUOUS
 90
7
 70
0
 10
-8.7828440485
 20
26.4366347408
 10
-8.7842995778
 20
26.4245921793
 10
-8.7890696746
 20
26.4118784687
 10
-8.7970821379
 20
26.3995789971
 10
-8.8082028975
 20
26.3878995677
 10
-8.8222458733
 20
26.3770356089
 10
-8.8389760884
 20
26.3671689038
  0
LWPOLYLINE
  5
2F1
100
AcDbEntity
  8
ASSI
100
AcDbPolyline
 62
7
  6
CONTINUOUS
 90
3
 70
0
 10
-8.7921457405
 20
26.0275463612
 10
-8.7867813945
 20
26.051703379
 10
-8.7836384227
 20
26.0765328679
  0
LWPOLYLINE
  5
2F2
100
AcDbEntity
  8
ASSI
100
AcDbPolyline
 62
250
  6
CONTINUOUS
 90
17
 70
0
 10
-0.7382438316
 20
20.209910933
 10
-0.7465821168
 20
20.198013845
 10
-0.7545682449
 20
20.1856644827
 10
-0.7621736418
 20
20.172892912
 10
-0.769336466
 20
20.1597943362
 10
-0.776022622
 20
20.1464302321
 10
-0.7822153802
 20
20.1328329614
 10
-0.7878877686
 20
20.1190604496
 10
-0.793018276
 20
20.1051648613
 10
-0.7975895651
 20
20.0911929673
 10
-0.8015850014
 20
20.0771957417
 10
-0.8049903327
 20
20.0632227843
 10
-0.8077931162
 20
20.0493245645
 10
-0.8099830264
 20
20.0355532003
 10
-0.8115524389
 20
20.0219586744
 10
-0.81249611
 20
20.0085887138
 10
-0.8128109361
 20
19.9954910123
  0
LINE
  5
2F3
100
AcDbEntity
  8
ASSI
100
AcDbLine
 62
250
  6
CONTINUOUS
 10
3.5781969359
 20
17.5666392984
 11
2.4897624
 21
16.9821166923
  0
LINE
  5
2F4
100
AcDbEntity
  8
RACCORDO
100
AcDbLine
 62
250
  6
CONTINUOUS
 10
19.1804332441
 20
23.472460147
 11
4.5782600226
 21
16.0435638192
  0
LINE
  5
2F5
100
AcDbEntity
  8
RACCORDO
100
AcDbLine
 62
7
  6
CONTINUOUS
 10
14.4767042029
 20
22.8231434887
 11
14.0126916883
 21
22.5911372314
  0
LINE
  5
2F6
100
AcDbEntity
  8
ASSI
100
AcDbLine
 62
250
  6
CONTINUOUS
 10
4.2729611223
 20
17.9113136103
 11
3.5781969359
 21
17.566705452
  0
LWPOLYLINE
  5
2F7
100
AcDbEntity
  8
RACCORDO
100
AcDbPolyline
 62
250
  6
CONTINUOUS
 90
34
 70
0
 10
19.1804332441
 20
23.472460147
 10
19.1992697594
 20
23.4817832483
 10
19.2177118761
 20
23.4908257854
 10
19.235745899
 20
23.4995810431
 10
19.2533584359
 20
23.5080425197
 10
19.2705364077
 20
23.5162039318
 10
19.2872670579
 20
23.5240592186
 10
19.3035379623
 20
23.5316025467
 10
19.3193370379
 20
23.5388283144
 10
19.3346525524
 20
23.5457311558
 10
19.3494731322
 20
23.5523059448
 10
19.3637877716
 20
23.558547799
 10
19.3775858405
 20
23.5644520832
 10
19.3908570923
 20
23.5700144126
 10
19.4035916717
 20
23.5752306569
 10
19.4157801219
 20
23.5800969422
 10
19.4274133918
 20
23.584609655
 10
19.4384828424
 20
23.588765444
 10
19.4489802534
 20
23.5925612232
 10
19.4588978295
 20
23.5959941737
 10
19.4682282058
 20
23.5990617462
 10
19.4769644534
 20
23.6017616628
 10
19.4851000849
 20
23.6040919184
 10
19.4926290587
 20
23.6060507827
 10
19.4995457836
 20
23.6076368008
 10
19.5058451233
 20
23.6088487952
 10
19.5115223999
 20
23.6096858656
 10
19.5165733974
 20
23.6101473906
 10
19.5209943649
 20
23.6102330274
 10
19.5247820193
 20
23.6099427123
 10
19.527933548
 20
23.609276661
 10
19.5304466105
 20
23.6082353681
 10
19.5323193407
 20
23.6068196068
 10
19.533276476
 20
23.6055585336
  0
LINE
  5
2F8
100
AcDbEntity
  8
RACCORDO
100
AcDbLine
 62
7
  6
CONTINUOUS
 10
18.8375356682
 20
24.0638709826
 11
11.1033467567
 21
20.3069957763
  0
LINE
  5
2F9
100
AcDbEntity
  8
0
100
AcDbLine
 62
7
  6
CONTINUOUS
 10
18.0122892005
 20
24.4764942164
 11
14.4488583639
 21
22.7662394686
  0
LWPOLYLINE
  5
2FA
100
AcDbEntity
  8
RACCORDO
100
AcDbPolyline
 62
7
  6
CONTINUOUS
 90
33
 70
0
 10
18.8375356682
 20
24.0638709826
 10
18.8528436412
 20
24.0711696671
 10
18.8679737822
 20
24.0781037872
 10
18.8829187808
 20
24.0846722663
 10
18.897670108
 20
24.0908746757
 10
18.9122219322
 20
24.0967099964
 10
18.9265711158
 20
24.1021765414
 10
18.9407106043
 20
24.1072741706
 10
18.9546336273
 20
24.1120027723
 10
18.9683376001
 20
24.1163609138
 10
18.9818157417
 20
24.1203490473
 10
18.9950615786
 20
24.1239676669
 10
19.0080731236
 20
24.1272156274
 10
19.020843889
 20
24.130093963
 10
19.0333677127
 20
24.1326037597
 10
19.0456432396
 20
24.1347441834
 10
19.0576642955
 20
24.1365168352
 10
19.0694250423
 20
24.1379233752
 10
19.0809247814
 20
24.1389632939
 10
19.0921576707
 20
24.1396387399
 10
19.1031182077
 20
24.1399519257
 10
19.1138063621
 20
24.1399026699
 10
19.12421664
 20
24.1394936453
 10
19.1343438848
 20
24.1387275919
 10
19.1441887372
 20
24.1376046507
 10
19.1537460681
 20
24.1361279921
 10
19.1630110716
 20
24.1343008548
 10
19.1719850413
 20
24.1321236912
 10
19.18066322
 20
24.1296001413
 10
19.1890411628
 20
24.1267339122
 10
19.1971208017
 20
24.1235257507
 10
19.2048977606
 20
24.1199797343
 10
19.2064469908
 20
24.1192150905
  0
LINE
  5
2FB
100
AcDbEntity
  8
RACCORDO
100
AcDbLine
 62
250
  6
CONTINUOUS
 10
-1.7111580391
 20
14.8430831809
 11
1.6532576049
 21
16.33429175
  0
LINE
  5
2FC
100
AcDbEntity
  8
DRAFT
100
AcDbLine
 62
7
  6
CONTINUOUS
 10
2.4897624
 20
-16.2917814475
 11
0.6437037939
 21
-15.3687521444
  0
LWPOLYLINE
  5
2FD
100
AcDbEntity
  8
0
100
AcDbPolyline
 62
7
  6
CONTINUOUS
 90
25
 70
0
 10
-11.2426727501
 20
-10.0585269492
 10
-11.2436845408
 20
-9.9824076969
 10
-11.2498447605
 20
-9.9051782445
 10
-11.2611529138
 20
-9.8268383885
 10
-11.2777611643
 20
-9.746705971
 10
-11.2995134176
 20
-9.6654614329
 10
-11.3259466815
 20
-9.585148439
 10
-11.3571787308
 20
-9.505838296
 10
-11.3930854236
 20
-9.4274569442
 10
-11.4328425318
 20
-9.3518307574
 10
-11.4765496636
 20
-9.2790215474
 10
-11.524099712
 20
-9.2089642736
 10
-11.5743612117
 20
-9.1432963069
 10
-11.6273794053
 20
-9.0821462281
 10
-11.683102682
 20
-9.0253827359
 10
-11.7402583235
 20
-8.9742551643
 10
-11.7988535633
 20
-8.9288952424
 10
-11.8588775641
 20
-8.8891697247
 10
-11.919035181
 20
-8.8559325405
 10
-11.9793590242
 20
-8.8293080688
 10
-12.0398163212
 20
-8.8091718913
 10
-12.0990188946
 20
-8.7960069457
 10
-12.1569412885
 20
-8.7899819654
 10
-12.2136127188
 20
-8.7909298474
 10
-12.2677319169
 20
-8.7988319117
  0
LINE
  5
2FE
100
AcDbEntity
  8
ASSI
100
AcDbLine
 62
7
  6
CONTINUOUS
 10
-11.3771114862
 20
24.8576406851
 11
-11.3771114862
 21
24.4166462432
  0
LINE
  5
2FF
100
AcDbEntity
  8
ASSI
100
AcDbLine
 62
250
  6
CONTINUOUS
 10
-11.3348103185
 20
24.9392219031
 11
-11.3348103185
 21
25.2564907035
  0
LINE
  5
300
100
AcDbEntity
  8
ASSI
100
AcDbLine
 62
250
  6
CONTINUOUS
 10
-11.0544572882
 20
24.9379986012
 11
-11.0544572882
 21
25.2552674016
  0
LINE
  5
301
100
AcDbEntity
  8
0
100
AcDbLine
 62
7
  6
CONTINUOUS
 10
-10.6700047051
 20
22.9466912128
 11
-10.6700047051
 21
22.9694610193
  0
LINE
  5
302
100
AcDbEntity
  8
ASSI
100
AcDbLine
 62
250
  6
CONTINUOUS
 10
-10.6501045375
 20
23.9850630665
 11
-10.6501045375
 21
24.6652343549
  0
LINE
  5
303
100
AcDbEntity
  8
ASSI
100
AcDbLine
 62
250
  6
CONTINUOUS
 10
-10.2996632496
 20
24.7528829766
 11
-10.2996632496
 21
23.9946825304
  0
LINE
  5
304
100
AcDbEntity
  8
0
100
AcDbLine
 62
250
  6
CONTINUOUS
 10
-10.0857073667
 20
22.8507823742
 11
-10.0857073667
 21
22.6545425436
  0
LINE
  5
305
100
AcDbEntity
  8
0
100
AcDbLine
 62
250
  6
CONTINUOUS
 10
-9.8066150953
 20
22.7112362386
 11
-9.8066150953
 21
22.5149964079
  0
LWPOLYLINE
  5
306
100
AcDbEntity
  8
ASSI
100
AcDbPolyline
 62
250
  6
CONTINUOUS
 90
28
 70
0
 10
-11.0544572882
 20
25.2552674016
 10
-11.0544255311
 20
25.2574073484
 10
-11.0542900931
 20
25.2596358674
 10
-11.0540509742
 20
25.2619529587
 10
-11.053712274
 20
25.2643701751
 10
-11.0532698929
 20
25.2668759637
 10
-11.0527115326
 20
25.2694356659
 10
-11.0520331448
 20
25.2720520678
 10
-11.0512387779
 20
25.2747223834
 10
-11.0503282781
 20
25.2774035961
 10
-11.0492975677
 20
25.2800965075
 10
-11.0481507244
 20
25.2828003161
 10
-11.0468998273
 20
25.2854696009
 10
-11.0455428497
 20
25.2881014672
 10
-11.0440818183
 20
25.2906988097
 10
-11.0425348923
 20
25.2932248915
 10
-11.0409018545
 20
25.2956763395
 10
-11.0391829221
 20
25.2980565268
 10
-11.0373969062
 20
25.3003388349
 10
-11.0355432528
 20
25.3025218211
 10
-11.0336225159
 20
25.3046069282
 10
-11.031655169
 20
25.3065718656
 10
-11.0296406514
 20
25.308415325
 10
-11.0275795238
 20
25.3101386148
 10
-11.0254939419
 20
25.3117233686
 10
-11.0233912908
 20
25.3131634646
 10
-11.0212641854
 20
25.3144650246
 10
-11.0191126256
 20
25.3156280488
  0
LINE
  5
307
100
AcDbEntity
  8
DRAFT
100
AcDbLine
 62
7
  6
CONTINUOUS
 10
-11.2880806263
 20
-12.3913444316
 11
-11.2928649033
 21
-12.6820006188
  0
LINE
  5
308
100
AcDbEntity
  8
0
100
AcDbLine
 62
7
  6
CONTINUOUS
 10
-11.2928649119
 20
-12.6820011526
 11
-11.2880806274
 21
-12.3913444936
  0
LINE
  5
309
100
AcDbEntity
  8
DRAFT
100
AcDbLine
 62
7
  6
CONTINUOUS
 10
-11.2831008165
 20
-12.1005966217
 11
-11.2880806263
 21
-12.3913444316
  0
LINE
  5
30A
100
AcDbEntity
  8
0
100
AcDbLine
 62
7
  6
CONTINUOUS
 10
-11.2880806274
 20
-12.3913444936
 11
-11.2831008152
 21
-12.1005965493
  0
LINE
  5
30B
100
AcDbEntity
  8
DRAFT
100
AcDbLine
 62
7
  6
CONTINUOUS
 10
-11.2779254788
 20
-11.8097574282
 11
-11.2831008165
 21
-12.1005966217
  0
LINE
  5
30C
100
AcDbEntity
  8
0
100
AcDbLine
 62
7
  6
CONTINUOUS
 10
-11.2831008152
 20
-12.1005965493
 11
-11.2779254795
 21
-11.809757467
  0
LINE
  5
30D
100
AcDbEntity
  8
DRAFT
100
AcDbLine
 62
7
  6
CONTINUOUS
 10
-11.2725546203
 20
-11.5188272032
 11
-11.2779254788
 21
-11.8097574282
  0
LINE
  5
30E
100
AcDbEntity
  8
0
100
AcDbLine
 62
7
  6
CONTINUOUS
 10
-11.2779254795
 20
-11.809757467
 11
-11.2725546208
 21
-11.5188272313
  0
LINE
  5
30F
100
AcDbEntity
  8
DRAFT
100
AcDbLine
 62
7
  6
CONTINUOUS
 10
-11.2669187969
 20
-11.2242380695
 11
-11.2725546203
 21
-11.5188272032
  0
LINE
  5
310
100
AcDbEntity
  8
0
100
AcDbLine
 62
7
  6
CONTINUOUS
 10
-11.2725546208
 20
-11.5188272313
 11
-11.2669144913
 21
-11.2240169081
  0
LWPOLYLINE
  5
311
100
AcDbEntity
  8
ASSI
100
AcDbPolyline
 62
250
  6
CONTINUOUS
 90
28
 70
0
 10
-11.3348103185
 20
25.2564907035
 10
-11.3345992127
 20
25.267159701
 10
-11.3339426739
 20
25.2783106809
 10
-11.3328071553
 20
25.2899299884
 10
-11.3311554103
 20
25.3020274877
 10
-11.3289574608
 20
25.3145520517
 10
-11.3262024008
 20
25.3273888097
 10
-11.3228714642
 20
25.3405027782
 10
-11.318948337
 20
25.3538539562
 10
-11.314449658
 20
25.367311539
 10
-11.3093746433
 20
25.3808277989
 10
-11.3037243501
 20
25.3943550548
 10
-11.2975417925
 20
25.4077616617
 10
-11.2908488845
 20
25.4209865483
 10
-11.2836581492
 20
25.4339926228
 10
-11.2760156994
 20
25.4466893078
 10
-11.2679554069
 20
25.4590196771
 10
-11.2594981836
 20
25.4709512284
 10
-11.2506781627
 20
25.4824352429
 10
-11.2415277531
 20
25.4934292843
 10
-11.2320780384
 20
25.5038958252
 10
-11.2223635859
 20
25.5137968725
 10
-11.2124185204
 20
25.5230974571
 10
-11.2022782505
 20
25.5317642937
 10
-11.1919806423
 20
25.5397655559
 10
-11.181562845
 20
25.5470728325
 10
-11.1710610675
 20
25.5536608828
 10
-11.1605124426
 20
25.5595066581
  0
LINE
  5
312
100
AcDbEntity
  8
DRAFT
100
AcDbLine
 62
7
  6
CONTINUOUS
 10
-11.2610564477
 20
-10.928255826
 11
-11.2669187969
 21
-11.2242380695
  0
LINE
  5
313
100
AcDbEntity
  8
0
100
AcDbLine
 62
7
  6
CONTINUOUS
 10
-11.2669144913
 20
-11.2240169081
 11
-11.2610471293
 21
-10.927793266
  0
LINE
  5
314
100
AcDbEntity
  8
DRAFT
100
AcDbLine
 62
7
  6
CONTINUOUS
 10
-11.2550540584
 20
-10.6351612676
 11
-11.2610564477
 21
-10.928255826
  0
LINE
  5
315
100
AcDbEntity
  8
0
100
AcDbLine
 62
7
  6
CONTINUOUS
 10
-11.2610471293
 20
-10.927793266
 11
-11.2550456373
 21
-10.6347567492
  0
LINE
  5
316
100
AcDbEntity
  8
DRAFT
100
AcDbLine
 62
7
  6
CONTINUOUS
 10
-11.2489234817
 20
-10.3452280613
 11
-11.2550540584
 21
-10.6351612676
  0
LINE
  5
317
100
AcDbEntity
  8
0
100
AcDbLine
 62
7
  6
CONTINUOUS
 10
-11.2550456373
 20
-10.6347567492
 11
-11.2489184439
 21
-10.3449933054
  0
LINE
  5
318
100
AcDbEntity
  8
0
100
AcDbLine
 62
7
  6
CONTINUOUS
 10
-11.2489184439
 20
-10.3449933054
 11
-11.2426727501
 21
-10.0585269492
  0
LINE
  5
319
100
AcDbEntity
  8
DRAFT
100
AcDbLine
 62
7
  6
CONTINUOUS
 10
-11.2426727371
 20
-10.0585271341
 11
-11.2489234817
 21
-10.3452280613
  0
LINE
  5
31A
100
AcDbEntity
  8
ASSI
100
AcDbLine
 62
7
  6
CONTINUOUS
 10
-8.7836384227
 20
26.0765328679
 11
-8.7828442312
 21
26.0967074432
  0
LWPOLYLINE
  5
31B
100
AcDbEntity
  8
DRAFT
100
AcDbPolyline
 62
7
  6
CONTINUOUS
 90
12
 70
0
 10
-11.2928649033
 20
-12.6820006188
 10
-11.2969735775
 20
-12.7564418397
 10
-11.3061489635
 20
-12.8265810971
 10
-11.3203905597
 20
-12.8924181942
 10
-11.3398630491
 20
-12.9543478631
 10
-11.3643980233
 20
-13.0119737624
 10
-11.3934951576
 20
-13.0641090239
 10
-11.4272959309
 20
-13.1106917322
 10
-11.465652696
 20
-13.1517811572
 10
-11.5076331078
 20
-13.1863729918
 10
-11.5532544189
 20
-13.2142956541
 10
-11.6017107
 20
-13.2354392972
  0
LWPOLYLINE
  5
31C
100
AcDbEntity
  8
0
100
AcDbPolyline
 62
7
  6
CONTINUOUS
 90
3
 70
0
 10
-11.3003207981
 20
-12.7886537711
 10
-11.2951777827
 20
-12.7363162634
 10
-11.2928649119
 20
-12.6820011526
  0
LWPOLYLINE
  5
31D
100
AcDbEntity
  8
ASSI
100
AcDbPolyline
 62
250
  6
CONTINUOUS
 90
7
 70
0
 10
-8.7828440485
 20
26.096691146
 10
-8.784299586
 20
26.0846485508
 10
-8.7890696901
 20
26.0719348437
 10
-8.7970821575
 20
26.0596353778
 10
-8.8082029167
 20
26.0479559558
 10
-8.8222458862
 20
26.0370920054
 10
-8.8389760884
 20
26.0272253089
  0
LWPOLYLINE
  5
31E
100
AcDbEntity
  8
DRAFT
100
AcDbPolyline
 62
7
  6
CONTINUOUS
 90
7
 70
0
 10
-12.6125583992
 20
-9.2229871415
 10
-12.5982148068
 20
-9.1574584676
 10
-12.5787651291
 20
-9.0957392189
 10
-12.5543610576
 20
-9.0382259092
 10
-12.5254623385
 20
-8.986110087
 10
-12.4918893172
 20
-8.9394296569
 10
-12.453815077
 20
-8.8981439322
  0
LINE
  5
31F
100
AcDbEntity
  8
ASSI
100
AcDbLine
 62
250
  6
CONTINUOUS
 10
3.1892882062
 20
19.0181943531
 11
3.7301555121
 21
19.6874818392
  0
LINE
  5
320
100
AcDbEntity
  8
ASSI
100
AcDbLine
 62
7
  6
CONTINUOUS
 10
3.7418430069
 20
19.6312396794
 11
3.7418161003
 21
19.631206471
  0
LWPOLYLINE
  5
321
100
AcDbEntity
  8
ASSI
100
AcDbPolyline
 62
7
  6
CONTINUOUS
 90
14
 70
0
 10
2.2868374555
 20
18.459632624
 10
2.2692271519
 20
18.4427940027
 10
2.2503763494
 20
18.4268635057
 10
2.2303822385
 20
18.412042406
 10
2.2092830823
 20
18.3985287006
 10
2.1872802605
 20
18.3864942403
 10
2.1647419386
 20
18.3760746376
 10
2.141828811
 20
18.3673963039
 10
2.1187015484
 20
18.3605905464
 10
2.0957521691
 20
18.3557404241
 10
2.0731947199
 20
18.3528869457
 10
2.0511757066
 20
18.3520633187
 10
2.0299906342
 20
18.353254727
 10
2.0092424431
 20
18.3565310749
  0
LINE
  5
322
100
AcDbEntity
  8
0
100
AcDbLine
 62
250
  6
CONTINUOUS
 10
12.553887649
 20
23.3867644403
 11
12.414090181
 21
23.2656962817
  0
LWPOLYLINE
  5
323
100
AcDbEntity
  8
0
100
AcDbPolyline
 62
7
  6
CONTINUOUS
 90
22
 70
0
 10
12.5383521178
 20
23.0687646198
 10
12.5380255448
 20
23.0685019709
 10
12.5367411683
 20
23.0675743621
 10
12.5344696362
 20
23.0661177444
 10
12.5311536496
 20
23.0642231237
 10
12.526797157
 20
23.0619979581
 10
12.5215777719
 20
23.0596052251
 10
12.5155640693
 20
23.0571222909
 10
12.5087750219
 20
23.0545928102
 10
12.5013552933
 20
23.0520942635
 10
12.4934032477
 20
23.0496714691
 10
12.4849231498
 20
23.047335964
 10
12.4759013436
 20
23.0450955568
 10
12.4663919004
 20
23.0429730022
 10
12.4563943527
 20
23.0409770488
 10
12.4457812162
 20
23.0390979686
 10
12.434553626
 20
23.0373581836
 10
12.4227455627
 20
23.0357820124
 10
12.4102656129
 20
23.0343783221
 10
12.3971050741
 20
23.0331729581
 10
12.3833155396
 20
23.0322003662
 10
12.3688969143
 20
23.0314902126
  0
LWPOLYLINE
  5
324
100
AcDbEntity
  8
RACCORDO
100
AcDbPolyline
 62
250
  6
CONTINUOUS
 90
30
 70
0
 10
19.5945837198
 20
22.0408265724
 10
19.6132448584
 20
22.0507559154
 10
19.6313579535
 20
22.0609358134
 10
19.6489095541
 20
22.0713587067
 10
19.6658866263
 20
22.0820168553
 10
19.6822765629
 20
22.0929023443
 10
19.6980671927
 20
22.1040070901
 10
19.7132467893
 20
22.1153228462
 10
19.7278040804
 20
22.1268412096
 10
19.7417282556
 20
22.1385536266
 10
19.7550089748
 20
22.1504513995
 10
19.7676363756
 20
22.162525693
 10
19.7796010809
 20
22.1747675406
 10
19.7908942055
 20
22.1871678515
 10
19.8015073632
 20
22.1997174171
 10
19.8114326726
 20
22.2124069181
 10
19.8206627631
 20
22.225226931
 10
19.8291907803
 20
22.2381679359
 10
19.8370103913
 20
22.2512203225
 10
19.8441157893
 20
22.2643743981
 10
19.8505016976
 20
22.2776203944
 10
19.8561633742
 20
22.2909484749
 10
19.8610966146
 20
22.3043487421
 10
19.8652977554
 20
22.3178112448
 10
19.8687636767
 20
22.3313259857
 10
19.8714918048
 20
22.3448829288
 10
19.8734801138
 20
22.3584720064
 10
19.874727127
 20
22.3720831274
 10
19.8752319186
 20
22.385706184
 10
19.8752439194
 20
22.3881540631
  0
LINE
  5
325
100
AcDbEntity
  8
ASSI
100
AcDbLine
 62
7
  6
CONTINUOUS
 10
4.9677253087
 20
15.3504591913
 11
4.2729611223
 21
14.9863061603
  0
LINE
  5
326
100
AcDbEntity
  8
RACCORDO
100
AcDbLine
 62
250
  6
CONTINUOUS
 10
19.5945837198
 20
22.0408265724
 11
5.0294429837
 21
14.6307706248
  0
LWPOLYLINE
  5
327
100
AcDbEntity
  8
RACCORDO
100
AcDbPolyline
 62
250
  6
CONTINUOUS
 90
13
 70
0
 10
19.5945837198
 20
18.8299721753
 10
19.7611125312
 20
18.8979194843
 10
19.9263887731
 20
18.9652594866
 10
20.0904124457
 20
19.0319921821
 10
20.2537058129
 20
19.0983294308
 10
20.4157466107
 20
19.1640593728
 10
20.574968047
 20
19.2285464283
 10
20.7310699755
 20
19.2916660116
 10
20.8843525426
 20
19.3535427084
 10
21.0341493948
 20
19.4139146954
 10
21.1802384142
 20
19.4726946982
 10
21.3228417187
 20
19.5299699911
 10
21.4619593082
 20
19.5857405743
  0
LWPOLYLINE
  5
328
100
AcDbEntity
  8
RACCORDO
100
AcDbPolyline
 62
250
  6
CONTINUOUS
 90
10
 70
0
 10
19.9617690112
 20
19.3283935313
 10
20.1332048174
 20
19.3951401997
 10
20.3021814513
 20
19.4607710448
 10
20.468699962
 20
19.5252841491
 10
20.633245607
 20
19.5888549526
 10
20.7953343728
 20
19.6513049462
 10
20.9535173268
 20
19.7120972749
 10
21.1073164677
 20
19.7710472523
 10
21.2572203738
 20
19.8283267593
 10
21.4032337783
 20
19.8839298545
  0
LWPOLYLINE
  5
329
100
AcDbEntity
  8
DRAFT
100
AcDbPolyline
 62
7
  6
CONTINUOUS
 90
26
 70
0
 10
-11.6017107
 20
-13.2354392972
 10
-11.6543571257
 20
-13.2501473837
 10
-11.7090424495
 20
-13.2574042826
 10
-11.7663474024
 20
-13.2576656764
 10
-11.8246899304
 20
-13.2509758885
 10
-11.8839707997
 20
-13.2371626124
 10
-11.9442868621
 20
-13.2163971964
 10
-12.0043550722
 20
-13.1892415921
 10
-12.0641488341
 20
-13.155606068
 10
-12.1236951518
 20
-13.1155805655
 10
-12.1817956396
 20
-13.0699984028
 10
-12.2385008562
 20
-13.0186744436
 10
-12.2937631669
 20
-12.9617950675
 10
-12.3462412358
 20
-12.9007527595
 10
-12.395791827
 20
-12.83557716
 10
-12.4425641248
 20
-12.7662411364
 10
-12.4856590081
 20
-12.6940535837
 10
-12.5250944912
 20
-12.6187743117
 10
-12.5608587001
 20
-12.5406460629
 10
-12.5920103602
 20
-12.4617033259
 10
-12.6183778212
 20
-12.3820664672
 10
-12.6401389364
 20
-12.301617719
 10
-12.656878479
 20
-12.2220351987
 10
-12.6684596853
 20
-12.143878988
 10
-12.6750230913
 20
-12.0665905949
 10
-12.676569243
 20
-11.9901702264
  0
LWPOLYLINE
  5
32A
100
AcDbEntity
  8
ASSI
100
AcDbPolyline
 62
7
  6
CONTINUOUS
 90
5
 70
0
 10
3.7540181504
 20
-21.3502337528
 10
3.7375052044
 20
-21.3316670196
 10
3.7191901914
 20
-21.3152323955
 10
3.6992121143
 20
-21.3009948624
 10
3.6800608767
 20
-21.2902133859
  0
LWPOLYLINE
  5
32B
100
AcDbEntity
  8
ASSI
100
AcDbPolyline
 62
250
  6
CONTINUOUS
 90
7
 70
0
 10
-13.4578902384
 20
26.0421149338
 10
-13.4559841731
 20
26.0284099758
 10
-13.450771033
 20
26.0157398264
 10
-13.4423304794
 20
26.0035121464
 10
-13.4308037452
 20
25.9919315379
 10
-13.4163837038
 20
25.9811917756
 10
-13.3993116413
 20
25.9714725645
  0
LWPOLYLINE
  5
32C
100
AcDbEntity
  8
ASSI
100
AcDbPolyline
 62
250
  6
CONTINUOUS
 90
7
 70
0
 10
-13.457890277
 20
26.3594236789
 10
-13.45598418
 20
26.3456788009
 10
-13.450771045
 20
26.3330086484
 10
-13.4423304939
 20
26.3207809641
 10
-13.4308037591
 20
26.3092003502
 10
-13.416383713
 20
26.2984605819
 10
-13.3993116413
 20
26.2887413649
  0
LWPOLYLINE
  5
32D
100
AcDbEntity
  8
ASSI
100
AcDbPolyline
 62
7
  6
CONTINUOUS
 90
13
 70
0
 10
-9.3972124989
 20
26.1328315685
 10
-9.3984161158
 20
26.1560442044
 10
-9.4020253458
 20
26.180065409
 10
-9.4079742553
 20
26.2044866225
 10
-9.4161563875
 20
26.2288928898
 10
-9.4264309221
 20
26.2528670321
 10
-9.4386249343
 20
26.2759968191
 10
-9.4525323545
 20
26.2978853438
 10
-9.4679127804
 20
26.318159463
 10
-9.484499678
 20
26.336473453
 10
-9.5020100986
 20
26.3525135985
 10
-9.5201496026
 20
26.3660034114
 10
-9.538612316
 20
26.3767101778
  0
LWPOLYLINE
  5
32E
100
AcDbEntity
  8
ASSI
100
AcDbPolyline
 62
7
  6
CONTINUOUS
 90
10
 70
0
 10
-8.7828445778
 20
26.4368413173
 10
-8.783726247
 20
26.4576867733
 10
-8.7880728583
 20
26.4873486444
 10
-8.7960392798
 20
26.5160616211
 10
-8.8075204727
 20
26.5433329082
 10
-8.8221980889
 20
26.5685117084
 10
-8.8398168062
 20
26.5913344018
 10
-8.8602199723
 20
26.6116384559
 10
-8.8829773071
 20
26.6290136063
 10
-8.9060908954
 20
26.6424104693
  0
LINE
  5
32F
100
AcDbEntity
  8
ASSI
100
AcDbLine
 62
7
  6
CONTINUOUS
 10
-9.3972124989
 20
24.4873569214
 11
-9.3972124989
 21
26.1328315685
  0
LINE
  5
330
100
AcDbEntity
  8
ASSI
100
AcDbLine
 62
250
  6
CONTINUOUS
 10
-8.8389760884
 20
26.3671689038
 11
-8.8389760884
 21
26.0272253089
  0
LINE
  5
331
100
AcDbEntity
  8
ASSI
100
AcDbLine
 62
7
  6
CONTINUOUS
 10
-8.7828444752
 20
26.4368413174
 11
-8.7828440485
 21
26.0966911462
  0
LINE
  5
332
100
AcDbEntity
  8
ASSI
100
AcDbLine
 62
7
  6
CONTINUOUS
 10
-7.7196552079
 20
23.316421283
 11
-7.7196552079
 21
24.5010257889
  0
LINE
  5
333
100
AcDbEntity
  8
ASSI
100
AcDbLine
 62
250
  6
CONTINUOUS
 10
-7.6610765641
 20
23.2430423293
 11
-7.6610765641
 21
24.4303151106
  0
LWPOLYLINE
  5
334
100
AcDbEntity
  8
ASSI
100
AcDbPolyline
 62
250
  6
CONTINUOUS
 90
28
 70
0
 10
-7.6610765641
 20
24.4303151106
 10
-7.6610467025
 20
24.4324157204
 10
-7.6609141574
 20
24.4345080665
 10
-7.6606789287
 20
24.4365921488
 10
-7.6603455689
 20
24.4386842447
 10
-7.6599095255
 20
24.4407680769
 10
-7.6593571416
 20
24.4427948134
 10
-7.6586842721
 20
24.4447634045
 10
-7.6578950621
 20
24.4466748998
 10
-7.6569882892
 20
24.4484836174
 10
-7.6559596536
 20
24.4501863834
 10
-7.6548134552
 20
24.4517863716
 10
-7.6535613712
 20
24.4532474212
 10
-7.6522007715
 20
24.4545645291
 10
-7.6507342862
 20
24.4557426984
 10
-7.649181483
 20
24.4567607775
 10
-7.6475423258
 20
24.4576145062
 10
-7.6458168507
 20
24.4583081448
 10
-7.6440247339
 20
24.4588333224
 10
-7.642165539
 20
24.459187903
 10
-7.6402397025
 20
24.4593740227
 10
-7.6382682097
 20
24.4593897186
 10
-7.636250494
 20
24.4592330865
 10
-7.634187122
 20
24.4589060307
 10
-7.632100779
 20
24.4584123
 10
-7.6299990269
 20
24.4577531443
 10
-7.6278743039
 20
24.4569273139
 10
-7.6257266099
 20
24.4559348086
  0
LWPOLYLINE
  5
335
100
AcDbEntity
  8
ASSI
100
AcDbPolyline
 62
250
  6
CONTINUOUS
 90
19
 70
0
 10
-8.8389760884
 20
26.0272253089
 10
-8.8390075536
 20
26.0250444092
 10
-8.83914347
 20
26.0227692055
 10
-8.8393838376
 20
26.020399698
 10
-8.8397241628
 20
26.0179244482
 10
-8.8401689391
 20
26.0153548945
 10
-8.8407316475
 20
26.0127253523
 10
-8.8414161774
 20
26.0100326166
 10
-8.8422186392
 20
26.0072798924
 10
-8.8431408456
 20
26.0045111102
 10
-8.8441869844
 20
26.0017247337
 10
-8.8453528678
 20
25.9989222992
 10
-8.846627744
 20
25.9961523459
 10
-8.8480154055
 20
25.9934154837
 10
-8.84951206
 20
25.9907111027
 10
-8.8510955788
 20
25.988085912
 10
-8.8527585859
 20
25.9855554815
 10
-8.8545084573
 20
25.9831042414
 10
-8.8563451931
 20
25.9807321917
  0
LWPOLYLINE
  5
336
100
AcDbEntity
  8
ASSI
100
AcDbPolyline
 62
7
  6
CONTINUOUS
 90
10
 70
0
 10
-1.1594184981
 20
20.8725343831
 10
-1.1454775157
 20
20.9062141691
 10
-1.1350217789
 20
20.9422832016
 10
-1.1280512878
 20
20.9807414806
 10
-1.1245660422
 20
21.0220200887
 10
-1.1245660422
 20
21.0656879433
 10
-1.1280512878
 20
21.1104517969
 10
-1.1350217789
 20
21.1558805672
 10
-1.1454775157
 20
21.2024053365
 10
-1.1594184981
 20
21.2500261048
  0
LWPOLYLINE
  5
337
100
AcDbEntity
  8
ASSI
100
AcDbPolyline
 62
7
  6
CONTINUOUS
 90
6
 70
0
 10
0.049436599
 20
19.1465684226
 10
0.0512328964
 20
19.1502484292
 10
0.0564585221
 20
19.1564402247
 10
0.0646557314
 20
19.164780553
 10
0.075628182
 20
19.1743423456
 10
0.0891941689
 20
19.1849064045
  0
LWPOLYLINE
  5
338
100
AcDbEntity
  8
ASSI
100
AcDbPolyline
 62
250
  6
CONTINUOUS
 90
10
 70
0
 10
3.7301555121
 20
19.6874818392
 10
3.7335933681
 20
19.6921124678
 10
3.7366745627
 20
19.6969315324
 10
3.7393990958
 20
19.7019390328
 10
3.7417940707
 20
19.7072077926
 10
3.7438323841
 20
19.7126649883
 10
3.7454327264
 20
19.7180921495
 10
3.7465679943
 20
19.7234164529
 10
3.7472652911
 20
19.7287107219
 10
3.7475246167
 20
19.7339749564
  0
LWPOLYLINE
  5
339
100
AcDbEntity
  8
ASSI
100
AcDbPolyline
 62
7
  6
CONTINUOUS
 90
6
 70
0
 10
3.7418164018
 20
19.6312062272
 10
3.7497010579
 20
19.6414465566
 10
3.7636735868
 20
19.662428528
 10
3.7758523302
 20
19.6848844043
 10
3.7860884841
 20
19.7086930665
 10
3.7939825577
 20
19.7329288863
  0
LINE
  5
33A
100
AcDbEntity
  8
ASSI
100
AcDbLine
 62
7
  6
CONTINUOUS
 10
3.1892882062
 20
18.9474896922
 11
3.7418430067
 21
19.6312396792
  0
LINE
  5
33B
100
AcDbEntity
  8
0
100
AcDbLine
 62
7
  6
CONTINUOUS
 10
12.549838788
 20
23.418956799
 11
12.414090181
 21
23.283208192
  0
LINE
  5
33C
100
AcDbEntity
  8
0
100
AcDbLine
 62
7
  6
CONTINUOUS
 10
12.5383869376
 20
23.0687935366
 11
12.5383505383
 21
23.0687620006
  0
LINE
  5
33D
100
AcDbEntity
  8
0
100
AcDbLine
 62
250
  6
CONTINUOUS
 10
12.5120916406
 20
23.0558285245
 11
12.554090181
 21
23.0921978924
  0
LINE
  5
33E
100
AcDbEntity
  8
RACCORDO
100
AcDbLine
 62
250
  6
CONTINUOUS
 10
21.444035462
 20
19.9050115017
 11
21.4316715617
 21
19.8985095224
  0
LINE
  5
33F
100
AcDbEntity
  8
RACCORDO
100
AcDbLine
 62
250
  6
CONTINUOUS
 10
21.4316715617
 20
19.8985095224
 11
21.4180441148
 21
19.8914683968
  0
LINE
  5
340
100
AcDbEntity
  8
RACCORDO
100
AcDbLine
 62
250
  6
CONTINUOUS
 10
21.4180441148
 20
19.8914683968
 11
21.4032338229
 21
19.8839298225
  0
LWPOLYLINE
  5
341
100
AcDbEntity
  8
RACCORDO
100
AcDbPolyline
 62
250
  6
CONTINUOUS
 90
22
 70
0
 10
19.9617684255
 20
15.9098680919
 10
19.9508926079
 20
15.9057697055
 10
19.9393738937
 20
15.9018344513
 10
19.9271979913
 20
15.8980673354
 10
19.9143412764
 20
15.8944685755
 10
19.9007981286
 20
15.8910462503
 10
19.8865820272
 20
15.8878150351
 10
19.8716774489
 20
15.8847741958
 10
19.8560724738
 20
15.8819258731
 10
19.839787625
 20
15.8792861134
 10
19.8227956587
 20
15.8768492361
 10
19.8050975506
 20
15.8746166201
 10
19.7867598036
 20
15.8726104493
 10
19.7677818466
 20
15.8708228057
 10
19.7481458011
 20
15.8692466174
 10
19.7278960448
 20
15.8679012183
 10
19.7069941489
 20
15.8667740053
 10
19.6854617558
 20
15.8658582638
 10
19.6634400763
 20
15.8651768724
 10
19.6409780061
 20
15.8647255655
 10
19.6180259623
 20
15.8644770464
 10
19.5945837198
 20
15.8644154379
  0
LINE
  5
342
100
AcDbEntity
  8
ASSI
100
AcDbLine
 62
250
  6
CONTINUOUS
 10
-5.370428167
 20
23.284990912
 11
-5.370428167
 21
22.0977181307
  0
LINE
  5
343
100
AcDbEntity
  8
ASSI
100
AcDbLine
 62
250
  6
CONTINUOUS
 10
-5.0900751367
 20
23.2837676101
 11
-5.0900751367
 21
22.1054137018
  0
LINE
  5
344
100
AcDbEntity
  8
ASSI
100
AcDbLine
 62
7
  6
CONTINUOUS
 10
-4.8717290993
 20
22.2246152216
 11
-4.8717290993
 21
23.3937824916
  0
LWPOLYLINE
  5
345
100
AcDbEntity
  8
ASSI
100
AcDbPolyline
 62
250
  6
CONTINUOUS
 90
13
 70
0
 10
-3.9134160086
 20
22.599779508
 10
-3.9122328304
 20
22.622729097
 10
-3.9087030929
 20
22.6464778592
 10
-3.902885857
 20
22.6706284148
 10
-3.89487846
 20
22.6947766604
 10
-3.8848148863
 20
22.718518531
 10
-3.8728635258
 20
22.7414567612
 10
-3.859224356
 20
22.7632075327
 10
-3.8441255965
 20
22.7834068957
 10
-3.82781989
 20
22.8017168595
 10
-3.8105800748
 20
22.8178310484
 10
-3.7926946193
 20
22.8314798276
 10
-3.7744627954
 20
22.8424348154
  0
LWPOLYLINE
  5
346
100
AcDbEntity
  8
ASSI
100
AcDbPolyline
 62
250
  6
CONTINUOUS
 90
12
 70
0
 10
1.5500296513
 20
18.615932801
 10
1.5395178852
 20
18.59256188
 10
1.5268331301
 20
18.57080361
 10
1.5121900243
 20
18.5510261621
 10
1.4958363432
 20
18.5335641896
 10
1.478048807
 20
18.5187131661
 10
1.459128398
 20
18.5067243852
 10
1.4393952675
 20
18.4978007087
 10
1.4191833195
 20
18.4920931338
 10
1.3988345602
 20
18.4896982379
 10
1.3786933105
 20
18.4906565452
 10
1.3695951986
 20
18.4922203669
  0
LWPOLYLINE
  5
347
100
AcDbEntity
  8
0
100
AcDbPolyline
 62
250
  6
CONTINUOUS
 90
24
 70
0
 10
10.1832545163
 20
22.6408065298
 10
10.2025557502
 20
22.6663357081
 10
10.2473199676
 20
22.7180477496
 10
10.2969433662
 20
22.7686369294
 10
10.3513935884
 20
22.8181141268
 10
10.4103048119
 20
22.8661472232
 10
10.4737057218
 20
22.912725327
 10
10.541567633
 20
22.9578593298
 10
10.6134386669
 20
23.0012497886
 10
10.6893457628
 20
23.0428852867
 10
10.7692619814
 20
23.0827772406
 10
10.8526546269
 20
23.1206604571
 10
10.9395417753
 20
23.1565203406
 10
11.0299053506
 20
23.1903714867
 10
11.1231584281
 20
23.2219924879
 10
11.2193253867
 20
23.2513708411
 10
11.3183818475
 20
23.2785190494
 10
11.4196677486
 20
23.3032532156
 10
11.5233676297
 20
23.3255696335
 10
11.629296951
 20
23.3454720093
 10
11.7362420315
 20
23.3627875645
 10
11.8437983107
 20
23.3774587063
 10
11.9523703491
 20
23.3895430276
 10
12.0619581467
 20
23.3990405283
  0
LWPOLYLINE
  5
348
100
AcDbEntity
  8
0
100
AcDbPolyline
 62
250
  6
CONTINUOUS
 90
9
 70
0
 10
10.0623437467
 20
22.6866719685
 10
10.064406158
 20
22.6891051379
 10
10.1184168324
 20
22.7451464609
 10
10.1777637703
 20
22.7998222343
 10
10.2423089692
 20
22.8530052713
 10
10.3119025951
 20
22.9045721115
 10
10.3863830957
 20
22.9544030468
 10
10.465577199
 20
23.0023821826
 10
10.5431712232
 20
23.0451769386
  0
LWPOLYLINE
  5
349
100
AcDbEntity
  8
RACCORDO
100
AcDbPolyline
 62
7
  6
CONTINUOUS
 90
16
 70
0
 10
21.4619593082
 20
17.1987857648
 10
21.4683395054
 20
17.2022592982
 10
21.47449946
 20
17.2058879992
 10
21.4804337623
 20
17.2096682408
 10
21.4861372055
 20
17.2135966899
 10
21.4916049099
 20
17.2176692087
 10
21.4968323101
 20
17.2218808648
 10
21.5018149969
 20
17.2262279274
 10
21.5065487588
 20
17.2307062887
 10
21.51102969
 20
17.235310371
 10
21.5152541393
 20
17.2400362794
 10
21.5192186797
 20
17.2448797644
 10
21.5229201366
 20
17.2498346485
 10
21.5263556466
 20
17.254896904
 10
21.5295225927
 20
17.2600621794
 10
21.5314382919
 20
17.2634760038
  0
LINE
  5
34A
100
AcDbEntity
  8
RACCORDO
100
AcDbLine
 62
7
  6
CONTINUOUS
 10
21.4583217161
 20
19.427375747
 11
21.4619593082
 21
19.4293259348
  0
LINE
  5
34B
100
AcDbEntity
  8
RACCORDO
100
AcDbLine
 62
7
  6
CONTINUOUS
 10
21.4619593082
 20
17.1987857648
 11
21.4583217161
 21
17.1969691157
  0
LWPOLYLINE
  5
34C
100
AcDbEntity
  8
ASSI
100
AcDbPolyline
 62
7
  6
CONTINUOUS
 90
6
 70
0
 10
0.056248664
 20
-21.9172892671
 10
0.0646746935
 20
-21.9525196546
 10
0.075628182
 20
-21.9875977963
 10
0.0888465579
 20
-22.0222840263
 10
0.1045493829
 20
-22.0562071163
 10
0.1226575822
 20
-22.0891161866
  0
LWPOLYLINE
  5
34D
100
AcDbEntity
  8
ASSI
100
AcDbPolyline
 62
7
  6
CONTINUOUS
 90
13
 70
0
 10
-4.8717290993
 20
23.3937824916
 10
-4.8732336204
 20
23.4227982865
 10
-4.877745158
 20
23.4528247923
 10
-4.8851812947
 20
23.4833513091
 10
-4.89540896
 20
23.5138591432
 10
-4.9082521283
 20
23.5438268211
 10
-4.9234946436
 20
23.5727390549
 10
-4.9408789188
 20
23.6000997108
 10
-4.9601044511
 20
23.6254423597
 10
-4.9808380732
 20
23.6483348472
 10
-5.0027260989
 20
23.6683850292
 10
-5.0254004789
 20
23.6852472953
 10
-5.0484788707
 20
23.6986307533
  0
LINE
  5
34E
100
AcDbEntity
  8
ASSI
100
AcDbLine
 62
7
  6
CONTINUOUS
 10
-4.189668869
 20
22.5762783809
 11
-4.2139606879
 21
23.7200404728
  0
LINE
  5
34F
100
AcDbEntity
  8
ASSI
100
AcDbLine
 62
7
  6
CONTINUOUS
 10
-2.7448796373
 20
25.2342968928
 11
-2.7625713033
 21
26.4213689399
  0
LINE
  5
350
100
AcDbEntity
  8
ASSI
100
AcDbLine
 62
250
  6
CONTINUOUS
 10
-2.8609089315
 20
25.0971281252
 11
-2.8733529729
 21
26.2905156951
  0
LINE
  5
351
100
AcDbEntity
  8
ASSI
100
AcDbLine
 62
250
  6
CONTINUOUS
 10
-3.9487659629
 20
22.57415981
 11
-3.9487659629
 21
21.3868870286
  0
LINE
  5
352
100
AcDbEntity
  8
ASSI
100
AcDbLine
 62
7
  6
CONTINUOUS
 10
-4.0073446067
 20
21.4602659823
 11
-4.0073445554
 21
22.644942109
  0
LWPOLYLINE
  5
353
100
AcDbEntity
  8
RACCORDO
100
AcDbPolyline
 62
250
  6
CONTINUOUS
 90
5
 70
0
 10
-3.7716663173
 20
-22.7153857873
 10
-3.7283396159
 20
-18.6849555625
 10
-3.6530452222
 20
-14.6405323111
 10
-3.5457831364
 20
-10.5821160329
 10
-3.4065299037
 20
-6.5091468133
  0
LWPOLYLINE
  5
354
100
AcDbEntity
  8
RACCORDO
100
AcDbPolyline
 62
250
  6
CONTINUOUS
 90
9
 70
0
 10
-4.444727682
 20
-22.7188029609
 10
-4.3985593015
 20
-18.6860481674
 10
-4.3210937348
 20
-14.6382608762
 10
-4.2123244216
 20
-10.5758026328
 10
-4.0722418427
 20
-6.4988528413
 10
-3.9008563595
 20
-2.4079626138
 10
-3.6982067744
 20
1.6959417645
 10
-3.4643293695
 20
5.8122978847
 10
-3.1992493229
 20
9.940911221
  0
LINE
  5
355
100
AcDbEntity
  8
RACCORDO
100
AcDbLine
 62
250
  6
CONTINUOUS
 10
-3.4065299037
 20
-6.5091468133
 11
-3.2353089788
 21
-2.4221845671
  0
LWPOLYLINE
  5
356
100
AcDbEntity
  8
RACCORDO
100
AcDbPolyline
 62
250
  6
CONTINUOUS
 90
4
 70
0
 10
-3.2353089788
 20
-2.4221845671
 10
-3.0321907253
 20
1.6770909616
 10
-2.7971985977
 20
5.788119858
 10
-2.5303091414
 20
9.9114620367
  0
LWPOLYLINE
  5
357
100
AcDbEntity
  8
ASSI
100
AcDbPolyline
 62
250
  6
CONTINUOUS
 90
13
 70
0
 10
-1.6934675201
 20
21.4898052637
 10
-1.6922843403
 20
21.5127548681
 10
-1.6887545986
 20
21.5365036437
 10
-1.6829373572
 20
21.5606542095
 10
-1.674929954
 20
21.5848024618
 10
-1.6648663746
 20
21.6085443353
 10
-1.6529150097
 20
21.6314825647
 10
-1.6392758377
 20
21.6532333315
 10
-1.6241770786
 20
21.6734326871
 10
-1.6078713754
 20
21.6917426418
 10
-1.5906315662
 20
21.707856821
 10
-1.5727461195
 20
21.721505591
 10
-1.5545143068
 20
21.7324605712
  0
LWPOLYLINE
  5
358
100
AcDbEntity
  8
ASSI
100
AcDbPolyline
 62
7
  6
CONTINUOUS
 90
9
 70
0
 10
-2.7448324263
 20
25.2342965405
 10
-2.7455935073
 20
25.220918887
 10
-2.75023112
 20
25.2011697971
 10
-2.7592371914
 20
25.18161293
 10
-2.7724490631
 20
25.1623710894
 10
-2.7892807696
 20
25.1442237419
 10
-2.8095369888
 20
25.1274307098
 10
-2.8334130428
 20
25.1117321709
 10
-2.8609089315
 20
25.0971281252
  0
LINE
  5
359
100
AcDbEntity
  8
RACCORDO
100
AcDbLine
 62
250
  6
CONTINUOUS
 10
-3.1992493229
 20
9.940911221
 11
-2.9030042892
 21
14.0814009583
  0
LINE
  5
35A
100
AcDbEntity
  8
RACCORDO
100
AcDbLine
 62
250
  6
CONTINUOUS
 10
-2.5303091414
 20
9.9114620367
 11
-2.2315223564
 21
14.0471174979
  0
LWPOLYLINE
  5
35B
100
AcDbEntity
  8
RACCORDO
100
AcDbPolyline
 62
250
  6
CONTINUOUS
 90
22
 70
0
 10
-2.9030042798
 20
14.0814009605
 10
-2.8951883168
 20
14.159047888
 10
-2.883155185
 20
14.2379793344
 10
-2.8669644129
 20
14.3177906031
 10
-2.846690628
 20
14.3980634317
 10
-2.8224384173
 20
14.4783942521
 10
-2.7943391137
 20
14.5583962647
 10
-2.7625211861
 20
14.6376621045
 10
-2.7271423834
 20
14.7157780374
 10
-2.688402467
 20
14.7923522347
 10
-2.6464848195
 20
14.8669862498
 10
-2.6015934189
 20
14.9392944478
 10
-2.5539818896
 20
15.0089179879
 10
-2.5038752437
 20
15.0754940432
 10
-2.4515182156
 20
15.1386740136
 10
-2.3972122931
 20
15.1981433625
 10
-2.3412208344
 20
15.2535863841
 10
-2.2838121001
 20
15.3047152803
 10
-2.2253069781
 20
15.3512867903
 10
-2.1660018707
 20
15.3930611138
 10
-2.1061677538
 20
15.4298048094
 10
-2.0460930617
 20
15.461319
  0
LWPOLYLINE
  5
35C
100
AcDbEntity
  8
RACCORDO
100
AcDbPolyline
 62
250
  6
CONTINUOUS
 90
22
 70
0
 10
-2.2315223564
 20
14.0471174979
 10
-2.2267936368
 20
14.0924956432
 10
-2.2195801718
 20
14.1381796489
 10
-2.2098819612
 20
14.184169515
 10
-2.1976238195
 20
14.230723345
 10
-2.1828809324
 20
14.2775830353
 10
-2.1658788567
 20
14.3239742756
 10
-2.1465849563
 20
14.3698698711
 10
-2.1250318673
 20
14.4152970165
 10
-2.1015430556
 20
14.4595629855
 10
-2.0760864075
 20
14.5026528345
 10
-2.0486940367
 20
14.5445815072
 10
-2.0197857501
 20
14.5847011077
 10
-1.9893382424
 20
14.6229820919
 10
-1.9573748189
 20
14.659454004
 10
-1.9243852022
 20
14.6935575809
 10
-1.890337035
 20
14.7252635234
 10
-1.8552626747
 20
14.7546011306
 10
-1.8197489155
 20
14.7810990366
 10
-1.7839913555
 20
14.8046001193
 10
-1.7477943968
 20
14.8252615007
 10
-1.7111580391
 20
14.8430831809
  0
LWPOLYLINE
  5
35D
100
AcDbEntity
  8
RACCORDO
100
AcDbPolyline
 62
250
  6
CONTINUOUS
 90
18
 70
0
 10
19.9985686204
 20
15.8940791469
 10
20.0007548826
 20
15.8954923004
 10
20.0039648898
 20
15.897891878
 10
20.0063595817
 20
15.900165527
 10
20.0079524827
 20
15.9023065937
 10
20.0087410002
 20
15.9042885898
 10
20.0087244844
 20
15.9060892935
 10
20.0079185918
 20
15.9076983407
 10
20.0063494973
 20
15.909098883
 10
20.0040156429
 20
15.9102661633
 10
20.0009368191
 20
15.9111880956
 10
19.9971748702
 20
15.9118600679
 10
19.9927286896
 20
15.9122521599
 10
19.9876206659
 20
15.9123534189
 10
19.9819507078
 20
15.9121824029
 10
19.9757599225
 20
15.9117306779
 10
19.9690292196
 20
15.9109656735
 10
19.9617688772
 20
15.9098686258
  0
LWPOLYLINE
  5
35E
100
AcDbEntity
  8
RACCORDO
100
AcDbPolyline
 62
250
  6
CONTINUOUS
 90
10
 70
0
 10
21.4032336685
 20
16.8250980363
 10
21.2580084552
 20
16.7323569214
 10
21.1091554416
 20
16.6374401182
 10
20.9566704633
 20
16.5403464823
 10
20.8006779426
 20
16.4411542621
 10
20.6410450203
 20
16.3397831619
 10
20.4773811448
 20
16.2359940334
 10
20.3095527444
 20
16.1297062765
 10
20.1376836374
 20
16.0209981515
 10
19.9617688772
 20
15.9098686258
  0
LWPOLYLINE
  5
35F
100
AcDbEntity
  8
RACCORDO
100
AcDbPolyline
 62
250
  6
CONTINUOUS
 90
10
 70
0
 10
21.4619593082
 20
17.0423709564
 10
21.2789620688
 20
16.9262490017
 10
21.0900579281
 20
16.8065670211
 10
20.8952468861
 20
16.6833250147
 10
20.6948160533
 20
16.5566969452
 10
20.4884783191
 20
16.42650885
 10
20.2753723519
 20
16.2922388404
 10
20.055211041
 20
16.1537129538
 10
19.8282814969
 20
16.011105153
 10
19.5945837198
 20
15.8644154379
  0
LINE
  5
360
100
AcDbEntity
  8
RACCORDO
100
AcDbLine
 62
7
  6
CONTINUOUS
 10
19.9969254869
 20
15.8930559394
 11
19.9985189001
 21
15.8940487276
  0
LINE
  5
361
100
AcDbEntity
  8
RACCORDO
100
AcDbLine
 62
7
  6
CONTINUOUS
 10
19.9985192482
 20
15.8940487148
 11
19.9985686204
 21
15.8940791469
  0
LINE
  5
362
100
AcDbEntity
  8
DRAFT
100
AcDbLine
 62
7
  6
CONTINUOUS
 10
19.9985190016
 20
15.8940485629
 11
21.1292545371
 21
16.5904210495
  0
LWPOLYLINE
  5
363
100
AcDbEntity
  8
ASSI
100
AcDbPolyline
 62
250
  6
CONTINUOUS
 90
6
 70
0
 10
3.7373598519
 20
-21.3860654277
 10
3.7293373939
 20
-21.3632639569
 10
3.7188943945
 20
-21.3422289083
 10
3.7062075586
 20
-21.3233162149
 10
3.6914915595
 20
-21.3068458977
 10
3.6749954064
 20
-21.2930966506
  0
LWPOLYLINE
  5
364
100
AcDbEntity
  8
ASSI
100
AcDbPolyline
 62
7
  6
CONTINUOUS
 90
5
 70
0
 10
3.7974962791
 20
-21.4412151996
 10
3.7903291527
 20
-21.4163730827
 10
3.7806116093
 20
-21.392829676
 10
3.76847025
 20
-21.3707284188
 10
3.7540181504
 20
-21.3502337528
  0
LWPOLYLINE
  5
365
100
AcDbEntity
  8
ASSI
100
AcDbPolyline
 62
250
  6
CONTINUOUS
 90
7
 70
0
 10
-7.7196552079
 20
24.5010257884
 10
-7.7177490771
 20
24.4872524541
 10
-7.7125359234
 20
24.4745823133
 10
-7.7040953628
 20
24.4623546456
 10
-7.6925686304
 20
24.4507740518
 10
-7.6781486017
 20
24.4400343055
 10
-7.6610765641
 20
24.4303151106
  0
LINE
  5
366
100
AcDbEntity
  8
DRAFT
100
AcDbLine
 62
7
  6
CONTINUOUS
 10
0.6437037939
 20
-15.3687521444
 11
0.4311269033
 21
-12.8373867284
  0
LINE
  5
367
100
AcDbEntity
  8
RACCORDO
100
AcDbLine
 62
7
  6
CONTINUOUS
 10
0.7424979029
 20
-5.4051090883
 11
0.785465762
 21
-5.9209765622
  0
LWPOLYLINE
  5
368
100
AcDbEntity
  8
ASSI
100
AcDbPolyline
 62
7
  6
CONTINUOUS
 90
12
 70
0
 10
-2.7625711748
 20
26.421362887
 10
-2.7642025386
 20
26.4476049257
 10
-2.7697264179
 20
26.4802282613
 10
-2.7791751133
 20
26.5124210392
 10
-2.7925557164
 20
26.5437425449
 10
-2.8097332963
 20
26.5736112634
 10
-2.8306158349
 20
26.6016945663
 10
-2.8551519072
 20
26.6277516578
 10
-2.8829600331
 20
26.6512777401
 10
-2.9135646612
 20
26.6718952322
 10
-2.9472101601
 20
26.6897583907
 10
-2.9835138295
 20
26.7046191451
  0
LWPOLYLINE
  5
369
100
AcDbEntity
  8
ASSI
100
AcDbPolyline
 62
7
  6
CONTINUOUS
 90
13
 70
0
 10
-1.1594184981
 20
21.537627191
 10
-1.1609230192
 20
21.5666429859
 10
-1.1654345567
 20
21.5966694917
 10
-1.1728706935
 20
21.6271960085
 10
-1.1830983588
 20
21.6577038426
 10
-1.1959415271
 20
21.6876715205
 10
-1.2111840423
 20
21.7165837543
 10
-1.2285683176
 20
21.7439444102
 10
-1.2477938499
 20
21.7692870591
 10
-1.268527472
 20
21.7921795466
 10
-1.2904154977
 20
21.8122297285
 10
-1.3130898776
 20
21.8290919946
 10
-1.3361682694
 20
21.8424754527
  0
LWPOLYLINE
  5
36A
100
AcDbEntity
  8
ASSI
100
AcDbPolyline
 62
250
  6
CONTINUOUS
 90
28
 70
0
 10
-1.3777645355
 20
21.4276123095
 10
-1.3781307251
 20
21.4389313002
 10
-1.3789903457
 20
21.4507009793
 10
-1.3803703093
 20
21.4629005658
 10
-1.3823009184
 20
21.4755328372
 10
-1.3848039924
 20
21.4885404085
 10
-1.3878810397
 20
21.5018031066
 10
-1.391542033
 20
21.5152807573
 10
-1.3957942216
 20
21.5289290257
 10
-1.4006109116
 20
21.542614551
 10
-1.405982359
 20
21.5562837103
 10
-1.4119000889
 20
21.5698919497
 10
-1.4183178119
 20
21.5833203043
 10
-1.4252056819
 20
21.5965063629
 10
-1.432546737
 20
21.6094180228
 10
-1.4403013819
 20
21.6219868819
 10
-1.4484341678
 20
21.634160411
 10
-1.4569208804
 20
21.6459071868
 10
-1.465735291
 20
21.6571938077
 10
-1.4748463616
 20
21.6679822396
 10
-1.4842211048
 20
21.6782351467
 10
-1.4938298772
 20
21.6879216278
 10
-1.503638882
 20
21.6970082775
 10
-1.5136137999
 20
21.7054640007
 10
-1.5237237382
 20
21.7132631223
 10
-1.5339348626
 20
21.7203791694
 10
-1.5442103114
 20
21.726785864
 10
-1.5545143068
 20
21.7324605712
  0
LWPOLYLINE
  5
36B
100
AcDbEntity
  8
ASSI
100
AcDbPolyline
 62
250
  6
CONTINUOUS
 90
15
 70
0
 10
-0.8128109361
 20
19.6782222119
 10
-0.8125983264
 20
19.6677004703
 10
-0.8119360317
 20
19.65711336
 10
-0.8107863459
 20
19.6465113065
 10
-0.8091078408
 20
19.6359272645
 10
-0.8068662283
 20
19.6254451557
 10
-0.8040456298
 20
19.6151912768
 10
-0.8006226247
 20
19.6052256932
 10
-0.7965762009
 20
19.5956120512
 10
-0.7919172716
 20
19.5864684107
 10
-0.7866403
 20
19.5778512726
 10
-0.780742827
 20
19.5698178492
 10
-0.7742644256
 20
19.56246546
 10
-0.7672186209
 20
19.5558377898
 10
-0.7596214164
 20
19.5499763803
  0
LWPOLYLINE
  5
36C
100
AcDbEntity
  8
ASSI
100
AcDbPolyline
 62
250
  6
CONTINUOUS
 90
28
 70
0
 10
-1.6581175658
 20
21.4288356114
 10
-1.6581566009
 20
21.4311207312
 10
-1.6583058966
 20
21.4334854978
 10
-1.658565453
 20
21.435929911
 10
-1.6589327432
 20
21.4384666963
 10
-1.659410294
 20
21.4410831282
 10
-1.6600056861
 20
21.443741031
 10
-1.6607230942
 20
21.4464426616
 10
-1.6615583434
 20
21.449185763
 10
-1.6625064899
 20
21.4519253883
 10
-1.6635710016
 20
21.4546609026
 10
-1.6647484105
 20
21.457392941
 10
-1.6660233687
 20
21.4600784614
 10
-1.6673968817
 20
21.4627136483
 10
-1.668867944
 20
21.4653023173
 10
-1.6704181919
 20
21.4678128739
 10
-1.6720473885
 20
21.4702423311
 10
-1.6737557707
 20
21.472593676
 10
-1.6755256861
 20
21.4748442755
 10
-1.6773576822
 20
21.4769932835
 10
-1.6792512114
 20
21.4790415463
 10
-1.6811869791
 20
21.4809689687
 10
-1.6831653121
 20
21.4827744231
 10
-1.6851858835
 20
21.4844590372
 10
-1.6872284176
 20
21.4860060995
 10
-1.6892861557
 20
21.4874100394
 10
-1.6913658566
 20
21.4886764275
 10
-1.6934675201
 20
21.4898052637
  0
LWPOLYLINE
  5
36D
100
AcDbEntity
  8
ASSI
100
AcDbPolyline
 62
7
  6
CONTINUOUS
 90
9
 70
0
 10
-0.8713893981
 20
19.7489066636
 10
-0.8713603368
 20
19.7450946828
 10
-0.8695529389
 20
19.7186442668
 10
-0.8649261455
 20
19.6926843535
 10
-0.8575285985
 20
19.6676147944
 10
-0.8475265381
 20
19.6438800356
 10
-0.8350397608
 20
19.6216370969
 10
-0.8201847304
 20
19.6010490442
 10
-0.8032263839
 20
19.5824440619
  0
LINE
  5
36E
100
AcDbEntity
  8
ASSI
100
AcDbLine
 62
250
  6
CONTINUOUS
 10
-1.7602169543
 20
24.5752013418
 11
-1.7602169543
 21
25.6234513986
  0
LINE
  5
36F
100
AcDbEntity
  8
ASSI
100
AcDbLine
 62
250
  6
CONTINUOUS
 10
-1.6581175658
 20
20.2415628301
 11
-1.6581175658
 21
21.4288356114
  0
LINE
  5
370
100
AcDbEntity
  8
ASSI
100
AcDbLine
 62
250
  6
CONTINUOUS
 10
-1.3777645355
 20
20.2492584012
 11
-1.3777645355
 21
21.4276123095
  0
LINE
  5
371
100
AcDbEntity
  8
ASSI
100
AcDbLine
 62
7
  6
CONTINUOUS
 10
-1.1594184981
 20
20.3684599209
 11
-1.1594184981
 21
21.537627191
  0
LINE
  5
372
100
AcDbEntity
  8
ASSI
100
AcDbLine
 62
7
  6
CONTINUOUS
 10
-0.8713895799
 20
20.0662016904
 11
-0.8713895799
 21
19.7489328903
  0
LINE
  5
373
100
AcDbEntity
  8
ASSI
100
AcDbLine
 62
250
  6
CONTINUOUS
 10
-0.8128109361
 20
19.9954910123
 11
-0.8128109361
 21
19.6782222119
  0
LINE
  5
374
100
AcDbEntity
  8
ASSI
100
AcDbLine
 62
250
  6
CONTINUOUS
 10
-0.3464880076
 20
24.5752013418
 11
-0.3464880076
 21
25.1148194332
  0
LINE
  5
375
100
AcDbEntity
  8
ASSI
100
AcDbLine
 62
7
  6
CONTINUOUS
 10
-0.1565264595
 20
19.2473481717
 11
-0.1565264595
 21
18.7933860673
  0
LINE
  5
376
100
AcDbEntity
  8
ASSI
100
AcDbLine
 62
250
  6
CONTINUOUS
 10
-0.0833031548
 20
19.2107365194
 11
-0.0833031548
 21
18.7016623752
  0
LINE
  5
377
100
AcDbEntity
  8
0
100
AcDbLine
 62
7
  6
CONTINUOUS
 10
-0.0634029873
 20
17.6661601604
 11
-0.0634029873
 21
17.6433903539
  0
LINE
  5
378
100
AcDbEntity
  8
ASSI
100
AcDbLine
 62
7
  6
CONTINUOUS
 10
0.0494342775
 20
18.5104459657
 11
0.0494342775
 21
19.1482913866
  0
LINE
  5
379
100
AcDbEntity
  8
ASSI
100
AcDbLine
 62
250
  6
CONTINUOUS
 10
0.1226575822
 20
-22.0891161866
 11
0.1226575822
 21
-21.3382831617
  0
LINE
  5
37A
100
AcDbEntity
  8
ASSI
100
AcDbLine
 62
250
  6
CONTINUOUS
 10
0.1226575822
 20
18.4596549278
 11
0.1226575822
 21
19.2104879528
  0
LINE
  5
37B
100
AcDbEntity
  8
ASSI
100
AcDbLine
 62
250
  6
CONTINUOUS
 10
0.3162218683
 20
-22.1858983297
 11
0.3162218683
 21
-21.4350653047
  0
LINE
  5
37C
100
AcDbEntity
  8
ASSI
100
AcDbLine
 62
250
  6
CONTINUOUS
 10
0.3162218683
 20
18.3628727848
 11
0.3162218683
 21
19.1137058097
  0
LWPOLYLINE
  5
37D
100
AcDbEntity
  8
ASSI
100
AcDbPolyline
 62
7
  6
CONTINUOUS
 90
3
 70
0
 10
3.7939825577
 20
19.7329288863
 10
3.7995234633
 20
19.7573524525
 10
3.8028000405
 20
19.7824946589
  0
LWPOLYLINE
  5
37E
100
AcDbEntity
  8
DRAFT
100
AcDbPolyline
 62
7
  6
CONTINUOUS
 90
3
 70
0
 10
-12.453815077
 20
-8.8981439322
 10
-12.4122300896
 20
-8.8633273116
 10
-12.3636268829
 20
-8.8333479586
  0
LWPOLYLINE
  5
37F
100
AcDbEntity
  8
RACCORDO
100
AcDbPolyline
 62
250
  6
CONTINUOUS
 90
22
 70
0
 10
19.9617693605
 20
15.9098684672
 10
19.952958462
 20
15.9027330329
 10
19.944422586
 20
15.8952575084
 10
19.9361742676
 20
15.8874528718
 10
19.9282256197
 20
15.8793305843
 10
19.920588315
 20
15.8709025736
 10
19.9132735691
 20
15.8621812166
 10
19.9062921239
 20
15.8531793207
 10
19.8996542317
 20
15.8439101053
 10
19.8933696405
 20
15.8343871827
 10
19.8874475794
 20
15.8246245373
 10
19.881896745
 20
15.8146365059
 10
19.8767252888
 20
15.804437756
 10
19.8719408052
 20
15.7940432649
 10
19.8675503204
 20
15.783468297
 10
19.8635602819
 20
15.772728382
 10
19.8599765492
 20
15.7618392915
 10
19.856804385
 20
15.7508170166
 10
19.8540484477
 20
15.7396777437
 10
19.8517127846
 20
15.728437831
 10
19.8498008255
 20
15.7171137847
 10
19.8483153782
 20
15.7057222343
  0
LINE
  5
380
100
AcDbEntity
  8
DRAFT
100
AcDbLine
 62
7
  6
CONTINUOUS
 10
1.3287655618
 20
-2.4666321754
 11
0.8751065949
 21
-2.239802692
  0
LINE
  5
381
100
AcDbEntity
  8
0
100
AcDbLine
 62
7
  6
CONTINUOUS
 10
2.4897624
 20
-16.2917814475
 11
1.3287655618
 21
-2.4666321754
  0
LWPOLYLINE
  5
382
100
AcDbEntity
  8
ASSI
100
AcDbPolyline
 62
250
  6
CONTINUOUS
 90
10
 70
0
 10
1.5320434169
 20
18.6447482486
 10
1.5323142917
 20
18.6397425705
 10
1.5330382621
 20
18.6351541268
 10
1.5342153282
 20
18.6309829178
 10
1.5358737521
 20
18.6271839354
 10
1.5379852717
 20
18.6238021876
 10
1.5404651001
 20
18.6209726979
 10
1.543284975
 20
18.6187404742
 10
1.5464731588
 20
18.6170605085
 10
1.5500296513
 20
18.615932801
  0
LWPOLYLINE
  5
383
100
AcDbEntity
  8
ASSI
100
AcDbPolyline
 62
250
  6
CONTINUOUS
 90
10
 70
0
 10
3.7475246167
 20
-21.565629183
 10
3.747263036
 20
-21.5606281518
 10
3.7465639059
 20
-21.5560521284
 10
3.7454272264
 20
-21.5519011126
 10
3.743825705
 20
-21.5481305815
 10
3.7417866342
 20
-21.5447850581
 10
3.7393918918
 20
-21.5419981114
 10
3.7366687702
 20
-21.5398142643
 10
3.733589977
 20
-21.5381889939
 10
3.7301555121
 20
-21.5371223002
  0
LWPOLYLINE
  5
384
100
AcDbEntity
  8
ASSI
100
AcDbPolyline
 62
250
  6
CONTINUOUS
 90
13
 70
0
 10
1.3103783264
 20
26.5849071724
 10
1.3091954198
 20
26.6081432235
 10
1.3056662992
 20
26.6321228948
 10
1.2998500165
 20
26.6564449406
 10
1.2918438939
 20
26.6807023861
 10
1.281781896
 20
26.7044893378
 10
1.2698323876
 20
26.7274077746
 10
1.2561953166
 20
26.7490742082
 10
1.2410988688
 20
26.7691260997
 10
1.2247956495
 20
26.7872279258
 10
1.2075584563
 20
26.8030767933
 10
1.1896757148
 20
26.8164075071
 10
1.1714466524
 20
26.8269970077
  0
LWPOLYLINE
  5
385
100
AcDbEntity
  8
ASSI
100
AcDbPolyline
 62
7
  6
CONTINUOUS
 90
16
 70
0
 10
-0.8146641669
 20
25.5684485089
 10
-0.8155738315
 20
25.5868412015
 10
-0.8189522472
 20
25.6051099478
 10
-0.8248055953
 20
25.6232427013
 10
-0.8332824978
 20
25.6415199519
 10
-0.8442592954
 20
25.6596090905
 10
-0.8573358381
 20
25.6765715614
 10
-0.8724347703
 20
25.692141421
 10
-0.8896623753
 20
25.706501701
 10
-0.9088895518
 20
25.7193877514
 10
-0.9302615415
 20
25.7307943313
 10
-0.9536512208
 20
25.7406107179
 10
-0.9785103426
 20
25.7484271388
 10
-1.0046487714
 20
25.7540809271
 10
-1.0322385312
 20
25.7576365391
 10
-1.0612626118
 20
25.759038752
  0
LWPOLYLINE
  5
386
100
AcDbEntity
  8
ASSI
100
AcDbPolyline
 62
250
  6
CONTINUOUS
 90
9
 70
0
 10
1.2516903786
 20
18.6459888991
 10
1.2528892817
 20
18.6214414467
 10
1.2564714976
 20
18.5984195684
 10
1.2623882279
 20
18.5772342937
 10
1.2705605011
 20
18.5581698668
 10
1.2808767863
 20
18.5414856599
 10
1.2931927265
 20
18.5274105645
 10
1.3073387677
 20
18.516132976
 10
1.3168711719
 20
18.5106493584
  0
LINE
  5
387
100
AcDbEntity
  8
ASSI
100
AcDbLine
 62
250
  6
CONTINUOUS
 10
1.8802421936
 20
25.8698904409
 11
1.8760637514
 21
26.1651625097
  0
LINE
  5
388
100
AcDbEntity
  8
ASSI
100
AcDbLine
 62
7
  6
CONTINUOUS
 10
1.939448083
 20
25.8961799445
 11
1.9346439118
 21
26.2356695227
  0
LINE
  5
389
100
AcDbEntity
  8
RACCORDO
100
AcDbLine
 62
7
  6
CONTINUOUS
 10
0.6437037939
 20
-16.4081606882
 11
0.6437037939
 21
-15.3687521444
  0
LINE
  5
38A
100
AcDbEntity
  8
ASSI
100
AcDbLine
 62
250
  6
CONTINUOUS
 10
0.6666631562
 20
-21.9396090079
 11
0.6666631562
 21
-21.3137759829
  0
LINE
  5
38B
100
AcDbEntity
  8
ASSI
100
AcDbLine
 62
250
  6
CONTINUOUS
 10
0.6666631562
 20
18.2385252082
 11
0.6666631562
 21
18.8357533639
  0
LINE
  5
38C
100
AcDbEntity
  8
ASSI
100
AcDbLine
 62
7
  6
CONTINUOUS
 10
1.2093892189
 20
18.5643903325
 11
1.2093892189
 21
18.1233958907
  0
LINE
  5
38D
100
AcDbEntity
  8
ASSI
100
AcDbLine
 62
7
  6
CONTINUOUS
 10
1.2093892189
 20
-20.6745421989
 11
1.2093892189
 21
-21.3003752238
  0
LINE
  5
38E
100
AcDbEntity
  8
ASSI
100
AcDbLine
 62
250
  6
CONTINUOUS
 10
1.2516903866
 20
18.9632403509
 11
1.2516903866
 21
18.6459888946
  0
LINE
  5
38F
100
AcDbEntity
  8
ASSI
100
AcDbLine
 62
250
  6
CONTINUOUS
 10
1.2516903866
 20
-22.9709013892
 11
1.2516903866
 21
-22.6536325888
  0
LINE
  5
390
100
AcDbEntity
  8
ASSI
100
AcDbLine
 62
250
  6
CONTINUOUS
 10
1.5320434169
 20
18.962017049
 11
1.5320434169
 21
18.6447482486
  0
LINE
  5
391
100
AcDbEntity
  8
ASSI
100
AcDbLine
 62
250
  6
CONTINUOUS
 10
1.5320434169
 20
-22.9721246911
 11
1.5320434169
 21
-22.6548558907
  0
LINE
  5
392
100
AcDbEntity
  8
ASSI
100
AcDbLine
 62
250
  6
CONTINUOUS
 10
1.9363961676
 20
18.3719840023
 11
1.9363961676
 21
17.691812714
  0
LINE
  5
393
100
AcDbEntity
  8
ASSI
100
AcDbLine
 62
250
  6
CONTINUOUS
 10
1.9363961676
 20
-20.9699659709
 11
1.9363961676
 21
-21.6638786982
  0
LINE
  5
394
100
AcDbEntity
  8
ASSI
100
AcDbLine
 62
250
  6
CONTINUOUS
 10
2.2868374555
 20
18.459632624
 11
2.2868374555
 21
17.7014321779
  0
LINE
  5
395
100
AcDbEntity
  8
ASSI
100
AcDbLine
 62
250
  6
CONTINUOUS
 10
2.2868374555
 20
-21.1035624385
 11
2.2868374555
 21
-21.7408441357
  0
LINE
  5
396
100
AcDbEntity
  8
0
100
AcDbLine
 62
7
  6
CONTINUOUS
 10
2.4897624
 20
-20.8136361816
 11
2.4897624
 21
-16.2917814475
  0
LINE
  5
397
100
AcDbEntity
  8
0
100
AcDbLine
 62
7
  6
CONTINUOUS
 10
2.4897624
 20
12.4602619582
 11
2.4897624
 21
16.9821166923
  0
LINE
  5
398
100
AcDbEntity
  8
ASSI
100
AcDbLine
 62
7
  6
CONTINUOUS
 10
2.8500215251
 20
22.4348463779
 11
2.8571964833
 21
23.6056257998
  0
LINE
  5
399
100
AcDbEntity
  8
ASSI
100
AcDbLine
 62
250
  6
CONTINUOUS
 10
2.7511102059
 20
23.477278257
 11
2.7472330642
 21
23.1027805549
  0
LINE
  5
39A
100
AcDbEntity
  8
ASSI
100
AcDbLine
 62
250
  6
CONTINUOUS
 10
2.7449596104
 20
22.8831849683
 11
2.7389434423
 21
22.3020761825
  0
LWPOLYLINE
  5
39B
100
AcDbEntity
  8
ASSI
100
AcDbPolyline
 62
250
  6
CONTINUOUS
 90
19
 70
0
 10
1.5320434169
 20
-22.6548558907
 10
1.5320760001
 20
-22.6526755499
 10
1.5322167456
 20
-22.6504027609
 10
1.5324656536
 20
-22.6480375235
 10
1.5328180706
 20
-22.6455683197
 10
1.53327865
 20
-22.6430066675
 10
1.5338613516
 20
-22.6403871219
 10
1.534570203
 20
-22.637706547
 10
1.5354011766
 20
-22.6349680786
 10
1.5363561492
 20
-22.6322156795
 10
1.5374394577
 20
-22.6294478879
 10
1.5386467652
 20
-22.6266661655
 10
1.5399669382
 20
-22.6239188606
 10
1.5414039038
 20
-22.6212066504
 10
1.5429537349
 20
-22.6185288576
 10
1.5445935166
 20
-22.6159317985
 10
1.5463156108
 20
-22.6134309115
 10
1.5481276557
 20
-22.6110107582
 10
1.5500296513
 20
-22.6086713384
  0
LWPOLYLINE
  5
39C
100
AcDbEntity
  8
ASSI
100
AcDbPolyline
 62
250
  6
CONTINUOUS
 90
19
 70
0
 10
1.2516903866
 20
-22.6536325888
 10
1.2519093991
 20
-22.642763603
 10
1.2525912914
 20
-22.6313909362
 10
1.2537719798
 20
-22.6195289671
 10
1.2554907507
 20
-22.6071712698
 10
1.257779976
 20
-22.5943683554
 10
1.2606539866
 20
-22.5812302476
 10
1.2641341636
 20
-22.5677944144
 10
1.2682391785
 20
-22.5541040891
 10
1.2729563444
 20
-22.5402869962
 10
1.27828931
 20
-22.526393984
 10
1.284238482
 20
-22.5124793102
 10
1.2907627781
 20
-22.4986775224
 10
1.2978473005
 20
-22.4850447115
 10
1.3054746708
 20
-22.4716369294
 10
1.3135786848
 20
-22.4585817332
 10
1.3221130649
 20
-22.4459523539
 10
1.3310604304
 20
-22.4337735718
 10
1.3403872991
 20
-22.4220926974
  0
LWPOLYLINE
  5
39D
100
AcDbEntity
  8
ASSI
100
AcDbPolyline
 62
7
  6
CONTINUOUS
 90
9
 70
0
 10
2.8498988582
 20
22.4348476921
 10
2.8497619422
 20
22.42966049
 10
2.8463797365
 20
22.4092451001
 10
2.8381754046
 20
22.3889978748
 10
2.8255237511
 20
22.3689865212
 10
2.8091974597
 20
22.3501907082
 10
2.7894540918
 20
22.3329369923
 10
2.766036086
 20
22.3168988171
 10
2.7389434423
 20
22.3020761825
  0
LINE
  5
39E
100
AcDbEntity
  8
RACCORDO
100
AcDbLine
 62
7
  6
CONTINUOUS
 10
0.0545377906
 20
-21.8263897059
 11
1.6532576049
 21
16.33429175
  0
LWPOLYLINE
  5
39F
100
AcDbEntity
  8
ASSI
100
AcDbPolyline
 62
250
  6
CONTINUOUS
 90
9
 70
0
 10
2.857195893
 20
23.6055195857
 10
2.8569123976
 20
23.5988073881
 10
2.8533399166
 20
23.5794097212
 10
2.8457151643
 20
23.5603624193
 10
2.834121208
 20
23.5418712267
 10
2.8186796717
 20
23.5241293386
 10
2.7995536661
 20
23.5073279893
 10
2.7769494912
 20
23.4916537633
 10
2.7511102059
 20
23.477278257
  0
LINE
  5
3A0
100
AcDbEntity
  8
ASSI
100
AcDbLine
 62
250
  6
CONTINUOUS
 10
3.2429215792
 20
23.0916693213
 11
3.2524857393
 21
23.3153325598
  0
LINE
  5
3A1
100
AcDbEntity
  8
ASSI
100
AcDbLine
 62
7
  6
CONTINUOUS
 10
3.5308692731
 20
23.4136192187
 11
3.5298806799
 21
23.3961760855
  0
LINE
  5
3A2
100
AcDbEntity
  8
0
100
AcDbLine
 62
7
  6
CONTINUOUS
 10
1.3287655618
 20
-2.4666321754
 11
2.4897624
 21
12.4602619582
  0
LWPOLYLINE
  5
3A3
100
AcDbEntity
  8
RACCORDO
100
AcDbPolyline
 62
250
  6
CONTINUOUS
 90
22
 70
0
 10
19.5945837198
 20
18.8299721753
 10
19.6180259252
 20
18.854607348
 10
19.6409779408
 20
18.8793899684
 10
19.6634399916
 20
18.9043015146
 10
19.6854616614
 20
18.9293671198
 10
19.7069940532
 20
18.954524572
 10
19.7278959521
 20
18.9796225913
 10
19.7481457148
 20
19.0046068663
 10
19.7677817705
 20
19.0294918428
 10
19.7867597402
 20
19.0542284064
 10
19.8050975024
 20
19.0788125422
 10
19.8227956276
 20
19.1032116103
 10
19.8397876103
 20
19.1273342724
 10
19.8560724735
 20
19.1511475114
 10
19.8716774621
 20
19.1746518014
 10
19.8865820533
 20
19.1978073386
 10
19.9007981593
 20
19.2206012833
 10
19.9143413116
 20
19.243019269
 10
19.9271980519
 20
19.265020871
 10
19.939374005
 20
19.2865856664
 10
19.9508927859
 20
19.3077129261
 10
19.9617686844
 20
19.3283934113
  0
LWPOLYLINE
  5
3A4
100
AcDbEntity
  8
0
100
AcDbPolyline
 62
7
  6
CONTINUOUS
 90
11
 70
0
 10
-12.3635953767
 20
-8.833413405
 10
-12.4135084756
 20
-8.864258937
 10
-12.4550947832
 20
-8.8993053858
 10
-12.4930385828
 20
-8.940800819
 10
-12.5264715357
 20
-8.9877137448
 10
-12.5552690077
 20
-9.0402310945
 10
-12.5795620779
 20
-9.0981686616
 10
-12.5988676006
 20
-9.1599389916
 10
-12.6130262912
 20
-9.2250136987
 10
-12.6222014047
 20
-9.2939228614
 10
-12.6263934798
 20
-9.3666666924
  0
LWPOLYLINE
  5
3A5
100
AcDbEntity
  8
ASSI
100
AcDbPolyline
 62
250
  6
CONTINUOUS
 90
13
 70
0
 10
1.5673880796
 20
19.0223776962
 10
1.5658723473
 20
19.0454346317
 10
1.5620063076
 20
19.0693275475
 10
1.5558560815
 20
19.0936477893
 10
1.5475268583
 20
19.1179793926
 10
1.5371610958
 20
19.1419061994
 10
1.5249360833
 20
19.1650189761
 10
1.5110609096
 20
19.1869224104
 10
1.4957728901
 20
19.2072418699
 10
1.4793335067
 20
19.2256298129
 10
1.4620239333
 20
19.2417717357
 10
1.4441402261
 20
19.2553915503
 10
1.4259882625
 20
19.2662563055
  0
LWPOLYLINE
  5
3A6
100
AcDbEntity
  8
ASSI
100
AcDbPolyline
 62
7
  6
CONTINUOUS
 90
12
 70
0
 10
1.9346328957
 20
26.2356685512
 10
1.9311627504
 20
26.3066851066
 10
1.921525947
 20
26.3832310622
 10
1.9059881028
 20
26.4556894394
 10
1.8847969086
 20
26.5236922993
 10
1.8581360741
 20
26.5870617386
 10
1.8260902211
 20
26.6457064675
 10
1.7888570357
 20
26.6992993624
 10
1.7467172122
 20
26.747404891
 10
1.6999702342
 20
26.7896381462
 10
1.6490281681
 20
26.8256388628
 10
1.6086073133
 20
26.8482153057
  0
LWPOLYLINE
  5
3A7
100
AcDbEntity
  8
ASSI
100
AcDbPolyline
 62
250
  6
CONTINUOUS
 90
22
 70
0
 10
1.8760637514
 20
26.1651625097
 10
1.8737617322
 20
26.216110552
 10
1.8684530813
 20
26.2648084645
 10
1.8601377988
 20
26.3112562473
 10
1.8487386634
 20
26.3557126648
 10
1.8343328965
 20
26.3979189527
 10
1.8171521614
 20
26.4370988176
 10
1.7971485611
 20
26.4731769873
 10
1.7743699927
 20
26.506228734
 10
1.749191811
 20
26.5357035821
 10
1.7215736478
 20
26.5615387724
 10
1.6915558712
 20
26.5837970639
 10
1.6596349406
 20
26.6021162584
 10
1.6257815566
 20
26.6164291584
 10
1.5900250185
 20
26.6268029613
 10
1.5529496838
 20
26.6330770614
 10
1.5145130542
 20
26.6351756835
 10
1.4747576279
 20
26.6331746027
 10
1.4343952567
 20
26.6271405392
 10
1.3936632248
 20
26.617095733
 10
1.352324248
 20
26.603017944
 10
1.3103783264
 20
26.5849071724
  0
LWPOLYLINE
  5
3A8
100
AcDbEntity
  8
ASSI
100
AcDbPolyline
 62
7
  6
CONTINUOUS
 90
12
 70
0
 10
2.8571964756
 20
23.6056420878
 10
2.8560184643
 20
23.6329629637
 10
2.8508958646
 20
23.6663993457
 10
2.8416763597
 20
23.6993950291
 10
2.8283655652
 20
23.7314770799
 10
2.8111140811
 20
23.7620392563
 10
2.7899789418
 20
23.7907983454
 10
2.7649679122
 20
23.817521014
 10
2.7365054527
 20
23.8416153558
 10
2.7051476691
 20
23.8626379432
 10
2.670657179
 20
23.8807594708
 10
2.6334202439
 20
23.8957328658
  0
LWPOLYLINE
  5
3A9
100
AcDbEntity
  8
ASSI
100
AcDbPolyline
 62
7
  6
CONTINUOUS
 90
16
 70
0
 10
3.5781969359
 20
17.5666392984
 10
3.5762830564
 20
17.6125137734
 10
3.570468906
 20
17.6599503067
 10
3.5607901335
 20
17.7084592901
 10
3.5472576351
 20
17.757703387
 10
3.5300334943
 20
17.8069727933
 10
3.5095532057
 20
17.8552034295
 10
3.4863344773
 20
17.9014978324
 10
3.460524119
 20
17.9457985681
 10
3.432036096
 20
17.9882829119
 10
3.4008489864
 20
18.0287858293
 10
3.3675164745
 20
18.0664122584
 10
3.3328187411
 20
18.1002946975
 10
3.2973074995
 20
18.1299974721
 10
3.2612391212
 20
18.155387852
 10
3.2250068824
 20
18.1762472307
  0
LWPOLYLINE
  5
3AA
100
AcDbEntity
  8
ASSI
100
AcDbPolyline
 62
250
  6
CONTINUOUS
 90
13
 70
0
 10
2.7511102059
 20
23.477278257
 10
2.749967761
 20
23.5064755932
 10
2.7457690211
 20
23.5366586972
 10
2.7385858002
 20
23.567311328
 10
2.7285409573
 20
23.5979092133
 10
2.7158062962
 20
23.6279290178
 10
2.7005996266
 20
23.6568572935
 10
2.6831810383
 20
23.6841992612
 10
2.6638484526
 20
23.7094872735
 10
2.6429325273
 20
23.7322888131
 10
2.620791001
 20
23.7522138904
 10
2.5978025748
 20
23.7689217139
 10
2.5743604346
 20
23.7821265187
  0
LWPOLYLINE
  5
3AB
100
AcDbEntity
  8
ASSI
100
AcDbPolyline
 62
250
  6
CONTINUOUS
 90
13
 70
0
 10
3.7133926727
 20
20.0995408951
 10
3.7124787156
 20
20.122898763
 10
3.709119723
 20
20.1470452456
 10
3.7033731459
 20
20.1715673498
 10
3.6953372719
 20
20.196045658
 10
3.6851495436
 20
20.2200615019
 10
3.6729842085
 20
20.2432041228
 10
3.6590493382
 20
20.2650776974
 10
3.6435832699
 20
20.2853081076
 10
3.6268505298
 20
20.3035493396
 10
3.6091373088
 20
20.3194894017
 10
3.5907465679
 20
20.3328556606
 10
3.5719928557
 20
20.3434195044
  0
LWPOLYLINE
  5
3AC
100
AcDbEntity
  8
ASSI
100
AcDbPolyline
 62
7
  6
CONTINUOUS
 90
11
 70
0
 10
3.8036562114
 20
20.1435422759
 10
3.8031859573
 20
20.1587884372
 10
3.7995457062
 20
20.1884557074
 10
3.7923305452
 20
20.217200137
 10
3.7816518314
 20
20.244547836
 10
3.7678315684
 20
20.2698542539
 10
3.7511197078
 20
20.2928923279
 10
3.7316495298
 20
20.3135452076
 10
3.7098293014
 20
20.3314111967
 10
3.6860965406
 20
20.3462087133
 10
3.6804348771
 20
20.3491476249
  0
LWPOLYLINE
  5
3AD
100
AcDbEntity
  8
ASSI
100
AcDbPolyline
 62
7
  6
CONTINUOUS
 90
8
 70
0
 10
3.5661474569
 20
23.4453337177
 10
3.56590109
 20
23.4585658163
 10
3.5648081608
 20
23.4693510778
 10
3.5629865834
 20
23.4776772159
 10
3.5605255934
 20
23.4835213138
 10
3.5575456457
 20
23.4868905003
 10
3.5542412141
 20
23.4878226069
 10
3.5524061293
 20
23.4873161989
  0
LWPOLYLINE
  5
3AE
100
AcDbEntity
  8
ASSI
100
AcDbPolyline
 62
250
  6
CONTINUOUS
 90
28
 70
0
 10
3.7475246167
 20
20.0739185512
 10
3.7474870199
 20
20.0761395077
 10
3.74734357
 20
20.0783299617
 10
3.7470942672
 20
20.0804899133
 10
3.7467415551
 20
20.082634149
 10
3.74628299
 20
20.0847478824
 10
3.745711241
 20
20.0867867535
 10
3.7450223832
 20
20.0887489224
 10
3.7442203414
 20
20.090636229
 10
3.7433095592
 20
20.0924098335
 10
3.7422867676
 20
20.0940658057
 10
3.7411552356
 20
20.0956080758
 10
3.7399292131
 20
20.0970095951
 10
3.7386077091
 20
20.0982657436
 10
3.7371917146
 20
20.0993811413
 10
3.7356984525
 20
20.1003425998
 10
3.7341280977
 20
20.1011474498
 10
3.7324804753
 20
20.1017983606
 10
3.7307722839
 20
20.1022901508
 10
3.7290029734
 20
20.1026214473
 10
3.7271730938
 20
20.1027936232
 10
3.7253009934
 20
20.1028056167
 10
3.7233863356
 20
20.10265599
 10
3.7214294569
 20
20.1023461809
 10
3.7194497155
 20
20.1018794417
 10
3.717453564
 20
20.1012568564
 10
3.7154345497
 20
20.1004773408
 10
3.7133926727
 20
20.0995408951
  0
LWPOLYLINE
  5
3AF
100
AcDbEntity
  8
ASSI
100
AcDbPolyline
 62
7
  6
CONTINUOUS
 90
4
 70
0
 10
3.8036570879
 20
-21.4961350592
 10
3.8036385783
 20
-21.493126133
 10
3.8019457538
 20
-21.466930552
 10
3.7974962791
 20
-21.4412151996
  0
LINE
  5
3B0
100
AcDbEntity
  8
ASSI
100
AcDbLine
 62
7
  6
CONTINUOUS
 10
3.1892882062
 20
-22.2493061679
 11
3.1892882062
 21
-20.7431167411
  0
LINE
  5
3B1
100
AcDbEntity
  8
ASSI
100
AcDbLine
 62
7
  6
CONTINUOUS
 10
3.1892882062
 20
18.1941065688
 11
3.1892882062
 21
19.839581216
  0
LINE
  5
3B2
100
AcDbEntity
  8
ASSI
100
AcDbLine
 62
7
  6
CONTINUOUS
 10
3.5781969359
 20
17.5666392984
 11
3.5781969359
 21
15.0551658311
  0
LINE
  5
3B3
100
AcDbEntity
  8
ASSI
100
AcDbLine
 62
7
  6
CONTINUOUS
 10
3.5781969359
 20
-20.3652729801
 11
3.5781969359
 21
-17.8537995127
  0
LINE
  5
3B4
100
AcDbEntity
  8
ASSI
100
AcDbLine
 62
250
  6
CONTINUOUS
 10
3.7475246167
 20
-21.9055727778
 11
3.7475246167
 21
-21.565629183
  0
LINE
  5
3B5
100
AcDbEntity
  8
ASSI
100
AcDbLine
 62
250
  6
CONTINUOUS
 10
3.7475246167
 20
19.7339749564
 11
3.7475246167
 21
20.0739185512
  0
LINE
  5
3B6
100
AcDbEntity
  8
ASSI
100
AcDbLine
 62
7
  6
CONTINUOUS
 10
3.8036566567
 20
-21.8361069408
 11
3.8036566567
 21
-21.4961632771
  0
LINE
  5
3B7
100
AcDbEntity
  8
ASSI
100
AcDbLine
 62
7
  6
CONTINUOUS
 10
3.8036566567
 20
19.8034407934
 11
3.8036564074
 21
20.1435422761
  0
LINE
  5
3B8
100
AcDbEntity
  8
ASSI
100
AcDbLine
 62
7
  6
CONTINUOUS
 10
4.2729611223
 20
-19.990497916
 11
4.2729611223
 21
-17.0654904659
  0
LINE
  5
3B9
100
AcDbEntity
  8
ASSI
100
AcDbLine
 62
7
  6
CONTINUOUS
 10
4.2729611223
 20
14.9863061603
 11
4.2729611223
 21
17.9113136103
  0
LINE
  5
3BA
100
AcDbEntity
  8
ASSI
100
AcDbLine
 62
7
  6
CONTINUOUS
 10
4.9677253087
 20
15.3504591913
 11
4.9677253087
 21
14.7746152071
  0
LINE
  5
3BB
100
AcDbEntity
  8
ASSI
100
AcDbLine
 62
7
  6
CONTINUOUS
 10
4.9677253087
 20
-16.2370202858
 11
4.9677253087
 21
-16.710194121
  0
LINE
  5
3BC
100
AcDbEntity
  8
ASSI
100
AcDbLine
 62
7
  6
CONTINUOUS
 10
5.0294429837
 20
14.7437563696
 11
5.0294429837
 21
-16.1652089742
  0
LINE
  5
3BD
100
AcDbEntity
  8
ASSI
100
AcDbLine
 62
7
  6
CONTINUOUS
 10
3.5661474569
 20
23.4453337177
 11
3.5659270519
 21
23.4386739538
  0
LINE
  5
3BE
100
AcDbEntity
  8
ASSI
100
AcDbLine
 62
7
  6
CONTINUOUS
 10
3.8028000405
 20
19.7824946589
 11
3.8036527257
 21
19.8034806316
  0
LWPOLYLINE
  5
3BF
100
AcDbEntity
  8
ASSI
100
AcDbPolyline
 62
250
  6
CONTINUOUS
 90
8
 70
0
 10
3.7133926727
 20
-21.9665397844
 10
3.7124787195
 20
-21.9883818771
 10
3.7091197381
 20
-22.0086622824
 10
3.7033731771
 20
-22.0270341306
 10
3.6953373214
 20
-22.0431831944
 10
3.6851496113
 20
-22.0568332649
 10
3.6729842903
 20
-22.0677508749
 10
3.6644894808
 20
-22.0730901194
  0
LWPOLYLINE
  5
3C0
100
AcDbEntity
  8
ASSI
100
AcDbPolyline
 62
7
  6
CONTINUOUS
 90
10
 70
0
 10
3.5781969359
 20
-20.3653391336
 10
3.5762380259
 20
-20.4093343761
 10
3.5704261055
 20
-20.4511308206
 10
3.5607690708
 20
-20.4902446451
 10
3.5472363488
 20
-20.5263539214
 10
3.5299796004
 20
-20.5588486527
 10
3.5094686108
 20
-20.5869835887
 10
3.4862258014
 20
-20.610349592
 10
3.4603914494
 20
-20.6290540809
 10
3.4524217459
 20
-20.6336125599
  0
LINE
  5
3C1
100
AcDbEntity
  8
ASSI
100
AcDbLine
 62
7
  6
CONTINUOUS
 10
3.8025306536
 20
-21.8601161202
 11
3.8036565919
 21
-21.8360762858
  0
LWPOLYLINE
  5
3C2
100
AcDbEntity
  8
0
100
AcDbPolyline
 62
250
  6
CONTINUOUS
 90
6
 70
0
 10
12.3430590732
 20
23.0309708463
 10
12.3428512015
 20
23.0304015404
 10
12.3427566849
 20
23.028752621
 10
12.3428314241
 20
23.0260431615
 10
12.3430357271
 20
23.0223033261
 10
12.3433795025
 20
23.0175746993
  0
LWPOLYLINE
  5
3C3
100
AcDbEntity
  8
RACCORDO
100
AcDbPolyline
 62
250
  6
CONTINUOUS
 90
8
 70
0
 10
21.4451720268
 20
16.8605962433
 10
21.4440353542
 20
16.8592955001
 10
21.4380161029
 20
16.8528109422
 10
21.4316714513
 20
16.8466286375
 10
21.4250107962
 20
16.8407577425
 10
21.4180440023
 20
16.835206952
 10
21.4107813877
 20
16.8299844872
 10
21.4032337087
 20
16.8250980827
  0
LWPOLYLINE
  5
3C4
100
AcDbEntity
  8
RACCORDO
100
AcDbPolyline
 62
7
  6
CONTINUOUS
 90
13
 70
0
 10
21.4451720268
 20
16.8605962433
 10
21.4213809344
 20
16.8337771115
 10
21.3970952498
 20
16.80773416
 10
21.3723270965
 20
16.7824715329
 10
21.347092979
 20
16.757997031
 10
21.3214013847
 20
16.7343099889
 10
21.2952521299
 20
16.7114026454
 10
21.2686590632
 20
16.6892803835
 10
21.2416333223
 20
16.667945764
 10
21.2141695808
 20
16.6473891136
 10
21.1862739109
 20
16.6276109542
 10
21.157964673
 20
16.6086202467
 10
21.129254537
 20
16.5904210494
  0
LWPOLYLINE
  5
3C5
100
AcDbEntity
  8
RACCORDO
100
AcDbPolyline
 62
250
  6
CONTINUOUS
 90
11
 70
0
 10
21.4032336685
 20
16.8250980363
 10
21.3769082728
 20
16.7956074901
 10
21.3498645595
 20
16.7671555906
 10
21.3221142173
 20
16.739754636
 10
21.2936692389
 20
16.7134164694
 10
21.2645419199
 20
16.6881524769
 10
21.234744854
 20
16.6639735827
 10
21.2042909218
 20
16.640890239
 10
21.1731932851
 20
16.6189124217
 10
21.1414653857
 20
16.5980496308
 10
21.129254537
 20
16.5904210494
  0
LWPOLYLINE
  5
3C6
100
AcDbEntity
  8
DRAFT
100
AcDbPolyline
 62
7
  6
CONTINUOUS
 90
27
 70
0
 10
-12.3636268829
 20
-8.8333479586
 10
-12.3185724942
 20
-8.8135422979
 10
-12.2673725703
 20
-8.7987544429
 10
-12.2133748302
 20
-8.7909604909
 10
-12.1567577873
 20
-8.7900350983
 10
-12.0989767462
 20
-8.7960138228
 10
-12.0401166468
 20
-8.8090460622
 10
-11.9800892965
 20
-8.8289810108
 10
-11.9200951212
 20
-8.8554060229
 10
-11.8600939696
 20
-8.8884484211
 10
-11.8001256604
 20
-8.9279807054
 10
-11.7415152746
 20
-8.9732100513
 10
-11.6842372112
 20
-9.0243404189
 10
-11.6283203492
 20
-9.0811692208
 10
-11.575176512
 20
-9.1422960195
 10
-11.5249519862
 20
-9.2077280748
 10
-11.4775072675
 20
-9.2774610314
 10
-11.4338295088
 20
-9.3500788096
 10
-11.3939393479
 20
-9.4257964489
 10
-11.3578232656
 20
-9.5044019683
 10
-11.3264199697
 20
-9.5838400122
 10
-11.2999096595
 20
-9.663996557
 10
-11.2781187775
 20
-9.7449885039
 10
-11.2614570507
 20
-9.8251076496
 10
-11.25006266
 20
-9.9037853001
 10
-11.243801093
 20
-9.981591744
 10
-11.2426727371
 20
-10.0585271341
  0
LWPOLYLINE
  5
3C7
100
AcDbEntity
  8
0
100
AcDbPolyline
 62
7
  6
CONTINUOUS
 90
3
 70
0
 10
-12.2677319169
 20
-8.7988319117
 10
-12.3192378615
 20
-8.8138543168
 10
-12.3635953767
 20
-8.833413405
  0
LWPOLYLINE
  5
3C8
100
AcDbEntity
  8
0
100
AcDbPolyline
 62
250
  6
CONTINUOUS
 90
9
 70
0
 10
12.1343646024
 20
23.3854712517
 10
12.1359826907
 20
23.392285347
 10
12.1375424787
 20
23.3980925063
 10
12.1390439665
 20
23.4028600027
 10
12.1404908324
 20
23.4065595621
 10
12.141879398
 20
23.4091606401
 10
12.1431986284
 20
23.4106441053
 10
12.1444448452
 20
23.4110053506
 10
12.1454388583
 20
23.4104381474
  0
LWPOLYLINE
  5
3C9
100
AcDbEntity
  8
RACCORDO
100
AcDbPolyline
 62
250
  6
CONTINUOUS
 90
22
 70
0
 10
19.5945837198
 20
18.8299721753
 10
19.6129796317
 20
18.8609468337
 10
19.6308277584
 20
18.8920662026
 10
19.6481166813
 20
18.9233224293
 10
19.664861437
 20
18.9547788587
 10
19.6810237185
 20
18.9863567414
 10
19.6965209331
 20
19.0178318191
 10
19.711332444
 20
19.0491473204
 10
19.7254787972
 20
19.0803372314
 10
19.7389497755
 20
19.1113101188
 10
19.7517556552
 20
19.1420703949
 10
19.7638907471
 20
19.1725918001
 10
19.7753280809
 20
19.2027354862
 10
19.7860700959
 20
19.2324658379
 10
19.7961339703
 20
19.26179541
 10
19.8055220821
 20
19.2906565571
 10
19.8142477013
 20
19.3190370564
 10
19.8223227163
 20
19.346928002
 10
19.829751708
 20
19.374266667
 10
19.8365477562
 20
19.401025591
 10
19.8427301481
 20
19.4272129715
 10
19.8483153392
 20
19.4528199116
  0
LWPOLYLINE
  5
3CA
100
AcDbEntity
  8
RACCORDO
100
AcDbPolyline
 62
7
  6
CONTINUOUS
 90
25
 70
0
 10
21.445184873
 20
16.8606109664
 10
21.4462054123
 20
16.8617953651
 10
21.4542061196
 20
16.8714291742
 10
21.4619366084
 20
16.8813736585
 10
21.4693838917
 20
16.891619123
 10
21.476538514
 20
16.902159532
 10
21.4833942185
 20
16.9129936658
 10
21.489940413
 20
16.9241135226
 10
21.4961670211
 20
16.9355104162
 10
21.5020684939
 20
16.9471837607
 10
21.507635589
 20
16.9591264586
 10
21.5128584746
 20
16.9713286637
 10
21.5177309065
 20
16.9837876565
 10
21.5222446224
 20
16.9964961865
 10
21.5263910574
 20
17.0094451578
 10
21.5301640371
 20
17.0226313365
 10
21.5335565107
 20
17.0360494762
 10
21.5365603675
 20
17.0496899323
 10
21.5391687087
 20
17.06354525
 10
21.5413749079
 20
17.077609117
 10
21.5431721287
 20
17.0918747728
 10
21.5445539733
 20
17.1063369721
 10
21.5455137917
 20
17.1209915065
 10
21.5460446053
 20
17.1358325877
 10
21.5461573103
 20
17.146566204
  0
LINE
  5
3CB
100
AcDbEntity
  8
RACCORDO
100
AcDbLine
 62
250
  6
CONTINUOUS
 10
0.785465762
 20
-5.9209765622
 11
0.7196413272
 21
-5.9506846774
  0
LWPOLYLINE
  5
3CC
100
AcDbEntity
  8
0
100
AcDbPolyline
 62
7
  6
CONTINUOUS
 90
6
 70
0
 10
-3.0384133096
 20
19.1308955151
 10
-3.0405891293
 20
19.1355917343
 10
-3.0489830674
 20
19.1469506863
 10
-3.0601957361
 20
19.1576352409
 10
-3.0743126306
 20
19.1678299285
 10
-3.0913337508
 20
19.177534749
  0
LINE
  5
3CD
100
AcDbEntity
  8
ASSI
100
AcDbLine
 62
7
  6
CONTINUOUS
 10
9.8647575073
 20
22.1181920788
 11
9.8647575073
 21
22.3092141425
  0
LWPOLYLINE
  5
3CE
100
AcDbEntity
  8
0
100
AcDbPolyline
 62
7
  6
CONTINUOUS
 90
38
 70
0
 10
9.3841889882
 20
23.1153804346
 10
9.3843732465
 20
23.1312973038
 10
9.3856707351
 20
23.1605119436
 10
9.3882096142
 20
23.1897061995
 10
9.391988737
 20
23.2188668855
 10
9.3970063967
 20
23.247980831
 10
9.403260327
 20
23.2770348865
 10
9.4107477033
 20
23.3060159295
 10
9.4194651439
 20
23.3349108703
 10
9.4294087114
 20
23.3637066585
 10
9.4405739147
 20
23.3923902882
 10
9.4529557111
 20
23.4209488041
 10
9.4665485082
 20
23.4493693076
 10
9.4813461666
 20
23.4776389623
 10
9.4973420029
 20
23.505745
 10
9.5145287924
 20
23.5336747264
 10
9.5328987726
 20
23.5614155269
 10
9.5524436466
 20
23.5889548719
 10
9.5731545867
 20
23.6162803233
 10
9.5950222386
 20
23.6433795392
 10
9.6180367258
 20
23.67024028
 10
9.6421876534
 20
23.6968504139
 10
9.6674641135
 20
23.7231979221
 10
9.6938546899
 20
23.7492709047
 10
9.721347463
 20
23.7750575856
 10
9.7499300154
 20
23.8005463179
 10
9.7795894377
 20
23.8257255895
 10
9.8103123338
 20
23.850584028
 10
9.8420848276
 20
23.8751104058
 10
9.8748925688
 20
23.8992936455
 10
9.9087207394
 20
23.9231228245
 10
9.9435540608
 20
23.94658718
 10
9.9793768001
 20
23.9696761144
 10
10.0161727778
 20
23.9923791991
 10
10.0539253745
 20
24.0146861804
 10
10.0926175392
 20
24.0365869829
 10
10.132231796
 20
24.058071715
 10
10.172750253
 20
24.079130673
  0
LWPOLYLINE
  5
3CF
100
AcDbEntity
  8
0
100
AcDbPolyline
 62
250
  6
CONTINUOUS
 90
8
 70
0
 10
12.0617528378
 20
23.4165296326
 10
12.0624962489
 20
23.4233744862
 10
12.0631990561
 20
23.429090435
 10
12.0638680302
 20
23.4336528495
 10
12.0645156993
 20
23.4370438763
 10
12.0651420285
 20
23.439243955
 10
12.0657332548
 20
23.4402400439
 10
12.0658945586
 20
23.4403034179
  0
LWPOLYLINE
  5
3D0
100
AcDbEntity
  8
ASSI
100
AcDbPolyline
 62
250
  6
CONTINUOUS
 90
7
 70
0
 10
3.7301555121
 20
-21.5371223002
 10
3.7379543155
 20
-21.5123948979
 10
3.7431867708
 20
-21.4869104781
 10
3.7457643399
 20
-21.4611002617
 10
3.7456434079
 20
-21.4354009827
 10
3.7428260209
 20
-21.4102474976
 10
3.7373598519
 20
-21.3860654277
  0
LWPOLYLINE
  5
3D1
100
AcDbEntity
  8
ASSI
100
AcDbPolyline
 62
7
  6
CONTINUOUS
 90
4
 70
0
 10
3.1785264499
 20
-22.3101994656
 10
3.1844753593
 20
-22.2917186095
 10
3.1880845893
 20
-22.2713037419
 10
3.1892882062
 20
-22.2493061679
  0
LWPOLYLINE
  5
3D2
100
AcDbEntity
  8
0
100
AcDbPolyline
 62
7
  6
CONTINUOUS
 90
14
 70
0
 10
-11.6017137819
 20
-13.235432214
 10
-11.5663651499
 20
-13.2209023678
 10
-11.5316202894
 20
-13.2021760229
 10
-11.4989656665
 20
-13.1800331107
 10
-11.4683586161
 20
-13.1544911657
 10
-11.4398446379
 20
-13.1255338631
 10
-11.4136469833
 20
-13.0934037948
 10
-11.3897416684
 20
-13.0580153051
 10
-11.3681549912
 20
-13.0194550336
 10
-11.3491860457
 20
-12.9782242124
 10
-11.3328659714
 20
-12.9342599103
 10
-11.3191655382
 20
-12.8876258769
 10
-11.308293736
 20
-12.8390135825
 10
-11.3003207981
 20
-12.7886537711
  0
LWPOLYLINE
  5
3D3
100
AcDbEntity
  8
RACCORDO
100
AcDbPolyline
 62
250
  6
CONTINUOUS
 90
9
 70
0
 10
-17.6031787916
 20
21.4314882312
 10
-17.6337107226
 20
21.4502673647
 10
-17.6603132586
 20
21.470052447
 10
-17.682728642
 20
21.4906517765
 10
-17.7007396856
 20
21.511865762
 10
-17.7141718766
 20
21.5334888567
 10
-17.7228950678
 20
21.55531155
 10
-17.7268247383
 20
21.5771223974
 10
-17.7268088414
 20
21.590918784
  0
LWPOLYLINE
  5
3D4
100
AcDbEntity
  8
0
100
AcDbPolyline
 62
7
  6
CONTINUOUS
 90
4
 70
0
 10
9.3876336045
 20
23.0472534554
 10
9.3855042239
 20
23.0728596554
 10
9.3843177345
 20
23.1020754749
 10
9.3841889882
 20
23.1153804346
  0
LINE
  5
3D5
100
AcDbEntity
  8
0
100
AcDbLine
 62
250
  6
CONTINUOUS
 10
10.172750253
 20
23.6810647106
 11
10.172750253
 21
24.079130673
  0
LINE
  5
3D6
100
AcDbEntity
  8
DRAFT
100
AcDbLine
 62
7
  6
CONTINUOUS
 10
10.855460451
 20
24.021069009
 11
10.855460451
 21
23.5880563071
  0
LINE
  5
3D7
100
AcDbEntity
  8
0
100
AcDbLine
 62
7
  6
CONTINUOUS
 10
11.8936348415
 20
22.7267571093
 11
11.8936348415
 21
22.3222733818
  0
LINE
  5
3D8
100
AcDbEntity
  8
0
100
AcDbLine
 62
250
  6
CONTINUOUS
 10
12.0619581467
 20
23.1175713063
 11
12.0619581467
 21
23.3990405283
  0
LINE
  5
3D9
100
AcDbEntity
  8
0
100
AcDbLine
 62
250
  6
CONTINUOUS
 10
12.1326688248
 20
23.0922011923
 11
12.1326688248
 21
23.3736752703
  0
LINE
  5
3DA
100
AcDbEntity
  8
0
100
AcDbLine
 62
250
  6
CONTINUOUS
 10
12.2726688248
 20
23.283208192
 11
12.2726688248
 21
23.0348103655
  0
LINE
  5
3DB
100
AcDbEntity
  8
0
100
AcDbLine
 62
7
  6
CONTINUOUS
 10
12.3433795029
 20
22.6050092761
 11
12.3433795029
 21
22.3179610529
  0
LINE
  5
3DC
100
AcDbEntity
  8
DRAFT
100
AcDbLine
 62
7
  6
CONTINUOUS
 10
12.3816763616
 20
23.9632250346
 11
12.3816763616
 21
23.2616561184
  0
LINE
  5
3DD
100
AcDbEntity
  8
0
100
AcDbLine
 62
250
  6
CONTINUOUS
 10
12.414090181
 20
23.283208192
 11
12.414090181
 21
23.0348084928
  0
LWPOLYLINE
  5
3DE
100
AcDbEntity
  8
0
100
AcDbPolyline
 62
250
  6
CONTINUOUS
 90
7
 70
0
 10
12.1326688248
 20
23.3736752703
 10
12.1327106294
 20
23.3757970668
 10
12.132848764
 20
23.3778565435
 10
12.1330832286
 20
23.3798537003
 10
12.1334140232
 20
23.3817885373
 10
12.1338411478
 20
23.3836610544
 10
12.1343646024
 20
23.3854712517
  0
LWPOLYLINE
  5
3DF
100
AcDbEntity
  8
0
100
AcDbPolyline
 62
250
  6
CONTINUOUS
 90
16
 70
0
 10
12.6248008591
 20
23.1175713063
 10
12.6244230181
 20
23.111932255
 10
12.623030558
 20
23.1062409046
 10
12.620623479
 20
23.1004972552
 10
12.6172238465
 20
23.0946624762
 10
12.6128095951
 20
23.0887753982
 10
12.6073145276
 20
23.0829525125
 10
12.6006993892
 20
23.0771959293
 10
12.5930034347
 20
23.0715035384
 10
12.584278232
 20
23.0659855019
 10
12.5745139519
 20
23.060653548
 10
12.5637204235
 20
23.0554959485
 10
12.551978702
 20
23.0505876799
 10
12.5393105316
 20
23.0459356869
 10
12.525694168
 20
23.0415330249
 10
12.5111454339
 20
23.0374338365
  0
LWPOLYLINE
  5
3E0
100
AcDbEntity
  8
0
100
AcDbPolyline
 62
250
  6
CONTINUOUS
 90
8
 70
0
 10
12.5540882181
 20
23.0921961942
 10
12.5537967701
 20
23.0893513256
 10
12.5527703535
 20
23.0862147242
 10
12.5509956535
 20
23.0828079626
 10
12.5484676757
 20
23.0791564829
 10
12.545165588
 20
23.0752809869
 10
12.5410595757
 20
23.071190243
 10
12.5383869376
 20
23.0687935366
  0
LWPOLYLINE
  5
3E1
100
AcDbEntity
  8
RACCORDO
100
AcDbPolyline
 62
250
  6
CONTINUOUS
 90
46
 70
0
 10
21.4583217161
 20
17.1969691157
 10
21.4772634023
 20
17.2334791243
 10
21.4954034848
 20
17.2708722547
 10
21.5127337807
 20
17.3091316391
 10
21.529246472
 20
17.3482400185
 10
21.5449341101
 20
17.3881797522
 10
21.5597896193
 20
17.4289328263
 10
21.5738062988
 20
17.4704808601
 10
21.5869778247
 20
17.5128051095
 10
21.5992982535
 20
17.555886477
 10
21.6107620271
 20
17.5997055265
 10
21.621363975
 20
17.6442424937
 10
21.631099315
 20
17.6894772895
 10
21.6399636557
 20
17.7353895092
 10
21.6479529983
 20
17.7819584418
 10
21.6550637388
 20
17.8291630803
 10
21.6612926696
 20
17.8769821309
 10
21.666636981
 20
17.925394023
 10
21.6710942621
 20
17.9743769178
 10
21.6746625023
 20
18.0239087193
 10
21.677340092
 20
18.0739670844
 10
21.6791258234
 20
18.1245294328
 10
21.680018891
 20
18.1755729565
 10
21.6800188919
 20
18.2270746299
 10
21.679125826
 20
18.2790112211
 10
21.6773400963
 20
18.3313593021
 10
21.6746625081
 20
18.3840952588
 10
21.6710942694
 20
18.4371953018
 10
21.6666369899
 20
18.4906354775
 10
21.6612926802
 20
18.54439168
 10
21.655063751
 20
18.5984396605
 10
21.6479530121
 20
18.6527550388
 10
21.6399636712
 20
18.7073133133
 10
21.6310993322
 20
18.7620898732
 10
21.6213639937
 20
18.8170600092
 10
21.6107620473
 20
18.8721989246
 10
21.5992982753
 20
18.9274817471
 10
21.5869778489
 20
18.9828835393
 10
21.5738063258
 20
19.0383793095
 10
21.5597896478
 20
19.0939440237
 10
21.5449341375
 20
19.1495526166
 10
21.5292464964
 20
19.2051800041
 10
21.5127338008
 20
19.2608010929
 10
21.4954034997
 20
19.3163907928
 10
21.4772634105
 20
19.3719240277
 10
21.4583217161
 20
19.427375747
  0
LINE
  5
3E2
100
AcDbEntity
  8
RACCORDO
100
AcDbLine
 62
7
  6
CONTINUOUS
 10
21.5461573681
 20
17.2913518935
 11
21.5314383043
 21
17.2634757119
  0
LWPOLYLINE
  5
3E3
100
AcDbEntity
  8
RACCORDO
100
AcDbPolyline
 62
250
  6
CONTINUOUS
 90
16
 70
0
 10
-2.9029954961
 20
14.0814049112
 10
-2.8643988438
 20
14.0656195839
 10
-2.8230050436
 20
14.0514062426
 10
-2.7792151602
 20
14.0389026004
 10
-2.7334534741
 20
14.0282298053
 10
-2.6861633704
 20
14.0194912658
 10
-2.6378030434
 20
14.0127716495
 10
-2.5888410564
 20
14.0081360628
 10
-2.5397518025
 20
14.0056294199
 10
-2.4910109077
 20
14.0052760077
 10
-2.4430906228
 20
14.0070792504
 10
-2.3964552478
 20
14.0110216763
 10
-2.351556633
 20
14.0170650874
 10
-2.3088298015
 20
14.0251509288
 10
-2.2686887336
 20
14.0352008569
 10
-2.2315223565
 20
14.0471174979
  0
LWPOLYLINE
  5
3E4
100
AcDbEntity
  8
RACCORDO
100
AcDbPolyline
 62
250
  6
CONTINUOUS
 90
3
 70
0
 10
-2.9030042892
 20
14.0814009583
 10
-3.410232752
 20
14.3061198457
 10
-3.915285432
 20
14.531697186
  0
LWPOLYLINE
  5
3E5
100
AcDbEntity
  8
RACCORDO
100
AcDbPolyline
 62
250
  6
CONTINUOUS
 90
3
 70
0
 10
-3.915285432
 20
14.531697186
 10
-4.4181558487
 20
14.7581276955
 10
-4.9187186666
 20
14.9853520049
  0
LINE
  5
3E6
100
AcDbEntity
  8
RACCORDO
100
AcDbLine
 62
250
  6
CONTINUOUS
 10
-4.9187186666
 20
14.9853520049
 11
-5.4170872626
 21
15.2134185004
  0
LWPOLYLINE
  5
3E7
100
AcDbEntity
  8
RACCORDO
100
AcDbPolyline
 62
250
  6
CONTINUOUS
 90
26
 70
0
 10
-5.4170872626
 20
15.2134185004
 10
-5.9136091368
 20
15.4424855189
 10
-6.4084436176
 20
15.6726289487
 10
-6.9014091974
 20
15.9037668188
 10
-7.3923399136
 20
16.1358217356
 10
-7.8811805852
 20
16.3687670646
 10
-8.3679697511
 20
16.602620726
 10
-8.852684132
 20
16.8373711828
 10
-9.3353866135
 20
17.073048969
 10
-9.8159970295
 20
17.3096151351
 10
-10.2942806488
 20
17.5469525388
 10
-10.7699372778
 20
17.7849074603
 10
-11.2432592074
 20
18.0236211684
 10
-11.7148948002
 20
18.2634214323
 10
-12.1839335099
 20
18.5038447897
 10
-12.6512666289
 20
18.7453472088
 10
-13.1201912647
 20
18.9896582859
 10
-13.5898548627
 20
19.2363771514
 10
-14.0609972608
 20
19.485935275
 10
-14.5391770169
 20
19.7413625891
 10
-15.0244118961
 20
20.0027982073
 10
-15.5163878102
 20
20.2702044115
 10
-16.0200003276
 20
20.5464108393
 10
-16.5366830625
 20
20.832431102
 10
-17.0644950835
 20
21.1274279625
 10
-17.6031787948
 20
21.4314882087
  0
LINE
  5
3E8
100
AcDbEntity
  8
DRAFT
100
AcDbLine
 62
7
  6
CONTINUOUS
 10
2.4897624
 20
12.4602619582
 11
1.5114502659
 21
12.9494180252
  0
LWPOLYLINE
  5
3E9
100
AcDbEntity
  8
RACCORDO
100
AcDbPolyline
 62
250
  6
CONTINUOUS
 90
16
 70
0
 10
-2.0460930617
 20
15.461319
 10
-2.0101823587
 20
15.4400084528
 10
-1.9747660691
 20
15.4141421104
 10
-1.940231883
 20
15.3840031228
 10
-1.9069578345
 20
15.3499214114
 10
-1.8753081633
 20
15.3122700571
 10
-1.8456293272
 20
15.2714612166
 10
-1.8182462105
 20
15.2279416106
 10
-1.7934585668
 20
15.1821876333
 10
-1.7715377381
 20
15.1347001382
 10
-1.7527236842
 20
15.0859989547
 10
-1.7372223563
 20
15.0366171981
 10
-1.7252034421
 20
14.9870954338
 10
-1.7167985085
 20
14.9379757598
 10
-1.7120995616
 20
14.8897958725
 10
-1.7111580391
 20
14.8430831809
  0
LWPOLYLINE
  5
3EA
100
AcDbEntity
  8
ASSI
100
AcDbPolyline
 62
7
  6
CONTINUOUS
 90
4
 70
0
 10
-13.3903493518
 20
25.8763042417
 10
-13.3722507877
 20
25.8603195142
 10
-13.3525420045
 20
25.8464473589
 10
-13.3343109082
 20
25.83624143
  0
LINE
  5
3EB
100
AcDbEntity
  8
ASSI
100
AcDbLine
 62
7
  6
CONTINUOUS
 10
4.2729611223
 20
16.5487501587
 11
4.9677253087
 21
15.3504591913
  0
LINE
  5
3EC
100
AcDbEntity
  8
RACCORDO
100
AcDbLine
 62
7
  6
CONTINUOUS
 10
4.2729611223
 20
16.5701265318
 11
4.5782600226
 21
16.0435638192
  0
LWPOLYLINE
  5
3ED
100
AcDbEntity
  8
0
100
AcDbPolyline
 62
250
  6
CONTINUOUS
 90
7
 70
0
 10
12.553887649
 20
23.3867644403
 10
12.5539497777
 20
23.3860577853
 10
12.5540005571
 20
23.3853438149
 10
12.5540399872
 20
23.3846225292
 10
12.5540680678
 20
23.3838939279
 10
12.5540847991
 20
23.3831580113
 10
12.554090181
 20
23.3824147793
  0
LWPOLYLINE
  5
3EE
100
AcDbEntity
  8
0
100
AcDbPolyline
 62
250
  6
CONTINUOUS
 90
7
 70
0
 10
12.0619581467
 20
23.3990405671
 10
12.0616853984
 20
23.4021979792
 10
12.0615063264
 20
23.4052636425
 10
12.061422214
 20
23.4082336154
 10
12.0614343698
 20
23.4111039319
 10
12.0615441261
 20
23.4138706054
 10
12.0617528378
 20
23.4165296326
  0
LINE
  5
3EF
100
AcDbEntity
  8
0
100
AcDbLine
 62
250
  6
CONTINUOUS
 10
12.624855907
 20
23.448238688
 11
12.6249876956
 21
23.4142832066
  0
LINE
  5
3F0
100
AcDbEntity
  8
0
100
AcDbLine
 62
250
  6
CONTINUOUS
 10
12.554090181
 20
23.3824147793
 11
12.554090181
 21
23.0921978924
  0
LINE
  5
3F1
100
AcDbEntity
  8
0
100
AcDbLine
 62
250
  6
CONTINUOUS
 10
12.6248008591
 20
23.4077800703
 11
12.6248008591
 21
23.1175713063
  0
LINE
  5
3F2
100
AcDbEntity
  8
DRAFT
100
AcDbLine
 62
7
  6
CONTINUOUS
 10
14.3951870176
 20
26.1139178702
 11
14.3951870176
 21
25.7874556613
  0
LWPOLYLINE
  5
3F3
100
AcDbEntity
  8
0
100
AcDbPolyline
 62
250
  6
CONTINUOUS
 90
7
 70
0
 10
12.6249876956
 20
23.4142832066
 10
12.6249848772
 20
23.4132287743
 10
12.6249706705
 20
23.4121623468
 10
12.6249451207
 20
23.4110840939
 10
12.6249082725
 20
23.4099941852
 10
12.6248601706
 20
23.4088927897
 10
12.6248008591
 20
23.4077800761
  0
LWPOLYLINE
  5
3F4
100
AcDbEntity
  8
RACCORDO
100
AcDbPolyline
 62
250
  6
CONTINUOUS
 90
32
 70
0
 10
19.9617690112
 20
19.3283935313
 10
19.9690290277
 20
19.3546170799
 10
19.9757594992
 20
19.3817214159
 10
19.9819501459
 20
19.4096980523
 10
19.9876200663
 20
19.4385969492
 10
19.9927281426
 20
19.4683491563
 10
19.9971744327
 20
19.498768268
 10
20.0009365725
 20
19.5298560348
 10
20.0040156272
 20
19.5615910997
 10
20.0063496249
 20
19.5937548598
 10
20.0079187163
 20
19.6263259169
 10
20.0087245224
 20
19.6593070626
 10
20.0087409372
 20
19.6925191145
 10
20.0079523219
 20
19.7259635541
 10
20.0063593239
 20
19.7596213361
 10
20.0039645748
 20
19.7932863261
 10
20.0007545813
 20
19.8269510463
 10
19.9967329721
 20
19.8606086459
 10
19.9919332531
 20
19.8940589161
 10
19.9863486333
 20
19.9272821757
 10
19.9799817965
 20
19.9602884526
 10
19.9728853857
 20
19.9929271651
 10
19.9650607193
 20
20.025174875
 10
19.9565070441
 20
20.0570498287
 10
19.9472774773
 20
20.0884678882
 10
19.9373750153
 20
20.1194190247
 10
19.9267998896
 20
20.1499110055
 10
19.915603392
 20
20.1798891056
 10
19.9037878284
 20
20.2093512185
 10
19.8913558695
 20
20.2382995885
 10
19.8783611356
 20
20.2666883135
 10
19.8752439195
 20
20.2730883654
  0
LINE
  5
3F5
100
AcDbEntity
  8
ASSI
100
AcDbLine
 62
7
  6
CONTINUOUS
 10
0.1195993274
 20
-21.0402440686
 11
0.6437037939
 21
-20.3916994864
  0
LINE
  5
3F6
100
AcDbEntity
  8
ASSI
100
AcDbLine
 62
7
  6
CONTINUOUS
 10
0.6666631562
 20
-21.3137759829
 11
1.2093892189
 21
-20.6745421989
  0
LINE
  5
3F7
100
AcDbEntity
  8
ASSI
100
AcDbLine
 62
7
  6
CONTINUOUS
 10
1.2093892189
 20
-21.3003752238
 11
0.6666631562
 21
-21.9396090079
  0
LINE
  5
3F8
100
AcDbEntity
  8
ASSI
100
AcDbLine
 62
7
  6
CONTINUOUS
 10
5.0294429837
 20
-16.1652089742
 11
3.5781969359
 21
-17.8537995127
  0
LWPOLYLINE
  5
3F9
100
AcDbEntity
  8
RACCORDO
100
AcDbPolyline
 62
250
  6
CONTINUOUS
 90
8
 70
0
 10
-16.7238733954
 20
22.8002091359
 10
-16.7618185552
 20
22.8158264408
 10
-16.7994495951
 20
22.8264835726
 10
-16.8363545734
 20
22.8320638882
 10
-16.8721295101
 20
22.8325063202
 10
-16.9063827749
 20
22.827806043
 10
-16.9387393794
 20
22.818014542
 10
-16.9545290413
 20
22.8110272006
  0
LWPOLYLINE
  5
3FA
100
AcDbEntity
  8
RACCORDO
100
AcDbPolyline
 62
250
  6
CONTINUOUS
 90
31
 70
0
 10
-2.0460930617
 20
15.461319
 10
-2.5527497862
 20
15.6842931423
 10
-3.0571561873
 20
15.9081828465
 10
-3.5593122649
 20
16.1329881127
 10
-4.0590810324
 20
16.3586469723
 10
-4.5565994765
 20
16.5852213939
 10
-5.0522785571
 20
16.812897283
 10
-5.5463322411
 20
17.0417716997
 10
-6.0385465616
 20
17.2717475841
 10
-6.5286905778
 20
17.502719662
 10
-7.016693695
 20
17.7346561266
 10
-7.5026265079
 20
17.9675887848
 10
-7.9864698593
 20
18.2015077826
 10
-8.4683009327
 20
18.436452534
 10
-8.9480425446
 20
18.6723836251
 10
-9.4254439874
 20
18.9091729601
 10
-9.9002215213
 20
19.1466760545
 10
-10.372658886
 20
19.3850373928
 10
-10.8433565929
 20
19.6245623325
 10
-11.3114122099
 20
19.864754075
 10
-11.7777281691
 20
20.1061094189
 10
-12.2456122785
 20
20.3504241181
 10
-12.7143507174
 20
20.5972377809
 10
-13.1846573065
 20
20.847010799
 10
-13.6619813154
 20
21.102920101
 10
-14.1466694026
 20
21.3650388331
 10
-14.6383749095
 20
21.6332938491
 10
-15.1415071306
 20
21.9106426395
 10
-15.6575358303
 20
22.1980710345
 10
-16.1849912441
 20
22.4945932038
 10
-16.7238733718
 20
22.8002091476
  0
LWPOLYLINE
  5
3FB
100
AcDbEntity
  8
ASSI
100
AcDbPolyline
 62
7
  6
CONTINUOUS
 90
4
 70
0
 10
-0.8032263839
 20
19.5824440619
 10
-0.7844352342
 20
19.5660367206
 10
-0.7639471109
 20
19.5519031844
 10
-0.7478641055
 20
19.5430185072
  0
LWPOLYLINE
  5
3FC
100
AcDbEntity
  8
ASSI
100
AcDbPolyline
 62
250
  6
CONTINUOUS
 90
7
 70
0
 10
3.7301555121
 20
19.6874818392
 10
3.7379543543
 20
19.6732661814
 10
3.7431868258
 20
19.6604665073
 10
3.7457643923
 20
19.6492993987
 10
3.7456434433
 20
19.6399538115
 10
3.7428260302
 20
19.63258788
 10
3.7418430069
 20
19.6312396794
  0
LWPOLYLINE
  5
3FD
100
AcDbEntity
  8
RACCORDO
100
AcDbPolyline
 62
250
  6
CONTINUOUS
 90
11
 70
0
 10
19.8483153392
 20
19.4528199116
 10
19.8531933643
 20
19.4775392197
 10
19.8576637287
 20
19.5031409174
 10
19.8616976512
 20
19.529622015
 10
19.8652712522
 20
19.5570394482
 10
19.8683477953
 20
19.5853286152
 10
19.8708866761
 20
19.614302767
 10
19.8728658581
 20
19.6439654012
 10
19.8742634444
 20
19.6743007229
 10
19.8750553454
 20
19.7050915308
 10
19.8752439104
 20
19.7291339746
  0
LINE
  5
3FE
100
AcDbEntity
  8
ASSI
100
AcDbLine
 62
250
  6
CONTINUOUS
 10
1.3403872991
 20
-22.4220926974
 11
1.9731775085
 21
-21.6767795314
  0
LINE
  5
3FF
100
AcDbEntity
  8
ASSI
100
AcDbLine
 62
250
  6
CONTINUOUS
 10
1.5500296513
 20
-22.6086713384
 11
2.2868374555
 21
-21.7408441357
  0
LINE
  5
400
100
AcDbEntity
  8
ASSI
100
AcDbLine
 62
7
  6
CONTINUOUS
 10
4.2729611223
 20
-17.2137209019
 11
4.9677253087
 21
-16.710194121
  0
LINE
  5
401
100
AcDbEntity
  8
RACCORDO
100
AcDbLine
 62
7
  6
CONTINUOUS
 10
4.5782600226
 20
-17.0138334628
 11
4.2729611223
 21
-17.2350972751
  0
LWPOLYLINE
  5
402
100
AcDbEntity
  8
DRAFT
100
AcDbPolyline
 62
7
  6
CONTINUOUS
 90
27
 70
0
 10
0.4701399611
 20
-17.48662978
 10
0.4469830122
 20
-17.5004109062
 10
0.414996901
 20
-17.525475469
 10
0.3862037411
 20
-17.5561292912
 10
0.3606413454
 20
-17.5920904471
 10
0.3391681678
 20
-17.6321219276
 10
0.3219880329
 20
-17.6761057253
 10
0.308897116
 20
-17.7241598477
 10
0.300142396
 20
-17.7754013079
 10
0.2958061991
 20
-17.83021527
 10
0.2958061991
 20
-17.8882165699
 10
0.300142396
 20
-17.9473667288
 10
0.308897116
 20
-18.0073629091
 10
0.3219880329
 20
-18.0685079484
 10
0.3391681678
 20
-18.1296718809
 10
0.3606413454
 20
-18.1911765391
 10
0.3862037411
 20
-18.2527000906
 10
0.414996901
 20
-18.3121470727
 10
0.4469830122
 20
-18.3691977467
 10
0.4821998877
 20
-18.4241718514
 10
0.5199025132
 20
-18.4759331403
 10
0.5602760261
 20
-18.5245737048
 10
0.6031352891
 20
-18.5700014535
 10
0.6471798756
 20
-18.6108038661
 10
0.6919763102
 20
-18.6465101023
 10
0.7379580684
 20
-18.6775910024
 10
0.7851251502
 20
-18.7040465662
  0
LWPOLYLINE
  5
403
100
AcDbEntity
  8
DRAFT
100
AcDbPolyline
 62
7
  6
CONTINUOUS
 90
27
 70
0
 10
1.0898080989
 20
-18.7262736999
 10
1.1232672882
 20
-18.7073398847
 10
1.1552533993
 20
-18.6822753219
 10
1.1840465593
 20
-18.6516214997
 10
1.2096089549
 20
-18.6156603438
 10
1.2310821326
 20
-18.5756288633
 10
1.2482622674
 20
-18.5316450656
 10
1.2613531843
 20
-18.4835909432
 10
1.2701079043
 20
-18.4323494829
 10
1.2744441012
 20
-18.3775355209
 10
1.2744441012
 20
-18.319534221
 10
1.2701079043
 20
-18.2603840621
 10
1.2613531843
 20
-18.2003878818
 10
1.2482622674
 20
-18.1392428425
 10
1.2310821326
 20
-18.07807891
 10
1.2096089549
 20
-18.0165742518
 10
1.1840465593
 20
-17.9550507003
 10
1.1552533993
 20
-17.8956037182
 10
1.1232672882
 20
-17.8385530442
 10
1.0880504127
 20
-17.7835789395
 10
1.0503477871
 20
-17.7318176506
 10
1.0099742742
 20
-17.6831770861
 10
0.9671150112
 20
-17.6377493374
 10
0.9230704247
 20
-17.5969469248
 10
0.8782739901
 20
-17.5612406886
 10
0.8322922319
 20
-17.5301597885
 10
0.7851251502
 20
-17.5037042247
  0
LWPOLYLINE
  5
404
100
AcDbEntity
  8
DRAFT
100
AcDbPolyline
 62
7
  6
CONTINUOUS
 90
27
 70
0
 10
1.3757204456
 20
-18.5911228644
 10
1.4095165471
 20
-18.5719984023
 10
1.4418248842
 20
-18.5466814187
 10
1.4709080362
 20
-18.5157190258
 10
1.4967278502
 20
-18.4793959055
 10
1.5184173164
 20
-18.4389613449
 10
1.535770623
 20
-18.3945345057
 10
1.5489935818
 20
-18.3459962262
 10
1.5578366181
 20
-18.2942383083
 10
1.5622165405
 20
-18.2388715677
 10
1.5622165405
 20
-18.1802851886
 10
1.5578366181
 20
-18.1205385256
 10
1.5489935818
 20
-18.0599375713
 10
1.535770623
 20
-17.998176333
 10
1.5184173164
 20
-17.9363961873
 10
1.4967278502
 20
-17.8742721605
 10
1.4709080362
 20
-17.8121292261
 10
1.4418248842
 20
-17.7520836813
 10
1.4095165471
 20
-17.6944583606
 10
1.373944872
 20
-17.6389304293
 10
1.3358624111
 20
-17.5866476804
 10
1.2950821774
 20
-17.5375171318
 10
1.2517911578
 20
-17.4916317656
 10
1.2073028653
 20
-17.4504183211
 10
1.1620551374
 20
-17.4143523779
 10
1.1156101365
 20
-17.3829583564
 10
1.0679678626
 20
-17.3562362566
  0
LWPOLYLINE
  5
405
100
AcDbEntity
  8
RACCORDO
100
AcDbPolyline
 62
250
  6
CONTINUOUS
 90
5
 70
0
 10
19.1804332441
 20
-9.3217367725
 10
19.1988646124
 20
-9.3116083796
 10
19.2169188222
 20
-9.3008787867
 10
19.2345830426
 20
-9.2895556194
 10
19.2518447199
 20
-9.2776469247
  0
LWPOLYLINE
  5
406
100
AcDbEntity
  8
DRAFT
100
AcDbPolyline
 62
250
  6
CONTINUOUS
 90
30
 70
0
 10
19.5945837198
 20
-8.3042536735
 10
19.6131824121
 20
-8.2943584748
 10
19.6312368222
 20
-8.2842143945
 10
19.6487336338
 20
-8.2738289146
 10
19.6656599416
 20
-8.2632096952
 10
19.6820032613
 20
-8.2523645686
 10
19.6977515386
 20
-8.2413015339
 10
19.712893158
 20
-8.2300287509
 10
19.7274169515
 20
-8.218554534
 10
19.7413122066
 20
-8.2068873464
 10
19.7545686748
 20
-8.1950357934
 10
19.7671765784
 20
-8.1830086164
 10
19.7791266181
 20
-8.1708146862
 10
19.79040998
 20
-8.1584629967
 10
19.8010183418
 20
-8.1459626583
 10
19.810943879
 20
-8.1333228907
 10
19.820179271
 20
-8.1205530168
 10
19.8287177058
 20
-8.1076624552
 10
19.8365528858
 20
-8.0946607136
 10
19.8436790321
 20
-8.0815573818
 10
19.8500908885
 20
-8.0683621243
 10
19.8557837259
 20
-8.0550846736
 10
19.8607533454
 20
-8.0417348228
 10
19.8649960815
 20
-8.0283224183
 10
19.868508805
 20
-8.0148573528
 10
19.8712889249
 20
-8.0013495577
 10
19.8733343907
 20
-7.9878089959
 10
19.8746436937
 20
-7.9742456546
 10
19.8752158683
 20
-7.9606695377
 10
19.8752439194
 20
-7.9569256218
  0
LINE
  5
407
100
AcDbEntity
  8
RACCORDO
100
AcDbLine
 62
7
  6
CONTINUOUS
 10
18.8375356682
 20
-9.5702500321
 11
11.1033467567
 21
-13.6602165303
  0
LINE
  5
408
100
AcDbEntity
  8
DRAFT
100
AcDbLine
 62
7
  6
CONTINUOUS
 10
4.2729611223
 20
-17.4197111145
 11
10.3506526728
 21
-14.2057277074
  0
LINE
  5
409
100
AcDbEntity
  8
DRAFT
100
AcDbLine
 62
7
  6
CONTINUOUS
 10
0.7497630712
 20
-17.3390041809
 11
0.470094236
 21
-17.4866440272
  0
LINE
  5
40A
100
AcDbEntity
  8
RACCORDO
100
AcDbLine
 62
250
  6
CONTINUOUS
 10
5.0294429837
 20
-15.9768424828
 11
19.5945837198
 21
-8.3042536735
  0
LINE
  5
40B
100
AcDbEntity
  8
RACCORDO
100
AcDbLine
 62
250
  6
CONTINUOUS
 10
4.5782600226
 20
-17.0138334628
 11
19.1804332441
 21
-9.3217367725
  0
LINE
  5
40C
100
AcDbEntity
  8
ASSI
100
AcDbLine
 62
7
  6
CONTINUOUS
 10
4.9677253087
 20
-16.710194121
 11
4.2729611223
 21
-17.0654904659
  0
LINE
  5
40D
100
AcDbEntity
  8
DRAFT
100
AcDbLine
 62
7
  6
CONTINUOUS
 10
1.3758048745
 20
-18.5910877874
 11
1.0898916963
 21
-18.7262389477
  0
LINE
  5
40E
100
AcDbEntity
  8
RACCORDO
100
AcDbLine
 62
250
  6
CONTINUOUS
 10
0.2746790154
 20
-16.5717233897
 11
0.6437037939
 21
-16.4081606882
  0
LINE
  5
40F
100
AcDbEntity
  8
RACCORDO
100
AcDbLine
 62
7
  6
CONTINUOUS
 10
0.2637672157
 20
-16.8321828597
 11
0.4782622536
 21
-16.7371123118
  0
LINE
  5
410
100
AcDbEntity
  8
ASSI
100
AcDbLine
 62
7
  6
CONTINUOUS
 10
3.5781969359
 20
15.0551658311
 11
4.9677253087
 21
14.7746152071
  0
LINE
  5
411
100
AcDbEntity
  8
ASSI
100
AcDbLine
 62
7
  6
CONTINUOUS
 10
3.5781969359
 20
15.0551658311
 11
5.0294429837
 21
14.7437563696
  0
LWPOLYLINE
  5
412
100
AcDbEntity
  8
0
100
AcDbPolyline
 62
7
  6
CONTINUOUS
 90
6
 70
0
 10
-6.9469814583
 20
21.1053586027
 10
-6.9665549245
 20
21.1139510755
 10
-6.9873745203
 20
21.121224633
 10
-7.0094402456
 20
21.1271792754
 10
-7.0331406102
 20
21.1318674748
 10
-7.0430280265
 20
21.1332028735
  0
LWPOLYLINE
  5
413
100
AcDbEntity
  8
ASSI
100
AcDbPolyline
 62
7
  6
CONTINUOUS
 90
4
 70
0
 10
1.3168976484
 20
18.5106368555
 10
1.3258859178
 20
18.5063934233
 10
1.3476397762
 20
18.4980739463
 10
1.3695384098
 20
18.4922396436
  0
LINE
  5
414
100
AcDbEntity
  8
ASSI
100
AcDbLine
 62
7
  6
CONTINUOUS
 10
4.9677253087
 20
14.7746152071
 11
5.0294429837
 21
14.7437563696
  0
LINE
  5
415
100
AcDbEntity
  8
RACCORDO
100
AcDbLine
 62
7
  6
CONTINUOUS
 10
-13.5311621304
 20
24.3772699255
 11
1.3183225823
 21
16.9525275691
  0
LINE
  5
416
100
AcDbEntity
  8
0
100
AcDbLine
 62
7
  6
CONTINUOUS
 10
-3.0913337508
 20
19.177534749
 11
-6.9469814583
 21
21.1053586027
  0
LINE
  5
417
100
AcDbEntity
  8
0
100
AcDbLine
 62
7
  6
CONTINUOUS
 10
-0.2045500623
 20
17.9102037221
 11
-10.52885763
 21
23.0723575059
  0
LINE
  5
418
100
AcDbEntity
  8
ASSI
100
AcDbLine
 62
7
  6
CONTINUOUS
 10
-12.463843123
 20
24.7529052804
 11
-12.2702788369
 21
24.6561231374
  0
LINE
  5
419
100
AcDbEntity
  8
ASSI
100
AcDbLine
 62
7
  6
CONTINUOUS
 10
0.1226575822
 20
18.4596549278
 11
0.3162218683
 21
18.3628727848
  0
LINE
  5
41A
100
AcDbEntity
  8
ASSI
100
AcDbLine
 62
7
  6
CONTINUOUS
 10
2.1365723466
 20
17.5917246245
 11
1.9363961676
 21
17.691812714
  0
LINE
  5
41B
100
AcDbEntity
  8
ASSI
100
AcDbLine
 62
7
  6
CONTINUOUS
 10
-0.0833031548
 20
18.7016623752
 11
-10.6501045375
 21
23.9850630665
  0
LINE
  5
41C
100
AcDbEntity
  8
ASSI
100
AcDbLine
 62
7
  6
CONTINUOUS
 10
-12.6698038599
 20
24.9949127277
 11
-12.8699800389
 21
25.0950008172
  0
LINE
  5
41D
100
AcDbEntity
  8
ASSI
100
AcDbLine
 62
7
  6
CONTINUOUS
 10
1.3168963889
 20
18.5106367475
 11
0.5157384307
 21
18.9112157266
  0
LINE
  5
41E
100
AcDbEntity
  8
ASSI
100
AcDbLine
 62
7
  6
CONTINUOUS
 10
0.0478648441
 20
19.1451525199
 11
-0.7480651549
 21
19.5431175194
  0
LINE
  5
41F
100
AcDbEntity
  8
ASSI
100
AcDbLine
 62
7
  6
CONTINUOUS
 10
-11.2696099515
 20
24.8038899177
 11
-12.0707622744
 21
25.2044660792
  0
LINE
  5
420
100
AcDbEntity
  8
ASSI
100
AcDbLine
 62
7
  6
CONTINUOUS
 10
-12.538635861
 20
25.4384028725
 11
-13.3345710507
 21
25.8363704673
  0
LINE
  5
421
100
AcDbEntity
  8
ASSI
100
AcDbLine
 62
250
  6
CONTINUOUS
 10
-12.463843123
 20
25.5037383053
 11
-13.3993116413
 21
25.971489915
  0
LINE
  5
422
100
AcDbEntity
  8
ASSI
100
AcDbLine
 62
250
  6
CONTINUOUS
 10
0.1226575822
 20
19.2104879528
 11
-0.8128109361
 21
19.6782222119
  0
LINE
  5
423
100
AcDbEntity
  8
ASSI
100
AcDbLine
 62
250
  6
CONTINUOUS
 10
-11.3348103185
 20
24.9392219031
 11
-12.2702788369
 21
25.4069561623
  0
LINE
  5
424
100
AcDbEntity
  8
ASSI
100
AcDbLine
 62
250
  6
CONTINUOUS
 10
1.2516903866
 20
18.6459888946
 11
0.3162218683
 21
19.1137058097
  0
LINE
  5
425
100
AcDbEntity
  8
ASSI
100
AcDbLine
 62
7
  6
CONTINUOUS
 10
-1.6581175658
 20
20.2415628301
 11
-3.9487659629
 21
21.3868870286
  0
LINE
  5
426
100
AcDbEntity
  8
ASSI
100
AcDbLine
 62
7
  6
CONTINUOUS
 10
-5.370428167
 20
22.0977181307
 11
-7.6610765641
 21
23.2430423293
  0
LWPOLYLINE
  5
427
100
AcDbEntity
  8
ASSI
100
AcDbPolyline
 62
250
  6
CONTINUOUS
 90
16
 70
0
 10
-11.2696468365
 20
24.8039083702
 10
-11.2758421886
 20
24.8073048409
 10
-11.2829757112
 20
24.8120158335
 10
-11.2898485713
 20
24.817496584
 10
-11.296416089
 20
24.8237679733
 10
-11.302631692
 20
24.8308468648
 10
-11.3084153627
 20
24.8386985291
 10
-11.3137280787
 20
24.8473199252
 10
-11.3185310802
 20
24.8567037184
 10
-11.322763623
 20
24.866779366
 10
-11.3263987728
 20
24.8775201084
 10
-11.3294117196
 20
24.8888963391
 10
-11.3317680765
 20
24.9008077749
 10
-11.3334553318
 20
24.9131865308
 10
-11.3344710362
 20
24.9260073608
 10
-11.3348103185
 20
24.9392219031
  0
LWPOLYLINE
  5
428
100
AcDbEntity
  8
ASSI
100
AcDbPolyline
 62
7
  6
CONTINUOUS
 90
9
 70
0
 10
-12.0703344759
 20
25.2042555039
 10
-12.0933672915
 20
25.2171062456
 10
-12.1234366443
 20
25.2375831995
 10
-12.1521376937
 20
25.2609953553
 10
-12.1794224094
 20
25.2867963997
 10
-12.2049060537
 20
25.3146094634
 10
-12.2284286846
 20
25.3441435659
 10
-12.2501932541
 20
25.3750357837
 10
-12.2702788369
 20
25.4069561623
  0
LWPOLYLINE
  5
429
100
AcDbEntity
  8
ASSI
100
AcDbPolyline
 62
7
  6
CONTINUOUS
 90
9
 70
0
 10
0.5161662292
 20
18.9110051514
 10
0.4931334136
 20
18.923855893
 10
0.4630640608
 20
18.944332847
 10
0.4343630114
 20
18.9677450027
 10
0.4070782958
 20
18.9935460471
 10
0.3815946514
 20
19.0213591109
 10
0.3580720205
 20
19.0508932134
 10
0.336307451
 20
19.0817854312
 10
0.3162218683
 20
19.1137058097
  0
LWPOLYLINE
  5
42A
100
AcDbEntity
  8
ASSI
100
AcDbPolyline
 62
250
  6
CONTINUOUS
 90
7
 70
0
 10
-0.8128109361
 20
19.6782222119
 10
-0.8298830108
 20
19.6879414309
 10
-0.8443030583
 20
19.6986812012
 10
-0.8558297933
 20
19.7102618168
 10
-0.8642703436
 20
19.7224895026
 10
-0.869483477
 20
19.735159656
 10
-0.871389573
 20
19.7489066636
  0
LWPOLYLINE
  5
42B
100
AcDbEntity
  8
ASSI
100
AcDbPolyline
 62
250
  6
CONTINUOUS
 90
7
 70
0
 10
-0.8128109361
 20
19.9954910123
 10
-0.8298829987
 20
20.0052102234
 10
-0.8443030401
 20
20.0159499857
 10
-0.8558297742
 20
20.0275305942
 10
-0.8642703279
 20
20.0397582742
 10
-0.869483468
 20
20.0524284236
 10
-0.8713895708
 20
20.066171556
  0
LWPOLYLINE
  5
42C
100
AcDbEntity
  8
ASSI
100
AcDbPolyline
 62
250
  6
CONTINUOUS
 90
9
 70
0
 10
-13.3345581325
 20
25.8363640084
 10
-13.3440485211
 20
25.8418266249
 10
-13.3580977587
 20
25.8530558168
 10
-13.3703285653
 20
25.8670883355
 10
-13.3805723793
 20
25.8837362753
 10
-13.3886877961
 20
25.9027722439
 10
-13.3945642593
 20
25.9239373792
 10
-13.3981218067
 20
25.9469469434
 10
-13.3993116322
 20
25.971489911
  0
LWPOLYLINE
  5
42D
100
AcDbEntity
  8
ASSI
100
AcDbPolyline
 62
250
  6
CONTINUOUS
 90
13
 70
0
 10
-11.1605124426
 20
25.5595066581
 10
-11.1423605104
 20
25.5486419242
 10
-11.1244768282
 20
25.5350221359
 10
-11.1071672724
 20
25.5188802413
 10
-11.0907278995
 20
25.5004923257
 10
-11.0754398829
 20
25.4801728896
 10
-11.0615647035
 20
25.4582694696
 10
-11.0493396775
 20
25.4351566942
 10
-11.0389738975
 20
25.4112298761
 10
-11.0306446562
 20
25.3868982515
 10
-11.0244944141
 20
25.3625779799
 10
-11.0206283626
 20
25.3386850267
 10
-11.0191126256
 20
25.3156280488
  0
LWPOLYLINE
  5
42E
100
AcDbEntity
  8
ASSI
100
AcDbPolyline
 62
250
  6
CONTINUOUS
 90
3
 70
0
 10
-0.7596214164
 20
19.5499763803
 10
-0.7515382341
 20
19.5449465862
 10
-0.7480703299
 20
19.5431201072
  0
LWPOLYLINE
  5
42F
100
AcDbEntity
  8
RACCORDO
100
AcDbPolyline
 62
250
  6
CONTINUOUS
 90
37
 70
0
 10
19.5945837198
 20
22.0408265724
 10
19.594353791
 20
22.0788288466
 10
19.5934453076
 20
22.1171463979
 10
19.5918586617
 20
22.1557609667
 10
19.5895945366
 20
22.1946540638
 10
19.5866540116
 20
22.233807249
 10
19.5830385486
 20
22.2732021451
 10
19.5787498217
 20
22.3128201097
 10
19.5737898364
 20
22.352642159
 10
19.568161032
 20
22.3926492486
 10
19.5618660812
 20
22.4328222721
 10
19.5549079398
 20
22.4731421577
 10
19.5472899551
 20
22.513589795
 10
19.5390157414
 20
22.5541459347
 10
19.5300892115
 20
22.594791267
 10
19.5205146279
 20
22.6355065164
 10
19.5102965353
 20
22.6762723392
 10
19.4994397838
 20
22.7170693024
 10
19.487949557
 20
22.7578779623
 10
19.4758313293
 20
22.7986789062
 10
19.4630908589
 20
22.8394527176
 10
19.4497342114
 20
22.8801799551
 10
19.4357677697
 20
22.9208412206
 10
19.4211981729
 20
22.9614171979
 10
19.406032309
 20
23.0018886172
 10
19.3902774184
 20
23.0422362346
 10
19.3739410069
 20
23.0824408589
 10
19.3570307812
 20
23.1224833896
 10
19.3395547919
 20
23.1623448513
 10
19.3215213951
 20
23.2020062263
 10
19.3029391663
 20
23.2414484828
 10
19.2838170471
 20
23.2806527631
 10
19.2641641144
 20
23.3196005452
 10
19.2439895333
 20
23.3582734709
 10
19.223302862
 20
23.3966532079
 10
19.2021140577
 20
23.434721464
 10
19.1804332441
 20
23.472460147
  0
LINE
  5
430
100
AcDbEntity
  8
RACCORDO
100
AcDbLine
 62
250
  6
CONTINUOUS
 10
19.5945837198
 20
-8.3042536735
 11
19.5945837198
 21
15.8644154379
  0
LINE
  5
431
100
AcDbEntity
  8
RACCORDO
100
AcDbLine
 62
250
  6
CONTINUOUS
 10
19.5945837198
 20
18.8299721753
 11
19.5945837198
 21
22.0408265724
  0
LINE
  5
432
100
AcDbEntity
  8
RACCORDO
100
AcDbLine
 62
7
  6
CONTINUOUS
 10
19.8752439104
 20
19.7291339746
 11
19.8752439164
 21
19.7293988292
  0
LINE
  5
433
100
AcDbEntity
  8
RACCORDO
100
AcDbLine
 62
7
  6
CONTINUOUS
 10
19.8752439195
 20
-7.9569244882
 11
19.8752439195
 21
15.6595698768
  0
LINE
  5
434
100
AcDbEntity
  8
RACCORDO
100
AcDbLine
 62
7
  6
CONTINUOUS
 10
19.8752439195
 20
19.7294761607
 11
19.8752439195
 21
22.3881557576
  0
LWPOLYLINE
  5
435
100
AcDbEntity
  8
RACCORDO
100
AcDbPolyline
 62
7
  6
CONTINUOUS
 90
38
 70
0
 10
19.8752441719
 20
15.6597375639
 10
19.8752725263
 20
15.6638047372
 10
19.8756395334
 20
15.6749273634
 10
19.876413753
 20
15.6858446981
 10
19.877573657
 20
15.6965411293
 10
19.8790977867
 20
15.707004825
 10
19.8809652279
 20
15.7172275163
 10
19.8831547266
 20
15.7271987703
 10
19.885645138
 20
15.7369096895
 10
19.8884164828
 20
15.7463559024
 10
19.8914488496
 20
15.755532457
 10
19.8947213655
 20
15.7644318016
 10
19.8982129541
 20
15.7730470477
 10
19.901905607
 20
15.781379071
 10
19.9057777144
 20
15.7894204865
 10
19.909801442
 20
15.7971539674
 10
19.913956015
 20
15.8045788039
 10
19.9182216017
 20
15.8116959811
 10
19.9225696457
 20
15.8184931846
 10
19.9269789165
 20
15.8249717406
 10
19.9314307029
 20
15.8311365539
 10
19.935898996
 20
15.8369827741
 10
19.9403622197
 20
15.8425125752
 10
19.9448042002
 20
15.8477346546
 10
19.9492071045
 20
15.8526550447
 10
19.9535499147
 20
15.8572761877
 10
19.9578197031
 20
15.8616089795
 10
19.9620121707
 20
15.8656714666
 10
19.9661145661
 20
15.8694718152
 10
19.9701104437
 20
15.873014459
 10
19.9739911725
 20
15.8763104076
 10
19.9777431339
 20
15.8793657329
 10
19.9813530252
 20
15.8821865952
 10
19.9848132207
 20
15.8847831754
 10
19.9881109678
 20
15.8871612645
 10
19.991234036
 20
15.8893269087
 10
19.9941763326
 20
15.8912900412
 10
19.9969254869
 20
15.8930559394
  0
LWPOLYLINE
  5
436
100
AcDbEntity
  8
RACCORDO
100
AcDbPolyline
 62
250
  6
CONTINUOUS
 90
34
 70
0
 10
19.2439895333
 20
-9.2704908
 10
19.2641641144
 20
-9.2518111681
 10
19.2838170471
 20
-9.232347242
 10
19.3029391663
 20
-9.212108138
 10
19.3215213951
 20
-9.1911034354
 10
19.3395547919
 20
-9.1693432036
 10
19.3570307812
 20
-9.1468378331
 10
19.3739410069
 20
-9.1235980808
 10
19.3902774184
 20
-9.0996349922
 10
19.406032309
 20
-9.0749599173
 10
19.4211981729
 20
-9.0495846021
 10
19.4357677697
 20
-9.023521134
 10
19.4497342114
 20
-8.9967818672
 10
19.4630908589
 20
-8.9693795033
 10
19.4758313293
 20
-8.9413271057
 10
19.487949557
 20
-8.9126380413
 10
19.4994397838
 20
-8.8833259564
 10
19.5102965353
 20
-8.8534048012
 10
19.5205146279
 20
-8.8228888449
 10
19.5300892115
 20
-8.7917926221
 10
19.5390157414
 20
-8.7601309072
 10
19.5472899551
 20
-8.7279187409
 10
19.5549079398
 20
-8.6951714365
 10
19.5618660812
 20
-8.661904568
 10
19.568161032
 20
-8.6281339427
 10
19.5737898364
 20
-8.5938755555
 10
19.5787498217
 20
-8.5591457452
 10
19.5830385486
 20
-8.5239611823
 10
19.5866540116
 20
-8.488338692
 10
19.5895945366
 20
-8.4522951084
 10
19.5918586617
 20
-8.4158474238
 10
19.5934453076
 20
-8.3790129062
 10
19.594353791
 20
-8.3418090986
 10
19.5945837198
 20
-8.3042536735
  0
LWPOLYLINE
  5
437
100
AcDbEntity
  8
RACCORDO
100
AcDbPolyline
 62
250
  6
CONTINUOUS
 90
4
 70
0
 10
19.1804332441
 20
-9.3217367725
 10
19.2021140577
 20
-9.305461983
 10
19.223302862
 20
-9.288377271
 10
19.2439895333
 20
-9.2704908
  0
LWPOLYLINE
  5
438
100
AcDbEntity
  8
RACCORDO
100
AcDbPolyline
 62
7
  6
CONTINUOUS
 90
40
 70
0
 10
19.2550118534
 20
-9.2753666409
 10
19.2747539816
 20
-9.2607897591
 10
19.3028395546
 20
-9.2390979299
 10
19.3304330322
 20
-9.2166375005
 10
19.3575063697
 20
-9.1934260812
 10
19.3840465754
 20
-9.1694697534
 10
19.4100550488
 20
-9.144760882
 10
19.4355119084
 20
-9.1193107872
 10
19.4603978277
 20
-9.0931312554
 10
19.484713595
 20
-9.0662123744
 10
19.5084402869
 20
-9.0385647289
 10
19.5315578052
 20
-9.0102014838
 10
19.5540635704
 20
-8.9811138911
 10
19.5759387743
 20
-8.9513125788
 10
19.5971639412
 20
-8.9208108601
 10
19.6177340949
 20
-8.8896010149
 10
19.6376302291
 20
-8.8576949118
 10
19.6568342284
 20
-8.8251045574
 10
19.6753412018
 20
-8.7918193766
 10
19.6931308711
 20
-8.7578544537
 10
19.7101872583
 20
-8.7232180254
 10
19.7265096881
 20
-8.6878854528
 10
19.7420831438
 20
-8.6518575792
 10
19.7568843228
 20
-8.615154611
 10
19.7708988216
 20
-8.5777774351
 10
19.7841136376
 20
-8.5397213236
 10
19.7965051535
 20
-8.5010114126
 10
19.808046674
 20
-8.4616917156
 10
19.8187241167
 20
-8.4217724076
 10
19.8285230757
 20
-8.3812645842
 10
19.837422819
 20
-8.3402127003
 10
19.8454127058
 20
-8.2986250785
 10
19.8524810542
 20
-8.2565137347
 10
19.8586118272
 20
-8.2139278016
 10
19.8637968319
 20
-8.1708766245
 10
19.8680273607
 20
-8.1273702312
 10
19.8712924247
 20
-8.0834573534
 10
19.873585139
 20
-8.039159342
 10
19.8749000417
 20
-7.9944732312
 10
19.8752439098
 20
-7.9569256218
  0
LINE
  5
439
100
AcDbEntity
  8
DRAFT
100
AcDbLine
 62
7
  6
CONTINUOUS
 10
11.1033467567
 20
-13.6602165303
 11
10.3506526728
 21
-14.2057277074
  0
LINE
  5
43A
100
AcDbEntity
  8
RACCORDO
100
AcDbLine
 62
250
  6
CONTINUOUS
 10
18.8375356682
 20
-9.5702500321
 11
19.1804332441
 21
-9.3217367725
  0
LINE
  5
43B
100
AcDbEntity
  8
RACCORDO
100
AcDbLine
 62
7
  6
CONTINUOUS
 10
18.9138849644
 20
-9.5225966198
 11
19.2550008382
 21
-9.2753746396
  0
LWPOLYLINE
  5
43C
100
AcDbEntity
  8
ASSI
100
AcDbPolyline
 62
7
  6
CONTINUOUS
 90
4
 70
0
 10
0.4070972578
 20
-22.1237541605
 10
0.3577244096
 20
-22.1562972174
 10
0.3358807986
 20
-22.1713502837
 10
0.3162218683
 20
-22.1858983297
  0
LWPOLYLINE
  5
43D
100
AcDbEntity
  8
ASSI
100
AcDbPolyline
 62
7
  6
CONTINUOUS
 90
6
 70
0
 10
0.5577033248
 20
-22.0307507103
 10
0.5254271736
 20
-22.0506793394
 10
0.4937000264
 20
-22.0696813833
 10
0.4630640608
 20
-22.0879500527
 10
0.4341531533
 20
-22.1059844891
 10
0.4070972578
 20
-22.1237541605
  0
LWPOLYLINE
  5
43E
100
AcDbEntity
  8
RACCORDO
100
AcDbPolyline
 62
7
  6
CONTINUOUS
 90
7
 70
0
 10
18.8375356682
 20
-9.5702500321
 10
18.8528463021
 20
-9.5618728667
 10
18.8679759469
 20
-9.5530328466
 10
18.8829187808
 20
-9.5437361949
 10
18.8976696579
 20
-9.5339889187
 10
18.9122226733
 20
-9.5237978993
 10
18.9138166338
 20
-9.5226461413
  0
LINE
  5
43F
100
AcDbEntity
  8
ASSI
100
AcDbLine
 62
250
  6
CONTINUOUS
 10
3.5781969359
 20
-20.3653391336
 11
4.2729611223
 21
-19.990497916
  0
LINE
  5
440
100
AcDbEntity
  8
ASSI
100
AcDbLine
 62
7
  6
CONTINUOUS
 10
3.4524568479
 20
-20.6335936483
 11
4.1482986935
 21
-20.2581710088
  0
LINE
  5
441
100
AcDbEntity
  8
ASSI
100
AcDbLine
 62
7
  6
CONTINUOUS
 10
8.6508318972
 20
-15.3775424123
 11
4.2729611223
 21
-17.6373198334
  0
LINE
  5
442
100
AcDbEntity
  8
ASSI
100
AcDbLine
 62
7
  6
CONTINUOUS
 10
9.8420902172
 20
-14.6549913647
 11
4.2729611223
 21
-17.5029954076
  0
LWPOLYLINE
  5
443
100
AcDbEntity
  8
RACCORDO
100
AcDbPolyline
 62
250
  6
CONTINUOUS
 90
10
 70
0
 10
-3.467272324
 20
-23.3896708221
 10
-3.4354611304
 20
-23.374250069
 10
-3.4079357508
 20
-23.3546523349
 10
-3.3830063937
 20
-23.3303224496
 10
-3.3609459343
 20
-23.3015267862
 10
-3.3419958296
 20
-23.2685805878
 10
-3.3263634881
 20
-23.2318445212
 10
-3.3142200034
 20
-23.1917207379
 10
-3.3056982794
 20
-23.1486484747
 10
-3.3008915718
 20
-23.1030992352
  0
LWPOLYLINE
  5
444
100
AcDbEntity
  8
0
100
AcDbPolyline
 62
250
  6
CONTINUOUS
 90
9
 70
0
 10
12.5111454339
 20
23.0374338365
 10
12.4956474728
 20
23.0336280749
 10
12.4792171411
 20
23.0301257869
 10
12.4619208308
 20
23.0270112555
 10
12.4436588468
 20
23.0242778697
 10
12.4245308842
 20
23.0219322404
 10
12.4049024207
 20
23.0200784841
 10
12.3848952822
 20
23.0187513061
 10
12.3643876428
 20
23.0179160011
  0
LINE
  5
445
100
AcDbEntity
  8
ASSI
100
AcDbLine
 62
7
  6
CONTINUOUS
 10
1.2093892189
 20
18.1233958907
 11
0.6666631562
 21
18.2385252082
  0
LINE
  5
446
100
AcDbEntity
  8
ASSI
100
AcDbLine
 62
7
  6
CONTINUOUS
 10
1.3695951993
 20
18.4922203667
 11
2.0099824877
 21
18.3563740226
  0
LINE
  5
447
100
AcDbEntity
  8
ASSI
100
AcDbLine
 62
250
  6
CONTINUOUS
 10
1.5500296513
 20
18.615932801
 11
2.2868374555
 21
18.459632624
  0
LWPOLYLINE
  5
448
100
AcDbEntity
  8
ASSI
100
AcDbPolyline
 62
250
  6
CONTINUOUS
 90
7
 70
0
 10
-0.6397257789
 20
20.2991133262
 10
-0.6584795189
 20
20.3067014237
 10
-0.6768702818
 20
20.311218846
 10
-0.694583518
 20
20.3125883309
 10
-0.7113162669
 20
20.3107864571
 10
-0.7267823372
 20
20.3058440455
 10
-0.7321294765
 20
20.3032349216
  0
LWPOLYLINE
  5
449
100
AcDbEntity
  8
ASSI
100
AcDbPolyline
 62
250
  6
CONTINUOUS
 90
13
 70
0
 10
-11.3348103185
 20
24.9392219031
 10
-11.3153718964
 20
24.9306858719
 10
-11.2938923717
 20
24.9234758512
 10
-11.2707311546
 20
24.9177124841
 10
-11.2462757947
 20
24.9134922072
 10
-11.2209354959
 20
24.9108856372
 10
-11.1951342694
 20
24.9099363889
 10
-11.1693038393
 20
24.9106603459
 10
-11.143876418
 20
24.9130453943
 10
-11.1192774748
 20
24.917051626
 10
-11.0959186161
 20
24.9226120058
 10
-11.0741906984
 20
24.9296334936
 10
-11.0544572882
 20
24.9379986012
  0
LWPOLYLINE
  5
44A
100
AcDbEntity
  8
ASSI
100
AcDbPolyline
 62
250
  6
CONTINUOUS
 90
13
 70
0
 10
-11.3348103185
 20
25.2564907035
 10
-11.3153718836
 20
25.2479546673
 10
-11.2938923462
 20
25.240744644
 10
-11.2707311177
 20
25.2349812766
 10
-11.2462757484
 20
25.2307610011
 10
-11.2209354431
 20
25.2281544337
 10
-11.1951342141
 20
25.2272051889
 10
-11.1693037856
 20
25.2279291493
 10
-11.14387637
 20
25.2303142007
 10
-11.1192774359
 20
25.234320434
 10
-11.095918589
 20
25.2398808136
 10
-11.0741906847
 20
25.2469022991
 10
-11.0544572882
 20
25.2552674016
  0
LWPOLYLINE
  5
44B
100
AcDbEntity
  8
ASSI
100
AcDbPolyline
 62
250
  6
CONTINUOUS
 90
13
 70
0
 10
-1.6581175658
 20
21.4288356114
 10
-1.6386791813
 20
21.4202995948
 10
-1.6171996941
 20
21.4130895817
 10
-1.5940385112
 20
21.4073262158
 10
-1.5695831798
 20
21.403105935
 10
-1.544242901
 20
21.4004993572
 10
-1.5184416819
 20
21.3995500986
 10
-1.492611244
 20
21.4002740453
 10
-1.4671838022
 20
21.4026590857
 10
-1.4425848303
 20
21.4066653131
 10
-1.4192259378
 20
21.4122256936
 10
-1.3974979829
 20
21.4192471883
 10
-1.3777645355
 20
21.4276123095
  0
LWPOLYLINE
  5
44C
100
AcDbEntity
  8
ASSI
100
AcDbPolyline
 62
250
  6
CONTINUOUS
 90
14
 70
0
 10
-3.7744627954
 20
22.8424348154
 10
-3.7832076201
 20
22.8464295166
 10
-3.7921801795
 20
22.8499947795
 10
-3.8013542027
 20
22.8530742029
 10
-3.8107213959
 20
22.8556154823
 10
-3.8202248732
 20
22.8575514428
 10
-3.8297620749
 20
22.8588162925
 10
-3.8392942185
 20
22.8593658096
 10
-3.8487789486
 20
22.8591570253
 10
-3.8581115174
 20
22.8581575354
 10
-3.8672508654
 20
22.8563438095
 10
-3.8761537661
 20
22.8536953085
 10
-3.8847222788
 20
22.8502195958
 10
-3.8898142716
 20
22.8476695367
  0
LWPOLYLINE
  5
44D
100
AcDbEntity
  8
ASSI
100
AcDbPolyline
 62
250
  6
CONTINUOUS
 90
28
 70
0
 10
-3.9134160086
 20
22.599779508
 10
-3.915151736
 20
22.6006102371
 10
-3.91692209
 20
22.6013316263
 10
-3.9187270708
 20
22.6019436756
 10
-3.9205781249
 20
22.6024576385
 10
-3.9224638057
 20
22.6028622615
 10
-3.9243497737
 20
22.6031237843
 10
-3.9262368528
 20
22.6032375499
 10
-3.9281242191
 20
22.6032082153
 10
-3.929975061
 20
22.6030159908
 10
-3.9317886843
 20
22.602655083
 10
-3.9335657833
 20
22.6021312853
 10
-3.9352716295
 20
22.6014421879
 10
-3.9369031988
 20
22.6005827594
 10
-3.9384635152
 20
22.5995580313
 10
-3.939926923
 20
22.5983806883
 10
-3.941289667
 20
22.5970488177
 10
-3.9425555024
 20
22.5955643322
 10
-3.9437100377
 20
22.5939456545
 10
-3.9447513694
 20
22.5921920923
 10
-3.945681401
 20
22.5903043379
 10
-3.9464914523
 20
22.5883028902
 10
-3.9471804386
 20
22.5861867239
 10
-3.9477494445
 20
22.5839568644
 10
-3.9481930426
 20
22.5816368857
 10
-3.9485094238
 20
22.5792346462
 10
-3.9487003972
 20
22.5767422876
 10
-3.9487659629
 20
22.57415981
  0
LWPOLYLINE
  5
44E
100
AcDbEntity
  8
ASSI
100
AcDbPolyline
 62
7
  6
CONTINUOUS
 90
4
 70
0
 10
-11.2696489689
 20
24.8039099157
 10
-11.2635571653
 20
24.8009789955
 10
-11.2404536494
 20
24.7918462597
 10
-11.216988026
 20
24.7854885905
  0
LINE
  5
44F
100
AcDbEntity
  8
ASSI
100
AcDbLine
 62
250
  6
CONTINUOUS
 10
1.2516903866
 20
18.9632403509
 11
-0.8128109361
 21
19.9954910123
  0
LINE
  5
450
100
AcDbEntity
  8
ASSI
100
AcDbLine
 62
250
  6
CONTINUOUS
 10
-11.3348103185
 20
25.2564907035
 11
-13.3993116413
 21
26.2887413648
  0
LINE
  5
451
100
AcDbEntity
  8
ASSI
100
AcDbLine
 62
7
  6
CONTINUOUS
 10
-9.3972124989
 20
24.4873569214
 11
-7.7196552079
 21
23.6485782758
  0
LINE
  5
452
100
AcDbEntity
  8
ASSI
100
AcDbLine
 62
7
  6
CONTINUOUS
 10
-4.8717290993
 20
22.2246152216
 11
-4.0073446067
 21
21.7924229752
  0
LINE
  5
453
100
AcDbEntity
  8
ASSI
100
AcDbLine
 62
7
  6
CONTINUOUS
 10
-1.1594184981
 20
20.3684599209
 11
-0.8323975269
 21
20.2049494353
  0
LINE
  5
454
100
AcDbEntity
  8
ASSI
100
AcDbLine
 62
7
  6
CONTINUOUS
 10
3.2250068824
 20
18.1762472307
 11
3.1892882062
 21
18.1941065688
  0
LINE
  5
455
100
AcDbEntity
  8
ASSI
100
AcDbLine
 62
250
  6
CONTINUOUS
 10
1.4259882625
 20
19.2662563055
 11
-0.6397257789
 21
20.2991133262
  0
LINE
  5
456
100
AcDbEntity
  8
ASSI
100
AcDbLine
 62
250
  6
CONTINUOUS
 10
-11.1605124426
 20
25.5595066581
 11
-13.226226484
 21
26.5923636788
  0
LINE
  5
457
100
AcDbEntity
  8
ASSI
100
AcDbLine
 62
7
  6
CONTINUOUS
 10
-9.3972124989
 20
25.1793471729
 11
-8.7290767838
 21
24.8452793153
  0
LINE
  5
458
100
AcDbEntity
  8
ASSI
100
AcDbLine
 62
7
  6
CONTINUOUS
 10
3.1892882062
 20
18.8860968203
 11
3.9194615796
 21
18.5210101336
  0
LINE
  5
459
100
AcDbEntity
  8
ASSI
100
AcDbLine
 62
7
  6
CONTINUOUS
 10
-4.0073446067
 20
22.4851162498
 11
-4.189668869
 21
22.5762783809
  0
LINE
  5
45A
100
AcDbEntity
  8
ASSI
100
AcDbLine
 62
7
  6
CONTINUOUS
 10
-4.0073446067
 20
22.5689411423
 11
-4.1914682946
 21
22.6610029863
  0
LINE
  5
45B
100
AcDbEntity
  8
ASSI
100
AcDbLine
 62
250
  6
CONTINUOUS
 10
-7.6257266099
 20
24.4559348086
 11
-5.4057781213
 21
23.3459605644
  0
LINE
  5
45C
100
AcDbEntity
  8
ASSI
100
AcDbLine
 62
250
  6
CONTINUOUS
 10
-1.6934675201
 20
21.4898052637
 11
-3.9134160086
 21
22.599779508
  0
LINE
  5
45D
100
AcDbEntity
  8
ASSI
100
AcDbLine
 62
250
  6
CONTINUOUS
 10
-7.4867733966
 20
24.6985901161
 11
-5.266824908
 21
23.5886158718
  0
LINE
  5
45E
100
AcDbEntity
  8
ASSI
100
AcDbLine
 62
250
  6
CONTINUOUS
 10
-1.5545143068
 20
21.7324605712
 11
-3.7744627954
 21
22.8424348154
  0
LINE
  5
45F
100
AcDbEntity
  8
ASSI
100
AcDbLine
 62
7
  6
CONTINUOUS
 10
-7.2759190793
 20
24.8123508576
 11
-5.0484788707
 21
23.6986307533
  0
LINE
  5
460
100
AcDbEntity
  8
ASSI
100
AcDbLine
 62
7
  6
CONTINUOUS
 10
-3.5636084781
 20
22.956195557
 11
-1.3361682694
 21
21.8424754527
  0
LINE
  5
461
100
AcDbEntity
  8
ASSI
100
AcDbLine
 62
7
  6
CONTINUOUS
 10
-11.6599757379
 20
27.4373918888
 11
-9.538612316
 21
26.3767101778
  0
LINE
  5
462
100
AcDbEntity
  8
ASSI
100
AcDbLine
 62
7
  6
CONTINUOUS
 10
0.9265249672
 20
21.1441415362
 11
3.0478883891
 21
20.0834598253
  0
LINE
  5
463
100
AcDbEntity
  8
ASSI
100
AcDbLine
 62
7
  6
CONTINUOUS
 10
-0.9203766091
 20
22.2851903275
 11
-2.8871806459
 21
23.2685923459
  0
LINE
  5
464
100
AcDbEntity
  8
ASSI
100
AcDbLine
 62
7
  6
CONTINUOUS
 10
-4.3952601062
 20
24.0226320761
 11
-6.362064143
 21
25.0060340945
  0
LINE
  5
465
100
AcDbEntity
  8
ASSI
100
AcDbLine
 62
250
  6
CONTINUOUS
 10
3.5719928557
 20
20.3434195044
 11
1.4692529823
 21
21.394791319
  0
LINE
  5
466
100
AcDbEntity
  8
ASSI
100
AcDbLine
 62
250
  6
CONTINUOUS
 10
-9.0145078495
 20
26.636669857
 11
-11.1172496752
 21
27.6880407699
  0
LINE
  5
467
100
AcDbEntity
  8
ASSI
100
AcDbLine
 62
7
  6
CONTINUOUS
 10
-11.0081521978
 20
27.6934419736
 11
-8.9060929753
 21
26.6424123188
  0
LINE
  5
468
100
AcDbEntity
  8
ASSI
100
AcDbLine
 62
7
  6
CONTINUOUS
 10
3.680437216
 20
20.3491471827
 11
1.5783476076
 21
21.4001920709
  0
LWPOLYLINE
  5
469
100
AcDbEntity
  8
ASSI
100
AcDbPolyline
 62
250
  6
CONTINUOUS
 90
28
 70
0
 10
-5.4057781213
 20
23.3459605644
 10
-5.4040242452
 20
23.3450446927
 10
-5.4022385013
 20
23.3439851539
 10
-5.4004208894
 20
23.3427819481
 10
-5.3985599756
 20
23.3414344009
 10
-5.396667194
 20
23.3399431865
 10
-5.3947768469
 20
23.3383103282
 10
-5.3928882497
 20
23.3365303839
 10
-5.391002087
 20
23.3346087956
 10
-5.3891547154
 20
23.3325639122
 10
-5.3873471755
 20
23.3303911362
 10
-5.3855784266
 20
23.328095065
 10
-5.3838817032
 20
23.3257078396
 10
-5.3822603429
 20
23.3232286375
 10
-5.3807110081
 20
23.3206582811
 10
-5.3792569207
 20
23.3180313786
 10
-5.3779010488
 20
23.3153492317
 10
-5.3766404243
 20
23.3126105386
 10
-5.3754893644
 20
23.3098460022
 10
-5.3744493033
 20
23.3070557017
 10
-5.373518807
 20
23.3042395578
 10
-5.3727078902
 20
23.3014280351
 10
-5.3720178701
 20
23.2986211387
 10
-5.3714474296
 20
23.2958188635
 10
-5.3710026326
 20
23.2930516583
 10
-5.3706855005
 20
23.2903296728
 10
-5.370494012
 20
23.2876427574
 10
-5.370428167
 20
23.284990912
  0
LWPOLYLINE
  5
46A
100
AcDbEntity
  8
ASSI
100
AcDbPolyline
 62
250
  6
CONTINUOUS
 90
28
 70
0
 10
-5.266824908
 20
23.5886158718
 10
-5.2582257466
 20
23.5839319558
 10
-5.2494064143
 20
23.5785853784
 10
-5.2403915566
 20
23.5725471439
 10
-5.231187636
 20
23.5657743755
 10
-5.2218492222
 20
23.5582579082
 10
-5.2124765383
 20
23.5500358953
 10
-5.203106125
 20
23.5411042123
 10
-5.1937777256
 20
23.5314634635
 10
-5.1845937339
 20
23.5211876274
 10
-5.1755940616
 20
23.5102970181
 10
-5.1668177142
 20
23.4988137973
 10
-5.1583568414
 20
23.4868398155
 10
-5.1502532007
 20
23.4744249073
 10
-5.1425321006
 20
23.4615984565
 10
-5.1352497153
 20
23.4484472283
 10
-5.1284393515
 20
23.4350315442
 10
-5.1221189764
 20
23.4213872442
 10
-5.1163144469
 20
23.407569657
 10
-5.1110475041
 20
23.393630832
 10
-5.1063362974
 20
23.3796193236
 10
-5.1021977191
 20
23.3655861182
 10
-5.0986466756
 20
23.3515816652
 10
-5.095696072
 20
23.3376569736
 10
-5.0933564564
 20
23.3238636553
 10
-5.091636081
 20
23.3102519372
 10
-5.090541037
 20
23.296870509
 10
-5.0900751367
 20
23.2837676101
  0
LWPOLYLINE
  5
46B
100
AcDbEntity
  8
ASSI
100
AcDbPolyline
 62
250
  6
CONTINUOUS
 90
13
 70
0
 10
-9.0145078495
 20
26.636669857
 10
-8.9957541138
 20
26.626105998
 10
-8.9773633544
 20
26.6127397201
 10
-8.9596501206
 20
26.5967996376
 10
-8.9429173731
 20
26.5785583856
 10
-8.9274513031
 20
26.5583279582
 10
-8.9135164375
 20
26.536454373
 10
-8.9013511126
 20
26.5133117509
 10
-8.8911633975
 20
26.4892959149
 10
-8.8831275368
 20
26.4648176221
 10
-8.8773809713
 20
26.4402955396
 10
-8.8740219868
 20
26.4161490844
 10
-8.8731080324
 20
26.3927912477
  0
LWPOLYLINE
  5
46C
100
AcDbEntity
  8
ASSI
100
AcDbPolyline
 62
250
  6
CONTINUOUS
 90
7
 70
0
 10
-3.9487659629
 20
22.57415981
 10
-3.9658380254
 20
22.5838790211
 10
-3.9802580668
 20
22.5946187834
 10
-3.991784801
 20
22.6061993919
 10
-4.0002253547
 20
22.6184270719
 10
-4.0054384947
 20
22.6310972213
 10
-4.0073446067
 20
22.6448704881
  0
LWPOLYLINE
  5
46D
100
AcDbEntity
  8
ASSI
100
AcDbPolyline
 62
7
  6
CONTINUOUS
 90
13
 70
0
 10
3.0478883891
 20
20.0834598253
 10
3.0663396575
 20
20.0727473363
 10
3.0844820546
 20
20.05925897
 10
3.1020010271
 20
20.0432231004
 10
3.1185922257
 20
20.0249112609
 10
3.1339706703
 20
20.0046361512
 10
3.1478757708
 20
19.9827464666
 10
3.1600721028
 20
19.9596178394
 10
3.1703486186
 20
19.9356446877
 10
3.1785264499
 20
19.91123627
 10
3.1844668073
 20
19.8868107805
 10
3.1880731442
 20
19.8627881293
 10
3.1892882062
 20
19.839581216
  0
LINE
  5
46E
100
AcDbEntity
  8
DRAFT
100
AcDbLine
 62
7
  6
CONTINUOUS
 10
11.1033467567
 20
20.3069957763
 11
10.3506526728
 21
21.6052010373
  0
LINE
  5
46F
100
AcDbEntity
  8
0
100
AcDbLine
 62
250
  6
CONTINUOUS
 10
10.172750253
 20
24.079130673
 11
9.7787643192
 21
25.101286491
  0
LINE
  5
470
100
AcDbEntity
  8
0
100
AcDbLine
 62
7
  6
CONTINUOUS
 10
11.3881652594
 20
22.4845171535
 11
11.1866659014
 21
23.0802415793
  0
LWPOLYLINE
  5
471
100
AcDbEntity
  8
RACCORDO
100
AcDbPolyline
 62
250
  6
CONTINUOUS
 90
11
 70
0
 10
19.8752439104
 20
15.6597778935
 10
19.8750553145
 20
15.6645355153
 10
19.874263438
 20
15.6704736097
 10
19.8728659606
 20
15.6761566898
 10
19.8708869198
 20
15.6814930458
 10
19.8683481348
 20
15.6864790779
 10
19.8652716283
 20
15.6911306861
 10
19.8616980194
 20
15.695383898
 10
19.8576640502
 20
15.6992197415
 10
19.8531935731
 20
15.7026648573
 10
19.8483153572
 20
15.7057222367
  0
LWPOLYLINE
  5
472
100
AcDbEntity
  8
RACCORDO
100
AcDbPolyline
 62
250
  6
CONTINUOUS
 90
22
 70
0
 10
21.4619593082
 20
17.0423709564
 10
21.4623865232
 20
17.0296066473
 10
21.462483829
 20
17.0170169806
 10
21.4622508105
 20
17.0046133441
 10
21.4616870189
 20
16.9924068354
 10
21.4607930039
 20
16.9804086023
 10
21.459570285
 20
16.968629851
 10
21.4580196375
 20
16.9570810895
 10
21.4561421693
 20
16.945772918
 10
21.4539403476
 20
16.9347163709
 10
21.4514159315
 20
16.9239215091
 10
21.4485709175
 20
16.9133979982
 10
21.4454085943
 20
16.9031559138
 10
21.4419315945
 20
16.8932044787
 10
21.4381428264
 20
16.8835526904
 10
21.4340464389
 20
16.8742098856
 10
21.4296459775
 20
16.8651845301
 10
21.4249452065
 20
16.8564846941
 10
21.4199490319
 20
16.8481186889
 10
21.4146620814
 20
16.8400942075
 10
21.4090887081
 20
16.8324183091
 10
21.4032338126
 20
16.8250978953
  0
LWPOLYLINE
  5
473
100
AcDbEntity
  8
RACCORDO
100
AcDbPolyline
 62
250
  6
CONTINUOUS
 90
17
 70
0
 10
21.4904514044
 20
19.9337104862
 10
21.4904600895
 20
19.933300104
 10
21.490095057
 20
19.9326502343
 10
21.489327493
 20
19.9318149643
 10
21.4881585344
 20
19.9307955309
 10
21.4865899123
 20
19.9295934439
 10
21.48462395
 20
19.9282104839
 10
21.4822635592
 20
19.9266486988
 10
21.4795122357
 20
19.9249104019
 10
21.4763740543
 20
19.9229981676
 10
21.4728536629
 20
19.9209148281
 10
21.4689562753
 20
19.9186634688
 10
21.4646876637
 20
19.9162474241
 10
21.46005415
 20
19.9136702723
 10
21.4550625968
 20
19.9109358302
 10
21.4497203968
 20
19.9080481478
 10
21.444035462
 20
19.9050115017
  0
LWPOLYLINE
  5
474
100
AcDbEntity
  8
RACCORDO
100
AcDbPolyline
 62
7
  6
CONTINUOUS
 90
31
 70
0
 10
19.8752439098
 20
22.3881540631
 10
19.8749634115
 20
22.422220319
 10
19.8738349408
 20
22.4647035746
 10
19.8718496648
 20
22.5072507975
 10
19.8690139072
 20
22.5498672185
 10
19.8653351387
 20
22.5925323474
 10
19.8608242858
 20
22.6351966499
 10
19.8554893037
 20
22.677854017
 10
19.8493374338
 20
22.7204966941
 10
19.8423832113
 20
22.7630705606
 10
19.8346352321
 20
22.805569039
 10
19.8261010146
 20
22.8479855411
 10
19.8167989078
 20
22.8902643426
 10
19.8067384323
 20
22.932396675
 10
19.7959272583
 20
22.9743782743
 10
19.78438559
 20
23.0161587879
 10
19.7721254713
 20
23.0577219706
 10
19.7591528954
 20
23.0990713243
 10
19.7454809598
 20
23.1401848329
 10
19.73111876
 20
23.1810527831
 10
19.7160728348
 20
23.2216716086
 10
19.7003526785
 20
23.2620271943
 10
19.6839650743
 20
23.3021124229
 10
19.6669158632
 20
23.3419203454
 10
19.6492138259
 20
23.3814362188
 10
19.6308648115
 20
23.4206516881
 10
19.6118731598
 20
23.4595595415
 10
19.592245648
 20
23.4981471049
 10
19.5719866265
 20
23.5364052991
 10
19.5510993311
 20
23.5743263918
 10
19.5332764697
 20
23.60555853
  0
LWPOLYLINE
  5
475
100
AcDbEntity
  8
RACCORDO
100
AcDbPolyline
 62
7
  6
CONTINUOUS
 90
19
 70
0
 10
21.5461573103
 20
19.6899381397
 10
21.5461128948
 20
19.6967023252
 10
21.5457136156
 20
19.7113833979
 10
21.5449031663
 20
19.7260840555
 10
21.5436842727
 20
19.7408122296
 10
21.5420605876
 20
19.7555541174
 10
21.5400395674
 20
19.7702723993
 10
21.5376255579
 20
19.7849652972
 10
21.5348217874
 20
19.7996305814
 10
21.5316392593
 20
19.8142293931
 10
21.5280821624
 20
19.8287612193
 10
21.5241539282
 20
19.8432238649
 10
21.5198696901
 20
19.8575755916
 10
21.5152338835
 20
19.8718152541
 10
21.5102502358
 20
19.8859417496
 10
21.5049372565
 20
19.8999134159
 10
21.4993052558
 20
19.913716232
 10
21.4933527661
 20
19.9273636357
 10
21.4904513476
 20
19.933710598
  0
LINE
  5
476
100
AcDbEntity
  8
RACCORDO
100
AcDbLine
 62
7
  6
CONTINUOUS
 10
19.8752439194
 20
15.6597461848
 11
19.8752439104
 21
15.6597778935
  0
LINE
  5
477
100
AcDbEntity
  8
RACCORDO
100
AcDbLine
 62
250
  6
CONTINUOUS
 10
21.4619593082
 20
19.5857405743
 11
21.4619593082
 21
19.4293259348
  0
LINE
  5
478
100
AcDbEntity
  8
RACCORDO
100
AcDbLine
 62
250
  6
CONTINUOUS
 10
21.4619593082
 20
17.1987857648
 11
21.4619593082
 21
17.0423709564
  0
LINE
  5
479
100
AcDbEntity
  8
RACCORDO
100
AcDbLine
 62
7
  6
CONTINUOUS
 10
21.5461573681
 20
19.6899393299
 11
21.5461573681
 21
19.5147977899
  0
LINE
  5
47A
100
AcDbEntity
  8
RACCORDO
100
AcDbLine
 62
7
  6
CONTINUOUS
 10
21.5461573681
 20
17.2913518935
 11
21.5461573681
 21
17.1465697116
  0
LWPOLYLINE
  5
47B
100
AcDbEntity
  8
RACCORDO
100
AcDbPolyline
 62
250
  6
CONTINUOUS
 90
22
 70
0
 10
21.5461573681
 20
19.6899381397
 10
21.5460376014
 20
19.6857012372
 10
21.5455191154
 20
19.6801599606
 10
21.5445911964
 20
19.6746320591
 10
21.5432551133
 20
19.6691250931
 10
21.5415126936
 20
19.6636465945
 10
21.5393663202
 20
19.6582040561
 10
21.5368189289
 20
19.6528049217
 10
21.5338740036
 20
19.6474565755
 10
21.530535572
 20
19.6421663324
 10
21.5268082001
 20
19.6369414277
 10
21.5226969857
 20
19.6317890077
 10
21.5182075518
 20
19.626716119
 10
21.5133460384
 20
19.6217296999
 10
21.5081190946
 20
19.6168365702
 10
21.5025338691
 20
19.6120434222
 10
21.4965980009
 20
19.6073568114
 10
21.4903196084
 20
19.6027831476
 10
21.4837072784
 20
19.5983286862
 10
21.4767700545
 20
19.5939995195
 10
21.4695174247
 20
19.5898015684
 10
21.4619593082
 20
19.5857405743
  0
LWPOLYLINE
  5
47C
100
AcDbEntity
  8
RACCORDO
100
AcDbPolyline
 62
250
  6
CONTINUOUS
 90
22
 70
0
 10
21.546157368
 20
17.146566204
 10
21.5460376023
 20
17.1423316349
 10
21.5455191175
 20
17.1367903581
 10
21.5445911995
 20
17.1312624563
 10
21.5432551175
 20
17.1257554899
 10
21.5415126987
 20
17.1202769908
 10
21.5393663263
 20
17.1148344518
 10
21.5368189357
 20
17.1094353167
 10
21.5338740109
 20
17.1040869697
 10
21.5305355798
 20
17.0987967258
 10
21.5268082082
 20
17.0935718203
 10
21.522696994
 20
17.0884193993
 10
21.51820756
 20
17.0833465097
 10
21.5133460464
 20
17.0783600897
 10
21.5081191022
 20
17.073466959
 10
21.5025338762
 20
17.06867381
 10
21.4965980072
 20
17.0639871982
 10
21.4903196138
 20
17.0594135334
 10
21.4837072826
 20
17.054959071
 10
21.4767700575
 20
17.0506299033
 10
21.4695174262
 20
17.0464319513
 10
21.4619593082
 20
17.0423709564
  0
LWPOLYLINE
  5
47D
100
AcDbEntity
  8
RACCORDO
100
AcDbPolyline
 62
7
  6
CONTINUOUS
 90
26
 70
0
 10
21.546157368
 20
19.5148427888
 10
21.5460386906
 20
19.5118822385
 10
21.5456415326
 20
19.508633365
 10
21.5449646552
 20
19.5053446112
 10
21.5440079439
 20
19.5020168654
 10
21.5427715414
 20
19.4986543143
 10
21.5412558584
 20
19.495261386
 10
21.5394616168
 20
19.4918393395
 10
21.5373897813
 20
19.4883923648
 10
21.5350415838
 20
19.4849248882
 10
21.5324185893
 20
19.4814385106
 10
21.5295225927
 20
19.4779373897
 10
21.5263556466
 20
19.4744259049
 10
21.5229201366
 20
19.4709059569
 10
21.5192186797
 20
19.4673816289
 10
21.5152541393
 20
19.4638572168
 10
21.51102969
 20
19.4603348872
 10
21.5065487588
 20
19.4568186152
 10
21.5018149969
 20
19.4533125703
 10
21.4968323101
 20
19.4498191426
 10
21.4916049099
 20
19.4463421636
 10
21.4861372055
 20
19.4428856404
 10
21.4804337623
 20
19.4394521465
 10
21.47449946
 20
19.4360450334
 10
21.4683395054
 20
19.4326684205
 10
21.4619593082
 20
19.4293259348
  0
LWPOLYLINE
  5
47E
100
AcDbEntity
  8
ASSI
100
AcDbPolyline
 62
7
  6
CONTINUOUS
 90
10
 70
0
 10
3.6760591953
 20
-22.0664296587
 10
3.6982988343
 20
-22.0510682782
 10
3.7191447942
 20
-22.0330645234
 10
3.7382833305
 20
-22.0126211724
 10
3.7550058995
 20
-21.9906120446
 10
3.7696144031
 20
-21.9667724559
 10
3.7820420334
 20
-21.9410137742
 10
3.7916495754
 20
-21.9146141855
 10
3.798441282
 20
-21.8878949457
 10
3.8025306536
 20
-21.8601161202
  0
LWPOLYLINE
  5
47F
100
AcDbEntity
  8
ASSI
100
AcDbPolyline
 62
7
  6
CONTINUOUS
 90
5
 70
0
 10
3.1393918316
 20
-22.3563923042
 10
3.1478757708
 20
-22.3510589832
 10
3.160069783
 20
-22.3401255281
 10
3.1703443176
 20
-22.3264279016
 10
3.1785264499
 20
-22.3101994656
  0
LWPOLYLINE
  5
480
100
AcDbEntity
  8
ASSI
100
AcDbPolyline
 62
250
  6
CONTINUOUS
 90
7
 70
0
 10
3.7475246167
 20
-21.565629183
 10
3.7642548616
 20
-21.5557624371
 10
3.7782978516
 20
-21.5448984418
 10
3.789418612
 20
-21.5332189823
 10
3.7974310655
 20
-21.5209194885
 10
3.8022011457
 20
-21.5082057647
 10
3.8036566567
 20
-21.4961632762
  0
LWPOLYLINE
  5
481
100
AcDbEntity
  8
ASSI
100
AcDbPolyline
 62
250
  6
CONTINUOUS
 90
7
 70
0
 10
3.7475246167
 20
-21.9055727778
 10
3.7642548319
 20
-21.8957060728
 10
3.7782978076
 20
-21.8848421139
 10
3.7894185672
 20
-21.8731626846
 10
3.7974310305
 20
-21.8608632129
 10
3.8022011274
 20
-21.8481495023
 10
3.8036566567
 20
-21.8361069408
  0
LWPOLYLINE
  5
482
100
AcDbEntity
  8
ASSI
100
AcDbPolyline
 62
250
  6
CONTINUOUS
 90
8
 70
0
 10
1.5123121513
 20
-23.1079909261
 10
1.5249360611
 20
-23.1005863079
 10
1.5371610774
 20
-23.0896388563
 10
1.5475268446
 20
-23.0758997616
 10
1.5558560728
 20
-23.0596040131
 10
1.5620063032
 20
-23.0410303286
 10
1.5658723461
 20
-23.0204963871
 10
1.5673880796
 20
-22.9983533943
  0
LINE
  5
483
100
AcDbEntity
  8
ASSI
100
AcDbLine
 62
7
  6
CONTINUOUS
 10
3.6643897967
 20
-22.0731435447
 11
3.6760591953
 21
-22.0664296587
  0
LWPOLYLINE
  5
484
100
AcDbEntity
  8
ASSI
100
AcDbPolyline
 62
250
  6
CONTINUOUS
 90
28
 70
0
 10
3.7133926727
 20
-21.9665397844
 10
3.7151890916
 20
-21.9655237041
 10
3.7170031574
 20
-21.9643661399
 10
3.7188348704
 20
-21.9630670918
 10
3.720695118
 20
-21.9616237323
 10
3.7225730126
 20
-21.9600388888
 10
3.7244358916
 20
-21.9583210438
 10
3.7262838406
 20
-21.9564652586
 10
3.728116774
 20
-21.9544764719
 10
3.7299017719
 20
-21.9523779818
 10
3.7316369828
 20
-21.9501667122
 10
3.7333242581
 20
-21.9478457392
 10
3.7349362322
 20
-21.9454475893
 10
3.7364695944
 20
-21.9429728128
 10
3.7379276553
 20
-21.9404208593
 10
3.7392929822
 20
-21.9378226044
 10
3.7405633646
 20
-21.9351794581
 10
3.7417410128
 20
-21.9324900103
 10
3.742815125
 20
-21.9297809069
 10
3.7437848184
 20
-21.9270519384
 10
3.7446509756
 20
-21.9243033143
 10
3.7454054434
 20
-21.9215623091
 10
3.7460472021
 20
-21.9188290533
 10
3.7465772713
 20
-21.9161034164
 10
3.7469905568
 20
-21.9134122821
 10
3.7472853605
 20
-21.9107646115
 10
3.7474633805
 20
-21.9081514434
 10
3.7475246167
 20
-21.9055727778
  0
LINE
  5
485
100
AcDbEntity
  8
ASSI
100
AcDbLine
 62
250
  6
CONTINUOUS
 10
3.1892882062
 20
-22.2493061679
 11
3.7133926727
 21
-21.9665397844
  0
LINE
  5
486
100
AcDbEntity
  8
ASSI
100
AcDbLine
 62
7
  6
CONTINUOUS
 10
3.1394352659
 20
-22.3563689139
 11
3.6644894768
 21
-22.0730901215
  0
LINE
  5
487
100
AcDbEntity
  8
ASSI
100
AcDbLine
 62
7
  6
CONTINUOUS
 10
3.135225395
 20
-22.3584758086
 11
3.1393918316
 21
-22.3563923042
  0
LINE
  5
488
100
AcDbEntity
  8
ASSI
100
AcDbLine
 62
7
  6
CONTINUOUS
 10
3.4524217459
 20
-20.6336125599
 11
3.4346809291
 21
-20.642031282
  0
LINE
  5
489
100
AcDbEntity
  8
ASSI
100
AcDbLine
 62
250
  6
CONTINUOUS
 10
3.1892882062
 20
-22.2493061679
 11
1.5673880796
 21
-22.9983533943
  0
LINE
  5
48A
100
AcDbEntity
  8
ASSI
100
AcDbLine
 62
7
  6
CONTINUOUS
 10
1.5120798527
 20
-23.1080977259
 11
3.1351695893
 21
-22.3585015816
  0
LWPOLYLINE
  5
48B
100
AcDbEntity
  8
ASSI
100
AcDbPolyline
 62
250
  6
CONTINUOUS
 90
28
 70
0
 10
1.5673880796
 20
-22.9983533943
 10
1.5656238882
 20
-22.9991299232
 10
1.5638295199
 20
-22.9997955669
 10
1.5620049747
 20
-23.0003503256
 10
1.5601389414
 20
-23.0008043584
 10
1.5582427312
 20
-23.0011475061
 10
1.556350278
 20
-23.0013492911
 10
1.554460962
 20
-23.0014051264
 10
1.5525754029
 20
-23.0013195989
 10
1.5507293939
 20
-23.0010759923
 10
1.5489239755
 20
-23.0006689172
 10
1.5471581071
 20
-23.000103763
 10
1.5454644605
 20
-22.9993799812
 10
1.5438462876
 20
-22.9984936299
 10
1.5423003364
 20
-22.9974486509
 10
1.5408495223
 20
-22.9962563222
 10
1.5394967375
 20
-22.9949150461
 10
1.5382390897
 20
-22.9934264201
 10
1.5370908172
 20
-22.9918065152
 10
1.5360533503
 20
-22.9900540035
 10
1.5351252588
 20
-22.9881702129
 10
1.5343164905
 20
-22.9861751976
 10
1.5336283666
 20
-22.9840676722
 10
1.5330595659
 20
-22.9818489222
 10
1.5326160722
 20
-22.979542858
 10
1.5322998801
 20
-22.9771574498
 10
1.532108995
 20
-22.9746847275
 10
1.5320434169
 20
-22.9721246911
  0
LINE
  5
48C
100
AcDbEntity
  8
ASSI
100
AcDbLine
 62
250
  6
CONTINUOUS
 10
2.4897624
 20
-20.8136361816
 11
3.5781969359
 21
-20.3652729801
  0
LINE
  5
48D
100
AcDbEntity
  8
ASSI
100
AcDbLine
 62
7
  6
CONTINUOUS
 10
2.3473841778
 20
-21.0899256425
 11
3.4346331839
 21
-20.642050801
  0
LINE
  5
48E
100
AcDbEntity
  8
RACCORDO
100
AcDbLine
 62
250
  6
CONTINUOUS
 10
0.0545377906
 20
-21.8263897059
 11
-3.3008915718
 21
-23.1030992352
  0
LINE
  5
48F
100
AcDbEntity
  8
RACCORDO
100
AcDbLine
 62
7
  6
CONTINUOUS
 10
-3.4674663814
 20
-23.3897445443
 11
-0.1081166391
 21
-22.1115434619
  0
LWPOLYLINE
  5
490
100
AcDbEntity
  8
RACCORDO
100
AcDbPolyline
 62
250
  6
CONTINUOUS
 90
22
 70
0
 10
-3.3008915718
 20
-23.1030992352
 10
-3.3372950768
 20
-23.1153628259
 10
-3.3730016384
 20
-23.1243186536
 10
-3.4080112566
 20
-23.1299667184
 10
-3.4425130026
 20
-23.1323083442
 10
-3.4763178052
 20
-23.1313422071
 10
-3.5088584514
 20
-23.1270643349
 10
-3.5400989494
 20
-23.1194172755
 10
-3.5700752908
 20
-23.1084584809
 10
-3.5983282375
 20
-23.0943563356
 10
-3.6248311468
 20
-23.0770607215
 10
-3.6496106614
 20
-23.0566217566
 10
-3.6722874708
 20
-23.0333581785
 10
-3.6928270596
 20
-23.007227599
 10
-3.7112639433
 20
-22.9782724064
 10
-3.7273223583
 20
-22.946938503
 10
-3.7409662042
 20
-22.9131703814
 10
-3.7522315812
 20
-22.8770235491
 10
-3.7609510273
 20
-22.839110431
 10
-3.7670687216
 20
-22.7996351689
 10
-3.770640485
 20
-22.758393621
 10
-3.7716663173
 20
-22.7153857873
  0
LWPOLYLINE
  5
491
100
AcDbEntity
  8
ASSI
100
AcDbPolyline
 62
7
  6
CONTINUOUS
 90
4
 70
0
 10
0.8724123293
 20
21.1580174493
 10
0.8899227498
 20
21.1565386224
 10
0.9080622538
 20
21.1518860382
 10
0.9265249672
 20
21.1441415362
  0
LINE
  5
492
100
AcDbEntity
  8
ASSI
100
AcDbLine
 62
7
  6
CONTINUOUS
 10
-11.3771114862
 20
24.4166462432
 11
-11.9198375489
 21
24.5317755608
  0
LINE
  5
493
100
AcDbEntity
  8
ASSI
100
AcDbLine
 62
250
  6
CONTINUOUS
 10
-10.2996632496
 20
24.7528829766
 11
-11.0364710538
 21
24.9091831535
  0
LINE
  5
494
100
AcDbEntity
  8
ASSI
100
AcDbLine
 62
7
  6
CONTINUOUS
 10
-11.2169880918
 20
24.785488269
 11
-10.5760891937
 21
24.6495333657
  0
LWPOLYLINE
  5
495
100
AcDbEntity
  8
ASSI
100
AcDbPolyline
 62
250
  6
CONTINUOUS
 90
19
 70
0
 10
-11.0364710538
 20
24.9091831535
 10
-11.0380120909
 20
24.9095553452
 10
-11.0395279851
 20
24.9100725444
 10
-11.0410187362
 20
24.9107347513
 10
-11.0424965745
 20
24.9115380923
 10
-11.0439492699
 20
24.9124864409
 10
-11.0453401321
 20
24.9135914175
 10
-11.0466680042
 20
24.9148583752
 10
-11.0479340432
 20
24.916281961
 10
-11.0491050292
 20
24.9178577358
 10
-11.0501783388
 20
24.9195911716
 10
-11.0511565954
 20
24.9214767965
 10
-11.0520144494
 20
24.923493756
 10
-11.0527480853
 20
24.9256466997
 10
-11.0533613187
 20
24.9279309779
 10
-11.053840246
 20
24.9303117875
 10
-11.0541802327
 20
24.9327775274
 10
-11.0543859135
 20
24.9353397986
 10
-11.0544572882
 20
24.9379986012
  0
LWPOLYLINE
  5
496
100
AcDbEntity
  8
ASSI
100
AcDbPolyline
 62
7
  6
CONTINUOUS
 90
10
 70
0
 10
1.5666907302
 20
21.4055992614
 10
1.5456484335
 20
21.4133756321
 10
1.5237735111
 20
21.4189984015
 10
1.5012930514
 20
21.4223731275
 10
1.4783620391
 20
21.4234312768
 10
1.4552224023
 20
21.4221138742
 10
1.4321956218
 20
21.4184087201
 10
1.4095016853
 20
21.4123355795
 10
1.3873438956
 20
21.4039347695
 10
1.3831675001
 20
21.4020595888
  0
LWPOLYLINE
  5
497
100
AcDbEntity
  8
ASSI
100
AcDbPolyline
 62
7
  6
CONTINUOUS
 90
6
 70
0
 10
-11.6599757379
 20
27.4373918888
 10
-11.6784270062
 20
27.4451421133
 10
-11.6965694033
 20
27.4497932509
 10
-11.7140883759
 20
27.4512678019
 10
-11.7306795745
 20
27.44954286
 10
-11.7473147779
 20
27.4440817202
  0
LWPOLYLINE
  5
498
100
AcDbEntity
  8
ASSI
100
AcDbPolyline
 62
250
  6
CONTINUOUS
 90
6
 70
0
 10
1.4692510299
 20
21.3947904173
 10
1.4510990977
 20
21.4026793956
 10
1.4332154155
 20
21.4074503483
 10
1.4159058597
 20
21.4090216746
 10
1.3994664868
 20
21.4073664991
 10
1.3831674788
 20
21.4020596353
  0
LINE
  5
499
100
AcDbEntity
  8
ASSI
100
AcDbLine
 62
7
  6
CONTINUOUS
 10
-11.0078759114
 20
27.6933026464
 11
-11.0221581186
 21
27.6998399997
  0
LINE
  5
49A
100
AcDbEntity
  8
ASSI
100
AcDbLine
 62
7
  6
CONTINUOUS
 10
1.5786133076
 20
21.4000579343
 11
1.5666907302
 21
21.4055992614
  0
LWPOLYLINE
  5
49B
100
AcDbEntity
  8
ASSI
100
AcDbPolyline
 62
250
  6
CONTINUOUS
 90
13
 70
0
 10
3.680325593
 20
20.349203078
 10
3.6771310294
 20
20.3507249067
 10
3.6687957338
 20
20.3540312139
 10
3.6601222756
 20
20.3565497661
 10
3.6511407044
 20
20.3582734006
 10
3.6418829468
 20
20.3591974905
 10
3.6323778395
 20
20.3593203904
 10
3.6226583293
 20
20.3586423419
 10
3.6127579219
 20
20.3571663215
 10
3.6027068824
 20
20.3548972648
 10
3.5925383983
 20
20.3518424051
 10
3.5822886562
 20
20.3480121757
 10
3.5719928557
 20
20.3434195044
  0
LWPOLYLINE
  5
49C
100
AcDbEntity
  8
RACCORDO
100
AcDbPolyline
 62
7
  6
CONTINUOUS
 90
3
 70
0
 10
-0.4705023267
 20
24.6372085013
 10
-0.4727970089
 20
24.6383017302
 10
-0.475633007
 20
24.6395089536
  0
LWPOLYLINE
  5
49D
100
AcDbEntity
  8
ASSI
100
AcDbPolyline
 62
250
  6
CONTINUOUS
 90
13
 70
0
 10
1.5783532625
 20
21.4001892434
 10
1.5770823687
 20
21.4008129061
 10
1.5686063867
 20
21.4043973401
 10
1.5597631216
 20
21.4071673907
 10
1.550585972
 20
21.4091126742
 10
1.5411057733
 20
21.4102267348
 10
1.5313572709
 20
21.410505261
 10
1.5213748
 20
21.4099472267
 10
1.5111943545
 20
21.408554613
 10
1.5008545772
 20
21.4063327413
 10
1.4903931979
 20
21.4032902078
 10
1.4798467868
 20
21.3994383219
 10
1.4692529555
 20
21.3947913324
  0
LINE
  5
49E
100
AcDbEntity
  8
RACCORDO
100
AcDbLine
 62
7
  6
CONTINUOUS
 10
0.9482216058
 20
23.241048715
 11
-1.689748584
 21
24.5600338099
  0
LINE
  5
49F
100
AcDbEntity
  8
RACCORDO
100
AcDbLine
 62
250
  6
CONTINUOUS
 10
2.8736173708
 20
22.9147469356
 11
2.8530256508
 21
22.9250427956
  0
LINE
  5
4A0
100
AcDbEntity
  8
RACCORDO
100
AcDbLine
 62
250
  6
CONTINUOUS
 10
1.5982225478
 20
23.5524443471
 11
-0.5547434337
 21
24.6289273378
  0
LINE
  5
4A1
100
AcDbEntity
  8
RACCORDO
100
AcDbLine
 62
7
  6
CONTINUOUS
 10
2.9250965727
 20
22.9394090516
 11
2.8533335897
 21
22.9752905431
  0
LINE
  5
4A2
100
AcDbEntity
  8
RACCORDO
100
AcDbLine
 62
7
  6
CONTINUOUS
 10
1.6497017498
 20
23.5771064631
 11
-0.4704945611
 21
24.6372046185
  0
LINE
  5
4A3
100
AcDbEntity
  8
ASSI
100
AcDbLine
 62
7
  6
CONTINUOUS
 10
3.2524857393
 20
23.3153325598
 11
2.8566304894
 21
23.5132601848
  0
LINE
  5
4A4
100
AcDbEntity
  8
ASSI
100
AcDbLine
 62
7
  6
CONTINUOUS
 10
2.2008557655
 20
23.8411475467
 11
-0.3464880076
 21
25.1148194332
  0
LWPOLYLINE
  5
4A5
100
AcDbEntity
  8
ASSI
100
AcDbPolyline
 62
250
  6
CONTINUOUS
 90
13
 70
0
 10
-3.0469839125
 20
26.591222244
 10
-3.0243298731
 20
26.5780689723
 10
-3.0021013534
 20
26.5615264039
 10
-2.9806661153
 20
26.5418680851
 10
-2.9603788397
 20
26.5194191513
 10
-2.9415751956
 20
26.4945508864
 10
-2.9245663006
 20
26.4676745611
 10
-2.9096336283
 20
26.439234692
 10
-2.8970244053
 20
26.4097018464
 10
-2.8869474277
 20
26.3795647911
 10
-2.8795695348
 20
26.3493222343
 10
-2.8750128832
 20
26.3194745609
 10
-2.8733529696
 20
26.2905156967
  0
LWPOLYLINE
  5
4A6
100
AcDbEntity
  8
0
100
AcDbPolyline
 62
250
  6
CONTINUOUS
 90
4
 70
0
 10
12.1362176283
 20
23.0820756379
 10
12.134265672
 20
23.0856402814
 10
12.1330821047
 20
23.0890179295
 10
12.1326700703
 20
23.0922001143
  0
LWPOLYLINE
  5
4A7
100
AcDbEntity
  8
ASSI
100
AcDbPolyline
 62
7
  6
CONTINUOUS
 90
3
 70
0
 10
5.8770213879
 20
24.5777269705
 10
5.8194973977
 20
24.5631177623
 10
5.7616692229
 20
24.5430471362
  0
LWPOLYLINE
  5
4A8
100
AcDbEntity
  8
RACCORDO
100
AcDbPolyline
 62
250
  6
CONTINUOUS
 90
19
 70
0
 10
4.427805594
 20
24.6744886031
 10
4.4427295378
 20
24.6778279157
 10
4.4614040424
 20
24.6813472265
 10
4.4799421748
 20
24.6841773028
 10
4.4983301686
 20
24.6863160429
 10
4.5165543688
 20
24.6877618587
 10
4.5346012419
 20
24.6885136764
 10
4.5524573863
 20
24.6885709378
 10
4.5701095419
 20
24.6879336004
 10
4.5875446
 20
24.6866021374
 10
4.6047496134
 20
24.6845775375
 10
4.6217118055
 20
24.6818613044
 10
4.6384185801
 20
24.6784554549
 10
4.6548575306
 20
24.6743625185
 10
4.6710164494
 20
24.6695855344
 10
4.6868833367
 20
24.6641280501
 10
4.7024464098
 20
24.6579941184
 10
4.7176941114
 20
24.6511882943
 10
4.7249776017
 20
24.6476443459
  0
LWPOLYLINE
  5
4A9
100
AcDbEntity
  8
RACCORDO
100
AcDbPolyline
 62
7
  6
CONTINUOUS
 90
13
 70
0
 10
12.0658976708
 20
23.4403036849
 10
11.9481198216
 20
23.4306722431
 10
11.8074275858
 20
23.4153958124
 10
11.6682499934
 20
23.3961065429
 10
11.5309780368
 20
23.3728247572
 10
11.3960024055
 20
23.3455778845
 10
11.2635836326
 20
23.3143677978
 10
11.1340855449
 20
23.2792150016
 10
11.0079171442
 20
23.2401572086
 10
10.8853773951
 20
23.1972007054
 10
10.7668057719
 20
23.1503589273
 10
10.6526084405
 20
23.0996718987
 10
10.5431712232
 20
23.0451769386
  0
LWPOLYLINE
  5
4AA
100
AcDbEntity
  8
0
100
AcDbPolyline
 62
250
  6
CONTINUOUS
 90
10
 70
0
 10
12.6249876951
 20
23.4142830941
 10
12.6162252408
 20
23.4137912109
 10
12.6075273069
 20
23.4126191918
 10
12.598960917
 20
23.4107760679
 10
12.5905920815
 20
23.4082760419
 10
12.582485288
 20
23.4051383782
 10
12.5747030052
 20
23.4013872547
 10
12.5673052012
 20
23.3970515764
 10
12.5603488813
 20
23.3921647528
 10
12.553887649
 20
23.3867644403
  0
LWPOLYLINE
  5
4AB
100
AcDbEntity
  8
ASSI
100
AcDbPolyline
 62
7
  6
CONTINUOUS
 90
5
 70
0
 10
2.471022391
 20
23.9212601691
 10
2.4297992485
 20
23.9191493378
 10
2.3886954575
 20
23.9135991228
 10
2.3495623007
 20
23.904811313
 10
2.3127971843
 20
23.8930124478
  0
LWPOLYLINE
  5
4AC
100
AcDbEntity
  8
0
100
AcDbPolyline
 62
250
  6
CONTINUOUS
 90
10
 70
0
 10
12.6248008591
 20
23.1175713063
 10
12.6160847909
 20
23.117241651
 10
12.6074351975
 20
23.1162553695
 10
12.5989179086
 20
23.1146199984
 10
12.5905977552
 20
23.1123480186
 10
12.5825380349
 20
23.109456748
 10
12.5748000349
 20
23.1059681996
 10
12.5674426211
 20
23.1019089336
 10
12.5605217853
 20
23.0973098648
 10
12.5540901811
 20
23.0922060093
  0
LWPOLYLINE
  5
4AD
100
AcDbEntity
  8
0
100
AcDbPolyline
 62
250
  6
CONTINUOUS
 90
10
 70
0
 10
12.6248008591
 20
23.4077800761
 10
12.6160852849
 20
23.4074505273
 10
12.6074360414
 20
23.4064643889
 10
12.5989189546
 20
23.4048291661
 10
12.5905988448
 20
23.4025573038
 10
12.582539033
 20
23.3996660924
 10
12.5748008591
 20
23.3961775357
 10
12.5674432155
 20
23.3921181837
 10
12.5605220982
 20
23.3875189305
 10
12.554090181
 20
23.3824147793
  0
LWPOLYLINE
  5
4AE
100
AcDbEntity
  8
0
100
AcDbPolyline
 62
7
  6
CONTINUOUS
 90
3
 70
0
 10
12.3688969143
 20
23.0314902126
 10
12.3538720585
 20
23.0310721276
 10
12.3430590732
 20
23.0309708463
  0
LWPOLYLINE
  5
4AF
100
AcDbEntity
  8
RACCORDO
100
AcDbPolyline
 62
250
  6
CONTINUOUS
 90
18
 70
0
 10
5.4576652983
 20
24.3997426285
 10
5.4435400943
 20
24.3993833555
 10
5.4082400555
 20
24.398894893
 10
5.3728854481
 20
24.3988135855
 10
5.33753846
 20
24.3991397214
 10
5.3021990967
 20
24.3998741344
 10
5.2668673526
 20
24.4010159908
 10
5.2316053993
 20
24.4025630767
 10
5.1964132713
 20
24.4045162373
 10
5.1612909341
 20
24.4068746275
 10
5.1263004561
 20
24.4096334986
 10
5.0914438763
 20
24.4127934156
 10
5.0567191558
 20
24.4163538135
 10
5.0221822455
 20
24.4203082477
 10
4.9878365132
 20
24.4246567035
 10
4.9536785913
 20
24.4293991955
 10
4.9197543269
 20
24.4345293235
 10
4.901863909
 20
24.4374594456
  0
LINE
  5
4B0
100
AcDbEntity
  8
0
100
AcDbLine
 62
250
  6
CONTINUOUS
 10
12.3643876428
 20
23.0179160011
 11
12.3433795024
 21
23.017572569
  0
LWPOLYLINE
  5
4B1
100
AcDbEntity
  8
0
100
AcDbPolyline
 62
7
  6
CONTINUOUS
 90
9
 70
0
 10
12.6248543028
 20
23.4482355947
 10
12.6170544611
 20
23.4482520644
 10
12.6061696532
 20
23.4472548706
 10
12.5954781713
 20
23.4450836662
 10
12.5851091181
 20
23.4417723818
 10
12.5751732762
 20
23.4373634446
 10
12.5657929626
 20
23.4319185169
 10
12.5570979759
 20
23.4255286732
 10
12.5498092553
 20
23.4189204028
  0
LINE
  5
4B2
100
AcDbEntity
  8
0
100
AcDbLine
 62
7
  6
CONTINUOUS
 10
12.3430585451
 20
23.0309711211
 11
12.3341013459
 21
23.0310506963
  0
LINE
  5
4B3
100
AcDbEntity
  8
0
100
AcDbLine
 62
250
  6
CONTINUOUS
 10
12.3433795024
 20
23.017572569
 11
12.3213891237
 21
23.0179899586
  0
LINE
  5
4B4
100
AcDbEntity
  8
0
100
AcDbLine
 62
7
  6
CONTINUOUS
 10
12.3341013459
 20
23.0310506963
 11
12.3189896174
 21
23.0314473857
  0
LWPOLYLINE
  5
4B5
100
AcDbEntity
  8
0
100
AcDbPolyline
 62
250
  6
CONTINUOUS
 90
10
 70
0
 10
12.0619581467
 20
23.1175713063
 10
12.0706737209
 20
23.1172417575
 10
12.0793229644
 20
23.1162556191
 10
12.0878400512
 20
23.1146203963
 10
12.096160161
 20
23.112348534
 10
12.1042199728
 20
23.1094573226
 10
12.1119581467
 20
23.1059687659
 10
12.1193157903
 20
23.1019094139
 10
12.1262369076
 20
23.0973101607
 10
12.1326688248
 20
23.0922060095
  0
LWPOLYLINE
  5
4B6
100
AcDbEntity
  8
0
100
AcDbPolyline
 62
250
  6
CONTINUOUS
 90
10
 70
0
 10
12.0619581467
 20
23.3990405671
 10
12.0706737787
 20
23.3987110037
 10
12.0793230636
 20
23.3977248469
 10
12.0878401748
 20
23.3960896054
 10
12.0961602914
 20
23.3938177281
 10
12.1042200945
 20
23.3909265087
 10
12.1119582487
 20
23.3874379527
 10
12.1193158644
 20
23.3833786118
 10
12.1262369469
 20
23.3787793828
 10
12.1326688248
 20
23.3736752703
  0
LWPOLYLINE
  5
4B7
100
AcDbEntity
  8
0
100
AcDbPolyline
 62
250
  6
CONTINUOUS
 90
9
 70
0
 10
12.3213891237
 20
23.0179899586
 10
12.3002440252
 20
23.0188775916
 10
12.2799442069
 20
23.020235468
 10
12.2604844609
 20
23.0220982805
 10
12.2418699952
 20
23.0244313363
 10
12.2241164336
 20
23.0271305574
 10
12.2072285047
 20
23.0301829533
 10
12.1912014801
 20
23.0336015144
 10
12.1760367978
 20
23.0373211342
  0
LWPOLYLINE
  5
4B8
100
AcDbEntity
  8
0
100
AcDbPolyline
 62
7
  6
CONTINUOUS
 90
20
 70
0
 10
12.3189896174
 20
23.0314473857
 10
12.3044784226
 20
23.0321403543
 10
12.2905938718
 20
23.0330972198
 10
12.2773391835
 20
23.0342909176
 10
12.2647648833
 20
23.0356894597
 10
12.2528644928
 20
23.0372641554
 10
12.2415527675
 20
23.0390032036
 10
12.2308659745
 20
23.0408819159
 10
12.2207985705
 20
23.0428813222
 10
12.2112217032
 20
23.0450100658
 10
12.2021351071
 20
23.047258162
 10
12.1935980131
 20
23.0496011005
 10
12.1855975207
 20
23.0520318008
 10
12.1781376365
 20
23.0545383498
 10
12.1713163948
 20
23.0570747816
 10
12.1652783553
 20
23.0595629585
 10
12.1600421721
 20
23.0619590477
 10
12.1556709591
 20
23.0641878075
 10
12.1523377503
 20
23.0660887233
 10
12.1508459784
 20
23.0670232104
  0
LWPOLYLINE
  5
4B9
100
AcDbEntity
  8
0
100
AcDbPolyline
 62
250
  6
CONTINUOUS
 90
16
 70
0
 10
12.6248008591
 20
23.4077800703
 10
12.7108582508
 20
23.4030339553
 10
12.7941245116
 20
23.3971723347
 10
12.8745996415
 20
23.3901952087
 10
12.952277135
 20
23.3819902738
 10
13.0271634976
 20
23.3726698335
 10
13.0992782457
 20
23.3625707973
 10
13.168590032
 20
23.3517106778
 10
13.2351302038
 20
23.3400719624
 10
13.2990123193
 20
23.327939024
 10
13.3602199342
 20
23.3153297072
 10
13.4187694929
 20
23.3022261673
 10
13.4748238864
 20
23.2888592435
 10
13.5284374119
 20
23.2753058823
 10
13.5795557723
 20
23.2614891373
 10
13.6281789675
 20
23.2474090084
  0
LWPOLYLINE
  5
4BA
100
AcDbEntity
  8
0
100
AcDbPolyline
 62
250
  6
CONTINUOUS
 90
10
 70
0
 10
12.0617529439
 20
23.4165244817
 10
12.0707034703
 20
23.4158715925
 10
12.0795965773
 20
23.4144723274
 10
12.088359835
 20
23.4123380829
 10
12.0969218706
 20
23.4094862412
 10
12.1052129505
 20
23.4059400294
 10
12.1131655477
 20
23.4017283296
 10
12.1207148923
 20
23.3968854441
 10
12.1277994982
 20
23.3914508159
 10
12.1343616648
 20
23.3854687075
  0
LWPOLYLINE
  5
4BB
100
AcDbEntity
  8
ASSI
100
AcDbPolyline
 62
7
  6
CONTINUOUS
 90
4
 70
0
 10
-3.6312492756
 20
22.9735404484
 10
-3.6093612498
 20
22.9716919147
 10
-3.5866868699
 20
22.9658761844
 10
-3.5636084781
 20
22.956195557
  0
LWPOLYLINE
  5
4BC
100
AcDbEntity
  8
ASSI
100
AcDbPolyline
 62
7
  6
CONTINUOUS
 90
4
 70
0
 10
-7.3435598768
 20
24.829695749
 10
-7.3216718511
 20
24.8278472153
 10
-7.2989974711
 20
24.822031485
 10
-7.2759190793
 20
24.8123508576
  0
LWPOLYLINE
  5
4BD
100
AcDbEntity
  8
ASSI
100
AcDbPolyline
 62
250
  6
CONTINUOUS
 90
12
 70
0
 10
-11.2169054982
 20
24.7854707177
 10
-11.2078073329
 20
24.7839068893
 10
-11.1876660595
 20
24.7829485926
 10
-11.1673172828
 20
24.7853435054
 10
-11.147105325
 20
24.7910511009
 10
-11.1273721944
 20
24.7999747974
 10
-11.1084517951
 20
24.8119635927
 10
-11.0906642762
 20
24.8268146223
 10
-11.0743106165
 20
24.8442765914
 10
-11.0596675335
 20
24.8640540255
 10
-11.0469828007
 20
24.8858122699
 10
-11.0364710538
 20
24.9091831535
  0
LWPOLYLINE
  5
4BE
100
AcDbEntity
  8
ASSI
100
AcDbPolyline
 62
7
  6
CONTINUOUS
 90
5
 70
0
 10
2.6334202439
 20
23.8957328658
 10
2.5948175767
 20
23.9071336442
 10
2.5545410476
 20
23.9152382818
 10
2.5125849929
 20
23.9199987696
 10
2.471022391
 20
23.9212601691
  0
LWPOLYLINE
  5
4BF
100
AcDbEntity
  8
ASSI
100
AcDbPolyline
 62
7
  6
CONTINUOUS
 90
5
 70
0
 10
-2.9835138295
 20
26.7046191451
 10
-3.0211991419
 20
26.7160665813
 10
-3.0605681127
 20
26.7243573157
 10
-3.1016133739
 20
26.7294438587
 10
-3.1423960868
 20
26.7311564133
  0
LWPOLYLINE
  5
4C0
100
AcDbEntity
  8
RACCORDO
100
AcDbPolyline
 62
7
  6
CONTINUOUS
 90
19
 70
0
 10
-0.4765183405
 20
24.639854623
 10
-0.4803341705
 20
24.6411829204
 10
-0.4842395803
 20
24.642284921
 10
-0.4882301855
 20
24.6431595222
 10
-0.4923007931
 20
24.6438055455
 10
-0.496446157
 20
24.6442221113
 10
-0.5006616591
 20
24.6444089792
 10
-0.5049418181
 20
24.6443657992
 10
-0.5092811188
 20
24.6440925214
 10
-0.5136747678
 20
24.6435897695
 10
-0.5181170559
 20
24.6428580243
 10
-0.5226022599
 20
24.6418980638
 10
-0.5271254725
 20
24.6407113686
 10
-0.5316808198
 20
24.6392992427
 10
-0.5362624331
 20
24.6376632813
 10
-0.5408653517
 20
24.6358058049
 10
-0.5454839447
 20
24.633729088
 10
-0.5501119183
 20
24.6314353594
 10
-0.5547432877
 20
24.6289272648
  0
LWPOLYLINE
  5
4C1
100
AcDbEntity
  8
ASSI
100
AcDbPolyline
 62
7
  6
CONTINUOUS
 90
8
 70
0
 10
-11.0221581186
 20
27.6998399997
 10
-11.0433864647
 20
27.7074015268
 10
-11.0654287295
 20
27.7127802098
 10
-11.0880553908
 20
27.7158838179
 10
-11.111114494
 20
27.7166463807
 10
-11.1343765088
 20
27.7150058907
 10
-11.1574986951
 20
27.7109527673
 10
-11.1802221707
 20
27.7045208134
  0
LWPOLYLINE
  5
4C2
100
AcDbEntity
  8
RACCORDO
100
AcDbPolyline
 62
7
  6
CONTINUOUS
 90
51
 70
0
 10
-0.475633007
 20
24.6395089536
 10
-0.4862041756
 20
24.6436611991
 10
-0.5091655488
 20
24.6522758338
 10
-0.5324361508
 20
24.6604686733
 10
-0.5560021257
 20
24.668244663
 10
-0.5798574852
 20
24.6756102674
 10
-0.6039842312
 20
24.6825672758
 10
-0.6283644796
 20
24.689117825
 10
-0.6529916542
 20
24.6952663915
 10
-0.6778478696
 20
24.7010140392
 10
-0.7029157877
 20
24.706362213
 10
-0.7281889205
 20
24.7113140225
 10
-0.753649915
 20
24.7158701086
 10
-0.7792812449
 20
24.7200312635
 10
-0.8050754861
 20
24.7237993971
 10
-0.8310150903
 20
24.7271748236
 10
-0.8570829267
 20
24.7301580001
 10
-0.8832716124
 20
24.7327500564
 10
-0.9095635846
 20
24.7349511066
 10
-0.9359418654
 20
24.736761312
 10
-0.9623995407
 20
24.7381811654
 10
-0.9889193859
 20
24.7392106177
 10
-1.0154841483
 20
24.7398495333
 10
-1.0420866705
 20
24.7400977779
 10
-1.0687097689
 20
24.739955126
 10
-1.0953360901
 20
24.7394212089
 10
-1.1219582506
 20
24.7384953188
 10
-1.1485591244
 20
24.7371770284
 10
-1.1751211085
 20
24.7354657485
 10
-1.2016363763
 20
24.7333602184
 10
-1.2280876287
 20
24.7308597831
 10
-1.2544571107
 20
24.7279636213
 10
-1.2807368271
 20
24.7246698648
 10
-1.306910762
 20
24.720977334
 10
-1.3329593867
 20
24.7168851038
 10
-1.358870278
 20
24.7123913559
 10
-1.3846269958
 20
24.7074946645
 10
-1.4102100671
 20
24.7021939566
 10
-1.4356037854
 20
24.6964876744
 10
-1.4607902521
 20
24.6903744476
 10
-1.4857513296
 20
24.6838527993
 10
-1.5104725491
 20
24.676920406
 10
-1.5349360163
 20
24.6695753657
 10
-1.5591234214
 20
24.6618158104
 10
-1.5830212784
 20
24.653638254
 10
-1.6066107481
 20
24.6450402722
 10
-1.6298742105
 20
24.6360188695
 10
-1.6528017368
 20
24.6265674952
 10
-1.6753780291
 20
24.6166805462
 10
-1.6975797446
 20
24.6063558946
 10
-1.7131588461
 20
24.5987303676
  0
LWPOLYLINE
  5
4C3
100
AcDbEntity
  8
ASSI
100
AcDbPolyline
 62
250
  6
CONTINUOUS
 90
6
 70
0
 10
-3.2264480633
 20
26.6825307676
 10
-3.2491379786
 20
26.6923919906
 10
-3.2714925812
 20
26.6983556815
 10
-3.2931295257
 20
26.7003198395
 10
-3.3136787414
 20
26.6982508703
 10
-3.3343529182
 20
26.6914791948
  0
LINE
  5
4C4
100
AcDbEntity
  8
ASSI
100
AcDbLine
 62
7
  6
CONTINUOUS
 10
4.2223808812
 20
23.8081398999
 11
0.2629697589
 21
25.787845461
  0
LINE
  5
4C5
100
AcDbEntity
  8
DRAFT
100
AcDbLine
 62
7
  6
CONTINUOUS
 10
9.6022335794
 20
21.979410584
 11
10.3506526728
 21
21.6052010373
  0
LINE
  5
4C6
100
AcDbEntity
  8
ASSI
100
AcDbLine
 62
7
  6
CONTINUOUS
 10
1.9391275924
 20
25.9188276039
 11
5.2123093806
 21
24.2822367098
  0
LINE
  5
4C7
100
AcDbEntity
  8
RACCORDO
100
AcDbLine
 62
7
  6
CONTINUOUS
 10
4.727478957
 20
24.6464019704
 11
1.9373925289
 21
26.0414368823
  0
LINE
  5
4C8
100
AcDbEntity
  8
ASSI
100
AcDbLine
 62
250
  6
CONTINUOUS
 10
-1.68188863
 20
28.2536646489
 11
1.1714466524
 21
26.8269970077
  0
LINE
  5
4C9
100
AcDbEntity
  8
ASSI
100
AcDbLine
 62
250
  6
CONTINUOUS
 10
5.7974966149
 20
24.5139720264
 11
8.6508318972
 21
23.0873043853
  0
LINE
  5
4CA
100
AcDbEntity
  8
ASSI
100
AcDbLine
 62
7
  6
CONTINUOUS
 10
6.2301441206
 20
24.5374480435
 11
9.2408310431
 21
23.0321045822
  0
LINE
  5
4CB
100
AcDbEntity
  8
ASSI
100
AcDbLine
 62
7
  6
CONTINUOUS
 10
1.6086510599
 20
26.8481945528
 11
-1.4021420148
 21
28.3535911112
  0
LWPOLYLINE
  5
4CC
100
AcDbEntity
  8
RACCORDO
100
AcDbPolyline
 62
250
  6
CONTINUOUS
 90
5
 70
0
 10
19.8483153572
 20
15.7057222367
 10
19.842730162
 20
15.7089092592
 10
19.8365477667
 20
15.7125299529
 10
19.829751716
 20
15.7165932144
 10
19.8223227237
 20
15.7211166714
  0
LINE
  5
4CD
100
AcDbEntity
  8
RACCORDO
100
AcDbLine
 62
250
  6
CONTINUOUS
 10
19.8223227237
 20
15.7211166714
 11
19.8055220929
 21
15.7315343296
  0
LINE
  5
4CE
100
AcDbEntity
  8
RACCORDO
100
AcDbLine
 62
250
  6
CONTINUOUS
 10
19.6481167223
 20
15.8311623946
 11
19.5945837198
 21
15.8644154379
  0
LINE
  5
4CF
100
AcDbEntity
  8
RACCORDO
100
AcDbLine
 62
250
  6
CONTINUOUS
 10
19.6965209786
 20
15.8006843169
 11
19.6481167223
 21
15.8311623946
  0
LINE
  5
4D0
100
AcDbEntity
  8
RACCORDO
100
AcDbLine
 62
250
  6
CONTINUOUS
 10
19.8055220929
 20
15.7315343296
 11
19.7753281008
 21
15.7505942108
  0
LINE
  5
4D1
100
AcDbEntity
  8
RACCORDO
100
AcDbLine
 62
250
  6
CONTINUOUS
 10
19.7753281008
 20
15.7505942108
 11
19.6965209786
 21
15.8006843169
  0
LINE
  5
4D2
100
AcDbEntity
  8
0
100
AcDbLine
 62
7
  6
CONTINUOUS
 10
11.3986600947
 20
22.4792697358
 11
11.5422867222
 21
22.3466281371
  0
LINE
  5
4D3
100
AcDbEntity
  8
0
100
AcDbLine
 62
250
  6
CONTINUOUS
 10
12.1389293235
 20
23.0783386967
 11
12.1362176283
 21
23.0820756379
  0
LINE
  5
4D4
100
AcDbEntity
  8
ASSI
100
AcDbLine
 62
7
  6
CONTINUOUS
 10
0.2629697589
 20
25.787845461
 11
1.8802421936
 21
25.8698904409
  0
LWPOLYLINE
  5
4D5
100
AcDbEntity
  8
ASSI
100
AcDbPolyline
 62
7
  6
CONTINUOUS
 90
5
 70
0
 10
-3.1423960868
 20
26.7311564133
 10
-3.1829836658
 20
26.7296139048
 10
-3.2235673108
 20
26.7247476614
 10
-3.2623349047
 20
26.7167395403
 10
-3.2988916818
 20
26.7057936964
  0
LWPOLYLINE
  5
4D6
100
AcDbEntity
  8
RACCORDO
100
AcDbPolyline
 62
7
  6
CONTINUOUS
 90
9
 70
0
 10
13.7508007152
 20
23.2641058662
 10
13.7414801963
 20
23.2665510518
 10
13.7268334739
 20
23.2688550083
 10
13.7113898299
 20
23.2694849101
 10
13.6952747779
 20
23.268439031
 10
13.6788648587
 20
23.2657121927
 10
13.6622855859
 20
23.261302669
 10
13.6454114459
 20
23.2552121861
 10
13.6282424386
 20
23.2474407439
  0
LINE
  5
4D7
100
AcDbEntity
  8
0
100
AcDbLine
 62
7
  6
CONTINUOUS
 10
12.3433795029
 20
22.6050092761
 11
11.8936348415
 21
22.7267571093
  0
LWPOLYLINE
  5
4D8
100
AcDbEntity
  8
0
100
AcDbPolyline
 62
250
  6
CONTINUOUS
 90
16
 70
0
 10
12.1760367978
 20
23.0373211342
 10
12.1617159352
 20
23.0413399791
 10
12.1482574149
 20
23.0456598825
 10
12.135718243
 20
23.0502212383
 10
12.1240927476
 20
23.0550281905
 10
12.1133866007
 20
23.0600765951
 10
12.1036738234
 20
23.0652944135
 10
12.0949681631
 20
23.0706817502
 10
12.0872558724
 20
23.0762385008
 10
12.0805697312
 20
23.081892313
 10
12.0749247189
 20
23.0876241607
 10
12.070305856
 20
23.0934530701
 10
12.0667009832
 20
23.0993637668
 10
12.0641060475
 20
23.1053511593
 10
12.062525102
 20
23.1114203391
 10
12.0619581467
 20
23.1175713063
  0
LWPOLYLINE
  5
4D9
100
AcDbEntity
  8
RACCORDO
100
AcDbPolyline
 62
7
  6
CONTINUOUS
 90
10
 70
0
 10
13.7507904587
 20
23.2640816626
 10
13.6276845888
 20
23.2994269082
 10
13.4962793866
 20
23.3324218599
 10
13.3620848889
 20
23.3614617545
 10
13.2255227877
 20
23.386511881
 10
13.0869500495
 20
23.4075567705
 10
12.9466684522
 20
23.4245890637
 10
12.805085278
 20
23.4375893816
 10
12.6625853107
 20
23.4465482495
 10
12.6248541255
 20
23.4482387979
  0
LWPOLYLINE
  5
4DA
100
AcDbEntity
  8
RACCORDO
100
AcDbPolyline
 62
7
  6
CONTINUOUS
 90
3
 70
0
 10
13.768759417
 20
23.2569157964
 10
13.7554555106
 20
23.2625713146
 10
13.7508007152
 20
23.2641058662
  0
LWPOLYLINE
  5
4DB
100
AcDbEntity
  8
ASSI
100
AcDbPolyline
 62
250
  6
CONTINUOUS
 90
10
 70
0
 10
1.6085435791
 20
26.8482483142
 10
1.5654826114
 20
26.8665901492
 10
1.5211240246
 20
26.879485446
 10
1.4748418143
 20
26.8872967598
 10
1.4268881439
 20
26.8899820818
 10
1.377522741
 20
26.8875281058
 10
1.3270180588
 20
26.8799469731
 10
1.2756504757
 20
26.8672800352
 10
1.2236988138
 20
26.8495977112
 10
1.1714466524
 20
26.8269970077
  0
LWPOLYLINE
  5
4DC
100
AcDbEntity
  8
ASSI
100
AcDbPolyline
 62
7
  6
CONTINUOUS
 90
8
 70
0
 10
6.2310587825
 20
24.536987693
 10
6.1979254847
 20
24.5521315513
 10
6.1493243491
 20
24.5692987729
 10
6.0981614329
 20
24.5815998303
 10
6.044856272
 20
24.5887466411
 10
5.990014289
 20
24.5905276733
 10
5.9339856763
 20
24.5868648213
 10
5.8770213879
 20
24.5777269705
  0
LWPOLYLINE
  5
4DD
100
AcDbEntity
  8
RACCORDO
100
AcDbPolyline
 62
250
  6
CONTINUOUS
 90
25
 70
0
 10
6.3927524486
 20
24.5938271871
 10
6.3736105125
 20
24.6033974301
 10
6.3544737393
 20
24.6122984318
 10
6.3353566555
 20
24.6205234356
 10
6.3162737728
 20
24.6280661979
 10
6.2972395767
 20
24.6349209932
 10
6.2782685161
 20
24.6410826179
 10
6.2593749917
 20
24.6465463949
 10
6.2405733454
 20
24.6513081767
 10
6.2218778494
 20
24.6553643486
 10
6.2033026953
 20
24.6587118317
 10
6.1848619833
 20
24.661348085
 10
6.1665697116
 20
24.6632711072
 10
6.1484397658
 20
24.6644794387
 10
6.1304859081
 20
24.6649721623
 10
6.1127217672
 20
24.6647489038
 10
6.0951608276
 20
24.6638098329
 10
6.0778164198
 20
24.6621556624
 10
6.0607017096
 20
24.659787648
 10
6.0438296888
 20
24.6567075872
 10
6.0272131648
 20
24.652917818
 10
6.0108647509
 20
24.6484212174
 10
5.9947968572
 20
24.6432211986
 10
5.9790216806
 20
24.637321709
 10
5.9635511959
 20
24.6307272268
  0
LINE
  5
4DE
100
AcDbEntity
  8
0
100
AcDbLine
 62
7
  6
CONTINUOUS
 10
11.3986600947
 20
22.4792697358
 11
10.6916911546
 21
22.8327542059
  0
LINE
  5
4DF
100
AcDbEntity
  8
0
100
AcDbLine
 62
7
  6
CONTINUOUS
 10
11.8936348415
 20
22.7267571093
 11
11.1866659014
 21
23.0802415793
  0
LINE
  5
4E0
100
AcDbEntity
  8
DRAFT
100
AcDbLine
 62
7
  6
CONTINUOUS
 10
10.4215892978
 20
23.8049918837
 11
10.855460451
 21
23.5880563071
  0
LWPOLYLINE
  5
4E1
100
AcDbEntity
  8
RACCORDO
100
AcDbPolyline
 62
7
  6
CONTINUOUS
 90
10
 70
0
 10
14.5334620434
 20
22.8685977734
 10
14.4420467336
 20
22.9155163856
 10
14.3522521097
 20
22.9614932207
 10
14.2640781714
 20
23.0065282787
 10
14.1775363828
 20
23.0506232452
 10
14.09261528
 20
23.0937764346
 10
14.0092804711
 20
23.13598279
 10
13.9275204924
 20
23.177240626
 10
13.8473468077
 20
23.2175516282
 10
13.768759417
 20
23.2569157964
  0
LWPOLYLINE
  5
4E2
100
AcDbEntity
  8
RACCORDO
100
AcDbPolyline
 62
250
  6
CONTINUOUS
 90
22
 70
0
 10
19.9617690004
 20
19.3283945227
 10
19.9529581212
 20
19.3336101488
 10
19.9444222652
 20
19.3389500615
 10
19.9361739672
 20
19.3444064191
 10
19.9282253402
 20
19.3499712088
 10
19.9205880568
 20
19.3556362586
 10
19.9132733326
 20
19.3613932492
 10
19.9062919094
 20
19.3672337265
 10
19.8996540396
 20
19.3731491135
 10
19.893369471
 20
19.3791307234
 10
19.8874474326
 20
19.385169772
 10
19.8818966212
 20
19.3912573909
 10
19.8767251881
 20
19.3973846403
 10
19.8719407278
 20
19.4035425222
 10
19.8675502663
 20
19.4097219937
 10
19.8635602511
 20
19.41591398
 10
19.8599765417
 20
19.4221093881
 10
19.8568044007
 20
19.4282991198
 10
19.8540484866
 20
19.4344740856
 10
19.8517128465
 20
19.4406252172
 10
19.8498009103
 20
19.4467434817
 10
19.8483154857
 20
19.4528198942
  0
LWPOLYLINE
  5
4E3
100
AcDbEntity
  8
0
100
AcDbPolyline
 62
250
  6
CONTINUOUS
 90
8
 70
0
 10
12.5498089521
 20
23.4189269604
 10
12.550349392
 20
23.4185902369
 10
12.5508778021
 20
23.4167747052
 10
12.551434893
 20
23.4135267278
 10
12.5520149906
 20
23.4088666743
 10
12.5526162034
 20
23.4028267479
 10
12.5532404229
 20
23.3954446661
 10
12.553887649
 20
23.3867644403
  0
LWPOLYLINE
  5
4E4
100
AcDbEntity
  8
0
100
AcDbPolyline
 62
7
  6
CONTINUOUS
 90
4
 70
0
 10
12.1508459784
 20
23.0670232104
 10
12.1500456488
 20
23.0675555587
 10
12.1487420471
 20
23.0684949997
 10
12.1484041736
 20
23.0687662447
  0
LWPOLYLINE
  5
4E5
100
AcDbEntity
  8
0
100
AcDbPolyline
 62
250
  6
CONTINUOUS
 90
16
 70
0
 10
12.2726688248
 20
23.2656962817
 10
12.2804474637
 20
23.2596307108
 10
12.2889155992
 20
23.2543025237
 10
12.2979804526
 20
23.2497700969
 10
12.3075427076
 20
23.2460830888
 10
12.3174975981
 20
23.243281895
 10
12.3277360561
 20
23.2413972059
 10
12.338145907
 20
23.2404496707
 10
12.3486130983
 20
23.2404496706
 10
12.3590229493
 20
23.2413972058
 10
12.3692614073
 20
23.2432818949
 10
12.3792162978
 20
23.2460830887
 10
12.3887785529
 20
23.2497700968
 10
12.3978434064
 20
23.2543025235
 10
12.406311542
 20
23.2596307108
 10
12.4140901811
 20
23.2656962817
  0
LWPOLYLINE
  5
4E6
100
AcDbEntity
  8
0
100
AcDbPolyline
 62
250
  6
CONTINUOUS
 90
3
 70
0
 10
14.4767042029
 20
22.8231434887
 10
14.5048578576
 20
22.7988398061
 10
14.5089321428
 20
22.7950716448
  0
LINE
  5
4E7
100
AcDbEntity
  8
0
100
AcDbLine
 62
250
  6
CONTINUOUS
 10
12.1326688248
 20
23.0922011923
 11
12.1746715911
 21
23.0558271749
  0
LINE
  5
4E8
100
AcDbEntity
  8
0
100
AcDbLine
 62
250
  6
CONTINUOUS
 10
12.2726688248
 20
23.2656962817
 11
12.1343646024
 21
23.3854712517
  0
LWPOLYLINE
  5
4E9
100
AcDbEntity
  8
0
100
AcDbPolyline
 62
250
  6
CONTINUOUS
 90
4
 70
0
 10
12.1483873208
 20
23.0687803166
 10
12.1466384901
 20
23.0703287352
 10
12.1423988926
 20
23.0744270283
 10
12.1389293235
 20
23.0783386967
  0
LWPOLYLINE
  5
4EA
100
AcDbEntity
  8
0
100
AcDbPolyline
 62
7
  6
CONTINUOUS
 90
9
 70
0
 10
12.1454596605
 20
23.4104098054
 10
12.1382906263
 20
23.4169428058
 10
12.1291958197
 20
23.4236779726
 10
12.1192481795
 20
23.4294591884
 10
12.1086777318
 20
23.4341025388
 10
12.097647451
 20
23.4375247154
 10
12.0862557549
 20
23.4396843218
 10
12.0746856867
 20
23.4405366249
 10
12.0658901608
 20
23.440302924
  0
LWPOLYLINE
  5
4EB
100
AcDbEntity
  8
RACCORDO
100
AcDbPolyline
 62
7
  6
CONTINUOUS
 90
4
 70
0
 10
14.5646966231
 20
22.8450259337
 10
14.5559006702
 20
22.8534878017
 10
14.545122215
 20
22.8616980737
 10
14.5334620434
 20
22.8685977734
  0
LINE
  5
4EC
100
AcDbEntity
  8
0
100
AcDbLine
 62
7
  6
CONTINUOUS
 10
12.2726688248
 20
23.283208192
 11
12.1453648795
 21
23.4105121373
  0
LINE
  5
4ED
100
AcDbEntity
  8
RACCORDO
100
AcDbLine
 62
7
  6
CONTINUOUS
 10
21.5461573681
 20
19.5209364834
 11
21.5469218006
 21
19.518784475
  0
LWPOLYLINE
  5
4EE
100
AcDbEntity
  8
RACCORDO
100
AcDbPolyline
 62
7
  6
CONTINUOUS
 90
46
 70
0
 10
21.5469218006
 20
19.518784475
 10
21.5655003549
 20
19.4651755958
 10
21.5833131903
 20
19.4114433494
 10
21.600351681
 20
19.3576103554
 10
21.6166084556
 20
19.3036960283
 10
21.6320772112
 20
19.2497163731
 10
21.64675121
 20
19.1956887028
 10
21.6606218592
 20
19.1416377195
 10
21.6736805039
 20
19.0875902134
 10
21.6859187805
 20
19.0335741626
 10
21.6973318169
 20
18.9796034877
 10
21.7079161312
 20
18.9256835504
 10
21.717666462
 20
18.871825622
 10
21.7265740771
 20
18.8180603716
 10
21.7346305593
 20
18.7644217669
 10
21.7418298236
 20
18.7109332818
 10
21.7481667531
 20
18.6576128755
 10
21.7536355771
 20
18.6044854869
 10
21.7582309638
 20
18.5515762862
 10
21.7619486552
 20
18.4989009532
 10
21.7647845123
 20
18.4464696005
 10
21.766734064
 20
18.394285849
 10
21.7677914527
 20
18.3423870653
 10
21.7679522571
 20
18.2908326384
 10
21.7672143793
 20
18.23965636
 10
21.7655757164
 20
18.1888628078
 10
21.7630338423
 20
18.1384660001
 10
21.7595859826
 20
18.0884783567
 10
21.7552303028
 20
18.0389256194
 10
21.7499664647
 20
17.9898406705
 10
21.7437910297
 20
17.9412245429
 10
21.7367047867
 20
17.8931131723
 10
21.7287183169
 20
17.8455884712
 10
21.7198393468
 20
17.7986898974
 10
21.7100671799
 20
17.7524088512
 10
21.6994030415
 20
17.7067525226
 10
21.6878439733
 20
17.6617147599
 10
21.6753979924
 20
17.6173335299
 10
21.662085835
 20
17.5736795853
 10
21.6479164055
 20
17.5307721099
 10
21.6328947163
 20
17.4886173858
 10
21.6170414509
 20
17.4472622961
 10
21.6003702209
 20
17.4067274054
 10
21.5828869296
 20
17.3670132392
 10
21.5646034937
 20
17.3281345516
 10
21.5461573681
 20
17.2913518935
  0
LINE
  5
4EF
100
AcDbEntity
  8
DRAFT
100
AcDbLine
 62
7
  6
CONTINUOUS
 10
14.3951870176
 20
25.7874556613
 11
17.5045167379
 21
24.2327908012
  0
LWPOLYLINE
  5
4F0
100
AcDbEntity
  8
RACCORDO
100
AcDbPolyline
 62
7
  6
CONTINUOUS
 90
44
 70
0
 10
19.8752439195
 20
21.7511229314
 10
19.8983207836
 20
21.7390446828
 10
19.9440700842
 20
21.7138989601
 10
19.9896935591
 20
21.6876203786
 10
20.035115959
 20
21.6602563027
 10
20.0802846543
 20
21.631846094
 10
20.125222
 20
21.6023831327
 10
20.1699646007
 20
21.5718470697
 10
20.2145407109
 20
21.5402181764
 10
20.2588895883
 20
21.5075389005
 10
20.3029143209
 20
21.4738849599
 10
20.3465603657
 20
21.4393071919
 10
20.3898535658
 20
21.4037940833
 10
20.4328177852
 20
21.3673315286
 10
20.4754582093
 20
21.3299178955
 10
20.5177388942
 20
21.2915873132
 10
20.5596213299
 20
21.2523790439
 10
20.6010849247
 20
21.2123178727
 10
20.6421214444
 20
21.1714171115
 10
20.6827113815
 20
21.1297013747
 10
20.7228320926
 20
21.0871996159
 10
20.7624784322
 20
21.0439228326
 10
20.8016564524
 20
20.9998684329
 10
20.840366372
 20
20.9550383104
 10
20.8785789374
 20
20.9094683317
 10
20.9162561152
 20
20.8632077167
 10
20.953369398
 20
20.8162973287
 10
20.9899217432
 20
20.7687391856
 10
21.0259223195
 20
20.7205248871
 10
21.0613685139
 20
20.6716594063
 10
21.0962356007
 20
20.6221781535
 10
21.1304992093
 20
20.5721182597
 10
21.1641417858
 20
20.5215088276
 10
21.197156191
 20
20.4703639363
 10
21.2295341825
 20
20.4186989603
 10
21.2612633716
 20
20.3665358804
 10
21.292331986
 20
20.3138961262
 10
21.3227324255
 20
20.2607941635
 10
21.352454549
 20
20.207248661
 10
21.3814848843
 20
20.1532846793
 10
21.4098108997
 20
20.0989263785
 10
21.4374210723
 20
20.0441966968
 10
21.4643048181
 20
19.9891172616
 10
21.4904514044
 20
19.9337104862
  0
LWPOLYLINE
  5
4F1
100
AcDbEntity
  8
RACCORDO
100
AcDbPolyline
 62
250
  6
CONTINUOUS
 90
43
 70
0
 10
19.8752439195
 20
21.6827106005
 10
19.8859982465
 20
21.676395191
 10
19.9294705661
 20
21.6497519829
 10
19.9728501976
 20
21.6220493194
 10
20.016118391
 20
21.5932991747
 10
20.0592564445
 20
21.5635139753
 10
20.1022457125
 20
21.5327065954
 10
20.1450676138
 20
21.5008903507
 10
20.1877036394
 20
21.4680789934
 10
20.2301353606
 20
21.4342867053
 10
20.2723444374
 20
21.3995280926
 10
20.3143126255
 20
21.363818179
 10
20.3560217851
 20
21.3271723995
 10
20.3974538883
 20
21.2896065933
 10
20.4385910267
 20
21.2511369977
 10
20.4794154197
 20
21.2117802403
 10
20.5199094217
 20
21.1715533324
 10
20.5600555301
 20
21.1304736611
 10
20.5998363924
 20
21.0885589825
 10
20.6392348141
 20
21.0458274133
 10
20.678233766
 20
21.0022974233
 10
20.7168163917
 20
20.9579878276
 10
20.7549660145
 20
20.9129177781
 10
20.792666145
 20
20.8671067555
 10
20.8299004881
 20
20.8205745606
 10
20.8666529499
 20
20.7733413062
 10
20.9029076449
 20
20.7254274078
 10
20.9386489028
 20
20.6768535753
 10
20.9738612751
 20
20.6276408036
 10
21.008529542
 20
20.5778103642
 10
21.0426387185
 20
20.5273837954
 10
21.0761740617
 20
20.4763828933
 10
21.1091210766
 20
20.424829702
 10
21.1414655228
 20
20.3727465037
 10
21.1731934208
 20
20.3201558092
 10
21.204291056
 20
20.2670803509
 10
21.2347449856
 20
20.2135430727
 10
21.2645420467
 20
20.1595671125
 10
21.2936693598
 20
20.1051758029
 10
21.3221143335
 20
20.0503926636
 10
21.3498646726
 20
19.9952413771
 10
21.3769083837
 20
19.9397457784
 10
21.4032337783
 20
19.8839298545
  0
LINE
  5
4F2
100
AcDbEntity
  8
RACCORDO
100
AcDbLine
 62
250
  6
CONTINUOUS
 10
19.1804332441
 20
23.472460147
 11
18.8375356682
 21
24.0638709826
  0
LINE
  5
4F3
100
AcDbEntity
  8
RACCORDO
100
AcDbLine
 62
7
  6
CONTINUOUS
 10
19.5332764929
 20
23.6055585045
 11
19.2702295566
 21
24.0592473588
  0
LWPOLYLINE
  5
4F4
100
AcDbEntity
  8
RACCORDO
100
AcDbPolyline
 62
250
  6
CONTINUOUS
 90
22
 70
0
 10
21.4032338569
 20
19.8839298862
 10
21.4090887451
 20
19.8699077105
 10
21.414662113
 20
19.8557838914
 10
21.4199490596
 20
19.8415715718
 10
21.4249452316
 20
19.8272841336
 10
21.4296460008
 20
19.8129347272
 10
21.4340464604
 20
19.7985362579
 10
21.438142846
 20
19.784102077
 10
21.4419316122
 20
19.7696456963
 10
21.4454086102
 20
19.755180317
 10
21.4485709317
 20
19.7407194839
 10
21.4514159439
 20
19.7262766277
 10
21.4539403584
 20
19.7118647786
 10
21.4561421786
 20
19.6974973076
 10
21.4580196454
 20
19.6831877071
 10
21.4595702915
 20
19.6689491317
 10
21.4607930091
 20
19.6547950681
 10
21.4616870229
 20
19.6407385456
 10
21.4622508133
 20
19.6267919242
 10
21.4624838308
 20
19.6129679905
 10
21.462386524
 20
19.5992799367
 10
21.4619593082
 20
19.5857405743
  0
LWPOLYLINE
  5
4F5
100
AcDbEntity
  8
RACCORDO
100
AcDbPolyline
 62
250
  6
CONTINUOUS
 90
25
 70
0
 10
12.7386609061
 20
27.3530103368
 10
12.7234132045
 20
27.3598161609
 10
12.7078501315
 20
27.3659500926
 10
12.6919832441
 20
27.3714075769
 10
12.6758243253
 20
27.376184561
 10
12.6593853748
 20
27.3802774974
 10
12.6426786003
 20
27.3836833469
 10
12.6257164082
 20
27.38639958
 10
12.6085113948
 20
27.3884241799
 10
12.5910763366
 20
27.3897556429
 10
12.573424181
 20
27.3903929804
 10
12.5555680367
 20
27.3903357189
 10
12.5375211635
 20
27.3895839012
 10
12.5192969634
 20
27.3881380854
 10
12.5009089695
 20
27.3859993453
 10
12.4823708371
 20
27.383169269
 10
12.4636963326
 20
27.3796499582
 10
12.4448993237
 20
27.3754440264
 10
12.4259937694
 20
27.370554597
 10
12.4069937088
 20
27.3649853007
 10
12.3879132516
 20
27.3587402735
 10
12.368766567
 20
27.3518241529
 10
12.3495678735
 20
27.3442420748
 10
12.3303314281
 20
27.3359996698
 10
12.3110715159
 20
27.3271030587
  0
LINE
  5
4F6
100
AcDbEntity
  8
0
100
AcDbLine
 62
250
  6
CONTINUOUS
 10
18.8375356682
 20
24.0638709826
 11
18.0122892005
 21
24.4764942164
  0
LWPOLYLINE
  5
4F7
100
AcDbEntity
  8
RACCORDO
100
AcDbPolyline
 62
250
  6
CONTINUOUS
 90
26
 70
0
 10
13.3518380177
 20
26.8067198078
 10
12.2919295836
 20
27.3366732999
 10
12.272792814
 20
27.3455743001
 10
12.2536757338
 20
27.3537993027
 10
12.2345928545
 20
27.3613420641
 10
12.2155586617
 20
27.3681968587
 10
12.1965876042
 20
27.3743584831
 10
12.1776940828
 20
27.37982226
 10
12.1588924393
 20
27.384584042
 10
12.1401969459
 20
27.3886402144
 10
12.1216217942
 20
27.3919876982
 10
12.1031810844
 20
27.3946239524
 10
12.0848888148
 20
27.3965469757
 10
12.0667588708
 20
27.3977553086
 10
12.0488050147
 20
27.3982480336
 10
12.0310408752
 20
27.3980247768
 10
12.0134799368
 20
27.3970857077
 10
11.9961355299
 20
27.395431539
 10
11.9790208205
 20
27.3930635266
 10
11.9621488003
 20
27.3899834678
 10
11.9455322765
 20
27.3861937008
 10
11.9291838628
 20
27.3816971024
 10
11.913115969
 20
27.3764970858
 10
11.8973407922
 20
27.3705975983
 10
11.8818703071
 20
27.3640031183
 10
11.8794520908
 20
27.3628967651
  0
LINE
  5
4F8
100
AcDbEntity
  8
RACCORDO
100
AcDbLine
 62
7
  6
CONTINUOUS
 10
19.2063277412
 20
24.119274716
 11
18.358780133
 21
24.5430485201
  0
LINE
  5
4F9
100
AcDbEntity
  8
RACCORDO
100
AcDbLine
 62
7
  6
CONTINUOUS
 10
13.8750928463
 20
26.7848921634
 11
12.7459443964
 21
27.3494663884
  0
LWPOLYLINE
  5
4FA
100
AcDbEntity
  8
RACCORDO
100
AcDbPolyline
 62
7
  6
CONTINUOUS
 90
12
 70
0
 10
19.2064469908
 20
24.1192150905
 10
19.2123679574
 20
24.1161000064
 10
19.2195339356
 20
24.1118875873
 10
19.2263917051
 20
24.1073469585
 10
19.2329375479
 20
24.1024826667
 10
19.2391745827
 20
24.0972959843
 10
19.2450992067
 20
24.0917917638
 10
19.2507080666
 20
24.0859749213
 10
19.2560048182
 20
24.0798469595
 10
19.2609862449
 20
24.0734130686
 10
19.2656493565
 20
24.0666785008
 10
19.2702260566
 20
24.0592536159
  0
ARC
  5
4FB
100
AcDbEntity
  8
0
100
AcDbCircle
 62
7
  6
CONTINUOUS
 10
12.3433795029
 20
23.3539188701
 40
0.1
100
AcDbArc
 50
224.9999999475
 51
315.000000007
  0
ELLIPSE
  5
4FC
100
AcDbEntity
  8
RACCORDO
100
AcDbEllipse
 62
7
  6
CONTINUOUS
 10
-0.2991241119
 20
-21.6492496617
 30
0.0
 11
-0.1999840611
 21
0.4586318226
 31
0.0
 40
0.6372798266
 41
-3.1718451134
 42
-2.2231487507
  0
ELLIPSE
  5
4FD
100
AcDbEntity
  8
RACCORDO
100
AcDbEllipse
 62
7
  6
CONTINUOUS
 10
1.2995703353
 20
16.5108262918
 30
0.0
 11
-0.1996736685
 21
0.4584064956
 31
0.0
 40
0.6381227599
 41
-2.2220345828
 42
-0.6519234887
  0
ELLIPSE
  5
4FE
100
AcDbEntity
  8
RACCORDO
100
AcDbEllipse
 62
7
  6
CONTINUOUS
 10
-13.5494296787
 20
23.9353262988
 30
0.0
 11
-0.1999840611
 21
0.4586318226
 31
0.0
 40
0.6372798266
 41
-0.6516671913
 42
0.029873806
  0
ELLIPSE
  5
4FF
100
AcDbEntity
  8
DRAFT
100
AcDbEllipse
 62
7
  6
CONTINUOUS
 10
12.1341889882
 20
22.717133103
 30
0.0
 11
2.7499831596
 21
-0.0194567514
 31
0.0
 40
0.4946372042
 41
2.368420792
 42
2.9397220933
  0
ELLIPSE
  5
500
100
AcDbEntity
  8
0
100
AcDbEllipse
 62
7
  6
CONTINUOUS
 10
17.5916391344
 20
23.8085850306
 30
0.0
 11
0.79574694
 21
0.7129684349
 31
0.0
 40
0.2882345029
 41
0.1136090155
 42
0.7807533904
  0
ELLIPSE
  5
501
100
AcDbEntity
  8
DRAFT
100
AcDbEllipse
 62
7
  6
CONTINUOUS
 10
12.8059404303
 20
22.6128163174
 30
0.0
 11
2.7583783481
 21
-0.0195161492
 31
0.0
 40
0.4946372042
 41
0.4406346392
 42
2.3596941457
  0
ELLIPSE
  5
502
100
AcDbEntity
  8
0
100
AcDbEllipse
 62
7
  6
CONTINUOUS
 10
13.6942510638
 20
25.7572790659
 30
0.0
 11
0.4410298232
 21
0.8975092442
 31
0.0
 40
0.607010042
 41
-0.8902711325
 42
-0.7587130969
  0
ELLIPSE
  5
503
100
AcDbEntity
  8
RACCORDO
100
AcDbEllipse
 62
7
  6
CONTINUOUS
 10
120.4211498856
 20
69.5516766853
 30
0.0
 11
111.4440378013
 21
57.7233873698
 31
0.0
 40
0.017156689
 41
2.654821495
 42
3.6105913739
  0
ELLIPSE
  5
504
100
AcDbEntity
  8
RACCORDO
100
AcDbEllipse
 62
7
  6
CONTINUOUS
 10
3.5779815115
 20
15.3189261825
 30
0.0
 11
-0.894612936
 21
1.7887945813
 31
0.0
 40
0.6124635976
 41
4.1145380117
 42
4.2145400133
  0
ELLIPSE
  5
505
100
AcDbEntity
  8
RACCORDO
100
AcDbEllipse
 62
7
  6
CONTINUOUS
 10
3.5779815115
 20
15.3189261825
 30
0.0
 11
-0.894612936
 21
1.7887945813
 31
0.0
 40
0.6124635976
 41
-1.6019535362
 42
-1.470288718
  0
ELLIPSE
  5
506
100
AcDbEntity
  8
RACCORDO
100
AcDbEllipse
 62
7
  6
CONTINUOUS
 10
3.5779815115
 20
-15.288917315
 30
0.0
 11
-0.894811907
 21
1.788971565
 31
0.0
 40
0.6123121697
 41
-3.0410143285
 42
-2.9093495103
  0
ELLIPSE
  5
507
100
AcDbEntity
  8
RACCORDO
100
AcDbEllipse
 62
7
  6
CONTINUOUS
 10
3.5779815115
 20
-15.288917315
 30
0.0
 11
-0.894811907
 21
1.788971565
 31
0.0
 40
0.6123121697
 41
-2.4426577527
 42
-2.3910229063
  0
ELLIPSE
  5
508
100
AcDbEntity
  8
0
100
AcDbEllipse
 62
7
  6
CONTINUOUS
 10
13.7478066539
 20
25.7305012709
 30
0.0
 11
-0.3106730325
 21
1.1082908718
 31
0.0
 40
0.6760995073
 41
4.9783291412
 42
6.4001141399
  0
ELLIPSE
  5
509
100
AcDbEntity
  8
0
100
AcDbEllipse
 62
7
  6
CONTINUOUS
 10
12.1106559
 20
23.9322527161
 30
0.0
 11
3.3022643479
 21
-0.04629945
 31
0.0
 40
0.4892378494
 41
2.3616770883
 42
5.5059722822
  0
ELLIPSE
  5
50A
100
AcDbEntity
  8
DRAFT
100
AcDbEllipse
 62
7
  6
CONTINUOUS
 10
12.8059404303
 20
23.0366335714
 30
0.0
 11
2.7583876426
 21
-0.0130411979
 31
0.0
 40
0.4964289597
 41
0.1874063655
 42
2.3585415194
  0
ELLIPSE
  5
50B
100
AcDbEntity
  8
ASSI
100
AcDbEllipse
 62
7
  6
CONTINUOUS
 10
3.9193538756
 20
-19.8135623827
 30
0.0
 11
-0.2237009107
 21
0.4473351135
 31
0.0
 40
0.6121897086
 41
-3.1230684064
 42
-2.2557347926
  0
ELLIPSE
  5
50C
100
AcDbEntity
  8
ASSI
100
AcDbEllipse
 62
7
  6
CONTINUOUS
 10
3.9193538756
 20
18.0879853238
 30
0.0
 11
-0.2235807756
 21
0.4472283268
 31
0.0
 40
0.6125552124
 41
-2.255296188
 42
-0.6848044477
  0
ELLIPSE
  5
50D
100
AcDbEntity
  8
ASSI
100
AcDbEllipse
 62
7
  6
CONTINUOUS
 10
0.4929985636
 20
18.3262611324
 30
0.0
 11
0.2497264901
 21
-0.0900037588
 31
0.0
 40
0.1298948903
 41
-2.3094133153
 42
-0.756070281
  0
ELLIPSE
  5
50E
100
AcDbEntity
  8
ASSI
100
AcDbEllipse
 62
7
  6
CONTINUOUS
 10
0.2994342775
 20
18.4230432755
 30
0.0
 11
0.2497264901
 21
-0.0900037588
 31
0.0
 40
0.1298948903
 41
-3.0936186356
 42
-2.3094133153
  0
ELLIPSE
  5
50F
100
AcDbEntity
  8
ASSI
100
AcDbEllipse
 62
7
  6
CONTINUOUS
 10
-12.0935021416
 20
24.619511485
 30
0.0
 11
0.2497264901
 21
-0.0900037588
 31
0.0
 40
0.1298948903
 41
-2.3094133153
 42
-0.756070281
  0
ELLIPSE
  5
510
100
AcDbEntity
  8
ASSI
100
AcDbEllipse
 62
7
  6
CONTINUOUS
 10
-12.2870664277
 20
24.716293628
 30
0.0
 11
0.2497264901
 21
-0.0900037588
 31
0.0
 40
0.1298948903
 41
-3.0936186356
 42
-2.3094133153
  0
ELLIPSE
  5
511
100
AcDbEntity
  8
ASSI
100
AcDbEllipse
 62
7
  6
CONTINUOUS
 10
0.2994342775
 20
-21.1248948141
 30
0.0
 11
0.220014872
 21
0.1791173313
 31
0.0
 40
0.6627826692
 41
1.8788389155
 42
2.1051342455
  0
ELLIPSE
  5
512
100
AcDbEntity
  8
ASSI
100
AcDbEllipse
 62
7
  6
CONTINUOUS
 10
9.1699933209
 20
21.9494894546
 30
0.0
 11
0.4349639225
 21
0.9005141702
 31
0.0
 40
0.6016116119
 41
-0.8943064336
 42
-0.6381625531
  0
ELLIPSE
  5
513
100
AcDbEntity
  8
ASSI
100
AcDbEllipse
 62
7
  6
CONTINUOUS
 10
9.1699933209
 20
-14.7835703351
 30
0.0
 11
0.4349639225
 21
0.9005141702
 31
0.0
 40
0.6016116119
 41
-1.150450314
 42
-0.9391738336
  0
ELLIPSE
  5
514
100
AcDbEntity
  8
ASSI
100
AcDbEllipse
 62
7
  6
CONTINUOUS
 10
9.3456425725
 20
-14.8713949609
 30
0.0
 11
0.9927147821
 21
0.620457446
 31
0.0
 40
0.0764819879
 41
-2.3927159682
 42
-1.0955168143
  0
ELLIPSE
  5
515
100
AcDbEntity
  8
ASSI
100
AcDbEllipse
 62
7
  6
CONTINUOUS
 10
-2.4013807352
 20
27.7351764826
 30
0.0
 11
1.004787277
 21
0.6140102217
 31
0.0
 40
0.0864918533
 41
0.0543763766
 42
0.7212730538
  0
ELLIPSE
  5
516
100
AcDbEntity
  8
ASSI
100
AcDbEllipse
 62
7
  6
CONTINUOUS
 10
-4.390762925
 20
23.8083770171
 30
0.0
 11
-0.1172693628
 21
0.2208586762
 31
0.0
 40
0.5994421146
 41
-2.2699607138
 42
-0.6994689735
  0
ELLIPSE
  5
517
100
AcDbEntity
  8
ASSI
100
AcDbEllipse
 62
7
  6
CONTINUOUS
 10
4.7567812895
 20
74.6937852614
 30
0.0
 11
3.5378457856
 21
99.5794032239
 31
0.0
 40
0.0069684374
 41
4.1704972465
 42
4.1714623644
  0
ELLIPSE
  5
518
100
AcDbEntity
  8
ASSI
100
AcDbEllipse
 62
7
  6
CONTINUOUS
 10
-2.8824140611
 20
23.0542025852
 30
0.0
 11
-0.1174113663
 21
0.2209958577
 31
0.0
 40
0.5985429242
 41
-0.6989839728
 42
-0.0337839605
  0
ELLIPSE
  5
519
100
AcDbEntity
  8
ASSI
100
AcDbEllipse
 62
7
  6
CONTINUOUS
 10
2.5659468495
 20
23.4598953766
 30
0.0
 11
1.000203771
 21
-0.0143477891
 31
0.0
 40
0.4891226537
 41
-0.7775824994
 42
-0.0140546088
  0
ELLIPSE
  5
51A
100
AcDbEntity
  8
0
100
AcDbEllipse
 62
7
  6
CONTINUOUS
 10
-0.2048728217
 20
17.7364984057
 30
0.0
 11
-0.0888806443
 21
0.1794588445
 31
0.0
 40
0.6133070172
 41
-2.2501183435
 42
-0.6816034901
  0
ELLIPSE
  5
51B
100
AcDbEntity
  8
ASSI
100
AcDbEllipse
 62
7
  6
CONTINUOUS
 10
-1.0533524809
 20
77.5988521466
 30
0.0
 11
0.7093717925
 21
100.9935570733
 31
0.0
 40
0.0069790045
 41
-2.1156864167
 42
-2.111971229
  0
ELLIPSE
  5
51C
100
AcDbEntity
  8
ASSI
100
AcDbEllipse
 62
7
  6
CONTINUOUS
 10
-1.0533524809
 20
24.7609024978
 30
0.0
 11
1.0
 21
-0.0
 31
0.0
 40
0.5003427338
 41
0.7857407797
 42
1.3334966153
  0
ELLIPSE
  5
51D
100
AcDbEntity
  8
ASSI
100
AcDbEllipse
 62
7
  6
CONTINUOUS
 10
-1.0533524809
 20
25.2695450418
 30
0.0
 11
0.9999753489
 21
-0.014348771
 31
0.0
 40
0.4893460778
 41
1.5857281126
 42
2.3628734463
  0
ELLIPSE
  5
51E
100
AcDbEntity
  8
ASSI
100
AcDbEllipse
 62
7
  6
CONTINUOUS
 10
2.5446518684
 20
22.9619003232
 30
0.0
 11
1.0006854676
 21
-0.0
 31
0.0
 40
0.499657501
 41
0.4959893425
 42
0.7850555471
  0
ELLIPSE
  5
51F
100
AcDbEntity
  8
ASSI
100
AcDbEllipse
 62
7
  6
CONTINUOUS
 10
0.0934735405
 20
18.8013973399
 30
0.0
 11
0.249929385
 21
0.0111824824
 31
0.0
 40
0.5313301283
 41
3.1180383302
 42
3.9032222197
  0
ELLIPSE
  5
520
100
AcDbEntity
  8
ASSI
100
AcDbEllipse
 62
7
  6
CONTINUOUS
 10
2.1131728629
 20
17.7915476787
 30
0.0
 11
0.249929385
 21
0.0111824824
 31
0.0
 40
0.5313301283
 41
-2.3799630874
 42
-0.8266200532
  0
ELLIPSE
  5
521
100
AcDbEntity
  8
ASSI
100
AcDbEllipse
 62
7
  6
CONTINUOUS
 10
-10.4733278422
 20
24.0847980312
 30
0.0
 11
0.249929385
 21
0.0111824824
 31
0.0
 40
0.5313301283
 41
-2.3799630874
 42
-0.8266200532
  0
ELLIPSE
  5
522
100
AcDbEntity
  8
ASSI
100
AcDbEllipse
 62
7
  6
CONTINUOUS
 10
-12.4930271646
 20
25.0946476925
 30
0.0
 11
0.249929385
 21
0.0111824824
 31
0.0
 40
0.5313301283
 41
3.1180383322
 42
3.9032222197
  0
ELLIPSE
  5
523
100
AcDbEntity
  8
ASSI
100
AcDbEllipse
 62
7
  6
CONTINUOUS
 10
2.1131728629
 20
-21.4504903505
 30
0.0
 11
0.220014872
 21
0.1791173313
 31
0.0
 40
0.6627826692
 41
-2.8510033574
 42
-2.6599685648
  0
ELLIPSE
  5
524
100
AcDbEntity
  8
ASSI
100
AcDbEllipse
 62
7
  6
CONTINUOUS
 10
0.4929985636
 20
-21.847509982
 30
0.0
 11
0.220014872
 21
0.1791173313
 31
0.0
 40
0.6627826692
 41
-1.8038058062
 42
-1.2976603231
  0
ELLIPSE
  5
525
100
AcDbEntity
  8
ASSI
100
AcDbEllipse
 62
7
  6
CONTINUOUS
 10
-3.8073446067
 20
21.4666750004
 30
0.0
 11
0.199943508
 21
0.008945986
 31
0.0
 40
0.5313301283
 41
3.1180383302
 42
3.9032222197
  0
ELLIPSE
  5
526
100
AcDbEntity
  8
ASSI
100
AcDbEllipse
 62
7
  6
CONTINUOUS
 10
-1.5166962096
 20
20.3213508019
 30
0.0
 11
0.199943508
 21
0.008945986
 31
0.0
 40
0.5313301283
 41
-2.3799630874
 42
-0.8266200532
  0
ELLIPSE
  5
527
100
AcDbEntity
  8
ASSI
100
AcDbEllipse
 62
7
  6
CONTINUOUS
 10
-5.2290068108
 20
22.1775061025
 30
0.0
 11
0.199943508
 21
0.008945986
 31
0.0
 40
0.5313301283
 41
-2.3799630874
 42
-0.8266200532
  0
ELLIPSE
  5
528
100
AcDbEntity
  8
ASSI
100
AcDbEllipse
 62
7
  6
CONTINUOUS
 10
-7.5196552079
 20
23.322830301
 30
0.0
 11
0.199943508
 21
0.008945986
 31
0.0
 40
0.5313301283
 41
3.1180383322
 42
3.9032222197
  0
ELLIPSE
  5
529
100
AcDbEntity
  8
ASSI
100
AcDbEllipse
 62
7
  6
CONTINUOUS
 10
-12.8694955063
 20
24.6611516058
 30
0.0
 11
-0.2236507175
 21
0.4481039483
 31
0.0
 40
0.6114248242
 41
-0.6832297371
 42
0.8861965936
  0
ELLIPSE
  5
52A
100
AcDbEntity
  8
ASSI
100
AcDbEllipse
 62
7
  6
CONTINUOUS
 10
2.136087814
 20
17.1583599457
 30
0.0
 11
-0.2231080361
 21
0.4476242326
 31
0.0
 40
0.6130677323
 41
-2.2534169372
 42
-0.6839906064
  0
ELLIPSE
  5
52B
100
AcDbEntity
  8
ASSI
100
AcDbEllipse
 62
7
  6
CONTINUOUS
 10
0.2994342775
 20
-21.1248948141
 30
0.0
 11
0.220014872
 21
0.1791173313
 31
0.0
 40
0.6627826692
 41
3.1150889669
 42
3.4321819498
  0
ELLIPSE
  5
52C
100
AcDbEntity
  8
ASSI
100
AcDbEllipse
 62
7
  6
CONTINUOUS
 10
2.136087814
 20
-20.6362048489
 30
0.0
 11
-0.2236507175
 21
0.4481039483
 31
0.0
 40
0.6114248242
 41
2.4583629164
 42
4.0277892472
  0
ELLIPSE
  5
52D
100
AcDbEntity
  8
0
100
AcDbEllipse
 62
7
  6
CONTINUOUS
 10
-10.5285348706
 20
22.8983294302
 30
0.0
 11
-0.0892456481
 21
0.1797773143
 31
0.0
 40
0.6105754279
 41
5.6028239993
 42
7.1713388527
  0
ELLIPSE
  5
52E
100
AcDbEntity
  8
ASSI
100
AcDbEllipse
 62
7
  6
CONTINUOUS
 10
14.9227766156
 20
29.3880805202
 30
0.0
 11
18.2927339069
 21
9.4748417608
 31
0.0
 40
0.0170707209
 41
-2.6536573066
 42
-2.3141694431
  0
ELLIPSE
  5
52F
100
AcDbEntity
  8
ASSI
100
AcDbEllipse
 62
7
  6
CONTINUOUS
 10
14.9227766156
 20
29.3880805202
 30
0.0
 11
18.2927339069
 21
9.4748417608
 31
0.0
 40
0.0170707209
 41
2.2964861198
 42
2.6359739833
  0
ELLIPSE
  5
530
100
AcDbEntity
  8
RACCORDO
100
AcDbEllipse
 62
7
  6
CONTINUOUS
 10
0.5732918826
 20
-5.8147799559
 30
0.0
 11
-0.1570656702
 21
0.2574547774
 31
0.0
 40
0.5599604495
 41
-3.2116029863
 42
-2.300981329
  0
ELLIPSE
  5
531
100
AcDbEntity
  8
ASSI
100
AcDbEllipse
 62
7
  6
CONTINUOUS
 10
1.7387992949
 20
25.9406118902
 30
0.0
 11
0.2002571891
 21
-0.0481060446
 31
0.0
 40
0.261363135
 41
-0.7257858084
 42
0.0669778862
  0
ELLIPSE
  5
532
100
AcDbEntity
  8
RACCORDO
100
AcDbEllipse
 62
7
  6
CONTINUOUS
 10
0.2192942907
 20
-16.1955997572
 30
0.0
 11
-0.2685822327
 21
0.5369844567
 31
0.0
 40
0.6119614214
 41
-3.1700942144
 42
-2.2560086979
  0
ELLIPSE
  5
533
100
AcDbEntity
  8
ASSI
100
AcDbEllipse
 62
7
  6
CONTINUOUS
 10
0.4929985636
 20
-21.2216769571
 30
0.0
 11
0.220014872
 21
0.1791173313
 31
0.0
 40
0.6627826692
 41
-2.8510033574
 42
-1.2976603231
  0
ELLIPSE
  5
534
100
AcDbEntity
  8
ASSI
100
AcDbEllipse
 62
7
  6
CONTINUOUS
 10
9.3456425725
 20
21.8616648288
 30
0.0
 11
-0.7356038977
 21
1.2035991204
 31
0.0
 40
0.5552491559
 41
4.9268361304
 42
6.2240352843
  0
ENDSEC
  0
SECTION
  2
OBJECTS
  0
DICTIONARY
  5
C
100
AcDbDictionary
280
0
281
1
  3
ACAD_GROUP
350
D
  3
ACAD_MLINESTYLE
350
17
  3
ACAD_LAYOUT
350
1A
  3
ACAD_PLOTSETTINGS
350
19
  3
ACAD_PLOTSTYLENAME
350
E
  0
DICTIONARY
  5
D
102
{ACAD_REACTORS
330
C
102
}
100
AcDbDictionary
280
0
281
1
  0
ACDBDICTIONARYWDFLT
  5
E
102
{ACAD_REACTORS
330
C
102
}
100
AcDbDictionary
281
1
  3
Normal
350
F
100
AcDbDictionaryWithDefault
340
F
  0
DICTIONARY
  5
17
102
{ACAD_REACTORS
330
C
102
}
100
AcDbDictionary
280
0
281
1
  3
Standard
350
18
  0
DICTIONARY
  5
19
102
{ACAD_REACTORS
330
C
102
}
100
AcDbDictionary
281
1
  0
DICTIONARY
  5
1A
102
{ACAD_REACTORS
330
C
102
}
100
AcDbDictionary
281
1
  3
Model
350
535
  3
Layout1
350
536
  0
ACDBPLACEHOLDER
  5
F
102
{ACAD_REACTORS
330
E
102
}
  0
MLINESTYLE
  5
18
102
{ACAD_REACTORS
330
17
102
}
100
AcDbMlineStyle
  2
STANDARD
 70
0
  3

 62
256
 51
90.0
 52
90.0
 71
2
 49
0.5
 62
256
  6
BYLAYER
 49
-0.5
 62
256
  6
BYLAYER
  0
LAYOUT
  5
535
102
{ACAD_REACTORS
330
1A
102
}
100
AcDbPlotSettings
  1

  2
none_device
  4
ISO_A4_(297.00_x_210.00_MM)
  6

 40
0.0
 41
0.0
 42
0.0
 43
0.0
 44
297.0
 45
210.0
 46
0.0
 47
0.0
 48
0.0
 49
0.0
140
0.0
141
0.0
142
1.0
143
1.0
 70
1024
 72
1
 73
0
 74
0
  7

 75
0
147
1.0
148
0.0
149
0.0
100
AcDbLayout
  1
Model
 70
0
 71
0
 10
0.0
 20
0.0
 11
297.0
 21
210.0
 12
0.0
 22
0.0
 32
0.0
 14
0.0
 24
0.0
 34
0.0
 15
0.0
 25
0.0
 35
0.0
146
0.0
 13
0.0
 23
0.0
 33
0.0
 16
1.0
 26
0.0
 36
0.0
 17
0.0
 27
1.0
 37
0.0
 76
0
330
21A
345
0
346
0
  0
LAYOUT
  5
536
102
{ACAD_REACTORS
330
1A
102
}
100
AcDbPlotSettings
  1

  2
none_device
  4
ISO_A4_(297.00_x_210.00_MM)
  6

 40
0.0
 41
0.0
 42
0.0
 43
0.0
 44
297.0
 45
210.0
 46
0.0
 47
0.0
 48
0.0
 49
0.0
140
0.0
141
0.0
142
1.0
143
1.0
 70
0
 72
1
 73
0
 74
0
  7

 75
0
147
1.0
148
0.0
149
0.0
100
AcDbLayout
  1
Layout1
 70
0
 71
1
 10
0.0
 20
0.0
 11
297.0
 21
210.0
 12
0.0
 22
0.0
 32
0.0
 14
0.0
 24
0.0
 34
0.0
 15
0.0
 25
0.0
 35
0.0
146
0.0
 13
0.0
 23
0.0
 33
0.0
 16
1.0
 26
0.0
 36
0.0
 17
0.0
 27
1.0
 37
0.0
 76
0
330
21B
345
0
346
0
  0
ENDSEC
  0
EOF
