  0
SECTION
  2
HEADER
  9
$ACADVER
  1
AC1024
  9
$DWGCODEPAGE
  3
ANSI_1252
  9
$EXTMAX
 10
297.0
 20
210.0
 30
0.0
  9
$EXTMIN
 10
0.0
 20
0.0
 30
0.0
  9
$LIMMIN
 10
0.0
 20
0.0
  9
$LIMMAX
 10
297.0
 20
210.0
  9
$VIEWCTR
 10
148.5
 20
105.0
  9
$VIEWSIZE
 40
210.0
  9
$CLAYER
  8
0
  9
$LTSCALE
 40
16.335
  9
$CELTYPE
  6
BYLAYER
  9
$DIMSCALE
 40
1.0
  9
$DIMASZ
 40
3.0
  9
$DIMEXO
 40
0.5
  9
$DIMDLI
 40
11.286
  9
$DIMEXE
 40
1.5
  9
$DIMCEN
 40
2.673
  9
$DIMLFAC
 40
1.0
  9
$DIMBLK
  1
_FILLED
  9
$DIMALT
 70
0
  9
$DIMALTF
 40
0.0393700787
  9
$DIMTXT
 40
3.0
  9
$DIMTOL
 70
1
  9
$DIMLIM
 70
0
  9
$DIMTFAC
 40
1.0
  9
$DIMTP
 40
0.01
  9
$DIMTM
 40
0.01
  9
$DIMGAP
 40
0.625
  9
$DIMDSEP
 70
44
  9
$AUNITS
 70
0
  9
$PDMODE
 70
3
  9
$PDSIZE
 40
3.0
  9
$HANDSEED
  5
529
  9
$TILEMODE
 70
1
  9
$MEASUREMENT
 70
1
  9
$INSUNITS
 70
4
  0
ENDSEC
  0
SECTION
  2
CLASSES
  0
CLASS
  1
ACDBDICTIONARYWDFLT
  2
AcDbDictionaryWithDefault
  3
AutoCAD 2000
 90
0
 91
1
280
0
281
0
  0
CLASS
  1
ACDBPLACEHOLDER
  2
AcDbPlaceHolder
  3
AutoCAD 2000
 90
0
 91
1
280
0
281
0
  0
CLASS
  1
LAYOUT
  2
AcDbLayout
  3
AutoCAD 2000
 90
0
 91
0
280
0
281
0
  0
ENDSEC
  0
SECTION
  2
TABLES
  0
TABLE
  2
VPORT
  5
8
100
AcDbSymbolTable
 70
2
  0
VPORT
  5
1F4
100
AcDbSymbolTableRecord
100
AcDbViewportTableRecord
  2
*ACTIVE
 70
0
 10
0.0
 20
0.0
 11
1.0
 21
1.0
 12
148.5
 22
105.0
 13
0.0
 23
0.0
 14
1.0
 24
1.0
 15
0.0
 25
0.0
 16
0.0
 26
0.0
 36
1.0
 17
0.0
 27
0.0
 37
0.0
 40
210.0
 41
1.4142857143
 42
50.0
 43
0.0
 44
0.0
 50
0.0
 51
0.0
 71
0
 72
100
 73
1
 74
1
 75
0
 76
0
 77
0
 78
0
  0
ENDTAB
  0
TABLE
  2
LTYPE
  5
5
100
AcDbSymbolTable
 70
6
  0
LTYPE
  5
14
100
AcDbSymbolTableRecord
100
AcDbLinetypeTableRecord
  2
BYBLOCK
 70
0
  3

 72
65
 73
0
 40
0.0
  0
LTYPE
  5
15
100
AcDbSymbolTableRecord
100
AcDbLinetypeTableRecord
  2
BYLAYER
 70
0
  3

 72
65
 73
0
 40
0.0
  0
LTYPE
  5
16
100
AcDbSymbolTableRecord
100
AcDbLinetypeTableRecord
  2
CONTINUOUS
 70
64
  3
Solid line
 72
65
 73
0
 40
0.0
  0
LTYPE
  5
1F5
100
AcDbSymbolTableRecord
100
AcDbLinetypeTableRecord
  2
CENTER
 70
64
  3
____ _ ____ _ ____ _ ____ _ ____ _ ____ _ ____
 72
65
 73
4
 40
0.6
 49
0.375
 74
0
 49
-0.075
 74
0
 49
0.075
 74
0
 49
-0.075
 74
0
  0
LTYPE
  5
1F6
100
AcDbSymbolTableRecord
100
AcDbLinetypeTableRecord
  2
HIDDEN
 70
64
  3
- - - - - - - - - - - - - - - - - - - -
 72
65
 73
2
 40
0.2
 49
0.1
 74
0
 49
-0.1
 74
0
  0
LTYPE
  5
1F7
100
AcDbSymbolTableRecord
100
AcDbLinetypeTableRecord
  2
PHANTOM
 70
64
  3
_____ _ _ _____ _ _ _____ _ _ _____
 72
65
 73
6
 40
0.8
 49
0.45
 74
0
 49
-0.05
 74
0
 49
0.1
 74
0
 49
-0.05
 74
0
 49
0.1
 74
0
 49
-0.05
 74
0
  0
LTYPE
  5
1F8
100
AcDbSymbolTableRecord
100
AcDbLinetypeTableRecord
  2
DOT
 70
64
  3
. . . . . . . . . . . . . . . . . . . .
 72
65
 73
2
 40
0.2
 49
0.1
 74
0
 49
-0.1
 74
0
  0
LTYPE
  5
1F9
100
AcDbSymbolTableRecord
100
AcDbLinetypeTableRecord
  2
DASHED
 70
64
  3
- - - - - - - - - - - - - - - - - - - -
 72
65
 73
2
 40
0.2
 49
0.1
 74
0
 49
-0.1
 74
0
  0
ENDTAB
  0
TABLE
  2
LAYER
  5
2
100
AcDbSymbolTable
 70
36
  0
LAYER
  5
10
100
AcDbSymbolTableRecord
100
AcDbLayerTableRecord
  2
0
 70
0
 62
7
  6
CONTINUOUS
370
-3
390
F
  0
LAYER
  5
1FA
100
AcDbSymbolTableRecord
100
AcDbLayerTableRecord
  2
DEFAULT_1
 70
0
 62
7
  6
CENTER
370
-3
390
F
  0
LAYER
  5
1FB
100
AcDbSymbolTableRecord
100
AcDbLayerTableRecord
  2
DEFAULT_2
 70
0
 62
7
  6
HIDDEN
370
-3
390
F
  0
LAYER
  5
1FC
100
AcDbSymbolTableRecord
100
AcDbLayerTableRecord
  2
DEFAULT_3
 70
0
 62
7
  6
PHANTOM
370
-3
390
F
  0
LAYER
  5
1FD
100
AcDbSymbolTableRecord
100
AcDbLayerTableRecord
  2
ASSI
 70
0
 62
7
  6
CONTINUOUS
370
-3
390
F
  0
LAYER
  5
1FE
100
AcDbSymbolTableRecord
100
AcDbLayerTableRecord
  2
COLORE_TOP
 70
0
 62
7
  6
CONTINUOUS
370
-3
390
F
  0
LAYER
  5
1FF
100
AcDbSymbolTableRecord
100
AcDbLayerTableRecord
  2
COORDINATE
 70
0
 62
7
  6
CONTINUOUS
370
-3
390
F
  0
LAYER
  5
200
100
AcDbSymbolTableRecord
100
AcDbLayerTableRecord
  2
COORD_ORIGINE
 70
0
 62
7
  6
CONTINUOUS
370
-3
390
F
  0
LAYER
  5
201
100
AcDbSymbolTableRecord
100
AcDbLayerTableRecord
  2
COPY_PUBLISH
 70
0
 62
7
  6
CONTINUOUS
370
-3
390
F
  0
LAYER
  5
202
100
AcDbSymbolTableRecord
100
AcDbLayerTableRecord
  2
COSMETIC
 70
0
 62
7
  6
CONTINUOUS
370
-3
390
F
  0
LAYER
  5
203
100
AcDbSymbolTableRecord
100
AcDbLayerTableRecord
  2
COSMETICHE
 70
0
 62
7
  6
CONTINUOUS
370
-3
390
F
  0
LAYER
  5
204
100
AcDbSymbolTableRecord
100
AcDbLayerTableRecord
  2
COSMETICI
 70
0
 62
7
  6
CONTINUOUS
370
-3
390
F
  0
LAYER
  5
205
100
AcDbSymbolTableRecord
100
AcDbLayerTableRecord
  2
CURVE
 70
0
 62
7
  6
CONTINUOUS
370
-3
390
F
  0
LAYER
  5
206
100
AcDbSymbolTableRecord
100
AcDbLayerTableRecord
  2
DRAFT
 70
0
 62
7
  6
CONTINUOUS
370
-3
390
F
  0
LAYER
  5
207
100
AcDbSymbolTableRecord
100
AcDbLayerTableRecord
  2
IMPIANTO
 70
0
 62
7
  6
CONTINUOUS
370
-3
390
F
  0
LAYER
  5
208
100
AcDbSymbolTableRecord
100
AcDbLayerTableRecord
  2
IMPORTED
 70
0
 62
7
  6
CONTINUOUS
370
-3
390
F
  0
LAYER
  5
209
100
AcDbSymbolTableRecord
100
AcDbLayerTableRecord
  2
IMPORT_IGES
 70
0
 62
7
  6
CONTINUOUS
370
-3
390
F
  0
LAYER
  5
20A
100
AcDbSymbolTableRecord
100
AcDbLayerTableRecord
  2
INCISIONI_LASER
 70
0
 62
7
  6
CONTINUOUS
370
-3
390
F
  0
LAYER
  5
20B
100
AcDbSymbolTableRecord
100
AcDbLayerTableRecord
  2
INTFCLR_11
 70
0
 62
7
  6
CONTINUOUS
370
-3
390
F
  0
LAYER
  5
20C
100
AcDbSymbolTableRecord
100
AcDbLayerTableRecord
  2
INTFCLR_3
 70
0
 62
7
  6
CONTINUOUS
370
-3
390
F
  0
LAYER
  5
20D
100
AcDbSymbolTableRecord
100
AcDbLayerTableRecord
  2
INTF_1
 70
0
 62
7
  6
CONTINUOUS
370
-3
390
F
  0
LAYER
  5
20E
100
AcDbSymbolTableRecord
100
AcDbLayerTableRecord
  2
INTF_11
 70
0
 62
7
  6
CONTINUOUS
370
-3
390
F
  0
LAYER
  5
20F
100
AcDbSymbolTableRecord
100
AcDbLayerTableRecord
  2
INTF_12
 70
0
 62
7
  6
CONTINUOUS
370
-3
390
F
  0
LAYER
  5
210
100
AcDbSymbolTableRecord
100
AcDbLayerTableRecord
  2
INTF_2
 70
0
 62
7
  6
CONTINUOUS
370
-3
390
F
  0
LAYER
  5
211
100
AcDbSymbolTableRecord
100
AcDbLayerTableRecord
  2
INTF_3
 70
0
 62
7
  6
CONTINUOUS
370
-3
390
F
  0
LAYER
  5
212
100
AcDbSymbolTableRecord
100
AcDbLayerTableRecord
  2
NOTE
 70
0
 62
7
  6
CONTINUOUS
370
-3
390
F
  0
LAYER
  5
213
100
AcDbSymbolTableRecord
100
AcDbLayerTableRecord
  2
PIANI
 70
0
 62
7
  6
CONTINUOUS
370
-3
390
F
  0
LAYER
  5
214
100
AcDbSymbolTableRecord
100
AcDbLayerTableRecord
  2
PIANI_ORIGINE
 70
0
 62
7
  6
CONTINUOUS
370
-3
390
F
  0
LAYER
  5
215
100
AcDbSymbolTableRecord
100
AcDbLayerTableRecord
  2
PIANI_SFORMO
 70
0
 62
7
  6
CONTINUOUS
370
-3
390
F
  0
LAYER
  5
216
100
AcDbSymbolTableRecord
100
AcDbLayerTableRecord
  2
PUNTI
 70
0
 62
7
  6
CONTINUOUS
370
-3
390
F
  0
LAYER
  5
217
100
AcDbSymbolTableRecord
100
AcDbLayerTableRecord
  2
RACCORDO
 70
0
 62
7
  6
CONTINUOUS
370
-3
390
F
  0
LAYER
  5
218
100
AcDbSymbolTableRecord
100
AcDbLayerTableRecord
  2
RGB__255__255__255__
 70
0
 62
7
  6
CONTINUOUS
370
-3
390
F
  0
LAYER
  5
219
100
AcDbSymbolTableRecord
100
AcDbLayerTableRecord
  2
RINTRACCIABILITA
 70
0
 62
7
  6
CONTINUOUS
370
-3
390
F
  0
LAYER
  5
21A
100
AcDbSymbolTableRecord
100
AcDbLayerTableRecord
  2
SIMBOLI
 70
0
 62
7
  6
CONTINUOUS
370
-3
390
F
  0
LAYER
  5
21B
100
AcDbSymbolTableRecord
100
AcDbLayerTableRecord
  2
SMUSSO
 70
0
 62
7
  6
CONTINUOUS
370
-3
390
F
  0
LAYER
  5
21C
100
AcDbSymbolTableRecord
100
AcDbLayerTableRecord
  2
SNAPLINE
 70
0
 62
7
  6
CONTINUOUS
370
-3
390
F
  0
LAYER
  5
21D
100
AcDbSymbolTableRecord
100
AcDbLayerTableRecord
  2
SUPERFICI
 70
0
 62
7
  6
CONTINUOUS
370
-3
390
F
  0
LAYER
  5
21E
100
AcDbSymbolTableRecord
100
AcDbLayerTableRecord
  2
TRASH
 70
0
 62
7
  6
CONTINUOUS
370
-3
390
F
  0
LAYER
  5
21F
100
AcDbSymbolTableRecord
100
AcDbLayerTableRecord
  2
WHITE
 70
0
 62
7
  6
CONTINUOUS
370
-3
390
F
  0
LAYER
  5
220
100
AcDbSymbolTableRecord
100
AcDbLayerTableRecord
  2
XSEC_DATUMS
 70
0
 62
7
  6
CONTINUOUS
370
-3
390
F
  0
LAYER
  5
221
100
AcDbSymbolTableRecord
100
AcDbLayerTableRecord
  2
___SHELL
 70
0
 62
7
  6
CONTINUOUS
370
-3
390
F
  0
ENDTAB
  0
TABLE
  2
STYLE
  5
3
100
AcDbSymbolTable
 70
1
  0
STYLE
  5
11
100
AcDbSymbolTableRecord
100
AcDbTextStyleTableRecord
  2
STANDARD
 70
0
 40
0.0
 41
0.8
 50
0.0
 71
0
 42
0.2
  3
txt
  4

  0
STYLE
  5
222
100
AcDbSymbolTableRecord
100
AcDbTextStyleTableRecord
  2
TEXTSTYLE_1
 70
0
 40
0.0
 41
0.8
 50
0.0
 71
0
 42
0.2
  3
gdt
  4

  0
ENDTAB
  0
TABLE
  2
VIEW
  5
6
100
AcDbSymbolTable
 70
0
  0
ENDTAB
  0
TABLE
  2
UCS
  5
7
100
AcDbSymbolTable
 70
0
  0
ENDTAB
  0
TABLE
  2
APPID
  5
9
100
AcDbSymbolTable
 70
1
  0
APPID
  5
223
100
AcDbSymbolTableRecord
100
AcDbRegAppTableRecord
  2
ACAD
 70
0
  0
ENDTAB
  0
TABLE
  2
BLOCK_RECORD
  5
1
100
AcDbSymbolTable
 70
0
  0
BLOCK_RECORD
  5
224
100
AcDbSymbolTableRecord
100
AcDbBlockTableRecord
  2
*Model_Space
  0
BLOCK_RECORD
  5
225
100
AcDbSymbolTableRecord
100
AcDbBlockTableRecord
  2
*Paper_Space
  0
BLOCK_RECORD
  5
226
100
AcDbSymbolTableRecord
100
AcDbBlockTableRecord
  2
_FILLED
  0
ENDTAB
  0
TABLE
  2
DIMSTYLE
  5
A
100
AcDbSymbolTable
 70
1
100
AcDbDimStyleTable
 71
0
  0
DIMSTYLE
105
227
100
AcDbSymbolTableRecord
100
AcDbDimStyleTableRecord
  2
STANDARD
 70
0
  3

  4

 40
1.0
 41
3.0
 42
0.5
 43
0.38
 44
1.5
 45
0.0
 46
0.0
 47
0.01
 48
0.01
140
3.0
141
0.09
142
0.0
143
25.4
144
1.0
145
0.0
146
1.0
147
0.625
 71
1
 72
0
 73
0
 74
0
 75
0
 76
0
 77
1
 78
8
 79
2
170
0
171
1
172
0
173
0
174
0
175
0
176
0
177
0
178
0
270
2
179
2
271
2
272
2
273
2
274
2
275
0
280
0
281
0
282
0
283
1
284
8
285
0
286
0
287
3
288
0
340
11
278
44
341
226
342
226
343
226
344
226
  0
ENDTAB
  0
ENDSEC
  0
SECTION
  2
BLOCKS
  0
BLOCK
  5
20
100
AcDbEntity
  8
0
100
AcDbBlockBegin
  2
*Model_Space
 70
0
 10
0.0
 20
0.0
 30
0.0
  3
*Model_Space
  1

  0
ENDBLK
  5
21
100
AcDbEntity
  8
0
100
AcDbBlockEnd
  0
BLOCK
  5
1C
100
AcDbEntity
  8
0
100
AcDbBlockBegin
  2
*Paper_Space
 70
0
 10
0.0
 20
0.0
 30
0.0
  3
*Paper_Space
  1

  0
ENDBLK
  5
1D
100
AcDbEntity
  8
0
100
AcDbBlockEnd
  0
BLOCK
  5
228
100
AcDbEntity
  8
0
100
AcDbBlockBegin
  2
_FILLED
 70
64
 10
0.0
 20
0.0
  3
_FILLED
  1

  0
SOLID
  5
229
100
AcDbEntity
  8
0
  6
BYBLOCK
 62
0
100
AcDbTrace
 10
0.0
 20
0.0
 11
-1.0
 21
0.3166666667
 12
-1.0
 22
-0.3166666667
 13
-1.0
 23
-0.3166666667
  0
ENDBLK
  5
22A
100
AcDbEntity
  8
0
  6
BYBLOCK
 62
0
100
AcDbBlockEnd
  0
ENDSEC
  0
SECTION
  2
ENTITIES
  0
LWPOLYLINE
  5
22B
100
AcDbEntity
  8
ASSI
100
AcDbPolyline
 62
7
  6
CONTINUOUS
 90
12
 70
0
 10
-12.6517184707
 20
26.8687026887
 10
-12.6702421123
 20
26.8576362716
 10
-12.6914515005
 20
26.8419949156
 10
-12.7112631677
 20
26.8239210987
 10
-12.7294237212
 20
26.8035840225
 10
-12.7452750077
 20
26.7818228774
 10
-12.7590862847
 20
26.7583902528
 10
-12.770806458
 20
26.7331828587
 10
-12.7798533038
 20
26.7073947287
 10
-12.7862252419
 20
26.681332153
 10
-12.7900224006
 20
26.6543179643
 10
-12.7910266216
 20
26.6316158189
  0
LINE
  5
22C
100
AcDbEntity
  8
ASSI
100
AcDbLine
 62
7
  6
CONTINUOUS
 10
-12.6518595835
 20
26.8686273636
 11
-11.0846590931
 21
27.7141679825
  0
LINE
  5
22D
100
AcDbEntity
  8
ASSI
100
AcDbLine
 62
250
  6
CONTINUOUS
 10
-12.5593629624
 20
26.8645558187
 11
-10.9931122162
 21
27.7095840287
  0
LINE
  5
22E
100
AcDbEntity
  8
ASSI
100
AcDbLine
 62
7
  6
CONTINUOUS
 10
-11.0804512562
 20
27.7162738601
 11
-11.0846167597
 21
27.7141908223
  0
LWPOLYLINE
  5
22F
100
AcDbEntity
  8
ASSI
100
AcDbPolyline
 62
250
  6
CONTINUOUS
 90
7
 70
0
 10
-12.6517187273
 20
26.8687031661
 10
-12.6464194449
 20
26.8712865714
 10
-12.6309533766
 20
26.876228965
 10
-12.6142206365
 20
26.8780308241
 10
-12.5965074156
 20
26.8766613304
 10
-12.5781166746
 20
26.8721439071
 10
-12.5593629624
 20
26.8645558187
  0
LINE
  5
230
100
AcDbEntity
  8
ASSI
100
AcDbLine
 62
250
  6
CONTINUOUS
 10
-10.9931122162
 20
27.7095840287
 11
-10.4503861535
 21
27.9602329098
  0
LINE
  5
231
100
AcDbEntity
  8
ASSI
100
AcDbLine
 62
7
  6
CONTINUOUS
 10
-11.0803934164
 20
27.7163006501
 11
-10.536492058
 21
27.967491896
  0
LWPOLYLINE
  5
232
100
AcDbEntity
  8
ASSI
100
AcDbPolyline
 62
250
  6
CONTINUOUS
 90
14
 70
0
 10
-10.4503861535
 20
27.9602329098
 10
-10.441823254
 20
27.9640492735
 10
-10.4330416236
 20
27.9674355751
 10
-10.42406624
 20
27.9703368621
 10
-10.4149044436
 20
27.9727017012
 10
-10.4056107451
 20
27.9744653332
 10
-10.3962841027
 20
27.9755654114
 10
-10.3869613548
 20
27.9759590076
 10
-10.3776826283
 20
27.975604396
 10
-10.3685489222
 20
27.9744715467
 10
-10.3595993831
 20
27.9725376085
 10
-10.3508750611
 20
27.9697825332
 10
-10.3424705144
 20
27.9662147608
 10
-10.3412958431
 20
27.9656376967
  0
LINE
  5
233
100
AcDbEntity
  8
ASSI
100
AcDbLine
 62
7
  6
CONTINUOUS
 10
-10.5133586491
 20
27.9767129534
 11
-10.536491989
 21
27.9674917454
  0
LWPOLYLINE
  5
234
100
AcDbEntity
  8
ASSI
100
AcDbPolyline
 62
250
  6
CONTINUOUS
 90
6
 70
0
 10
-10.536492058
 20
27.967491896
 10
-10.5201707546
 20
27.9728089797
 10
-10.5037313745
 20
27.9744641669
 10
-10.4864218066
 20
27.9728928477
 10
-10.4685381073
 20
27.9681218957
 10
-10.4503861535
 20
27.9602329098
  0
LINE
  5
235
100
AcDbEntity
  8
ASSI
100
AcDbLine
 62
7
  6
CONTINUOUS
 10
-11.8304430146
 20
25.750348897
 11
-11.7969796013
 21
25.7759304453
  0
LWPOLYLINE
  5
236
100
AcDbEntity
  8
RACCORDO
100
AcDbPolyline
 62
250
  6
CONTINUOUS
 90
20
 70
0
 10
-16.1782063433
 20
22.9928793651
 10
-16.2391146467
 20
22.9519066406
 10
-16.2991673227
 20
22.9061089069
 10
-16.3580590818
 20
22.8557215212
 10
-16.4155244414
 20
22.8010154482
 10
-16.471259599
 20
22.7422607157
 10
-16.524961394
 20
22.6797531279
 10
-16.5763795907
 20
22.613832847
 10
-16.6252408111
 20
22.5448341513
 10
-16.6712832522
 20
22.4731014724
 10
-16.7142953316
 20
22.3990146722
 10
-16.7540508751
 20
22.3229482876
 10
-16.7903357392
 20
22.2452853848
 10
-16.8229828857
 20
22.1664341534
 10
-16.8518203985
 20
22.0868012432
 10
-16.8766958083
 20
22.0067820197
 10
-16.8974993474
 20
21.9267740678
 10
-16.9141258347
 20
21.8471806591
 10
-16.926478322
 20
21.7684088947
 10
-16.9344900646
 20
21.6908598627
  0
LINE
  5
237
100
AcDbEntity
  8
ASSI
100
AcDbLine
 62
7
  6
CONTINUOUS
 10
-12.4383699983
 20
25.3748494955
 11
-12.076163643
 21
25.5895662167
  0
LINE
  5
238
100
AcDbEntity
  8
ASSI
100
AcDbLine
 62
250
  6
CONTINUOUS
 10
-12.2031165173
 20
25.3671929572
 11
-12.076163643
 21
25.4424508993
  0
LWPOLYLINE
  5
239
100
AcDbEntity
  8
RACCORDO
100
AcDbPolyline
 62
7
  6
CONTINUOUS
 90
18
 70
0
 10
-16.2858366704
 20
23.0703915388
 10
-16.36415487
 20
23.0275139219
 10
-16.4372911357
 20
22.979567547
 10
-16.508847823
 20
22.9246095385
 10
-16.578092962
 20
22.8630754372
 10
-16.6434000287
 20
22.796547812
 10
-16.7044060811
 20
22.725812818
 10
-16.7614090325
 20
22.6508609598
 10
-16.8139279418
 20
22.5725422612
 10
-16.8618039736
 20
22.4914068602
 10
-16.9050299524
 20
22.4076462803
 10
-16.9434004081
 20
22.3217597795
 10
-16.9767768239
 20
22.2340997345
 10
-17.0049782382
 20
22.1449668001
 10
-17.0277958392
 20
22.0547421154
 10
-17.0449975866
 20
21.9636816815
 10
-17.0563207968
 20
21.8720694275
 10
-17.0581121974
 20
21.8502898669
  0
LINE
  5
23A
100
AcDbEntity
  8
ASSI
100
AcDbLine
 62
250
  6
CONTINUOUS
 10
-10.493648921
 20
25.831698798
 11
-8.8717487944
 21
26.6489023178
  0
LINE
  5
23B
100
AcDbEntity
  8
ASSI
100
AcDbLine
 62
250
  6
CONTINUOUS
 10
-10.3522491039
 20
25.5878201887
 11
-8.7303489773
 21
26.4050237085
  0
LWPOLYLINE
  5
23C
100
AcDbEntity
  8
RACCORDO
100
AcDbPolyline
 62
250
  6
CONTINUOUS
 90
3
 70
0
 10
-16.0551846376
 20
23.0595807988
 10
-16.1167862633
 20
23.0288300774
 10
-16.1782063433
 20
22.9928793651
  0
LINE
  5
23D
100
AcDbEntity
  8
ASSI
100
AcDbLine
 62
250
  6
CONTINUOUS
 10
-8.8717487944
 20
26.6489023178
 11
-8.3476443278
 21
26.9088619969
  0
LINE
  5
23E
100
AcDbEntity
  8
ASSI
100
AcDbLine
 62
250
  6
CONTINUOUS
 10
-8.7303489773
 20
26.4050237085
 11
-8.2062445107
 21
26.6649833876
  0
LINE
  5
23F
100
AcDbEntity
  8
RACCORDO
100
AcDbLine
 62
7
  6
CONTINUOUS
 10
-13.0895930402
 20
24.6492062772
 11
-16.285876402
 21
23.0703810269
  0
LINE
  5
240
100
AcDbEntity
  8
RACCORDO
100
AcDbLine
 62
250
  6
CONTINUOUS
 10
-12.8624733766
 20
24.6366415864
 11
-16.055184614
 21
23.0595808105
  0
LWPOLYLINE
  5
241
100
AcDbEntity
  8
ASSI
100
AcDbPolyline
 62
250
  6
CONTINUOUS
 90
28
 70
0
 10
-8.2062445107
 20
26.6649833876
 10
-8.2045408509
 20
26.6657901822
 10
-8.2028080496
 20
26.6664866095
 10
-8.2010461068
 20
26.6670726694
 10
-8.1992440994
 20
26.6675587151
 10
-8.1974129505
 20
26.6679343935
 10
-8.1955854297
 20
26.6681686447
 10
-8.1937609384
 20
26.6682568923
 10
-8.1919400752
 20
26.6682037127
 10
-8.190157405
 20
26.6679917755
 10
-8.1884139327
 20
26.6676156735
 10
-8.1867086535
 20
26.6670808139
 10
-8.1850731179
 20
26.6663860876
 10
-8.1835104665
 20
26.665527497
 10
-8.1820175588
 20
26.6645090398
 10
-8.1806165239
 20
26.6633416007
 10
-8.1793101548
 20
26.6620235324
 10
-8.1780956584
 20
26.6605564822
 10
-8.1769867846
 20
26.6589562766
 10
-8.1759849145
 20
26.6572215633
 10
-8.1750886669
 20
26.6553536946
 10
-8.1743076484
 20
26.6533725543
 10
-8.1736431349
 20
26.6512768341
 10
-8.1730938504
 20
26.6490678421
 10
-8.1726655735
 20
26.6467693864
 10
-8.1723602304
 20
26.6443894027
 10
-8.1721758948
 20
26.6419199551
 10
-8.1721125668
 20
26.6393610437
  0
LWPOLYLINE
  5
242
100
AcDbEntity
  8
ASSI
100
AcDbPolyline
 62
250
  6
CONTINUOUS
 90
14
 70
0
 10
-8.3476443278
 20
26.9088619969
 10
-8.3390541534
 20
26.9127451593
 10
-8.330259134
 20
26.9161834249
 10
-8.3212846954
 20
26.9191235334
 10
-8.3121388911
 20
26.9215161102
 10
-8.3028759657
 20
26.9232983704
 10
-8.2935935784
 20
26.9244099047
 10
-8.2843282301
 20
26.9248103534
 10
-8.275119565
 20
26.9244606621
 10
-8.2660666632
 20
26.9233331889
 10
-8.2572087453
 20
26.9214082685
 10
-8.248584363
 20
26.918668675
 10
-8.2402822877
 20
26.9151238015
 10
-8.2393108837
 20
26.9146452172
  0
LWPOLYLINE
  5
243
100
AcDbEntity
  8
ASSI
100
AcDbPolyline
 62
250
  6
CONTINUOUS
 90
11
 70
0
 10
-12.6576493057
 20
26.7756708887
 10
-12.6488632159
 20
26.7872189304
 10
-12.6397605321
 20
26.7982595274
 10
-12.6303704182
 20
26.8087608315
 10
-12.6207224425
 20
26.8186914046
 10
-12.610850991
 20
26.8280173944
 10
-12.6007918958
 20
26.83670643
 10
-12.5905773825
 20
26.8447312635
 10
-12.5802425417
 20
26.8520647218
 10
-12.5698253955
 20
26.8586805228
 10
-12.5593629624
 20
26.8645558187
  0
LWPOLYLINE
  5
244
100
AcDbEntity
  8
ASSI
100
AcDbPolyline
 62
7
  6
CONTINUOUS
 90
12
 70
0
 10
-9.632799728
 20
25.0250751165
 10
-9.6548324642
 20
25.0044303574
 10
-9.6787202558
 20
24.9851652633
 10
-9.7042874941
 20
24.9676726659
 10
-9.7314877444
 20
24.9523204068
 10
-9.7599023763
 20
24.9394670481
 10
-9.7887174226
 20
24.9293984749
 10
-9.8175471001
 20
24.9223011893
 10
-9.8460956626
 20
24.9183535648
 10
-9.8736327401
 20
24.9176125606
 10
-9.8996873182
 20
24.9200048898
 10
-9.9104947314
 20
24.9219948877
  0
LWPOLYLINE
  5
245
100
AcDbEntity
  8
ASSI
100
AcDbPolyline
 62
250
  6
CONTINUOUS
 90
13
 70
0
 10
-6.819909875
 20
24.970782256
 10
-6.8381416876
 20
24.9598272758
 10
-6.8560271344
 20
24.9461785058
 10
-6.8732669435
 20
24.9300643267
 10
-6.8895726468
 20
24.9117543719
 10
-6.9046714058
 20
24.8915550164
 10
-6.9183105779
 20
24.8698042495
 10
-6.9302619428
 20
24.8468660202
 10
-6.9403255222
 20
24.8231241467
 10
-6.9483329253
 20
24.7989758944
 10
-6.9541501668
 20
24.7748253285
 10
-6.9576799084
 20
24.7510765529
 10
-6.9588630882
 20
24.7281269486
  0
LWPOLYLINE
  5
246
100
AcDbEntity
  8
ASSI
100
AcDbPolyline
 62
7
  6
CONTINUOUS
 90
12
 70
0
 10
-6.935236028
 20
24.9760297705
 10
-6.9375994835
 20
24.9747365449
 10
-6.9578067132
 20
24.9620290519
 10
-6.9765854672
 20
24.9471330419
 10
-6.9936644448
 20
24.9302482555
 10
-7.008933511
 20
24.9114482071
 10
-7.022163919
 20
24.8909498865
 10
-7.0331524294
 20
24.8690415045
 10
-7.0418235145
 20
24.8458172214
 10
-7.0480599382
 20
24.8214412054
 10
-7.0517315742
 20
24.7962389448
 10
-7.0527914827
 20
24.7732683597
  0
LINE
  5
247
100
AcDbEntity
  8
ASSI
100
AcDbLine
 62
7
  6
CONTINUOUS
 10
-9.632799728
 20
24.2668746704
 11
-8.7303489773
 21
24.7595490613
  0
LINE
  5
248
100
AcDbEntity
  8
ASSI
100
AcDbLine
 62
7
  6
CONTINUOUS
 10
-6.7234891537
 20
25.0902729397
 11
-6.935283989
 21
24.9760047672
  0
LINE
  5
249
100
AcDbEntity
  8
ASSI
100
AcDbLine
 62
250
  6
CONTINUOUS
 10
-6.6090555577
 20
25.0845429975
 11
-6.819909875
 21
24.970782256
  0
LWPOLYLINE
  5
24A
100
AcDbEntity
  8
ASSI
100
AcDbPolyline
 62
250
  6
CONTINUOUS
 90
9
 70
0
 10
-2.2064894513
 20
26.562707835
 10
-2.1801230686
 20
26.5768168275
 10
-2.1569479522
 20
26.5921896394
 10
-2.1372132496
 20
26.6086584186
 10
-2.1211319
 20
26.6260423819
 10
-2.1088735128
 20
26.6441539172
 10
-2.1005663383
 20
26.6628012461
 10
-2.0963008161
 20
26.6817855773
 10
-2.0957066693
 20
26.693488431
  0
LWPOLYLINE
  5
24B
100
AcDbEntity
  8
ASSI
100
AcDbPolyline
 62
250
  6
CONTINUOUS
 90
31
 70
0
 10
-2.3801203909
 20
26.863414384
 10
-2.3711200211
 20
26.8682259939
 10
-2.3633300505
 20
26.8733672244
 10
-2.3567504789
 20
26.8788380756
 10
-2.3513313114
 20
26.8847072591
 10
-2.347122543
 20
26.8909060632
 10
-2.3442741586
 20
26.897228353
 10
-2.3428350545
 20
26.9036753936
 10
-2.3427563345
 20
26.9102459199
 10
-2.3440412944
 20
26.9167300018
 10
-2.3467343446
 20
26.9231248731
 10
-2.3507910748
 20
26.9294333
 10
-2.3560815496
 20
26.9354536503
 10
-2.3626454727
 20
26.9411766337
 10
-2.3704431403
 20
26.9466115405
 10
-2.3792255055
 20
26.9515846093
 10
-2.389024434
 20
26.9560809218
 10
-2.3998080601
 20
26.9601153963
 10
-2.4112317393
 20
26.963559027
 10
-2.4233161521
 20
26.9663927799
 10
-2.4360406181
 20
26.9686356891
 10
-2.4489984505
 20
26.9702158502
 10
-2.4621972068
 20
26.9711117687
 10
-2.4756293297
 20
26.9713449391
 10
-2.4888654601
 20
26.9709079415
 10
-2.5019003728
 20
26.9697788462
 10
-2.514739293
 20
26.9679795829
 10
-2.5269685383
 20
26.9655685205
 10
-2.5384502144
 20
26.9625651153
 10
-2.5493222155
 20
26.958949911
 10
-2.5595845417
 20
26.9547229076
  0
LINE
  5
24C
100
AcDbEntity
  8
ASSI
100
AcDbLine
 62
7
  6
CONTINUOUS
 10
-6.7234348608
 20
25.0903021776
 11
-6.718226815
 21
25.0929065581
  0
LWPOLYLINE
  5
24D
100
AcDbEntity
  8
ASSI
100
AcDbPolyline
 62
250
  6
CONTINUOUS
 90
13
 70
0
 10
-6.9352349114
 20
24.976031228
 10
-6.9299553809
 20
24.9786659076
 10
-6.9213175885
 20
24.9821414743
 10
-6.9123004898
 20
24.9847884966
 10
-6.9029392113
 20
24.9865971027
 10
-6.893266144
 20
24.987561472
 10
-6.8833164359
 20
24.9876782898
 10
-6.8731262045
 20
24.9869471526
 10
-6.8627330987
 20
24.9853707969
 10
-6.8521759221
 20
24.9829554514
 10
-6.8414936311
 20
24.979710388
 10
-6.8307251343
 20
24.9756476239
 10
-6.819909875
 20
24.970782256
  0
LINE
  5
24E
100
AcDbEntity
  8
ASSI
100
AcDbLine
 62
7
  6
CONTINUOUS
 10
-1.0150251083
 20
28.5258567888
 11
-8.0622132621
 21
25.1174714553
  0
LINE
  5
24F
100
AcDbEntity
  8
ASSI
100
AcDbLine
 62
250
  6
CONTINUOUS
 10
-5.6952006213
 20
25.2782262344
 11
-2.3801203909
 21
26.863414384
  0
LINE
  5
250
100
AcDbEntity
  8
ASSI
100
AcDbLine
 62
250
  6
CONTINUOUS
 10
-5.3029062508
 20
25.0820790492
 11
-2.2064894513
 21
26.562707835
  0
LINE
  5
251
100
AcDbEntity
  8
ASSI
100
AcDbLine
 62
7
  6
CONTINUOUS
 10
-2.6674893966
 20
26.9636713348
 11
-6.7181570579
 21
25.0929387743
  0
LINE
  5
252
100
AcDbEntity
  8
ASSI
100
AcDbLine
 62
250
  6
CONTINUOUS
 10
-2.5595845417
 20
26.9547229076
 11
-6.6090555577
 21
25.0845429975
  0
LINE
  5
253
100
AcDbEntity
  8
ASSI
100
AcDbLine
 62
7
  6
CONTINUOUS
 10
-2.6320281602
 20
26.9779858364
 11
-2.667629999
 21
26.9636023323
  0
LINE
  5
254
100
AcDbEntity
  8
0
100
AcDbLine
 62
250
  6
CONTINUOUS
 10
-10.0031411834
 20
23.2416531593
 11
-9.8037653037
 21
23.3154352436
  0
LWPOLYLINE
  5
255
100
AcDbEntity
  8
ASSI
100
AcDbPolyline
 62
7
  6
CONTINUOUS
 90
3
 70
0
 10
-6.718226815
 20
25.0929065581
 10
-6.6974299772
 20
25.0997343998
 10
-6.6766963552
 20
25.1018878889
  0
LWPOLYLINE
  5
256
100
AcDbEntity
  8
ASSI
100
AcDbPolyline
 62
7
  6
CONTINUOUS
 90
6
 70
0
 10
-11.8702005845
 20
25.7120109151
 10
-11.868404287
 20
25.7156909217
 10
-11.8631786614
 20
25.7218827172
 10
-11.854981452
 20
25.7302230455
 10
-11.8440090015
 20
25.7397848381
 10
-11.8304430146
 20
25.750348897
  0
LWPOLYLINE
  5
257
100
AcDbEntity
  8
ASSI
100
AcDbPolyline
 62
250
  6
CONTINUOUS
 90
7
 70
0
 10
-8.1777942282
 20
26.1966821081
 10
-8.1768111638
 20
26.1980303719
 10
-8.1739937763
 20
26.2053963214
 10
-8.1738728439
 20
26.2147419198
 10
-8.1764504128
 20
26.2259090306
 10
-8.181682868
 20
26.2387086955
 10
-8.1894816714
 20
26.2529243317
  0
LWPOLYLINE
  5
258
100
AcDbEntity
  8
ASSI
100
AcDbPolyline
 62
7
  6
CONTINUOUS
 90
6
 70
0
 10
-8.1778194663
 20
26.1966511661
 10
-8.1683446639
 20
26.2090800751
 10
-8.1547321765
 20
26.2299347087
 10
-8.1428790454
 20
26.2522012557
 10
-8.1329361165
 20
26.275761684
 10
-8.1252822189
 20
26.2997385011
  0
LINE
  5
259
100
AcDbEntity
  8
ASSI
100
AcDbLine
 62
250
  6
CONTINUOUS
 10
-8.1894816714
 20
26.2529243317
 11
-8.7303489773
 21
25.5836368456
  0
LINE
  5
25A
100
AcDbEntity
  8
ASSI
100
AcDbLine
 62
7
  6
CONTINUOUS
 10
-8.1777942282
 20
26.1966821081
 11
-8.7303489773
 21
25.5129321847
  0
LWPOLYLINE
  5
25B
100
AcDbEntity
  8
ASSI
100
AcDbPolyline
 62
250
  6
CONTINUOUS
 90
13
 70
0
 10
-4.5999613864
 20
23.8608080117
 10
-4.6181932111
 20
23.8498530233
 10
-4.6360786673
 20
23.8362042432
 10
-4.6533184829
 20
23.8200900536
 10
-4.6696241895
 20
23.801780089
 10
-4.684722949
 20
23.7815807254
 10
-4.6983621186
 20
23.7598299536
 10
-4.7103134789
 20
23.7368917233
 10
-4.7203770522
 20
23.7131498529
 10
-4.7283844487
 20
23.6890016079
 10
-4.7342016842
 20
23.6648510532
 10
-4.7377314215
 20
23.641102292
 10
-4.7389145997
 20
23.6181527043
  0
LINE
  5
25C
100
AcDbEntity
  8
ASSI
100
AcDbLine
 62
250
  6
CONTINUOUS
 10
-4.5999613864
 20
23.8608080117
 11
-4.381615349
 21
23.9708228932
  0
LINE
  5
25D
100
AcDbEntity
  8
ASSI
100
AcDbLine
 62
250
  6
CONTINUOUS
 10
-4.4232116151
 20
23.5559597501
 11
-4.2048655777
 21
23.6659746316
  0
LINE
  5
25E
100
AcDbEntity
  8
ASSI
100
AcDbLine
 62
7
  6
CONTINUOUS
 10
-3.0111242596
 20
23.234146877
 11
-3.0059162138
 21
23.2367512575
  0
LINE
  5
25F
100
AcDbEntity
  8
ASSI
100
AcDbLine
 62
7
  6
CONTINUOUS
 10
0.9298332806
 20
26.060037601
 11
-0.1514100891
 21
25.5194159161
  0
LINE
  5
260
100
AcDbEntity
  8
ASSI
100
AcDbLine
 62
250
  6
CONTINUOUS
 10
-4.381615349
 20
23.9708228932
 11
-3.7283965845
 21
24.294824216
  0
LINE
  5
261
100
AcDbEntity
  8
ASSI
100
AcDbLine
 62
250
  6
CONTINUOUS
 10
-4.2048655777
 20
23.6659746316
 11
-3.5470971662
 21
23.9922326128
  0
LINE
  5
262
100
AcDbEntity
  8
ASSI
100
AcDbLine
 62
250
  6
CONTINUOUS
 10
1.838310174
 20
27.0991891477
 11
-0.3943990901
 21
26.0312308919
  0
LINE
  5
263
100
AcDbEntity
  8
ASSI
100
AcDbLine
 62
250
  6
CONTINUOUS
 10
1.9772418481
 20
26.8570993123
 11
-0.1478006453
 21
25.8406406488
  0
LINE
  5
264
100
AcDbEntity
  8
ASSI
100
AcDbLine
 62
7
  6
CONTINUOUS
 10
-1.0933534326
 20
25.8956435386
 11
-2.1940454099
 21
25.3693202651
  0
LINE
  5
265
100
AcDbEntity
  8
RACCORDO
100
AcDbLine
 62
7
  6
CONTINUOUS
 10
-0.970142779
 20
24.905093719
 11
-1.1082575811
 21
24.8398566337
  0
LINE
  5
266
100
AcDbEntity
  8
RACCORDO
100
AcDbLine
 62
250
  6
CONTINUOUS
 10
-0.8866087725
 20
24.8965946323
 11
-1.0228850615
 21
24.8322259494
  0
LINE
  5
267
100
AcDbEntity
  8
ASSI
100
AcDbLine
 62
7
  6
CONTINUOUS
 10
-2.3284428425
 20
23.5496309111
 11
-3.0058464567
 21
23.2367834737
  0
LINE
  5
268
100
AcDbEntity
  8
ASSI
100
AcDbLine
 62
250
  6
CONTINUOUS
 10
-2.2203171242
 20
23.5407844859
 11
-2.8967449564
 21
23.2283876969
  0
LWPOLYLINE
  5
269
100
AcDbEntity
  8
RACCORDO
100
AcDbPolyline
 62
250
  6
CONTINUOUS
 90
11
 70
0
 10
-0.0531426495
 20
24.9504146054
 10
-0.044050189
 20
24.9545050566
 10
-0.0349915147
 20
24.9578618417
 10
-0.0260043932
 20
24.9604688138
 10
-0.0171232055
 20
24.962313418
 10
-0.0083887411
 20
24.9633845636
 10
0.0001526073
 20
24.9636755777
 10
0.0084694326
 20
24.9631850836
 10
0.0165226567
 20
24.9619150712
 10
0.024258637
 20
24.959877555
 10
0.0316322797
 20
24.9570941862
  0
LINE
  5
26A
100
AcDbEntity
  8
RACCORDO
100
AcDbLine
 62
7
  6
CONTINUOUS
 10
-0.9700892635
 20
24.9051189964
 11
-0.9668812233
 21
24.9065346261
  0
LWPOLYLINE
  5
26B
100
AcDbEntity
  8
RACCORDO
100
AcDbPolyline
 62
7
  6
CONTINUOUS
 90
5
 70
0
 10
-1.1083760498
 20
24.8397997314
 10
-1.103532885
 20
24.8418573556
 10
-1.0961065252
 20
24.8441752181
 10
-1.087960107
 20
24.8457075828
 10
-1.079041772
 20
24.8463584964
  0
LWPOLYLINE
  5
26C
100
AcDbEntity
  8
ASSI
100
AcDbPolyline
 62
250
  6
CONTINUOUS
 90
13
 70
0
 10
-4.4232116151
 20
23.5559597501
 10
-4.4429450252
 20
23.5475946425
 10
-4.4646729429
 20
23.5405731546
 10
-4.4880318017
 20
23.5350127748
 10
-4.5126307449
 20
23.5310065432
 10
-4.5380581661
 20
23.5286214947
 10
-4.5638885963
 20
23.5278975378
 10
-4.5896898227
 20
23.5288467861
 10
-4.6150301216
 20
23.5314533561
 10
-4.6394854815
 20
23.5356736329
 10
-4.6626466985
 20
23.541437
 10
-4.6841262232
 20
23.5486470207
 10
-4.7035646454
 20
23.557183052
  0
LINE
  5
26D
100
AcDbEntity
  8
RACCORDO
100
AcDbLine
 62
7
  6
CONTINUOUS
 10
-0.8970406335
 20
24.9326357633
 11
-0.9668815847
 21
24.9065344558
  0
LWPOLYLINE
  5
26E
100
AcDbEntity
  8
ASSI
100
AcDbPolyline
 62
7
  6
CONTINUOUS
 90
3
 70
0
 10
-3.0059162138
 20
23.2367512575
 10
-2.985119376
 20
23.2435790991
 10
-2.9643857539
 20
23.2457325883
  0
LINE
  5
26F
100
AcDbEntity
  8
RACCORDO
100
AcDbLine
 62
7
  6
CONTINUOUS
 10
-0.8220015234
 20
24.9555633284
 11
-0.8970406335
 21
24.9326357633
  0
LWPOLYLINE
  5
270
100
AcDbEntity
  8
ASSI
100
AcDbPolyline
 62
250
  6
CONTINUOUS
 90
6
 70
0
 10
2.9517973133
 20
24.1534879164
 10
2.9710527897
 20
24.1593267807
 10
2.9917044246
 20
24.1613064248
 10
3.0134105251
 20
24.159394221
 10
3.0358119354
 20
24.1536219294
 10
3.058538034
 20
24.1440851716
  0
LWPOLYLINE
  5
271
100
AcDbEntity
  8
RACCORDO
100
AcDbPolyline
 62
7
  6
CONTINUOUS
 90
6
 70
0
 10
-0.9668812233
 20
24.9065346261
 10
-0.9536529488
 20
24.910476651
 10
-0.9378693286
 20
24.9118152864
 10
-0.9212319961
 20
24.9099214613
 10
-0.904043395
 20
24.9048202524
 10
-0.8866087725
 20
24.8965946323
  0
LWPOLYLINE
  5
272
100
AcDbEntity
  8
RACCORDO
100
AcDbPolyline
 62
7
  6
CONTINUOUS
 90
10
 70
0
 10
-3.4512463122
 20
-23.1241348306
 10
-3.3825194673
 20
-23.1508379076
 10
-3.3147430892
 20
-23.170241889
 10
-3.2443801657
 20
-23.1837341809
 10
-3.172084902
 20
-23.1910010446
 10
-3.0982922861
 20
-23.1918751153
 10
-3.0234863703
 20
-23.1862379685
 10
-2.948302748
 20
-23.1740529116
 10
-2.8731689675
 20
-23.1553583673
 10
-2.7987807004
 20
-23.1303647851
  0
LWPOLYLINE
  5
273
100
AcDbEntity
  8
RACCORDO
100
AcDbPolyline
 62
250
  6
CONTINUOUS
 90
16
 70
0
 10
-3.7760389271
 20
-22.4594313203
 10
-3.7374194927
 20
-22.474685808
 10
-3.6959877468
 20
-22.4880081156
 10
-3.6521451302
 20
-22.4992691604
 10
-3.6063164431
 20
-22.5083598319
 10
-3.5589457292
 20
-22.5151920486
 10
-3.510491973
 20
-22.5196996119
 10
-3.4614246531
 20
-22.5218388469
 10
-3.4122191929
 20
-22.5215890262
 10
-3.3633523543
 20
-22.5189525704
 10
-3.3152976181
 20
-22.5139550247
 10
-3.2685205968
 20
-22.5066448112
 10
-3.2234745224
 20
-22.4970927602
 10
-3.1805958559
 20
-22.4853914234
 10
-3.1403000574
 20
-22.4716541776
 10
-3.1029775612
 20
-22.4560141258
  0
LWPOLYLINE
  5
274
100
AcDbEntity
  8
RACCORDO
100
AcDbPolyline
 62
250
  6
CONTINUOUS
 90
14
 70
0
 10
-3.4511694713
 20
-23.1241765654
 10
-3.4928324998
 20
-23.1029095045
 10
-3.536322699
 20
-23.0741588357
 10
-3.5767585255
 20
-23.0401145827
 10
-3.6139092262
 20
-23.0009638317
 10
-3.6475952625
 20
-22.956904304
 10
-3.6776592085
 20
-22.908157131
 10
-3.7039286212
 20
-22.8549825516
 10
-3.7262746295
 20
-22.7976561282
 10
-3.7445977947
 20
-22.7364634417
 10
-3.7587957717
 20
-22.671709635
 10
-3.7687945029
 20
-22.6037198652
 10
-3.7745513918
 20
-22.5328404179
 10
-3.7760389476
 20
-22.4594313118
  0
LWPOLYLINE
  5
275
100
AcDbEntity
  8
RACCORDO
100
AcDbPolyline
 62
7
  6
CONTINUOUS
 90
10
 70
0
 10
-18.1803576497
 20
-15.7594016463
 10
-16.7057301293
 20
-16.5825603645
 10
-15.1258535412
 20
-17.4408196467
 10
-13.5202420458
 20
-18.2891823537
 10
-11.8892698556
 20
-19.1274597938
 10
-10.2333083534
 20
-19.9554674949
 10
-8.5527363728
 20
-20.7730275449
 10
-6.8479477651
 20
-21.5799639157
 10
-5.1193434189
 20
-22.376099986
 10
-3.4504129408
 20
-23.1245122849
  0
LINE
  5
276
100
AcDbEntity
  8
RACCORDO
100
AcDbLine
 62
7
  6
CONTINUOUS
 10
-18.1803568694
 20
-15.7594020878
 11
-18.1800979984
 21
-15.7595484177
  0
LWPOLYLINE
  5
277
100
AcDbEntity
  8
RACCORDO
100
AcDbPolyline
 62
250
  6
CONTINUOUS
 90
31
 70
0
 10
-18.4762134334
 20
-15.1093440493
 10
-18.0312507619
 20
-15.3612015111
 10
-17.5842759717
 20
-15.6120865725
 10
-17.1353000078
 20
-15.8619958916
 10
-16.6844402973
 20
-16.1108676631
 10
-16.2316022511
 20
-16.3587574447
 10
-15.7764742935
 20
-16.6058361838
 10
-15.3189126051
 20
-16.8521794992
 10
-14.859072796
 20
-17.0977011548
 10
-14.3970897965
 20
-17.3423282684
 10
-13.933004778
 20
-17.5860393617
 10
-13.4667936804
 20
-17.8288474153
 10
-12.9984957878
 20
-18.0707321367
 10
-12.5280570491
 20
-18.3117214213
 10
-12.0555485608
 20
-18.551778856
 10
-11.58120067
 20
-18.7907891219
 10
-11.1053307102
 20
-19.0285972557
 10
-10.6276475948
 20
-19.2653537696
 10
-10.1474629792
 20
-19.5013988889
 10
-9.6656902102
 20
-19.7362841253
 10
-9.1814297461
 20
-19.9704480896
 10
-8.691221315
 20
-20.2055378718
 10
-8.1958593998
 20
-20.4411316617
 10
-7.6944756249
 20
-20.6776005248
 10
-7.1809960582
 20
-20.9177252691
 10
-6.6551312774
 20
-21.1615215183
 10
-6.1169331453
 20
-21.4088423715
 10
-5.5606894987
 20
-21.6621523767
 10
-4.9843319173
 20
-21.9221854284
 10
-4.3895162492
 20
-22.1879831286
 10
-3.7760389282
 20
-22.4594313002
  0
LWPOLYLINE
  5
278
100
AcDbEntity
  8
RACCORDO
100
AcDbPolyline
 62
250
  6
CONTINUOUS
 90
9
 70
0
 10
-18.4762033222
 20
-15.1093397626
 10
-18.5067128537
 20
-15.0900299562
 10
-18.5332780235
 20
-15.0693540925
 10
-18.5556414418
 20
-15.0475125003
 10
-18.5735864292
 20
-15.0247168028
 10
-18.5869391166
 20
-15.0011878677
 10
-18.5955701297
 20
-14.9771536666
 10
-18.5993958427
 20
-14.9528470669
 10
-18.5995958567
 20
-14.9447700133
  0
LWPOLYLINE
  5
279
100
AcDbEntity
  8
RACCORDO
100
AcDbPolyline
 62
7
  6
CONTINUOUS
 90
5
 70
0
 10
-1.1230860185
 20
24.830094604
 10
-1.1220052152
 20
24.8310261245
 10
-1.1164568505
 20
24.8352088609
 10
-1.1103023905
 20
24.8388465095
 10
-1.1083760498
 20
24.8397997314
  0
LINE
  5
27A
100
AcDbEntity
  8
RACCORDO
100
AcDbLine
 62
250
  6
CONTINUOUS
 10
-1.9275468275
 20
23.3943993375
 11
-0.9978167142
 21
24.1232179473
  0
LWPOLYLINE
  5
27B
100
AcDbEntity
  8
RACCORDO
100
AcDbPolyline
 62
250
  6
CONTINUOUS
 90
16
 70
0
 10
-0.9978167142
 20
24.1232179473
 10
-0.956637795
 20
24.1527640772
 10
-0.9134424226
 20
24.1793742134
 10
-0.8682305973
 20
24.2030483557
 10
-0.8204536292
 20
24.2239433238
 10
-0.7706602081
 20
24.241902298
 10
-0.7204964029
 20
24.2564548202
 10
-0.669990612
 20
24.2674733183
 10
-0.6191144369
 20
24.2750853643
 10
-0.5694287515
 20
24.2792032162
 10
-0.5210737972
 20
24.2797414117
 10
-0.4739093325
 20
24.276785413
 10
-0.4290755076
 20
24.2705038648
 10
-0.3869523722
 20
24.2609529821
 10
-0.3471598765
 20
24.2480765499
 10
-0.3096980205
 20
24.2318745682
  0
LWPOLYLINE
  5
27C
100
AcDbEntity
  8
ASSI
100
AcDbPolyline
 62
250
  6
CONTINUOUS
 90
7
 70
0
 10
2.542927273
 20
26.4373546497
 10
2.5601759477
 20
26.4471627
 10
2.5747105172
 20
26.4579609191
 10
2.5862822238
 20
26.4695645892
 10
2.5946929926
 20
26.481775207
 10
2.5997988143
 20
26.4943838652
 10
2.6015074449
 20
26.5078608472
  0
LWPOLYLINE
  5
27D
100
AcDbEntity
  8
ASSI
100
AcDbPolyline
 62
7
  6
CONTINUOUS
 90
10
 70
0
 10
-3.2231079772
 20
23.119776392
 10
-3.2311598821
 20
23.1152024055
 10
-3.2548204446
 20
23.098894354
 10
-3.2763526324
 20
23.0794271807
 10
-3.2952910406
 20
23.0571085217
 10
-3.3112034488
 20
23.0323973758
 10
-3.3239531366
 20
23.0053893763
 10
-3.3332611183
 20
22.976344939
 10
-3.3388126572
 20
22.9458815372
 10
-3.3404805523
 20
22.9171342487
  0
LINE
  5
27E
100
AcDbEntity
  8
ASSI
100
AcDbLine
 62
7
  6
CONTINUOUS
 10
-4.4232116151
 20
22.3776058418
 11
-4.2048655777
 21
22.4968073615
  0
LINE
  5
27F
100
AcDbEntity
  8
ASSI
100
AcDbLine
 62
7
  6
CONTINUOUS
 10
-3.0111785525
 20
23.2341176391
 11
-3.2231016472
 21
23.1197801366
  0
LINE
  5
280
100
AcDbEntity
  8
ASSI
100
AcDbLine
 62
250
  6
CONTINUOUS
 10
-2.8967449564
 20
23.2283876969
 11
-3.1075992738
 21
23.1146269554
  0
LINE
  5
281
100
AcDbEntity
  8
ASSI
100
AcDbLine
 62
7
  6
CONTINUOUS
 10
-4.2048655777
 20
22.4968073615
 11
-3.5228053474
 21
22.8484705209
  0
LINE
  5
282
100
AcDbEntity
  8
ASSI
100
AcDbLine
 62
250
  6
CONTINUOUS
 10
-0.8876507852
 20
22.0046527111
 11
-0.6693047478
 21
22.1146675926
  0
LINE
  5
283
100
AcDbEntity
  8
ASSI
100
AcDbLine
 62
250
  6
CONTINUOUS
 10
-0.7109010138
 20
21.6998044494
 11
-0.4925549765
 21
21.809819331
  0
LINE
  5
284
100
AcDbEntity
  8
ASSI
100
AcDbLine
 62
250
  6
CONTINUOUS
 10
3.2412239562
 20
24.0543186586
 11
-0.6693047478
 21
22.1146675926
  0
LINE
  5
285
100
AcDbEntity
  8
ASSI
100
AcDbLine
 62
250
  6
CONTINUOUS
 10
3.4179737276
 20
23.749470397
 11
-0.4925549765
 21
21.809819331
  0
LINE
  5
286
100
AcDbEntity
  8
ASSI
100
AcDbLine
 62
7
  6
CONTINUOUS
 10
-0.3154800447
 20
22.5883659461
 11
2.9474405795
 21
24.151531727
  0
LINE
  5
287
100
AcDbEntity
  8
ASSI
100
AcDbLine
 62
250
  6
CONTINUOUS
 10
-0.2535130874
 20
22.5573824675
 11
3.058538034
 21
24.1440851716
  0
LINE
  5
288
100
AcDbEntity
  8
ASSI
100
AcDbLine
 62
7
  6
CONTINUOUS
 10
4.2185886889
 20
23.759141434
 11
6.3755041034
 21
24.7921319154
  0
LINE
  5
289
100
AcDbEntity
  8
ASSI
100
AcDbLine
 62
250
  6
CONTINUOUS
 10
4.2330109786
 20
23.7175258576
 11
6.4643601365
 21
24.7861641664
  0
LINE
  5
28A
100
AcDbEntity
  8
RACCORDO
100
AcDbLine
 62
7
  6
CONTINUOUS
 10
12.4958238472
 20
27.5387306484
 11
6.6985682247
 21
24.8613658875
  0
LINE
  5
28B
100
AcDbEntity
  8
RACCORDO
100
AcDbLine
 62
250
  6
CONTINUOUS
 10
12.8842813298
 20
27.5065163127
 11
6.9672178748
 21
24.7738203245
  0
LWPOLYLINE
  5
28C
100
AcDbEntity
  8
ASSI
100
AcDbPolyline
 62
250
  6
CONTINUOUS
 90
7
 70
0
 10
6.3755126918
 20
24.7921360279
 10
6.3785583466
 20
24.7935139478
 10
6.3940155175
 20
24.7982897791
 10
6.4106086324
 20
24.7999441589
 10
6.4280600193
 20
24.7984493376
 10
6.4460776879
 20
24.7938302641
 10
6.4643601352
 20
24.7861641658
  0
LINE
  5
28D
100
AcDbEntity
  8
RACCORDO
100
AcDbLine
 62
7
  6
CONTINUOUS
 10
-0.8250095843
 20
23.0369800316
 11
-1.0290181121
 21
22.9451349798
  0
LINE
  5
28E
100
AcDbEntity
  8
ASSI
100
AcDbLine
 62
250
  6
CONTINUOUS
 10
2.9474407754
 20
24.1515318209
 11
2.9517973133
 21
24.1534879164
  0
LINE
  5
28F
100
AcDbEntity
  8
ASSI
100
AcDbLine
 62
7
  6
CONTINUOUS
 10
6.4285327445
 20
24.8152392761
 11
6.3755194923
 21
24.7921218291
  0
LWPOLYLINE
  5
290
100
AcDbEntity
  8
ASSI
100
AcDbPolyline
 62
250
  6
CONTINUOUS
 90
10
 70
0
 10
6.4643601365
 20
24.7861641664
 10
6.5165301921
 20
24.8088059228
 10
6.5682952037
 20
24.8265815719
 10
6.6193715918
 20
24.8393941074
 10
6.6694777955
 20
24.8471744793
 10
6.7183401753
 20
24.8498799669
 10
6.7656944945
 20
24.8474943204
 10
6.8112794816
 20
24.8400316183
 10
6.8548445173
 20
24.8275330971
 10
6.8970089574
 20
24.8096395259
  0
LWPOLYLINE
  5
291
100
AcDbEntity
  8
ASSI
100
AcDbPolyline
 62
250
  6
CONTINUOUS
 90
31
 70
0
 10
3.058538034
 20
24.1440851716
 10
3.0685904694
 20
24.1483889182
 10
3.0792867048
 20
24.1520911068
 10
3.0906267403
 20
24.1551917373
 10
3.1027511932
 20
24.1577132333
 10
3.1155194461
 20
24.1596331712
 10
3.1285096468
 20
24.1608842809
 10
3.14172446
 20
24.1614430546
 10
3.155161221
 20
24.161333
 10
3.1683900833
 20
24.1605573703
 10
3.1814043392
 20
24.1590944896
 10
3.1942106965
 20
24.1569660338
 10
3.2063994324
 20
24.1542402837
 10
3.217950576
 20
24.1508979767
 10
3.2288840982
 20
24.1469583755
 10
3.2388501891
 20
24.1425475485
 10
3.2478174942
 20
24.1376502422
 10
3.2558173681
 20
24.1322817103
 10
3.2625940641
 20
24.1266137826
 10
3.2681081291
 20
24.120636809
 10
3.2723990163
 20
24.1143604396
 10
3.2753293381
 20
24.1079854547
 10
3.2768547798
 20
24.1015086954
 10
3.2770196561
 20
24.0949333205
 10
3.275819524
 20
24.0884695864
 10
3.2732055215
 20
24.0821184484
 10
3.2692265105
 20
24.0758789512
 10
3.2640246342
 20
24.0699584846
 10
3.2576472736
 20
24.0644261786
 10
3.2500470476
 20
24.0592129033
 10
3.2412239562
 20
24.0543186586
  0
LWPOLYLINE
  5
292
100
AcDbEntity
  8
RACCORDO
100
AcDbPolyline
 62
250
  6
CONTINUOUS
 90
9
 70
0
 10
12.8842813298
 20
27.5065163127
 10
12.9382877313
 20
27.5295478287
 10
12.9920078044
 20
27.5467894653
 10
13.0450436489
 20
27.5580542368
 10
13.0970295741
 20
27.5631981534
 10
13.147530824
 20
27.5621100144
 10
13.1960589602
 20
27.5547546192
 10
13.2422412529
 20
27.5411604697
 10
13.2756523433
 20
27.5266505984
  0
LINE
  5
293
100
AcDbEntity
  8
ASSI
100
AcDbLine
 62
7
  6
CONTINUOUS
 10
2.9796607059
 20
24.1652045878
 11
2.9473568905
 21
24.1514818094
  0
LWPOLYLINE
  5
294
100
AcDbEntity
  8
RACCORDO
100
AcDbPolyline
 62
7
  6
CONTINUOUS
 90
12
 70
0
 10
12.4958238472
 20
27.5387306484
 10
12.5614513233
 20
27.565950298
 10
12.6301501539
 20
27.5882260674
 10
12.7014576364
 20
27.6051254496
 10
12.7750142859
 20
27.6162897741
 10
12.8500422682
 20
27.6213614969
 10
12.9254282256
 20
27.6201406501
 10
13.0006137343
 20
27.6125905151
 10
13.0749711659
 20
27.5987438836
 10
13.1474925373
 20
27.5788342668
 10
13.2178445689
 20
27.553044816
 10
13.2756846979
 20
27.5266344209
  0
LWPOLYLINE
  5
295
100
AcDbEntity
  8
RACCORDO
100
AcDbPolyline
 62
250
  6
CONTINUOUS
 90
9
 70
0
 10
12.4958238472
 20
27.5387306484
 10
12.5237364727
 20
27.5501296279
 10
12.5702508857
 20
27.5631086809
 10
12.6190698384
 20
27.5696862742
 10
12.6698219329
 20
27.5698123678
 10
12.7221210649
 20
27.5634860023
 10
12.7755693607
 20
27.5507553067
 10
12.829760204
 20
27.5317171315
 10
12.8842813298
 20
27.5065163127
  0
LWPOLYLINE
  5
296
100
AcDbEntity
  8
ASSI
100
AcDbPolyline
 62
7
  6
CONTINUOUS
 90
3
 70
0
 10
1.506051483
 20
21.4230245246
 10
1.5226889533
 20
21.4284867979
 10
1.5392758509
 20
21.4302095893
  0
LINE
  5
297
100
AcDbEntity
  8
ASSI
100
AcDbLine
 62
250
  6
CONTINUOUS
 10
4.3970190337
 20
-21.2649301602
 11
3.8561517278
 21
-21.1557271651
  0
LINE
  5
298
100
AcDbEntity
  8
ASSI
100
AcDbLine
 62
250
  6
CONTINUOUS
 10
4.3239126065
 20
-21.0101192519
 11
3.8561517278
 21
-20.9156766993
  0
LWPOLYLINE
  5
299
100
AcDbEntity
  8
ASSI
100
AcDbPolyline
 62
7
  6
CONTINUOUS
 90
4
 70
0
 10
2.6400410302
 20
-21.4045873914
 10
2.6624373839
 20
-21.4098247558
 10
2.6868094564
 20
-21.4157330873
 10
2.7403944818
 20
-21.4288854698
  0
LWPOLYLINE
  5
29A
100
AcDbEntity
  8
ASSI
100
AcDbPolyline
 62
7
  6
CONTINUOUS
 90
9
 70
0
 10
2.7403944818
 20
-21.4288854698
 10
2.7689388919
 20
-21.4357239627
 10
2.7977657394
 20
-21.4425057361
 10
2.8265793491
 20
-21.4488378402
 10
2.8549938209
 20
-21.4545082993
 10
2.8821962552
 20
-21.4595780658
 10
2.9077679861
 20
-21.4638716978
 10
2.9316616293
 20
-21.4669834582
 10
2.9537009772
 20
-21.4686519958
  0
LWPOLYLINE
  5
29B
100
AcDbEntity
  8
ASSI
100
AcDbPolyline
 62
250
  6
CONTINUOUS
 90
13
 70
0
 10
1.9185539082
 20
-22.6987092492
 10
1.9379923304
 20
-22.7072452805
 10
1.9594718551
 20
-22.7144553012
 10
1.9826330721
 20
-22.7202186683
 10
2.007088432
 20
-22.7244389451
 10
2.0324287309
 20
-22.7270455152
 10
2.0582299573
 20
-22.7279947634
 10
2.0840603875
 20
-22.7272708065
 10
2.1094878087
 20
-22.7248857581
 10
2.1340867519
 20
-22.7208795264
 10
2.1574456107
 20
-22.7153191466
 10
2.1791735284
 20
-22.7082976587
 10
2.1989069385
 20
-22.6999325512
  0
LWPOLYLINE
  5
29C
100
AcDbEntity
  8
ASSI
100
AcDbPolyline
 62
250
  6
CONTINUOUS
 90
13
 70
0
 10
1.9185539082
 20
-22.3814404489
 10
1.9379923465
 20
-22.3899764864
 10
1.9594718873
 20
-22.3971865104
 10
1.9826331189
 20
-22.4029498779
 10
2.0070884907
 20
-22.407170153
 10
2.0324287977
 20
-22.4097767197
 10
2.0582300274
 20
-22.4107259636
 10
2.0840604554
 20
-22.4100020022
 10
2.1094878695
 20
-22.4076169501
 10
2.1340868012
 20
-22.4036107164
 10
2.157445645
 20
-22.3980503368
 10
2.1791735458
 20
-22.391028852
 10
2.1989069385
 20
-22.3826637508
  0
LWPOLYLINE
  5
29D
100
AcDbEntity
  8
ASSI
100
AcDbPolyline
 62
7
  6
CONTINUOUS
 90
10
 70
0
 10
1.9834755249
 20
-22.8339004928
 10
1.9959324301
 20
-22.8396708156
 10
2.0172677519
 20
-22.8474779867
 10
2.0394465262
 20
-22.8530721295
 10
2.0622324877
 20
-22.8563573224
 10
2.0854650901
 20
-22.857265375
 10
2.1088953959
 20
-22.8557353161
 10
2.1321873681
 20
-22.8517589717
 10
2.1551111911
 20
-22.8453602695
 10
2.1789433009
 20
-22.8359054258
  0
LINE
  5
29E
100
AcDbEntity
  8
ASSI
100
AcDbLine
 62
7
  6
CONTINUOUS
 10
1.9837542804
 20
-22.8340412373
 11
0.2536087748
 21
-21.9689684844
  0
LWPOLYLINE
  5
29F
100
AcDbEntity
  8
RACCORDO
100
AcDbPolyline
 62
250
  6
CONTINUOUS
 90
13
 70
0
 10
-18.4762134269
 20
-15.1093440443
 10
-18.4745300907
 20
-15.1828510454
 10
-18.4684538447
 20
-15.253890174
 10
-18.4580193966
 20
-15.3220978031
 10
-18.4432916647
 20
-15.3871164861
 10
-18.4243453009
 20
-15.4486207699
 10
-18.4012610841
 20
-15.5063162959
 10
-18.3741624528
 20
-15.5599054839
 10
-18.3431924455
 20
-15.6091056871
 10
-18.3084907826
 20
-15.6536730277
 10
-18.2702456506
 20
-15.693370994
 10
-18.2286587845
 20
-15.7279907664
 10
-18.1803568694
 20
-15.7594020878
  0
LWPOLYLINE
  5
2A0
100
AcDbEntity
  8
RACCORDO
100
AcDbPolyline
 62
7
  6
CONTINUOUS
 90
14
 70
0
 10
-18.5995958567
 20
-14.9447700133
 10
-18.5995866811
 20
-14.9671936462
 10
-18.5949279325
 20
-15.0629364255
 10
-18.5828638628
 20
-15.1550688068
 10
-18.5634472519
 20
-15.2436424141
 10
-18.5368526714
 20
-15.3280410473
 10
-18.5037053388
 20
-15.4068636201
 10
-18.4648191032
 20
-15.4793097374
 10
-18.4205128903
 20
-15.5457236255
 10
-18.3709880938
 20
-15.606272812
 10
-18.3168712946
 20
-15.6605540558
 10
-18.2587322715
 20
-15.7083830474
 10
-18.1965973796
 20
-15.7499447181
 10
-18.1801155326
 20
-15.7595385023
  0
LWPOLYLINE
  5
2A1
100
AcDbEntity
  8
RACCORDO
100
AcDbPolyline
 62
7
  6
CONTINUOUS
 90
10
 70
0
 10
-17.0581098335
 20
21.850430125
 10
-17.3467864453
 20
17.7647227776
 10
-17.6103697925
 20
13.6194466451
 10
-17.8434544097
 20
9.4872768976
 10
-18.0459994345
 20
5.368648789
 10
-18.2179854334
 20
1.2639188925
 10
-18.3593983548
 20
-2.8265860862
 10
-18.4702271796
 20
-6.9025134755
 10
-18.5504764387
 20
-10.9634489454
 10
-18.5996037389
 20
-14.9447235062
  0
LWPOLYLINE
  5
2A2
100
AcDbEntity
  8
RACCORDO
100
AcDbPolyline
 62
250
  6
CONTINUOUS
 90
10
 70
0
 10
-16.9344900409
 20
21.6908598699
 10
-17.2293960284
 20
17.5497006091
 10
-17.4934717901
 20
13.4205851299
 10
-17.7266796717
 20
9.3038942478
 10
-17.9289944952
 20
5.1998224886
 10
-18.1003799786
 20
1.1089322611
 10
-18.2407973193
 20
-2.9678501493
 10
-18.3502361558
 20
-7.0299736308
 10
-18.4287060071
 20
-11.0772587792
 10
-18.4762134334
 20
-15.1093440493
  0
LWPOLYLINE
  5
2A3
100
AcDbEntity
  8
RACCORDO
100
AcDbPolyline
 62
250
  6
CONTINUOUS
 90
10
 70
0
 10
-0.0531426495
 20
24.9504146054
 10
-0.047885522
 20
24.9559421109
 10
-0.042651054
 20
24.9607050686
 10
-0.0374618476
 20
24.964680697
 10
-0.0323384096
 20
24.9678505981
 10
-0.027305173
 20
24.9701969263
 10
-0.0223899779
 20
24.9717057774
 10
-0.0176118564
 20
24.9723712396
 10
-0.0129936528
 20
24.9721900598
 10
-0.0109543379
 20
24.9718283929
  0
LWPOLYLINE
  5
2A4
100
AcDbEntity
  8
RACCORDO
100
AcDbPolyline
 62
250
  6
CONTINUOUS
 90
10
 70
0
 10
-0.3096980205
 20
24.2318745682
 10
-0.328738909
 20
24.213815003
 10
-0.3465869645
 20
24.1931045377
 10
-0.3628752609
 20
24.1701689447
 10
-0.3772689381
 20
24.1454797414
 10
-0.3894720862
 20
24.1195444964
 10
-0.3992338289
 20
24.092896395
 10
-0.4063534812
 20
24.0660832773
 10
-0.4106846749
 20
24.0396563763
 10
-0.412138368
 20
24.0141589847
  0
LWPOLYLINE
  5
2A5
100
AcDbEntity
  8
RACCORDO
100
AcDbPolyline
 62
250
  6
CONTINUOUS
 90
10
 70
0
 10
0.4487075782
 20
23.8526717688
 10
0.4296661257
 20
23.8346115745
 10
0.4118177338
 20
23.8139005141
 10
0.3955293181
 20
23.7909644541
 10
0.3811357173
 20
23.7662750055
 10
0.3689327778
 20
23.7403397687
 10
0.3591712917
 20
23.7136918877
 10
0.3520518834
 20
23.6868791755
 10
0.3477208698
 20
23.660452859
 10
0.3462672328
 20
23.6349561844
  0
LWPOLYLINE
  5
2A6
100
AcDbEntity
  8
RACCORDO
100
AcDbPolyline
 62
250
  6
CONTINUOUS
 90
16
 70
0
 10
-0.8250095843
 20
23.9018985594
 10
-0.8007802488
 20
23.9247615619
 10
-0.7747389207
 20
23.9457808738
 10
-0.7471836832
 20
23.9648798264
 10
-0.7184147559
 20
23.9821106103
 10
-0.6887570736
 20
23.997316681
 10
-0.658559237
 20
24.0101374501
 10
-0.6281445038
 20
24.0205314598
 10
-0.5978277286
 20
24.0285458704
 10
-0.5679398264
 20
24.0339850869
 10
-0.5388280825
 20
24.0368619798
 10
-0.510717925
 20
24.0372728442
 10
-0.4837484555
 20
24.0351519039
 10
-0.4581440824
 20
24.0305167162
 10
-0.4341967428
 20
24.0234891008
 10
-0.412138368
 20
24.0141589847
  0
LINE
  5
2A7
100
AcDbEntity
  8
RACCORDO
100
AcDbLine
 62
7
  6
CONTINUOUS
 10
-1.1229887797
 20
24.8301802025
 11
-2.874075185
 21
23.2976398137
  0
LINE
  5
2A8
100
AcDbEntity
  8
RACCORDO
100
AcDbLine
 62
7
  6
CONTINUOUS
 10
-3.340481085
 20
22.8894441489
 11
-3.3756113031
 21
22.8586983913
  0
LINE
  5
2A9
100
AcDbEntity
  8
RACCORDO
100
AcDbLine
 62
250
  6
CONTINUOUS
 10
-1.023543936
 20
24.8325553867
 11
-2.6692702557
 21
23.392225517
  0
LINE
  5
2AA
100
AcDbEntity
  8
RACCORDO
100
AcDbLine
 62
250
  6
CONTINUOUS
 10
-1.6496571645
 20
23.255454506
 11
-0.8250095843
 21
23.9018985594
  0
LWPOLYLINE
  5
2AB
100
AcDbEntity
  8
ASSI
100
AcDbPolyline
 62
7
  6
CONTINUOUS
 90
9
 70
0
 10
4.219269651
 20
23.7595083389
 10
4.2176274156
 20
23.7584808753
 10
4.2140734751
 20
23.7545110345
 10
4.2105824956
 20
23.7482358203
 10
4.2072222451
 20
23.7394915345
 10
4.2041021883
 20
23.7284506593
 10
4.2014253959
 20
23.7157502353
 10
4.199301774
 20
23.7016061169
 10
4.1977327947
 20
23.6858113586
  0
LWPOLYLINE
  5
2AC
100
AcDbEntity
  8
ASSI
100
AcDbPolyline
 62
7
  6
CONTINUOUS
 90
12
 70
0
 10
-0.0652658612
 20
20.5754268874
 10
-0.0765614946
 20
20.5689410659
 10
-0.0988525403
 20
20.5535991179
 10
-0.1197499056
 20
20.5356050701
 10
-0.1389422325
 20
20.5151574904
 10
-0.1557169351
 20
20.4931302092
 10
-0.1703798427
 20
20.4692493712
 10
-0.1828561582
 20
20.4434316862
 10
-0.1924946004
 20
20.4169801715
 10
-0.1993017197
 20
20.3902262621
 10
-0.2033982919
 20
20.3624213004
 10
-0.2045260077
 20
20.3383636959
  0
LWPOLYLINE
  5
2AD
100
AcDbEntity
  8
ASSI
100
AcDbPolyline
 62
250
  6
CONTINUOUS
 90
12
 70
0
 10
0.0271377427
 20
20.5713054662
 10
0.0186757281
 20
20.5666128498
 10
0.0099939097
 20
20.5612756144
 10
0.0011169745
 20
20.5552634625
 10
-0.0079478528
 20
20.5485319853
 10
-0.0171465215
 20
20.5410704518
 10
-0.02638088
 20
20.5329149121
 10
-0.0356143837
 20
20.5240588329
 10
-0.0448071438
 20
20.5145001991
 10
-0.053858897
 20
20.5043096016
 10
-0.0627299182
 20
20.4935040277
 10
-0.07138031
 20
20.4821030729
  0
LINE
  5
2AE
100
AcDbEntity
  8
ASSI
100
AcDbLine
 62
7
  6
CONTINUOUS
 10
-0.4925549765
 20
20.6406520609
 11
-0.7109010138
 21
20.5214505411
  0
LINE
  5
2AF
100
AcDbEntity
  8
ASSI
100
AcDbLine
 62
7
  6
CONTINUOUS
 10
1.5018416121
 20
21.4209176299
 11
-0.0653588782
 21
20.5753770112
  0
LINE
  5
2B0
100
AcDbEntity
  8
ASSI
100
AcDbLine
 62
250
  6
CONTINUOUS
 10
1.5933884889
 20
21.4163336762
 11
0.0271377427
 21
20.5713054662
  0
LINE
  5
2B1
100
AcDbEntity
  8
ASSI
100
AcDbLine
 62
7
  6
CONTINUOUS
 10
1.5018850464
 20
21.4209410202
 11
1.506051483
 21
21.4230245246
  0
LINE
  5
2B2
100
AcDbEntity
  8
ASSI
100
AcDbLine
 62
7
  6
CONTINUOUS
 10
-0.4925549765
 20
20.6406520609
 11
3.405806964
 21
22.5742683225
  0
LINE
  5
2B3
100
AcDbEntity
  8
ASSI
100
AcDbLine
 62
7
  6
CONTINUOUS
 10
3.5197652554
 20
23.1770148455
 11
3.9406437991
 21
23.3786449227
  0
LINE
  5
2B4
100
AcDbEntity
  8
RACCORDO
100
AcDbLine
 62
7
  6
CONTINUOUS
 10
13.8554401634
 20
27.0209368959
 11
10.425036263
 21
25.3836000829
  0
LINE
  5
2B5
100
AcDbEntity
  8
ASSI
100
AcDbLine
 62
7
  6
CONTINUOUS
 10
9.3176954188
 20
23.3594965252
 11
3.9529441466
 21
20.8185177022
  0
LINE
  5
2B6
100
AcDbEntity
  8
ASSI
100
AcDbLine
 62
250
  6
CONTINUOUS
 10
2.136116504
 20
21.6669834589
 11
1.5933884889
 21
21.4163336762
  0
LINE
  5
2B7
100
AcDbEntity
  8
ASSI
100
AcDbLine
 62
7
  6
CONTINUOUS
 10
2.0500310005
 20
21.6742517753
 11
1.5061072887
 21
21.4230502976
  0
LWPOLYLINE
  5
2B8
100
AcDbEntity
  8
ASSI
100
AcDbPolyline
 62
250
  6
CONTINUOUS
 90
3
 70
0
 10
4.3469485947
 20
-21.0180327069
 10
4.341002349
 20
-21.0153368147
 10
4.3239133458
 20
-21.0101196373
  0
LINE
  5
2B9
100
AcDbEntity
  8
ASSI
100
AcDbLine
 62
250
  6
CONTINUOUS
 10
1.9185539082
 20
-22.6987092492
 11
0.3702844043
 21
-21.9245744973
  0
LINE
  5
2BA
100
AcDbEntity
  8
ASSI
100
AcDbLine
 62
250
  6
CONTINUOUS
 10
1.9185539082
 20
-22.3814404489
 11
0.9830853899
 21
-21.9137061897
  0
LINE
  5
2BB
100
AcDbEntity
  8
ASSI
100
AcDbLine
 62
250
  6
CONTINUOUS
 10
0.7895211038
 20
-21.8169240467
 11
0.6703648621
 21
-21.7573459258
  0
LINE
  5
2BC
100
AcDbEntity
  8
ASSI
100
AcDbLine
 62
250
  6
CONTINUOUS
 10
2.0072508207
 20
-22.1499005575
 11
1.2245668465
 21
-21.7585585704
  0
LINE
  5
2BD
100
AcDbEntity
  8
ASSI
100
AcDbLine
 62
7
  6
CONTINUOUS
 10
0.7895211038
 20
-21.0660910218
 11
0.9830853899
 21
-21.1628731648
  0
LINE
  5
2BE
100
AcDbEntity
  8
ASSI
100
AcDbLine
 62
7
  6
CONTINUOUS
 10
0.768994695
 20
-20.4745540611
 11
0.9503619227
 21
-20.5652376749
  0
LINE
  5
2BF
100
AcDbEntity
  8
ASSI
100
AcDbLine
 62
7
  6
CONTINUOUS
 10
1.8762527405
 20
-21.0281830838
 11
2.6032596892
 21
-21.3916865582
  0
LINE
  5
2C0
100
AcDbEntity
  8
ASSI
100
AcDbLine
 62
7
  6
CONTINUOUS
 10
1.3105673156
 20
-20.1195073464
 11
1.8762527405
 21
-20.4023500589
  0
LINE
  5
2C1
100
AcDbEntity
  8
ASSI
100
AcDbLine
 62
7
  6
CONTINUOUS
 10
2.6032596892
 20
-20.697773831
 11
2.8034358682
 21
-20.7978619205
  0
LWPOLYLINE
  5
2C2
100
AcDbEntity
  8
ASSI
100
AcDbPolyline
 62
250
  6
CONTINUOUS
 90
16
 70
0
 10
1.9834780281
 20
-22.8339025462
 10
1.9767426724
 20
-22.8301552939
 10
1.9691381007
 20
-22.8249916495
 10
1.9619787664
 20
-22.8190649765
 10
1.9552967736
 20
-22.8124014499
 10
1.9491097105
 20
-22.8050182133
 10
1.9434433354
 20
-22.7969445934
 10
1.9383185138
 20
-22.7882103372
 10
1.9337526391
 20
-22.7788451584
 10
1.9297624851
 20
-22.7688831079
 10
1.9263620976
 20
-22.7583592942
 10
1.9235635588
 20
-22.7473112772
 10
1.9213771403
 20
-22.7357801711
 10
1.9198103602
 20
-22.7238077651
 10
1.9188682786
 20
-22.7114361097
 10
1.9185539082
 20
-22.6987092492
  0
LWPOLYLINE
  5
2C3
100
AcDbEntity
  8
ASSI
100
AcDbPolyline
 62
250
  6
CONTINUOUS
 90
13
 70
0
 10
2.0072508207
 20
-22.1499005575
 10
2.0259639032
 20
-22.1603381296
 10
2.0455568352
 20
-22.1725389863
 10
2.0656980854
 20
-22.1862966774
 10
2.0860468445
 20
-22.2013784093
 10
2.1062587916
 20
-22.2175289847
 10
2.1259919213
 20
-22.2344751202
 10
2.1449123298
 20
-22.2519300709
 10
2.1626998655
 20
-22.269598482
 10
2.1790535462
 20
-22.287181387
 10
2.1936966518
 20
-22.3043812661
 10
2.2063814068
 20
-22.3209070809
 10
2.2168931729
 20
-22.3364791985
  0
LINE
  5
2C4
100
AcDbEntity
  8
RACCORDO
100
AcDbLine
 62
250
  6
CONTINUOUS
 10
0.4998265251
 20
23.4246726717
 11
0.4667266003
 21
23.39094629
  0
LWPOLYLINE
  5
2C5
100
AcDbEntity
  8
ASSI
100
AcDbPolyline
 62
7
  6
CONTINUOUS
 90
16
 70
0
 10
3.3286480488
 20
23.0180463837
 10
3.3520863958
 20
23.0397737864
 10
3.3723080833
 20
23.064998919
 10
3.3893131113
 20
23.0937217815
 10
3.4032038945
 20
23.1262702218
 10
3.4138780181
 20
23.1623163919
 10
3.4210282387
 20
23.2008767488
 10
3.4245521418
 20
23.2421249349
 10
3.4245521418
 20
23.2858873077
 10
3.4210282387
 20
23.3306593969
 10
3.4138780181
 20
23.3763699744
 10
3.4032038945
 20
23.4230902682
 10
3.3893131113
 20
23.4695294915
 10
3.3723080833
 20
23.5152573822
 10
3.3520863958
 20
23.5607042023
 10
3.3286480488
 20
23.605869952
  0
LINE
  5
2C6
100
AcDbEntity
  8
RACCORDO
100
AcDbLine
 62
250
  6
CONTINUOUS
 10
0.4667266003
 20
23.39094629
 11
-0.3704061538
 21
22.6158290007
  0
LINE
  5
2C7
100
AcDbEntity
  8
RACCORDO
100
AcDbLine
 62
7
  6
CONTINUOUS
 10
0.3699262293
 20
23.3907860502
 11
-0.433151191
 21
22.6472015193
  0
LINE
  5
2C8
100
AcDbEntity
  8
ASSI
100
AcDbLine
 62
7
  6
CONTINUOUS
 10
0.7560576905
 20
19.4570985444
 11
0.7895211038
 21
19.4826800927
  0
LWPOLYLINE
  5
2C9
100
AcDbEntity
  8
ASSI
100
AcDbPolyline
 62
250
  6
CONTINUOUS
 90
7
 70
0
 10
4.4143881384
 20
20.3461106912
 10
4.4311183395
 20
20.3559773869
 10
4.4451613084
 20
20.3668413365
 10
4.4562820675
 20
20.3785207578
 10
4.4642945353
 20
20.3908202232
 10
4.46906464
 20
20.4035339299
 10
4.4705201783
 20
20.4155765281
  0
LWPOLYLINE
  5
2CA
100
AcDbEntity
  8
ASSI
100
AcDbPolyline
 62
250
  6
CONTINUOUS
 90
7
 70
0
 10
4.4143881384
 20
20.0061670963
 10
4.4311183535
 20
20.0160338014
 10
4.4451613292
 20
20.0268977603
 10
4.4562820889
 20
20.0385771896
 10
4.4642945521
 20
20.0508766612
 10
4.469064649
 20
20.0635903719
 10
4.4705201783
 20
20.0756329334
  0
LWPOLYLINE
  5
2CB
100
AcDbEntity
  8
ASSI
100
AcDbPolyline
 62
250
  6
CONTINUOUS
 90
28
 70
0
 10
2.0928517841
 20
19.5384484455
 10
2.0837300589
 20
19.5334383705
 10
2.0744565949
 20
19.5277532561
 10
2.0650596599
 20
19.5213747114
 10
2.0555500457
 20
19.514271456
 10
2.0459831153
 20
19.5064447947
 10
2.0364558578
 20
19.4979412673
 10
2.0270046603
 20
19.4887667955
 10
2.0176682022
 20
19.4789315077
 10
2.0085422118
 20
19.4685147
 10
1.9996655274
 20
19.4575470533
 10
1.9910703401
 20
19.4460542299
 10
1.982832744
 20
19.4341288988
 10
1.9749901601
 20
19.4218249428
 10
1.9675614566
 20
19.4091717696
 10
1.9605855383
 20
19.3962359216
 10
1.9540897297
 20
19.3830731813
 10
1.9480892859
 20
19.3697200306
 10
1.9426007859
 20
19.3562163511
 10
1.9376418262
 20
19.3426080957
 10
1.9332286564
 20
19.3289428732
 10
1.929374303
 20
19.3152630577
 10
1.926091466
 20
19.3016156104
 10
1.9233907874
 20
19.288047141
 10
1.9212804127
 20
19.2745992864
 10
1.9197675208
 20
19.2613165484
 10
1.9188576191
 20
19.2482460208
 10
1.9185539082
 20
19.2354324909
  0
LWPOLYLINE
  5
2CC
100
AcDbEntity
  8
0
100
AcDbPolyline
 62
7
  6
CONTINUOUS
 90
13
 70
0
 10
10.8396137747
 20
24.3080215427
 10
10.7106289566
 20
24.2376678243
 10
10.5917156723
 20
24.1630097757
 10
10.4834468388
 20
24.0844070948
 10
10.3863440888
 20
24.0022384846
 10
10.3008752575
 20
23.9168998285
 10
10.2274521284
 20
23.8288022828
 10
10.1664284498
 20
23.7383702964
 10
10.11809823
 20
23.6460395649
 10
10.0826943211
 20
23.5522549322
 10
10.060387297
 20
23.457468247
 10
10.0512846316
 20
23.3621361858
 10
10.0510525098
 20
23.3442713043
  0
LWPOLYLINE
  5
2CD
100
AcDbEntity
  8
ASSI
100
AcDbPolyline
 62
250
  6
CONTINUOUS
 90
28
 70
0
 10
2.2342516012
 20
19.2945698361
 10
2.232391355
 20
19.2935856696
 10
2.2305128348
 20
19.2924603325
 10
2.2286160406
 20
19.2911938251
 10
2.2266896978
 20
19.2897835132
 10
2.224745081
 20
19.2882320308
 10
2.2228160133
 20
19.2865472801
 10
2.2209024061
 20
19.284724324
 10
2.219004348
 20
19.2827680996
 10
2.2171559286
 20
19.2807013203
 10
2.2153590651
 20
19.278520877
 10
2.2136118404
 20
19.2762298787
 10
2.2119425923
 20
19.2738603658
 10
2.2103547493
 20
19.2714128297
 10
2.208844883
 20
19.2688867789
 10
2.2074310456
 20
19.2663127793
 10
2.2061155262
 20
19.2636922014
 10
2.2048960357
 20
19.2610236747
 10
2.2037837599
 20
19.2583336531
 10
2.2027796131
 20
19.2556219114
 10
2.201882681
 20
19.2528886747
 10
2.2011014067
 20
19.2501610728
 10
2.2004368462
 20
19.2474392179
 10
2.1998879434
 20
19.2447229978
 10
2.1994599738
 20
19.2420392055
 10
2.1991546956
 20
19.2393967722
 10
2.1989703505
 20
19.2367867666
 10
2.1989069385
 20
19.234209189
  0
LINE
  5
2CE
100
AcDbEntity
  8
ASSI
100
AcDbLine
 62
7
  6
CONTINUOUS
 10
10.531621029
 20
22.3903842188
 11
4.1447321871
 21
19.0139987306
  0
LINE
  5
2CF
100
AcDbEntity
  8
0
100
AcDbLine
 62
7
  6
CONTINUOUS
 10
10.4990845305
 20
23.0406643112
 11
10.8060031787
 21
23.2025085832
  0
LINE
  5
2D0
100
AcDbEntity
  8
RACCORDO
100
AcDbLine
 62
250
  6
CONTINUOUS
 10
10.8058753967
 20
23.2024411963
 11
10.8060031787
 21
23.2025085832
  0
LINE
  5
2D1
100
AcDbEntity
  8
ASSI
100
AcDbLine
 62
7
  6
CONTINUOUS
 10
10.5089537388
 20
22.789079334
 11
3.9716779755
 21
19.3626379159
  0
LINE
  5
2D2
100
AcDbEntity
  8
0
100
AcDbLine
 62
7
  6
CONTINUOUS
 10
14.8517697531
 20
26.3494213355
 11
10.8396137747
 21
24.3080215427
  0
LINE
  5
2D3
100
AcDbEntity
  8
ASSI
100
AcDbLine
 62
250
  6
CONTINUOUS
 10
3.7147519108
 20
20.3556519652
 11
2.0928517841
 21
19.5384484455
  0
LINE
  5
2D4
100
AcDbEntity
  8
ASSI
100
AcDbLine
 62
250
  6
CONTINUOUS
 10
3.8561517278
 20
20.1117733559
 11
2.2342516012
 21
19.2945698361
  0
LINE
  5
2D5
100
AcDbEntity
  8
0
100
AcDbLine
 62
7
  6
CONTINUOUS
 10
10.9342906075
 20
22.9794168519
 11
11.4292653543
 21
23.2269042253
  0
LINE
  5
2D6
100
AcDbEntity
  8
RACCORDO
100
AcDbLine
 62
7
  6
CONTINUOUS
 10
13.8974432669
 20
23.4074040776
 11
12.5859789558
 21
22.7516719221
  0
LINE
  5
2D7
100
AcDbEntity
  8
ASSI
100
AcDbLine
 62
250
  6
CONTINUOUS
 10
4.2388563773
 20
20.6156116444
 11
3.7147519108
 21
20.3556519652
  0
LINE
  5
2D8
100
AcDbEntity
  8
ASSI
100
AcDbLine
 62
250
  6
CONTINUOUS
 10
4.3802561944
 20
20.3717330351
 11
3.8561517278
 21
20.1117733559
  0
LINE
  5
2D9
100
AcDbEntity
  8
ASSI
100
AcDbLine
 62
250
  6
CONTINUOUS
 10
4.5863251012
 20
18.7932022736
 11
3.8915609148
 21
18.4485941153
  0
LINE
  5
2DA
100
AcDbEntity
  8
DRAFT
100
AcDbLine
 62
7
  6
CONTINUOUS
 10
14.8517697531
 20
25.9415700682
 11
10.8396137747
 21
23.9866972605
  0
LINE
  5
2DB
100
AcDbEntity
  8
DRAFT
100
AcDbLine
 62
7
  6
CONTINUOUS
 10
11.0175161944
 20
21.8773931773
 11
4.6240147692
 21
18.7717556941
  0
LWPOLYLINE
  5
2DC
100
AcDbEntity
  8
RACCORDO
100
AcDbPolyline
 62
7
  6
CONTINUOUS
 90
10
 70
0
 10
14.7459450787
 20
22.9831268461
 10
14.757341543
 20
22.9882955013
 10
14.7685619454
 20
22.9923473977
 10
14.7796062862
 20
22.9952825352
 10
14.7905695451
 20
22.9971010666
 10
14.8013567422
 20
22.997802839
 10
14.8116829377
 20
22.9973873947
 10
14.8214531514
 20
22.9958545808
 10
14.8307623634
 20
22.9932045501
 10
14.8396105737
 20
22.9894373025
  0
LINE
  5
2DD
100
AcDbEntity
  8
RACCORDO
100
AcDbLine
 62
250
  6
CONTINUOUS
 10
-1.3774043076
 20
15.7206906611
 11
1.9870113362
 21
17.21189923
  0
LWPOLYLINE
  5
2DE
100
AcDbEntity
  8
ASSI
100
AcDbPolyline
 62
250
  6
CONTINUOUS
 90
13
 70
0
 10
2.1989069385
 20
19.234209189
 10
2.1791735284
 20
19.2258440814
 10
2.1574456107
 20
19.2188225935
 10
2.1340867519
 20
19.2132622137
 10
2.1094878087
 20
19.2092559821
 10
2.0840603875
 20
19.2068709336
 10
2.0582299573
 20
19.2061469767
 10
2.0324287309
 20
19.207096225
 10
2.007088432
 20
19.209702795
 10
1.9826330721
 20
19.2139230718
 10
1.9594718551
 20
19.2196864389
 10
1.9379923304
 20
19.2268964596
 10
1.9185539082
 20
19.2354324909
  0
LWPOLYLINE
  5
2DF
100
AcDbEntity
  8
ASSI
100
AcDbPolyline
 62
250
  6
CONTINUOUS
 90
13
 70
0
 10
2.1989069385
 20
18.9169403886
 10
2.1791734882
 20
18.9085752453
 10
2.1574455319
 20
18.9015537333
 10
2.1340866397
 20
18.8959933397
 10
2.1094876717
 20
18.8919871031
 10
2.0840602364
 20
18.8896020569
 10
2.0582298032
 20
18.8888781077
 10
2.0324285855
 20
18.8898273675
 10
2.0070883062
 20
18.8924339507
 10
1.982632973
 20
18.8966542409
 10
1.9594717873
 20
18.9024176203
 10
1.9379922966
 20
18.9096276513
 10
1.9185539082
 20
18.9181636904
  0
LWPOLYLINE
  5
2E0
100
AcDbEntity
  8
0
100
AcDbPolyline
 62
250
  6
CONTINUOUS
 90
10
 70
0
 10
-11.7324917075
 20
-11.598960151
 10
-11.5507710499
 20
-11.6646211025
 10
-11.374539805
 20
-11.7337999165
 10
-11.2040949313
 20
-11.8063800397
 10
-11.039723535
 20
-11.8822392369
 10
-10.8817027055
 20
-11.9612496516
 10
-10.7302990065
 20
-12.0432780022
 10
-10.5857676187
 20
-12.1281860098
 10
-10.4483519525
 20
-12.2158306514
 10
-10.3182835264
 20
-12.3060642418
  0
LWPOLYLINE
  5
2E1
100
AcDbEntity
  8
DRAFT
100
AcDbPolyline
 62
7
  6
CONTINUOUS
 90
8
 70
0
 10
1.4519886718
 20
-18.4318544263
 10
1.4991557535
 20
-18.4525659442
 10
1.5451375117
 20
-18.4674668023
 10
1.5899339463
 20
-18.4765570007
 10
1.6339785329
 20
-18.4797991747
 10
1.6768377958
 20
-18.4772306889
 10
1.7172113088
 20
-18.4689636373
 10
1.7566716205
 20
-18.45408156
  0
LWPOLYLINE
  5
2E2
100
AcDbEntity
  8
DRAFT
100
AcDbPolyline
 62
7
  6
CONTINUOUS
 90
9
 70
0
 10
1.4519886718
 20
-17.2315120847
 10
1.4048215901
 20
-17.2108005668
 10
1.3588398319
 20
-17.1958997087
 10
1.3140433973
 20
-17.1868095103
 10
1.2699988107
 20
-17.1835673363
 10
1.2271395478
 20
-17.1861358221
 10
1.1867660348
 20
-17.1944028737
 10
1.1490634093
 20
-17.2084615371
 10
1.1370034827
 20
-17.21443764
  0
LWPOLYLINE
  5
2E3
100
AcDbEntity
  8
DRAFT
100
AcDbPolyline
 62
7
  6
CONTINUOUS
 90
9
 70
0
 10
1.7348313843
 20
-17.0840441166
 10
1.6871891104
 20
-17.0631239426
 10
1.6407441095
 20
-17.0480729632
 10
1.5954963816
 20
-17.0388911785
 10
1.5510080891
 20
-17.0356163305
 10
1.5077170695
 20
-17.0382106771
 10
1.4669368358
 20
-17.046560992
 10
1.4288543749
 20
-17.06076128
 10
1.4166727632
 20
-17.0667976848
  0
LINE
  5
2E4
100
AcDbEntity
  8
ASSI
100
AcDbLine
 62
250
  6
CONTINUOUS
 10
3.8561517278
 20
-20.7762476626
 11
4.3239126065
 21
-21.0101192519
  0
LINE
  5
2E5
100
AcDbEntity
  8
ASSI
100
AcDbLine
 62
7
  6
CONTINUOUS
 10
4.3471880128
 20
-21.0181519654
 11
3.8561517278
 21
-20.7726338226
  0
LINE
  5
2E6
100
AcDbEntity
  8
ASSI
100
AcDbLine
 62
250
  6
CONTINUOUS
 10
4.3418589281
 20
-21.0209045107
 11
4.3238617517
 21
-21.0101089841
  0
LWPOLYLINE
  5
2E7
100
AcDbEntity
  8
DRAFT
100
AcDbPolyline
 62
250
  6
CONTINUOUS
 90
10
 70
0
 10
-10.295261716
 20
-10.9949361679
 10
-10.2141771519
 20
-11.055256825
 10
-10.1363953706
 20
-11.1165661965
 10
-10.0619725703
 20
-11.1788199857
 10
-9.990962522
 20
-11.2419732137
 10
-9.9234165311
 20
-11.3059802516
 10
-9.8593834004
 20
-11.3707948539
 10
-9.7989093942
 20
-11.4363701913
 10
-9.7420382058
 20
-11.5026588851
 10
-9.6888109249
 20
-11.569613041
  0
LWPOLYLINE
  5
2E8
100
AcDbEntity
  8
DRAFT
100
AcDbPolyline
 62
250
  6
CONTINUOUS
 90
10
 70
0
 10
-10.318242413
 20
-12.3036055834
 10
-10.2371233505
 20
-12.3651626845
 10
-10.15930714
 20
-12.4274407866
 10
-10.0848500675
 20
-12.4903986995
 10
-10.0138045134
 20
-12.5539071554
 10
-9.9462235518
 20
-12.6180162248
 10
-9.8821607269
 20
-12.6829476234
 10
-9.8216638633
 20
-12.7487406126
 10
-9.7647752164
 20
-12.8152597448
 10
-9.7115359448
 20
-12.8824568926
  0
LWPOLYLINE
  5
2E9
100
AcDbEntity
  8
ASSI
100
AcDbPolyline
 62
7
  6
CONTINUOUS
 90
9
 70
0
 10
-12.7910271554
 20
26.3143070735
 10
-12.7908935358
 20
26.3061803288
 10
-12.7887107628
 20
26.2804125095
 10
-12.7838631313
 20
26.2552350612
 10
-12.7764003808
 20
26.2309661678
 10
-12.7664960582
 20
26.207999505
 10
-12.7542852764
 20
26.1864851266
 10
-12.7398681712
 20
26.1665507295
 10
-12.7234858301
 20
26.1484963816
  0
LINE
  5
2EA
100
AcDbEntity
  8
ASSI
100
AcDbLine
 62
7
  6
CONTINUOUS
 10
-12.7910267167
 20
26.3143070737
 11
-12.7910267634
 21
26.6316441828
  0
LINE
  5
2EB
100
AcDbEntity
  8
ASSI
100
AcDbLine
 62
250
  6
CONTINUOUS
 10
-12.7324481196
 20
26.243682055
 11
-12.7324481196
 21
26.5609335048
  0
LINE
  5
2EC
100
AcDbEntity
  8
0
100
AcDbLine
 62
7
  6
CONTINUOUS
 10
-12.5563065707
 20
25.1107750784
 11
-12.5563065707
 21
24.4835581835
  0
LINE
  5
2ED
100
AcDbEntity
  8
ASSI
100
AcDbLine
 62
7
  6
CONTINUOUS
 10
-12.076163643
 20
25.3588285599
 11
-12.076163643
 21
25.8127906642
  0
LINE
  5
2EE
100
AcDbEntity
  8
0
100
AcDbLine
 62
7
  6
CONTINUOUS
 10
-12.8988576205
 20
-11.2887960547
 11
-12.8938846799
 21
-10.9973430844
  0
LINE
  5
2EF
100
AcDbEntity
  8
0
100
AcDbLine
 62
7
  6
CONTINUOUS
 10
-12.8938846799
 20
-10.9973430844
 11
-12.8887199127
 21
-10.705798072
  0
LINE
  5
2F0
100
AcDbEntity
  8
0
100
AcDbLine
 62
7
  6
CONTINUOUS
 10
-12.8887199127
 20
-10.705798072
 11
-12.8833633231
 21
-10.4141612132
  0
LINE
  5
2F1
100
AcDbEntity
  8
0
100
AcDbLine
 62
7
  6
CONTINUOUS
 10
-12.8833633231
 20
-10.4141612132
 11
-12.8778149124
 21
-10.1224326884
  0
LWPOLYLINE
  5
2F2
100
AcDbEntity
  8
ASSI
100
AcDbPolyline
 62
250
  6
CONTINUOUS
 90
18
 70
0
 10
-12.7324481196
 20
26.5609335048
 10
-12.7322423455
 20
26.5714935979
 10
-12.7316022259
 20
26.5825492001
 10
-12.7304926577
 20
26.5940880169
 10
-12.7288745967
 20
26.6061210991
 10
-12.7267163958
 20
26.6185984882
 10
-12.7240055903
 20
26.6314064093
 10
-12.7207216081
 20
26.6445105175
 10
-12.7168459841
 20
26.657871232
 10
-12.7123931959
 20
26.6713580665
 10
-12.7073599499
 20
26.684924877
 10
-12.7017458548
 20
26.6985214927
 10
-12.6955940839
 20
26.7120100853
 10
-12.6889233913
 20
26.7253327928
 10
-12.6817472894
 20
26.7384467682
 10
-12.6741209765
 20
26.7512427979
 10
-12.6660816483
 20
26.76366053
 10
-12.6576493057
 20
26.7756708887
  0
LINE
  5
2F3
100
AcDbEntity
  8
0
100
AcDbLine
 62
7
  6
CONTINUOUS
 10
-12.8778149124
 20
-10.1224326884
 11
-12.8720748879
 21
-9.8306228283
  0
LINE
  5
2F4
100
AcDbEntity
  8
0
100
AcDbLine
 62
7
  6
CONTINUOUS
 10
-12.8720748879
 20
-9.8306228283
 11
-12.8661432753
 21
-9.5387321029
  0
LINE
  5
2F5
100
AcDbEntity
  8
0
100
AcDbLine
 62
7
  6
CONTINUOUS
 10
-12.8661432753
 20
-9.5387321029
 11
-12.8600198862
 21
-9.2467506796
  0
LINE
  5
2F6
100
AcDbEntity
  8
0
100
AcDbLine
 62
7
  6
CONTINUOUS
 10
-12.8600198862
 20
-9.2467506796
 11
-12.853704723
 21
-8.9546787392
  0
LINE
  5
2F7
100
AcDbEntity
  8
0
100
AcDbLine
 62
7
  6
CONTINUOUS
 10
-12.853704723
 20
-8.9546787392
 11
-12.8471977909
 21
-8.6625164776
  0
LWPOLYLINE
  5
2F8
100
AcDbEntity
  8
0
100
AcDbPolyline
 62
7
  6
CONTINUOUS
 90
46
 70
0
 10
-12.8471977909
 20
-8.6625164776
 10
-12.8398640496
 20
-8.5246160252
 10
-12.8255105013
 20
-8.3930583627
 10
-12.8039771239
 20
-8.2675635862
 10
-12.7748079843
 20
-8.1472660093
 10
-12.7383108814
 20
-8.0326691855
 10
-12.6953553054
 20
-7.9255853482
 10
-12.6457415315
 20
-7.826297936
 10
-12.5893530048
 20
-7.7344363275
 10
-12.5269689066
 20
-7.6508339178
 10
-12.4582652706
 20
-7.5755887324
 10
-12.3833268732
 20
-7.5088386394
 10
-12.3033940372
 20
-7.4514511131
 10
-12.2185537237
 20
-7.4037834663
 10
-12.1284817162
 20
-7.3658465727
 10
-12.0337128748
 20
-7.3379352327
 10
-11.9336566257
 20
-7.3202843277
 10
-11.8289364332
 20
-7.3131937168
 10
-11.7217827985
 20
-7.3168811496
 10
-11.6121018507
 20
-7.3317083788
 10
-11.4999997476
 20
-7.3575580212
 10
-11.3877736694
 20
-7.3935847938
 10
-11.2760712733
 20
-7.439430031
 10
-11.1642626175
 20
-7.4953331368
 10
-11.0526370043
 20
-7.5611564135
 10
-10.9407460124
 20
-7.63720075
 10
-10.8294046698
 20
-7.7230981958
 10
-10.7206731942
 20
-7.8175357284
 10
-10.6145044801
 20
-7.9206204592
 10
-10.511191023
 20
-8.0318821717
 10
-10.4129396842
 20
-8.148855621
 10
-10.3201771098
 20
-8.270737513
 10
-10.232399294
 20
-8.397813849
 10
-10.1501504306
 20
-8.5291313803
 10
-10.0732488184
 20
-8.6648185873
 10
-10.0018771152
 20
-8.8044667987
 10
-9.9369543181
 20
-8.9463139044
 10
-9.8784431823
 20
-9.090305795
 10
-9.8262771137
 20
-9.2364506312
 10
-9.781113173
 20
-9.383096424
 10
-9.7428511752
 20
-9.5306527779
 10
-9.7115296818
 20
-9.6789783022
 10
-9.6877745926
 20
-9.8256082184
 10
-9.671691892
 20
-9.9698692048
 10
-9.6630870208
 20
-10.1129238551
 10
-9.6620601992
 20
-10.2550852734
  0
LWPOLYLINE
  5
2F9
100
AcDbEntity
  8
ASSI
100
AcDbPolyline
 62
7
  6
CONTINUOUS
 90
3
 70
0
 10
-8.1252822189
 20
26.2997385011
 10
-8.1199178729
 20
26.323895519
 10
-8.1167749011
 20
26.3487250078
  0
LINE
  5
2FA
100
AcDbEntity
  8
ASSI
100
AcDbLine
 62
7
  6
CONTINUOUS
 10
3.8561517278
 20
18.4662987087
 11
2.9537009772
 21
17.9736243178
  0
LINE
  5
2FB
100
AcDbEntity
  8
ASSI
100
AcDbLine
 62
250
  6
CONTINUOUS
 10
3.8918704041
 20
18.4484393706
 11
2.8034358682
 21
17.8639167644
  0
LINE
  5
2FC
100
AcDbEntity
  8
ASSI
100
AcDbLine
 62
250
  6
CONTINUOUS
 10
4.2450604575
 20
17.8388314384
 11
3.1566259216
 21
17.2543088322
  0
LINE
  5
2FD
100
AcDbEntity
  8
RACCORDO
100
AcDbLine
 62
7
  6
CONTINUOUS
 10
14.7459739746
 20
22.983141294
 11
14.220634714
 21
22.7204716637
  0
LINE
  5
2FE
100
AcDbEntity
  8
RACCORDO
100
AcDbLine
 62
250
  6
CONTINUOUS
 10
19.7823183896
 20
23.5436643869
 11
5.2450604575
 21
16.3158647677
  0
LINE
  5
2FF
100
AcDbEntity
  8
ASSI
100
AcDbLine
 62
250
  6
CONTINUOUS
 10
4.9398246439
 20
18.1835057503
 11
4.2450604575
 21
17.838897592
  0
LINE
  5
300
100
AcDbEntity
  8
RACCORDO
100
AcDbLine
 62
7
  6
CONTINUOUS
 10
19.3627751786
 20
24.2672693883
 11
11.7702102784
 21
20.5791879163
  0
LINE
  5
301
100
AcDbEntity
  8
RACCORDO
100
AcDbLine
 62
7
  6
CONTINUOUS
 10
18.5571032425
 20
24.6701053564
 11
15.1359571728
 21
23.028139628
  0
LWPOLYLINE
  5
302
100
AcDbEntity
  8
RACCORDO
100
AcDbPolyline
 62
7
  6
CONTINUOUS
 90
9
 70
0
 10
19.3627751786
 20
24.2672693883
 10
19.4189210563
 20
24.2925324267
 10
19.4721537672
 20
24.3119849191
 10
19.5220242277
 20
24.3256145301
 10
19.5679949974
 20
24.3335222176
 10
19.609786959
 20
24.3357551955
 10
19.6473798691
 20
24.3322981812
 10
19.6804141576
 20
24.323361577
 10
19.6949761081
 20
24.3169885191
  0
LINE
  5
303
100
AcDbEntity
  8
RACCORDO
100
AcDbLine
 62
250
  6
CONTINUOUS
 10
-1.042469285
 20
15.1024548419
 11
2.3219463588
 21
16.5936634109
  0
LWPOLYLINE
  5
304
100
AcDbEntity
  8
DRAFT
100
AcDbPolyline
 62
250
  6
CONTINUOUS
 90
10
 70
0
 10
-12.8988576205
 20
-11.2887960547
 10
-12.7624449043
 20
-11.3164249013
 10
-12.6275127097
 20
-11.3458161903
 10
-12.4941586617
 20
-11.3769486572
 10
-12.3624804528
 20
-11.4098876544
 10
-12.2325721768
 20
-11.4445230804
 10
-12.1045241015
 20
-11.4805616845
 10
-11.9784275297
 20
-11.5178813402
 10
-11.8543748928
 20
-11.5565387931
 10
-11.7324559715
 20
-11.5965022045
  0
LWPOLYLINE
  5
305
100
AcDbEntity
  8
DRAFT
100
AcDbPolyline
 62
250
  6
CONTINUOUS
 90
10
 70
0
 10
-12.8749687759
 20
-9.9765341155
 10
-12.738661929
 20
-10.0043470234
 10
-12.6038339013
 20
-10.0339079378
 10
-12.4705821072
 20
-10.0651955005
 10
-12.3390028225
 20
-10.098187106
 10
-12.2091911143
 20
-10.1328589175
 10
-12.0812407729
 20
-10.1691858844
 10
-11.9552442436
 20
-10.20714176
 10
-11.83129256
 20
-10.246699121
 10
-11.7094752784
 20
-10.2878293867
  0
LWPOLYLINE
  5
306
100
AcDbEntity
  8
DRAFT
100
AcDbPolyline
 62
250
  6
CONTINUOUS
 90
10
 70
0
 10
-11.6824320555
 20
-8.9731004147
 10
-11.8041906957
 20
-8.9327339295
 10
-11.9280766748
 20
-8.8937122865
 10
-12.0540006051
 20
-8.8560665247
 10
-12.1818702942
 20
-8.8197601685
 10
-12.3115949565
 20
-8.7848921668
 10
-12.4430851338
 20
-8.7516911686
 10
-12.5762472637
 20
-8.7202466526
 10
-12.7109838934
 20
-8.6905146037
 10
-12.8471977909
 20
-8.6625164776
  0
LWPOLYLINE
  5
307
100
AcDbEntity
  8
0
100
AcDbPolyline
 62
250
  6
CONTINUOUS
 90
10
 70
0
 10
-11.7094752784
 20
-10.2878293867
 10
-11.5277555989
 20
-10.3536105284
 10
-11.3515250361
 20
-10.4228797177
 10
-11.1810805335
 20
-10.4955202381
 10
-11.0167092856
 20
-10.5714096922
 10
-10.8586882534
 20
-10.6504202083
 10
-10.707283698
 20
-10.7324186559
 10
-10.562750732
 20
-10.8172668697
 10
-10.4253328896
 20
-10.904821883
 10
-10.295261716
 20
-10.9949361679
  0
LINE
  5
308
100
AcDbEntity
  8
DRAFT
100
AcDbLine
 62
7
  6
CONTINUOUS
 10
3.1566259216
 20
-16.0195893075
 11
1.3105673156
 21
-15.0965600045
  0
LWPOLYLINE
  5
309
100
AcDbEntity
  8
0
100
AcDbPolyline
 62
250
  6
CONTINUOUS
 90
10
 70
0
 10
-10.2682606464
 20
-9.6820698189
 10
-10.3983339054
 20
-9.5920758916
 10
-10.5357532486
 20
-9.5046113409
 10
-10.6802871416
 20
-9.4198235457
 10
-10.8316921213
 20
-9.3378553443
 10
-10.9897130327
 20
-9.2588448886
 10
-11.1540834342
 20
-9.1829253993
 10
-11.32452629
 20
-9.11022482
 10
-11.5007544613
 20
-9.0408656133
 10
-11.6824710004
 20
-8.9749646412
  0
LWPOLYLINE
  5
30A
100
AcDbEntity
  8
DRAFT
100
AcDbPolyline
 62
250
  6
CONTINUOUS
 90
10
 70
0
 10
-9.6620601992
 20
-10.2550852734
 10
-9.7152782853
 20
-10.188367407
 10
-9.7721354806
 20
-10.1223025426
 10
-9.8325907552
 20
-10.0569383558
 10
-9.8966020186
 20
-9.9923889086
 10
-9.9641215749
 20
-9.9286350808
 10
-10.0350959955
 20
-9.8655188262
 10
-10.1094723758
 20
-9.8030127408
 10
-10.1871985343
 20
-9.7412257516
 10
-10.268218359
 20
-9.6801995595
  0
LINE
  5
30B
100
AcDbEntity
  8
DRAFT
100
AcDbLine
 62
7
  6
CONTINUOUS
 10
-11.7306468135
 20
-11.6759482536
 11
-11.7324559715
 21
-11.5965022045
  0
LWPOLYLINE
  5
30C
100
AcDbEntity
  8
0
100
AcDbPolyline
 62
7
  6
CONTINUOUS
 90
33
 70
0
 10
-11.7324917075
 20
-11.598960151
 10
-11.7317120315
 20
-11.6591613527
 10
-11.727668159
 20
-11.7204307645
 10
-11.72035323
 20
-11.7827857728
 10
-11.7096940713
 20
-11.8466836645
 10
-11.6957814032
 20
-11.9117168619
 10
-11.6788269956
 20
-11.9765892641
 10
-11.6587175944
 20
-12.0412210476
 10
-11.6355437696
 20
-12.1057081177
 10
-11.6097656921
 20
-12.168981148
 10
-11.581419945
 20
-12.2308184663
 10
-11.5504329681
 20
-12.2914256862
 10
-11.5170683183
 20
-12.3503500511
 10
-11.4813683839
 20
-12.4075872825
 10
-11.4432828394
 20
-12.4631175826
 10
-11.4029249863
 20
-12.516453409
 10
-11.360067793
 20
-12.5678116018
 10
-11.3149714305
 20
-12.6169507135
 10
-11.2684466923
 20
-12.6626779519
 10
-11.2199452854
 20
-12.7050037758
 10
-11.1700437286
 20
-12.7438826914
 10
-11.1211330372
 20
-12.7780047706
 10
-11.0746954756
 20
-12.8065360424
 10
-11.0291207932
 20
-12.8302519805
 10
-10.9821675418
 20
-12.8502620562
 10
-10.9324520648
 20
-12.8673658992
 10
-10.8815260488
 20
-12.8808027036
 10
-10.8315595372
 20
-12.889350404
 10
-10.7828571232
 20
-12.8925472515
 10
-10.7351287789
 20
-12.8908862554
 10
-10.689526202
 20
-12.8845525516
 10
-10.6463059591
 20
-12.8735052852
 10
-10.6328716436
 20
-12.8689622249
  0
LWPOLYLINE
  5
30D
100
AcDbEntity
  8
0
100
AcDbPolyline
 62
7
  6
CONTINUOUS
 90
33
 70
0
 10
-10.2682606464
 20
-9.6820698189
 10
-10.2687083243
 20
-9.6182776842
 10
-10.2725921545
 20
-9.5539931794
 10
-10.2798906481
 20
-9.4891847651
 10
-10.2906949365
 20
-9.4234926487
 10
-10.3049129427
 20
-9.3572330033
 10
-10.3222363467
 20
-9.291386951
 10
-10.342705866
 20
-9.2259285165
 10
-10.3662806302
 20
-9.1608578313
 10
-10.3924837642
 20
-9.0971845458
 10
-10.4212396209
 20
-9.0350868587
 10
-10.4526122446
 20
-8.9743813306
 10
-10.4862994332
 20
-8.9155287073
 10
-10.5222814211
 20
-8.8585329986
 10
-10.5605863847
 20
-8.8034157021
 10
-10.6009647267
 20
-8.7506608672
 10
-10.6436604756
 20
-8.7000700185
 10
-10.6884608391
 20
-8.6518957141
 10
-10.7343821324
 20
-8.6072765008
 10
-10.7816811411
 20
-8.5662628548
 10
-10.8300888321
 20
-8.5288404174
 10
-10.8777253332
 20
-8.4959844282
 10
-10.9231234094
 20
-8.4683497038
 10
-10.9676039707
 20
-8.445211521
 10
-11.0134909236
 20
-8.4254874821
 10
-11.0624028577
 20
-8.408440876
 10
-11.1128662625
 20
-8.394918926
 10
-11.1625804866
 20
-8.3862174532
 10
-11.211166568
 20
-8.3827628813
 10
-11.2590051636
 20
-8.3841095897
 10
-11.3048185175
 20
-8.3901552175
 10
-11.3482257016
 20
-8.4009173718
 10
-11.389570778
 20
-8.4163128725
  0
LINE
  5
30E
100
AcDbEntity
  8
ASSI
100
AcDbLine
 62
250
  6
CONTINUOUS
 10
-12.0029403383
 20
25.2671048677
 11
-12.0029403383
 21
25.7761790119
  0
LINE
  5
30F
100
AcDbEntity
  8
ASSI
100
AcDbLine
 62
7
  6
CONTINUOUS
 10
-11.870202906
 20
25.0758884582
 11
-11.870202906
 21
25.7137338791
  0
LINE
  5
310
100
AcDbEntity
  8
ASSI
100
AcDbLine
 62
250
  6
CONTINUOUS
 10
-11.7969796013
 20
25.0250974203
 11
-11.7969796013
 21
25.7759304453
  0
LINE
  5
311
100
AcDbEntity
  8
ASSI
100
AcDbLine
 62
250
  6
CONTINUOUS
 10
-11.6034153152
 20
24.9283152773
 11
-11.6034153152
 21
25.6791483022
  0
LINE
  5
312
100
AcDbEntity
  8
ASSI
100
AcDbLine
 62
250
  6
CONTINUOUS
 10
-11.2529740273
 20
24.8039677007
 11
-11.2529740273
 21
25.4011958564
  0
LINE
  5
313
100
AcDbEntity
  8
ASSI
100
AcDbLine
 62
7
  6
CONTINUOUS
 10
-10.7102479646
 20
25.129832825
 11
-10.7102479646
 21
24.6888383832
  0
LINE
  5
314
100
AcDbEntity
  8
ASSI
100
AcDbLine
 62
250
  6
CONTINUOUS
 10
-10.6679467969
 20
25.2114140431
 11
-10.6679467969
 21
25.5286828434
  0
LINE
  5
315
100
AcDbEntity
  8
ASSI
100
AcDbLine
 62
250
  6
CONTINUOUS
 10
-10.3875937666
 20
25.2101907412
 11
-10.3875937666
 21
25.5274595415
  0
LINE
  5
316
100
AcDbEntity
  8
0
100
AcDbLine
 62
7
  6
CONTINUOUS
 10
-10.0031411834
 20
23.2069754898
 11
-10.0031411834
 21
23.2416531593
  0
LINE
  5
317
100
AcDbEntity
  8
ASSI
100
AcDbLine
 62
250
  6
CONTINUOUS
 10
-9.9832410159
 20
24.2572552065
 11
-9.9832410159
 21
24.9374264948
  0
LINE
  5
318
100
AcDbEntity
  8
ASSI
100
AcDbLine
 62
250
  6
CONTINUOUS
 10
-9.632799728
 20
25.0250751165
 11
-9.632799728
 21
24.2668746704
  0
LWPOLYLINE
  5
319
100
AcDbEntity
  8
ASSI
100
AcDbPolyline
 62
250
  6
CONTINUOUS
 90
28
 70
0
 10
-10.3875937666
 20
25.5274595415
 10
-10.3875620094
 20
25.5295994883
 10
-10.3874265714
 20
25.5318280074
 10
-10.3871874526
 20
25.5341450986
 10
-10.3868487523
 20
25.536562315
 10
-10.3864063712
 20
25.5390681036
 10
-10.3858480109
 20
25.5416278059
 10
-10.3851696232
 20
25.5442442078
 10
-10.3843752563
 20
25.5469145233
 10
-10.3834647564
 20
25.549595736
 10
-10.382434046
 20
25.5522886474
 10
-10.3812872028
 20
25.554992456
 10
-10.3800363057
 20
25.5576617408
 10
-10.3786793281
 20
25.5602936071
 10
-10.3772182967
 20
25.5628909497
 10
-10.3756713707
 20
25.5654170314
 10
-10.3740383329
 20
25.5678684795
 10
-10.3723194005
 20
25.5702486667
 10
-10.3705333846
 20
25.5725309748
 10
-10.3686797312
 20
25.5747139611
 10
-10.3667589943
 20
25.5767990682
 10
-10.3647916474
 20
25.5787640055
 10
-10.3627771298
 20
25.580607465
 10
-10.3607160022
 20
25.5823307547
 10
-10.3586304203
 20
25.5839155086
 10
-10.3565277692
 20
25.5853556045
 10
-10.3544006637
 20
25.5866571645
 10
-10.3522491039
 20
25.5878201887
  0
LINE
  5
31A
100
AcDbEntity
  8
0
100
AcDbLine
 62
7
  6
CONTINUOUS
 10
-11.7278184478
 20
-11.313417528
 11
-11.7324949016
 21
-11.5989590445
  0
LINE
  5
31B
100
AcDbEntity
  8
DRAFT
100
AcDbLine
 62
7
  6
CONTINUOUS
 10
-11.7324555445
 20
-11.5965019056
 11
-11.7277982802
 21
-11.3122093276
  0
LINE
  5
31C
100
AcDbEntity
  8
0
100
AcDbLine
 62
7
  6
CONTINUOUS
 10
-10.3182813393
 20
-12.3060658257
 11
-10.3136057086
 21
-12.0205735271
  0
LINE
  5
31D
100
AcDbEntity
  8
DRAFT
100
AcDbLine
 62
7
  6
CONTINUOUS
 10
-10.3135846427
 20
-12.0193134386
 11
-10.3182417879
 21
-12.3036053821
  0
LINE
  5
31E
100
AcDbEntity
  8
0
100
AcDbLine
 62
7
  6
CONTINUOUS
 10
-11.7229008183
 20
-11.0247971983
 11
-11.7278184478
 21
-11.313417528
  0
LINE
  5
31F
100
AcDbEntity
  8
DRAFT
100
AcDbLine
 62
7
  6
CONTINUOUS
 10
-11.7277982802
 20
-11.3122093276
 11
-11.7228881365
 21
-11.0240675096
  0
LINE
  5
320
100
AcDbEntity
  8
0
100
AcDbLine
 62
7
  6
CONTINUOUS
 10
-10.3136057086
 20
-12.0205735271
 11
-10.3086884765
 21
-11.7319742158
  0
LINE
  5
321
100
AcDbEntity
  8
DRAFT
100
AcDbLine
 62
7
  6
CONTINUOUS
 10
-10.308674551
 20
-11.7311723246
 11
-10.3135846427
 21
-12.0193134386
  0
LINE
  5
322
100
AcDbEntity
  8
0
100
AcDbLine
 62
7
  6
CONTINUOUS
 10
-11.7177330181
 20
-10.7329294863
 11
-11.7229008183
 21
-11.0247971983
  0
LINE
  5
323
100
AcDbEntity
  8
DRAFT
100
AcDbLine
 62
7
  6
CONTINUOUS
 10
-11.7228881365
 20
-11.0240675096
 11
-11.7177190852
 21
-10.732157255
  0
LINE
  5
324
100
AcDbEntity
  8
0
100
AcDbLine
 62
7
  6
CONTINUOUS
 10
-10.3086884765
 20
-11.7319742158
 11
-10.3035205935
 21
-11.4400993618
  0
LINE
  5
325
100
AcDbEntity
  8
DRAFT
100
AcDbLine
 62
7
  6
CONTINUOUS
 10
-10.3035055007
 20
-11.439262835
 11
-10.308674551
 21
-11.7311723246
  0
LINE
  5
326
100
AcDbEntity
  8
0
100
AcDbLine
 62
7
  6
CONTINUOUS
 10
-11.7122962147
 20
-10.437147673
 11
-11.7177330181
 21
-10.7329294863
  0
LINE
  5
327
100
AcDbEntity
  8
DRAFT
100
AcDbLine
 62
7
  6
CONTINUOUS
 10
-11.7177190852
 20
-10.732157255
 11
-11.7122930559
 21
-10.4369804663
  0
LINE
  5
328
100
AcDbEntity
  8
DRAFT
100
AcDbLine
 62
7
  6
CONTINUOUS
 10
-10.2980763616
 20
-11.1439184475
 11
-10.3035055007
 21
-11.439262835
  0
LINE
  5
329
100
AcDbEntity
  8
0
100
AcDbLine
 62
7
  6
CONTINUOUS
 10
-10.3035205935
 20
-11.4400993618
 11
-10.2980797527
 21
-11.1441012432
  0
LINE
  5
32A
100
AcDbEntity
  8
0
100
AcDbLine
 62
7
  6
CONTINUOUS
 10
-11.7066075088
 20
-10.1387339847
 11
-11.7122962147
 21
-10.437147673
  0
LINE
  5
32B
100
AcDbEntity
  8
DRAFT
100
AcDbLine
 62
7
  6
CONTINUOUS
 10
-11.7122930559
 20
-10.4369804663
 11
-11.706607641
 21
-10.1387408576
  0
LINE
  5
32C
100
AcDbEntity
  8
DRAFT
100
AcDbLine
 62
7
  6
CONTINUOUS
 10
-10.2923941962
 20
-10.8458536242
 11
-10.2980763616
 21
-11.1439184475
  0
LINE
  5
32D
100
AcDbEntity
  8
0
100
AcDbLine
 62
7
  6
CONTINUOUS
 10
-10.2980797527
 20
-11.1441012432
 11
-10.2923941294
 21
-10.8458502108
  0
LINE
  5
32E
100
AcDbEntity
  8
0
100
AcDbLine
 62
7
  6
CONTINUOUS
 10
-11.7007656449
 20
-9.8428628786
 11
-11.7066075088
 21
-10.1387339847
  0
LINE
  5
32F
100
AcDbEntity
  8
DRAFT
100
AcDbLine
 62
7
  6
CONTINUOUS
 10
-11.706607641
 20
-10.1387408576
 11
-11.7007640185
 21
-9.8427818949
  0
LWPOLYLINE
  5
330
100
AcDbEntity
  8
ASSI
100
AcDbPolyline
 62
250
  6
CONTINUOUS
 90
28
 70
0
 10
-10.6679467969
 20
25.5286828434
 10
-10.6677356911
 20
25.5393518409
 10
-10.6670791522
 20
25.5505028209
 10
-10.6659436336
 20
25.5621221284
 10
-10.6642918886
 20
25.5742196276
 10
-10.6620939392
 20
25.5867441916
 10
-10.6593388792
 20
25.5995809497
 10
-10.6560079425
 20
25.6126949182
 10
-10.6520848153
 20
25.6260460961
 10
-10.6475861364
 20
25.6395036789
 10
-10.6425111216
 20
25.6530199388
 10
-10.6368608284
 20
25.6665471948
 10
-10.6306782708
 20
25.6799538017
 10
-10.6239853629
 20
25.6931786883
 10
-10.6167946276
 20
25.7061847627
 10
-10.6091521778
 20
25.7188814477
 10
-10.6010918852
 20
25.7312118171
 10
-10.5926346619
 20
25.7431433684
 10
-10.5838146411
 20
25.7546273828
 10
-10.5746642314
 20
25.7656214243
 10
-10.5652145168
 20
25.7760879651
 10
-10.5555000643
 20
25.7859890124
 10
-10.5455549988
 20
25.795289597
 10
-10.5354147289
 20
25.8039564337
 10
-10.5251171207
 20
25.8119576959
 10
-10.5146993233
 20
25.8192649724
 10
-10.5041975458
 20
25.8258530227
 10
-10.493648921
 20
25.831698798
  0
LINE
  5
331
100
AcDbEntity
  8
0
100
AcDbLine
 62
7
  6
CONTINUOUS
 10
-10.2923940645
 20
-10.8458468349
 11
-10.2865523494
 21
-10.5499829297
  0
LINE
  5
332
100
AcDbEntity
  8
DRAFT
100
AcDbLine
 62
7
  6
CONTINUOUS
 10
-10.2865504031
 20
-10.5498860233
 11
-10.2923941962
 21
-10.8458536242
  0
LINE
  5
333
100
AcDbEntity
  8
0
100
AcDbLine
 62
7
  6
CONTINUOUS
 10
-11.6947857349
 20
-9.5500039746
 11
-11.7007656449
 21
-9.8428628786
  0
LINE
  5
334
100
AcDbEntity
  8
DRAFT
100
AcDbLine
 62
7
  6
CONTINUOUS
 10
-11.7007640185
 20
-9.8427818949
 11
-11.6947794962
 21
-9.5497035468
  0
LINE
  5
335
100
AcDbEntity
  8
0
100
AcDbLine
 62
7
  6
CONTINUOUS
 10
-10.2865523494
 20
-10.5499829297
 11
-10.2805724531
 21
-10.2571242916
  0
LINE
  5
336
100
AcDbEntity
  8
DRAFT
100
AcDbLine
 62
7
  6
CONTINUOUS
 10
-10.2805658489
 20
-10.2568059748
 11
-10.2865504031
 21
-10.5498860233
  0
LINE
  5
337
100
AcDbEntity
  8
0
100
AcDbLine
 62
7
  6
CONTINUOUS
 10
-11.6886848203
 20
-9.2606613875
 11
-11.6947857349
 21
-9.5500039746
  0
LINE
  5
338
100
AcDbEntity
  8
DRAFT
100
AcDbLine
 62
7
  6
CONTINUOUS
 10
-11.6947794962
 20
-9.5497035468
 11
-11.6886660832
 21
-9.2597860471
  0
LINE
  5
339
100
AcDbEntity
  8
0
100
AcDbLine
 62
7
  6
CONTINUOUS
 10
-10.2805724531
 20
-10.2571242916
 11
-10.2744714488
 21
-9.9677771093
  0
LINE
  5
33A
100
AcDbEntity
  8
DRAFT
100
AcDbLine
 62
7
  6
CONTINUOUS
 10
-10.2744523741
 20
-9.9668868316
 11
-10.2805658489
 21
-10.2568059748
  0
LINE
  5
33B
100
AcDbEntity
  8
0
100
AcDbLine
 62
7
  6
CONTINUOUS
 10
-11.6824729058
 20
-8.9749639784
 11
-11.6886848203
 21
-9.2606613875
  0
LINE
  5
33C
100
AcDbEntity
  8
DRAFT
100
AcDbLine
 62
7
  6
CONTINUOUS
 10
-11.6886660832
 20
-9.2597860471
 11
-11.6824318171
 21
-8.9731002505
  0
LINE
  5
33D
100
AcDbEntity
  8
0
100
AcDbLine
 62
7
  6
CONTINUOUS
 10
-10.2744714488
 20
-9.9677771093
 11
-10.2682593434
 21
-9.6820707596
  0
LINE
  5
33E
100
AcDbEntity
  8
DRAFT
100
AcDbLine
 62
7
  6
CONTINUOUS
 10
-10.2682180081
 20
-9.6801994492
 11
-10.2744523741
 21
-9.9668868316
  0
LWPOLYLINE
  5
33F
100
AcDbEntity
  8
DRAFT
100
AcDbPolyline
 62
7
  6
CONTINUOUS
 90
12
 70
0
 10
-10.318242413
 20
-12.3036055834
 10
-10.3224604274
 20
-12.3800906421
 10
-10.331884689
 20
-12.4520323797
 10
-10.3464745812
 20
-12.5194406456
 10
-10.3664135129
 20
-12.582711412
 10
-10.3915347212
 20
-12.6414905018
 10
-10.4212452506
 20
-12.6946329687
 10
-10.4556543848
 20
-12.7420222721
 10
-10.4946735297
 20
-12.7837518076
 10
-10.5373017372
 20
-12.8189230541
 10
-10.5834771741
 20
-12.8472855502
 10
-10.6328932734
 20
-12.8688804625
  0
LWPOLYLINE
  5
340
100
AcDbEntity
  8
DRAFT
100
AcDbPolyline
 62
7
  6
CONTINUOUS
 90
17
 70
0
 10
-11.6824320555
 20
-8.9731004147
 10
-11.6784252495
 20
-8.9121368185
 10
-11.6723387222
 20
-8.8557390385
 10
-11.6640782345
 20
-8.8038544655
 10
-11.6531532583
 20
-8.7566695652
 10
-11.6398944741
 20
-8.7139084088
 10
-11.6254528569
 20
-8.674837924
 10
-11.6099788117
 20
-8.6395089401
 10
-11.5932041778
 20
-8.6078187556
 10
-11.5756708713
 20
-8.5788190706
 10
-11.5574399623
 20
-8.552368682
 10
-11.5383853717
 20
-8.5285850201
 10
-11.5187886271
 20
-8.5069183363
 10
-11.498717925
 20
-8.4873156048
 10
-11.4780639106
 20
-8.4698176501
 10
-11.4568554513
 20
-8.4540218832
 10
-11.4351489202
 20
-8.4398577065
  0
LWPOLYLINE
  5
341
100
AcDbEntity
  8
ASSI
100
AcDbPolyline
 62
250
  6
CONTINUOUS
 90
7
 70
0
 10
-8.1159805268
 20
26.7088268808
 10
-8.1174360561
 20
26.6967843193
 10
-8.122206153
 20
26.6840706087
 10
-8.1302186163
 20
26.671771137
 10
-8.1413393759
 20
26.6600917077
 10
-8.1553823516
 20
26.6492277488
 10
-8.1721125668
 20
26.6393610437
  0
LWPOLYLINE
  5
342
100
AcDbEntity
  8
ASSI
100
AcDbPolyline
 62
250
  6
CONTINUOUS
 90
7
 70
0
 10
-8.1159805268
 20
26.368883286
 10
-8.1174360644
 20
26.3568406907
 10
-8.1222061685
 20
26.3441269836
 10
-8.1302186359
 20
26.3318275178
 10
-8.141339395
 20
26.3201480958
 10
-8.1553823645
 20
26.3092841454
 10
-8.1721125668
 20
26.2994174489
  0
LWPOLYLINE
  5
343
100
AcDbEntity
  8
ASSI
100
AcDbPolyline
 62
250
  6
CONTINUOUS
 90
17
 70
0
 10
-0.07138031
 20
20.4821030729
 10
-0.0797185952
 20
20.470205985
 10
-0.0877047232
 20
20.4578566226
 10
-0.0953101202
 20
20.445085052
 10
-0.1024729444
 20
20.4319864761
 10
-0.1091591003
 20
20.418622372
 10
-0.1153518586
 20
20.4050251013
 10
-0.121024247
 20
20.3912525896
 10
-0.1261547544
 20
20.3773570012
 10
-0.1307260435
 20
20.3633851073
 10
-0.1347214798
 20
20.3493878817
 10
-0.138126811
 20
20.3354149243
 10
-0.1409295946
 20
20.3215167044
 10
-0.1431195047
 20
20.3077453403
 10
-0.1446889173
 20
20.2941508144
 10
-0.1456325884
 20
20.2807808538
 10
-0.1459474145
 20
20.2676831522
  0
LWPOLYLINE
  5
344
100
AcDbEntity
  8
ASSI
100
AcDbPolyline
 62
7
  6
CONTINUOUS
 90
14
 70
0
 10
2.9537009772
 20
18.7318247639
 10
2.9360906735
 20
18.7149861426
 10
2.917239871
 20
18.6990556456
 10
2.8972457601
 20
18.6842345459
 10
2.876146604
 20
18.6707208405
 10
2.8541437822
 20
18.6586863803
 10
2.8316054603
 20
18.6482667775
 10
2.8086923326
 20
18.6395884438
 10
2.78556507
 20
18.6327826863
 10
2.7626156907
 20
18.6279325641
 10
2.7400582415
 20
18.6250790856
 10
2.7180392283
 20
18.6242554586
 10
2.6968541558
 20
18.625446867
 10
2.6761059647
 20
18.6287232149
  0
LWPOLYLINE
  5
345
100
AcDbEntity
  8
RACCORDO
100
AcDbPolyline
 62
250
  6
CONTINUOUS
 90
43
 70
0
 10
10.591771974
 20
22.9978506262
 10
10.6409474246
 20
23.036858796
 10
10.7121895799
 20
23.0874636034
 10
10.7883236776
 20
23.1360868819
 10
10.8693403066
 20
23.1827146245
 10
10.955248878
 20
23.2273608381
 10
11.0455997637
 20
23.2697341072
 10
11.1406500439
 20
23.3098933052
 10
11.2401426384
 20
23.3477795587
 10
11.3428566787
 20
23.3829248318
 10
11.4491975475
 20
23.4153025517
 10
11.5587598621
 20
23.4449392913
 10
11.6691066065
 20
23.4714467335
 10
11.7802111234
 20
23.4946461269
 10
11.8921000701
 20
23.514716223
 10
12.0024164022
 20
23.5318049587
 10
12.1108068921
 20
23.5457788546
 10
12.2176247674
 20
23.5567713902
 10
12.3215726665
 20
23.5653309414
 10
12.422408501
 20
23.5714335109
 10
12.5203743592
 20
23.5751030961
 10
12.6148991456
 20
23.5769600649
 10
12.7058208857
 20
23.5770259338
 10
12.7933015538
 20
23.5752791863
 10
12.8772559772
 20
23.5722756409
 10
12.9575600506
 20
23.5680568403
 10
13.0343378792
 20
23.5625812418
 10
13.1078766056
 20
23.5562800362
 10
13.1781431393
 20
23.5491940024
 10
13.2451705709
 20
23.5412823615
 10
13.309345315
 20
23.5328539673
 10
13.3706530619
 20
23.5239433268
 10
13.4291081213
 20
23.514515933
 10
13.4851398378
 20
23.5047771192
 10
13.5387444213
 20
23.4947555974
 10
13.589925662
 20
23.4844226557
 10
13.6391242743
 20
23.473897491
 10
13.6863434192
 20
23.4632029518
 10
13.7315799358
 20
23.4523161897
 10
13.7752650557
 20
23.441287856
 10
13.8175425227
 20
23.4301348347
 10
13.8582685931
 20
23.4188402419
 10
13.8974432669
 20
23.4074040776
  0
LWPOLYLINE
  5
346
100
AcDbEntity
  8
RACCORDO
100
AcDbPolyline
 62
250
  6
CONTINUOUS
 90
6
 70
0
 10
10.5280420548
 20
23.0270942599
 10
10.5397728788
 20
23.0363254564
 10
10.6162660166
 20
23.090153392
 10
10.6982574203
 20
23.1419545757
 10
10.7855060173
 20
23.191572215
 10
10.8058753967
 20
23.2024411963
  0
LINE
  5
347
100
AcDbEntity
  8
ASSI
100
AcDbLine
 62
7
  6
CONTINUOUS
 10
5.6345888303
 20
15.6226513313
 11
4.9398246439
 21
15.2584983002
  0
LINE
  5
348
100
AcDbEntity
  8
RACCORDO
100
AcDbLine
 62
250
  6
CONTINUOUS
 10
20.1212818734
 20
22.3719368805
 11
5.6963065053
 21
14.9031872458
  0
LWPOLYLINE
  5
349
100
AcDbEntity
  8
RACCORDO
100
AcDbPolyline
 62
250
  6
CONTINUOUS
 90
32
 70
0
 10
20.2289411636
 20
16.8256397585
 10
20.2490322686
 20
16.8315864439
 10
20.2683520683
 20
16.8354375502
 10
20.2868776875
 20
16.8372200902
 10
20.3045726874
 20
16.8368361868
 10
20.3214114197
 20
16.8344533343
 10
20.337388612
 20
16.8304939488
 10
20.3524283562
 20
16.8250327547
 10
20.3665419992
 20
16.818065328
 10
20.3798645295
 20
16.8098856246
 10
20.392379647
 20
16.8005907351
 10
20.4040354252
 20
16.7901613842
 10
20.4149155705
 20
16.7787166292
 10
20.4250192295
 20
16.7663325473
 10
20.4342680158
 20
16.7530296389
 10
20.4426262503
 20
16.7388494233
 10
20.4500747684
 20
16.7238693954
 10
20.4565428981
 20
16.7081295768
 10
20.4619130615
 20
16.6916230785
 10
20.4661605736
 20
16.6744668623
 10
20.4692103151
 20
16.6566851023
 10
20.4708566091
 20
16.6381499954
 10
20.4710900601
 20
16.6190225837
 10
20.4697958115
 20
16.5993308014
 10
20.4665795805
 20
16.5787907844
 10
20.4614380522
 20
16.5575979114
 10
20.4542006961
 20
16.5358393011
 10
20.4441759184
 20
16.5131378321
 10
20.4313691746
 20
16.4897709195
 10
20.4155418662
 20
16.4658719703
 10
20.3955805424
 20
16.4409353886
 10
20.3738760531
 20
16.4178956578
  0
LWPOLYLINE
  5
34A
100
AcDbEntity
  8
ASSI
100
AcDbPolyline
 62
7
  6
CONTINUOUS
 90
5
 70
0
 10
4.420881672
 20
-21.0780416129
 10
4.404368726
 20
-21.0594748796
 10
4.3860537131
 20
-21.0430402555
 10
4.3660756359
 20
-21.0288027225
 10
4.3469243984
 20
-21.018021246
  0
LWPOLYLINE
  5
34B
100
AcDbEntity
  8
ASSI
100
AcDbPolyline
 62
7
  6
CONTINUOUS
 90
13
 70
0
 10
-8.7303489773
 20
26.4050237085
 10
-8.7315525941
 20
26.4282363444
 10
-8.7351618242
 20
26.452257549
 10
-8.7411107336
 20
26.4766787625
 10
-8.7492928658
 20
26.5010850297
 10
-8.7595674005
 20
26.5250591721
 10
-8.7717614127
 20
26.5481889591
 10
-8.7856688329
 20
26.5700774838
 10
-8.8010492587
 20
26.5903516029
 10
-8.8176361564
 20
26.6086655929
 10
-8.835146577
 20
26.6247057385
 10
-8.8532860809
 20
26.6381955514
 10
-8.8717487944
 20
26.6489023178
  0
LINE
  5
34C
100
AcDbEntity
  8
0
100
AcDbLine
 62
250
  6
CONTINUOUS
 10
-9.418843845
 20
23.1229745142
 11
-9.418843845
 21
22.9148268206
  0
LINE
  5
34D
100
AcDbEntity
  8
0
100
AcDbLine
 62
250
  6
CONTINUOUS
 10
-9.1397515736
 20
22.9834283785
 11
-9.1397515736
 21
22.7752806849
  0
LINE
  5
34E
100
AcDbEntity
  8
ASSI
100
AcDbLine
 62
7
  6
CONTINUOUS
 10
-8.7303489773
 20
24.7595490613
 11
-8.7303489773
 21
26.4050237085
  0
LINE
  5
34F
100
AcDbEntity
  8
ASSI
100
AcDbLine
 62
250
  6
CONTINUOUS
 10
-8.1721125668
 20
26.6393610437
 11
-8.1721125668
 21
26.2994174489
  0
LINE
  5
350
100
AcDbEntity
  8
ASSI
100
AcDbLine
 62
7
  6
CONTINUOUS
 10
-8.1159809536
 20
26.7090334574
 11
-8.1159805268
 21
26.3688832862
  0
LWPOLYLINE
  5
351
100
AcDbEntity
  8
ASSI
100
AcDbPolyline
 62
250
  6
CONTINUOUS
 90
28
 70
0
 10
-6.9942130425
 20
24.7025072505
 10
-6.9941831809
 20
24.7046078603
 10
-6.9940506358
 20
24.7067002064
 10
-6.9938154071
 20
24.7087842887
 10
-6.9934820473
 20
24.7108763847
 10
-6.9930460039
 20
24.7129602168
 10
-6.9924936199
 20
24.7149869534
 10
-6.9918207505
 20
24.7169555444
 10
-6.9910315404
 20
24.7188670398
 10
-6.9901247675
 20
24.7206757574
 10
-6.989096132
 20
24.7223785233
 10
-6.9879499336
 20
24.7239785115
 10
-6.9866978496
 20
24.7254395611
 10
-6.9853372498
 20
24.726756669
 10
-6.9838707645
 20
24.7279348383
 10
-6.9823179613
 20
24.7289529174
 10
-6.9806788041
 20
24.7298066462
 10
-6.978953329
 20
24.7305002847
 10
-6.9771612122
 20
24.7310254623
 10
-6.9753020174
 20
24.731380043
 10
-6.9733761809
 20
24.7315661627
 10
-6.9714046881
 20
24.7315818585
 10
-6.9693869723
 20
24.7314252265
 10
-6.9673236003
 20
24.7310981706
 10
-6.9652372574
 20
24.73060444
 10
-6.9631355053
 20
24.7299452843
 10
-6.9610107822
 20
24.7291194538
 10
-6.9588630882
 20
24.7281269486
  0
LWPOLYLINE
  5
352
100
AcDbEntity
  8
ASSI
100
AcDbPolyline
 62
250
  6
CONTINUOUS
 90
19
 70
0
 10
-8.1721125668
 20
26.2994174489
 10
-8.172144032
 20
26.2972365491
 10
-8.1722799484
 20
26.2949613455
 10
-8.172520316
 20
26.292591838
 10
-8.1728606411
 20
26.2901165882
 10
-8.1733054175
 20
26.2875470345
 10
-8.1738681259
 20
26.2849174923
 10
-8.1745526557
 20
26.2822247566
 10
-8.1753551176
 20
26.2794720323
 10
-8.1762773239
 20
26.2767032501
 10
-8.1773234628
 20
26.2739168736
 10
-8.1784893461
 20
26.2711144392
 10
-8.1797642224
 20
26.2683444858
 10
-8.1811518839
 20
26.2656076237
 10
-8.1826485384
 20
26.2629032426
 10
-8.1842320572
 20
26.260278052
 10
-8.1858950642
 20
26.2577476215
 10
-8.1876449356
 20
26.2552963814
 10
-8.1894816714
 20
26.2529243317
  0
LINE
  5
353
100
AcDbEntity
  8
0
100
AcDbLine
 62
7
  6
CONTINUOUS
 10
-9.7068340528
 20
-12.590868398
 11
-9.7115359448
 21
-12.8824568926
  0
LINE
  5
354
100
AcDbEntity
  8
0
100
AcDbLine
 62
7
  6
CONTINUOUS
 10
-9.701933234
 20
-12.2991914114
 11
-9.7068340528
 21
-12.590868398
  0
LINE
  5
355
100
AcDbEntity
  8
0
100
AcDbLine
 62
7
  6
CONTINUOUS
 10
-9.6968334943
 20
-12.0074261277
 11
-9.701933234
 21
-12.2991914114
  0
LINE
  5
356
100
AcDbEntity
  8
0
100
AcDbLine
 62
7
  6
CONTINUOUS
 10
-9.6915348419
 20
-11.7155727235
 11
-9.6968334943
 21
-12.0074261277
  0
LINE
  5
357
100
AcDbEntity
  8
0
100
AcDbLine
 62
7
  6
CONTINUOUS
 10
-9.6860374765
 20
-11.4236415339
 11
-9.6915348419
 21
-11.7155727235
  0
LINE
  5
358
100
AcDbEntity
  8
0
100
AcDbLine
 62
7
  6
CONTINUOUS
 10
-9.680341434
 20
-11.1316330236
 11
-9.6860374765
 21
-11.4236415339
  0
LINE
  5
359
100
AcDbEntity
  8
0
100
AcDbLine
 62
7
  6
CONTINUOUS
 10
-9.6744465349
 20
-10.8395373553
 11
-9.680341434
 21
-11.1316330236
  0
LINE
  5
35A
100
AcDbEntity
  8
0
100
AcDbLine
 62
7
  6
CONTINUOUS
 10
-9.6683527878
 20
-10.5473547068
 11
-9.6744465349
 21
-10.8395373553
  0
LINE
  5
35B
100
AcDbEntity
  8
0
100
AcDbLine
 62
7
  6
CONTINUOUS
 10
-9.6620601992
 20
-10.2550852734
 11
-9.6683527878
 21
-10.5473547068
  0
LINE
  5
35C
100
AcDbEntity
  8
ASSI
100
AcDbLine
 62
7
  6
CONTINUOUS
 10
-8.1167749011
 20
26.3487250078
 11
-8.1159807095
 21
26.3688995832
  0
LWPOLYLINE
  5
35D
100
AcDbEntity
  8
0
100
AcDbPolyline
 62
7
  6
CONTINUOUS
 90
46
 70
0
 10
-9.7115359448
 20
-12.8824568926
 10
-9.7177246644
 20
-13.0174685473
 10
-9.7313416158
 20
-13.1464743542
 10
-9.7523041739
 20
-13.2696424726
 10
-9.7808529195
 20
-13.3877441425
 10
-9.8168689374
 20
-13.5003635623
 10
-9.8596447358
 20
-13.6057557192
 10
-9.9090922805
 20
-13.703501548
 10
-9.965359704
 20
-13.7939929745
 10
-10.0278609096
 20
-13.8764881886
 10
-10.0967590148
 20
-13.9508359358
 10
-10.1720330528
 20
-14.0169071304
 10
-10.2525966496
 20
-14.0738386803
 10
-10.3381712732
 20
-14.1211758503
 10
-10.4290057802
 20
-14.1588691416
 10
-10.5246213667
 20
-14.1865843185
 10
-10.625551292
 20
-14.2040395046
 10
-10.7313366837
 20
-14.2110126956
 10
-10.8397592719
 20
-14.207256373
 10
-10.9505639231
 20
-14.1922109411
 10
-11.0637676914
 20
-14.1660669067
 10
-11.1771965223
 20
-14.129773645
 10
-11.2900179052
 20
-14.0835936199
 10
-11.4026943409
 20
-14.027218121
 10
-11.5148602197
 20
-13.9608342945
 10
-11.6271290124
 20
-13.8842265009
 10
-11.7388666473
 20
-13.7978514599
 10
-11.8477426405
 20
-13.7029812691
 10
-11.953650111
 20
-13.5994584336
 10
-12.0566956874
 20
-13.4879352539
 10
-12.1546340473
 20
-13.3709056142
 10
-12.2468368283
 20
-13.2490935674
 10
-12.3339090975
 20
-13.1222552265
 10
-12.4153164852
 20
-12.9913616574
 10
-12.4912916228
 20
-12.8563078449
 10
-12.5618189265
 20
-12.7175826714
 10
-12.6259049634
 20
-12.5769275539
 10
-12.6835291259
 20
-12.4344202757
 10
-12.7349555546
 20
-12.2900884553
 10
-12.7794737853
 20
-12.14541244
 10
-12.8171686199
 20
-11.999942304
 10
-12.8482512065
 20
-11.8539667535
 10
-12.8719862678
 20
-11.7098504257
 10
-12.8881080033
 20
-11.5681751061
 10
-12.8970151688
 20
-11.4278890946
 10
-12.8988576205
 20
-11.2887960547
  0
LWPOLYLINE
  5
35E
100
AcDbEntity
  8
0
100
AcDbPolyline
 62
7
  6
CONTINUOUS
 90
3
 70
0
 10
-10.327266941
 20
-12.4235818254
 10
-10.3210645902
 20
-12.3659908617
 10
-10.3182835264
 20
-12.3060642418
  0
LWPOLYLINE
  5
35F
100
AcDbEntity
  8
ASSI
100
AcDbPolyline
 62
7
  6
CONTINUOUS
 90
10
 70
0
 10
-0.4925549765
 20
21.144726523
 10
-0.4786139941
 20
21.178406309
 10
-0.4681582573
 20
21.2144753416
 10
-0.4611877661
 20
21.2529336206
 10
-0.4577025205
 20
21.2942122287
 10
-0.4577025205
 20
21.3378800832
 10
-0.4611877661
 20
21.3826439369
 10
-0.4681582573
 20
21.4280727071
 10
-0.4786139941
 20
21.4745974764
 10
-0.4925549765
 20
21.5222182448
  0
LWPOLYLINE
  5
360
100
AcDbEntity
  8
ASSI
100
AcDbPolyline
 62
7
  6
CONTINUOUS
 90
6
 70
0
 10
0.7163001206
 20
19.4187605625
 10
0.7180964181
 20
19.4224405691
 10
0.7233220437
 20
19.4286323646
 10
0.7315192531
 20
19.4369726929
 10
0.7424917036
 20
19.4465344855
 10
0.7560576905
 20
19.4570985444
  0
LWPOLYLINE
  5
361
100
AcDbEntity
  8
ASSI
100
AcDbPolyline
 62
250
  6
CONTINUOUS
 90
10
 70
0
 10
4.3970190337
 20
19.9596739791
 10
4.4004568897
 20
19.9643046078
 10
4.4035380843
 20
19.9691236723
 10
4.4062626174
 20
19.9741311728
 10
4.4086575923
 20
19.9793999325
 10
4.4106959057
 20
19.9848571282
 10
4.412296248
 20
19.9902842895
 10
4.4134315159
 20
19.9956085928
 10
4.4141288127
 20
20.0009028618
 10
4.4143881384
 20
20.0061670963
  0
LWPOLYLINE
  5
362
100
AcDbEntity
  8
ASSI
100
AcDbPolyline
 62
7
  6
CONTINUOUS
 90
6
 70
0
 10
4.4086799235
 20
19.9033983672
 10
4.4165645795
 20
19.9136386965
 10
4.4305371084
 20
19.9346206679
 10
4.4427158518
 20
19.9570765443
 10
4.4529520057
 20
19.9808852064
 10
4.4608460793
 20
20.0051210263
  0
LINE
  5
363
100
AcDbEntity
  8
ASSI
100
AcDbLine
 62
250
  6
CONTINUOUS
 10
3.8561517278
 20
19.290386493
 11
4.3970190337
 21
19.9596739791
  0
LINE
  5
364
100
AcDbEntity
  8
ASSI
100
AcDbLine
 62
7
  6
CONTINUOUS
 10
3.8561517278
 20
19.2196818321
 11
4.4087065283
 21
19.9034318192
  0
LWPOLYLINE
  5
365
100
AcDbEntity
  8
DRAFT
100
AcDbPolyline
 62
7
  6
CONTINUOUS
 90
25
 70
0
 10
-10.6328932734
 20
-12.8688804625
 10
-10.6856760032
 20
-12.8837692156
 10
-10.7409051731
 20
-12.8913968609
 10
-10.7987880478
 20
-12.89198485
 10
-10.8578328822
 20
-12.885587189
 10
-10.9178799794
 20
-12.8720300237
 10
-10.979038621
 20
-12.8514357311
 10
-11.0401154168
 20
-12.8242899495
 10
-11.1010809235
 20
-12.7905287892
 10
-11.1619357113
 20
-12.7502317297
 10
-11.2214533658
 20
-12.7040949388
 10
-11.2797049806
 20
-12.6518936143
 10
-11.3366261957
 20
-12.5939278032
 10
-11.3906965874
 20
-12.5316591786
 10
-11.4416859174
 20
-12.4651874334
 10
-11.4898251129
 20
-12.3944915362
 10
-11.5342006453
 20
-12.3208111994
 10
-11.5748364577
 20
-12.2439273052
 10
-11.6117638974
 20
-12.1641216342
 10
-11.6439946934
 20
-12.0833245716
 10
-11.6713685585
 20
-12.0015728661
 10
-11.6940867778
 20
-11.9188196855
 10
-11.7116005236
 20
-11.8367954487
 10
-11.7237122543
 20
-11.7560404667
 10
-11.7306468135
 20
-11.6759482536
  0
LWPOLYLINE
  5
366
100
AcDbEntity
  8
ASSI
100
AcDbPolyline
 62
250
  6
CONTINUOUS
 90
7
 70
0
 10
-12.7910267167
 20
26.3143070737
 10
-12.7891206515
 20
26.3006021158
 10
-12.7839075114
 20
26.2879319663
 10
-12.7754669577
 20
26.2757042864
 10
-12.7639402235
 20
26.2641236779
 10
-12.7495201822
 20
26.2533839155
 10
-12.7324481196
 20
26.2436647044
  0
LWPOLYLINE
  5
367
100
AcDbEntity
  8
ASSI
100
AcDbPolyline
 62
250
  6
CONTINUOUS
 90
7
 70
0
 10
-12.7910267553
 20
26.6316158189
 10
-12.7891206584
 20
26.6178709408
 10
-12.7839075234
 20
26.6052007884
 10
-12.7754669723
 20
26.592973104
 10
-12.7639402375
 20
26.5813924901
 10
-12.7495201914
 20
26.5706527218
 10
-12.7324481196
 20
26.5609335048
  0
LWPOLYLINE
  5
368
100
AcDbEntity
  8
ASSI
100
AcDbPolyline
 62
7
  6
CONTINUOUS
 90
10
 70
0
 10
-8.1159810562
 20
26.7090334572
 10
-8.1168627254
 20
26.7298789133
 10
-8.1212093366
 20
26.7595407844
 10
-8.1291757582
 20
26.788253761
 10
-8.140656951
 20
26.8155250481
 10
-8.1553345672
 20
26.8407038483
 10
-8.1729532845
 20
26.8635265418
 10
-8.1933564507
 20
26.8838305959
 10
-8.2161137855
 20
26.9012057463
 10
-8.2392273738
 20
26.9146026092
  0
LINE
  5
369
100
AcDbEntity
  8
ASSI
100
AcDbLine
 62
7
  6
CONTINUOUS
 10
-7.0527916863
 20
23.588613423
 11
-7.0527916863
 21
24.7732179288
  0
LINE
  5
36A
100
AcDbEntity
  8
ASSI
100
AcDbLine
 62
250
  6
CONTINUOUS
 10
-6.9942130425
 20
23.5152344692
 11
-6.9942130425
 21
24.7025072505
  0
LINE
  5
36B
100
AcDbEntity
  8
ASSI
100
AcDbLine
 62
250
  6
CONTINUOUS
 10
-4.7035646454
 20
23.557183052
 11
-4.7035646454
 21
22.3699102707
  0
LWPOLYLINE
  5
36C
100
AcDbEntity
  8
ASSI
100
AcDbPolyline
 62
250
  6
CONTINUOUS
 90
12
 70
0
 10
2.2168931729
 20
18.8881249409
 10
2.2063814068
 20
18.8647540199
 10
2.1936966517
 20
18.84299575
 10
2.1790535459
 20
18.823218302
 10
2.1626998648
 20
18.8057563296
 10
2.1449123286
 20
18.7909053061
 10
2.1259919196
 20
18.7789165252
 10
2.1062587891
 20
18.7699928486
 10
2.0860468411
 20
18.7642852737
 10
2.0656980818
 20
18.7618903779
 10
2.0455568322
 20
18.7628486851
 10
2.0364587202
 20
18.7644125068
  0
LWPOLYLINE
  5
36D
100
AcDbEntity
  8
ASSI
100
AcDbPolyline
 62
7
  6
CONTINUOUS
 90
13
 70
0
 10
-4.2048655777
 20
23.6659746316
 10
-4.2063700988
 20
23.6949904265
 10
-4.2108816363
 20
23.7250169322
 10
-4.2183177731
 20
23.7555434491
 10
-4.2285454384
 20
23.7860512832
 10
-4.2413886067
 20
23.8160189611
 10
-4.2566311219
 20
23.8449311949
 10
-4.2740153972
 20
23.8722918507
 10
-4.2932409295
 20
23.8976344997
 10
-4.3139745516
 20
23.9205269871
 10
-4.3358625773
 20
23.9405771691
 10
-4.3585369572
 20
23.9574394352
 10
-4.381615349
 20
23.9708228932
  0
LINE
  5
36E
100
AcDbEntity
  8
ASSI
100
AcDbLine
 62
7
  6
CONTINUOUS
 10
-3.5228053474
 20
22.8484705209
 11
-3.5470971662
 21
23.9922326128
  0
LINE
  5
36F
100
AcDbEntity
  8
ASSI
100
AcDbLine
 62
250
  6
CONTINUOUS
 10
-4.4232116151
 20
23.5559597501
 11
-4.4232116151
 21
22.3776058418
  0
LINE
  5
370
100
AcDbEntity
  8
ASSI
100
AcDbLine
 62
7
  6
CONTINUOUS
 10
-4.2048655777
 20
22.4968073615
 11
-4.2048655777
 21
23.6659746316
  0
LINE
  5
371
100
AcDbEntity
  8
ASSI
100
AcDbLine
 62
250
  6
CONTINUOUS
 10
-3.2819024413
 20
22.8463519499
 11
-3.2819024413
 21
21.6590791686
  0
LINE
  5
372
100
AcDbEntity
  8
ASSI
100
AcDbLine
 62
7
  6
CONTINUOUS
 10
-3.340481085
 20
21.7324581223
 11
-3.3404810337
 21
22.9171342489
  0
LWPOLYLINE
  5
373
100
AcDbEntity
  8
RACCORDO
100
AcDbPolyline
 62
250
  6
CONTINUOUS
 90
5
 70
0
 10
-3.1029775612
 20
-22.4560141258
 10
-3.0596508608
 20
-18.4255839014
 10
-2.9843564679
 20
-14.3811606502
 10
-2.8770943825
 20
-10.3227443722
 10
-2.7378411501
 20
-6.2497751527
  0
LWPOLYLINE
  5
374
100
AcDbEntity
  8
RACCORDO
100
AcDbPolyline
 62
250
  6
CONTINUOUS
 90
8
 70
0
 10
-3.7760389282
 20
-22.4594313002
 10
-3.7298705476
 20
-18.4266765067
 10
-3.652404981
 20
-14.3788892155
 10
-3.5436356677
 20
-10.3164309721
 10
-3.4035530889
 20
-6.2394811806
 10
-3.2321676057
 20
-2.148590953
 10
-3.0295180206
 20
1.9553134253
 10
-2.7956406156
 20
6.0716695455
  0
LINE
  5
375
100
AcDbEntity
  8
RACCORDO
100
AcDbLine
 62
250
  6
CONTINUOUS
 10
-2.7378411501
 20
-6.2497751527
 11
-2.5666202251
 21
-2.1628129063
  0
LWPOLYLINE
  5
376
100
AcDbEntity
  8
RACCORDO
100
AcDbPolyline
 62
250
  6
CONTINUOUS
 90
4
 70
0
 10
-2.5666202251
 20
-2.1628129063
 10
-2.3635019715
 20
1.9364626224
 10
-2.1285098438
 20
6.0474915188
 10
-1.8616203875
 20
10.1708336977
  0
LWPOLYLINE
  5
377
100
AcDbEntity
  8
ASSI
100
AcDbPolyline
 62
250
  6
CONTINUOUS
 90
13
 70
0
 10
-3.246552487
 20
22.871971648
 10
-3.2453693088
 20
22.8949212369
 10
-3.2418395712
 20
22.9186699992
 10
-3.2360223354
 20
22.9428205548
 10
-3.2280149384
 20
22.9669688003
 10
-3.2179513647
 20
22.9907106709
 10
-3.2060000041
 20
23.0136489012
 10
-3.1923608343
 20
23.0353996726
 10
-3.1772620748
 20
23.0555990356
 10
-3.1609563684
 20
23.0739089995
 10
-3.1437165532
 20
23.0900231883
 10
-3.1258310977
 20
23.1036719676
 10
-3.1075992738
 20
23.1146269554
  0
LWPOLYLINE
  5
378
100
AcDbEntity
  8
ASSI
100
AcDbPolyline
 62
250
  6
CONTINUOUS
 90
13
 70
0
 10
-1.0266039984
 20
21.7619974037
 10
-1.0254208186
 20
21.784947008
 10
-1.021891077
 20
21.8086957836
 10
-1.0160738355
 20
21.8328463495
 10
-1.0080664324
 20
21.8569946018
 10
-0.998002853
 20
21.8807364753
 10
-0.9860514881
 20
21.9036747046
 10
-0.972412316
 20
21.9254254715
 10
-0.957313557
 20
21.945624827
 10
-0.9410078537
 20
21.9639347818
 10
-0.9237680446
 20
21.9800489609
 10
-0.9058825978
 20
21.9936977309
 10
-0.8876507852
 20
22.0046527111
  0
LWPOLYLINE
  5
379
100
AcDbEntity
  8
ASSI
100
AcDbPolyline
 62
7
  6
CONTINUOUS
 90
9
 70
0
 10
-2.0779689047
 20
25.5064886804
 10
-2.0787299857
 20
25.493111027
 10
-2.0833675984
 20
25.473361937
 10
-2.0923736698
 20
25.45380507
 10
-2.1055855415
 20
25.4345632293
 10
-2.1224172479
 20
25.4164158818
 10
-2.1426734672
 20
25.3996228498
 10
-2.1665495212
 20
25.3839243109
 10
-2.1940454099
 20
25.3693202651
  0
LINE
  5
37A
100
AcDbEntity
  8
RACCORDO
100
AcDbLine
 62
250
  6
CONTINUOUS
 10
-2.7956406156
 20
6.0716695455
 11
-2.5305605689
 21
10.2002828819
  0
LINE
  5
37B
100
AcDbEntity
  8
RACCORDO
100
AcDbLine
 62
250
  6
CONTINUOUS
 10
-2.5305605689
 20
10.2002828819
 11
-2.2343155352
 21
14.3407726192
  0
LINE
  5
37C
100
AcDbEntity
  8
RACCORDO
100
AcDbLine
 62
250
  6
CONTINUOUS
 10
-1.8616203875
 20
10.1708336977
 11
-1.5628336025
 21
14.3064891589
  0
LWPOLYLINE
  5
37D
100
AcDbEntity
  8
RACCORDO
100
AcDbPolyline
 62
250
  6
CONTINUOUS
 90
22
 70
0
 10
-2.2343155254
 20
14.3407726213
 10
-2.2264995622
 20
14.4184195489
 10
-2.2144664304
 20
14.4973509952
 10
-2.1982756583
 20
14.5771622639
 10
-2.1780018734
 20
14.6574350925
 10
-2.1537496627
 20
14.737765913
 10
-2.1256503591
 20
14.8177679255
 10
-2.0938324316
 20
14.8970337653
 10
-2.0584536289
 20
14.9751496982
 10
-2.0197137125
 20
15.0517238956
 10
-1.977796065
 20
15.1263579107
 10
-1.9329046645
 20
15.1986661087
 10
-1.8852931352
 20
15.2682896488
 10
-1.8351864893
 20
15.3348657041
 10
-1.7828294612
 20
15.3980456745
 10
-1.7285235388
 20
15.4575150235
 10
-1.6725320801
 20
15.5129580451
 10
-1.6151233459
 20
15.5640869413
 10
-1.5566182239
 20
15.6106584513
 10
-1.4973131165
 20
15.6524327748
 10
-1.4374789997
 20
15.6891764704
 10
-1.3774043076
 20
15.7206906611
  0
LWPOLYLINE
  5
37E
100
AcDbEntity
  8
RACCORDO
100
AcDbPolyline
 62
250
  6
CONTINUOUS
 90
22
 70
0
 10
-1.5628336025
 20
14.3064891589
 10
-1.5581048828
 20
14.3518673042
 10
-1.5508914177
 20
14.3975513099
 10
-1.5411932071
 20
14.443541176
 10
-1.5289350655
 20
14.490095006
 10
-1.5141921783
 20
14.5369546964
 10
-1.4971901026
 20
14.5833459367
 10
-1.4778962022
 20
14.6292415321
 10
-1.4563431132
 20
14.6746686775
 10
-1.4328543015
 20
14.7189346465
 10
-1.4073976535
 20
14.7620244956
 10
-1.3800052827
 20
14.8039531682
 10
-1.351096996
 20
14.8440727688
 10
-1.3206494883
 20
14.882353753
 10
-1.2886860648
 20
14.9188256651
 10
-1.2556964481
 20
14.9529292419
 10
-1.2216482809
 20
14.9846351844
 10
-1.1865739206
 20
15.0139727917
 10
-1.1510601614
 20
15.0404706976
 10
-1.1153026015
 20
15.0639717804
 10
-1.0791056427
 20
15.0846331618
 10
-1.042469285
 20
15.1024548419
  0
LWPOLYLINE
  5
37F
100
AcDbEntity
  8
RACCORDO
100
AcDbPolyline
 62
7
  6
CONTINUOUS
 90
9
 70
0
 10
0.4337876452
 20
23.4876677835
 10
0.4322046511
 20
23.4798507059
 10
0.4287822908
 20
23.4695790987
 10
0.4230185521
 20
23.4570227496
 10
0.4146997966
 20
23.4427813302
 10
0.4040211825
 20
23.4277220766
 10
0.3912066281
 20
23.4123527035
 10
0.3763633444
 20
23.3969022004
 10
0.3699264074
 20
23.390785857
  0
LINE
  5
380
100
AcDbEntity
  8
DRAFT
100
AcDbLine
 62
7
  6
CONTINUOUS
 10
20.3738760531
 20
16.4029754402
 11
21.4445991471
 21
17.0955100974
  0
LWPOLYLINE
  5
381
100
AcDbEntity
  8
ASSI
100
AcDbPolyline
 62
250
  6
CONTINUOUS
 90
6
 70
0
 10
4.4042233735
 20
-21.1138732877
 10
4.3962009156
 20
-21.091071817
 10
4.3857579161
 20
-21.0700367683
 10
4.3730710802
 20
-21.0511240749
 10
4.3583550812
 20
-21.0346537578
 10
4.3418589281
 20
-21.0209045107
  0
LWPOLYLINE
  5
382
100
AcDbEntity
  8
ASSI
100
AcDbPolyline
 62
7
  6
CONTINUOUS
 90
6
 70
0
 10
0.7231121856
 20
-21.6450971272
 10
0.7315382151
 20
-21.6803275147
 10
0.7424917036
 20
-21.7154056563
 10
0.7557100796
 20
-21.7500918863
 10
0.7714129045
 20
-21.7840149764
 10
0.7895211038
 20
-21.8169240467
  0
LINE
  5
383
100
AcDbEntity
  8
ASSI
100
AcDbLine
 62
7
  6
CONTINUOUS
 10
0.7188064195
 20
-21.6148327844
 11
0.7231121856
 21
-21.6450971272
  0
LWPOLYLINE
  5
384
100
AcDbEntity
  8
ASSI
100
AcDbPolyline
 62
250
  6
CONTINUOUS
 90
7
 70
0
 10
-7.0527916863
 20
24.7732179284
 10
-7.0508855554
 20
24.7594445941
 10
-7.0456724017
 20
24.7467744533
 10
-7.0372318411
 20
24.7345467856
 10
-7.0257051088
 20
24.7229661917
 10
-7.0112850801
 20
24.7122264455
 10
-6.9942130425
 20
24.7025072505
  0
LINE
  5
385
100
AcDbEntity
  8
DRAFT
100
AcDbLine
 62
7
  6
CONTINUOUS
 10
1.3105673156
 20
-15.0965600045
 11
1.0995664956
 21
-12.5839624359
  0
LWPOLYLINE
  5
386
100
AcDbEntity
  8
ASSI
100
AcDbPolyline
 62
7
  6
CONTINUOUS
 90
12
 70
0
 10
-2.0957076532
 20
26.693555027
 10
-2.097339017
 20
26.7197970657
 10
-2.1028628963
 20
26.7524204012
 10
-2.1123115917
 20
26.7846131791
 10
-2.1256921948
 20
26.8159346848
 10
-2.1428697747
 20
26.8458034034
 10
-2.1637523133
 20
26.8738867062
 10
-2.1882883856
 20
26.8999437978
 10
-2.2160965115
 20
26.92346988
 10
-2.2467011396
 20
26.9440873722
 10
-2.2803466385
 20
26.9619505306
 10
-2.3166503078
 20
26.9768112851
  0
LWPOLYLINE
  5
387
100
AcDbEntity
  8
ASSI
100
AcDbPolyline
 62
250
  6
CONTINUOUS
 90
28
 70
0
 10
-0.7109010138
 20
21.6998044494
 10
-0.7112672035
 20
21.7111234401
 10
-0.712126824
 20
21.7228931192
 10
-0.7135067876
 20
21.7350927058
 10
-0.7154373968
 20
21.7477249772
 10
-0.7179404707
 20
21.7607325484
 10
-0.721017518
 20
21.7739952465
 10
-0.7246785114
 20
21.7874728973
 10
-0.7289307
 20
21.8011211657
 10
-0.7337473899
 20
21.814806691
 10
-0.7391188374
 20
21.8284758503
 10
-0.7450365672
 20
21.8420840897
 10
-0.7514542903
 20
21.8555124442
 10
-0.7583421603
 20
21.8686985029
 10
-0.7656832153
 20
21.8816101627
 10
-0.7734378603
 20
21.8941790219
 10
-0.7815706461
 20
21.906352551
 10
-0.7900573587
 20
21.9180993268
 10
-0.7988717694
 20
21.9293859477
 10
-0.8079828399
 20
21.9401743795
 10
-0.8173575832
 20
21.9504272866
 10
-0.8269663556
 20
21.9601137677
 10
-0.8367753604
 20
21.9692004175
 10
-0.8467502782
 20
21.9776561406
 10
-0.8568602166
 20
21.9854552623
 10
-0.867071341
 20
21.9925713094
 10
-0.8773467898
 20
21.9989780039
 10
-0.8876507852
 20
22.0046527111
  0
LWPOLYLINE
  5
388
100
AcDbEntity
  8
ASSI
100
AcDbPolyline
 62
250
  6
CONTINUOUS
 90
15
 70
0
 10
-0.1459474145
 20
19.9504143519
 10
-0.1457348047
 20
19.9398926102
 10
-0.1450725101
 20
19.9293055
 10
-0.1439228243
 20
19.9187034465
 10
-0.1422443192
 20
19.9081194044
 10
-0.1400027067
 20
19.8976372957
 10
-0.1371821081
 20
19.8873834168
 10
-0.1337591031
 20
19.8774178332
 10
-0.1297126793
 20
19.8678041911
 10
-0.12505375
 20
19.8586605507
 10
-0.1197767784
 20
19.8500434126
 10
-0.1138793053
 20
19.8420099892
 10
-0.107400904
 20
19.8346575999
 10
-0.1003550993
 20
19.8280299298
 10
-0.0927578948
 20
19.8221685202
  0
LWPOLYLINE
  5
389
100
AcDbEntity
  8
ASSI
100
AcDbPolyline
 62
250
  6
CONTINUOUS
 90
28
 70
0
 10
-0.9912540442
 20
21.7010277514
 10
-0.9912930793
 20
21.7033128712
 10
-0.991442375
 20
21.7056776377
 10
-0.9917019314
 20
21.7081220509
 10
-0.9920692216
 20
21.7106588362
 10
-0.9925467724
 20
21.7132752682
 10
-0.9931421644
 20
21.715933171
 10
-0.9938595725
 20
21.7186348015
 10
-0.9946948218
 20
21.7213779029
 10
-0.9956429683
 20
21.7241175283
 10
-0.99670748
 20
21.7268530426
 10
-0.9978848888
 20
21.7295850809
 10
-0.9991598471
 20
21.7322706014
 10
-1.00053336
 20
21.7349057882
 10
-1.0020044223
 20
21.7374944572
 10
-1.0035546703
 20
21.7400050139
 10
-1.0051838669
 20
21.7424344711
 10
-1.0068922491
 20
21.7447858159
 10
-1.0086621645
 20
21.7470364154
 10
-1.0104941605
 20
21.7491854235
 10
-1.0123876898
 20
21.7512336862
 10
-1.0143234574
 20
21.7531611086
 10
-1.0163017904
 20
21.754966563
 10
-1.0183223619
 20
21.7566511771
 10
-1.0203648959
 20
21.7581982394
 10
-1.0224226341
 20
21.7596021793
 10
-1.0245023349
 20
21.7608685674
 10
-1.0266039984
 20
21.7619974037
  0
LINE
  5
38A
100
AcDbEntity
  8
ASSI
100
AcDbLine
 62
7
  6
CONTINUOUS
 10
-2.0780161157
 20
25.5064890327
 11
-2.0957077816
 21
26.6935610798
  0
LINE
  5
38B
100
AcDbEntity
  8
ASSI
100
AcDbLine
 62
250
  6
CONTINUOUS
 10
-2.1940454099
 20
25.3693202651
 11
-2.2064894513
 21
26.562707835
  0
LWPOLYLINE
  5
38C
100
AcDbEntity
  8
ASSI
100
AcDbPolyline
 62
7
  6
CONTINUOUS
 90
9
 70
0
 10
-0.2045258765
 20
20.0210988035
 10
-0.2044968152
 20
20.0172868228
 10
-0.2026894173
 20
19.9908364068
 10
-0.1980626239
 20
19.9648764935
 10
-0.1906650769
 20
19.9398069344
 10
-0.1806630165
 20
19.9160721756
 10
-0.1681762391
 20
19.8938292368
 10
-0.1533212088
 20
19.8732411841
 10
-0.1363628622
 20
19.8546362019
  0
LINE
  5
38D
100
AcDbEntity
  8
ASSI
100
AcDbLine
 62
250
  6
CONTINUOUS
 10
-1.0933534326
 20
24.8468964526
 11
-1.0933534326
 21
25.8956435386
  0
LINE
  5
38E
100
AcDbEntity
  8
ASSI
100
AcDbLine
 62
250
  6
CONTINUOUS
 10
-0.9912540442
 20
20.51375497
 11
-0.9912540442
 21
21.7010277514
  0
LINE
  5
38F
100
AcDbEntity
  8
RACCORDO
100
AcDbLine
 62
250
  6
CONTINUOUS
 10
-0.8250095843
 20
23.9018985594
 11
-0.8250095843
 21
23.0369800316
  0
LINE
  5
390
100
AcDbEntity
  8
ASSI
100
AcDbLine
 62
250
  6
CONTINUOUS
 10
-0.7109010138
 20
20.5214505411
 11
-0.7109010138
 21
21.6998044494
  0
LINE
  5
391
100
AcDbEntity
  8
ASSI
100
AcDbLine
 62
7
  6
CONTINUOUS
 10
-0.4925549765
 20
20.6406520609
 11
-0.4925549765
 21
21.809819331
  0
LINE
  5
392
100
AcDbEntity
  8
RACCORDO
100
AcDbLine
 62
250
  6
CONTINUOUS
 10
-0.412138368
 20
24.0141589847
 11
-0.412138368
 21
23.0315743249
  0
LINE
  5
393
100
AcDbEntity
  8
ASSI
100
AcDbLine
 62
7
  6
CONTINUOUS
 10
-0.2045260583
 20
20.3383938304
 11
-0.2045260583
 21
20.0211250303
  0
LINE
  5
394
100
AcDbEntity
  8
ASSI
100
AcDbLine
 62
250
  6
CONTINUOUS
 10
-0.1459474145
 20
20.2676831522
 11
-0.1459474145
 21
19.9504143519
  0
LINE
  5
395
100
AcDbEntity
  8
ASSI
100
AcDbLine
 62
250
  6
CONTINUOUS
 10
0.3203755141
 20
24.8128297173
 11
0.3203755141
 21
25.3870115732
  0
LINE
  5
396
100
AcDbEntity
  8
RACCORDO
100
AcDbLine
 62
7
  6
CONTINUOUS
 10
0.4341302312
 20
23.4925381362
 11
0.4337876452
 21
23.4876677835
  0
LWPOLYLINE
  5
397
100
AcDbEntity
  8
ASSI
100
AcDbPolyline
 62
7
  6
CONTINUOUS
 90
3
 70
0
 10
4.4608460793
 20
20.0051210263
 10
4.4663869849
 20
20.0295445924
 10
4.4696635621
 20
20.0546867988
  0
LWPOLYLINE
  5
398
100
AcDbEntity
  8
RACCORDO
100
AcDbPolyline
 62
7
  6
CONTINUOUS
 90
76
 70
0
 10
20.2289411636
 20
16.8256397585
 10
20.2909545919
 20
16.8772579642
 10
20.3512644849
 20
16.9278886047
 10
20.4098708426
 20
16.9775316802
 10
20.4667344316
 20
17.0261562392
 10
20.5218944854
 20
17.0737932331
 10
20.5754687038
 20
17.1205355159
 10
20.6274639275
 20
17.1663860315
 10
20.6778733158
 20
17.211341836
 10
20.7267940463
 20
17.255486952
 10
20.7742309829
 20
17.2988219106
 10
20.8201792617
 20
17.3413461806
 10
20.8647214694
 20
17.3831421914
 10
20.9078633587
 20
17.4242099887
 10
20.9495991769
 20
17.4645495268
 10
20.9899942526
 20
17.504243097
 10
21.0290560737
 20
17.5432902204
 10
21.0667771521
 20
17.581691376
 10
21.103200353
 20
17.6195302921
 10
21.1383363779
 20
17.6568058858
 10
21.1721745252
 20
17.6935192401
 10
21.2047255555
 20
17.7297573322
 10
21.2360076338
 20
17.7655203624
 10
21.2660025952
 20
17.8008081304
 10
21.2946667052
 20
17.835707012
 10
21.3220307159
 20
17.870219593
 10
21.3480638752
 20
17.9043432876
 10
21.3726301924
 20
17.9381567153
 10
21.3957986452
 20
17.9717050809
 10
21.4175002559
 20
18.0049431795
 10
21.4373921005
 20
18.0378140159
 10
21.4555503242
 20
18.0704346563
 10
21.4718987818
 20
18.1026880345
 10
21.4858661135
 20
18.1341659561
 10
21.49740556
 20
18.1648818137
 10
21.5065638805
 20
18.1948222148
 10
21.5129099925
 20
18.2235387874
 10
21.5163346481
 20
18.2509911637
 10
21.5169470953
 20
18.2772197116
 10
21.5146439957
 20
18.3018971621
 10
21.5092598693
 20
18.3249857803
 10
21.500960196
 20
18.3465233011
 10
21.4901380774
 20
18.3662956605
 10
21.4767173007
 20
18.3841738666
 10
21.4607740785
 20
18.4002869113
 10
21.4429301503
 20
18.4148077059
 10
21.4232656772
 20
18.4276857671
 10
21.4017004979
 20
18.4389715784
 10
21.3786158683
 20
18.4489895008
 10
21.3540860901
 20
18.4577679612
 10
21.3280368616
 20
18.4652785329
 10
21.3006265329
 20
18.4717602966
 10
21.2718904279
 20
18.4772448693
 10
21.2417932226
 20
18.4817006341
 10
21.210387296
 20
18.4852718214
 10
21.177692029
 20
18.4879788127
 10
21.1436880407
 20
18.4898012266
 10
21.1083695661
 20
18.4908221487
 10
21.0717488249
 20
18.4910547414
 10
21.0338135974
 20
18.4904858422
 10
20.9945214598
 20
18.48915905
 10
20.953877964
 20
18.4870829527
 10
20.911877558
 20
18.4842489623
 10
20.8684611623
 20
18.4806749132
 10
20.8236329148
 20
18.4763665243
 10
20.7773886776
 20
18.4713180768
 10
20.7296569579
 20
18.4655302491
 10
20.6804483653
 20
18.4590084551
 10
20.6297522902
 20
18.4517472808
 10
20.5774654112
 20
18.4437311623
 10
20.5235946222
 20
18.434965143
 10
20.4681330294
 20
18.4254441795
 10
20.41095663
 20
18.415137578
 10
20.3520240899
 20
18.4040351073
 10
20.2913767433
 20
18.3921469988
 10
20.2290145902
 20
18.3794732522
  0
LINE
  5
399
100
AcDbEntity
  8
DRAFT
100
AcDbLine
 62
7
  6
CONTINUOUS
 10
1.9956290834
 20
-2.1944400355
 11
1.5442839862
 21
-1.9687674869
  0
LWPOLYLINE
  5
39A
100
AcDbEntity
  8
ASSI
100
AcDbPolyline
 62
7
  6
CONTINUOUS
 90
5
 70
0
 10
4.4643598008
 20
-21.1690230596
 10
4.4571926744
 20
-21.1441809428
 10
4.447475131
 20
-21.120637536
 10
4.4353337716
 20
-21.0985362788
 10
4.420881672
 20
-21.0780416129
  0
LINE
  5
39B
100
AcDbEntity
  8
0
100
AcDbLine
 62
7
  6
CONTINUOUS
 10
3.1566259216
 20
-16.0195893075
 11
1.9956290834
 21
-2.1944400355
  0
LINE
  5
39C
100
AcDbEntity
  8
RACCORDO
100
AcDbLine
 62
7
  6
CONTINUOUS
 10
1.4109331945
 20
-5.1517874493
 11
1.4523292836
 21
-5.6487844223
  0
LWPOLYLINE
  5
39D
100
AcDbEntity
  8
ASSI
100
AcDbPolyline
 62
7
  6
CONTINUOUS
 90
13
 70
0
 10
-0.4925549765
 20
21.809819331
 10
-0.4940594975
 20
21.8388351259
 10
-0.4985710351
 20
21.8688616316
 10
-0.5060071719
 20
21.8993881485
 10
-0.5162348372
 20
21.9298959825
 10
-0.5290780054
 20
21.9598636605
 10
-0.5443205207
 20
21.9887758942
 10
-0.561704796
 20
22.0161365501
 10
-0.5809303283
 20
22.041479199
 10
-0.6016639503
 20
22.0643716865
 10
-0.623551976
 20
22.0844218685
 10
-0.646226356
 20
22.1012841346
 10
-0.6693047478
 20
22.1146675926
  0
LWPOLYLINE
  5
39E
100
AcDbEntity
  8
ASSI
100
AcDbPolyline
 62
7
  6
CONTINUOUS
 90
16
 70
0
 10
-0.1478006453
 20
25.8406406488
 10
-0.1487103099
 20
25.8590333414
 10
-0.1520887256
 20
25.8773020877
 10
-0.1579420736
 20
25.8954348413
 10
-0.1664189761
 20
25.9137120918
 10
-0.1773957738
 20
25.9318012305
 10
-0.1904723164
 20
25.9487637013
 10
-0.2055712486
 20
25.964333561
 10
-0.2227988537
 20
25.978693841
 10
-0.2420260301
 20
25.9915798913
 10
-0.2633980198
 20
26.0029864713
 10
-0.2867876991
 20
26.0128028578
 10
-0.3116468209
 20
26.0206192787
 10
-0.3377852497
 20
26.026273067
 10
-0.3653750096
 20
26.029828679
 10
-0.3943990901
 20
26.0312308919
  0
LINE
  5
39F
100
AcDbEntity
  8
RACCORDO
100
AcDbLine
 62
7
  6
CONTINUOUS
 10
0.4341351599
 20
23.4925952635
 11
0.4341351954
 21
23.4924962872
  0
LINE
  5
3A0
100
AcDbEntity
  8
RACCORDO
100
AcDbLine
 62
250
  6
CONTINUOUS
 10
0.3462672306
 20
23.6349561854
 11
0.3462672306
 21
23.3688800001
  0
LINE
  5
3A1
100
AcDbEntity
  8
ASSI
100
AcDbLine
 62
7
  6
CONTINUOUS
 10
0.5103370621
 20
19.5195403117
 11
0.5103370621
 21
19.0655782073
  0
LINE
  5
3A2
100
AcDbEntity
  8
ASSI
100
AcDbLine
 62
250
  6
CONTINUOUS
 10
0.5835603668
 20
19.4829286593
 11
0.5835603668
 21
18.9738545151
  0
LINE
  5
3A3
100
AcDbEntity
  8
0
100
AcDbLine
 62
7
  6
CONTINUOUS
 10
0.6034605344
 20
17.9383523004
 11
0.6034605344
 21
17.9036746309
  0
LINE
  5
3A4
100
AcDbEntity
  8
ASSI
100
AcDbLine
 62
7
  6
CONTINUOUS
 10
0.7162977991
 20
18.7826381056
 11
0.7162977991
 21
19.4204835265
  0
LINE
  5
3A5
100
AcDbEntity
  8
ASSI
100
AcDbLine
 62
250
  6
CONTINUOUS
 10
0.7895211038
 20
-21.8169240467
 11
0.7895211038
 21
-21.0660910218
  0
LINE
  5
3A6
100
AcDbEntity
  8
ASSI
100
AcDbLine
 62
250
  6
CONTINUOUS
 10
0.7895211038
 20
18.7318470678
 11
0.7895211038
 21
19.4826800927
  0
LINE
  5
3A7
100
AcDbEntity
  8
ASSI
100
AcDbLine
 62
250
  6
CONTINUOUS
 10
0.9830853899
 20
-21.9137061897
 11
0.9830853899
 21
-21.1628731648
  0
LINE
  5
3A8
100
AcDbEntity
  8
ASSI
100
AcDbLine
 62
250
  6
CONTINUOUS
 10
0.9830853899
 20
18.6350649247
 11
0.9830853899
 21
19.3858979497
  0
LINE
  5
3A9
100
AcDbEntity
  8
RACCORDO
100
AcDbLine
 62
7
  6
CONTINUOUS
 10
1.3105673156
 20
-16.1359685482
 11
1.3105673156
 21
-15.0965600045
  0
LINE
  5
3AA
100
AcDbEntity
  8
ASSI
100
AcDbLine
 62
250
  6
CONTINUOUS
 10
1.3335266778
 20
-21.6674168679
 11
1.3335266778
 21
-21.041583843
  0
LINE
  5
3AB
100
AcDbEntity
  8
ASSI
100
AcDbLine
 62
250
  6
CONTINUOUS
 10
1.3335266778
 20
18.5107173482
 11
1.3335266778
 21
19.1079455038
  0
LINE
  5
3AC
100
AcDbEntity
  8
ASSI
100
AcDbLine
 62
7
  6
CONTINUOUS
 10
1.8762527405
 20
18.8365824725
 11
1.8762527405
 21
18.3955880306
  0
LINE
  5
3AD
100
AcDbEntity
  8
ASSI
100
AcDbLine
 62
7
  6
CONTINUOUS
 10
1.8762527405
 20
-20.4023500589
 11
1.8762527405
 21
-21.0281830838
  0
LINE
  5
3AE
100
AcDbEntity
  8
ASSI
100
AcDbLine
 62
250
  6
CONTINUOUS
 10
1.9185539082
 20
19.2354324909
 11
1.9185539082
 21
18.9181810345
  0
LINE
  5
3AF
100
AcDbEntity
  8
ASSI
100
AcDbLine
 62
250
  6
CONTINUOUS
 10
1.9185539082
 20
-22.6987092492
 11
1.9185539082
 21
-22.3814404489
  0
LINE
  5
3B0
100
AcDbEntity
  8
ASSI
100
AcDbLine
 62
250
  6
CONTINUOUS
 10
2.1989069385
 20
19.234209189
 11
2.1989069385
 21
18.9169403886
  0
LINE
  5
3B1
100
AcDbEntity
  8
ASSI
100
AcDbLine
 62
250
  6
CONTINUOUS
 10
2.1989069385
 20
-22.6999325512
 11
2.1989069385
 21
-22.3826637508
  0
LINE
  5
3B2
100
AcDbEntity
  8
ASSI
100
AcDbLine
 62
250
  6
CONTINUOUS
 10
2.6032596892
 20
18.6441761422
 11
2.6032596892
 21
17.9640048539
  0
LINE
  5
3B3
100
AcDbEntity
  8
ASSI
100
AcDbLine
 62
250
  6
CONTINUOUS
 10
2.6032596892
 20
-20.697773831
 11
2.6032596892
 21
-21.3916865582
  0
LWPOLYLINE
  5
3B4
100
AcDbEntity
  8
ASSI
100
AcDbPolyline
 62
250
  6
CONTINUOUS
 90
19
 70
0
 10
2.1989069385
 20
-22.3826637508
 10
2.1989395217
 20
-22.38048341
 10
2.1990802673
 20
-22.3782106209
 10
2.1993291752
 20
-22.3758453836
 10
2.1996815922
 20
-22.3733761797
 10
2.2001421716
 20
-22.3708145275
 10
2.2007248732
 20
-22.368194982
 10
2.2014337246
 20
-22.365514407
 10
2.2022646982
 20
-22.3627759386
 10
2.2032196708
 20
-22.3600235396
 10
2.2043029793
 20
-22.3572557479
 10
2.2055102869
 20
-22.3544740255
 10
2.2068304599
 20
-22.3517267206
 10
2.2082674255
 20
-22.3490145104
 10
2.2098172565
 20
-22.3463367177
 10
2.2114570383
 20
-22.3437396585
 10
2.2131791325
 20
-22.3412387716
 10
2.2149911773
 20
-22.3388186182
 10
2.2168931729
 20
-22.3364791985
  0
LWPOLYLINE
  5
3B5
100
AcDbEntity
  8
ASSI
100
AcDbPolyline
 62
250
  6
CONTINUOUS
 90
19
 70
0
 10
1.9185539082
 20
-22.3814404489
 10
1.9187729207
 20
-22.370571463
 10
1.919454813
 20
-22.3591987963
 10
1.9206355014
 20
-22.3473368272
 10
1.9223542723
 20
-22.3349791298
 10
1.9246434977
 20
-22.3221762154
 10
1.9275175082
 20
-22.3090381077
 10
1.9309976852
 20
-22.2956022745
 10
1.9351027001
 20
-22.2819119492
 10
1.939819866
 20
-22.2680948563
 10
1.9451528316
 20
-22.2542018441
 10
1.9511020036
 20
-22.2402871703
 10
1.9576262997
 20
-22.2264853824
 10
1.9647108221
 20
-22.2128525716
 10
1.9723381924
 20
-22.1994447894
 10
1.9804422064
 20
-22.1863895933
 10
1.9889765866
 20
-22.1737602139
 10
1.997923952
 20
-22.1615814318
 10
2.0072508207
 20
-22.1499005575
  0
LINE
  5
3B6
100
AcDbEntity
  8
RACCORDO
100
AcDbLine
 62
7
  6
CONTINUOUS
 10
0.7232265444
 20
-21.5670180449
 11
2.3219463588
 21
16.5936634109
  0
LWPOLYLINE
  5
3B7
100
AcDbEntity
  8
ASSI
100
AcDbPolyline
 62
250
  6
CONTINUOUS
 90
9
 70
0
 10
3.5240594146
 20
23.8777117257
 10
3.5237759193
 20
23.8709995281
 10
3.5202034382
 20
23.8516018611
 10
3.5125786859
 20
23.8325545592
 10
3.5009847296
 20
23.8140633667
 10
3.4855431933
 20
23.7963214786
 10
3.4664171878
 20
23.7795201292
 10
3.4438130129
 20
23.7638459033
 10
3.4179737276
 20
23.749470397
  0
LINE
  5
3B8
100
AcDbEntity
  8
0
100
AcDbLine
 62
7
  6
CONTINUOUS
 10
1.9956290834
 20
-2.1944400355
 11
3.1566259216
 21
12.7324540981
  0
LWPOLYLINE
  5
3B9
100
AcDbEntity
  8
RACCORDO
100
AcDbPolyline
 62
250
  6
CONTINUOUS
 90
28
 70
0
 10
20.1212818734
 20
16.696581887
 10
20.1375603494
 20
16.7110477759
 10
20.1536129759
 20
16.7232021196
 10
20.1694065504
 20
16.7330481083
 10
20.1849376542
 20
16.7406356282
 10
20.2001380736
 20
16.7459201465
 10
20.2148860729
 20
16.7487584329
 10
20.2291796305
 20
16.74897649
 10
20.2429656298
 20
16.746742177
 10
20.2560763097
 20
16.7424138879
 10
20.2684595249
 20
16.7359166749
 10
20.2801626011
 20
16.7273025488
 10
20.2911877453
 20
16.7171141086
 10
20.3015043278
 20
16.7054097152
 10
20.3111385858
 20
16.6921095212
 10
20.3201609996
 20
16.6775525808
 10
20.328550417
 20
16.6617864772
 10
20.336289221
 20
16.6447486364
 10
20.3434177021
 20
16.6266186538
 10
20.3499028014
 20
16.6074006097
 10
20.355698887
 20
16.587077365
 10
20.3607939148
 20
16.5657997155
 10
20.365133898
 20
16.5435655861
 10
20.3686641954
 20
16.5203594015
 10
20.3713415849
 20
16.4963118923
 10
20.3730928082
 20
16.4714390007
 10
20.3738500813
 20
16.4456976738
 10
20.3738756893
 20
16.4406370513
  0
LINE
  5
3BA
100
AcDbEntity
  8
DRAFT
100
AcDbLine
 62
7
  6
CONTINUOUS
 10
-11.4351489202
 20
-8.4398577065
 11
-11.413169301
 21
-8.4275492742
  0
LWPOLYLINE
  5
3BB
100
AcDbEntity
  8
0
100
AcDbPolyline
 62
7
  6
CONTINUOUS
 90
14
 70
0
 10
-11.4131477544
 20
-8.4275809447
 10
-11.4286140146
 20
-8.4360526756
 10
-11.4653843202
 20
-8.4600773704
 10
-11.499858811
 20
-8.4884064583
 10
-11.5317059432
 20
-8.5208629593
 10
-11.5610146953
 20
-8.5575805749
 10
-11.5877351177
 20
-8.5984146458
 10
-11.6112938137
 20
-8.6427594788
 10
-11.6316074271
 20
-8.6906569368
 10
-11.6487842304
 20
-8.7420723007
 10
-11.6624885051
 20
-8.7962705431
 10
-11.6726012832
 20
-8.8530123561
 10
-11.6792543112
 20
-8.9125676514
 10
-11.6824710004
 20
-8.9749646412
  0
LINE
  5
3BC
100
AcDbEntity
  8
0
100
AcDbLine
 62
7
  6
CONTINUOUS
 10
-11.389570778
 20
-8.4163128725
 11
-11.4131477544
 21
-8.4275809447
  0
LWPOLYLINE
  5
3BD
100
AcDbEntity
  8
DRAFT
100
AcDbPolyline
 62
7
  6
CONTINUOUS
 90
41
 70
0
 10
-11.413169301
 20
-8.4275492742
 10
-11.3898587299
 20
-8.4164436972
 10
-11.3660266871
 20
-8.4069378838
 10
-11.3414664445
 20
-8.3989553521
 10
-11.3163062926
 20
-8.3925337153
 10
-11.2905363539
 20
-8.3876789452
 10
-11.2641670752
 20
-8.3843936505
 10
-11.2373522889
 20
-8.3827068784
 10
-11.2100629043
 20
-8.3826444276
 10
-11.1823287003
 20
-8.3841873121
 10
-11.1543850139
 20
-8.3872920888
 10
-11.1263479271
 20
-8.3919293852
 10
-11.0980973248
 20
-8.398129097
 10
-11.0695135514
 20
-8.4059354421
 10
-11.0406633325
 20
-8.4152802789
 10
-11.0114891008
 20
-8.4262384579
 10
-10.9816951785
 20
-8.4390753324
 10
-10.9512941078
 20
-8.4537212466
 10
-10.9203044384
 20
-8.4702642035
 10
-10.8884542587
 20
-8.4892151445
 10
-10.8558017835
 20
-8.5104615406
 10
-10.8223453842
 20
-8.5341452947
 10
-10.7877444755
 20
-8.5611703788
 10
-10.7518270377
 20
-8.5916344943
 10
-10.7148734841
 20
-8.625490331
 10
-10.6772353083
 20
-8.6634278881
 10
-10.6388203812
 20
-8.7055762193
 10
-10.5998588225
 20
-8.7518548633
 10
-10.5611733054
 20
-8.802627076
 10
-10.5226714217
 20
-8.8581397877
 10
-10.4846050379
 20
-8.9181885971
 10
-10.4482721231
 20
-8.9824392078
 10
-10.4135801758
 20
-9.0514310222
 10
-10.3807857593
 20
-9.1246723443
 10
-10.3516105269
 20
-9.2002525866
 10
-10.326229741
 20
-9.2783035087
 10
-10.3045577936
 20
-9.3587519421
 10
-10.287787543
 20
-9.4393494824
 10
-10.2762991206
 20
-9.5193687477
 10
-10.2697530614
 20
-9.5996290694
 10
-10.268218359
 20
-9.6801995595
  0
LWPOLYLINE
  5
3BE
100
AcDbEntity
  8
ASSI
100
AcDbPolyline
 62
250
  6
CONTINUOUS
 90
13
 70
0
 10
2.2342516012
 20
19.2945698361
 10
2.232735869
 20
19.3176267716
 10
2.2288698292
 20
19.3415196875
 10
2.2227196031
 20
19.3658399293
 10
2.2143903799
 20
19.3901715325
 10
2.2040246175
 20
19.4140983393
 10
2.1917996049
 20
19.437211116
 10
2.1779244312
 20
19.4591145503
 10
2.1626364118
 20
19.4794340098
 10
2.1461970284
 20
19.4978219529
 10
2.1288874549
 20
19.5139638756
 10
2.1110037477
 20
19.5275836903
 10
2.0928517841
 20
19.5384484455
  0
LWPOLYLINE
  5
3BF
100
AcDbEntity
  8
ASSI
100
AcDbPolyline
 62
250
  6
CONTINUOUS
 90
10
 70
0
 10
2.1989069385
 20
18.9169403886
 10
2.1991778133
 20
18.9119347104
 10
2.1999017837
 20
18.9073462668
 10
2.2010788498
 20
18.9031750577
 10
2.2027372738
 20
18.8993760754
 10
2.2048487934
 20
18.8959943276
 10
2.2073286218
 20
18.8931648379
 10
2.2101484967
 20
18.8909326141
 10
2.2133366804
 20
18.8892526485
 10
2.2168931729
 20
18.8881249409
  0
LWPOLYLINE
  5
3C0
100
AcDbEntity
  8
ASSI
100
AcDbPolyline
 62
250
  6
CONTINUOUS
 90
10
 70
0
 10
4.4143881384
 20
-21.293437043
 10
4.4141265576
 20
-21.2884360119
 10
4.4134274275
 20
-21.2838599884
 10
4.412290748
 20
-21.2797089726
 10
4.4106892266
 20
-21.2759384416
 10
4.4086501559
 20
-21.2725929182
 10
4.4062554134
 20
-21.2698059714
 10
4.4035322918
 20
-21.2676221244
 10
4.4004534986
 20
-21.265996854
 10
4.3970190337
 20
-21.2649301602
  0
LWPOLYLINE
  5
3C1
100
AcDbEntity
  8
ASSI
100
AcDbPolyline
 62
250
  6
CONTINUOUS
 90
13
 70
0
 10
1.9772418481
 20
26.8570993123
 10
1.9760589415
 20
26.8803353635
 10
1.9725298209
 20
26.9043150348
 10
1.9667135381
 20
26.9286370805
 10
1.9587074156
 20
26.9528945261
 10
1.9486454176
 20
26.9766814777
 10
1.9366959092
 20
26.9995999146
 10
1.9230588382
 20
27.0212663482
 10
1.9079623904
 20
27.0413182396
 10
1.8916591711
 20
27.0594200657
 10
1.8744219779
 20
27.0752689333
 10
1.8565392364
 20
27.0885996471
 10
1.838310174
 20
27.0991891477
  0
LWPOLYLINE
  5
3C2
100
AcDbEntity
  8
ASSI
100
AcDbPolyline
 62
7
  6
CONTINUOUS
 90
12
 70
0
 10
2.6014964173
 20
26.5078606911
 10
2.598026272
 20
26.5788772465
 10
2.5883894686
 20
26.6554232022
 10
2.5728516245
 20
26.7278815793
 10
2.5516604303
 20
26.7958844393
 10
2.5249995957
 20
26.8592538785
 10
2.4929537427
 20
26.9178986075
 10
2.4557205573
 20
26.9714915024
 10
2.4135807338
 20
27.0195970309
 10
2.3668337558
 20
27.0618302861
 10
2.3158916897
 20
27.0978310027
 10
2.2754708349
 20
27.1204074456
  0
LWPOLYLINE
  5
3C3
100
AcDbEntity
  8
ASSI
100
AcDbPolyline
 62
250
  6
CONTINUOUS
 90
9
 70
0
 10
1.9185539003
 20
18.9181810391
 10
1.9197528034
 20
18.8936335866
 10
1.9233350193
 20
18.8706117084
 10
1.9292517495
 20
18.8494264336
 10
1.9374240227
 20
18.8303620067
 10
1.947740308
 20
18.8136777999
 10
1.9600562481
 20
18.7996027045
 10
1.9742022894
 20
18.788325116
 10
1.9837346935
 20
18.7828414984
  0
LWPOLYLINE
  5
3C4
100
AcDbEntity
  8
ASSI
100
AcDbPolyline
 62
250
  6
CONTINUOUS
 90
22
 70
0
 10
2.542927273
 20
26.4373546497
 10
2.5406252538
 20
26.4883026919
 10
2.5353166029
 20
26.5370006044
 10
2.5270013204
 20
26.5834483873
 10
2.5156021851
 20
26.6279048048
 10
2.5011964181
 20
26.6701110926
 10
2.484015683
 20
26.7092909576
 10
2.4640120827
 20
26.7453691272
 10
2.4412335143
 20
26.778420874
 10
2.4160553326
 20
26.8078957221
 10
2.3884371694
 20
26.8337309123
 10
2.3584193929
 20
26.8559892039
 10
2.3264984622
 20
26.8743083984
 10
2.2926450782
 20
26.8886212983
 10
2.2568885402
 20
26.8989951013
 10
2.2198132054
 20
26.9052692014
 10
2.1813765758
 20
26.9073678234
 10
2.1416211495
 20
26.9053667426
 10
2.1012587784
 20
26.8993326791
 10
2.0605267464
 20
26.8892878729
 10
2.0191877696
 20
26.875210084
 10
1.9772418481
 20
26.8570993123
  0
LWPOLYLINE
  5
3C5
100
AcDbEntity
  8
ASSI
100
AcDbPolyline
 62
7
  6
CONTINUOUS
 90
12
 70
0
 10
3.5240599973
 20
23.8778342278
 10
3.522881986
 20
23.9051551036
 10
3.5177593863
 20
23.9385914856
 10
3.5085398813
 20
23.9715871691
 10
3.4952290868
 20
24.0036692199
 10
3.4779776028
 20
24.0342313962
 10
3.4568424635
 20
24.0629904854
 10
3.4318314339
 20
24.0897131539
 10
3.4033689743
 20
24.1138074958
 10
3.3720111907
 20
24.1348300832
 10
3.3375207007
 20
24.1529516107
 10
3.3002837656
 20
24.1679250058
  0
LWPOLYLINE
  5
3C6
100
AcDbEntity
  8
ASSI
100
AcDbPolyline
 62
7
  6
CONTINUOUS
 90
16
 70
0
 10
4.2450604575
 20
17.8388314384
 10
4.243146578
 20
17.8847059134
 10
4.2373324277
 20
17.9321424467
 10
4.2276536551
 20
17.98065143
 10
4.2141211567
 20
18.0298955269
 10
4.196897016
 20
18.0791649333
 10
4.1764167273
 20
18.1273955694
 10
4.153197999
 20
18.1736899724
 10
4.1273876406
 20
18.2179907081
 10
4.0988996177
 20
18.2604750518
 10
4.067712508
 20
18.3009779693
 10
4.0343799962
 20
18.3386043983
 10
3.9996822627
 20
18.3724868374
 10
3.9641710211
 20
18.402189612
 10
3.9281026428
 20
18.4275799919
 10
3.8918704041
 20
18.4484393706
  0
LWPOLYLINE
  5
3C7
100
AcDbEntity
  8
ASSI
100
AcDbPolyline
 62
250
  6
CONTINUOUS
 90
13
 70
0
 10
3.4179737276
 20
23.749470397
 10
3.4168312826
 20
23.7786677331
 10
3.4126325428
 20
23.8088508372
 10
3.4054493218
 20
23.8395034679
 10
3.3954044789
 20
23.8701013533
 10
3.3826698178
 20
23.9001211578
 10
3.3674631482
 20
23.9290494334
 10
3.3500445599
 20
23.9563914012
 10
3.3307119742
 20
23.9816794134
 10
3.3097960489
 20
24.004480953
 10
3.2876545227
 20
24.0244060304
 10
3.2646660964
 20
24.0411138538
 10
3.2412239562
 20
24.0543186586
  0
LWPOLYLINE
  5
3C8
100
AcDbEntity
  8
ASSI
100
AcDbPolyline
 62
250
  6
CONTINUOUS
 90
13
 70
0
 10
4.3802561944
 20
20.3717330351
 10
4.3793422373
 20
20.395090903
 10
4.3759832446
 20
20.4192373855
 10
4.3702366676
 20
20.4437594897
 10
4.3622007935
 20
20.468237798
 10
4.3520130653
 20
20.4922536419
 10
4.3398477301
 20
20.5153962628
 10
4.3259128598
 20
20.5372698373
 10
4.3104467915
 20
20.5575002475
 10
4.2937140514
 20
20.5757414795
 10
4.2760008305
 20
20.5916815416
 10
4.2576100895
 20
20.6050478005
 10
4.2388563773
 20
20.6156116444
  0
LWPOLYLINE
  5
3C9
100
AcDbEntity
  8
ASSI
100
AcDbPolyline
 62
7
  6
CONTINUOUS
 90
11
 70
0
 10
4.470519733
 20
20.4157344159
 10
4.4700494789
 20
20.4309805771
 10
4.4664092279
 20
20.4606478473
 10
4.4591940668
 20
20.489392277
 10
4.448515353
 20
20.516739976
 10
4.43469509
 20
20.5420463939
 10
4.4179832294
 20
20.5650844678
 10
4.3985130514
 20
20.5857373475
 10
4.3766928231
 20
20.6036033366
 10
4.3529600623
 20
20.6184008532
 10
4.3472983987
 20
20.6213397649
  0
LWPOLYLINE
  5
3CA
100
AcDbEntity
  8
ASSI
100
AcDbPolyline
 62
7
  6
CONTINUOUS
 90
8
 70
0
 10
4.2330109786
 20
23.7175258576
 10
4.2327646116
 20
23.7307579562
 10
4.2316716824
 20
23.7415432178
 10
4.229850105
 20
23.7498693558
 10
4.227389115
 20
23.7557134537
 10
4.2244091674
 20
23.7590826402
 10
4.2211047358
 20
23.7600147468
 10
4.219269651
 20
23.7595083389
  0
LWPOLYLINE
  5
3CB
100
AcDbEntity
  8
ASSI
100
AcDbPolyline
 62
250
  6
CONTINUOUS
 90
28
 70
0
 10
4.4143881384
 20
20.3461106912
 10
4.4143505415
 20
20.3483316476
 10
4.4142070917
 20
20.3505221016
 10
4.4139577889
 20
20.3526820532
 10
4.4136050768
 20
20.354826289
 10
4.4131465117
 20
20.3569400224
 10
4.4125747626
 20
20.3589788935
 10
4.4118859048
 20
20.3609410623
 10
4.411083863
 20
20.3628283689
 10
4.4101730808
 20
20.3646019735
 10
4.4091502892
 20
20.3662579456
 10
4.4080187572
 20
20.3678002157
 10
4.4067927347
 20
20.3692017351
 10
4.4054712307
 20
20.3704578836
 10
4.4040552362
 20
20.3715732813
 10
4.4025619741
 20
20.3725347397
 10
4.4009916193
 20
20.3733395898
 10
4.399343997
 20
20.3739905006
 10
4.3976358055
 20
20.3744822908
 10
4.395866495
 20
20.3748135872
 10
4.3940366155
 20
20.3749857631
 10
4.3921645151
 20
20.3749977566
 10
4.3902498572
 20
20.3748481299
 10
4.3882929785
 20
20.3745383209
 10
4.3863132371
 20
20.3740715817
 10
4.3843170856
 20
20.3734489963
 10
4.3822980714
 20
20.3726694808
 10
4.3802561944
 20
20.3717330351
  0
LINE
  5
3CC
100
AcDbEntity
  8
ASSI
100
AcDbLine
 62
250
  6
CONTINUOUS
 10
2.5471057152
 20
26.1420825808
 11
2.542927273
 21
26.4373546497
  0
LINE
  5
3CD
100
AcDbEntity
  8
ASSI
100
AcDbLine
 62
7
  6
CONTINUOUS
 10
2.6063116046
 20
26.1683720845
 11
2.6015074334
 21
26.5078616626
  0
LWPOLYLINE
  5
3CE
100
AcDbEntity
  8
ASSI
100
AcDbPolyline
 62
7
  6
CONTINUOUS
 90
4
 70
0
 10
4.4705206095
 20
-21.2239429193
 10
4.4705020999
 20
-21.2209339931
 10
4.4688092754
 20
-21.1947384121
 10
4.4643598008
 20
-21.1690230596
  0
LINE
  5
3CF
100
AcDbEntity
  8
ASSI
100
AcDbLine
 62
250
  6
CONTINUOUS
 10
2.9537009772
 20
18.7318247639
 11
2.9537009772
 21
17.9736243178
  0
LINE
  5
3D0
100
AcDbEntity
  8
ASSI
100
AcDbLine
 62
250
  6
CONTINUOUS
 10
2.9537009772
 20
-20.8313702985
 11
2.9537009772
 21
-21.4686519958
  0
LINE
  5
3D1
100
AcDbEntity
  8
0
100
AcDbLine
 62
7
  6
CONTINUOUS
 10
3.1566259216
 20
-20.5414440416
 11
3.1566259216
 21
-16.0195893075
  0
LINE
  5
3D2
100
AcDbEntity
  8
0
100
AcDbLine
 62
7
  6
CONTINUOUS
 10
3.1566259216
 20
12.7324540981
 11
3.1566259216
 21
17.2543088322
  0
LINE
  5
3D3
100
AcDbEntity
  8
ASSI
100
AcDbLine
 62
7
  6
CONTINUOUS
 10
3.8561517278
 20
-21.977114028
 11
3.8561517278
 21
-20.4709246012
  0
LINE
  5
3D4
100
AcDbEntity
  8
ASSI
100
AcDbLine
 62
7
  6
CONTINUOUS
 10
3.8561517278
 20
18.4662987087
 11
3.8561517278
 21
20.1117733559
  0
LINE
  5
3D5
100
AcDbEntity
  8
ASSI
100
AcDbLine
 62
7
  6
CONTINUOUS
 10
4.2450604575
 20
17.8388314384
 11
4.2450604575
 21
15.327357971
  0
LINE
  5
3D6
100
AcDbEntity
  8
ASSI
100
AcDbLine
 62
7
  6
CONTINUOUS
 10
4.2450604575
 20
-20.0930808401
 11
4.2450604575
 21
-17.5816073728
  0
LINE
  5
3D7
100
AcDbEntity
  8
ASSI
100
AcDbLine
 62
250
  6
CONTINUOUS
 10
4.4143881384
 20
-21.6333806379
 11
4.4143881384
 21
-21.293437043
  0
LINE
  5
3D8
100
AcDbEntity
  8
ASSI
100
AcDbLine
 62
250
  6
CONTINUOUS
 10
4.4143881384
 20
20.0061670963
 11
4.4143881384
 21
20.3461106912
  0
LINE
  5
3D9
100
AcDbEntity
  8
ASSI
100
AcDbLine
 62
7
  6
CONTINUOUS
 10
4.4705201783
 20
-21.5639148009
 11
4.4705201783
 21
-21.2239711371
  0
LINE
  5
3DA
100
AcDbEntity
  8
ASSI
100
AcDbLine
 62
7
  6
CONTINUOUS
 10
4.4705201783
 20
20.0756329334
 11
4.470519929
 21
20.4157344161
  0
LINE
  5
3DB
100
AcDbEntity
  8
ASSI
100
AcDbLine
 62
7
  6
CONTINUOUS
 10
4.9398246439
 20
-19.718305776
 11
4.9398246439
 21
-16.793298326
  0
LINE
  5
3DC
100
AcDbEntity
  8
ASSI
100
AcDbLine
 62
7
  6
CONTINUOUS
 10
4.9398246439
 20
15.2584983002
 11
4.9398246439
 21
18.1835057503
  0
LINE
  5
3DD
100
AcDbEntity
  8
ASSI
100
AcDbLine
 62
7
  6
CONTINUOUS
 10
3.5168850467
 20
22.7070385178
 11
3.524060005
 21
23.8778179398
  0
LINE
  5
3DE
100
AcDbEntity
  8
ASSI
100
AcDbLine
 62
250
  6
CONTINUOUS
 10
3.4179737276
 20
23.749470397
 11
3.4140965858
 21
23.3749726948
  0
LINE
  5
3DF
100
AcDbEntity
  8
ASSI
100
AcDbLine
 62
250
  6
CONTINUOUS
 10
3.4118231321
 20
23.1553771083
 11
3.405806964
 21
22.5742683225
  0
LWPOLYLINE
  5
3E0
100
AcDbEntity
  8
ASSI
100
AcDbPolyline
 62
7
  6
CONTINUOUS
 90
9
 70
0
 10
3.5167623798
 20
22.707039832
 10
3.5166254639
 20
22.70185263
 10
3.5132432581
 20
22.6814372401
 10
3.5050389263
 20
22.6611900148
 10
3.4923872727
 20
22.6411786611
 10
3.4760609813
 20
22.6223828482
 10
3.4563176134
 20
22.6051291323
 10
3.4328996076
 20
22.589090957
 10
3.405806964
 20
22.5742683225
  0
LINE
  5
3E1
100
AcDbEntity
  8
ASSI
100
AcDbLine
 62
7
  6
CONTINUOUS
 10
4.2330109786
 20
23.7175258576
 11
4.2327905735
 21
23.7108660938
  0
LINE
  5
3E2
100
AcDbEntity
  8
ASSI
100
AcDbLine
 62
7
  6
CONTINUOUS
 10
4.4696635621
 20
20.0546867988
 11
4.4705162474
 21
20.0756727715
  0
LINE
  5
3E3
100
AcDbEntity
  8
ASSI
100
AcDbLine
 62
250
  6
CONTINUOUS
 10
3.9097851008
 20
23.3638614613
 11
3.9193492609
 21
23.5875246998
  0
LWPOLYLINE
  5
3E4
100
AcDbEntity
  8
ASSI
100
AcDbPolyline
 62
7
  6
CONTINUOUS
 90
10
 70
0
 10
4.2450604575
 20
-20.0931469937
 10
4.2431015475
 20
-20.1371422362
 10
4.2372896271
 20
-20.1789386807
 10
4.2276325924
 20
-20.2180525052
 10
4.2140998704
 20
-20.2541617814
 10
4.196843122
 20
-20.2866565128
 10
4.1763321325
 20
-20.3147914488
 10
4.153089323
 20
-20.3381574521
 10
4.127254971
 20
-20.3568619409
 10
4.1192852675
 20
-20.3614204199
  0
LINE
  5
3E5
100
AcDbEntity
  8
ASSI
100
AcDbLine
 62
7
  6
CONTINUOUS
 10
4.1977327947
 20
23.6858113586
 11
4.1967442015
 21
23.6683682254
  0
LINE
  5
3E6
100
AcDbEntity
  8
DRAFT
100
AcDbLine
 62
7
  6
CONTINUOUS
 10
5.6532071344
 20
15.037498195
 11
5.6470635613
 21
15.1169380967
  0
LINE
  5
3E7
100
AcDbEntity
  8
ASSI
100
AcDbLine
 62
7
  6
CONTINUOUS
 10
5.6345888303
 20
15.6226513313
 11
5.6345888303
 21
15.046807347
  0
LINE
  5
3E8
100
AcDbEntity
  8
ASSI
100
AcDbLine
 62
7
  6
CONTINUOUS
 10
5.6345888303
 20
-15.9648281458
 11
5.6345888303
 21
-16.4380019811
  0
LINE
  5
3E9
100
AcDbEntity
  8
ASSI
100
AcDbLine
 62
7
  6
CONTINUOUS
 10
5.6963065053
 20
15.0159485095
 11
5.6963065053
 21
-15.8930168343
  0
LWPOLYLINE
  5
3EA
100
AcDbEntity
  8
ASSI
100
AcDbPolyline
 62
250
  6
CONTINUOUS
 90
8
 70
0
 10
4.3802561944
 20
-21.6943476444
 10
4.3793422411
 20
-21.7161897372
 10
4.3759832598
 20
-21.7364701424
 10
4.3702366987
 20
-21.7548419906
 10
4.3622008431
 20
-21.7709910545
 10
4.3520131329
 20
-21.784641125
 10
4.3398478119
 20
-21.7955587349
 10
4.3313530024
 20
-21.8008979794
  0
LINE
  5
3EB
100
AcDbEntity
  8
ASSI
100
AcDbLine
 62
7
  6
CONTINUOUS
 10
4.4693941752
 20
-21.5879239803
 11
4.4705201135
 21
-21.5638841458
  0
LWPOLYLINE
  5
3EC
100
AcDbEntity
  8
0
100
AcDbPolyline
 62
7
  6
CONTINUOUS
 90
12
 70
0
 10
-10.6051746269
 20
-12.8578171266
 10
-10.5664019783
 20
-12.8378275917
 10
-10.5299608082
 20
-12.8135944495
 10
-10.4958670211
 20
-12.7850977872
 10
-10.4644329772
 20
-12.7525495969
 10
-10.4355835141
 20
-12.7158165307
 10
-10.4094031403
 20
-12.6750652357
 10
-10.3864025669
 20
-12.6309334797
 10
-10.3666313359
 20
-12.5832529466
 10
-10.3500312549
 20
-12.5321916041
 10
-10.3368876071
 20
-12.4788527723
 10
-10.327266941
 20
-12.4235818254
  0
LINE
  5
3ED
100
AcDbEntity
  8
RACCORDO
100
AcDbLine
 62
250
  6
CONTINUOUS
 10
1.4523292836
 20
-5.6487844223
 11
1.3889127154
 21
-5.6774058106
  0
LWPOLYLINE
  5
3EE
100
AcDbEntity
  8
0
100
AcDbPolyline
 62
7
  6
CONTINUOUS
 90
6
 70
0
 10
-2.3697245558
 20
19.390267176
 10
-2.3719003754
 20
19.3949633953
 10
-2.3802943136
 20
19.4063223472
 10
-2.3915069823
 20
19.4170069019
 10
-2.4056238767
 20
19.4272015894
 10
-2.422644997
 20
19.4369064099
  0
LINE
  5
3EF
100
AcDbEntity
  8
DRAFT
100
AcDbLine
 62
7
  6
CONTINUOUS
 10
5.6470635613
 20
15.1169380967
 11
5.6345888303
 21
15.2157668852
  0
LINE
  5
3F0
100
AcDbEntity
  8
DRAFT
100
AcDbLine
 62
7
  6
CONTINUOUS
 10
5.6345888303
 20
-16.031117535
 11
5.6460998571
 21
-15.9514345445
  0
LWPOLYLINE
  5
3F1
100
AcDbEntity
  8
RACCORDO
100
AcDbPolyline
 62
7
  6
CONTINUOUS
 90
7
 70
0
 10
20.1212818734
 20
16.696581887
 10
20.136279989
 20
16.7208660073
 10
20.1524561443
 20
16.7440403376
 10
20.1698103394
 20
16.7661048779
 10
20.1883425743
 20
16.7870596281
 10
20.2080528491
 20
16.8069045883
 10
20.2289411636
 20
16.8256397585
  0
LINE
  5
3F2
100
AcDbEntity
  8
0
100
AcDbLine
 62
7
  6
CONTINUOUS
 10
-10.6328716436
 20
-12.8689622249
 11
-10.6051746269
 21
-12.8578171266
  0
LWPOLYLINE
  5
3F3
100
AcDbEntity
  8
RACCORDO
100
AcDbPolyline
 62
250
  6
CONTINUOUS
 90
9
 70
0
 10
-16.9344900377
 20
21.6908598925
 10
-16.9650219688
 20
21.7096390261
 10
-16.9916245049
 20
21.7294241085
 10
-17.0140398884
 20
21.7500234381
 10
-17.032050932
 20
21.7712374236
 10
-17.045483123
 20
21.7928605184
 10
-17.054206314
 20
21.8146832119
 10
-17.0581359844
 20
21.8364940593
 10
-17.0581200874
 20
21.8502904474
  0
LINE
  5
3F4
100
AcDbEntity
  8
0
100
AcDbLine
 62
7
  6
CONTINUOUS
 10
10.0510525098
 20
23.3442713043
 11
10.0537625063
 21
23.29626198
  0
LINE
  5
3F5
100
AcDbEntity
  8
ASSI
100
AcDbLine
 62
7
  6
CONTINUOUS
 10
10.531621029
 20
22.3903842188
 11
10.531621029
 21
22.5814062825
  0
LINE
  5
3F6
100
AcDbEntity
  8
0
100
AcDbLine
 62
250
  6
CONTINUOUS
 10
10.8396137747
 20
24.3080215427
 11
10.8396137747
 21
23.9866972605
  0
LINE
  5
3F7
100
AcDbEntity
  8
DRAFT
100
AcDbLine
 62
7
  6
CONTINUOUS
 10
11.5223239726
 20
23.8863265618
 11
11.5223239726
 21
24.3193392636
  0
LINE
  5
3F8
100
AcDbEntity
  8
0
100
AcDbLine
 62
7
  6
CONTINUOUS
 10
12.1362342945
 20
22.8734197552
 11
12.1362342945
 21
22.6117734414
  0
LINE
  5
3F9
100
AcDbEntity
  8
0
100
AcDbLine
 62
7
  6
CONTINUOUS
 10
12.5859789558
 20
22.7516719221
 11
12.5859789558
 21
22.5794671926
  0
LWPOLYLINE
  5
3FA
100
AcDbEntity
  8
ASSI
100
AcDbPolyline
 62
250
  6
CONTINUOUS
 90
7
 70
0
 10
4.3970190337
 20
-21.2649301602
 10
4.4048178371
 20
-21.2402027579
 10
4.4100502925
 20
-21.2147183381
 10
4.4126278616
 20
-21.1889081218
 10
4.4125069295
 20
-21.1632088428
 10
4.4096895426
 20
-21.1380553577
 10
4.4042233735
 20
-21.1138732877
  0
LWPOLYLINE
  5
3FB
100
AcDbEntity
  8
ASSI
100
AcDbPolyline
 62
7
  6
CONTINUOUS
 90
4
 70
0
 10
3.8453899715
 20
-22.0380073256
 10
3.8513388809
 20
-22.0195264696
 10
3.854948111
 20
-21.9991116019
 10
3.8561517278
 20
-21.977114028
  0
LWPOLYLINE
  5
3FC
100
AcDbEntity
  8
RACCORDO
100
AcDbPolyline
 62
250
  6
CONTINUOUS
 90
16
 70
0
 10
-2.2343067416
 20
14.3407765721
 10
-2.1957100894
 20
14.3249912448
 10
-2.1543162892
 20
14.3107779036
 10
-2.1105264058
 20
14.2982742614
 10
-2.0647647197
 20
14.2876014662
 10
-2.0174746161
 20
14.2788629268
 10
-1.9691142891
 20
14.2721433106
 10
-1.9201523021
 20
14.2675077238
 10
-1.8710630483
 20
14.2650010809
 10
-1.8223221535
 20
14.2646476687
 10
-1.7744018687
 20
14.2664509114
 10
-1.7277664937
 20
14.2703933374
 10
-1.682867879
 20
14.2764367484
 10
-1.6401410475
 20
14.2845225898
 10
-1.5999999796
 20
14.2945725179
 10
-1.5628336025
 20
14.3064891589
  0
LWPOLYLINE
  5
3FD
100
AcDbEntity
  8
RACCORDO
100
AcDbPolyline
 62
250
  6
CONTINUOUS
 90
3
 70
0
 10
-2.2343155352
 20
14.3407726192
 10
-2.7415678873
 20
14.5655021322
 10
-3.2466359622
 20
14.791086463
  0
LWPOLYLINE
  5
3FE
100
AcDbEntity
  8
RACCORDO
100
AcDbPolyline
 62
250
  6
CONTINUOUS
 90
3
 70
0
 10
-3.2466359622
 20
14.791086463
 10
-3.7495133758
 20
15.0175202801
 10
-4.250075211
 20
15.244744312
  0
LINE
  5
3FF
100
AcDbEntity
  8
RACCORDO
100
AcDbLine
 62
250
  6
CONTINUOUS
 10
-4.250075211
 20
15.244744312
 11
-4.7575885353
 21
15.4770298526
  0
LWPOLYLINE
  5
400
100
AcDbEntity
  8
RACCORDO
100
AcDbPolyline
 62
250
  6
CONTINUOUS
 90
26
 70
0
 10
-4.7575885353
 20
15.4770298526
 10
-5.2449382423
 20
15.7018654529
 10
-5.7397387971
 20
15.9319931082
 10
-6.2326616667
 20
16.1631108104
 10
-6.7235600637
 20
16.3951501622
 10
-7.2123906447
 20
16.6280903108
 10
-7.6991797642
 20
16.8619435564
 10
-8.1838872595
 20
17.0966902688
 10
-8.666569106
 20
17.3323575116
 10
-9.1471522836
 20
17.5689097016
 10
-9.6254064197
 20
17.8062317877
 10
-10.101023096
 20
18.0441658908
 10
-10.5743029683
 20
18.2828573814
 10
-11.0459232057
 20
18.5226487003
 10
-11.5149880907
 20
18.7630843512
 10
-11.9823732461
 20
19.0046126933
 10
-12.4513586759
 20
19.2489547004
 10
-12.9210949729
 20
19.4957112878
 10
-13.3923185207
 20
19.7453122608
 10
-13.8705614547
 20
20.0007735138
 10
-14.3558344911
 20
20.2622301226
 10
-14.8478311377
 20
20.5296481807
 10
-15.3514429525
 20
20.8058548845
 10
-15.8681024771
 20
21.0918629278
 10
-16.3958705756
 20
21.3868357092
 10
-16.9344900409
 20
21.6908598699
  0
LWPOLYLINE
  5
401
100
AcDbEntity
  8
ASSI
100
AcDbPolyline
 62
7
  6
CONTINUOUS
 90
4
 70
0
 10
-12.7234858301
 20
26.1484963816
 10
-12.7053872661
 20
26.1325116542
 10
-12.6856784829
 20
26.1186394989
 10
-12.6674473866
 20
26.1084335699
  0
LWPOLYLINE
  5
402
100
AcDbEntity
  8
DRAFT
100
AcDbPolyline
 62
7
  6
CONTINUOUS
 90
4
 70
0
 10
5.3678502469
 20
16.0827073351
 10
5.3673808045
 20
16.0837442419
 10
5.3087372175
 20
16.200589406
 10
5.2450604575
 20
16.3158647677
  0
LINE
  5
403
100
AcDbEntity
  8
RACCORDO
100
AcDbLine
 62
250
  6
CONTINUOUS
 10
12.907120866
 20
23.5977932659
 11
12.907120866
 21
24.2380432405
  0
LINE
  5
404
100
AcDbEntity
  8
RACCORDO
100
AcDbLine
 62
250
  6
CONTINUOUS
 10
13.0481337873
 20
23.5886960694
 11
13.0481337873
 21
24.2490391376
  0
LINE
  5
405
100
AcDbEntity
  8
0
100
AcDbLine
 62
7
  6
CONTINUOUS
 10
14.8517697531
 20
26.3494213355
 11
14.8517697531
 21
25.9415700682
  0
LINE
  5
406
100
AcDbEntity
  8
ASSI
100
AcDbLine
 62
7
  6
CONTINUOUS
 10
0.786462849
 20
-20.7680519286
 11
1.3105673156
 21
-20.1195073464
  0
LINE
  5
407
100
AcDbEntity
  8
ASSI
100
AcDbLine
 62
7
  6
CONTINUOUS
 10
1.3335266778
 20
-21.041583843
 11
1.8762527405
 21
-20.4023500589
  0
LINE
  5
408
100
AcDbEntity
  8
ASSI
100
AcDbLine
 62
7
  6
CONTINUOUS
 10
1.8762527405
 20
-21.0281830838
 11
1.3335266778
 21
-21.6674168679
  0
LINE
  5
409
100
AcDbEntity
  8
ASSI
100
AcDbLine
 62
7
  6
CONTINUOUS
 10
5.6963065053
 20
-15.8930168343
 11
4.2450604575
 21
-17.5816073728
  0
LWPOLYLINE
  5
40A
100
AcDbEntity
  8
RACCORDO
100
AcDbPolyline
 62
250
  6
CONTINUOUS
 90
31
 70
0
 10
-1.3774043076
 20
15.7206906611
 10
-1.8840853986
 20
15.9436757358
 10
-2.3885075212
 20
16.1675725079
 10
-2.8906706754
 20
16.3923809772
 10
-3.3904380651
 20
16.618039368
 10
-3.8879464865
 20
16.8446094561
 10
-4.383606327
 20
17.0722765688
 10
-4.877624576
 20
17.3011343918
 10
-5.3697942442
 20
17.5310892395
 10
-5.8599047516
 20
17.7620453824
 10
-6.3478984106
 20
17.9939771081
 10
-6.8338329088
 20
18.2269101291
 10
-7.3176707286
 20
18.4608258535
 10
-7.7994819536
 20
18.6957603749
 10
-8.2791965002
 20
18.9316775998
 10
-8.7565666008
 20
19.1684506555
 10
-9.2312981927
 20
19.4059295999
 10
-9.7036853386
 20
19.6442643752
 10
-10.1743624589
 20
19.8837779352
 10
-10.6424428072
 20
20.1239813022
 10
-11.1088131299
 20
20.365363454
 10
-11.5767680869
 20
20.6097142782
 10
-12.0456044709
 20
20.856579464
 10
-12.5160254892
 20
21.1064133222
 10
-12.9934354224
 20
21.3623686732
 10
-13.4781648156
 20
21.6245104186
 10
-13.9698831238
 20
21.8927736567
 10
-14.4730029931
 20
22.1701165034
 10
-14.9889953056
 20
22.4575249973
 10
-15.5163891793
 20
22.7540130996
 10
-16.055184614
 20
23.0595808105
  0
LINE
  5
40B
100
AcDbEntity
  8
DRAFT
100
AcDbLine
 62
7
  6
CONTINUOUS
 10
3.1566259216
 20
12.7324540981
 11
2.1806276572
 21
13.2204532303
  0
LWPOLYLINE
  5
40C
100
AcDbEntity
  8
RACCORDO
100
AcDbPolyline
 62
250
  6
CONTINUOUS
 90
16
 70
0
 10
-1.3774043076
 20
15.7206906611
 10
-1.3414936046
 20
15.6993801138
 10
-1.306077315
 20
15.6735137714
 10
-1.2715431289
 20
15.6433747839
 10
-1.2382690804
 20
15.6092930724
 10
-1.2066194092
 20
15.5716417181
 10
-1.1769405731
 20
15.5308328776
 10
-1.1495574564
 20
15.4873132716
 10
-1.1247698127
 20
15.4415592944
 10
-1.102848984
 20
15.3940717993
 10
-1.0840349301
 20
15.3453706157
 10
-1.0685336022
 20
15.2959888591
 10
-1.056514688
 20
15.2464670949
 10
-1.0481097544
 20
15.1973474209
 10
-1.0434108075
 20
15.1491675336
 10
-1.042469285
 20
15.1024548419
  0
LWPOLYLINE
  5
40D
100
AcDbEntity
  8
ASSI
100
AcDbPolyline
 62
7
  6
CONTINUOUS
 90
4
 70
0
 10
-0.1363628622
 20
19.8546362019
 10
-0.1175717126
 20
19.8382288606
 10
-0.0970835893
 20
19.8240953243
 10
-0.0810005839
 20
19.8152106472
  0
LINE
  5
40E
100
AcDbEntity
  8
ASSI
100
AcDbLine
 62
7
  6
CONTINUOUS
 10
4.9398246439
 20
16.8209422986
 11
5.6345888303
 21
15.6226513313
  0
LINE
  5
40F
100
AcDbEntity
  8
DRAFT
100
AcDbLine
 62
7
  6
CONTINUOUS
 10
4.9398246439
 20
16.8423186718
 11
5.2450604575
 21
16.3158647677
  0
LWPOLYLINE
  5
410
100
AcDbEntity
  8
ASSI
100
AcDbPolyline
 62
250
  6
CONTINUOUS
 90
7
 70
0
 10
4.3970190337
 20
19.9596739791
 10
4.4048178759
 20
19.9454583213
 10
4.4100503474
 20
19.9326586473
 10
4.4126279139
 20
19.9214915387
 10
4.412506965
 20
19.9121459515
 10
4.4096895518
 20
19.9047800199
 10
4.4087065285
 20
19.9034318194
  0
LINE
  5
411
100
AcDbEntity
  8
ASSI
100
AcDbLine
 62
250
  6
CONTINUOUS
 10
2.0072508207
 20
-22.1499005575
 11
2.6400410302
 21
-21.4045873914
  0
LINE
  5
412
100
AcDbEntity
  8
ASSI
100
AcDbLine
 62
250
  6
CONTINUOUS
 10
2.2168931729
 20
-22.3364791985
 11
2.9537009772
 21
-21.4686519958
  0
LWPOLYLINE
  5
413
100
AcDbEntity
  8
DRAFT
100
AcDbPolyline
 62
7
  6
CONTINUOUS
 90
4
 70
0
 10
5.2450604575
 20
-16.7416870447
 10
5.3087372175
 20
-16.690088443
 10
5.3673808045
 20
-16.6318868659
 10
5.3678502469
 20
-16.6313194014
  0
LINE
  5
414
100
AcDbEntity
  8
ASSI
100
AcDbLine
 62
7
  6
CONTINUOUS
 10
4.9398246439
 20
-16.941528762
 11
5.6345888303
 21
-16.4380019811
  0
LINE
  5
415
100
AcDbEntity
  8
DRAFT
100
AcDbLine
 62
7
  6
CONTINUOUS
 10
5.2450604575
 20
-16.7416870447
 11
4.9398246439
 21
-16.9629051351
  0
LWPOLYLINE
  5
416
100
AcDbEntity
  8
DRAFT
100
AcDbPolyline
 62
7
  6
CONTINUOUS
 90
27
 70
0
 10
1.1370034827
 20
-17.21443764
 10
1.1138465338
 20
-17.2282187662
 10
1.0818604226
 20
-17.2532833291
 10
1.0530672627
 20
-17.2839371513
 10
1.0275048671
 20
-17.3198983071
 10
1.0060316894
 20
-17.3599297876
 10
0.9888515546
 20
-17.4039135854
 10
0.9757606377
 20
-17.4519677078
 10
0.9670059176
 20
-17.503209168
 10
0.9626697208
 20
-17.55802313
 10
0.9626697208
 20
-17.6160244299
 10
0.9670059176
 20
-17.6751745888
 10
0.9757606377
 20
-17.7351707691
 10
0.9888515546
 20
-17.7963158084
 10
1.0060316894
 20
-17.857479741
 10
1.0275048671
 20
-17.9189843992
 10
1.0530672627
 20
-17.9805079506
 10
1.0818604226
 20
-18.0399549328
 10
1.1138465338
 20
-18.0970056068
 10
1.1490634093
 20
-18.1519797114
 10
1.1867660348
 20
-18.2037410004
 10
1.2271395478
 20
-18.2523815649
 10
1.2699988107
 20
-18.2978093136
 10
1.3140433973
 20
-18.3386117261
 10
1.3588398319
 20
-18.3743179624
 10
1.4048215901
 20
-18.4053988624
 10
1.4519886718
 20
-18.4318544263
  0
LWPOLYLINE
  5
417
100
AcDbEntity
  8
DRAFT
100
AcDbPolyline
 62
7
  6
CONTINUOUS
 90
27
 70
0
 10
1.7566716205
 20
-18.45408156
 10
1.7901308098
 20
-18.4351477448
 10
1.822116921
 20
-18.4100831819
 10
1.8509100809
 20
-18.3794293597
 10
1.8764724765
 20
-18.3434682039
 10
1.8979456542
 20
-18.3034367234
 10
1.915125789
 20
-18.2594529256
 10
1.9282167059
 20
-18.2113988032
 10
1.936971426
 20
-18.160157343
 10
1.9413076228
 20
-18.105343381
 10
1.9413076228
 20
-18.0473420811
 10
1.936971426
 20
-17.9881919222
 10
1.9282167059
 20
-17.9281957419
 10
1.915125789
 20
-17.8670507026
 10
1.8979456542
 20
-17.80588677
 10
1.8764724765
 20
-17.7443821118
 10
1.8509100809
 20
-17.6828585604
 10
1.822116921
 20
-17.6234115782
 10
1.7901308098
 20
-17.5663609042
 10
1.7549139343
 20
-17.5113867995
 10
1.7172113088
 20
-17.4596255106
 10
1.6768377958
 20
-17.4109849461
 10
1.6339785329
 20
-17.3655571974
 10
1.5899339463
 20
-17.3247547848
 10
1.5451375117
 20
-17.2890485486
 10
1.4991557535
 20
-17.2579676486
 10
1.4519886718
 20
-17.2315120847
  0
LWPOLYLINE
  5
418
100
AcDbEntity
  8
DRAFT
100
AcDbPolyline
 62
7
  6
CONTINUOUS
 90
27
 70
0
 10
2.0425839672
 20
-18.3189307245
 10
2.0763800687
 20
-18.2998062623
 10
2.1086884059
 20
-18.2744892788
 10
2.1377715578
 20
-18.2435268859
 10
2.1635913718
 20
-18.2072037656
 10
2.185280838
 20
-18.166769205
 10
2.2026341446
 20
-18.1223423658
 10
2.2158571034
 20
-18.0738040863
 10
2.2247001397
 20
-18.0220461683
 10
2.2290800622
 20
-17.9666794277
 10
2.2290800622
 20
-17.9080930487
 10
2.2247001397
 20
-17.8483463856
 10
2.2158571034
 20
-17.7877454313
 10
2.2026341446
 20
-17.7259841931
 10
2.185280838
 20
-17.6642040473
 10
2.1635913718
 20
-17.6020800205
 10
2.1377715578
 20
-17.5399370862
 10
2.1086884059
 20
-17.4798915413
 10
2.0763800687
 20
-17.4222662206
 10
2.0408083936
 20
-17.3667382894
 10
2.0027259327
 20
-17.3144555405
 10
1.961945699
 20
-17.2653249919
 10
1.9186546795
 20
-17.2194396257
 10
1.8741663869
 20
-17.1782261811
 10
1.828918659
 20
-17.142160238
 10
1.7824736582
 20
-17.1107662165
 10
1.7348313843
 20
-17.0840441166
  0
LINE
  5
419
100
AcDbEntity
  8
RACCORDO
100
AcDbLine
 62
7
  6
CONTINUOUS
 10
19.3627751786
 20
-9.3729510022
 11
11.7702102784
 21
-13.3880243904
  0
LINE
  5
41A
100
AcDbEntity
  8
DRAFT
100
AcDbLine
 62
7
  6
CONTINUOUS
 10
11.0175161944
 20
-13.9335355675
 11
4.9398246439
 21
-17.1475189745
  0
LINE
  5
41B
100
AcDbEntity
  8
DRAFT
100
AcDbLine
 62
7
  6
CONTINUOUS
 10
1.4166265928
 20
-17.0668120409
 11
1.1369577577
 21
-17.2144518873
  0
LINE
  5
41C
100
AcDbEntity
  8
RACCORDO
100
AcDbLine
 62
250
  6
CONTINUOUS
 10
19.7823183896
 20
-9.0688892117
 11
5.2450604575
 21
-16.7416870447
  0
LINE
  5
41D
100
AcDbEntity
  8
RACCORDO
100
AcDbLine
 62
250
  6
CONTINUOUS
 10
20.1212818734
 20
-8.2361251891
 11
5.6963065053
 21
-15.7048748238
  0
LINE
  5
41E
100
AcDbEntity
  8
ASSI
100
AcDbLine
 62
7
  6
CONTINUOUS
 10
5.6345888303
 20
-16.4380019811
 11
4.9398246439
 21
-16.793298326
  0
LINE
  5
41F
100
AcDbEntity
  8
ASSI
100
AcDbLine
 62
7
  6
CONTINUOUS
 10
10.5089537388
 20
-14.3827992248
 11
4.9398246439
 21
-17.2308032676
  0
LINE
  5
420
100
AcDbEntity
  8
DRAFT
100
AcDbLine
 62
7
  6
CONTINUOUS
 10
2.0426683961
 20
-18.3188956474
 11
1.7567552179
 21
-18.4540468077
  0
LINE
  5
421
100
AcDbEntity
  8
RACCORDO
100
AcDbLine
 62
250
  6
CONTINUOUS
 10
0.9439495717
 20
-16.2984643808
 11
1.3105673156
 21
-16.1359685482
  0
LINE
  5
422
100
AcDbEntity
  8
RACCORDO
100
AcDbLine
 62
7
  6
CONTINUOUS
 10
0.933037772
 20
-16.5589238507
 11
1.1451257753
 21
-16.4649201718
  0
LWPOLYLINE
  5
423
100
AcDbEntity
  8
RACCORDO
100
AcDbPolyline
 62
7
  6
CONTINUOUS
 90
7
 70
0
 10
20.2290145902
 20
18.3794732522
 10
20.2080426441
 20
18.3765835202
 10
20.1882772953
 20
18.3760211025
 10
20.1697185439
 20
18.3777859992
 10
20.1523663897
 20
18.3818782104
 10
20.1362208329
 20
18.3882977359
 10
20.1212818734
 20
18.3970445759
  0
LINE
  5
424
100
AcDbEntity
  8
ASSI
100
AcDbLine
 62
7
  6
CONTINUOUS
 10
4.2450604575
 20
15.327357971
 11
5.6345888303
 21
15.046807347
  0
LINE
  5
425
100
AcDbEntity
  8
ASSI
100
AcDbLine
 62
7
  6
CONTINUOUS
 10
4.2450604575
 20
15.327357971
 11
5.6963065053
 21
15.0159485095
  0
LWPOLYLINE
  5
426
100
AcDbEntity
  8
RACCORDO
100
AcDbPolyline
 62
250
  6
CONTINUOUS
 90
8
 70
0
 10
-16.0551846376
 20
23.0595807988
 10
-16.0931297974
 20
23.0751981037
 10
-16.1307608373
 20
23.0858552354
 10
-16.1676658156
 20
23.0914355511
 10
-16.2034407523
 20
23.0918779831
 10
-16.2376940171
 20
23.0871777059
 10
-16.2700506216
 20
23.0773862049
 10
-16.2858402834
 20
23.0703988635
  0
LWPOLYLINE
  5
427
100
AcDbEntity
  8
0
100
AcDbPolyline
 62
7
  6
CONTINUOUS
 90
6
 70
0
 10
-6.2782927045
 20
21.3647302636
 10
-6.2978661707
 20
21.3733227364
 10
-6.3186857665
 20
21.380596294
 10
-6.3407514918
 20
21.3865509363
 10
-6.3644518564
 20
21.3912391358
 10
-6.3743392727
 20
21.3925745344
  0
LINE
  5
428
100
AcDbEntity
  8
ASSI
100
AcDbLine
 62
7
  6
CONTINUOUS
 10
5.6345888303
 20
15.046807347
 11
5.6963065053
 21
15.0159485095
  0
LINE
  5
429
100
AcDbEntity
  8
RACCORDO
100
AcDbLine
 62
7
  6
CONTINUOUS
 10
-12.8624733766
 20
24.6366415864
 11
1.9870113362
 21
17.21189923
  0
LINE
  5
42A
100
AcDbEntity
  8
0
100
AcDbLine
 62
7
  6
CONTINUOUS
 10
-2.422644997
 20
19.4369064099
 11
-6.2782927045
 21
21.3647302636
  0
LINE
  5
42B
100
AcDbEntity
  8
0
100
AcDbLine
 62
7
  6
CONTINUOUS
 10
0.4623134593
 20
18.182395862
 11
-9.8619941084
 21
23.3445496459
  0
LINE
  5
42C
100
AcDbEntity
  8
ASSI
100
AcDbLine
 62
7
  6
CONTINUOUS
 10
-11.7969796013
 20
25.0250974203
 11
-11.6034153152
 21
24.9283152773
  0
LINE
  5
42D
100
AcDbEntity
  8
ASSI
100
AcDbLine
 62
7
  6
CONTINUOUS
 10
0.7895211038
 20
18.7318470678
 11
0.9830853899
 21
18.6350649247
  0
LINE
  5
42E
100
AcDbEntity
  8
ASSI
100
AcDbLine
 62
7
  6
CONTINUOUS
 10
2.8034358682
 20
17.8639167644
 11
2.6032596892
 21
17.9640048539
  0
LINE
  5
42F
100
AcDbEntity
  8
ASSI
100
AcDbLine
 62
7
  6
CONTINUOUS
 10
0.5835603668
 20
18.9738545151
 11
-9.9832410159
 21
24.2572552065
  0
LINE
  5
430
100
AcDbEntity
  8
ASSI
100
AcDbLine
 62
7
  6
CONTINUOUS
 10
-12.0029403383
 20
25.2671048677
 11
-12.2031165173
 21
25.3671929572
  0
LWPOLYLINE
  5
431
100
AcDbEntity
  8
ASSI
100
AcDbPolyline
 62
250
  6
CONTINUOUS
 90
16
 70
0
 10
-10.6027833149
 20
25.0761005101
 10
-10.608978667
 20
25.0794969808
 10
-10.6161121896
 20
25.0842079735
 10
-10.6229850497
 20
25.0896887239
 10
-10.6295525674
 20
25.0959601132
 10
-10.6357681704
 20
25.1030390048
 10
-10.641551841
 20
25.110890669
 10
-10.646864557
 20
25.1195120651
 10
-10.6516675586
 20
25.1288958583
 10
-10.6559001013
 20
25.1389715059
 10
-10.6595352512
 20
25.1497122483
 10
-10.662548198
 20
25.161088479
 10
-10.6649045549
 20
25.1729999148
 10
-10.6665918102
 20
25.1853786708
 10
-10.6676075146
 20
25.1981995007
 10
-10.6679467969
 20
25.2114140431
  0
LWPOLYLINE
  5
432
100
AcDbEntity
  8
ASSI
100
AcDbPolyline
 62
7
  6
CONTINUOUS
 90
9
 70
0
 10
-11.4034709543
 20
25.4764476439
 10
-11.4265037699
 20
25.4892983855
 10
-11.4565731227
 20
25.5097753395
 10
-11.485274172
 20
25.5331874952
 10
-11.5125588877
 20
25.5589885396
 10
-11.5380425321
 20
25.5868016034
 10
-11.561565163
 20
25.6163357059
 10
-11.5833297325
 20
25.6472279237
 10
-11.6034153152
 20
25.6791483022
  0
LWPOLYLINE
  5
433
100
AcDbEntity
  8
ASSI
100
AcDbPolyline
 62
7
  6
CONTINUOUS
 90
9
 70
0
 10
1.1830297508
 20
19.1831972913
 10
1.1599969353
 20
19.196048033
 10
1.1299275824
 20
19.2165249869
 10
1.1012265331
 20
19.2399371427
 10
1.0739418174
 20
19.2657381871
 10
1.0484581731
 20
19.2935512508
 10
1.0249355421
 20
19.3230853533
 10
1.0031709727
 20
19.3539775711
 10
0.9830853899
 20
19.3858979497
  0
LWPOLYLINE
  5
434
100
AcDbEntity
  8
ASSI
100
AcDbPolyline
 62
250
  6
CONTINUOUS
 90
7
 70
0
 10
-0.1459474145
 20
19.9504143519
 10
-0.1630194891
 20
19.9601335709
 10
-0.1774395366
 20
19.9708733411
 10
-0.1889662717
 20
19.9824539568
 10
-0.1974068219
 20
19.9946816425
 10
-0.2026199554
 20
20.007351796
 10
-0.2045260514
 20
20.0210988035
  0
LWPOLYLINE
  5
435
100
AcDbEntity
  8
ASSI
100
AcDbPolyline
 62
250
  6
CONTINUOUS
 90
7
 70
0
 10
-0.1459474145
 20
20.2676831522
 10
-0.163019477
 20
20.2774023633
 10
-0.1774395184
 20
20.2881421257
 10
-0.1889662526
 20
20.2997227342
 10
-0.1974068063
 20
20.3119504142
 10
-0.2026199463
 20
20.3246205636
 10
-0.2045260492
 20
20.3383636959
  0
LWPOLYLINE
  5
436
100
AcDbEntity
  8
ASSI
100
AcDbPolyline
 62
250
  6
CONTINUOUS
 90
9
 70
0
 10
-12.6676946108
 20
26.1085561484
 10
-12.6771849994
 20
26.1140187649
 10
-12.691234237
 20
26.1252479568
 10
-12.7034650437
 20
26.1392804754
 10
-12.7137088577
 20
26.1559284152
 10
-12.7218242745
 20
26.1749643838
 10
-12.7277007377
 20
26.1961295192
 10
-12.731258285
 20
26.2191390833
 10
-12.7324481106
 20
26.243682051
  0
LWPOLYLINE
  5
437
100
AcDbEntity
  8
ASSI
100
AcDbPolyline
 62
250
  6
CONTINUOUS
 90
13
 70
0
 10
-10.493648921
 20
25.831698798
 10
-10.4754969888
 20
25.8208340642
 10
-10.4576133066
 20
25.8072142759
 10
-10.4403037508
 20
25.7910723813
 10
-10.4238643779
 20
25.7726844657
 10
-10.4085763613
 20
25.7523650296
 10
-10.3947011819
 20
25.7304616096
 10
-10.3824761559
 20
25.7073488341
 10
-10.3721103759
 20
25.6834220161
 10
-10.3637811346
 20
25.6590903914
 10
-10.3576308924
 20
25.6347701198
 10
-10.353764841
 20
25.6108771666
 10
-10.3522491039
 20
25.5878201887
  0
LWPOLYLINE
  5
438
100
AcDbEntity
  8
ASSI
100
AcDbPolyline
 62
250
  6
CONTINUOUS
 90
3
 70
0
 10
-0.0927578948
 20
19.8221685202
 10
-0.0846747125
 20
19.8171387261
 10
-0.0812068083
 20
19.8153122471
  0
LWPOLYLINE
  5
439
100
AcDbEntity
  8
RACCORDO
100
AcDbPolyline
 62
250
  6
CONTINUOUS
 90
10
 70
0
 10
20.3738760531
 20
22.6845331472
 10
20.3711697002
 20
22.6496615579
 10
20.3618194877
 20
22.6111225602
 10
20.3458607354
 20
22.5731299225
 10
20.323412217
 20
22.535966406
 10
20.2946410058
 20
22.4999086008
 10
20.2597612324
 20
22.4652248682
 10
20.2190324903
 20
22.4321733425
 10
20.1727579041
 20
22.4010000105
 10
20.1212818734
 20
22.3719368805
  0
LWPOLYLINE
  5
43A
100
AcDbEntity
  8
RACCORDO
100
AcDbPolyline
 62
250
  6
CONTINUOUS
 90
3
 70
0
 10
19.7823183896
 20
-9.0688892117
 10
19.8340885409
 20
-9.027077135
 10
19.8821324102
 20
-8.9794002822
  0
LWPOLYLINE
  5
43B
100
AcDbEntity
  8
RACCORDO
100
AcDbPolyline
 62
7
  6
CONTINUOUS
 90
13
 70
0
 10
19.8494292242
 20
-9.0271632921
 10
19.9239839484
 20
-8.9684397136
 10
19.9947767973
 20
-8.9028253179
 10
20.0611522386
 20
-8.8305037501
 10
20.1224128689
 20
-8.7518294535
 10
20.1780411442
 20
-8.6670690013
 10
20.2276842559
 20
-8.57625835
 10
20.2708854259
 20
-8.4795611956
 10
20.3070647476
 20
-8.3775334208
 10
20.3357941019
 20
-8.2706099127
 10
20.356729936
 20
-8.1590834013
 10
20.3695347519
 20
-8.0432703323
 10
20.3738760531
 20
-7.9235289224
  0
LINE
  5
43C
100
AcDbEntity
  8
DRAFT
100
AcDbLine
 62
7
  6
CONTINUOUS
 10
11.7702102784
 20
-13.3880243904
 11
11.0175161944
 21
-13.9335355675
  0
LINE
  5
43D
100
AcDbEntity
  8
RACCORDO
100
AcDbLine
 62
250
  6
CONTINUOUS
 10
19.7823183896
 20
-9.0688892117
 11
19.3627751786
 21
-9.3729510022
  0
LINE
  5
43E
100
AcDbEntity
  8
RACCORDO
100
AcDbLine
 62
7
  6
CONTINUOUS
 10
19.8494292242
 20
-9.0271632921
 11
19.4330483847
 21
-9.3289331701
  0
LWPOLYLINE
  5
43F
100
AcDbEntity
  8
RACCORDO
100
AcDbPolyline
 62
250
  6
CONTINUOUS
 90
3
 70
0
 10
19.8494292242
 20
-9.0271632921
 10
19.8311407637
 20
-9.0398679222
 10
19.7823183896
 20
-9.0688892117
  0
LWPOLYLINE
  5
440
100
AcDbEntity
  8
ASSI
100
AcDbPolyline
 62
7
  6
CONTINUOUS
 90
4
 70
0
 10
1.0739607794
 20
-21.8515620205
 10
1.0245879312
 20
-21.8841050774
 10
1.0027443202
 20
-21.8991581438
 10
0.9830853899
 20
-21.9137061897
  0
LWPOLYLINE
  5
441
100
AcDbEntity
  8
ASSI
100
AcDbPolyline
 62
7
  6
CONTINUOUS
 90
6
 70
0
 10
1.2245668465
 20
-21.7585585704
 10
1.1922906952
 20
-21.7784871994
 10
1.160563548
 20
-21.7974892433
 10
1.1299275824
 20
-21.8157579127
 10
1.1010166749
 20
-21.8337923491
 10
1.0739607794
 20
-21.8515620205
  0
LWPOLYLINE
  5
442
100
AcDbEntity
  8
RACCORDO
100
AcDbPolyline
 62
7
  6
CONTINUOUS
 90
3
 70
0
 10
19.3627751786
 20
-9.3729510022
 10
19.419167024
 20
-9.3387589903
 10
19.4319013656
 20
-9.3297642326
  0
LINE
  5
443
100
AcDbEntity
  8
ASSI
100
AcDbLine
 62
250
  6
CONTINUOUS
 10
4.2450604575
 20
-20.0931469937
 11
4.9398246439
 21
-19.718305776
  0
LINE
  5
444
100
AcDbEntity
  8
ASSI
100
AcDbLine
 62
7
  6
CONTINUOUS
 10
4.1193203695
 20
-20.3614015083
 11
4.8151622151
 21
-19.9859788688
  0
LINE
  5
445
100
AcDbEntity
  8
ASSI
100
AcDbLine
 62
7
  6
CONTINUOUS
 10
9.3176954188
 20
-15.1053502723
 11
4.9398246439
 21
-17.3651276935
  0
LWPOLYLINE
  5
446
100
AcDbEntity
  8
RACCORDO
100
AcDbPolyline
 62
250
  6
CONTINUOUS
 90
10
 70
0
 10
-2.798583566
 20
-23.1302991596
 10
-2.7667723724
 20
-23.1148784064
 10
-2.7392469928
 20
-23.0952806724
 10
-2.7143176357
 20
-23.0709507871
 10
-2.6922571763
 20
-23.0421551237
 10
-2.6733070716
 20
-23.0092089253
 10
-2.6576747301
 20
-22.9724728587
 10
-2.6455312454
 20
-22.9323490754
 10
-2.6370095214
 20
-22.8892768122
 10
-2.6322028138
 20
-22.8437275727
  0
LINE
  5
447
100
AcDbEntity
  8
ASSI
100
AcDbLine
 62
7
  6
CONTINUOUS
 10
1.8762527405
 20
18.3955880306
 11
1.3335266778
 21
18.5107173482
  0
LINE
  5
448
100
AcDbEntity
  8
ASSI
100
AcDbLine
 62
7
  6
CONTINUOUS
 10
2.0364587209
 20
18.7644125067
 11
2.6768460093
 21
18.6285661626
  0
LINE
  5
449
100
AcDbEntity
  8
ASSI
100
AcDbLine
 62
250
  6
CONTINUOUS
 10
2.2168931729
 20
18.8881249409
 11
2.9537009772
 21
18.7318247639
  0
LWPOLYLINE
  5
44A
100
AcDbEntity
  8
ASSI
100
AcDbPolyline
 62
250
  6
CONTINUOUS
 90
7
 70
0
 10
0.0271377427
 20
20.5713054662
 10
0.0083840027
 20
20.5788935637
 10
-0.0100067602
 20
20.583410986
 10
-0.0277199964
 20
20.5847804708
 10
-0.0444527453
 20
20.582978597
 10
-0.0599188156
 20
20.5780361855
 10
-0.0652659549
 20
20.5754270615
  0
LWPOLYLINE
  5
44B
100
AcDbEntity
  8
ASSI
100
AcDbPolyline
 62
250
  6
CONTINUOUS
 90
13
 70
0
 10
-10.6679467969
 20
25.2114140431
 10
-10.6485083748
 20
25.2028780118
 10
-10.62702885
 20
25.1956679911
 10
-10.603867633
 20
25.189904624
 10
-10.5794122731
 20
25.1856843472
 10
-10.5540719742
 20
25.1830777772
 10
-10.5282707478
 20
25.1821285289
 10
-10.5024403176
 20
25.1828524858
 10
-10.4770128964
 20
25.1852375343
 10
-10.4524139532
 20
25.1892437659
 10
-10.4290550945
 20
25.1948041457
 10
-10.4073271768
 20
25.2018256336
 10
-10.3875937666
 20
25.2101907412
  0
LWPOLYLINE
  5
44C
100
AcDbEntity
  8
ASSI
100
AcDbPolyline
 62
250
  6
CONTINUOUS
 90
13
 70
0
 10
-10.6679467969
 20
25.5286828434
 10
-10.648508362
 20
25.5201468072
 10
-10.6270288246
 20
25.512936784
 10
-10.603867596
 20
25.5071734165
 10
-10.5794122267
 20
25.502953141
 10
-10.5540719214
 20
25.5003465737
 10
-10.5282706924
 20
25.4993973288
 10
-10.502440264
 20
25.5001212893
 10
-10.4770128484
 20
25.5025063406
 10
-10.4524139143
 20
25.5065125739
 10
-10.4290550673
 20
25.5120729536
 10
-10.407327163
 20
25.519094439
 10
-10.3875937666
 20
25.5274595415
  0
LWPOLYLINE
  5
44D
100
AcDbEntity
  8
ASSI
100
AcDbPolyline
 62
250
  6
CONTINUOUS
 90
13
 70
0
 10
-0.9912540442
 20
21.7010277514
 10
-0.9718156596
 20
21.6924917348
 10
-0.9503361725
 20
21.6852817217
 10
-0.9271749895
 20
21.6795183558
 10
-0.9027196582
 20
21.675298075
 10
-0.8773793793
 20
21.6726914971
 10
-0.8515781603
 20
21.6717422386
 10
-0.8257477223
 20
21.6724661852
 10
-0.8003202806
 20
21.6748512256
 10
-0.7757213087
 20
21.6788574531
 10
-0.7523624161
 20
21.6844178336
 10
-0.7306344613
 20
21.6914393282
 10
-0.7109010138
 20
21.6998044494
  0
LWPOLYLINE
  5
44E
100
AcDbEntity
  8
ASSI
100
AcDbPolyline
 62
250
  6
CONTINUOUS
 90
14
 70
0
 10
-3.1075992738
 20
23.1146269554
 10
-3.1163440985
 20
23.1186216565
 10
-3.1253166579
 20
23.1221869195
 10
-3.1344906811
 20
23.1252663429
 10
-3.1438578743
 20
23.1278076223
 10
-3.1533613515
 20
23.1297435828
 10
-3.1628985532
 20
23.1310084325
 10
-3.1724306969
 20
23.1315579495
 10
-3.1819154269
 20
23.1313491652
 10
-3.1912479957
 20
23.1303496753
 10
-3.2003873437
 20
23.1285359494
 10
-3.2092902445
 20
23.1258874485
 10
-3.2178587572
 20
23.1224117357
 10
-3.22295075
 20
23.1198616766
  0
LWPOLYLINE
  5
44F
100
AcDbEntity
  8
ASSI
100
AcDbPolyline
 62
7
  6
CONTINUOUS
 90
4
 70
0
 10
1.98376117
 20
18.7828289954
 10
1.9927494395
 20
18.7785855632
 10
2.0145032978
 20
18.7702660863
 10
2.0364019314
 20
18.7644317835
  0
LWPOLYLINE
  5
450
100
AcDbEntity
  8
ASSI
100
AcDbPolyline
 62
250
  6
CONTINUOUS
 90
28
 70
0
 10
-3.246552487
 20
22.871971648
 10
-3.2482882143
 20
22.872802377
 10
-3.2500585684
 20
22.8735237662
 10
-3.2518635492
 20
22.8741358156
 10
-3.2537146032
 20
22.8746497784
 10
-3.2556002841
 20
22.8750544014
 10
-3.257486252
 20
22.8753159242
 10
-3.2593733311
 20
22.8754296899
 10
-3.2612606974
 20
22.8754003553
 10
-3.2631115394
 20
22.8752081308
 10
-3.2649251627
 20
22.874847223
 10
-3.2667022617
 20
22.8743234252
 10
-3.2684081079
 20
22.8736343279
 10
-3.2700396771
 20
22.8727748994
 10
-3.2715999936
 20
22.8717501713
 10
-3.2730634013
 20
22.8705728283
 10
-3.2744261454
 20
22.8692409577
 10
-3.2756919807
 20
22.8677564722
 10
-3.276846516
 20
22.8661377944
 10
-3.2778878477
 20
22.8643842323
 10
-3.2788178794
 20
22.8624964779
 10
-3.2796279306
 20
22.8604950301
 10
-3.280316917
 20
22.8583788639
 10
-3.2808859228
 20
22.8561490043
 10
-3.2813295209
 20
22.8538290257
 10
-3.2816459022
 20
22.8514267861
 10
-3.2818368756
 20
22.8489344275
 10
-3.2819024413
 20
22.8463519499
  0
LWPOLYLINE
  5
451
100
AcDbEntity
  8
ASSI
100
AcDbPolyline
 62
7
  6
CONTINUOUS
 90
4
 70
0
 10
-10.6027854472
 20
25.0761020556
 10
-10.5966936436
 20
25.0731711355
 10
-10.5735901278
 20
25.0640383996
 10
-10.5501245043
 20
25.0576807304
  0
LINE
  5
452
100
AcDbEntity
  8
ASSI
100
AcDbLine
 62
7
  6
CONTINUOUS
 10
1.9837599105
 20
18.7828288875
 11
1.1826019523
 21
19.1834078665
  0
LINE
  5
453
100
AcDbEntity
  8
ASSI
100
AcDbLine
 62
7
  6
CONTINUOUS
 10
0.7147283658
 20
19.4173446598
 11
-0.0812016332
 21
19.8153096593
  0
LINE
  5
454
100
AcDbEntity
  8
ASSI
100
AcDbLine
 62
7
  6
CONTINUOUS
 10
-10.6027464298
 20
25.0760820576
 11
-11.4038987528
 21
25.4766582191
  0
LINE
  5
455
100
AcDbEntity
  8
ASSI
100
AcDbLine
 62
7
  6
CONTINUOUS
 10
-11.8717723394
 20
25.7105950124
 11
-12.6677075291
 21
26.1085626073
  0
LINE
  5
456
100
AcDbEntity
  8
ASSI
100
AcDbLine
 62
250
  6
CONTINUOUS
 10
-11.7969796013
 20
25.7759304453
 11
-12.7324481196
 21
26.243682055
  0
LINE
  5
457
100
AcDbEntity
  8
ASSI
100
AcDbLine
 62
250
  6
CONTINUOUS
 10
0.7895211038
 20
19.4826800927
 11
-0.1459474145
 21
19.9504143519
  0
LINE
  5
458
100
AcDbEntity
  8
ASSI
100
AcDbLine
 62
250
  6
CONTINUOUS
 10
-10.6679467969
 20
25.2114140431
 11
-11.6034153152
 21
25.6791483022
  0
LINE
  5
459
100
AcDbEntity
  8
ASSI
100
AcDbLine
 62
250
  6
CONTINUOUS
 10
1.9185539082
 20
18.9181810345
 11
0.9830853899
 21
19.3858979497
  0
LINE
  5
45A
100
AcDbEntity
  8
ASSI
100
AcDbLine
 62
7
  6
CONTINUOUS
 10
-0.9912540442
 20
20.51375497
 11
-3.2819024413
 21
21.6590791686
  0
LINE
  5
45B
100
AcDbEntity
  8
ASSI
100
AcDbLine
 62
7
  6
CONTINUOUS
 10
-4.7035646454
 20
22.3699102707
 11
-6.9942130425
 21
23.5152344692
  0
LINE
  5
45C
100
AcDbEntity
  8
ASSI
100
AcDbLine
 62
250
  6
CONTINUOUS
 10
1.9185539082
 20
19.2354324909
 11
-0.1459474145
 21
20.2676831522
  0
LINE
  5
45D
100
AcDbEntity
  8
ASSI
100
AcDbLine
 62
250
  6
CONTINUOUS
 10
-10.6679467969
 20
25.5286828434
 11
-12.7324481196
 21
26.5609335048
  0
LINE
  5
45E
100
AcDbEntity
  8
ASSI
100
AcDbLine
 62
7
  6
CONTINUOUS
 10
-8.7303489773
 20
24.7595490613
 11
-7.0527916863
 21
23.9207704158
  0
LINE
  5
45F
100
AcDbEntity
  8
ASSI
100
AcDbLine
 62
7
  6
CONTINUOUS
 10
-4.2048655777
 20
22.4968073615
 11
-3.340481085
 21
22.0646151152
  0
LINE
  5
460
100
AcDbEntity
  8
ASSI
100
AcDbLine
 62
7
  6
CONTINUOUS
 10
-0.4925549765
 20
20.6406520609
 11
-0.1655340053
 21
20.4771415753
  0
LINE
  5
461
100
AcDbEntity
  8
ASSI
100
AcDbLine
 62
7
  6
CONTINUOUS
 10
3.8918704041
 20
18.4484393706
 11
3.8561517278
 21
18.4662987087
  0
LINE
  5
462
100
AcDbEntity
  8
ASSI
100
AcDbLine
 62
250
  6
CONTINUOUS
 10
2.0928517841
 20
19.5384484455
 11
0.0271377427
 21
20.5713054662
  0
LINE
  5
463
100
AcDbEntity
  8
ASSI
100
AcDbLine
 62
250
  6
CONTINUOUS
 10
-10.493648921
 20
25.831698798
 11
-12.5593629624
 21
26.8645558187
  0
LINE
  5
464
100
AcDbEntity
  8
ASSI
100
AcDbLine
 62
7
  6
CONTINUOUS
 10
-8.7303489773
 20
25.4515393128
 11
-8.0622132621
 21
25.1174714553
  0
LINE
  5
465
100
AcDbEntity
  8
ASSI
100
AcDbLine
 62
7
  6
CONTINUOUS
 10
3.8561517278
 20
19.1582889603
 11
4.5863251012
 21
18.7932022736
  0
LINE
  5
466
100
AcDbEntity
  8
ASSI
100
AcDbLine
 62
7
  6
CONTINUOUS
 10
-3.340481085
 20
22.7573083897
 11
-3.5228053474
 21
22.8484705209
  0
LINE
  5
467
100
AcDbEntity
  8
ASSI
100
AcDbLine
 62
7
  6
CONTINUOUS
 10
-3.340481085
 20
22.8411332823
 11
-3.5246047729
 21
22.9331951262
  0
LINE
  5
468
100
AcDbEntity
  8
ASSI
100
AcDbLine
 62
250
  6
CONTINUOUS
 10
-6.9588630882
 20
24.7281269486
 11
-4.7389145997
 21
23.6181527043
  0
LINE
  5
469
100
AcDbEntity
  8
ASSI
100
AcDbLine
 62
250
  6
CONTINUOUS
 10
-1.0266039984
 20
21.7619974037
 11
-3.246552487
 21
22.871971648
  0
LINE
  5
46A
100
AcDbEntity
  8
ASSI
100
AcDbLine
 62
250
  6
CONTINUOUS
 10
-6.819909875
 20
24.970782256
 11
-4.5999613864
 21
23.8608080117
  0
LINE
  5
46B
100
AcDbEntity
  8
ASSI
100
AcDbLine
 62
250
  6
CONTINUOUS
 10
-0.8876507852
 20
22.0046527111
 11
-3.1075992738
 21
23.1146269554
  0
LINE
  5
46C
100
AcDbEntity
  8
ASSI
100
AcDbLine
 62
7
  6
CONTINUOUS
 10
-6.6090555577
 20
25.0845429975
 11
-4.381615349
 21
23.9708228932
  0
LINE
  5
46D
100
AcDbEntity
  8
ASSI
100
AcDbLine
 62
7
  6
CONTINUOUS
 10
-2.8967449564
 20
23.2283876969
 11
-0.6693047478
 21
22.1146675926
  0
LINE
  5
46E
100
AcDbEntity
  8
ASSI
100
AcDbLine
 62
7
  6
CONTINUOUS
 10
-10.9931122162
 20
27.7095840287
 11
-8.8717487944
 21
26.6489023178
  0
LINE
  5
46F
100
AcDbEntity
  8
ASSI
100
AcDbLine
 62
7
  6
CONTINUOUS
 10
1.5933884889
 20
21.4163336762
 11
3.7147519108
 21
20.3556519652
  0
LINE
  5
470
100
AcDbEntity
  8
ASSI
100
AcDbLine
 62
7
  6
CONTINUOUS
 10
-0.2535130874
 20
22.5573824675
 11
-2.2203171242
 21
23.5407844859
  0
LINE
  5
471
100
AcDbEntity
  8
ASSI
100
AcDbLine
 62
7
  6
CONTINUOUS
 10
-3.7283965845
 20
24.294824216
 11
-5.6952006213
 21
25.2782262344
  0
LWPOLYLINE
  5
472
100
AcDbEntity
  8
ASSI
100
AcDbPolyline
 62
250
  6
CONTINUOUS
 90
28
 70
0
 10
-4.7389145997
 20
23.6181527043
 10
-4.7371607236
 20
23.6172368326
 10
-4.7353749796
 20
23.6161772939
 10
-4.7335573678
 20
23.614974088
 10
-4.731696454
 20
23.6136265408
 10
-4.7298036723
 20
23.6121353265
 10
-4.7279133252
 20
23.6105024682
 10
-4.726024728
 20
23.6087225239
 10
-4.7241385654
 20
23.6068009356
 10
-4.7222911938
 20
23.6047560521
 10
-4.7204836538
 20
23.6025832761
 10
-4.7187149049
 20
23.600287205
 10
-4.7170181815
 20
23.5978999796
 10
-4.7153968213
 20
23.5954207775
 10
-4.7138474865
 20
23.5928504211
 10
-4.7123933991
 20
23.5902235185
 10
-4.7110375272
 20
23.5875413716
 10
-4.7097769026
 20
23.5848026786
 10
-4.7086258428
 20
23.5820381421
 10
-4.7075857817
 20
23.5792478417
 10
-4.7066552853
 20
23.5764316978
 10
-4.7058443686
 20
23.573620175
 10
-4.7051543485
 20
23.5708132787
 10
-4.7045839079
 20
23.5680110034
 10
-4.704139111
 20
23.5652437983
 10
-4.7038219789
 20
23.5625218128
 10
-4.7036304904
 20
23.5598348973
 10
-4.7035646454
 20
23.557183052
  0
LWPOLYLINE
  5
473
100
AcDbEntity
  8
ASSI
100
AcDbPolyline
 62
250
  6
CONTINUOUS
 90
28
 70
0
 10
-4.5999613864
 20
23.8608080117
 10
-4.591362225
 20
23.8561240957
 10
-4.5825428927
 20
23.8507775183
 10
-4.573528035
 20
23.8447392839
 10
-4.5643241144
 20
23.8379665155
 10
-4.5549857006
 20
23.8304500482
 10
-4.5456130167
 20
23.8222280352
 10
-4.5362426033
 20
23.8132963523
 10
-4.526914204
 20
23.8036556034
 10
-4.5177302123
 20
23.7933797674
 10
-4.50873054
 20
23.7824891581
 10
-4.4999541925
 20
23.7710059372
 10
-4.4914933197
 20
23.7590319555
 10
-4.4833896791
 20
23.7466170473
 10
-4.4756685789
 20
23.7337905965
 10
-4.4683861937
 20
23.7206393683
 10
-4.4615758298
 20
23.7072236841
 10
-4.4552554548
 20
23.6935793841
 10
-4.4494509253
 20
23.679761797
 10
-4.4441839824
 20
23.6658229719
 10
-4.4394727758
 20
23.6518114635
 10
-4.4353341974
 20
23.6377782582
 10
-4.431783154
 20
23.6237738052
 10
-4.4288325503
 20
23.6098491135
 10
-4.4264929348
 20
23.5960557953
 10
-4.4247725594
 20
23.5824440771
 10
-4.4236775153
 20
23.569062649
 10
-4.4232116151
 20
23.5559597501
  0
LWPOLYLINE
  5
474
100
AcDbEntity
  8
ASSI
100
AcDbPolyline
 62
250
  6
CONTINUOUS
 90
13
 70
0
 10
-8.3476443278
 20
26.9088619969
 10
-8.3288905922
 20
26.8982981379
 10
-8.3104998327
 20
26.88493186
 10
-8.292786599
 20
26.8689917776
 10
-8.2760538514
 20
26.8507505255
 10
-8.2605877814
 20
26.8305200981
 10
-8.2466529158
 20
26.8086465129
 10
-8.234487591
 20
26.7855038908
 10
-8.2242998759
 20
26.7614880549
 10
-8.2162640151
 20
26.737009762
 10
-8.2105174496
 20
26.7124876796
 10
-8.2071584651
 20
26.6883412243
 10
-8.2062445107
 20
26.6649833876
  0
LWPOLYLINE
  5
475
100
AcDbEntity
  8
ASSI
100
AcDbPolyline
 62
250
  6
CONTINUOUS
 90
7
 70
0
 10
-3.2819024413
 20
22.8463519499
 10
-3.2989745038
 20
22.856071161
 10
-3.3133945452
 20
22.8668109234
 10
-3.3249212794
 20
22.8783915319
 10
-3.3333618331
 20
22.8906192118
 10
-3.3385749731
 20
22.9032893613
 10
-3.340481085
 20
22.917062628
  0
LWPOLYLINE
  5
476
100
AcDbEntity
  8
ASSI
100
AcDbPolyline
 62
7
  6
CONTINUOUS
 90
13
 70
0
 10
3.7147519108
 20
20.3556519652
 10
3.7332031791
 20
20.3449394763
 10
3.7513455762
 20
20.3314511099
 10
3.7688645487
 20
20.3154152404
 10
3.7854557474
 20
20.2971034009
 10
3.800834192
 20
20.2768282911
 10
3.8147392924
 20
20.2549386065
 10
3.8269356244
 20
20.2318099794
 10
3.8372121403
 20
20.2078368277
 10
3.8453899715
 20
20.1834284099
 10
3.8513303289
 20
20.1590029204
 10
3.8549366659
 20
20.1349802693
 10
3.8561517278
 20
20.1117733559
  0
LWPOLYLINE
  5
477
100
AcDbEntity
  8
RACCORDO
100
AcDbPolyline
 62
250
  6
CONTINUOUS
 90
13
 70
0
 10
-0.9978167142
 20
24.1232179473
 10
-0.9801057786
 20
24.1120960713
 10
-0.9620376651
 20
24.0986915833
 10
-0.9439159039
 20
24.0832297152
 10
-0.9260449185
 20
24.0659702558
 10
-0.9087248989
 20
24.0472031716
 10
-0.8922467604
 20
24.0272437309
 10
-0.8768872903
 20
24.0064272468
 10
-0.8629044533
 20
23.985103388
 10
-0.8505330607
 20
23.9636302863
 10
-0.8399808868
 20
23.9423686103
 10
-0.8314251661
 20
23.921675511
 10
-0.8250095826
 20
23.9018985607
  0
LINE
  5
478
100
AcDbEntity
  8
0
100
AcDbLine
 62
250
  6
CONTINUOUS
 10
10.425036263
 20
25.3836000829
 11
10.8396137747
 21
24.3080215427
  0
LINE
  5
479
100
AcDbEntity
  8
0
100
AcDbLine
 62
7
  6
CONTINUOUS
 10
11.6105313956
 20
22.6909987541
 11
11.4292653543
 21
23.2269042253
  0
LWPOLYLINE
  5
47A
100
AcDbEntity
  8
RACCORDO
100
AcDbPolyline
 62
7
  6
CONTINUOUS
 90
10
 70
0
 10
20.3738760531
 20
22.6845331472
 10
20.3700711571
 20
22.7984708435
 10
20.358925068
 20
22.9117350405
 10
20.3407867429
 20
23.0241223139
 10
20.3158316417
 20
23.1358590907
 10
20.2842846423
 20
23.2464912582
 10
20.2466633761
 20
23.3547976473
 10
20.2033621406
 20
23.4602816183
 10
20.154409359
 20
23.5632084989
 10
20.0998773135
 20
23.6634529086
  0
LINE
  5
47B
100
AcDbEntity
  8
RACCORDO
100
AcDbLine
 62
7
  6
CONTINUOUS
 10
20.3738756893
 20
16.4406370513
 11
20.3738760149
 21
16.4401779837
  0
LINE
  5
47C
100
AcDbEntity
  8
RACCORDO
100
AcDbLine
 62
250
  6
CONTINUOUS
 10
20.1212818734
 20
22.3719368805
 11
20.1212818734
 21
18.3970445759
  0
LINE
  5
47D
100
AcDbEntity
  8
RACCORDO
100
AcDbLine
 62
250
  6
CONTINUOUS
 10
20.1212818734
 20
16.696581887
 11
20.1212818734
 21
-8.2361251891
  0
LINE
  5
47E
100
AcDbEntity
  8
RACCORDO
100
AcDbLine
 62
7
  6
CONTINUOUS
 10
20.3738760531
 20
22.6845331472
 11
20.3738760531
 21
19.2788477005
  0
LINE
  5
47F
100
AcDbEntity
  8
RACCORDO
100
AcDbLine
 62
7
  6
CONTINUOUS
 10
20.3738760531
 20
16.439887031
 11
20.3738760531
 21
-7.9235289224
  0
LINE
  5
480
100
AcDbEntity
  8
RACCORDO
100
AcDbLine
 62
7
  6
CONTINUOUS
 10
20.373875903
 20
19.2778291978
 11
20.3738758152
 21
19.2775816177
  0
LWPOLYLINE
  5
481
100
AcDbEntity
  8
RACCORDO
100
AcDbPolyline
 62
250
  6
CONTINUOUS
 90
29
 70
0
 10
20.3738758152
 20
19.2775816177
 10
20.3735474444
 20
19.2341273104
 10
20.3723411284
 20
19.182401361
 10
20.3703101698
 20
19.1320842504
 10
20.3675038157
 20
19.0831847369
 10
20.363974612
 20
19.0357191825
 10
20.3597736722
 20
18.9896888326
 10
20.3549244112
 20
18.9450789639
 10
20.3494683548
 20
18.9019047533
 10
20.3434419618
 20
18.86016327
 10
20.3368357062
 20
18.8198137842
 10
20.3296726913
 20
18.7808289171
 10
20.321978738
 20
18.7432471954
 10
20.3137234648
 20
18.7071295369
 10
20.3049148503
 20
18.6724300522
 10
20.2955708942
 20
18.6392073303
 10
20.285656996
 20
18.6076823042
 10
20.2751757653
 20
18.5778240087
 10
20.2641366279
 20
18.5496785613
 10
20.2525014997
 20
18.5235858027
 10
20.2402581884
 20
18.4995287053
 10
20.2274205433
 20
18.4775430658
 10
20.2139832489
 20
18.4580500169
 10
20.1999337896
 20
18.4411129629
 10
20.1852882357
 20
18.4266884241
 10
20.1700880996
 20
18.4150361459
 10
20.154354256
 20
18.4062476134
 10
20.138082603
 20
18.400247678
 10
20.1212818734
 20
18.3970445759
  0
LWPOLYLINE
  5
482
100
AcDbEntity
  8
RACCORDO
100
AcDbPolyline
 62
250
  6
CONTINUOUS
 90
11
 70
0
 10
20.3738760531
 20
-7.9235289224
 10
20.3730734135
 20
-7.9425296276
 10
20.3670908602
 20
-7.9786816842
 10
20.355303871
 20
-8.014475338
 10
20.337789042
 20
-8.0496779887
 10
20.314660191
 20
-8.0840608769
 10
20.2860676177
 20
-8.1174005698
 10
20.2521971271
 20
-8.1494804138
 10
20.2132688221
 20
-8.1800919422
 10
20.1695356729
 20
-8.2090362302
 10
20.1212818735
 20
-8.2361251874
  0
LWPOLYLINE
  5
483
100
AcDbEntity
  8
RACCORDO
100
AcDbPolyline
 62
250
  6
CONTINUOUS
 90
11
 70
0
 10
19.8821324102
 20
-8.9794002822
 10
19.9262443218
 20
-8.9260629096
 10
19.966235417
 20
-8.8672935493
 10
20.0019345455
 20
-8.8033439113
 10
20.0331889679
 20
-8.7344877704
 10
20.05986484
 20
-8.6610201888
 10
20.0818480538
 20
-8.5832556545
 10
20.0990446513
 20
-8.501526472
 10
20.1113809458
 20
-8.4161822978
 10
20.1188039754
 20
-8.3275887622
 10
20.1212818734
 20
-8.2361251891
  0
LWPOLYLINE
  5
484
100
AcDbEntity
  8
ASSI
100
AcDbPolyline
 62
7
  6
CONTINUOUS
 90
10
 70
0
 10
4.342922717
 20
-21.7942375188
 10
4.365162356
 20
-21.7788761382
 10
4.3860083159
 20
-21.7608723835
 10
4.4051468521
 20
-21.7404290324
 10
4.4218694211
 20
-21.7184199047
 10
4.4364779248
 20
-21.694580316
 10
4.448905555
 20
-21.6688216342
 10
4.458513097
 20
-21.6424220456
 10
4.4653048037
 20
-21.6157028057
 10
4.4693941752
 20
-21.5879239803
  0
LWPOLYLINE
  5
485
100
AcDbEntity
  8
ASSI
100
AcDbPolyline
 62
7
  6
CONTINUOUS
 90
5
 70
0
 10
3.8062553533
 20
-22.0842001643
 10
3.8147392924
 20
-22.0788668432
 10
3.8269333047
 20
-22.0679333881
 10
3.8372078393
 20
-22.0542357617
 10
3.8453899715
 20
-22.0380073256
  0
LWPOLYLINE
  5
486
100
AcDbEntity
  8
ASSI
100
AcDbPolyline
 62
250
  6
CONTINUOUS
 90
7
 70
0
 10
4.4143881384
 20
-21.293437043
 10
4.4311183833
 20
-21.2835702971
 10
4.4451613732
 20
-21.2727063018
 10
4.4562821336
 20
-21.2610268424
 10
4.4642945871
 20
-21.2487273486
 10
4.4690646673
 20
-21.2360136248
 10
4.4705201783
 20
-21.2239711363
  0
LWPOLYLINE
  5
487
100
AcDbEntity
  8
ASSI
100
AcDbPolyline
 62
250
  6
CONTINUOUS
 90
7
 70
0
 10
4.4143881384
 20
-21.6333806379
 10
4.4311183535
 20
-21.6235139328
 10
4.4451613292
 20
-21.612649974
 10
4.4562820889
 20
-21.6009705446
 10
4.4642945521
 20
-21.588671073
 10
4.469064649
 20
-21.5759573624
 10
4.4705201783
 20
-21.5639148009
  0
LWPOLYLINE
  5
488
100
AcDbEntity
  8
ASSI
100
AcDbPolyline
 62
250
  6
CONTINUOUS
 90
8
 70
0
 10
2.179175673
 20
-22.8357987861
 10
2.1917995828
 20
-22.8283941679
 10
2.204024599
 20
-22.8174467164
 10
2.2143903663
 20
-22.8037076216
 10
2.2227195944
 20
-22.7874118732
 10
2.2288698249
 20
-22.7688381887
 10
2.2327358677
 20
-22.7483042472
 10
2.2342516012
 20
-22.7261612544
  0
LINE
  5
489
100
AcDbEntity
  8
ASSI
100
AcDbLine
 62
7
  6
CONTINUOUS
 10
4.3312533183
 20
-21.8009514048
 11
4.342922717
 21
-21.7942375188
  0
LWPOLYLINE
  5
48A
100
AcDbEntity
  8
ASSI
100
AcDbPolyline
 62
250
  6
CONTINUOUS
 90
28
 70
0
 10
4.3802561944
 20
-21.6943476444
 10
4.3820526132
 20
-21.6933315642
 10
4.3838666791
 20
-21.692174
 10
4.385698392
 20
-21.6908749519
 10
4.3875586396
 20
-21.6894315923
 10
4.3894365342
 20
-21.6878467489
 10
4.3912994132
 20
-21.6861289039
 10
4.3931473623
 20
-21.6842731187
 10
4.3949802957
 20
-21.6822843319
 10
4.3967652935
 20
-21.6801858418
 10
4.3985005044
 20
-21.6779745722
 10
4.4001877797
 20
-21.6756535993
 10
4.4017997539
 20
-21.6732554494
 10
4.403333116
 20
-21.6707806728
 10
4.404791177
 20
-21.6682287194
 10
4.4061565038
 20
-21.6656304645
 10
4.4074268862
 20
-21.6629873181
 10
4.4086045345
 20
-21.6602978703
 10
4.4096786467
 20
-21.6575887669
 10
4.41064834
 20
-21.6548597984
 10
4.4115144973
 20
-21.6521111743
 10
4.4122689651
 20
-21.6493701692
 10
4.4129107237
 20
-21.6466369133
 10
4.4134407929
 20
-21.6439112765
 10
4.4138540784
 20
-21.6412201421
 10
4.4141488821
 20
-21.6385724715
 10
4.4143269021
 20
-21.6359593034
 10
4.4143881384
 20
-21.6333806379
  0
LINE
  5
48B
100
AcDbEntity
  8
ASSI
100
AcDbLine
 62
250
  6
CONTINUOUS
 10
3.8561517278
 20
-21.977114028
 11
4.3802561944
 21
-21.6943476444
  0
LINE
  5
48C
100
AcDbEntity
  8
ASSI
100
AcDbLine
 62
7
  6
CONTINUOUS
 10
3.8062987876
 20
-22.0841767739
 11
4.3313529985
 21
-21.8008979815
  0
LINE
  5
48D
100
AcDbEntity
  8
ASSI
100
AcDbLine
 62
7
  6
CONTINUOUS
 10
3.8020889166
 20
-22.0862836687
 11
3.8062553533
 21
-22.0842001643
  0
LINE
  5
48E
100
AcDbEntity
  8
ASSI
100
AcDbLine
 62
7
  6
CONTINUOUS
 10
4.1192852675
 20
-20.3614204199
 11
4.1015444507
 21
-20.369839142
  0
LINE
  5
48F
100
AcDbEntity
  8
ASSI
100
AcDbLine
 62
250
  6
CONTINUOUS
 10
3.8561517278
 20
-21.977114028
 11
2.2342516012
 21
-22.7261612544
  0
LINE
  5
490
100
AcDbEntity
  8
ASSI
100
AcDbLine
 62
7
  6
CONTINUOUS
 10
2.1789433743
 20
-22.8359055859
 11
3.8020331109
 21
-22.0863094416
  0
LWPOLYLINE
  5
491
100
AcDbEntity
  8
ASSI
100
AcDbPolyline
 62
250
  6
CONTINUOUS
 90
28
 70
0
 10
2.2342516012
 20
-22.7261612544
 10
2.2324874098
 20
-22.7269377832
 10
2.2306930415
 20
-22.727603427
 10
2.2288684964
 20
-22.7281581857
 10
2.227002463
 20
-22.7286122185
 10
2.2251062528
 20
-22.7289553662
 10
2.2232137996
 20
-22.7291571512
 10
2.2213244836
 20
-22.7292129864
 10
2.2194389245
 20
-22.7291274589
 10
2.2175929155
 20
-22.7288838523
 10
2.2157874971
 20
-22.7284767773
 10
2.2140216288
 20
-22.727911623
 10
2.2123279821
 20
-22.7271878413
 10
2.2107098093
 20
-22.7263014899
 10
2.2091638581
 20
-22.725256511
 10
2.2077130439
 20
-22.7240641823
 10
2.2063602591
 20
-22.7227229061
 10
2.2051026113
 20
-22.7212342802
 10
2.2039543389
 20
-22.7196143753
 10
2.202916872
 20
-22.7178618636
 10
2.2019887805
 20
-22.7159780729
 10
2.2011800121
 20
-22.7139830576
 10
2.2004918882
 20
-22.7118755323
 10
2.1999230875
 20
-22.7096567822
 10
2.1994795938
 20
-22.707350718
 10
2.1991634017
 20
-22.7049653099
 10
2.1989725166
 20
-22.7024925876
 10
2.1989069385
 20
-22.6999325512
  0
LINE
  5
492
100
AcDbEntity
  8
ASSI
100
AcDbLine
 62
250
  6
CONTINUOUS
 10
3.1566259216
 20
-20.5414440416
 11
4.2450604575
 21
-20.0930808401
  0
LINE
  5
493
100
AcDbEntity
  8
ASSI
100
AcDbLine
 62
7
  6
CONTINUOUS
 10
3.0142476995
 20
-20.8177335025
 11
4.1014967055
 21
-20.369858661
  0
LINE
  5
494
100
AcDbEntity
  8
RACCORDO
100
AcDbLine
 62
250
  6
CONTINUOUS
 10
0.7232265444
 20
-21.5670180449
 11
-2.6322028138
 21
-22.8437275727
  0
LINE
  5
495
100
AcDbEntity
  8
RACCORDO
100
AcDbLine
 62
7
  6
CONTINUOUS
 10
-2.7987776234
 20
-23.1303728817
 11
0.5605721147
 21
-21.8521718009
  0
LWPOLYLINE
  5
496
100
AcDbEntity
  8
RACCORDO
100
AcDbPolyline
 62
250
  6
CONTINUOUS
 90
22
 70
0
 10
-2.6322028138
 20
-22.8437275727
 10
-2.6686063187
 20
-22.8559911634
 10
-2.7043128803
 20
-22.8649469911
 10
-2.7393224986
 20
-22.8705950558
 10
-2.7738242445
 20
-22.8729366817
 10
-2.8076290472
 20
-22.8719705445
 10
-2.8401696933
 20
-22.8676926723
 10
-2.8714101912
 20
-22.8600456129
 10
-2.9013865327
 20
-22.8490868184
 10
-2.9296394794
 20
-22.834984673
 10
-2.9561423886
 20
-22.8176890589
 10
-2.9809219032
 20
-22.797250094
 10
-3.0035987126
 20
-22.7739865159
 10
-3.0241383014
 20
-22.7478559365
 10
-3.0425751851
 20
-22.7189007438
 10
-3.0586336001
 20
-22.6875668405
 10
-3.0722774458
 20
-22.6537987188
 10
-3.0835428229
 20
-22.6176518865
 10
-3.0922622691
 20
-22.5797387685
 10
-3.0983799639
 20
-22.5402635065
 10
-3.1019517279
 20
-22.499021959
 10
-3.1029775612
 20
-22.4560141258
  0
LWPOLYLINE
  5
497
100
AcDbEntity
  8
ASSI
100
AcDbPolyline
 62
7
  6
CONTINUOUS
 90
3
 70
0
 10
6.5438849095
 20
24.8499191104
 10
6.4863609194
 20
24.8353099023
 10
6.4285327445
 20
24.8152392761
  0
LWPOLYLINE
  5
498
100
AcDbEntity
  8
ASSI
100
AcDbPolyline
 62
7
  6
CONTINUOUS
 90
4
 70
0
 10
1.5392758509
 20
21.4302095893
 10
1.5567862715
 20
21.4287307623
 10
1.5749257754
 20
21.4240781781
 10
1.5933884889
 20
21.4163336762
  0
LINE
  5
499
100
AcDbEntity
  8
ASSI
100
AcDbLine
 62
7
  6
CONTINUOUS
 10
-10.7102479646
 20
24.6888383832
 11
-11.2529740273
 21
24.8039677007
  0
LINE
  5
49A
100
AcDbEntity
  8
ASSI
100
AcDbLine
 62
250
  6
CONTINUOUS
 10
-9.632799728
 20
25.0250751165
 11
-10.3696075322
 21
25.1813752935
  0
LINE
  5
49B
100
AcDbEntity
  8
ASSI
100
AcDbLine
 62
7
  6
CONTINUOUS
 10
-10.5501245701
 20
25.057680409
 11
-9.9092256721
 21
24.9217255057
  0
LWPOLYLINE
  5
49C
100
AcDbEntity
  8
ASSI
100
AcDbPolyline
 62
250
  6
CONTINUOUS
 90
19
 70
0
 10
-10.3696075322
 20
25.1813752935
 10
-10.3711485693
 20
25.1817474851
 10
-10.3726644634
 20
25.1822646843
 10
-10.3741552146
 20
25.1829268912
 10
-10.3756330529
 20
25.1837302322
 10
-10.3770857483
 20
25.1846785808
 10
-10.3784766104
 20
25.1857835575
 10
-10.3798044826
 20
25.1870505152
 10
-10.3810705216
 20
25.1884741009
 10
-10.3822415076
 20
25.1900498757
 10
-10.3833148172
 20
25.1917833116
 10
-10.3842930738
 20
25.1936689365
 10
-10.3851509278
 20
25.195685896
 10
-10.3858845637
 20
25.1978388396
 10
-10.386497797
 20
25.2001231178
 10
-10.3869767243
 20
25.2025039274
 10
-10.3873167111
 20
25.2049696673
 10
-10.3875223919
 20
25.2075319385
 10
-10.3875937666
 20
25.2101907412
  0
LWPOLYLINE
  5
49D
100
AcDbEntity
  8
ASSI
100
AcDbPolyline
 62
7
  6
CONTINUOUS
 90
10
 70
0
 10
2.2335542518
 20
21.6777914014
 10
2.2125119552
 20
21.6855677721
 10
2.1906370328
 20
21.6911905414
 10
2.1681565731
 20
21.6945652675
 10
2.1452255607
 20
21.6956234167
 10
2.1220859239
 20
21.6943060141
 10
2.0990591434
 20
21.6906008601
 10
2.0763652069
 20
21.6845277195
 10
2.0542074173
 20
21.6761269094
 10
2.0500310217
 20
21.6742517288
  0
LWPOLYLINE
  5
49E
100
AcDbEntity
  8
RACCORDO
100
AcDbPolyline
 62
250
  6
CONTINUOUS
 90
8
 70
0
 10
0.4667266003
 20
23.39094629
 10
0.4479019273
 20
23.3980923506
 10
0.4300482669
 20
23.4026490023
 10
0.4134655229
 20
23.4045397031
 10
0.39843225
 20
23.4037326932
 10
0.3852009754
 20
23.4002415287
 10
0.3739939564
 20
23.3941248536
 10
0.3699262293
 20
23.3907860502
  0
LWPOLYLINE
  5
49F
100
AcDbEntity
  8
ASSI
100
AcDbPolyline
 62
7
  6
CONTINUOUS
 90
6
 70
0
 10
-10.9931122162
 20
27.7095840287
 10
-11.0115634846
 20
27.7173342532
 10
-11.0297058817
 20
27.7219853909
 10
-11.0472248542
 20
27.7234599418
 10
-11.0638160529
 20
27.721735
 10
-11.0804512562
 20
27.7162738601
  0
LWPOLYLINE
  5
4A0
100
AcDbEntity
  8
ASSI
100
AcDbPolyline
 62
250
  6
CONTINUOUS
 90
6
 70
0
 10
2.1361145516
 20
21.6669825572
 10
2.1179626193
 20
21.6748715356
 10
2.1000789372
 20
21.6796424883
 10
2.0827693813
 20
21.6812138146
 10
2.0663300085
 20
21.6795586391
 10
2.0500310005
 20
21.6742517753
  0
LWPOLYLINE
  5
4A1
100
AcDbEntity
  8
RACCORDO
100
AcDbPolyline
 62
7
  6
CONTINUOUS
 90
16
 70
0
 10
-0.412138368
 20
23.0315743249
 10
-0.435106091
 20
23.041880911
 10
-0.4594871656
 20
23.0508357509
 10
-0.4852815918
 20
23.0584388446
 10
-0.5127804127
 20
23.0647400154
 10
-0.5416925852
 20
23.0696894399
 10
-0.5711449803
 20
23.0731376489
 10
-0.6011540783
 20
23.0750388456
 10
-0.631703399
 20
23.0754388266
 10
-0.6618703724
 20
23.0743255129
 10
-0.6916433347
 20
23.0716527392
 10
-0.7210339498
 20
23.0674666708
 10
-0.7491546401
 20
23.0618937241
 10
-0.7757095463
 20
23.0549760381
 10
-0.8009945277
 20
23.0466714739
 10
-0.8250095843
 20
23.0369800316
  0
LINE
  5
4A2
100
AcDbEntity
  8
ASSI
100
AcDbLine
 62
7
  6
CONTINUOUS
 10
-10.3410123898
 20
27.9654947863
 11
-10.355294597
 21
27.9720321397
  0
LINE
  5
4A3
100
AcDbEntity
  8
ASSI
100
AcDbLine
 62
7
  6
CONTINUOUS
 10
2.2454768292
 20
21.6722500742
 11
2.2335542518
 21
21.6777914014
  0
LWPOLYLINE
  5
4A4
100
AcDbEntity
  8
ASSI
100
AcDbPolyline
 62
250
  6
CONTINUOUS
 90
13
 70
0
 10
4.3471891146
 20
20.6213952179
 10
4.343994551
 20
20.6229170467
 10
4.3356592554
 20
20.6262233539
 10
4.3269857973
 20
20.6287419061
 10
4.318004226
 20
20.6304655405
 10
4.3087464685
 20
20.6313896304
 10
4.2992413611
 20
20.6315125303
 10
4.289521851
 20
20.6308344819
 10
4.2796214435
 20
20.6293584615
 10
4.269570404
 20
20.6270894048
 10
4.2594019199
 20
20.624034545
 10
4.2491521778
 20
20.6202043156
 10
4.2388563773
 20
20.6156116444
  0
LWPOLYLINE
  5
4A5
100
AcDbEntity
  8
ASSI
100
AcDbPolyline
 62
250
  6
CONTINUOUS
 90
13
 70
0
 10
2.2452167841
 20
21.6723813833
 10
2.2439458903
 20
21.6730050461
 10
2.2354699083
 20
21.6765894801
 10
2.2266266432
 20
21.6793595306
 10
2.2174494936
 20
21.6813048141
 10
2.2079692949
 20
21.6824188748
 10
2.1982207925
 20
21.6826974009
 10
2.1882383217
 20
21.6821393667
 10
2.1780578761
 20
21.680746753
 10
2.1677180988
 20
21.6785248812
 10
2.1572567195
 20
21.6754823478
 10
2.1467103085
 20
21.6716304619
 10
2.1361164771
 20
21.6669834723
  0
LINE
  5
4A6
100
AcDbEntity
  8
ASSI
100
AcDbLine
 62
250
  6
CONTINUOUS
 10
4.2388563773
 20
20.6156116444
 11
2.136116504
 21
21.6669834589
  0
LINE
  5
4A7
100
AcDbEntity
  8
ASSI
100
AcDbLine
 62
250
  6
CONTINUOUS
 10
-8.3476443278
 20
26.9088619969
 11
-10.4503861535
 21
27.9602329098
  0
LINE
  5
4A8
100
AcDbEntity
  8
RACCORDO
100
AcDbLine
 62
7
  6
CONTINUOUS
 10
-0.1562216024
 20
22.9036159421
 11
-0.412138368
 21
23.0315743249
  0
LINE
  5
4A9
100
AcDbEntity
  8
RACCORDO
100
AcDbLine
 62
250
  6
CONTINUOUS
 10
-0.412138368
 20
24.0141589847
 11
0.3462672306
 21
23.6349561854
  0
LINE
  5
4AA
100
AcDbEntity
  8
RACCORDO
100
AcDbLine
 62
250
  6
CONTINUOUS
 10
-0.3096980205
 20
24.2318745682
 11
0.4487075782
 21
23.8526717688
  0
LINE
  5
4AB
100
AcDbEntity
  8
RACCORDO
100
AcDbLine
 62
7
  6
CONTINUOUS
 10
-1.0228850615
 20
24.8322259494
 11
1.6150851275
 21
23.513240855
  0
LINE
  5
4AC
100
AcDbEntity
  8
RACCORDO
100
AcDbLine
 62
250
  6
CONTINUOUS
 10
2.2310371682
 20
23.8083246966
 11
-0.0531426495
 21
24.9504146054
  0
LINE
  5
4AD
100
AcDbEntity
  8
RACCORDO
100
AcDbLine
 62
7
  6
CONTINUOUS
 10
3.5566574278
 20
23.1946887604
 11
3.5199859374
 21
23.2130245056
  0
LINE
  5
4AE
100
AcDbEntity
  8
RACCORDO
100
AcDbLine
 62
7
  6
CONTINUOUS
 10
2.2812626049
 20
23.8323861719
 11
0.0350659511
 21
24.9554844988
  0
LINE
  5
4AF
100
AcDbEntity
  8
ASSI
100
AcDbLine
 62
7
  6
CONTINUOUS
 10
-10.3412886761
 20
27.9656341136
 11
-8.2392294537
 21
26.9146044588
  0
LINE
  5
4B0
100
AcDbEntity
  8
ASSI
100
AcDbLine
 62
7
  6
CONTINUOUS
 10
4.3473007376
 20
20.6213393227
 11
2.2452111292
 21
21.6723842109
  0
LWPOLYLINE
  5
4B1
100
AcDbEntity
  8
RACCORDO
100
AcDbPolyline
 62
250
  6
CONTINUOUS
 90
15
 70
0
 10
0.4487075782
 20
23.8526717688
 10
0.4822895546
 20
23.8334286429
 10
0.5116061427
 20
23.81180524
 10
0.5366573424
 20
23.7878015603
 10
0.5576465344
 20
23.7611692116
 10
0.5743703381
 20
23.732156586
 10
0.5862186113
 20
23.7015088596
 10
0.5930754049
 20
23.6691489119
 10
0.5950566679
 20
23.6351538634
 10
0.5919001051
 20
23.6005002512
 10
0.5834373658
 20
23.5651341626
 10
0.5698368007
 20
23.5291095102
 10
0.5513411659
 20
23.4935645692
 10
0.5280313803
 20
23.4588787647
 10
0.4998265251
 20
23.4246726717
  0
LWPOLYLINE
  5
4B2
100
AcDbEntity
  8
ASSI
100
AcDbPolyline
 62
250
  6
CONTINUOUS
 90
13
 70
0
 10
-2.3801203909
 20
26.863414384
 10
-2.3574663515
 20
26.8502611123
 10
-2.3352378318
 20
26.8337185439
 10
-2.3138025937
 20
26.814060225
 10
-2.2935153181
 20
26.7916112913
 10
-2.274711674
 20
26.7667430264
 10
-2.2577027789
 20
26.7398667011
 10
-2.2427701067
 20
26.711426832
 10
-2.2301608836
 20
26.6818939864
 10
-2.2200839061
 20
26.6517569311
 10
-2.2127060132
 20
26.6215143742
 10
-2.2081493616
 20
26.5916667008
 10
-2.206489448
 20
26.5627078367
  0
LWPOLYLINE
  5
4B3
100
AcDbEntity
  8
RACCORDO
100
AcDbPolyline
 62
250
  6
CONTINUOUS
 90
9
 70
0
 10
0.3462672306
 20
23.6349561854
 10
0.3661484071
 20
23.6233421946
 10
0.3838101388
 20
23.6095977125
 10
0.3990617138
 20
23.5938330272
 10
0.4117262975
 20
23.5761392647
 10
0.4216699933
 20
23.5566749797
 10
0.4287846065
 20
23.5356616277
 10
0.4329610231
 20
23.5131970145
 10
0.4341351599
 20
23.4925952635
  0
LINE
  5
4B4
100
AcDbEntity
  8
DRAFT
100
AcDbLine
 62
7
  6
CONTINUOUS
 10
11.7702102784
 20
20.5791879163
 11
11.0175161944
 21
21.8773931773
  0
LWPOLYLINE
  5
4B5
100
AcDbEntity
  8
RACCORDO
100
AcDbPolyline
 62
7
  6
CONTINUOUS
 90
17
 70
0
 10
6.2210381777
 20
24.7181550547
 10
6.1588803255
 20
24.7123395968
 10
6.0923827234
 20
24.7084956405
 10
6.0246065633
 20
24.7069602034
 10
5.9562327695
 20
24.7077840323
 10
5.8884199118
 20
24.7109673676
 10
5.8218525261
 20
24.7164392536
 10
5.7572206456
 20
24.7240573617
 10
5.6956488868
 20
24.733564287
 10
5.6375888302
 20
24.7447332525
 10
5.5836972628
 20
24.7572309859
 10
5.5352088349
 20
24.7704676979
 10
5.4923841219
 20
24.7840084979
 10
5.4553440077
 20
24.7974155461
 10
5.4246914886
 20
24.8099896332
 10
5.4003754354
 20
24.8211984209
 10
5.3960576333
 20
24.823332617
  0
LWPOLYLINE
  5
4B6
100
AcDbEntity
  8
ASSI
100
AcDbPolyline
 62
7
  6
CONTINUOUS
 90
5
 70
0
 10
3.1378859127
 20
24.193452309
 10
3.0966627701
 20
24.1913414777
 10
3.0555589792
 20
24.1857912627
 10
3.0164258224
 20
24.1770034529
 10
2.9796607059
 20
24.1652045878
  0
LWPOLYLINE
  5
4B7
100
AcDbEntity
  8
RACCORDO
100
AcDbPolyline
 62
250
  6
CONTINUOUS
 90
4
 70
0
 10
5.9596469262
 20
24.5929694898
 10
5.9295996585
 20
24.5934289953
 10
5.8266134771
 20
24.5987104576
 10
5.7828650867
 20
24.6025827575
  0
LWPOLYLINE
  5
4B8
100
AcDbEntity
  8
RACCORDO
100
AcDbPolyline
 62
7
  6
CONTINUOUS
 90
6
 70
0
 10
-1.079041772
 20
24.8463584964
 10
-1.0693617617
 20
24.8460210825
 10
-1.0589505653
 20
24.8445662119
 10
-1.0478295256
 20
24.8418889854
 10
-1.0360130846
 20
24.8379118089
 10
-1.023543936
 20
24.8325553867
  0
LWPOLYLINE
  5
4B9
100
AcDbEntity
  8
ASSI
100
AcDbPolyline
 62
7
  6
CONTINUOUS
 90
4
 70
0
 10
-2.9643857539
 20
23.2457325883
 10
-2.9424977282
 20
23.2438840546
 10
-2.9198233482
 20
23.2380683244
 10
-2.8967449564
 20
23.2283876969
  0
LWPOLYLINE
  5
4BA
100
AcDbEntity
  8
ASSI
100
AcDbPolyline
 62
7
  6
CONTINUOUS
 90
4
 70
0
 10
-6.6766963552
 20
25.1018878889
 10
-6.6548083294
 20
25.1000393552
 10
-6.6321339495
 20
25.094223625
 10
-6.6090555577
 20
25.0845429975
  0
LWPOLYLINE
  5
4BB
100
AcDbEntity
  8
RACCORDO
100
AcDbPolyline
 62
7
  6
CONTINUOUS
 90
10
 70
0
 10
-0.0903711723
 20
24.9873612556
 10
-0.1714936307
 20
24.9990816104
 10
-0.2537672498
 20
25.0069848616
 10
-0.3365603113
 20
25.0110738251
 10
-0.4194394821
 20
25.0113721222
 10
-0.5021693121
 20
25.0078801269
 10
-0.5842200584
 20
25.0005845292
 10
-0.66505249
 20
24.9894802303
 10
-0.7444506932
 20
24.9745001774
 10
-0.8220015234
 20
24.9555633284
  0
LWPOLYLINE
  5
4BC
100
AcDbEntity
  8
ASSI
100
AcDbPolyline
 62
250
  6
CONTINUOUS
 90
12
 70
0
 10
-10.5500419765
 20
25.0576628576
 10
-10.5409438112
 20
25.0560990293
 10
-10.5208025379
 20
25.0551407325
 10
-10.5004537611
 20
25.0575356453
 10
-10.4802418034
 20
25.0632432409
 10
-10.4605086727
 20
25.0721669373
 10
-10.4415882735
 20
25.0841557327
 10
-10.4238007546
 20
25.0990067623
 10
-10.4074470948
 20
25.1164687313
 10
-10.3928040118
 20
25.1362461654
 10
-10.3801192791
 20
25.1580044098
 10
-10.3696075322
 20
25.1813752935
  0
LWPOLYLINE
  5
4BD
100
AcDbEntity
  8
RACCORDO
100
AcDbPolyline
 62
250
  6
CONTINUOUS
 90
13
 70
0
 10
-0.0531426495
 20
24.9504146054
 10
-0.1228648794
 20
24.9639893502
 10
-0.1936066784
 20
24.9742528513
 10
-0.2653680462
 20
24.9812051088
 10
-0.3388074225
 20
24.9848554835
 10
-0.4132663678
 20
24.9851946145
 10
-0.4867695635
 20
24.9821944199
 10
-0.5592940737
 20
24.9757498582
 10
-0.6308628345
 20
24.9659659708
 10
-0.6995693357
 20
24.9531298003
 10
-0.7647780741
 20
24.9373370275
 10
-0.827124553
 20
24.9184919715
 10
-0.8866087725
 20
24.8965946323
  0
LINE
  5
4BE
100
AcDbEntity
  8
RACCORDO
100
AcDbLine
 62
7
  6
CONTINUOUS
 10
-0.0109474803
 20
24.9718268684
 11
-0.0903711723
 21
24.9873612556
  0
LWPOLYLINE
  5
4BF
100
AcDbEntity
  8
RACCORDO
100
AcDbPolyline
 62
7
  6
CONTINUOUS
 90
7
 70
0
 10
-0.0109543379
 20
24.9718283929
 10
-0.0030936551
 20
24.9699123874
 10
0.0060023978
 20
24.9672672444
 10
0.0149657815
 20
24.9641933323
 10
0.0237860645
 20
24.9606929812
 10
0.0324435259
 20
24.9567718557
 10
0.0350840841
 20
24.9554754292
  0
LWPOLYLINE
  5
4C0
100
AcDbEntity
  8
ASSI
100
AcDbPolyline
 62
7
  6
CONTINUOUS
 90
5
 70
0
 10
3.3002837656
 20
24.1679250058
 10
3.2616810983
 20
24.1793257841
 10
3.2214045693
 20
24.1874304218
 10
3.1794485145
 20
24.1921909096
 10
3.1378859127
 20
24.193452309
  0
LWPOLYLINE
  5
4C1
100
AcDbEntity
  8
ASSI
100
AcDbPolyline
 62
7
  6
CONTINUOUS
 90
8
 70
0
 10
-10.355294597
 20
27.9720321397
 10
-10.3765229431
 20
27.9795936668
 10
-10.3985652078
 20
27.9849723498
 10
-10.4211918692
 20
27.9880759578
 10
-10.4442509724
 20
27.9888385207
 10
-10.4675129871
 20
27.9871980307
 10
-10.4906351735
 20
27.9831449072
 10
-10.5133586491
 20
27.9767129534
  0
LWPOLYLINE
  5
4C2
100
AcDbEntity
  8
ASSI
100
AcDbPolyline
 62
250
  6
CONTINUOUS
 90
6
 70
0
 10
-2.5595845417
 20
26.9547229076
 10
-2.582274457
 20
26.9645841305
 10
-2.6046290595
 20
26.9705478214
 10
-2.626266004
 20
26.9725119794
 10
-2.6468152197
 20
26.9704430102
 10
-2.6674893966
 20
26.9636713348
  0
LINE
  5
4C3
100
AcDbEntity
  8
RACCORDO
100
AcDbLine
 62
250
  6
CONTINUOUS
 10
0.0316322797
 20
24.9570941862
 11
0.0350731092
 21
24.9554809193
  0
LINE
  5
4C4
100
AcDbEntity
  8
ASSI
100
AcDbLine
 62
7
  6
CONTINUOUS
 10
3.9193492609
 20
23.5875246998
 11
3.523494011
 21
23.7854523247
  0
LINE
  5
4C5
100
AcDbEntity
  8
ASSI
100
AcDbLine
 62
7
  6
CONTINUOUS
 10
2.8677192872
 20
24.1133396866
 11
0.3203755141
 21
25.3870115732
  0
LINE
  5
4C6
100
AcDbEntity
  8
ASSI
100
AcDbLine
 62
7
  6
CONTINUOUS
 10
4.8892444028
 20
24.0803320398
 11
0.9298332806
 21
26.060037601
  0
LINE
  5
4C7
100
AcDbEntity
  8
DRAFT
100
AcDbLine
 62
7
  6
CONTINUOUS
 10
11.0175161944
 20
21.8773931773
 11
10.2690971011
 21
22.251602724
  0
LINE
  5
4C8
100
AcDbEntity
  8
ASSI
100
AcDbLine
 62
7
  6
CONTINUOUS
 10
2.605991114
 20
26.1910197438
 11
5.8791729023
 21
24.5544288497
  0
LINE
  5
4C9
100
AcDbEntity
  8
RACCORDO
100
AcDbLine
 62
7
  6
CONTINUOUS
 10
5.3961322556
 20
24.823304228
 11
2.6056012497
 21
26.2185697309
  0
LINE
  5
4CA
100
AcDbEntity
  8
ASSI
100
AcDbLine
 62
250
  6
CONTINUOUS
 10
-1.0150251083
 20
28.5258567888
 11
1.838310174
 21
27.0991891477
  0
LINE
  5
4CB
100
AcDbEntity
  8
ASSI
100
AcDbLine
 62
250
  6
CONTINUOUS
 10
6.4643601365
 20
24.7861641664
 11
9.3176954188
 21
23.3594965252
  0
LINE
  5
4CC
100
AcDbEntity
  8
RACCORDO
100
AcDbLine
 62
7
  6
CONTINUOUS
 10
14.8426542944
 20
26.3733151365
 11
14.8517697531
 21
26.3494213355
  0
LINE
  5
4CD
100
AcDbEntity
  8
ASSI
100
AcDbLine
 62
7
  6
CONTINUOUS
 10
0.9298332806
 20
26.060037601
 11
2.5471057152
 21
26.1420825808
  0
LWPOLYLINE
  5
4CE
100
AcDbEntity
  8
ASSI
100
AcDbPolyline
 62
7
  6
CONTINUOUS
 90
5
 70
0
 10
-2.4755325652
 20
27.0033485533
 10
-2.5161201442
 20
27.0018060448
 10
-2.5567037892
 20
26.9969398014
 10
-2.5954713831
 20
26.9889316803
 10
-2.6320281602
 20
26.9779858364
  0
LWPOLYLINE
  5
4CF
100
AcDbEntity
  8
RACCORDO
100
AcDbPolyline
 62
250
  6
CONTINUOUS
 90
4
 70
0
 10
5.2730365916
 20
24.857497005
 10
5.3182291375
 20
24.8510342256
 10
5.3730752071
 20
24.8337716447
 10
5.3960611949
 20
24.8233397479
  0
LWPOLYLINE
  5
4D0
100
AcDbEntity
  8
RACCORDO
100
AcDbPolyline
 62
7
  6
CONTINUOUS
 90
9
 70
0
 10
13.9790417546
 20
23.4185191518
 10
13.972925014
 20
23.4201186495
 10
13.9631548003
 20
23.4216514634
 10
13.9528286048
 20
23.4220669078
 10
13.9420414077
 20
23.4213651353
 10
13.9310781487
 20
23.4195466039
 10
13.920033808
 20
23.4166114664
 10
13.9088134055
 20
23.41255957
 10
13.8974169413
 20
23.4073909148
  0
LINE
  5
4D1
100
AcDbEntity
  8
0
100
AcDbLine
 62
7
  6
CONTINUOUS
 10
12.5859789558
 20
22.7516719221
 11
12.1362342945
 21
22.8734197552
  0
LWPOLYLINE
  5
4D2
100
AcDbEntity
  8
RACCORDO
100
AcDbPolyline
 62
7
  6
CONTINUOUS
 90
28
 70
0
 10
13.9790316183
 20
23.4184951994
 10
13.8703162717
 20
23.4497810451
 10
13.7554612288
 20
23.4791347222
 10
13.6381998048
 20
23.5054617923
 10
13.51882664
 20
23.5287238841
 10
13.3976062684
 20
23.5488944369
 10
13.2747768989
 20
23.5659537122
 10
13.1506281015
 20
23.5798775537
 10
13.0254446384
 20
23.5906482227
 10
12.8994641209
 20
23.5982556224
 10
12.7729777348
 20
23.6026890011
 10
12.6462750119
 20
23.6039435558
 10
12.5195932664
 20
23.6020187827
 10
12.3932219966
 20
23.5969174477
 10
12.267452406
 20
23.5886482356
 10
12.1425228067
 20
23.5772203601
 10
12.0187239321
 20
23.5626505279
 10
11.8963391797
 20
23.5449605063
 10
11.7755907435
 20
23.5241663309
 10
11.6567558224
 20
23.5002947309
 10
11.540119999
 20
23.4733796792
 10
11.425908426
 20
23.4434449118
 10
11.3143932478
 20
23.4105278079
 10
11.2058470514
 20
23.3746711731
 10
11.1004801598
 20
23.3358995556
 10
10.9985333773
 20
23.2942467472
 10
10.9002872399
 20
23.2497659727
 10
10.8060031787
 20
23.2025085832
  0
LWPOLYLINE
  5
4D3
100
AcDbEntity
  8
ASSI
100
AcDbPolyline
 62
7
  6
CONTINUOUS
 90
5
 70
0
 10
-2.3166503078
 20
26.9768112851
 10
-2.3543356203
 20
26.9882587212
 10
-2.393704591
 20
26.9965494557
 10
-2.4347498523
 20
27.0016359986
 10
-2.4755325652
 20
27.0033485533
  0
LWPOLYLINE
  5
4D4
100
AcDbEntity
  8
RACCORDO
100
AcDbPolyline
 62
7
  6
CONTINUOUS
 90
3
 70
0
 10
13.9910824363
 20
23.4137013712
 10
13.982234226
 20
23.4174686188
 10
13.9790417546
 20
23.4185191518
  0
LWPOLYLINE
  5
4D5
100
AcDbEntity
  8
ASSI
100
AcDbPolyline
 62
250
  6
CONTINUOUS
 90
10
 70
0
 10
2.2754071007
 20
27.1204404542
 10
2.2323461331
 20
27.1387822892
 10
2.1879875462
 20
27.151677586
 10
2.1417053359
 20
27.1594888997
 10
2.0937516656
 20
27.1621742217
 10
2.0443862627
 20
27.1597202457
 10
1.9938815804
 20
27.152139113
 10
1.9425139974
 20
27.1394721751
 10
1.8905623354
 20
27.1217898512
 10
1.838310174
 20
27.0991891477
  0
LWPOLYLINE
  5
4D6
100
AcDbEntity
  8
ASSI
100
AcDbPolyline
 62
7
  6
CONTINUOUS
 90
8
 70
0
 10
6.8979223041
 20
24.809179833
 10
6.8647890064
 20
24.8243236912
 10
6.8161878708
 20
24.8414909129
 10
6.7650249545
 20
24.8537919702
 10
6.7117197936
 20
24.860938781
 10
6.6568778106
 20
24.8627198132
 10
6.6008491979
 20
24.8590569612
 10
6.5438849095
 20
24.8499191104
  0
LINE
  5
4D7
100
AcDbEntity
  8
ASSI
100
AcDbLine
 62
7
  6
CONTINUOUS
 10
6.8970076422
 20
24.8096401834
 11
9.9076945647
 21
23.3042967222
  0
LINE
  5
4D8
100
AcDbEntity
  8
0
100
AcDbLine
 62
7
  6
CONTINUOUS
 10
11.4399875829
 20
22.7265683642
 11
10.9342906075
 21
22.9794168519
  0
LINE
  5
4D9
100
AcDbEntity
  8
0
100
AcDbLine
 62
7
  6
CONTINUOUS
 10
12.1362342945
 20
22.8734197552
 11
11.4292653543
 21
23.2269042253
  0
LINE
  5
4DA
100
AcDbEntity
  8
DRAFT
100
AcDbLine
 62
7
  6
CONTINUOUS
 10
11.5223239726
 20
23.8863265618
 11
11.0837135001
 21
24.105631798
  0
LINE
  5
4DB
100
AcDbEntity
  8
ASSI
100
AcDbLine
 62
7
  6
CONTINUOUS
 10
2.2755145815
 20
27.1203866927
 11
-0.7352784931
 21
28.6257832511
  0
LINE
  5
4DC
100
AcDbEntity
  8
RACCORDO
100
AcDbLine
 62
7
  6
CONTINUOUS
 10
14.8396105737
 20
22.9894373025
 11
14.9364361325
 21
22.9409583763
  0
LWPOLYLINE
  5
4DD
100
AcDbEntity
  8
RACCORDO
100
AcDbPolyline
 62
7
  6
CONTINUOUS
 90
10
 70
0
 10
14.8016665065
 20
23.0021049574
 10
14.7041894528
 20
23.0521603891
 10
14.6085762509
 20
23.1011362648
 10
14.514826901
 20
23.1490325844
 10
14.4229558197
 20
23.1958507721
 10
14.3329485903
 20
23.2415894039
 10
14.2447619623
 20
23.2862442069
 10
14.1583815189
 20
23.329813757
 10
14.0738216769
 20
23.3722994785
 10
13.9910824363
 20
23.4137013712
  0
LINE
  5
4DE
100
AcDbEntity
  8
RACCORDO
100
AcDbLine
 62
7
  6
CONTINUOUS
 10
14.8094249351
 20
22.9975184854
 11
14.8016665065
 21
23.0021049574
  0
LWPOLYLINE
  5
4DF
100
AcDbEntity
  8
RACCORDO
100
AcDbPolyline
 62
250
  6
CONTINUOUS
 90
4
 70
0
 10
14.8396105737
 20
22.9894373025
 10
14.8641335641
 20
22.9689329241
 10
14.8884993257
 20
22.9476546597
 10
14.908012288
 20
22.9298187712
  0
LWPOLYLINE
  5
4E0
100
AcDbEntity
  8
RACCORDO
100
AcDbPolyline
 62
250
  6
CONTINUOUS
 90
5
 70
0
 10
14.7459739746
 20
22.983141294
 10
14.768834404
 20
22.9635625606
 10
14.7914119423
 20
22.943209514
 10
14.8137065895
 20
22.9220821544
 10
14.834849881
 20
22.9011456505
  0
LWPOLYLINE
  5
4E1
100
AcDbEntity
  8
RACCORDO
100
AcDbPolyline
 62
250
  6
CONTINUOUS
 90
35
 70
0
 10
20.3738760531
 20
19.9698527021
 10
20.3854735795
 20
19.9329777816
 10
20.4054110869
 20
19.8600639101
 10
20.421725084
 20
19.7890921598
 10
20.4353208443
 20
19.7200258248
 10
20.4463786011
 20
19.6530469555
 10
20.4549059761
 20
19.588123454
 10
20.4615056575
 20
19.5248718909
 10
20.4663180715
 20
19.4633132025
 10
20.4693376109
 20
19.4035183968
 10
20.470909749
 20
19.3451596919
 10
20.4711259279
 20
19.2881889626
 10
20.4699949809
 20
19.2327125692
 10
20.4677171529
 20
19.1786244674
 10
20.4643560073
 20
19.1259099538
 10
20.4599334312
 20
19.0746238295
 10
20.4545785141
 20
19.0247598929
 10
20.4483497746
 20
18.9763436493
 10
20.4412660065
 20
18.9293776945
 10
20.4333919228
 20
18.8838186494
 10
20.4247852386
 20
18.8396820234
 10
20.415456203
 20
18.7969709132
 10
20.4053942845
 20
18.755620885
 10
20.3946446929
 20
18.7155933282
 10
20.3832211381
 20
18.6769382922
 10
20.3710651688
 20
18.639722616
 10
20.3582127253
 20
18.6038955657
 10
20.3446828376
 20
18.5695148799
 10
20.330395645
 20
18.536809317
 10
20.3153841871
 20
18.5057416722
 10
20.2996680889
 20
18.4763540275
 10
20.2831530045
 20
18.4489941573
 10
20.2658247265
 20
18.423779894
 10
20.2477438916
 20
18.4005989181
 10
20.2289280627
 20
18.379454385
  0
LINE
  5
4E2
100
AcDbEntity
  8
RACCORDO
100
AcDbLine
 62
7
  6
CONTINUOUS
 10
15.7522369526
 20
23.6465901872
 11
15.0257395639
 21
24.0098388815
  0
LINE
  5
4E3
100
AcDbEntity
  8
DRAFT
100
AcDbLine
 62
7
  6
CONTINUOUS
 10
15.5694072922
 20
23.7536648699
 11
15.2652879083
 21
23.9057245619
  0
LINE
  5
4E4
100
AcDbEntity
  8
DRAFT
100
AcDbLine
 62
7
  6
CONTINUOUS
 10
17.964007326
 20
24.3854512817
 11
14.8517697531
 21
25.9415700682
  0
LWPOLYLINE
  5
4E5
100
AcDbEntity
  8
DRAFT
100
AcDbPolyline
 62
7
  6
CONTINUOUS
 90
10
 70
0
 10
15.5694072922
 20
23.7536648699
 10
15.5379918378
 20
23.7717176822
 10
15.5059748605
 20
23.7894849846
 10
15.4733563604
 20
23.8069667772
 10
15.4401261696
 20
23.8241681438
 10
15.406294456
 20
23.8410840006
 10
15.3718917228
 20
23.857699096
 10
15.3369281376
 20
23.8740083461
 10
15.3013935328
 20
23.8900168347
 10
15.2652879083
 20
23.9057245619
  0
LWPOLYLINE
  5
4E6
100
AcDbEntity
  8
RACCORDO
100
AcDbPolyline
 62
7
  6
CONTINUOUS
 90
35
 70
0
 10
20.3738760531
 20
22.0519407739
 10
20.4906495819
 20
21.9748386677
 10
20.6304462554
 20
21.8703250214
 10
20.7671841111
 20
21.7557964244
 10
20.9000495547
 20
21.6320799199
 10
21.0284350079
 20
21.4999331448
 10
21.152016608
 20
21.3598657388
 10
21.2703967694
 20
21.2124602351
 10
21.3831511524
 20
21.0583493456
 10
21.4898267185
 20
20.8982425615
 10
21.5899837306
 20
20.7328868044
 10
21.6831996744
 20
20.5630690427
 10
21.769152797
 20
20.3894510121
 10
21.8475681786
 20
20.2126130534
 10
21.9181348536
 20
20.0332224896
 10
21.980509436
 20
19.8520879295
 10
22.034394172
 20
19.6699926345
 10
22.0795308951
 20
19.4876880515
 10
22.1156897978
 20
19.3059112145
 10
22.1426655418
 20
19.1253877546
 10
22.1602853471
 20
18.9466853024
 10
22.1683582483
 20
18.7706887866
 10
22.1667581865
 20
18.5985085458
 10
22.1554108144
 20
18.4305925704
 10
22.1342762121
 20
18.2678156341
 10
22.1035468581
 20
18.1117219938
 10
22.0634423657
 20
17.962980029
 10
22.0141160176
 20
17.8218870986
 10
21.9559208979
 20
17.6892210087
 10
21.8891125142
 20
17.5653236579
 10
21.8140438005
 20
17.4506645597
 10
21.7314540951
 20
17.3460669216
 10
21.6420149241
 20
17.2519395822
 10
21.5461906157
 20
17.1683590223
 10
21.4445991462
 20
17.0955100968
  0
LWPOLYLINE
  5
4E7
100
AcDbEntity
  8
RACCORDO
100
AcDbPolyline
 62
250
  6
CONTINUOUS
 90
34
 70
0
 10
20.3738760531
 20
21.973330253
 10
20.4519711439
 20
21.9178184495
 10
20.5891120138
 20
21.8083628402
 10
20.7236545054
 20
21.6888373667
 10
20.8549710843
 20
21.559799518
 10
20.9824492428
 20
21.4218511696
 10
21.1054943797
 20
21.2756357591
 10
21.2235325751
 20
21.1218352803
 10
21.3360132696
 20
20.9611670982
 10
21.4424118242
 20
20.7943806109
 10
21.5422319672
 20
20.6222537553
 10
21.6350081086
 20
20.4455893806
 10
21.7203075139
 20
20.2652114996
 10
21.7977323227
 20
20.0819614458
 10
21.8669214044
 20
19.8966939479
 10
21.9275520421
 20
19.7102731448
 10
21.9793414376
 20
19.523568555
 10
22.0220480306
 20
19.3374510209
 10
22.0554726257
 20
19.1527886465
 10
22.0794593212
 20
18.9704427488
 10
22.0938962365
 20
18.7912638397
 10
22.0987160338
 20
18.6160876597
 10
22.0938962322
 20
18.4457312793
 10
22.0794593126
 20
18.2809892881
 10
22.0554726128
 20
18.1226300887
 10
22.0220480135
 20
17.9713923125
 10
21.9793414162
 20
17.8279813748
 10
21.9275520166
 20
17.6930661842
 10
21.8669213748
 20
17.5672760229
 10
21.7977322891
 20
17.4511976111
 10
21.7203074764
 20
17.3453723706
 10
21.6350080673
 20
17.2502938997
 10
21.5422319222
 20
17.1664056713
 10
21.4445991462
 20
17.0955100968
  0
LINE
  5
4E8
100
AcDbEntity
  8
RACCORDO
100
AcDbLine
 62
250
  6
CONTINUOUS
 10
19.3627751786
 20
24.2672693883
 11
19.7823183896
 21
23.5436643869
  0
LINE
  5
4E9
100
AcDbEntity
  8
RACCORDO
100
AcDbLine
 62
7
  6
CONTINUOUS
 10
19.753039543
 20
24.2616595745
 11
20.0998773135
 21
23.6634529086
  0
LWPOLYLINE
  5
4EA
100
AcDbEntity
  8
RACCORDO
100
AcDbPolyline
 62
250
  6
CONTINUOUS
 90
13
 70
0
 10
19.7823183896
 20
23.5436643869
 10
19.834087639
 20
23.4500838694
 10
19.8821309894
 20
23.3543644149
 10
19.9262427119
 20
23.2569159085
 10
19.9662339131
 20
23.1581556393
 10
20.0019333443
 20
23.0585065143
 10
20.0331881347
 20
22.9583952475
 10
20.0598644463
 20
22.8582505308
 10
20.0818480472
 20
22.7585011992
 10
20.0990448
 20
22.6595743958
 10
20.1113810657
 20
22.5618937406
 10
20.1188040189
 20
22.4658775168
 10
20.1212818734
 20
22.3719368805
  0
LINE
  5
4EB
100
AcDbEntity
  8
RACCORDO
100
AcDbLine
 62
250
  6
CONTINUOUS
 10
19.3627751786
 20
24.2672693883
 11
18.5571032425
 21
24.6701053564
  0
LINE
  5
4EC
100
AcDbEntity
  8
RACCORDO
100
AcDbLine
 62
250
  6
CONTINUOUS
 10
13.8554401634
 20
27.0209368959
 11
12.8842813298
 21
27.5065163127
  0
LINE
  5
4ED
100
AcDbEntity
  8
RACCORDO
100
AcDbLine
 62
7
  6
CONTINUOUS
 10
19.6930505562
 20
24.3179514924
 11
18.867291656
 21
24.7308309425
  0
LINE
  5
4EE
100
AcDbEntity
  8
RACCORDO
100
AcDbLine
 62
7
  6
CONTINUOUS
 10
14.328022935
 20
27.000465303
 11
13.2756669223
 21
27.5266433094
  0
LWPOLYLINE
  5
4EF
100
AcDbEntity
  8
RACCORDO
100
AcDbPolyline
 62
7
  6
CONTINUOUS
 90
4
 70
0
 10
19.6949761081
 20
24.3169885191
 10
19.7086195841
 20
24.3091737773
 10
19.7321552807
 20
24.2898014988
 10
19.7523334234
 20
24.2629236673
  0
LWPOLYLINE
  5
4F0
100
AcDbEntity
  8
RACCORDO
100
AcDbPolyline
 62
250
  6
CONTINUOUS
 90
12
 70
0
 10
20.0998773135
 20
23.6634529086
 10
20.0985181768
 20
23.6650500226
 10
20.0905992587
 20
23.6675716257
 10
20.0769546662
 20
23.6667028166
 10
20.0576859496
 20
23.6624500612
 10
20.0329365166
 20
23.6548450109
 10
20.0028905656
 20
23.6439442664
 10
19.9677717142
 20
23.6298289567
 10
19.9278413351
 20
23.6126041356
 10
19.8833966112
 20
23.5923979993
 10
19.8347683232
 20
23.5693609323
 10
19.7823183885
 20
23.5436643887
  0
ELLIPSE
  5
4F1
100
AcDbEntity
  8
RACCORDO
100
AcDbEllipse
 62
7
  6
CONTINUOUS
 10
0.3695646419
 20
-21.3898780008
 30
0.0
 11
-0.1999840611
 21
0.4586318226
 31
0.0
 40
0.6372798266
 41
-3.1718451134
 42
-2.2231487507
  0
ELLIPSE
  5
4F2
100
AcDbEntity
  8
RACCORDO
100
AcDbEllipse
 62
7
  6
CONTINUOUS
 10
1.9682590891
 20
16.7701979528
 30
0.0
 11
-0.1996736685
 21
0.4584064956
 31
0.0
 40
0.6381227599
 41
-2.2220345828
 42
-0.6519234887
  0
ELLIPSE
  5
4F3
100
AcDbEntity
  8
RACCORDO
100
AcDbEllipse
 62
7
  6
CONTINUOUS
 10
-12.8807409249
 20
24.1946979598
 30
0.0
 11
-0.1999840611
 21
0.4586318226
 31
0.0
 40
0.6372798266
 41
-0.6516671913
 42
0.029873806
  0
ELLIPSE
  5
4F4
100
AcDbEntity
  8
DRAFT
100
AcDbEllipse
 62
7
  6
CONTINUOUS
 10
13.472803952
 20
22.9110865721
 30
0.0
 11
2.7583300471
 21
-0.038763314
 31
0.0
 40
0.4892375088
 41
0.4291477653
 42
0.6564870977
  0
ELLIPSE
  5
4F5
100
AcDbEntity
  8
DRAFT
100
AcDbEllipse
 62
7
  6
CONTINUOUS
 10
12.8010525098
 20
23.0225842561
 30
0.0
 11
2.7499350056
 21
-0.0386453369
 31
0.0
 40
0.4892375088
 41
8.654981679
 42
9.2672200839
  0
ELLIPSE
  5
4F6
100
AcDbEntity
  8
DRAFT
100
AcDbEllipse
 62
7
  6
CONTINUOUS
 10
13.472803952
 20
22.9110865721
 30
0.0
 11
2.7583300471
 21
-0.038763314
 31
0.0
 40
0.4892375088
 41
0.9280596999
 42
2.3630697256
  0
ELLIPSE
  5
4F7
100
AcDbEntity
  8
RACCORDO
100
AcDbEllipse
 62
7
  6
CONTINUOUS
 10
18.1785181831
 20
24.0689870891
 30
0.0
 11
0.716172246
 21
0.6416715914
 31
0.0
 40
0.2882345029
 41
0.1142323894
 42
0.7807533904
  0
ELLIPSE
  5
4F8
100
AcDbEntity
  8
DRAFT
100
AcDbEllipse
 62
7
  6
CONTINUOUS
 10
13.472803952
 20
24.8557972833
 30
0.0
 11
2.7583515655
 21
-1.4175703156
 31
0.0
 40
0.0109499087
 41
-0.9155571536
 42
-0.85781018
  0
ELLIPSE
  5
4F9
100
AcDbEntity
  8
DRAFT
100
AcDbEllipse
 62
7
  6
CONTINUOUS
 10
13.472803952
 20
24.8557972833
 30
0.0
 11
2.7583515655
 21
-1.4175703156
 31
0.0
 40
0.0109499087
 41
-0.7017315251
 42
-0.6439845515
  0
ELLIPSE
  5
4FA
100
AcDbEntity
  8
DRAFT
100
AcDbEllipse
 62
7
  6
CONTINUOUS
 10
13.472803952
 20
23.344099274
 30
0.0
 11
2.7583300471
 21
-0.038763314
 31
0.0
 40
0.4892375088
 41
0.1708839954
 42
2.3630697256
  0
ELLIPSE
  5
4FB
100
AcDbEntity
  8
RACCORDO
100
AcDbEllipse
 62
7
  6
CONTINUOUS
 10
14.211811936
 20
26.0523402126
 30
0.0
 11
-0.2796057293
 21
0.9974617846
 31
0.0
 40
0.6760995073
 41
4.8467711056
 42
6.4001141399
  0
ELLIPSE
  5
4FC
100
AcDbEntity
  8
0
100
AcDbEllipse
 62
7
  6
CONTINUOUS
 10
12.7773136908
 20
24.2043463887
 30
0.0
 11
3.3311333813
 21
-0.0467042088
 31
0.0
 40
0.4892378494
 41
2.3616770883
 42
5.5059722822
  0
ELLIPSE
  5
4FD
100
AcDbEntity
  8
ASSI
100
AcDbEllipse
 62
7
  6
CONTINUOUS
 10
4.5862173972
 20
-19.5413702428
 30
0.0
 11
-0.2237009107
 21
0.4473351135
 31
0.0
 40
0.6121897086
 41
-3.1230684064
 42
-2.2557347926
  0
ELLIPSE
  5
4FE
100
AcDbEntity
  8
ASSI
100
AcDbEllipse
 62
7
  6
CONTINUOUS
 10
4.5862173972
 20
18.3601774637
 30
0.0
 11
-0.2235807756
 21
0.4472283268
 31
0.0
 40
0.6125552124
 41
-2.255296188
 42
-0.6848044477
  0
ELLIPSE
  5
4FF
100
AcDbEntity
  8
ASSI
100
AcDbEllipse
 62
7
  6
CONTINUOUS
 10
1.1598620852
 20
18.5984532724
 30
0.0
 11
0.2497264901
 21
-0.0900037588
 31
0.0
 40
0.1298948903
 41
-2.3094133153
 42
-0.756070281
  0
ELLIPSE
  5
500
100
AcDbEntity
  8
ASSI
100
AcDbEllipse
 62
7
  6
CONTINUOUS
 10
0.9662977991
 20
18.6952354154
 30
0.0
 11
0.2497264901
 21
-0.0900037588
 31
0.0
 40
0.1298948903
 41
-3.0936186356
 42
-2.3094133153
  0
ELLIPSE
  5
501
100
AcDbEntity
  8
ASSI
100
AcDbEllipse
 62
7
  6
CONTINUOUS
 10
-11.4266386199
 20
24.8917036249
 30
0.0
 11
0.2497264901
 21
-0.0900037588
 31
0.0
 40
0.1298948903
 41
-2.3094133153
 42
-0.756070281
  0
ELLIPSE
  5
502
100
AcDbEntity
  8
ASSI
100
AcDbEllipse
 62
7
  6
CONTINUOUS
 10
-11.620202906
 20
24.988485768
 30
0.0
 11
0.2497264901
 21
-0.0900037588
 31
0.0
 40
0.1298948903
 41
-3.0936186356
 42
-2.3094133153
  0
ELLIPSE
  5
503
100
AcDbEntity
  8
ASSI
100
AcDbEllipse
 62
7
  6
CONTINUOUS
 10
0.9662977991
 20
-20.8527026741
 30
0.0
 11
0.220014872
 21
0.1791173313
 31
0.0
 40
0.6627826692
 41
1.8788389155
 42
2.0871512675
  0
ELLIPSE
  5
504
100
AcDbEntity
  8
ASSI
100
AcDbEllipse
 62
7
  6
CONTINUOUS
 10
9.8368568426
 20
22.2216815945
 30
0.0
 11
0.4349639225
 21
0.9005141702
 31
0.0
 40
0.6016116119
 41
-0.8943064336
 42
-0.6381625531
  0
ELLIPSE
  5
505
100
AcDbEntity
  8
ASSI
100
AcDbEllipse
 62
7
  6
CONTINUOUS
 10
9.8368568426
 20
-14.5113781952
 30
0.0
 11
0.4349639225
 21
0.9005141702
 31
0.0
 40
0.6016116119
 41
-1.150450314
 42
-0.9391738336
  0
ELLIPSE
  5
506
100
AcDbEntity
  8
ASSI
100
AcDbEllipse
 62
7
  6
CONTINUOUS
 10
10.0125060941
 20
-14.599202821
 30
0.0
 11
0.9927147821
 21
0.620457446
 31
0.0
 40
0.0764819879
 41
-2.3927159682
 42
-1.0955168143
  0
ELLIPSE
  5
507
100
AcDbEntity
  8
ASSI
100
AcDbEllipse
 62
7
  6
CONTINUOUS
 10
-1.7345172135
 20
28.0073686225
 30
0.0
 11
1.004787277
 21
0.6140102217
 31
0.0
 40
0.0864918533
 41
0.0543763766
 42
0.7212730538
  0
ELLIPSE
  5
508
100
AcDbEntity
  8
ASSI
100
AcDbEllipse
 62
7
  6
CONTINUOUS
 10
-3.7238994034
 20
24.0805691571
 30
0.0
 11
-0.1172693628
 21
0.2208586762
 31
0.0
 40
0.5994421146
 41
-2.2699607138
 42
-0.6994689735
  0
ELLIPSE
  5
509
100
AcDbEntity
  8
ASSI
100
AcDbEllipse
 62
7
  6
CONTINUOUS
 10
5.4236448111
 20
74.9659774014
 30
0.0
 11
3.5378457856
 21
99.5794032239
 31
0.0
 40
0.0069684374
 41
4.1704972465
 42
4.1714623644
  0
ELLIPSE
  5
50A
100
AcDbEntity
  8
ASSI
100
AcDbEllipse
 62
7
  6
CONTINUOUS
 10
-2.2155505395
 20
23.3263947251
 30
0.0
 11
-0.1174113663
 21
0.2209958577
 31
0.0
 40
0.5985429242
 41
-0.6989839728
 42
-0.0337839605
  0
ELLIPSE
  5
50B
100
AcDbEntity
  8
ASSI
100
AcDbEllipse
 62
7
  6
CONTINUOUS
 10
3.2328103711
 20
23.7320875165
 30
0.0
 11
1.000203771
 21
-0.0143477891
 31
0.0
 40
0.4891226537
 41
-0.7775824994
 42
-0.0140546088
  0
ELLIPSE
  5
50C
100
AcDbEntity
  8
0
100
AcDbEllipse
 62
7
  6
CONTINUOUS
 10
0.4619907
 20
18.0086905457
 30
0.0
 11
-0.0888806443
 21
0.1794588445
 31
0.0
 40
0.6133070172
 41
-2.2501183435
 42
-0.6816034901
  0
ELLIPSE
  5
50D
100
AcDbEntity
  8
ASSI
100
AcDbEllipse
 62
7
  6
CONTINUOUS
 10
-0.3864889593
 20
77.8710442866
 30
0.0
 11
0.7093717925
 21
100.9935570733
 31
0.0
 40
0.0069790045
 41
-2.1156864167
 42
-2.111971229
  0
ELLIPSE
  5
50E
100
AcDbEntity
  8
ASSI
100
AcDbEllipse
 62
7
  6
CONTINUOUS
 10
-0.3864889593
 20
25.0330946378
 30
0.0
 11
1.0
 21
-0.0
 31
0.0
 40
0.5003427338
 41
0.7857407797
 42
1.3334966153
  0
ELLIPSE
  5
50F
100
AcDbEntity
  8
ASSI
100
AcDbEllipse
 62
7
  6
CONTINUOUS
 10
-0.3864889593
 20
25.5417371818
 30
0.0
 11
0.9999753489
 21
-0.014348771
 31
0.0
 40
0.4893460778
 41
1.5857281126
 42
2.3628734463
  0
ELLIPSE
  5
510
100
AcDbEntity
  8
ASSI
100
AcDbEllipse
 62
7
  6
CONTINUOUS
 10
3.2115153901
 20
23.2340924631
 30
0.0
 11
1.0006854676
 21
0.0
 31
0.0
 40
0.499657501
 41
0.4959893425
 42
0.7850555471
  0
ELLIPSE
  5
511
100
AcDbEntity
  8
ASSI
100
AcDbEllipse
 62
7
  6
CONTINUOUS
 10
0.7603370621
 20
19.0735894798
 30
0.0
 11
0.249929385
 21
0.0111824824
 31
0.0
 40
0.5313301283
 41
3.1180383302
 42
3.9032222197
  0
ELLIPSE
  5
512
100
AcDbEntity
  8
ASSI
100
AcDbEllipse
 62
7
  6
CONTINUOUS
 10
2.7800363845
 20
18.0637398186
 30
0.0
 11
0.249929385
 21
0.0111824824
 31
0.0
 40
0.5313301283
 41
-2.3799630874
 42
-0.8266200532
  0
ELLIPSE
  5
513
100
AcDbEntity
  8
ASSI
100
AcDbEllipse
 62
7
  6
CONTINUOUS
 10
-9.8064643206
 20
24.3569901712
 30
0.0
 11
0.249929385
 21
0.0111824824
 31
0.0
 40
0.5313301283
 41
-2.3799630874
 42
-0.8266200532
  0
ELLIPSE
  5
514
100
AcDbEntity
  8
ASSI
100
AcDbEllipse
 62
7
  6
CONTINUOUS
 10
-11.826163643
 20
25.3668398324
 30
0.0
 11
0.249929385
 21
0.0111824824
 31
0.0
 40
0.5313301283
 41
3.1180383322
 42
3.9032222197
  0
ELLIPSE
  5
515
100
AcDbEntity
  8
ASSI
100
AcDbEllipse
 62
7
  6
CONTINUOUS
 10
2.7800363845
 20
-21.1782982106
 30
0.0
 11
0.220014872
 21
0.1791173313
 31
0.0
 40
0.6627826692
 41
-2.8510033574
 42
-2.6599685648
  0
ELLIPSE
  5
516
100
AcDbEntity
  8
ASSI
100
AcDbEllipse
 62
7
  6
CONTINUOUS
 10
1.1598620852
 20
-21.5753178421
 30
0.0
 11
0.220014872
 21
0.1791173313
 31
0.0
 40
0.6627826692
 41
-1.8038058062
 42
-1.2976603231
  0
ELLIPSE
  5
517
100
AcDbEntity
  8
ASSI
100
AcDbEllipse
 62
7
  6
CONTINUOUS
 10
-3.140481085
 20
21.7388671404
 30
0.0
 11
0.199943508
 21
0.008945986
 31
0.0
 40
0.5313301283
 41
3.1180383302
 42
3.9032222197
  0
ELLIPSE
  5
518
100
AcDbEntity
  8
ASSI
100
AcDbEllipse
 62
7
  6
CONTINUOUS
 10
-0.8498326879
 20
20.5935429418
 30
0.0
 11
0.199943508
 21
0.008945986
 31
0.0
 40
0.5313301283
 41
-2.3799630874
 42
-0.8266200532
  0
ELLIPSE
  5
519
100
AcDbEntity
  8
ASSI
100
AcDbEllipse
 62
7
  6
CONTINUOUS
 10
-4.5621432892
 20
22.4496982424
 30
0.0
 11
0.199943508
 21
0.008945986
 31
0.0
 40
0.5313301283
 41
-2.3799630874
 42
-0.8266200532
  0
ELLIPSE
  5
51A
100
AcDbEntity
  8
ASSI
100
AcDbEllipse
 62
7
  6
CONTINUOUS
 10
-6.8527916863
 20
23.595022441
 30
0.0
 11
0.199943508
 21
0.008945986
 31
0.0
 40
0.5313301283
 41
3.1180383322
 42
3.9032222197
  0
ELLIPSE
  5
51B
100
AcDbEntity
  8
ASSI
100
AcDbEllipse
 62
7
  6
CONTINUOUS
 10
-12.2026319846
 20
24.9333437457
 30
0.0
 11
-0.2236507175
 21
0.4481039483
 31
0.0
 40
0.6114248242
 41
-0.6832297371
 42
0.8861965936
  0
ELLIPSE
  5
51C
100
AcDbEntity
  8
ASSI
100
AcDbEllipse
 62
7
  6
CONTINUOUS
 10
2.8029513356
 20
17.4305520856
 30
0.0
 11
-0.2231080361
 21
0.4476242326
 31
0.0
 40
0.6130677323
 41
-2.2534169372
 42
-0.6839906064
  0
ELLIPSE
  5
51D
100
AcDbEntity
  8
ASSI
100
AcDbEllipse
 62
7
  6
CONTINUOUS
 10
0.9662977991
 20
-20.8527026741
 30
0.0
 11
0.220014872
 21
0.1791173313
 31
0.0
 40
0.6627826692
 41
3.1357258855
 42
3.4321819498
  0
ELLIPSE
  5
51E
100
AcDbEntity
  8
ASSI
100
AcDbEllipse
 62
7
  6
CONTINUOUS
 10
2.8029513356
 20
-20.364012709
 30
0.0
 11
-0.2236507175
 21
0.4481039483
 31
0.0
 40
0.6114248242
 41
2.4583629164
 42
4.0277892472
  0
ELLIPSE
  5
51F
100
AcDbEntity
  8
0
100
AcDbEllipse
 62
7
  6
CONTINUOUS
 10
-9.861671349
 20
23.1705215702
 30
0.0
 11
-0.0892456481
 21
0.1797773143
 31
0.0
 40
0.6105754279
 41
5.6028239993
 42
7.1713388527
  0
ELLIPSE
  5
520
100
AcDbEntity
  8
ASSI
100
AcDbEllipse
 62
7
  6
CONTINUOUS
 10
15.5896401372
 20
29.6602726602
 30
0.0
 11
18.2927339069
 21
9.4748417608
 31
0.0
 40
0.0170707209
 41
-2.6536573066
 42
-2.3141694431
  0
ELLIPSE
  5
521
100
AcDbEntity
  8
ASSI
100
AcDbEllipse
 62
7
  6
CONTINUOUS
 10
15.5896401372
 20
29.6602726602
 30
0.0
 11
18.2927339069
 21
9.4748417608
 31
0.0
 40
0.0170707209
 41
2.2964861198
 42
2.6359739833
  0
ELLIPSE
  5
522
100
AcDbEntity
  8
RACCORDO
100
AcDbEllipse
 62
7
  6
CONTINUOUS
 10
1.2401554043
 20
-5.542587816
 30
0.0
 11
-0.1570656702
 21
0.2574547774
 31
0.0
 40
0.5599604495
 41
-3.2116029863
 42
-2.300981329
  0
ELLIPSE
  5
523
100
AcDbEntity
  8
ASSI
100
AcDbEllipse
 62
7
  6
CONTINUOUS
 10
2.4056628165
 20
26.2128040302
 30
0.0
 11
0.2002571891
 21
-0.0481060446
 31
0.0
 40
0.261363135
 41
-0.7257858084
 42
0.0669778862
  0
ELLIPSE
  5
524
100
AcDbEntity
  8
RACCORDO
100
AcDbEllipse
 62
7
  6
CONTINUOUS
 10
0.8861578123
 20
-15.9234076172
 30
0.0
 11
-0.2685822327
 21
0.5369844567
 31
0.0
 40
0.6119614214
 41
-3.1700942144
 42
-2.2560086979
  0
ELLIPSE
  5
525
100
AcDbEntity
  8
ASSI
100
AcDbEllipse
 62
7
  6
CONTINUOUS
 10
1.1598620852
 20
-20.9494848172
 30
0.0
 11
0.220014872
 21
0.1791173313
 31
0.0
 40
0.6627826692
 41
-2.8510033574
 42
-1.2976603231
  0
ELLIPSE
  5
526
100
AcDbEntity
  8
ASSI
100
AcDbEllipse
 62
7
  6
CONTINUOUS
 10
10.0125060941
 20
22.1338569687
 30
0.0
 11
-0.7356038977
 21
1.2035991204
 31
0.0
 40
0.5552491559
 41
4.9268361304
 42
6.2240352843
  0
ENDSEC
  0
SECTION
  2
OBJECTS
  0
DICTIONARY
  5
C
100
AcDbDictionary
280
0
281
1
  3
ACAD_GROUP
350
D
  3
ACAD_MLINESTYLE
350
17
  3
ACAD_LAYOUT
350
1A
  3
ACAD_PLOTSETTINGS
350
19
  3
ACAD_PLOTSTYLENAME
350
E
  0
DICTIONARY
  5
D
102
{ACAD_REACTORS
330
C
102
}
100
AcDbDictionary
280
0
281
1
  0
ACDBDICTIONARYWDFLT
  5
E
102
{ACAD_REACTORS
330
C
102
}
100
AcDbDictionary
281
1
  3
Normal
350
F
100
AcDbDictionaryWithDefault
340
F
  0
DICTIONARY
  5
17
102
{ACAD_REACTORS
330
C
102
}
100
AcDbDictionary
280
0
281
1
  3
Standard
350
18
  0
DICTIONARY
  5
19
102
{ACAD_REACTORS
330
C
102
}
100
AcDbDictionary
281
1
  0
DICTIONARY
  5
1A
102
{ACAD_REACTORS
330
C
102
}
100
AcDbDictionary
281
1
  3
Model
350
527
  3
Layout1
350
528
  0
ACDBPLACEHOLDER
  5
F
102
{ACAD_REACTORS
330
E
102
}
  0
MLINESTYLE
  5
18
102
{ACAD_REACTORS
330
17
102
}
100
AcDbMlineStyle
  2
STANDARD
 70
0
  3

 62
256
 51
90.0
 52
90.0
 71
2
 49
0.5
 62
256
  6
BYLAYER
 49
-0.5
 62
256
  6
BYLAYER
  0
LAYOUT
  5
527
102
{ACAD_REACTORS
330
1A
102
}
100
AcDbPlotSettings
  1

  2
none_device
  4
ISO_A4_(297.00_x_210.00_MM)
  6

 40
0.0
 41
0.0
 42
0.0
 43
0.0
 44
297.0
 45
210.0
 46
0.0
 47
0.0
 48
0.0
 49
0.0
140
0.0
141
0.0
142
1.0
143
1.0
 70
1024
 72
1
 73
0
 74
0
  7

 75
0
147
1.0
148
0.0
149
0.0
100
AcDbLayout
  1
Model
 70
0
 71
0
 10
0.0
 20
0.0
 11
297.0
 21
210.0
 12
0.0
 22
0.0
 32
0.0
 14
0.0
 24
0.0
 34
0.0
 15
0.0
 25
0.0
 35
0.0
146
0.0
 13
0.0
 23
0.0
 33
0.0
 16
1.0
 26
0.0
 36
0.0
 17
0.0
 27
1.0
 37
0.0
 76
0
330
224
345
0
346
0
  0
LAYOUT
  5
528
102
{ACAD_REACTORS
330
1A
102
}
100
AcDbPlotSettings
  1

  2
none_device
  4
ISO_A4_(297.00_x_210.00_MM)
  6

 40
0.0
 41
0.0
 42
0.0
 43
0.0
 44
297.0
 45
210.0
 46
0.0
 47
0.0
 48
0.0
 49
0.0
140
0.0
141
0.0
142
1.0
143
1.0
 70
0
 72
1
 73
0
 74
0
  7

 75
0
147
1.0
148
0.0
149
0.0
100
AcDbLayout
  1
Layout1
 70
0
 71
1
 10
0.0
 20
0.0
 11
297.0
 21
210.0
 12
0.0
 22
0.0
 32
0.0
 14
0.0
 24
0.0
 34
0.0
 15
0.0
 25
0.0
 35
0.0
146
0.0
 13
0.0
 23
0.0
 33
0.0
 16
1.0
 26
0.0
 36
0.0
 17
0.0
 27
1.0
 37
0.0
 76
0
330
225
345
0
346
0
  0
ENDSEC
  0
EOF
