  0
SECTION
  2
HEADER
  9
$ACADVER
  1
AC1024
  9
$DWGCODEPAGE
  3
ANSI_1252
  9
$EXTMAX
 10
297.0
 20
210.0
 30
0.0
  9
$EXTMIN
 10
0.0
 20
0.0
 30
0.0
  9
$LIMMIN
 10
0.0
 20
0.0
  9
$LIMMAX
 10
297.0
 20
210.0
  9
$VIEWCTR
 10
148.5
 20
105.0
  9
$VIEWSIZE
 40
210.0
  9
$CLAYER
  8
0
  9
$LTSCALE
 40
16.335
  9
$CELTYPE
  6
BYLAYER
  9
$DIMSCALE
 40
1.0
  9
$DIMASZ
 40
3.0
  9
$DIMEXO
 40
0.5
  9
$DIMDLI
 40
11.286
  9
$DIMEXE
 40
1.5
  9
$DIMCEN
 40
2.673
  9
$DIMLFAC
 40
1.0
  9
$DIMBLK
  1
_FILLED
  9
$DIMALT
 70
0
  9
$DIMALTF
 40
0.0393700787
  9
$DIMTXT
 40
3.0
  9
$DIMTOL
 70
1
  9
$DIMLIM
 70
0
  9
$DIMTFAC
 40
1.0
  9
$DIMTP
 40
0.01
  9
$DIMTM
 40
0.01
  9
$DIMGAP
 40
0.625
  9
$DIMDSEP
 70
44
  9
$AUNITS
 70
0
  9
$PDMODE
 70
3
  9
$PDSIZE
 40
3.0
  9
$HANDSEED
  5
60B
  9
$TILEMODE
 70
1
  9
$MEASUREMENT
 70
1
  9
$INSUNITS
 70
4
  0
ENDSEC
  0
SECTION
  2
CLASSES
  0
CLASS
  1
ACDBDICTIONARYWDFLT
  2
AcDbDictionaryWithDefault
  3
AutoCAD 2000
 90
0
 91
1
280
0
281
0
  0
CLASS
  1
ACDBPLACEHOLDER
  2
AcDbPlaceHolder
  3
AutoCAD 2000
 90
0
 91
1
280
0
281
0
  0
CLASS
  1
LAYOUT
  2
AcDbLayout
  3
AutoCAD 2000
 90
0
 91
0
280
0
281
0
  0
ENDSEC
  0
SECTION
  2
TABLES
  0
TABLE
  2
VPORT
  5
8
100
AcDbSymbolTable
 70
2
  0
VPORT
  5
1F4
100
AcDbSymbolTableRecord
100
AcDbViewportTableRecord
  2
*ACTIVE
 70
0
 10
0.0
 20
0.0
 11
1.0
 21
1.0
 12
148.5
 22
105.0
 13
0.0
 23
0.0
 14
1.0
 24
1.0
 15
0.0
 25
0.0
 16
0.0
 26
0.0
 36
1.0
 17
0.0
 27
0.0
 37
0.0
 40
210.0
 41
1.4142857143
 42
50.0
 43
0.0
 44
0.0
 50
0.0
 51
0.0
 71
0
 72
100
 73
1
 74
1
 75
0
 76
0
 77
0
 78
0
  0
ENDTAB
  0
TABLE
  2
LTYPE
  5
5
100
AcDbSymbolTable
 70
6
  0
LTYPE
  5
14
100
AcDbSymbolTableRecord
100
AcDbLinetypeTableRecord
  2
BYBLOCK
 70
0
  3

 72
65
 73
0
 40
0.0
  0
LTYPE
  5
15
100
AcDbSymbolTableRecord
100
AcDbLinetypeTableRecord
  2
BYLAYER
 70
0
  3

 72
65
 73
0
 40
0.0
  0
LTYPE
  5
16
100
AcDbSymbolTableRecord
100
AcDbLinetypeTableRecord
  2
CONTINUOUS
 70
64
  3
Solid line
 72
65
 73
0
 40
0.0
  0
LTYPE
  5
1F5
100
AcDbSymbolTableRecord
100
AcDbLinetypeTableRecord
  2
CENTER
 70
64
  3
____ _ ____ _ ____ _ ____ _ ____ _ ____ _ ____
 72
65
 73
4
 40
0.6
 49
0.375
 74
0
 49
-0.075
 74
0
 49
0.075
 74
0
 49
-0.075
 74
0
  0
LTYPE
  5
1F6
100
AcDbSymbolTableRecord
100
AcDbLinetypeTableRecord
  2
HIDDEN
 70
64
  3
- - - - - - - - - - - - - - - - - - - -
 72
65
 73
2
 40
0.2
 49
0.1
 74
0
 49
-0.1
 74
0
  0
LTYPE
  5
1F7
100
AcDbSymbolTableRecord
100
AcDbLinetypeTableRecord
  2
PHANTOM
 70
64
  3
_____ _ _ _____ _ _ _____ _ _ _____
 72
65
 73
6
 40
0.8
 49
0.45
 74
0
 49
-0.05
 74
0
 49
0.1
 74
0
 49
-0.05
 74
0
 49
0.1
 74
0
 49
-0.05
 74
0
  0
LTYPE
  5
1F8
100
AcDbSymbolTableRecord
100
AcDbLinetypeTableRecord
  2
DOT
 70
64
  3
. . . . . . . . . . . . . . . . . . . .
 72
65
 73
2
 40
0.2
 49
0.1
 74
0
 49
-0.1
 74
0
  0
LTYPE
  5
1F9
100
AcDbSymbolTableRecord
100
AcDbLinetypeTableRecord
  2
DASHED
 70
64
  3
- - - - - - - - - - - - - - - - - - - -
 72
65
 73
2
 40
0.2
 49
0.1
 74
0
 49
-0.1
 74
0
  0
ENDTAB
  0
TABLE
  2
LAYER
  5
2
100
AcDbSymbolTable
 70
36
  0
LAYER
  5
10
100
AcDbSymbolTableRecord
100
AcDbLayerTableRecord
  2
0
 70
0
 62
7
  6
CONTINUOUS
370
-3
390
F
  0
LAYER
  5
1FA
100
AcDbSymbolTableRecord
100
AcDbLayerTableRecord
  2
DEFAULT_1
 70
0
 62
7
  6
CENTER
370
-3
390
F
  0
LAYER
  5
1FB
100
AcDbSymbolTableRecord
100
AcDbLayerTableRecord
  2
DEFAULT_2
 70
0
 62
7
  6
HIDDEN
370
-3
390
F
  0
LAYER
  5
1FC
100
AcDbSymbolTableRecord
100
AcDbLayerTableRecord
  2
DEFAULT_3
 70
0
 62
7
  6
PHANTOM
370
-3
390
F
  0
LAYER
  5
1FD
100
AcDbSymbolTableRecord
100
AcDbLayerTableRecord
  2
ASSI
 70
0
 62
7
  6
CONTINUOUS
370
-3
390
F
  0
LAYER
  5
1FE
100
AcDbSymbolTableRecord
100
AcDbLayerTableRecord
  2
COLORE_TOP
 70
0
 62
7
  6
CONTINUOUS
370
-3
390
F
  0
LAYER
  5
1FF
100
AcDbSymbolTableRecord
100
AcDbLayerTableRecord
  2
COORDINATE
 70
0
 62
7
  6
CONTINUOUS
370
-3
390
F
  0
LAYER
  5
200
100
AcDbSymbolTableRecord
100
AcDbLayerTableRecord
  2
COORD_ORIGINE
 70
0
 62
7
  6
CONTINUOUS
370
-3
390
F
  0
LAYER
  5
201
100
AcDbSymbolTableRecord
100
AcDbLayerTableRecord
  2
COPY_PUBLISH
 70
0
 62
7
  6
CONTINUOUS
370
-3
390
F
  0
LAYER
  5
202
100
AcDbSymbolTableRecord
100
AcDbLayerTableRecord
  2
COSMETIC
 70
0
 62
7
  6
CONTINUOUS
370
-3
390
F
  0
LAYER
  5
203
100
AcDbSymbolTableRecord
100
AcDbLayerTableRecord
  2
COSMETICHE
 70
0
 62
7
  6
CONTINUOUS
370
-3
390
F
  0
LAYER
  5
204
100
AcDbSymbolTableRecord
100
AcDbLayerTableRecord
  2
COSMETICI
 70
0
 62
7
  6
CONTINUOUS
370
-3
390
F
  0
LAYER
  5
205
100
AcDbSymbolTableRecord
100
AcDbLayerTableRecord
  2
CURVE
 70
0
 62
7
  6
CONTINUOUS
370
-3
390
F
  0
LAYER
  5
206
100
AcDbSymbolTableRecord
100
AcDbLayerTableRecord
  2
DRAFT
 70
0
 62
7
  6
CONTINUOUS
370
-3
390
F
  0
LAYER
  5
207
100
AcDbSymbolTableRecord
100
AcDbLayerTableRecord
  2
IMPIANTO
 70
0
 62
7
  6
CONTINUOUS
370
-3
390
F
  0
LAYER
  5
208
100
AcDbSymbolTableRecord
100
AcDbLayerTableRecord
  2
IMPORT
 70
0
 62
7
  6
CONTINUOUS
370
-3
390
F
  0
LAYER
  5
209
100
AcDbSymbolTableRecord
100
AcDbLayerTableRecord
  2
IMPORTED
 70
0
 62
7
  6
CONTINUOUS
370
-3
390
F
  0
LAYER
  5
20A
100
AcDbSymbolTableRecord
100
AcDbLayerTableRecord
  2
IMPORT_IGES
 70
0
 62
7
  6
CONTINUOUS
370
-3
390
F
  0
LAYER
  5
20B
100
AcDbSymbolTableRecord
100
AcDbLayerTableRecord
  2
INCISIONI_LASER
 70
0
 62
7
  6
CONTINUOUS
370
-3
390
F
  0
LAYER
  5
20C
100
AcDbSymbolTableRecord
100
AcDbLayerTableRecord
  2
INTFCLR_11
 70
0
 62
7
  6
CONTINUOUS
370
-3
390
F
  0
LAYER
  5
20D
100
AcDbSymbolTableRecord
100
AcDbLayerTableRecord
  2
INTFCLR_3
 70
0
 62
7
  6
CONTINUOUS
370
-3
390
F
  0
LAYER
  5
20E
100
AcDbSymbolTableRecord
100
AcDbLayerTableRecord
  2
INTF_1
 70
0
 62
7
  6
CONTINUOUS
370
-3
390
F
  0
LAYER
  5
20F
100
AcDbSymbolTableRecord
100
AcDbLayerTableRecord
  2
INTF_11
 70
0
 62
7
  6
CONTINUOUS
370
-3
390
F
  0
LAYER
  5
210
100
AcDbSymbolTableRecord
100
AcDbLayerTableRecord
  2
INTF_12
 70
0
 62
7
  6
CONTINUOUS
370
-3
390
F
  0
LAYER
  5
211
100
AcDbSymbolTableRecord
100
AcDbLayerTableRecord
  2
INTF_2
 70
0
 62
7
  6
CONTINUOUS
370
-3
390
F
  0
LAYER
  5
212
100
AcDbSymbolTableRecord
100
AcDbLayerTableRecord
  2
INTF_3
 70
0
 62
7
  6
CONTINUOUS
370
-3
390
F
  0
LAYER
  5
213
100
AcDbSymbolTableRecord
100
AcDbLayerTableRecord
  2
NOTE
 70
0
 62
7
  6
CONTINUOUS
370
-3
390
F
  0
LAYER
  5
214
100
AcDbSymbolTableRecord
100
AcDbLayerTableRecord
  2
PIANI
 70
0
 62
7
  6
CONTINUOUS
370
-3
390
F
  0
LAYER
  5
215
100
AcDbSymbolTableRecord
100
AcDbLayerTableRecord
  2
PIANI_ORIGINE
 70
0
 62
7
  6
CONTINUOUS
370
-3
390
F
  0
LAYER
  5
216
100
AcDbSymbolTableRecord
100
AcDbLayerTableRecord
  2
PIANI_RIFERIMENTO
 70
0
 62
7
  6
CONTINUOUS
370
-3
390
F
  0
LAYER
  5
217
100
AcDbSymbolTableRecord
100
AcDbLayerTableRecord
  2
PIANI_SFORMO
 70
0
 62
7
  6
CONTINUOUS
370
-3
390
F
  0
LAYER
  5
218
100
AcDbSymbolTableRecord
100
AcDbLayerTableRecord
  2
PUNTI
 70
0
 62
7
  6
CONTINUOUS
370
-3
390
F
  0
LAYER
  5
219
100
AcDbSymbolTableRecord
100
AcDbLayerTableRecord
  2
RACCORDO
 70
0
 62
7
  6
CONTINUOUS
370
-3
390
F
  0
LAYER
  5
21A
100
AcDbSymbolTableRecord
100
AcDbLayerTableRecord
  2
RGB__255__255__255__
 70
0
 62
7
  6
CONTINUOUS
370
-3
390
F
  0
LAYER
  5
21B
100
AcDbSymbolTableRecord
100
AcDbLayerTableRecord
  2
RINTRACCIABILITA
 70
0
 62
7
  6
CONTINUOUS
370
-3
390
F
  0
LAYER
  5
21C
100
AcDbSymbolTableRecord
100
AcDbLayerTableRecord
  2
SIMBOLI
 70
0
 62
7
  6
CONTINUOUS
370
-3
390
F
  0
LAYER
  5
21D
100
AcDbSymbolTableRecord
100
AcDbLayerTableRecord
  2
SMUSSO
 70
0
 62
7
  6
CONTINUOUS
370
-3
390
F
  0
LAYER
  5
21E
100
AcDbSymbolTableRecord
100
AcDbLayerTableRecord
  2
SNAPLINE
 70
0
 62
7
  6
CONTINUOUS
370
-3
390
F
  0
LAYER
  5
21F
100
AcDbSymbolTableRecord
100
AcDbLayerTableRecord
  2
SUPERFICI
 70
0
 62
7
  6
CONTINUOUS
370
-3
390
F
  0
LAYER
  5
220
100
AcDbSymbolTableRecord
100
AcDbLayerTableRecord
  2
TRASH
 70
0
 62
7
  6
CONTINUOUS
370
-3
390
F
  0
LAYER
  5
221
100
AcDbSymbolTableRecord
100
AcDbLayerTableRecord
  2
WHITE
 70
0
 62
7
  6
CONTINUOUS
370
-3
390
F
  0
LAYER
  5
222
100
AcDbSymbolTableRecord
100
AcDbLayerTableRecord
  2
XSEC_DATUMS
 70
0
 62
7
  6
CONTINUOUS
370
-3
390
F
  0
LAYER
  5
223
100
AcDbSymbolTableRecord
100
AcDbLayerTableRecord
  2
___SHELL
 70
0
 62
7
  6
CONTINUOUS
370
-3
390
F
  0
ENDTAB
  0
TABLE
  2
STYLE
  5
3
100
AcDbSymbolTable
 70
1
  0
STYLE
  5
11
100
AcDbSymbolTableRecord
100
AcDbTextStyleTableRecord
  2
STANDARD
 70
0
 40
0.0
 41
0.8
 50
0.0
 71
0
 42
0.2
  3
txt
  4

  0
STYLE
  5
224
100
AcDbSymbolTableRecord
100
AcDbTextStyleTableRecord
  2
TEXTSTYLE_1
 70
0
 40
0.0
 41
0.8
 50
0.0
 71
0
 42
0.2
  3
gdt
  4

  0
ENDTAB
  0
TABLE
  2
VIEW
  5
6
100
AcDbSymbolTable
 70
0
  0
ENDTAB
  0
TABLE
  2
UCS
  5
7
100
AcDbSymbolTable
 70
0
  0
ENDTAB
  0
TABLE
  2
APPID
  5
9
100
AcDbSymbolTable
 70
1
  0
APPID
  5
225
100
AcDbSymbolTableRecord
100
AcDbRegAppTableRecord
  2
ACAD
 70
0
  0
ENDTAB
  0
TABLE
  2
BLOCK_RECORD
  5
1
100
AcDbSymbolTable
 70
0
  0
BLOCK_RECORD
  5
226
100
AcDbSymbolTableRecord
100
AcDbBlockTableRecord
  2
*Model_Space
  0
BLOCK_RECORD
  5
227
100
AcDbSymbolTableRecord
100
AcDbBlockTableRecord
  2
*Paper_Space
  0
BLOCK_RECORD
  5
228
100
AcDbSymbolTableRecord
100
AcDbBlockTableRecord
  2
_FILLED
  0
ENDTAB
  0
TABLE
  2
DIMSTYLE
  5
A
100
AcDbSymbolTable
 70
1
100
AcDbDimStyleTable
 71
0
  0
DIMSTYLE
105
229
100
AcDbSymbolTableRecord
100
AcDbDimStyleTableRecord
  2
STANDARD
 70
0
  3

  4

 40
1.0
 41
3.0
 42
0.5
 43
0.38
 44
1.5
 45
0.0
 46
0.0
 47
0.01
 48
0.01
140
3.0
141
0.09
142
0.0
143
25.4
144
1.0
145
0.0
146
1.0
147
0.625
 71
1
 72
0
 73
0
 74
0
 75
0
 76
0
 77
1
 78
8
 79
2
170
0
171
1
172
0
173
0
174
0
175
0
176
0
177
0
178
0
270
2
179
2
271
2
272
2
273
2
274
2
275
0
280
0
281
0
282
0
283
1
284
8
285
0
286
0
287
3
288
0
340
11
278
44
341
228
342
228
343
228
344
228
  0
ENDTAB
  0
ENDSEC
  0
SECTION
  2
BLOCKS
  0
BLOCK
  5
20
100
AcDbEntity
  8
0
100
AcDbBlockBegin
  2
*Model_Space
 70
0
 10
0.0
 20
0.0
 30
0.0
  3
*Model_Space
  1

  0
ENDBLK
  5
21
100
AcDbEntity
  8
0
100
AcDbBlockEnd
  0
BLOCK
  5
1C
100
AcDbEntity
  8
0
100
AcDbBlockBegin
  2
*Paper_Space
 70
0
 10
0.0
 20
0.0
 30
0.0
  3
*Paper_Space
  1

  0
ENDBLK
  5
1D
100
AcDbEntity
  8
0
100
AcDbBlockEnd
  0
BLOCK
  5
22A
100
AcDbEntity
  8
0
100
AcDbBlockBegin
  2
_FILLED
 70
64
 10
0.0
 20
0.0
  3
_FILLED
  1

  0
SOLID
  5
22B
100
AcDbEntity
  8
0
  6
BYBLOCK
 62
0
100
AcDbTrace
 10
0.0
 20
0.0
 11
-1.0
 21
0.3166666667
 12
-1.0
 22
-0.3166666667
 13
-1.0
 23
-0.3166666667
  0
ENDBLK
  5
22C
100
AcDbEntity
  8
0
  6
BYBLOCK
 62
0
100
AcDbBlockEnd
  0
ENDSEC
  0
SECTION
  2
ENTITIES
  0
LWPOLYLINE
  5
22D
100
AcDbEntity
  8
ASSI
100
AcDbPolyline
 62
7
  6
CONTINUOUS
 90
12
 70
0
 10
-14.6916362342
 20
30.8679445718
 10
-14.7101598757
 20
30.8568781547
 10
-14.7313692639
 20
30.8412367986
 10
-14.7511809311
 20
30.8231629817
 10
-14.7693414847
 20
30.8028259055
 10
-14.7851927711
 20
30.7810647604
 10
-14.7990040482
 20
30.7576321359
 10
-14.8107242215
 20
30.7324247418
 10
-14.8197710672
 20
30.7066366118
 10
-14.8261430053
 20
30.6805740361
 10
-14.8299401641
 20
30.6535598474
 10
-14.830944385
 20
30.630857702
  0
LINE
  5
22E
100
AcDbEntity
  8
ASSI
100
AcDbLine
 62
7
  6
CONTINUOUS
 10
-14.691777347
 20
30.8678692467
 11
-13.1245768565
 21
31.7134098655
  0
LINE
  5
22F
100
AcDbEntity
  8
ASSI
100
AcDbLine
 62
250
  6
CONTINUOUS
 10
-14.5992807259
 20
30.8637977018
 11
-13.0330299797
 21
31.7088259118
  0
LINE
  5
230
100
AcDbEntity
  8
ASSI
100
AcDbLine
 62
7
  6
CONTINUOUS
 10
-13.1203690197
 20
31.7155157432
 11
-13.1245345232
 21
31.7134327053
  0
LWPOLYLINE
  5
231
100
AcDbEntity
  8
ASSI
100
AcDbPolyline
 62
250
  6
CONTINUOUS
 90
7
 70
0
 10
-14.6916364908
 20
30.8679450492
 10
-14.6863372084
 20
30.8705284545
 10
-14.6708711401
 20
30.8754708481
 10
-14.6541383999
 20
30.8772727072
 10
-14.636425179
 20
30.8759032135
 10
-14.6180344381
 20
30.8713857902
 10
-14.5992807259
 20
30.8637977018
  0
LINE
  5
232
100
AcDbEntity
  8
ASSI
100
AcDbLine
 62
250
  6
CONTINUOUS
 10
-13.0330299797
 20
31.7088259118
 11
-12.490303917
 21
31.9594747929
  0
LINE
  5
233
100
AcDbEntity
  8
ASSI
100
AcDbLine
 62
7
  6
CONTINUOUS
 10
-13.1203111799
 20
31.7155425332
 11
-12.5764098215
 21
31.9667337791
  0
LWPOLYLINE
  5
234
100
AcDbEntity
  8
ASSI
100
AcDbPolyline
 62
250
  6
CONTINUOUS
 90
14
 70
0
 10
-12.490303917
 20
31.9594747929
 10
-12.4817410175
 20
31.9632911566
 10
-12.4729593871
 20
31.9666774582
 10
-12.4639840035
 20
31.9695787452
 10
-12.454822207
 20
31.9719435843
 10
-12.4455285086
 20
31.9737072163
 10
-12.4362018662
 20
31.9748072945
 10
-12.4268791183
 20
31.9752008907
 10
-12.4176003918
 20
31.9748462791
 10
-12.4084666857
 20
31.9737134298
 10
-12.3995171466
 20
31.9717794915
 10
-12.3907928246
 20
31.9690244163
 10
-12.3823882779
 20
31.9654566439
 10
-12.3812136066
 20
31.9648795797
  0
LINE
  5
235
100
AcDbEntity
  8
ASSI
100
AcDbLine
 62
7
  6
CONTINUOUS
 10
-12.5532764126
 20
31.9759548365
 11
-12.5764097524
 21
31.9667336284
  0
LWPOLYLINE
  5
236
100
AcDbEntity
  8
ASSI
100
AcDbPolyline
 62
250
  6
CONTINUOUS
 90
6
 70
0
 10
-12.5764098215
 20
31.9667337791
 10
-12.5600885181
 20
31.9720508628
 10
-12.5436491379
 20
31.97370605
 10
-12.52633957
 20
31.9721347308
 10
-12.5084558707
 20
31.9673637787
 10
-12.490303917
 20
31.9594747929
  0
LWPOLYLINE
  5
237
100
AcDbEntity
  8
ASSI
100
AcDbPolyline
 62
250
  6
CONTINUOUS
 90
11
 70
0
 10
-14.6975670692
 20
30.7749127718
 10
-14.6887809793
 20
30.7864608135
 10
-14.6796782955
 20
30.7975014105
 10
-14.6702881817
 20
30.8080027145
 10
-14.6606402059
 20
30.8179332877
 10
-14.6507687545
 20
30.8272592775
 10
-14.6407096593
 20
30.8359483131
 10
-14.630495146
 20
30.8439731465
 10
-14.6201603052
 20
30.8513066048
 10
-14.609743159
 20
30.8579224059
 10
-14.5992807259
 20
30.8637977018
  0
LINE
  5
238
100
AcDbEntity
  8
ASSI
100
AcDbLine
 62
7
  6
CONTINUOUS
 10
-13.8703607781
 20
29.7495907801
 11
-13.8368973648
 21
29.7751723283
  0
LWPOLYLINE
  5
239
100
AcDbEntity
  8
RACCORDO
100
AcDbPolyline
 62
250
  6
CONTINUOUS
 90
20
 70
0
 10
-18.0615939381
 20
26.9933915268
 10
-18.1216111284
 20
26.9520329564
 10
-18.1807936978
 20
26.9058601535
 10
-18.2388416449
 20
26.8551096297
 10
-18.2954859891
 20
26.8000456079
 10
-18.3504313487
 20
26.7409414657
 10
-18.4033828713
 20
26.6780976449
 10
-18.4540856803
 20
26.6118486958
 10
-18.5022728455
 20
26.5425317134
 10
-18.5476896178
 20
26.4704954716
 10
-18.5901196622
 20
26.3961161584
 10
-18.6293414891
 20
26.319770688
 10
-18.6651462548
 20
26.2418463381
 10
-18.6973622869
 20
26.1627502411
 10
-18.7258205161
 20
26.0828912007
 10
-18.750372297
 20
26.0026683372
 10
-18.7709043242
 20
25.9224804342
 10
-18.7873117366
 20
25.8427327634
 10
-18.7995013288
 20
25.7638351463
 10
-18.8074074723
 20
25.6861906016
  0
LINE
  5
23A
100
AcDbEntity
  8
ASSI
100
AcDbLine
 62
7
  6
CONTINUOUS
 10
-14.4782877618
 20
29.3740913786
 11
-14.1160814065
 21
29.5888080998
  0
LINE
  5
23B
100
AcDbEntity
  8
ASSI
100
AcDbLine
 62
250
  6
CONTINUOUS
 10
-14.2430342807
 20
29.3664348403
 11
-14.1160814065
 21
29.4416927823
  0
LWPOLYLINE
  5
23C
100
AcDbEntity
  8
RACCORDO
100
AcDbPolyline
 62
7
  6
CONTINUOUS
 90
18
 70
0
 10
-18.1710226079
 20
27.0716750596
 10
-18.2489017468
 20
27.0290494961
 10
-18.3219152614
 20
26.9812029604
 10
-18.3933654238
 20
26.9263364407
 10
-18.462517899
 20
26.86488286
 10
-18.5277463341
 20
26.7984209393
 10
-18.5886893232
 20
26.7277310116
 10
-18.6456414403
 20
26.6528042827
 10
-18.6981159329
 20
26.5744962044
 10
-18.7459538298
 20
26.4933563284
 10
-18.7891480957
 20
26.409574984
 10
-18.8274901422
 20
26.323655891
 10
-18.8608416238
 20
26.2359505931
 10
-18.8890210588
 20
26.146759597
 10
-18.9118171769
 20
26.0564688734
 10
-18.9289974478
 20
25.9653359284
 10
-18.9402986388
 20
25.8736419248
 10
-18.9420944866
 20
25.851706115
  0
LINE
  5
23D
100
AcDbEntity
  8
ASSI
100
AcDbLine
 62
7
  6
CONTINUOUS
 10
-11.6727174914
 20
28.2661165535
 11
-10.7702667407
 21
28.7587909444
  0
LWPOLYLINE
  5
23E
100
AcDbEntity
  8
RACCORDO
100
AcDbPolyline
 62
250
  6
CONTINUOUS
 90
3
 70
0
 10
-17.9403661733
 20
27.0608666382
 10
-18.0010721554
 20
27.0297303733
 10
-18.0615939381
 20
26.9933915268
  0
LINE
  5
23F
100
AcDbEntity
  8
ASSI
100
AcDbLine
 62
250
  6
CONTINUOUS
 10
-12.5335666845
 20
29.8309406811
 11
-10.9116665578
 21
30.6481442009
  0
LINE
  5
240
100
AcDbEntity
  8
ASSI
100
AcDbLine
 62
250
  6
CONTINUOUS
 10
-12.3921668674
 20
29.5870620718
 11
-10.7702667407
 21
30.4042655915
  0
LINE
  5
241
100
AcDbEntity
  8
ASSI
100
AcDbLine
 62
250
  6
CONTINUOUS
 10
-10.9116665578
 20
30.6481442009
 11
-10.3875620913
 21
30.90810388
  0
LINE
  5
242
100
AcDbEntity
  8
ASSI
100
AcDbLine
 62
250
  6
CONTINUOUS
 10
-10.7702667407
 20
30.4042655915
 11
-10.2461622742
 21
30.6642252707
  0
LINE
  5
243
100
AcDbEntity
  8
RACCORDO
100
AcDbLine
 62
7
  6
CONTINUOUS
 10
-14.9882004334
 20
28.6438603256
 11
-18.1710579353
 21
27.0716668674
  0
LINE
  5
244
100
AcDbEntity
  8
RACCORDO
100
AcDbLine
 62
250
  6
CONTINUOUS
 10
-14.7610666903
 20
28.6313025895
 11
-17.9403661732
 21
27.0608666382
  0
LINE
  5
245
100
AcDbEntity
  8
ASSI
100
AcDbLine
 62
7
  6
CONTINUOUS
 10
-3.0549428718
 20
32.5250986719
 11
-10.1021310256
 21
29.1167133383
  0
LWPOLYLINE
  5
246
100
AcDbEntity
  8
ASSI
100
AcDbPolyline
 62
250
  6
CONTINUOUS
 90
28
 70
0
 10
-10.2461622742
 20
30.6642252707
 10
-10.2444586144
 20
30.6650320653
 10
-10.2427258131
 20
30.6657284926
 10
-10.2409638703
 20
30.6663145524
 10
-10.2391618629
 20
30.6668005982
 10
-10.237330714
 20
30.6671762765
 10
-10.2355031931
 20
30.6674105278
 10
-10.2336787018
 20
30.6674987754
 10
-10.2318578386
 20
30.6674455958
 10
-10.2300751685
 20
30.6672336586
 10
-10.2283316962
 20
30.6668575566
 10
-10.2266264169
 20
30.6663226969
 10
-10.2249908814
 20
30.6656279707
 10
-10.22342823
 20
30.6647693801
 10
-10.2219353223
 20
30.6637509229
 10
-10.2205342874
 20
30.6625834838
 10
-10.2192279182
 20
30.6612654155
 10
-10.2180134219
 20
30.6597983653
 10
-10.2169045481
 20
30.6581981597
 10
-10.2159026779
 20
30.6564634464
 10
-10.2150064304
 20
30.6545955777
 10
-10.2142254119
 20
30.6526144373
 10
-10.2135608984
 20
30.6505187171
 10
-10.2130116139
 20
30.6483097252
 10
-10.212583337
 20
30.6460112694
 10
-10.2122779938
 20
30.6436312858
 10
-10.2120936582
 20
30.6411618382
 10
-10.2120303302
 20
30.6386029268
  0
LINE
  5
247
100
AcDbEntity
  8
ASSI
100
AcDbLine
 62
7
  6
CONTINUOUS
 10
-4.7074071601
 20
30.9629132179
 11
-8.7580748214
 21
29.0921806574
  0
LWPOLYLINE
  5
248
100
AcDbEntity
  8
ASSI
100
AcDbPolyline
 62
250
  6
CONTINUOUS
 90
14
 70
0
 10
-10.3875620913
 20
30.90810388
 10
-10.3789719169
 20
30.9119870424
 10
-10.3701768974
 20
30.915425308
 10
-10.3612024589
 20
30.9183654165
 10
-10.3520566546
 20
30.9207579932
 10
-10.3427937292
 20
30.9225402534
 10
-10.3335113419
 20
30.9236517878
 10
-10.3242459935
 20
30.9240522365
 10
-10.3150373284
 20
30.9237025452
 10
-10.3059844267
 20
30.922575072
 10
-10.2971265087
 20
30.9206501516
 10
-10.2885021265
 20
30.9179105581
 10
-10.2802000512
 20
30.9143656846
 10
-10.2792286472
 20
30.9138871002
  0
LINE
  5
249
100
AcDbEntity
  8
ASSI
100
AcDbLine
 62
7
  6
CONTINUOUS
 10
-4.6719459236
 20
30.9772277195
 11
-4.7075477625
 21
30.9628442154
  0
LWPOLYLINE
  5
24A
100
AcDbEntity
  8
ASSI
100
AcDbPolyline
 62
7
  6
CONTINUOUS
 90
3
 70
0
 10
-8.7581445785
 20
29.0921484412
 10
-8.7373477407
 20
29.0989762828
 10
-8.7166141186
 20
29.101129772
  0
LWPOLYLINE
  5
24B
100
AcDbEntity
  8
ASSI
100
AcDbPolyline
 62
7
  6
CONTINUOUS
 90
12
 70
0
 10
-11.6727174914
 20
29.0243169996
 10
-11.6947502276
 20
29.0036722405
 10
-11.7186380192
 20
28.9844071464
 10
-11.7442052575
 20
28.966914549
 10
-11.7714055078
 20
28.9515622899
 10
-11.7998201398
 20
28.9387089312
 10
-11.828635186
 20
28.9286403579
 10
-11.8574648635
 20
28.9215430724
 10
-11.8860134261
 20
28.9175954479
 10
-11.9135505036
 20
28.9168544437
 10
-11.9396050817
 20
28.9192467728
 10
-11.9504124948
 20
28.9212367708
  0
LWPOLYLINE
  5
24C
100
AcDbEntity
  8
ASSI
100
AcDbPolyline
 62
250
  6
CONTINUOUS
 90
13
 70
0
 10
-8.8598276385
 20
28.9700241391
 10
-8.8780594511
 20
28.9590691589
 10
-8.8959448978
 20
28.9454203889
 10
-8.913184707
 20
28.9293062098
 10
-8.9294904102
 20
28.910996255
 10
-8.9445891693
 20
28.8907968994
 10
-8.9582283413
 20
28.8690461326
 10
-8.9701797063
 20
28.8461079033
 10
-8.9802432857
 20
28.8223660298
 10
-8.9882506888
 20
28.7982177775
 10
-8.9940679302
 20
28.7740672116
 10
-8.9975976719
 20
28.750318436
 10
-8.9987808517
 20
28.7273688317
  0
LWPOLYLINE
  5
24D
100
AcDbEntity
  8
ASSI
100
AcDbPolyline
 62
250
  6
CONTINUOUS
 90
13
 70
0
 10
-6.6398791499
 20
27.8600498948
 10
-6.6581109746
 20
27.8490949063
 10
-6.6759964307
 20
27.8354461263
 10
-6.6932362463
 20
27.8193319367
 10
-6.709541953
 20
27.8010219721
 10
-6.7246407125
 20
27.7808226085
 10
-6.7382798821
 20
27.7590718367
 10
-6.7502312423
 20
27.7361336064
 10
-6.7602948156
 20
27.712391736
 10
-6.7683022122
 20
27.688243491
 10
-6.7741194476
 20
27.6640929363
 10
-6.777649185
 20
27.6403441751
 10
-6.7788323631
 20
27.6173945874
  0
LWPOLYLINE
  5
24E
100
AcDbEntity
  8
ASSI
100
AcDbPolyline
 62
7
  6
CONTINUOUS
 90
12
 70
0
 10
-8.9751537914
 20
28.9752716536
 10
-8.9775172469
 20
28.973978428
 10
-8.9977244766
 20
28.961270935
 10
-9.0165032307
 20
28.946374925
 10
-9.0335822083
 20
28.9294901386
 10
-9.0488512744
 20
28.9106900902
 10
-9.0620816825
 20
28.8901917696
 10
-9.0730701928
 20
28.8682833876
 10
-9.081741278
 20
28.8450591045
 10
-9.0879777016
 20
28.8206830885
 10
-9.0916493376
 20
28.7954808278
 10
-9.0927092462
 20
28.7725102428
  0
LINE
  5
24F
100
AcDbEntity
  8
ASSI
100
AcDbLine
 62
7
  6
CONTINUOUS
 10
-8.7634069172
 20
29.0895148228
 11
-8.9752017524
 21
28.9752466502
  0
LINE
  5
250
100
AcDbEntity
  8
ASSI
100
AcDbLine
 62
250
  6
CONTINUOUS
 10
-8.6489733211
 20
29.0837848806
 11
-8.8598276385
 21
28.9700241391
  0
LWPOLYLINE
  5
251
100
AcDbEntity
  8
ASSI
100
AcDbPolyline
 62
250
  6
CONTINUOUS
 90
9
 70
0
 10
-4.2464072147
 20
30.5619497181
 10
-4.220040832
 20
30.5760587105
 10
-4.1968657157
 20
30.5914315225
 10
-4.1771310131
 20
30.6079003017
 10
-4.1610496635
 20
30.625284265
 10
-4.1487912763
 20
30.6433958003
 10
-4.1404841018
 20
30.6620431292
 10
-4.1362185796
 20
30.6810274604
 10
-4.1356244328
 20
30.6927303141
  0
LWPOLYLINE
  5
252
100
AcDbEntity
  8
ASSI
100
AcDbPolyline
 62
250
  6
CONTINUOUS
 90
31
 70
0
 10
-4.4200381543
 20
30.8626562671
 10
-4.4110377846
 20
30.867467877
 10
-4.4032478139
 20
30.8726091075
 10
-4.3966682423
 20
30.8780799587
 10
-4.3912490748
 20
30.8839491422
 10
-4.3870403064
 20
30.8901479463
 10
-4.384191922
 20
30.8964702361
 10
-4.382752818
 20
30.9029172767
 10
-4.3826740979
 20
30.909487803
 10
-4.3839590578
 20
30.9159718848
 10
-4.3866521081
 20
30.9223667562
 10
-4.3907088383
 20
30.9286751831
 10
-4.395999313
 20
30.9346955334
 10
-4.4025632361
 20
30.9404185168
 10
-4.4103609038
 20
30.9458534236
 10
-4.4191432689
 20
30.9508264924
 10
-4.4289421975
 20
30.9553228048
 10
-4.4397258236
 20
30.9593572794
 10
-4.4511495027
 20
30.9628009101
 10
-4.4632339156
 20
30.965634663
 10
-4.4759583815
 20
30.9678775722
 10
-4.4889162139
 20
30.9694577333
 10
-4.5021149703
 20
30.9703536517
 10
-4.5155470931
 20
30.9705868222
 10
-4.5287832236
 20
30.9701498246
 10
-4.5418181362
 20
30.9690207293
 10
-4.5546570565
 20
30.967221466
 10
-4.5668863017
 20
30.9648104036
 10
-4.5783679778
 20
30.9618069984
 10
-4.589239979
 20
30.9581917941
 10
-4.5995023052
 20
30.9539647907
  0
LINE
  5
253
100
AcDbEntity
  8
ASSI
100
AcDbLine
 62
250
  6
CONTINUOUS
 10
-6.6398791499
 20
27.8600498948
 11
-6.4215331125
 21
27.9700647763
  0
LINE
  5
254
100
AcDbEntity
  8
ASSI
100
AcDbLine
 62
250
  6
CONTINUOUS
 10
-6.4631293785
 20
27.5552016331
 11
-6.2447833412
 21
27.6652165147
  0
LINE
  5
255
100
AcDbEntity
  8
ASSI
100
AcDbLine
 62
7
  6
CONTINUOUS
 10
-8.7633526243
 20
29.0895440607
 11
-8.7581445785
 21
29.0921484412
  0
LINE
  5
256
100
AcDbEntity
  8
ASSI
100
AcDbLine
 62
7
  6
CONTINUOUS
 10
-1.1100844829
 20
30.059279484
 11
-2.1913278525
 21
29.5186577992
  0
LWPOLYLINE
  5
257
100
AcDbEntity
  8
ASSI
100
AcDbPolyline
 62
250
  6
CONTINUOUS
 90
13
 70
0
 10
-8.9751526749
 20
28.9752731111
 10
-8.9698731443
 20
28.9779077907
 10
-8.961235352
 20
28.9813833574
 10
-8.9522182532
 20
28.9840303797
 10
-8.9428569748
 20
28.9858389858
 10
-8.9331839074
 20
28.986803355
 10
-8.9232341993
 20
28.9869201729
 10
-8.9130439679
 20
28.9861890357
 10
-8.9026508621
 20
28.98461268
 10
-8.8920936856
 20
28.9821973345
 10
-8.8814113946
 20
28.978952271
 10
-8.8706428978
 20
28.974889507
 10
-8.8598276385
 20
28.9700241391
  0
LINE
  5
258
100
AcDbEntity
  8
ASSI
100
AcDbLine
 62
250
  6
CONTINUOUS
 10
-6.4215331125
 20
27.9700647763
 11
-5.768314348
 21
28.2940660991
  0
LINE
  5
259
100
AcDbEntity
  8
ASSI
100
AcDbLine
 62
250
  6
CONTINUOUS
 10
-6.2447833412
 20
27.6652165147
 11
-5.5870149297
 21
27.9914744959
  0
LINE
  5
25A
100
AcDbEntity
  8
ASSI
100
AcDbLine
 62
250
  6
CONTINUOUS
 10
-0.2016075895
 20
31.0984310307
 11
-2.4343168536
 21
30.030472775
  0
LINE
  5
25B
100
AcDbEntity
  8
ASSI
100
AcDbLine
 62
250
  6
CONTINUOUS
 10
-0.0626759154
 20
30.8563411954
 11
-2.1877184088
 21
29.8398825319
  0
LINE
  5
25C
100
AcDbEntity
  8
ASSI
100
AcDbLine
 62
250
  6
CONTINUOUS
 10
-7.7351183848
 20
29.2774681175
 11
-4.4200381543
 21
30.8626562671
  0
LINE
  5
25D
100
AcDbEntity
  8
ASSI
100
AcDbLine
 62
250
  6
CONTINUOUS
 10
-7.3428240143
 20
29.0813209322
 11
-4.2464072147
 21
30.5619497181
  0
LINE
  5
25E
100
AcDbEntity
  8
ASSI
100
AcDbLine
 62
7
  6
CONTINUOUS
 10
-3.1332711961
 20
29.8948854216
 11
-4.2339631734
 21
29.3685621482
  0
LINE
  5
25F
100
AcDbEntity
  8
SUPERFICI
100
AcDbLine
 62
7
  6
CONTINUOUS
 10
-3.0100605424
 20
28.9043356021
 11
-3.1481753446
 21
28.8390985167
  0
LINE
  5
260
100
AcDbEntity
  8
SUPERFICI
100
AcDbLine
 62
250
  6
CONTINUOUS
 10
-2.926526536
 20
28.8958365154
 11
-3.062802825
 21
28.8314678325
  0
LINE
  5
261
100
AcDbEntity
  8
ASSI
100
AcDbLine
 62
250
  6
CONTINUOUS
 10
-4.5995023052
 20
30.9539647907
 11
-8.6489733211
 21
29.0837848806
  0
LINE
  5
262
100
AcDbEntity
  8
SUPERFICI
100
AcDbLine
 62
7
  6
CONTINUOUS
 10
-3.010007027
 20
28.9043608795
 11
-3.0067989868
 21
28.9057765091
  0
LWPOLYLINE
  5
263
100
AcDbEntity
  8
SUPERFICI
100
AcDbPolyline
 62
7
  6
CONTINUOUS
 90
5
 70
0
 10
-3.1482938132
 20
28.8390416145
 10
-3.1434506485
 20
28.8410992387
 10
-3.1360242886
 20
28.8434171012
 10
-3.1278778705
 20
28.8449494658
 10
-3.1189595355
 20
28.8456003795
  0
LWPOLYLINE
  5
264
100
AcDbEntity
  8
ASSI
100
AcDbPolyline
 62
250
  6
CONTINUOUS
 90
13
 70
0
 10
-6.4631293785
 20
27.5552016331
 10
-6.4828627887
 20
27.5468365256
 10
-6.5045907064
 20
27.5398150377
 10
-6.5279495651
 20
27.5342546579
 10
-6.5525485083
 20
27.5302484262
 10
-6.5779759296
 20
27.5278633778
 10
-6.6038063597
 20
27.5271394209
 10
-6.6296075862
 20
27.5280886691
 10
-6.654947885
 20
27.5306952392
 10
-6.6794032449
 20
27.534915516
 10
-6.702564462
 20
27.5406788831
 10
-6.7240439867
 20
27.5478889038
 10
-6.7434824089
 20
27.5564249351
  0
LINE
  5
265
100
AcDbEntity
  8
SUPERFICI
100
AcDbLine
 62
7
  6
CONTINUOUS
 10
-2.936958397
 20
28.9318776464
 11
-3.0067993481
 21
28.9057763389
  0
LINE
  5
266
100
AcDbEntity
  8
0
100
AcDbLine
 62
250
  6
CONTINUOUS
 10
-12.0069654752
 20
27.2542519819
 11
-11.8436830672
 21
27.3146771266
  0
LWPOLYLINE
  5
267
100
AcDbEntity
  8
ASSI
100
AcDbPolyline
 62
7
  6
CONTINUOUS
 90
3
 70
0
 10
-5.0458339773
 20
27.2359931406
 10
-5.0250371394
 20
27.2428209822
 10
-5.0043035174
 20
27.2449744714
  0
LINE
  5
268
100
AcDbEntity
  8
SUPERFICI
100
AcDbLine
 62
7
  6
CONTINUOUS
 10
-2.8619192869
 20
28.9548052114
 11
-2.936958397
 21
28.9318776464
  0
LWPOLYLINE
  5
269
100
AcDbEntity
  8
SUPERFICI
100
AcDbPolyline
 62
7
  6
CONTINUOUS
 90
6
 70
0
 10
-3.0067989868
 20
28.9057765091
 10
-2.9935707122
 20
28.9097185341
 10
-2.9777870921
 20
28.9110571695
 10
-2.9611497595
 20
28.9091633444
 10
-2.9439611585
 20
28.9040621355
 10
-2.926526536
 20
28.8958365154
  0
LWPOLYLINE
  5
26A
100
AcDbEntity
  8
ASSI
100
AcDbPolyline
 62
7
  6
CONTINUOUS
 90
6
 70
0
 10
-13.910118348
 20
29.7112527982
 10
-13.9083220505
 20
29.7149328047
 10
-13.9030964248
 20
29.7211246003
 10
-13.8948992155
 20
29.7294649286
 10
-13.8839267649
 20
29.7390267211
 10
-13.8703607781
 20
29.7495907801
  0
LWPOLYLINE
  5
26B
100
AcDbEntity
  8
ASSI
100
AcDbPolyline
 62
250
  6
CONTINUOUS
 90
7
 70
0
 10
-10.2177119917
 20
30.1959239912
 10
-10.2167289273
 20
30.197272255
 10
-10.2139115398
 20
30.2046382044
 10
-10.2137906074
 20
30.2139838029
 10
-10.2163681762
 20
30.2251509137
 10
-10.2216006315
 20
30.2379505785
 10
-10.2293994349
 20
30.2521662148
  0
LWPOLYLINE
  5
26C
100
AcDbEntity
  8
ASSI
100
AcDbPolyline
 62
7
  6
CONTINUOUS
 90
6
 70
0
 10
-10.2177372297
 20
30.1958930492
 10
-10.2082624273
 20
30.2083219582
 10
-10.19464994
 20
30.2291765918
 10
-10.1827968089
 20
30.2514431387
 10
-10.17285388
 20
30.2750035671
 10
-10.1651999824
 20
30.2989803842
  0
LINE
  5
26D
100
AcDbEntity
  8
ASSI
100
AcDbLine
 62
250
  6
CONTINUOUS
 10
-10.2293994349
 20
30.2521662148
 11
-10.7702667407
 21
29.5828787287
  0
LINE
  5
26E
100
AcDbEntity
  8
ASSI
100
AcDbLine
 62
7
  6
CONTINUOUS
 10
-10.2177119917
 20
30.1959239912
 11
-10.7702667407
 21
29.5121740678
  0
LWPOLYLINE
  5
26F
100
AcDbEntity
  8
SUPERFICI
100
AcDbPolyline
 62
250
  6
CONTINUOUS
 90
16
 70
0
 10
-3.0377344777
 20
28.1224598304
 10
-2.9965555584
 20
28.1520059603
 10
-2.9533601861
 20
28.1786160964
 10
-2.9081483607
 20
28.2022902388
 10
-2.8603713927
 20
28.2231852068
 10
-2.8105779716
 20
28.2411441811
 10
-2.7604141664
 20
28.2556967033
 10
-2.7099083754
 20
28.2667152014
 10
-2.6590322003
 20
28.2743272474
 10
-2.609346515
 20
28.2784450993
 10
-2.5609915606
 20
28.2789832948
 10
-2.513827096
 20
28.2760272961
 10
-2.468993271
 20
28.2697457479
 10
-2.4268701357
 20
28.2601948652
 10
-2.38707764
 20
28.2473184329
 10
-2.3496157839
 20
28.2311164512
  0
LWPOLYLINE
  5
270
100
AcDbEntity
  8
ASSI
100
AcDbPolyline
 62
250
  6
CONTINUOUS
 90
7
 70
0
 10
0.5030095096
 20
30.4365965328
 10
0.5202581842
 20
30.4464045831
 10
0.5347927537
 20
30.4572028022
 10
0.5463644604
 20
30.4688064723
 10
0.5547752291
 20
30.4810170901
 10
0.5598810508
 20
30.4936257483
 10
0.5615896815
 20
30.5071027303
  0
LWPOLYLINE
  5
271
100
AcDbEntity
  8
ASSI
100
AcDbPolyline
 62
7
  6
CONTINUOUS
 90
10
 70
0
 10
-5.2630257407
 20
27.1190182751
 10
-5.2710776455
 20
27.1144442886
 10
-5.2947382081
 20
27.0981362371
 10
-5.3162703959
 20
27.0786690638
 10
-5.3352088041
 20
27.0563504048
 10
-5.3511212122
 20
27.0316392589
 10
-5.3638709001
 20
27.0046312594
 10
-5.3731788818
 20
26.9755868221
 10
-5.3787304206
 20
26.9451234203
 10
-5.3803983157
 20
26.9163761318
  0
LINE
  5
272
100
AcDbEntity
  8
ASSI
100
AcDbLine
 62
7
  6
CONTINUOUS
 10
-6.4631293785
 20
26.3768477248
 11
-6.2447833412
 21
26.4960492446
  0
LINE
  5
273
100
AcDbEntity
  8
ASSI
100
AcDbLine
 62
7
  6
CONTINUOUS
 10
-5.0510963159
 20
27.2333595222
 11
-5.2630194107
 21
27.1190220197
  0
LINE
  5
274
100
AcDbEntity
  8
ASSI
100
AcDbLine
 62
250
  6
CONTINUOUS
 10
-4.9366627199
 20
27.22762958
 11
-5.1475170372
 21
27.1138688385
  0
LINE
  5
275
100
AcDbEntity
  8
ASSI
100
AcDbLine
 62
7
  6
CONTINUOUS
 10
-6.2447833412
 20
26.4960492446
 11
-5.5627231108
 21
26.847712404
  0
LINE
  5
276
100
AcDbEntity
  8
ASSI
100
AcDbLine
 62
250
  6
CONTINUOUS
 10
-2.9275685486
 20
26.0038945942
 11
-2.7092225113
 21
26.1139094757
  0
LINE
  5
277
100
AcDbEntity
  8
ASSI
100
AcDbLine
 62
7
  6
CONTINUOUS
 10
-5.051042023
 20
27.2333887601
 11
-5.0458339773
 21
27.2359931406
  0
LINE
  5
278
100
AcDbEntity
  8
ASSI
100
AcDbLine
 62
250
  6
CONTINUOUS
 10
1.2013061928
 20
28.0535605417
 11
-2.7092225113
 21
26.1139094757
  0
LINE
  5
279
100
AcDbEntity
  8
ASSI
100
AcDbLine
 62
7
  6
CONTINUOUS
 10
-2.3553978081
 20
26.5876078292
 11
0.9075228161
 21
28.1507736101
  0
LINE
  5
27A
100
AcDbEntity
  8
ASSI
100
AcDbLine
 62
250
  6
CONTINUOUS
 10
-2.2934308509
 20
26.5566243506
 11
1.0186202705
 21
28.1433270546
  0
LINE
  5
27B
100
AcDbEntity
  8
ASSI
100
AcDbLine
 62
7
  6
CONTINUOUS
 10
-4.368360606
 20
27.5488727941
 11
-5.0457642201
 21
27.2360253568
  0
LINE
  5
27C
100
AcDbEntity
  8
ASSI
100
AcDbLine
 62
250
  6
CONTINUOUS
 10
-4.2602348877
 20
27.540026369
 11
-4.9366627199
 21
27.22762958
  0
LINE
  5
27D
100
AcDbEntity
  8
SUPERFICI
100
AcDbLine
 62
7
  6
CONTINUOUS
 10
-2.8649273477
 20
27.0362219146
 11
-3.0689358755
 21
26.9443768629
  0
LWPOLYLINE
  5
27E
100
AcDbEntity
  8
SUPERFICI
100
AcDbPolyline
 62
250
  6
CONTINUOUS
 90
11
 70
0
 10
-2.093060413
 20
28.9496564885
 10
-2.0839679525
 20
28.9537469396
 10
-2.0749092782
 20
28.9571037248
 10
-2.0659221566
 20
28.9597106969
 10
-2.0570409689
 20
28.9615553011
 10
-2.0483065046
 20
28.9626264467
 10
-2.0397651562
 20
28.9629174608
 10
-2.0314483308
 20
28.9624269667
 10
-2.0233951068
 20
28.9611569543
 10
-2.0156591265
 20
28.9591194381
 10
-2.0082854837
 20
28.9563360692
  0
LINE
  5
27F
100
AcDbEntity
  8
ASSI
100
AcDbLine
 62
250
  6
CONTINUOUS
 10
0.907523012
 20
28.1507737039
 11
0.9118795498
 21
28.1527297995
  0
LINE
  5
280
100
AcDbEntity
  8
ASSI
100
AcDbLine
 62
7
  6
CONTINUOUS
 10
4.388614981
 20
28.8144811592
 11
4.3356017288
 21
28.7913637122
  0
LWPOLYLINE
  5
281
100
AcDbEntity
  8
ASSI
100
AcDbPolyline
 62
250
  6
CONTINUOUS
 90
10
 70
0
 10
4.4244423731
 20
28.7854060495
 10
4.4766124287
 20
28.8080478059
 10
4.5283774402
 20
28.825823455
 10
4.5794538283
 20
28.8386359904
 10
4.629560032
 20
28.8464163624
 10
4.6784224118
 20
28.84912185
 10
4.725776731
 20
28.8467362035
 10
4.7713617182
 20
28.8392735014
 10
4.8149267538
 20
28.8267749801
 10
4.8570911939
 20
28.8088814089
  0
LWPOLYLINE
  5
282
100
AcDbEntity
  8
ASSI
100
AcDbPolyline
 62
250
  6
CONTINUOUS
 90
31
 70
0
 10
1.0186202705
 20
28.1433270546
 10
1.0286727059
 20
28.1476308013
 10
1.0393689413
 20
28.1513329899
 10
1.0507089768
 20
28.1544336204
 10
1.0628334297
 20
28.1569551164
 10
1.0756016827
 20
28.1588750543
 10
1.0885918834
 20
28.160126164
 10
1.1018066966
 20
28.1606849376
 10
1.1152434575
 20
28.160574883
 10
1.1284723199
 20
28.1597992533
 10
1.1414865757
 20
28.1583363727
 10
1.154292933
 20
28.1562079169
 10
1.1664816689
 20
28.1534821668
 10
1.1780328125
 20
28.1501398598
 10
1.1889663347
 20
28.1462002585
 10
1.1989324256
 20
28.1417894316
 10
1.2078997308
 20
28.1368921253
 10
1.2158996046
 20
28.1315235934
 10
1.2226763006
 20
28.1258556656
 10
1.2281903657
 20
28.1198786921
 10
1.2324812528
 20
28.1136023227
 10
1.2354115747
 20
28.1072273378
 10
1.2369370163
 20
28.1007505785
 10
1.2371018926
 20
28.0941752036
 10
1.2359017605
 20
28.0877114694
 10
1.233287758
 20
28.0813603315
 10
1.2293087471
 20
28.0751208342
 10
1.2241068708
 20
28.0692003677
 10
1.2177295101
 20
28.0636680617
 10
1.2101292841
 20
28.0584547864
 10
1.2013061928
 20
28.0535605417
  0
LWPOLYLINE
  5
283
100
AcDbEntity
  8
SUPERFICI
100
AcDbPolyline
 62
250
  6
CONTINUOUS
 90
9
 70
0
 10
10.8443635663
 20
31.5057581958
 10
10.8983699678
 20
31.5287897118
 10
10.952090041
 20
31.5460313484
 10
11.0051258854
 20
31.5572961199
 10
11.0571118107
 20
31.5624400365
 10
11.1076130605
 20
31.5613518975
 10
11.1561411967
 20
31.5539965023
 10
11.2023234894
 20
31.5404023528
 10
11.2357345798
 20
31.5258924815
  0
LINE
  5
284
100
AcDbEntity
  8
ASSI
100
AcDbLine
 62
7
  6
CONTINUOUS
 10
0.9397429424
 20
28.1644464709
 11
0.907439127
 21
28.1507236924
  0
LWPOLYLINE
  5
285
100
AcDbEntity
  8
SUPERFICI
100
AcDbPolyline
 62
7
  6
CONTINUOUS
 90
12
 70
0
 10
10.4559060837
 20
31.5379725315
 10
10.5215335598
 20
31.565192181
 10
10.5902323904
 20
31.5874679505
 10
10.6615398729
 20
31.6043673327
 10
10.7350965224
 20
31.6155316572
 10
10.8101245047
 20
31.62060338
 10
10.8855104622
 20
31.6193825332
 10
10.9606959709
 20
31.6118323982
 10
11.0350534025
 20
31.5979857667
 10
11.1075747739
 20
31.5780761499
 10
11.1779268054
 20
31.5522866991
 10
11.2357669344
 20
31.525876304
  0
LWPOLYLINE
  5
286
100
AcDbEntity
  8
SUPERFICI
100
AcDbPolyline
 62
250
  6
CONTINUOUS
 90
9
 70
0
 10
10.4559060837
 20
31.5379725315
 10
10.4838187092
 20
31.549371511
 10
10.5303331223
 20
31.562350564
 10
10.5791520749
 20
31.5689281573
 10
10.6299041694
 20
31.5690542509
 10
10.6822033014
 20
31.5627278854
 10
10.7356515972
 20
31.5499971897
 10
10.7898424406
 20
31.5309590146
 10
10.8443635663
 20
31.5057581958
  0
LWPOLYLINE
  5
287
100
AcDbEntity
  8
ASSI
100
AcDbPolyline
 62
250
  6
CONTINUOUS
 90
6
 70
0
 10
0.9118795498
 20
28.1527297995
 10
0.9311350263
 20
28.1585686638
 10
0.9517866612
 20
28.1605483079
 10
0.9734927616
 20
28.158636104
 10
0.9958941719
 20
28.1528638125
 10
1.0186202705
 20
28.1433270546
  0
LWPOLYLINE
  5
288
100
AcDbEntity
  8
SUPERFICI
100
AcDbPolyline
 62
250
  6
CONTINUOUS
 90
10
 70
0
 10
-2.3496157839
 20
28.2311164512
 10
-2.3686566724
 20
28.2130568861
 10
-2.386504728
 20
28.1923464208
 10
-2.4027930243
 20
28.1694108278
 10
-2.4171867015
 20
28.1447216245
 10
-2.4293898496
 20
28.1187863795
 10
-2.4391515924
 20
28.0921382781
 10
-2.4462712447
 20
28.0653251604
 10
-2.4506024384
 20
28.0388982594
 10
-2.4520561315
 20
28.0134008678
  0
LWPOLYLINE
  5
289
100
AcDbEntity
  8
SUPERFICI
100
AcDbPolyline
 62
250
  6
CONTINUOUS
 90
16
 70
0
 10
-2.8649273477
 20
27.9011404425
 10
-2.8406980123
 20
27.924003445
 10
-2.8146566841
 20
27.9450227569
 10
-2.7871014467
 20
27.9641217094
 10
-2.7583325194
 20
27.9813524934
 10
-2.7286748371
 20
27.9965585641
 10
-2.6984770004
 20
28.0093793332
 10
-2.6680622673
 20
28.0197733429
 10
-2.6377454921
 20
28.0277877535
 10
-2.6078575899
 20
28.03322697
 10
-2.578745846
 20
28.0361038629
 10
-2.5506356885
 20
28.0365147272
 10
-2.523666219
 20
28.034393787
 10
-2.4980618459
 20
28.0297585992
 10
-2.4741145063
 20
28.0227309839
 10
-2.4520561315
 20
28.0134008678
  0
LINE
  5
28A
100
AcDbEntity
  8
SUPERFICI
100
AcDbLine
 62
7
  6
CONTINUOUS
 10
-3.1629065431
 20
28.8294220856
 11
-4.9139929485
 21
27.2968816967
  0
LINE
  5
28B
100
AcDbEntity
  8
SUPERFICI
100
AcDbLine
 62
7
  6
CONTINUOUS
 10
-5.3803988485
 20
26.8886860319
 11
-5.4155290666
 21
26.8579402744
  0
LINE
  5
28C
100
AcDbEntity
  8
SUPERFICI
100
AcDbLine
 62
250
  6
CONTINUOUS
 10
-3.0634616994
 20
28.8317972697
 11
-4.7091880191
 21
27.3914674001
  0
LWPOLYLINE
  5
28D
100
AcDbEntity
  8
SUPERFICI
100
AcDbPolyline
 62
7
  6
CONTINUOUS
 90
5
 70
0
 10
-3.163003782
 20
28.8293364871
 10
-3.1619229787
 20
28.8302680076
 10
-3.156374614
 20
28.834450744
 10
-3.150220154
 20
28.8380883926
 10
-3.1482938132
 20
28.8390416145
  0
LINE
  5
28E
100
AcDbEntity
  8
SUPERFICI
100
AcDbLine
 62
250
  6
CONTINUOUS
 10
-3.967464591
 20
27.3936412206
 11
-3.0377344777
 21
28.1224598304
  0
LINE
  5
28F
100
AcDbEntity
  8
SUPERFICI
100
AcDbLine
 62
250
  6
CONTINUOUS
 10
-3.689574928
 20
27.2546963891
 11
-2.8649273477
 21
27.9011404425
  0
LWPOLYLINE
  5
290
100
AcDbEntity
  8
ASSI
100
AcDbPolyline
 62
7
  6
CONTINUOUS
 90
9
 70
0
 10
2.1793518875
 20
27.7587502219
 10
2.1777096521
 20
27.7577227584
 10
2.1741557116
 20
27.7537529175
 10
2.1706647321
 20
27.7474777034
 10
2.1673044816
 20
27.7387334176
 10
2.1641844249
 20
27.7276925424
 10
2.1615076324
 20
27.7149921184
 10
2.1593840105
 20
27.700848
 10
2.1578150313
 20
27.6850532417
  0
LWPOLYLINE
  5
291
100
AcDbEntity
  8
ASSI
100
AcDbPolyline
 62
7
  6
CONTINUOUS
 90
12
 70
0
 10
-2.1051836247
 20
24.5746687705
 10
-2.1164792581
 20
24.568182949
 10
-2.1387703038
 20
24.552841001
 10
-2.1596676691
 20
24.5348469532
 10
-2.1788599959
 20
24.5143993735
 10
-2.1956346986
 20
24.4923720923
 10
-2.2102976062
 20
24.4684912543
 10
-2.2227739217
 20
24.4426735693
 10
-2.2324123638
 20
24.4162220545
 10
-2.2392194831
 20
24.3894681452
 10
-2.2433160553
 20
24.3616631835
 10
-2.2444437712
 20
24.337605579
  0
LWPOLYLINE
  5
292
100
AcDbEntity
  8
ASSI
100
AcDbPolyline
 62
250
  6
CONTINUOUS
 90
12
 70
0
 10
-2.0127800207
 20
24.5705473492
 10
-2.0212420354
 20
24.5658547329
 10
-2.0299238537
 20
24.5605174975
 10
-2.0388007889
 20
24.5545053455
 10
-2.0478656163
 20
24.5477738683
 10
-2.0570642849
 20
24.5403123348
 10
-2.0662986434
 20
24.5321567952
 10
-2.0755321471
 20
24.5233007159
 10
-2.0847249072
 20
24.5137420821
 10
-2.0937766604
 20
24.5035514846
 10
-2.1026476817
 20
24.4927459107
 10
-2.1112980734
 20
24.481344956
  0
LINE
  5
293
100
AcDbEntity
  8
ASSI
100
AcDbLine
 62
7
  6
CONTINUOUS
 10
-2.5324727399
 20
24.639893944
 11
-2.7508187773
 21
24.5206924242
  0
LINE
  5
294
100
AcDbEntity
  8
ASSI
100
AcDbLine
 62
7
  6
CONTINUOUS
 10
-0.5380761514
 20
25.420159513
 11
-2.1052766417
 21
24.5746188943
  0
LINE
  5
295
100
AcDbEntity
  8
ASSI
100
AcDbLine
 62
250
  6
CONTINUOUS
 10
-0.4465292746
 20
25.4155755592
 11
-2.0127800207
 21
24.5705473492
  0
LINE
  5
296
100
AcDbEntity
  8
ASSI
100
AcDbLine
 62
250
  6
CONTINUOUS
 10
-2.7508187773
 20
25.6990463325
 11
-2.5324727399
 21
25.809061214
  0
LINE
  5
297
100
AcDbEntity
  8
ASSI
100
AcDbLine
 62
7
  6
CONTINUOUS
 10
-0.5380327171
 20
25.4201829033
 11
-0.5338662805
 21
25.4222664077
  0
LINE
  5
298
100
AcDbEntity
  8
ASSI
100
AcDbLine
 62
250
  6
CONTINUOUS
 10
1.3780559641
 20
27.74871228
 11
-2.5324727399
 21
25.809061214
  0
LINE
  5
299
100
AcDbEntity
  8
ASSI
100
AcDbLine
 62
7
  6
CONTINUOUS
 10
-2.5324727399
 20
24.639893944
 11
1.3658892005
 21
26.5735102055
  0
LINE
  5
29A
100
AcDbEntity
  8
ASSI
100
AcDbLine
 62
7
  6
CONTINUOUS
 10
1.4798474919
 20
27.1762567286
 11
1.9007260356
 21
27.3778868058
  0
LINE
  5
29B
100
AcDbEntity
  8
ASSI
100
AcDbLine
 62
7
  6
CONTINUOUS
 10
2.1786709255
 20
27.7583833171
 11
4.33558634
 21
28.7913737984
  0
LINE
  5
29C
100
AcDbEntity
  8
ASSI
100
AcDbLine
 62
250
  6
CONTINUOUS
 10
2.1930932151
 20
27.7167677407
 11
4.4244423731
 21
28.7854060495
  0
LINE
  5
29D
100
AcDbEntity
  8
SUPERFICI
100
AcDbLine
 62
7
  6
CONTINUOUS
 10
11.8155224
 20
31.020178779
 11
8.3851184995
 21
29.382841966
  0
LINE
  5
29E
100
AcDbEntity
  8
SUPERFICI
100
AcDbLine
 62
7
  6
CONTINUOUS
 10
10.4559060837
 20
31.5379725315
 11
4.6586504612
 21
28.8606077706
  0
LINE
  5
29F
100
AcDbEntity
  8
SUPERFICI
100
AcDbLine
 62
250
  6
CONTINUOUS
 10
10.8443635663
 20
31.5057581958
 11
4.9273001113
 21
28.7730622076
  0
LINE
  5
2A0
100
AcDbEntity
  8
ASSI
100
AcDbLine
 62
250
  6
CONTINUOUS
 10
0.0961987405
 20
25.666225342
 11
-0.4465292746
 21
25.4155755592
  0
LINE
  5
2A1
100
AcDbEntity
  8
ASSI
100
AcDbLine
 62
7
  6
CONTINUOUS
 10
0.010113237
 20
25.6734936583
 11
-0.5338104748
 21
25.4222921806
  0
LWPOLYLINE
  5
2A2
100
AcDbEntity
  8
ASSI
100
AcDbPolyline
 62
250
  6
CONTINUOUS
 90
7
 70
0
 10
4.3355949283
 20
28.7913779109
 10
4.3386405831
 20
28.7927558309
 10
4.3540977541
 20
28.7975316622
 10
4.3706908689
 20
28.799186042
 10
4.3881422558
 20
28.7976912207
 10
4.4061599244
 20
28.7930721472
 10
4.4244423717
 20
28.7854060489
  0
LWPOLYLINE
  5
2A3
100
AcDbEntity
  8
ASSI
100
AcDbPolyline
 62
7
  6
CONTINUOUS
 90
3
 70
0
 10
-0.5338662805
 20
25.4222664077
 10
-0.5172288102
 20
25.427728681
 10
-0.5006419126
 20
25.4294514724
  0
LWPOLYLINE
  5
2A4
100
AcDbEntity
  8
RACCORDO
100
AcDbPolyline
 62
7
  6
CONTINUOUS
 90
15
 70
0
 10
-20.4835792591
 20
-10.9433051505
 10
-20.4813666638
 20
-11.0295647184
 10
-20.4739290534
 20
-11.1078212895
 10
-20.4612438995
 20
-11.1841181409
 10
-20.4433602727
 20
-11.257906793
 10
-20.4206915907
 20
-11.3278983678
 10
-20.3936993334
 20
-11.3935077265
 10
-20.3625350388
 20
-11.4550857297
 10
-20.3273807636
 20
-11.5126950829
 10
-20.2885746379
 20
-11.5660943597
 10
-20.2464076459
 20
-11.6151671033
 10
-20.2009778457
 20
-11.6600195373
 10
-20.1526696106
 20
-11.7004404635
 10
-20.1018203003
 20
-11.7363121538
 10
-20.0477328229
 20
-11.768096693
  0
LWPOLYLINE
  5
2A5
100
AcDbEntity
  8
RACCORDO
100
AcDbPolyline
 62
250
  6
CONTINUOUS
 90
14
 70
0
 10
-20.3491329579
 20
-11.1140600701
 10
-20.3475606109
 20
-11.1876002236
 10
-20.3416525011
 20
-11.2586386009
 10
-20.3314421492
 20
-11.3268118221
 10
-20.3169907182
 20
-11.3917648639
 10
-20.2983724305
 20
-11.4531716698
 10
-20.2756714115
 20
-11.5107345096
 10
-20.2490072325
 20
-11.5641585212
 10
-20.2185200977
 20
-11.6131635058
 10
-20.1843542958
 20
-11.6575029636
 10
-20.146692715
 20
-11.6969446285
 10
-20.1057324775
 20
-11.7312837698
 10
-20.0616671153
 20
-11.7603522846
 10
-20.0476743298
 20
-11.7681290719
  0
LWPOLYLINE
  5
2A6
100
AcDbEntity
  8
RACCORDO
100
AcDbPolyline
 62
7
  6
CONTINUOUS
 90
10
 70
0
 10
-18.9420920678
 20
25.8518470271
 10
-19.2291490501
 20
21.7668454864
 10
-19.4914855009
 20
17.6221369418
 10
-19.7237343881
 20
13.4903684199
 10
-19.9258602194
 20
9.3719612458
 10
-20.0978448795
 20
5.2672618811
 10
-20.2396746282
 20
1.1765885179
 10
-20.3513378494
 20
-2.8997154119
 10
-20.4328345917
 20
-6.9612449725
 10
-20.4835874895
 20
-10.943325713
  0
LWPOLYLINE
  5
2A7
100
AcDbEntity
  8
RACCORDO
100
AcDbPolyline
 62
250
  6
CONTINUOUS
 90
10
 70
0
 10
-18.8074075709
 20
25.68619057
 10
-19.0995763209
 20
21.5446342194
 10
-19.3615889077
 20
17.4153470301
 10
-19.5934107698
 20
13.2986985612
 10
-19.7950143518
 20
9.1950073238
 10
-19.9663759507
 20
5.1046873503
 10
-20.1074742053
 20
1.0282485645
 10
-20.2182983669
 20
-3.0339006471
 10
-20.2988498351
 20
-7.0814543927
 10
-20.3491329194
 20
-11.1140600542
  0
LWPOLYLINE
  5
2A8
100
AcDbEntity
  8
SUPERFICI
100
AcDbPolyline
 62
250
  6
CONTINUOUS
 90
10
 70
0
 10
-2.093060413
 20
28.9496564885
 10
-2.0878032855
 20
28.955183994
 10
-2.0825688175
 20
28.9599469516
 10
-2.0773796111
 20
28.9639225801
 10
-2.0722561731
 20
28.9670924812
 10
-2.0672229365
 20
28.9694388094
 10
-2.0623077414
 20
28.9709476605
 10
-2.0575296199
 20
28.9716131227
 10
-2.0529114162
 20
28.9714319429
 10
-2.0508721013
 20
28.971070276
  0
LINE
  5
2A9
100
AcDbEntity
  8
SUPERFICI
100
AcDbLine
 62
250
  6
CONTINUOUS
 10
-1.5400912383
 20
27.4239145547
 11
-1.5731911631
 21
27.3901881731
  0
LWPOLYLINE
  5
2AA
100
AcDbEntity
  8
SUPERFICI
100
AcDbPolyline
 62
250
  6
CONTINUOUS
 90
10
 70
0
 10
-1.5912101853
 20
27.8519136519
 10
-1.6102516378
 20
27.8338534576
 10
-1.6281000296
 20
27.8131423972
 10
-1.6443884454
 20
27.7902063372
 10
-1.6587820462
 20
27.7655168886
 10
-1.6709849856
 20
27.7395816518
 10
-1.6807464718
 20
27.7129337707
 10
-1.68786588
 20
27.6861210586
 10
-1.6921968936
 20
27.6596947421
 10
-1.6936505307
 20
27.6341980674
  0
LINE
  5
2AB
100
AcDbEntity
  8
SUPERFICI
100
AcDbLine
 62
250
  6
CONTINUOUS
 10
-1.5731911631
 20
27.3901881731
 11
-2.4103239172
 21
26.6150708837
  0
LINE
  5
2AC
100
AcDbEntity
  8
SUPERFICI
100
AcDbLine
 62
7
  6
CONTINUOUS
 10
-1.6699915342
 20
27.3900279333
 11
-2.4730689544
 21
26.6464434023
  0
LINE
  5
2AD
100
AcDbEntity
  8
ASSI
100
AcDbLine
 62
7
  6
CONTINUOUS
 10
-1.283860073
 20
23.4563404275
 11
-1.2503966597
 21
23.4819219758
  0
LWPOLYLINE
  5
2AE
100
AcDbEntity
  8
ASSI
100
AcDbPolyline
 62
250
  6
CONTINUOUS
 90
7
 70
0
 10
2.3744703749
 20
24.3453525743
 10
2.391200576
 20
24.3552192699
 10
2.4052435449
 20
24.3660832196
 10
2.4163643041
 20
24.3777626409
 10
2.4243767718
 20
24.3900621063
 10
2.4291468766
 20
24.402775813
 10
2.4306024148
 20
24.4148184112
  0
LWPOLYLINE
  5
2AF
100
AcDbEntity
  8
ASSI
100
AcDbPolyline
 62
250
  6
CONTINUOUS
 90
7
 70
0
 10
2.3744703749
 20
24.0054089794
 10
2.39120059
 20
24.0152756845
 10
2.4052435658
 20
24.0261396433
 10
2.4163643254
 20
24.0378190727
 10
2.4243767887
 20
24.0501185443
 10
2.4291468855
 20
24.0628322549
 10
2.4306024148
 20
24.0748748165
  0
LWPOLYLINE
  5
2B0
100
AcDbEntity
  8
ASSI
100
AcDbPolyline
 62
250
  6
CONTINUOUS
 90
28
 70
0
 10
0.0529340206
 20
23.5376903285
 10
0.0438122954
 20
23.5326802536
 10
0.0345388314
 20
23.5269951391
 10
0.0251418965
 20
23.5206165945
 10
0.0156322822
 20
23.513513339
 10
0.0060653518
 20
23.5056866778
 10
-0.0034619056
 20
23.4971831504
 10
-0.0129131031
 20
23.4880086785
 10
-0.0222495613
 20
23.4781733907
 10
-0.0313755517
 20
23.4677565831
 10
-0.0402522361
 20
23.4567889364
 10
-0.0488474234
 20
23.4452961129
 10
-0.0570850195
 20
23.4333707818
 10
-0.0649276033
 20
23.4210668259
 10
-0.0723563069
 20
23.4084136527
 10
-0.0793322251
 20
23.3954778047
 10
-0.0858280337
 20
23.3823150644
 10
-0.0918284776
 20
23.3689619136
 10
-0.0973169775
 20
23.3554582342
 10
-0.1022759373
 20
23.3418499788
 10
-0.106689107
 20
23.3281847562
 10
-0.1105434604
 20
23.3145049407
 10
-0.1138262974
 20
23.3008574934
 10
-0.116526976
 20
23.287289024
 10
-0.1186373508
 20
23.2738411694
 10
-0.1201502426
 20
23.2605584315
 10
-0.1210601444
 20
23.2474879039
 10
-0.1213638553
 20
23.234674374
  0
LWPOLYLINE
  5
2B1
100
AcDbEntity
  8
0
100
AcDbPolyline
 62
7
  6
CONTINUOUS
 90
22
 70
0
 10
1.5346022658
 20
22.7715525322
 10
1.5230752616
 20
22.7652510241
 10
1.511850075
 20
22.758323202
 10
1.5009694039
 20
22.7507862006
 10
1.4904701522
 20
22.7426571295
 10
1.4803968318
 20
22.733963412
 10
1.4707990452
 20
22.7247447465
 10
1.4617491016
 20
22.7150776517
 10
1.4532332929
 20
22.7049569247
 10
1.4451857738
 20
22.6942894202
 10
1.4376083884
 20
22.6830318073
 10
1.4305970215
 20
22.6712797061
 10
1.424230417
 20
22.6591436151
 10
1.4185444777
 20
22.6466911855
 10
1.4135473681
 20
22.6339426176
 10
1.4092563806
 20
22.6209416622
 10
1.4056863522
 20
22.6077369881
 10
1.4028461378
 20
22.5943690251
 10
1.4007402794
 20
22.5808628665
 10
1.3993746951
 20
22.5672469578
 10
1.3987561213
 20
22.5535740456
 10
1.3987163716
 20
22.5491224865
  0
LWPOLYLINE
  5
2B2
100
AcDbEntity
  8
SUPERFICI
100
AcDbPolyline
 62
7
  6
CONTINUOUS
 90
13
 70
0
 10
8.7996960112
 20
28.3072634258
 10
8.6707111931
 20
28.2369097074
 10
8.5517979088
 20
28.1622516588
 10
8.4435290754
 20
28.0836489779
 10
8.3464263254
 20
28.0014803677
 10
8.260957494
 20
27.9161417116
 10
8.1875343649
 20
27.8280441659
 10
8.1265106863
 20
27.7376121794
 10
8.0781804665
 20
27.6452814479
 10
8.0427765577
 20
27.5514968152
 10
8.0204695336
 20
27.4567101301
 10
8.0113668682
 20
27.3613780689
 10
8.0111347464
 20
27.3435131874
  0
LWPOLYLINE
  5
2B3
100
AcDbEntity
  8
ASSI
100
AcDbPolyline
 62
250
  6
CONTINUOUS
 90
28
 70
0
 10
0.1943338377
 20
23.2938117192
 10
0.1924735916
 20
23.2928275526
 10
0.1905950714
 20
23.2917022156
 10
0.1886982771
 20
23.2904357082
 10
0.1867719343
 20
23.2890253962
 10
0.1848273175
 20
23.2874739139
 10
0.1828982499
 20
23.2857891632
 10
0.1809846426
 20
23.2839662071
 10
0.1790865845
 20
23.2820099827
 10
0.1772381651
 20
23.2799432033
 10
0.1754413017
 20
23.2777627601
 10
0.1736940769
 20
23.2754717618
 10
0.1720248288
 20
23.2731022489
 10
0.1704369859
 20
23.2706547128
 10
0.1689271195
 20
23.268128662
 10
0.1675132822
 20
23.2655546624
 10
0.1661977627
 20
23.2629340845
 10
0.1649782722
 20
23.2602655578
 10
0.1638659965
 20
23.2575755362
 10
0.1628618497
 20
23.2548637944
 10
0.1619649175
 20
23.2521305578
 10
0.1611836433
 20
23.2494029559
 10
0.1605190827
 20
23.246681101
 10
0.15997018
 20
23.2439648809
 10
0.1595422103
 20
23.2412810886
 10
0.1592369321
 20
23.2386386552
 10
0.1590525871
 20
23.2360286497
 10
0.1589891751
 20
23.233451072
  0
LINE
  5
2B4
100
AcDbEntity
  8
ASSI
100
AcDbLine
 62
7
  6
CONTINUOUS
 10
8.4917032655
 20
26.3896261018
 11
3.7181229642
 21
23.8661052367
  0
LINE
  5
2B5
100
AcDbEntity
  8
0
100
AcDbLine
 62
7
  6
CONTINUOUS
 10
8.4688651511
 20
27.0353613455
 11
9.1196388059
 21
27.3785271616
  0
LINE
  5
2B6
100
AcDbEntity
  8
RACCORDO
100
AcDbLine
 62
250
  6
CONTINUOUS
 10
9.1195110238
 20
27.3784597747
 11
9.1196388059
 21
27.3785271616
  0
LINE
  5
2B7
100
AcDbEntity
  8
ASSI
100
AcDbLine
 62
7
  6
CONTINUOUS
 10
8.4690359754
 20
26.7883212171
 11
1.9317602121
 21
23.361879799
  0
LINE
  5
2B8
100
AcDbEntity
  8
0
100
AcDbLine
 62
7
  6
CONTINUOUS
 10
1.5346022658
 20
22.7715525322
 11
3.1177739608
 21
23.5837495795
  0
LINE
  5
2B9
100
AcDbEntity
  8
0
100
AcDbLine
 62
250
  6
CONTINUOUS
 10
1.647687932
 20
22.765104557
 11
3.2304445351
 21
23.5770886544
  0
LINE
  5
2BA
100
AcDbEntity
  8
SUPERFICI
100
AcDbLine
 62
7
  6
CONTINUOUS
 10
12.8118519897
 20
30.3486632185
 11
8.7996960112
 21
28.3072634258
  0
LINE
  5
2BB
100
AcDbEntity
  8
ASSI
100
AcDbLine
 62
250
  6
CONTINUOUS
 10
1.6748341473
 20
24.3548938483
 11
0.0529340206
 21
23.5376903285
  0
LINE
  5
2BC
100
AcDbEntity
  8
ASSI
100
AcDbLine
 62
250
  6
CONTINUOUS
 10
1.8162339644
 20
24.111015239
 11
0.1943338377
 21
23.2938117192
  0
LINE
  5
2BD
100
AcDbEntity
  8
0
100
AcDbLine
 62
7
  6
CONTINUOUS
 10
9.2479262346
 20
27.1554354302
 11
9.7429009815
 21
27.4029228037
  0
LINE
  5
2BE
100
AcDbEntity
  8
0
100
AcDbLine
 62
7
  6
CONTINUOUS
 10
3.1177759305
 20
23.58375059
 11
3.1195123479
 21
23.5846188131
  0
LINE
  5
2BF
100
AcDbEntity
  8
RACCORDO
100
AcDbLine
 62
7
  6
CONTINUOUS
 10
12.211078894
 20
27.583422656
 11
10.899614583
 21
26.9276905004
  0
LINE
  5
2C0
100
AcDbEntity
  8
ASSI
100
AcDbLine
 62
250
  6
CONTINUOUS
 10
2.1989386138
 20
24.6148535275
 11
1.6748341473
 21
24.3548938483
  0
LINE
  5
2C1
100
AcDbEntity
  8
ASSI
100
AcDbLine
 62
250
  6
CONTINUOUS
 10
2.3403384309
 20
24.3709749181
 11
1.8162339644
 21
24.111015239
  0
LWPOLYLINE
  5
2C2
100
AcDbEntity
  8
0
100
AcDbPolyline
 62
250
  6
CONTINUOUS
 90
16
 70
0
 10
1.5346022658
 20
22.7715525322
 10
1.5379999901
 20
22.7732101566
 10
1.5447452111
 20
22.7760227043
 10
1.55172595
 20
22.7783212578
 10
1.558926394
 20
22.7801006102
 10
1.5663302324
 20
22.7813567309
 10
1.5739206938
 20
22.7820867745
 10
1.5816805843
 20
22.7822890873
 10
1.5895923258
 20
22.7819632111
 10
1.5976379965
 20
22.781109884
 10
1.6057993711
 20
22.7797310389
 10
1.6140579624
 20
22.7778297993
 10
1.6223950628
 20
22.7754104719
 10
1.6307917868
 20
22.7724785371
 10
1.639229114
 20
22.7690406362
 10
1.647687932
 20
22.765104557
  0
LINE
  5
2C3
100
AcDbEntity
  8
SUPERFICI
100
AcDbLine
 62
7
  6
CONTINUOUS
 10
12.8118519897
 20
29.9408119512
 11
8.7996960112
 21
27.9859391436
  0
LINE
  5
2C4
100
AcDbEntity
  8
0
100
AcDbLine
 62
7
  6
CONTINUOUS
 10
3.1195151119
 20
23.5846201595
 11
3.6543823027
 21
23.845170912
  0
LINE
  5
2C5
100
AcDbEntity
  8
0
100
AcDbLine
 62
250
  6
CONTINUOUS
 10
3.2304445351
 20
23.5770886544
 11
3.7648944138
 21
23.837436121
  0
LINE
  5
2C6
100
AcDbEntity
  8
SUPERFICI
100
AcDbLine
 62
7
  6
CONTINUOUS
 10
8.977598431
 20
25.8766350604
 11
4.3277604192
 21
23.6179804891
  0
LINE
  5
2C7
100
AcDbEntity
  8
0
100
AcDbLine
 62
7
  6
CONTINUOUS
 10
3.1195123479
 20
23.5846188131
 11
3.1211699742
 21
23.5854063205
  0
LINE
  5
2C8
100
AcDbEntity
  8
0
100
AcDbLine
 62
250
  6
CONTINUOUS
 10
3.6543823139
 20
23.8451709175
 11
3.6560831582
 21
23.8459770781
  0
LINE
  5
2C9
100
AcDbEntity
  8
ASSI
100
AcDbLine
 62
7
  6
CONTINUOUS
 10
7.2777776554
 20
27.3587384083
 11
1.9130263832
 21
24.8177595853
  0
LWPOLYLINE
  5
2CA
100
AcDbEntity
  8
RACCORDO
100
AcDbPolyline
 62
7
  6
CONTINUOUS
 90
10
 70
0
 10
13.0595807058
 20
27.1591454244
 10
13.0709771701
 20
27.1643140797
 10
13.0821975726
 20
27.1683659761
 10
13.0932419133
 20
27.1713011136
 10
13.1042051722
 20
27.1731196449
 10
13.1149923694
 20
27.1738214174
 10
13.1253185648
 20
27.173405973
 10
13.1350887786
 20
27.1718731592
 10
13.1443979906
 20
27.1692231284
 10
13.1532462009
 20
27.1654558808
  0
LWPOLYLINE
  5
2CB
100
AcDbEntity
  8
ASSI
100
AcDbPolyline
 62
250
  6
CONTINUOUS
 90
13
 70
0
 10
0.1589891751
 20
23.233451072
 10
0.1392557649
 20
23.2250859645
 10
0.1175278472
 20
23.2180644766
 10
0.0941689885
 20
23.2125040968
 10
0.0695700453
 20
23.2084978652
 10
0.044142624
 20
23.2061128167
 10
0.0183121939
 20
23.2053888598
 10
-0.0074890326
 20
23.206338108
 10
-0.0328293314
 20
23.2089446781
 10
-0.0572846913
 20
23.2131649549
 10
-0.0804459084
 20
23.218928322
 10
-0.1019254331
 20
23.2261383427
 10
-0.1213638553
 20
23.234674374
  0
LWPOLYLINE
  5
2CC
100
AcDbEntity
  8
ASSI
100
AcDbPolyline
 62
250
  6
CONTINUOUS
 90
13
 70
0
 10
0.1589891751
 20
22.9161822717
 10
0.1392557248
 20
22.9078171284
 10
0.1175277684
 20
22.9007956163
 10
0.0941688763
 20
22.8952352228
 10
0.0695699083
 20
22.8912289862
 10
0.0441424729
 20
22.88884394
 10
0.0183120397
 20
22.8881199908
 10
-0.007489178
 20
22.8890692506
 10
-0.0328294573
 20
22.8916758338
 10
-0.0572847905
 20
22.8958961239
 10
-0.0804459762
 20
22.9016595033
 10
-0.1019254668
 20
22.9088695344
 10
-0.1213638553
 20
22.9174055735
  0
LWPOLYLINE
  5
2CD
100
AcDbEntity
  8
0
100
AcDbPolyline
 62
7
  6
CONTINUOUS
 90
15
 70
0
 10
3.1211699742
 20
23.5854063205
 10
3.127905463
 20
23.5882138585
 10
3.1348732023
 20
23.59050572
 10
3.1420574593
 20
23.5922767399
 10
3.1494419749
 20
23.5935229149
 10
3.1570099293
 20
23.5942413801
 10
3.1647442508
 20
23.5944305452
 10
3.1726274567
 20
23.5940900019
 10
3.1806415562
 20
23.5932204603
 10
3.1887684866
 20
23.5918239373
 10
3.1969898976
 20
23.5899036274
 10
3.2052869944
 20
23.5874638007
 10
3.2136409877
 20
23.5845099898
 10
3.2220331369
 20
23.5810489768
 10
3.2304445351
 20
23.5770886544
  0
LWPOLYLINE
  5
2CE
100
AcDbEntity
  8
0
100
AcDbPolyline
 62
250
  6
CONTINUOUS
 90
15
 70
0
 10
3.6560831582
 20
23.8459770781
 10
3.6627819564
 20
23.848767016
 10
3.669737938
 20
23.8510512971
 10
3.6769072799
 20
23.8528130386
 10
3.6842736757
 20
23.8540482206
 10
3.6918202726
 20
23.8547540305
 10
3.6995298587
 20
23.8549288997
 10
3.7073850579
 20
23.8545724746
 10
3.7153682166
 20
23.8536855707
 10
3.7234624642
 20
23.8522699466
 10
3.7316482749
 20
23.8503289029
 10
3.7399035412
 20
23.8478680059
 10
3.7482082968
 20
23.8448939564
 10
3.7565448783
 20
23.8414138239
 10
3.7648944138
 20
23.837436121
  0
LINE
  5
2CF
100
AcDbEntity
  8
0
100
AcDbLine
 62
250
  6
CONTINUOUS
 10
17.9362056613
 20
-25.1118578459
 11
17.4079384895
 21
-25.0033555688
  0
LINE
  5
2D0
100
AcDbEntity
  8
0
100
AcDbLine
 62
250
  6
CONTINUOUS
 10
17.8467918659
 20
-24.7922910399
 11
17.4079384895
 21
-24.7021537132
  0
LWPOLYLINE
  5
2D1
100
AcDbEntity
  8
0
100
AcDbPolyline
 62
7
  6
CONTINUOUS
 90
16
 70
0
 10
16.5178783068
 20
-25.3189646097
 10
16.5121396235
 20
-25.3177469204
 10
16.5062139039
 20
-25.316428846
 10
16.5001024223
 20
-25.3150142699
 10
16.4938038459
 20
-25.3135110052
 10
16.4873227907
 20
-25.3119195601
 10
16.4806697631
 20
-25.3102331106
 10
16.4738468784
 20
-25.3084564407
 10
16.4668566761
 20
-25.3065941257
 10
16.4597105595
 20
-25.3046392529
 10
16.4524113751
 20
-25.3025971061
 10
16.4449623574
 20
-25.3004727876
 10
16.4373757489
 20
-25.2982593357
 10
16.4296551535
 20
-25.2959625266
 10
16.421804518
 20
-25.2935879791
 10
16.4138368581
 20
-25.2911287211
  0
LWPOLYLINE
  5
2D2
100
AcDbEntity
  8
0
100
AcDbPolyline
 62
7
  6
CONTINUOUS
 90
3
 70
0
 10
16.4138368581
 20
-25.2911287211
 10
16.3975682469
 20
-25.2859809589
 10
16.3892857928
 20
-25.2832916712
  0
LWPOLYLINE
  5
2D3
100
AcDbEntity
  8
RACCORDO
100
AcDbPolyline
 62
250
  6
CONTINUOUS
 90
16
 70
0
 10
10.0969903431
 20
-26.3371217113
 10
10.1354568468
 20
-26.3533285577
 10
10.1769883456
 20
-26.3675647677
 10
10.2211642535
 20
-26.3796861724
 10
10.2675372048
 20
-26.3895700192
 10
10.3156375845
 20
-26.3971162154
 10
10.3649782842
 20
-26.4022483412
 10
10.4150596347
 20
-26.4049144241
 10
10.4653744665
 20
-26.4050874648
 10
10.5154132455
 20
-26.4027657109
 10
10.5646692332
 20
-26.3979726748
 10
10.6126436183
 20
-26.3907568949
 10
10.6588505684
 20
-26.381191445
 10
10.7028221496
 20
-26.3693731936
 10
10.7441130652
 20
-26.355421823
 10
10.7823051659
 20
-26.3394786177
  0
LWPOLYLINE
  5
2D4
100
AcDbEntity
  8
RACCORDO
100
AcDbPolyline
 62
7
  6
CONTINUOUS
 90
11
 70
0
 10
10.4178715011
 20
-27.0009414169
 10
10.4379599915
 20
-27.0100643398
 10
10.5025851325
 20
-27.0349641979
 10
10.5702876962
 20
-27.0543464982
 10
10.6405677711
 20
-27.0678208393
 10
10.7127715884
 20
-27.0750744571
 10
10.7864628713
 20
-27.0759411875
 10
10.8611566475
 20
-27.0703036333
 10
10.936218245
 20
-27.0581257779
 10
11.0112197033
 20
-27.039447539
 10
11.0852011824
 20
-27.0145816132
  0
LWPOLYLINE
  5
2D5
100
AcDbEntity
  8
RACCORDO
100
AcDbPolyline
 62
7
  6
CONTINUOUS
 90
9
 70
0
 10
-16.823828809
 20
-13.4724971023
 10
-13.5013687513
 20
-15.2048189076
 10
-10.1522805139
 20
-16.9267672662
 10
-6.7767597765
 20
-18.6382391007
 10
-3.3750053381
 20
-20.3391324694
 10
0.0527791538
 20
-22.0293473731
 10
3.5063873743
 20
-23.7087851689
 10
6.9856097725
 20
-25.3773486714
 10
10.418822906
 20
-27.0013952317
  0
LWPOLYLINE
  5
2D6
100
AcDbEntity
  8
RACCORDO
100
AcDbPolyline
 62
250
  6
CONTINUOUS
 90
14
 70
0
 10
10.417953213
 20
-27.0009854872
 10
10.3845650024
 20
-26.9834682306
 10
10.3404531148
 20
-26.954376453
 10
10.2994364516
 20
-26.9200090987
 10
10.261740025
 20
-26.8805500107
 10
10.2275500003
 20
-26.8361984414
 10
10.1970324777
 20
-26.7871782627
 10
10.1703562515
 20
-26.733748227
 10
10.147654921
 20
-26.6761852308
 10
10.1290345566
 20
-26.6147773858
 10
10.1145953234
 20
-26.5498304422
 10
10.1044126919
 20
-26.4816710807
 10
10.0985344914
 20
-26.4106476578
 10
10.0969904259
 20
-26.3371216452
  0
LWPOLYLINE
  5
2D7
100
AcDbEntity
  8
RACCORDO
100
AcDbPolyline
 62
250
  6
CONTINUOUS
 90
19
 70
0
 10
-20.3491329194
 20
-11.1140600542
 10
-18.8163154117
 20
-11.9293435498
 10
-17.2795601652
 20
-12.7411772187
 10
-15.7389077183
 20
-13.5495604127
 10
-14.1966227462
 20
-14.3533373975
 10
-12.6505379122
 20
-15.1536698489
 10
-11.093971209
 20
-15.954002027
 10
-9.5297815455
 20
-16.7528306245
 10
-7.9550636793
 20
-17.55160412
 10
-6.3542459472
 20
-18.3580898456
 10
-4.7292350757
 20
-19.1711298554
 10
-3.0777307354
 20
-19.9916728804
 10
-1.3774346914
 20
-20.8304626543
 10
0.3731000474
 20
-21.6877580008
 10
2.1733605463
 20
-22.5628388729
 10
4.0431885139
 20
-23.464760474
 10
5.9897867831
 20
-24.396253205
 10
8.0074675215
 20
-25.3538356093
 10
10.0969903422
 20
-26.3371216927
  0
LINE
  5
2D8
100
AcDbEntity
  8
RACCORDO
100
AcDbLine
 62
7
  6
CONTINUOUS
 10
-20.0476743298
 20
-11.7681290719
 11
-16.823828809
 21
-13.4724971023
  0
LWPOLYLINE
  5
2D9
100
AcDbEntity
  8
RACCORDO
100
AcDbPolyline
 62
250
  6
CONTINUOUS
 90
9
 70
0
 10
-20.3491233634
 20
-11.1140557217
 10
-20.3815585573
 20
-11.0948118598
 10
-20.4099637662
 20
-11.0740799604
 10
-20.434051339
 20
-11.0520699692
 10
-20.4535773481
 20
-11.0290047749
 10
-20.4683440595
 20
-11.0051179515
 10
-20.4782019351
 20
-10.9806513936
 10
-20.4830511472
 20
-10.9558528665
 10
-20.4835794476
 20
-10.9433257813
  0
LWPOLYLINE
  5
2DA
100
AcDbEntity
  8
ASSI
100
AcDbPolyline
 62
7
  6
CONTINUOUS
 90
3
 70
0
 10
-10.1651999824
 20
30.2989803842
 10
-10.1598356363
 20
30.3231374021
 10
-10.1566926646
 20
30.3479668909
  0
LWPOLYLINE
  5
2DB
100
AcDbEntity
  8
ASSI
100
AcDbPolyline
 62
7
  6
CONTINUOUS
 90
16
 70
0
 10
1.2887302853
 20
27.0172882667
 10
1.3121686323
 20
27.0390156694
 10
1.3323903198
 20
27.0642408021
 10
1.3493953479
 20
27.0929636646
 10
1.363286131
 20
27.1255121048
 10
1.3739602547
 20
27.161558275
 10
1.3811104753
 20
27.2001186319
 10
1.3846343783
 20
27.241366818
 10
1.3846343783
 20
27.2851291908
 10
1.3811104753
 20
27.3299012799
 10
1.3739602547
 20
27.3756118575
 10
1.363286131
 20
27.4223321513
 10
1.3493953479
 20
27.4687713746
 10
1.3323903198
 20
27.5144992652
 10
1.3121686323
 20
27.5599460854
 10
1.2887302853
 20
27.605111835
  0
LINE
  5
2DC
100
AcDbEntity
  8
0
100
AcDbLine
 62
7
  6
CONTINUOUS
 10
1.4244152038
 20
21.4242048591
 11
1.9946157179
 21
21.7566839851
  0
LINE
  5
2DD
100
AcDbEntity
  8
0
100
AcDbLine
 62
250
  6
CONTINUOUS
 10
1.6583191663
 20
21.4157581167
 11
2.1017093256
 21
21.674295191
  0
LINE
  5
2DE
100
AcDbEntity
  8
ASSI
100
AcDbLine
 62
7
  6
CONTINUOUS
 10
1.3987163713
 20
22.2376054655
 11
0.9137832137
 21
21.9728662009
  0
LINE
  5
2DF
100
AcDbEntity
  8
ASSI
100
AcDbLine
 62
250
  6
CONTINUOUS
 10
1.4007450613
 20
22.2053689956
 11
0.7635181048
 21
21.8631586475
  0
LINE
  5
2E0
100
AcDbEntity
  8
ASSI
100
AcDbLine
 62
250
  6
CONTINUOUS
 10
1.3949450051
 20
21.4029724044
 11
1.1167081582
 21
21.2535507153
  0
LINE
  5
2E1
100
AcDbEntity
  8
0
100
AcDbLine
 62
250
  6
CONTINUOUS
 10
3.3262260024
 20
21.9258355218
 11
4.9275067932
 21
22.7285575253
  0
LINE
  5
2E2
100
AcDbEntity
  8
0
100
AcDbLine
 62
250
  6
CONTINUOUS
 10
3.5029997061
 20
21.620945983
 11
5.1042804969
 21
22.4236679865
  0
LINE
  5
2E3
100
AcDbEntity
  8
RACCORDO
100
AcDbLine
 62
7
  6
CONTINUOUS
 10
13.0596096017
 20
27.1591598724
 11
12.1807169505
 21
26.7197135468
  0
LINE
  5
2E4
100
AcDbEntity
  8
0
100
AcDbLine
 62
250
  6
CONTINUOUS
 10
4.9275067932
 20
22.7285575253
 11
5.455773965
 21
22.9919963454
  0
LINE
  5
2E5
100
AcDbEntity
  8
0
100
AcDbLine
 62
250
  6
CONTINUOUS
 10
5.1042804969
 20
22.4236679865
 11
5.6325476686
 21
22.6871068066
  0
LINE
  5
2E6
100
AcDbEntity
  8
0
100
AcDbLine
 62
7
  6
CONTINUOUS
 10
12.8412928181
 20
24.6798479308
 11
5.8072734512
 21
21.1720892412
  0
LINE
  5
2E7
100
AcDbEntity
  8
SUPERFICI
100
AcDbLine
 62
250
  6
CONTINUOUS
 10
17.7424006261
 20
27.54290627
 11
5.3692688283
 21
21.3910915526
  0
LINE
  5
2E8
100
AcDbEntity
  8
SUPERFICI
100
AcDbLine
 62
7
  6
CONTINUOUS
 10
17.3228574151
 20
28.2665112714
 11
9.7302925149
 21
24.5784297993
  0
LINE
  5
2E9
100
AcDbEntity
  8
SUPERFICI
100
AcDbLine
 62
7
  6
CONTINUOUS
 10
16.5171854791
 20
28.6693472394
 11
13.0960394093
 21
27.0273815111
  0
LWPOLYLINE
  5
2EA
100
AcDbEntity
  8
SUPERFICI
100
AcDbPolyline
 62
7
  6
CONTINUOUS
 90
9
 70
0
 10
17.3228574151
 20
28.2665112714
 10
17.3790032928
 20
28.2917743097
 10
17.4322360037
 20
28.3112268022
 10
17.4821064642
 20
28.3248564132
 10
17.528077234
 20
28.3327641007
 10
17.5698691955
 20
28.3349970786
 10
17.6074621056
 20
28.3315400643
 10
17.6404963941
 20
28.3226034601
 10
17.6550583446
 20
28.3162304022
  0
LWPOLYLINE
  5
2EB
100
AcDbEntity
  8
0
100
AcDbPolyline
 62
7
  6
CONTINUOUS
 90
17
 70
0
 10
11.0270387173
 20
23.1364494082
 10
11.0400143476
 20
23.1410074294
 10
11.0536276197
 20
23.1447416642
 10
11.0678743205
 20
23.1476330998
 10
11.0827597728
 20
23.1496800407
 10
11.0982644513
 20
23.1508446834
 10
11.114340576
 20
23.1510555886
 10
11.1309761225
 20
23.1502841174
 10
11.1481492037
 20
23.1485232363
 10
11.1657877952
 20
23.1457393116
 10
11.1838288911
 20
23.1419214024
 10
11.2022819233
 20
23.1370541744
 10
11.2211805111
 20
23.1310972357
 10
11.2404740778
 20
23.1240481973
 10
11.2601541543
 20
23.1158770972
 10
11.2803206233
 20
23.1064902164
 10
11.2843576126
 20
23.1044904141
  0
LINE
  5
2EC
100
AcDbEntity
  8
RACCORDO
100
AcDbLine
 62
250
  6
CONTINUOUS
 10
19.5172257197
 20
-15.268961446
 11
21.837902266
 21
-15.0668427228
  0
LWPOLYLINE
  5
2ED
100
AcDbEntity
  8
0
100
AcDbPolyline
 62
7
  6
CONTINUOUS
 90
3
 70
0
 10
16.3892857928
 20
-25.2832916712
 10
16.3724592916
 20
-25.27770214
 10
16.3639353049
 20
-25.2748017548
  0
LWPOLYLINE
  5
2EE
100
AcDbEntity
  8
0
100
AcDbPolyline
 62
7
  6
CONTINUOUS
 90
3
 70
0
 10
16.3639353049
 20
-25.2748017548
 10
16.3467045754
 20
-25.2688115522
 10
16.3380195071
 20
-25.2657223331
  0
LWPOLYLINE
  5
2EF
100
AcDbEntity
  8
0
100
AcDbPolyline
 62
7
  6
CONTINUOUS
 90
3
 70
0
 10
16.3380195071
 20
-25.2657223331
 10
16.3205528205
 20
-25.2593794154
 10
16.3117945387
 20
-25.2561271771
  0
LWPOLYLINE
  5
2F0
100
AcDbEntity
  8
0
100
AcDbPolyline
 62
7
  6
CONTINUOUS
 90
17
 70
0
 10
16.3117945387
 20
-25.2561271771
 10
16.2942752204
 20
-25.2494868254
 10
16.2855391977
 20
-25.2461011763
 10
16.2768331591
 20
-25.2426782206
 10
16.2681658941
 20
-25.239226483
 10
16.2595552442
 20
-25.235741055
 10
16.2510106903
 20
-25.2322303892
 10
16.2425417954
 20
-25.2287033635
 10
16.2341669499
 20
-25.2251559421
 10
16.2258965466
 20
-25.2215967064
 10
16.2177408907
 20
-25.218034807
 10
16.20971867
 20
-25.2144672553
 10
16.2018514559
 20
-25.2109088112
 10
16.1941396833
 20
-25.2073621001
 10
16.1865717911
 20
-25.2038083812
 10
16.1791532558
 20
-25.200250141
 10
16.1719053757
 20
-25.1967083985
  0
LWPOLYLINE
  5
2F1
100
AcDbEntity
  8
0
100
AcDbPolyline
 62
7
  6
CONTINUOUS
 90
18
 70
0
 10
15.5191090355
 20
-26.6451407472
 10
15.5313148477
 20
-26.6508379348
 10
15.5439371264
 20
-26.6559167428
 10
15.5569373163
 20
-26.6603386435
 10
15.5702918975
 20
-26.6640729162
 10
15.5839348853
 20
-26.6670805026
 10
15.5977591748
 20
-26.6693259214
 10
15.6116903088
 20
-26.6707938736
 10
15.6256989976
 20
-26.6714795834
 10
15.639748494
 20
-26.6713777487
 10
15.6537808063
 20
-26.6704858273
 10
15.6677533524
 20
-26.6688045432
 10
15.6816592116
 20
-26.6663293019
 10
15.6955041177
 20
-26.663045676
 10
15.7091863763
 20
-26.6589643392
 10
15.722557306
 20
-26.6541306336
 10
15.7355800271
 20
-26.648568517
 10
15.7404027455
 20
-26.6462824125
  0
LWPOLYLINE
  5
2F2
100
AcDbEntity
  8
0
100
AcDbPolyline
 62
250
  6
CONTINUOUS
 90
34
 70
0
 10
15.4541357391
 20
-26.5099222971
 10
15.4627006708
 20
-26.5140066516
 10
15.4716464541
 20
-26.5178853214
 10
15.4809534831
 20
-26.5215493394
 10
15.4906026681
 20
-26.5249906668
 10
15.5005714552
 20
-26.5282007544
 10
15.5108334467
 20
-26.531170892
 10
15.5213640082
 20
-26.5338940206
 10
15.5321409289
 20
-26.5363644655
 10
15.5431401663
 20
-26.5385767076
 10
15.5543371365
 20
-26.5405257808
 10
15.5657065292
 20
-26.5422072583
 10
15.5772225469
 20
-26.5436173185
 10
15.5888591833
 20
-26.5447527833
 10
15.6005903672
 20
-26.5456111152
 10
15.6123897897
 20
-26.5461903889
 10
15.6242309454
 20
-26.5464892992
 10
15.6360871706
 20
-26.5465071687
 10
15.6479317789
 20
-26.546243955
 10
15.6597381244
 20
-26.5457002488
 10
15.671479658
 20
-26.5448772715
 10
15.6831299668
 20
-26.5437768728
 10
15.6946628487
 20
-26.5424015264
 10
15.7060523616
 20
-26.5407543245
 10
15.7172728794
 20
-26.5388389723
 10
15.7282991628
 20
-26.5366597775
 10
15.7391064129
 20
-26.5342216406
 10
15.7496703184
 20
-26.5315300459
 10
15.7599671238
 20
-26.5285910453
 10
15.7699736636
 20
-26.5254112503
 10
15.7796674133
 20
-26.5219978188
 10
15.7890265654
 20
-26.5183584318
 10
15.7980300769
 20
-26.5145012737
 10
15.8066576987
 20
-26.5104350209
  0
LWPOLYLINE
  5
2F3
100
AcDbEntity
  8
0
100
AcDbPolyline
 62
250
  6
CONTINUOUS
 90
34
 70
0
 10
15.4541357391
 20
-26.169948363
 10
15.4627153595
 20
-26.1740393968
 10
15.471673238
 20
-26.177922454
 10
15.4809892291
 20
-26.1815888018
 10
15.4906423708
 20
-26.1850301913
 10
15.5006109648
 20
-26.1882388874
 10
15.5108726293
 20
-26.1912076842
 10
15.5214043146
 20
-26.1939299086
 10
15.5321823146
 20
-26.1963994287
 10
15.5431823539
 20
-26.1986106806
 10
15.5543796806
 20
-26.2005586893
 10
15.5657491253
 20
-26.2022390764
 10
15.5772651183
 20
-26.2036480629
 10
15.5889017604
 20
-26.2047824801
 10
15.6006328818
 20
-26.2056397766
 10
15.6124321003
 20
-26.2062180247
 10
15.6242728888
 20
-26.206515924
 10
15.6361286092
 20
-26.2065328039
 10
15.6479725731
 20
-26.2062686273
 10
15.6597781273
 20
-26.2057239913
 10
15.6715187393
 20
-26.2049001223
 10
15.6831680315
 20
-26.2037988722
 10
15.6946998908
 20
-26.2024227064
 10
15.7060882957
 20
-26.2007747269
 10
15.7173074105
 20
-26.1988586812
 10
15.7283318695
 20
-26.1966789252
 10
15.7391370461
 20
-26.1942403523
 10
15.7496988679
 20
-26.1915484047
 10
15.7599944087
 20
-26.1886088872
 10
15.7699996475
 20
-26.1854286188
 10
15.7796899565
 20
-26.1820155389
 10
15.7890430857
 20
-26.1783777527
 10
15.7980389855
 20
-26.1745233359
 10
15.8066576987
 20
-26.1704610868
  0
LINE
  5
2F4
100
AcDbEntity
  8
0
100
AcDbLine
 62
7
  6
CONTINUOUS
 10
14.0226591795
 20
-25.8969158192
 11
15.5191090355
 21
-26.6451407472
  0
LINE
  5
2F5
100
AcDbEntity
  8
0
100
AcDbLine
 62
250
  6
CONTINUOUS
 10
14.139334809
 20
-25.852521832
 11
15.4541357391
 21
-26.5099222971
  0
LINE
  5
2F6
100
AcDbEntity
  8
0
100
AcDbLine
 62
250
  6
CONTINUOUS
 10
15.4541357391
 20
-26.169948363
 11
14.5029592748
 21
-25.6943601308
  0
LINE
  5
2F7
100
AcDbEntity
  8
0
100
AcDbLine
 62
250
  6
CONTINUOUS
 10
15.5425240867
 20
-25.9382541891
 11
14.5925792864
 21
-25.463281789
  0
LWPOLYLINE
  5
2F8
100
AcDbEntity
  8
DRAFT
100
AcDbPolyline
 62
7
  6
CONTINUOUS
 90
3
 70
0
 10
-13.6618819729
 20
-7.6989975186
 10
-13.6675993505
 20
-7.6252350325
 10
-13.668958244
 20
-7.5521164967
  0
LWPOLYLINE
  5
2F9
100
AcDbEntity
  8
ASSI
100
AcDbPolyline
 62
7
  6
CONTINUOUS
 90
9
 70
0
 10
-14.8309449188
 20
30.3135489566
 10
-14.8308112993
 20
30.3054222119
 10
-14.8286285262
 20
30.2796543925
 10
-14.8237808947
 20
30.2544769443
 10
-14.8163181443
 20
30.2302080509
 10
-14.8064138217
 20
30.2072413881
 10
-14.7942030398
 20
30.1857270097
 10
-14.7797859347
 20
30.1657926126
 10
-14.7634035936
 20
30.1477382647
  0
LINE
  5
2FA
100
AcDbEntity
  8
ASSI
100
AcDbLine
 62
7
  6
CONTINUOUS
 10
-14.8309444802
 20
30.3135489568
 11
-14.8309445268
 21
30.6308860658
  0
LINE
  5
2FB
100
AcDbEntity
  8
ASSI
100
AcDbLine
 62
250
  6
CONTINUOUS
 10
-14.7723658831
 20
30.242923938
 11
-14.7723658831
 21
30.5601753879
  0
LINE
  5
2FC
100
AcDbEntity
  8
0
100
AcDbLine
 62
7
  6
CONTINUOUS
 10
-14.5962243341
 20
29.1100169614
 11
-14.5962243341
 21
28.5488814114
  0
LINE
  5
2FD
100
AcDbEntity
  8
ASSI
100
AcDbLine
 62
7
  6
CONTINUOUS
 10
-14.1160814065
 20
29.358070443
 11
-14.1160814065
 21
29.8120325473
  0
LINE
  5
2FE
100
AcDbEntity
  8
ASSI
100
AcDbLine
 62
250
  6
CONTINUOUS
 10
-14.0428581017
 20
29.2663467508
 11
-14.0428581017
 21
29.7754208949
  0
LINE
  5
2FF
100
AcDbEntity
  8
ASSI
100
AcDbLine
 62
7
  6
CONTINUOUS
 10
-13.9101206695
 20
29.0751303413
 11
-13.9101206695
 21
29.7129757622
  0
LINE
  5
300
100
AcDbEntity
  8
ASSI
100
AcDbLine
 62
250
  6
CONTINUOUS
 10
-13.8368973648
 20
29.0243393034
 11
-13.8368973648
 21
29.7751723283
  0
LINE
  5
301
100
AcDbEntity
  8
ASSI
100
AcDbLine
 62
250
  6
CONTINUOUS
 10
-13.6433330787
 20
28.9275571604
 11
-13.6433330787
 21
29.6783901853
  0
LINE
  5
302
100
AcDbEntity
  8
DRAFT
100
AcDbLine
 62
7
  6
CONTINUOUS
 10
-13.668956883
 20
-7.5521155514
 11
-13.6639586215
 21
-7.2699913705
  0
LINE
  5
303
100
AcDbEntity
  8
0
100
AcDbLine
 62
7
  6
CONTINUOUS
 10
-13.6689554401
 20
-7.5521151287
 11
-13.6639911863
 21
-7.2712782835
  0
LINE
  5
304
100
AcDbEntity
  8
DRAFT
100
AcDbLine
 62
7
  6
CONTINUOUS
 10
-13.6639586215
 20
-7.2699913705
 11
-13.6586937454
 21
-6.9828618928
  0
LINE
  5
305
100
AcDbEntity
  8
0
100
AcDbLine
 62
7
  6
CONTINUOUS
 10
-13.6639911863
 20
-7.2712782835
 11
-13.6587117754
 21
-6.9840269951
  0
LINE
  5
306
100
AcDbEntity
  8
0
100
AcDbLine
 62
7
  6
CONTINUOUS
 10
-13.6587117754
 20
-6.9840269951
 11
-13.6531778161
 21
-6.692014371
  0
LINE
  5
307
100
AcDbEntity
  8
DRAFT
100
AcDbLine
 62
7
  6
CONTINUOUS
 10
-13.6586937454
 20
-6.9828618928
 11
-13.6531550445
 21
-6.6908334431
  0
LWPOLYLINE
  5
308
100
AcDbEntity
  8
ASSI
100
AcDbPolyline
 62
250
  6
CONTINUOUS
 90
18
 70
0
 10
-14.7723658831
 20
30.5601753879
 10
-14.772160109
 20
30.570735481
 10
-14.7715199894
 20
30.5817910832
 10
-14.7704104212
 20
30.5933299
 10
-14.7687923602
 20
30.6053629821
 10
-14.7666341593
 20
30.6178403713
 10
-14.7639233537
 20
30.6306482923
 10
-14.7606393715
 20
30.6437524006
 10
-14.7567637476
 20
30.6571131151
 10
-14.7523109594
 20
30.6705999496
 10
-14.7472777134
 20
30.68416676
 10
-14.7416636183
 20
30.6977633758
 10
-14.7355118474
 20
30.7112519683
 10
-14.7288411547
 20
30.7245746759
 10
-14.7216650529
 20
30.7376886513
 10
-14.71403874
 20
30.7504846809
 10
-14.7059994117
 20
30.7629024131
 10
-14.6975670692
 20
30.7749127718
  0
LINE
  5
309
100
AcDbEntity
  8
0
100
AcDbLine
 62
7
  6
CONTINUOUS
 10
-14.6062004755
 20
-7.2918278042
 11
-14.6005216414
 21
-7.0003103076
  0
LINE
  5
30A
100
AcDbEntity
  8
DRAFT
100
AcDbLine
 62
7
  6
CONTINUOUS
 10
-13.6531550445
 20
-6.6908334431
 11
-13.6473419602
 21
-6.3943441792
  0
LINE
  5
30B
100
AcDbEntity
  8
0
100
AcDbLine
 62
7
  6
CONTINUOUS
 10
-13.6531778161
 20
-6.692014371
 11
-13.6473513953
 21
-6.3948893488
  0
LINE
  5
30C
100
AcDbEntity
  8
0
100
AcDbLine
 62
7
  6
CONTINUOUS
 10
-14.6005216414
 20
-7.0003103076
 11
-14.5946695698
 21
-6.7087074139
  0
LINE
  5
30D
100
AcDbEntity
  8
DRAFT
100
AcDbLine
 62
7
  6
CONTINUOUS
 10
-13.6473419602
 20
-6.3943441792
 11
-13.6412613026
 21
-6.0941346853
  0
LINE
  5
30E
100
AcDbEntity
  8
0
100
AcDbLine
 62
7
  6
CONTINUOUS
 10
-13.6473513953
 20
-6.3948893488
 11
-13.6412597572
 21
-6.0941196166
  0
LINE
  5
30F
100
AcDbEntity
  8
0
100
AcDbLine
 62
7
  6
CONTINUOUS
 10
-14.5946695698
 20
-6.7087074139
 11
-14.5886442641
 21
-6.4170192975
  0
LINE
  5
310
100
AcDbEntity
  8
0
100
AcDbLine
 62
7
  6
CONTINUOUS
 10
-13.6412597572
 20
-6.0941196166
 11
-13.6350407171
 21
-5.796550728
  0
LINE
  5
311
100
AcDbEntity
  8
DRAFT
100
AcDbLine
 62
7
  6
CONTINUOUS
 10
-13.6412613026
 20
-6.0941346853
 11
-13.635039195
 21
-5.7964790224
  0
LINE
  5
312
100
AcDbEntity
  8
0
100
AcDbLine
 62
7
  6
CONTINUOUS
 10
-14.5886442641
 20
-6.4170192975
 11
-14.5824457194
 21
-6.1252461212
  0
LINE
  5
313
100
AcDbEntity
  8
DRAFT
100
AcDbLine
 62
7
  6
CONTINUOUS
 10
-13.635039195
 20
-5.7964790224
 11
-13.6287071866
 21
-5.5025862478
  0
LINE
  5
314
100
AcDbEntity
  8
0
100
AcDbLine
 62
7
  6
CONTINUOUS
 10
-13.6350407171
 20
-5.796550728
 11
-13.6287133364
 21
-5.5029850177
  0
LINE
  5
315
100
AcDbEntity
  8
0
100
AcDbLine
 62
7
  6
CONTINUOUS
 10
-14.5824457194
 20
-6.1252461212
 11
-14.5760739791
 21
-5.8333897668
  0
LINE
  5
316
100
AcDbEntity
  8
0
100
AcDbLine
 62
7
  6
CONTINUOUS
 10
-13.6287133364
 20
-5.5029850177
 11
-13.6223074182
 21
-5.213709545
  0
LINE
  5
317
100
AcDbEntity
  8
DRAFT
100
AcDbLine
 62
7
  6
CONTINUOUS
 10
-13.6287071866
 20
-5.5025862478
 11
-13.6222819532
 21
-5.2128678362
  0
LINE
  5
318
100
AcDbEntity
  8
0
100
AcDbLine
 62
7
  6
CONTINUOUS
 10
-14.5760739791
 20
-5.8333897668
 11
-14.5695290347
 21
-5.5414503056
  0
LINE
  5
319
100
AcDbEntity
  8
DRAFT
100
AcDbLine
 62
7
  6
CONTINUOUS
 10
-13.6222819532
 20
-5.2128678362
 11
-13.6157739772
 21
-4.927429732
  0
LINE
  5
31A
100
AcDbEntity
  8
0
100
AcDbLine
 62
7
  6
CONTINUOUS
 10
-13.6223074182
 20
-5.213709545
 11
-13.6157749477
 21
-4.9274303498
  0
LINE
  5
31B
100
AcDbEntity
  8
0
100
AcDbLine
 62
7
  6
CONTINUOUS
 10
-14.5695290347
 20
-5.5414503056
 11
-14.562810855
 21
-5.2494261827
  0
LINE
  5
31C
100
AcDbEntity
  8
0
100
AcDbLine
 62
7
  6
CONTINUOUS
 10
-14.562810855
 20
-5.2494261827
 11
-14.5559194366
 21
-4.9573175607
  0
LINE
  5
31D
100
AcDbEntity
  8
0
100
AcDbLine
 62
7
  6
CONTINUOUS
 10
-14.5559194366
 20
-4.9573175607
 11
-14.548854784
 21
-4.6651246143
  0
LWPOLYLINE
  5
31E
100
AcDbEntity
  8
0
100
AcDbPolyline
 62
7
  6
CONTINUOUS
 90
49
 70
0
 10
-14.548854784
 20
-4.6651246143
 10
-14.5428953658
 20
-4.5465100308
 10
-14.530631037
 20
-4.4322528856
 10
-14.5120198484
 20
-4.3221932987
 10
-14.4868521571
 20
-4.2154322301
 10
-14.4553856266
 20
-4.1126870512
 10
-14.4181465387
 20
-4.0162172944
 10
-14.3747183783
 20
-3.9262877584
 10
-14.3253466989
 20
-3.842576053
 10
-14.2712793976
 20
-3.7664049476
 10
-14.2125243874
 20
-3.6982326687
 10
-14.1487951926
 20
-3.6376862182
 10
-14.0807738687
 20
-3.584818771
 10
-14.0083982545
 20
-3.5396775748
 10
-13.9316036782
 20
-3.5024708223
 10
-13.851038707
 20
-3.473477578
 10
-13.7664591265
 20
-3.4528550738
 10
-13.6781004086
 20
-3.4407783584
 10
-13.5872491361
 20
-3.4374586677
 10
-13.4939280013
 20
-3.4430808826
 10
-13.3981403151
 20
-3.4576863845
 10
-13.3010369928
 20
-3.4811173271
 10
-13.2024496824
 20
-3.5135535264
 10
-13.102674401
 20
-3.5549205623
 10
-13.0034222887
 20
-3.6044823761
 10
-12.9048486658
 20
-3.6621584347
 10
-12.8068955173
 20
-3.7278859593
 10
-12.7107913053
 20
-3.8007572958
 10
-12.6166286884
 20
-3.8805988508
 10
-12.524417145
 20
-3.9673139146
 10
-12.4351238074
 20
-4.0599819544
 10
-12.3486064825
 20
-4.1587044228
 10
-12.2651076782
 20
-4.2630745653
 10
-12.1859788728
 20
-4.3713014698
 10
-12.1114439133
 20
-4.4828546051
 10
-12.0411850888
 20
-4.5979390147
 10
-11.9755788271
 20
-4.7158214473
 10
-11.9144315399
 20
-4.8367678739
 10
-11.8579036758
 20
-4.9603644084
 10
-11.8067648095
 20
-5.0848597017
 10
-11.7610512224
 20
-5.2099731304
 10
-11.7205735765
 20
-5.3359933242
 10
-11.6856239497
 20
-5.4620386583
 10
-11.6560885117
 20
-5.5885913772
 10
-11.6320426265
 20
-5.7153979092
 10
-11.6139275996
 20
-5.8404827077
 10
-11.6018165017
 20
-5.9632938082
 10
-11.5955637698
 20
-6.0847352877
 10
-11.595226972
 20
-6.2050253454
  0
LWPOLYLINE
  5
31F
100
AcDbEntity
  8
ASSI
100
AcDbPolyline
 62
250
  6
CONTINUOUS
 90
7
 70
0
 10
-10.1558982903
 20
30.7080687639
 10
-10.1573538196
 20
30.6960262024
 10
-10.1621239165
 20
30.6833124917
 10
-10.1701363797
 20
30.6710130201
 10
-10.1812571393
 20
30.6593335908
 10
-10.1953001151
 20
30.6484696319
 10
-10.2120303302
 20
30.6386029268
  0
LWPOLYLINE
  5
320
100
AcDbEntity
  8
ASSI
100
AcDbPolyline
 62
250
  6
CONTINUOUS
 90
7
 70
0
 10
-10.1558982903
 20
30.3681251691
 10
-10.1573538278
 20
30.3560825738
 10
-10.162123932
 20
30.3433688667
 10
-10.1701363994
 20
30.3310694008
 10
-10.1812571585
 20
30.3193899789
 10
-10.195300128
 20
30.3085260284
 10
-10.2120303302
 20
30.298659332
  0
LWPOLYLINE
  5
321
100
AcDbEntity
  8
ASSI
100
AcDbPolyline
 62
250
  6
CONTINUOUS
 90
17
 70
0
 10
-2.1112980734
 20
24.481344956
 10
-2.1196363587
 20
24.4694478681
 10
-2.1276224867
 20
24.4570985057
 10
-2.1352278836
 20
24.4443269351
 10
-2.1423907078
 20
24.4312283592
 10
-2.1490768638
 20
24.4178642551
 10
-2.155269622
 20
24.4042669844
 10
-2.1609420105
 20
24.3904944727
 10
-2.1660725178
 20
24.3765988843
 10
-2.170643807
 20
24.3626269904
 10
-2.1746392432
 20
24.3486297647
 10
-2.1780445745
 20
24.3346568074
 10
-2.1808473581
 20
24.3207585875
 10
-2.1830372682
 20
24.3069872234
 10
-2.1846066807
 20
24.2933926974
 10
-2.1855503518
 20
24.2800227368
 10
-2.185865178
 20
24.2669250353
  0
LWPOLYLINE
  5
322
100
AcDbEntity
  8
ASSI
100
AcDbPolyline
 62
7
  6
CONTINUOUS
 90
14
 70
0
 10
0.9137832137
 20
22.731066647
 10
0.8961729101
 20
22.7142280257
 10
0.8773221076
 20
22.6982975287
 10
0.8573279967
 20
22.683476429
 10
0.8362288405
 20
22.6699627236
 10
0.8142260187
 20
22.6579282633
 10
0.7916876968
 20
22.6475086606
 10
0.7687745691
 20
22.6388303269
 10
0.7456473066
 20
22.6320245694
 10
0.7226979273
 20
22.6271744472
 10
0.7001404781
 20
22.6243209687
 10
0.6781214648
 20
22.6234973417
 10
0.6569363923
 20
22.6246887501
 10
0.6361882012
 20
22.6279650979
  0
LINE
  5
323
100
AcDbEntity
  8
0
100
AcDbLine
 62
7
  6
CONTINUOUS
 10
5.1042804969
 20
20.8215173256
 11
4.2142203142
 21
20.3248364043
  0
LINE
  5
324
100
AcDbEntity
  8
SUPERFICI
100
AcDbLine
 62
250
  6
CONTINUOUS
 10
18.08136411
 20
26.3711787635
 11
14.0888350205
 21
24.3039863131
  0
LINE
  5
325
100
AcDbEntity
  8
0
100
AcDbLine
 62
7
  6
CONTINUOUS
 10
7.0841794842
 20
21.217208478
 11
6.0296900528
 21
20.6762354393
  0
LINE
  5
326
100
AcDbEntity
  8
0
100
AcDbLine
 62
7
  6
CONTINUOUS
 10
6.6952707546
 20
20.3434450884
 11
7.5429761405
 21
20.7733379851
  0
LINE
  5
327
100
AcDbEntity
  8
0
100
AcDbLine
 62
250
  6
CONTINUOUS
 10
9.1693217373
 20
19.9601651867
 11
9.3822765231
 21
20.0681599585
  0
LINE
  5
328
100
AcDbEntity
  8
0
100
AcDbLine
 62
7
  6
CONTINUOUS
 10
11.6470751015
 20
22.7991790522
 11
8.4630377075
 21
21.2298477591
  0
LINE
  5
329
100
AcDbEntity
  8
0
100
AcDbLine
 62
7
  6
CONTINUOUS
 10
9.858622393
 20
20.5320554163
 11
11.6740962475
 21
21.4268564438
  0
LINE
  5
32A
100
AcDbEntity
  8
0
100
AcDbLine
 62
250
  6
CONTINUOUS
 10
9.3822765231
 20
20.0681599585
 11
10.0893833043
 21
20.4166749607
  0
LINE
  5
32B
100
AcDbEntity
  8
0
100
AcDbLine
 62
7
  6
CONTINUOUS
 10
10.1757702091
 20
20.3373353365
 11
15.8917726673
 21
23.1546080062
  0
LINE
  5
32C
100
AcDbEntity
  8
0
100
AcDbLine
 62
250
  6
CONTINUOUS
 10
9.5236978793
 20
19.8242412684
 11
10.2308046605
 21
20.1727562706
  0
LINE
  5
32D
100
AcDbEntity
  8
0
100
AcDbLine
 62
7
  6
CONTINUOUS
 10
10.997961674
 20
23.123735766
 11
7.0841794842
 21
21.217208478
  0
LWPOLYLINE
  5
32E
100
AcDbEntity
  8
0
100
AcDbPolyline
 62
7
  6
CONTINUOUS
 90
7
 70
0
 10
11.6470751015
 20
22.7991790522
 10
11.651594858
 20
22.8013709987
 10
11.6561081216
 20
22.8034895608
 10
11.6606148923
 20
22.8055347385
 10
11.6651151702
 20
22.8075065316
 10
11.6696089553
 20
22.8094049404
 10
11.6740962475
 20
22.8112299646
  0
LINE
  5
32F
100
AcDbEntity
  8
RACCORDO
100
AcDbLine
 62
7
  6
CONTINUOUS
 10
21.4262328345
 20
-14.4485931747
 11
21.4261916252
 21
-14.44859533
  0
LINE
  5
330
100
AcDbEntity
  8
RACCORDO
100
AcDbLine
 62
7
  6
CONTINUOUS
 10
21.4262344938
 20
-14.4485927019
 11
19.5172257197
 21
-14.548358912
  0
LWPOLYLINE
  5
331
100
AcDbEntity
  8
RACCORDO
100
AcDbPolyline
 62
250
  6
CONTINUOUS
 90
3
 70
0
 10
21.449572873
 20
-14.4485900574
 10
21.4343993251
 20
-14.4483173892
 10
21.4262328345
 20
-14.4485931747
  0
LWPOLYLINE
  5
332
100
AcDbEntity
  8
0
100
AcDbPolyline
 62
250
  6
CONTINUOUS
 90
5
 70
0
 10
17.8702069172
 20
-24.800378416
 10
17.8660183519
 20
-24.7984117602
 10
17.8597984652
 20
-24.7959361203
 10
17.8533855674
 20
-24.7938945848
 10
17.8467918659
 20
-24.7922910399
  0
LINE
  5
333
100
AcDbEntity
  8
0
100
AcDbLine
 62
7
  6
CONTINUOUS
 10
16.1719053757
 20
-25.1967083985
 11
14.6361709631
 21
-24.4288591938
  0
LINE
  5
334
100
AcDbEntity
  8
0
100
AcDbLine
 62
7
  6
CONTINUOUS
 10
16.6819698111
 20
-24.7578458905
 11
16.1653563472
 21
-24.4995391586
  0
LINE
  5
335
100
AcDbEntity
  8
0
100
AcDbLine
 62
250
  6
CONTINUOUS
 10
17.4079384895
 20
-24.5728643517
 11
17.8467918659
 21
-24.7922910399
  0
LINE
  5
336
100
AcDbEntity
  8
0
100
AcDbLine
 62
7
  6
CONTINUOUS
 10
17.4079384895
 20
-24.5692442022
 11
17.8702069172
 21
-24.800378416
  0
LWPOLYLINE
  5
337
100
AcDbEntity
  8
0
100
AcDbPolyline
 62
250
  6
CONTINUOUS
 90
10
 70
0
 10
-12.2548255451
 20
-8.2635716816
 10
-12.3851889909
 20
-8.1735064649
 10
-12.5228140775
 20
-8.0859953038
 10
-12.6674737019
 20
-8.0011826055
 10
-12.818929305
 20
-7.9192082452
 10
-12.9769308222
 20
-7.8402075784
 10
-13.1412170323
 20
-7.7643111879
 10
-13.3115166138
 20
-7.6916443559
 10
-13.4875486552
 20
-7.6223268875
 10
-13.669022632
 20
-7.5564731354
  0
LWPOLYLINE
  5
338
100
AcDbEntity
  8
DRAFT
100
AcDbPolyline
 62
250
  6
CONTINUOUS
 90
10
 70
0
 10
-12.2548255451
 20
-8.2635716816
 10
-12.174382969
 20
-8.323186894
 10
-12.0971315634
 20
-8.3837696097
 10
-12.0231247879
 20
-8.4452779041
 10
-11.9524138567
 20
-8.5076692124
 10
-11.8850477031
 20
-8.5709003584
 10
-11.8210729461
 20
-8.6349275849
 10
-11.7605338573
 20
-8.6997065836
 10
-11.7034723312
 20
-8.7651925264
 10
-11.6499278554
 20
-8.8313400954
  0
LINE
  5
339
100
AcDbEntity
  8
0
100
AcDbLine
 62
7
  6
CONTINUOUS
 10
-12.2018766644
 20
-5.5736428425
 11
-12.2016394035
 21
-5.6377837277
  0
LINE
  5
33A
100
AcDbEntity
  8
ASSI
100
AcDbLine
 62
250
  6
CONTINUOUS
 10
-13.2928917908
 20
28.8032095838
 11
-13.2928917908
 21
29.4004377395
  0
LINE
  5
33B
100
AcDbEntity
  8
ASSI
100
AcDbLine
 62
7
  6
CONTINUOUS
 10
-12.7501657281
 20
29.1290747081
 11
-12.7501657281
 21
28.6880802663
  0
LINE
  5
33C
100
AcDbEntity
  8
ASSI
100
AcDbLine
 62
250
  6
CONTINUOUS
 10
-12.7078645604
 20
29.2106559261
 11
-12.7078645604
 21
29.5279247265
  0
LINE
  5
33D
100
AcDbEntity
  8
ASSI
100
AcDbLine
 62
250
  6
CONTINUOUS
 10
-12.42751153
 20
29.2094326242
 11
-12.42751153
 21
29.5267014246
  0
LINE
  5
33E
100
AcDbEntity
  8
ASSI
100
AcDbLine
 62
250
  6
CONTINUOUS
 10
-12.0231587793
 20
28.2564970896
 11
-12.0231587793
 21
28.9366683779
  0
LINE
  5
33F
100
AcDbEntity
  8
ASSI
100
AcDbLine
 62
250
  6
CONTINUOUS
 10
-11.6727174914
 20
29.0243169996
 11
-11.6727174914
 21
28.2661165535
  0
LINE
  5
340
100
AcDbEntity
  8
0
100
AcDbLine
 62
250
  6
CONTINUOUS
 10
-11.4587616085
 20
27.1222163973
 11
-11.4587616085
 21
26.9801500485
  0
LINE
  5
341
100
AcDbEntity
  8
0
100
AcDbLine
 62
250
  6
CONTINUOUS
 10
-11.1796693371
 20
26.9826702616
 11
-11.1796693371
 21
26.8406039128
  0
LINE
  5
342
100
AcDbEntity
  8
ASSI
100
AcDbLine
 62
7
  6
CONTINUOUS
 10
-10.7702667407
 20
28.7587909444
 11
-10.7702667407
 21
30.4042655915
  0
LWPOLYLINE
  5
343
100
AcDbEntity
  8
ASSI
100
AcDbPolyline
 62
250
  6
CONTINUOUS
 90
28
 70
0
 10
-12.42751153
 20
29.5267014246
 10
-12.4274797729
 20
29.5288413714
 10
-12.4273443349
 20
29.5310698904
 10
-12.4271052161
 20
29.5333869817
 10
-12.4267665158
 20
29.5358041981
 10
-12.4263241347
 20
29.5383099867
 10
-12.4257657744
 20
29.540869689
 10
-12.4250873867
 20
29.5434860909
 10
-12.4242930197
 20
29.5461564064
 10
-12.4233825199
 20
29.5488376191
 10
-12.4223518095
 20
29.5515305305
 10
-12.4212049662
 20
29.5542343391
 10
-12.4199540691
 20
29.5569036239
 10
-12.4185970915
 20
29.5595354902
 10
-12.4171360601
 20
29.5621328327
 10
-12.4155891342
 20
29.5646589145
 10
-12.4139560963
 20
29.5671103625
 10
-12.4122371639
 20
29.5694905498
 10
-12.4104511481
 20
29.5717728579
 10
-12.4085974946
 20
29.5739558442
 10
-12.4066767577
 20
29.5760409513
 10
-12.4047094108
 20
29.5780058886
 10
-12.4026948932
 20
29.5798493481
 10
-12.4006337657
 20
29.5815726378
 10
-12.3985481837
 20
29.5831573916
 10
-12.3964455326
 20
29.5845974876
 10
-12.3943184272
 20
29.5858990476
 10
-12.3921668674
 20
29.5870620718
  0
LINE
  5
344
100
AcDbEntity
  8
0
100
AcDbLine
 62
7
  6
CONTINUOUS
 10
-12.2497554536
 20
-7.9770965698
 11
-12.2547427351
 21
-8.2592037041
  0
LINE
  5
345
100
AcDbEntity
  8
DRAFT
100
AcDbLine
 62
7
  6
CONTINUOUS
 10
-12.2444800085
 20
-7.6899576415
 11
-12.2497447008
 21
-7.9770831965
  0
LINE
  5
346
100
AcDbEntity
  8
0
100
AcDbLine
 62
7
  6
CONTINUOUS
 10
-11.644577952
 20
-8.5398821552
 11
-11.6499278554
 21
-8.8313400954
  0
LINE
  5
347
100
AcDbEntity
  8
0
100
AcDbLine
 62
7
  6
CONTINUOUS
 10
-12.2417436712
 20
-7.5445682197
 11
-12.2497554536
 21
-7.9770965698
  0
LINE
  5
348
100
AcDbEntity
  8
0
100
AcDbLine
 62
7
  6
CONTINUOUS
 10
-12.254742591
 20
-8.2592038071
 11
-12.2548255451
 21
-8.2635716816
  0
LINE
  5
349
100
AcDbEntity
  8
DRAFT
100
AcDbLine
 62
7
  6
CONTINUOUS
 10
-12.2548255451
 20
-8.2635716816
 11
-12.2497447008
 21
-7.9770831965
  0
LINE
  5
34A
100
AcDbEntity
  8
DRAFT
100
AcDbLine
 62
7
  6
CONTINUOUS
 10
-12.2389413503
 20
-7.3979334399
 11
-12.2444800085
 21
-7.6899576415
  0
LINE
  5
34B
100
AcDbEntity
  8
0
100
AcDbLine
 62
7
  6
CONTINUOUS
 10
-11.6390460102
 20
-8.2483340209
 11
-11.644577952
 21
-8.5398821552
  0
LINE
  5
34C
100
AcDbEntity
  8
DRAFT
100
AcDbLine
 62
7
  6
CONTINUOUS
 10
-12.2331283508
 20
-7.1014486403
 11
-12.2389413503
 21
-7.3979334399
  0
LINE
  5
34D
100
AcDbEntity
  8
0
100
AcDbLine
 62
7
  6
CONTINUOUS
 10
-11.6333320374
 20
-7.9566958791
 11
-11.6390460102
 21
-8.2483340209
  0
LWPOLYLINE
  5
34E
100
AcDbEntity
  8
ASSI
100
AcDbPolyline
 62
250
  6
CONTINUOUS
 90
28
 70
0
 10
-12.7078645604
 20
29.5279247265
 10
-12.7076534545
 20
29.538593724
 10
-12.7069969157
 20
29.549744704
 10
-12.7058613971
 20
29.5613640114
 10
-12.7042096521
 20
29.5734615107
 10
-12.7020117027
 20
29.5859860747
 10
-12.6992566427
 20
29.5988228327
 10
-12.695925706
 20
29.6119368013
 10
-12.6920025788
 20
29.6252879792
 10
-12.6875038999
 20
29.638745562
 10
-12.6824288851
 20
29.6522618219
 10
-12.6767785919
 20
29.6657890778
 10
-12.6705960343
 20
29.6791956847
 10
-12.6639031264
 20
29.6924205714
 10
-12.656712391
 20
29.7054266458
 10
-12.6490699412
 20
29.7181233308
 10
-12.6410096487
 20
29.7304537002
 10
-12.6325524254
 20
29.7423852515
 10
-12.6237324046
 20
29.7538692659
 10
-12.6145819949
 20
29.7648633073
 10
-12.6051322803
 20
29.7753298482
 10
-12.5954178277
 20
29.7852308955
 10
-12.5854727622
 20
29.7945314801
 10
-12.5753324923
 20
29.8031983167
 10
-12.5650348842
 20
29.811199579
 10
-12.5546170868
 20
29.8185068555
 10
-12.5441153093
 20
29.8250949058
 10
-12.5335666845
 20
29.8309406811
  0
LINE
  5
34F
100
AcDbEntity
  8
0
100
AcDbLine
 62
7
  6
CONTINUOUS
 10
-12.233131865
 20
-7.1017039628
 11
-12.2417436712
 21
-7.5445682197
  0
LINE
  5
350
100
AcDbEntity
  8
DRAFT
100
AcDbLine
 62
7
  6
CONTINUOUS
 10
-12.2270477198
 20
-6.8012404427
 11
-12.2331283508
 21
-7.1014486403
  0
LINE
  5
351
100
AcDbEntity
  8
0
100
AcDbLine
 62
7
  6
CONTINUOUS
 10
-12.2270454722
 20
-6.801198651
 11
-12.233131865
 21
-7.1017039628
  0
LINE
  5
352
100
AcDbEntity
  8
0
100
AcDbLine
 62
7
  6
CONTINUOUS
 10
-11.6274360437
 20
-7.6649678987
 11
-11.6333320374
 21
-7.9566958791
  0
LINE
  5
353
100
AcDbEntity
  8
0
100
AcDbLine
 62
7
  6
CONTINUOUS
 10
-11.6213581239
 20
-7.3731544322
 11
-11.6274360437
 21
-7.6649678987
  0
LINE
  5
354
100
AcDbEntity
  8
0
100
AcDbLine
 62
7
  6
CONTINUOUS
 10
-12.2208257139
 20
-6.503589593
 11
-12.2270454722
 21
-6.801198651
  0
LINE
  5
355
100
AcDbEntity
  8
DRAFT
100
AcDbLine
 62
7
  6
CONTINUOUS
 10
-12.2208255695
 20
-6.5035827923
 11
-12.2270477198
 21
-6.8012404427
  0
LINE
  5
356
100
AcDbEntity
  8
0
100
AcDbLine
 62
7
  6
CONTINUOUS
 10
-11.6150982995
 20
-7.0812557368
 11
-11.6213581239
 21
-7.3731544322
  0
LINE
  5
357
100
AcDbEntity
  8
DRAFT
100
AcDbLine
 62
7
  6
CONTINUOUS
 10
-12.2144935334
 20
-6.2096881056
 11
-12.2208255695
 21
-6.5035827923
  0
LINE
  5
358
100
AcDbEntity
  8
0
100
AcDbLine
 62
7
  6
CONTINUOUS
 10
-12.2144974965
 20
-6.210000696
 11
-12.2208256429
 21
-6.5035862773
  0
LINE
  5
359
100
AcDbEntity
  8
0
100
AcDbLine
 62
7
  6
CONTINUOUS
 10
-12.2080929367
 20
-5.9207426048
 11
-12.2144974965
 21
-6.210000696
  0
LINE
  5
35A
100
AcDbEntity
  8
DRAFT
100
AcDbLine
 62
7
  6
CONTINUOUS
 10
-12.2080681845
 20
-5.9199678872
 11
-12.2144935334
 21
-6.2096881056
  0
LINE
  5
35B
100
AcDbEntity
  8
0
100
AcDbLine
 62
7
  6
CONTINUOUS
 10
-11.608656493
 20
-6.7892678749
 11
-11.6150982995
 21
-7.0812557368
  0
LINE
  5
35C
100
AcDbEntity
  8
0
100
AcDbLine
 62
7
  6
CONTINUOUS
 10
-11.6020327145
 20
-6.4971910155
 11
-11.608656493
 21
-6.7892678749
  0
LINE
  5
35D
100
AcDbEntity
  8
DRAFT
100
AcDbLine
 62
7
  6
CONTINUOUS
 10
-12.2015599796
 20
-5.6345280892
 11
-12.2080681845
 21
-5.9199678872
  0
LINE
  5
35E
100
AcDbEntity
  8
0
100
AcDbLine
 62
7
  6
CONTINUOUS
 10
-12.2015613138
 20
-5.6345285278
 11
-12.2080929367
 21
-5.9207426048
  0
LINE
  5
35F
100
AcDbEntity
  8
0
100
AcDbLine
 62
7
  6
CONTINUOUS
 10
-11.595226972
 20
-6.2050253454
 11
-11.6020327145
 21
-6.4971910155
  0
LINE
  5
360
100
AcDbEntity
  8
ASSI
100
AcDbLine
 62
7
  6
CONTINUOUS
 10
-10.1566926646
 20
30.3479668909
 11
-10.155898473
 21
30.3681414662
  0
LWPOLYLINE
  5
361
100
AcDbEntity
  8
0
100
AcDbPolyline
 62
7
  6
CONTINUOUS
 90
49
 70
0
 10
-11.6499278554
 20
-8.8313400954
 10
-11.6554181031
 20
-8.9495357109
 10
-11.6670551584
 20
-9.0626045336
 10
-11.6847814344
 20
-9.1706828033
 10
-11.7087834286
 20
-9.274386932
 10
-11.7389639281
 20
-9.3733885498
 10
-11.7747815462
 20
-9.466313146
 10
-11.8161253057
 20
-9.552823207
 10
-11.8631582971
 20
-9.6332743299
 10
-11.9156140368
 20
-9.707191581
 10
-11.9737347271
 20
-9.7746386624
 10
-12.0374698345
 20
-9.8354162549
 10
-12.105969784
 20
-9.8885392766
 10
-12.1791543345
 20
-9.9336188526
 10
-12.2571625623
 20
-9.9706962255
 10
-12.3392891219
 20
-9.9993408276
 10
-12.4256350897
 20
-10.0192983341
 10
-12.5161322008
 20
-10.0304247143
 10
-12.6096514942
 20
-10.0324284701
 10
-12.7061809012
 20
-10.0250229394
 10
-12.8056707587
 20
-10.0081565941
 10
-12.9067411583
 20
-9.9819149211
 10
-13.0094599793
 20
-9.9459930001
 10
-13.1136505293
 20
-9.9005434686
 10
-13.2173486321
 20
-9.8464059306
 10
-13.3205593223
 20
-9.7831325959
 10
-13.42311238
 20
-9.7112716084
 10
-13.5225034065
 20
-9.6332262404
 10
-13.6177987989
 20
-9.5495019159
 10
-13.7096252179
 20
-9.4598637326
 10
-13.7976510919
 20
-9.3656203241
 10
-13.8818472464
 20
-9.2669274869
 10
-13.9621358503
 20
-9.1639293915
 10
-14.0380678223
 20
-9.057889591
 10
-14.1095197356
 20
-8.9491458449
 10
-14.1765937027
 20
-8.8375952231
 10
-14.2391468382
 20
-8.7237961184
 10
-14.2973385994
 20
-8.6077137063
 10
-14.3511170167
 20
-8.4895428148
 10
-14.3999922907
 20
-8.3701280587
 10
-14.4440581372
 20
-8.2492677858
 10
-14.4833846239
 20
-8.1271986182
 10
-14.5173577711
 20
-8.0053186081
 10
-14.5459324091
 20
-7.8834283742
 10
-14.5692940664
 20
-7.7615941032
 10
-14.5870278311
 20
-7.6414808847
 10
-14.598973557
 20
-7.5235249359
 10
-14.6053402893
 20
-7.407012385
 10
-14.6062004755
 20
-7.2918278042
  0
LWPOLYLINE
  5
362
100
AcDbEntity
  8
0
100
AcDbPolyline
 62
7
  6
CONTINUOUS
 90
15
 70
0
 10
-12.2548255451
 20
-8.2635716816
 10
-12.25769335
 20
-8.3227950517
 10
-12.2639797658
 20
-8.3798558776
 10
-12.2736868713
 20
-8.4347719875
 10
-12.28695525
 20
-8.4880258067
 10
-12.3036943048
 20
-8.5391828421
 10
-12.3235215274
 20
-8.586860383
 10
-12.3465299345
 20
-8.6307841065
 10
-12.3726183936
 20
-8.6712207698
 10
-12.4010277632
 20
-8.7075500174
 10
-12.4316196446
 20
-8.7394938472
 10
-12.4644837145
 20
-8.7672813832
 10
-12.4991521718
 20
-8.7910256714
 10
-12.5355673549
 20
-8.810703326
 10
-12.5711902907
 20
-8.8253858776
  0
LWPOLYLINE
  5
363
100
AcDbEntity
  8
0
100
AcDbPolyline
 62
7
  6
CONTINUOUS
 90
14
 70
0
 10
-13.61584306
 20
-4.9306818982
 10
-13.6127605383
 20
-4.8692137083
 10
-13.6063436518
 20
-4.8104594562
 10
-13.5965709423
 20
-4.7543925074
 10
-13.5833430015
 20
-4.70076461
 10
-13.5667477667
 20
-4.6497946236
 10
-13.5470308093
 20
-4.6021565354
 10
-13.5240837104
 20
-4.5578435347
 10
-13.4979974969
 20
-4.5168571412
 10
-13.4692701886
 20
-4.4798702457
 10
-13.4379134064
 20
-4.4470211831
 10
-13.4038816721
 20
-4.4181835094
 10
-13.3675497748
 20
-4.3936200014
 10
-13.3469436587
 20
-4.3821302462
  0
LWPOLYLINE
  5
364
100
AcDbEntity
  8
DRAFT
100
AcDbPolyline
 62
7
  6
CONTINUOUS
 90
11
 70
0
 10
-13.615774714
 20
-4.9274302359
 10
-13.6118723083
 20
-4.8581169493
 10
-13.6036376423
 20
-4.7922714944
 10
-13.591043716
 20
-4.7298577738
 10
-13.5739719796
 20
-4.6704890868
 10
-13.5525400418
 20
-4.614521368
 10
-13.5270500538
 20
-4.563031687
 10
-13.4973113031
 20
-4.5160242372
 10
-13.4635025695
 20
-4.4735054835
 10
-13.4263968822
 20
-4.4365294628
 10
-13.3859509887
 20
-4.4053293888
  0
LWPOLYLINE
  5
365
100
AcDbEntity
  8
DRAFT
100
AcDbPolyline
 62
7
  6
CONTINUOUS
 90
13
 70
0
 10
-12.2548255451
 20
-8.2635716816
 10
-12.2589211064
 20
-8.3342287342
 10
-12.2674573724
 20
-8.4009915838
 10
-12.2803980477
 20
-8.4638659335
 10
-12.2978902292
 20
-8.5231436034
 10
-12.3197846053
 20
-8.5785607887
 10
-12.3455805895
 20
-8.6292683955
 10
-12.3753069655
 20
-8.6751593699
 10
-12.4089330902
 20
-8.7163215726
 10
-12.4457977715
 20
-8.7521521261
 10
-12.4858502444
 20
-8.7825372656
 10
-12.5291353579
 20
-8.8075349618
 10
-12.571185583
 20
-8.8254038322
  0
LWPOLYLINE
  5
366
100
AcDbEntity
  8
ASSI
100
AcDbPolyline
 62
7
  6
CONTINUOUS
 90
10
 70
0
 10
-2.5324727399
 20
25.1439684061
 10
-2.5185317576
 20
25.1776481921
 10
-2.5080760208
 20
25.2137172246
 10
-2.5011055296
 20
25.2521755037
 10
-2.497620284
 20
25.2934541117
 10
-2.497620284
 20
25.3371219663
 10
-2.5011055296
 20
25.38188582
 10
-2.5080760208
 20
25.4273145902
 10
-2.5185317576
 20
25.4738393595
 10
-2.5324727399
 20
25.5214601279
  0
LWPOLYLINE
  5
367
100
AcDbEntity
  8
ASSI
100
AcDbPolyline
 62
7
  6
CONTINUOUS
 90
6
 70
0
 10
-1.3236176429
 20
23.4180024456
 10
-1.3218213454
 20
23.4216824522
 10
-1.3165957197
 20
23.4278742477
 10
-1.3083985104
 20
23.436214576
 10
-1.2974260598
 20
23.4457763686
 10
-1.283860073
 20
23.4563404275
  0
LWPOLYLINE
  5
368
100
AcDbEntity
  8
ASSI
100
AcDbPolyline
 62
250
  6
CONTINUOUS
 90
10
 70
0
 10
2.3571012702
 20
23.9589158622
 10
2.3605391263
 20
23.9635464909
 10
2.3636203208
 20
23.9683655554
 10
2.366344854
 20
23.9733730558
 10
2.3687398288
 20
23.9786418156
 10
2.3707781423
 20
23.9840990113
 10
2.3723784845
 20
23.9895261725
 10
2.3735137525
 20
23.9948504759
 10
2.3742110492
 20
24.0001447449
 10
2.3744703749
 20
24.0054089794
  0
LWPOLYLINE
  5
369
100
AcDbEntity
  8
ASSI
100
AcDbPolyline
 62
7
  6
CONTINUOUS
 90
6
 70
0
 10
2.36876216
 20
23.9026402503
 10
2.376646816
 20
23.9128805796
 10
2.390619345
 20
23.933862551
 10
2.4027980883
 20
23.9563184274
 10
2.4130342423
 20
23.9801270895
 10
2.4209283158
 20
24.0043629094
  0
LINE
  5
36A
100
AcDbEntity
  8
ASSI
100
AcDbLine
 62
250
  6
CONTINUOUS
 10
1.8162339644
 20
23.2896283761
 11
2.3571012702
 21
23.9589158622
  0
LINE
  5
36B
100
AcDbEntity
  8
ASSI
100
AcDbLine
 62
7
  6
CONTINUOUS
 10
1.8162339644
 20
23.2189237152
 11
2.3687887649
 21
23.9026737022
  0
LINE
  5
36C
100
AcDbEntity
  8
0
100
AcDbLine
 62
7
  6
CONTINUOUS
 10
6.6952707546
 20
18.8972823226
 11
7.4023775357
 21
19.2962221814
  0
LINE
  5
36D
100
AcDbEntity
  8
0
100
AcDbLine
 62
7
  6
CONTINUOUS
 10
9.5236978793
 20
18.6118086343
 11
9.3115658449
 21
18.4921266767
  0
LINE
  5
36E
100
AcDbEntity
  8
INCISIONI_LASER
100
AcDbLine
 62
250
  6
CONTINUOUS
 10
17.5146399846
 20
24.2175531453
 11
17.1652557322
 21
24.0366541531
  0
LINE
  5
36F
100
AcDbEntity
  8
INCISIONI_LASER
100
AcDbLine
 62
250
  6
CONTINUOUS
 10
16.6117216428
 20
22.5508802362
 11
17.5146399846
 21
23.0183798931
  0
LINE
  5
370
100
AcDbEntity
  8
0
100
AcDbLine
 62
250
  6
CONTINUOUS
 10
9.3115658449
 20
19.7166637347
 11
9.5236978793
 21
19.8242412684
  0
LINE
  5
371
100
AcDbEntity
  8
0
100
AcDbLine
 62
7
  6
CONTINUOUS
 10
10.989509208
 20
19.2251197205
 11
10.7767427057
 21
19.1172204321
  0
LINE
  5
372
100
AcDbEntity
  8
0
100
AcDbLine
 62
250
  6
CONTINUOUS
 10
11.0793327979
 20
19.2196318211
 11
10.8663780121
 21
19.1116370493
  0
LINE
  5
373
100
AcDbEntity
  8
0
100
AcDbLine
 62
7
  6
CONTINUOUS
 10
14.8462817682
 20
22.0810963585
 11
10.2308046605
 21
19.7733578047
  0
LINE
  5
374
100
AcDbEntity
  8
0
100
AcDbLine
 62
7
  6
CONTINUOUS
 10
10.9902750282
 20
19.2255026225
 11
10.9895102426
 21
19.2251202453
  0
LINE
  5
375
100
AcDbEntity
  8
0
100
AcDbLine
 62
7
  6
CONTINUOUS
 10
10.2308046605
 20
18.9608274851
 11
9.5236978793
 21
18.6118086343
  0
LINE
  5
376
100
AcDbEntity
  8
0
100
AcDbLine
 62
7
  6
CONTINUOUS
 10
11.6973835306
 20
19.5740184728
 11
10.9902758837
 21
19.225503044
  0
LINE
  5
377
100
AcDbEntity
  8
0
100
AcDbLine
 62
250
  6
CONTINUOUS
 10
11.7864395791
 20
19.5681468233
 11
11.0793327979
 21
19.2196318211
  0
LINE
  5
378
100
AcDbEntity
  8
0
100
AcDbLine
 62
7
  6
CONTINUOUS
 10
16.5968225698
 20
20.3243053181
 11
13.4127851758
 21
18.7549740249
  0
LWPOLYLINE
  5
379
100
AcDbEntity
  8
0
100
AcDbPolyline
 62
7
  6
CONTINUOUS
 90
7
 70
0
 10
16.5968225698
 20
20.3243053181
 10
16.6013423263
 20
20.3264972646
 10
16.6058555899
 20
20.3286158267
 10
16.6103623606
 20
20.3306610043
 10
16.6148626385
 20
20.3326327975
 10
16.6193564236
 20
20.3345312062
 10
16.6238437158
 20
20.3363562305
  0
LWPOLYLINE
  5
37A
100
AcDbEntity
  8
0
100
AcDbPolyline
 62
7
  6
CONTINUOUS
 90
17
 70
0
 10
16.6238437158
 20
20.3363562305
 10
16.6368083428
 20
20.3410562755
 10
16.6504192138
 20
20.3449273705
 10
16.6646723205
 20
20.3479501909
 10
16.6795737671
 20
20.3501232311
 10
16.6951035788
 20
20.3514078021
 10
16.7112120611
 20
20.3517306462
 10
16.7278874723
 20
20.3510623762
 10
16.7451072968
 20
20.3493962307
 10
16.7627956947
 20
20.3466986515
 10
16.7808896702
 20
20.3429577583
 10
16.7993976382
 20
20.3381592107
 10
16.8183473952
 20
20.3322661739
 10
16.8376829298
 20
20.325278566
 10
16.8573999274
 20
20.3171651914
 10
16.8776070772
 20
20.307830318
 10
16.8830260063
 20
20.3051556929
  0
LWPOLYLINE
  5
37B
100
AcDbEntity
  8
0
100
AcDbPolyline
 62
7
  6
CONTINUOUS
 90
21
 70
0
 10
17.8702069172
 20
-24.800378416
 10
17.8829638538
 20
-24.8072256292
 10
17.8952120565
 20
-24.8147403321
 10
17.9069084288
 20
-24.8228725797
 10
17.917956797
 20
-24.8315202797
 10
17.928391875
 20
-24.8406713884
 10
17.9383516781
 20
-24.8504379298
 10
17.9478295475
 20
-24.8608356524
 10
17.9567376544
 20
-24.8717893849
 10
17.9650645478
 20
-24.8833039468
 10
17.9727694846
 20
-24.8953491675
 10
17.97980502
 20
-24.9078758909
 10
17.9861435106
 20
-24.9208615215
 10
17.9917464842
 20
-24.9342575138
 10
17.9965798482
 20
-24.9480112997
 10
18.0006210837
 20
-24.9620929604
 10
18.0038424219
 20
-24.9764484444
 10
18.0062196569
 20
-24.9910130868
 10
18.0077369581
 20
-25.0057414257
 10
18.0083802742
 20
-25.0205762107
 10
18.0084035181
 20
-25.0239896597
  0
LWPOLYLINE
  5
37C
100
AcDbEntity
  8
0
100
AcDbPolyline
 62
250
  6
CONTINUOUS
 90
10
 70
0
 10
-12.2301157482
 20
-6.9515046798
 10
-12.3604821065
 20
-6.8615511034
 10
-12.4981097169
 20
-6.7741236452
 10
-12.6427714683
 20
-6.6893665767
 10
-12.7942286417
 20
-6.607419763
 10
-12.9522313046
 20
-6.5284184316
 10
-13.1165187233
 20
-6.4524929492
 10
-13.2868197928
 20
-6.3797686072
 10
-13.4628534847
 20
-6.3103654143
 10
-13.6443293106
 20
-6.2443978986
  0
LWPOLYLINE
  5
37D
100
AcDbEntity
  8
DRAFT
100
AcDbPolyline
 62
250
  6
CONTINUOUS
 90
10
 70
0
 10
-12.2301157482
 20
-6.9515046798
 10
-12.1495400329
 20
-7.0111325156
 10
-12.0721660366
 20
-7.071719385
 10
-11.9980474827
 20
-7.1332232202
 10
-11.9272358344
 20
-7.195601317
 10
-11.8597802586
 20
-7.2588103642
 10
-11.7957275921
 20
-7.3228064736
 10
-11.7351223089
 20
-7.3875452104
 10
-11.6780064893
 20
-7.4529816243
 10
-11.6244197908
 20
-7.5190702804
  0
LWPOLYLINE
  5
37E
100
AcDbEntity
  8
DRAFT
100
AcDbPolyline
 62
250
  6
CONTINUOUS
 90
10
 70
0
 10
-11.595226972
 20
-6.2050253454
 10
-11.6488524018
 20
-6.1390101835
 10
-11.7060176302
 20
-6.0736376198
 10
-11.7666828494
 20
-6.0089531795
 10
-11.8308086887
 20
-5.9451183359
 10
-11.898347687
 20
-5.8820631771
 10
-11.9692439909
 20
-5.8194764757
 10
-12.0434450647
 20
-5.7572748973
 10
-12.1209020607
 20
-5.6956128888
 10
-12.2015610564
 20
-5.6345284277
  0
LWPOLYLINE
  5
37F
100
AcDbEntity
  8
ASSI
100
AcDbPolyline
 62
7
  6
CONTINUOUS
 90
13
 70
0
 10
-10.7702667407
 20
30.4042655915
 10
-10.7714703576
 20
30.4274782275
 10
-10.7750795877
 20
30.4514994321
 10
-10.7810284971
 20
30.4759206456
 10
-10.7892106293
 20
30.5003269128
 10
-10.7994851639
 20
30.5243010551
 10
-10.8116791761
 20
30.5474308422
 10
-10.8255865964
 20
30.5693193669
 10
-10.8409670222
 20
30.589593486
 10
-10.8575539198
 20
30.607907476
 10
-10.8750643404
 20
30.6239476216
 10
-10.8932038444
 20
30.6374374344
 10
-10.9116665578
 20
30.6481442009
  0
LWPOLYLINE
  5
380
100
AcDbEntity
  8
ASSI
100
AcDbPolyline
 62
7
  6
CONTINUOUS
 90
10
 70
0
 10
-10.1558988196
 20
30.7082753403
 10
-10.1567804889
 20
30.7291207963
 10
-10.1611271001
 20
30.7587826674
 10
-10.1690935216
 20
30.7874956441
 10
-10.1805747145
 20
30.8147669312
 10
-10.1952523307
 20
30.8399457314
 10
-10.212871048
 20
30.8627684248
 10
-10.2332742141
 20
30.8830724789
 10
-10.256031549
 20
30.9004476294
 10
-10.2791451372
 20
30.9138444923
  0
LINE
  5
381
100
AcDbEntity
  8
ASSI
100
AcDbLine
 62
250
  6
CONTINUOUS
 10
-10.2120303302
 20
30.6386029268
 11
-10.2120303302
 21
30.298659332
  0
LINE
  5
382
100
AcDbEntity
  8
ASSI
100
AcDbLine
 62
7
  6
CONTINUOUS
 10
-10.155898717
 20
30.7082753404
 11
-10.1558982903
 21
30.3681251693
  0
LINE
  5
383
100
AcDbEntity
  8
ASSI
100
AcDbLine
 62
7
  6
CONTINUOUS
 10
-9.0927094497
 20
27.587855306
 11
-9.0927094497
 21
28.7724598119
  0
LINE
  5
384
100
AcDbEntity
  8
ASSI
100
AcDbLine
 62
250
  6
CONTINUOUS
 10
-9.034130806
 20
27.5144763523
 11
-9.034130806
 21
28.7017491336
  0
LWPOLYLINE
  5
385
100
AcDbEntity
  8
ASSI
100
AcDbPolyline
 62
250
  6
CONTINUOUS
 90
28
 70
0
 10
-9.034130806
 20
28.7017491336
 10
-9.0341009444
 20
28.7038497434
 10
-9.0339683992
 20
28.7059420895
 10
-9.0337331706
 20
28.7080261718
 10
-9.0333998107
 20
28.7101182677
 10
-9.0329637673
 20
28.7122020999
 10
-9.0324113834
 20
28.7142288365
 10
-9.0317385139
 20
28.7161974275
 10
-9.0309493039
 20
28.7181089229
 10
-9.030042531
 20
28.7199176404
 10
-9.0290138954
 20
28.7216204064
 10
-9.027867697
 20
28.7232203946
 10
-9.026615613
 20
28.7246814442
 10
-9.0252550133
 20
28.7259985521
 10
-9.023788528
 20
28.7271767214
 10
-9.0222357248
 20
28.7281948005
 10
-9.0205965676
 20
28.7290485292
 10
-9.0188710925
 20
28.7297421678
 10
-9.0170789757
 20
28.7302673454
 10
-9.0152197809
 20
28.7306219261
 10
-9.0132939443
 20
28.7308080457
 10
-9.0113224515
 20
28.7308237416
 10
-9.0093047358
 20
28.7306671096
 10
-9.0072413638
 20
28.7303400537
 10
-9.0051550209
 20
28.7298463231
 10
-9.0030532688
 20
28.7291871674
 10
-9.0009285457
 20
28.7283613369
 10
-8.9987808517
 20
28.7273688317
  0
LWPOLYLINE
  5
386
100
AcDbEntity
  8
ASSI
100
AcDbPolyline
 62
250
  6
CONTINUOUS
 90
19
 70
0
 10
-10.2120303302
 20
30.298659332
 10
-10.2120617954
 20
30.2964784322
 10
-10.2121977118
 20
30.2942032286
 10
-10.2124380794
 20
30.2918337211
 10
-10.2127784046
 20
30.2893584712
 10
-10.213223181
 20
30.2867889175
 10
-10.2137858893
 20
30.2841593753
 10
-10.2144704192
 20
30.2814666396
 10
-10.215272881
 20
30.2787139154
 10
-10.2161950874
 20
30.2759451332
 10
-10.2172412262
 20
30.2731587567
 10
-10.2184071096
 20
30.2703563222
 10
-10.2196819858
 20
30.2675863689
 10
-10.2210696474
 20
30.2648495067
 10
-10.2225663018
 20
30.2621451257
 10
-10.2241498207
 20
30.259519935
 10
-10.2258128277
 20
30.2569895046
 10
-10.2275626991
 20
30.2545382645
 10
-10.2293994349
 20
30.2521662148
  0
LWPOLYLINE
  5
387
100
AcDbEntity
  8
ASSI
100
AcDbPolyline
 62
250
  6
CONTINUOUS
 90
12
 70
0
 10
0.1769754095
 20
22.887366824
 10
0.1664636434
 20
22.863995903
 10
0.1537788883
 20
22.8422376331
 10
0.1391357824
 20
22.8224601851
 10
0.1227821014
 20
22.8049982127
 10
0.1049945652
 20
22.7901471892
 10
0.0860741561
 20
22.7781584082
 10
0.0663410257
 20
22.7692347317
 10
0.0461290776
 20
22.7635271568
 10
0.0257803183
 20
22.761132261
 10
0.0056390687
 20
22.7620905682
 10
-0.0034590433
 20
22.7636543899
  0
LWPOLYLINE
  5
388
100
AcDbEntity
  8
RACCORDO
100
AcDbPolyline
 62
250
  6
CONTINUOUS
 90
47
 70
0
 10
8.6848575545
 20
26.942268666
 10
8.7237903288
 20
26.9943106608
 10
8.7730735471
 20
27.0510913382
 10
8.8282072218
 20
27.1066819526
 10
8.8887107001
 20
27.1606244749
 10
8.9545830517
 20
27.2128773744
 10
9.025825207
 20
27.2634821818
 10
9.1019593047
 20
27.3121054603
 10
9.1829759337
 20
27.3587332028
 10
9.2688845051
 20
27.4033794165
 10
9.3592353908
 20
27.4457526856
 10
9.454285671
 20
27.4859118836
 10
9.5537782655
 20
27.523798137
 10
9.6564923059
 20
27.5589434102
 10
9.7628331746
 20
27.5913211301
 10
9.8723954892
 20
27.6209578696
 10
9.9827422336
 20
27.6474653118
 10
10.0938467505
 20
27.6706647053
 10
10.2057356973
 20
27.6907348013
 10
10.3160520294
 20
27.7078235371
 10
10.4244425193
 20
27.721797433
 10
10.5312603945
 20
27.7327899685
 10
10.6352082937
 20
27.7413495198
 10
10.7360441281
 20
27.7474520893
 10
10.8340099864
 20
27.7511216745
 10
10.9285347727
 20
27.7529786433
 10
11.0194565128
 20
27.7530445122
 10
11.106937181
 20
27.7512977647
 10
11.1908916043
 20
27.7482942193
 10
11.2711956777
 20
27.7440754187
 10
11.3479735063
 20
27.7385998202
 10
11.4215122328
 20
27.7322986145
 10
11.4917787665
 20
27.7252125808
 10
11.558806198
 20
27.7173009399
 10
11.6229809422
 20
27.7088725457
 10
11.684288689
 20
27.6999619051
 10
11.7427437484
 20
27.6905345113
 10
11.7987754649
 20
27.6807956975
 10
11.8523800485
 20
27.6707741758
 10
11.9035612891
 20
27.6604412341
 10
11.9527599014
 20
27.6499160693
 10
11.9999790463
 20
27.6392215302
 10
12.0452155629
 20
27.628334768
 10
12.0889006828
 20
27.6173064344
 10
12.1311781499
 20
27.6061534131
 10
12.1719042203
 20
27.5948588203
 10
12.211078894
 20
27.583422656
  0
LWPOLYLINE
  5
389
100
AcDbEntity
  8
RACCORDO
100
AcDbPolyline
 62
250
  6
CONTINUOUS
 90
10
 70
0
 10
8.603203685
 20
26.975926308
 10
8.6054983731
 20
26.9789863188
 10
8.6583610242
 20
27.0397034168
 10
8.7174398947
 20
27.098962634
 10
8.7825326741
 20
27.1565705672
 10
8.8534085059
 20
27.2123440348
 10
8.9299016437
 20
27.2661719704
 10
9.0118930475
 20
27.317973154
 10
9.0991416444
 20
27.3675907934
 10
9.1195110238
 20
27.3784597747
  0
LWPOLYLINE
  5
38A
100
AcDbEntity
  8
0
100
AcDbPolyline
 62
7
  6
CONTINUOUS
 90
14
 70
0
 10
5.647908241
 20
22.2687401232
 10
5.6563936087
 20
22.2796708936
 10
5.6642769273
 20
22.291078602
 10
5.6715290687
 20
22.3029292669
 10
5.6781262443
 20
22.3151935034
 10
5.684039694
 20
22.3278277215
 10
5.6892398044
 20
22.3407736282
 10
5.6937087629
 20
22.3539865632
 10
5.697434304
 20
22.3674299509
 10
5.7004035574
 20
22.3810568515
 10
5.7026084297
 20
22.3948292036
 10
5.7040418429
 20
22.4087036914
 10
5.704699039
 20
22.4226270161
 10
5.7047455256
 20
22.4274495787
  0
LINE
  5
38B
100
AcDbEntity
  8
0
100
AcDbLine
 62
250
  6
CONTINUOUS
 10
5.1042804969
 20
21.6966231341
 11
5.6325476686
 21
22.3395752898
  0
LINE
  5
38C
100
AcDbEntity
  8
0
100
AcDbLine
 62
7
  6
CONTINUOUS
 10
5.1042804969
 20
21.6070926677
 11
5.647908241
 21
22.2687401232
  0
LINE
  5
38D
100
AcDbEntity
  8
0
100
AcDbLine
 62
7
  6
CONTINUOUS
 10
13.3774298368
 20
16.6849426556
 11
12.3105989246
 21
16.0896182376
  0
LWPOLYLINE
  5
38E
100
AcDbEntity
  8
0
100
AcDbPolyline
 62
7
  6
CONTINUOUS
 90
22
 70
0
 10
13.8382602585
 20
16.6197235359
 10
13.8267332543
 20
16.6134220278
 10
13.8155080676
 20
16.6064942057
 10
13.8046273966
 20
16.5989572043
 10
13.7941281448
 20
16.5908281331
 10
13.7840548245
 20
16.5821344157
 10
13.7744570378
 20
16.5729157502
 10
13.7654070943
 20
16.5632486554
 10
13.7568912855
 20
16.5531279284
 10
13.7488437665
 20
16.5424604239
 10
13.741266381
 20
16.531202811
 10
13.7342550142
 20
16.5194507098
 10
13.7278884097
 20
16.5073146188
 10
13.7222024704
 20
16.4948621892
 10
13.7172053607
 20
16.4821136213
 10
13.7129143732
 20
16.4691126658
 10
13.7093443448
 20
16.4559079918
 10
13.7065041304
 20
16.4425400288
 10
13.704398272
 20
16.4290338702
 10
13.7030326877
 20
16.4154179615
 10
13.702414114
 20
16.4017450493
 10
13.7023743643
 20
16.3972934901
  0
LINE
  5
38F
100
AcDbEntity
  8
0
100
AcDbLine
 62
7
  6
CONTINUOUS
 10
13.8382602585
 20
16.6197235359
 11
15.4214319534
 21
17.4319205831
  0
LINE
  5
390
100
AcDbEntity
  8
0
100
AcDbLine
 62
250
  6
CONTINUOUS
 10
13.9513459246
 20
16.6132755607
 11
15.5341025278
 21
17.4252596581
  0
LINE
  5
391
100
AcDbEntity
  8
0
100
AcDbLine
 62
7
  6
CONTINUOUS
 10
12.4927236088
 20
18.2984642509
 11
11.6450182229
 21
17.8685713542
  0
LINE
  5
392
100
AcDbEntity
  8
0
100
AcDbLine
 62
7
  6
CONTINUOUS
 10
13.3774298368
 20
18.0705833017
 11
12.3105989246
 21
17.5357810033
  0
LINE
  5
393
100
AcDbEntity
  8
0
100
AcDbLine
 62
7
  6
CONTINUOUS
 10
15.4214339232
 20
17.4319215937
 11
15.4231703406
 21
17.4327898167
  0
LINE
  5
394
100
AcDbEntity
  8
0
100
AcDbLine
 62
7
  6
CONTINUOUS
 10
17.2459359974
 20
19.9997486043
 11
13.3774298368
 21
18.0705833017
  0
LINE
  5
395
100
AcDbEntity
  8
0
100
AcDbLine
 62
7
  6
CONTINUOUS
 10
13.3774298368
 20
16.6849426556
 11
17.2746766671
 21
18.628440494
  0
LINE
  5
396
100
AcDbEntity
  8
0
100
AcDbLine
 62
7
  6
CONTINUOUS
 10
20.1344133544
 20
21.0332876626
 11
17.4071965449
 21
19.6891116519
  0
LWPOLYLINE
  5
397
100
AcDbEntity
  8
0
100
AcDbPolyline
 62
250
  6
CONTINUOUS
 90
16
 70
0
 10
13.8382602585
 20
16.6197235359
 10
13.8416579827
 20
16.6213811603
 10
13.8484032037
 20
16.624193708
 10
13.8553839426
 20
16.6264922615
 10
13.8625843866
 20
16.6282716139
 10
13.869988225
 20
16.6295277346
 10
13.8775786865
 20
16.6302577782
 10
13.8853385769
 20
16.630460091
 10
13.8932503184
 20
16.6301342148
 10
13.9012959891
 20
16.6292808876
 10
13.9094573638
 20
16.6279020426
 10
13.9177159551
 20
16.626000803
 10
13.9260530554
 20
16.6235814756
 10
13.9344497794
 20
16.6206495408
 10
13.9428871066
 20
16.6172116399
 10
13.9513459246
 20
16.6132755607
  0
LINE
  5
398
100
AcDbEntity
  8
0
100
AcDbLine
 62
7
  6
CONTINUOUS
 10
15.4231731045
 20
17.4327911631
 11
15.9580402954
 21
17.6933419157
  0
LINE
  5
399
100
AcDbEntity
  8
0
100
AcDbLine
 62
250
  6
CONTINUOUS
 10
15.5341025278
 20
17.4252596581
 11
16.0685524065
 21
17.6856071246
  0
LINE
  5
39A
100
AcDbEntity
  8
0
100
AcDbLine
 62
250
  6
CONTINUOUS
 10
15.9580402954
 20
17.6933419157
 11
15.9596958318
 21
17.6941284078
  0
LINE
  5
39B
100
AcDbEntity
  8
0
100
AcDbLine
 62
7
  6
CONTINUOUS
 10
15.4231703406
 20
17.4327898167
 11
15.4248279668
 21
17.4335773242
  0
LWPOLYLINE
  5
39C
100
AcDbEntity
  8
0
100
AcDbPolyline
 62
7
  6
CONTINUOUS
 90
21
 70
0
 10
20.1344133544
 20
21.0332876626
 10
20.1590411304
 20
21.0448980246
 10
20.1835781318
 20
21.0554221844
 10
20.2080243586
 20
21.064860142
 10
20.232412241
 20
21.0732214026
 10
20.2567093487
 20
21.080496461
 10
20.2808183915
 20
21.0866568017
 10
20.3047308489
 20
21.0916970152
 10
20.3284552413
 20
21.0956225111
 10
20.3519198395
 20
21.0984210025
 10
20.3751342534
 20
21.1000890488
 10
20.3980888732
 20
21.1006300905
 10
20.4206831402
 20
21.1000421622
 10
20.4429033337
 20
21.0983221387
 10
20.4647631746
 20
21.095473145
 10
20.4862032665
 20
21.0915025912
 10
20.507235609
 20
21.0864032694
 10
20.5278482025
 20
21.0801823874
 10
20.547945652
 20
21.0728689783
 10
20.5675123076
 20
21.0644647187
 10
20.5775133917
 20
21.0596477481
  0
LWPOLYLINE
  5
39D
100
AcDbEntity
  8
0
100
AcDbPolyline
 62
7
  6
CONTINUOUS
 90
18
 70
0
 10
15.9580402954
 20
17.6933419157
 10
15.9702612551
 20
17.6988942819
 10
15.9828903788
 20
17.703828722
 10
15.995889178
 20
17.7081073509
 10
16.0092344284
 20
17.7116999248
 10
16.0228601577
 20
17.714568152
 10
16.0366591166
 20
17.716677624
 10
16.0505580986
 20
17.718013872
 10
16.0645275199
 20
17.7185722597
 10
16.0785283715
 20
17.7183479067
 10
16.0925018357
 20
17.7173393004
 10
16.106407591
 20
17.7155478329
 10
16.1202410309
 20
17.7129688406
 10
16.1340090923
 20
17.7095875784
 10
16.1476101413
 20
17.70541548
 10
16.1608959718
 20
17.7004989689
 10
16.1738301272
 20
17.6948621786
 10
16.1793333709
 20
17.692194013
  0
LWPOLYLINE
  5
39E
100
AcDbEntity
  8
0
100
AcDbPolyline
 62
7
  6
CONTINUOUS
 90
15
 70
0
 10
15.4248279668
 20
17.4335773242
 10
15.4315634557
 20
17.4363848621
 10
15.4385311949
 20
17.4386767237
 10
15.4457154519
 20
17.4404477435
 10
15.4530999676
 20
17.4416939186
 10
15.4606679219
 20
17.4424123838
 10
15.4684022435
 20
17.4426015489
 10
15.4762854494
 20
17.4422610056
 10
15.4842995489
 20
17.441391464
 10
15.4924264792
 20
17.439994941
 10
15.5006478903
 20
17.4380746311
 10
15.508944987
 20
17.4356348044
 10
15.5172989804
 20
17.4326809935
 10
15.5256911295
 20
17.4292199805
 10
15.5341025278
 20
17.4252596581
  0
LWPOLYLINE
  5
39F
100
AcDbEntity
  8
0
100
AcDbPolyline
 62
250
  6
CONTINUOUS
 90
15
 70
0
 10
15.9596958318
 20
17.6941284078
 10
15.9664213506
 20
17.6969311045
 10
15.9733758896
 20
17.6992165579
 10
15.980543695
 20
17.700979591
 10
15.9879085302
 20
17.7022162102
 10
15.9954537123
 20
17.7029236141
 10
16.0031621496
 20
17.7031002003
 10
16.0110163808
 20
17.702745569
 10
16.0189986144
 20
17.7018605233
 10
16.0270907688
 20
17.7004470681
 10
16.0352745134
 20
17.6985084051
 10
16.0435313103
 20
17.696048926
 10
16.0518424559
 20
17.693074202
 10
16.0601891236
 20
17.6895909714
 10
16.0685524065
 20
17.6856071246
  0
LWPOLYLINE
  5
3A0
100
AcDbEntity
  8
DRAFT
100
AcDbPolyline
 62
250
  6
CONTINUOUS
 90
10
 70
0
 10
-14.6062004755
 20
-7.2918278042
 10
-14.497306622
 20
-7.3168398351
 10
-14.3894870703
 20
-7.3429806551
 10
-14.2827924384
 20
-7.3702379931
 10
-14.177274788
 20
-7.3987561474
 10
-14.0729817441
 20
-7.4283667946
 10
-13.9699561787
 20
-7.4585785795
 10
-13.8682442904
 20
-7.4892090521
 10
-13.7678958793
 20
-7.5203951054
 10
-13.668958244
 20
-7.5521164967
  0
LWPOLYLINE
  5
3A1
100
AcDbEntity
  8
DRAFT
100
AcDbPolyline
 62
250
  6
CONTINUOUS
 90
10
 70
0
 10
-14.5792814852
 20
-5.9793276928
 10
-14.4706553719
 20
-6.0044375349
 10
-14.3630995201
 20
-6.0306633602
 10
-14.2566641956
 20
-6.0579929122
 10
-14.1513991405
 20
-6.0864134185
 10
-14.0473535497
 20
-6.115911597
 10
-13.9445760486
 20
-6.1464736619
 10
-13.8431146696
 20
-6.1780853301
 10
-13.7430168302
 20
-6.2107318281
 10
-13.6443293106
 20
-6.2443978986
  0
LWPOLYLINE
  5
3A2
100
AcDbEntity
  8
DRAFT
100
AcDbPolyline
 62
250
  6
CONTINUOUS
 90
10
 70
0
 10
-13.615774714
 20
-4.9274302359
 10
-13.714295112
 20
-4.895211195
 10
-13.8142131798
 20
-4.863629454
 10
-13.9154823445
 20
-4.8327038195
 10
-14.0180531786
 20
-4.8023356209
 10
-14.1218804082
 20
-4.772664409
 10
-14.2269226965
 20
-4.7440604036
 10
-14.3331333811
 20
-4.716652672
 10
-14.4404607316
 20
-4.6903366588
 10
-14.548854784
 20
-4.6651246143
  0
LWPOLYLINE
  5
3A3
100
AcDbEntity
  8
0
100
AcDbPolyline
 62
250
  6
CONTINUOUS
 90
10
 70
0
 10
-13.61584306
 20
-4.9306818982
 10
-13.4343717467
 20
-4.9967615058
 10
-13.2583415438
 20
-5.0662488295
 10
-13.0880429585
 20
-5.1390292221
 10
-12.923756852
 20
-5.2149826929
 10
-12.7657545621
 20
-5.2939838379
 10
-12.6142973793
 20
-5.3759020119
 10
-12.4696353652
 20
-5.4606019192
 10
-12.3320070164
 20
-5.5479438716
 10
-12.2016394035
 20
-5.6377837277
  0
LINE
  5
3A4
100
AcDbEntity
  8
RACCORDO
100
AcDbLine
 62
7
  6
CONTINUOUS
 10
17.035254077
 20
-19.9796203839
 11
14.9188016018
 21
-18.9213941463
  0
LWPOLYLINE
  5
3A5
100
AcDbEntity
  8
ASSI
100
AcDbPolyline
 62
250
  6
CONTINUOUS
 90
7
 70
0
 10
-14.8309444802
 20
30.3135489568
 10
-14.8290384149
 20
30.2998439988
 10
-14.8238252749
 20
30.2871738494
 10
-14.8153847212
 20
30.2749461695
 10
-14.803857987
 20
30.2633655609
 10
-14.7894379456
 20
30.2526257986
 10
-14.7723658831
 20
30.2429065875
  0
LWPOLYLINE
  5
3A6
100
AcDbEntity
  8
ASSI
100
AcDbPolyline
 62
250
  6
CONTINUOUS
 90
7
 70
0
 10
-14.8309445188
 20
30.6308577019
 10
-14.8290384218
 20
30.6171128239
 10
-14.8238252868
 20
30.6044426715
 10
-14.8153847358
 20
30.5922149871
 10
-14.8038580009
 20
30.5806343732
 10
-14.7894379549
 20
30.5698946049
 10
-14.7723658831
 20
30.5601753879
  0
LINE
  5
3A7
100
AcDbEntity
  8
ASSI
100
AcDbLine
 62
250
  6
CONTINUOUS
 10
-6.7434824089
 20
27.5564249351
 11
-6.7434824089
 21
26.3691521537
  0
LINE
  5
3A8
100
AcDbEntity
  8
ASSI
100
AcDbLine
 62
250
  6
CONTINUOUS
 10
-6.4631293785
 20
27.5552016331
 11
-6.4631293785
 21
26.3768477248
  0
LINE
  5
3A9
100
AcDbEntity
  8
ASSI
100
AcDbLine
 62
7
  6
CONTINUOUS
 10
-6.2447833412
 20
26.4960492446
 11
-6.2447833412
 21
27.6652165147
  0
LINE
  5
3AA
100
AcDbEntity
  8
ASSI
100
AcDbLine
 62
250
  6
CONTINUOUS
 10
-5.3218202047
 20
26.845593833
 11
-5.3218202047
 21
25.6583210517
  0
LINE
  5
3AB
100
AcDbEntity
  8
ASSI
100
AcDbLine
 62
7
  6
CONTINUOUS
 10
-5.3803988485
 20
25.7317000054
 11
-5.3803987972
 21
26.916376132
  0
LWPOLYLINE
  5
3AC
100
AcDbEntity
  8
ASSI
100
AcDbPolyline
 62
250
  6
CONTINUOUS
 90
13
 70
0
 10
-5.2864702505
 20
26.8712135311
 10
-5.2852870723
 20
26.89416312
 10
-5.2817573347
 20
26.9179118823
 10
-5.2759400988
 20
26.9420624378
 10
-5.2679327019
 20
26.9662106834
 10
-5.2578691282
 20
26.989952554
 10
-5.2459177676
 20
27.0128907843
 10
-5.2322785978
 20
27.0346415557
 10
-5.2171798383
 20
27.0548409187
 10
-5.2008741318
 20
27.0731508826
 10
-5.1836343167
 20
27.0892650714
 10
-5.1657488612
 20
27.1029138506
 10
-5.1475170372
 20
27.1138688385
  0
LWPOLYLINE
  5
3AD
100
AcDbEntity
  8
ASSI
100
AcDbPolyline
 62
7
  6
CONTINUOUS
 90
9
 70
0
 10
-4.1178866681
 20
29.5057305635
 10
-4.1186477492
 20
29.4923529101
 10
-4.1232853618
 20
29.4726038201
 10
-4.1322914333
 20
29.453046953
 10
-4.145503305
 20
29.4338051124
 10
-4.1623350114
 20
29.4156577649
 10
-4.1825912307
 20
29.3988647328
 10
-4.2064672847
 20
29.3831661939
 10
-4.2339631734
 20
29.3685621482
  0
LWPOLYLINE
  5
3AE
100
AcDbEntity
  8
SUPERFICI
100
AcDbPolyline
 62
7
  6
CONTINUOUS
 90
9
 70
0
 10
-1.6061301183
 20
27.4869096666
 10
-1.6077131123
 20
27.479092589
 10
-1.6111354727
 20
27.4688209818
 10
-1.6168992113
 20
27.4562646327
 10
-1.6252179668
 20
27.4420232133
 10
-1.635896581
 20
27.4269639597
 10
-1.6487111353
 20
27.4115945866
 10
-1.6635544191
 20
27.3961440835
 10
-1.6699913561
 20
27.3900277401
  0
LINE
  5
3AF
100
AcDbEntity
  8
SUPERFICI
100
AcDbLine
 62
7
  6
CONTINUOUS
 10
19.1223333248
 20
20.9121316398
 11
19.4046813836
 21
21.0947519804
  0
LINE
  5
3B0
100
AcDbEntity
  8
0
100
AcDbLine
 62
250
  6
CONTINUOUS
 10
15.629883995
 20
15.7740065255
 11
17.2311647859
 21
16.576728529
  0
LINE
  5
3B1
100
AcDbEntity
  8
0
100
AcDbLine
 62
250
  6
CONTINUOUS
 10
15.8066576987
 20
15.4691169867
 11
17.4079384895
 21
16.2718389902
  0
LINE
  5
3B2
100
AcDbEntity
  8
0
100
AcDbLine
 62
250
  6
CONTINUOUS
 10
17.2311647859
 20
16.576728529
 11
17.7594319576
 21
16.8401673491
  0
LINE
  5
3B3
100
AcDbEntity
  8
0
100
AcDbLine
 62
250
  6
CONTINUOUS
 10
17.4079384895
 20
16.2718389902
 11
17.9362056613
 21
16.5352778102
  0
LINE
  5
3B4
100
AcDbEntity
  8
0
100
AcDbLine
 62
7
  6
CONTINUOUS
 10
23.1848932036
 20
19.508047738
 11
17.7969254623
 21
16.8833979676
  0
LINE
  5
3B5
100
AcDbEntity
  8
RACCORDO
100
AcDbLine
 62
250
  6
CONTINUOUS
 10
12.5066165177
 20
11.8373751816
 11
15.8568992429
 21
13.3223196228
  0
LWPOLYLINE
  5
3B6
100
AcDbEntity
  8
RACCORDO
100
AcDbPolyline
 62
7
  6
CONTINUOUS
 90
16
 70
0
 10
23.727466249
 20
-16.6371191279
 10
23.7269497173
 20
-16.6369167353
 10
23.725756681
 20
-16.6367120936
 10
23.7241958725
 20
-16.6367444675
 10
23.722253216
 20
-16.6370006575
 10
23.7199151872
 20
-16.6374752375
 10
23.7171609669
 20
-16.6382241474
 10
23.7139751438
 20
-16.6392316584
 10
23.7103442621
 20
-16.6404894097
 10
23.7062463324
 20
-16.6420621494
 10
23.7016652667
 20
-16.6439331954
 10
23.6965906123
 20
-16.6460885091
 10
23.6910077448
 20
-16.6485945448
 10
23.6849058211
 20
-16.6514610129
 10
23.6782789858
 20
-16.6546412127
 10
23.6711225938
 20
-16.6581153196
  0
LWPOLYLINE
  5
3B7
100
AcDbEntity
  8
ASSI
100
AcDbPolyline
 62
7
  6
CONTINUOUS
 90
13
 70
0
 10
-6.2447833412
 20
27.6652165147
 10
-6.2462878622
 20
27.6942323096
 10
-6.2507993998
 20
27.7242588153
 10
-6.2582355366
 20
27.7547853322
 10
-6.2684632018
 20
27.7852931662
 10
-6.2813063701
 20
27.8152608442
 10
-6.2965488854
 20
27.8441730779
 10
-6.3139331607
 20
27.8715337338
 10
-6.333158693
 20
27.8968763827
 10
-6.353892315
 20
27.9197688702
 10
-6.3757803407
 20
27.9398190522
 10
-6.3984547207
 20
27.9566813183
 10
-6.4215331125
 20
27.9700647763
  0
LINE
  5
3B8
100
AcDbEntity
  8
ASSI
100
AcDbLine
 62
7
  6
CONTINUOUS
 10
-5.5627231108
 20
26.847712404
 11
-5.5870149297
 21
27.9914744959
  0
LWPOLYLINE
  5
3B9
100
AcDbEntity
  8
ASSI
100
AcDbPolyline
 62
250
  6
CONTINUOUS
 90
28
 70
0
 10
-3.0311718076
 20
25.7002696344
 10
-3.0312108427
 20
25.7025547542
 10
-3.0313601385
 20
25.7049195208
 10
-3.0316196949
 20
25.707363934
 10
-3.031986985
 20
25.7099007193
 10
-3.0324645359
 20
25.7125171513
 10
-3.0330599279
 20
25.715175054
 10
-3.033777336
 20
25.7178766846
 10
-3.0346125853
 20
25.720619786
 10
-3.0355607318
 20
25.7233594113
 10
-3.0366252434
 20
25.7260949257
 10
-3.0378026523
 20
25.728826964
 10
-3.0390776106
 20
25.7315124845
 10
-3.0404511235
 20
25.7341476713
 10
-3.0419221858
 20
25.7367363403
 10
-3.0434724338
 20
25.739246897
 10
-3.0451016303
 20
25.7416763541
 10
-3.0468100125
 20
25.744027699
 10
-3.048579928
 20
25.7462782985
 10
-3.050411924
 20
25.7484273066
 10
-3.0523054532
 20
25.7504755693
 10
-3.0542412209
 20
25.7524029917
 10
-3.0562195539
 20
25.7542084461
 10
-3.0582401253
 20
25.7558930602
 10
-3.0602826594
 20
25.7574401225
 10
-3.0623403976
 20
25.7588440624
 10
-3.0644200984
 20
25.7601104505
 10
-3.0665217619
 20
25.7612392868
  0
LINE
  5
3BA
100
AcDbEntity
  8
ASSI
100
AcDbLine
 62
7
  6
CONTINUOUS
 10
-4.1179338792
 20
29.5057309158
 11
-4.1356255451
 21
30.6928029629
  0
LINE
  5
3BB
100
AcDbEntity
  8
ASSI
100
AcDbLine
 62
250
  6
CONTINUOUS
 10
-4.2339631734
 20
29.3685621482
 11
-4.2464072147
 21
30.5619497181
  0
LINE
  5
3BC
100
AcDbEntity
  8
ASSI
100
AcDbLine
 62
250
  6
CONTINUOUS
 10
-3.1332711961
 20
28.8461383357
 11
-3.1332711961
 21
29.8948854216
  0
LINE
  5
3BD
100
AcDbEntity
  8
ASSI
100
AcDbLine
 62
250
  6
CONTINUOUS
 10
-3.0311718076
 20
24.5129968531
 11
-3.0311718076
 21
25.7002696344
  0
LINE
  5
3BE
100
AcDbEntity
  8
SUPERFICI
100
AcDbLine
 62
250
  6
CONTINUOUS
 10
-2.8649273477
 20
27.9011404425
 11
-2.8649273477
 21
27.0362219146
  0
LINE
  5
3BF
100
AcDbEntity
  8
ASSI
100
AcDbLine
 62
250
  6
CONTINUOUS
 10
-2.7508187773
 20
24.5206924242
 11
-2.7508187773
 21
25.6990463325
  0
LINE
  5
3C0
100
AcDbEntity
  8
ASSI
100
AcDbLine
 62
7
  6
CONTINUOUS
 10
-2.5324727399
 20
24.639893944
 11
-2.5324727399
 21
25.809061214
  0
LINE
  5
3C1
100
AcDbEntity
  8
SUPERFICI
100
AcDbLine
 62
250
  6
CONTINUOUS
 10
-2.4520561315
 20
28.0134008678
 11
-2.4520561315
 21
27.030816208
  0
LWPOLYLINE
  5
3C2
100
AcDbEntity
  8
ASSI
100
AcDbPolyline
 62
250
  6
CONTINUOUS
 90
13
 70
0
 10
-3.0665217619
 20
25.7612392868
 10
-3.0653385821
 20
25.7841888911
 10
-3.0618088404
 20
25.8079376667
 10
-3.055991599
 20
25.8320882326
 10
-3.0479841959
 20
25.8562364849
 10
-3.0379206165
 20
25.8799783584
 10
-3.0259692515
 20
25.9029165877
 10
-3.0123300795
 20
25.9246673545
 10
-2.9972313204
 20
25.9448667101
 10
-2.9809256172
 20
25.9631766649
 10
-2.963685808
 20
25.979290844
 10
-2.9458003613
 20
25.992939614
 10
-2.9275685486
 20
26.0038945942
  0
LINE
  5
3C3
100
AcDbEntity
  8
SUPERFICI
100
AcDbLine
 62
7
  6
CONTINUOUS
 10
-1.6057875322
 20
27.4917800193
 11
-1.6061301183
 21
27.4869096666
  0
LWPOLYLINE
  5
3C4
100
AcDbEntity
  8
ASSI
100
AcDbPolyline
 62
7
  6
CONTINUOUS
 90
3
 70
0
 10
2.4209283158
 20
24.0043629094
 10
2.4264692215
 20
24.0287864755
 10
2.4297457987
 20
24.0539286819
  0
LWPOLYLINE
  5
3C5
100
AcDbEntity
  8
0
100
AcDbPolyline
 62
250
  6
CONTINUOUS
 90
30
 70
0
 10
3.5029997061
 20
21.2809720489
 10
3.4985791806
 20
21.2700805541
 10
3.4937719853
 20
21.2594142853
 10
3.4885889697
 20
21.2489973155
 10
3.4830418316
 20
21.2388531552
 10
3.4771430906
 20
21.2290046993
 10
3.4709060598
 20
21.2194741751
 10
3.4643448157
 20
21.2102830924
 10
3.4574741668
 20
21.201452195
 10
3.4503096196
 20
21.1930014137
 10
3.4428673442
 20
21.1849498214
 10
3.4351641373
 20
21.17731559
 10
3.4272173845
 20
21.1701159496
 10
3.4190450213
 20
21.1633671494
 10
3.4106654922
 20
21.1570844209
 10
3.4020977093
 20
21.1512819439
 10
3.3933610096
 20
21.1459728144
 10
3.3844751112
 20
21.1411690146
 10
3.3754600691
 20
21.1368813864
 10
3.3663362298
 20
21.1331196068
 10
3.3571241853
 20
21.129892166
 10
3.3478447264
 20
21.1272063479
 10
3.3385187965
 20
21.1250682145
 10
3.3291674437
 20
21.1234825912
 10
3.3198117733
 20
21.1224530568
 10
3.3104729005
 20
21.1219819349
 10
3.3011719027
 20
21.1220702888
 10
3.2919297717
 20
21.122717919
 10
3.2827673663
 20
21.1239233639
 10
3.2761562125
 20
21.1251508881
  0
LINE
  5
3C6
100
AcDbEntity
  8
INCISIONI_LASER
100
AcDbLine
 62
250
  6
CONTINUOUS
 10
17.5146399846
 20
22.8027638162
 11
16.8201171727
 21
22.0632397158
  0
LWPOLYLINE
  5
3C7
100
AcDbEntity
  8
SUPERFICI
100
AcDbPolyline
 62
7
  6
CONTINUOUS
 90
69
 70
0
 10
18.5975311939
 20
21.1745327052
 10
18.6379555523
 20
21.2105837191
 10
18.6868762829
 20
21.2547288351
 10
18.7343132194
 20
21.2980637936
 10
18.7802614982
 20
21.3405880637
 10
18.8248037059
 20
21.3823840745
 10
18.8679455952
 20
21.4234518718
 10
18.9096814135
 20
21.4637914098
 10
18.9500764892
 20
21.50348498
 10
18.9891383102
 20
21.5425321035
 10
19.0268593887
 20
21.5809332591
 10
19.0632825896
 20
21.6187721752
 10
19.0984186144
 20
21.6560477689
 10
19.1322567617
 20
21.6927611232
 10
19.164807792
 20
21.7289992152
 10
19.1960898704
 20
21.7647622455
 10
19.2260848318
 20
21.8000500134
 10
19.2547489418
 20
21.8349488951
 10
19.2821129525
 20
21.8694614761
 10
19.3081461117
 20
21.9035851707
 10
19.3327124289
 20
21.9373985984
 10
19.3558808817
 20
21.9709469639
 10
19.3775824924
 20
22.0041850626
 10
19.397474337
 20
22.0370558989
 10
19.4156325607
 20
22.0696765394
 10
19.4319810184
 20
22.1019299176
 10
19.44594835
 20
22.1334078392
 10
19.4574877965
 20
22.1641236968
 10
19.466646117
 20
22.1940640979
 10
19.4729922291
 20
22.2227806704
 10
19.4764168847
 20
22.2502330468
 10
19.4770293319
 20
22.2764615946
 10
19.4747262322
 20
22.3011390451
 10
19.4693421058
 20
22.3242276633
 10
19.4610424326
 20
22.3457651842
 10
19.4502203139
 20
22.3655375436
 10
19.4367995372
 20
22.3834157497
 10
19.4208563151
 20
22.3995287944
 10
19.4030123869
 20
22.414049589
 10
19.3833479137
 20
22.4269276502
 10
19.3617827344
 20
22.4382134614
 10
19.3386981048
 20
22.4482313839
 10
19.3141683267
 20
22.4570098443
 10
19.2881190981
 20
22.464520416
 10
19.2607087694
 20
22.4710021797
 10
19.2319726644
 20
22.4764867524
 10
19.2018754592
 20
22.4809425172
 10
19.1704695325
 20
22.4845137044
 10
19.1377742656
 20
22.4872206958
 10
19.1037702772
 20
22.4890431097
 10
19.0684518026
 20
22.4900640318
 10
19.0318310614
 20
22.4902966245
 10
18.993895834
 20
22.4897277253
 10
18.9546036964
 20
22.4884009331
 10
18.9139602005
 20
22.4863248358
 10
18.8719597945
 20
22.4834908453
 10
18.8285433989
 20
22.4799167963
 10
18.7837151513
 20
22.4756084074
 10
18.7374709141
 20
22.4705599599
 10
18.6897391944
 20
22.4647721321
 10
18.6405306018
 20
22.4582503381
 10
18.5898345267
 20
22.4509891639
 10
18.5375476478
 20
22.4429730454
 10
18.4836768588
 20
22.4342070261
 10
18.4282152659
 20
22.4246860625
 10
18.3710388665
 20
22.4143794611
 10
18.3121063264
 20
22.4032769904
 10
18.2514589799
 20
22.3913888818
 10
18.1890968268
 20
22.3787151353
  0
LINE
  5
3C8
100
AcDbEntity
  8
DRAFT
100
AcDbLine
 62
7
  6
CONTINUOUS
 10
-13.3859509887
 20
-4.4053293888
 11
-13.3469346826
 21
-4.3821434139
  0
LINE
  5
3C9
100
AcDbEntity
  8
0
100
AcDbLine
 62
7
  6
CONTINUOUS
 10
17.4079384895
 20
14.6696883292
 11
16.5178783068
 21
14.173007408
  0
LINE
  5
3CA
100
AcDbEntity
  8
0
100
AcDbLine
 62
250
  6
CONTINUOUS
 10
17.761143875
 20
14.4930856365
 11
16.6819698111
 21
13.9039327943
  0
LINE
  5
3CB
100
AcDbEntity
  8
0
100
AcDbLine
 62
250
  6
CONTINUOUS
 10
18.114428141
 20
13.8832326099
 11
17.035254077
 21
13.2940797678
  0
LINE
  5
3CC
100
AcDbEntity
  8
0
100
AcDbLine
 62
7
  6
CONTINUOUS
 10
24.0726289972
 20
18.768071484
 11
17.5997944441
 21
15.2758287447
  0
LINE
  5
3CD
100
AcDbEntity
  8
RACCORDO
100
AcDbLine
 62
7
  6
CONTINUOUS
 10
23.6711225938
 20
17.6265580572
 11
18.3882004074
 21
14.8816257631
  0
LINE
  5
3CE
100
AcDbEntity
  8
0
100
AcDbLine
 62
7
  6
CONTINUOUS
 10
24.0726289972
 20
18.1762033108
 11
18.0429552547
 21
15.0542483395
  0
LINE
  5
3CF
100
AcDbEntity
  8
0
100
AcDbLine
 62
250
  6
CONTINUOUS
 10
18.4627408627
 20
14.8443555354
 11
17.7618049089
 21
14.4927551196
  0
LINE
  5
3D0
100
AcDbEntity
  8
0
100
AcDbLine
 62
250
  6
CONTINUOUS
 10
18.8162897659
 20
14.2345830377
 11
18.1153538121
 21
13.8829826218
  0
LINE
  5
3D1
100
AcDbEntity
  8
RACCORDO
100
AcDbLine
 62
250
  6
CONTINUOUS
 10
12.841551529
 20
11.2191393575
 11
16.1918342655
 21
12.7040838037
  0
LWPOLYLINE
  5
3D2
100
AcDbEntity
  8
DRAFT
100
AcDbPolyline
 62
7
  6
CONTINUOUS
 90
26
 70
0
 10
-12.571185583
 20
-8.8254038322
 10
-12.6238545256
 20
-8.8401398594
 10
-12.6753033431
 20
-8.84768748
 10
-12.7282113611
 20
-8.8491994236
 10
-12.782396567
 20
-8.8445321638
 10
-12.838003847
 20
-8.8337727502
 10
-12.8942386478
 20
-8.8170433357
 10
-12.9512710124
 20
-8.794169086
 10
-13.0089261742
 20
-8.7653181594
 10
-13.065821613
 20
-8.7311220668
 10
-13.1217971445
 20
-8.6915113867
 10
-13.1769853369
 20
-8.6465884404
 10
-13.2303668275
 20
-8.5972314759
 10
-13.2818967178
 20
-8.5433667873
 10
-13.3316174666
 20
-8.4851316877
 10
-13.3785785115
 20
-8.4237002152
 10
-13.4226677953
 20
-8.3591341327
 10
-13.4640087401
 20
-8.2914298839
 10
-13.5019482001
 20
-8.2216313431
 10
-13.5364889614
 20
-8.149647505
 10
-13.5676715614
 20
-8.0756064713
 10
-13.5948422348
 20
-8.0008382654
 10
-13.6179351169
 20
-7.9252846975
 10
-13.637062476
 20
-7.8489968936
 10
-13.6517657203
 20
-7.7734169598
 10
-13.6618819729
 20
-7.6989975186
  0
LWPOLYLINE
  5
3D3
100
AcDbEntity
  8
RACCORDO
100
AcDbPolyline
 62
7
  6
CONTINUOUS
 90
16
 70
0
 10
23.3588982641
 20
-16.4528289729
 10
23.3543004141
 20
-16.4505881571
 10
23.3460762717
 20
-16.4468801367
 10
23.3377920934
 20
-16.4435425779
 10
23.329446622
 20
-16.4405925582
 10
23.3210459401
 20
-16.4380503003
 10
23.3126230887
 20
-16.4359552083
 10
23.30417744
 20
-16.434326576
 10
23.295719278
 20
-16.4331874625
 10
23.2872982016
 20
-16.432588084
 10
23.2789159851
 20
-16.4325501233
 10
23.2705883047
 20
-16.4330970502
 10
23.2623873277
 20
-16.4342843363
 10
23.2543465668
 20
-16.4361446358
 10
23.2464611504
 20
-16.4386865036
 10
23.2387485805
 20
-16.441928313
  0
LINE
  5
3D4
100
AcDbEntity
  8
RACCORDO
100
AcDbLine
 62
7
  6
CONTINUOUS
 10
23.728472504
 20
-17.5041972876
 11
24.0665124877
 21
-17.6732172795
  0
LINE
  5
3D5
100
AcDbEntity
  8
RACCORDO
100
AcDbLine
 62
250
  6
CONTINUOUS
 10
21.8366897815
 20
-16.0007065346
 11
22.9738422847
 21
-16.5692827862
  0
LINE
  5
3D6
100
AcDbEntity
  8
RACCORDO
100
AcDbLine
 62
7
  6
CONTINUOUS
 10
21.8928945925
 20
-15.9796347465
 11
23.0239815125
 21
-16.5451782064
  0
LINE
  5
3D7
100
AcDbEntity
  8
RACCORDO
100
AcDbLine
 62
250
  6
CONTINUOUS
 10
23.2387485805
 20
-16.441928313
 11
23.6711225938
 21
-16.6581153196
  0
LINE
  5
3D8
100
AcDbEntity
  8
RACCORDO
100
AcDbLine
 62
7
  6
CONTINUOUS
 10
23.3589369131
 20
-16.4528482856
 11
23.7273514625
 21
-16.6370555603
  0
LWPOLYLINE
  5
3D9
100
AcDbEntity
  8
0
100
AcDbPolyline
 62
7
  6
CONTINUOUS
 90
21
 70
0
 10
24.0665124877
 20
-17.6732172795
 10
24.0803434735
 20
-17.6804168671
 10
24.0935514748
 20
-17.6878611691
 10
24.1061364914
 20
-17.6955501852
 10
24.1181164901
 20
-17.7034968742
 10
24.1294735042
 20
-17.7116882774
 10
24.140153634
 20
-17.7200855189
 10
24.1501536619
 20
-17.7286895771
 10
24.1594768055
 20
-17.7374994737
 10
24.1680788177
 20
-17.7464733973
 10
24.1759562707
 20
-17.7556121276
 10
24.1831125922
 20
-17.7649148849
 10
24.1895138188
 20
-17.774337519
 10
24.1951563612
 20
-17.7838805995
 10
24.2000438087
 20
-17.7935435568
 10
24.2041529658
 20
-17.8032805309
 10
24.2074801328
 20
-17.8130918737
 10
24.2100290095
 20
-17.8229772334
 10
24.2117874988
 20
-17.8328896946
 10
24.2127518439
 20
-17.8428293861
 10
24.2129568119
 20
-17.8499965186
  0
LWPOLYLINE
  5
3DA
100
AcDbEntity
  8
ASSI
100
AcDbPolyline
 62
250
  6
CONTINUOUS
 90
7
 70
0
 10
-9.0927094497
 20
28.7724598115
 10
-9.0908033189
 20
28.7586864772
 10
-9.0855901652
 20
28.7460163363
 10
-9.0771496046
 20
28.7337886687
 10
-9.0656228723
 20
28.7222080748
 10
-9.0512028436
 20
28.7114683286
 10
-9.034130806
 20
28.7017491336
  0
LWPOLYLINE
  5
3DB
100
AcDbEntity
  8
ASSI
100
AcDbPolyline
 62
7
  6
CONTINUOUS
 90
12
 70
0
 10
-4.1356254166
 20
30.69279691
 10
-4.1372567804
 20
30.7190389488
 10
-4.1427806597
 20
30.7516622843
 10
-4.1522293551
 20
30.7838550622
 10
-4.1656099582
 20
30.8151765679
 10
-4.1827875381
 20
30.8450452865
 10
-4.2036700768
 20
30.8731285893
 10
-4.228206149
 20
30.8991856809
 10
-4.256014275
 20
30.9227117631
 10
-4.286618903
 20
30.9433292553
 10
-4.320264402
 20
30.9611924137
 10
-4.3565680713
 20
30.9760531682
  0
LWPOLYLINE
  5
3DC
100
AcDbEntity
  8
ASSI
100
AcDbPolyline
 62
7
  6
CONTINUOUS
 90
13
 70
0
 10
-2.5324727399
 20
25.809061214
 10
-2.533977261
 20
25.8380770089
 10
-2.5384887986
 20
25.8681035147
 10
-2.5459249353
 20
25.8986300316
 10
-2.5561526006
 20
25.9291378656
 10
-2.5689957689
 20
25.9591055435
 10
-2.5842382842
 20
25.9880177773
 10
-2.6016225594
 20
26.0153784332
 10
-2.6208480917
 20
26.0407210821
 10
-2.6415817138
 20
26.0636135696
 10
-2.6634697395
 20
26.0836637516
 10
-2.6861441195
 20
26.1005260177
 10
-2.7092225113
 20
26.1139094757
  0
LWPOLYLINE
  5
3DD
100
AcDbEntity
  8
ASSI
100
AcDbPolyline
 62
7
  6
CONTINUOUS
 90
16
 70
0
 10
-2.1877184088
 20
29.8398825319
 10
-2.1886280733
 20
29.8582752245
 10
-2.192006489
 20
29.8765439708
 10
-2.1978598371
 20
29.8946767244
 10
-2.2063367396
 20
29.9129539749
 10
-2.2173135373
 20
29.9310431136
 10
-2.2303900799
 20
29.9480055844
 10
-2.2454890121
 20
29.9635754441
 10
-2.2627166172
 20
29.9779357241
 10
-2.2819437936
 20
29.9908217744
 10
-2.3033157833
 20
30.0022283543
 10
-2.3267054626
 20
30.0120447409
 10
-2.3515645844
 20
30.0198611618
 10
-2.3777030132
 20
30.0255149501
 10
-2.405292773
 20
30.0290705621
 10
-2.4343168536
 20
30.030472775
  0
LWPOLYLINE
  5
3DE
100
AcDbEntity
  8
ASSI
100
AcDbPolyline
 62
250
  6
CONTINUOUS
 90
28
 70
0
 10
-2.7508187773
 20
25.6990463325
 10
-2.7511849669
 20
25.7103653232
 10
-2.7520445875
 20
25.7221350023
 10
-2.7534245511
 20
25.7343345888
 10
-2.7553551602
 20
25.7469668602
 10
-2.7578582342
 20
25.7599744315
 10
-2.7609352815
 20
25.7732371296
 10
-2.7645962748
 20
25.7867147803
 10
-2.7688484634
 20
25.8003630487
 10
-2.7736651534
 20
25.814048574
 10
-2.7790366008
 20
25.8277177333
 10
-2.7849543307
 20
25.8413259728
 10
-2.7913720538
 20
25.8547543273
 10
-2.7982599238
 20
25.867940386
 10
-2.8056009788
 20
25.8808520458
 10
-2.8133556237
 20
25.893420905
 10
-2.8214884096
 20
25.9055944341
 10
-2.8299751222
 20
25.9173412099
 10
-2.8387895328
 20
25.9286278307
 10
-2.8479006034
 20
25.9394162626
 10
-2.8572753467
 20
25.9496691697
 10
-2.8668841191
 20
25.9593556508
 10
-2.8766931239
 20
25.9684423005
 10
-2.8866680417
 20
25.9768980237
 10
-2.89677798
 20
25.9846971453
 10
-2.9069891044
 20
25.9918131924
 10
-2.9172645533
 20
25.998219887
 10
-2.9275685486
 20
26.0038945942
  0
LWPOLYLINE
  5
3DF
100
AcDbEntity
  8
ASSI
100
AcDbPolyline
 62
250
  6
CONTINUOUS
 90
15
 70
0
 10
-2.185865178
 20
23.9496562349
 10
-2.1856525682
 20
23.9391344933
 10
-2.1849902736
 20
23.928547383
 10
-2.1838405877
 20
23.9179453296
 10
-2.1821620827
 20
23.9073612875
 10
-2.1799204701
 20
23.8968791788
 10
-2.1770998716
 20
23.8866252998
 10
-2.1736768665
 20
23.8766597162
 10
-2.1696304427
 20
23.8670460742
 10
-2.1649715135
 20
23.8579024337
 10
-2.1596945418
 20
23.8492852957
 10
-2.1537970688
 20
23.8412518722
 10
-2.1473186675
 20
23.833899483
 10
-2.1402728627
 20
23.8272718129
 10
-2.1326756583
 20
23.8214104033
  0
LWPOLYLINE
  5
3E0
100
AcDbEntity
  8
ASSI
100
AcDbPolyline
 62
7
  6
CONTINUOUS
 90
9
 70
0
 10
-2.2444436399
 20
24.0203406866
 10
-2.2444145787
 20
24.0165287059
 10
-2.2426071807
 20
23.9900782899
 10
-2.2379803873
 20
23.9641183765
 10
-2.2305828404
 20
23.9390488174
 10
-2.22058078
 20
23.9153140586
 10
-2.2080940026
 20
23.8930711199
 10
-2.1932389723
 20
23.8724830672
 10
-2.1762806257
 20
23.853878085
  0
LINE
  5
3E1
100
AcDbEntity
  8
SUPERFICI
100
AcDbLine
 62
7
  6
CONTINUOUS
 10
-1.6057826036
 20
27.4918371466
 11
-1.6057825681
 21
27.4917381703
  0
LINE
  5
3E2
100
AcDbEntity
  8
ASSI
100
AcDbLine
 62
7
  6
CONTINUOUS
 10
-2.2444438217
 20
24.3376357134
 11
-2.2444438217
 21
24.0203669134
  0
LINE
  5
3E3
100
AcDbEntity
  8
ASSI
100
AcDbLine
 62
250
  6
CONTINUOUS
 10
-2.185865178
 20
24.2669250353
 11
-2.185865178
 21
23.9496562349
  0
LINE
  5
3E4
100
AcDbEntity
  8
ASSI
100
AcDbLine
 62
250
  6
CONTINUOUS
 10
-1.7195422494
 20
28.8120716004
 11
-1.7195422494
 21
29.3862534563
  0
LINE
  5
3E5
100
AcDbEntity
  8
SUPERFICI
100
AcDbLine
 62
250
  6
CONTINUOUS
 10
-1.6936505328
 20
27.6341980685
 11
-1.6936505328
 21
27.3681218832
  0
LINE
  5
3E6
100
AcDbEntity
  8
ASSI
100
AcDbLine
 62
7
  6
CONTINUOUS
 10
-1.5295807013
 20
23.5187821947
 11
-1.5295807013
 21
23.0648200903
  0
LINE
  5
3E7
100
AcDbEntity
  8
ASSI
100
AcDbLine
 62
250
  6
CONTINUOUS
 10
-1.4563573966
 20
23.4821705424
 11
-1.4563573966
 21
22.9730963982
  0
LINE
  5
3E8
100
AcDbEntity
  8
ASSI
100
AcDbLine
 62
7
  6
CONTINUOUS
 10
-1.3236199644
 20
22.7818799887
 11
-1.3236199644
 21
23.4197254096
  0
LINE
  5
3E9
100
AcDbEntity
  8
ASSI
100
AcDbLine
 62
250
  6
CONTINUOUS
 10
-1.2503966597
 20
22.7310889509
 11
-1.2503966597
 21
23.4819219758
  0
LINE
  5
3EA
100
AcDbEntity
  8
ASSI
100
AcDbLine
 62
250
  6
CONTINUOUS
 10
-1.0568323736
 20
22.6343068078
 11
-1.0568323736
 21
23.3851398327
  0
LINE
  5
3EB
100
AcDbEntity
  8
ASSI
100
AcDbLine
 62
250
  6
CONTINUOUS
 10
-0.7063910857
 20
22.5099592312
 11
-0.7063910857
 21
23.1071873869
  0
LINE
  5
3EC
100
AcDbEntity
  8
ASSI
100
AcDbLine
 62
7
  6
CONTINUOUS
 10
-0.163665023
 20
22.8358243555
 11
-0.163665023
 21
22.3948299137
  0
LINE
  5
3ED
100
AcDbEntity
  8
ASSI
100
AcDbLine
 62
250
  6
CONTINUOUS
 10
-0.1213638553
 20
23.234674374
 11
-0.1213638553
 21
22.9174229176
  0
LINE
  5
3EE
100
AcDbEntity
  8
ASSI
100
AcDbLine
 62
250
  6
CONTINUOUS
 10
0.1589891751
 20
23.233451072
 11
0.1589891751
 21
22.9161822717
  0
LWPOLYLINE
  5
3EF
100
AcDbEntity
  8
ASSI
100
AcDbPolyline
 62
250
  6
CONTINUOUS
 90
9
 70
0
 10
1.4841416512
 20
27.8769536088
 10
1.4838581558
 20
27.8702414112
 10
1.4802856747
 20
27.8508437442
 10
1.4726609225
 20
27.8317964423
 10
1.4610669662
 20
27.8133052498
 10
1.4456254299
 20
27.7955633617
 10
1.4264994243
 20
27.7787620123
 10
1.4038952494
 20
27.7630877864
 10
1.3780559641
 20
27.74871228
  0
LINE
  5
3F0
100
AcDbEntity
  8
INCISIONI_LASER
100
AcDbLine
 62
250
  6
CONTINUOUS
 10
16.6117216428
 20
23.3380522949
 11
17.1652557322
 21
24.0366541531
  0
LINE
  5
3F1
100
AcDbEntity
  8
0
100
AcDbLine
 62
7
  6
CONTINUOUS
 10
18.8162897659
 20
11.3023002022
 11
19.5172257197
 21
11.6664966957
  0
LWPOLYLINE
  5
3F2
100
AcDbEntity
  8
DRAFT
100
AcDbPolyline
 62
7
  6
CONTINUOUS
 90
30
 70
0
 10
-13.3469346826
 20
-4.3821434139
 10
-13.3421664496
 20
-4.3797072676
 10
-13.295809522
 20
-4.3600388302
 10
-13.2467144231
 20
-4.3464310614
 10
-13.1950388027
 20
-4.3388391697
 10
-13.1419686308
 20
-4.3373677822
 10
-13.0875456295
 20
-4.342145143
 10
-13.0317169369
 20
-4.3530762872
 10
-12.975460753
 20
-4.3698754716
 10
-12.918717546
 20
-4.3926272256
 10
-12.8615660945
 20
-4.4212546296
 10
-12.8051294608
 20
-4.45517351
 10
-12.749495333
 20
-4.4943590154
 10
-12.6945935813
 20
-4.5388002527
 10
-12.6412481431
 20
-4.5878843465
 10
-12.5893400425
 20
-4.6417882463
 10
-12.5390291965
 20
-4.7002927055
 10
-12.4914814094
 20
-4.7621461941
 10
-12.4468095275
 20
-4.8272694915
 10
-12.4048986621
 20
-4.8956870811
 10
-12.3664875883
 20
-4.966268549
 10
-12.3315528597
 20
-5.0392117774
 10
-12.3001206908
 20
-5.11430357
 10
-12.2729167345
 20
-5.1897726733
 10
-12.2500392524
 20
-5.2655056646
 10
-12.2313551381
 20
-5.3416320337
 10
-12.2171536952
 20
-5.4167203048
 10
-12.2075012188
 20
-5.4903015983
 10
-12.2022977321
 20
-5.5628909534
 10
-12.2015610564
 20
-5.6345284277
  0
LWPOLYLINE
  5
3F3
100
AcDbEntity
  8
0
100
AcDbPolyline
 62
7
  6
CONTINUOUS
 90
33
 70
0
 10
-13.3469436587
 20
-4.3821302462
 10
-13.3288800302
 20
-4.3733400213
 10
-13.2879009426
 20
-4.3573718743
 10
-13.2450612996
 20
-4.3459940896
 10
-13.2002672933
 20
-4.3392679561
 10
-13.1536226691
 20
-4.3371798764
 10
-13.1058374171
 20
-4.339870891
 10
-13.0564980772
 20
-4.3476516548
 10
-13.0060416065
 20
-4.3602500157
 10
-12.9563718977
 20
-4.3768680302
 10
-12.9080352767
 20
-4.3973658939
 10
-12.8604099089
 20
-4.4218227098
 10
-12.8135907761
 20
-4.4497219579
 10
-12.7676625415
 20
-4.4808281239
 10
-12.7225243236
 20
-4.5153402055
 10
-12.6780084129
 20
-4.5534003289
 10
-12.6338281949
 20
-4.5952291037
 10
-12.5903210414
 20
-4.6405998511
 10
-12.5482433314
 20
-4.6889754165
 10
-12.5076567427
 20
-4.7403310867
 10
-12.4685263046
 20
-4.7946679768
 10
-12.4314213127
 20
-4.8514668057
 10
-12.3963507162
 20
-4.9107343634
 10
-12.363332715
 20
-4.9724509034
 10
-12.3329156465
 20
-5.0360469743
 10
-12.30503516
 20
-5.1018507798
 10
-12.2797960492
 20
-5.1695487227
 10
-12.2579404617
 20
-5.2375935927
 10
-12.2395866104
 20
-5.3059502141
 10
-12.2246112753
 20
-5.3746798315
 10
-12.2133152387
 20
-5.4423565843
 10
-12.2057716408
 20
-5.5085097326
 10
-12.2018766644
 20
-5.5736428425
  0
LWPOLYLINE
  5
3F4
100
AcDbEntity
  8
0
100
AcDbPolyline
 62
250
  6
CONTINUOUS
 90
34
 70
0
 10
15.8066576987
 20
-26.1704610868
 10
15.8022371732
 20
-26.1635423058
 10
15.7974299779
 20
-26.1564384956
 10
15.7922469623
 20
-26.149165689
 10
15.7866998242
 20
-26.1417403005
 10
15.7808010832
 20
-26.1341790886
 10
15.7745640524
 20
-26.1264991186
 10
15.7680028083
 20
-26.1187177236
 10
15.7611321594
 20
-26.1108524659
 10
15.7539676123
 20
-26.1029210969
 10
15.7465253368
 20
-26.0949415172
 10
15.7388221299
 20
-26.0869317362
 10
15.7308753772
 20
-26.0789098316
 10
15.722703014
 20
-26.0708939083
 10
15.7143234849
 20
-26.0629020577
 10
15.705755702
 20
-26.0549523171
 10
15.6970190022
 20
-26.0470626284
 10
15.6881331038
 20
-26.0392507984
 10
15.6791180618
 20
-26.0315344577
 10
15.6699942225
 20
-26.0239310217
 10
15.6607821779
 20
-26.016457651
 10
15.6515027191
 20
-26.0091312125
 10
15.6421767892
 20
-26.0019682415
 10
15.6328254363
 20
-25.9949849045
 10
15.6234697659
 20
-25.9881969623
 10
15.6141308932
 20
-25.9816197351
 10
15.6048298954
 20
-25.9752680672
 10
15.5955877643
 20
-25.9691562939
 10
15.586425359
 20
-25.9632982091
 10
15.5773633583
 20
-25.9577070343
 10
15.5684222148
 20
-25.9523953884
 10
15.559622108
 20
-25.9473752593
 10
15.5509828992
 20
-25.9426579774
 10
15.5425240867
 20
-25.9382541891
  0
LWPOLYLINE
  5
3F5
100
AcDbEntity
  8
ASSI
100
AcDbPolyline
 62
250
  6
CONTINUOUS
 90
13
 70
0
 10
0.1943338377
 20
23.2938117192
 10
0.1928181055
 20
23.3168686547
 10
0.1889520658
 20
23.3407615705
 10
0.1828018396
 20
23.3650818123
 10
0.1744726165
 20
23.3894134156
 10
0.164106854
 20
23.4133402224
 10
0.1518818414
 20
23.4364529991
 10
0.1380066678
 20
23.4583564334
 10
0.1227186483
 20
23.4786758929
 10
0.1062792649
 20
23.497063836
 10
0.0889696914
 20
23.5132057587
 10
0.0710859843
 20
23.5268255734
 10
0.0529340206
 20
23.5376903285
  0
LWPOLYLINE
  5
3F6
100
AcDbEntity
  8
ASSI
100
AcDbPolyline
 62
250
  6
CONTINUOUS
 90
10
 70
0
 10
0.1589891751
 20
22.9161822717
 10
0.1592600499
 20
22.9111765935
 10
0.1599840203
 20
22.9065881499
 10
0.1611610863
 20
22.9024169408
 10
0.1628195103
 20
22.8986179584
 10
0.1649310299
 20
22.8952362106
 10
0.1674108583
 20
22.8924067209
 10
0.1702307332
 20
22.8901744972
 10
0.1734189169
 20
22.8884945315
 10
0.1769754095
 20
22.887366824
  0
LWPOLYLINE
  5
3F7
100
AcDbEntity
  8
ASSI
100
AcDbPolyline
 62
250
  6
CONTINUOUS
 90
13
 70
0
 10
-0.0626759154
 20
30.8563411954
 10
-0.063858822
 20
30.8795772465
 10
-0.0673879426
 20
30.9035569179
 10
-0.0732042254
 20
30.9278789636
 10
-0.0812103479
 20
30.9521364091
 10
-0.0912723458
 20
30.9759233608
 10
-0.1032218542
 20
30.9988417977
 10
-0.1168589252
 20
31.0205082313
 10
-0.131955373
 20
31.0405601227
 10
-0.1482585924
 20
31.0586619488
 10
-0.1654957855
 20
31.0745108163
 10
-0.183378527
 20
31.0878415301
 10
-0.2016075895
 20
31.0984310307
  0
LWPOLYLINE
  5
3F8
100
AcDbEntity
  8
ASSI
100
AcDbPolyline
 62
7
  6
CONTINUOUS
 90
12
 70
0
 10
0.5615786538
 20
30.5071025742
 10
0.5581085085
 20
30.5781191296
 10
0.5484717051
 20
30.6546650852
 10
0.532933861
 20
30.7271234624
 10
0.5117426668
 20
30.7951263224
 10
0.4850818322
 20
30.8584957616
 10
0.4530359792
 20
30.9171404905
 10
0.4158027938
 20
30.9707333855
 10
0.3736629703
 20
31.018838914
 10
0.3269159923
 20
31.0610721692
 10
0.2759739263
 20
31.0970728858
 10
0.2355530715
 20
31.1196493287
  0
LWPOLYLINE
  5
3F9
100
AcDbEntity
  8
ASSI
100
AcDbPolyline
 62
250
  6
CONTINUOUS
 90
9
 70
0
 10
-0.1213638632
 20
22.9174229221
 10
-0.1201649601
 20
22.8928754697
 10
-0.1165827442
 20
22.8698535914
 10
-0.110666014
 20
22.8486683167
 10
-0.1024937407
 20
22.8296038898
 10
-0.0921774555
 20
22.8129196829
 10
-0.0798615154
 20
22.7988445876
 10
-0.0657154741
 20
22.787566999
 10
-0.05618307
 20
22.7820833815
  0
LWPOLYLINE
  5
3FA
100
AcDbEntity
  8
ASSI
100
AcDbPolyline
 62
250
  6
CONTINUOUS
 90
22
 70
0
 10
0.5030095096
 20
30.4365965328
 10
0.5007074903
 20
30.487544575
 10
0.4953988395
 20
30.5362424875
 10
0.4870835569
 20
30.5826902703
 10
0.4756844216
 20
30.6271466879
 10
0.4612786546
 20
30.6693529757
 10
0.4440979195
 20
30.7085328407
 10
0.4240943193
 20
30.7446110103
 10
0.4013157509
 20
30.7776627571
 10
0.3761375692
 20
30.8071376052
 10
0.3485194059
 20
30.8329727954
 10
0.3185016294
 20
30.8552310869
 10
0.2865806988
 20
30.8735502815
 10
0.2527273148
 20
30.8878631814
 10
0.2169707767
 20
30.8982369843
 10
0.179895442
 20
30.9045110845
 10
0.1414588123
 20
30.9066097065
 10
0.101703386
 20
30.9046086257
 10
0.0613410149
 20
30.8985745622
 10
0.0206089829
 20
30.888529756
 10
-0.0207299938
 20
30.874451967
 10
-0.0626759154
 20
30.8563411954
  0
LWPOLYLINE
  5
3FB
100
AcDbEntity
  8
ASSI
100
AcDbPolyline
 62
7
  6
CONTINUOUS
 90
12
 70
0
 10
1.4841422338
 20
27.8770761109
 10
1.4829642225
 20
27.9043969867
 10
1.4778416228
 20
27.9378333687
 10
1.4686221179
 20
27.9708290521
 10
1.4553113234
 20
28.002911103
 10
1.4380598393
 20
28.0334732793
 10
1.4169247
 20
28.0622323685
 10
1.3919136704
 20
28.088955037
 10
1.3634512108
 20
28.1130493788
 10
1.3320934272
 20
28.1340719663
 10
1.2976029372
 20
28.1521934938
 10
1.2603660021
 20
28.1671668888
  0
LWPOLYLINE
  5
3FC
100
AcDbEntity
  8
ASSI
100
AcDbPolyline
 62
250
  6
CONTINUOUS
 90
13
 70
0
 10
1.3780559641
 20
27.74871228
 10
1.3769135192
 20
27.7779096162
 10
1.3727147793
 20
27.8080927203
 10
1.3655315583
 20
27.838745351
 10
1.3554867155
 20
27.8693432364
 10
1.3427520544
 20
27.8993630409
 10
1.3275453848
 20
27.9282913165
 10
1.3101267965
 20
27.9556332843
 10
1.2907942108
 20
27.9809212965
 10
1.2698782855
 20
28.0037228361
 10
1.2477367592
 20
28.0236479135
 10
1.224748333
 20
28.0403557369
 10
1.2013061928
 20
28.0535605417
  0
LWPOLYLINE
  5
3FD
100
AcDbEntity
  8
ASSI
100
AcDbPolyline
 62
7
  6
CONTINUOUS
 90
8
 70
0
 10
2.1930932151
 20
27.7167677407
 10
2.1928468482
 20
27.7299998393
 10
2.1917539189
 20
27.7407851008
 10
2.1899323416
 20
27.7491112389
 10
2.1874713516
 20
27.7549553368
 10
2.1844914039
 20
27.7583245233
 10
2.1811869723
 20
27.7592566299
 10
2.1793518875
 20
27.7587502219
  0
LWPOLYLINE
  5
3FE
100
AcDbEntity
  8
0
100
AcDbPolyline
 62
250
  6
CONTINUOUS
 90
22
 70
0
 10
1.471939676
 20
22.120753808
 10
1.4721079282
 20
22.1113940597
 10
1.4726123647
 20
22.1022203805
 10
1.4734520251
 20
22.0932502329
 10
1.4746253112
 20
22.0845006923
 10
1.4761299895
 20
22.0759884137
 10
1.4779631958
 20
22.0677296009
 10
1.4801214405
 20
22.0597399748
 10
1.4826006152
 20
22.0520347444
 10
1.4853960007
 20
22.0446285768
 10
1.4885022758
 20
22.0375355702
 10
1.4919135275
 20
22.0307692264
 10
1.4956232624
 20
22.0243424257
 10
1.4996244187
 20
22.0182674017
 10
1.50390938
 20
22.0125557187
 10
1.5084699896
 20
22.0072182492
 10
1.5132975662
 20
22.0022651532
 10
1.5183829202
 20
21.9977058595
 10
1.5237163713
 20
21.9935490467
 10
1.529287767
 20
21.9898026276
 10
1.5350865019
 20
21.9864737339
 10
1.5369129724
 20
21.9855353579
  0
LWPOLYLINE
  5
3FF
100
AcDbEntity
  8
ASSI
100
AcDbPolyline
 62
250
  6
CONTINUOUS
 90
28
 70
0
 10
2.3744703749
 20
24.3453525743
 10
2.374432778
 20
24.3475735307
 10
2.3742893282
 20
24.3497639847
 10
2.3740400254
 20
24.3519239363
 10
2.3736873133
 20
24.3540681721
 10
2.3732287482
 20
24.3561819054
 10
2.3726569992
 20
24.3582207765
 10
2.3719681414
 20
24.3601829454
 10
2.3711660996
 20
24.362070252
 10
2.3702553173
 20
24.3638438565
 10
2.3692325258
 20
24.3654998287
 10
2.3681009938
 20
24.3670420988
 10
2.3668749713
 20
24.3684436181
 10
2.3655534673
 20
24.3696997666
 10
2.3641374728
 20
24.3708151643
 10
2.3626442107
 20
24.3717766228
 10
2.3610738559
 20
24.3725814729
 10
2.3594262335
 20
24.3732323837
 10
2.357718042
 20
24.3737241739
 10
2.3559487316
 20
24.3740554703
 10
2.354118852
 20
24.3742276462
 10
2.3522467516
 20
24.3742396397
 10
2.3503320938
 20
24.374090013
 10
2.3483752151
 20
24.373780204
 10
2.3463954736
 20
24.3733134647
 10
2.3443993221
 20
24.3726908794
 10
2.3423803079
 20
24.3719113638
 10
2.3403384309
 20
24.3709749181
  0
LINE
  5
400
100
AcDbEntity
  8
ASSI
100
AcDbLine
 62
250
  6
CONTINUOUS
 10
0.5071879518
 20
30.1413244639
 11
0.5030095096
 21
30.4365965328
  0
LINE
  5
401
100
AcDbEntity
  8
ASSI
100
AcDbLine
 62
7
  6
CONTINUOUS
 10
0.5663938412
 20
30.1676139676
 11
0.5615896699
 21
30.5071035457
  0
LINE
  5
402
100
AcDbEntity
  8
ASSI
100
AcDbLine
 62
250
  6
CONTINUOUS
 10
0.5633419258
 20
22.6434180253
 11
0.5633419258
 21
21.963246737
  0
LINE
  5
403
100
AcDbEntity
  8
ASSI
100
AcDbLine
 62
250
  6
CONTINUOUS
 10
0.9137832137
 20
22.731066647
 11
0.9137832137
 21
21.9728662009
  0
LINE
  5
404
100
AcDbEntity
  8
0
100
AcDbLine
 62
7
  6
CONTINUOUS
 10
1.1167081582
 20
20.6924151652
 11
1.1167081582
 21
21.2535507153
  0
LINE
  5
405
100
AcDbEntity
  8
DRAFT
100
AcDbLine
 62
7
  6
CONTINUOUS
 10
1.3050349004
 20
21.1591893561
 11
1.3050349004
 21
20.5982517941
  0
LINE
  5
406
100
AcDbEntity
  8
0
100
AcDbLine
 62
7
  6
CONTINUOUS
 10
1.3987163713
 20
22.5491160897
 11
1.3987163713
 21
22.2091421556
  0
LINE
  5
407
100
AcDbEntity
  8
0
100
AcDbLine
 62
250
  6
CONTINUOUS
 10
1.471939676
 20
22.4607277421
 11
1.471939676
 21
22.120753808
  0
LINE
  5
408
100
AcDbEntity
  8
ASSI
100
AcDbLine
 62
7
  6
CONTINUOUS
 10
1.8162339644
 20
22.9160349245
 11
1.8162339644
 21
24.111015239
  0
LINE
  5
409
100
AcDbEntity
  8
0
100
AcDbLine
 62
7
  6
CONTINUOUS
 10
2.1017093256
 20
21.7031371813
 11
2.1017093256
 21
21.2491834393
  0
LINE
  5
40A
100
AcDbEntity
  8
0
100
AcDbLine
 62
250
  6
CONTINUOUS
 10
2.1749326303
 20
21.6665255289
 11
2.1749326303
 21
21.1574513848
  0
LINE
  5
40B
100
AcDbEntity
  8
ASSI
100
AcDbLine
 62
250
  6
CONTINUOUS
 10
2.3744703749
 20
24.0054089794
 11
2.3744703749
 21
24.3453525743
  0
LINE
  5
40C
100
AcDbEntity
  8
ASSI
100
AcDbLine
 62
7
  6
CONTINUOUS
 10
2.4306024148
 20
24.0748748165
 11
2.4306021655
 21
24.4149762991
  0
LINE
  5
40D
100
AcDbEntity
  8
ASSI
100
AcDbLine
 62
7
  6
CONTINUOUS
 10
1.4769672832
 20
26.7062804009
 11
1.4841422415
 21
27.8770598229
  0
LINE
  5
40E
100
AcDbEntity
  8
ASSI
100
AcDbLine
 62
250
  6
CONTINUOUS
 10
1.3780559641
 20
27.74871228
 11
1.3741788224
 21
27.3742145779
  0
LINE
  5
40F
100
AcDbEntity
  8
ASSI
100
AcDbLine
 62
250
  6
CONTINUOUS
 10
1.3719053686
 20
27.1546189913
 11
1.3658892005
 21
26.5735102055
  0
LWPOLYLINE
  5
410
100
AcDbEntity
  8
0
100
AcDbPolyline
 62
250
  6
CONTINUOUS
 90
34
 70
0
 10
1.471939676
 20
22.4607277421
 10
1.4721384788
 20
22.4710922203
 10
1.4727344411
 20
22.4816322051
 10
1.4737262242
 20
22.4923239908
 10
1.4751116003
 20
22.5031435366
 10
1.4768874544
 20
22.514066501
 10
1.4790497895
 20
22.525068295
 10
1.4815937401
 20
22.5361241671
 10
1.4845135849
 20
22.5472092561
 10
1.4878027548
 20
22.5582986259
 10
1.4914538518
 20
22.5693673357
 10
1.4954586624
 20
22.5803904881
 10
1.4998081746
 20
22.5913432814
 10
1.5044926033
 20
22.6022010791
 10
1.5095014113
 20
22.6129394622
 10
1.5148233299
 20
22.6235342753
 10
1.5204463903
 20
22.6339616951
 10
1.526357941
 20
22.6441982639
 10
1.5325446727
 20
22.6542209408
 10
1.5389926493
 20
22.6640071588
 10
1.5456873826
 20
22.6735349385
 10
1.5526138588
 20
22.6827829136
 10
1.5597565692
 20
22.691730364
 10
1.5670993867
 20
22.7003570748
 10
1.5746256334
 20
22.7086434652
 10
1.5823182676
 20
22.7165708137
 10
1.5901600802
 20
22.7241214266
 10
1.5981335792
 20
22.7312784758
 10
1.6062220566
 20
22.7380268488
 10
1.6144061279
 20
22.7443502587
 10
1.6226637987
 20
22.7502320347
 10
1.6309752194
 20
22.7556587847
 10
1.6393228518
 20
22.7606197987
 10
1.647687932
 20
22.765104557
  0
LWPOLYLINE
  5
411
100
AcDbEntity
  8
0
100
AcDbPolyline
 62
250
  6
CONTINUOUS
 90
34
 70
0
 10
3.1504777464
 20
21.6214587069
 10
3.1506765492
 20
21.6318231851
 10
3.1512725115
 20
21.6423631699
 10
3.1522642946
 20
21.6530549556
 10
3.1536496707
 20
21.6638745014
 10
3.1554255248
 20
21.6747974658
 10
3.1575878599
 20
21.6857992598
 10
3.1601318105
 20
21.6968551319
 10
3.1630516553
 20
21.7079402209
 10
3.1663408253
 20
21.7190295907
 10
3.1699919222
 20
21.7300983005
 10
3.1739967328
 20
21.7411214529
 10
3.178346245
 20
21.7520742462
 10
3.1830306737
 20
21.7629320439
 10
3.1880394817
 20
21.773670427
 10
3.1933614003
 20
21.7842652401
 10
3.1989844607
 20
21.7946926599
 10
3.2048960114
 20
21.8049292287
 10
3.2110827431
 20
21.8149519056
 10
3.2175307197
 20
21.8247381236
 10
3.224225453
 20
21.8342659033
 10
3.2311519292
 20
21.8435138784
 10
3.2382946396
 20
21.8524613288
 10
3.2456374571
 20
21.8610880396
 10
3.2531637038
 20
21.86937443
 10
3.260856338
 20
21.8773017785
 10
3.2686981506
 20
21.8848523913
 10
3.2766716496
 20
21.8920094406
 10
3.284760127
 20
21.8987578136
 10
3.2929441983
 20
21.9050812235
 10
3.3012018691
 20
21.9109629995
 10
3.3095132898
 20
21.9163897495
 10
3.3178609222
 20
21.9213507635
 10
3.3262260024
 20
21.9258355218
  0
LWPOLYLINE
  5
412
100
AcDbEntity
  8
ASSI
100
AcDbPolyline
 62
7
  6
CONTINUOUS
 90
9
 70
0
 10
1.4768446164
 20
26.7062817151
 10
1.4767077004
 20
26.701094513
 10
1.4733254946
 20
26.6806791231
 10
1.4651211628
 20
26.6604318978
 10
1.4524695093
 20
26.6404205442
 10
1.4361432179
 20
26.6216247313
 10
1.4163998499
 20
26.6043710153
 10
1.3929818441
 20
26.5883328401
 10
1.3658892005
 20
26.5735102055
  0
LINE
  5
413
100
AcDbEntity
  8
ASSI
100
AcDbLine
 62
7
  6
CONTINUOUS
 10
2.1930932151
 20
27.7167677407
 11
2.1928728101
 21
27.7101079768
  0
LINE
  5
414
100
AcDbEntity
  8
ASSI
100
AcDbLine
 62
7
  6
CONTINUOUS
 10
2.4297457987
 20
24.0539286819
 11
2.4305984839
 21
24.0749146546
  0
LINE
  5
415
100
AcDbEntity
  8
ASSI
100
AcDbLine
 62
250
  6
CONTINUOUS
 10
1.8698673373
 20
27.3631033444
 11
1.8794314974
 21
27.5867665829
  0
LINE
  5
416
100
AcDbEntity
  8
ASSI
100
AcDbLine
 62
7
  6
CONTINUOUS
 10
2.1578150313
 20
27.6850532417
 11
2.1568264381
 21
27.6676101085
  0
LWPOLYLINE
  5
417
100
AcDbEntity
  8
0
100
AcDbPolyline
 62
7
  6
CONTINUOUS
 90
41
 70
0
 10
16.5178783068
 20
14.9806395297
 10
16.5121396235
 20
14.9739267572
 10
16.5062139039
 20
14.9672855255
 10
16.5001024223
 20
14.9607242691
 10
16.4938038459
 20
14.9542523563
 10
16.4873227907
 20
14.9478774307
 10
16.4806697631
 20
14.9416054475
 10
16.4738468784
 20
14.9354451296
 10
16.4668566761
 20
14.9294050365
 10
16.4597105595
 20
14.9234910058
 10
16.4524113751
 20
14.9177118386
 10
16.4449623574
 20
14.9120761515
 10
16.4373757489
 20
14.906589634
 10
16.4296551535
 20
14.9012611005
 10
16.421804518
 20
14.8960991549
 10
16.4138368581
 20
14.8911093064
 10
16.4057565337
 20
14.8863002995
 10
16.3975682469
 20
14.8816806716
 10
16.3892857928
 20
14.8772557649
 10
16.3809143147
 20
14.8730341791
 10
16.3724592916
 20
14.8690243035
 10
16.3639353049
 20
14.8652313096
 10
16.3553483048
 20
14.8616635616
 10
16.3467045754
 20
14.8583292105
 10
16.3380195071
 20
14.8552332408
 10
16.3292998847
 20
14.8523836752
 10
16.3205528205
 20
14.8497883159
 10
16.3117945387
 20
14.8474519176
 10
16.3030326873
 20
14.8453820343
 10
16.2942752204
 20
14.843585983
 10
16.2855391977
 20
14.8420682052
 10
16.2768331591
 20
14.8408356329
 10
16.2681658941
 20
14.8398949323
 10
16.2595552442
 20
14.8392500964
 10
16.2510106903
 20
14.8389072545
 10
16.2425417954
 20
14.8388722228
 10
16.2341669499
 20
14.8391483652
 10
16.2258965466
 20
14.839740804
 10
16.2177408907
 20
14.8406543049
 10
16.20971867
 20
14.8418914146
 10
16.2040511344
 20
14.8429806466
  0
LINE
  5
418
100
AcDbEntity
  8
RACCORDO
100
AcDbLine
 62
7
  6
CONTINUOUS
 10
18.6616281198
 20
14.6698915899
 11
19.4701293355
 21
15.443780864
  0
LINE
  5
419
100
AcDbEntity
  8
RACCORDO
100
AcDbLine
 62
250
  6
CONTINUOUS
 10
19.0468739548
 20
15.2238633028
 11
18.5692868237
 21
14.7709026787
  0
LINE
  5
41A
100
AcDbEntity
  8
DRAFT
100
AcDbLine
 62
7
  6
CONTINUOUS
 10
15.8852874895
 20
-6.1588535936
 11
15.4115067321
 21
-5.9219632149
  0
LWPOLYLINE
  5
41B
100
AcDbEntity
  8
ASSI
100
AcDbPolyline
 62
250
  6
CONTINUOUS
 90
13
 70
0
 10
2.3403384309
 20
24.3709749181
 10
2.3394244738
 20
24.394332786
 10
2.3360654812
 20
24.4184792686
 10
2.3303189041
 20
24.4430013728
 10
2.3222830301
 20
24.4674796811
 10
2.3120953018
 20
24.491495525
 10
2.2999299667
 20
24.5146381458
 10
2.2859950964
 20
24.5365117204
 10
2.270529028
 20
24.5567421306
 10
2.2537962879
 20
24.5749833626
 10
2.236083067
 20
24.5909234247
 10
2.217692326
 20
24.6042896836
 10
2.1989386138
 20
24.6148535275
  0
LWPOLYLINE
  5
41C
100
AcDbEntity
  8
ASSI
100
AcDbPolyline
 62
7
  6
CONTINUOUS
 90
11
 70
0
 10
2.4306019695
 20
24.414976299
 10
2.4301317155
 20
24.4302224602
 10
2.4264914644
 20
24.4598897304
 10
2.4192763033
 20
24.4886341601
 10
2.4085975896
 20
24.5159818591
 10
2.3947773265
 20
24.5412882769
 10
2.378065466
 20
24.5643263509
 10
2.358595288
 20
24.5849792306
 10
2.3367750596
 20
24.6028452197
 10
2.3130422988
 20
24.6176427363
 10
2.3073806353
 20
24.6205816479
  0
LWPOLYLINE
  5
41D
100
AcDbEntity
  8
0
100
AcDbPolyline
 62
250
  6
CONTINUOUS
 90
22
 70
0
 10
3.1504777464
 20
21.2814847728
 10
3.1506460423
 20
21.2721238223
 10
3.1511506095
 20
21.2629489913
 10
3.1519904873
 20
21.2539777491
 10
3.1531640731
 20
21.2452272004
 10
3.154669134
 20
21.2367139824
 10
3.1565028204
 20
21.2284542395
 10
3.1586616644
 20
21.2204636519
 10
3.1611415518
 20
21.2127574983
 10
3.1639377316
 20
21.2053505493
 10
3.1670448541
 20
21.1982569499
 10
3.1704570162
 20
21.1914901537
 10
3.1741677442
 20
21.1850629966
 10
3.1781700049
 20
21.1789876767
 10
3.1824561541
 20
21.1732758129
 10
3.1870179636
 20
21.16793836
 10
3.1918466931
 20
21.1629855099
 10
3.1969331789
 20
21.1584266295
 10
3.2022677939
 20
21.1542703363
 10
3.2078410641
 20
21.1505241193
 10
3.21364175
 20
21.1471956365
 10
3.2154404314
 20
21.1462716292
  0
LINE
  5
41E
100
AcDbEntity
  8
0
100
AcDbLine
 62
250
  6
CONTINUOUS
 10
3.1504777464
 20
21.2814847728
 11
3.1504777464
 21
21.6214587069
  0
LINE
  5
41F
100
AcDbEntity
  8
0
100
AcDbLine
 62
250
  6
CONTINUOUS
 10
3.5029997061
 20
21.2809720489
 11
3.5029997061
 21
21.620945983
  0
LINE
  5
420
100
AcDbEntity
  8
0
100
AcDbLine
 62
250
  6
CONTINUOUS
 10
3.8616983545
 20
20.3140685226
 11
3.8616983545
 21
21.0028891456
  0
LINE
  5
421
100
AcDbEntity
  8
0
100
AcDbLine
 62
250
  6
CONTINUOUS
 10
4.2142203142
 20
20.3248364043
 11
4.2142203142
 21
21.132468526
  0
LINE
  5
422
100
AcDbEntity
  8
0
100
AcDbLine
 62
7
  6
CONTINUOUS
 10
5.1042804969
 20
20.8215173256
 11
5.1042804969
 21
22.4236679865
  0
LINE
  5
423
100
AcDbEntity
  8
0
100
AcDbLine
 62
250
  6
CONTINUOUS
 10
5.6325476686
 20
22.6871068066
 11
5.6325476686
 21
22.3395752898
  0
LINE
  5
424
100
AcDbEntity
  8
0
100
AcDbLine
 62
7
  6
CONTINUOUS
 10
5.7047455256
 20
22.7749794387
 11
5.7047455256
 21
22.427447922
  0
LWPOLYLINE
  5
425
100
AcDbEntity
  8
0
100
AcDbPolyline
 62
250
  6
CONTINUOUS
 90
18
 70
0
 10
5.7047455256
 20
22.7749794564
 10
5.7046919641
 20
22.7723920706
 10
5.7041655367
 20
22.7664697665
 10
5.7030781244
 20
22.7605665937
 10
5.7014321697
 20
22.7546958269
 10
5.6992313725
 20
22.7488706725
 10
5.6964806796
 20
22.7431042316
 10
5.6931862758
 20
22.7374094751
 10
5.6893555713
 20
22.7317992162
 10
5.6849971817
 20
22.7262860745
 10
5.680120908
 20
22.7208824494
 10
5.6747377186
 20
22.7156004967
 10
5.6688597174
 20
22.710452094
 10
5.6625001273
 20
22.7054488241
 10
5.6556732645
 20
22.7006019493
 10
5.6483944904
 20
22.6959223732
 10
5.6406801742
 20
22.6914206175
 10
5.6325476686
 20
22.6871068066
  0
LWPOLYLINE
  5
426
100
AcDbEntity
  8
0
100
AcDbPolyline
 62
250
  6
CONTINUOUS
 90
18
 70
0
 10
5.7047455256
 20
22.4274479145
 10
5.7046911027
 20
22.4248398346
 10
5.7041627497
 20
22.4189178526
 10
5.7030734777
 20
22.4130150755
 10
5.7014257397
 20
22.4071447695
 10
5.6992232395
 20
22.4013201234
 10
5.6964709078
 20
22.3955541938
 10
5.6931749489
 20
22.3898599913
 10
5.6893428574
 20
22.3842504339
 10
5.6849833454
 20
22.3787382044
 10
5.6801061997
 20
22.3733356161
 10
5.6747223044
 20
22.3680547052
 10
5.6688432694
 20
22.3629069348
 10
5.6624827326
 20
22.3579043154
 10
5.6556565729
 20
22.3530591609
 10
5.6483810004
 20
22.3483825963
 10
5.6406721668
 20
22.3438846464
 10
5.6325476686
 20
22.3395752898
  0
LWPOLYLINE
  5
427
100
AcDbEntity
  8
0
100
AcDbPolyline
 62
7
  6
CONTINUOUS
 90
25
 70
0
 10
13.3774298368
 20
17.1457158476
 10
13.383007827
 20
17.1577427163
 10
13.388114923
 20
17.170207256
 10
13.3927511248
 20
17.1831094668
 10
13.3969215851
 20
17.1964687736
 10
13.4006211512
 20
17.2102657514
 10
13.4038343648
 20
17.2244421255
 10
13.4065591898
 20
17.2389994751
 10
13.4087976623
 20
17.253936221
 10
13.4105404322
 20
17.2691893516
 10
13.4117854258
 20
17.2847601856
 10
13.4125347168
 20
17.3006474043
 10
13.4127851758
 20
17.3167840389
 10
13.4125347168
 20
17.3331711326
 10
13.4117854258
 20
17.3498076422
 10
13.4105404322
 20
17.3666234699
 10
13.4087976623
 20
17.3836193703
 10
13.4065591898
 20
17.4007945888
 10
13.4038343648
 20
17.4180767634
 10
13.4006211512
 20
17.4354663511
 10
13.3969215851
 20
17.452962895
 10
13.3927511248
 20
17.470492662
 10
13.388114923
 20
17.4880310746
 10
13.383007827
 20
17.5056027104
 10
13.3774298368
 20
17.5232075693
  0
LWPOLYLINE
  5
428
100
AcDbEntity
  8
0
100
AcDbPolyline
 62
7
  6
CONTINUOUS
 90
28
 70
0
 10
17.2438910853
 20
19.0527141171
 10
17.2519786846
 20
19.0645004753
 10
17.2594798052
 20
19.0769327384
 10
17.266394447
 20
19.0900109064
 10
17.2727337775
 20
19.1037622952
 10
17.2784866292
 20
19.1181595889
 10
17.2836194997
 20
19.1331208395
 10
17.2881284021
 20
19.1486484275
 10
17.2920173232
 20
19.1647399723
 10
17.2952647208
 20
19.1813063848
 10
17.2978670365
 20
19.1983503027
 10
17.2998278288
 20
19.2158690882
 10
17.301136231
 20
19.2337657386
 10
17.3017886211
 20
19.2520423664
 10
17.3017886211
 20
19.2706968592
 10
17.301136231
 20
19.2896258771
 10
17.2998278288
 20
19.3088309298
 10
17.2978670365
 20
19.3283105075
 10
17.2952647208
 20
19.3479567411
 10
17.2920173232
 20
19.3677705512
 10
17.2881284021
 20
19.3877510172
 10
17.2836194997
 20
19.4077875075
 10
17.2784866292
 20
19.4278816286
 10
17.2727337775
 20
19.448031774
 10
17.266394447
 20
19.4681224934
 10
17.2594798052
 20
19.4881153031
 10
17.2519786846
 20
19.5080486868
 10
17.2438910853
 20
19.5279226444
  0
LWPOLYLINE
  5
429
100
AcDbEntity
  8
0
100
AcDbPolyline
 62
7
  6
CONTINUOUS
 90
14
 70
0
 10
17.9515662337
 20
16.1169111269
 10
17.9600516014
 20
16.1278418972
 10
17.9679349199
 20
16.1392496057
 10
17.9751870613
 20
16.1511002705
 10
17.9817842369
 20
16.163364507
 10
17.9876976866
 20
16.1759987252
 10
17.9928977971
 20
16.1889446319
 10
17.9973667555
 20
16.2021575669
 10
18.0010922966
 20
16.2156009546
 10
18.0040615501
 20
16.2292278552
 10
18.0062664223
 20
16.2430002072
 10
18.0076998356
 20
16.2568746951
 10
18.0083570317
 20
16.2707980198
 10
18.0084035183
 20
16.2756205824
  0
LINE
  5
42A
100
AcDbEntity
  8
0
100
AcDbLine
 62
250
  6
CONTINUOUS
 10
17.4079384895
 20
15.5447941377
 11
17.9362056613
 21
16.1877462935
  0
LINE
  5
42B
100
AcDbEntity
  8
0
100
AcDbLine
 62
7
  6
CONTINUOUS
 10
17.4079384895
 20
15.4552636714
 11
17.9515662337
 21
16.1169111269
  0
LWPOLYLINE
  5
42C
100
AcDbEntity
  8
0
100
AcDbPolyline
 62
7
  6
CONTINUOUS
 90
32
 70
0
 10
-12.5711902907
 20
-8.8253858776
 10
-12.6133560164
 20
-8.8378882248
 10
-12.6544186912
 20
-8.8454923545
 10
-12.6968777241
 20
-8.8490693903
 10
-12.7401695813
 20
-8.848677964
 10
-12.7840916306
 20
-8.8443572996
 10
-12.8288189416
 20
-8.8360375932
 10
-12.8743417996
 20
-8.823614093
 10
-12.9205510369
 20
-8.8073799981
 10
-12.9675692866
 20
-8.7870393186
 10
-13.0157599975
 20
-8.7616141331
 10
-13.0660955674
 20
-8.7304424209
 10
-13.1177267749
 20
-8.6942353596
 10
-13.168227025
 20
-8.6540667493
 10
-13.2170601096
 20
-8.6099494234
 10
-13.2647440498
 20
-8.5619097006
 10
-13.3103234256
 20
-8.5110126029
 10
-13.3535666181
 20
-8.4574070762
 10
-13.3946865217
 20
-8.4009826381
 10
-13.4333536476
 20
-8.342396407
 10
-13.4695923108
 20
-8.281679064
 10
-13.5033949632
 20
-8.2188361407
 10
-13.5343626833
 20
-8.1544701028
 10
-13.5625579806
 20
-8.0883741103
 10
-13.5879645898
 20
-8.020779793
 10
-13.6100243716
 20
-7.9529164608
 10
-13.6286235184
 20
-7.8846322287
 10
-13.6439065484
 20
-7.8160653481
 10
-13.6556289799
 20
-7.7488335885
 10
-13.6636809326
 20
-7.6834457851
 10
-13.6681438094
 20
-7.6193327163
 10
-13.669022632
 20
-7.5564731354
  0
LINE
  5
42D
100
AcDbEntity
  8
0
100
AcDbLine
 62
7
  6
CONTINUOUS
 10
6.0296900528
 20
20.6762354393
 11
6.0296900528
 21
19.2300726735
  0
LINE
  5
42E
100
AcDbEntity
  8
0
100
AcDbLine
 62
7
  6
CONTINUOUS
 10
6.6952707546
 20
18.8972823226
 11
6.6952707546
 21
20.3434450884
  0
LINE
  5
42F
100
AcDbEntity
  8
0
100
AcDbLine
 62
7
  6
CONTINUOUS
 10
7.4023775357
 20
20.5298365331
 11
7.4023775357
 21
19.2962221814
  0
LINE
  5
430
100
AcDbEntity
  8
ASSI
100
AcDbLine
 62
7
  6
CONTINUOUS
 10
8.4917032655
 20
26.3896261018
 11
8.4917032655
 21
26.5806481656
  0
LWPOLYLINE
  5
431
100
AcDbEntity
  8
0
100
AcDbPolyline
 62
250
  6
CONTINUOUS
 90
31
 70
0
 10
9.0287231325
 20
19.7166637347
 10
9.0289155927
 20
19.7257931484
 10
9.0294924513
 20
19.7350901948
 10
9.0304521408
 20
19.7445295703
 10
9.0317920531
 20
19.7540855931
 10
9.033508543
 20
19.7637322444
 10
9.035596934
 20
19.7734432383
 10
9.0380515389
 20
19.7831921353
 10
9.0408656773
 20
19.7929524078
 10
9.044031686
 20
19.8026974825
 10
9.0475409463
 20
19.8124008356
 10
9.0513839048
 20
19.8220360561
 10
9.0555500964
 20
19.8315769107
 10
9.0600281825
 20
19.8409974387
 10
9.0648059695
 20
19.8502719935
 10
9.0698704358
 20
19.8593753062
 10
9.0752077714
 20
19.868282569
 10
9.0808034644
 20
19.8769695779
 10
9.0866423328
 20
19.8854127656
 10
9.0927085687
 20
19.893589256
 10
9.0989855879
 20
19.9014766789
 10
9.1054561049
 20
19.9090533344
 10
9.1121023619
 20
19.9162984895
 10
9.1189063831
 20
19.9231926073
 10
9.125849837
 20
19.9297171345
 10
9.132915296
 20
19.93585554
 10
9.1400821081
 20
19.9415897289
 10
9.1473264634
 20
19.9469010799
 10
9.1546270928
 20
19.9517749889
 10
9.1619655029
 20
19.9562000907
 10
9.1693217373
 20
19.9601651867
  0
LWPOLYLINE
  5
432
100
AcDbEntity
  8
0
100
AcDbPolyline
 62
7
  6
CONTINUOUS
 90
31
 70
0
 10
7.4023775357
 20
20.5298365331
 10
7.4025742656
 20
20.5390067673
 10
7.4031503555
 20
20.5482933447
 10
7.4041058053
 20
20.5576962652
 10
7.4054452635
 20
20.5672416683
 10
7.4071640816
 20
20.5769034145
 10
7.4092483142
 20
20.5866030859
 10
7.4117009589
 20
20.5963410646
 10
7.4145190179
 20
20.6061169685
 10
7.4176795523
 20
20.6158512335
 10
7.4211853021
 20
20.6255433973
 10
7.4250335272
 20
20.6351939222
 10
7.4291930682
 20
20.644724631
 10
7.4336665173
 20
20.6541346831
 10
7.4384512824
 20
20.6634249191
 10
7.4435084273
 20
20.6725196845
 10
7.4488401895
 20
20.6814173733
 10
7.4544443315
 20
20.6901195915
 10
7.4602752044
 20
20.6985555017
 10
7.4663345681
 20
20.7067228213
 10
7.4726206627
 20
20.714623833
 10
7.4790825597
 20
20.7221945466
 10
7.4857217712
 20
20.7294323729
 10
7.4925367852
 20
20.7363399011
 10
7.499472137
 20
20.7428609087
 10
7.5065287561
 20
20.7489921955
 10
7.513705713
 20
20.7547369617
 10
7.5209447552
 20
20.7600485859
 10
7.528226465
 20
20.7649115276
 10
7.5355702602
 20
20.7693413273
 10
7.5429761405
 20
20.7733379851
  0
LINE
  5
433
100
AcDbEntity
  8
SUPERFICI
100
AcDbLine
 62
7
  6
CONTINUOUS
 10
8.0111347464
 20
27.3435131874
 11
8.0138447428
 21
27.2955038631
  0
LINE
  5
434
100
AcDbEntity
  8
SUPERFICI
100
AcDbLine
 62
250
  6
CONTINUOUS
 10
8.7996960112
 20
28.3072634258
 11
8.7996960112
 21
27.9859391436
  0
LINE
  5
435
100
AcDbEntity
  8
0
100
AcDbLine
 62
250
  6
CONTINUOUS
 10
9.0287231325
 20
18.4830493831
 11
9.0287231325
 21
19.7166637347
  0
LINE
  5
436
100
AcDbEntity
  8
0
100
AcDbLine
 62
250
  6
CONTINUOUS
 10
9.3115658449
 20
18.4921266767
 11
9.3115658449
 21
19.7166637347
  0
LINE
  5
437
100
AcDbEntity
  8
SUPERFICI
100
AcDbLine
 62
7
  6
CONTINUOUS
 10
9.4824062091
 20
27.8855684448
 11
9.4824062091
 21
28.3185811467
  0
LINE
  5
438
100
AcDbEntity
  8
0
100
AcDbLine
 62
7
  6
CONTINUOUS
 10
10.2308046605
 20
20.1727562706
 11
10.2308046605
 21
18.9608274851
  0
LINE
  5
439
100
AcDbEntity
  8
0
100
AcDbLine
 62
7
  6
CONTINUOUS
 10
10.4498699216
 20
27.0494383336
 11
10.4498699216
 21
26.5835635672
  0
LINE
  5
43A
100
AcDbEntity
  8
0
100
AcDbLine
 62
7
  6
CONTINUOUS
 10
10.6672007636
 20
18.9388462754
 11
10.6672007636
 21
17.7078907901
  0
LINE
  5
43B
100
AcDbEntity
  8
0
100
AcDbLine
 62
250
  6
CONTINUOUS
 10
10.7257794073
 20
18.8681355973
 11
10.7257794073
 21
17.6345212456
  0
LINE
  5
43C
100
AcDbEntity
  8
SUPERFICI
100
AcDbLine
 62
250
  6
CONTINUOUS
 10
10.8672031025
 20
27.7785535574
 11
10.8672031025
 21
28.2372851235
  0
LINE
  5
43D
100
AcDbEntity
  8
0
100
AcDbLine
 62
7
  6
CONTINUOUS
 10
10.899614583
 20
26.9276905004
 11
10.899614583
 21
26.5745049466
  0
LINE
  5
43E
100
AcDbEntity
  8
SUPERFICI
100
AcDbLine
 62
250
  6
CONTINUOUS
 10
11.0082160239
 20
27.7794838355
 11
11.0082160239
 21
28.2482810207
  0
LWPOLYLINE
  5
43F
100
AcDbEntity
  8
RACCORDO
100
AcDbPolyline
 62
250
  6
CONTINUOUS
 90
10
 70
0
 10
10.7823051659
 20
-26.3394786177
 10
10.827382721
 20
-22.3078438305
 10
10.9039861786
 20
-18.262614492
 10
11.0121155384
 20
-14.2037906021
 10
11.151788109
 20
-10.130959062
 10
11.322986582
 20
-6.0445329706
 10
11.5256590317
 20
-1.9457516242
 10
11.7597881497
 20
2.1649718785
 10
12.0253912444
 20
6.2880506362
 10
12.3224683159
 20
10.4234846489
  0
LWPOLYLINE
  5
440
100
AcDbEntity
  8
RACCORDO
100
AcDbPolyline
 62
250
  6
CONTINUOUS
 90
10
 70
0
 10
10.0969903422
 20
-26.3371216927
 10
10.1434980977
 20
-22.3026283683
 10
10.2212180689
 20
-18.2536588753
 10
10.3301545656
 20
-14.1905658321
 10
10.4703089875
 20
-10.1136551304
 10
10.641670586
 20
-6.0233351568
 10
10.8442180002
 20
-1.9201158353
 10
11.0779275272
 20
2.1955888019
 10
11.342771611
 20
6.3234602438
 10
11.63871569
 20
10.4631289313
  0
LWPOLYLINE
  5
441
100
AcDbEntity
  8
0
100
AcDbPolyline
 62
250
  6
CONTINUOUS
 90
31
 70
0
 10
10.7257794073
 20
18.8681355973
 10
10.725970924
 20
18.8772423831
 10
10.7265454077
 20
18.8865215505
 10
10.7275019783
 20
18.8959482114
 10
10.7288390135
 20
18.9054988931
 10
10.7305533961
 20
18.9151459648
 10
10.7326397806
 20
18.9248575545
 10
10.7350919443
 20
18.9346052123
 10
10.7379036057
 20
18.9443644082
 10
10.7410672066
 20
18.9541088574
 10
10.7445742387
 20
18.9638122289
 10
10.7484151265
 20
18.9734479177
 10
10.7525793098
 20
18.9829893976
 10
10.7570553904
 20
18.9924105768
 10
10.7618312357
 20
19.0016859414
 10
10.7668938898
 20
19.0107903266
 10
10.7722295993
 20
19.0196989843
 10
10.7778238272
 20
19.0283876283
 10
10.7836613335
 20
19.0368325815
 10
10.7897262273
 20
19.0450108511
 10
10.7960020067
 20
19.0529001814
 10
10.802471586
 20
19.0604790904
 10
10.8091173568
 20
19.0677269479
 10
10.8159212314
 20
19.0746240251
 10
10.8228646862
 20
19.0811515427
 10
10.8299288281
 20
19.0872917376
 10
10.8370944243
 20
19.093027891
 10
10.8443419494
 20
19.0983443732
 10
10.8516516685
 20
19.1032267118
 10
10.8590036931
 20
19.1076616264
 10
10.8663780121
 20
19.1116370493
  0
LWPOLYLINE
  5
442
100
AcDbEntity
  8
0
100
AcDbPolyline
 62
7
  6
CONTINUOUS
 90
20
 70
0
 10
10.6672007636
 20
18.9388462754
 10
10.6675245029
 20
18.950221235
 10
10.6685012325
 20
18.9616167727
 10
10.6701364422
 20
18.9729879397
 10
10.6724319711
 20
18.9842898385
 10
10.6753854612
 20
18.9954756823
 10
10.6789902022
 20
19.0064982124
 10
10.6832352963
 20
19.0173109605
 10
10.688107726
 20
19.0278725854
 10
10.6935937406
 20
19.0381468372
 10
10.6996753187
 20
19.048094732
 10
10.7063303776
 20
19.0576769064
 10
10.713538396
 20
19.0668614183
 10
10.7212790803
 20
19.0756193074
 10
10.7295228057
 20
19.083914466
 10
10.7382354459
 20
19.0917120559
 10
10.7473967043
 20
19.0989930435
 10
10.7569728898
 20
19.1057289164
 10
10.7669103794
 20
19.1118833779
 10
10.7767484052
 20
19.1172233222
  0
LWPOLYLINE
  5
443
100
AcDbEntity
  8
RACCORDO
100
AcDbPolyline
 62
250
  6
CONTINUOUS
 90
22
 70
0
 10
11.638715657
 20
10.4631289161
 10
11.6465935194
 20
10.5407876018
 10
11.6587532027
 20
10.6197001736
 10
11.6751328951
 20
10.6994617043
 10
11.6956527247
 20
10.7796557055
 10
11.720206582
 20
10.8598775298
 10
11.7486651226
 20
10.9397364137
 10
11.780893202
 20
11.0188264867
 10
11.8167283554
 20
11.0967356425
 10
11.8559744051
 20
11.1730690012
 10
11.8984392953
 20
11.2474308912
 10
11.9439124931
 20
11.31943892
 10
11.9921461836
 20
11.3887326395
 10
12.0429053648
 20
11.4549534025
 10
12.0959374042
 20
11.5177569648
 10
12.1509492115
 20
11.5768278831
 10
12.2076667037
 20
11.6318553305
 10
12.2658126322
 20
11.6825568632
 10
12.3250768425
 20
11.7286888458
 10
12.3851595993
 20
11.7700146337
 10
12.4457724935
 20
11.8063079257
 10
12.5066165064
 20
11.8373751766
  0
LWPOLYLINE
  5
444
100
AcDbEntity
  8
RACCORDO
100
AcDbPolyline
 62
250
  6
CONTINUOUS
 90
22
 70
0
 10
12.3224683159
 20
10.4234846489
 10
12.3271784446
 20
10.4688934729
 10
12.3343703029
 20
10.5146046617
 10
12.3440438908
 20
10.5606182151
 10
12.3562747935
 20
10.6071929423
 10
12.3709874258
 20
10.6540700341
 10
12.3879550324
 20
10.7004730634
 10
12.4072102882
 20
10.7463744204
 10
12.4287205183
 20
10.791801715
 10
12.4521609422
 20
10.8360613497
 10
12.4775633803
 20
10.8791377442
 10
12.5048960123
 20
10.9210464788
 10
12.5337385973
 20
10.9611406972
 10
12.5641139901
 20
10.9993904237
 10
12.5959993358
 20
11.035825634
 10
12.6289058291
 20
11.0698893982
 10
12.6628653402
 20
11.1015523099
 10
12.6978459989
 20
11.1308437755
 10
12.7332633887
 20
11.1572950841
 10
12.7689227043
 20
11.1807499988
 10
12.805018751
 20
11.2013647566
 10
12.841551529
 20
11.2191393575
  0
LWPOLYLINE
  5
445
100
AcDbEntity
  8
0
100
AcDbPolyline
 62
250
  6
CONTINUOUS
 90
30
 70
0
 10
15.8066576987
 20
15.1291430526
 10
15.8022412113
 20
15.118260992
 10
15.797437609
 20
15.1076013948
 10
15.7922574648
 20
15.0971884459
 10
15.7867117882
 20
15.0870450584
 10
15.7808132241
 20
15.0771950918
 10
15.7745762825
 20
15.0676630707
 10
15.7680155859
 20
15.0584712416
 10
15.7611454508
 20
15.0496395658
 10
15.7539812357
 20
15.0411878101
 10
15.7465389924
 20
15.0331349689
 10
15.7388355973
 20
15.0254993598
 10
15.7308885861
 20
15.0182983843
 10
15.7227159591
 20
15.0115483457
 10
15.714336106
 20
15.0052644255
 10
15.7057679239
 20
14.9994607962
 10
15.6970307395
 20
14.9941505542
 10
15.6881442867
 20
14.9893456982
 10
15.6791286436
 20
14.9850570863
 10
15.6700041682
 20
14.9812944019
 10
15.6607914506
 20
14.9780661351
 10
15.6515112864
 20
14.9753795732
 10
15.6421846238
 20
14.9732407803
 10
15.6328325159
 20
14.9716545847
 10
15.6234760739
 20
14.970624567
 10
15.6141364072
 20
14.9701530519
 10
15.6048346092
 20
14.9702411054
 10
15.5955917096
 20
14.9708885255
 10
15.5864285931
 20
14.9720938413
 10
15.5798142856
 20
14.973321875
  0
LINE
  5
446
100
AcDbEntity
  8
RACCORDO
100
AcDbLine
 62
7
  6
CONTINUOUS
 10
14.9191969792
 20
-18.7618571408
 11
14.8888610342
 21
-18.3972673998
  0
LWPOLYLINE
  5
447
100
AcDbEntity
  8
0
100
AcDbPolyline
 62
7
  6
CONTINUOUS
 90
5
 70
0
 10
11.8084983101
 20
22.8373343425
 10
11.8084375543
 20
22.8384410605
 10
11.8075784923
 20
22.8413064104
 10
11.805749492
 20
22.8435199389
 10
11.8038289769
 20
22.8447541668
  0
LWPOLYLINE
  5
448
100
AcDbEntity
  8
0
100
AcDbPolyline
 62
250
  6
CONTINUOUS
 90
21
 70
0
 10
13.7755976686
 20
15.9689248116
 10
13.7757659645
 20
15.9595638612
 10
13.7762705317
 20
15.9503890302
 10
13.7771104096
 20
15.941417788
 10
13.7782839953
 20
15.9326672393
 10
13.7797890562
 20
15.9241540212
 10
13.7816227426
 20
15.9158942784
 10
13.7837815867
 20
15.9079036908
 10
13.7862614741
 20
15.9001975372
 10
13.7890576538
 20
15.8927905882
 10
13.7921647763
 20
15.8856969888
 10
13.7955769384
 20
15.8789301926
 10
13.7992876664
 20
15.8725030355
 10
13.8032899272
 20
15.8664277156
 10
13.8075760763
 20
15.8607158518
 10
13.8121378858
 20
15.8553783988
 10
13.8169666153
 20
15.8504255488
 10
13.8220531011
 20
15.8458666684
 10
13.8273877161
 20
15.8417103752
 10
13.8329609863
 20
15.8379641582
 10
13.8383365819
 20
15.8348795959
  0
LINE
  5
449
100
AcDbEntity
  8
0
100
AcDbLine
 62
7
  6
CONTINUOUS
 10
11.6450182229
 20
17.8685713542
 11
11.6450182229
 21
16.4224085885
  0
LINE
  5
44A
100
AcDbEntity
  8
0
100
AcDbLine
 62
250
  6
CONTINUOUS
 10
11.6740962475
 20
22.8112299646
 11
11.6740962475
 21
21.4268564438
  0
LINE
  5
44B
100
AcDbEntity
  8
0
100
AcDbLine
 62
7
  6
CONTINUOUS
 10
11.8084983447
 20
22.8370306614
 11
11.8084983447
 21
21.5874634381
  0
LINE
  5
44C
100
AcDbEntity
  8
0
100
AcDbLine
 62
7
  6
CONTINUOUS
 10
12.3105989246
 20
16.0896182376
 11
12.3105989246
 21
17.5357810033
  0
LINE
  5
44D
100
AcDbEntity
  8
SUPERFICI
100
AcDbLine
 62
7
  6
CONTINUOUS
 10
12.8118519897
 20
30.3486632185
 11
12.8118519897
 21
29.9408119512
  0
LINE
  5
44E
100
AcDbEntity
  8
0
100
AcDbLine
 62
7
  6
CONTINUOUS
 10
13.3774298368
 20
16.6849426556
 11
13.3774298368
 21
18.0705833017
  0
LINE
  5
44F
100
AcDbEntity
  8
0
100
AcDbLine
 62
7
  6
CONTINUOUS
 10
13.7023743639
 20
16.3972870934
 11
13.7023743639
 21
16.0573131593
  0
LINE
  5
450
100
AcDbEntity
  8
0
100
AcDbLine
 62
250
  6
CONTINUOUS
 10
13.7755976686
 20
16.3088987458
 11
13.7755976686
 21
15.9689248116
  0
LWPOLYLINE
  5
451
100
AcDbEntity
  8
0
100
AcDbPolyline
 62
250
  6
CONTINUOUS
 90
34
 70
0
 10
13.7755976686
 20
16.3088987458
 10
13.7757964714
 20
16.319263224
 10
13.7763924337
 20
16.3298032088
 10
13.7773842169
 20
16.3404949944
 10
13.7787695929
 20
16.3513145403
 10
13.780545447
 20
16.3622375046
 10
13.7827077822
 20
16.3732392986
 10
13.7852517328
 20
16.3842951708
 10
13.7881715775
 20
16.3953802598
 10
13.7914607475
 20
16.4064696296
 10
13.7951118444
 20
16.4175383394
 10
13.799116655
 20
16.4285614918
 10
13.8034661672
 20
16.439514285
 10
13.8081505959
 20
16.4503720828
 10
13.813159404
 20
16.4611104658
 10
13.8184813225
 20
16.471705279
 10
13.8241043829
 20
16.4821326988
 10
13.8300159336
 20
16.4923692676
 10
13.8362026654
 20
16.5023919445
 10
13.842650642
 20
16.5121781624
 10
13.8493453752
 20
16.5217059422
 10
13.8562718514
 20
16.5309539173
 10
13.8634145619
 20
16.5399013677
 10
13.8707573794
 20
16.5485280784
 10
13.878283626
 20
16.5568144688
 10
13.8859762603
 20
16.5647418174
 10
13.8938180729
 20
16.5722924302
 10
13.9017915718
 20
16.5794494795
 10
13.9098800493
 20
16.5861978525
 10
13.9180641206
 20
16.5925212624
 10
13.9263217914
 20
16.5984030384
 10
13.934633212
 20
16.6038297884
 10
13.9429808444
 20
16.6087908024
 10
13.9513459246
 20
16.6132755607
  0
LWPOLYLINE
  5
452
100
AcDbEntity
  8
RACCORDO
100
AcDbPolyline
 62
250
  6
CONTINUOUS
 90
9
 70
0
 10
-18.8074075682
 20
25.6861905907
 10
-18.8398604406
 20
25.705018261
 10
-18.8682988468
 20
25.7249606221
 10
-18.8924347934
 20
25.7458157192
 10
-18.9120238578
 20
25.7673723548
 10
-18.9268676632
 20
25.7894122264
 10
-18.9368158876
 20
25.8117121383
 10
-18.9417677861
 20
25.834046261
 10
-18.9421023097
 20
25.8517066874
  0
LWPOLYLINE
  5
453
100
AcDbEntity
  8
ASSI
100
AcDbPolyline
 62
7
  6
CONTINUOUS
 90
4
 70
0
 10
-14.7634035936
 20
30.1477382647
 10
-14.7453050296
 20
30.1317535373
 10
-14.7255962464
 20
30.1178813819
 10
-14.70736515
 20
30.107675453
  0
LWPOLYLINE
  5
454
100
AcDbEntity
  8
ASSI
100
AcDbPolyline
 62
250
  6
CONTINUOUS
 90
7
 70
0
 10
2.3571012702
 20
23.9589158622
 10
2.3649001125
 20
23.9447002044
 10
2.370132584
 20
23.9319005303
 10
2.3727101505
 20
23.9207334218
 10
2.3725892015
 20
23.9113878345
 10
2.3697717884
 20
23.904021903
 10
2.368788765
 20
23.9026737025
  0
LINE
  5
455
100
AcDbEntity
  8
DRAFT
100
AcDbLine
 62
7
  6
CONTINUOUS
 10
17.035254077
 20
-19.9796203839
 11
15.8852874895
 21
-6.1588535936
  0
LWPOLYLINE
  5
456
100
AcDbEntity
  8
0
100
AcDbPolyline
 62
250
  6
CONTINUOUS
 90
20
 70
0
 10
15.4541357391
 20
-26.5099222971
 10
15.4543344869
 20
-26.520086584
 10
15.4549302837
 20
-26.5300292679
 10
15.4559217897
 20
-26.5397279918
 10
15.4573067753
 20
-26.5491609474
 10
15.4590821265
 20
-26.5583069242
 10
15.461243851
 20
-26.5671453565
 10
15.4637870883
 20
-26.5756563705
 10
15.4667061195
 20
-26.5838208287
 10
15.469994381
 20
-26.5916203724
 10
15.473644479
 20
-26.599037464
 10
15.4776482059
 20
-26.6060554256
 10
15.481996559
 20
-26.6126584766
 10
15.4866797607
 20
-26.6188317696
 10
15.4916872805
 20
-26.6245614236
 10
15.4970078586
 20
-26.6298345549
 10
15.5026295312
 20
-26.6346393065
 10
15.5085396577
 20
-26.6389648746
 10
15.5147249486
 20
-26.6428015328
 10
15.5191090355
 20
-26.6451407472
  0
LWPOLYLINE
  5
457
100
AcDbEntity
  8
0
100
AcDbPolyline
 62
250
  6
CONTINUOUS
 90
22
 70
0
 10
15.4541357391
 20
15.1296557764
 10
15.4543035713
 20
15.120307607
 10
15.454806978
 20
15.1111419304
 10
15.455645345
 20
15.1021763609
 10
15.4568175716
 20
15.0934271816
 10
15.4583216902
 20
15.0849123073
 10
15.4601544933
 20
15.0766509735
 10
15.4623122182
 20
15.0686598345
 10
15.4647909523
 20
15.0609531202
 10
15.4675860097
 20
15.0535454211
 10
15.4706921066
 20
15.0464507931
 10
15.4741033168
 20
15.0396828197
 10
15.4778131012
 20
15.0332544866
 10
15.4818143645
 20
15.0271780726
 10
15.4860995103
 20
15.0214650985
 10
15.4906604104
 20
15.0161264027
 10
15.4954884164
 20
15.0111721242
 10
15.5005743096
 20
15.0066117381
 10
15.5059083397
 20
15.0024539829
 10
15.5114803042
 20
14.9987067903
 10
15.5172796245
 20
14.995377254
 10
15.5191090448
 20
14.9944373217
  0
LWPOLYLINE
  5
458
100
AcDbEntity
  8
0
100
AcDbPolyline
 62
7
  6
CONTINUOUS
 90
27
 70
0
 10
16.5947656912
 20
22.6400937702
 10
16.5943345521
 20
22.6700445255
 10
16.5930530775
 20
22.6994649944
 10
16.5909212674
 20
22.7283551768
 10
16.5879338319
 20
22.7567521849
 10
16.5840960608
 20
22.7846189067
 10
16.5794238238
 20
22.8118440057
 10
16.5739161329
 20
22.8384165597
 10
16.5675739761
 20
22.8643474911
 10
16.5604161867
 20
22.8895582309
 10
16.5524360886
 20
22.9140572584
 10
16.543640358
 20
22.9378360944
 10
16.5340678573
 20
22.9607907325
 10
16.5237215563
 20
22.9829058318
 10
16.5125984852
 20
23.0041967331
 10
16.5007285964
 20
23.0246054529
 10
16.488101176
 20
23.0441414071
 10
16.4747269379
 20
23.0627951797
 10
16.4606679765
 20
23.0804805389
 10
16.4459319584
 20
23.0971820958
 10
16.4305112169
 20
23.1129152394
 10
16.4144448464
 20
23.1276399047
 10
16.3977185315
 20
23.1413627516
 10
16.3803465876
 20
23.1540771202
 10
16.3624110549
 20
23.165722966
 10
16.343923132
 20
23.1762882756
 10
16.3348727046
 20
23.1809680917
  0
LINE
  5
459
100
AcDbEntity
  8
0
100
AcDbLine
 62
7
  6
CONTINUOUS
 10
14.4053673182
 20
15.551308185
 11
14.4053673182
 21
15.097354443
  0
LINE
  5
45A
100
AcDbEntity
  8
0
100
AcDbLine
 62
250
  6
CONTINUOUS
 10
14.4785906229
 20
15.5146965326
 11
14.4785906229
 21
15.0056223884
  0
LINE
  5
45B
100
AcDbEntity
  8
0
100
AcDbLine
 62
250
  6
CONTINUOUS
 10
15.4541357391
 20
-26.5099222971
 11
15.4541357391
 21
-26.169948363
  0
LINE
  5
45C
100
AcDbEntity
  8
0
100
AcDbLine
 62
250
  6
CONTINUOUS
 10
15.4541357391
 20
15.1296557764
 11
15.4541357391
 21
15.4696297106
  0
LINE
  5
45D
100
AcDbEntity
  8
0
100
AcDbLine
 62
250
  6
CONTINUOUS
 10
15.8066576987
 20
-26.5104350209
 11
15.8066576987
 21
-26.1704610868
  0
LINE
  5
45E
100
AcDbEntity
  8
0
100
AcDbLine
 62
250
  6
CONTINUOUS
 10
15.8066576987
 20
15.1291430526
 11
15.8066576987
 21
15.4691169867
  0
LINE
  5
45F
100
AcDbEntity
  8
0
100
AcDbLine
 62
250
  6
CONTINUOUS
 10
16.1653563472
 20
-25.1934518858
 11
16.1653563472
 21
-24.4995391586
  0
LINE
  5
460
100
AcDbEntity
  8
0
100
AcDbLine
 62
250
  6
CONTINUOUS
 10
16.1653563472
 20
14.1622395263
 11
16.1653563472
 21
14.8510601493
  0
LINE
  5
461
100
AcDbEntity
  8
0
100
AcDbLine
 62
250
  6
CONTINUOUS
 10
16.5178783068
 20
-25.3189646097
 11
16.5178783068
 21
-24.6758001384
  0
LINE
  5
462
100
AcDbEntity
  8
0
100
AcDbLine
 62
250
  6
CONTINUOUS
 10
16.5178783068
 20
14.173007408
 11
16.5178783068
 21
14.9806395297
  0
LINE
  5
463
100
AcDbEntity
  8
0
100
AcDbLine
 62
7
  6
CONTINUOUS
 10
16.5947656912
 20
22.6400937702
 11
16.5947656912
 21
22.1759154566
  0
LWPOLYLINE
  5
464
100
AcDbEntity
  8
0
100
AcDbPolyline
 62
250
  6
CONTINUOUS
 90
25
 70
0
 10
15.4541357391
 20
-26.169948363
 10
15.4543040349
 20
-26.1604191167
 10
15.4548086021
 20
-26.1507397185
 10
15.45564848
 20
-26.1409285984
 10
15.4568220657
 20
-26.1310044639
 10
15.4583271266
 20
-26.120986185
 10
15.460160813
 20
-26.1108927558
 10
15.4623196571
 20
-26.1007433241
 10
15.4647995445
 20
-26.0905572831
 10
15.4675957242
 20
-26.0803541544
 10
15.4707028468
 20
-26.0701534324
 10
15.4741150089
 20
-26.0599744741
 10
15.4778257368
 20
-26.0498365891
 10
15.4818279976
 20
-26.0397590084
 10
15.4861141467
 20
-26.0297609954
 10
15.4906759562
 20
-26.019861733
 10
15.4955046858
 20
-26.0100801534
 10
15.5005911716
 20
-26.0004347872
 10
15.5059257865
 20
-25.990943879
 10
15.5114990567
 20
-25.9816243919
 10
15.5172997427
 20
-25.9724952231
 10
15.5233146678
 20
-25.9635768245
 10
15.5295314327
 20
-25.9548869382
 10
15.5359386952
 20
-25.946440797
 10
15.5425240867
 20
-25.9382541891
  0
LWPOLYLINE
  5
465
100
AcDbEntity
  8
0
100
AcDbPolyline
 62
250
  6
CONTINUOUS
 90
34
 70
0
 10
15.4541357391
 20
15.4696297106
 10
15.4543344869
 20
15.4799927454
 10
15.4549302837
 20
15.490531226
 10
15.4559217897
 20
15.5012214559
 10
15.4573067753
 20
15.5120393972
 10
15.4590821265
 20
15.522960725
 10
15.461243851
 20
15.5339608819
 10
15.4637870883
 20
15.5450151332
 10
15.4667061195
 20
15.5560986226
 10
15.469994381
 20
15.5671864279
 10
15.473644479
 20
15.5782536175
 10
15.4776482059
 20
15.5892753059
 10
15.481996559
 20
15.6002267099
 10
15.4866797607
 20
15.6110832047
 10
15.4916872805
 20
15.6218203784
 10
15.4970078586
 20
15.6324140878
 10
15.5026295312
 20
15.6428405121
 10
15.5085396577
 20
15.6530762067
 10
15.5147249486
 20
15.6630981559
 10
15.5211714959
 20
15.6728838245
 10
15.527864804
 20
15.6824112087
 10
15.5347898225
 20
15.6916588855
 10
15.5419309799
 20
15.7006060608
 10
15.5492722189
 20
15.7092326162
 10
15.5567970321
 20
15.7175191542
 10
15.5644884994
 20
15.7254470419
 10
15.5723293259
 20
15.7329984529
 10
15.580301881
 20
15.7401564072
 10
15.5883882377
 20
15.7469048097
 10
15.5965702134
 20
15.7532284859
 10
15.6048294101
 20
15.7591132168
 10
15.6131472564
 20
15.76454577
 10
15.6215050491
 20
15.76951393
 10
15.629883995
 20
15.7740065255
  0
LWPOLYLINE
  5
466
100
AcDbEntity
  8
0
100
AcDbPolyline
 62
250
  6
CONTINUOUS
 90
20
 70
0
 10
15.8066576987
 20
-26.5104350209
 10
15.8064093688
 20
-26.5206614389
 10
15.8057633884
 20
-26.5306632617
 10
15.8047212197
 20
-26.5404178259
 10
15.8032852217
 20
-26.5499030334
 10
15.801458647
 20
-26.5590973851
 10
15.7992456371
 20
-26.5679800316
 10
15.7966512082
 20
-26.5765308424
 10
15.7936812384
 20
-26.5847304472
 10
15.790342459
 20
-26.592560265
 10
15.7866424354
 20
-26.6000025562
 10
15.7825895526
 20
-26.6070404575
 10
15.778192998
 20
-26.6136580181
 10
15.7734627359
 20
-26.6198402444
 10
15.7684094852
 20
-26.6255731317
 10
15.7630446989
 20
-26.6308436906
 10
15.7573805313
 20
-26.6356399837
 10
15.7514298208
 20
-26.6399511435
 10
15.7452060636
 20
-26.6437673978
 10
15.7404027455
 20
-26.6462824125
  0
LINE
  5
467
100
AcDbEntity
  8
RACCORDO
100
AcDbLine
 62
7
  6
CONTINUOUS
 10
14.5931144511
 20
-25.4565976521
 11
16.1918342655
 21
12.7040838037
  0
LINE
  5
468
100
AcDbEntity
  8
DRAFT
100
AcDbLine
 62
7
  6
CONTINUOUS
 10
15.8852874895
 20
-6.1588535936
 11
17.035254077
 21
8.7724230218
  0
LWPOLYLINE
  5
469
100
AcDbEntity
  8
SUPERFICI
100
AcDbPolyline
 62
250
  6
CONTINUOUS
 90
10
 70
0
 10
18.3339582897
 20
26.6837750302
 10
18.3312519367
 20
26.6489034409
 10
18.3219017242
 20
26.6103644433
 10
18.305942972
 20
26.5723718056
 10
18.2834944535
 20
26.535208289
 10
18.2547232424
 20
26.4991504839
 10
18.219843469
 20
26.4644667512
 10
18.1791147269
 20
26.4314152255
 10
18.1328401406
 20
26.4002418936
 10
18.08136411
 20
26.3711787635
  0
LWPOLYLINE
  5
46A
100
AcDbEntity
  8
RACCORDO
100
AcDbPolyline
 62
250
  6
CONTINUOUS
 90
16
 70
0
 10
11.6387245715
 20
10.4631326346
 10
11.6771731147
 20
10.4465094736
 10
11.7186709244
 20
10.4314835109
 10
11.7627977648
 20
10.4182069098
 10
11.8091067765
 20
10.4068141187
 10
11.8571290021
 20
10.3974205087
 10
11.906378135
 20
10.3901212059
 10
11.9563554439
 20
10.3849901281
 10
12.0065548238
 20
10.3820792362
 10
12.0564679206
 20
10.3814180079
 10
12.1055892794
 20
10.3830131392
 10
12.1534214629
 20
10.3868484769
 10
12.199480089
 20
10.3928851814
 10
12.2432987358
 20
10.401062121
 10
12.2844336651
 20
10.4112964903
 10
12.3224683159
 20
10.4234846489
  0
LWPOLYLINE
  5
46B
100
AcDbEntity
  8
RACCORDO
100
AcDbPolyline
 62
250
  6
CONTINUOUS
 90
19
 70
0
 10
12.5066165177
 20
11.8373751816
 10
10.8698936198
 20
12.6053700499
 10
9.2407888486
 20
13.3751021301
 10
7.6193022043
 20
14.1465714222
 10
6.0077190159
 20
14.9186605452
 10
4.4037539542
 20
15.69248688
 10
2.800551032
 20
16.4714025698
 10
1.2008970504
 20
17.2538930416
 10
-0.3979947918
 20
18.0414728684
 10
-2.0113408849
 20
18.8420379119
 10
-3.6372743259
 20
19.6543785825
 10
-5.2776620178
 20
20.4797044698
 10
-6.9533210595
 20
21.3295402036
 10
-8.6656068423
 20
22.2042252535
 10
-10.4131639748
 20
23.10342015
 10
-12.2127433817
 20
24.0376311146
 10
-14.0699287045
 20
25.0103602211
 10
-15.9791363017
 20
26.0181053956
 10
-17.9403661732
 20
27.0608666382
  0
LWPOLYLINE
  5
46C
100
AcDbEntity
  8
RACCORDO
100
AcDbPolyline
 62
250
  6
CONTINUOUS
 90
19
 70
0
 10
11.63871569
 20
10.4631289313
 10
10.0022032754
 20
11.2332603594
 10
8.373268847
 20
12.0049395251
 10
6.7519108581
 20
12.7781474323
 10
5.1404515168
 20
13.5517459774
 10
3.5365489186
 20
14.3268281909
 10
1.9332771819
 20
15.1067543631
 10
0.3336474349
 20
15.8900939628
 10
-1.2652312518
 20
16.6782952737
 10
-2.8788980255
 20
17.4791428122
 10
-4.5050080018
 20
18.2916714666
 10
-6.1454331166
 20
19.1170147917
 10
-7.8216180439
 20
19.9662858954
 10
-9.5339963789
 20
20.8401686739
 10
-11.2810878174
 20
21.7383812573
 10
-13.0809632624
 20
22.670797708
 10
-14.9389915685
 20
23.6409633918
 10
-16.8480981208
 20
24.645985506
 10
-18.8074075709
 20
25.68619057
  0
LINE
  5
46D
100
AcDbEntity
  8
RACCORDO
100
AcDbLine
 62
7
  6
CONTINUOUS
 10
16.0478039252
 20
9.2661480977
 11
17.035254077
 21
8.7724230218
  0
LWPOLYLINE
  5
46E
100
AcDbEntity
  8
RACCORDO
100
AcDbPolyline
 62
250
  6
CONTINUOUS
 90
16
 70
0
 10
12.5066165064
 20
11.8373751766
 10
12.5425272094
 20
11.8160646294
 10
12.577943499
 20
11.790198287
 10
12.6124776852
 20
11.7600592994
 10
12.6457517337
 20
11.725977588
 10
12.6774014049
 20
11.6883262337
 10
12.7070802409
 20
11.6475173932
 10
12.7344633577
 20
11.6039977872
 10
12.7592510013
 20
11.5582438099
 10
12.78117183
 20
11.5107563148
 10
12.7999858839
 20
11.4620551313
 10
12.8154872118
 20
11.4126733747
 10
12.827506126
 20
11.3631516104
 10
12.8359110596
 20
11.3140319364
 10
12.8406100065
 20
11.2658520491
 10
12.841551529
 20
11.2191393575
  0
LWPOLYLINE
  5
46F
100
AcDbEntity
  8
ASSI
100
AcDbPolyline
 62
7
  6
CONTINUOUS
 90
4
 70
0
 10
-2.1762806257
 20
23.853878085
 10
-2.1574894761
 20
23.8374707437
 10
-2.1370013527
 20
23.8233372074
 10
-2.1209183473
 20
23.8144525303
  0
LWPOLYLINE
  5
470
100
AcDbEntity
  8
0
100
AcDbPolyline
 62
250
  6
CONTINUOUS
 90
16
 70
0
 10
5.6325476686
 20
22.3395752898
 10
5.6365203824
 20
22.3328804147
 10
5.640082841
 20
22.3263989728
 10
5.6432270043
 20
22.3201455924
 10
5.645945776
 20
22.3141343871
 10
5.64823302
 20
22.3083789237
 10
5.6500835742
 20
22.302892192
 10
5.6514932619
 20
22.2976865752
 10
5.6524589016
 20
22.2927738221
 10
5.6529783139
 20
22.2881650205
 10
5.6530503265
 20
22.2838705722
 10
5.6526747769
 20
22.2799001695
 10
5.6518525127
 20
22.2762627733
 10
5.6505853896
 20
22.2729665931
 10
5.6488762675
 20
22.2700190682
 10
5.647908241
 20
22.2687401232
  0
LWPOLYLINE
  5
471
100
AcDbEntity
  8
0
100
AcDbPolyline
 62
7
  6
CONTINUOUS
 90
5
 70
0
 10
17.4071965203
 20
20.0379813648
 10
17.4071545809
 20
20.0389055913
 10
17.4063584365
 20
20.0417993198
 10
17.4045961768
 20
20.0440444293
 10
17.4025314555
 20
20.0454034434
  0
LWPOLYLINE
  5
472
100
AcDbEntity
  8
SUPERFICI
100
AcDbPolyline
 62
7
  6
CONTINUOUS
 90
10
 70
0
 10
18.3339582897
 20
26.6837750302
 10
18.3301533936
 20
26.7977127266
 10
18.3190073045
 20
26.9109769236
 10
18.3008689794
 20
27.023364197
 10
18.2759138783
 20
27.1351009738
 10
18.2443668788
 20
27.2457331413
 10
18.2067456126
 20
27.3540395304
 10
18.1634443772
 20
27.4595235014
 10
18.1144915955
 20
27.562450382
 10
18.05995955
 20
27.6626947917
  0
LWPOLYLINE
  5
473
100
AcDbEntity
  8
0
100
AcDbPolyline
 62
7
  6
CONTINUOUS
 90
40
 70
0
 10
18.1153538121
 20
13.8829826218
 10
18.1151106809
 20
13.8992495603
 10
18.1143746049
 20
13.9157243333
 10
18.1131455841
 20
13.9324069407
 10
18.1114196305
 20
13.9493346305
 10
18.1092007321
 20
13.9664701548
 10
18.106500853
 20
13.9837017698
 10
18.1033167513
 20
14.0010204835
 10
18.0996516689
 20
14.0184352879
 10
18.0955272952
 20
14.035861415
 10
18.0909496828
 20
14.0532763046
 10
18.0859127792
 20
14.0707025169
 10
18.080420116
 20
14.0881229648
 10
18.0744622107
 20
14.1055653694
 10
18.0680485458
 20
14.1230020096
 10
18.0612111006
 20
14.1403326355
 10
18.0539435523
 20
14.1575596028
 10
18.0462522237
 20
14.1746805559
 10
18.0381880619
 20
14.1915881785
 10
18.0297599161
 20
14.2082595982
 10
18.0209589372
 20
14.2247176875
 10
18.0118095251
 20
14.240923747
 10
18.0023125122
 20
14.2568786441
 10
17.9924670661
 20
14.2725815116
 10
17.9822950895
 20
14.2879910482
 10
17.9717814049
 20
14.3031256607
 10
17.9609411897
 20
14.3179669423
 10
17.9498418788
 20
14.332418372
 10
17.9384831792
 20
14.3464720634
 10
17.9268653839
 20
14.3601359029
 10
17.9150568068
 20
14.373337029
 10
17.9030764262
 20
14.3860543889
 10
17.8909052638
 20
14.3983090355
 10
17.8785546991
 20
14.4100912655
 10
17.8660079731
 20
14.421417196
 10
17.8532818448
 20
14.43227071
 10
17.8404379711
 20
14.4425937531
 10
17.8274802747
 20
14.4523801456
 10
17.8144048329
 20
14.4616360672
 10
17.8012615348
 20
14.4703220028
  0
LINE
  5
474
100
AcDbEntity
  8
DRAFT
100
AcDbLine
 62
7
  6
CONTINUOUS
 10
17.035254077
 20
13.2940797678
 11
17.035254077
 21
8.7724230218
  0
LINE
  5
475
100
AcDbEntity
  8
DRAFT
100
AcDbLine
 62
7
  6
CONTINUOUS
 10
17.035254077
 20
-19.9796203839
 11
17.035254077
 21
-24.5012771299
  0
LINE
  5
476
100
AcDbEntity
  8
INCISIONI_LASER
100
AcDbLine
 62
250
  6
CONTINUOUS
 10
17.1869216051
 20
21.8798374996
 11
17.1869216051
 21
22.4538110694
  0
LINE
  5
477
100
AcDbEntity
  8
0
100
AcDbLine
 62
250
  6
CONTINUOUS
 10
17.2746766671
 20
20.0126304333
 11
17.2746766671
 21
19.4412265391
  0
LINE
  5
478
100
AcDbEntity
  8
0
100
AcDbLine
 62
250
  6
CONTINUOUS
 10
17.2746766671
 20
19.1086246406
 11
17.2746766671
 21
18.628440494
  0
LINE
  5
479
100
AcDbEntity
  8
0
100
AcDbLine
 62
7
  6
CONTINUOUS
 10
17.4071965449
 20
20.0377249508
 11
17.4071965449
 21
18.7881143402
  0
LINE
  5
47A
100
AcDbEntity
  8
0
100
AcDbLine
 62
7
  6
CONTINUOUS
 10
17.4079384895
 20
-24.5614730157
 11
17.4079384895
 21
-25.7304004213
  0
LINE
  5
47B
100
AcDbEntity
  8
0
100
AcDbLine
 62
7
  6
CONTINUOUS
 10
17.4079384895
 20
14.6696883292
 11
17.4079384895
 21
16.2718389902
  0
LINE
  5
47C
100
AcDbEntity
  8
INCISIONI_LASER
100
AcDbLine
 62
250
  6
CONTINUOUS
 10
17.5146399846
 20
23.0183798931
 11
17.5146399846
 21
23.665243712
  0
LINE
  5
47D
100
AcDbEntity
  8
0
100
AcDbLine
 62
250
  6
CONTINUOUS
 10
17.9362056613
 20
16.5352778102
 11
17.9362056613
 21
16.1877462935
  0
LINE
  5
47E
100
AcDbEntity
  8
0
100
AcDbLine
 62
250
  6
CONTINUOUS
 10
17.9362056613
 20
-25.1118578459
 11
17.9362056613
 21
-25.4593893626
  0
LINE
  5
47F
100
AcDbEntity
  8
0
100
AcDbLine
 62
7
  6
CONTINUOUS
 10
18.0084035183
 20
16.6231504424
 11
18.0084035183
 21
16.2756189257
  0
LINE
  5
480
100
AcDbEntity
  8
0
100
AcDbLine
 62
7
  6
CONTINUOUS
 10
18.0084035183
 20
-25.0239852137
 11
18.0084035183
 21
-25.3715167305
  0
LINE
  5
481
100
AcDbEntity
  8
SUPERFICI
100
AcDbLine
 62
250
  6
CONTINUOUS
 10
18.08136411
 20
26.3711787635
 11
18.08136411
 21
22.396286459
  0
LINE
  5
482
100
AcDbEntity
  8
0
100
AcDbLine
 62
7
  6
CONTINUOUS
 10
18.114428141
 20
13.8832326099
 11
18.114428141
 21
-24.0482836924
  0
LINE
  5
483
100
AcDbEntity
  8
0
100
AcDbLine
 62
7
  6
CONTINUOUS
 10
18.1153538121
 20
13.8829826218
 11
18.1153538121
 21
-24.0489593755
  0
LINE
  5
484
100
AcDbEntity
  8
SUPERFICI
100
AcDbLine
 62
7
  6
CONTINUOUS
 10
18.3339582897
 20
26.6837750302
 11
18.3339582897
 21
23.2780895836
  0
LINE
  5
485
100
AcDbEntity
  8
0
100
AcDbLine
 62
7
  6
CONTINUOUS
 10
18.8162897659
 20
14.2345830377
 11
18.8162897659
 21
11.3023002022
  0
LINE
  5
486
100
AcDbEntity
  8
0
100
AcDbLine
 62
7
  6
CONTINUOUS
 10
18.8162897659
 20
-20.7549993473
 11
18.8162897659
 21
-23.6872821828
  0
LINE
  5
487
100
AcDbEntity
  8
0
100
AcDbLine
 62
7
  6
CONTINUOUS
 10
19.5172257197
 20
11.6664966957
 11
19.5172257197
 21
-20.4059182322
  0
LINE
  5
488
100
AcDbEntity
  8
SUPERFICI
100
AcDbLine
 62
7
  6
CONTINUOUS
 10
18.3339581395
 20
23.2770710809
 11
18.3339580517
 21
23.2768235008
  0
LWPOLYLINE
  5
489
100
AcDbEntity
  8
SUPERFICI
100
AcDbPolyline
 62
250
  6
CONTINUOUS
 90
29
 70
0
 10
18.3339580517
 20
23.2768235008
 10
18.3336296809
 20
23.2333691934
 10
18.3324233649
 20
23.181643244
 10
18.3303924063
 20
23.1313261335
 10
18.3275860522
 20
23.08242662
 10
18.3240568485
 20
23.0349610656
 10
18.3198559088
 20
22.9889307157
 10
18.3150066477
 20
22.9443208469
 10
18.3095505914
 20
22.9011466364
 10
18.3035241984
 20
22.8594051531
 10
18.2969179428
 20
22.8190556673
 10
18.2897549278
 20
22.7800708002
 10
18.2820609745
 20
22.7424890785
 10
18.2738057014
 20
22.70637142
 10
18.2649970869
 20
22.6716719353
 10
18.2556531307
 20
22.6384492134
 10
18.2457392325
 20
22.6069241873
 10
18.2352580018
 20
22.5770658918
 10
18.2242188645
 20
22.5489204444
 10
18.2125837362
 20
22.5228276858
 10
18.2003404249
 20
22.4987705884
 10
18.1875027798
 20
22.4767849488
 10
18.1740654855
 20
22.4572919
 10
18.1600160262
 20
22.440354846
 10
18.1453704722
 20
22.4259303071
 10
18.1301703361
 20
22.414278029
 10
18.1144364925
 20
22.4054894964
 10
18.0981648395
 20
22.3994895611
 10
18.08136411
 20
22.396286459
  0
LWPOLYLINE
  5
48A
100
AcDbEntity
  8
0
100
AcDbPolyline
 62
250
  6
CONTINUOUS
 90
19
 70
0
 10
17.9362056613
 20
-25.4593893626
 10
17.9360528794
 20
-25.4695680066
 10
17.93549757
 20
-25.4795244939
 10
17.93454099
 20
-25.4892362638
 10
17.9331853042
 20
-25.4986813151
 10
17.9314335833
 20
-25.5078382399
 10
17.9292897992
 20
-25.5166862735
 10
17.9267588111
 20
-25.5252053639
 10
17.9238463534
 20
-25.5333762127
 10
17.920559027
 20
-25.5411803039
 10
17.9169042808
 20
-25.5485999565
 10
17.9128903972
 20
-25.5556183582
 10
17.9085264754
 20
-25.5622196024
 10
17.9038224055
 20
-25.5683887326
 10
17.8987888472
 20
-25.5741117737
 10
17.8934372089
 20
-25.5793757585
 10
17.8877796152
 20
-25.5841687648
 10
17.8818288896
 20
-25.5884799321
 10
17.8755985284
 20
-25.5922994884
  0
LWPOLYLINE
  5
48B
100
AcDbEntity
  8
0
100
AcDbPolyline
 62
7
  6
CONTINUOUS
 90
23
 70
0
 10
18.114428141
 20
-24.0482836924
 10
18.1141845841
 20
-24.0643368623
 10
18.1134477942
 20
-24.0801031231
 10
18.1122177714
 20
-24.0955824747
 10
18.1104904331
 20
-24.1108081652
 10
18.1082698619
 20
-24.1257469466
 10
18.1055683049
 20
-24.1402990746
 10
18.1023825434
 20
-24.1544522385
 10
18.0987157961
 20
-24.168218749
 10
18.0945899668
 20
-24.1815357936
 10
18.0900110989
 20
-24.1943868995
 10
18.084973149
 20
-24.2067885396
 10
18.0794798903
 20
-24.2187273202
 10
18.0735218222
 20
-24.2302214901
 10
18.0671084454
 20
-24.2412528005
 10
18.0602720351
 20
-24.2517531117
 10
18.0530063126
 20
-24.2617183785
 10
18.0453175565
 20
-24.2711526461
 10
18.0372568786
 20
-24.2799999107
 10
18.0288332397
 20
-24.2882460939
 10
18.0200376789
 20
-24.295905274
 10
18.0108944249
 20
-24.3029636821
 10
18.0014041926
 20
-24.3094231357
  0
LWPOLYLINE
  5
48C
100
AcDbEntity
  8
0
100
AcDbPolyline
 62
7
  6
CONTINUOUS
 90
20
 70
0
 10
17.4079384895
 20
-25.7304004213
 10
17.4077381107
 20
-25.7406020125
 10
17.4071379417
 20
-25.7505801773
 10
17.4061392381
 20
-25.7603123646
 10
17.4047440797
 20
-25.7697766208
 10
17.4029556188
 20
-25.7789515087
 10
17.4007780729
 20
-25.787816156
 10
17.3982163143
 20
-25.7963505113
 10
17.3952760534
 20
-25.8045352872
 10
17.3919640791
 20
-25.812351873
 10
17.3882878552
 20
-25.8197825802
 10
17.3842556363
 20
-25.8268106119
 10
17.3798766445
 20
-25.8334199985
 10
17.3751607833
 20
-25.8395957753
 10
17.3701186837
 20
-25.8453239776
 10
17.3647618133
 20
-25.8505916033
 10
17.3591023139
 20
-25.855386716
 10
17.3531529759
 20
-25.8596984681
 10
17.3469272793
 20
-25.8635170903
 10
17.3438333865
 20
-25.8651781941
  0
LWPOLYLINE
  5
48D
100
AcDbEntity
  8
0
100
AcDbPolyline
 62
250
  6
CONTINUOUS
 90
18
 70
0
 10
18.0084035183
 20
16.6231504601
 10
18.0083499567
 20
16.6205630743
 10
18.0078235293
 20
16.6146407702
 10
18.006736117
 20
16.6087375974
 10
18.0050901624
 20
16.6028668306
 10
18.0028893651
 20
16.5970416762
 10
18.0001386723
 20
16.5912752353
 10
17.9968442684
 20
16.5855804788
 10
17.993013564
 20
16.5799702199
 10
17.9886551743
 20
16.5744570782
 10
17.9837789007
 20
16.5690534531
 10
17.9783957113
 20
16.5637715004
 10
17.9725177101
 20
16.5586230977
 10
17.9661581199
 20
16.5536198278
 10
17.9593312571
 20
16.5487729529
 10
17.952052483
 20
16.5440933769
 10
17.9443381669
 20
16.5395916211
 10
17.9362056613
 20
16.5352778102
  0
LWPOLYLINE
  5
48E
100
AcDbEntity
  8
0
100
AcDbPolyline
 62
250
  6
CONTINUOUS
 90
18
 70
0
 10
18.0084035183
 20
16.2756189182
 10
18.0083490954
 20
16.2730108382
 10
18.0078207424
 20
16.2670888563
 10
18.0067314703
 20
16.2611860792
 10
18.0050837323
 20
16.2553157732
 10
18.0028812321
 20
16.2494911271
 10
18.0001289005
 20
16.2437251974
 10
17.9968329415
 20
16.238030995
 10
17.9930008501
 20
16.2324214376
 10
17.9886413381
 20
16.2269092081
 10
17.9837641924
 20
16.2215066198
 10
17.9783802971
 20
16.2162257089
 10
17.9725012621
 20
16.2110779385
 10
17.9661407252
 20
16.2060753191
 10
17.9593145655
 20
16.2012301646
 10
17.9520389931
 20
16.1965536
 10
17.9443301595
 20
16.1920556501
 10
17.9362056613
 20
16.1877462935
  0
LWPOLYLINE
  5
48F
100
AcDbEntity
  8
0
100
AcDbPolyline
 62
250
  6
CONTINUOUS
 90
18
 70
0
 10
18.0084035181
 20
-25.0239896597
 10
18.0083495039
 20
-25.0265834963
 10
18.0078221285
 20
-25.0325051441
 10
18.0067338933
 20
-25.0384076342
 10
18.005087245
 20
-25.0442776937
 10
18.0028858862
 20
-25.0501021228
 10
18.0001347674
 20
-25.0558678234
 10
17.9968400744
 20
-25.0615618312
 10
17.9930092139
 20
-25.0671713445
 10
17.9886507952
 20
-25.0726837544
 10
17.9837746214
 20
-25.0780866598
 10
17.97839167
 20
-25.0833678987
 10
17.9725140566
 20
-25.0885155891
 10
17.9661549935
 20
-25.0935181637
 10
17.9593287699
 20
-25.098364383
 10
17.9520507309
 20
-25.1030433522
 10
17.9443372464
 20
-25.1075445471
 10
17.9362056613
 20
-25.1118578459
  0
LWPOLYLINE
  5
490
100
AcDbEntity
  8
SUPERFICI
100
AcDbPolyline
 62
7
  6
CONTINUOUS
 90
7
 70
0
 10
18.1890968268
 20
22.3787151353
 10
18.1681248807
 20
22.3758254032
 10
18.1483595319
 20
22.3752629856
 10
18.1298007804
 20
22.3770278823
 10
18.1124486263
 20
22.3811200934
 10
18.0963030695
 20
22.387539619
 10
18.08136411
 20
22.396286459
  0
LINE
  5
491
100
AcDbEntity
  8
0
100
AcDbLine
 62
7
  6
CONTINUOUS
 10
15.5798142052
 20
14.9733218918
 11
16.204112091
 21
14.842967914
  0
LINE
  5
492
100
AcDbEntity
  8
0
100
AcDbLine
 62
250
  6
CONTINUOUS
 10
15.8066576987
 20
15.1291430526
 11
16.5178783068
 21
14.9806395297
  0
LWPOLYLINE
  5
493
100
AcDbEntity
  8
RACCORDO
100
AcDbPolyline
 62
250
  6
CONTINUOUS
 90
8
 70
0
 10
-17.9403661733
 20
27.0608666382
 10
-17.9783113463
 20
27.0764839482
 10
-18.0159423978
 20
27.087141081
 10
-18.0528473854
 20
27.0927213942
 10
-18.0886223294
 20
27.0931638207
 10
-18.122875599
 20
27.0884635357
 10
-18.1552322049
 20
27.0786720257
 10
-18.1710262786
 20
27.071682501
  0
LINE
  5
494
100
AcDbEntity
  8
RACCORDO
100
AcDbLine
 62
7
  6
CONTINUOUS
 10
-14.7610666903
 20
28.6313025895
 11
15.8568992429
 21
13.3223196228
  0
LINE
  5
495
100
AcDbEntity
  8
0
100
AcDbLine
 62
7
  6
CONTINUOUS
 10
-1.5776043041
 20
22.1816377451
 11
-11.9019118718
 21
27.3437915289
  0
LWPOLYLINE
  5
496
100
AcDbEntity
  8
ASSI
100
AcDbPolyline
 62
250
  6
CONTINUOUS
 90
16
 70
0
 10
-12.6427010783
 20
29.0753423932
 10
-12.6488964305
 20
29.0787388639
 10
-12.6560299531
 20
29.0834498565
 10
-12.6629028132
 20
29.088930607
 10
-12.6694703309
 20
29.0952019963
 10
-12.6756859338
 20
29.1022808879
 10
-12.6814696045
 20
29.1101325521
 10
-12.6867823205
 20
29.1187539482
 10
-12.691585322
 20
29.1281377414
 10
-12.6958178648
 20
29.138213389
 10
-12.6994530146
 20
29.1489541314
 10
-12.7024659615
 20
29.1603303621
 10
-12.7048223184
 20
29.1722417979
 10
-12.7065095736
 20
29.1846205538
 10
-12.707525278
 20
29.1974413838
 10
-12.7078645604
 20
29.2106559261
  0
LWPOLYLINE
  5
497
100
AcDbEntity
  8
ASSI
100
AcDbPolyline
 62
7
  6
CONTINUOUS
 90
9
 70
0
 10
-13.4433887177
 20
29.4756895269
 10
-13.4664215333
 20
29.4885402686
 10
-13.4964908862
 20
29.5090172226
 10
-13.5251919355
 20
29.5324293783
 10
-13.5524766512
 20
29.5582304227
 10
-13.5779602955
 20
29.5860434864
 10
-13.6014829264
 20
29.615577589
 10
-13.6232474959
 20
29.6464698067
 10
-13.6433330787
 20
29.6783901853
  0
LWPOLYLINE
  5
498
100
AcDbEntity
  8
ASSI
100
AcDbPolyline
 62
250
  6
CONTINUOUS
 90
7
 70
0
 10
-2.185865178
 20
23.9496562349
 10
-2.2029372526
 20
23.959375454
 10
-2.2173573001
 20
23.9701152242
 10
-2.2288840351
 20
23.9816958398
 10
-2.2373245854
 20
23.9939235256
 10
-2.2425377188
 20
24.006593679
 10
-2.2444438149
 20
24.0203406866
  0
LWPOLYLINE
  5
499
100
AcDbEntity
  8
ASSI
100
AcDbPolyline
 62
250
  6
CONTINUOUS
 90
9
 70
0
 10
-14.7076123743
 20
30.1077980315
 10
-14.7171027629
 20
30.1132606479
 10
-14.7311520005
 20
30.1244898399
 10
-14.7433828072
 20
30.1385223585
 10
-14.7536266211
 20
30.1551702983
 10
-14.7617420379
 20
30.1742062669
 10
-14.7676185011
 20
30.1953714023
 10
-14.7711760485
 20
30.2183809664
 10
-14.772365874
 20
30.2429239341
  0
LWPOLYLINE
  5
49A
100
AcDbEntity
  8
ASSI
100
AcDbPolyline
 62
250
  6
CONTINUOUS
 90
13
 70
0
 10
-12.5335666845
 20
29.8309406811
 10
-12.5154147522
 20
29.8200759473
 10
-12.4975310701
 20
29.806456159
 10
-12.4802215142
 20
29.7903142643
 10
-12.4637821414
 20
29.7719263487
 10
-12.4484941248
 20
29.7516069127
 10
-12.4346189453
 20
29.7297034927
 10
-12.4223939193
 20
29.7065907172
 10
-12.4120281393
 20
29.6826638992
 10
-12.403698898
 20
29.6583322745
 10
-12.3975486559
 20
29.6340120029
 10
-12.3936826045
 20
29.6101190497
 10
-12.3921668674
 20
29.5870620718
  0
LWPOLYLINE
  5
49B
100
AcDbEntity
  8
ASSI
100
AcDbPolyline
 62
250
  6
CONTINUOUS
 90
3
 70
0
 10
-2.1326756583
 20
23.8214104033
 10
-2.124592476
 20
23.8163806092
 10
-2.1211245718
 20
23.8145541302
  0
LINE
  5
49C
100
AcDbEntity
  8
SUPERFICI
100
AcDbLine
 62
250
  6
CONTINUOUS
 10
8.3851184995
 20
29.382841966
 11
8.7996960112
 21
28.3072634258
  0
LINE
  5
49D
100
AcDbEntity
  8
0
100
AcDbLine
 62
7
  6
CONTINUOUS
 10
9.9444003394
 20
26.8071983779
 11
9.7429009815
 21
27.4029228037
  0
LWPOLYLINE
  5
49E
100
AcDbEntity
  8
RACCORDO
100
AcDbPolyline
 62
7
  6
CONTINUOUS
 90
40
 70
0
 10
21.8940341093
 20
-14.9973947676
 10
21.8939829504
 20
-14.9901465315
 10
21.8931984563
 20
-14.9679335263
 10
21.8914923453
 20
-14.9457396526
 10
21.8888909572
 20
-14.923574373
 10
21.8854206674
 20
-14.9014727916
 10
21.8811143535
 20
-14.8795088153
 10
21.8759991108
 20
-14.85771291
 10
21.8700948118
 20
-14.8360984628
 10
21.8634312698
 20
-14.8147236079
 10
21.8560323305
 20
-14.7936198027
 10
21.8479127068
 20
-14.7728017478
 10
21.8390948573
 20
-14.7523085669
 10
21.8295924903
 20
-14.7321611647
 10
21.8194197491
 20
-14.7123888093
 10
21.8086044367
 20
-14.6930442801
 10
21.7971544723
 20
-14.6741467244
 10
21.7850843628
 20
-14.6557297867
 10
21.7724335204
 20
-14.6378611293
 10
21.7592122288
 20
-14.6205659651
 10
21.7454318305
 20
-14.6038709125
 10
21.7311298702
 20
-14.5878351383
 10
21.7163127582
 20
-14.5724809848
 10
21.700993316
 20
-14.5578375103
 10
21.6852141425
 20
-14.5439638038
 10
21.6689495708
 20
-14.5308570806
 10
21.6522431199
 20
-14.5185743409
 10
21.6352511169
 20
-14.5072400095
 10
21.6180008181
 20
-14.4968656942
 10
21.6005088247
 20
-14.4874574838
 10
21.5829389424
 20
-14.4790912753
 10
21.5653835332
 20
-14.4717787106
 10
21.5478187163
 20
-14.4654790541
 10
21.5302501447
 20
-14.4601738047
 10
21.512718233
 20
-14.4558546865
 10
21.4952550646
 20
-14.4525082178
 10
21.4778634031
 20
-14.4501182195
 10
21.460588149
 20
-14.4486764046
 10
21.4434646978
 20
-14.4481682521
 10
21.4261806013
 20
-14.448595907
  0
LINE
  5
49F
100
AcDbEntity
  8
RACCORDO
100
AcDbLine
 62
250
  6
CONTINUOUS
 10
21.837902266
 20
-16.0000985372
 11
21.837902266
 21
-15.0668427228
  0
LINE
  5
4A0
100
AcDbEntity
  8
RACCORDO
100
AcDbLine
 62
7
  6
CONTINUOUS
 10
21.8940343059
 20
-15.9796347465
 11
21.8940343059
 21
-14.997376884
  0
LWPOLYLINE
  5
4A1
100
AcDbEntity
  8
0
100
AcDbPolyline
 62
250
  6
CONTINUOUS
 90
17
 70
0
 10
18.0083173116
 20
-25.3744713562
 10
18.0078235293
 20
-25.3800264027
 10
18.006736117
 20
-25.3859295755
 10
18.0050901624
 20
-25.3918003423
 10
18.0028893651
 20
-25.3976254967
 10
18.0001386723
 20
-25.4033919376
 10
17.9968442684
 20
-25.4090866941
 10
17.993013564
 20
-25.414696953
 10
17.9886551743
 20
-25.4202100947
 10
17.9837789007
 20
-25.4256137197
 10
17.9783957113
 20
-25.4308956725
 10
17.9725177101
 20
-25.4360440752
 10
17.9661581199
 20
-25.4410473451
 10
17.9593312571
 20
-25.4458942199
 10
17.952052483
 20
-25.450573796
 10
17.9443381669
 20
-25.4550755517
 10
17.9362056613
 20
-25.4593893626
  0
LINE
  5
4A2
100
AcDbEntity
  8
0
100
AcDbLine
 62
7
  6
CONTINUOUS
 10
16.5947656912
 20
22.1759154566
 11
14.8462817682
 21
22.0810963585
  0
LINE
  5
4A3
100
AcDbEntity
  8
INCISIONI_LASER
100
AcDbLine
 62
250
  6
CONTINUOUS
 10
17.3044602725
 20
21.8210681659
 11
17.5146399846
 21
21.814917217
  0
LWPOLYLINE
  5
4A4
100
AcDbEntity
  8
0
100
AcDbPolyline
 62
7
  6
CONTINUOUS
 90
41
 70
0
 10
3.9003817053
 20
20.9948148367
 10
3.906169604
 20
20.9937012621
 10
3.9142028923
 20
20.9924659769
 10
3.9223638311
 20
20.9915602027
 10
3.9306403185
 20
20.9909705572
 10
3.9390184463
 20
20.9906976323
 10
3.9474846016
 20
20.9907412409
 10
3.9560276229
 20
20.9910866397
 10
3.9646343
 20
20.9917336076
 10
3.9732917529
 20
20.9926813978
 10
3.9819898301
 20
20.9939143548
 10
3.9907161088
 20
20.9954315641
 10
3.9994585077
 20
20.9972317972
 10
4.0082078926
 20
20.9992988668
 10
4.0169527004
 20
21.0016312857
 10
4.0256816622
 20
21.0042274071
 10
4.0343865608
 20
21.0070707939
 10
4.0430567105
 20
21.010159491
 10
4.0516816664
 20
21.0134914864
 10
4.0602540051
 20
21.0170502813
 10
4.0687639127
 20
21.0208335378
 10
4.0772017679
 20
21.0248389255
 10
4.0855608217
 20
21.0290499979
 10
4.0938321146
 20
21.0334641009
 10
4.1020068423
 20
21.0380786272
 10
4.1100788325
 20
21.0428772481
 10
4.1180399576
 20
21.047857043
 10
4.1258822232
 20
21.0530151664
 10
4.1335999677
 20
21.0583354473
 10
4.1411858747
 20
21.0638147363
 10
4.1486327532
 20
21.0694499866
 10
4.1559354199
 20
21.0752252183
 10
4.1630873495
 20
21.0811370805
 10
4.170082153
 20
21.0871823631
 10
4.1769151308
 20
21.0933453259
 10
4.1835805348
 20
21.0996224411
 10
4.1900727753
 20
21.1060103719
 10
4.1963876646
 20
21.1124936858
 10
4.2025205133
 20
21.1190648903
 10
4.2084662172
 20
21.1257243791
 10
4.2142203142
 20
21.132468526
  0
LINE
  5
4A5
100
AcDbEntity
  8
0
100
AcDbLine
 62
7
  6
CONTINUOUS
 10
3.2761562125
 20
21.1251508881
 11
3.9004556347
 21
20.9947965895
  0
LINE
  5
4A6
100
AcDbEntity
  8
0
100
AcDbLine
 62
250
  6
CONTINUOUS
 10
3.5029997061
 20
21.2809720489
 11
4.2142203142
 21
21.132468526
  0
LINE
  5
4A7
100
AcDbEntity
  8
ASSI
100
AcDbLine
 62
7
  6
CONTINUOUS
 10
-0.163665023
 20
22.3948299137
 11
-0.7063910857
 21
22.5099592312
  0
LINE
  5
4A8
100
AcDbEntity
  8
ASSI
100
AcDbLine
 62
7
  6
CONTINUOUS
 10
-0.0034590426
 20
22.7636543897
 11
0.6369282459
 21
22.6278080456
  0
LINE
  5
4A9
100
AcDbEntity
  8
ASSI
100
AcDbLine
 62
250
  6
CONTINUOUS
 10
0.1769754095
 20
22.887366824
 11
0.9137832137
 21
22.731066647
  0
LWPOLYLINE
  5
4AA
100
AcDbEntity
  8
0
100
AcDbPolyline
 62
7
  6
CONTINUOUS
 90
10
 70
0
 10
3.2761562125
 20
21.1251508881
 10
3.2686146061
 20
21.126847671
 10
3.2611113221
 20
21.1287816703
 10
3.2536570478
 20
21.130951745
 10
3.2462462411
 20
21.133361659
 10
3.2389071964
 20
21.1360040026
 10
3.2316978133
 20
21.1388559549
 10
3.2246402677
 20
21.1419030981
 10
3.2177252297
 20
21.1451436133
 10
3.2154404314
 20
21.1462716292
  0
LWPOLYLINE
  5
4AB
100
AcDbEntity
  8
ASSI
100
AcDbPolyline
 62
250
  6
CONTINUOUS
 90
7
 70
0
 10
-2.0127800207
 20
24.5705473492
 10
-2.0315337608
 20
24.5781354467
 10
-2.0499245237
 20
24.5826528691
 10
-2.0676377598
 20
24.5840223539
 10
-2.0843705088
 20
24.5822204801
 10
-2.0998365791
 20
24.5772780686
 10
-2.1051837184
 20
24.5746689446
  0
LWPOLYLINE
  5
4AC
100
AcDbEntity
  8
ASSI
100
AcDbPolyline
 62
250
  6
CONTINUOUS
 90
13
 70
0
 10
-12.7078645604
 20
29.2106559261
 10
-12.6884261382
 20
29.2021198949
 10
-12.6669466135
 20
29.1949098742
 10
-12.6437853965
 20
29.1891465071
 10
-12.6193300365
 20
29.1849262303
 10
-12.5939897377
 20
29.1823196602
 10
-12.5681885112
 20
29.181370412
 10
-12.5423580811
 20
29.1820943689
 10
-12.5169306599
 20
29.1844794173
 10
-12.4923317166
 20
29.188485649
 10
-12.4689728579
 20
29.1940460288
 10
-12.4472449402
 20
29.2010675167
 10
-12.42751153
 20
29.2094326242
  0
LWPOLYLINE
  5
4AD
100
AcDbEntity
  8
ASSI
100
AcDbPolyline
 62
250
  6
CONTINUOUS
 90
13
 70
0
 10
-12.7078645604
 20
29.5279247265
 10
-12.6884261254
 20
29.5193886903
 10
-12.666946588
 20
29.5121786671
 10
-12.6437853595
 20
29.5064152996
 10
-12.6193299902
 20
29.5021950241
 10
-12.5939896849
 20
29.4995884568
 10
-12.5681884559
 20
29.4986392119
 10
-12.5423580275
 20
29.4993631724
 10
-12.5169306119
 20
29.5017482237
 10
-12.4923316778
 20
29.505754457
 10
-12.4689728308
 20
29.5113148366
 10
-12.4472449265
 20
29.5183363221
 10
-12.42751153
 20
29.5267014246
  0
LWPOLYLINE
  5
4AE
100
AcDbEntity
  8
ASSI
100
AcDbPolyline
 62
250
  6
CONTINUOUS
 90
13
 70
0
 10
-3.0311718076
 20
25.7002696344
 10
-3.0117334231
 20
25.6917336179
 10
-2.9902539359
 20
25.6845236047
 10
-2.967092753
 20
25.6787602388
 10
-2.9426374216
 20
25.6745399581
 10
-2.9172971428
 20
25.6719333802
 10
-2.8914959237
 20
25.6709841217
 10
-2.8656654858
 20
25.6717080683
 10
-2.8402380441
 20
25.6740931087
 10
-2.8156390721
 20
25.6780993361
 10
-2.7922801796
 20
25.6836597166
 10
-2.7705522247
 20
25.6906812113
 10
-2.7508187773
 20
25.6990463325
  0
LWPOLYLINE
  5
4AF
100
AcDbEntity
  8
0
100
AcDbPolyline
 62
250
  6
CONTINUOUS
 90
16
 70
0
 10
10.8663780121
 20
19.1116370493
 10
10.8596488653
 20
19.1148063184
 10
10.8529368207
 20
19.1175768692
 10
10.8462570879
 20
19.1199424217
 10
10.8396247988
 20
19.1218976151
 10
10.833054987
 20
19.1234380151
 10
10.826562553
 20
19.1245601274
 10
10.8201622121
 20
19.1252614098
 10
10.8138684637
 20
19.1255402743
 10
10.8076955709
 20
19.1253960898
 10
10.8016575199
 20
19.1248291837
 10
10.795767994
 20
19.1238408416
 10
10.7900403433
 20
19.1224333052
 10
10.7844875473
 20
19.1206097667
 10
10.7791221862
 20
19.1183743598
 10
10.7767484052
 20
19.1172233222
  0
LWPOLYLINE
  5
4B0
100
AcDbEntity
  8
ASSI
100
AcDbPolyline
 62
7
  6
CONTINUOUS
 90
4
 70
0
 10
-0.0561565934
 20
22.7820708785
 10
-0.047168324
 20
22.7778274463
 10
-0.0254144656
 20
22.7695079694
 10
-0.0035158321
 20
22.7636736666
  0
LWPOLYLINE
  5
4B1
100
AcDbEntity
  8
0
100
AcDbPolyline
 62
7
  6
CONTINUOUS
 90
17
 70
0
 10
11.0793327979
 20
19.2196318211
 10
11.073164003
 20
19.2225513467
 10
11.0670069688
 20
19.2251356015
 10
11.0608734112
 20
19.2273796644
 10
11.0547749853
 20
19.2292792538
 10
11.0487233029
 20
19.2308307558
 10
11.0427299102
 20
19.2320312311
 10
11.0368061912
 20
19.2328783826
 10
11.0309634116
 20
19.2333705929
 10
11.0252127372
 20
19.233506948
 10
11.0195650818
 20
19.2332871722
 10
11.0140311766
 20
19.2327116747
 10
11.0086216161
 20
19.2317815824
 10
11.0033466568
 20
19.2304986457
 10
10.9982163121
 20
19.2288652936
 10
10.9932404234
 20
19.2268846742
 10
10.9902750282
 20
19.2255026225
  0
LWPOLYLINE
  5
4B2
100
AcDbEntity
  8
0
100
AcDbPolyline
 62
7
  6
CONTINUOUS
 90
7
 70
0
 10
15.519109108
 20
14.99443729
 10
15.5277595365
 20
14.9903173587
 10
15.5395958438
 20
14.9853183621
 10
15.5516943446
 20
14.9809270765
 10
15.5640258822
 20
14.9771578664
 10
15.576556963
 20
14.974024693
 10
15.5798142856
 20
14.973321875
  0
LWPOLYLINE
  5
4B3
100
AcDbEntity
  8
0
100
AcDbPolyline
 62
250
  6
CONTINUOUS
 90
34
 70
0
 10
9.0287231325
 20
19.7166637347
 10
9.0356134405
 20
19.7133788098
 10
9.0428086047
 20
19.7102615529
 10
9.0502923223
 20
19.7073190286
 10
9.0580476417
 20
19.7045579035
 10
9.0660569856
 20
19.7019844373
 10
9.0743021893
 20
19.6996044669
 10
9.0827645638
 20
19.6974233863
 10
9.0914249377
 20
19.6954461361
 10
9.1002636839
 20
19.6936771969
 10
9.1092607755
 20
19.6921205763
 10
9.1183958229
 20
19.6907798017
 10
9.1276481176
 20
19.6896579116
 10
9.1369966912
 20
19.6887574474
 10
9.1464203619
 20
19.688080448
 10
9.1558977748
 20
19.6876284466
 10
9.1654074614
 20
19.6874024661
 10
9.1749278658
 20
19.6874030178
 10
9.1844373933
 20
19.6876300986
 10
9.1939144683
 20
19.6880831896
 10
9.2033376454
 20
19.6887612616
 10
9.2126856344
 20
19.6896627824
 10
9.2219373371
 20
19.6907857219
 10
9.2310717031
 20
19.6921275303
 10
9.2400678478
 20
19.693685134
 10
9.2489052805
 20
19.6954549676
 10
9.2575641059
 20
19.6974330284
 10
9.2660248711
 20
19.699614866
 10
9.2742697052
 20
19.701995933
 10
9.2822785543
 20
19.7045705009
 10
9.2900297569
 20
19.7073314205
 10
9.2975049977
 20
19.7102717203
 10
9.3046889679
 20
19.7133849151
 10
9.3115658449
 20
19.7166637347
  0
LWPOLYLINE
  5
4B4
100
AcDbEntity
  8
0
100
AcDbPolyline
 62
250
  6
CONTINUOUS
 90
34
 70
0
 10
15.4541357391
 20
15.1296557764
 10
15.4627147309
 20
15.1255650284
 10
15.4716719281
 20
15.1216822266
 10
15.4809871896
 20
15.1180161018
 10
15.4906395693
 20
15.1145748976
 10
15.5006073632
 20
15.1113663517
 10
15.510868158
 20
15.108397679
 10
15.5213988813
 20
15.1056755545
 10
15.5321758542
 20
15.1032060993
 10
15.5431748437
 20
15.1009948661
 10
15.5543711179
 20
15.099046827
 10
15.565739501
 20
15.0973663623
 10
15.5772544304
 20
15.0959572507
 10
15.5888900138
 20
15.0948226607
 10
15.6006200879
 20
15.0939651434
 10
15.6124182765
 20
15.0933866272
 10
15.6242580507
 20
15.0930884127
 10
15.6361127878
 20
15.0930711707
 10
15.6479558315
 20
15.0933349398
 10
15.6597605518
 20
15.0938791269
 10
15.671500405
 20
15.0947025084
 10
15.683148993
 20
15.0958032329
 10
15.6946801232
 20
15.0971788252
 10
15.7060678669
 20
15.0988261924
 10
15.7172866179
 20
15.1007416301
 10
15.72831115
 20
15.1029208313
 10
15.7391166738
 20
15.1053588959
 10
15.7496788921
 20
15.1080503418
 10
15.7599740551
 20
15.1109891171
 10
15.7699790132
 20
15.1141686137
 10
15.7796712696
 20
15.1175816822
 10
15.7890290305
 20
15.1212206481
 10
15.7980312543
 20
15.1250773289
 10
15.8066576987
 20
15.1291430526
  0
LWPOLYLINE
  5
4B5
100
AcDbEntity
  8
0
100
AcDbPolyline
 62
250
  6
CONTINUOUS
 90
34
 70
0
 10
3.1504777464
 20
21.2814847728
 10
3.1590573668
 20
21.2773937389
 10
3.1680152453
 20
21.2735106817
 10
3.1773312365
 20
21.2698443339
 10
3.1869843782
 20
21.2664029444
 10
3.1969529722
 20
21.2631942483
 10
3.2072146366
 20
21.2602254515
 10
3.2177463219
 20
21.2575032271
 10
3.228524322
 20
21.255033707
 10
3.2395243612
 20
21.2528224551
 10
3.2507216879
 20
21.2508744465
 10
3.2620911326
 20
21.2491940593
 10
3.2736071256
 20
21.2477850728
 10
3.2852437678
 20
21.2466506556
 10
3.2969748892
 20
21.2457933591
 10
3.3087741077
 20
21.245215111
 10
3.3206148961
 20
21.2449172117
 10
3.3324706166
 20
21.2449003318
 10
3.3443145805
 20
21.2451645084
 10
3.3561201346
 20
21.2457091444
 10
3.3678607467
 20
21.2465330134
 10
3.3795100389
 20
21.2476342635
 10
3.3910418982
 20
21.2490104293
 10
3.402430303
 20
21.2506584088
 10
3.4136494179
 20
21.2525744545
 10
3.4246738768
 20
21.2547542105
 10
3.4354790534
 20
21.2571927834
 10
3.4460408752
 20
21.259884731
 10
3.4563364161
 20
21.2628242485
 10
3.4663416548
 20
21.2660045169
 10
3.4760319638
 20
21.2694175968
 10
3.4853850931
 20
21.273055383
 10
3.4943809928
 20
21.2769097998
 10
3.5029997061
 20
21.2809720489
  0
LWPOLYLINE
  5
4B6
100
AcDbEntity
  8
0
100
AcDbPolyline
 62
250
  6
CONTINUOUS
 90
34
 70
0
 10
15.4541357391
 20
15.4696297106
 10
15.4627006708
 20
15.465545356
 10
15.4716464541
 20
15.4616666862
 10
15.4809534831
 20
15.4580026682
 10
15.4906026681
 20
15.4545613408
 10
15.5005714552
 20
15.4513512532
 10
15.5108334467
 20
15.4483811156
 10
15.5213640082
 20
15.4456579871
 10
15.5321409289
 20
15.4431875421
 10
15.5431401663
 20
15.4409753
 10
15.5543371365
 20
15.4390262268
 10
15.5657065292
 20
15.4373447493
 10
15.5772225469
 20
15.4359346892
 10
15.5888591833
 20
15.4347992243
 10
15.6005903672
 20
15.4339408925
 10
15.6123897897
 20
15.4333616187
 10
15.6242309454
 20
15.4330627085
 10
15.6360871706
 20
15.433044839
 10
15.6479317789
 20
15.4333080527
 10
15.6597381244
 20
15.4338517588
 10
15.671479658
 20
15.4346747362
 10
15.6831299668
 20
15.4357751348
 10
15.6946628487
 20
15.4371504812
 10
15.7060523616
 20
15.4387976831
 10
15.7172728794
 20
15.4407130354
 10
15.7282991628
 20
15.4428922302
 10
15.7391064129
 20
15.445330367
 10
15.7496703184
 20
15.4480219617
 10
15.7599671238
 20
15.4509609623
 10
15.7699736636
 20
15.4541407574
 10
15.7796674133
 20
15.4575541888
 10
15.7890265654
 20
15.4611935758
 10
15.7980300769
 20
15.4650507339
 10
15.8066576987
 20
15.4691169867
  0
LWPOLYLINE
  5
4B7
100
AcDbEntity
  8
0
100
AcDbPolyline
 62
250
  6
CONTINUOUS
 90
34
 70
0
 10
3.1504777464
 20
21.6214587069
 10
3.1590579493
 20
21.6173674082
 10
3.1680164726
 20
21.6134841088
 10
3.1773331684
 20
21.6098175441
 10
3.1869870892
 20
21.6063759597
 10
3.196956517
 20
21.6031671
 10
3.2072190097
 20
21.6001981888
 10
3.2177514786
 20
21.5974759049
 10
3.228530239
 20
21.5950063694
 10
3.2395310434
 20
21.5927951372
 10
3.2507291501
 20
21.5908471808
 10
3.2620993698
 20
21.5891668815
 10
3.2736161193
 20
21.587758019
 10
3.2852534927
 20
21.586623761
 10
3.2969853165
 20
21.5857666571
 10
3.3087851997
 20
21.5851886341
 10
3.3206266078
 20
21.5848909904
 10
3.3324829015
 20
21.5848743943
 10
3.344327392
 20
21.5851388808
 10
3.3561334067
 20
21.5856838501
 10
3.3678744262
 20
21.5865080736
 10
3.3795241203
 20
21.5876097027
 10
3.3910563941
 20
21.5889862763
 10
3.4024451987
 20
21.5906346914
 10
3.4136646775
 20
21.5925511987
 10
3.4246894599
 20
21.5947314417
 10
3.4354949155
 20
21.5971705265
 10
3.4460569534
 20
21.5998630066
 10
3.4563533473
 20
21.6028032871
 10
3.466359328
 20
21.605984368
 10
3.4760482688
 20
21.6093975684
 10
3.485397489
 20
21.613034379
 10
3.4943878657
 20
21.616886823
 10
3.5029997061
 20
21.620945983
  0
LWPOLYLINE
  5
4B8
100
AcDbEntity
  8
ASSI
100
AcDbPolyline
 62
250
  6
CONTINUOUS
 90
28
 70
0
 10
-5.2864702505
 20
26.8712135311
 10
-5.2882059778
 20
26.8720442601
 10
-5.2899763318
 20
26.8727656493
 10
-5.2917813126
 20
26.8733776986
 10
-5.2936323667
 20
26.8738916615
 10
-5.2955180475
 20
26.8742962845
 10
-5.2974040155
 20
26.8745578073
 10
-5.2992910946
 20
26.8746715729
 10
-5.3011784609
 20
26.8746422384
 10
-5.3030293029
 20
26.8744500139
 10
-5.3048429262
 20
26.8740891061
 10
-5.3066200251
 20
26.8735653083
 10
-5.3083258713
 20
26.8728762109
 10
-5.3099574406
 20
26.8720167825
 10
-5.3115177571
 20
26.8709920544
 10
-5.3129811648
 20
26.8698147113
 10
-5.3143439089
 20
26.8684828407
 10
-5.3156097442
 20
26.8669983552
 10
-5.3167642795
 20
26.8653796775
 10
-5.3178056112
 20
26.8636261154
 10
-5.3187356429
 20
26.861738361
 10
-5.3195456941
 20
26.8597369132
 10
-5.3202346804
 20
26.857620747
 10
-5.3208036863
 20
26.8553908874
 10
-5.3212472844
 20
26.8530709087
 10
-5.3215636656
 20
26.8506686692
 10
-5.3217546391
 20
26.8481763106
 10
-5.3218202047
 20
26.845593833
  0
LWPOLYLINE
  5
4B9
100
AcDbEntity
  8
ASSI
100
AcDbPolyline
 62
7
  6
CONTINUOUS
 90
4
 70
0
 10
-12.6427032107
 20
29.0753439387
 10
-12.6366114071
 20
29.0724130185
 10
-12.6135078912
 20
29.0632802827
 10
-12.5900422678
 20
29.0569226135
  0
LINE
  5
4BA
100
AcDbEntity
  8
ASSI
100
AcDbLine
 62
7
  6
CONTINUOUS
 10
-13.8368973648
 20
29.0243393034
 11
-13.6433330787
 21
28.9275571604
  0
LINE
  5
4BB
100
AcDbEntity
  8
ASSI
100
AcDbLine
 62
7
  6
CONTINUOUS
 10
-1.2503966597
 20
22.7310889509
 11
-1.0568323736
 21
22.6343068078
  0
LINE
  5
4BC
100
AcDbEntity
  8
0
100
AcDbLine
 62
7
  6
CONTINUOUS
 10
16.6819698111
 20
13.9039327943
 11
16.1653563472
 21
14.1622395263
  0
LINE
  5
4BD
100
AcDbEntity
  8
0
100
AcDbLine
 62
7
  6
CONTINUOUS
 10
14.4785906229
 20
15.0056223884
 11
12.3105989246
 21
16.0896182376
  0
LINE
  5
4BE
100
AcDbEntity
  8
0
100
AcDbLine
 62
7
  6
CONTINUOUS
 10
11.6450182229
 20
16.4224085885
 11
6.6952707546
 21
18.8972823226
  0
LINE
  5
4BF
100
AcDbEntity
  8
0
100
AcDbLine
 62
7
  6
CONTINUOUS
 10
6.0296900528
 20
19.2300726735
 11
3.8616983545
 21
20.3140685226
  0
LINE
  5
4C0
100
AcDbEntity
  8
0
100
AcDbLine
 62
7
  6
CONTINUOUS
 10
2.1749326303
 20
21.1574513848
 11
1.6583191663
 21
21.4157581167
  0
LINE
  5
4C1
100
AcDbEntity
  8
ASSI
100
AcDbLine
 62
7
  6
CONTINUOUS
 10
0.7635181048
 20
21.8631586475
 11
0.5633419258
 21
21.963246737
  0
LINE
  5
4C2
100
AcDbEntity
  8
ASSI
100
AcDbLine
 62
7
  6
CONTINUOUS
 10
-1.4563573966
 20
22.9730963982
 11
-12.0231587793
 21
28.2564970896
  0
LINE
  5
4C3
100
AcDbEntity
  8
ASSI
100
AcDbLine
 62
7
  6
CONTINUOUS
 10
-14.0428581017
 20
29.2663467508
 11
-14.2430342807
 21
29.3664348403
  0
LINE
  5
4C4
100
AcDbEntity
  8
0
100
AcDbLine
 62
7
  6
CONTINUOUS
 10
1.5369129724
 20
21.9855353579
 11
3.2154510428
 21
21.1462663226
  0
LINE
  5
4C5
100
AcDbEntity
  8
0
100
AcDbLine
 62
7
  6
CONTINUOUS
 10
13.8405709651
 20
15.8337063615
 11
15.5191090355
 21
14.9944373263
  0
LINE
  5
4C6
100
AcDbEntity
  8
ASSI
100
AcDbLine
 62
7
  6
CONTINUOUS
 10
-0.056157853
 20
22.7820707705
 11
-0.8573158111
 21
23.1826497496
  0
LINE
  5
4C7
100
AcDbEntity
  8
ASSI
100
AcDbLine
 62
7
  6
CONTINUOUS
 10
-1.3251893977
 20
23.4165865429
 11
-2.1211193967
 21
23.8145515424
  0
LINE
  5
4C8
100
AcDbEntity
  8
ASSI
100
AcDbLine
 62
7
  6
CONTINUOUS
 10
-12.6426641933
 20
29.0753239407
 11
-13.4438165162
 21
29.4759001022
  0
LINE
  5
4C9
100
AcDbEntity
  8
ASSI
100
AcDbLine
 62
7
  6
CONTINUOUS
 10
-13.9116901028
 20
29.7098368955
 11
-14.7076252926
 21
30.1078044903
  0
LINE
  5
4CA
100
AcDbEntity
  8
ASSI
100
AcDbLine
 62
7
  6
CONTINUOUS
 10
-12.6426262961
 20
29.0753050029
 11
-12.6427010783
 21
29.0753423932
  0
LINE
  5
4CB
100
AcDbEntity
  8
ASSI
100
AcDbLine
 62
250
  6
CONTINUOUS
 10
-13.8368973648
 20
29.7751723283
 11
-14.7723658831
 21
30.242923938
  0
LINE
  5
4CC
100
AcDbEntity
  8
0
100
AcDbLine
 62
250
  6
CONTINUOUS
 10
1.471939676
 20
22.120753808
 11
3.1504777464
 21
21.2814847728
  0
LINE
  5
4CD
100
AcDbEntity
  8
0
100
AcDbLine
 62
250
  6
CONTINUOUS
 10
13.7755976686
 20
15.9689248116
 11
15.4541357391
 21
15.1296557764
  0
LINE
  5
4CE
100
AcDbEntity
  8
ASSI
100
AcDbLine
 62
250
  6
CONTINUOUS
 10
-1.2503966597
 20
23.4819219758
 11
-2.185865178
 21
23.9496562349
  0
LINE
  5
4CF
100
AcDbEntity
  8
ASSI
100
AcDbLine
 62
250
  6
CONTINUOUS
 10
-12.7078645604
 20
29.2106559261
 11
-13.6433330787
 21
29.6783901853
  0
LINE
  5
4D0
100
AcDbEntity
  8
ASSI
100
AcDbLine
 62
250
  6
CONTINUOUS
 10
-0.1213638553
 20
22.9174229176
 11
-1.0568323736
 21
23.3851398327
  0
LINE
  5
4D1
100
AcDbEntity
  8
0
100
AcDbLine
 62
7
  6
CONTINUOUS
 10
11.6450182229
 20
17.1749018379
 11
10.7257794073
 21
17.6345212456
  0
LINE
  5
4D2
100
AcDbEntity
  8
0
100
AcDbLine
 62
7
  6
CONTINUOUS
 10
9.0287231325
 20
18.4830493831
 11
7.4023775357
 21
19.2962221814
  0
LINE
  5
4D3
100
AcDbEntity
  8
ASSI
100
AcDbLine
 62
7
  6
CONTINUOUS
 10
-3.0311718076
 20
24.5129968531
 11
-5.3218202047
 21
25.6583210517
  0
LINE
  5
4D4
100
AcDbEntity
  8
ASSI
100
AcDbLine
 62
7
  6
CONTINUOUS
 10
-6.7434824089
 20
26.3691521537
 11
-9.034130806
 21
27.5144763523
  0
LINE
  5
4D5
100
AcDbEntity
  8
ASSI
100
AcDbLine
 62
250
  6
CONTINUOUS
 10
-0.1213638553
 20
23.234674374
 11
-2.185865178
 21
24.2669250353
  0
LINE
  5
4D6
100
AcDbEntity
  8
ASSI
100
AcDbLine
 62
250
  6
CONTINUOUS
 10
-12.7078645604
 20
29.5279247265
 11
-14.7723658831
 21
30.5601753879
  0
LINE
  5
4D7
100
AcDbEntity
  8
0
100
AcDbLine
 62
250
  6
CONTINUOUS
 10
15.4541357391
 20
15.4696297106
 11
13.7755976686
 21
16.3088987458
  0
LINE
  5
4D8
100
AcDbEntity
  8
0
100
AcDbLine
 62
250
  6
CONTINUOUS
 10
3.1504777464
 20
21.6214587069
 11
1.471939676
 21
22.4607277421
  0
LINE
  5
4D9
100
AcDbEntity
  8
ASSI
100
AcDbLine
 62
7
  6
CONTINUOUS
 10
-10.7702667407
 20
28.7587909444
 11
-9.0927094497
 21
27.9200122989
  0
LINE
  5
4DA
100
AcDbEntity
  8
ASSI
100
AcDbLine
 62
7
  6
CONTINUOUS
 10
-6.2447833412
 20
26.4960492446
 11
-5.3803988485
 21
26.0638569983
  0
LINE
  5
4DB
100
AcDbEntity
  8
ASSI
100
AcDbLine
 62
7
  6
CONTINUOUS
 10
-2.5324727399
 20
24.639893944
 11
-2.2054517687
 21
24.4763834584
  0
LINE
  5
4DC
100
AcDbEntity
  8
0
100
AcDbLine
 62
7
  6
CONTINUOUS
 10
9.5236978793
 20
18.6118086343
 11
10.6672007636
 21
18.0400571922
  0
LINE
  5
4DD
100
AcDbEntity
  8
0
100
AcDbLine
 62
7
  6
CONTINUOUS
 10
17.7618049089
 20
14.4927551196
 11
17.4079384895
 21
14.6696883292
  0
LINE
  5
4DE
100
AcDbEntity
  8
0
100
AcDbLine
 62
7
  6
CONTINUOUS
 10
13.7288853091
 20
16.5092149194
 11
13.3774298368
 21
16.6849426556
  0
LINE
  5
4DF
100
AcDbEntity
  8
0
100
AcDbLine
 62
7
  6
CONTINUOUS
 10
6.0296900528
 20
20.3588125476
 11
5.1042804969
 21
20.8215173256
  0
LINE
  5
4E0
100
AcDbEntity
  8
ASSI
100
AcDbLine
 62
250
  6
CONTINUOUS
 10
0.0529340206
 20
23.5376903285
 11
-2.0127800207
 21
24.5705473492
  0
LINE
  5
4E1
100
AcDbEntity
  8
ASSI
100
AcDbLine
 62
250
  6
CONTINUOUS
 10
-12.5335666845
 20
29.8309406811
 11
-14.5992807259
 21
30.8637977018
  0
LINE
  5
4E2
100
AcDbEntity
  8
0
100
AcDbLine
 62
250
  6
CONTINUOUS
 10
15.629883995
 20
15.7740065255
 11
13.9513459246
 21
16.6132755607
  0
LINE
  5
4E3
100
AcDbEntity
  8
0
100
AcDbLine
 62
250
  6
CONTINUOUS
 10
3.3262260024
 20
21.9258355218
 11
1.647687932
 21
22.765104557
  0
LINE
  5
4E4
100
AcDbEntity
  8
0
100
AcDbLine
 62
7
  6
CONTINUOUS
 10
6.0296900528
 20
20.6762354393
 11
6.6952707546
 21
20.3434450884
  0
LINE
  5
4E5
100
AcDbEntity
  8
0
100
AcDbLine
 62
7
  6
CONTINUOUS
 10
11.6450182229
 20
17.8685713542
 11
12.3105989246
 21
17.5357810033
  0
LINE
  5
4E6
100
AcDbEntity
  8
ASSI
100
AcDbLine
 62
7
  6
CONTINUOUS
 10
-10.7702667407
 20
29.4507811959
 11
-10.1021310256
 21
29.1167133383
  0
LINE
  5
4E7
100
AcDbEntity
  8
ASSI
100
AcDbLine
 62
7
  6
CONTINUOUS
 10
1.8162339644
 20
23.1575308433
 11
2.0546262707
 21
23.0383346902
  0
LINE
  5
4E8
100
AcDbEntity
  8
ASSI
100
AcDbLine
 62
7
  6
CONTINUOUS
 10
-5.3803988485
 20
26.7565502728
 11
-5.5627231108
 21
26.847712404
  0
LINE
  5
4E9
100
AcDbEntity
  8
0
100
AcDbLine
 62
7
  6
CONTINUOUS
 10
18.4627408627
 20
14.8443555354
 11
17.4079384895
 21
15.371756722
  0
LINE
  5
4EA
100
AcDbEntity
  8
0
100
AcDbLine
 62
7
  6
CONTINUOUS
 10
5.8072734512
 20
21.1720892412
 11
5.1042804969
 21
21.5235857183
  0
LINE
  5
4EB
100
AcDbEntity
  8
0
100
AcDbLine
 62
7
  6
CONTINUOUS
 10
10.6672007636
 20
18.7426294336
 11
10.2308046605
 21
18.9608274851
  0
LINE
  5
4EC
100
AcDbEntity
  8
ASSI
100
AcDbLine
 62
7
  6
CONTINUOUS
 10
-5.3803988485
 20
26.8403751654
 11
-5.5645225364
 21
26.9324370093
  0
LINE
  5
4ED
100
AcDbEntity
  8
ASSI
100
AcDbLine
 62
250
  6
CONTINUOUS
 10
-8.9987808517
 20
28.7273688317
 11
-6.7788323631
 21
27.6173945874
  0
LINE
  5
4EE
100
AcDbEntity
  8
ASSI
100
AcDbLine
 62
250
  6
CONTINUOUS
 10
-3.0665217619
 20
25.7612392868
 11
-5.2864702505
 21
26.8712135311
  0
LINE
  5
4EF
100
AcDbEntity
  8
0
100
AcDbLine
 62
250
  6
CONTINUOUS
 10
12.1811429778
 20
18.1404538121
 11
10.7257794073
 21
18.8681355973
  0
LINE
  5
4F0
100
AcDbEntity
  8
0
100
AcDbLine
 62
250
  6
CONTINUOUS
 10
9.0287231325
 20
19.7166637347
 11
7.4023775357
 21
20.5298365331
  0
LINE
  5
4F1
100
AcDbEntity
  8
ASSI
100
AcDbLine
 62
250
  6
CONTINUOUS
 10
-8.8598276385
 20
28.9700241391
 11
-6.6398791499
 21
27.8600498948
  0
LINE
  5
4F2
100
AcDbEntity
  8
ASSI
100
AcDbLine
 62
250
  6
CONTINUOUS
 10
-2.9275685486
 20
26.0038945942
 11
-5.1475170372
 21
27.1138688385
  0
LINE
  5
4F3
100
AcDbEntity
  8
0
100
AcDbLine
 62
250
  6
CONTINUOUS
 10
12.4927236088
 20
18.2984642509
 11
10.8663780121
 21
19.1116370493
  0
LINE
  5
4F4
100
AcDbEntity
  8
0
100
AcDbLine
 62
250
  6
CONTINUOUS
 10
9.1693217373
 20
19.9601651867
 11
7.5429761405
 21
20.7733379851
  0
LINE
  5
4F5
100
AcDbEntity
  8
ASSI
100
AcDbLine
 62
7
  6
CONTINUOUS
 10
-8.6489733211
 20
29.0837848806
 11
-6.4215331125
 21
27.9700647763
  0
LINE
  5
4F6
100
AcDbEntity
  8
ASSI
100
AcDbLine
 62
7
  6
CONTINUOUS
 10
-4.9366627199
 20
27.22762958
 11
-2.7092225113
 21
26.1139094757
  0
LINE
  5
4F7
100
AcDbEntity
  8
0
100
AcDbLine
 62
7
  6
CONTINUOUS
 10
7.0841794842
 20
21.217208478
 11
9.3822765231
 21
20.0681599585
  0
LINE
  5
4F8
100
AcDbEntity
  8
0
100
AcDbLine
 62
7
  6
CONTINUOUS
 10
11.0793327979
 20
19.2196318211
 11
13.3774298368
 21
18.0705833017
  0
LINE
  5
4F9
100
AcDbEntity
  8
0
100
AcDbLine
 62
7
  6
CONTINUOUS
 10
17.7748046294
 20
14.4859575723
 11
17.7614743923
 21
14.4929203779
  0
LWPOLYLINE
  5
4FA
100
AcDbEntity
  8
ASSI
100
AcDbPolyline
 62
250
  6
CONTINUOUS
 90
28
 70
0
 10
-6.7788323631
 20
27.6173945874
 10
-6.777078487
 20
27.6164787157
 10
-6.7752927431
 20
27.6154191769
 10
-6.7734751313
 20
27.6142159711
 10
-6.7716142175
 20
27.6128684239
 10
-6.7697214358
 20
27.6113772096
 10
-6.7678310887
 20
27.6097443512
 10
-6.7659424915
 20
27.607964407
 10
-6.7640563288
 20
27.6060428187
 10
-6.7622089572
 20
27.6039979352
 10
-6.7604014173
 20
27.6018251592
 10
-6.7586326684
 20
27.5995290881
 10
-6.756935945
 20
27.5971418626
 10
-6.7553145847
 20
27.5946626605
 10
-6.75376525
 20
27.5920923041
 10
-6.7523111626
 20
27.5894654016
 10
-6.7509552907
 20
27.5867832547
 10
-6.7496946661
 20
27.5840445617
 10
-6.7485436062
 20
27.5812800252
 10
-6.7475035452
 20
27.5784897247
 10
-6.7465730488
 20
27.5756735808
 10
-6.745762132
 20
27.5728620581
 10
-6.7450721119
 20
27.5700551617
 10
-6.7445016714
 20
27.5672528865
 10
-6.7440568745
 20
27.5644856813
 10
-6.7437397424
 20
27.5617636959
 10
-6.7435482538
 20
27.5590767804
 10
-6.7434824089
 20
27.5564249351
  0
LWPOLYLINE
  5
4FB
100
AcDbEntity
  8
0
100
AcDbPolyline
 62
250
  6
CONTINUOUS
 90
18
 70
0
 10
1.471939676
 20
22.120753808
 10
1.4637603071
 20
22.1250421343
 10
1.4559960701
 20
22.1295197883
 10
1.4486645068
 20
22.1341767444
 10
1.4417820352
 20
22.1390026865
 10
1.4353644053
 20
22.1439866904
 10
1.4294265517
 20
22.1491172129
 10
1.4239819534
 20
22.154382587
 10
1.419042703
 20
22.159771096
 10
1.4146198982
 20
22.165270635
 10
1.4107234815
 20
22.1708688477
 10
1.4073622259
 20
22.176553137
 10
1.4045437008
 20
22.182310705
 10
1.4022742451
 20
22.1881285978
 10
1.4005589576
 20
22.1939937395
 10
1.3994016939
 20
22.1998929445
 10
1.398805056
 20
22.2058129484
 10
1.3987163713
 20
22.2091421555
  0
LWPOLYLINE
  5
4FC
100
AcDbEntity
  8
0
100
AcDbPolyline
 62
250
  6
CONTINUOUS
 90
18
 70
0
 10
13.7755976686
 20
15.9689248116
 10
13.7674156009
 20
15.9732146218
 10
13.7596494866
 20
15.9776935611
 10
13.7523167909
 20
15.9823515567
 10
13.745434012
 20
15.9871781275
 10
13.7390166197
 20
15.9921624245
 10
13.7330790261
 20
15.9972932568
 10
13.7276345773
 20
16.0025590994
 10
13.7226955372
 20
16.0079480994
 10
13.7182730334
 20
16.013448119
 10
13.7143770161
 20
16.0190467824
 10
13.7110162417
 20
16.0247315047
 10
13.7081982687
 20
16.0304895012
 10
13.7059294344
 20
16.0363078223
 10
13.7042148413
 20
16.042173383
 10
13.7030583451
 20
16.0480729923
 10
13.7024625466
 20
16.0539933865
 10
13.7023743639
 20
16.0573131668
  0
LWPOLYLINE
  5
4FD
100
AcDbEntity
  8
0
100
AcDbPolyline
 62
250
  6
CONTINUOUS
 90
18
 70
0
 10
1.471939676
 20
22.4607277421
 10
1.4637570786
 20
22.4650178435
 10
1.4559904799
 20
22.4694971052
 10
1.4486573505
 20
22.4741554531
 10
1.4417741817
 20
22.4789824135
 10
1.4353564622
 20
22.4839671274
 10
1.4294186398
 20
22.4890983737
 10
1.423974072
 20
22.4943646082
 10
1.4190350011
 20
22.4997539884
 10
1.4146125366
 20
22.5052543906
 10
1.4107166239
 20
22.5108534439
 10
1.4073560253
 20
22.5165385538
 10
1.4045383003
 20
22.5222969285
 10
1.4022697842
 20
22.5281156152
 10
1.4005555765
 20
22.5339815271
 10
1.3993995305
 20
22.5398814687
 10
1.3988042431
 20
22.5458021728
 10
1.3987163713
 20
22.5491161083
  0
LWPOLYLINE
  5
4FE
100
AcDbEntity
  8
0
100
AcDbPolyline
 62
250
  6
CONTINUOUS
 90
18
 70
0
 10
13.7755976686
 20
16.3088987458
 10
13.7674150713
 20
16.3131888472
 10
13.7596484726
 20
16.3176681089
 10
13.7523153431
 20
16.3223264568
 10
13.7454321743
 20
16.3271534172
 10
13.7390144548
 20
16.3321381311
 10
13.7330766324
 20
16.3372693774
 10
13.7276320647
 20
16.3425356119
 10
13.7226929938
 20
16.3479249921
 10
13.7182705293
 20
16.3534253943
 10
13.7143746166
 20
16.3590244476
 10
13.711014018
 20
16.3647095575
 10
13.7081962929
 20
16.3704679322
 10
13.7059277769
 20
16.3762866189
 10
13.7042135692
 20
16.3821525308
 10
13.7030575232
 20
16.3880524724
 10
13.7024622357
 20
16.3939731765
 10
13.7023743639
 20
16.397287112
  0
LWPOLYLINE
  5
4FF
100
AcDbEntity
  8
0
100
AcDbPolyline
 62
250
  6
CONTINUOUS
 90
18
 70
0
 10
10.7257794073
 20
18.8681355973
 10
10.7192104907
 20
18.871580238
 10
10.7129768196
 20
18.875177258
 10
10.7070925154
 20
18.8789185088
 10
10.7015709078
 20
18.8827955152
 10
10.6964245052
 20
18.8867994946
 10
10.6916649656
 20
18.8909213767
 10
10.6873030712
 20
18.8951518242
 10
10.6833487028
 20
18.8994812536
 10
10.6798108186
 20
18.9038998575
 10
10.6766974328
 20
18.9083976262
 10
10.6740155983
 20
18.9129643709
 10
10.6717713904
 20
18.9175897465
 10
10.6699698928
 20
18.9222632749
 10
10.6686151866
 20
18.9269743692
 10
10.6677103406
 20
18.9317123571
 10
10.6672574046
 20
18.9364665057
 10
10.6672007636
 20
18.9388462754
  0
LWPOLYLINE
  5
500
100
AcDbEntity
  8
0
100
AcDbPolyline
 62
7
  6
CONTINUOUS
 90
22
 70
0
 10
13.8406102678
 20
15.8336867217
 10
13.8318915872
 20
15.8382609195
 10
13.820084083
 20
15.8451828431
 10
13.8086860197
 20
15.8527314892
 10
13.7977720674
 20
15.8608490959
 10
13.7873503356
 20
15.8695178716
 10
13.7773755602
 20
15.878776276
 10
13.7678698556
 20
15.8886179135
 10
13.7588936329
 20
15.8989932089
 10
13.7504685228
 20
15.9098884961
 10
13.7426314242
 20
15.9212694199
 10
13.7354145435
 20
15.9331019026
 10
13.7288354713
 20
15.9453740531
 10
13.7229240044
 20
15.9580532357
 10
13.7177120107
 20
15.9710949483
 10
13.7132222047
 20
15.9844691839
 10
13.7094804849
 20
15.9981307003
 10
13.706508747
 20
16.0120351485
 10
13.7043240028
 20
16.0261519923
 10
13.7029452484
 20
16.0404277731
 10
13.7023868481
 20
16.0548148428
 10
13.7023743651
 20
16.0573251621
  0
LWPOLYLINE
  5
501
100
AcDbEntity
  8
0
100
AcDbPolyline
 62
7
  6
CONTINUOUS
 90
37
 70
0
 10
9.3822765231
 20
20.0681599585
 10
9.3884452932
 20
20.0649107016
 10
9.3946023304
 20
20.0613379206
 10
9.4007359098
 20
20.0574484151
 10
9.4068343348
 20
20.053249579
 10
9.4128859995
 20
20.0487494075
 10
9.4188794107
 20
20.0439564808
 10
9.424803135
 20
20.0388799107
 10
9.4306458854
 20
20.033529356
 10
9.4363965837
 20
20.0279150247
 10
9.4420442504
 20
20.0220475879
 10
9.4475781154
 20
20.0159382053
 10
9.4529877049
 20
20.0095985379
 10
9.4582626812
 20
20.0030406335
 10
9.4633929754
 20
19.9962769619
 10
9.4683688976
 20
19.9893204371
 10
9.4731809285
 20
19.9821842778
 10
9.4778198729
 20
19.9748820502
 10
9.4822769902
 20
19.9674277006
 10
9.486543743
 20
19.9598353921
 10
9.4906119667
 20
19.9521195553
 10
9.4944740199
 20
19.9442949301
 10
9.4981224928
 20
19.9363763816
 10
9.5015503911
 20
19.9283789579
 10
9.5047513035
 20
19.9203179402
 10
9.5077190744
 20
19.9122086411
 10
9.5104479998
 20
19.904066469
 10
9.5129330077
 20
19.8959069845
 10
9.5151693024
 20
19.8877456861
 10
9.5171525672
 20
19.8795980785
 10
9.5188791567
 20
19.8714797359
 10
9.5203457166
 20
19.8634060774
 10
9.5215493919
 20
19.8553924386
 10
9.5224880254
 20
19.8474541409
 10
9.5231598304
 20
19.8396062943
 10
9.5235633936
 20
19.831863769
 10
9.5236978793
 20
19.8242412684
  0
LWPOLYLINE
  5
502
100
AcDbEntity
  8
0
100
AcDbPolyline
 62
250
  6
CONTINUOUS
 90
34
 70
0
 10
9.1693217373
 20
19.9601651867
 10
9.1760517682
 20
19.9566049238
 10
9.1827684173
 20
19.9526612994
 10
9.1894564691
 20
19.948343247
 10
9.1961007731
 20
19.9436605485
 10
9.2026862777
 20
19.9386238116
 10
9.2091980648
 20
19.9332444461
 10
9.2156213829
 20
19.9275346381
 10
9.2219416812
 20
19.9215073221
 10
9.2281446422
 20
19.915176152
 10
9.2342162142
 20
19.9085554698
 10
9.2401426432
 20
19.9016602735
 10
9.2459105038
 20
19.894506183
 10
9.25150673
 20
19.8871094045
 10
9.2569186446
 20
19.8794866943
 10
9.2621339878
 20
19.8716553201
 10
9.2671409452
 20
19.8636330225
 10
9.2719281744
 20
19.8554379746
 10
9.2764848309
 20
19.8470887409
 10
9.2808005922
 20
19.8386042351
 10
9.2848656819
 20
19.8300036772
 10
9.2886708912
 20
19.8213065503
 10
9.2922076001
 20
19.8125325562
 10
9.2954677968
 20
19.8037015708
 10
9.2984440959
 20
19.7948335992
 10
9.3011297551
 20
19.7859487301
 10
9.3035186905
 20
19.7770670906
 10
9.3056054905
 20
19.7682088005
 10
9.3073854277
 20
19.7593939267
 10
9.3088544701
 20
19.7506424378
 10
9.3100092897
 20
19.7419741585
 10
9.3108472706
 20
19.7334087254
 10
9.3113665144
 20
19.724965542
 10
9.3115658449
 20
19.7166637347
  0
LWPOLYLINE
  5
503
100
AcDbEntity
  8
0
100
AcDbPolyline
 62
7
  6
CONTINUOUS
 90
34
 70
0
 10
4.9275067932
 20
22.7285575253
 10
4.9359178686
 20
22.7241066109
 10
4.9443100863
 20
22.7191754405
 10
4.952664334
 20
22.7137751309
 10
4.9609615079
 20
22.7079178223
 10
4.9691828063
 20
22.7016167774
 10
4.9773097721
 20
22.6948863524
 10
4.9853239375
 20
22.6877417615
 10
4.9932070568
 20
22.6801991422
 10
5.000941399
 20
22.6722756452
 10
5.0085094066
 20
22.6639891991
 10
5.0158938635
 20
22.6553585377
 10
5.0230781261
 20
22.6464032581
 10
5.0300459047
 20
22.6371436376
 10
5.0367813639
 20
22.6276006256
 10
5.0432692867
 20
22.6177958658
 10
5.0494949833
 20
22.6077515718
 10
5.0554443212
 20
22.5974904817
 10
5.0611038206
 20
22.5870358448
 10
5.066460691
 20
22.5764113584
 10
5.0715027907
 20
22.5656410862
 10
5.0762186518
 20
22.5547494088
 10
5.0805976436
 20
22.5437610248
 10
5.0846298626
 20
22.532700833
 10
5.0883060865
 20
22.5215938486
 10
5.0916180608
 20
22.5104652678
 10
5.0945583217
 20
22.4993403177
 10
5.0971200803
 20
22.4882441378
 10
5.0992976262
 20
22.4772019092
 10
5.1010860871
 20
22.466238673
 10
5.1024812454
 20
22.4553791813
 10
5.103479949
 20
22.444648036
 10
5.104080118
 20
22.4340696337
 10
5.1042804969
 20
22.4236679865
  0
LWPOLYLINE
  5
504
100
AcDbEntity
  8
0
100
AcDbPolyline
 62
250
  6
CONTINUOUS
 90
34
 70
0
 10
3.3262260024
 20
21.9258355218
 10
3.3345892852
 20
21.9213605506
 10
3.3429359529
 20
21.916406454
 10
3.3512470986
 20
21.910984454
 10
3.3595038954
 20
21.9051068328
 10
3.3676876401
 20
21.8987869044
 10
3.3757797944
 20
21.892038985
 10
3.383762028
 20
21.88487836
 10
3.3916162593
 20
21.8773212498
 10
3.3993246966
 20
21.8693847731
 10
3.4068698786
 20
21.8610869078
 10
3.4142347138
 20
21.8524464503
 10
3.4214025193
 20
21.8434829732
 10
3.4283570582
 20
21.8342167808
 10
3.4350825771
 20
21.8246688631
 10
3.441563841
 20
21.8148608483
 10
3.4477861686
 20
21.8048149537
 10
3.4537354648
 20
21.7945539356
 10
3.4593982532
 20
21.7841010374
 10
3.4647617062
 20
21.7734799373
 10
3.4698136745
 20
21.7627146944
 10
3.4745427142
 20
21.7518296945
 10
3.4789381129
 20
21.7408495945
 10
3.4829899141
 20
21.7297992669
 10
3.4866889396
 20
21.718703743
 10
3.4900268103
 20
21.7075881567
 10
3.4929959651
 20
21.6964776873
 10
3.4955896781
 20
21.6853975025
 10
3.4978020742
 20
21.6743727015
 10
3.4996281417
 20
21.6634282578
 10
3.5010637441
 20
21.652588963
 10
3.5021056295
 20
21.6418793707
 10
3.5027514378
 20
21.6313237404
 10
3.5029997061
 20
21.620945983
  0
LWPOLYLINE
  5
505
100
AcDbEntity
  8
0
100
AcDbPolyline
 62
250
  6
CONTINUOUS
 90
34
 70
0
 10
15.629883995
 20
15.7740065255
 10
15.6382335305
 20
15.769539311
 10
15.646570112
 20
15.7645923015
 10
15.6548748677
 20
15.7591760674
 10
15.6631301339
 20
15.7533013918
 10
15.6713159446
 20
15.7469817412
 10
15.6794101922
 20
15.7402338624
 10
15.6873933509
 20
15.7330741465
 10
15.6952485501
 20
15.7255178383
 10
15.7029581362
 20
15.7175819057
 10
15.7105047332
 20
15.7092841945
 10
15.7178711289
 20
15.7006435891
 10
15.7250404708
 20
15.6916798444
 10
15.7319964524
 20
15.6824133605
 10
15.7387233828
 20
15.672865054
 10
15.7452060636
 20
15.6630564965
 10
15.7514298208
 20
15.653009881
 10
15.7573805313
 20
15.6427479955
 10
15.7630446989
 20
15.6322941087
 10
15.7684094852
 20
15.6216719115
 10
15.7734627359
 20
15.610905466
 10
15.778192998
 20
15.6000191697
 10
15.7825895526
 20
15.5890376874
 10
15.7866424354
 20
15.5779859024
 10
15.790342459
 20
15.566888865
 10
15.7936812384
 20
15.5557717209
 10
15.7966512082
 20
15.5446596584
 10
15.7992456371
 20
15.5335778594
 10
15.801458647
 20
15.5225514288
 10
15.8032852217
 20
15.5116053563
 10
15.8047212197
 20
15.500764463
 10
15.8057633884
 20
15.4900533187
 10
15.8064093688
 20
15.4794961865
 10
15.8066576987
 20
15.4691169867
  0
LWPOLYLINE
  5
506
100
AcDbEntity
  8
0
100
AcDbPolyline
 62
7
  6
CONTINUOUS
 90
21
 70
0
 10
1.5369129724
 20
21.9855353579
 10
1.5241560358
 20
21.9923825711
 10
1.511907833
 20
21.999897274
 10
1.5002114608
 20
22.0080295216
 10
1.4891630925
 20
22.0166772216
 10
1.4787280146
 20
22.0258283303
 10
1.4687682114
 20
22.0355948717
 10
1.4592903421
 20
22.0459925943
 10
1.4503822352
 20
22.0569463268
 10
1.4420553417
 20
22.0684608887
 10
1.434350405
 20
22.0805061094
 10
1.4273148696
 20
22.0930328328
 10
1.420976379
 20
22.1060184633
 10
1.4153734053
 20
22.1194144557
 10
1.4105400414
 20
22.1331682416
 10
1.4064988059
 20
22.1472499023
 10
1.4032774676
 20
22.1616053863
 10
1.4009002327
 20
22.1761700287
 10
1.3993829315
 20
22.1908983676
 10
1.3987396154
 20
22.2057331526
 10
1.3987163715
 20
22.2091466016
  0
LWPOLYLINE
  5
507
100
AcDbEntity
  8
ASSI
100
AcDbPolyline
 62
250
  6
CONTINUOUS
 90
28
 70
0
 10
-6.6398791499
 20
27.8600498948
 10
-6.6312799884
 20
27.8553659788
 10
-6.6224606561
 20
27.8500194014
 10
-6.6134457985
 20
27.843981167
 10
-6.6042418778
 20
27.8372083986
 10
-6.5949034641
 20
27.8296919313
 10
-6.5855307801
 20
27.8214699183
 10
-6.5761603668
 20
27.8125382353
 10
-6.5668319674
 20
27.8028974865
 10
-6.5576479758
 20
27.7926216504
 10
-6.5486483035
 20
27.7817310411
 10
-6.539871956
 20
27.7702478203
 10
-6.5314110832
 20
27.7582738385
 10
-6.5233074425
 20
27.7458589303
 10
-6.5155863424
 20
27.7330324796
 10
-6.5083039572
 20
27.7198812514
 10
-6.5014935933
 20
27.7064655672
 10
-6.4951732182
 20
27.6928212672
 10
-6.4893686887
 20
27.6790036801
 10
-6.4841017459
 20
27.665064855
 10
-6.4793905392
 20
27.6510533466
 10
-6.4752519609
 20
27.6370201413
 10
-6.4717009175
 20
27.6230156883
 10
-6.4687503138
 20
27.6090909966
 10
-6.4664106982
 20
27.5952976784
 10
-6.4646903228
 20
27.5816859602
 10
-6.4635952788
 20
27.568304532
 10
-6.4631293785
 20
27.5552016331
  0
LWPOLYLINE
  5
508
100
AcDbEntity
  8
ASSI
100
AcDbPolyline
 62
7
  6
CONTINUOUS
 90
9
 70
0
 10
-0.8568880126
 20
23.1824391744
 10
-0.8799208282
 20
23.195289916
 10
-0.909990181
 20
23.21576687
 10
-0.9386912304
 20
23.2391790257
 10
-0.9659759461
 20
23.2649800702
 10
-0.9914595904
 20
23.2927931339
 10
-1.0149822213
 20
23.3223272364
 10
-1.0367467908
 20
23.3532194542
 10
-1.0568323736
 20
23.3851398327
  0
LWPOLYLINE
  5
509
100
AcDbEntity
  8
ASSI
100
AcDbPolyline
 62
250
  6
CONTINUOUS
 90
13
 70
0
 10
-10.3875620913
 20
30.90810388
 10
-10.3688083556
 20
30.897540021
 10
-10.3504175962
 20
30.8841737431
 10
-10.3327043624
 20
30.8682336606
 10
-10.3159716149
 20
30.8499924086
 10
-10.3005055449
 20
30.8297619812
 10
-10.2865706793
 20
30.807888396
 10
-10.2744053544
 20
30.7847457739
 10
-10.2642176393
 20
30.7607299379
 10
-10.2561817786
 20
30.7362516451
 10
-10.2504352131
 20
30.7117295626
 10
-10.2470762286
 20
30.6875831074
 10
-10.2461622742
 20
30.6642252707
  0
LINE
  5
50A
100
AcDbEntity
  8
0
100
AcDbLine
 62
7
  6
CONTINUOUS
 10
17.7744987255
 20
14.4861107014
 11
17.7880670102
 21
14.4784247806
  0
LWPOLYLINE
  5
50B
100
AcDbEntity
  8
ASSI
100
AcDbPolyline
 62
250
  6
CONTINUOUS
 90
7
 70
0
 10
-2.185865178
 20
24.2669250353
 10
-2.2029372405
 20
24.2766442464
 10
-2.2173572819
 20
24.2873840087
 10
-2.2288840161
 20
24.2989646173
 10
-2.2373245698
 20
24.3111922972
 10
-2.2425377098
 20
24.3238624467
 10
-2.2444438126
 20
24.337605579
  0
LWPOLYLINE
  5
50C
100
AcDbEntity
  8
ASSI
100
AcDbPolyline
 62
250
  6
CONTINUOUS
 90
7
 70
0
 10
-5.3218202047
 20
26.845593833
 10
-5.3388922673
 20
26.8553130441
 10
-5.3533123087
 20
26.8660528064
 10
-5.3648390428
 20
26.8776334149
 10
-5.3732795965
 20
26.8898610949
 10
-5.3784927366
 20
26.9025312443
 10
-5.3803988485
 20
26.9163045111
  0
LWPOLYLINE
  5
50D
100
AcDbEntity
  8
ASSI
100
AcDbPolyline
 62
7
  6
CONTINUOUS
 90
13
 70
0
 10
1.6748341473
 20
24.3548938483
 10
1.6932854156
 20
24.3441813593
 10
1.7114278127
 20
24.330692993
 10
1.7289467853
 20
24.3146571234
 10
1.7455379839
 20
24.2963452839
 10
1.7609164285
 20
24.2760701742
 10
1.774821529
 20
24.2541804896
 10
1.7870178609
 20
24.2310518625
 10
1.7972943768
 20
24.2070787107
 10
1.805472208
 20
24.182670293
 10
1.8114125655
 20
24.1582448035
 10
1.8150189024
 20
24.1342221524
 10
1.8162339644
 20
24.111015239
  0
LINE
  5
50E
100
AcDbEntity
  8
0
100
AcDbLine
 62
7
  6
CONTINUOUS
 10
17.7875282409
 20
14.4786949625
 11
17.8012615348
 21
14.4703220028
  0
LWPOLYLINE
  5
50F
100
AcDbEntity
  8
SUPERFICI
100
AcDbPolyline
 62
250
  6
CONTINUOUS
 90
13
 70
0
 10
-3.0377344777
 20
28.1224598304
 10
-3.020023542
 20
28.1113379544
 10
-3.0019554286
 20
28.0979334664
 10
-2.9838336674
 20
28.0824715983
 10
-2.965962682
 20
28.0652121389
 10
-2.9486426623
 20
28.0464450547
 10
-2.9321645238
 20
28.026485614
 10
-2.9168050538
 20
28.0056691299
 10
-2.9028222168
 20
27.9843452711
 10
-2.8904508241
 20
27.9628721693
 10
-2.8798986503
 20
27.9416104934
 10
-2.8713429296
 20
27.9209173941
 10
-2.8649273461
 20
27.9011404438
  0
LWPOLYLINE
  5
510
100
AcDbEntity
  8
0
100
AcDbPolyline
 62
7
  6
CONTINUOUS
 90
40
 70
0
 10
17.8005629385
 20
14.4706731612
 10
17.8136438327
 20
14.4620199392
 10
17.826729909
 20
14.4527606548
 10
17.8396981238
 20
14.442971383
 10
17.8525279415
 20
14.4326581883
 10
17.8652398976
 20
14.4218150062
 10
17.8777725553
 20
14.4104997185
 10
17.8901091319
 20
14.3987284952
 10
17.9022664101
 20
14.3864851662
 10
17.9142333007
 20
14.3737791034
 10
17.9260287591
 20
14.3605893278
 10
17.9376338299
 20
14.3469368183
 10
17.9489805581
 20
14.3328938831
 10
17.9600687143
 20
14.3184526111
 10
17.9708985279
 20
14.3036209135
 10
17.9814027324
 20
14.288494831
 10
17.991566267
 20
14.2730926087
 10
18.0014041925
 20
14.2573960016
 10
18.0108944249
 20
14.2414463157
 10
18.0200376789
 20
14.2252446536
 10
18.0288332397
 20
14.2087899127
 10
18.0372568786
 20
14.1921200906
 10
18.0453175565
 20
14.1752121481
 10
18.0530063126
 20
14.1580891245
 10
18.0602720351
 20
14.1408581351
 10
18.0671084454
 20
14.1235214136
 10
18.0735218222
 20
14.1060767264
 10
18.0794798903
 20
14.0886244884
 10
18.084973149
 20
14.0711924491
 10
18.0900110989
 20
14.0537528591
 10
18.0945899668
 20
14.0363228853
 10
18.0987157961
 20
14.0188800114
 10
18.1023825434
 20
14.0014467536
 10
18.1055683049
 20
13.9841078281
 10
18.1082698619
 20
13.9668541432
 10
18.1104904331
 20
13.9496947905
 10
18.1122177714
 20
13.9327417618
 10
18.1134477942
 20
13.9160323873
 10
18.1141845841
 20
13.8995293367
 10
18.114428141
 20
13.8832326099
  0
LINE
  5
511
100
AcDbEntity
  8
SUPERFICI
100
AcDbLine
 62
7
  6
CONTINUOUS
 10
9.7302925149
 20
24.5784297993
 11
8.977598431
 21
25.8766350604
  0
LWPOLYLINE
  5
512
100
AcDbEntity
  8
RACCORDO
100
AcDbPolyline
 62
7
  6
CONTINUOUS
 90
4
 70
0
 10
23.7284724814
 20
-16.6387630891
 10
23.7282948513
 20
-16.6379033213
 10
23.7277916463
 20
-16.637312447
 10
23.727466249
 20
-16.6371191279
  0
LINE
  5
513
100
AcDbEntity
  8
RACCORDO
100
AcDbLine
 62
250
  6
CONTINUOUS
 10
23.6711225938
 20
17.9683172848
 11
23.6711225938
 21
17.6265580572
  0
LINE
  5
514
100
AcDbEntity
  8
RACCORDO
100
AcDbLine
 62
250
  6
CONTINUOUS
 10
23.6711225938
 20
-16.6581153196
 11
23.6711225938
 21
-17.6157095703
  0
LINE
  5
515
100
AcDbEntity
  8
RACCORDO
100
AcDbLine
 62
7
  6
CONTINUOUS
 10
23.728472504
 20
17.9980110701
 11
23.728472504
 21
17.7475629058
  0
LINE
  5
516
100
AcDbEntity
  8
RACCORDO
100
AcDbLine
 62
7
  6
CONTINUOUS
 10
23.728472504
 20
-16.6389383153
 11
23.728472504
 21
-17.5456186439
  0
LINE
  5
517
100
AcDbEntity
  8
0
100
AcDbLine
 62
250
  6
CONTINUOUS
 10
24.0726289972
 20
18.768071484
 11
24.0726289972
 21
18.1762033108
  0
LINE
  5
518
100
AcDbEntity
  8
0
100
AcDbLine
 62
250
  6
CONTINUOUS
 10
24.0726289972
 20
-18.0236585674
 11
24.0726289972
 21
-18.6155267405
  0
LINE
  5
519
100
AcDbEntity
  8
0
100
AcDbLine
 62
7
  6
CONTINUOUS
 10
24.2129590971
 20
19.0687078382
 11
24.2129590971
 21
18.3498679034
  0
LINE
  5
51A
100
AcDbEntity
  8
0
100
AcDbLine
 62
7
  6
CONTINUOUS
 10
24.2129590971
 20
-17.8499939748
 11
24.2129590971
 21
-18.5688339096
  0
LWPOLYLINE
  5
51B
100
AcDbEntity
  8
0
100
AcDbPolyline
 62
7
  6
CONTINUOUS
 90
21
 70
0
 10
24.2129568119
 20
18.3498653596
 10
24.2129258016
 20
18.347065699
 10
24.2123085466
 20
18.3371191063
 10
24.2108963176
 20
18.3271928099
 10
24.2086928758
 20
18.3172867138
 10
24.2057086786
 20
18.3074478318
 10
24.2019400146
 20
18.2976764833
 10
24.1973905952
 20
18.2879723489
 10
24.1920820116
 20
18.2783814838
 10
24.1860106552
 20
18.2689044265
 10
24.1791801347
 20
18.2595406385
 10
24.1716228672
 20
18.2503345598
 10
24.1633353982
 20
18.2412869401
 10
24.1543211824
 20
18.2323970297
 10
24.1446230005
 20
18.2237070196
 10
24.1342376015
 20
18.21521786
 10
24.1231682366
 20
18.2069286008
 10
24.1114674402
 20
18.1988785822
 10
24.099152724
 20
18.1910809178
 10
24.0862065763
 20
18.183522494
 10
24.0726289972
 20
18.1762033108
  0
LWPOLYLINE
  5
51C
100
AcDbEntity
  8
0
100
AcDbPolyline
 62
7
  6
CONTINUOUS
 90
21
 70
0
 10
24.2129568119
 20
-17.8499965186
 10
24.2129258016
 20
-17.8527961791
 10
24.2123085466
 20
-17.8627427719
 10
24.2108963176
 20
-17.8726690683
 10
24.2086928758
 20
-17.8825751644
 10
24.2057086786
 20
-17.8924140464
 10
24.2019400146
 20
-17.9021853949
 10
24.1973905952
 20
-17.9118895293
 10
24.1920820116
 20
-17.9214803944
 10
24.1860106552
 20
-17.9309574517
 10
24.1791801347
 20
-17.9403212397
 10
24.1716228672
 20
-17.9495273184
 10
24.1633353982
 20
-17.9585749381
 10
24.1543211824
 20
-17.9674648485
 10
24.1446230005
 20
-17.9761548586
 10
24.1342376015
 20
-17.9846440182
 10
24.1231682366
 20
-17.9929332774
 10
24.1114674402
 20
-18.000983296
 10
24.099152724
 20
-18.0087809604
 10
24.0862065763
 20
-18.0163393842
 10
24.0726289972
 20
-18.0236585674
  0
LWPOLYLINE
  5
51D
100
AcDbEntity
  8
RACCORDO
100
AcDbPolyline
 62
7
  6
CONTINUOUS
 90
18
 70
0
 10
23.7284692127
 20
17.7474803543
 10
23.7283004004
 20
17.7381040331
 10
23.7277916463
 20
17.7294482687
 10
23.7269465113
 20
17.7209057769
 10
23.7257634153
 20
17.7124941374
 10
23.7241958725
 20
17.704230718
 10
23.7222492949
 20
17.6961346737
 10
23.719923096
 20
17.6882289754
 10
23.7171609669
 20
17.6805413932
 10
23.7139700565
 20
17.6730944813
 10
23.710352872
 20
17.6659176946
 10
23.7062463324
 20
17.6590545081
 10
23.7016583826
 20
17.6525314643
 10
23.6965985282
 20
17.6463846238
 10
23.6910077448
 20
17.6406760296
 10
23.6848758149
 20
17.6354499838
 10
23.6782415972
 20
17.6307320345
 10
23.6711225938
 20
17.6265580572
  0
LWPOLYLINE
  5
51E
100
AcDbEntity
  8
RACCORDO
100
AcDbPolyline
 62
7
  6
CONTINUOUS
 90
16
 70
0
 10
23.7284724287
 20
-17.545617061
 10
23.7282352575
 20
-17.5504255481
 10
23.7274502854
 20
-17.55567473
 10
23.7261355678
 20
-17.5608609631
 10
23.7242938322
 20
-17.5659665598
 10
23.7219223511
 20
-17.5710092077
 10
23.7190328687
 20
-17.5759779398
 10
23.7156201118
 20
-17.5808832869
 10
23.7116893537
 20
-17.5857147182
 10
23.7072681585
 20
-17.5904296746
 10
23.7023425418
 20
-17.5950317011
 10
23.6969264881
 20
-17.5995172527
 10
23.6910895146
 20
-17.6038331348
 10
23.684854794
 20
-17.6079616161
 10
23.6781991537
 20
-17.6119204279
 10
23.6711225938
 20
-17.6157095703
  0
LWPOLYLINE
  5
51F
100
AcDbEntity
  8
RACCORDO
100
AcDbPolyline
 62
250
  6
CONTINUOUS
 90
41
 70
0
 10
21.8379020659
 20
-15.0668426262
 10
21.8397109975
 20
-15.0461457105
 10
21.8407525513
 20
-15.0251342696
 10
21.8410295452
 20
-15.0038571385
 10
21.8405499457
 20
-14.9823532609
 10
21.839315279
 20
-14.96067296
 10
21.8373220199
 20
-14.9388807108
 10
21.8345798265
 20
-14.9170219983
 10
21.8310998336
 20
-14.8951423645
 10
21.8268855698
 20
-14.8733064537
 10
21.8219520128
 20
-14.8515613783
 10
21.8163154377
 20
-14.8299517494
 10
21.8099849646
 20
-14.8085365559
 10
21.8029801449
 20
-14.7873616841
 10
21.7953222591
 20
-14.7664711699
 10
21.7870251184
 20
-14.7459183431
 10
21.7781126235
 20
-14.7257478145
 10
21.7686104102
 20
-14.7060013216
 10
21.7585353263
 20
-14.6867245208
 10
21.7479147656
 20
-14.6679594575
 10
21.7367782587
 20
-14.6497451008
 10
21.7251446824
 20
-14.6321195043
 10
21.7130443023
 20
-14.6151216159
 10
21.7005097616
 20
-14.598786677
 10
21.6875611344
 20
-14.5831454217
 10
21.6742307616
 20
-14.5682330289
 10
21.660553679
 20
-14.554080443
 10
21.6465511193
 20
-14.5407121878
 10
21.6322570649
 20
-14.5281593696
 10
21.6177079036
 20
-14.5164478152
 10
21.6029258752
 20
-14.5055964908
 10
21.5879458774
 20
-14.495631843
 10
21.5728049054
 20
-14.4865743379
 10
21.5575267579
 20
-14.4784383574
 10
21.542146734
 20
-14.4712452155
 10
21.526701597
 20
-14.4650097304
 10
21.5112172202
 20
-14.4597421745
 10
21.4957286976
 20
-14.4554581842
 10
21.4802719026
 20
-14.4521668256
 10
21.4648752404
 20
-14.4498742951
 10
21.449572873
 20
-14.4485900574
  0
LWPOLYLINE
  5
520
100
AcDbEntity
  8
RACCORDO
100
AcDbPolyline
 62
250
  6
CONTINUOUS
 90
13
 70
0
 10
21.837902266
 20
-15.0668427228
 10
21.8465867894
 20
-15.0620447674
 10
21.8546324898
 20
-15.0569760114
 10
21.8620056753
 20
-15.0516576806
 10
21.8686754705
 20
-15.0461120457
 10
21.8746139451
 20
-15.0403623296
 10
21.8797962314
 20
-15.0344326096
 10
21.8842006283
 20
-15.0283477168
 10
21.8878086922
 20
-15.022133132
 10
21.8906053142
 20
-15.0158148794
 10
21.8925787835
 20
-15.009419417
 10
21.8937208362
 20
-15.0029735262
 10
21.8940343027
 20
-14.9973947676
  0
LINE
  5
521
100
AcDbEntity
  8
RACCORDO
100
AcDbLine
 62
7
  6
CONTINUOUS
 10
21.8366897815
 20
-16.0007065346
 11
19.5172257197
 21
-17.1764129302
  0
LWPOLYLINE
  5
522
100
AcDbEntity
  8
RACCORDO
100
AcDbPolyline
 62
7
  6
CONTINUOUS
 90
16
 70
0
 10
21.837902266
 20
-16.0000985372
 10
21.8449455099
 20
-15.9966944139
 10
21.8514635066
 20
-15.9935810334
 10
21.8574612999
 20
-15.9907778776
 10
21.8629449664
 20
-15.9883310339
 10
21.8679257313
 20
-15.9862307342
 10
21.8724186758
 20
-15.984411001
 10
21.8764344061
 20
-15.9828853947
 10
21.8799888963
 20
-15.9816704173
 10
21.8831040226
 20
-15.9807022546
 10
21.885793183
 20
-15.9799889986
 10
21.8880716108
 20
-15.9795461087
 10
21.889959808
 20
-15.9793186265
 10
21.8914711507
 20
-15.9793118327
 10
21.8926195319
 20
-15.9795386617
 10
21.8930292413
 20
-15.9797084184
  0
LINE
  5
523
100
AcDbEntity
  8
RACCORDO
100
AcDbLine
 62
7
  6
CONTINUOUS
 10
23.2387485805
 20
-16.441928313
 11
19.5172257197
 21
-18.231061267
  0
LINE
  5
524
100
AcDbEntity
  8
RACCORDO
100
AcDbLine
 62
250
  6
CONTINUOUS
 10
14.9191969792
 20
-18.7618571408
 11
14.8726868681
 21
-18.7833370514
  0
LWPOLYLINE
  5
525
100
AcDbEntity
  8
ASSI
100
AcDbPolyline
 62
7
  6
CONTINUOUS
 90
10
 70
0
 10
0.1936364884
 20
25.6770332845
 10
0.1725941917
 20
25.6848096552
 10
0.1507192693
 20
25.6904324245
 10
0.1282388096
 20
25.6938071505
 10
0.1053077972
 20
25.6948652998
 10
0.0821681604
 20
25.6935478972
 10
0.0591413799
 20
25.6898427431
 10
0.0364474434
 20
25.6837696026
 10
0.0142896538
 20
25.6753687925
 10
0.0101132583
 20
25.6734936118
  0
LWPOLYLINE
  5
526
100
AcDbEntity
  8
SUPERFICI
100
AcDbPolyline
 62
250
  6
CONTINUOUS
 90
8
 70
0
 10
-1.5731911631
 20
27.3901881731
 10
-1.5920158362
 20
27.3973342337
 10
-1.6098694965
 20
27.4018908854
 10
-1.6264522406
 20
27.4037815862
 10
-1.6414855134
 20
27.4029745763
 10
-1.654716788
 20
27.3994834117
 10
-1.6659238071
 20
27.3933667367
 10
-1.6699915342
 20
27.3900279333
  0
LWPOLYLINE
  5
527
100
AcDbEntity
  8
ASSI
100
AcDbPolyline
 62
7
  6
CONTINUOUS
 90
6
 70
0
 10
-13.0330299797
 20
31.7088259118
 10
-13.0514812481
 20
31.7165761363
 10
-13.0696236451
 20
31.7212272739
 10
-13.0871426177
 20
31.7227018249
 10
-13.1037338163
 20
31.7209768831
 10
-13.1203690197
 20
31.7155157432
  0
LWPOLYLINE
  5
528
100
AcDbEntity
  8
0
100
AcDbPolyline
 62
250
  6
CONTINUOUS
 90
15
 70
0
 10
16.1772476891
 20
17.693205009
 10
16.1705529558
 20
17.6960380555
 10
16.1636264796
 20
17.6983595543
 10
16.1564837692
 20
17.7001642943
 10
16.1491409517
 20
17.7014481876
 10
16.141614705
 20
17.7022083313
 10
16.1339220708
 20
17.7024430456
 10
16.1260802582
 20
17.7021518459
 10
16.1181067592
 20
17.7013353962
 10
16.1100182818
 20
17.6999952917
 10
16.1018342105
 20
17.6981346304
 10
16.0935765397
 20
17.6957587355
 10
16.085265119
 20
17.6928740649
 10
16.0769174867
 20
17.6894874465
 10
16.0685524065
 20
17.6856071246
  0
LWPOLYLINE
  5
529
100
AcDbEntity
  8
0
100
AcDbPolyline
 62
250
  6
CONTINUOUS
 90
15
 70
0
 10
3.8736069129
 20
23.845025919
 10
3.8669136048
 20
23.8478599952
 10
3.8599885864
 20
23.8501826535
 10
3.8528474289
 20
23.8519886713
 10
3.8455061899
 20
23.8532739877
 10
3.8379813767
 20
23.8540357126
 10
3.8302899094
 20
23.854272133
 10
3.8224490829
 20
23.8539827174
 10
3.8144765278
 20
23.8531681167
 10
3.8063901711
 20
23.8518301624
 10
3.7982081955
 20
23.849971863
 10
3.7899489988
 20
23.8475973972
 10
3.7816311524
 20
23.8447121041
 10
3.7732733597
 20
23.8413224713
 10
3.7648944138
 20
23.837436121
  0
LWPOLYLINE
  5
52A
100
AcDbEntity
  8
ASSI
100
AcDbPolyline
 62
250
  6
CONTINUOUS
 90
6
 70
0
 10
0.0961967881
 20
25.6662244403
 10
0.0780448559
 20
25.6741134187
 10
0.0601611737
 20
25.6788843713
 10
0.0428516179
 20
25.6804556976
 10
0.026412245
 20
25.6788005221
 10
0.010113237
 20
25.6734936583
  0
LWPOLYLINE
  5
52B
100
AcDbEntity
  8
SUPERFICI
100
AcDbPolyline
 62
7
  6
CONTINUOUS
 90
16
 70
0
 10
-2.4520561315
 20
27.030816208
 10
-2.4750238545
 20
27.0411227941
 10
-2.4994049291
 20
27.050077634
 10
-2.5251993553
 20
27.0576807277
 10
-2.5526981762
 20
27.0639818984
 10
-2.5816103486
 20
27.068931323
 10
-2.6110627437
 20
27.072379532
 10
-2.6410718418
 20
27.0742807287
 10
-2.6716211624
 20
27.0746807097
 10
-2.7017881359
 20
27.073567396
 10
-2.7315610982
 20
27.0708946223
 10
-2.7609517133
 20
27.0667085538
 10
-2.7890724035
 20
27.0611356072
 10
-2.8156273097
 20
27.0542179212
 10
-2.8409122912
 20
27.045913357
 10
-2.8649273477
 20
27.0362219146
  0
LWPOLYLINE
  5
52C
100
AcDbEntity
  8
ASSI
100
AcDbPolyline
 62
250
  6
CONTINUOUS
 90
14
 70
0
 10
-5.1475170372
 20
27.1138688385
 10
-5.1562618619
 20
27.1178635396
 10
-5.1652344213
 20
27.1214288025
 10
-5.1744084445
 20
27.124508226
 10
-5.1837756377
 20
27.1270495053
 10
-5.193279115
 20
27.1289854659
 10
-5.2028163167
 20
27.1302503155
 10
-5.2123484604
 20
27.1307998326
 10
-5.2218331904
 20
27.1305910483
 10
-5.2311657592
 20
27.1295915584
 10
-5.2403051072
 20
27.1277778325
 10
-5.249208008
 20
27.1251293315
 10
-5.2577765206
 20
27.1216536188
 10
-5.2628685135
 20
27.1191035597
  0
LINE
  5
52D
100
AcDbEntity
  8
ASSI
100
AcDbLine
 62
7
  6
CONTINUOUS
 10
-12.3809301533
 20
31.9647366694
 11
-12.3952123604
 21
31.9712740228
  0
LINE
  5
52E
100
AcDbEntity
  8
ASSI
100
AcDbLine
 62
7
  6
CONTINUOUS
 10
0.2055590657
 20
25.6714919573
 11
0.1936364884
 21
25.6770332845
  0
LWPOLYLINE
  5
52F
100
AcDbEntity
  8
0
100
AcDbPolyline
 62
7
  6
CONTINUOUS
 90
18
 70
0
 10
3.8756693734
 20
23.8440260121
 10
3.8634635611
 20
23.8497231996
 10
3.8508412824
 20
23.8548020077
 10
3.8378410926
 20
23.8592239084
 10
3.8244865113
 20
23.862958181
 10
3.8108435235
 20
23.8659657675
 10
3.797019234
 20
23.8682111863
 10
3.7830881
 20
23.8696791384
 10
3.7690794113
 20
23.8703648482
 10
3.7550299148
 20
23.8702630136
 10
3.7409976025
 20
23.8693710921
 10
3.7270250564
 20
23.8676898081
 10
3.7131191972
 20
23.8652145668
 10
3.6992742912
 20
23.8619309408
 10
3.6855920325
 20
23.8578496041
 10
3.6722211028
 20
23.8530158985
 10
3.6591983817
 20
23.8474537818
 10
3.6543756633
 20
23.8451676774
  0
LWPOLYLINE
  5
530
100
AcDbEntity
  8
ASSI
100
AcDbPolyline
 62
250
  6
CONTINUOUS
 90
13
 70
0
 10
2.3072713512
 20
24.620637101
 10
2.3040767876
 20
24.6221589297
 10
2.2957414919
 20
24.6254652369
 10
2.2870680338
 20
24.6279837892
 10
2.2780864626
 20
24.6297074236
 10
2.268828705
 20
24.6306315135
 10
2.2593235977
 20
24.6307544134
 10
2.2496040875
 20
24.630076365
 10
2.23970368
 20
24.6286003446
 10
2.2296526406
 20
24.6263312878
 10
2.2194841564
 20
24.6232764281
 10
2.2092344143
 20
24.6194461987
 10
2.1989386138
 20
24.6148535275
  0
LWPOLYLINE
  5
531
100
AcDbEntity
  8
0
100
AcDbPolyline
 62
250
  6
CONTINUOUS
 90
16
 70
0
 10
17.8702069172
 20
16.8467572402
 10
17.8681444567
 20
16.8477571471
 10
17.8614511486
 20
16.8505912233
 10
17.8545261302
 20
16.8529138816
 10
17.8473849727
 20
16.8547198995
 10
17.8400437337
 20
16.8560052158
 10
17.8325189205
 20
16.8567669407
 10
17.8248274532
 20
16.8570033611
 10
17.8169866267
 20
16.8567139455
 10
17.8090140716
 20
16.8558993448
 10
17.8009277149
 20
16.8545613905
 10
17.7927457393
 20
16.8527030912
 10
17.7844865426
 20
16.8503286253
 10
17.7761686962
 20
16.8474433322
 10
17.7678109035
 20
16.8440536995
 10
17.7594319576
 20
16.8401673491
  0
LWPOLYLINE
  5
532
100
AcDbEntity
  8
0
100
AcDbPolyline
 62
250
  6
CONTINUOUS
 90
16
 70
0
 10
5.5665489245
 20
22.9985862365
 10
5.5644864641
 20
22.9995861435
 10
5.557793156
 20
23.0024202196
 10
5.5508681375
 20
23.0047428779
 10
5.5437269801
 20
23.0065488958
 10
5.5363857411
 20
23.0078342122
 10
5.5288609279
 20
23.008595937
 10
5.5211694606
 20
23.0088323574
 10
5.5133286341
 20
23.0085429419
 10
5.505356079
 20
23.0077283411
 10
5.4972697222
 20
23.0063903868
 10
5.4890877466
 20
23.0045320875
 10
5.4808285499
 20
23.0021576216
 10
5.4725107036
 20
22.9992723285
 10
5.4641529109
 20
22.9958826958
 10
5.455773965
 20
22.9919963454
  0
LINE
  5
533
100
AcDbEntity
  8
0
100
AcDbLine
 62
250
  6
CONTINUOUS
 10
3.8756693734
 20
23.8440260121
 11
3.8736069129
 21
23.845025919
  0
LWPOLYLINE
  5
534
100
AcDbEntity
  8
ASSI
100
AcDbPolyline
 62
250
  6
CONTINUOUS
 90
13
 70
0
 10
0.2052990206
 20
25.6716232664
 10
0.2040281268
 20
25.6722469292
 10
0.1955521449
 20
25.6758313632
 10
0.1867088798
 20
25.6786014137
 10
0.1775317302
 20
25.6805466972
 10
0.1680515315
 20
25.6816607578
 10
0.158303029
 20
25.681939284
 10
0.1483205582
 20
25.6813812497
 10
0.1381401127
 20
25.679988636
 10
0.1278003354
 20
25.6777667643
 10
0.1173389561
 20
25.6747242308
 10
0.106792545
 20
25.670872345
 10
0.0961987137
 20
25.6662253554
  0
LINE
  5
535
100
AcDbEntity
  8
ASSI
100
AcDbLine
 62
7
  6
CONTINUOUS
 10
-13.0330299797
 20
31.7088259118
 11
-10.9116665578
 21
30.6481442009
  0
LINE
  5
536
100
AcDbEntity
  8
ASSI
100
AcDbLine
 62
7
  6
CONTINUOUS
 10
-0.4465292746
 20
25.4155755592
 11
1.6748341473
 21
24.3548938483
  0
LINE
  5
537
100
AcDbEntity
  8
0
100
AcDbLine
 62
7
  6
CONTINUOUS
 10
17.2311647859
 20
16.576728529
 11
15.5341025278
 21
17.4252596581
  0
LINE
  5
538
100
AcDbEntity
  8
0
100
AcDbLine
 62
7
  6
CONTINUOUS
 10
4.9275067932
 20
22.7285575253
 11
3.2304445351
 21
23.5770886544
  0
LINE
  5
539
100
AcDbEntity
  8
ASSI
100
AcDbLine
 62
7
  6
CONTINUOUS
 10
-2.2934308509
 20
26.5566243506
 11
-4.2602348877
 21
27.540026369
  0
LINE
  5
53A
100
AcDbEntity
  8
ASSI
100
AcDbLine
 62
7
  6
CONTINUOUS
 10
-5.768314348
 20
28.2940660991
 11
-7.7351183848
 21
29.2774681175
  0
LINE
  5
53B
100
AcDbEntity
  8
0
100
AcDbLine
 62
7
  6
CONTINUOUS
 10
13.4127851758
 20
18.7549740249
 11
11.7864395791
 21
19.5681468233
  0
LINE
  5
53C
100
AcDbEntity
  8
0
100
AcDbLine
 62
7
  6
CONTINUOUS
 10
10.0893833043
 20
20.4166749607
 11
8.4630377075
 21
21.2298477591
  0
LINE
  5
53D
100
AcDbEntity
  8
ASSI
100
AcDbLine
 62
250
  6
CONTINUOUS
 10
2.1989386138
 20
24.6148535275
 11
0.0961987405
 21
25.666225342
  0
LINE
  5
53E
100
AcDbEntity
  8
ASSI
100
AcDbLine
 62
250
  6
CONTINUOUS
 10
-10.3875620913
 20
30.90810388
 11
-12.490303917
 21
31.9594747929
  0
LINE
  5
53F
100
AcDbEntity
  8
0
100
AcDbLine
 62
250
  6
CONTINUOUS
 10
3.7648944138
 20
23.837436121
 11
5.455773965
 21
22.9919963454
  0
LINE
  5
540
100
AcDbEntity
  8
0
100
AcDbLine
 62
250
  6
CONTINUOUS
 10
16.0685524065
 20
17.6856071246
 11
17.7594319576
 21
16.8401673491
  0
LINE
  5
541
100
AcDbEntity
  8
0
100
AcDbLine
 62
7
  6
CONTINUOUS
 10
3.8756693734
 20
23.8440260121
 11
5.5665489245
 21
22.9985862365
  0
LINE
  5
542
100
AcDbEntity
  8
0
100
AcDbLine
 62
7
  6
CONTINUOUS
 10
16.179327366
 20
17.6921970157
 11
17.8702069172
 21
16.8467572402
  0
LINE
  5
543
100
AcDbEntity
  8
SUPERFICI
100
AcDbLine
 62
7
  6
CONTINUOUS
 10
-2.1961393659
 20
26.9028578252
 11
-2.4520561315
 21
27.030816208
  0
LINE
  5
544
100
AcDbEntity
  8
SUPERFICI
100
AcDbLine
 62
250
  6
CONTINUOUS
 10
-2.4520561315
 20
28.0134008678
 11
-1.6936505328
 21
27.6341980685
  0
LINE
  5
545
100
AcDbEntity
  8
SUPERFICI
100
AcDbLine
 62
250
  6
CONTINUOUS
 10
-2.3496157839
 20
28.2311164512
 11
-1.5912101853
 21
27.8519136519
  0
LINE
  5
546
100
AcDbEntity
  8
SUPERFICI
100
AcDbLine
 62
7
  6
CONTINUOUS
 10
-3.062802825
 20
28.8314678325
 11
-0.424832636
 21
27.512482738
  0
LINE
  5
547
100
AcDbEntity
  8
SUPERFICI
100
AcDbLine
 62
250
  6
CONTINUOUS
 10
0.1911194047
 20
27.8075665797
 11
-2.093060413
 21
28.9496564885
  0
LINE
  5
548
100
AcDbEntity
  8
SUPERFICI
100
AcDbLine
 62
7
  6
CONTINUOUS
 10
1.5167396643
 20
27.1939306435
 11
1.4800681739
 21
27.2122663887
  0
LINE
  5
549
100
AcDbEntity
  8
SUPERFICI
100
AcDbLine
 62
7
  6
CONTINUOUS
 10
0.2413448414
 20
27.831628055
 11
-2.0048518123
 21
28.9547263818
  0
LINE
  5
54A
100
AcDbEntity
  8
ASSI
100
AcDbLine
 62
7
  6
CONTINUOUS
 10
-12.3812064396
 20
31.9648759966
 11
-10.2791472171
 21
30.9138463418
  0
LINE
  5
54B
100
AcDbEntity
  8
ASSI
100
AcDbLine
 62
7
  6
CONTINUOUS
 10
2.3073829742
 20
24.6205812058
 11
0.2052933658
 21
25.671626094
  0
LWPOLYLINE
  5
54C
100
AcDbEntity
  8
0
100
AcDbPolyline
 62
250
  6
CONTINUOUS
 90
34
 70
0
 10
5.455773965
 20
22.9919963454
 10
5.4642188824
 20
22.9875768218
 10
5.4726460244
 20
22.9826750926
 10
5.481036308
 20
22.9773016224
 10
5.4893718806
 20
22.9714671001
 10
5.4976325749
 20
22.9651848912
 10
5.5057960778
 20
22.9584716401
 10
5.5138426977
 20
22.9513436547
 10
5.5217554309
 20
22.9438161136
 10
5.5295164943
 20
22.9359059197
 10
5.5371083957
 20
22.9276308606
 10
5.544513819
 20
22.9190097691
 10
5.5517158223
 20
22.910062355
 10
5.558698025
 20
22.9008089817
 10
5.5654446771
 20
22.891270536
 10
5.5719405357
 20
22.8814685675
 10
5.5781708969
 20
22.871425254
 10
5.5841216226
 20
22.8611633761
 10
5.5897792163
 20
22.8507062023
 10
5.5951308546
 20
22.8400774311
 10
5.6001644128
 20
22.8293011393
 10
5.6048684827
 20
22.818401747
 10
5.6092324046
 20
22.8074039483
 10
5.6132462882
 20
22.7963326637
 10
5.6169010344
 20
22.7852129875
 10
5.6201883608
 20
22.7740701169
 10
5.6231008184
 20
22.7629292984
 10
5.6256318066
 20
22.7518157791
 10
5.6277755907
 20
22.7407547355
 10
5.6295273115
 20
22.7297712361
 10
5.6308829973
 20
22.7188901867
 10
5.6318395774
 20
22.7081362481
 10
5.6323948867
 20
22.6975337804
 10
5.6325476686
 20
22.6871068066
  0
LWPOLYLINE
  5
54D
100
AcDbEntity
  8
0
100
AcDbPolyline
 62
250
  6
CONTINUOUS
 90
34
 70
0
 10
17.7594319576
 20
16.8401673491
 10
17.7678768751
 20
16.8357478255
 10
17.776304017
 20
16.8308460963
 10
17.7846943006
 20
16.8254726261
 10
17.7930298733
 20
16.8196381037
 10
17.8012905676
 20
16.8133558949
 10
17.8094540705
 20
16.8066426438
 10
17.8175006903
 20
16.7995146584
 10
17.8254134236
 20
16.7919871173
 10
17.833174487
 20
16.7840769233
 10
17.8407663883
 20
16.7758018643
 10
17.8481718117
 20
16.7671807728
 10
17.8553738149
 20
16.7582333587
 10
17.8623560177
 20
16.7489799854
 10
17.8691026697
 20
16.7394415397
 10
17.8755985284
 20
16.7296395711
 10
17.8818288896
 20
16.7195962577
 10
17.8877796152
 20
16.7093343798
 10
17.8934372089
 20
16.698877206
 10
17.8987888472
 20
16.6882484348
 10
17.9038224055
 20
16.677472143
 10
17.9085264754
 20
16.6665727507
 10
17.9128903972
 20
16.6555749519
 10
17.9169042808
 20
16.6445036674
 10
17.920559027
 20
16.6333839912
 10
17.9238463534
 20
16.6222411206
 10
17.9267588111
 20
16.6111003021
 10
17.9292897992
 20
16.5999867827
 10
17.9314335833
 20
16.5889257392
 10
17.9331853042
 20
16.5779422398
 10
17.93454099
 20
16.5670611904
 10
17.93549757
 20
16.5563072518
 10
17.9360528794
 20
16.5457047841
 10
17.9362056613
 20
16.5352778102
  0
LWPOLYLINE
  5
54E
100
AcDbEntity
  8
0
100
AcDbPolyline
 62
7
  6
CONTINUOUS
 90
34
 70
0
 10
17.2311647859
 20
16.576728529
 10
17.2395758613
 20
16.5722776146
 10
17.2479680789
 20
16.5673464442
 10
17.2563223266
 20
16.5619461346
 10
17.2646195006
 20
16.5560888259
 10
17.272840799
 20
16.5497877811
 10
17.2809677648
 20
16.543057356
 10
17.2889819301
 20
16.5359127652
 10
17.2968650495
 20
16.5283701459
 10
17.3045993917
 20
16.5204466489
 10
17.3121673992
 20
16.5121602028
 10
17.3195518562
 20
16.5035295414
 10
17.3267361187
 20
16.4945742618
 10
17.3337038974
 20
16.4853146413
 10
17.3404393566
 20
16.4757716293
 10
17.3469272793
 20
16.4659668695
 10
17.3531529759
 20
16.4559225755
 10
17.3591023139
 20
16.4456614854
 10
17.3647618133
 20
16.4352068485
 10
17.3701186837
 20
16.4245823621
 10
17.3751607833
 20
16.4138120898
 10
17.3798766445
 20
16.4029204125
 10
17.3842556363
 20
16.3919320285
 10
17.3882878552
 20
16.3808718367
 10
17.3919640791
 20
16.3697648523
 10
17.3952760534
 20
16.3586362715
 10
17.3982163143
 20
16.3475113214
 10
17.4007780729
 20
16.3364151415
 10
17.4029556188
 20
16.3253729129
 10
17.4047440797
 20
16.3144096767
 10
17.4061392381
 20
16.303550185
 10
17.4071379417
 20
16.2928190397
 10
17.4077381107
 20
16.2822406374
 10
17.4079384895
 20
16.2718389902
  0
LWPOLYLINE
  5
54F
100
AcDbEntity
  8
0
100
AcDbPolyline
 62
7
  6
CONTINUOUS
 90
22
 70
0
 10
5.5665489245
 20
22.9985862365
 10
5.5782054904
 20
22.9923676522
 10
5.5895608731
 20
22.9855140462
 10
5.6005717186
 20
22.9780427821
 10
5.6112002807
 20
22.9699715143
 10
5.6214017693
 20
22.9613277588
 10
5.6311266931
 20
22.9521507789
 10
5.6403012116
 20
22.9425177549
 10
5.6489394807
 20
22.9324237388
 10
5.6571099753
 20
22.9217739533
 10
5.6648107713
 20
22.9105249751
 10
5.6719442952
 20
22.8987723884
 10
5.6784312993
 20
22.8866247462
 10
5.6842349312
 20
22.8741490541
 10
5.6893455748
 20
22.8613670353
 10
5.693744613
 20
22.8483240788
 10
5.6974162044
 20
22.8350705494
 10
5.7003511898
 20
22.8216469607
 10
5.7025448398
 20
22.8080777758
 10
5.7039906117
 20
22.7943930149
 10
5.7046812962
 20
22.7806460529
 10
5.7047455253
 20
22.7749862247
  0
LWPOLYLINE
  5
550
100
AcDbEntity
  8
0
100
AcDbPolyline
 62
7
  6
CONTINUOUS
 90
22
 70
0
 10
17.8702069172
 20
16.8467572402
 10
17.8818634831
 20
16.8405386559
 10
17.8932188658
 20
16.8336850499
 10
17.9042297113
 20
16.8262137858
 10
17.9148582734
 20
16.818142518
 10
17.9250597619
 20
16.8094987625
 10
17.9347846857
 20
16.8003217826
 10
17.9439592043
 20
16.7906887585
 10
17.9525974733
 20
16.7805947425
 10
17.960767968
 20
16.769944957
 10
17.9684687639
 20
16.7586959788
 10
17.9756022879
 20
16.7469433921
 10
17.9820892919
 20
16.7347957498
 10
17.9878929239
 20
16.7223200578
 10
17.9930035674
 20
16.7095380389
 10
17.9974026057
 20
16.6964950824
 10
18.001074197
 20
16.6832415531
 10
18.0040091825
 20
16.6698179644
 10
18.0062028324
 20
16.6562487795
 10
18.0076486043
 20
16.6425640186
 10
18.0083392889
 20
16.6288170566
 10
18.0084035179
 20
16.6231572284
  0
LWPOLYLINE
  5
551
100
AcDbEntity
  8
SUPERFICI
100
AcDbPolyline
 62
250
  6
CONTINUOUS
 90
15
 70
0
 10
-1.5912101853
 20
27.8519136519
 10
-1.5576282089
 20
27.832670526
 10
-1.5283116208
 20
27.8110471231
 10
-1.5032604211
 20
27.7870434433
 10
-1.482271229
 20
27.7604110947
 10
-1.4655474253
 20
27.7313984691
 10
-1.4536991522
 20
27.7007507427
 10
-1.4468423586
 20
27.668390795
 10
-1.4448610955
 20
27.6343957465
 10
-1.4480176584
 20
27.5997421343
 10
-1.4564803976
 20
27.5643760456
 10
-1.4700809628
 20
27.5283513933
 10
-1.4885765975
 20
27.4928064523
 10
-1.5118863831
 20
27.4581206478
 10
-1.5400912383
 20
27.4239145547
  0
LWPOLYLINE
  5
552
100
AcDbEntity
  8
ASSI
100
AcDbPolyline
 62
250
  6
CONTINUOUS
 90
13
 70
0
 10
-4.4200381543
 20
30.8626562671
 10
-4.3973841149
 20
30.8495029953
 10
-4.3751555952
 20
30.8329604269
 10
-4.3537203572
 20
30.8133021081
 10
-4.3334330816
 20
30.7908531743
 10
-4.3146294374
 20
30.7659849094
 10
-4.2976205424
 20
30.7391085842
 10
-4.2826878701
 20
30.710668715
 10
-4.2700786471
 20
30.6811358694
 10
-4.2600016696
 20
30.6509988142
 10
-4.2526237767
 20
30.6207562573
 10
-4.2480671251
 20
30.5909085839
 10
-4.2464072114
 20
30.5619497198
  0
LWPOLYLINE
  5
553
100
AcDbEntity
  8
SUPERFICI
100
AcDbPolyline
 62
250
  6
CONTINUOUS
 90
9
 70
0
 10
-1.6936505328
 20
27.6341980685
 10
-1.6737693564
 20
27.6225840777
 10
-1.6561076246
 20
27.6088395956
 10
-1.6408560497
 20
27.5930749102
 10
-1.628191466
 20
27.5753811478
 10
-1.6182477702
 20
27.5559168627
 10
-1.611133157
 20
27.5349035107
 10
-1.6069567403
 20
27.5124388975
 10
-1.6057826036
 20
27.4918371466
  0
LWPOLYLINE
  5
554
100
AcDbEntity
  8
0
100
AcDbPolyline
 62
250
  6
CONTINUOUS
 90
16
 70
0
 10
17.9362056613
 20
16.1877462935
 10
17.940178375
 20
16.1810514183
 10
17.9437408337
 20
16.1745699765
 10
17.9468849969
 20
16.1683165961
 10
17.9496037686
 20
16.1623053907
 10
17.9518910126
 20
16.1565499273
 10
17.9537415668
 20
16.1510631956
 10
17.9551512545
 20
16.1458575789
 10
17.9561168943
 20
16.1409448258
 10
17.9566363066
 20
16.1363360242
 10
17.9567083192
 20
16.1320415759
 10
17.9563327696
 20
16.1280711732
 10
17.9555105053
 20
16.124433777
 10
17.9542433823
 20
16.1211375968
 10
17.9525342602
 20
16.1181900719
 10
17.9515662337
 20
16.1169111269
  0
LINE
  5
555
100
AcDbEntity
  8
0
100
AcDbLine
 62
7
  6
CONTINUOUS
 10
18.8162897659
 20
12.8754323872
 11
19.5172257197
 21
11.6664966957
  0
LINE
  5
556
100
AcDbEntity
  8
SUPERFICI
100
AcDbLine
 62
7
  6
CONTINUOUS
 10
12.802736531
 20
30.3725570196
 11
12.8118519897
 21
30.3486632185
  0
LWPOLYLINE
  5
557
100
AcDbEntity
  8
SUPERFICI
100
AcDbPolyline
 62
250
  6
CONTINUOUS
 90
35
 70
0
 10
18.3339582897
 20
23.9690945852
 10
18.345555816
 20
23.9322196647
 10
18.3654933235
 20
23.8593057932
 10
18.3818073205
 20
23.7883340428
 10
18.3954030808
 20
23.7192677078
 10
18.4064608377
 20
23.6522888386
 10
18.4149882126
 20
23.5873653371
 10
18.4215878941
 20
23.524113774
 10
18.426400308
 20
23.4625550856
 10
18.4294198475
 20
23.4027602799
 10
18.4309919856
 20
23.344401575
 10
18.4312081645
 20
23.2874308456
 10
18.4300772174
 20
23.2319544523
 10
18.4277993894
 20
23.1778663504
 10
18.4244382438
 20
23.1251518369
 10
18.4200156677
 20
23.0738657125
 10
18.4146607507
 20
23.024001776
 10
18.4084320112
 20
22.9755855324
 10
18.401348243
 20
22.9286195776
 10
18.3934741594
 20
22.8830605325
 10
18.3848674752
 20
22.8389239065
 10
18.3755384396
 20
22.7962127963
 10
18.3654765211
 20
22.7548627681
 10
18.3547269294
 20
22.7148352113
 10
18.3433033746
 20
22.6761801752
 10
18.3311474053
 20
22.6389644991
 10
18.3182949618
 20
22.6031374488
 10
18.3047650741
 20
22.5687567629
 10
18.2904778816
 20
22.5360512001
 10
18.2754664237
 20
22.5049835553
 10
18.2597503254
 20
22.4755959106
 10
18.2432352411
 20
22.4482360403
 10
18.2259069631
 20
22.423021777
 10
18.2078261281
 20
22.3998408012
 10
18.1890102992
 20
22.378696268
  0
LWPOLYLINE
  5
558
100
AcDbEntity
  8
0
100
AcDbPolyline
 62
250
  6
CONTINUOUS
 90
34
 70
0
 10
17.9362056613
 20
-25.1118578459
 10
17.940178446
 20
-25.1007422341
 10
17.94374096
 20
-25.0894533798
 10
17.9468851626
 20
-25.0780167621
 10
17.9496039559
 20
-25.0664582003
 10
17.9518912053
 20
-25.0548037759
 10
17.9537417511
 20
-25.0430797737
 10
17.955151416
 20
-25.0313126397
 10
17.9561170135
 20
-25.0195289477
 10
17.9566363612
 20
-25.00775532
 10
17.9567082877
 20
-24.9960183405
 10
17.9563326322
 20
-24.9843444896
 10
17.9555102428
 20
-24.972760111
 10
17.9542429756
 20
-24.9612913496
 10
17.9525336911
 20
-24.9499640922
 10
17.9503862475
 20
-24.9388039046
 10
17.9478054917
 20
-24.9278359761
 10
17.9447972489
 20
-24.9170850613
 10
17.9413683083
 20
-24.9065754241
 10
17.9375264098
 20
-24.8963307867
 10
17.9332802243
 20
-24.88637427
 10
17.9286393323
 20
-24.8767283402
 10
17.9236142015
 20
-24.8674147577
 10
17.9182161785
 20
-24.8584545567
 10
17.9124574645
 20
-24.8498679873
 10
17.9063510712
 20
-24.8416744416
 10
17.8999107732
 20
-24.8338923937
 10
17.8931510917
 20
-24.8265393871
 10
17.8860871005
 20
-24.8196318483
 10
17.8787349113
 20
-24.8131855605
 10
17.87111169
 20
-24.8072154956
 10
17.863234895
 20
-24.8017351487
 10
17.8551221694
 20
-24.7967566236
 10
17.8467918659
 20
-24.7922910399
  0
LINE
  5
559
100
AcDbEntity
  8
0
100
AcDbLine
 62
7
  6
CONTINUOUS
 10
19.5172257197
 20
-20.4059182322
 11
18.8162897659
 21
-20.9139179699
  0
LINE
  5
55A
100
AcDbEntity
  8
0
100
AcDbLine
 62
7
  6
CONTINUOUS
 10
24.0726289972
 20
-18.0236585674
 11
19.5172257197
 21
-20.3822876601
  0
LINE
  5
55B
100
AcDbEntity
  8
RACCORDO
100
AcDbLine
 62
7
  6
CONTINUOUS
 10
23.6711225938
 20
-17.6157095703
 11
19.5172257197
 21
-19.7292276547
  0
LINE
  5
55C
100
AcDbEntity
  8
0
100
AcDbLine
 62
7
  6
CONTINUOUS
 10
23.1848932036
 20
-19.1789871825
 11
18.8162897659
 21
-21.3689679305
  0
LINE
  5
55D
100
AcDbEntity
  8
RACCORDO
100
AcDbLine
 62
7
  6
CONTINUOUS
 10
23.6711225938
 20
-16.6581153196
 11
19.5172257197
 21
-18.726844916
  0
LINE
  5
55E
100
AcDbEntity
  8
0
100
AcDbLine
 62
7
  6
CONTINUOUS
 10
18.8162897659
 20
-20.7549993473
 11
19.5172257197
 21
-20.4059182322
  0
LINE
  5
55F
100
AcDbEntity
  8
0
100
AcDbLine
 62
7
  6
CONTINUOUS
 10
24.0726289972
 20
-18.6155267405
 11
18.8162897659
 21
-21.2227097495
  0
LWPOLYLINE
  5
560
100
AcDbEntity
  8
ASSI
100
AcDbPolyline
 62
7
  6
CONTINUOUS
 90
3
 70
0
 10
4.5039671461
 20
28.8491609935
 10
4.4464431559
 20
28.8345517854
 10
4.388614981
 20
28.8144811592
  0
LWPOLYLINE
  5
561
100
AcDbEntity
  8
ASSI
100
AcDbPolyline
 62
7
  6
CONTINUOUS
 90
4
 70
0
 10
-0.5006419126
 20
25.4294514724
 10
-0.483131492
 20
25.4279726454
 10
-0.464991988
 20
25.4233200612
 10
-0.4465292746
 20
25.4155755592
  0
LWPOLYLINE
  5
562
100
AcDbEntity
  8
ASSI
100
AcDbPolyline
 62
7
  6
CONTINUOUS
 90
4
 70
0
 10
-5.0043035174
 20
27.2449744714
 10
-4.9824154917
 20
27.2431259377
 10
-4.9597411117
 20
27.2373102074
 10
-4.9366627199
 20
27.22762958
  0
LWPOLYLINE
  5
563
100
AcDbEntity
  8
ASSI
100
AcDbPolyline
 62
250
  6
CONTINUOUS
 90
12
 70
0
 10
-12.58995974
 20
29.0569047407
 10
-12.5808615747
 20
29.0553409123
 10
-12.5607203013
 20
29.0543826156
 10
-12.5403715246
 20
29.0567775284
 10
-12.5201595668
 20
29.0624851239
 10
-12.5004264362
 20
29.0714088204
 10
-12.481506037
 20
29.0833976158
 10
-12.463718518
 20
29.0982486454
 10
-12.4473648583
 20
29.1157106144
 10
-12.4327217753
 20
29.1354880485
 10
-12.4200370425
 20
29.1572462929
 10
-12.4095252956
 20
29.1806171766
  0
LWPOLYLINE
  5
564
100
AcDbEntity
  8
SUPERFICI
100
AcDbPolyline
 62
250
  6
CONTINUOUS
 90
13
 70
0
 10
-2.093060413
 20
28.9496564885
 10
-2.1627826429
 20
28.9632312332
 10
-2.2335244418
 20
28.9734947344
 10
-2.3052858097
 20
28.9804469919
 10
-2.378725186
 20
28.9840973665
 10
-2.4531841312
 20
28.9844364975
 10
-2.526687327
 20
28.9814363029
 10
-2.5992118372
 20
28.9749917412
 10
-2.6707805979
 20
28.9652078539
 10
-2.7394870992
 20
28.9523716834
 10
-2.8046958376
 20
28.9365789106
 10
-2.8670423165
 20
28.9177338546
 10
-2.926526536
 20
28.8958365154
  0
LINE
  5
565
100
AcDbEntity
  8
SUPERFICI
100
AcDbLine
 62
7
  6
CONTINUOUS
 10
-2.0508652437
 20
28.9710687515
 11
-2.1302889358
 21
28.9866031387
  0
LINE
  5
566
100
AcDbEntity
  8
ASSI
100
AcDbLine
 62
7
  6
CONTINUOUS
 10
-12.7501657281
 20
28.6880802663
 11
-13.2928917908
 21
28.8032095838
  0
LINE
  5
567
100
AcDbEntity
  8
ASSI
100
AcDbLine
 62
250
  6
CONTINUOUS
 10
-11.6727174914
 20
29.0243169996
 11
-12.4095252956
 21
29.1806171766
  0
LINE
  5
568
100
AcDbEntity
  8
ASSI
100
AcDbLine
 62
7
  6
CONTINUOUS
 10
-12.5900423336
 20
29.056922292
 11
-11.9491434355
 21
28.9209673887
  0
LINE
  5
569
100
AcDbEntity
  8
INCISIONI_LASER
100
AcDbLine
 62
250
  6
CONTINUOUS
 10
17.1652557322
 20
24.0366541531
 11
16.6117216428
 21
24.162055548
  0
LWPOLYLINE
  5
56A
100
AcDbEntity
  8
ASSI
100
AcDbPolyline
 62
250
  6
CONTINUOUS
 90
19
 70
0
 10
-12.4095252956
 20
29.1806171766
 10
-12.4110663327
 20
29.1809893682
 10
-12.4125822269
 20
29.1815065674
 10
-12.4140729781
 20
29.1821687743
 10
-12.4155508164
 20
29.1829721153
 10
-12.4170035117
 20
29.1839204639
 10
-12.4183943739
 20
29.1850254405
 10
-12.4197222461
 20
29.1862923983
 10
-12.4209882851
 20
29.187715984
 10
-12.422159271
 20
29.1892917588
 10
-12.4232325806
 20
29.1910251946
 10
-12.4242108372
 20
29.1929108196
 10
-12.4250686912
 20
29.1949277791
 10
-12.4258023272
 20
29.1970807227
 10
-12.4264155605
 20
29.1993650009
 10
-12.4268944878
 20
29.2017458105
 10
-12.4272344746
 20
29.2042115504
 10
-12.4274401553
 20
29.2067738216
 10
-12.42751153
 20
29.2094326242
  0
LWPOLYLINE
  5
56B
100
AcDbEntity
  8
SUPERFICI
100
AcDbPolyline
 62
7
  6
CONTINUOUS
 90
7
 70
0
 10
-2.0508721013
 20
28.971070276
 10
-2.0430114186
 20
28.9691542705
 10
-2.0339153657
 20
28.9665091274
 10
-2.024951982
 20
28.9634352154
 10
-2.016131699
 20
28.9599348643
 10
-2.0074742376
 20
28.9560137387
 10
-2.0048336794
 20
28.9547173123
  0
LWPOLYLINE
  5
56C
100
AcDbEntity
  8
ASSI
100
AcDbPolyline
 62
7
  6
CONTINUOUS
 90
5
 70
0
 10
1.2603660021
 20
28.1671668888
 10
1.2217633349
 20
28.1785676672
 10
1.1814868058
 20
28.1866723048
 10
1.139530751
 20
28.1914327927
 10
1.0979681492
 20
28.1926941921
  0
LWPOLYLINE
  5
56D
100
AcDbEntity
  8
ASSI
100
AcDbPolyline
 62
7
  6
CONTINUOUS
 90
8
 70
0
 10
-12.3952123604
 20
31.9712740228
 10
-12.4164407065
 20
31.9788355498
 10
-12.4384829713
 20
31.9842142329
 10
-12.4611096326
 20
31.9873178409
 10
-12.4841687358
 20
31.9880804038
 10
-12.5074307506
 20
31.9864399138
 10
-12.530552937
 20
31.9823867903
 10
-12.5532764126
 20
31.9759548365
  0
LWPOLYLINE
  5
56E
100
AcDbEntity
  8
ASSI
100
AcDbPolyline
 62
250
  6
CONTINUOUS
 90
6
 70
0
 10
-4.5995023052
 20
30.9539647907
 10
-4.6221922204
 20
30.9638260136
 10
-4.644546823
 20
30.9697897045
 10
-4.6661837675
 20
30.9717538625
 10
-4.6867329832
 20
30.9696848933
 10
-4.7074071601
 20
30.9629132179
  0
LWPOLYLINE
  5
56F
100
AcDbEntity
  8
0
100
AcDbPolyline
 62
7
  6
CONTINUOUS
 90
17
 70
0
 10
11.8038289769
 20
22.8447541668
 10
11.8029969277
 20
22.8451336029
 10
11.7993733466
 20
22.8461695647
 10
11.7949257766
 20
22.8466405727
 10
11.7896640767
 20
22.8465839633
 10
11.7836120976
 20
22.8460214495
 10
11.7768095758
 20
22.8449613317
 10
11.7692660203
 20
22.8434224551
 10
11.7609911066
 20
22.8414100772
 10
11.7520280579
 20
22.8389460813
 10
11.7424373746
 20
22.8360725207
 10
11.7322584252
 20
22.8327882307
 10
11.7215246107
 20
22.8291112678
 10
11.7102987575
 20
22.8251075876
 10
11.6986302066
 20
22.8208008915
 10
11.6865498406
 20
22.8161743597
 10
11.6740962475
 20
22.8112299646
  0
LWPOLYLINE
  5
570
100
AcDbEntity
  8
0
100
AcDbPolyline
 62
7
  6
CONTINUOUS
 90
17
 70
0
 10
17.4025314555
 20
20.0454034434
 10
17.40191414
 20
20.0456921649
 10
17.3983640543
 20
20.0467640016
 10
17.393992967
 20
20.0472732402
 10
17.3888135339
 20
20.0472581863
 10
17.3828521926
 20
20.0467401113
 10
17.3761482246
 20
20.0457271203
 10
17.3687098698
 20
20.0442392776
 10
17.3605467727
 20
20.0422823152
 10
17.351702252
 20
20.0398771511
 10
17.3422345677
 20
20.0370651318
 10
17.3321823352
 20
20.0338454286
 10
17.3215787533
 20
20.0302355959
 10
17.3104845251
 20
20.0262998883
 10
17.2989477272
 20
20.0220615352
 10
17.286999119
 20
20.017504358
 10
17.2746766671
 20
20.0126304333
  0
LINE
  5
571
100
AcDbEntity
  8
SUPERFICI
100
AcDbLine
 62
250
  6
CONTINUOUS
 10
-2.0082854837
 20
28.9563360692
 11
-2.0048446543
 21
28.9547228023
  0
LWPOLYLINE
  5
572
100
AcDbEntity
  8
0
100
AcDbPolyline
 62
7
  6
CONTINUOUS
 90
21
 70
0
 10
16.3348727046
 20
23.1809680917
 10
16.3248716204
 20
23.1857850622
 10
16.3053049649
 20
23.1941893219
 10
16.2852075153
 20
23.2015027309
 10
16.2645949218
 20
23.207723613
 10
16.2435625794
 20
23.2128229348
 10
16.2221224875
 20
23.2167934886
 10
16.2002626466
 20
23.2196424822
 10
16.1780424531
 20
23.2213625057
 10
16.155448186
 20
23.2219504341
 10
16.1324935663
 20
23.2214093923
 10
16.1092791524
 20
23.219741346
 10
16.0858145542
 20
23.2169428547
 10
16.0620901618
 20
23.2130173588
 10
16.0381777044
 20
23.2079771452
 10
16.0140686616
 20
23.2018168045
 10
15.9897715538
 20
23.1945417461
 10
15.9653836715
 20
23.1861804856
 10
15.9409374447
 20
23.176742528
 10
15.9164004433
 20
23.1662183682
 10
15.8917726673
 20
23.1546080062
  0
LINE
  5
573
100
AcDbEntity
  8
ASSI
100
AcDbLine
 62
7
  6
CONTINUOUS
 10
1.8794314974
 20
27.5867665829
 11
1.4835762475
 21
27.7846942078
  0
LINE
  5
574
100
AcDbEntity
  8
ASSI
100
AcDbLine
 62
7
  6
CONTINUOUS
 10
0.8278015237
 20
28.1125815697
 11
-1.7195422494
 21
29.3862534563
  0
LINE
  5
575
100
AcDbEntity
  8
0
100
AcDbLine
 62
250
  6
CONTINUOUS
 10
17.2459359974
 20
19.9997486043
 11
16.5968225698
 21
20.3243053181
  0
LINE
  5
576
100
AcDbEntity
  8
0
100
AcDbLine
 62
250
  6
CONTINUOUS
 10
11.6470751015
 20
22.7991790522
 11
10.997961674
 21
23.123735766
  0
LINE
  5
577
100
AcDbEntity
  8
0
100
AcDbLine
 62
7
  6
CONTINUOUS
 10
17.4023961932
 20
20.0454732482
 11
16.8833411131
 21
20.3050007882
  0
LINE
  5
578
100
AcDbEntity
  8
0
100
AcDbLine
 62
7
  6
CONTINUOUS
 10
11.8036522462
 20
22.8448452217
 11
11.2845971328
 21
23.1043727784
  0
LINE
  5
579
100
AcDbEntity
  8
0
100
AcDbLine
 62
7
  6
CONTINUOUS
 10
14.8462817682
 20
22.0810963585
 11
18.5267007304
 21
20.2408868774
  0
LINE
  5
57A
100
AcDbEntity
  8
ASSI
100
AcDbLine
 62
7
  6
CONTINUOUS
 10
2.8493266393
 20
28.0795739229
 11
-1.1100844829
 21
30.059279484
  0
LINE
  5
57B
100
AcDbEntity
  8
SUPERFICI
100
AcDbLine
 62
7
  6
CONTINUOUS
 10
8.977598431
 20
25.8766350604
 11
8.2291793376
 21
26.2508446071
  0
LINE
  5
57C
100
AcDbEntity
  8
ASSI
100
AcDbLine
 62
7
  6
CONTINUOUS
 10
0.5660733505
 20
30.1902616269
 11
3.8392551388
 21
28.5536707328
  0
LINE
  5
57D
100
AcDbEntity
  8
0
100
AcDbLine
 62
7
  6
CONTINUOUS
 10
19.5027162492
 20
20.7219401776
 11
16.5947656912
 21
22.1759154566
  0
LINE
  5
57E
100
AcDbEntity
  8
SUPERFICI
100
AcDbLine
 62
7
  6
CONTINUOUS
 10
3.3562144921
 20
28.8225461111
 11
0.5656834863
 21
30.217811614
  0
LINE
  5
57F
100
AcDbEntity
  8
ASSI
100
AcDbLine
 62
250
  6
CONTINUOUS
 10
-3.0549428718
 20
32.5250986719
 11
-0.2016075895
 21
31.0984310307
  0
LINE
  5
580
100
AcDbEntity
  8
ASSI
100
AcDbLine
 62
250
  6
CONTINUOUS
 10
4.4244423731
 20
28.7854060495
 11
7.2777776554
 21
27.3587384083
  0
LINE
  5
581
100
AcDbEntity
  8
0
100
AcDbLine
 62
250
  6
CONTINUOUS
 10
12.8412928181
 20
24.6798479308
 11
15.8917726673
 21
23.1546080062
  0
LINE
  5
582
100
AcDbEntity
  8
0
100
AcDbLine
 62
250
  6
CONTINUOUS
 10
20.1344133544
 20
21.0332876626
 11
23.1848932036
 21
19.508047738
  0
LINE
  5
583
100
AcDbEntity
  8
ASSI
100
AcDbLine
 62
7
  6
CONTINUOUS
 10
4.8570898788
 20
28.8088820665
 11
7.8677768013
 21
27.3035386052
  0
LINE
  5
584
100
AcDbEntity
  8
0
100
AcDbLine
 62
7
  6
CONTINUOUS
 10
13.124892202
 20
24.7859577224
 11
16.3348725055
 21
23.1809675706
  0
LINE
  5
585
100
AcDbEntity
  8
0
100
AcDbLine
 62
7
  6
CONTINUOUS
 10
20.5775131926
 20
21.0596472271
 11
23.7874934961
 21
19.4546570753
  0
LINE
  5
586
100
AcDbEntity
  8
ASSI
100
AcDbLine
 62
7
  6
CONTINUOUS
 10
0.2355968181
 20
31.1196285758
 11
-2.7751962566
 21
32.6250251342
  0
LINE
  5
587
100
AcDbEntity
  8
0
100
AcDbLine
 62
7
  6
CONTINUOUS
 10
9.9548951748
 20
26.8019509602
 11
10.1687876287
 21
26.6044176925
  0
LINE
  5
588
100
AcDbEntity
  8
0
100
AcDbLine
 62
250
  6
CONTINUOUS
 10
16.1648421188
 20
-25.1931947716
 11
15.5425240867
 21
-25.9382541891
  0
LINE
  5
589
100
AcDbEntity
  8
0
100
AcDbLine
 62
250
  6
CONTINUOUS
 10
16.5178783068
 20
-25.3189646097
 11
15.8066576987
 21
-26.1704610868
  0
LWPOLYLINE
  5
58A
100
AcDbEntity
  8
0
100
AcDbPolyline
 62
7
  6
CONTINUOUS
 90
4
 70
0
 10
18.0014041926
 20
-24.3094231357
 10
17.9915662671
 20
-24.3152818172
 10
17.9814027325
 20
-24.3205205049
 10
17.9731768171
 20
-24.3242041642
  0
LWPOLYLINE
  5
58B
100
AcDbEntity
  8
0
100
AcDbPolyline
 62
7
  6
CONTINUOUS
 90
25
 70
0
 10
17.9875424506
 20
-24.3183061539
 10
17.9924670661
 20
-24.3156715193
 10
18.0023125122
 20
-24.3098140979
 10
18.0118095251
 20
-24.3033562136
 10
18.0209589372
 20
-24.2962995662
 10
18.0297599161
 20
-24.2886424559
 10
18.0381880619
 20
-24.280399182
 10
18.0462522237
 20
-24.2715557212
 10
18.0539435523
 20
-24.2621260967
 10
18.0612111006
 20
-24.2521666777
 10
18.0680485458
 20
-24.2416734969
 10
18.0744622107
 20
-24.2306505216
 10
18.080420116
 20
-24.2191660224
 10
18.0859127792
 20
-24.2072382376
 10
18.0909496828
 20
-24.1948489289
 10
18.0955272952
 20
-24.1820116517
 10
18.0996516689
 20
-24.1687098983
 10
18.1033167513
 20
-24.1549601764
 10
18.106500853
 20
-24.1408255643
 10
18.1092007321
 20
-24.1262938285
 10
18.1114196305
 20
-24.1113772026
 10
18.1131455841
 20
-24.0961754663
 10
18.1143746049
 20
-24.0807218797
 10
18.1151106809
 20
-24.0649831827
 10
18.1153538121
 20
-24.0489593755
  0
LINE
  5
58C
100
AcDbEntity
  8
0
100
AcDbLine
 62
250
  6
CONTINUOUS
 10
18.1153538121
 20
-24.0489593755
 11
18.8162897659
 21
-23.6872821828
  0
LINE
  5
58D
100
AcDbEntity
  8
0
100
AcDbLine
 62
7
  6
CONTINUOUS
 10
17.9875415593
 20
-24.3183047669
 11
18.6884775131
 21
-23.9566275742
  0
LINE
  5
58E
100
AcDbEntity
  8
0
100
AcDbLine
 62
250
  6
CONTINUOUS
 10
15.8066576987
 20
-26.5104350209
 11
17.4079384895
 21
-25.7304004213
  0
LWPOLYLINE
  5
58F
100
AcDbEntity
  8
RACCORDO
100
AcDbPolyline
 62
250
  6
CONTINUOUS
 90
10
 70
0
 10
11.0853996578
 20
-27.0145156303
 10
11.1172108993
 20
-26.9990948485
 10
11.1447362749
 20
-26.9794971062
 10
11.1696656259
 20
-26.9551672149
 10
11.1917260774
 20
-26.9263715489
 10
11.2106761735
 20
-26.8934253519
 10
11.2263085068
 20
-26.8566892906
 10
11.2384519844
 20
-26.8165655164
 10
11.2469737029
 20
-26.7734932665
 10
11.2517804074
 20
-26.7279440444
  0
LINE
  5
590
100
AcDbEntity
  8
0
100
AcDbLine
 62
250
  6
CONTINUOUS
 10
17.035254077
 20
-24.5012771299
 11
18.114428141
 21
-24.0482836924
  0
LINE
  5
591
100
AcDbEntity
  8
0
100
AcDbLine
 62
7
  6
CONTINUOUS
 10
16.8939581979
 20
-24.7772210649
 11
17.9731392324
 21
-24.3242247015
  0
LINE
  5
592
100
AcDbEntity
  8
RACCORDO
100
AcDbLine
 62
250
  6
CONTINUOUS
 10
14.5931144511
 20
-25.4565976521
 11
11.2517804074
 21
-26.7279440444
  0
LINE
  5
593
100
AcDbEntity
  8
RACCORDO
100
AcDbLine
 62
7
  6
CONTINUOUS
 10
11.0852043096
 20
-27.014589842
 11
14.4303672959
 21
-25.7417866893
  0
LWPOLYLINE
  5
594
100
AcDbEntity
  8
0
100
AcDbPolyline
 62
7
  6
CONTINUOUS
 90
4
 70
0
 10
17.9609411897
 20
-24.3295310735
 10
17.9717814049
 20
-24.3255300071
 10
17.9822950895
 20
-24.3209090793
 10
17.9875424506
 20
-24.3183061539
  0
LWPOLYLINE
  5
595
100
AcDbEntity
  8
RACCORDO
100
AcDbPolyline
 62
250
  6
CONTINUOUS
 90
22
 70
0
 10
11.2517804074
 20
-26.7279440444
 10
11.2154801063
 20
-26.7401695399
 10
11.1798740261
 20
-26.749089037
 10
11.1449621667
 20
-26.7547025356
 10
11.1105562021
 20
-26.7570116117
 10
11.0768444583
 20
-26.7560146893
 10
11.0443919134
 20
-26.7517070414
 10
11.013234064
 20
-26.744031513
 10
10.9833354134
 20
-26.733045259
 10
10.9551544495
 20
-26.7189150173
 10
10.9287173854
 20
-26.7015906012
 10
10.9039980079
 20
-26.6811221973
 10
10.8813761652
 20
-26.6578271037
 10
10.8608861235
 20
-26.631662519
 10
10.8424936167
 20
-26.6026712446
 10
10.8264756947
 20
-26.5712989827
 10
10.8128685367
 20
-26.5374897621
 10
10.8016359635
 20
-26.5012995541
 10
10.7929464886
 20
-26.463341974
 10
10.7868562828
 20
-26.4238215606
 10
10.7833091753
 20
-26.3825337751
 10
10.7823051659
 20
-26.3394786177
  0
LWPOLYLINE
  5
596
100
AcDbEntity
  8
SUPERFICI
100
AcDbPolyline
 62
7
  6
CONTINUOUS
 90
17
 70
0
 10
4.1811204142
 20
28.7173969378
 10
4.1189625621
 20
28.7115814799
 10
4.0524649599
 20
28.7077375235
 10
3.9846887998
 20
28.7062020865
 10
3.9163150061
 20
28.7070259154
 10
3.8485021483
 20
28.7102092507
 10
3.7819347626
 20
28.7156811367
 10
3.7173028821
 20
28.7232992448
 10
3.6557311233
 20
28.7328061701
 10
3.5976710667
 20
28.7439751355
 10
3.5437794993
 20
28.756472869
 10
3.4952910714
 20
28.7697095809
 10
3.4524663585
 20
28.783250381
 10
3.4154262442
 20
28.7966574292
 10
3.3847737252
 20
28.8092315163
 10
3.3604576719
 20
28.820440304
 10
3.3561398699
 20
28.8225745001
  0
LWPOLYLINE
  5
597
100
AcDbEntity
  8
ASSI
100
AcDbPolyline
 62
7
  6
CONTINUOUS
 90
5
 70
0
 10
1.0979681492
 20
28.1926941921
 10
1.0567450067
 20
28.1905833608
 10
1.0156412157
 20
28.1850331458
 10
0.9765080589
 20
28.176245336
 10
0.9397429424
 20
28.1644464709
  0
LINE
  5
598
100
AcDbEntity
  8
ASSI
100
AcDbLine
 62
7
  6
CONTINUOUS
 10
-1.1100844829
 20
30.059279484
 11
0.5071879518
 21
30.1413244639
  0
LWPOLYLINE
  5
599
100
AcDbEntity
  8
SUPERFICI
100
AcDbPolyline
 62
250
  6
CONTINUOUS
 90
4
 70
0
 10
3.9197291628
 20
28.5922113729
 10
3.889681895
 20
28.5926708784
 10
3.7866957136
 20
28.5979523407
 10
3.7429473232
 20
28.6018246406
  0
LWPOLYLINE
  5
59A
100
AcDbEntity
  8
SUPERFICI
100
AcDbPolyline
 62
7
  6
CONTINUOUS
 90
6
 70
0
 10
-3.1189595355
 20
28.8456003795
 10
-3.1092795252
 20
28.8452629655
 10
-3.0988683287
 20
28.843808095
 10
-3.0877472891
 20
28.8411308685
 10
-3.0759308481
 20
28.837153692
 10
-3.0634616994
 20
28.8317972697
  0
LWPOLYLINE
  5
59B
100
AcDbEntity
  8
ASSI
100
AcDbPolyline
 62
7
  6
CONTINUOUS
 90
4
 70
0
 10
-8.7166141186
 20
29.101129772
 10
-8.6947260929
 20
29.0992812383
 10
-8.6720517129
 20
29.0934655081
 10
-8.6489733211
 20
29.0837848806
  0
LWPOLYLINE
  5
59C
100
AcDbEntity
  8
SUPERFICI
100
AcDbPolyline
 62
250
  6
CONTINUOUS
 90
4
 70
0
 10
3.2331188281
 20
28.8567388881
 10
3.278311374
 20
28.8502761087
 10
3.3331574436
 20
28.8330135278
 10
3.3561434315
 20
28.822581631
  0
LWPOLYLINE
  5
59D
100
AcDbEntity
  8
SUPERFICI
100
AcDbPolyline
 62
7
  6
CONTINUOUS
 90
10
 70
0
 10
-2.1302889358
 20
28.9866031387
 10
-2.2114113941
 20
28.9983234934
 10
-2.2936850133
 20
29.0062267447
 10
-2.3764780748
 20
29.0103157081
 10
-2.4593572456
 20
29.0106140053
 10
-2.5420870755
 20
29.00712201
 10
-2.6241378218
 20
28.9998264123
 10
-2.7049702534
 20
28.9887221133
 10
-2.7843684566
 20
28.9737420605
 10
-2.8619192869
 20
28.9548052114
  0
LWPOLYLINE
  5
59E
100
AcDbEntity
  8
RACCORDO
100
AcDbPolyline
 62
7
  6
CONTINUOUS
 90
9
 70
0
 10
12.2926773817
 20
27.5945377302
 10
12.2865606411
 20
27.5961372279
 10
12.2767904274
 20
27.5976700418
 10
12.266464232
 20
27.5980854861
 10
12.2556770348
 20
27.5973837136
 10
12.2447137759
 20
27.5955651823
 10
12.2336694352
 20
27.5926300448
 10
12.2224490327
 20
27.5885781484
 10
12.2110525684
 20
27.5834094932
  0
LINE
  5
59F
100
AcDbEntity
  8
0
100
AcDbLine
 62
7
  6
CONTINUOUS
 10
10.899614583
 20
26.9276905004
 11
10.4498699216
 21
27.0494383336
  0
LWPOLYLINE
  5
5A0
100
AcDbEntity
  8
RACCORDO
100
AcDbPolyline
 62
7
  6
CONTINUOUS
 90
28
 70
0
 10
12.2926672455
 20
27.5945137777
 10
12.1839518989
 20
27.6257996235
 10
12.0690968559
 20
27.6551533005
 10
11.951835432
 20
27.6814803707
 10
11.8324622672
 20
27.7047424625
 10
11.7112418955
 20
27.7249130153
 10
11.588412526
 20
27.7419722906
 10
11.4642637287
 20
27.7558961321
 10
11.3390802656
 20
27.7666668011
 10
11.2130997481
 20
27.7742742008
 10
11.0866133619
 20
27.7787075795
 10
10.959910639
 20
27.7799621342
 10
10.8332288935
 20
27.7780373611
 10
10.7068576238
 20
27.7729360261
 10
10.5810880332
 20
27.764666814
 10
10.4561584338
 20
27.7532389385
 10
10.3323595592
 20
27.7386691063
 10
10.2099748068
 20
27.7209790847
 10
10.0892263707
 20
27.7001849093
 10
9.9703914496
 20
27.6763133093
 10
9.8537556261
 20
27.6493982575
 10
9.7395440531
 20
27.6194634902
 10
9.6280288749
 20
27.5865463863
 10
9.5194826785
 20
27.5506897515
 10
9.4141157869
 20
27.5119181339
 10
9.3121690045
 20
27.4702653256
 10
9.213922867
 20
27.425784551
 10
9.1196388059
 20
27.3785271616
  0
LWPOLYLINE
  5
5A1
100
AcDbEntity
  8
ASSI
100
AcDbPolyline
 62
7
  6
CONTINUOUS
 90
5
 70
0
 10
-4.3565680713
 20
30.9760531682
 10
-4.3942533838
 20
30.9875006043
 10
-4.4336223545
 20
30.9957913387
 10
-4.4746676158
 20
31.0008778817
 10
-4.5154503286
 20
31.0025904364
  0
LWPOLYLINE
  5
5A2
100
AcDbEntity
  8
RACCORDO
100
AcDbPolyline
 62
7
  6
CONTINUOUS
 90
3
 70
0
 10
12.3047180635
 20
27.5897199496
 10
12.2958698531
 20
27.5934871971
 10
12.2926773817
 20
27.5945377302
  0
LWPOLYLINE
  5
5A3
100
AcDbEntity
  8
ASSI
100
AcDbPolyline
 62
250
  6
CONTINUOUS
 90
10
 70
0
 10
0.2354893372
 20
31.1196823373
 10
0.1924283696
 20
31.1380241723
 10
0.1480697827
 20
31.1509194691
 10
0.1017875724
 20
31.1587307828
 10
0.0538339021
 20
31.1614161048
 10
0.0044684992
 20
31.1589621288
 10
-0.046036183
 20
31.1513809961
 10
-0.0974037661
 20
31.1387140582
 10
-0.1493554281
 20
31.1210317343
 10
-0.2016075895
 20
31.0984310307
  0
LWPOLYLINE
  5
5A4
100
AcDbEntity
  8
ASSI
100
AcDbPolyline
 62
7
  6
CONTINUOUS
 90
8
 70
0
 10
4.8580045407
 20
28.808421716
 10
4.8248712429
 20
28.8235655743
 10
4.7762701073
 20
28.8407327959
 10
4.7251071911
 20
28.8530338533
 10
4.6718020302
 20
28.8601806641
 10
4.6169600472
 20
28.8619616963
 10
4.5609314344
 20
28.8582988443
 10
4.5039671461
 20
28.8491609935
  0
LINE
  5
5A5
100
AcDbEntity
  8
0
100
AcDbLine
 62
7
  6
CONTINUOUS
 10
9.9548951748
 20
26.8019509602
 11
9.2479262346
 21
27.1554354302
  0
LINE
  5
5A6
100
AcDbEntity
  8
0
100
AcDbLine
 62
7
  6
CONTINUOUS
 10
10.4498699216
 20
27.0494383336
 11
9.7429009815
 21
27.4029228037
  0
LINE
  5
5A7
100
AcDbEntity
  8
SUPERFICI
100
AcDbLine
 62
7
  6
CONTINUOUS
 10
9.4824062091
 20
27.8855684448
 11
9.0437957366
 21
28.1048736811
  0
LINE
  5
5A8
100
AcDbEntity
  8
RACCORDO
100
AcDbLine
 62
7
  6
CONTINUOUS
 10
13.1532462009
 20
27.1654558808
 11
13.2660210861
 21
27.1089635547
  0
LWPOLYLINE
  5
5A9
100
AcDbEntity
  8
RACCORDO
100
AcDbPolyline
 62
7
  6
CONTINUOUS
 90
10
 70
0
 10
13.1153021336
 20
27.1781235358
 10
13.0178250799
 20
27.2281789675
 10
12.9222118781
 20
27.2771548431
 10
12.8284625281
 20
27.3250511627
 10
12.7365914468
 20
27.3718693505
 10
12.6465842174
 20
27.4176079822
 10
12.5583975894
 20
27.4622627853
 10
12.472017146
 20
27.5058323354
 10
12.387457304
 20
27.5483180568
 10
12.3047180635
 20
27.5897199496
  0
LWPOLYLINE
  5
5AA
100
AcDbEntity
  8
SUPERFICI
100
AcDbPolyline
 62
7
  6
CONTINUOUS
 90
10
 70
0
 10
13.5294895287
 20
27.752906753
 10
13.4980740743
 20
27.7709595653
 10
13.466057097
 20
27.7887268677
 10
13.4334385969
 20
27.8062086603
 10
13.4002084062
 20
27.8234100269
 10
13.3663766926
 20
27.8403258837
 10
13.3319739593
 20
27.8569409791
 10
13.2970103741
 20
27.8732502291
 10
13.2614757693
 20
27.8892587178
 10
13.2253701448
 20
27.904966445
  0
LINE
  5
5AB
100
AcDbEntity
  8
RACCORDO
100
AcDbLine
 62
7
  6
CONTINUOUS
 10
13.1230605623
 20
27.1735370637
 11
13.1153021336
 21
27.1781235358
  0
LWPOLYLINE
  5
5AC
100
AcDbEntity
  8
RACCORDO
100
AcDbPolyline
 62
250
  6
CONTINUOUS
 90
5
 70
0
 10
13.1532462009
 20
27.1654558808
 10
13.1777691912
 20
27.1449515025
 10
13.2021349529
 20
27.123673238
 10
13.226271703
 20
27.1016109608
 10
13.2344205304
 20
27.0937969911
  0
LWPOLYLINE
  5
5AD
100
AcDbEntity
  8
RACCORDO
100
AcDbPolyline
 62
250
  6
CONTINUOUS
 90
4
 70
0
 10
13.0596096017
 20
27.1591598724
 10
13.0824700311
 20
27.1395811389
 10
13.1050475694
 20
27.1192280924
 10
13.1273422166
 20
27.0981007328
  0
LINE
  5
5AE
100
AcDbEntity
  8
RACCORDO
100
AcDbLine
 62
250
  6
CONTINUOUS
 10
13.1273422166
 20
27.0981007328
 11
13.149387715
 21
27.0762708459
  0
LINE
  5
5AF
100
AcDbEntity
  8
RACCORDO
100
AcDbLine
 62
250
  6
CONTINUOUS
 10
13.149387715
 20
27.0762708459
 11
13.1647207541
 21
27.060344855
  0
LINE
  5
5B0
100
AcDbEntity
  8
SUPERFICI
100
AcDbLine
 62
250
  6
CONTINUOUS
 10
17.3228574151
 20
28.2665112714
 11
17.7424006261
 21
27.54290627
  0
LINE
  5
5B1
100
AcDbEntity
  8
SUPERFICI
100
AcDbLine
 62
7
  6
CONTINUOUS
 10
17.7131217795
 20
28.2609014576
 11
18.05995955
 21
27.6626947917
  0
LWPOLYLINE
  5
5B2
100
AcDbEntity
  8
SUPERFICI
100
AcDbPolyline
 62
250
  6
CONTINUOUS
 90
13
 70
0
 10
17.7424006261
 20
27.54290627
 10
17.7941698755
 20
27.4493257525
 10
17.842213226
 20
27.3536062979
 10
17.8863249484
 20
27.2561577915
 10
17.9263161496
 20
27.1573975223
 10
17.9620155809
 20
27.0577483974
 10
17.9932703712
 20
26.9576371306
 10
18.0199466828
 20
26.8574924139
 10
18.0419302837
 20
26.7577430823
 10
18.0591270365
 20
26.6588162789
 10
18.0714633023
 20
26.5611356237
 10
18.0788862554
 20
26.4651193999
 10
18.08136411
 20
26.3711787635
  0
LWPOLYLINE
  5
5B3
100
AcDbEntity
  8
0
100
AcDbPolyline
 62
7
  6
CONTINUOUS
 90
22
 70
0
 10
17.8725231714
 20
-25.5939503266
 10
17.8823298612
 20
-25.5886394182
 10
17.8933414904
 20
-25.5819727678
 10
17.9040051569
 20
-25.5747411453
 10
17.9142918581
 20
-25.5669619287
 10
17.9241805475
 20
-25.5586476381
 10
17.9336437424
 20
-25.5498166571
 10
17.9426520062
 20
-25.540491565
 10
17.951181366
 20
-25.5306917958
 10
17.9592061933
 20
-25.5204404884
 10
17.966700709
 20
-25.5097639016
 10
17.9736418078
 20
-25.4986877913
 10
17.9800068267
 20
-25.487240426
 10
17.9857745685
 20
-25.4754513518
 10
17.9909258699
 20
-25.4633500358
 10
17.9954430126
 20
-25.4509665772
 10
17.9993084545
 20
-25.4383359769
 10
18.0025062453
 20
-25.4254968996
 10
18.0050238343
 20
-25.4124852514
 10
18.0068507863
 20
-25.3993367766
 10
18.0079783131
 20
-25.3860914272
 10
18.0084035183
 20
-25.3715163943
  0
LINE
  5
5B4
100
AcDbEntity
  8
0
100
AcDbLine
 62
250
  6
CONTINUOUS
 10
17.4079384895
 20
-25.7304004213
 11
17.9362056613
 21
-25.4593893626
  0
LINE
  5
5B5
100
AcDbEntity
  8
0
100
AcDbLine
 62
7
  6
CONTINUOUS
 10
17.3438353602
 20
-25.8651771815
 11
17.8725176237
 21
-25.5939531729
  0
LINE
  5
5B6
100
AcDbEntity
  8
0
100
AcDbLine
 62
7
  6
CONTINUOUS
 10
17.3438333865
 20
-25.8651781941
 11
17.3420969747
 21
-25.8660464143
  0
LINE
  5
5B7
100
AcDbEntity
  8
0
100
AcDbLine
 62
7
  6
CONTINUOUS
 10
15.7403961061
 20
-26.6462856471
 11
17.3420942091
 21
-25.8660477615
  0
LWPOLYLINE
  5
5B8
100
AcDbEntity
  8
ASSI
100
AcDbPolyline
 62
7
  6
CONTINUOUS
 90
5
 70
0
 10
-4.5154503286
 20
31.0025904364
 10
-4.5560379076
 20
31.0010479278
 10
-4.5966215527
 20
30.9961816845
 10
-4.6353891465
 20
30.9881735634
 10
-4.6719459236
 20
30.9772277195
  0
LINE
  5
5B9
100
AcDbEntity
  8
SUPERFICI
100
AcDbLine
 62
7
  6
CONTINUOUS
 10
13.7123191891
 20
27.6458320703
 11
12.9858218004
 21
28.0090807646
  0
LINE
  5
5BA
100
AcDbEntity
  8
SUPERFICI
100
AcDbLine
 62
7
  6
CONTINUOUS
 10
13.5294895287
 20
27.752906753
 11
13.2253701448
 21
27.904966445
  0
LINE
  5
5BB
100
AcDbEntity
  8
SUPERFICI
100
AcDbLine
 62
7
  6
CONTINUOUS
 10
15.9240895625
 20
28.3846931648
 11
12.8118519897
 21
29.9408119512
  0
LINE
  5
5BC
100
AcDbEntity
  8
SUPERFICI
100
AcDbLine
 62
250
  6
CONTINUOUS
 10
17.3228574151
 20
28.2665112714
 11
16.5171854791
 21
28.6693472394
  0
LINE
  5
5BD
100
AcDbEntity
  8
SUPERFICI
100
AcDbLine
 62
250
  6
CONTINUOUS
 10
11.8155224
 20
31.020178779
 11
10.8443635663
 21
31.5057581958
  0
LINE
  5
5BE
100
AcDbEntity
  8
SUPERFICI
100
AcDbLine
 62
7
  6
CONTINUOUS
 10
17.6531327927
 20
28.3171933755
 11
16.8273738925
 21
28.7300728256
  0
LINE
  5
5BF
100
AcDbEntity
  8
SUPERFICI
100
AcDbLine
 62
7
  6
CONTINUOUS
 10
12.2881051715
 20
30.9997071861
 11
11.2357491588
 21
31.5258851925
  0
LWPOLYLINE
  5
5C0
100
AcDbEntity
  8
SUPERFICI
100
AcDbPolyline
 62
7
  6
CONTINUOUS
 90
4
 70
0
 10
17.6550583446
 20
28.3162304022
 10
17.6687018207
 20
28.3084156604
 10
17.6922375172
 20
28.2890433819
 10
17.7124156599
 20
28.2621655504
  0
LWPOLYLINE
  5
5C1
100
AcDbEntity
  8
SUPERFICI
100
AcDbPolyline
 62
7
  6
CONTINUOUS
 90
35
 70
0
 10
18.3339582897
 20
26.051182657
 10
18.4507318184
 20
25.9740805507
 10
18.5905284919
 20
25.8695669045
 10
18.7272663477
 20
25.7550383075
 10
18.8601317912
 20
25.631321803
 10
18.9885172444
 20
25.4991750279
 10
19.1120988446
 20
25.3591076219
 10
19.2304790059
 20
25.2117021182
 10
19.343233389
 20
25.0575912287
 10
19.449908955
 20
24.8974844446
 10
19.5500659671
 20
24.7321286875
 10
19.6432819109
 20
24.5623109257
 10
19.7292350335
 20
24.3886928952
 10
19.8076504152
 20
24.2118549364
 10
19.8782170902
 20
24.0324643727
 10
19.9405916725
 20
23.8513298126
 10
19.9944764086
 20
23.6692345176
 10
20.0396131317
 20
23.4869299346
 10
20.0757720344
 20
23.3051530976
 10
20.1027477784
 20
23.1246296377
 10
20.1203675837
 20
22.9459271854
 10
20.1284404848
 20
22.7699306697
 10
20.126840423
 20
22.5977504289
 10
20.1154930509
 20
22.4298344535
 10
20.0943584487
 20
22.2670575172
 10
20.0636290946
 20
22.1109638769
 10
20.0235246023
 20
21.9622219121
 10
19.9741982541
 20
21.8211289817
 10
19.9160031344
 20
21.6884628917
 10
19.8491947507
 20
21.5645655409
 10
19.7741260371
 20
21.4499064428
 10
19.6915363316
 20
21.3453088047
 10
19.6020971606
 20
21.2511814653
 10
19.5062728522
 20
21.1676009054
 10
19.4046813828
 20
21.0947519799
  0
LWPOLYLINE
  5
5C2
100
AcDbEntity
  8
SUPERFICI
100
AcDbPolyline
 62
250
  6
CONTINUOUS
 90
34
 70
0
 10
18.3339582897
 20
25.972572136
 10
18.4120533804
 20
25.9170603326
 10
18.5491942504
 20
25.8076047233
 10
18.683736742
 20
25.6880792498
 10
18.8150533208
 20
25.5590414011
 10
18.9425314794
 20
25.4210930527
 10
19.0655766162
 20
25.2748776421
 10
19.1836148116
 20
25.1210771634
 10
19.2960955061
 20
24.9604089813
 10
19.4024940607
 20
24.793622494
 10
19.5023142038
 20
24.6214956384
 10
19.5950903451
 20
24.4448312636
 10
19.6803897504
 20
24.2644533827
 10
19.7578145592
 20
24.0812033289
 10
19.827003641
 20
23.895935831
 10
19.8876342787
 20
23.7095150279
 10
19.9394236742
 20
23.5228104381
 10
19.9821302672
 20
23.336692904
 10
20.0155548622
 20
23.1520305296
 10
20.0395415577
 20
22.9696846319
 10
20.053978473
 20
22.7905057228
 10
20.0587982703
 20
22.6153295428
 10
20.0539784687
 20
22.4449731624
 10
20.0395415491
 20
22.2802311712
 10
20.0155548494
 20
22.1218719718
 10
19.98213025
 20
21.9706341956
 10
19.9394236528
 20
21.8272232579
 10
19.8876342531
 20
21.6923080673
 10
19.8270036114
 20
21.5665179059
 10
19.7578145256
 20
21.4504394941
 10
19.6803897129
 20
21.3446142537
 10
19.5950903038
 20
21.2495357828
 10
19.5023141588
 20
21.1656475544
 10
19.4046813828
 20
21.0947519799
  0
LWPOLYLINE
  5
5C3
100
AcDbEntity
  8
SUPERFICI
100
AcDbPolyline
 62
250
  6
CONTINUOUS
 90
12
 70
0
 10
18.05995955
 20
27.6626947917
 10
18.0586004133
 20
27.6642919057
 10
18.0506814952
 20
27.6668135088
 10
18.0370369027
 20
27.6659446997
 10
18.0177681861
 20
27.6616919443
 10
17.9930187531
 20
27.654086894
 10
17.9629728021
 20
27.6431861495
 10
17.9278539507
 20
27.6290708398
 10
17.8879235716
 20
27.6118460187
 10
17.8434788477
 20
27.5916398824
 10
17.7948505598
 20
27.5686028154
 10
17.7424006251
 20
27.5429062717
  0
ELLIPSE
  5
5C4
100
AcDbEntity
  8
SUPERFICI
100
AcDbEllipse
 62
7
  6
CONTINUOUS
 10
10.7611347464
 20
27.0218261391
 30
0.0
 11
2.7499350056
 21
-0.0386453369
 31
0.0
 40
0.4892375088
 41
8.654981679
 42
9.2672200839
  0
ELLIPSE
  5
5C5
100
AcDbEntity
  8
SUPERFICI
100
AcDbEllipse
 62
7
  6
CONTINUOUS
 10
11.4328861885
 20
26.9103284551
 30
0.0
 11
2.7583300471
 21
-0.038763314
 31
0.0
 40
0.4892375088
 41
0.9280596999
 42
2.3630697256
  0
ELLIPSE
  5
5C6
100
AcDbEntity
  8
SUPERFICI
100
AcDbEllipse
 62
7
  6
CONTINUOUS
 10
11.4328861885
 20
26.9103284551
 30
0.0
 11
2.7583300471
 21
-0.038763314
 31
0.0
 40
0.4892375088
 41
0.4291477653
 42
0.6564870977
  0
ELLIPSE
  5
5C7
100
AcDbEntity
  8
SUPERFICI
100
AcDbEllipse
 62
7
  6
CONTINUOUS
 10
16.1386004196
 20
28.0682289722
 30
0.0
 11
0.716172246
 21
0.6416715914
 31
0.0
 40
0.2882345029
 41
0.1142323894
 42
0.7807533904
  0
ELLIPSE
  5
5C8
100
AcDbEntity
  8
SUPERFICI
100
AcDbEllipse
 62
7
  6
CONTINUOUS
 10
11.4328861885
 20
27.343341157
 30
0.0
 11
2.7583300471
 21
-0.038763314
 31
0.0
 40
0.4892375088
 41
0.1708839954
 42
2.3630697256
  0
ELLIPSE
  5
5C9
100
AcDbEntity
  8
SUPERFICI
100
AcDbEllipse
 62
7
  6
CONTINUOUS
 10
11.4328861885
 20
28.8550391664
 30
0.0
 11
2.7583515655
 21
-1.4175703156
 31
0.0
 40
0.0109499087
 41
-0.7017315251
 42
-0.6439845515
  0
ELLIPSE
  5
5CA
100
AcDbEntity
  8
SUPERFICI
100
AcDbEllipse
 62
7
  6
CONTINUOUS
 10
12.1718941725
 20
30.0515820957
 30
0.0
 11
-0.2796057293
 21
0.9974617846
 31
0.0
 40
0.6760995073
 41
4.8467711056
 42
6.4001141399
  0
ELLIPSE
  5
5CB
100
AcDbEntity
  8
SUPERFICI
100
AcDbEllipse
 62
7
  6
CONTINUOUS
 10
10.7373959274
 20
28.2035882718
 30
0.0
 11
3.3311333813
 21
-0.0467042088
 31
0.0
 40
0.4892378494
 41
2.3616770883
 42
5.5059722822
  0
ELLIPSE
  5
5CC
100
AcDbEntity
  8
SUPERFICI
100
AcDbEllipse
 62
7
  6
CONTINUOUS
 10
11.4328861885
 20
28.8550391664
 30
0.0
 11
2.7583515655
 21
-1.4175703156
 31
0.0
 40
0.0109499087
 41
-0.9155571536
 42
-0.85781018
  0
ELLIPSE
  5
5CD
100
AcDbEntity
  8
ASSI
100
AcDbEllipse
 62
7
  6
CONTINUOUS
 10
-0.8800556783
 20
22.5976951555
 30
0.0
 11
0.2497264901
 21
-0.0900037588
 31
0.0
 40
0.1298948903
 41
-2.3094133153
 42
-0.756070281
  0
ELLIPSE
  5
5CE
100
AcDbEntity
  8
ASSI
100
AcDbEllipse
 62
7
  6
CONTINUOUS
 10
-1.0736199644
 20
22.6944772985
 30
0.0
 11
0.2497264901
 21
-0.0900037588
 31
0.0
 40
0.1298948903
 41
-3.0936186356
 42
-2.3094133153
  0
ELLIPSE
  5
5CF
100
AcDbEntity
  8
ASSI
100
AcDbEllipse
 62
7
  6
CONTINUOUS
 10
-13.4665563834
 20
28.890945508
 30
0.0
 11
0.2497264901
 21
-0.0900037588
 31
0.0
 40
0.1298948903
 41
-2.3094133153
 42
-0.756070281
  0
ELLIPSE
  5
5D0
100
AcDbEntity
  8
ASSI
100
AcDbEllipse
 62
7
  6
CONTINUOUS
 10
-13.6601206695
 20
28.9877276511
 30
0.0
 11
0.2497264901
 21
-0.0900037588
 31
0.0
 40
0.1298948903
 41
-3.0936186356
 42
-2.3094133153
  0
ELLIPSE
  5
5D1
100
AcDbEntity
  8
ASSI
100
AcDbEllipse
 62
7
  6
CONTINUOUS
 10
7.7969390791
 20
26.2209234776
 30
0.0
 11
0.4349639225
 21
0.9005141702
 31
0.0
 40
0.6016116119
 41
-0.8943064336
 42
-0.6381625531
  0
ELLIPSE
  5
5D2
100
AcDbEntity
  8
ASSI
100
AcDbEllipse
 62
7
  6
CONTINUOUS
 10
-3.774434977
 20
32.0066105056
 30
0.0
 11
1.004787277
 21
0.6140102217
 31
0.0
 40
0.0864918533
 41
0.0543763766
 42
0.7212730538
  0
ELLIPSE
  5
5D3
100
AcDbEntity
  8
ASSI
100
AcDbEllipse
 62
7
  6
CONTINUOUS
 10
-5.7638171669
 20
28.0798110401
 30
0.0
 11
-0.1172693628
 21
0.2208586762
 31
0.0
 40
0.5994421146
 41
-2.2699607138
 42
-0.6994689735
  0
ELLIPSE
  5
5D4
100
AcDbEntity
  8
ASSI
100
AcDbEllipse
 62
7
  6
CONTINUOUS
 10
3.3837270476
 20
78.9652192845
 30
0.0
 11
3.5378457856
 21
99.5794032239
 31
0.0
 40
0.0069684374
 41
4.1704972465
 42
4.1714623644
  0
ELLIPSE
  5
5D5
100
AcDbEntity
  8
ASSI
100
AcDbEllipse
 62
7
  6
CONTINUOUS
 10
-4.255468303
 20
27.3256366082
 30
0.0
 11
-0.1174113663
 21
0.2209958577
 31
0.0
 40
0.5985429242
 41
-0.6989839728
 42
-0.0337839605
  0
ELLIPSE
  5
5D6
100
AcDbEntity
  8
ASSI
100
AcDbEllipse
 62
7
  6
CONTINUOUS
 10
1.1928926077
 20
27.7313293996
 30
0.0
 11
1.000203771
 21
-0.0143477891
 31
0.0
 40
0.4891226537
 41
-0.7775824994
 42
-0.0140546088
  0
ELLIPSE
  5
5D7
100
AcDbEntity
  8
0
100
AcDbEllipse
 62
7
  6
CONTINUOUS
 10
-1.5779270635
 20
22.0079324287
 30
0.0
 11
-0.0888806443
 21
0.1794588445
 31
0.0
 40
0.6133070172
 41
-2.0679935957
 42
-0.6816034901
  0
ELLIPSE
  5
5D8
100
AcDbEntity
  8
ASSI
100
AcDbEllipse
 62
7
  6
CONTINUOUS
 10
-2.4264067227
 20
81.8702861697
 30
0.0
 11
0.7093717925
 21
100.9935570733
 31
0.0
 40
0.0069790045
 41
-2.1156864167
 42
-2.111971229
  0
ELLIPSE
  5
5D9
100
AcDbEntity
  8
ASSI
100
AcDbEllipse
 62
7
  6
CONTINUOUS
 10
-2.4264067227
 20
29.0323365209
 30
0.0
 11
1.0
 21
-0.0
 31
0.0
 40
0.5003427338
 41
0.7857407797
 42
1.3334966153
  0
ELLIPSE
  5
5DA
100
AcDbEntity
  8
ASSI
100
AcDbEllipse
 62
7
  6
CONTINUOUS
 10
-2.4264067227
 20
29.5409790648
 30
0.0
 11
0.9999753489
 21
-0.014348771
 31
0.0
 40
0.4893460778
 41
1.5857281126
 42
2.3628734463
  0
ELLIPSE
  5
5DB
100
AcDbEntity
  8
ASSI
100
AcDbEllipse
 62
7
  6
CONTINUOUS
 10
1.1715976266
 20
27.2333343462
 30
0.0
 11
1.0006854676
 21
-0.0
 31
0.0
 40
0.499657501
 41
0.4959893425
 42
0.7850555471
  0
ELLIPSE
  5
5DC
100
AcDbEntity
  8
ASSI
100
AcDbEllipse
 62
7
  6
CONTINUOUS
 10
-1.2795807013
 20
23.0728313629
 30
0.0
 11
0.249929385
 21
0.0111824824
 31
0.0
 40
0.5313301283
 41
3.1180383302
 42
3.9032222197
  0
ELLIPSE
  5
5DD
100
AcDbEntity
  8
ASSI
100
AcDbEllipse
 62
7
  6
CONTINUOUS
 10
0.7401186211
 20
22.0629817017
 30
0.0
 11
0.249929385
 21
0.0111824824
 31
0.0
 40
0.5313301283
 41
-2.3799630874
 42
-0.8266200532
  0
ELLIPSE
  5
5DE
100
AcDbEntity
  8
ASSI
100
AcDbEllipse
 62
7
  6
CONTINUOUS
 10
-11.846382084
 20
28.3562320543
 30
0.0
 11
0.249929385
 21
0.0111824824
 31
0.0
 40
0.5313301283
 41
-2.3799630874
 42
-0.8266200532
  0
ELLIPSE
  5
5DF
100
AcDbEntity
  8
ASSI
100
AcDbEllipse
 62
7
  6
CONTINUOUS
 10
-13.8660814065
 20
29.3660817155
 30
0.0
 11
0.249929385
 21
0.0111824824
 31
0.0
 40
0.5313301283
 41
3.1180383322
 42
3.9032222197
  0
ELLIPSE
  5
5E0
100
AcDbEntity
  8
ASSI
100
AcDbEllipse
 62
7
  6
CONTINUOUS
 10
-5.1803988485
 20
25.7381090234
 30
0.0
 11
0.199943508
 21
0.008945986
 31
0.0
 40
0.5313301283
 41
3.1180383302
 42
3.9032222197
  0
ELLIPSE
  5
5E1
100
AcDbEntity
  8
ASSI
100
AcDbEllipse
 62
7
  6
CONTINUOUS
 10
-2.8897504514
 20
24.5927848249
 30
0.0
 11
0.199943508
 21
0.008945986
 31
0.0
 40
0.5313301283
 41
-2.3799630874
 42
-0.8266200532
  0
ELLIPSE
  5
5E2
100
AcDbEntity
  8
ASSI
100
AcDbEllipse
 62
7
  6
CONTINUOUS
 10
-6.6020610526
 20
26.4489401255
 30
0.0
 11
0.199943508
 21
0.008945986
 31
0.0
 40
0.5313301283
 41
-2.3799630874
 42
-0.8266200532
  0
ELLIPSE
  5
5E3
100
AcDbEntity
  8
ASSI
100
AcDbEllipse
 62
7
  6
CONTINUOUS
 10
-8.8927094497
 20
27.594264324
 30
0.0
 11
0.199943508
 21
0.008945986
 31
0.0
 40
0.5313301283
 41
3.1180383322
 42
3.9032222197
  0
ELLIPSE
  5
5E4
100
AcDbEntity
  8
ASSI
100
AcDbEllipse
 62
7
  6
CONTINUOUS
 10
-14.2425497481
 20
28.9325856288
 30
0.0
 11
-0.2236507175
 21
0.4481039483
 31
0.0
 40
0.6114248242
 41
-0.6832297371
 42
0.8861965936
  0
ELLIPSE
  5
5E5
100
AcDbEntity
  8
ASSI
100
AcDbEllipse
 62
7
  6
CONTINUOUS
 10
0.7630335721
 20
21.4297939687
 30
0.0
 11
-0.2231080361
 21
0.4476242326
 31
0.0
 40
0.6130677323
 41
-2.2534169372
 42
-0.6839906064
  0
ELLIPSE
  5
5E6
100
AcDbEntity
  8
0
100
AcDbEllipse
 62
7
  6
CONTINUOUS
 10
-11.9015891125
 20
27.1697634532
 30
0.0
 11
-0.0892456481
 21
0.1797773143
 31
0.0
 40
0.6105754279
 41
5.6028239993
 42
6.9892141049
  0
ELLIPSE
  5
5E7
100
AcDbEntity
  8
ASSI
100
AcDbEllipse
 62
7
  6
CONTINUOUS
 10
13.5497223737
 20
33.6595145432
 30
0.0
 11
18.2927339069
 21
9.4748417608
 31
0.0
 40
0.0170707209
 41
-2.6536573066
 42
-2.3141694431
  0
ELLIPSE
  5
5E8
100
AcDbEntity
  8
ASSI
100
AcDbEllipse
 62
7
  6
CONTINUOUS
 10
13.5497223737
 20
33.6595145432
 30
0.0
 11
18.2927339069
 21
9.4748417608
 31
0.0
 40
0.0170707209
 41
2.2964861198
 42
2.6359739833
  0
ELLIPSE
  5
5E9
100
AcDbEntity
  8
ASSI
100
AcDbEllipse
 62
7
  6
CONTINUOUS
 10
0.3657450531
 20
30.2120459132
 30
0.0
 11
0.2002571891
 21
-0.0481060446
 31
0.0
 40
0.261363135
 41
-0.7257858084
 42
0.0669778862
  0
ELLIPSE
  5
5EA
100
AcDbEntity
  8
ASSI
100
AcDbEllipse
 62
7
  6
CONTINUOUS
 10
7.9725883307
 20
26.1330988518
 30
0.0
 11
-0.7356038977
 21
1.2035991204
 31
0.0
 40
0.5552491559
 41
4.9268361304
 42
6.2240352843
  0
ELLIPSE
  5
5EB
100
AcDbEntity
  8
0
100
AcDbEllipse
 62
7
  6
CONTINUOUS
 10
10.9958928287
 20
22.689707936
 30
0.0
 11
0.2257019663
 21
0.4461636818
 31
0.0
 40
0.6159267166
 41
0.5999093792
 42
0.6817883054
  0
ELLIPSE
  5
5EC
100
AcDbEntity
  8
0
100
AcDbEllipse
 62
7
  6
CONTINUOUS
 10
10.0893833043
 20
20.2434669487
 30
0.0
 11
-0.0894407211
 21
0.1788887077
 31
0.0
 40
0.6123703628
 41
-2.2554972904
 42
-0.6847009636
  0
ELLIPSE
  5
5ED
100
AcDbEntity
  8
0
100
AcDbEllipse
 62
7
  6
CONTINUOUS
 10
12.1300842461
 20
24.1653277116
 30
0.0
 11
0.9987332359
 21
0.6172510855
 31
0.0
 40
0.0815198604
 41
0.0504376855
 42
0.729240919
  0
ELLIPSE
  5
5EE
100
AcDbEntity
  8
0
100
AcDbEllipse
 62
7
  6
CONTINUOUS
 10
23.887874261
 20
-18.6685807206
 30
0.0
 11
0.9987332359
 21
0.6172510855
 31
0.0
 40
0.0815198604
 41
-2.4007162062
 42
-1.2945337033
  0
ELLIPSE
  5
5EF
100
AcDbEntity
  8
0
100
AcDbEllipse
 62
7
  6
CONTINUOUS
 10
18.4627229125
 20
14.4113444806
 30
0.0
 11
-0.223611546
 21
0.4472115081
 31
0.0
 40
0.6124054886
 41
-2.2555017776
 42
-0.6847562194
  0
ELLIPSE
  5
5F0
100
AcDbEntity
  8
0
100
AcDbEllipse
 62
7
  6
CONTINUOUS
 10
18.4627229125
 20
-23.5104767723
 30
0.0
 11
-0.2236315662
 21
0.4472293059
 31
0.0
 40
0.6123445654
 41
-3.1338150222
 42
-2.2555748796
  0
ELLIPSE
  5
5F1
100
AcDbEntity
  8
0
100
AcDbEllipse
 62
7
  6
CONTINUOUS
 10
11.7864395791
 20
19.3949388113
 30
0.0
 11
-0.0894407211
 21
0.1788887077
 31
0.0
 40
0.6123703628
 41
-0.6847009636
 42
-0.0035385455
  0
ELLIPSE
  5
5F2
100
AcDbEntity
  8
0
100
AcDbEllipse
 62
7
  6
CONTINUOUS
 10
11.3496208816
 20
21.5890941268
 30
0.0
 11
0.4588761993
 21
-0.0021694903
 31
0.0
 40
0.4964289597
 41
-0.7830511342
 42
0.0023495375
  0
ELLIPSE
  5
5F3
100
AcDbEntity
  8
0
100
AcDbEllipse
 62
7
  6
CONTINUOUS
 10
16.9483190818
 20
18.7897450267
 30
0.0
 11
0.4588761993
 21
-0.0021694903
 31
0.0
 40
0.4964289597
 41
-0.77723337
 42
0.0023396968
  0
ELLIPSE
  5
5F4
100
AcDbEntity
  8
0
100
AcDbEllipse
 62
7
  6
CONTINUOUS
 10
10.8672007636
 20
17.7143092174
 30
0.0
 11
0.199943508
 21
0.008945986
 31
0.0
 40
0.5313301283
 41
3.1178257339
 42
3.9032222197
  0
ELLIPSE
  5
5F5
100
AcDbEntity
  8
0
100
AcDbEllipse
 62
7
  6
CONTINUOUS
 10
1.6586421471
 20
20.9819896812
 30
0.0
 11
-0.2234618187
 21
0.4480306886
 31
0.0
 40
0.6116748051
 41
-0.6831523234
 42
0.886730614
  0
ELLIPSE
  5
5F6
100
AcDbEntity
  8
0
100
AcDbEllipse
 62
7
  6
CONTINUOUS
 10
9.1701444887
 20
18.5628373548
 30
0.0
 11
0.199943508
 21
0.008945986
 31
0.0
 40
0.5313301283
 41
-2.3799630874
 42
-0.8091667606
  0
ELLIPSE
  5
5F7
100
AcDbEntity
  8
0
100
AcDbEllipse
 62
7
  6
CONTINUOUS
 10
23.887874261
 20
18.2864327041
 30
0.0
 11
-0.7417913999
 21
1.2002436976
 31
0.0
 40
0.5587454355
 41
5.1208455599
 42
6.2270280628
  0
ELLIPSE
  5
5F8
100
AcDbEntity
  8
0
100
AcDbEllipse
 62
7
  6
CONTINUOUS
 10
16.3421330424
 20
14.261974491
 30
0.0
 11
0.249929385
 21
0.0111824824
 31
0.0
 40
0.5313301283
 41
-2.3799630874
 42
-0.8149845248
  0
ELLIPSE
  5
5F9
100
AcDbEntity
  8
0
100
AcDbEllipse
 62
7
  6
CONTINUOUS
 10
16.6816468303
 20
-24.324077455
 30
0.0
 11
-0.2234618187
 21
0.4480306886
 31
0.0
 40
0.6116748051
 41
2.4584403302
 42
4.0283232676
  0
ELLIPSE
  5
5FA
100
AcDbEntity
  8
0
100
AcDbEllipse
 62
7
  6
CONTINUOUS
 10
16.6816468303
 20
13.4704873396
 30
0.0
 11
-0.2230998035
 21
0.4477110033
 31
0.0
 40
0.6127700112
 41
-2.2535417632
 42
-0.6836588258
  0
ELLIPSE
  5
5FB
100
AcDbEntity
  8
0
100
AcDbEllipse
 62
7
  6
CONTINUOUS
 10
23.7129590971
 20
-18.8748088999
 30
0.0
 11
0.499366618
 21
0.3086255427
 31
0.0
 40
0.0815198604
 41
6.102242859
 42
7.0007906979
  0
ELLIPSE
  5
5FC
100
AcDbEntity
  8
0
100
AcDbEllipse
 62
7
  6
CONTINUOUS
 10
23.7129590971
 20
19.3746828285
 30
0.0
 11
-0.3708957
 21
0.6001218488
 31
0.0
 40
0.5587454355
 41
-3.1744788413
 42
-2.2759310025
  0
ELLIPSE
  5
5FD
100
AcDbEntity
  8
0
100
AcDbEllipse
 62
7
  6
CONTINUOUS
 10
14.6553673182
 20
15.1053573531
 30
0.0
 11
0.249929385
 21
0.0111824824
 31
0.0
 40
0.5313301283
 41
3.1178197826
 42
3.9032222197
  0
ELLIPSE
  5
5FE
100
AcDbEntity
  8
0
100
AcDbEllipse
 62
7
  6
CONTINUOUS
 10
2.3517093256
 20
21.2571863495
 30
0.0
 11
0.249929385
 21
0.0111824824
 31
0.0
 40
0.5313301283
 41
3.1178197826
 42
3.9032222197
  0
ELLIPSE
  5
5FF
100
AcDbEntity
  8
0
100
AcDbEllipse
 62
7
  6
CONTINUOUS
 10
4.0384750498
 20
20.4138034873
 30
0.0
 11
0.249929385
 21
0.0111824824
 31
0.0
 40
0.5313301283
 41
-2.3799630874
 42
-0.8149845248
  0
ELLIPSE
  5
600
100
AcDbEntity
  8
RACCORDO
100
AcDbEllipse
 62
7
  6
CONTINUOUS
 10
21.8354772046
 20
-16.1745328503
 30
0.0
 11
0.0869927845
 21
0.180102834
 31
0.0
 40
0.6016116119
 41
0.6590366007
 42
0.667763247
  0
ELLIPSE
  5
601
100
AcDbEntity
  8
0
100
AcDbEllipse
 62
7
  6
CONTINUOUS
 10
17.2438910853
 20
19.5657088077
 30
0.0
 11
0.221538876
 21
0.4482453432
 31
0.0
 40
0.6088015717
 41
0.5942086073
 42
0.6760875334
  0
ELLIPSE
  5
602
100
AcDbEntity
  8
0
100
AcDbEllipse
 62
7
  6
CONTINUOUS
 10
67.7528309233
 20
44.8403603033
 30
0.0
 11
60.4168605605
 21
30.5632322457
 31
0.0
 40
0.005706723
 41
-2.6934527084
 42
-2.563642905
  0
ELLIPSE
  5
603
100
AcDbEntity
  8
RACCORDO
100
AcDbEllipse
 62
7
  6
CONTINUOUS
 10
14.2119613468
 20
-18.407995837
 30
0.0
 11
-0.5238496996
 21
0.8572288036
 31
0.0
 40
0.5601630374
 41
-2.5030124418
 42
-2.3018347495
  0
ELLIPSE
  5
604
100
AcDbEntity
  8
RACCORDO
100
AcDbEllipse
 62
7
  6
CONTINUOUS
 10
14.225850262
 20
-18.4015814757
 30
0.0
 11
-0.4474018214
 21
0.8946702271
 31
0.0
 40
0.6121897086
 41
-2.7164230937
 42
-2.4569124849
  0
ELLIPSE
  5
605
100
AcDbEntity
  8
0
100
AcDbEllipse
 62
7
  6
CONTINUOUS
 10
67.7528309233
 20
44.8403603033
 30
0.0
 11
60.4168605605
 21
30.5632322457
 31
0.0
 40
0.005706723
 41
2.5578691718
 42
2.6876789752
  0
ELLIPSE
  5
606
100
AcDbEntity
  8
RACCORDO
100
AcDbEllipse
 62
7
  6
CONTINUOUS
 10
14.2394525487
 20
-25.2794576079
 30
0.0
 11
-0.1999840611
 21
0.4586318226
 31
0.0
 40
0.6372798266
 41
-3.1721240737
 42
-2.2231487507
  0
ELLIPSE
  5
607
100
AcDbEntity
  8
RACCORDO
100
AcDbEllipse
 62
7
  6
CONTINUOUS
 10
15.8381469959
 20
12.8806183456
 30
0.0
 11
-0.1996736685
 21
0.4584064956
 31
0.0
 40
0.6381227599
 41
-2.2220345828
 42
-0.6519234887
  0
ELLIPSE
  5
608
100
AcDbEntity
  8
RACCORDO
100
AcDbEllipse
 62
7
  6
CONTINUOUS
 10
-14.7793342386
 20
28.1893589628
 30
0.0
 11
-0.1999840611
 21
0.4586318226
 31
0.0
 40
0.6372798266
 41
-0.6516671913
 42
0.0305098256
  0
ENDSEC
  0
SECTION
  2
OBJECTS
  0
DICTIONARY
  5
C
100
AcDbDictionary
280
0
281
1
  3
ACAD_GROUP
350
D
  3
ACAD_MLINESTYLE
350
17
  3
ACAD_LAYOUT
350
1A
  3
ACAD_PLOTSETTINGS
350
19
  3
ACAD_PLOTSTYLENAME
350
E
  0
DICTIONARY
  5
D
102
{ACAD_REACTORS
330
C
102
}
100
AcDbDictionary
280
0
281
1
  0
ACDBDICTIONARYWDFLT
  5
E
102
{ACAD_REACTORS
330
C
102
}
100
AcDbDictionary
281
1
  3
Normal
350
F
100
AcDbDictionaryWithDefault
340
F
  0
DICTIONARY
  5
17
102
{ACAD_REACTORS
330
C
102
}
100
AcDbDictionary
280
0
281
1
  3
Standard
350
18
  0
DICTIONARY
  5
19
102
{ACAD_REACTORS
330
C
102
}
100
AcDbDictionary
281
1
  0
DICTIONARY
  5
1A
102
{ACAD_REACTORS
330
C
102
}
100
AcDbDictionary
281
1
  3
Model
350
609
  3
Layout1
350
60A
  0
ACDBPLACEHOLDER
  5
F
102
{ACAD_REACTORS
330
E
102
}
  0
MLINESTYLE
  5
18
102
{ACAD_REACTORS
330
17
102
}
100
AcDbMlineStyle
  2
STANDARD
 70
0
  3

 62
256
 51
90.0
 52
90.0
 71
2
 49
0.5
 62
256
  6
BYLAYER
 49
-0.5
 62
256
  6
BYLAYER
  0
LAYOUT
  5
609
102
{ACAD_REACTORS
330
1A
102
}
100
AcDbPlotSettings
  1

  2
none_device
  4
ISO_A4_(297.00_x_210.00_MM)
  6

 40
0.0
 41
0.0
 42
0.0
 43
0.0
 44
297.0
 45
210.0
 46
0.0
 47
0.0
 48
0.0
 49
0.0
140
0.0
141
0.0
142
1.0
143
1.0
 70
1024
 72
1
 73
0
 74
0
  7

 75
0
147
1.0
148
0.0
149
0.0
100
AcDbLayout
  1
Model
 70
0
 71
0
 10
0.0
 20
0.0
 11
297.0
 21
210.0
 12
0.0
 22
0.0
 32
0.0
 14
0.0
 24
0.0
 34
0.0
 15
0.0
 25
0.0
 35
0.0
146
0.0
 13
0.0
 23
0.0
 33
0.0
 16
1.0
 26
0.0
 36
0.0
 17
0.0
 27
1.0
 37
0.0
 76
0
330
226
345
0
346
0
  0
LAYOUT
  5
60A
102
{ACAD_REACTORS
330
1A
102
}
100
AcDbPlotSettings
  1

  2
none_device
  4
ISO_A4_(297.00_x_210.00_MM)
  6

 40
0.0
 41
0.0
 42
0.0
 43
0.0
 44
297.0
 45
210.0
 46
0.0
 47
0.0
 48
0.0
 49
0.0
140
0.0
141
0.0
142
1.0
143
1.0
 70
0
 72
1
 73
0
 74
0
  7

 75
0
147
1.0
148
0.0
149
0.0
100
AcDbLayout
  1
Layout1
 70
0
 71
1
 10
0.0
 20
0.0
 11
297.0
 21
210.0
 12
0.0
 22
0.0
 32
0.0
 14
0.0
 24
0.0
 34
0.0
 15
0.0
 25
0.0
 35
0.0
146
0.0
 13
0.0
 23
0.0
 33
0.0
 16
1.0
 26
0.0
 36
0.0
 17
0.0
 27
1.0
 37
0.0
 76
0
330
227
345
0
346
0
  0
ENDSEC
  0
EOF
