  0
SECTION
  2
HEADER
  9
$ACADVER
  1
AC1024
  9
$DWGCODEPAGE
  3
ANSI_1252
  9
$EXTMAX
 10
297.0
 20
210.0
 30
0.0
  9
$EXTMIN
 10
0.0
 20
0.0
 30
0.0
  9
$LIMMIN
 10
0.0
 20
0.0
  9
$LIMMAX
 10
297.0
 20
210.0
  9
$VIEWCTR
 10
148.5
 20
105.0
  9
$VIEWSIZE
 40
210.0
  9
$CLAYER
  8
0
  9
$LTSCALE
 40
16.335
  9
$CELTYPE
  6
BYLAYER
  9
$DIMSCALE
 40
1.0
  9
$DIMASZ
 40
3.0
  9
$DIMEXO
 40
0.5
  9
$DIMDLI
 40
11.286
  9
$DIMEXE
 40
1.5
  9
$DIMCEN
 40
2.673
  9
$DIMLFAC
 40
1.0
  9
$DIMBLK
  1
_FILLED
  9
$DIMALT
 70
0
  9
$DIMALTF
 40
0.0393700787
  9
$DIMTXT
 40
3.0
  9
$DIMTOL
 70
1
  9
$DIMLIM
 70
0
  9
$DIMTFAC
 40
1.0
  9
$DIMTP
 40
0.01
  9
$DIMTM
 40
0.01
  9
$DIMGAP
 40
0.625
  9
$DIMDSEP
 70
44
  9
$AUNITS
 70
0
  9
$PDMODE
 70
3
  9
$PDSIZE
 40
3.0
  9
$HANDSEED
  5
59D
  9
$TILEMODE
 70
1
  9
$MEASUREMENT
 70
1
  9
$INSUNITS
 70
4
  0
ENDSEC
  0
SECTION
  2
CLASSES
  0
CLASS
  1
ACDBDICTIONARYWDFLT
  2
AcDbDictionaryWithDefault
  3
AutoCAD 2000
 90
0
 91
1
280
0
281
0
  0
CLASS
  1
ACDBPLACEHOLDER
  2
AcDbPlaceHolder
  3
AutoCAD 2000
 90
0
 91
1
280
0
281
0
  0
CLASS
  1
LAYOUT
  2
AcDbLayout
  3
AutoCAD 2000
 90
0
 91
0
280
0
281
0
  0
ENDSEC
  0
SECTION
  2
TABLES
  0
TABLE
  2
VPORT
  5
8
100
AcDbSymbolTable
 70
2
  0
VPORT
  5
1F4
100
AcDbSymbolTableRecord
100
AcDbViewportTableRecord
  2
*ACTIVE
 70
0
 10
0.0
 20
0.0
 11
1.0
 21
1.0
 12
148.5
 22
105.0
 13
0.0
 23
0.0
 14
1.0
 24
1.0
 15
0.0
 25
0.0
 16
0.0
 26
0.0
 36
1.0
 17
0.0
 27
0.0
 37
0.0
 40
210.0
 41
1.4142857143
 42
50.0
 43
0.0
 44
0.0
 50
0.0
 51
0.0
 71
0
 72
100
 73
1
 74
1
 75
0
 76
0
 77
0
 78
0
  0
ENDTAB
  0
TABLE
  2
LTYPE
  5
5
100
AcDbSymbolTable
 70
6
  0
LTYPE
  5
14
100
AcDbSymbolTableRecord
100
AcDbLinetypeTableRecord
  2
BYBLOCK
 70
0
  3

 72
65
 73
0
 40
0.0
  0
LTYPE
  5
15
100
AcDbSymbolTableRecord
100
AcDbLinetypeTableRecord
  2
BYLAYER
 70
0
  3

 72
65
 73
0
 40
0.0
  0
LTYPE
  5
16
100
AcDbSymbolTableRecord
100
AcDbLinetypeTableRecord
  2
CONTINUOUS
 70
64
  3
Solid line
 72
65
 73
0
 40
0.0
  0
LTYPE
  5
1F5
100
AcDbSymbolTableRecord
100
AcDbLinetypeTableRecord
  2
CENTER
 70
64
  3
____ _ ____ _ ____ _ ____ _ ____ _ ____ _ ____
 72
65
 73
4
 40
0.6
 49
0.375
 74
0
 49
-0.075
 74
0
 49
0.075
 74
0
 49
-0.075
 74
0
  0
LTYPE
  5
1F6
100
AcDbSymbolTableRecord
100
AcDbLinetypeTableRecord
  2
HIDDEN
 70
64
  3
- - - - - - - - - - - - - - - - - - - -
 72
65
 73
2
 40
0.2
 49
0.1
 74
0
 49
-0.1
 74
0
  0
LTYPE
  5
1F7
100
AcDbSymbolTableRecord
100
AcDbLinetypeTableRecord
  2
PHANTOM
 70
64
  3
_____ _ _ _____ _ _ _____ _ _ _____
 72
65
 73
6
 40
0.8
 49
0.45
 74
0
 49
-0.05
 74
0
 49
0.1
 74
0
 49
-0.05
 74
0
 49
0.1
 74
0
 49
-0.05
 74
0
  0
LTYPE
  5
1F8
100
AcDbSymbolTableRecord
100
AcDbLinetypeTableRecord
  2
DOT
 70
64
  3
. . . . . . . . . . . . . . . . . . . .
 72
65
 73
2
 40
0.2
 49
0.1
 74
0
 49
-0.1
 74
0
  0
LTYPE
  5
1F9
100
AcDbSymbolTableRecord
100
AcDbLinetypeTableRecord
  2
DASHED
 70
64
  3
- - - - - - - - - - - - - - - - - - - -
 72
65
 73
2
 40
0.2
 49
0.1
 74
0
 49
-0.1
 74
0
  0
ENDTAB
  0
TABLE
  2
LAYER
  5
2
100
AcDbSymbolTable
 70
36
  0
LAYER
  5
10
100
AcDbSymbolTableRecord
100
AcDbLayerTableRecord
  2
0
 70
0
 62
7
  6
CONTINUOUS
370
-3
390
F
  0
LAYER
  5
1FA
100
AcDbSymbolTableRecord
100
AcDbLayerTableRecord
  2
DEFAULT_1
 70
0
 62
7
  6
CENTER
370
-3
390
F
  0
LAYER
  5
1FB
100
AcDbSymbolTableRecord
100
AcDbLayerTableRecord
  2
DEFAULT_2
 70
0
 62
7
  6
HIDDEN
370
-3
390
F
  0
LAYER
  5
1FC
100
AcDbSymbolTableRecord
100
AcDbLayerTableRecord
  2
DEFAULT_3
 70
0
 62
7
  6
PHANTOM
370
-3
390
F
  0
LAYER
  5
1FD
100
AcDbSymbolTableRecord
100
AcDbLayerTableRecord
  2
ASSI
 70
0
 62
7
  6
CONTINUOUS
370
-3
390
F
  0
LAYER
  5
1FE
100
AcDbSymbolTableRecord
100
AcDbLayerTableRecord
  2
COLORE_TOP
 70
0
 62
7
  6
CONTINUOUS
370
-3
390
F
  0
LAYER
  5
1FF
100
AcDbSymbolTableRecord
100
AcDbLayerTableRecord
  2
COORDINATE
 70
0
 62
7
  6
CONTINUOUS
370
-3
390
F
  0
LAYER
  5
200
100
AcDbSymbolTableRecord
100
AcDbLayerTableRecord
  2
COORD_ORIGINE
 70
0
 62
7
  6
CONTINUOUS
370
-3
390
F
  0
LAYER
  5
201
100
AcDbSymbolTableRecord
100
AcDbLayerTableRecord
  2
COPY_PUBLISH
 70
0
 62
7
  6
CONTINUOUS
370
-3
390
F
  0
LAYER
  5
202
100
AcDbSymbolTableRecord
100
AcDbLayerTableRecord
  2
COSMETIC
 70
0
 62
7
  6
CONTINUOUS
370
-3
390
F
  0
LAYER
  5
203
100
AcDbSymbolTableRecord
100
AcDbLayerTableRecord
  2
COSMETICHE
 70
0
 62
7
  6
CONTINUOUS
370
-3
390
F
  0
LAYER
  5
204
100
AcDbSymbolTableRecord
100
AcDbLayerTableRecord
  2
COSMETICI
 70
0
 62
7
  6
CONTINUOUS
370
-3
390
F
  0
LAYER
  5
205
100
AcDbSymbolTableRecord
100
AcDbLayerTableRecord
  2
CURVE
 70
0
 62
7
  6
CONTINUOUS
370
-3
390
F
  0
LAYER
  5
206
100
AcDbSymbolTableRecord
100
AcDbLayerTableRecord
  2
DRAFT
 70
0
 62
7
  6
CONTINUOUS
370
-3
390
F
  0
LAYER
  5
207
100
AcDbSymbolTableRecord
100
AcDbLayerTableRecord
  2
IMPIANTO
 70
0
 62
7
  6
CONTINUOUS
370
-3
390
F
  0
LAYER
  5
208
100
AcDbSymbolTableRecord
100
AcDbLayerTableRecord
  2
IMPORTED
 70
0
 62
7
  6
CONTINUOUS
370
-3
390
F
  0
LAYER
  5
209
100
AcDbSymbolTableRecord
100
AcDbLayerTableRecord
  2
IMPORT_IGES
 70
0
 62
7
  6
CONTINUOUS
370
-3
390
F
  0
LAYER
  5
20A
100
AcDbSymbolTableRecord
100
AcDbLayerTableRecord
  2
INCISIONI_LASER
 70
0
 62
7
  6
CONTINUOUS
370
-3
390
F
  0
LAYER
  5
20B
100
AcDbSymbolTableRecord
100
AcDbLayerTableRecord
  2
INTFCLR_11
 70
0
 62
7
  6
CONTINUOUS
370
-3
390
F
  0
LAYER
  5
20C
100
AcDbSymbolTableRecord
100
AcDbLayerTableRecord
  2
INTFCLR_3
 70
0
 62
7
  6
CONTINUOUS
370
-3
390
F
  0
LAYER
  5
20D
100
AcDbSymbolTableRecord
100
AcDbLayerTableRecord
  2
INTF_1
 70
0
 62
7
  6
CONTINUOUS
370
-3
390
F
  0
LAYER
  5
20E
100
AcDbSymbolTableRecord
100
AcDbLayerTableRecord
  2
INTF_11
 70
0
 62
7
  6
CONTINUOUS
370
-3
390
F
  0
LAYER
  5
20F
100
AcDbSymbolTableRecord
100
AcDbLayerTableRecord
  2
INTF_12
 70
0
 62
7
  6
CONTINUOUS
370
-3
390
F
  0
LAYER
  5
210
100
AcDbSymbolTableRecord
100
AcDbLayerTableRecord
  2
INTF_2
 70
0
 62
7
  6
CONTINUOUS
370
-3
390
F
  0
LAYER
  5
211
100
AcDbSymbolTableRecord
100
AcDbLayerTableRecord
  2
INTF_3
 70
0
 62
7
  6
CONTINUOUS
370
-3
390
F
  0
LAYER
  5
212
100
AcDbSymbolTableRecord
100
AcDbLayerTableRecord
  2
NOTE
 70
0
 62
7
  6
CONTINUOUS
370
-3
390
F
  0
LAYER
  5
213
100
AcDbSymbolTableRecord
100
AcDbLayerTableRecord
  2
PIANI
 70
0
 62
7
  6
CONTINUOUS
370
-3
390
F
  0
LAYER
  5
214
100
AcDbSymbolTableRecord
100
AcDbLayerTableRecord
  2
PIANI_ORIGINE
 70
0
 62
7
  6
CONTINUOUS
370
-3
390
F
  0
LAYER
  5
215
100
AcDbSymbolTableRecord
100
AcDbLayerTableRecord
  2
PIANI_SFORMO
 70
0
 62
7
  6
CONTINUOUS
370
-3
390
F
  0
LAYER
  5
216
100
AcDbSymbolTableRecord
100
AcDbLayerTableRecord
  2
PUNTI
 70
0
 62
7
  6
CONTINUOUS
370
-3
390
F
  0
LAYER
  5
217
100
AcDbSymbolTableRecord
100
AcDbLayerTableRecord
  2
RACCORDO
 70
0
 62
7
  6
CONTINUOUS
370
-3
390
F
  0
LAYER
  5
218
100
AcDbSymbolTableRecord
100
AcDbLayerTableRecord
  2
RGB__255__255__255__
 70
0
 62
7
  6
CONTINUOUS
370
-3
390
F
  0
LAYER
  5
219
100
AcDbSymbolTableRecord
100
AcDbLayerTableRecord
  2
RINTRACCIABILITA
 70
0
 62
7
  6
CONTINUOUS
370
-3
390
F
  0
LAYER
  5
21A
100
AcDbSymbolTableRecord
100
AcDbLayerTableRecord
  2
SIMBOLI
 70
0
 62
7
  6
CONTINUOUS
370
-3
390
F
  0
LAYER
  5
21B
100
AcDbSymbolTableRecord
100
AcDbLayerTableRecord
  2
SMUSSO
 70
0
 62
7
  6
CONTINUOUS
370
-3
390
F
  0
LAYER
  5
21C
100
AcDbSymbolTableRecord
100
AcDbLayerTableRecord
  2
SNAPLINE
 70
0
 62
7
  6
CONTINUOUS
370
-3
390
F
  0
LAYER
  5
21D
100
AcDbSymbolTableRecord
100
AcDbLayerTableRecord
  2
SUPERFICI
 70
0
 62
7
  6
CONTINUOUS
370
-3
390
F
  0
LAYER
  5
21E
100
AcDbSymbolTableRecord
100
AcDbLayerTableRecord
  2
TRASH
 70
0
 62
7
  6
CONTINUOUS
370
-3
390
F
  0
LAYER
  5
21F
100
AcDbSymbolTableRecord
100
AcDbLayerTableRecord
  2
WHITE
 70
0
 62
7
  6
CONTINUOUS
370
-3
390
F
  0
LAYER
  5
220
100
AcDbSymbolTableRecord
100
AcDbLayerTableRecord
  2
XSEC_DATUMS
 70
0
 62
7
  6
CONTINUOUS
370
-3
390
F
  0
LAYER
  5
221
100
AcDbSymbolTableRecord
100
AcDbLayerTableRecord
  2
___SHELL
 70
0
 62
7
  6
CONTINUOUS
370
-3
390
F
  0
ENDTAB
  0
TABLE
  2
STYLE
  5
3
100
AcDbSymbolTable
 70
1
  0
STYLE
  5
11
100
AcDbSymbolTableRecord
100
AcDbTextStyleTableRecord
  2
STANDARD
 70
0
 40
0.0
 41
0.8
 50
0.0
 71
0
 42
0.2
  3
txt
  4

  0
STYLE
  5
222
100
AcDbSymbolTableRecord
100
AcDbTextStyleTableRecord
  2
TEXTSTYLE_1
 70
0
 40
0.0
 41
0.8
 50
0.0
 71
0
 42
0.2
  3
gdt
  4

  0
ENDTAB
  0
TABLE
  2
VIEW
  5
6
100
AcDbSymbolTable
 70
0
  0
ENDTAB
  0
TABLE
  2
UCS
  5
7
100
AcDbSymbolTable
 70
0
  0
ENDTAB
  0
TABLE
  2
APPID
  5
9
100
AcDbSymbolTable
 70
1
  0
APPID
  5
223
100
AcDbSymbolTableRecord
100
AcDbRegAppTableRecord
  2
ACAD
 70
0
  0
ENDTAB
  0
TABLE
  2
BLOCK_RECORD
  5
1
100
AcDbSymbolTable
 70
0
  0
BLOCK_RECORD
  5
224
100
AcDbSymbolTableRecord
100
AcDbBlockTableRecord
  2
*Model_Space
  0
BLOCK_RECORD
  5
225
100
AcDbSymbolTableRecord
100
AcDbBlockTableRecord
  2
*Paper_Space
  0
BLOCK_RECORD
  5
226
100
AcDbSymbolTableRecord
100
AcDbBlockTableRecord
  2
_FILLED
  0
ENDTAB
  0
TABLE
  2
DIMSTYLE
  5
A
100
AcDbSymbolTable
 70
1
100
AcDbDimStyleTable
 71
0
  0
DIMSTYLE
105
227
100
AcDbSymbolTableRecord
100
AcDbDimStyleTableRecord
  2
STANDARD
 70
0
  3

  4

 40
1.0
 41
3.0
 42
0.5
 43
0.38
 44
1.5
 45
0.0
 46
0.0
 47
0.01
 48
0.01
140
3.0
141
0.09
142
0.0
143
25.4
144
1.0
145
0.0
146
1.0
147
0.625
 71
1
 72
0
 73
0
 74
0
 75
0
 76
0
 77
1
 78
8
 79
2
170
0
171
1
172
0
173
0
174
0
175
0
176
0
177
0
178
0
270
2
179
2
271
2
272
2
273
2
274
2
275
0
280
0
281
0
282
0
283
1
284
8
285
0
286
0
287
3
288
0
340
11
278
44
341
226
342
226
343
226
344
226
  0
ENDTAB
  0
ENDSEC
  0
SECTION
  2
BLOCKS
  0
BLOCK
  5
20
100
AcDbEntity
  8
0
100
AcDbBlockBegin
  2
*Model_Space
 70
0
 10
0.0
 20
0.0
 30
0.0
  3
*Model_Space
  1

  0
ENDBLK
  5
21
100
AcDbEntity
  8
0
100
AcDbBlockEnd
  0
BLOCK
  5
1C
100
AcDbEntity
  8
0
100
AcDbBlockBegin
  2
*Paper_Space
 70
0
 10
0.0
 20
0.0
 30
0.0
  3
*Paper_Space
  1

  0
ENDBLK
  5
1D
100
AcDbEntity
  8
0
100
AcDbBlockEnd
  0
BLOCK
  5
228
100
AcDbEntity
  8
0
100
AcDbBlockBegin
  2
_FILLED
 70
64
 10
0.0
 20
0.0
  3
_FILLED
  1

  0
SOLID
  5
229
100
AcDbEntity
  8
0
  6
BYBLOCK
 62
0
100
AcDbTrace
 10
0.0
 20
0.0
 11
-1.0
 21
0.3166666667
 12
-1.0
 22
-0.3166666667
 13
-1.0
 23
-0.3166666667
  0
ENDBLK
  5
22A
100
AcDbEntity
  8
0
  6
BYBLOCK
 62
0
100
AcDbBlockEnd
  0
ENDSEC
  0
SECTION
  2
ENTITIES
  0
LWPOLYLINE
  5
22B
100
AcDbEntity
  8
ASSI
100
AcDbPolyline
 62
7
  6
CONTINUOUS
 90
12
 70
0
 10
-13.1865149481
 20
26.6093310277
 10
-13.2050385897
 20
26.5982646107
 10
-13.2262479779
 20
26.5826232546
 10
-13.2460596451
 20
26.5645494377
 10
-13.2642201986
 20
26.5442123615
 10
-13.2800714851
 20
26.5224512164
 10
-13.2938827621
 20
26.4990185918
 10
-13.3056029355
 20
26.4738111977
 10
-13.3146497812
 20
26.4480230678
 10
-13.3210217193
 20
26.4219604921
 10
-13.324818878
 20
26.3949463034
 10
-13.325823099
 20
26.372244158
  0
LINE
  5
22C
100
AcDbEntity
  8
ASSI
100
AcDbLine
 62
7
  6
CONTINUOUS
 10
-13.1866560609
 20
26.6092557027
 11
-11.6194555705
 21
27.4547963215
  0
LINE
  5
22D
100
AcDbEntity
  8
ASSI
100
AcDbLine
 62
250
  6
CONTINUOUS
 10
-13.0941594398
 20
26.6051841578
 11
-11.5279086936
 21
27.4502123678
  0
LINE
  5
22E
100
AcDbEntity
  8
ASSI
100
AcDbLine
 62
7
  6
CONTINUOUS
 10
-11.6152477336
 20
27.4569021992
 11
-11.6194132371
 21
27.4548191613
  0
LWPOLYLINE
  5
22F
100
AcDbEntity
  8
ASSI
100
AcDbPolyline
 62
250
  6
CONTINUOUS
 90
7
 70
0
 10
-13.1865152047
 20
26.6093315052
 10
-13.1812159223
 20
26.6119149105
 10
-13.165749854
 20
26.6168573041
 10
-13.1490171139
 20
26.6186591632
 10
-13.131303893
 20
26.6172896694
 10
-13.112913152
 20
26.6127722462
 10
-13.0941594398
 20
26.6051841578
  0
LINE
  5
230
100
AcDbEntity
  8
ASSI
100
AcDbLine
 62
250
  6
CONTINUOUS
 10
-11.5279086936
 20
27.4502123678
 11
-10.9851826309
 21
27.7008612489
  0
LINE
  5
231
100
AcDbEntity
  8
ASSI
100
AcDbLine
 62
7
  6
CONTINUOUS
 10
-11.6151898938
 20
27.4569289892
 11
-11.0712885354
 21
27.7081202351
  0
LWPOLYLINE
  5
232
100
AcDbEntity
  8
ASSI
100
AcDbPolyline
 62
250
  6
CONTINUOUS
 90
14
 70
0
 10
-10.9851826309
 20
27.7008612489
 10
-10.9766197314
 20
27.7046776126
 10
-10.967838101
 20
27.7080639142
 10
-10.9588627174
 20
27.7109652012
 10
-10.949700921
 20
27.7133300403
 10
-10.9404072225
 20
27.7150936723
 10
-10.9310805801
 20
27.7161937504
 10
-10.9217578322
 20
27.7165873466
 10
-10.9124791057
 20
27.7162327351
 10
-10.9033453997
 20
27.7150998857
 10
-10.8943958605
 20
27.7131659475
 10
-10.8856715385
 20
27.7104108723
 10
-10.8772669918
 20
27.7068430999
 10
-10.8760923206
 20
27.7062660357
  0
LINE
  5
233
100
AcDbEntity
  8
ASSI
100
AcDbLine
 62
7
  6
CONTINUOUS
 10
-11.0481551265
 20
27.7173412924
 11
-11.0712884664
 21
27.7081200844
  0
LWPOLYLINE
  5
234
100
AcDbEntity
  8
ASSI
100
AcDbPolyline
 62
250
  6
CONTINUOUS
 90
6
 70
0
 10
-11.0712885354
 20
27.7081202351
 10
-11.054967232
 20
27.7134373188
 10
-11.0385278519
 20
27.715092506
 10
-11.021218284
 20
27.7135211868
 10
-11.0033345847
 20
27.7087502347
 10
-10.9851826309
 20
27.7008612489
  0
LWPOLYLINE
  5
235
100
AcDbEntity
  8
ASSI
100
AcDbPolyline
 62
250
  6
CONTINUOUS
 90
11
 70
0
 10
-13.1924457832
 20
26.5162992278
 10
-13.1836596933
 20
26.5278472695
 10
-13.1745570095
 20
26.5388878664
 10
-13.1651668956
 20
26.5493891705
 10
-13.1555189199
 20
26.5593197437
 10
-13.1456474684
 20
26.5686457335
 10
-13.1355883732
 20
26.5773347691
 10
-13.1253738599
 20
26.5853596025
 10
-13.1150390191
 20
26.5926930608
 10
-13.1046218729
 20
26.5993088619
 10
-13.0941594398
 20
26.6051841578
  0
LINE
  5
236
100
AcDbEntity
  8
ASSI
100
AcDbLine
 62
7
  6
CONTINUOUS
 10
-12.365239492
 20
25.4909772361
 11
-12.3317760787
 21
25.5165587843
  0
LWPOLYLINE
  5
237
100
AcDbEntity
  8
RACCORDO
100
AcDbPolyline
 62
250
  6
CONTINUOUS
 90
20
 70
0
 10
-16.7130028247
 20
22.7335077022
 10
-16.7739111283
 20
22.6925349777
 10
-16.8339638043
 20
22.646737244
 10
-16.8928555634
 20
22.5963498583
 10
-16.9503209231
 20
22.5416437854
 10
-17.0060560808
 20
22.4828890529
 10
-17.0597578758
 20
22.420381465
 10
-17.1111760726
 20
22.3544611842
 10
-17.160037293
 20
22.2854624885
 10
-17.2060797341
 20
22.2137298096
 10
-17.2490918136
 20
22.1396430094
 10
-17.2888473571
 20
22.0635766248
 10
-17.3251322213
 20
21.985913722
 10
-17.3577793678
 20
21.9070624906
 10
-17.3866168806
 20
21.8274295804
 10
-17.4114922905
 20
21.7474103569
 10
-17.4322958296
 20
21.6674024051
 10
-17.4489223169
 20
21.5878089964
 10
-17.4612748042
 20
21.5090372321
 10
-17.4692865468
 20
21.4314882001
  0
LINE
  5
238
100
AcDbEntity
  8
ASSI
100
AcDbLine
 62
7
  6
CONTINUOUS
 10
-12.9731664757
 20
25.1154778346
 11
-12.6109601204
 21
25.3301945557
  0
LINE
  5
239
100
AcDbEntity
  8
ASSI
100
AcDbLine
 62
250
  6
CONTINUOUS
 10
-12.7379129947
 20
25.1078212963
 11
-12.6109601204
 21
25.1830792383
  0
LWPOLYLINE
  5
23A
100
AcDbEntity
  8
RACCORDO
100
AcDbPolyline
 62
7
  6
CONTINUOUS
 90
18
 70
0
 10
-16.8206331518
 20
22.8110198759
 10
-16.8989513515
 20
22.7681422589
 10
-16.9720876173
 20
22.7201958839
 10
-17.0436443046
 20
22.6652378754
 10
-17.1128894436
 20
22.6037037741
 10
-17.1781965103
 20
22.5371761489
 10
-17.2392025627
 20
22.4664411548
 10
-17.2962055141
 20
22.3914892966
 10
-17.3487244234
 20
22.313170598
 10
-17.3966004553
 20
22.232035197
 10
-17.439826434
 20
22.1482746171
 10
-17.4781968898
 20
22.0623881163
 10
-17.5115733055
 20
21.9747280713
 10
-17.5397747198
 20
21.885595137
 10
-17.5625923208
 20
21.7953704523
 10
-17.5797940682
 20
21.7043100184
 10
-17.5911172784
 20
21.6126977644
 10
-17.592908679
 20
21.5909182038
  0
LINE
  5
23B
100
AcDbEntity
  8
ASSI
100
AcDbLine
 62
250
  6
CONTINUOUS
 10
-11.0284453984
 20
25.5723271371
 11
-9.4065452718
 21
26.3895306568
  0
LINE
  5
23C
100
AcDbEntity
  8
ASSI
100
AcDbLine
 62
250
  6
CONTINUOUS
 10
-10.8870455813
 20
25.3284485278
 11
-9.2651454547
 21
26.1456520475
  0
LWPOLYLINE
  5
23D
100
AcDbEntity
  8
RACCORDO
100
AcDbPolyline
 62
250
  6
CONTINUOUS
 90
3
 70
0
 10
-16.589981119
 20
22.8002091359
 10
-16.6515827448
 20
22.7694584145
 10
-16.7130028247
 20
22.7335077022
  0
LINE
  5
23E
100
AcDbEntity
  8
ASSI
100
AcDbLine
 62
250
  6
CONTINUOUS
 10
-9.4065452718
 20
26.3895306568
 11
-8.8824408052
 21
26.649490336
  0
LINE
  5
23F
100
AcDbEntity
  8
ASSI
100
AcDbLine
 62
250
  6
CONTINUOUS
 10
-9.2651454547
 20
26.1456520475
 11
-8.7410409881
 21
26.4056117267
  0
LINE
  5
240
100
AcDbEntity
  8
RACCORDO
100
AcDbLine
 62
7
  6
CONTINUOUS
 10
-13.6243895176
 20
24.3898346162
 11
-16.8206728833
 21
22.811009364
  0
LINE
  5
241
100
AcDbEntity
  8
RACCORDO
100
AcDbLine
 62
250
  6
CONTINUOUS
 10
-13.397269854
 20
24.3772699255
 11
-16.5899810954
 21
22.8002091476
  0
LWPOLYLINE
  5
242
100
AcDbEntity
  8
ASSI
100
AcDbPolyline
 62
250
  6
CONTINUOUS
 90
28
 70
0
 10
-8.7410409881
 20
26.4056117267
 10
-8.7393373283
 20
26.4064185213
 10
-8.737604527
 20
26.4071149486
 10
-8.7358425842
 20
26.4077010084
 10
-8.7340405768
 20
26.4081870542
 10
-8.7322094279
 20
26.4085627325
 10
-8.7303819071
 20
26.4087969837
 10
-8.7285574158
 20
26.4088852313
 10
-8.7267365526
 20
26.4088320518
 10
-8.7249538824
 20
26.4086201146
 10
-8.7232104101
 20
26.4082440126
 10
-8.7215051309
 20
26.4077091529
 10
-8.7198695953
 20
26.4070144267
 10
-8.7183069439
 20
26.4061558361
 10
-8.7168140362
 20
26.4051373789
 10
-8.7154130013
 20
26.4039699398
 10
-8.7141066322
 20
26.4026518715
 10
-8.7128921358
 20
26.4011848212
 10
-8.711783262
 20
26.3995846157
 10
-8.7107813919
 20
26.3978499024
 10
-8.7098851443
 20
26.3959820337
 10
-8.7091041258
 20
26.3940008933
 10
-8.7084396123
 20
26.3919051731
 10
-8.7078903278
 20
26.3896961812
 10
-8.7074620509
 20
26.3873977254
 10
-8.7071567078
 20
26.3850177417
 10
-8.7069723722
 20
26.3825482942
 10
-8.7069090442
 20
26.3799893828
  0
LWPOLYLINE
  5
243
100
AcDbEntity
  8
ASSI
100
AcDbPolyline
 62
250
  6
CONTINUOUS
 90
14
 70
0
 10
-8.8824408052
 20
26.649490336
 10
-8.8738506308
 20
26.6533734983
 10
-8.8650556114
 20
26.656811764
 10
-8.8560811728
 20
26.6597518725
 10
-8.8469353685
 20
26.6621444492
 10
-8.8376724431
 20
26.6639267094
 10
-8.8283900558
 20
26.6650382438
 10
-8.8191247075
 20
26.6654386925
 10
-8.8099160424
 20
26.6650890012
 10
-8.8008631406
 20
26.6639615279
 10
-8.7920052227
 20
26.6620366075
 10
-8.7833808404
 20
26.6592970141
 10
-8.7750787651
 20
26.6557521406
 10
-8.7741073611
 20
26.6552735562
  0
LWPOLYLINE
  5
244
100
AcDbEntity
  8
ASSI
100
AcDbPolyline
 62
7
  6
CONTINUOUS
 90
12
 70
0
 10
-10.1675962054
 20
24.7657034556
 10
-10.1896289416
 20
24.7450586964
 10
-10.2135167332
 20
24.7257936024
 10
-10.2390839715
 20
24.708301005
 10
-10.2662842218
 20
24.6929487458
 10
-10.2946988537
 20
24.6800953872
 10
-10.3235139
 20
24.6700268139
 10
-10.3523435775
 20
24.6629295284
 10
-10.38089214
 20
24.6589819039
 10
-10.4084292175
 20
24.6582408997
 10
-10.4344837956
 20
24.6606332288
 10
-10.4452912088
 20
24.6626232268
  0
LWPOLYLINE
  5
245
100
AcDbEntity
  8
ASSI
100
AcDbPolyline
 62
250
  6
CONTINUOUS
 90
13
 70
0
 10
-7.3547063524
 20
24.7114105951
 10
-7.372938165
 20
24.7004556149
 10
-7.3908236118
 20
24.6868068449
 10
-7.4080634209
 20
24.6706926658
 10
-7.4243691242
 20
24.652382711
 10
-7.4394678832
 20
24.6321833554
 10
-7.4531070553
 20
24.6104325886
 10
-7.4650584202
 20
24.5874943593
 10
-7.4751219996
 20
24.5637524858
 10
-7.4831294027
 20
24.5396042335
 10
-7.4889466442
 20
24.5154536676
 10
-7.4924763858
 20
24.491704892
 10
-7.4936595656
 20
24.4687552877
  0
LWPOLYLINE
  5
246
100
AcDbEntity
  8
ASSI
100
AcDbPolyline
 62
7
  6
CONTINUOUS
 90
12
 70
0
 10
-7.4700325054
 20
24.7166581096
 10
-7.4723959609
 20
24.7153648839
 10
-7.4926031906
 20
24.702657391
 10
-7.5113819446
 20
24.687761381
 10
-7.5284609222
 20
24.6708765946
 10
-7.5437299884
 20
24.6520765462
 10
-7.5569603964
 20
24.6315782256
 10
-7.5679489068
 20
24.6096698436
 10
-7.5766199919
 20
24.5864455605
 10
-7.5828564156
 20
24.5620695445
 10
-7.5865280516
 20
24.5368672838
 10
-7.5875879601
 20
24.5138966988
  0
LINE
  5
247
100
AcDbEntity
  8
ASSI
100
AcDbLine
 62
7
  6
CONTINUOUS
 10
-10.1675962054
 20
24.0075030094
 11
-9.2651454547
 21
24.5001774004
  0
LINE
  5
248
100
AcDbEntity
  8
ASSI
100
AcDbLine
 62
7
  6
CONTINUOUS
 10
-7.2582856311
 20
24.8309012788
 11
-7.4700804664
 21
24.7166331062
  0
LINE
  5
249
100
AcDbEntity
  8
ASSI
100
AcDbLine
 62
250
  6
CONTINUOUS
 10
-7.1438520351
 20
24.8251713366
 11
-7.3547063524
 21
24.7114105951
  0
LWPOLYLINE
  5
24A
100
AcDbEntity
  8
ASSI
100
AcDbPolyline
 62
250
  6
CONTINUOUS
 90
9
 70
0
 10
-2.7412859287
 20
26.3033361741
 10
-2.714919546
 20
26.3174451665
 10
-2.6917444296
 20
26.3328179785
 10
-2.672009727
 20
26.3492867577
 10
-2.6559283774
 20
26.366670721
 10
-2.6436699902
 20
26.3847822563
 10
-2.6353628157
 20
26.4034295852
 10
-2.6310972935
 20
26.4224139163
 10
-2.6305031467
 20
26.4341167701
  0
LWPOLYLINE
  5
24B
100
AcDbEntity
  8
ASSI
100
AcDbPolyline
 62
250
  6
CONTINUOUS
 90
31
 70
0
 10
-2.9149168683
 20
26.604042723
 10
-2.9059164985
 20
26.6088543329
 10
-2.8981265279
 20
26.6139955635
 10
-2.8915469563
 20
26.6194664147
 10
-2.8861277888
 20
26.6253355982
 10
-2.8819190204
 20
26.6315344023
 10
-2.879070636
 20
26.6378566921
 10
-2.8776315319
 20
26.6443037327
 10
-2.8775528119
 20
26.650874259
 10
-2.8788377718
 20
26.6573583408
 10
-2.881530822
 20
26.6637532122
 10
-2.8855875522
 20
26.6700616391
 10
-2.890878027
 20
26.6760819894
 10
-2.8974419501
 20
26.6818049728
 10
-2.9052396177
 20
26.6872398795
 10
-2.9140219829
 20
26.6922129484
 10
-2.9238209114
 20
26.6967092608
 10
-2.9346045375
 20
26.7007437353
 10
-2.9460282167
 20
26.704187366
 10
-2.9581126295
 20
26.707021119
 10
-2.9708370955
 20
26.7092640282
 10
-2.9837949279
 20
26.7108441893
 10
-2.9969936842
 20
26.7117401077
 10
-3.0104258071
 20
26.7119732781
 10
-3.0236619375
 20
26.7115362805
 10
-3.0366968502
 20
26.7104071853
 10
-3.0495357704
 20
26.708607922
 10
-3.0617650157
 20
26.7061968596
 10
-3.0732466918
 20
26.7031934544
 10
-3.0841186929
 20
26.6995782501
 10
-3.0943810191
 20
26.6953512466
  0
LINE
  5
24C
100
AcDbEntity
  8
ASSI
100
AcDbLine
 62
7
  6
CONTINUOUS
 10
-7.2582313382
 20
24.8309305167
 11
-7.2530232924
 21
24.8335348972
  0
LWPOLYLINE
  5
24D
100
AcDbEntity
  8
ASSI
100
AcDbPolyline
 62
250
  6
CONTINUOUS
 90
13
 70
0
 10
-7.4700313888
 20
24.716659567
 10
-7.4647518583
 20
24.7192942467
 10
-7.456114066
 20
24.7227698134
 10
-7.4470969672
 20
24.7254168357
 10
-7.4377356887
 20
24.7272254418
 10
-7.4280626214
 20
24.728189811
 10
-7.4181129133
 20
24.7283066289
 10
-7.4079226819
 20
24.7275754917
 10
-7.3975295761
 20
24.725999136
 10
-7.3869723995
 20
24.7235837904
 10
-7.3762901085
 20
24.720338727
 10
-7.3655216117
 20
24.716275963
 10
-7.3547063524
 20
24.7114105951
  0
LINE
  5
24E
100
AcDbEntity
  8
ASSI
100
AcDbLine
 62
7
  6
CONTINUOUS
 10
-1.5498215857
 20
28.2664851279
 11
-8.5970097396
 21
24.8580997943
  0
LINE
  5
24F
100
AcDbEntity
  8
ASSI
100
AcDbLine
 62
250
  6
CONTINUOUS
 10
-6.2299970988
 20
25.0188545735
 11
-2.9149168683
 21
26.604042723
  0
LINE
  5
250
100
AcDbEntity
  8
ASSI
100
AcDbLine
 62
250
  6
CONTINUOUS
 10
-5.8377027282
 20
24.8227073882
 11
-2.7412859287
 21
26.3033361741
  0
LINE
  5
251
100
AcDbEntity
  8
ASSI
100
AcDbLine
 62
7
  6
CONTINUOUS
 10
-3.202285874
 20
26.7042996738
 11
-7.2529535353
 21
24.8335671134
  0
LINE
  5
252
100
AcDbEntity
  8
ASSI
100
AcDbLine
 62
250
  6
CONTINUOUS
 10
-3.0943810191
 20
26.6953512466
 11
-7.1438520351
 21
24.8251713366
  0
LINE
  5
253
100
AcDbEntity
  8
ASSI
100
AcDbLine
 62
7
  6
CONTINUOUS
 10
-3.1668246376
 20
26.7186141754
 11
-3.2024264764
 21
26.7042306714
  0
LINE
  5
254
100
AcDbEntity
  8
0
100
AcDbLine
 62
250
  6
CONTINUOUS
 10
-10.5379376608
 20
22.9822814983
 11
-10.3385617812
 21
23.0560635826
  0
LWPOLYLINE
  5
255
100
AcDbEntity
  8
ASSI
100
AcDbPolyline
 62
7
  6
CONTINUOUS
 90
3
 70
0
 10
-7.2530232924
 20
24.8335348972
 10
-7.2322264546
 20
24.8403627388
 10
-7.2114928326
 20
24.842516228
  0
LWPOLYLINE
  5
256
100
AcDbEntity
  8
ASSI
100
AcDbPolyline
 62
7
  6
CONTINUOUS
 90
6
 70
0
 10
-12.4049970619
 20
25.4526392542
 10
-12.4032007645
 20
25.4563192607
 10
-12.3979751388
 20
25.4625110562
 10
-12.3897779294
 20
25.4708513845
 10
-12.3788054789
 20
25.4804131771
 10
-12.365239492
 20
25.4909772361
  0
LWPOLYLINE
  5
257
100
AcDbEntity
  8
ASSI
100
AcDbPolyline
 62
250
  6
CONTINUOUS
 90
7
 70
0
 10
-8.7125907056
 20
25.9373104472
 10
-8.7116076412
 20
25.9386587109
 10
-8.7087902538
 20
25.9460246604
 10
-8.7086693213
 20
25.9553702589
 10
-8.7112468902
 20
25.9665373696
 10
-8.7164793454
 20
25.9793370345
 10
-8.7242781488
 20
25.9935526708
  0
LWPOLYLINE
  5
258
100
AcDbEntity
  8
ASSI
100
AcDbPolyline
 62
7
  6
CONTINUOUS
 90
6
 70
0
 10
-8.7126159437
 20
25.9372795052
 10
-8.7031411413
 20
25.9497084142
 10
-8.689528654
 20
25.9705630478
 10
-8.6776755228
 20
25.9928295947
 10
-8.6677325939
 20
26.016390023
 10
-8.6600786963
 20
26.0403668402
  0
LINE
  5
259
100
AcDbEntity
  8
ASSI
100
AcDbLine
 62
250
  6
CONTINUOUS
 10
-8.7242781488
 20
25.9935526708
 11
-9.2651454547
 21
25.3242651846
  0
LINE
  5
25A
100
AcDbEntity
  8
ASSI
100
AcDbLine
 62
7
  6
CONTINUOUS
 10
-8.7125907056
 20
25.9373104472
 11
-9.2651454547
 21
25.2535605238
  0
LWPOLYLINE
  5
25B
100
AcDbEntity
  8
ASSI
100
AcDbPolyline
 62
250
  6
CONTINUOUS
 90
13
 70
0
 10
-5.1347578638
 20
23.6014363508
 10
-5.1529896886
 20
23.5904813623
 10
-5.1708751447
 20
23.5768325823
 10
-5.1881149603
 20
23.5607183927
 10
-5.2044206669
 20
23.5424084281
 10
-5.2195194264
 20
23.5222090645
 10
-5.233158596
 20
23.5004582927
 10
-5.2451099563
 20
23.4775200624
 10
-5.2551735296
 20
23.453778192
 10
-5.2631809261
 20
23.429629947
 10
-5.2689981616
 20
23.4054793922
 10
-5.2725278989
 20
23.3817306311
 10
-5.2737110771
 20
23.3587810434
  0
LWPOLYLINE
  5
25C
100
AcDbEntity
  8
ASSI
100
AcDbPolyline
 62
250
  6
CONTINUOUS
 90
7
 70
0
 10
2.0081307956
 20
26.1779829888
 10
2.0253794703
 20
26.1877910391
 10
2.0399140398
 20
26.1985892582
 10
2.0514857464
 20
26.2101929283
 10
2.0598965152
 20
26.222403546
 10
2.0650023368
 20
26.2350122043
 10
2.0667109675
 20
26.2484891863
  0
LWPOLYLINE
  5
25D
100
AcDbEntity
  8
ASSI
100
AcDbPolyline
 62
7
  6
CONTINUOUS
 90
10
 70
0
 10
-3.7579044546
 20
22.8604047311
 10
-3.7659563595
 20
22.8558307446
 10
-3.789616922
 20
22.839522693
 10
-3.8111491098
 20
22.8200555198
 10
-3.830087518
 20
22.7977368608
 10
-3.8459999262
 20
22.7730257149
 10
-3.858749614
 20
22.7460177154
 10
-3.8680575957
 20
22.716973278
 10
-3.8736091346
 20
22.6865098763
 10
-3.8752770297
 20
22.6577625878
  0
LINE
  5
25E
100
AcDbEntity
  8
ASSI
100
AcDbLine
 62
7
  6
CONTINUOUS
 10
-4.9580080925
 20
22.1182341808
 11
-4.7396620551
 21
22.2374357006
  0
LINE
  5
25F
100
AcDbEntity
  8
ASSI
100
AcDbLine
 62
7
  6
CONTINUOUS
 10
-3.5459750299
 20
22.9747459782
 11
-3.7578981246
 21
22.8604084756
  0
LINE
  5
260
100
AcDbEntity
  8
ASSI
100
AcDbLine
 62
250
  6
CONTINUOUS
 10
-3.4315414338
 20
22.969016036
 11
-3.6423957512
 21
22.8552552944
  0
LINE
  5
261
100
AcDbEntity
  8
ASSI
100
AcDbLine
 62
7
  6
CONTINUOUS
 10
-4.7396620551
 20
22.2374357006
 11
-4.0576018248
 21
22.5890988599
  0
LINE
  5
262
100
AcDbEntity
  8
ASSI
100
AcDbLine
 62
250
  6
CONTINUOUS
 10
-5.1347578638
 20
23.6014363508
 11
-4.9164118264
 21
23.7114512323
  0
LINE
  5
263
100
AcDbEntity
  8
ASSI
100
AcDbLine
 62
250
  6
CONTINUOUS
 10
-4.9580080925
 20
23.2965880891
 11
-4.7396620551
 21
23.4066029706
  0
LINE
  5
264
100
AcDbEntity
  8
ASSI
100
AcDbLine
 62
7
  6
CONTINUOUS
 10
-3.545920737
 20
22.974775216
 11
-3.5407126912
 21
22.9773795966
  0
LINE
  5
265
100
AcDbEntity
  8
ASSI
100
AcDbLine
 62
7
  6
CONTINUOUS
 10
0.3950368032
 20
25.80066594
 11
-0.6862065665
 21
25.2600442552
  0
LINE
  5
266
100
AcDbEntity
  8
ASSI
100
AcDbLine
 62
250
  6
CONTINUOUS
 10
-4.9164118264
 20
23.7114512323
 11
-4.2631930619
 21
24.0354525551
  0
LINE
  5
267
100
AcDbEntity
  8
ASSI
100
AcDbLine
 62
250
  6
CONTINUOUS
 10
-4.7396620551
 20
23.4066029706
 11
-4.0818936436
 21
23.7328609519
  0
LINE
  5
268
100
AcDbEntity
  8
ASSI
100
AcDbLine
 62
250
  6
CONTINUOUS
 10
1.3035136966
 20
26.8398174867
 11
-0.9291955675
 21
25.771859231
  0
LINE
  5
269
100
AcDbEntity
  8
ASSI
100
AcDbLine
 62
250
  6
CONTINUOUS
 10
1.4424453707
 20
26.5977276514
 11
-0.6825971227
 21
25.5812689879
  0
LINE
  5
26A
100
AcDbEntity
  8
ASSI
100
AcDbLine
 62
7
  6
CONTINUOUS
 10
-1.62814991
 20
25.6362718776
 11
-2.7288418873
 21
25.1099486042
  0
LINE
  5
26B
100
AcDbEntity
  8
RACCORDO
100
AcDbLine
 62
7
  6
CONTINUOUS
 10
-1.5049392564
 20
24.6457220581
 11
-1.6430540585
 21
24.5804849727
  0
LINE
  5
26C
100
AcDbEntity
  8
SUPERFICI
100
AcDbLine
 62
7
  6
CONTINUOUS
 10
-1.5049392564
 20
24.6457220581
 11
-1.6430540585
 21
24.5804849727
  0
LINE
  5
26D
100
AcDbEntity
  8
RACCORDO
100
AcDbLine
 62
250
  6
CONTINUOUS
 10
-1.4214052499
 20
24.6372229713
 11
-1.5576815389
 21
24.5728542885
  0
LINE
  5
26E
100
AcDbEntity
  8
SUPERFICI
100
AcDbLine
 62
250
  6
CONTINUOUS
 10
-1.4214052499
 20
24.6372229713
 11
-1.5576815389
 21
24.5728542885
  0
LINE
  5
26F
100
AcDbEntity
  8
ASSI
100
AcDbLine
 62
7
  6
CONTINUOUS
 10
-2.8632393199
 20
23.2902592501
 11
-3.5406429341
 21
22.9774118127
  0
LINE
  5
270
100
AcDbEntity
  8
ASSI
100
AcDbLine
 62
250
  6
CONTINUOUS
 10
-2.7551136017
 20
23.2814128249
 11
-3.4315414338
 21
22.969016036
  0
LWPOLYLINE
  5
271
100
AcDbEntity
  8
RACCORDO
100
AcDbPolyline
 62
250
  6
CONTINUOUS
 90
11
 70
0
 10
-0.5879391269
 20
24.6910429445
 10
-0.5788466664
 20
24.6951333956
 10
-0.5697879922
 20
24.6984901808
 10
-0.5608008706
 20
24.7010971529
 10
-0.5519196829
 20
24.7029417571
 10
-0.5431852185
 20
24.7040129027
 10
-0.5346438701
 20
24.7043039168
 10
-0.5263270448
 20
24.7038134227
 10
-0.5182738207
 20
24.7025434103
 10
-0.5105378404
 20
24.7005058941
 10
-0.5031641977
 20
24.6977225252
  0
LWPOLYLINE
  5
272
100
AcDbEntity
  8
SUPERFICI
100
AcDbPolyline
 62
250
  6
CONTINUOUS
 90
11
 70
0
 10
-0.5879391269
 20
24.6910429445
 10
-0.5788466664
 20
24.6951333956
 10
-0.5697879922
 20
24.6984901808
 10
-0.5608008706
 20
24.7010971529
 10
-0.5519196829
 20
24.7029417571
 10
-0.5431852185
 20
24.7040129027
 10
-0.5346438701
 20
24.7043039168
 10
-0.5263270448
 20
24.7038134227
 10
-0.5182738207
 20
24.7025434103
 10
-0.5105378404
 20
24.7005058941
 10
-0.5031641977
 20
24.6977225252
  0
LINE
  5
273
100
AcDbEntity
  8
RACCORDO
100
AcDbLine
 62
7
  6
CONTINUOUS
 10
-1.5048857409
 20
24.6457473355
 11
-1.5016777007
 21
24.6471629651
  0
LINE
  5
274
100
AcDbEntity
  8
SUPERFICI
100
AcDbLine
 62
7
  6
CONTINUOUS
 10
-1.5048857409
 20
24.6457473355
 11
-1.5016777007
 21
24.6471629651
  0
LWPOLYLINE
  5
275
100
AcDbEntity
  8
RACCORDO
100
AcDbPolyline
 62
7
  6
CONTINUOUS
 90
5
 70
0
 10
-1.6431725272
 20
24.5804280704
 10
-1.6383293624
 20
24.5824856947
 10
-1.6309030026
 20
24.5848035572
 10
-1.6227565844
 20
24.5863359218
 10
-1.6138382494
 20
24.5869868355
  0
LWPOLYLINE
  5
276
100
AcDbEntity
  8
SUPERFICI
100
AcDbPolyline
 62
7
  6
CONTINUOUS
 90
5
 70
0
 10
-1.6431725272
 20
24.5804280704
 10
-1.6383293624
 20
24.5824856947
 10
-1.6309030026
 20
24.5848035572
 10
-1.6227565844
 20
24.5863359218
 10
-1.6138382494
 20
24.5869868355
  0
LWPOLYLINE
  5
277
100
AcDbEntity
  8
ASSI
100
AcDbPolyline
 62
250
  6
CONTINUOUS
 90
13
 70
0
 10
-4.9580080925
 20
23.2965880891
 10
-4.9777415026
 20
23.2882229816
 10
-4.9994694203
 20
23.2812014937
 10
-5.0228282791
 20
23.2756411139
 10
-5.0474272223
 20
23.2716348822
 10
-5.0728546435
 20
23.2692498338
 10
-5.0986850737
 20
23.2685258768
 10
-5.1244863001
 20
23.2694751251
 10
-5.149826599
 20
23.2720816951
 10
-5.1742819589
 20
23.276301972
 10
-5.1974431759
 20
23.2820653391
 10
-5.2189227006
 20
23.2892753598
 10
-5.2383611228
 20
23.297811391
  0
LINE
  5
278
100
AcDbEntity
  8
RACCORDO
100
AcDbLine
 62
7
  6
CONTINUOUS
 10
-1.431837111
 20
24.6732641023
 11
-1.5016780621
 21
24.6471627949
  0
LINE
  5
279
100
AcDbEntity
  8
SUPERFICI
100
AcDbLine
 62
7
  6
CONTINUOUS
 10
-1.431837111
 20
24.6732641023
 11
-1.5016780621
 21
24.6471627949
  0
LWPOLYLINE
  5
27A
100
AcDbEntity
  8
ASSI
100
AcDbPolyline
 62
7
  6
CONTINUOUS
 90
3
 70
0
 10
-3.5407126912
 20
22.9773795966
 10
-3.5199158534
 20
22.9842074382
 10
-3.4991822313
 20
22.9863609274
  0
LINE
  5
27B
100
AcDbEntity
  8
RACCORDO
100
AcDbLine
 62
7
  6
CONTINUOUS
 10
-1.3567980008
 20
24.6961916674
 11
-1.431837111
 21
24.6732641023
  0
LINE
  5
27C
100
AcDbEntity
  8
SUPERFICI
100
AcDbLine
 62
7
  6
CONTINUOUS
 10
-1.3567980008
 20
24.6961916674
 11
-1.431837111
 21
24.6732641023
  0
LWPOLYLINE
  5
27D
100
AcDbEntity
  8
ASSI
100
AcDbPolyline
 62
250
  6
CONTINUOUS
 90
6
 70
0
 10
2.4170008359
 20
23.8941162555
 10
2.4362563123
 20
23.8999551197
 10
2.4569079472
 20
23.9019347639
 10
2.4786140476
 20
23.90002256
 10
2.501015458
 20
23.8942502685
 10
2.5237415566
 20
23.8847135106
  0
LWPOLYLINE
  5
27E
100
AcDbEntity
  8
RACCORDO
100
AcDbPolyline
 62
7
  6
CONTINUOUS
 90
6
 70
0
 10
-1.5016777007
 20
24.6471629651
 10
-1.4884494262
 20
24.6511049901
 10
-1.472665806
 20
24.6524436255
 10
-1.4560284735
 20
24.6505498003
 10
-1.4388398724
 20
24.6454485915
 10
-1.4214052499
 20
24.6372229713
  0
LWPOLYLINE
  5
27F
100
AcDbEntity
  8
SUPERFICI
100
AcDbPolyline
 62
7
  6
CONTINUOUS
 90
6
 70
0
 10
-1.5016777007
 20
24.6471629651
 10
-1.4884494262
 20
24.6511049901
 10
-1.472665806
 20
24.6524436255
 10
-1.4560284735
 20
24.6505498003
 10
-1.4388398724
 20
24.6454485915
 10
-1.4214052499
 20
24.6372229713
  0
LWPOLYLINE
  5
280
100
AcDbEntity
  8
RACCORDO
100
AcDbPolyline
 62
7
  6
CONTINUOUS
 90
10
 70
0
 10
-3.9860427932
 20
-23.3835064935
 10
-3.9173159491
 20
-23.4102095701
 10
-3.8495395711
 20
-23.4296135515
 10
-3.7791766475
 20
-23.4431058434
 10
-3.7068813838
 20
-23.4503727071
 10
-3.6330887678
 20
-23.4512467778
 10
-3.558282852
 20
-23.4456096311
 10
-3.4830992297
 20
-23.4334245741
 10
-3.4079654491
 20
-23.4147300298
 10
-3.333577182
 20
-23.3897364476
  0
LWPOLYLINE
  5
281
100
AcDbEntity
  8
RACCORDO
100
AcDbPolyline
 62
250
  6
CONTINUOUS
 90
16
 70
0
 10
-4.3108354045
 20
-22.7188029809
 10
-4.2722159702
 20
-22.7340574685
 10
-4.2307842245
 20
-22.747379776
 10
-4.1869416081
 20
-22.7586408208
 10
-4.1411129213
 20
-22.7677314923
 10
-4.0937422075
 20
-22.7745637091
 10
-4.0452884516
 20
-22.7790712723
 10
-3.9962211319
 20
-22.7812105074
 10
-3.9470156719
 20
-22.7809606868
 10
-3.8981488335
 20
-22.7783242311
 10
-3.8500940975
 20
-22.7733266855
 10
-3.8033170762
 20
-22.7660164721
 10
-3.758271002
 20
-22.7564644213
 10
-3.7153923355
 20
-22.7447630847
 10
-3.675096537
 20
-22.731025839
 10
-3.6377740408
 20
-22.7153857873
  0
LWPOLYLINE
  5
282
100
AcDbEntity
  8
RACCORDO
100
AcDbPolyline
 62
250
  6
CONTINUOUS
 90
14
 70
0
 10
-3.9859659523
 20
-23.3835482283
 10
-4.0276289812
 20
-23.3622811672
 10
-4.0711191803
 20
-23.3335304984
 10
-4.1115550068
 20
-23.2994862455
 10
-4.1487057075
 20
-23.2603354945
 10
-4.1823917437
 20
-23.2162759668
 10
-4.2124556897
 20
-23.1675287938
 10
-4.2387251023
 20
-23.1143542144
 10
-4.2610711107
 20
-23.0570277911
 10
-4.2793942759
 20
-22.9958351045
 10
-4.2935922528
 20
-22.9310812979
 10
-4.303590984
 20
-22.8630915281
 10
-4.3093478729
 20
-22.7922120808
 10
-4.3108354287
 20
-22.7188029748
  0
LWPOLYLINE
  5
283
100
AcDbEntity
  8
RACCORDO
100
AcDbPolyline
 62
7
  6
CONTINUOUS
 90
10
 70
0
 10
-18.7151541266
 20
-16.0187733078
 10
-17.2405264351
 20
-16.841932118
 10
-15.6606497193
 20
-17.7001914699
 10
-14.0550381295
 20
-18.5485542192
 10
-12.4240658989
 20
-19.3868316761
 10
-10.7681043905
 20
-20.2148393728
 10
-9.0875324427
 20
-21.0323994013
 10
-7.3827439149
 20
-21.8393357327
 10
-5.6541396878
 20
-22.6354717355
 10
-3.9852094218
 20
-23.3838839477
  0
LINE
  5
284
100
AcDbEntity
  8
RACCORDO
100
AcDbLine
 62
7
  6
CONTINUOUS
 10
-18.7151533463
 20
-16.0187737492
 11
-18.7148944752
 21
-16.0189200792
  0
LWPOLYLINE
  5
285
100
AcDbEntity
  8
RACCORDO
100
AcDbPolyline
 62
250
  6
CONTINUOUS
 90
31
 70
0
 10
-19.0110099107
 20
-15.3687157103
 10
-18.5660682931
 20
-15.6205613063
 10
-18.1191073758
 20
-15.8714387121
 10
-17.6701379941
 20
-16.1213445443
 10
-17.2192777492
 20
-16.3702168003
 10
-16.7664316637
 20
-16.6181111515
 10
-16.3112871972
 20
-16.865198964
 10
-15.8536941871
 20
-17.111559145
 10
-15.393814292
 20
-17.3571020492
 10
-14.9318003058
 20
-17.6017452624
 10
-14.4677049222
 20
-17.8454614032
 10
-14.0014929285
 20
-18.088269506
 10
-13.533187488
 20
-18.3301576935
 10
-13.0627276052
 20
-18.5711573209
 10
-12.5901910816
 20
-18.8112284121
 10
-12.1158124557
 20
-19.0502534607
 10
-11.639900744
 20
-19.2880816116
 10
-11.1621730445
 20
-19.5248592074
 10
-10.6819703929
 20
-19.7609120611
 10
-10.2002221506
 20
-19.9957842314
 10
-9.7160135841
 20
-20.2299221503
 10
-9.2258671509
 20
-20.4649814772
 10
-8.7305809188
 20
-20.7005388257
 10
-8.229283206
 20
-20.9369669722
 10
-7.7158719128
 20
-21.1770599683
 10
-7.1900495283
 20
-21.42083697
 10
-6.6518754829
 20
-21.6681473045
 10
-6.0956325159
 20
-21.9214576105
 10
-5.5192502664
 20
-22.1815023624
 10
-4.924385866
 20
-22.4473222623
 10
-4.3108354056
 20
-22.7188029609
  0
LWPOLYLINE
  5
286
100
AcDbEntity
  8
RACCORDO
100
AcDbPolyline
 62
250
  6
CONTINUOUS
 90
9
 70
0
 10
-19.0109997995
 20
-15.3687114238
 10
-19.041509331
 20
-15.3494016174
 10
-19.0680745009
 20
-15.3287257537
 10
-19.0904379193
 20
-15.3068841615
 10
-19.1083829067
 20
-15.284088464
 10
-19.1217355941
 20
-15.2605595288
 10
-19.1303666073
 20
-15.2365253277
 10
-19.1341923203
 20
-15.2122187281
 10
-19.1343923343
 20
-15.2041416743
  0
LWPOLYLINE
  5
287
100
AcDbEntity
  8
RACCORDO
100
AcDbPolyline
 62
250
  6
CONTINUOUS
 90
13
 70
0
 10
-19.0110099042
 20
-15.3687157055
 10
-19.0093265679
 20
-15.4422227067
 10
-19.0032503218
 20
-15.5132618353
 10
-18.9928158737
 20
-15.5814694644
 10
-18.9780881419
 20
-15.6464881474
 10
-18.959141778
 20
-15.7079924312
 10
-18.9360575613
 20
-15.7656879572
 10
-18.90895893
 20
-15.8192771452
 10
-18.8779889227
 20
-15.8684773483
 10
-18.8432872598
 20
-15.9130446889
 10
-18.8050421279
 20
-15.9527426552
 10
-18.7634552618
 20
-15.9873624276
 10
-18.7151533463
 20
-16.0187737492
  0
LINE
  5
288
100
AcDbEntity
  8
RACCORDO
100
AcDbLine
 62
7
  6
CONTINUOUS
 10
-1.6577852571
 20
24.5708085415
 11
-3.4088716624
 21
23.0382681527
  0
LINE
  5
289
100
AcDbEntity
  8
SUPERFICI
100
AcDbLine
 62
7
  6
CONTINUOUS
 10
-1.6577852571
 20
24.5708085415
 11
-3.4088716624
 21
23.0382681527
  0
LINE
  5
28A
100
AcDbEntity
  8
RACCORDO
100
AcDbLine
 62
7
  6
CONTINUOUS
 10
-3.8752775624
 20
22.6300724879
 11
-3.9104077805
 21
22.5993267304
  0
LINE
  5
28B
100
AcDbEntity
  8
SUPERFICI
100
AcDbLine
 62
7
  6
CONTINUOUS
 10
-3.8752775624
 20
22.6300724879
 11
-3.9104077805
 21
22.5993267304
  0
LINE
  5
28C
100
AcDbEntity
  8
RACCORDO
100
AcDbLine
 62
250
  6
CONTINUOUS
 10
-1.5583404134
 20
24.5731837257
 11
-3.2040667331
 21
23.1328538561
  0
LINE
  5
28D
100
AcDbEntity
  8
SUPERFICI
100
AcDbLine
 62
250
  6
CONTINUOUS
 10
-1.5583404134
 20
24.5731837257
 11
-3.2040667331
 21
23.1328538561
  0
LWPOLYLINE
  5
28E
100
AcDbEntity
  8
RACCORDO
100
AcDbPolyline
 62
7
  6
CONTINUOUS
 90
5
 70
0
 10
-1.657882496
 20
24.5707229431
 10
-1.6568016926
 20
24.5716544636
 10
-1.6512533279
 20
24.5758371999
 10
-1.6450988679
 20
24.5794748486
 10
-1.6431725272
 20
24.5804280704
  0
LWPOLYLINE
  5
28F
100
AcDbEntity
  8
SUPERFICI
100
AcDbPolyline
 62
7
  6
CONTINUOUS
 90
5
 70
0
 10
-1.657882496
 20
24.5707229431
 10
-1.6568016926
 20
24.5716544636
 10
-1.6512533279
 20
24.5758371999
 10
-1.6450988679
 20
24.5794748486
 10
-1.6431725272
 20
24.5804280704
  0
LINE
  5
290
100
AcDbEntity
  8
RACCORDO
100
AcDbLine
 62
250
  6
CONTINUOUS
 10
-2.4623433049
 20
23.1350276766
 11
-1.5326131916
 21
23.8638462864
  0
LINE
  5
291
100
AcDbEntity
  8
SUPERFICI
100
AcDbLine
 62
250
  6
CONTINUOUS
 10
-2.4623433049
 20
23.1350276766
 11
-1.5326131916
 21
23.8638462864
  0
LINE
  5
292
100
AcDbEntity
  8
RACCORDO
100
AcDbLine
 62
250
  6
CONTINUOUS
 10
-2.1844536419
 20
22.9960828451
 11
-1.3598060617
 21
23.6425268985
  0
LINE
  5
293
100
AcDbEntity
  8
SUPERFICI
100
AcDbLine
 62
250
  6
CONTINUOUS
 10
-2.1844536419
 20
22.9960828451
 11
-1.3598060617
 21
23.6425268985
  0
LWPOLYLINE
  5
294
100
AcDbEntity
  8
RACCORDO
100
AcDbPolyline
 62
250
  6
CONTINUOUS
 90
16
 70
0
 10
-1.5326131916
 20
23.8638462864
 10
-1.4914342724
 20
23.8933924163
 10
-1.4482389
 20
23.9200025524
 10
-1.4030270747
 20
23.9436766948
 10
-1.3552501066
 20
23.9645716628
 10
-1.3054566855
 20
23.9825306371
 10
-1.2552928803
 20
23.9970831593
 10
-1.2047870894
 20
24.0081016574
 10
-1.1539109143
 20
24.0157137034
 10
-1.1042252289
 20
24.0198315553
 10
-1.0558702746
 20
24.0203697507
 10
-1.00870581
 20
24.017413752
 10
-0.963871985
 20
24.0111322039
 10
-0.9217488496
 20
24.0015813211
 10
-0.8819563539
 20
23.9887048889
 10
-0.8444944979
 20
23.9725029072
  0
LWPOLYLINE
  5
295
100
AcDbEntity
  8
SUPERFICI
100
AcDbPolyline
 62
250
  6
CONTINUOUS
 90
16
 70
0
 10
-1.5326131916
 20
23.8638462864
 10
-1.4914342724
 20
23.8933924163
 10
-1.4482389
 20
23.9200025524
 10
-1.4030270747
 20
23.9436766948
 10
-1.3552501066
 20
23.9645716628
 10
-1.3054566855
 20
23.9825306371
 10
-1.2552928803
 20
23.9970831593
 10
-1.2047870894
 20
24.0081016574
 10
-1.1539109143
 20
24.0157137034
 10
-1.1042252289
 20
24.0198315553
 10
-1.0558702746
 20
24.0203697507
 10
-1.00870581
 20
24.017413752
 10
-0.963871985
 20
24.0111322039
 10
-0.9217488496
 20
24.0015813211
 10
-0.8819563539
 20
23.9887048889
 10
-0.8444944979
 20
23.9725029072
  0
LINE
  5
296
100
AcDbEntity
  8
ASSI
100
AcDbLine
 62
250
  6
CONTINUOUS
 10
-1.4224472626
 20
21.7452810502
 11
-1.2041012252
 21
21.8552959317
  0
LINE
  5
297
100
AcDbEntity
  8
ASSI
100
AcDbLine
 62
250
  6
CONTINUOUS
 10
-1.2456974912
 20
21.4404327885
 11
-1.0273514539
 21
21.55044767
  0
LINE
  5
298
100
AcDbEntity
  8
ASSI
100
AcDbLine
 62
250
  6
CONTINUOUS
 10
2.7064274788
 20
23.7949469977
 11
-1.2041012252
 21
21.8552959317
  0
LINE
  5
299
100
AcDbEntity
  8
ASSI
100
AcDbLine
 62
250
  6
CONTINUOUS
 10
2.8831772502
 20
23.490098736
 11
-1.0273514539
 21
21.55044767
  0
LINE
  5
29A
100
AcDbEntity
  8
ASSI
100
AcDbLine
 62
7
  6
CONTINUOUS
 10
-0.8502765221
 20
22.3289942852
 11
2.4126441021
 21
23.8921600661
  0
LINE
  5
29B
100
AcDbEntity
  8
ASSI
100
AcDbLine
 62
250
  6
CONTINUOUS
 10
-0.7883095648
 20
22.2980108065
 11
2.5237415566
 21
23.8847135106
  0
LINE
  5
29C
100
AcDbEntity
  8
ASSI
100
AcDbLine
 62
7
  6
CONTINUOUS
 10
2.9849687779
 20
22.9176431846
 11
3.4058473216
 21
23.1192732618
  0
LINE
  5
29D
100
AcDbEntity
  8
ASSI
100
AcDbLine
 62
7
  6
CONTINUOUS
 10
3.6837922115
 20
23.4997697731
 11
5.840707626
 21
24.5327602544
  0
LINE
  5
29E
100
AcDbEntity
  8
ASSI
100
AcDbLine
 62
250
  6
CONTINUOUS
 10
3.6982145011
 20
23.4581541967
 11
5.9295636591
 21
24.5267925055
  0
LINE
  5
29F
100
AcDbEntity
  8
RACCORDO
100
AcDbLine
 62
7
  6
CONTINUOUS
 10
11.9610273698
 20
27.2793589875
 11
6.1637717473
 21
24.6019942266
  0
LINE
  5
2A0
100
AcDbEntity
  8
SUPERFICI
100
AcDbLine
 62
7
  6
CONTINUOUS
 10
11.9610273698
 20
27.2793589875
 11
6.1637717473
 21
24.6019942266
  0
LINE
  5
2A1
100
AcDbEntity
  8
RACCORDO
100
AcDbLine
 62
250
  6
CONTINUOUS
 10
12.3494848524
 20
27.2471446518
 11
6.4324213974
 21
24.5144486635
  0
LINE
  5
2A2
100
AcDbEntity
  8
SUPERFICI
100
AcDbLine
 62
250
  6
CONTINUOUS
 10
12.3494848524
 20
27.2471446518
 11
6.4324213974
 21
24.5144486635
  0
LWPOLYLINE
  5
2A3
100
AcDbEntity
  8
ASSI
100
AcDbPolyline
 62
250
  6
CONTINUOUS
 90
7
 70
0
 10
5.8407162144
 20
24.5327643669
 10
5.8437618691
 20
24.5341422869
 10
5.8592190401
 20
24.5389181182
 10
5.875812155
 20
24.540572498
 10
5.8932635419
 20
24.5390776767
 10
5.9112812105
 20
24.5344586031
 10
5.9295636577
 20
24.5267925048
  0
LINE
  5
2A4
100
AcDbEntity
  8
RACCORDO
100
AcDbLine
 62
7
  6
CONTINUOUS
 10
-1.3598060617
 20
22.7776083706
 11
-1.5638145895
 21
22.6857633189
  0
LINE
  5
2A5
100
AcDbEntity
  8
SUPERFICI
100
AcDbLine
 62
7
  6
CONTINUOUS
 10
-1.3598060617
 20
22.7776083706
 11
-1.5638145895
 21
22.6857633189
  0
LINE
  5
2A6
100
AcDbEntity
  8
ASSI
100
AcDbLine
 62
250
  6
CONTINUOUS
 10
2.412644298
 20
23.8921601599
 11
2.4170008359
 21
23.8941162555
  0
LINE
  5
2A7
100
AcDbEntity
  8
ASSI
100
AcDbLine
 62
7
  6
CONTINUOUS
 10
5.8937362671
 20
24.5558676152
 11
5.8407230149
 21
24.5327501682
  0
LWPOLYLINE
  5
2A8
100
AcDbEntity
  8
ASSI
100
AcDbPolyline
 62
250
  6
CONTINUOUS
 90
10
 70
0
 10
5.9295636591
 20
24.5267925055
 10
5.9817337147
 20
24.5494342619
 10
6.0334987263
 20
24.567209911
 10
6.0845751144
 20
24.5800224464
 10
6.1346813181
 20
24.5878028184
 10
6.1835436979
 20
24.5905083059
 10
6.2308980171
 20
24.5881226595
 10
6.2764830042
 20
24.5806599573
 10
6.3200480399
 20
24.5681614361
 10
6.3622124799
 20
24.5502678649
  0
LWPOLYLINE
  5
2A9
100
AcDbEntity
  8
ASSI
100
AcDbPolyline
 62
250
  6
CONTINUOUS
 90
31
 70
0
 10
2.5237415566
 20
23.8847135106
 10
2.533793992
 20
23.8890172572
 10
2.5444902274
 20
23.8927194458
 10
2.5558302629
 20
23.8958200764
 10
2.5679547158
 20
23.8983415724
 10
2.5807229687
 20
23.9002615103
 10
2.5937131694
 20
23.90151262
 10
2.6069279826
 20
23.9020713936
 10
2.6203647436
 20
23.901961339
 10
2.6335936059
 20
23.9011857093
 10
2.6466078618
 20
23.8997228286
 10
2.6594142191
 20
23.8975943729
 10
2.671602955
 20
23.8948686228
 10
2.6831540986
 20
23.8915263158
 10
2.6940876207
 20
23.8875867145
 10
2.7040537116
 20
23.8831758876
 10
2.7130210168
 20
23.8782785813
 10
2.7210208907
 20
23.8729100493
 10
2.7277975867
 20
23.8672421216
 10
2.7333116517
 20
23.861265148
 10
2.7376025389
 20
23.8549887787
 10
2.7405328607
 20
23.8486137937
 10
2.7420583024
 20
23.8421370345
 10
2.7422231787
 20
23.8355616596
 10
2.7410230466
 20
23.8290979254
 10
2.738409044
 20
23.8227467875
 10
2.7344300331
 20
23.8165072902
 10
2.7292281568
 20
23.8105868236
 10
2.7228507962
 20
23.8050545177
 10
2.7152505702
 20
23.7998412424
 10
2.7064274788
 20
23.7949469977
  0
LWPOLYLINE
  5
2AA
100
AcDbEntity
  8
RACCORDO
100
AcDbPolyline
 62
250
  6
CONTINUOUS
 90
9
 70
0
 10
12.3494848524
 20
27.2471446518
 10
12.4034912539
 20
27.2701761678
 10
12.457211327
 20
27.2874178043
 10
12.5102471715
 20
27.2986825759
 10
12.5622330967
 20
27.3038264925
 10
12.6127343466
 20
27.3027383535
 10
12.6612624828
 20
27.2953829583
 10
12.7074447755
 20
27.2817888088
 10
12.7408558659
 20
27.2672789375
  0
LWPOLYLINE
  5
2AB
100
AcDbEntity
  8
SUPERFICI
100
AcDbPolyline
 62
250
  6
CONTINUOUS
 90
9
 70
0
 10
12.3494848524
 20
27.2471446518
 10
12.4034912539
 20
27.2701761678
 10
12.457211327
 20
27.2874178043
 10
12.5102471715
 20
27.2986825759
 10
12.5622330967
 20
27.3038264925
 10
12.6127343466
 20
27.3027383535
 10
12.6612624828
 20
27.2953829583
 10
12.7074447755
 20
27.2817888088
 10
12.7408558659
 20
27.2672789375
  0
LINE
  5
2AC
100
AcDbEntity
  8
ASSI
100
AcDbLine
 62
7
  6
CONTINUOUS
 10
2.4448642285
 20
23.9058329268
 11
2.4125604131
 21
23.8921101484
  0
LWPOLYLINE
  5
2AD
100
AcDbEntity
  8
RACCORDO
100
AcDbPolyline
 62
7
  6
CONTINUOUS
 90
12
 70
0
 10
11.9610273698
 20
27.2793589875
 10
12.0266548459
 20
27.306578637
 10
12.0953536764
 20
27.3288544064
 10
12.166661159
 20
27.3457537887
 10
12.2402178085
 20
27.3569181132
 10
12.3152457908
 20
27.361989836
 10
12.3906317482
 20
27.3607689892
 10
12.4658172569
 20
27.3532188542
 10
12.5401746885
 20
27.3393722227
 10
12.6126960599
 20
27.3194626059
 10
12.6830480915
 20
27.2936731551
 10
12.7408882204
 20
27.26726276
  0
LWPOLYLINE
  5
2AE
100
AcDbEntity
  8
SUPERFICI
100
AcDbPolyline
 62
7
  6
CONTINUOUS
 90
12
 70
0
 10
11.9610273698
 20
27.2793589875
 10
12.0266548459
 20
27.306578637
 10
12.0953536764
 20
27.3288544064
 10
12.166661159
 20
27.3457537887
 10
12.2402178085
 20
27.3569181132
 10
12.3152457908
 20
27.361989836
 10
12.3906317482
 20
27.3607689892
 10
12.4658172569
 20
27.3532188542
 10
12.5401746885
 20
27.3393722227
 10
12.6126960599
 20
27.3194626059
 10
12.6830480915
 20
27.2936731551
 10
12.7408882204
 20
27.26726276
  0
LWPOLYLINE
  5
2AF
100
AcDbEntity
  8
RACCORDO
100
AcDbPolyline
 62
250
  6
CONTINUOUS
 90
9
 70
0
 10
11.9610273698
 20
27.2793589875
 10
11.9889399953
 20
27.290757967
 10
12.0354544083
 20
27.30373702
 10
12.0842733609
 20
27.3103146133
 10
12.1350254555
 20
27.3104407069
 10
12.1873245875
 20
27.3041143414
 10
12.2407728832
 20
27.2913836457
 10
12.2949637266
 20
27.2723454706
 10
12.3494848524
 20
27.2471446518
  0
LWPOLYLINE
  5
2B0
100
AcDbEntity
  8
SUPERFICI
100
AcDbPolyline
 62
250
  6
CONTINUOUS
 90
9
 70
0
 10
11.9610273698
 20
27.2793589875
 10
11.9889399953
 20
27.290757967
 10
12.0354544083
 20
27.30373702
 10
12.0842733609
 20
27.3103146133
 10
12.1350254555
 20
27.3104407069
 10
12.1873245875
 20
27.3041143414
 10
12.2407728832
 20
27.2913836457
 10
12.2949637266
 20
27.2723454706
 10
12.3494848524
 20
27.2471446518
  0
LWPOLYLINE
  5
2B1
100
AcDbEntity
  8
ASSI
100
AcDbPolyline
 62
7
  6
CONTINUOUS
 90
3
 70
0
 10
0.9712550056
 20
21.1636528637
 10
0.9878924758
 20
21.169115137
 10
1.0044793735
 20
21.1708379283
  0
LINE
  5
2B2
100
AcDbEntity
  8
ASSI
100
AcDbLine
 62
250
  6
CONTINUOUS
 10
3.8622225563
 20
-21.5243018212
 11
3.3213552504
 21
-21.415098826
  0
LINE
  5
2B3
100
AcDbEntity
  8
ASSI
100
AcDbLine
 62
250
  6
CONTINUOUS
 10
3.7891161291
 20
-21.2694909128
 11
3.3213552504
 21
-21.1750483603
  0
LWPOLYLINE
  5
2B4
100
AcDbEntity
  8
ASSI
100
AcDbPolyline
 62
7
  6
CONTINUOUS
 90
4
 70
0
 10
2.1052445528
 20
-21.6639590523
 10
2.1276409065
 20
-21.6691964167
 10
2.152012979
 20
-21.6751047483
 10
2.2055980044
 20
-21.6882571307
  0
LWPOLYLINE
  5
2B5
100
AcDbEntity
  8
ASSI
100
AcDbPolyline
 62
7
  6
CONTINUOUS
 90
9
 70
0
 10
2.2055980044
 20
-21.6882571307
 10
2.2341424145
 20
-21.6950956236
 10
2.262969262
 20
-21.7018773971
 10
2.2917828717
 20
-21.7082095012
 10
2.3201973435
 20
-21.7138799603
 10
2.3473997778
 20
-21.7189497267
 10
2.3729715087
 20
-21.7232433587
 10
2.3968651519
 20
-21.7263551191
 10
2.4189044997
 20
-21.7280236567
  0
LWPOLYLINE
  5
2B6
100
AcDbEntity
  8
ASSI
100
AcDbPolyline
 62
250
  6
CONTINUOUS
 90
13
 70
0
 10
1.3837574308
 20
-22.9580809102
 10
1.403195853
 20
-22.9666169415
 10
1.4246753777
 20
-22.9738269622
 10
1.4478365947
 20
-22.9795903292
 10
1.4722919546
 20
-22.9838106061
 10
1.4976322535
 20
-22.9864171761
 10
1.5234334799
 20
-22.9873664244
 10
1.5492639101
 20
-22.9866424674
 10
1.5746913313
 20
-22.984257419
 10
1.5992902745
 20
-22.9802511874
 10
1.6226491333
 20
-22.9746908075
 10
1.644377051
 20
-22.9676693197
 10
1.6641104611
 20
-22.9593042121
  0
LWPOLYLINE
  5
2B7
100
AcDbEntity
  8
ASSI
100
AcDbPolyline
 62
250
  6
CONTINUOUS
 90
13
 70
0
 10
1.3837574308
 20
-22.6408121098
 10
1.4031958691
 20
-22.6493481474
 10
1.4246754099
 20
-22.6565581713
 10
1.4478366415
 20
-22.6623215389
 10
1.4722920133
 20
-22.666541814
 10
1.4976323203
 20
-22.6691483806
 10
1.52343355
 20
-22.6700976246
 10
1.549263978
 20
-22.6693736632
 10
1.5746913921
 20
-22.6669886111
 10
1.5992903238
 20
-22.6629823773
 10
1.6226491676
 20
-22.6574219977
 10
1.6443770684
 20
-22.6504005129
 10
1.6641104611
 20
-22.6420354117
  0
LWPOLYLINE
  5
2B8
100
AcDbEntity
  8
ASSI
100
AcDbPolyline
 62
7
  6
CONTINUOUS
 90
10
 70
0
 10
1.4486790475
 20
-23.0932721538
 10
1.4611359527
 20
-23.0990424765
 10
1.4824712745
 20
-23.1068496477
 10
1.5046500488
 20
-23.1124437905
 10
1.5274360103
 20
-23.1157289834
 10
1.5506686127
 20
-23.116637036
 10
1.5740989185
 20
-23.1151069771
 10
1.5973908907
 20
-23.1111306326
 10
1.6203147137
 20
-23.1047319304
 10
1.6441468235
 20
-23.0952770867
  0
LINE
  5
2B9
100
AcDbEntity
  8
ASSI
100
AcDbLine
 62
7
  6
CONTINUOUS
 10
1.448957803
 20
-23.0934128982
 11
-0.2811877026
 21
-22.2283401454
  0
LINE
  5
2BA
100
AcDbEntity
  8
ASSI
100
AcDbLine
 62
250
  6
CONTINUOUS
 10
1.3837574308
 20
-22.9580809102
 11
-0.1645120731
 21
-22.1839461582
  0
LINE
  5
2BB
100
AcDbEntity
  8
ASSI
100
AcDbLine
 62
250
  6
CONTINUOUS
 10
1.3837574308
 20
-22.6408121098
 11
0.4482889125
 21
-22.1730778507
  0
LINE
  5
2BC
100
AcDbEntity
  8
ASSI
100
AcDbLine
 62
250
  6
CONTINUOUS
 10
0.2547246264
 20
-22.0762957076
 11
0.1355683847
 21
-22.0167175868
  0
LINE
  5
2BD
100
AcDbEntity
  8
ASSI
100
AcDbLine
 62
250
  6
CONTINUOUS
 10
1.4724543433
 20
-22.4092722184
 11
0.6897703691
 21
-22.0179302313
  0
LWPOLYLINE
  5
2BE
100
AcDbEntity
  8
ASSI
100
AcDbPolyline
 62
250
  6
CONTINUOUS
 90
16
 70
0
 10
1.4486815507
 20
-23.0932742072
 10
1.441946195
 20
-23.0895269548
 10
1.4343416233
 20
-23.0843633105
 10
1.427182289
 20
-23.0784366375
 10
1.4205002962
 20
-23.0717731109
 10
1.4143132331
 20
-23.0643898743
 10
1.408646858
 20
-23.0563162544
 10
1.4035220364
 20
-23.0475819981
 10
1.3989561617
 20
-23.0382168193
 10
1.3949660077
 20
-23.0282547689
 10
1.3915656202
 20
-23.0177309551
 10
1.3887670814
 20
-23.0066829382
 10
1.3865806629
 20
-22.995151832
 10
1.3850138828
 20
-22.983179426
 10
1.3840718012
 20
-22.9708077707
 10
1.3837574308
 20
-22.9580809102
  0
LWPOLYLINE
  5
2BF
100
AcDbEntity
  8
RACCORDO
100
AcDbPolyline
 62
7
  6
CONTINUOUS
 90
14
 70
0
 10
-19.1343923343
 20
-15.2041416743
 10
-19.1343831587
 20
-15.2265653072
 10
-19.1297244101
 20
-15.3223080865
 10
-19.1176603404
 20
-15.4144404678
 10
-19.0982437296
 20
-15.5030140751
 10
-19.071649149
 20
-15.5874127083
 10
-19.0385018164
 20
-15.6662352811
 10
-18.9996155808
 20
-15.7386813984
 10
-18.9553093679
 20
-15.8050952866
 10
-18.9057845714
 20
-15.865644473
 10
-18.8516677722
 20
-15.9199257168
 10
-18.7935287492
 20
-15.9677547084
 10
-18.7313938573
 20
-16.0093163791
 10
-18.7149120094
 20
-16.0189101638
  0
LWPOLYLINE
  5
2C0
100
AcDbEntity
  8
RACCORDO
100
AcDbPolyline
 62
7
  6
CONTINUOUS
 90
10
 70
0
 10
-17.592906311
 20
21.5910584637
 10
-17.8815829228
 20
17.5053511163
 10
-18.1451662699
 20
13.3600749839
 10
-18.3782508871
 20
9.2279052364
 10
-18.5807959119
 20
5.1092771278
 10
-18.7527819108
 20
1.0045472314
 10
-18.8941948322
 20
-3.0859577472
 10
-19.005023657
 20
-7.1618851365
 10
-19.0852729161
 20
-11.2228206063
 10
-19.1344002163
 20
-15.2040951671
  0
LWPOLYLINE
  5
2C1
100
AcDbEntity
  8
RACCORDO
100
AcDbPolyline
 62
250
  6
CONTINUOUS
 90
10
 70
0
 10
-17.4692865183
 20
21.4314882087
 10
-17.7641925059
 20
17.2903289479
 10
-18.0282682675
 20
13.1612134687
 10
-18.2614761491
 20
9.0445225866
 10
-18.4637909726
 20
4.9404508275
 10
-18.635176456
 20
0.8495606
 10
-18.7755937967
 20
-3.2272218104
 10
-18.8850326332
 20
-7.2893452918
 10
-18.9635024845
 20
-11.3366304402
 10
-19.0110099107
 20
-15.3687157103
  0
LWPOLYLINE
  5
2C2
100
AcDbEntity
  8
RACCORDO
100
AcDbPolyline
 62
250
  6
CONTINUOUS
 90
10
 70
0
 10
-0.5879391269
 20
24.6910429445
 10
-0.5826819994
 20
24.69657045
 10
-0.5774475314
 20
24.7013334076
 10
-0.572258325
 20
24.7053090361
 10
-0.567134887
 20
24.7084789371
 10
-0.5621016504
 20
24.7108252653
 10
-0.5571864553
 20
24.7123341165
 10
-0.5524083338
 20
24.7129995786
 10
-0.5477901302
 20
24.7128183989
 10
-0.5457508153
 20
24.7124567319
  0
LWPOLYLINE
  5
2C3
100
AcDbEntity
  8
SUPERFICI
100
AcDbPolyline
 62
250
  6
CONTINUOUS
 90
10
 70
0
 10
-0.5879391269
 20
24.6910429445
 10
-0.5826819994
 20
24.69657045
 10
-0.5774475314
 20
24.7013334076
 10
-0.572258325
 20
24.7053090361
 10
-0.567134887
 20
24.7084789371
 10
-0.5621016504
 20
24.7108252653
 10
-0.5571864553
 20
24.7123341165
 10
-0.5524083338
 20
24.7129995786
 10
-0.5477901302
 20
24.7128183989
 10
-0.5457508153
 20
24.7124567319
  0
LINE
  5
2C4
100
AcDbEntity
  8
RACCORDO
100
AcDbLine
 62
7
  6
CONTINUOUS
 10
-0.158433133
 20
23.1375305395
 11
-0.16487007
 21
23.1314141961
  0
LINE
  5
2C5
100
AcDbEntity
  8
SUPERFICI
100
AcDbLine
 62
7
  6
CONTINUOUS
 10
-0.158433133
 20
23.1375305395
 11
-0.16487007
 21
23.1314141961
  0
LWPOLYLINE
  5
2C6
100
AcDbEntity
  8
RACCORDO
100
AcDbPolyline
 62
250
  6
CONTINUOUS
 90
10
 70
0
 10
-0.8444944979
 20
23.9725029072
 10
-0.8635353864
 20
23.9544433421
 10
-0.8813834419
 20
23.9337328768
 10
-0.8976717383
 20
23.9107972838
 10
-0.9120654155
 20
23.8861080805
 10
-0.9242685636
 20
23.8601728355
 10
-0.9340303063
 20
23.833524734
 10
-0.9411499586
 20
23.8067116164
 10
-0.9454811524
 20
23.7802847154
 10
-0.9469348454
 20
23.7547873238
  0
LWPOLYLINE
  5
2C7
100
AcDbEntity
  8
SUPERFICI
100
AcDbPolyline
 62
250
  6
CONTINUOUS
 90
10
 70
0
 10
-0.8444944979
 20
23.9725029072
 10
-0.8635353864
 20
23.9544433421
 10
-0.8813834419
 20
23.9337328768
 10
-0.8976717383
 20
23.9107972838
 10
-0.9120654155
 20
23.8861080805
 10
-0.9242685636
 20
23.8601728355
 10
-0.9340303063
 20
23.833524734
 10
-0.9411499586
 20
23.8067116164
 10
-0.9454811524
 20
23.7802847154
 10
-0.9469348454
 20
23.7547873238
  0
LWPOLYLINE
  5
2C8
100
AcDbEntity
  8
RACCORDO
100
AcDbPolyline
 62
250
  6
CONTINUOUS
 90
10
 70
0
 10
-0.0860888992
 20
23.5933001079
 10
-0.1051303517
 20
23.5752399136
 10
-0.1229787436
 20
23.5545288532
 10
-0.1392671593
 20
23.5315927932
 10
-0.1536607601
 20
23.5069033446
 10
-0.1658636996
 20
23.4809681078
 10
-0.1756251857
 20
23.4543202267
 10
-0.182744594
 20
23.4275075146
 10
-0.1870756076
 20
23.4010811981
 10
-0.1885292446
 20
23.3755845234
  0
LWPOLYLINE
  5
2C9
100
AcDbEntity
  8
SUPERFICI
100
AcDbPolyline
 62
250
  6
CONTINUOUS
 90
10
 70
0
 10
-0.0860888992
 20
23.5933001079
 10
-0.1051303517
 20
23.5752399136
 10
-0.1229787436
 20
23.5545288532
 10
-0.1392671593
 20
23.5315927932
 10
-0.1536607601
 20
23.5069033446
 10
-0.1658636996
 20
23.4809681078
 10
-0.1756251857
 20
23.4543202267
 10
-0.182744594
 20
23.4275075146
 10
-0.1870756076
 20
23.4010811981
 10
-0.1885292446
 20
23.3755845234
  0
LWPOLYLINE
  5
2CA
100
AcDbEntity
  8
RACCORDO
100
AcDbPolyline
 62
250
  6
CONTINUOUS
 90
16
 70
0
 10
-1.3598060617
 20
23.6425268985
 10
-1.3355767262
 20
23.665389901
 10
-1.3095353981
 20
23.6864092128
 10
-1.2819801606
 20
23.7055081654
 10
-1.2532112333
 20
23.7227389494
 10
-1.223553551
 20
23.7379450201
 10
-1.1933557144
 20
23.7507657892
 10
-1.1629409813
 20
23.7611597989
 10
-1.1326242061
 20
23.7691742095
 10
-1.1027363038
 20
23.774613426
 10
-1.0736245599
 20
23.7774903189
 10
-1.0455144024
 20
23.7779011832
 10
-1.018544933
 20
23.7757802429
 10
-0.9929405598
 20
23.7711450552
 10
-0.9689932202
 20
23.7641174398
 10
-0.9469348454
 20
23.7547873238
  0
LWPOLYLINE
  5
2CB
100
AcDbEntity
  8
SUPERFICI
100
AcDbPolyline
 62
250
  6
CONTINUOUS
 90
16
 70
0
 10
-1.3598060617
 20
23.6425268985
 10
-1.3355767262
 20
23.665389901
 10
-1.3095353981
 20
23.6864092128
 10
-1.2819801606
 20
23.7055081654
 10
-1.2532112333
 20
23.7227389494
 10
-1.223553551
 20
23.7379450201
 10
-1.1933557144
 20
23.7507657892
 10
-1.1629409813
 20
23.7611597989
 10
-1.1326242061
 20
23.7691742095
 10
-1.1027363038
 20
23.774613426
 10
-1.0736245599
 20
23.7774903189
 10
-1.0455144024
 20
23.7779011832
 10
-1.018544933
 20
23.7757802429
 10
-0.9929405598
 20
23.7711450552
 10
-0.9689932202
 20
23.7641174398
 10
-0.9469348454
 20
23.7547873238
  0
LINE
  5
2CC
100
AcDbEntity
  8
SUPERFICI
100
AcDbLine
 62
7
  6
CONTINUOUS
 10
-0.1649699432
 20
23.1313223507
 11
-0.9679476684
 21
22.3878298583
  0
LINE
  5
2CD
100
AcDbEntity
  8
RACCORDO
100
AcDbLine
 62
250
  6
CONTINUOUS
 10
-0.0680698771
 20
23.1315746291
 11
-0.9052026312
 21
22.3564573397
  0
LINE
  5
2CE
100
AcDbEntity
  8
SUPERFICI
100
AcDbLine
 62
250
  6
CONTINUOUS
 10
-0.0680698771
 20
23.1315746291
 11
-0.9052026312
 21
22.3564573397
  0
LINE
  5
2CF
100
AcDbEntity
  8
RACCORDO
100
AcDbLine
 62
7
  6
CONTINUOUS
 10
-0.1648702481
 20
23.1314143892
 11
-0.9679476684
 21
22.3878298583
  0
LINE
  5
2D0
100
AcDbEntity
  8
SUPERFICI
100
AcDbLine
 62
250
  6
CONTINUOUS
 10
-0.1648702481
 20
23.1314143892
 11
-0.1649699432
 21
23.1313223507
  0
LWPOLYLINE
  5
2D1
100
AcDbEntity
  8
ASSI
100
AcDbPolyline
 62
7
  6
CONTINUOUS
 90
9
 70
0
 10
3.6844731736
 20
23.5001366779
 10
3.6828309382
 20
23.4991092143
 10
3.6792769976
 20
23.4951393735
 10
3.6757860181
 20
23.4888641593
 10
3.6724257677
 20
23.4801198736
 10
3.6693057109
 20
23.4690789984
 10
3.6666289185
 20
23.4563785744
 10
3.6645052966
 20
23.442234456
 10
3.6629363173
 20
23.4264396977
  0
LWPOLYLINE
  5
2D2
100
AcDbEntity
  8
ASSI
100
AcDbPolyline
 62
7
  6
CONTINUOUS
 90
12
 70
0
 10
-0.6000623386
 20
20.3160552264
 10
-0.611357972
 20
20.309569405
 10
-0.6336490177
 20
20.294227457
 10
-0.654546383
 20
20.2762334092
 10
-0.6737387099
 20
20.2557858295
 10
-0.6905134125
 20
20.2337585483
 10
-0.7051763201
 20
20.2098777103
 10
-0.7176526356
 20
20.1840600253
 10
-0.7272910778
 20
20.1576085105
 10
-0.7340981971
 20
20.1308546012
 10
-0.7381947693
 20
20.1030496395
 10
-0.7393224851
 20
20.078992035
  0
LWPOLYLINE
  5
2D3
100
AcDbEntity
  8
ASSI
100
AcDbPolyline
 62
250
  6
CONTINUOUS
 90
12
 70
0
 10
-0.5076587347
 20
20.3119338052
 10
-0.5161207493
 20
20.3072411889
 10
-0.5248025677
 20
20.3019039535
 10
-0.5336795029
 20
20.2958918015
 10
-0.5427443302
 20
20.2891603243
 10
-0.5519429989
 20
20.2816987908
 10
-0.5611773574
 20
20.2735432512
 10
-0.5704108611
 20
20.2646871719
 10
-0.5796036212
 20
20.2551285381
 10
-0.5886553744
 20
20.2449379406
 10
-0.5975263956
 20
20.2341323667
 10
-0.6061767874
 20
20.222731412
  0
LINE
  5
2D4
100
AcDbEntity
  8
ASSI
100
AcDbLine
 62
7
  6
CONTINUOUS
 10
-1.0273514539
 20
20.3812803999
 11
-1.2456974912
 21
20.2620788802
  0
LINE
  5
2D5
100
AcDbEntity
  8
ASSI
100
AcDbLine
 62
7
  6
CONTINUOUS
 10
0.9670451346
 20
21.161545969
 11
-0.6001553556
 21
20.3160053502
  0
LINE
  5
2D6
100
AcDbEntity
  8
ASSI
100
AcDbLine
 62
250
  6
CONTINUOUS
 10
1.0585920115
 20
21.1569620152
 11
-0.5076587347
 21
20.3119338052
  0
LINE
  5
2D7
100
AcDbEntity
  8
0
100
AcDbLine
 62
7
  6
CONTINUOUS
 10
14.3169732757
 20
26.0900496745
 11
10.3048172973
 21
24.0486498818
  0
LINE
  5
2D8
100
AcDbEntity
  8
SUPERFICI
100
AcDbLine
 62
7
  6
CONTINUOUS
 10
14.3169732757
 20
26.0900496745
 11
10.3048172973
 21
24.0486498818
  0
LINE
  5
2D9
100
AcDbEntity
  8
ASSI
100
AcDbLine
 62
7
  6
CONTINUOUS
 10
0.967088569
 20
21.1615693593
 11
0.9712550056
 21
21.1636528637
  0
LINE
  5
2DA
100
AcDbEntity
  8
ASSI
100
AcDbLine
 62
7
  6
CONTINUOUS
 10
-1.0273514539
 20
20.3812803999
 11
2.8710104866
 21
22.3148966615
  0
LINE
  5
2DB
100
AcDbEntity
  8
DRAFT
100
AcDbLine
 62
7
  6
CONTINUOUS
 10
14.3169732757
 20
25.6821984072
 11
10.3048172973
 21
23.7273255996
  0
LINE
  5
2DC
100
AcDbEntity
  8
SUPERFICI
100
AcDbLine
 62
7
  6
CONTINUOUS
 10
14.3169732757
 20
25.6821984072
 11
10.3048172973
 21
23.7273255996
  0
LINE
  5
2DD
100
AcDbEntity
  8
RACCORDO
100
AcDbLine
 62
7
  6
CONTINUOUS
 10
13.320643686
 20
26.761565235
 11
9.8902397856
 21
25.124228422
  0
LINE
  5
2DE
100
AcDbEntity
  8
SUPERFICI
100
AcDbLine
 62
7
  6
CONTINUOUS
 10
13.320643686
 20
26.761565235
 11
9.8902397856
 21
25.124228422
  0
LINE
  5
2DF
100
AcDbEntity
  8
ASSI
100
AcDbLine
 62
7
  6
CONTINUOUS
 10
8.7828989414
 20
23.1001248643
 11
3.4181476692
 21
20.5591460413
  0
LINE
  5
2E0
100
AcDbEntity
  8
ASSI
100
AcDbLine
 62
250
  6
CONTINUOUS
 10
1.6013200266
 20
21.407611798
 11
1.0585920115
 21
21.1569620152
  0
LINE
  5
2E1
100
AcDbEntity
  8
ASSI
100
AcDbLine
 62
7
  6
CONTINUOUS
 10
1.5152345231
 20
21.4148801143
 11
0.9713108113
 21
21.1636786366
  0
LWPOLYLINE
  5
2E2
100
AcDbEntity
  8
ASSI
100
AcDbPolyline
 62
250
  6
CONTINUOUS
 90
13
 70
0
 10
1.6641104611
 20
18.974837528
 10
1.644377051
 20
18.9664724205
 10
1.6226491333
 20
18.9594509326
 10
1.5992902745
 20
18.9538905528
 10
1.5746913313
 20
18.9498843211
 10
1.5492639101
 20
18.9474992727
 10
1.5234334799
 20
18.9467753158
 10
1.4976322535
 20
18.947724564
 10
1.4722919546
 20
18.950331134
 10
1.4478365947
 20
18.9545514109
 10
1.4246753777
 20
18.960314778
 10
1.403195853
 20
18.9675247987
 10
1.3837574308
 20
18.9760608299
  0
LWPOLYLINE
  5
2E3
100
AcDbEntity
  8
DRAFT
100
AcDbPolyline
 62
7
  6
CONTINUOUS
 90
8
 70
0
 10
0.9171921944
 20
-18.6912260872
 10
0.9643592761
 20
-18.7119376051
 10
1.0103410343
 20
-18.7268384632
 10
1.0551374689
 20
-18.7359286616
 10
1.0991820555
 20
-18.7391708356
 10
1.1420413184
 20
-18.7366023498
 10
1.1824148314
 20
-18.7283352983
 10
1.2218751431
 20
-18.7134532209
  0
LWPOLYLINE
  5
2E4
100
AcDbEntity
  8
ASSI
100
AcDbPolyline
 62
250
  6
CONTINUOUS
 90
3
 70
0
 10
3.8121521173
 20
-21.2774043678
 10
3.8062058715
 20
-21.2747084757
 10
3.7891168683
 20
-21.2694912982
  0
LINE
  5
2E5
100
AcDbEntity
  8
ASSI
100
AcDbLine
 62
7
  6
CONTINUOUS
 10
0.2547246264
 20
-21.3254626827
 11
0.4482889125
 21
-21.4222448257
  0
LINE
  5
2E6
100
AcDbEntity
  8
ASSI
100
AcDbLine
 62
7
  6
CONTINUOUS
 10
0.2341982176
 20
-20.733925722
 11
0.4155654453
 21
-20.8246093359
  0
LINE
  5
2E7
100
AcDbEntity
  8
ASSI
100
AcDbLine
 62
7
  6
CONTINUOUS
 10
1.3414562631
 20
-21.2875547448
 11
2.0684632118
 21
-21.6510582191
  0
LINE
  5
2E8
100
AcDbEntity
  8
ASSI
100
AcDbLine
 62
7
  6
CONTINUOUS
 10
0.7757708382
 20
-20.3788790074
 11
1.3414562631
 21
-20.6617217199
  0
LINE
  5
2E9
100
AcDbEntity
  8
ASSI
100
AcDbLine
 62
7
  6
CONTINUOUS
 10
2.0684632118
 20
-20.9571454919
 11
2.2686393908
 21
-21.0572335814
  0
LINE
  5
2EA
100
AcDbEntity
  8
ASSI
100
AcDbLine
 62
250
  6
CONTINUOUS
 10
3.3213552504
 20
-21.0356193235
 11
3.7891161291
 21
-21.2694909128
  0
LINE
  5
2EB
100
AcDbEntity
  8
ASSI
100
AcDbLine
 62
7
  6
CONTINUOUS
 10
3.8123915354
 20
-21.2775236263
 11
3.3213552504
 21
-21.0320054836
  0
LWPOLYLINE
  5
2EC
100
AcDbEntity
  8
ASSI
100
AcDbPolyline
 62
250
  6
CONTINUOUS
 90
13
 70
0
 10
1.4724543433
 20
-22.4092722184
 10
1.4911674258
 20
-22.4197097905
 10
1.5107603578
 20
-22.4319106472
 10
1.530901608
 20
-22.4456683383
 10
1.5512503671
 20
-22.4607500703
 10
1.5714623142
 20
-22.4769006457
 10
1.5911954439
 20
-22.4938467812
 10
1.6101158524
 20
-22.5113017318
 10
1.6279033881
 20
-22.5289701429
 10
1.6442570688
 20
-22.5465530479
 10
1.6589001744
 20
-22.5637529271
 10
1.6715849294
 20
-22.5802787418
 10
1.6820966955
 20
-22.5958508594
  0
LINE
  5
2ED
100
AcDbEntity
  8
RACCORDO
100
AcDbLine
 62
250
  6
CONTINUOUS
 10
-0.0349699523
 20
23.1653010107
 11
-0.0680698771
 21
23.1315746291
  0
LINE
  5
2EE
100
AcDbEntity
  8
SUPERFICI
100
AcDbLine
 62
250
  6
CONTINUOUS
 10
-0.0349699523
 20
23.1653010107
 11
-0.0680698771
 21
23.1315746291
  0
LWPOLYLINE
  5
2EF
100
AcDbEntity
  8
ASSI
100
AcDbPolyline
 62
7
  6
CONTINUOUS
 90
16
 70
0
 10
2.7938515714
 20
22.7586747227
 10
2.8172899184
 20
22.7804021254
 10
2.8375116059
 20
22.805627258
 10
2.8545166339
 20
22.8343501206
 10
2.8684074171
 20
22.8668985608
 10
2.8790815407
 20
22.902944731
 10
2.8862317613
 20
22.9415050879
 10
2.8897556644
 20
22.982753274
 10
2.8897556644
 20
23.0265156468
 10
2.8862317613
 20
23.0712877359
 10
2.8790815407
 20
23.1169983134
 10
2.8684074171
 20
23.1637186073
 10
2.8545166339
 20
23.2101578306
 10
2.8375116059
 20
23.2558857212
 10
2.8172899184
 20
23.3013325414
 10
2.7938515714
 20
23.346498291
  0
LINE
  5
2F0
100
AcDbEntity
  8
ASSI
100
AcDbLine
 62
7
  6
CONTINUOUS
 10
0.2212612131
 20
19.1977268835
 11
0.2547246264
 21
19.2233084318
  0
LWPOLYLINE
  5
2F1
100
AcDbEntity
  8
ASSI
100
AcDbPolyline
 62
250
  6
CONTINUOUS
 90
7
 70
0
 10
3.8795916609
 20
20.0867390302
 10
3.8963218621
 20
20.0966057259
 10
3.910364831
 20
20.1074696756
 10
3.9214855901
 20
20.1191490969
 10
3.9294980579
 20
20.1314485622
 10
3.9342681626
 20
20.144162269
 10
3.9357237009
 20
20.1562048672
  0
LWPOLYLINE
  5
2F2
100
AcDbEntity
  8
ASSI
100
AcDbPolyline
 62
250
  6
CONTINUOUS
 90
7
 70
0
 10
3.8795916609
 20
19.7467954354
 10
3.8963218761
 20
19.7566621405
 10
3.9103648518
 20
19.7675260993
 10
3.9214856115
 20
19.7792055287
 10
3.9294980747
 20
19.7915050003
 10
3.9342681716
 20
19.8042187109
 10
3.9357237009
 20
19.8162612724
  0
LWPOLYLINE
  5
2F3
100
AcDbEntity
  8
ASSI
100
AcDbPolyline
 62
250
  6
CONTINUOUS
 90
28
 70
0
 10
1.5580553067
 20
19.2790767845
 10
1.5489335815
 20
19.2740667096
 10
1.5396601175
 20
19.2683815951
 10
1.5302631825
 20
19.2620030505
 10
1.5207535683
 20
19.254899795
 10
1.5111866378
 20
19.2470731338
 10
1.5016593804
 20
19.2385696064
 10
1.4922081829
 20
19.2293951345
 10
1.4828717248
 20
19.2195598467
 10
1.4737457343
 20
19.209143039
 10
1.46486905
 20
19.1981753924
 10
1.4562738627
 20
19.1866825689
 10
1.4480362666
 20
19.1747572378
 10
1.4401936827
 20
19.1624532819
 10
1.4327649792
 20
19.1498001086
 10
1.4257890609
 20
19.1368642606
 10
1.4192932523
 20
19.1237015204
 10
1.4132928085
 20
19.1103483696
 10
1.4078043085
 20
19.0968446902
 10
1.4028453488
 20
19.0832364348
 10
1.398432179
 20
19.0695712122
 10
1.3945778256
 20
19.0558913967
 10
1.3912949886
 20
19.0422439494
 10
1.38859431
 20
19.02867548
 10
1.3864839352
 20
19.0152276254
 10
1.3849710434
 20
19.0019448875
 10
1.3840611417
 20
18.9888743599
 10
1.3837574308
 20
18.9760608299
  0
LINE
  5
2F4
100
AcDbEntity
  8
ASSI
100
AcDbLine
 62
7
  6
CONTINUOUS
 10
3.3213552504
 20
18.2069270478
 11
2.4189044997
 21
17.7142526569
  0
LWPOLYLINE
  5
2F5
100
AcDbEntity
  8
0
100
AcDbPolyline
 62
7
  6
CONTINUOUS
 90
13
 70
0
 10
10.3048172973
 20
24.0486498818
 10
10.1758324792
 20
23.9782961634
 10
10.0569191949
 20
23.9036381148
 10
9.9486503614
 20
23.8250354339
 10
9.8515476114
 20
23.7428668237
 10
9.7660787801
 20
23.6575281675
 10
9.692655651
 20
23.5694306219
 10
9.6316319724
 20
23.4789986354
 10
9.5833017526
 20
23.3866679039
 10
9.5478978437
 20
23.2928832712
 10
9.5255908196
 20
23.1980965861
 10
9.5164881542
 20
23.1027645249
 10
9.5162560324
 20
23.0848996434
  0
LWPOLYLINE
  5
2F6
100
AcDbEntity
  8
SUPERFICI
100
AcDbPolyline
 62
7
  6
CONTINUOUS
 90
13
 70
0
 10
10.3048172973
 20
24.0486498818
 10
10.1758324792
 20
23.9782961634
 10
10.0569191949
 20
23.9036381148
 10
9.9486503614
 20
23.8250354339
 10
9.8515476114
 20
23.7428668237
 10
9.7660787801
 20
23.6575281675
 10
9.692655651
 20
23.5694306219
 10
9.6316319724
 20
23.4789986354
 10
9.5833017526
 20
23.3866679039
 10
9.5478978437
 20
23.2928832712
 10
9.5255908196
 20
23.1980965861
 10
9.5164881542
 20
23.1027645249
 10
9.5162560324
 20
23.0848996434
  0
LINE
  5
2F7
100
AcDbEntity
  8
ASSI
100
AcDbLine
 62
250
  6
CONTINUOUS
 10
3.3570739267
 20
18.1890677097
 11
2.2686393908
 21
17.6045451035
  0
LWPOLYLINE
  5
2F8
100
AcDbEntity
  8
ASSI
100
AcDbPolyline
 62
250
  6
CONTINUOUS
 90
28
 70
0
 10
1.6994551238
 20
19.0351981752
 10
1.6975948776
 20
19.0342140086
 10
1.6957163574
 20
19.0330886716
 10
1.6938195631
 20
19.0318221641
 10
1.6918932204
 20
19.0304118522
 10
1.6899486036
 20
19.0288603699
 10
1.6880195359
 20
19.0271756192
 10
1.6861059287
 20
19.0253526631
 10
1.6842078706
 20
19.0233964387
 10
1.6823594512
 20
19.0213296593
 10
1.6805625877
 20
19.019149216
 10
1.678815363
 20
19.0168582178
 10
1.6771461149
 20
19.0144887049
 10
1.6755582719
 20
19.0120411688
 10
1.6740484056
 20
19.009515118
 10
1.6726345682
 20
19.0069411183
 10
1.6713190488
 20
19.0043205405
 10
1.6700995583
 20
19.0016520138
 10
1.6689872825
 20
18.9989619922
 10
1.6679831357
 20
18.9962502504
 10
1.6670862036
 20
18.9935170137
 10
1.6663049293
 20
18.9907894119
 10
1.6656403688
 20
18.988067557
 10
1.665091466
 20
18.9853513368
 10
1.6646634964
 20
18.9826675446
 10
1.6643582182
 20
18.9800251112
 10
1.6641738731
 20
18.9774151057
 10
1.6641104611
 20
18.974837528
  0
LINE
  5
2F9
100
AcDbEntity
  8
ASSI
100
AcDbLine
 62
7
  6
CONTINUOUS
 10
9.9968245516
 20
22.1310125578
 11
3.6099357097
 21
18.7546270697
  0
LINE
  5
2FA
100
AcDbEntity
  8
0
100
AcDbLine
 62
7
  6
CONTINUOUS
 10
9.9642880531
 20
22.7812926503
 11
10.2712067013
 21
22.9431369223
  0
LINE
  5
2FB
100
AcDbEntity
  8
RACCORDO
100
AcDbLine
 62
250
  6
CONTINUOUS
 10
10.2710789193
 20
22.9430695354
 11
10.2712067013
 21
22.9431369223
  0
LINE
  5
2FC
100
AcDbEntity
  8
ASSI
100
AcDbLine
 62
7
  6
CONTINUOUS
 10
9.9741572614
 20
22.5297076731
 11
3.4368814981
 21
19.103266255
  0
LINE
  5
2FD
100
AcDbEntity
  8
ASSI
100
AcDbLine
 62
250
  6
CONTINUOUS
 10
3.1799554333
 20
20.0962803043
 11
1.5580553067
 21
19.2790767845
  0
LINE
  5
2FE
100
AcDbEntity
  8
ASSI
100
AcDbLine
 62
250
  6
CONTINUOUS
 10
3.3213552504
 20
19.852401695
 11
1.6994551238
 21
19.0351981752
  0
LINE
  5
2FF
100
AcDbEntity
  8
0
100
AcDbLine
 62
7
  6
CONTINUOUS
 10
10.3994941301
 20
22.7200451909
 11
10.8944688769
 21
22.9675325643
  0
LINE
  5
300
100
AcDbEntity
  8
RACCORDO
100
AcDbLine
 62
7
  6
CONTINUOUS
 10
13.3626467895
 20
23.1480324166
 11
12.0511824784
 21
22.4923002611
  0
LINE
  5
301
100
AcDbEntity
  8
ASSI
100
AcDbLine
 62
250
  6
CONTINUOUS
 10
3.7040598999
 20
20.3562399834
 11
3.1799554333
 21
20.0962803043
  0
LINE
  5
302
100
AcDbEntity
  8
ASSI
100
AcDbLine
 62
250
  6
CONTINUOUS
 10
3.845459717
 20
20.1123613741
 11
3.3213552504
 21
19.852401695
  0
LINE
  5
303
100
AcDbEntity
  8
ASSI
100
AcDbLine
 62
250
  6
CONTINUOUS
 10
4.0515286238
 20
18.5338306127
 11
3.3567644374
 21
18.1892224543
  0
LINE
  5
304
100
AcDbEntity
  8
DRAFT
100
AcDbLine
 62
7
  6
CONTINUOUS
 10
10.482719717
 20
21.6180215164
 11
4.0892182918
 21
18.5123840331
  0
LINE
  5
305
100
AcDbEntity
  8
SUPERFICI
100
AcDbLine
 62
7
  6
CONTINUOUS
 10
10.482719717
 20
21.6180215164
 11
4.0892182918
 21
18.5123840331
  0
LWPOLYLINE
  5
306
100
AcDbEntity
  8
RACCORDO
100
AcDbPolyline
 62
7
  6
CONTINUOUS
 90
10
 70
0
 10
14.2111486013
 20
22.7237551851
 10
14.2225450655
 20
22.7289238404
 10
14.233765468
 20
22.7329757368
 10
14.2448098088
 20
22.7359108743
 10
14.2557730677
 20
22.7377294056
 10
14.2665602648
 20
22.7384311781
 10
14.2768864603
 20
22.7380157337
 10
14.286656674
 20
22.7364829199
 10
14.295965886
 20
22.7338328891
 10
14.3048140963
 20
22.7300656415
  0
LINE
  5
307
100
AcDbEntity
  8
RACCORDO
100
AcDbLine
 62
250
  6
CONTINUOUS
 10
-1.9122007852
 20
15.461319
 11
1.4522148588
 21
16.9525275691
  0
LWPOLYLINE
  5
308
100
AcDbEntity
  8
ASSI
100
AcDbPolyline
 62
250
  6
CONTINUOUS
 90
13
 70
0
 10
1.6641104611
 20
18.6575687277
 10
1.6443770108
 20
18.6492035844
 10
1.6226490544
 20
18.6421820723
 10
1.5992901623
 20
18.6366216787
 10
1.5746911943
 20
18.6326154422
 10
1.5492637589
 20
18.630230396
 10
1.5234333258
 20
18.6295064468
 10
1.4976321081
 20
18.6304557065
 10
1.4722918288
 20
18.6330622898
 10
1.4478364956
 20
18.6372825799
 10
1.4246753099
 20
18.6430459593
 10
1.4031958192
 20
18.6502559904
 10
1.3837574308
 20
18.6587920295
  0
LWPOLYLINE
  5
309
100
AcDbEntity
  8
DRAFT
100
AcDbPolyline
 62
7
  6
CONTINUOUS
 90
9
 70
0
 10
0.9171921944
 20
-17.4908837457
 10
0.8700251127
 20
-17.4701722278
 10
0.8240433545
 20
-17.4552713696
 10
0.7792469199
 20
-17.4461811713
 10
0.7352023333
 20
-17.4429389973
 10
0.6923430704
 20
-17.445507483
 10
0.6519695574
 20
-17.4537745346
 10
0.6142669319
 20
-17.467833198
 10
0.6022070053
 20
-17.4738093009
  0
LWPOLYLINE
  5
30A
100
AcDbEntity
  8
DRAFT
100
AcDbPolyline
 62
7
  6
CONTINUOUS
 90
9
 70
0
 10
1.2000349069
 20
-17.3434157776
 10
1.152392633
 20
-17.3224956035
 10
1.1059476321
 20
-17.3074446241
 10
1.0606999042
 20
-17.2982628394
 10
1.0162116117
 20
-17.2949879914
 10
0.9729205921
 20
-17.2975823381
 10
0.9321403584
 20
-17.305932653
 10
0.8940578975
 20
-17.3201329409
 10
0.8818762858
 20
-17.3261693458
  0
LINE
  5
30B
100
AcDbEntity
  8
ASSI
100
AcDbLine
 62
250
  6
CONTINUOUS
 10
3.8070624507
 20
-21.2802761716
 11
3.7890652743
 21
-21.2694806451
  0
LWPOLYLINE
  5
30C
100
AcDbEntity
  8
ASSI
100
AcDbPolyline
 62
7
  6
CONTINUOUS
 90
9
 70
0
 10
-13.3258236328
 20
26.0549354125
 10
-13.3256900132
 20
26.0468086678
 10
-13.3235072402
 20
26.0210408485
 10
-13.3186596087
 20
25.9958634003
 10
-13.3111968582
 20
25.9715945069
 10
-13.3012925356
 20
25.948627844
 10
-13.2890817538
 20
25.9271134656
 10
-13.2746646486
 20
25.9071790686
 10
-13.2582823075
 20
25.8891247207
  0
LWPOLYLINE
  5
30D
100
AcDbEntity
  8
0
100
AcDbPolyline
 62
7
  6
CONTINUOUS
 90
34
 70
0
 10
-12.5426769414
 20
-11.9901704676
 10
-12.5421076448
 20
-12.048855706
 10
-12.5383004599
 20
-12.108792364
 10
-12.5312549724
 20
-12.1699802659
 10
-12.5208880358
 20
-12.2329235869
 10
-12.5072808026
 20
-12.2971172872
 10
-12.4906794828
 20
-12.3610474673
 10
-12.4709434153
 20
-12.4246603463
 10
-12.4482108275
 20
-12.4880086966
 10
-12.4231473965
 20
-12.5497389778
 10
-12.3957745405
 20
-12.6096082046
 10
-12.3660687626
 20
-12.667858528
 10
-12.3346296431
 20
-12.723864684
 10
-12.3015422837
 20
-12.777483661
 10
-12.2667198261
 20
-12.8288577655
 10
-12.2305047799
 20
-12.8777900891
 10
-12.1928236403
 20
-12.9243611625
 10
-12.1537479851
 20
-12.9684896549
 10
-12.1138389029
 20
-13.0097362798
 10
-12.073108343
 20
-13.0480544256
 10
-12.0315433337
 20
-13.0834902815
 10
-11.9896688822
 20
-13.1157443287
 10
-11.9478539673
 20
-13.1446685129
 10
-11.905729773
 20
-13.1704109662
 10
-11.8627144193
 20
-13.1931163577
 10
-11.8183664719
 20
-13.2131074336
 10
-11.773124663
 20
-13.2300602454
 10
-11.727727467
 20
-13.243149462
 10
-11.6818417776
 20
-13.2522105888
 10
-11.6357994731
 20
-13.2574075405
 10
-11.5913399338
 20
-13.2584091083
 10
-11.5489094083
 20
-13.2549453512
 10
-11.5080654127
 20
-13.2472878231
 10
-11.4678215055
 20
-13.235432214
  0
LINE
  5
30E
100
AcDbEntity
  8
ASSI
100
AcDbLine
 62
7
  6
CONTINUOUS
 10
-13.3258231941
 20
26.0549354128
 11
-13.3258232408
 21
26.3722725218
  0
LINE
  5
30F
100
AcDbEntity
  8
ASSI
100
AcDbLine
 62
250
  6
CONTINUOUS
 10
-13.267244597
 20
25.984310394
 11
-13.267244597
 21
26.3015618439
  0
LINE
  5
310
100
AcDbEntity
  8
0
100
AcDbLine
 62
7
  6
CONTINUOUS
 10
-13.0911030481
 20
24.8514034174
 11
-13.0911030481
 21
24.2241865225
  0
LINE
  5
311
100
AcDbEntity
  8
ASSI
100
AcDbLine
 62
7
  6
CONTINUOUS
 10
-12.6109601204
 20
25.099456899
 11
-12.6109601204
 21
25.5534190033
  0
LINE
  5
312
100
AcDbEntity
  8
ASSI
100
AcDbLine
 62
250
  6
CONTINUOUS
 10
-12.5377368157
 20
25.0077332068
 11
-12.5377368157
 21
25.5168073509
  0
LINE
  5
313
100
AcDbEntity
  8
ASSI
100
AcDbLine
 62
7
  6
CONTINUOUS
 10
-12.4049993834
 20
24.8165167973
 11
-12.4049993834
 21
25.4543622182
  0
LINE
  5
314
100
AcDbEntity
  8
ASSI
100
AcDbLine
 62
250
  6
CONTINUOUS
 10
-12.3317760787
 20
24.7657257594
 11
-12.3317760787
 21
25.5165587843
  0
LINE
  5
315
100
AcDbEntity
  8
ASSI
100
AcDbLine
 62
250
  6
CONTINUOUS
 10
-12.1382117926
 20
24.6689436164
 11
-12.1382117926
 21
25.4197766413
  0
LINE
  5
316
100
AcDbEntity
  8
0
100
AcDbLine
 62
7
  6
CONTINUOUS
 10
-12.5380047586
 20
-11.7060691922
 11
-12.5426769414
 21
-11.9901704676
  0
LINE
  5
317
100
AcDbEntity
  8
DRAFT
100
AcDbLine
 62
7
  6
CONTINUOUS
 10
-12.5426769665
 20
-11.9901702264
 11
-12.5380014435
 21
-11.7058711516
  0
LINE
  5
318
100
AcDbEntity
  8
0
100
AcDbLine
 62
7
  6
CONTINUOUS
 10
-12.5330810755
 20
-11.4181717156
 11
-12.5380047586
 21
-11.7060691922
  0
LINE
  5
319
100
AcDbEntity
  8
DRAFT
100
AcDbLine
 62
7
  6
CONTINUOUS
 10
-12.5380014435
 20
-11.7058711516
 11
-12.5330732522
 21
-11.4177230821
  0
LINE
  5
31A
100
AcDbEntity
  8
0
100
AcDbLine
 62
7
  6
CONTINUOUS
 10
-12.5278979779
 20
-11.1264466708
 11
-12.5330810755
 21
-11.4181717156
  0
LINE
  5
31B
100
AcDbEntity
  8
DRAFT
100
AcDbLine
 62
7
  6
CONTINUOUS
 10
-12.5330732522
 20
-11.4177230821
 11
-12.527886397
 21
-11.1258069254
  0
LINE
  5
31C
100
AcDbEntity
  8
0
100
AcDbLine
 62
7
  6
CONTINUOUS
 10
-12.5224457973
 20
-10.8307784504
 11
-12.5278979779
 21
-11.1264466708
  0
LINE
  5
31D
100
AcDbEntity
  8
DRAFT
100
AcDbLine
 62
7
  6
CONTINUOUS
 10
-12.527886397
 20
-11.1258069254
 11
-12.5224427602
 21
-10.8306181761
  0
LINE
  5
31E
100
AcDbEntity
  8
0
100
AcDbLine
 62
7
  6
CONTINUOUS
 10
-12.5167382916
 20
-10.5322756849
 11
-12.5224457973
 21
-10.8307784504
  0
LINE
  5
31F
100
AcDbEntity
  8
DRAFT
100
AcDbLine
 62
7
  6
CONTINUOUS
 10
-12.5224427602
 20
-10.8306181761
 11
-12.5167393055
 21
-10.5323282415
  0
LWPOLYLINE
  5
320
100
AcDbEntity
  8
ASSI
100
AcDbPolyline
 62
250
  6
CONTINUOUS
 90
18
 70
0
 10
-13.267244597
 20
26.3015618439
 10
-13.2670388229
 20
26.312121937
 10
-13.2663987033
 20
26.3231775391
 10
-13.2652891352
 20
26.334716356
 10
-13.2636710741
 20
26.3467494381
 10
-13.2615128732
 20
26.3592268273
 10
-13.2588020677
 20
26.3720347483
 10
-13.2555180855
 20
26.3851388566
 10
-13.2516424615
 20
26.3984995711
 10
-13.2471896733
 20
26.4119864056
 10
-13.2421564273
 20
26.425553216
 10
-13.2365423322
 20
26.4391498318
 10
-13.2303905613
 20
26.4526384243
 10
-13.2237198687
 20
26.4659611318
 10
-13.2165437668
 20
26.4790751072
 10
-13.2089174539
 20
26.4918711369
 10
-13.2008781257
 20
26.5042888691
 10
-13.1924457832
 20
26.5162992278
  0
LINE
  5
321
100
AcDbEntity
  8
DRAFT
100
AcDbLine
 62
7
  6
CONTINUOUS
 10
-12.5167393055
 20
-10.5323282415
 11
-12.510879832
 21
-10.236398066
  0
LINE
  5
322
100
AcDbEntity
  8
0
100
AcDbLine
 62
7
  6
CONTINUOUS
 10
-12.5108757268
 20
-10.2361942204
 11
-12.5167382916
 21
-10.5322756849
  0
LINE
  5
323
100
AcDbEntity
  8
DRAFT
100
AcDbLine
 62
7
  6
CONTINUOUS
 10
-12.510879832
 20
-10.236398066
 11
-12.5048792051
 21
-9.9433026691
  0
LINE
  5
324
100
AcDbEntity
  8
0
100
AcDbLine
 62
7
  6
CONTINUOUS
 10
-12.5048766668
 20
-9.9431806827
 11
-12.5108757268
 21
-10.2361942204
  0
LINE
  5
325
100
AcDbEntity
  8
DRAFT
100
AcDbLine
 62
7
  6
CONTINUOUS
 10
-12.5048792051
 20
-9.9433026691
 11
-12.4987503237
 21
-9.653368657
  0
LINE
  5
326
100
AcDbEntity
  8
0
100
AcDbLine
 62
7
  6
CONTINUOUS
 10
-12.4987494827
 20
-9.6533294875
 11
-12.5048766668
 21
-9.9431806827
  0
LINE
  5
327
100
AcDbEntity
  8
0
100
AcDbLine
 62
7
  6
CONTINUOUS
 10
-12.4925012034
 20
-9.3666666924
 11
-12.4987494827
 21
-9.6533294875
  0
LINE
  5
328
100
AcDbEntity
  8
DRAFT
100
AcDbLine
 62
7
  6
CONTINUOUS
 10
-12.4987503237
 20
-9.653368657
 11
-12.4925012092
 21
-9.3666669563
  0
LWPOLYLINE
  5
329
100
AcDbEntity
  8
DRAFT
100
AcDbPolyline
 62
7
  6
CONTINUOUS
 90
3
 70
0
 10
-12.4925012092
 20
-9.3666669563
 10
-12.4880588951
 20
-9.2927232613
 10
-12.4786661228
 20
-9.2229871415
  0
LWPOLYLINE
  5
32A
100
AcDbEntity
  8
ASSI
100
AcDbPolyline
 62
7
  6
CONTINUOUS
 90
3
 70
0
 10
-8.6600786963
 20
26.0403668402
 10
-8.6547143503
 20
26.064523858
 10
-8.6515713785
 20
26.0893533469
  0
LWPOLYLINE
  5
32B
100
AcDbEntity
  8
ASSI
100
AcDbPolyline
 62
250
  6
CONTINUOUS
 90
17
 70
0
 10
-0.6061767874
 20
20.222731412
 10
-0.6145150726
 20
20.210834324
 10
-0.6225012006
 20
20.1984849617
 10
-0.6301065976
 20
20.185713391
 10
-0.6372694218
 20
20.1726148152
 10
-0.6439555777
 20
20.1592507111
 10
-0.650148336
 20
20.1456534404
 10
-0.6558207244
 20
20.1318809287
 10
-0.6609512318
 20
20.1179853403
 10
-0.6655225209
 20
20.1040134463
 10
-0.6695179572
 20
20.0900162207
 10
-0.6729232884
 20
20.0760432633
 10
-0.675726072
 20
20.0621450435
 10
-0.6779159822
 20
20.0483736794
 10
-0.6794853947
 20
20.0347791534
 10
-0.6804290658
 20
20.0214091928
 10
-0.6807438919
 20
20.0083114913
  0
LINE
  5
32C
100
AcDbEntity
  8
ASSI
100
AcDbLine
 62
250
  6
CONTINUOUS
 10
3.7102639801
 20
17.5794597774
 11
2.6218294442
 21
16.9949371713
  0
LINE
  5
32D
100
AcDbEntity
  8
RACCORDO
100
AcDbLine
 62
7
  6
CONTINUOUS
 10
14.2111774972
 20
22.7237696331
 11
13.6858382366
 21
22.4611000028
  0
LINE
  5
32E
100
AcDbEntity
  8
RACCORDO
100
AcDbLine
 62
250
  6
CONTINUOUS
 10
19.2475219122
 20
23.2842927259
 11
4.7102639801
 21
16.0564931068
  0
LINE
  5
32F
100
AcDbEntity
  8
SUPERFICI
100
AcDbLine
 62
250
  6
CONTINUOUS
 10
19.2475219122
 20
23.2842927259
 11
4.7102639801
 21
16.0564931068
  0
LINE
  5
330
100
AcDbEntity
  8
ASSI
100
AcDbLine
 62
250
  6
CONTINUOUS
 10
4.4050281665
 20
17.9241340893
 11
3.7102639801
 21
17.579525931
  0
LINE
  5
331
100
AcDbEntity
  8
RACCORDO
100
AcDbLine
 62
7
  6
CONTINUOUS
 10
18.8279787012
 20
24.0078977274
 11
11.235413801
 21
20.3198162553
  0
LINE
  5
332
100
AcDbEntity
  8
SUPERFICI
100
AcDbLine
 62
7
  6
CONTINUOUS
 10
18.8279787012
 20
24.0078977274
 11
11.235413801
 21
20.3198162553
  0
LINE
  5
333
100
AcDbEntity
  8
RACCORDO
100
AcDbLine
 62
7
  6
CONTINUOUS
 10
18.0223067651
 20
24.4107336954
 11
14.6011606953
 21
22.7687679671
  0
LINE
  5
334
100
AcDbEntity
  8
SUPERFICI
100
AcDbLine
 62
7
  6
CONTINUOUS
 10
18.0223067651
 20
24.4107336954
 11
14.6011606953
 21
22.7687679671
  0
LWPOLYLINE
  5
335
100
AcDbEntity
  8
RACCORDO
100
AcDbPolyline
 62
7
  6
CONTINUOUS
 90
9
 70
0
 10
18.8279787012
 20
24.0078977274
 10
18.8841245789
 20
24.0331607657
 10
18.9373572898
 20
24.0526132582
 10
18.9872277503
 20
24.0662428692
 10
19.03319852
 20
24.0741505566
 10
19.0749904816
 20
24.0763835345
 10
19.1125833917
 20
24.0729265202
 10
19.1456176802
 20
24.0639899161
 10
19.1601796307
 20
24.0576168582
  0
LWPOLYLINE
  5
336
100
AcDbEntity
  8
SUPERFICI
100
AcDbPolyline
 62
7
  6
CONTINUOUS
 90
9
 70
0
 10
18.8279787012
 20
24.0078977274
 10
18.8841245789
 20
24.0331607657
 10
18.9373572898
 20
24.0526132582
 10
18.9872277503
 20
24.0662428692
 10
19.03319852
 20
24.0741505566
 10
19.0749904816
 20
24.0763835345
 10
19.1125833917
 20
24.0729265202
 10
19.1456176802
 20
24.0639899161
 10
19.1601796307
 20
24.0576168582
  0
LINE
  5
337
100
AcDbEntity
  8
RACCORDO
100
AcDbLine
 62
250
  6
CONTINUOUS
 10
-1.5772657627
 20
14.8430831809
 11
1.7871498814
 21
16.33429175
  0
LINE
  5
338
100
AcDbEntity
  8
DRAFT
100
AcDbLine
 62
7
  6
CONTINUOUS
 10
2.6218294442
 20
-16.2789609685
 11
0.7757708382
 21
-15.3559316654
  0
LWPOLYLINE
  5
339
100
AcDbEntity
  8
0
100
AcDbPolyline
 62
7
  6
CONTINUOUS
 90
25
 70
0
 10
-11.1087804737
 20
-10.0585269492
 10
-11.1097922644
 20
-9.9824076969
 10
-11.1159524841
 20
-9.9051782445
 10
-11.1272606374
 20
-9.8268383885
 10
-11.1438688879
 20
-9.746705971
 10
-11.1656211412
 20
-9.6654614329
 10
-11.192054405
 20
-9.585148439
 10
-11.2232864543
 20
-9.505838296
 10
-11.2591931472
 20
-9.4274569442
 10
-11.2989502554
 20
-9.3518307574
 10
-11.3426573872
 20
-9.2790215474
 10
-11.3902074355
 20
-9.2089642736
 10
-11.4404689353
 20
-9.1432963069
 10
-11.4934871288
 20
-9.0821462281
 10
-11.5492104055
 20
-9.0253827359
 10
-11.6063660471
 20
-8.9742551643
 10
-11.6649612869
 20
-8.9288952424
 10
-11.7249852877
 20
-8.8891697247
 10
-11.7851429046
 20
-8.8559325405
 10
-11.8454667478
 20
-8.8293080688
 10
-11.9059240448
 20
-8.8091718913
 10
-11.9651266182
 20
-8.7960069457
 10
-12.0230490121
 20
-8.7899819654
 10
-12.0797204424
 20
-8.7909298474
 10
-12.1338396404
 20
-8.7988319117
  0
LINE
  5
33A
100
AcDbEntity
  8
ASSI
100
AcDbLine
 62
250
  6
CONTINUOUS
 10
-11.7877705047
 20
24.5445960398
 11
-11.7877705047
 21
25.1418241954
  0
LINE
  5
33B
100
AcDbEntity
  8
ASSI
100
AcDbLine
 62
7
  6
CONTINUOUS
 10
-11.245044442
 20
24.8704611641
 11
-11.245044442
 21
24.4294667222
  0
LINE
  5
33C
100
AcDbEntity
  8
ASSI
100
AcDbLine
 62
250
  6
CONTINUOUS
 10
-11.2027432743
 20
24.9520423821
 11
-11.2027432743
 21
25.2693111825
  0
LINE
  5
33D
100
AcDbEntity
  8
ASSI
100
AcDbLine
 62
250
  6
CONTINUOUS
 10
-10.922390244
 20
24.9508190802
 11
-10.922390244
 21
25.2680878806
  0
LINE
  5
33E
100
AcDbEntity
  8
0
100
AcDbLine
 62
7
  6
CONTINUOUS
 10
-10.5379376608
 20
22.9476038289
 11
-10.5379376608
 21
22.9822814983
  0
LINE
  5
33F
100
AcDbEntity
  8
ASSI
100
AcDbLine
 62
250
  6
CONTINUOUS
 10
-10.5180374933
 20
23.9978835456
 11
-10.5180374933
 21
24.6780548339
  0
LINE
  5
340
100
AcDbEntity
  8
ASSI
100
AcDbLine
 62
250
  6
CONTINUOUS
 10
-10.1675962054
 20
24.7657034556
 11
-10.1675962054
 21
24.0075030094
  0
LINE
  5
341
100
AcDbEntity
  8
0
100
AcDbLine
 62
250
  6
CONTINUOUS
 10
-9.9536403224
 20
22.8636028533
 11
-9.9536403224
 21
22.6554551597
  0
LINE
  5
342
100
AcDbEntity
  8
0
100
AcDbLine
 62
250
  6
CONTINUOUS
 10
-9.6745480511
 20
22.7240567176
 11
-9.6745480511
 21
22.515909024
  0
LWPOLYLINE
  5
343
100
AcDbEntity
  8
ASSI
100
AcDbPolyline
 62
250
  6
CONTINUOUS
 90
28
 70
0
 10
-10.922390244
 20
25.2680878806
 10
-10.9223584868
 20
25.2702278274
 10
-10.9222230488
 20
25.2724563464
 10
-10.92198393
 20
25.2747734377
 10
-10.9216452297
 20
25.2771906541
 10
-10.9212028486
 20
25.2796964427
 10
-10.9206444883
 20
25.282256145
 10
-10.9199661006
 20
25.2848725468
 10
-10.9191717337
 20
25.2875428624
 10
-10.9182612338
 20
25.2902240751
 10
-10.9172305235
 20
25.2929169865
 10
-10.9160836802
 20
25.2956207951
 10
-10.9148327831
 20
25.2982900799
 10
-10.9134758055
 20
25.3009219462
 10
-10.9120147741
 20
25.3035192887
 10
-10.9104678481
 20
25.3060453705
 10
-10.9088348103
 20
25.3084968185
 10
-10.9071158779
 20
25.3108770058
 10
-10.905329862
 20
25.3131593139
 10
-10.9034762086
 20
25.3153423002
 10
-10.9015554717
 20
25.3174274072
 10
-10.8995881248
 20
25.3193923446
 10
-10.8975736072
 20
25.3212358041
 10
-10.8955124796
 20
25.3229590938
 10
-10.8934268977
 20
25.3245438476
 10
-10.8913242466
 20
25.3259839436
 10
-10.8891971411
 20
25.3272855036
 10
-10.8870455813
 20
25.3284485278
  0
LINE
  5
344
100
AcDbEntity
  8
DRAFT
100
AcDbLine
 62
7
  6
CONTINUOUS
 10
-11.1541883499
 20
-12.3913444316
 11
-11.1589726269
 21
-12.6820006188
  0
LINE
  5
345
100
AcDbEntity
  8
0
100
AcDbLine
 62
7
  6
CONTINUOUS
 10
-11.1589726355
 20
-12.6820011526
 11
-11.1541883509
 21
-12.3913444936
  0
LINE
  5
346
100
AcDbEntity
  8
DRAFT
100
AcDbLine
 62
7
  6
CONTINUOUS
 10
-11.1492085401
 20
-12.1005966217
 11
-11.1541883499
 21
-12.3913444316
  0
LINE
  5
347
100
AcDbEntity
  8
0
100
AcDbLine
 62
7
  6
CONTINUOUS
 10
-11.1541883509
 20
-12.3913444936
 11
-11.1492085388
 21
-12.1005965493
  0
LINE
  5
348
100
AcDbEntity
  8
DRAFT
100
AcDbLine
 62
7
  6
CONTINUOUS
 10
-11.1440332024
 20
-11.8097574282
 11
-11.1492085401
 21
-12.1005966217
  0
LINE
  5
349
100
AcDbEntity
  8
0
100
AcDbLine
 62
7
  6
CONTINUOUS
 10
-11.1492085388
 20
-12.1005965493
 11
-11.1440332031
 21
-11.809757467
  0
LINE
  5
34A
100
AcDbEntity
  8
DRAFT
100
AcDbLine
 62
7
  6
CONTINUOUS
 10
-11.1386623439
 20
-11.5188272032
 11
-11.1440332024
 21
-11.8097574282
  0
LINE
  5
34B
100
AcDbEntity
  8
0
100
AcDbLine
 62
7
  6
CONTINUOUS
 10
-11.1440332031
 20
-11.809757467
 11
-11.1386623444
 21
-11.5188272313
  0
LINE
  5
34C
100
AcDbEntity
  8
DRAFT
100
AcDbLine
 62
7
  6
CONTINUOUS
 10
-11.1330265205
 20
-11.2242380695
 11
-11.1386623439
 21
-11.5188272032
  0
LINE
  5
34D
100
AcDbEntity
  8
0
100
AcDbLine
 62
7
  6
CONTINUOUS
 10
-11.1386623444
 20
-11.5188272313
 11
-11.1330222148
 21
-11.2240169081
  0
LWPOLYLINE
  5
34E
100
AcDbEntity
  8
ASSI
100
AcDbPolyline
 62
250
  6
CONTINUOUS
 90
28
 70
0
 10
-11.2027432743
 20
25.2693111825
 10
-11.2025321685
 20
25.27998018
 10
-11.2018756296
 20
25.2911311599
 10
-11.2007401111
 20
25.3027504674
 10
-11.1990883661
 20
25.3148479667
 10
-11.1968904166
 20
25.3273725307
 10
-11.1941353566
 20
25.3402092887
 10
-11.1908044199
 20
25.3533232572
 10
-11.1868812927
 20
25.3666744352
 10
-11.1823826138
 20
25.380132018
 10
-11.177307599
 20
25.3936482779
 10
-11.1716573058
 20
25.4071755338
 10
-11.1654747482
 20
25.4205821407
 10
-11.1587818403
 20
25.4338070273
 10
-11.151591105
 20
25.4468131018
 10
-11.1439486552
 20
25.4595097868
 10
-11.1358883626
 20
25.4718401561
 10
-11.1274311393
 20
25.4837717074
 10
-11.1186111185
 20
25.4952557219
 10
-11.1094607088
 20
25.5062497633
 10
-11.1000109942
 20
25.5167163042
 10
-11.0902965417
 20
25.5266173515
 10
-11.0803514762
 20
25.5359179361
 10
-11.0702112063
 20
25.5445847727
 10
-11.0599135981
 20
25.5525860349
 10
-11.0494958007
 20
25.5598933115
 10
-11.0389940232
 20
25.5664813618
 10
-11.0284453984
 20
25.5723271371
  0
LINE
  5
34F
100
AcDbEntity
  8
DRAFT
100
AcDbLine
 62
7
  6
CONTINUOUS
 10
-11.1271641712
 20
-10.928255826
 11
-11.1330265205
 21
-11.2242380695
  0
LINE
  5
350
100
AcDbEntity
  8
0
100
AcDbLine
 62
7
  6
CONTINUOUS
 10
-11.1330222148
 20
-11.2240169081
 11
-11.1271548529
 21
-10.927793266
  0
LINE
  5
351
100
AcDbEntity
  8
DRAFT
100
AcDbLine
 62
7
  6
CONTINUOUS
 10
-11.121161782
 20
-10.6351612676
 11
-11.1271641712
 21
-10.928255826
  0
LINE
  5
352
100
AcDbEntity
  8
0
100
AcDbLine
 62
7
  6
CONTINUOUS
 10
-11.1271548529
 20
-10.927793266
 11
-11.1211533609
 21
-10.6347567492
  0
LINE
  5
353
100
AcDbEntity
  8
DRAFT
100
AcDbLine
 62
7
  6
CONTINUOUS
 10
-11.1150312053
 20
-10.3452280613
 11
-11.121161782
 21
-10.6351612676
  0
LINE
  5
354
100
AcDbEntity
  8
0
100
AcDbLine
 62
7
  6
CONTINUOUS
 10
-11.1211533609
 20
-10.6347567492
 11
-11.1150261675
 21
-10.3449933054
  0
LINE
  5
355
100
AcDbEntity
  8
0
100
AcDbLine
 62
7
  6
CONTINUOUS
 10
-11.1150261675
 20
-10.3449933054
 11
-11.1087804737
 21
-10.0585269492
  0
LINE
  5
356
100
AcDbEntity
  8
DRAFT
100
AcDbLine
 62
7
  6
CONTINUOUS
 10
-11.1087804607
 20
-10.0585271341
 11
-11.1150312053
 21
-10.3452280613
  0
LINE
  5
357
100
AcDbEntity
  8
ASSI
100
AcDbLine
 62
7
  6
CONTINUOUS
 10
-8.6515713785
 20
26.0893533469
 11
-8.6507771869
 21
26.1095279222
  0
LWPOLYLINE
  5
358
100
AcDbEntity
  8
DRAFT
100
AcDbPolyline
 62
7
  6
CONTINUOUS
 90
12
 70
0
 10
-11.1589726269
 20
-12.6820006188
 10
-11.1630813011
 20
-12.7564418397
 10
-11.1722566871
 20
-12.8265810971
 10
-11.1864982833
 20
-12.8924181942
 10
-11.2059707726
 20
-12.9543478631
 10
-11.2305057468
 20
-13.0119737624
 10
-11.2596028812
 20
-13.0641090239
 10
-11.2934036545
 20
-13.1106917322
 10
-11.3317604196
 20
-13.1517811572
 10
-11.3737408314
 20
-13.1863729918
 10
-11.4193621425
 20
-13.2142956541
 10
-11.4678184236
 20
-13.2354392972
  0
LWPOLYLINE
  5
359
100
AcDbEntity
  8
0
100
AcDbPolyline
 62
7
  6
CONTINUOUS
 90
3
 70
0
 10
-11.1664285216
 20
-12.7886537711
 10
-11.1612855062
 20
-12.7363162634
 10
-11.1589726355
 20
-12.6820011526
  0
LWPOLYLINE
  5
35A
100
AcDbEntity
  8
ASSI
100
AcDbPolyline
 62
250
  6
CONTINUOUS
 90
7
 70
0
 10
-8.6507770042
 20
26.4494552199
 10
-8.6522325335
 20
26.4374126583
 10
-8.6570026304
 20
26.4246989477
 10
-8.6650150937
 20
26.4123994761
 10
-8.6761358533
 20
26.4007200467
 10
-8.690178829
 20
26.3898560879
 10
-8.7069090442
 20
26.3799893828
  0
LWPOLYLINE
  5
35B
100
AcDbEntity
  8
ASSI
100
AcDbPolyline
 62
250
  6
CONTINUOUS
 90
7
 70
0
 10
-8.6507770042
 20
26.1095116251
 10
-8.6522325418
 20
26.0974690298
 10
-8.6570026459
 20
26.0847553227
 10
-8.6650151133
 20
26.0724558568
 10
-8.6761358725
 20
26.0607764349
 10
-8.690178842
 20
26.0499124844
 10
-8.7069090442
 20
26.040045788
  0
LWPOLYLINE
  5
35C
100
AcDbEntity
  8
DRAFT
100
AcDbPolyline
 62
7
  6
CONTINUOUS
 90
7
 70
0
 10
-12.4786661228
 20
-9.2229871415
 10
-12.4643225304
 20
-9.1574584676
 10
-12.4448728526
 20
-9.0957392189
 10
-12.4204687812
 20
-9.0382259092
 10
-12.3915700621
 20
-8.986110087
 10
-12.3579970407
 20
-8.9394296569
 10
-12.3199228006
 20
-8.8981439322
  0
LWPOLYLINE
  5
35D
100
AcDbEntity
  8
ASSI
100
AcDbPolyline
 62
7
  6
CONTINUOUS
 90
14
 70
0
 10
2.4189044997
 20
18.472453103
 10
2.4012941961
 20
18.4556144817
 10
2.3824433936
 20
18.4396839847
 10
2.3624492827
 20
18.424862885
 10
2.3413501266
 20
18.4113491796
 10
2.3193473048
 20
18.3993147193
 10
2.2968089829
 20
18.3888951166
 10
2.2738958552
 20
18.3802167829
 10
2.2507685926
 20
18.3734110254
 10
2.2278192133
 20
18.3685609031
 10
2.2052617641
 20
18.3657074247
 10
2.1832427509
 20
18.3648837977
 10
2.1620576784
 20
18.366075206
 10
2.1413094873
 20
18.3693515539
  0
LWPOLYLINE
  5
35E
100
AcDbEntity
  8
RACCORDO
100
AcDbPolyline
 62
250
  6
CONTINUOUS
 90
43
 70
0
 10
10.0569754966
 20
22.7384789652
 10
10.1061509472
 20
22.7774871351
 10
10.1773931025
 20
22.8280919425
 10
10.2535272002
 20
22.876715221
 10
10.3345438292
 20
22.9233429635
 10
10.4204524006
 20
22.9679891771
 10
10.5108032863
 20
23.0103624462
 10
10.6058535664
 20
23.0505216442
 10
10.705346161
 20
23.0884078977
 10
10.8080602013
 20
23.1235531709
 10
10.9144010701
 20
23.1559308908
 10
11.0239633847
 20
23.1855676303
 10
11.1343101291
 20
23.2120750725
 10
11.245414646
 20
23.235274466
 10
11.3573035927
 20
23.255344562
 10
11.4676199248
 20
23.2724332978
 10
11.5760104147
 20
23.2864071937
 10
11.68282829
 20
23.2973997292
 10
11.7867761891
 20
23.3059592805
 10
11.8876120235
 20
23.31206185
 10
11.9855778818
 20
23.3157314352
 10
12.0801026682
 20
23.317588404
 10
12.1710244083
 20
23.3176542729
 10
12.2585050764
 20
23.3159075254
 10
12.3424594998
 20
23.31290398
 10
12.4227635732
 20
23.3086851793
 10
12.4995414018
 20
23.3032095808
 10
12.5730801282
 20
23.2969083752
 10
12.6433466619
 20
23.2898223414
 10
12.7103740935
 20
23.2819107005
 10
12.7745488376
 20
23.2734823064
 10
12.8358565845
 20
23.2645716658
 10
12.8943116439
 20
23.255144272
 10
12.9503433604
 20
23.2454054582
 10
13.0039479439
 20
23.2353839365
 10
13.0551291846
 20
23.2250509947
 10
13.1043277969
 20
23.21452583
 10
13.1515469418
 20
23.2038312909
 10
13.1967834584
 20
23.1929445287
 10
13.2404685782
 20
23.1819161951
 10
13.2827460453
 20
23.1707631738
 10
13.3234721157
 20
23.159468581
 10
13.3626467895
 20
23.1480324166
  0
LWPOLYLINE
  5
35F
100
AcDbEntity
  8
RACCORDO
100
AcDbPolyline
 62
250
  6
CONTINUOUS
 90
6
 70
0
 10
9.9932455773
 20
22.7677225989
 10
10.0049764014
 20
22.7769537955
 10
10.0814695392
 20
22.830781731
 10
10.1634609429
 20
22.8825829147
 10
10.2507095399
 20
22.9322005541
 10
10.2710789193
 20
22.9430695354
  0
LINE
  5
360
100
AcDbEntity
  8
ASSI
100
AcDbLine
 62
7
  6
CONTINUOUS
 10
5.0997923529
 20
15.3632796703
 11
4.4050281665
 21
14.9991266393
  0
LINE
  5
361
100
AcDbEntity
  8
RACCORDO
100
AcDbLine
 62
250
  6
CONTINUOUS
 10
19.586485396
 20
22.1125652195
 11
5.1615100279
 21
14.6438155848
  0
LINE
  5
362
100
AcDbEntity
  8
SUPERFICI
100
AcDbLine
 62
250
  6
CONTINUOUS
 10
19.586485396
 20
22.1125652195
 11
5.1615100279
 21
14.6438155848
  0
LWPOLYLINE
  5
363
100
AcDbEntity
  8
RACCORDO
100
AcDbPolyline
 62
250
  6
CONTINUOUS
 90
32
 70
0
 10
19.6941446862
 20
16.5662680976
 10
19.7142357912
 20
16.572214783
 10
19.7335555909
 20
16.5760658892
 10
19.7520812101
 20
16.5778484293
 10
19.76977621
 20
16.5774645258
 10
19.7866149423
 20
16.5750816734
 10
19.8025921346
 20
16.5711222878
 10
19.8176318788
 20
16.5656610938
 10
19.8317455218
 20
16.5586936671
 10
19.8450680521
 20
16.5505139636
 10
19.8575831696
 20
16.5412190741
 10
19.8692389478
 20
16.5307897232
 10
19.8801190931
 20
16.5193449683
 10
19.8902227521
 20
16.5069608864
 10
19.8994715384
 20
16.4936579779
 10
19.9078297729
 20
16.4794777624
 10
19.915278291
 20
16.4644977345
 10
19.9217464207
 20
16.4487579159
 10
19.9271165841
 20
16.4322514176
 10
19.9313640962
 20
16.4150952014
 10
19.9344138377
 20
16.3973134414
 10
19.9360601317
 20
16.3787783345
 10
19.9362935827
 20
16.3596509228
 10
19.9349993341
 20
16.3399591405
 10
19.9317831031
 20
16.3194191235
 10
19.9266415748
 20
16.2982262505
 10
19.9194042187
 20
16.2764676402
 10
19.909379441
 20
16.2537661711
 10
19.8965726972
 20
16.2303992585
 10
19.8807453888
 20
16.2065003094
 10
19.860784065
 20
16.1815637276
 10
19.8390795757
 20
16.1585239969
  0
LWPOLYLINE
  5
364
100
AcDbEntity
  8
SUPERFICI
100
AcDbPolyline
 62
250
  6
CONTINUOUS
 90
32
 70
0
 10
19.6941446862
 20
16.5662680976
 10
19.7142357912
 20
16.572214783
 10
19.7335555909
 20
16.5760658892
 10
19.7520812101
 20
16.5778484293
 10
19.76977621
 20
16.5774645258
 10
19.7866149423
 20
16.5750816734
 10
19.8025921346
 20
16.5711222878
 10
19.8176318788
 20
16.5656610938
 10
19.8317455218
 20
16.5586936671
 10
19.8450680521
 20
16.5505139636
 10
19.8575831696
 20
16.5412190741
 10
19.8692389478
 20
16.5307897232
 10
19.8801190931
 20
16.5193449683
 10
19.8902227521
 20
16.5069608864
 10
19.8994715384
 20
16.4936579779
 10
19.9078297729
 20
16.4794777624
 10
19.915278291
 20
16.4644977345
 10
19.9217464207
 20
16.4487579159
 10
19.9271165841
 20
16.4322514176
 10
19.9313640962
 20
16.4150952014
 10
19.9344138377
 20
16.3973134414
 10
19.9360601317
 20
16.3787783345
 10
19.9362935827
 20
16.3596509228
 10
19.9349993341
 20
16.3399591405
 10
19.9317831031
 20
16.3194191235
 10
19.9266415748
 20
16.2982262505
 10
19.9194042187
 20
16.2764676402
 10
19.909379441
 20
16.2537661711
 10
19.8965726972
 20
16.2303992585
 10
19.8807453888
 20
16.2065003094
 10
19.860784065
 20
16.1815637276
 10
19.8390795757
 20
16.1585239969
  0
LWPOLYLINE
  5
365
100
AcDbEntity
  8
DRAFT
100
AcDbPolyline
 62
7
  6
CONTINUOUS
 90
26
 70
0
 10
-11.4678184236
 20
-13.2354392972
 10
-11.5204648493
 20
-13.2501473837
 10
-11.5751501731
 20
-13.2574042826
 10
-11.632455126
 20
-13.2576656764
 10
-11.690797654
 20
-13.2509758885
 10
-11.7500785233
 20
-13.2371626124
 10
-11.8103945857
 20
-13.2163971964
 10
-11.8704627958
 20
-13.1892415921
 10
-11.9302565577
 20
-13.155606068
 10
-11.9898028754
 20
-13.1155805655
 10
-12.0479033631
 20
-13.0699984028
 10
-12.1046085798
 20
-13.0186744436
 10
-12.1598708905
 20
-12.9617950675
 10
-12.2123489593
 20
-12.9007527595
 10
-12.2618995505
 20
-12.83557716
 10
-12.3086718484
 20
-12.7662411364
 10
-12.3517667317
 20
-12.6940535837
 10
-12.3912022148
 20
-12.6187743117
 10
-12.4269664236
 20
-12.5406460629
 10
-12.4581180838
 20
-12.4617033259
 10
-12.4844855448
 20
-12.3820664672
 10
-12.50624666
 20
-12.301617719
 10
-12.5229862026
 20
-12.2220351987
 10
-12.5345674089
 20
-12.143878988
 10
-12.5411308148
 20
-12.0665905949
 10
-12.5426769665
 20
-11.9901702264
  0
LWPOLYLINE
  5
366
100
AcDbEntity
  8
ASSI
100
AcDbPolyline
 62
7
  6
CONTINUOUS
 90
5
 70
0
 10
3.8860851946
 20
-21.3374132738
 10
3.8695722486
 20
-21.3188465406
 10
3.8512572357
 20
-21.3024119165
 10
3.8312791585
 20
-21.2881743834
 10
3.812127921
 20
-21.2773929069
  0
LWPOLYLINE
  5
367
100
AcDbEntity
  8
ASSI
100
AcDbPolyline
 62
250
  6
CONTINUOUS
 90
7
 70
0
 10
-13.3258231941
 20
26.0549354128
 10
-13.3239171289
 20
26.0412304548
 10
-13.3187039888
 20
26.0285603054
 10
-13.3102634351
 20
26.0163326254
 10
-13.298736701
 20
26.0047520169
 10
-13.2843166596
 20
25.9940122546
 10
-13.267244597
 20
25.9842930435
  0
LWPOLYLINE
  5
368
100
AcDbEntity
  8
ASSI
100
AcDbPolyline
 62
250
  6
CONTINUOUS
 90
7
 70
0
 10
-13.3258232327
 20
26.3722441579
 10
-13.3239171358
 20
26.3584992799
 10
-13.3187040008
 20
26.3458291274
 10
-13.3102634497
 20
26.3336014431
 10
-13.2987367149
 20
26.3220208292
 10
-13.2843166688
 20
26.3112810609
 10
-13.267244597
 20
26.3015618439
  0
LWPOLYLINE
  5
369
100
AcDbEntity
  8
ASSI
100
AcDbPolyline
 62
7
  6
CONTINUOUS
 90
13
 70
0
 10
-9.2651454547
 20
26.1456520475
 10
-9.2663490716
 20
26.1688646834
 10
-9.2699583016
 20
26.192885888
 10
-9.275907211
 20
26.2173071015
 10
-9.2840893432
 20
26.2417133688
 10
-9.2943638779
 20
26.2656875111
 10
-9.3065578901
 20
26.2888172981
 10
-9.3204653103
 20
26.3107058229
 10
-9.3358457361
 20
26.330979942
 10
-9.3524326338
 20
26.349293932
 10
-9.3699430544
 20
26.3653340775
 10
-9.3880825583
 20
26.3788238904
 10
-9.4065452718
 20
26.3895306568
  0
LWPOLYLINE
  5
36A
100
AcDbEntity
  8
ASSI
100
AcDbPolyline
 62
7
  6
CONTINUOUS
 90
10
 70
0
 10
-8.6507775336
 20
26.4496617963
 10
-8.6516592028
 20
26.4705072523
 10
-8.656005814
 20
26.5001691234
 10
-8.6639722356
 20
26.5288821001
 10
-8.6754534284
 20
26.5561533872
 10
-8.6901310446
 20
26.5813321874
 10
-8.7077497619
 20
26.6041548808
 10
-8.7281529281
 20
26.6244589349
 10
-8.7509102629
 20
26.6418340853
 10
-8.7740238512
 20
26.6552309483
  0
LINE
  5
36B
100
AcDbEntity
  8
ASSI
100
AcDbLine
 62
7
  6
CONTINUOUS
 10
-9.2651454547
 20
24.5001774004
 11
-9.2651454547
 21
26.1456520475
  0
LINE
  5
36C
100
AcDbEntity
  8
ASSI
100
AcDbLine
 62
250
  6
CONTINUOUS
 10
-8.7069090442
 20
26.3799893828
 11
-8.7069090442
 21
26.040045788
  0
LINE
  5
36D
100
AcDbEntity
  8
ASSI
100
AcDbLine
 62
7
  6
CONTINUOUS
 10
-8.650777431
 20
26.4496617964
 11
-8.6507770042
 21
26.1095116253
  0
LINE
  5
36E
100
AcDbEntity
  8
ASSI
100
AcDbLine
 62
7
  6
CONTINUOUS
 10
-7.5875881637
 20
23.329241762
 11
-7.5875881637
 21
24.5138462679
  0
LINE
  5
36F
100
AcDbEntity
  8
ASSI
100
AcDbLine
 62
250
  6
CONTINUOUS
 10
-7.5290095199
 20
23.2558628083
 11
-7.5290095199
 21
24.4431355896
  0
LWPOLYLINE
  5
370
100
AcDbEntity
  8
ASSI
100
AcDbPolyline
 62
250
  6
CONTINUOUS
 90
28
 70
0
 10
-7.5290095199
 20
24.4431355896
 10
-7.5289796583
 20
24.4452361994
 10
-7.5288471132
 20
24.4473285455
 10
-7.5286118845
 20
24.4494126278
 10
-7.5282785247
 20
24.4515047237
 10
-7.5278424813
 20
24.4535885559
 10
-7.5272900973
 20
24.4556152924
 10
-7.5266172279
 20
24.4575838835
 10
-7.5258280178
 20
24.4594953788
 10
-7.5249212449
 20
24.4613040964
 10
-7.5238926094
 20
24.4630068624
 10
-7.522746411
 20
24.4646068506
 10
-7.521494327
 20
24.4660679002
 10
-7.5201337272
 20
24.4673850081
 10
-7.5186672419
 20
24.4685631774
 10
-7.5171144388
 20
24.4695812565
 10
-7.5154752815
 20
24.4704349852
 10
-7.5137498064
 20
24.4711286238
 10
-7.5119576897
 20
24.4716538014
 10
-7.5100984948
 20
24.472008382
 10
-7.5081726583
 20
24.4721945017
 10
-7.5062011655
 20
24.4722101976
 10
-7.5041834497
 20
24.4720535656
 10
-7.5021200778
 20
24.4717265097
 10
-7.5000337348
 20
24.471232779
 10
-7.4979319827
 20
24.4705736233
 10
-7.4958072596
 20
24.4697477929
 10
-7.4936595656
 20
24.4687552877
  0
LWPOLYLINE
  5
371
100
AcDbEntity
  8
ASSI
100
AcDbPolyline
 62
250
  6
CONTINUOUS
 90
19
 70
0
 10
-8.7069090442
 20
26.040045788
 10
-8.7069405094
 20
26.0378648882
 10
-8.7070764258
 20
26.0355896845
 10
-8.7073167934
 20
26.033220177
 10
-8.7076571185
 20
26.0307449272
 10
-8.7081018949
 20
26.0281753735
 10
-8.7086646033
 20
26.0255458313
 10
-8.7093491331
 20
26.0228530956
 10
-8.710151595
 20
26.0201003714
 10
-8.7110738013
 20
26.0173315892
 10
-8.7121199402
 20
26.0145452127
 10
-8.7132858235
 20
26.0117427782
 10
-8.7145606998
 20
26.0089728249
 10
-8.7159483613
 20
26.0062359627
 10
-8.7174450158
 20
26.0035315817
 10
-8.7190285346
 20
26.000906391
 10
-8.7206915416
 20
25.9983759605
 10
-8.722441413
 20
25.9959247204
 10
-8.7242781488
 20
25.9935526708
  0
LWPOLYLINE
  5
372
100
AcDbEntity
  8
ASSI
100
AcDbPolyline
 62
7
  6
CONTINUOUS
 90
10
 70
0
 10
-1.0273514539
 20
20.8853548621
 10
-1.0134104715
 20
20.9190346481
 10
-1.0029547347
 20
20.9551036806
 10
-0.9959842435
 20
20.9935619597
 10
-0.9924989979
 20
21.0348405677
 10
-0.9924989979
 20
21.0785084223
 10
-0.9959842435
 20
21.123272276
 10
-1.0029547347
 20
21.1687010462
 10
-1.0134104715
 20
21.2152258155
 10
-1.0273514539
 20
21.2628465839
  0
LWPOLYLINE
  5
373
100
AcDbEntity
  8
ASSI
100
AcDbPolyline
 62
7
  6
CONTINUOUS
 90
6
 70
0
 10
0.1815036432
 20
19.1593889016
 10
0.1832999407
 20
19.1630689082
 10
0.1885255663
 20
19.1692607037
 10
0.1967227757
 20
19.177601032
 10
0.2076952262
 20
19.1871628246
 10
0.2212612131
 20
19.1977268835
  0
LWPOLYLINE
  5
374
100
AcDbEntity
  8
ASSI
100
AcDbPolyline
 62
250
  6
CONTINUOUS
 90
10
 70
0
 10
3.8622225563
 20
19.7003023182
 10
3.8656604123
 20
19.7049329468
 10
3.8687416069
 20
19.7097520114
 10
3.87146614
 20
19.7147595118
 10
3.8738611149
 20
19.7200282716
 10
3.8758994283
 20
19.7254854673
 10
3.8774997706
 20
19.7309126285
 10
3.8786350385
 20
19.7362369319
 10
3.8793323353
 20
19.7415312009
 10
3.8795916609
 20
19.7467954354
  0
LWPOLYLINE
  5
375
100
AcDbEntity
  8
ASSI
100
AcDbPolyline
 62
7
  6
CONTINUOUS
 90
6
 70
0
 10
3.8738834461
 20
19.6440267063
 10
3.8817681021
 20
19.6542670356
 10
3.895740631
 20
19.675249007
 10
3.9079193744
 20
19.6977048833
 10
3.9181555283
 20
19.7215135455
 10
3.9260496019
 20
19.7457493653
  0
LINE
  5
376
100
AcDbEntity
  8
ASSI
100
AcDbLine
 62
250
  6
CONTINUOUS
 10
3.3213552504
 20
19.0310148321
 11
3.8622225563
 21
19.7003023182
  0
LINE
  5
377
100
AcDbEntity
  8
ASSI
100
AcDbLine
 62
7
  6
CONTINUOUS
 10
3.3213552504
 20
18.9603101712
 11
3.8739100509
 21
19.6440601582
  0
LINE
  5
378
100
AcDbEntity
  8
ASSI
100
AcDbLine
 62
250
  6
CONTINUOUS
 10
-5.2383611228
 20
23.297811391
 11
-5.2383611228
 21
22.1105386097
  0
LINE
  5
379
100
AcDbEntity
  8
ASSI
100
AcDbLine
 62
250
  6
CONTINUOUS
 10
-4.9580080925
 20
23.2965880891
 11
-4.9580080925
 21
22.1182341808
  0
LINE
  5
37A
100
AcDbEntity
  8
ASSI
100
AcDbLine
 62
7
  6
CONTINUOUS
 10
-4.7396620551
 20
22.2374357006
 11
-4.7396620551
 21
23.4066029706
  0
LWPOLYLINE
  5
37B
100
AcDbEntity
  8
ASSI
100
AcDbPolyline
 62
250
  6
CONTINUOUS
 90
13
 70
0
 10
-3.7813489644
 20
22.612599987
 10
-3.7801657862
 20
22.635549576
 10
-3.7766360486
 20
22.6592983382
 10
-3.7708188128
 20
22.6834488938
 10
-3.7628114158
 20
22.7075971394
 10
-3.7527478421
 20
22.73133901
 10
-3.7407964815
 20
22.7542772403
 10
-3.7271573117
 20
22.7760280117
 10
-3.7120585522
 20
22.7962273747
 10
-3.6957528458
 20
22.8145373385
 10
-3.6785130306
 20
22.8306515274
 10
-3.6606275751
 20
22.8443003066
 10
-3.6423957512
 20
22.8552552944
  0
LWPOLYLINE
  5
37C
100
AcDbEntity
  8
RACCORDO
100
AcDbPolyline
 62
7
  6
CONTINUOUS
 90
8
 70
0
 10
-0.1010088322
 20
23.2282961226
 10
-0.1025918263
 20
23.220479045
 10
-0.1060141866
 20
23.2102074378
 10
-0.1117779253
 20
23.1976510887
 10
-0.1200966808
 20
23.1834096692
 10
-0.130775295
 20
23.1683504157
 10
-0.1435898493
 20
23.1529810425
 10
-0.158433133
 20
23.1375305395
  0
LWPOLYLINE
  5
37D
100
AcDbEntity
  8
SUPERFICI
100
AcDbPolyline
 62
7
  6
CONTINUOUS
 90
8
 70
0
 10
-0.1010088322
 20
23.2282961226
 10
-0.1025918263
 20
23.220479045
 10
-0.1060141866
 20
23.2102074378
 10
-0.1117779253
 20
23.1976510887
 10
-0.1200966808
 20
23.1834096692
 10
-0.130775295
 20
23.1683504157
 10
-0.1435898493
 20
23.1529810425
 10
-0.158433133
 20
23.1375305395
  0
LWPOLYLINE
  5
37E
100
AcDbEntity
  8
ASSI
100
AcDbPolyline
 62
250
  6
CONTINUOUS
 90
12
 70
0
 10
1.6820966955
 20
18.62875328
 10
1.6715849294
 20
18.605382359
 10
1.6589001743
 20
18.5836240891
 10
1.6442570685
 20
18.5638466411
 10
1.6279033874
 20
18.5463846686
 10
1.6101158512
 20
18.5315336451
 10
1.5911954422
 20
18.5195448642
 10
1.5714623117
 20
18.5106211877
 10
1.5512503637
 20
18.5049136128
 10
1.5309016044
 20
18.5025187169
 10
1.5107603548
 20
18.5034770242
 10
1.5016622428
 20
18.5050408459
  0
LWPOLYLINE
  5
37F
100
AcDbEntity
  8
ASSI
100
AcDbPolyline
 62
7
  6
CONTINUOUS
 90
6
 70
0
 10
0.1883157082
 20
-21.9044687881
 10
0.1967417377
 20
-21.9396991756
 10
0.2076952262
 20
-21.9747773173
 10
0.2209136022
 20
-22.0094635473
 10
0.2366164271
 20
-22.0433866373
 10
0.2547246264
 20
-22.0762957076
  0
LWPOLYLINE
  5
380
100
AcDbEntity
  8
ASSI
100
AcDbPolyline
 62
7
  6
CONTINUOUS
 90
13
 70
0
 10
-4.7396620551
 20
23.4066029706
 10
-4.7411665762
 20
23.4356187655
 10
-4.7456781137
 20
23.4656452713
 10
-4.7531142505
 20
23.4961717882
 10
-4.7633419158
 20
23.5266796222
 10
-4.7761850841
 20
23.5566473001
 10
-4.7914275993
 20
23.5855595339
 10
-4.8088118746
 20
23.6129201898
 10
-4.8280374069
 20
23.6382628387
 10
-4.848771029
 20
23.6611553262
 10
-4.8706590547
 20
23.6812055082
 10
-4.8933334346
 20
23.6980677743
 10
-4.9164118264
 20
23.7114512323
  0
LINE
  5
381
100
AcDbEntity
  8
ASSI
100
AcDbLine
 62
7
  6
CONTINUOUS
 10
-4.0576018248
 20
22.5890988599
 11
-4.0818936436
 21
23.7328609519
  0
LINE
  5
382
100
AcDbEntity
  8
ASSI
100
AcDbLine
 62
7
  6
CONTINUOUS
 10
-2.6128125931
 20
25.2471173718
 11
-2.630504259
 21
26.4341894189
  0
LINE
  5
383
100
AcDbEntity
  8
ASSI
100
AcDbLine
 62
250
  6
CONTINUOUS
 10
-2.7288418873
 20
25.1099486042
 11
-2.7412859287
 21
26.3033361741
  0
LINE
  5
384
100
AcDbEntity
  8
ASSI
100
AcDbLine
 62
250
  6
CONTINUOUS
 10
-3.8166989187
 20
22.586980289
 11
-3.8166989187
 21
21.3997075077
  0
LINE
  5
385
100
AcDbEntity
  8
ASSI
100
AcDbLine
 62
7
  6
CONTINUOUS
 10
-3.8752775624
 20
21.4730864613
 11
-3.8752775112
 21
22.657762588
  0
LWPOLYLINE
  5
386
100
AcDbEntity
  8
RACCORDO
100
AcDbPolyline
 62
250
  6
CONTINUOUS
 90
5
 70
0
 10
-3.6377740408
 20
-22.7153857873
 10
-3.5944473394
 20
-18.6849555625
 10
-3.5191529458
 20
-14.6405323111
 10
-3.4118908599
 20
-10.5821160329
 10
-3.2726376273
 20
-6.5091468133
  0
LWPOLYLINE
  5
387
100
AcDbEntity
  8
RACCORDO
100
AcDbPolyline
 62
250
  6
CONTINUOUS
 90
8
 70
0
 10
-4.3108354056
 20
-22.7188029609
 10
-4.264667025
 20
-18.6860481674
 10
-4.1872014584
 20
-14.6382608762
 10
-4.0784321451
 20
-10.5758026328
 10
-3.9383495663
 20
-6.4988528413
 10
-3.7669640831
 20
-2.4079626138
 10
-3.564314498
 20
1.6959417645
 10
-3.330437093
 20
5.8122978847
  0
LINE
  5
388
100
AcDbEntity
  8
RACCORDO
100
AcDbLine
 62
250
  6
CONTINUOUS
 10
-3.2726376273
 20
-6.5091468133
 11
-3.1014167024
 21
-2.4221845671
  0
LWPOLYLINE
  5
389
100
AcDbEntity
  8
RACCORDO
100
AcDbPolyline
 62
250
  6
CONTINUOUS
 90
4
 70
0
 10
-3.1014167024
 20
-2.4221845671
 10
-2.8982984489
 20
1.6770909616
 10
-2.6633063212
 20
5.788119858
 10
-2.3964168649
 20
9.9114620367
  0
LWPOLYLINE
  5
38A
100
AcDbEntity
  8
ASSI
100
AcDbPolyline
 62
250
  6
CONTINUOUS
 90
13
 70
0
 10
-1.5614004758
 20
21.5026257428
 10
-1.560217296
 20
21.5255753471
 10
-1.5566875544
 20
21.5493241227
 10
-1.5508703129
 20
21.5734746886
 10
-1.5428629098
 20
21.5976229409
 10
-1.5327993304
 20
21.6213648144
 10
-1.5208479655
 20
21.6443030437
 10
-1.5072087934
 20
21.6660538105
 10
-1.4921100344
 20
21.6862531661
 10
-1.4758043311
 20
21.7045631209
 10
-1.458564522
 20
21.7206773
 10
-1.4406790752
 20
21.73432607
 10
-1.4224472626
 20
21.7452810502
  0
LWPOLYLINE
  5
38B
100
AcDbEntity
  8
ASSI
100
AcDbPolyline
 62
7
  6
CONTINUOUS
 90
9
 70
0
 10
-2.6127653821
 20
25.2471170195
 10
-2.6135264631
 20
25.233739366
 10
-2.6181640758
 20
25.2139902761
 10
-2.6271701472
 20
25.194433409
 10
-2.6403820189
 20
25.1751915684
 10
-2.6572137253
 20
25.1570442209
 10
-2.6774699446
 20
25.1402511888
 10
-2.7013459986
 20
25.1245526499
 10
-2.7288418873
 20
25.1099486042
  0
LINE
  5
38C
100
AcDbEntity
  8
RACCORDO
100
AcDbLine
 62
250
  6
CONTINUOUS
 10
-3.330437093
 20
5.8122978847
 11
-3.0653570464
 21
9.940911221
  0
LINE
  5
38D
100
AcDbEntity
  8
RACCORDO
100
AcDbLine
 62
250
  6
CONTINUOUS
 10
-3.0653570464
 20
9.940911221
 11
-2.7691120128
 21
14.0814009583
  0
LINE
  5
38E
100
AcDbEntity
  8
RACCORDO
100
AcDbLine
 62
250
  6
CONTINUOUS
 10
-2.3964168649
 20
9.9114620367
 11
-2.09763008
 21
14.0471174979
  0
LWPOLYLINE
  5
38F
100
AcDbEntity
  8
RACCORDO
100
AcDbPolyline
 62
250
  6
CONTINUOUS
 90
22
 70
0
 10
-2.7691120034
 20
14.0814009605
 10
-2.7612960403
 20
14.159047888
 10
-2.7492629085
 20
14.2379793344
 10
-2.7330721364
 20
14.3177906031
 10
-2.7127983516
 20
14.3980634317
 10
-2.6885461409
 20
14.4783942521
 10
-2.6604468373
 20
14.5583962647
 10
-2.6286289097
 20
14.6376621045
 10
-2.593250107
 20
14.7157780374
 10
-2.5545101906
 20
14.7923522347
 10
-2.5125925431
 20
14.8669862498
 10
-2.4677011425
 20
14.9392944478
 10
-2.4200896132
 20
15.0089179879
 10
-2.3699829673
 20
15.0754940432
 10
-2.3176259392
 20
15.1386740136
 10
-2.2633200167
 20
15.1981433625
 10
-2.207328558
 20
15.2535863841
 10
-2.1499198237
 20
15.3047152803
 10
-2.0914147017
 20
15.3512867903
 10
-2.0321095943
 20
15.3930611138
 10
-1.9722754774
 20
15.4298048094
 10
-1.9122007853
 20
15.461319
  0
LWPOLYLINE
  5
390
100
AcDbEntity
  8
RACCORDO
100
AcDbPolyline
 62
250
  6
CONTINUOUS
 90
22
 70
0
 10
-2.09763008
 20
14.0471174979
 10
-2.0929013604
 20
14.0924956432
 10
-2.0856878953
 20
14.1381796489
 10
-2.0759896848
 20
14.184169515
 10
-2.0637315431
 20
14.230723345
 10
-2.048988656
 20
14.2775830353
 10
-2.0319865803
 20
14.3239742756
 10
-2.0126926798
 20
14.3698698711
 10
-1.9911395909
 20
14.4152970165
 10
-1.9676507792
 20
14.4595629855
 10
-1.9421941311
 20
14.5026528345
 10
-1.9148017603
 20
14.5445815072
 10
-1.8858934737
 20
14.5847011077
 10
-1.855445966
 20
14.6229820919
 10
-1.8234825424
 20
14.659454004
 10
-1.7904929257
 20
14.6935575809
 10
-1.7564447586
 20
14.7252635234
 10
-1.7213703982
 20
14.7546011306
 10
-1.6858566391
 20
14.7810990366
 10
-1.6500990791
 20
14.8046001193
 10
-1.6139021203
 20
14.8252615007
 10
-1.5772657627
 20
14.8430831809
  0
LINE
  5
391
100
AcDbEntity
  8
DRAFT
100
AcDbLine
 62
7
  6
CONTINUOUS
 10
19.8390795757
 20
16.1436037793
 11
20.9098026697
 21
16.8361384364
  0
LINE
  5
392
100
AcDbEntity
  8
SUPERFICI
100
AcDbLine
 62
7
  6
CONTINUOUS
 10
19.8390795757
 20
16.1436037793
 11
20.9098026697
 21
16.8361384364
  0
LWPOLYLINE
  5
393
100
AcDbEntity
  8
ASSI
100
AcDbPolyline
 62
250
  6
CONTINUOUS
 90
6
 70
0
 10
3.8694268961
 20
-21.3732449487
 10
3.8614044381
 20
-21.3504434779
 10
3.8509614387
 20
-21.3294084293
 10
3.8382746028
 20
-21.3104957359
 10
3.8235586038
 20
-21.2940254187
 10
3.8070624507
 20
-21.2802761716
  0
LWPOLYLINE
  5
394
100
AcDbEntity
  8
ASSI
100
AcDbPolyline
 62
7
  6
CONTINUOUS
 90
5
 70
0
 10
3.9295633234
 20
-21.4283947206
 10
3.922396197
 20
-21.4035526037
 10
3.9126786536
 20
-21.380009197
 10
3.9005372942
 20
-21.3579079397
 10
3.8860851946
 20
-21.3374132738
  0
LINE
  5
395
100
AcDbEntity
  8
ASSI
100
AcDbLine
 62
7
  6
CONTINUOUS
 10
0.1840099421
 20
-21.8742044454
 11
0.1883157082
 21
-21.9044687881
  0
LWPOLYLINE
  5
396
100
AcDbEntity
  8
ASSI
100
AcDbPolyline
 62
250
  6
CONTINUOUS
 90
7
 70
0
 10
-7.5875881637
 20
24.5138462674
 10
-7.5856820328
 20
24.5000729332
 10
-7.5804688792
 20
24.4874027923
 10
-7.5720283185
 20
24.4751751246
 10
-7.5605015862
 20
24.4635945308
 10
-7.5460815575
 20
24.4528547845
 10
-7.5290095199
 20
24.4431355896
  0
LINE
  5
397
100
AcDbEntity
  8
DRAFT
100
AcDbLine
 62
7
  6
CONTINUOUS
 10
0.7757708382
 20
-15.3559316654
 11
0.5647700182
 21
-12.8433340968
  0
LWPOLYLINE
  5
398
100
AcDbEntity
  8
ASSI
100
AcDbPolyline
 62
7
  6
CONTINUOUS
 90
12
 70
0
 10
-2.6305041306
 20
26.434183366
 10
-2.6321354944
 20
26.4604254048
 10
-2.6376593737
 20
26.4930487403
 10
-2.6471080691
 20
26.5252415182
 10
-2.6604886722
 20
26.5565630239
 10
-2.6776662521
 20
26.5864317424
 10
-2.6985487907
 20
26.6145150453
 10
-2.723084863
 20
26.6405721368
 10
-2.7508929889
 20
26.6640982191
 10
-2.781497617
 20
26.6847157112
 10
-2.8151431159
 20
26.7025788697
 10
-2.8514467852
 20
26.7174396242
  0
LWPOLYLINE
  5
399
100
AcDbEntity
  8
ASSI
100
AcDbPolyline
 62
7
  6
CONTINUOUS
 90
13
 70
0
 10
-1.0273514539
 20
21.55044767
 10
-1.0288559749
 20
21.5794634649
 10
-1.0333675125
 20
21.6094899707
 10
-1.0408036493
 20
21.6400164875
 10
-1.0510313146
 20
21.6705243216
 10
-1.0638744828
 20
21.7004919995
 10
-1.0791169981
 20
21.7294042333
 10
-1.0965012734
 20
21.7567648892
 10
-1.1157268057
 20
21.7821075381
 10
-1.1364604277
 20
21.8050000256
 10
-1.1583484535
 20
21.8250502076
 10
-1.1810228334
 20
21.8419124737
 10
-1.2041012252
 20
21.8552959317
  0
LWPOLYLINE
  5
39A
100
AcDbEntity
  8
ASSI
100
AcDbPolyline
 62
250
  6
CONTINUOUS
 90
28
 70
0
 10
-1.2456974912
 20
21.4404327885
 10
-1.2460636809
 20
21.4517517792
 10
-1.2469233014
 20
21.4635214583
 10
-1.248303265
 20
21.4757210448
 10
-1.2502338742
 20
21.4883533162
 10
-1.2527369481
 20
21.5013608875
 10
-1.2558139954
 20
21.5146235856
 10
-1.2594749888
 20
21.5281012363
 10
-1.2637271774
 20
21.5417495047
 10
-1.2685438673
 20
21.55543503
 10
-1.2739153148
 20
21.5691041893
 10
-1.2798330447
 20
21.5827124288
 10
-1.2862507677
 20
21.5961407833
 10
-1.2931386377
 20
21.6093268419
 10
-1.3004796927
 20
21.6222385018
 10
-1.3082343377
 20
21.6348073609
 10
-1.3163671236
 20
21.64698089
 10
-1.3248538361
 20
21.6587276658
 10
-1.3336682468
 20
21.6700142867
 10
-1.3427793174
 20
21.6808027186
 10
-1.3521540606
 20
21.6910556257
 10
-1.361762833
 20
21.7007421068
 10
-1.3715718378
 20
21.7098287565
 10
-1.3815467556
 20
21.7182844797
 10
-1.391656694
 20
21.7260836013
 10
-1.4018678184
 20
21.7331996484
 10
-1.4121432672
 20
21.739606343
 10
-1.4224472626
 20
21.7452810502
  0
LWPOLYLINE
  5
39B
100
AcDbEntity
  8
ASSI
100
AcDbPolyline
 62
250
  6
CONTINUOUS
 90
15
 70
0
 10
-0.6807438919
 20
19.6910426909
 10
-0.6805312821
 20
19.6805209493
 10
-0.6798689875
 20
19.669933839
 10
-0.6787193017
 20
19.6593317856
 10
-0.6770407966
 20
19.6487477435
 10
-0.6747991841
 20
19.6382656348
 10
-0.6719785855
 20
19.6280117558
 10
-0.6685555805
 20
19.6180461722
 10
-0.6645091567
 20
19.6084325302
 10
-0.6598502274
 20
19.5992888897
 10
-0.6545732558
 20
19.5906717516
 10
-0.6486757827
 20
19.5826383282
 10
-0.6421973814
 20
19.575285939
 10
-0.6351515767
 20
19.5686582689
 10
-0.6275543722
 20
19.5627968593
  0
LWPOLYLINE
  5
39C
100
AcDbEntity
  8
ASSI
100
AcDbPolyline
 62
250
  6
CONTINUOUS
 90
28
 70
0
 10
-1.5260505216
 20
21.4416560904
 10
-1.5260895567
 20
21.4439412102
 10
-1.5262388524
 20
21.4463059768
 10
-1.5264984088
 20
21.44875039
 10
-1.526865699
 20
21.4512871753
 10
-1.5273432498
 20
21.4539036072
 10
-1.5279386418
 20
21.45656151
 10
-1.5286560499
 20
21.4592631406
 10
-1.5294912992
 20
21.462006242
 10
-1.5304394457
 20
21.4647458673
 10
-1.5315039574
 20
21.4674813817
 10
-1.5326813662
 20
21.47021342
 10
-1.5339563245
 20
21.4728989404
 10
-1.5353298374
 20
21.4755341273
 10
-1.5368008997
 20
21.4781227963
 10
-1.5383511477
 20
21.4806333529
 10
-1.5399803443
 20
21.4830628101
 10
-1.5416887265
 20
21.485414155
 10
-1.5434586419
 20
21.4876647545
 10
-1.545290638
 20
21.4898137626
 10
-1.5471841672
 20
21.4918620253
 10
-1.5491199348
 20
21.4937894477
 10
-1.5510982678
 20
21.4955949021
 10
-1.5531188393
 20
21.4972795162
 10
-1.5551613734
 20
21.4988265785
 10
-1.5572191115
 20
21.5002305184
 10
-1.5592988123
 20
21.5014969065
 10
-1.5614004758
 20
21.5026257428
  0
LWPOLYLINE
  5
39D
100
AcDbEntity
  8
ASSI
100
AcDbPolyline
 62
7
  6
CONTINUOUS
 90
9
 70
0
 10
-0.7393223539
 20
19.7617271426
 10
-0.7392932926
 20
19.7579151618
 10
-0.7374858947
 20
19.7314647458
 10
-0.7328591013
 20
19.7055048325
 10
-0.7254615543
 20
19.6804352734
 10
-0.7154594939
 20
19.6567005146
 10
-0.7029727165
 20
19.6344575759
 10
-0.6881176862
 20
19.6138695232
 10
-0.6711593396
 20
19.5952645409
  0
LINE
  5
39E
100
AcDbEntity
  8
RACCORDO
100
AcDbLine
 62
7
  6
CONTINUOUS
 10
-0.1006613175
 20
23.2332236026
 11
-0.100661282
 21
23.2331246263
  0
LINE
  5
39F
100
AcDbEntity
  8
SUPERFICI
100
AcDbLine
 62
250
  6
CONTINUOUS
 10
-0.1006613175
 20
23.2332236026
 11
-0.100661282
 21
23.2331246263
  0
LINE
  5
3A0
100
AcDbEntity
  8
ASSI
100
AcDbLine
 62
250
  6
CONTINUOUS
 10
-1.62814991
 20
24.5875247917
 11
-1.62814991
 21
25.6362718776
  0
LINE
  5
3A1
100
AcDbEntity
  8
ASSI
100
AcDbLine
 62
250
  6
CONTINUOUS
 10
-1.5260505216
 20
20.2543833091
 11
-1.5260505216
 21
21.4416560904
  0
LINE
  5
3A2
100
AcDbEntity
  8
RACCORDO
100
AcDbLine
 62
250
  6
CONTINUOUS
 10
-1.3598060617
 20
23.6425268985
 11
-1.3598060617
 21
22.7776083706
  0
LINE
  5
3A3
100
AcDbEntity
  8
SUPERFICI
100
AcDbLine
 62
250
  6
CONTINUOUS
 10
-1.3598060617
 20
23.6425268985
 11
-1.3598060617
 21
22.7776083706
  0
LINE
  5
3A4
100
AcDbEntity
  8
ASSI
100
AcDbLine
 62
250
  6
CONTINUOUS
 10
-1.2456974912
 20
20.2620788802
 11
-1.2456974912
 21
21.4404327885
  0
LINE
  5
3A5
100
AcDbEntity
  8
ASSI
100
AcDbLine
 62
7
  6
CONTINUOUS
 10
-1.0273514539
 20
20.3812803999
 11
-1.0273514539
 21
21.55044767
  0
LINE
  5
3A6
100
AcDbEntity
  8
RACCORDO
100
AcDbLine
 62
250
  6
CONTINUOUS
 10
-0.9469348454
 20
23.7547873238
 11
-0.9469348454
 21
22.772202664
  0
LINE
  5
3A7
100
AcDbEntity
  8
SUPERFICI
100
AcDbLine
 62
250
  6
CONTINUOUS
 10
-0.9469348454
 20
23.7547873238
 11
-0.9469348454
 21
22.772202664
  0
LINE
  5
3A8
100
AcDbEntity
  8
ASSI
100
AcDbLine
 62
7
  6
CONTINUOUS
 10
-0.7393225357
 20
20.0790221694
 11
-0.7393225357
 21
19.7617533693
  0
LINE
  5
3A9
100
AcDbEntity
  8
ASSI
100
AcDbLine
 62
250
  6
CONTINUOUS
 10
-0.6807438919
 20
20.0083114913
 11
-0.6807438919
 21
19.6910426909
  0
LINE
  5
3AA
100
AcDbEntity
  8
ASSI
100
AcDbLine
 62
250
  6
CONTINUOUS
 10
-0.2144209633
 20
24.5534580563
 11
-0.2144209633
 21
25.1276399123
  0
LINE
  5
3AB
100
AcDbEntity
  8
RACCORDO
100
AcDbLine
 62
250
  6
CONTINUOUS
 10
-0.1885292468
 20
23.3755845245
 11
-0.1885292468
 21
23.1095083392
  0
LINE
  5
3AC
100
AcDbEntity
  8
SUPERFICI
100
AcDbLine
 62
250
  6
CONTINUOUS
 10
-0.1885292468
 20
23.3755845245
 11
-0.1885292468
 21
23.1095083392
  0
LINE
  5
3AD
100
AcDbEntity
  8
ASSI
100
AcDbLine
 62
7
  6
CONTINUOUS
 10
-0.0244594153
 20
19.2601686507
 11
-0.0244594153
 21
18.8062065463
  0
LINE
  5
3AE
100
AcDbEntity
  8
ASSI
100
AcDbLine
 62
250
  6
CONTINUOUS
 10
0.0487638894
 20
19.2235569984
 11
0.0487638894
 21
18.7144828542
  0
LINE
  5
3AF
100
AcDbEntity
  8
0
100
AcDbLine
 62
7
  6
CONTINUOUS
 10
0.068664057
 20
17.6789806394
 11
0.068664057
 21
17.64430297
  0
LINE
  5
3B0
100
AcDbEntity
  8
ASSI
100
AcDbLine
 62
7
  6
CONTINUOUS
 10
0.1815013217
 20
18.5232664447
 11
0.1815013217
 21
19.1611118656
  0
LINE
  5
3B1
100
AcDbEntity
  8
ASSI
100
AcDbLine
 62
250
  6
CONTINUOUS
 10
0.2547246264
 20
-22.0762957076
 11
0.2547246264
 21
-21.3254626827
  0
LINE
  5
3B2
100
AcDbEntity
  8
ASSI
100
AcDbLine
 62
250
  6
CONTINUOUS
 10
0.2547246264
 20
18.4724754068
 11
0.2547246264
 21
19.2233084318
  0
LINE
  5
3B3
100
AcDbEntity
  8
RACCORDO
100
AcDbLine
 62
7
  6
CONTINUOUS
 10
-0.1006662462
 20
23.2331664753
 11
-0.1010088322
 21
23.2282961226
  0
LINE
  5
3B4
100
AcDbEntity
  8
SUPERFICI
100
AcDbLine
 62
7
  6
CONTINUOUS
 10
-0.1006662462
 20
23.2331664753
 11
-0.1010088322
 21
23.2282961226
  0
LWPOLYLINE
  5
3B5
100
AcDbEntity
  8
ASSI
100
AcDbPolyline
 62
7
  6
CONTINUOUS
 90
3
 70
0
 10
3.9260496019
 20
19.7457493653
 10
3.9315905075
 20
19.7701729315
 10
3.9348670847
 20
19.7953151379
  0
LWPOLYLINE
  5
3B6
100
AcDbEntity
  8
DRAFT
100
AcDbPolyline
 62
7
  6
CONTINUOUS
 90
3
 70
0
 10
-12.3199228006
 20
-8.8981439322
 10
-12.2783378132
 20
-8.8633273116
 10
-12.2297346064
 20
-8.8333479586
  0
LWPOLYLINE
  5
3B7
100
AcDbEntity
  8
RACCORDO
100
AcDbPolyline
 62
7
  6
CONTINUOUS
 90
76
 70
0
 10
19.6941446862
 20
16.5662680976
 10
19.7561581145
 20
16.6178863032
 10
19.8164680075
 20
16.6685169438
 10
19.8750743652
 20
16.7181600192
 10
19.9319379542
 20
16.7667845782
 10
19.987098008
 20
16.8144215721
 10
20.0406722264
 20
16.861163855
 10
20.0926674501
 20
16.9070143706
 10
20.1430768384
 20
16.9519701751
 10
20.1919975689
 20
16.996115291
 10
20.2394345055
 20
17.0394502496
 10
20.2853827843
 20
17.0819745197
 10
20.329924992
 20
17.1237705304
 10
20.3730668813
 20
17.1648383278
 10
20.4148026995
 20
17.2051778658
 10
20.4551977752
 20
17.244871436
 10
20.4942595962
 20
17.2839185594
 10
20.5319806747
 20
17.322319715
 10
20.5684038756
 20
17.3601586312
 10
20.6035399005
 20
17.3974342249
 10
20.6373780478
 20
17.4341475792
 10
20.6699290781
 20
17.4703856712
 10
20.7012111564
 20
17.5061487014
 10
20.7312061178
 20
17.5414364694
 10
20.7598702278
 20
17.5763353511
 10
20.7872342385
 20
17.610847932
 10
20.8132673978
 20
17.6449716267
 10
20.837833715
 20
17.6787850543
 10
20.8610021678
 20
17.7123334199
 10
20.8827037785
 20
17.7455715186
 10
20.902595623
 20
17.7784423549
 10
20.9207538468
 20
17.8110629954
 10
20.9371023044
 20
17.8433163736
 10
20.9510696361
 20
17.8747942952
 10
20.9626090826
 20
17.9055101528
 10
20.9717674031
 20
17.9354505539
 10
20.9781135151
 20
17.9641671264
 10
20.9815381707
 20
17.9916195028
 10
20.9821506179
 20
18.0178480506
 10
20.9798475183
 20
18.0425255011
 10
20.9744633919
 20
18.0656141193
 10
20.9661637186
 20
18.0871516402
 10
20.9553416
 20
18.1069239996
 10
20.9419208233
 20
18.1248022057
 10
20.9259776011
 20
18.1409152503
 10
20.9081336729
 20
18.1554360449
 10
20.8884691998
 20
18.1683141062
 10
20.8669040205
 20
18.1795999174
 10
20.8438193909
 20
18.1896178398
 10
20.8192896127
 20
18.1983963003
 10
20.7932403842
 20
18.205906872
 10
20.7658300555
 20
18.2123886357
 10
20.7370939504
 20
18.2178732084
 10
20.7069967452
 20
18.2223289731
 10
20.6755908186
 20
18.2259001604
 10
20.6428955516
 20
18.2286071518
 10
20.6088915633
 20
18.2304295657
 10
20.5735730887
 20
18.2314504878
 10
20.5369523475
 20
18.2316830804
 10
20.49901712
 20
18.2311141813
 10
20.4597249824
 20
18.2297873891
 10
20.4190814866
 20
18.2277112918
 10
20.3770810806
 20
18.2248773013
 10
20.3336646849
 20
18.2213032523
 10
20.2888364374
 20
18.2169948634
 10
20.2425922002
 20
18.2119464159
 10
20.1948604805
 20
18.2061585881
 10
20.1456518878
 20
18.1996367941
 10
20.0949558128
 20
18.1923756198
 10
20.0426689338
 20
18.1843595014
 10
19.9887981448
 20
18.175593482
 10
19.9333365519
 20
18.1660725185
 10
19.8761601526
 20
18.1557659171
 10
19.8172276125
 20
18.1446634464
 10
19.7565802659
 20
18.1327753378
 10
19.6942181128
 20
18.1201015913
  0
LWPOLYLINE
  5
3B8
100
AcDbEntity
  8
SUPERFICI
100
AcDbPolyline
 62
7
  6
CONTINUOUS
 90
76
 70
0
 10
19.6941446862
 20
16.5662680976
 10
19.7561581145
 20
16.6178863032
 10
19.8164680075
 20
16.6685169438
 10
19.8750743652
 20
16.7181600192
 10
19.9319379542
 20
16.7667845782
 10
19.987098008
 20
16.8144215721
 10
20.0406722264
 20
16.861163855
 10
20.0926674501
 20
16.9070143706
 10
20.1430768384
 20
16.9519701751
 10
20.1919975689
 20
16.996115291
 10
20.2394345055
 20
17.0394502496
 10
20.2853827843
 20
17.0819745197
 10
20.329924992
 20
17.1237705304
 10
20.3730668813
 20
17.1648383278
 10
20.4148026995
 20
17.2051778658
 10
20.4551977752
 20
17.244871436
 10
20.4942595962
 20
17.2839185594
 10
20.5319806747
 20
17.322319715
 10
20.5684038756
 20
17.3601586312
 10
20.6035399005
 20
17.3974342249
 10
20.6373780478
 20
17.4341475792
 10
20.6699290781
 20
17.4703856712
 10
20.7012111564
 20
17.5061487014
 10
20.7312061178
 20
17.5414364694
 10
20.7598702278
 20
17.5763353511
 10
20.7872342385
 20
17.610847932
 10
20.8132673978
 20
17.6449716267
 10
20.837833715
 20
17.6787850543
 10
20.8610021678
 20
17.7123334199
 10
20.8827037785
 20
17.7455715186
 10
20.902595623
 20
17.7784423549
 10
20.9207538468
 20
17.8110629954
 10
20.9371023044
 20
17.8433163736
 10
20.9510696361
 20
17.8747942952
 10
20.9626090826
 20
17.9055101528
 10
20.9717674031
 20
17.9354505539
 10
20.9781135151
 20
17.9641671264
 10
20.9815381707
 20
17.9916195028
 10
20.9821506179
 20
18.0178480506
 10
20.9798475183
 20
18.0425255011
 10
20.9744633919
 20
18.0656141193
 10
20.9661637186
 20
18.0871516402
 10
20.9553416
 20
18.1069239996
 10
20.9419208233
 20
18.1248022057
 10
20.9259776011
 20
18.1409152503
 10
20.9081336729
 20
18.1554360449
 10
20.8884691998
 20
18.1683141062
 10
20.8669040205
 20
18.1795999174
 10
20.8438193909
 20
18.1896178398
 10
20.8192896127
 20
18.1983963003
 10
20.7932403842
 20
18.205906872
 10
20.7658300555
 20
18.2123886357
 10
20.7370939504
 20
18.2178732084
 10
20.7069967452
 20
18.2223289731
 10
20.6755908186
 20
18.2259001604
 10
20.6428955516
 20
18.2286071518
 10
20.6088915633
 20
18.2304295657
 10
20.5735730887
 20
18.2314504878
 10
20.5369523475
 20
18.2316830804
 10
20.49901712
 20
18.2311141813
 10
20.4597249824
 20
18.2297873891
 10
20.4190814866
 20
18.2277112918
 10
20.3770810806
 20
18.2248773013
 10
20.3336646849
 20
18.2213032523
 10
20.2888364374
 20
18.2169948634
 10
20.2425922002
 20
18.2119464159
 10
20.1948604805
 20
18.2061585881
 10
20.1456518878
 20
18.1996367941
 10
20.0949558128
 20
18.1923756198
 10
20.0426689338
 20
18.1843595014
 10
19.9887981448
 20
18.175593482
 10
19.9333365519
 20
18.1660725185
 10
19.8761601526
 20
18.1557659171
 10
19.8172276125
 20
18.1446634464
 10
19.7565802659
 20
18.1327753378
 10
19.6942181128
 20
18.1201015913
  0
LINE
  5
3B9
100
AcDbEntity
  8
DRAFT
100
AcDbLine
 62
7
  6
CONTINUOUS
 10
1.460832606
 20
-2.4538116964
 11
1.0094875088
 21
-2.2281391478
  0
LINE
  5
3BA
100
AcDbEntity
  8
0
100
AcDbLine
 62
7
  6
CONTINUOUS
 10
2.6218294442
 20
-16.2789609685
 11
1.460832606
 21
-2.4538116964
  0
LINE
  5
3BB
100
AcDbEntity
  8
RACCORDO
100
AcDbLine
 62
7
  6
CONTINUOUS
 10
0.8761367171
 20
-5.4111591103
 11
0.9175328062
 21
-5.9081560832
  0
LWPOLYLINE
  5
3BC
100
AcDbEntity
  8
ASSI
100
AcDbPolyline
 62
250
  6
CONTINUOUS
 90
10
 70
0
 10
1.6641104611
 20
18.6575687277
 10
1.6643813359
 20
18.6525630495
 10
1.6651053063
 20
18.6479746058
 10
1.6662823724
 20
18.6438033968
 10
1.6679407964
 20
18.6400044144
 10
1.6700523159
 20
18.6366226666
 10
1.6725321443
 20
18.6337931769
 10
1.6753520193
 20
18.6315609532
 10
1.678540203
 20
18.6298809875
 10
1.6820966955
 20
18.62875328
  0
LWPOLYLINE
  5
3BD
100
AcDbEntity
  8
ASSI
100
AcDbPolyline
 62
250
  6
CONTINUOUS
 90
10
 70
0
 10
3.8795916609
 20
-21.552808704
 10
3.8793300802
 20
-21.5478076728
 10
3.8786309501
 20
-21.5432316494
 10
3.8774942706
 20
-21.5390806336
 10
3.8758927492
 20
-21.5353101025
 10
3.8738536784
 20
-21.5319645791
 10
3.871458936
 20
-21.5291776324
 10
3.8687358144
 20
-21.5269937853
 10
3.8656570212
 20
-21.5253685149
 10
3.8622225563
 20
-21.5243018212
  0
LWPOLYLINE
  5
3BE
100
AcDbEntity
  8
ASSI
100
AcDbPolyline
 62
7
  6
CONTINUOUS
 90
16
 70
0
 10
-0.6825971227
 20
25.5812689879
 10
-0.6835067873
 20
25.5996616805
 10
-0.686885203
 20
25.6179304268
 10
-0.692738551
 20
25.6360631803
 10
-0.7012154535
 20
25.6543404309
 10
-0.7121922512
 20
25.6724295695
 10
-0.7252687938
 20
25.6893920404
 10
-0.7403677261
 20
25.7049619
 10
-0.7575953311
 20
25.7193221801
 10
-0.7768225075
 20
25.7322082304
 10
-0.7981944972
 20
25.7436148103
 10
-0.8215841765
 20
25.7534311969
 10
-0.8464432983
 20
25.7612476178
 10
-0.8725817271
 20
25.7669014061
 10
-0.900171487
 20
25.7704570181
 10
-0.9291955675
 20
25.771859231
  0
LWPOLYLINE
  5
3BF
100
AcDbEntity
  8
ASSI
100
AcDbPolyline
 62
250
  6
CONTINUOUS
 90
9
 70
0
 10
1.3837574229
 20
18.6588093781
 10
1.384956326
 20
18.6342619257
 10
1.3885385419
 20
18.6112400474
 10
1.3944552721
 20
18.5900547727
 10
1.4026275453
 20
18.5709903458
 10
1.4129438305
 20
18.5543061389
 10
1.4252597707
 20
18.5402310435
 10
1.439405812
 20
18.528953455
 10
1.4489382161
 20
18.5234698375
  0
LINE
  5
3C0
100
AcDbEntity
  8
ASSI
100
AcDbLine
 62
250
  6
CONTINUOUS
 10
2.0123092378
 20
25.8827109199
 11
2.0081307956
 21
26.1779829888
  0
LINE
  5
3C1
100
AcDbEntity
  8
ASSI
100
AcDbLine
 62
7
  6
CONTINUOUS
 10
2.0715151272
 20
25.9090004235
 11
2.066710956
 21
26.2484900017
  0
LINE
  5
3C2
100
AcDbEntity
  8
ASSI
100
AcDbLine
 62
250
  6
CONTINUOUS
 10
0.4482889125
 20
-22.1730778507
 11
0.4482889125
 21
-21.4222448257
  0
LINE
  5
3C3
100
AcDbEntity
  8
ASSI
100
AcDbLine
 62
250
  6
CONTINUOUS
 10
0.4482889125
 20
18.3756932638
 11
0.4482889125
 21
19.1265262887
  0
LINE
  5
3C4
100
AcDbEntity
  8
RACCORDO
100
AcDbLine
 62
7
  6
CONTINUOUS
 10
0.7757708382
 20
-16.3953402091
 11
0.7757708382
 21
-15.3559316654
  0
LINE
  5
3C5
100
AcDbEntity
  8
ASSI
100
AcDbLine
 62
250
  6
CONTINUOUS
 10
0.7987302004
 20
-21.9267885289
 11
0.7987302004
 21
-21.3009555039
  0
LINE
  5
3C6
100
AcDbEntity
  8
ASSI
100
AcDbLine
 62
250
  6
CONTINUOUS
 10
0.7987302004
 20
18.2513456872
 11
0.7987302004
 21
18.8485738429
  0
LINE
  5
3C7
100
AcDbEntity
  8
ASSI
100
AcDbLine
 62
7
  6
CONTINUOUS
 10
1.3414562631
 20
18.5772108115
 11
1.3414562631
 21
18.1362163697
  0
LINE
  5
3C8
100
AcDbEntity
  8
ASSI
100
AcDbLine
 62
7
  6
CONTINUOUS
 10
1.3414562631
 20
-20.6617217199
 11
1.3414562631
 21
-21.2875547448
  0
LINE
  5
3C9
100
AcDbEntity
  8
ASSI
100
AcDbLine
 62
250
  6
CONTINUOUS
 10
1.3837574308
 20
18.9760608299
 11
1.3837574308
 21
18.6588093736
  0
LINE
  5
3CA
100
AcDbEntity
  8
ASSI
100
AcDbLine
 62
250
  6
CONTINUOUS
 10
1.3837574308
 20
-22.9580809102
 11
1.3837574308
 21
-22.6408121098
  0
LINE
  5
3CB
100
AcDbEntity
  8
ASSI
100
AcDbLine
 62
250
  6
CONTINUOUS
 10
1.6641104611
 20
18.974837528
 11
1.6641104611
 21
18.6575687277
  0
LINE
  5
3CC
100
AcDbEntity
  8
ASSI
100
AcDbLine
 62
250
  6
CONTINUOUS
 10
1.6641104611
 20
-22.9593042121
 11
1.6641104611
 21
-22.6420354117
  0
LINE
  5
3CD
100
AcDbEntity
  8
ASSI
100
AcDbLine
 62
250
  6
CONTINUOUS
 10
2.0684632118
 20
18.3848044813
 11
2.0684632118
 21
17.704633193
  0
LINE
  5
3CE
100
AcDbEntity
  8
ASSI
100
AcDbLine
 62
250
  6
CONTINUOUS
 10
2.0684632118
 20
-20.9571454919
 11
2.0684632118
 21
-21.6510582191
  0
LINE
  5
3CF
100
AcDbEntity
  8
ASSI
100
AcDbLine
 62
250
  6
CONTINUOUS
 10
2.4189044997
 20
18.472453103
 11
2.4189044997
 21
17.7142526569
  0
LINE
  5
3D0
100
AcDbEntity
  8
ASSI
100
AcDbLine
 62
250
  6
CONTINUOUS
 10
2.4189044997
 20
-21.0907419595
 11
2.4189044997
 21
-21.7280236567
  0
LINE
  5
3D1
100
AcDbEntity
  8
0
100
AcDbLine
 62
7
  6
CONTINUOUS
 10
2.6218294442
 20
-20.8008157026
 11
2.6218294442
 21
-16.2789609685
  0
LINE
  5
3D2
100
AcDbEntity
  8
0
100
AcDbLine
 62
7
  6
CONTINUOUS
 10
2.6218294442
 20
12.4730824372
 11
2.6218294442
 21
16.9949371713
  0
LINE
  5
3D3
100
AcDbEntity
  8
ASSI
100
AcDbLine
 62
250
  6
CONTINUOUS
 10
2.8831772502
 20
23.490098736
 11
2.8793001084
 21
23.1156010339
  0
LINE
  5
3D4
100
AcDbEntity
  8
ASSI
100
AcDbLine
 62
250
  6
CONTINUOUS
 10
2.8770266547
 20
22.8960054473
 11
2.8710104866
 21
22.3148966615
  0
LWPOLYLINE
  5
3D5
100
AcDbEntity
  8
ASSI
100
AcDbPolyline
 62
250
  6
CONTINUOUS
 90
19
 70
0
 10
1.6641104611
 20
-22.6420354117
 10
1.6641430443
 20
-22.6398550709
 10
1.6642837899
 20
-22.6375822819
 10
1.6645326978
 20
-22.6352170445
 10
1.6648851148
 20
-22.6327478406
 10
1.6653456942
 20
-22.6301861885
 10
1.6659283958
 20
-22.6275666429
 10
1.6666372472
 20
-22.6248860679
 10
1.6674682208
 20
-22.6221475996
 10
1.6684231934
 20
-22.6193952005
 10
1.6695065019
 20
-22.6166274089
 10
1.6707138095
 20
-22.6138456865
 10
1.6720339825
 20
-22.6110983815
 10
1.673470948
 20
-22.6083861714
 10
1.6750207791
 20
-22.6057083786
 10
1.6766605609
 20
-22.6031113195
 10
1.678382655
 20
-22.6006104325
 10
1.6801946999
 20
-22.5981902792
 10
1.6820966955
 20
-22.5958508594
  0
LWPOLYLINE
  5
3D6
100
AcDbEntity
  8
ASSI
100
AcDbPolyline
 62
250
  6
CONTINUOUS
 90
19
 70
0
 10
1.3837574308
 20
-22.6408121098
 10
1.3839764433
 20
-22.629943124
 10
1.3846583356
 20
-22.6185704572
 10
1.385839024
 20
-22.6067084881
 10
1.3875577949
 20
-22.5943507908
 10
1.3898470203
 20
-22.5815478764
 10
1.3927210308
 20
-22.5684097686
 10
1.3962012078
 20
-22.5549739354
 10
1.4003062227
 20
-22.5412836101
 10
1.4050233886
 20
-22.5274665172
 10
1.4103563542
 20
-22.513573505
 10
1.4163055262
 20
-22.4996588312
 10
1.4228298223
 20
-22.4858570434
 10
1.4299143447
 20
-22.4722242325
 10
1.437541715
 20
-22.4588164504
 10
1.445645729
 20
-22.4457612542
 10
1.4541801092
 20
-22.4331318749
 10
1.4631274746
 20
-22.4209530928
 10
1.4724543433
 20
-22.4092722184
  0
LWPOLYLINE
  5
3D7
100
AcDbEntity
  8
ASSI
100
AcDbPolyline
 62
7
  6
CONTINUOUS
 90
9
 70
0
 10
2.9819659024
 20
22.4476681711
 10
2.9818289865
 20
22.442480969
 10
2.9784467807
 20
22.4220655791
 10
2.9702424489
 20
22.4018183538
 10
2.9575907953
 20
22.3818070002
 10
2.9412645039
 20
22.3630111872
 10
2.921521136
 20
22.3457574713
 10
2.8981031302
 20
22.3297192961
 10
2.8710104866
 20
22.3148966615
  0
LINE
  5
3D8
100
AcDbEntity
  8
RACCORDO
100
AcDbLine
 62
7
  6
CONTINUOUS
 10
0.188430067
 20
-21.8263897059
 11
1.7871498814
 21
16.33429175
  0
LWPOLYLINE
  5
3D9
100
AcDbEntity
  8
ASSI
100
AcDbPolyline
 62
250
  6
CONTINUOUS
 90
9
 70
0
 10
2.9892629372
 20
23.6183400647
 10
2.9889794419
 20
23.6116278671
 10
2.9854069608
 20
23.5922302002
 10
2.9777822085
 20
23.5731828983
 10
2.9661882522
 20
23.5546917057
 10
2.9507467159
 20
23.5369498176
 10
2.9316207104
 20
23.5201484683
 10
2.9090165355
 20
23.5044742423
 10
2.8831772502
 20
23.490098736
  0
LINE
  5
3DA
100
AcDbEntity
  8
ASSI
100
AcDbLine
 62
250
  6
CONTINUOUS
 10
3.3749886234
 20
23.1044898004
 11
3.3845527835
 21
23.3281530388
  0
LINE
  5
3DB
100
AcDbEntity
  8
ASSI
100
AcDbLine
 62
7
  6
CONTINUOUS
 10
3.6629363173
 20
23.4264396977
 11
3.6619477241
 21
23.4089965645
  0
LINE
  5
3DC
100
AcDbEntity
  8
0
100
AcDbLine
 62
7
  6
CONTINUOUS
 10
1.460832606
 20
-2.4538116964
 11
2.6218294442
 21
12.4730824372
  0
LWPOLYLINE
  5
3DD
100
AcDbEntity
  8
RACCORDO
100
AcDbPolyline
 62
250
  6
CONTINUOUS
 90
28
 70
0
 10
19.586485396
 20
16.4372102261
 10
19.602763872
 20
16.4516761149
 10
19.6188164985
 20
16.4638304586
 10
19.634610073
 20
16.4736764473
 10
19.6501411768
 20
16.4812639673
 10
19.6653415961
 20
16.4865484856
 10
19.6800895955
 20
16.489386772
 10
19.6943831531
 20
16.4896048291
 10
19.7081691524
 20
16.4873705161
 10
19.7212798323
 20
16.4830422269
 10
19.7336630475
 20
16.4765450139
 10
19.7453661237
 20
16.4679308879
 10
19.7563912679
 20
16.4577424477
 10
19.7667078504
 20
16.4460380542
 10
19.7763421084
 20
16.4327378603
 10
19.7853645222
 20
16.4181809199
 10
19.7937539396
 20
16.4024148163
 10
19.8014927436
 20
16.3853769755
 10
19.8086212247
 20
16.3672469928
 10
19.815106324
 20
16.3480289488
 10
19.8209024096
 20
16.327705704
 10
19.8259974374
 20
16.3064280546
 10
19.8303374206
 20
16.2841939252
 10
19.833867718
 20
16.2609877405
 10
19.8365451075
 20
16.2369402314
 10
19.8382963308
 20
16.2120673398
 10
19.8390536039
 20
16.1863260128
 10
19.8390792119
 20
16.1812653904
  0
LWPOLYLINE
  5
3DE
100
AcDbEntity
  8
SUPERFICI
100
AcDbPolyline
 62
250
  6
CONTINUOUS
 90
27
 70
0
 10
19.586485396
 20
16.4372102261
 10
19.602763872
 20
16.4516761149
 10
19.6188164985
 20
16.4638304586
 10
19.634610073
 20
16.4736764473
 10
19.6501411768
 20
16.4812639673
 10
19.6653415961
 20
16.4865484856
 10
19.6800895955
 20
16.489386772
 10
19.6943831531
 20
16.4896048291
 10
19.7081691524
 20
16.4873705161
 10
19.7212798323
 20
16.4830422269
 10
19.7336630475
 20
16.4765450139
 10
19.7453661237
 20
16.4679308879
 10
19.7563912679
 20
16.4577424477
 10
19.7667078504
 20
16.4460380542
 10
19.7763421084
 20
16.4327378603
 10
19.7853645222
 20
16.4181809199
 10
19.7937539396
 20
16.4024148163
 10
19.8014927436
 20
16.3853769755
 10
19.8086212247
 20
16.3672469928
 10
19.815106324
 20
16.3480289488
 10
19.8209024096
 20
16.327705704
 10
19.8259974374
 20
16.3064280546
 10
19.8303374206
 20
16.2841939252
 10
19.833867718
 20
16.2609877405
 10
19.8365451075
 20
16.2369402314
 10
19.8382963308
 20
16.2120673398
 10
19.8390536039
 20
16.1863260128
  0
LWPOLYLINE
  5
3DF
100
AcDbEntity
  8
0
100
AcDbPolyline
 62
7
  6
CONTINUOUS
 90
11
 70
0
 10
-12.2297031002
 20
-8.833413405
 10
-12.2796161992
 20
-8.864258937
 10
-12.3212025068
 20
-8.8993053858
 10
-12.3591463064
 20
-8.940800819
 10
-12.3925792593
 20
-8.9877137448
 10
-12.4213767312
 20
-9.0402310945
 10
-12.4456698015
 20
-9.0981686616
 10
-12.4649753242
 20
-9.1599389916
 10
-12.4791340147
 20
-9.2250136987
 10
-12.4883091282
 20
-9.2939228614
 10
-12.4925012034
 20
-9.3666666924
  0
LWPOLYLINE
  5
3E0
100
AcDbEntity
  8
ASSI
100
AcDbPolyline
 62
250
  6
CONTINUOUS
 90
13
 70
0
 10
1.6994551238
 20
19.0351981752
 10
1.6979393915
 20
19.0582551107
 10
1.6940733518
 20
19.0821480265
 10
1.6879231257
 20
19.1064682683
 10
1.6795939025
 20
19.1307998716
 10
1.6692281401
 20
19.1547266784
 10
1.6570031275
 20
19.1778394551
 10
1.6431279538
 20
19.1997428894
 10
1.6278399344
 20
19.2200623489
 10
1.611400551
 20
19.238450292
 10
1.5940909775
 20
19.2545922147
 10
1.5762072703
 20
19.2682120293
 10
1.5580553067
 20
19.2790767845
  0
LWPOLYLINE
  5
3E1
100
AcDbEntity
  8
ASSI
100
AcDbPolyline
 62
250
  6
CONTINUOUS
 90
13
 70
0
 10
1.4424453707
 20
26.5977276514
 10
1.4412624641
 20
26.6209637025
 10
1.4377333435
 20
26.6449433738
 10
1.4319170607
 20
26.6692654196
 10
1.4239109382
 20
26.6935228651
 10
1.4138489402
 20
26.7173098168
 10
1.4018994318
 20
26.7402282536
 10
1.3882623608
 20
26.7618946873
 10
1.373165913
 20
26.7819465787
 10
1.3568626937
 20
26.8000484048
 10
1.3396255005
 20
26.8158972723
 10
1.321742759
 20
26.8292279861
 10
1.3035136966
 20
26.8398174867
  0
LWPOLYLINE
  5
3E2
100
AcDbEntity
  8
ASSI
100
AcDbPolyline
 62
7
  6
CONTINUOUS
 90
12
 70
0
 10
2.0666999399
 20
26.2484890302
 10
2.0632297946
 20
26.3195055856
 10
2.0535929912
 20
26.3960515412
 10
2.0380551471
 20
26.4685099184
 10
2.0168639529
 20
26.5365127783
 10
1.9902031183
 20
26.5998822176
 10
1.9581572653
 20
26.6585269465
 10
1.9209240799
 20
26.7121198415
 10
1.8787842564
 20
26.76022537
 10
1.8320372784
 20
26.8024586252
 10
1.7810952123
 20
26.8384593418
 10
1.7406743575
 20
26.8610357847
  0
LWPOLYLINE
  5
3E3
100
AcDbEntity
  8
ASSI
100
AcDbPolyline
 62
250
  6
CONTINUOUS
 90
22
 70
0
 10
2.0081307956
 20
26.1779829888
 10
2.0058287764
 20
26.228931031
 10
2.0005201255
 20
26.2776289435
 10
1.992204843
 20
26.3240767263
 10
1.9808057077
 20
26.3685331439
 10
1.9663999407
 20
26.4107394317
 10
1.9492192056
 20
26.4499192967
 10
1.9292156053
 20
26.4859974663
 10
1.9064370369
 20
26.5190492131
 10
1.8812588552
 20
26.5485240611
 10
1.853640692
 20
26.5743592514
 10
1.8236229154
 20
26.5966175429
 10
1.7917019848
 20
26.6149367374
 10
1.7578486008
 20
26.6292496374
 10
1.7220920628
 20
26.6396234403
 10
1.685016728
 20
26.6458975404
 10
1.6465800984
 20
26.6479961625
 10
1.6068246721
 20
26.6459950817
 10
1.566462301
 20
26.6399610182
 10
1.525730269
 20
26.629916212
 10
1.4843912922
 20
26.615838423
 10
1.4424453707
 20
26.5977276514
  0
LWPOLYLINE
  5
3E4
100
AcDbEntity
  8
ASSI
100
AcDbPolyline
 62
7
  6
CONTINUOUS
 90
12
 70
0
 10
2.9892635199
 20
23.6184625668
 10
2.9880855086
 20
23.6457834427
 10
2.9829629089
 20
23.6792198247
 10
2.9737434039
 20
23.7122155081
 10
2.9604326094
 20
23.7442975589
 10
2.9431811254
 20
23.7748597353
 10
2.9220459861
 20
23.8036188245
 10
2.8970349565
 20
23.830341493
 10
2.8685724969
 20
23.8544358348
 10
2.8372147133
 20
23.8754584223
 10
2.8027242232
 20
23.8935799498
 10
2.7654872881
 20
23.9085533448
  0
LWPOLYLINE
  5
3E5
100
AcDbEntity
  8
ASSI
100
AcDbPolyline
 62
7
  6
CONTINUOUS
 90
16
 70
0
 10
3.7102639801
 20
17.5794597774
 10
3.7083501006
 20
17.6253342524
 10
3.7025359503
 20
17.6727707857
 10
3.6928571777
 20
17.7212797691
 10
3.6793246793
 20
17.770523866
 10
3.6621005386
 20
17.8197932723
 10
3.6416202499
 20
17.8680239085
 10
3.6184015216
 20
17.9143183114
 10
3.5925911632
 20
17.9586190471
 10
3.5641031403
 20
18.0011033909
 10
3.5329160306
 20
18.0416063084
 10
3.4995835188
 20
18.0792327374
 10
3.4648857853
 20
18.1131151765
 10
3.4293745437
 20
18.1428179511
 10
3.3933061654
 20
18.168208331
 10
3.3570739267
 20
18.1890677097
  0
LWPOLYLINE
  5
3E6
100
AcDbEntity
  8
ASSI
100
AcDbPolyline
 62
250
  6
CONTINUOUS
 90
13
 70
0
 10
2.8831772502
 20
23.490098736
 10
2.8820348052
 20
23.5192960722
 10
2.8778360654
 20
23.5494791763
 10
2.8706528444
 20
23.580131807
 10
2.8606080015
 20
23.6107296924
 10
2.8478733404
 20
23.6407494968
 10
2.8326666708
 20
23.6696777725
 10
2.8152480825
 20
23.6970197402
 10
2.7959154968
 20
23.7223077525
 10
2.7749995715
 20
23.7451092921
 10
2.7528580453
 20
23.7650343694
 10
2.729869619
 20
23.7817421929
 10
2.7064274788
 20
23.7949469977
  0
LWPOLYLINE
  5
3E7
100
AcDbEntity
  8
ASSI
100
AcDbPolyline
 62
250
  6
CONTINUOUS
 90
13
 70
0
 10
3.845459717
 20
20.1123613741
 10
3.8445457599
 20
20.135719242
 10
3.8411867672
 20
20.1598657246
 10
3.8354401902
 20
20.1843878288
 10
3.8274043161
 20
20.208866137
 10
3.8172165878
 20
20.2328819809
 10
3.8050512527
 20
20.2560246018
 10
3.7911163824
 20
20.2778981764
 10
3.7756503141
 20
20.2981285866
 10
3.758917574
 20
20.3163698186
 10
3.7412043531
 20
20.3323098807
 10
3.7228136121
 20
20.3456761396
 10
3.7040598999
 20
20.3562399834
  0
LWPOLYLINE
  5
3E8
100
AcDbEntity
  8
ASSI
100
AcDbPolyline
 62
7
  6
CONTINUOUS
 90
11
 70
0
 10
3.9357232556
 20
20.156362755
 10
3.9352530015
 20
20.1716089162
 10
3.9316127504
 20
20.2012761864
 10
3.9243975894
 20
20.2300206161
 10
3.9137188756
 20
20.2573683151
 10
3.8998986126
 20
20.2826747329
 10
3.883186752
 20
20.3057128069
 10
3.863716574
 20
20.3263656866
 10
3.8418963457
 20
20.3442316757
 10
3.8181635849
 20
20.3590291923
 10
3.8125019213
 20
20.3619681039
  0
LWPOLYLINE
  5
3E9
100
AcDbEntity
  8
ASSI
100
AcDbPolyline
 62
7
  6
CONTINUOUS
 90
8
 70
0
 10
3.6982145011
 20
23.4581541967
 10
3.6979681342
 20
23.4713862953
 10
3.696875205
 20
23.4821715568
 10
3.6950536276
 20
23.4904976949
 10
3.6925926376
 20
23.4963417928
 10
3.6896126899
 20
23.4997109793
 10
3.6863082583
 20
23.5006430859
 10
3.6844731736
 20
23.5001366779
  0
LWPOLYLINE
  5
3EA
100
AcDbEntity
  8
ASSI
100
AcDbPolyline
 62
250
  6
CONTINUOUS
 90
28
 70
0
 10
3.8795916609
 20
20.0867390302
 10
3.8795540641
 20
20.0889599867
 10
3.8794106143
 20
20.0911504407
 10
3.8791613115
 20
20.0933103923
 10
3.8788085994
 20
20.095454628
 10
3.8783500343
 20
20.0975683614
 10
3.8777782852
 20
20.0996072325
 10
3.8770894274
 20
20.1015694014
 10
3.8762873856
 20
20.103456708
 10
3.8753766034
 20
20.1052303125
 10
3.8743538118
 20
20.1068862847
 10
3.8732222798
 20
20.1084285548
 10
3.8719962573
 20
20.1098300741
 10
3.8706747533
 20
20.1110862226
 10
3.8692587588
 20
20.1122016203
 10
3.8677654967
 20
20.1131630788
 10
3.8661951419
 20
20.1139679288
 10
3.8645475195
 20
20.1146188396
 10
3.8628393281
 20
20.1151106298
 10
3.8610700176
 20
20.1154419263
 10
3.8592401381
 20
20.1156141022
 10
3.8573680377
 20
20.1156260957
 10
3.8554533798
 20
20.115476469
 10
3.8534965011
 20
20.1151666599
 10
3.8515167597
 20
20.1146999207
 10
3.8495206082
 20
20.1140773354
 10
3.847501594
 20
20.1132978198
 10
3.845459717
 20
20.1123613741
  0
LWPOLYLINE
  5
3EB
100
AcDbEntity
  8
ASSI
100
AcDbPolyline
 62
7
  6
CONTINUOUS
 90
4
 70
0
 10
3.9357241321
 20
-21.4833145802
 10
3.9357056225
 20
-21.480305654
 10
3.934012798
 20
-21.454110073
 10
3.9295633234
 20
-21.4283947206
  0
LINE
  5
3EC
100
AcDbEntity
  8
ASSI
100
AcDbLine
 62
7
  6
CONTINUOUS
 10
3.3213552504
 20
-22.2364856889
 11
3.3213552504
 21
-20.7302962621
  0
LINE
  5
3ED
100
AcDbEntity
  8
ASSI
100
AcDbLine
 62
7
  6
CONTINUOUS
 10
3.3213552504
 20
18.2069270478
 11
3.3213552504
 21
19.852401695
  0
LINE
  5
3EE
100
AcDbEntity
  8
ASSI
100
AcDbLine
 62
7
  6
CONTINUOUS
 10
3.7102639801
 20
17.5794597774
 11
3.7102639801
 21
15.0679863101
  0
LINE
  5
3EF
100
AcDbEntity
  8
ASSI
100
AcDbLine
 62
7
  6
CONTINUOUS
 10
3.7102639801
 20
-20.352452501
 11
3.7102639801
 21
-17.8409790337
  0
LINE
  5
3F0
100
AcDbEntity
  8
ASSI
100
AcDbLine
 62
250
  6
CONTINUOUS
 10
3.8795916609
 20
-21.8927522988
 11
3.8795916609
 21
-21.552808704
  0
LINE
  5
3F1
100
AcDbEntity
  8
ASSI
100
AcDbLine
 62
250
  6
CONTINUOUS
 10
3.8795916609
 20
19.7467954354
 11
3.8795916609
 21
20.0867390302
  0
LINE
  5
3F2
100
AcDbEntity
  8
ASSI
100
AcDbLine
 62
7
  6
CONTINUOUS
 10
3.9357237009
 20
-21.8232864618
 11
3.9357237009
 21
-21.483342798
  0
LINE
  5
3F3
100
AcDbEntity
  8
ASSI
100
AcDbLine
 62
7
  6
CONTINUOUS
 10
3.9357237009
 20
19.8162612724
 11
3.9357234516
 21
20.1563627551
  0
LINE
  5
3F4
100
AcDbEntity
  8
ASSI
100
AcDbLine
 62
7
  6
CONTINUOUS
 10
4.4050281665
 20
-19.977677437
 11
4.4050281665
 21
-17.0526699869
  0
LINE
  5
3F5
100
AcDbEntity
  8
ASSI
100
AcDbLine
 62
7
  6
CONTINUOUS
 10
4.4050281665
 20
14.9991266393
 11
4.4050281665
 21
17.9241340893
  0
LINE
  5
3F6
100
AcDbEntity
  8
ASSI
100
AcDbLine
 62
7
  6
CONTINUOUS
 10
5.0997923529
 20
15.3632796703
 11
5.0997923529
 21
14.7874356861
  0
LINE
  5
3F7
100
AcDbEntity
  8
ASSI
100
AcDbLine
 62
7
  6
CONTINUOUS
 10
5.0997923529
 20
-16.2241998067
 11
5.0997923529
 21
-16.697373642
  0
LINE
  5
3F8
100
AcDbEntity
  8
ASSI
100
AcDbLine
 62
7
  6
CONTINUOUS
 10
5.1615100279
 20
14.7565768486
 11
5.1615100279
 21
-16.1523884952
  0
LINE
  5
3F9
100
AcDbEntity
  8
ASSI
100
AcDbLine
 62
7
  6
CONTINUOUS
 10
2.9820885693
 20
22.4476668569
 11
2.9892635276
 21
23.6184462789
  0
LINE
  5
3FA
100
AcDbEntity
  8
ASSI
100
AcDbLine
 62
7
  6
CONTINUOUS
 10
3.6982145011
 20
23.4581541967
 11
3.6979940961
 21
23.4514944328
  0
LINE
  5
3FB
100
AcDbEntity
  8
ASSI
100
AcDbLine
 62
7
  6
CONTINUOUS
 10
3.9348670847
 20
19.7953151379
 11
3.93571977
 21
19.8163011106
  0
LWPOLYLINE
  5
3FC
100
AcDbEntity
  8
ASSI
100
AcDbPolyline
 62
250
  6
CONTINUOUS
 90
8
 70
0
 10
3.845459717
 20
-21.9537193054
 10
3.8445457637
 20
-21.9755613981
 10
3.8411867823
 20
-21.9958418034
 10
3.8354402213
 20
-22.0142136516
 10
3.8274043657
 20
-22.0303627154
 10
3.8172166555
 20
-22.0440127859
 10
3.8050513345
 20
-22.0549303959
 10
3.796556525
 20
-22.0602696403
  0
LWPOLYLINE
  5
3FD
100
AcDbEntity
  8
ASSI
100
AcDbPolyline
 62
7
  6
CONTINUOUS
 90
10
 70
0
 10
3.7102639801
 20
-20.3525186546
 10
3.7083050701
 20
-20.3965138971
 10
3.7024931497
 20
-20.4383103416
 10
3.692836115
 20
-20.4774241661
 10
3.679303393
 20
-20.5135334423
 10
3.6620466446
 20
-20.5460281737
 10
3.641535655
 20
-20.5741631097
 10
3.6182928456
 20
-20.597529113
 10
3.5924584936
 20
-20.6162336019
 10
3.5844887901
 20
-20.6207920809
  0
LINE
  5
3FE
100
AcDbEntity
  8
ASSI
100
AcDbLine
 62
7
  6
CONTINUOUS
 10
3.9345976978
 20
-21.8472956412
 11
3.9357236361
 21
-21.8232558068
  0
LWPOLYLINE
  5
3FF
100
AcDbEntity
  8
DRAFT
100
AcDbPolyline
 62
7
  6
CONTINUOUS
 90
27
 70
0
 10
-12.2297346064
 20
-8.8333479586
 10
-12.1846802177
 20
-8.8135422979
 10
-12.1334802938
 20
-8.7987544429
 10
-12.0794825538
 20
-8.7909604909
 10
-12.0228655108
 20
-8.7900350983
 10
-11.9650844698
 20
-8.7960138228
 10
-11.9062243704
 20
-8.8090460622
 10
-11.8461970201
 20
-8.8289810108
 10
-11.7862028448
 20
-8.8554060229
 10
-11.7262016932
 20
-8.8884484211
 10
-11.666233384
 20
-8.9279807054
 10
-11.6076229981
 20
-8.9732100513
 10
-11.5503449348
 20
-9.0243404189
 10
-11.4944280727
 20
-9.0811692208
 10
-11.4412842355
 20
-9.1422960195
 10
-11.3910597097
 20
-9.2077280748
 10
-11.343614991
 20
-9.2774610314
 10
-11.2999372324
 20
-9.3500788096
 10
-11.2600470715
 20
-9.4257964489
 10
-11.2239309891
 20
-9.5044019683
 10
-11.1925276933
 20
-9.5838400122
 10
-11.1660173831
 20
-9.663996557
 10
-11.1442265011
 20
-9.7449885039
 10
-11.1275647743
 20
-9.8251076496
 10
-11.1161703836
 20
-9.9037853001
 10
-11.1099088166
 20
-9.981591744
 10
-11.1087804607
 20
-10.0585271341
  0
LWPOLYLINE
  5
400
100
AcDbEntity
  8
0
100
AcDbPolyline
 62
7
  6
CONTINUOUS
 90
3
 70
0
 10
-12.1338396404
 20
-8.7988319117
 10
-12.185345585
 20
-8.8138543168
 10
-12.2297031002
 20
-8.833413405
  0
LINE
  5
401
100
AcDbEntity
  8
DRAFT
100
AcDbLine
 62
7
  6
CONTINUOUS
 10
5.118410657
 20
14.778126534
 11
5.1122670839
 21
14.8575664358
  0
LINE
  5
402
100
AcDbEntity
  8
SUPERFICI
100
AcDbLine
 62
7
  6
CONTINUOUS
 10
5.118410657
 20
14.778126534
 11
5.1122670839
 21
14.8575664358
  0
LINE
  5
403
100
AcDbEntity
  8
DRAFT
100
AcDbLine
 62
7
  6
CONTINUOUS
 10
5.0997923529
 20
-16.2904891959
 11
5.1113033797
 21
-16.2108062055
  0
LINE
  5
404
100
AcDbEntity
  8
SUPERFICI
100
AcDbLine
 62
7
  6
CONTINUOUS
 10
5.0997923529
 20
-16.2904891959
 11
5.1113033797
 21
-16.2108062055
  0
LINE
  5
405
100
AcDbEntity
  8
RACCORDO
100
AcDbLine
 62
250
  6
CONTINUOUS
 10
0.9175328062
 20
-5.9081560832
 11
0.854116238
 21
-5.9367774716
  0
LWPOLYLINE
  5
406
100
AcDbEntity
  8
0
100
AcDbPolyline
 62
7
  6
CONTINUOUS
 90
6
 70
0
 10
-2.9045210332
 20
19.1308955151
 10
-2.9066968528
 20
19.1355917343
 10
-2.915090791
 20
19.1469506863
 10
-2.9263034597
 20
19.1576352409
 10
-2.9404203542
 20
19.1678299285
 10
-2.9574414744
 20
19.177534749
  0
LINE
  5
407
100
AcDbEntity
  8
DRAFT
100
AcDbLine
 62
7
  6
CONTINUOUS
 10
5.1122670839
 20
14.8575664358
 11
5.0997923529
 21
14.9563952242
  0
LINE
  5
408
100
AcDbEntity
  8
SUPERFICI
100
AcDbLine
 62
7
  6
CONTINUOUS
 10
5.1122670839
 20
14.8575664358
 11
5.0997923529
 21
14.9563952242
  0
LINE
  5
409
100
AcDbEntity
  8
ASSI
100
AcDbLine
 62
7
  6
CONTINUOUS
 10
9.9968245516
 20
22.1310125578
 11
9.9968245516
 21
22.3220346216
  0
LWPOLYLINE
  5
40A
100
AcDbEntity
  8
ASSI
100
AcDbPolyline
 62
7
  6
CONTINUOUS
 90
4
 70
0
 10
3.3105934941
 20
-22.2973789866
 10
3.3165424035
 20
-22.2788981305
 10
3.3201516336
 20
-22.2584832629
 10
3.3213552504
 20
-22.2364856889
  0
LWPOLYLINE
  5
40B
100
AcDbEntity
  8
RACCORDO
100
AcDbPolyline
 62
7
  6
CONTINUOUS
 90
7
 70
0
 10
19.586485396
 20
16.4372102261
 10
19.6014835115
 20
16.4614943464
 10
19.6176596669
 20
16.4846686767
 10
19.635013862
 20
16.506733217
 10
19.6535460969
 20
16.5276879672
 10
19.6732563717
 20
16.5475329274
 10
19.6941446862
 20
16.5662680976
  0
LWPOLYLINE
  5
40C
100
AcDbEntity
  8
SUPERFICI
100
AcDbPolyline
 62
7
  6
CONTINUOUS
 90
7
 70
0
 10
19.586485396
 20
16.4372102261
 10
19.6014835115
 20
16.4614943464
 10
19.6176596669
 20
16.4846686767
 10
19.635013862
 20
16.506733217
 10
19.6535460969
 20
16.5276879672
 10
19.6732563717
 20
16.5475329274
 10
19.6941446862
 20
16.5662680976
  0
LWPOLYLINE
  5
40D
100
AcDbEntity
  8
0
100
AcDbPolyline
 62
7
  6
CONTINUOUS
 90
14
 70
0
 10
-11.4678215055
 20
-13.235432214
 10
-11.4324728735
 20
-13.2209023678
 10
-11.397728013
 20
-13.2021760229
 10
-11.3650733901
 20
-13.1800331107
 10
-11.3344663397
 20
-13.1544911657
 10
-11.3059523615
 20
-13.1255338631
 10
-11.2797547068
 20
-13.0934037948
 10
-11.255849392
 20
-13.0580153051
 10
-11.2342627148
 20
-13.0194550336
 10
-11.2152937692
 20
-12.9782242124
 10
-11.1989736949
 20
-12.9342599103
 10
-11.1852732618
 20
-12.8876258769
 10
-11.1744014596
 20
-12.8390135825
 10
-11.1664285216
 20
-12.7886537711
  0
LWPOLYLINE
  5
40E
100
AcDbEntity
  8
RACCORDO
100
AcDbPolyline
 62
250
  6
CONTINUOUS
 90
9
 70
0
 10
-17.4692865151
 20
21.4314882312
 10
-17.4998184462
 20
21.4502673647
 10
-17.5264209822
 20
21.470052447
 10
-17.5488363656
 20
21.4906517765
 10
-17.5668474092
 20
21.511865762
 10
-17.5802796002
 20
21.5334888567
 10
-17.5890027913
 20
21.55531155
 10
-17.5929324618
 20
21.5771223974
 10
-17.5929165649
 20
21.590918784
  0
LINE
  5
40F
100
AcDbEntity
  8
0
100
AcDbLine
 62
7
  6
CONTINUOUS
 10
9.5162560324
 20
23.0848996434
 11
9.5189660289
 21
23.0368903191
  0
LINE
  5
410
100
AcDbEntity
  8
SUPERFICI
100
AcDbLine
 62
7
  6
CONTINUOUS
 10
9.5162560324
 20
23.0848996434
 11
9.5189660289
 21
23.0368903191
  0
LINE
  5
411
100
AcDbEntity
  8
0
100
AcDbLine
 62
250
  6
CONTINUOUS
 10
10.3048172973
 20
24.0486498818
 11
10.3048172973
 21
23.7273255996
  0
LINE
  5
412
100
AcDbEntity
  8
SUPERFICI
100
AcDbLine
 62
250
  6
CONTINUOUS
 10
10.3048172973
 20
24.0486498818
 11
10.3048172973
 21
23.7273255996
  0
LINE
  5
413
100
AcDbEntity
  8
DRAFT
100
AcDbLine
 62
7
  6
CONTINUOUS
 10
10.9875274952
 20
23.6269549008
 11
10.9875274952
 21
24.0599676027
  0
LINE
  5
414
100
AcDbEntity
  8
SUPERFICI
100
AcDbLine
 62
7
  6
CONTINUOUS
 10
10.9875274952
 20
23.6269549008
 11
10.9875274952
 21
24.0599676027
  0
LINE
  5
415
100
AcDbEntity
  8
0
100
AcDbLine
 62
7
  6
CONTINUOUS
 10
11.6014378171
 20
22.6140480943
 11
11.6014378171
 21
22.3524017805
  0
LINE
  5
416
100
AcDbEntity
  8
0
100
AcDbLine
 62
7
  6
CONTINUOUS
 10
12.0511824784
 20
22.4923002611
 11
12.0511824784
 21
22.3200955316
  0
LINE
  5
417
100
AcDbEntity
  8
RACCORDO
100
AcDbLine
 62
250
  6
CONTINUOUS
 10
12.3723243885
 20
23.3384216049
 11
12.3723243885
 21
23.9786715795
  0
LINE
  5
418
100
AcDbEntity
  8
SUPERFICI
100
AcDbLine
 62
250
  6
CONTINUOUS
 10
12.3723243885
 20
23.3384216049
 11
12.3723243885
 21
23.9786715795
  0
LINE
  5
419
100
AcDbEntity
  8
RACCORDO
100
AcDbLine
 62
250
  6
CONTINUOUS
 10
12.5133373099
 20
23.3293244085
 11
12.5133373099
 21
23.9896674766
  0
LINE
  5
41A
100
AcDbEntity
  8
SUPERFICI
100
AcDbLine
 62
250
  6
CONTINUOUS
 10
12.5133373099
 20
23.3293244085
 11
12.5133373099
 21
23.9896674766
  0
LWPOLYLINE
  5
41B
100
AcDbEntity
  8
ASSI
100
AcDbPolyline
 62
250
  6
CONTINUOUS
 90
7
 70
0
 10
3.8622225563
 20
-21.5243018212
 10
3.8700213597
 20
-21.4995744189
 10
3.8752538151
 20
-21.474089999
 10
3.8778313842
 20
-21.4482797827
 10
3.8777104521
 20
-21.4225805037
 10
3.8748930652
 20
-21.3974270186
 10
3.8694268961
 20
-21.3732449487
  0
LWPOLYLINE
  5
41C
100
AcDbEntity
  8
RACCORDO
100
AcDbPolyline
 62
250
  6
CONTINUOUS
 90
16
 70
0
 10
-2.7691032196
 20
14.0814049112
 10
-2.7305065674
 20
14.0656195839
 10
-2.6891127672
 20
14.0514062426
 10
-2.6453228838
 20
14.0389026004
 10
-2.5995611976
 20
14.0282298053
 10
-2.552271094
 20
14.0194912658
 10
-2.5039107669
 20
14.0127716495
 10
-2.45494878
 20
14.0081360628
 10
-2.405859526
 20
14.0056294199
 10
-2.3571186313
 20
14.0052760077
 10
-2.3091983464
 20
14.0070792504
 10
-2.2625629714
 20
14.0110216763
 10
-2.2176643566
 20
14.0170650874
 10
-2.174937525
 20
14.0251509288
 10
-2.1347964572
 20
14.0352008569
 10
-2.09763008
 20
14.0471174979
  0
LWPOLYLINE
  5
41D
100
AcDbEntity
  8
RACCORDO
100
AcDbPolyline
 62
250
  6
CONTINUOUS
 90
3
 70
0
 10
-2.7691120128
 20
14.0814009583
 10
-3.2763404756
 20
14.3061198457
 10
-3.7813931555
 20
14.531697186
  0
LWPOLYLINE
  5
41E
100
AcDbEntity
  8
RACCORDO
100
AcDbPolyline
 62
250
  6
CONTINUOUS
 90
3
 70
0
 10
-3.7813931555
 20
14.531697186
 10
-4.2842635723
 20
14.7581276955
 10
-4.7848263902
 20
14.9853520049
  0
LINE
  5
41F
100
AcDbEntity
  8
RACCORDO
100
AcDbLine
 62
250
  6
CONTINUOUS
 10
-4.7848263902
 20
14.9853520049
 11
-5.2923849818
 21
15.2176582429
  0
LWPOLYLINE
  5
420
100
AcDbEntity
  8
RACCORDO
100
AcDbPolyline
 62
250
  6
CONTINUOUS
 90
26
 70
0
 10
-5.2923849818
 20
15.2176582429
 10
-5.7797168604
 20
15.4424855189
 10
-6.2745513411
 20
15.6726289487
 10
-6.7675169209
 20
15.9037668188
 10
-7.2584476371
 20
16.1358217356
 10
-7.7472883087
 20
16.3687670646
 10
-8.2340774747
 20
16.602620726
 10
-8.7187918555
 20
16.8373711828
 10
-9.201494337
 20
17.073048969
 10
-9.6821047531
 20
17.3096151351
 10
-10.1603883723
 20
17.5469525388
 10
-10.6360450014
 20
17.7849074603
 10
-11.109366931
 20
18.0236211684
 10
-11.5810025237
 20
18.2634214323
 10
-12.0500412334
 20
18.5038447897
 10
-12.5173743524
 20
18.7453472088
 10
-12.9862989883
 20
18.9896582859
 10
-13.4559625862
 20
19.2363771514
 10
-13.9271049843
 20
19.485935275
 10
-14.4052847405
 20
19.7413625891
 10
-14.8905196197
 20
20.0027982073
 10
-15.3824955338
 20
20.2702044115
 10
-15.8861080512
 20
20.5464108393
 10
-16.4027907861
 20
20.832431102
 10
-16.930602807
 20
21.1274279625
 10
-17.4692865183
 20
21.4314882087
  0
LINE
  5
421
100
AcDbEntity
  8
DRAFT
100
AcDbLine
 62
7
  6
CONTINUOUS
 10
2.6218294442
 20
12.4730824372
 11
1.6458311798
 21
12.9610815694
  0
LWPOLYLINE
  5
422
100
AcDbEntity
  8
RACCORDO
100
AcDbPolyline
 62
250
  6
CONTINUOUS
 90
16
 70
0
 10
-1.9122007853
 20
15.461319
 10
-1.8762900823
 20
15.4400084528
 10
-1.8408737927
 20
15.4141421104
 10
-1.8063396066
 20
15.3840031228
 10
-1.7730655581
 20
15.3499214114
 10
-1.7414158868
 20
15.3122700571
 10
-1.7117370508
 20
15.2714612166
 10
-1.684353934
 20
15.2279416106
 10
-1.6595662904
 20
15.1821876333
 10
-1.6376454616
 20
15.1347001382
 10
-1.6188314078
 20
15.0859989547
 10
-1.6033300799
 20
15.0366171981
 10
-1.5913111656
 20
14.9870954338
 10
-1.5829062321
 20
14.9379757598
 10
-1.5782072852
 20
14.8897958725
 10
-1.5772657627
 20
14.8430831809
  0
LWPOLYLINE
  5
423
100
AcDbEntity
  8
ASSI
100
AcDbPolyline
 62
7
  6
CONTINUOUS
 90
4
 70
0
 10
-13.2582823075
 20
25.8891247207
 10
-13.2401837435
 20
25.8731399932
 10
-13.2204749603
 20
25.8592678379
 10
-13.202243864
 20
25.849061909
  0
LINE
  5
424
100
AcDbEntity
  8
ASSI
100
AcDbLine
 62
7
  6
CONTINUOUS
 10
4.4050281665
 20
16.5615706377
 11
5.0997923529
 21
15.3632796703
  0
LINE
  5
425
100
AcDbEntity
  8
DRAFT
100
AcDbLine
 62
7
  6
CONTINUOUS
 10
4.4050281665
 20
16.5829470108
 11
4.7102639801
 21
16.0564931068
  0
LINE
  5
426
100
AcDbEntity
  8
SUPERFICI
100
AcDbLine
 62
7
  6
CONTINUOUS
 10
4.4050281665
 20
16.5829470108
 11
4.7102639801
 21
16.0564931068
  0
LWPOLYLINE
  5
427
100
AcDbEntity
  8
DRAFT
100
AcDbPolyline
 62
7
  6
CONTINUOUS
 90
4
 70
0
 10
4.8330537695
 20
15.8233356741
 10
4.8325843271
 20
15.824372581
 10
4.7739407401
 20
15.941217745
 10
4.7102639801
 20
16.0564931068
  0
LWPOLYLINE
  5
428
100
AcDbEntity
  8
SUPERFICI
100
AcDbPolyline
 62
7
  6
CONTINUOUS
 90
4
 70
0
 10
4.8330537695
 20
15.8233356741
 10
4.8325843271
 20
15.824372581
 10
4.7739407401
 20
15.941217745
 10
4.7102639801
 20
16.0564931068
  0
LINE
  5
429
100
AcDbEntity
  8
0
100
AcDbLine
 62
7
  6
CONTINUOUS
 10
14.3169732757
 20
26.0900496745
 11
14.3169732757
 21
25.6821984072
  0
LINE
  5
42A
100
AcDbEntity
  8
SUPERFICI
100
AcDbLine
 62
7
  6
CONTINUOUS
 10
14.3169732757
 20
26.0900496745
 11
14.3169732757
 21
25.6821984072
  0
LINE
  5
42B
100
AcDbEntity
  8
ASSI
100
AcDbLine
 62
7
  6
CONTINUOUS
 10
0.2516663716
 20
-21.0274235895
 11
0.7757708382
 21
-20.3788790074
  0
LINE
  5
42C
100
AcDbEntity
  8
ASSI
100
AcDbLine
 62
7
  6
CONTINUOUS
 10
0.7987302004
 20
-21.3009555039
 11
1.3414562631
 21
-20.6617217199
  0
LINE
  5
42D
100
AcDbEntity
  8
ASSI
100
AcDbLine
 62
7
  6
CONTINUOUS
 10
1.3414562631
 20
-21.2875547448
 11
0.7987302004
 21
-21.9267885289
  0
LINE
  5
42E
100
AcDbEntity
  8
ASSI
100
AcDbLine
 62
7
  6
CONTINUOUS
 10
5.1615100279
 20
-16.1523884952
 11
3.7102639801
 21
-17.8409790337
  0
LWPOLYLINE
  5
42F
100
AcDbEntity
  8
RACCORDO
100
AcDbPolyline
 62
250
  6
CONTINUOUS
 90
8
 70
0
 10
-16.589981119
 20
22.8002091359
 10
-16.6279262787
 20
22.8158264408
 10
-16.6655573187
 20
22.8264835726
 10
-16.7024622969
 20
22.8320638882
 10
-16.7382372336
 20
22.8325063202
 10
-16.7724904985
 20
22.827806043
 10
-16.804847103
 20
22.818014542
 10
-16.8206367648
 20
22.8110272006
  0
LWPOLYLINE
  5
430
100
AcDbEntity
  8
RACCORDO
100
AcDbPolyline
 62
250
  6
CONTINUOUS
 90
31
 70
0
 10
-1.9122007852
 20
15.461319
 10
-2.4188575098
 20
15.6842931423
 10
-2.9232639108
 20
15.9081828465
 10
-3.4254199885
 20
16.1329881127
 10
-3.925188756
 20
16.3586469723
 10
-4.4227072001
 20
16.5852213939
 10
-4.9183862807
 20
16.812897283
 10
-5.4124399647
 20
17.0417716997
 10
-5.9046542852
 20
17.2717475841
 10
-6.3947983014
 20
17.502719662
 10
-6.8828014186
 20
17.7346561266
 10
-7.3687342315
 20
17.9675887848
 10
-7.8525775829
 20
18.2015077826
 10
-8.3344086563
 20
18.436452534
 10
-8.8141502682
 20
18.6723836251
 10
-9.291551711
 20
18.9091729601
 10
-9.7663292449
 20
19.1466760545
 10
-10.2387666096
 20
19.3850373928
 10
-10.7094643165
 20
19.6245623325
 10
-11.1775199335
 20
19.864754075
 10
-11.6438358927
 20
20.1061094189
 10
-12.1117200021
 20
20.3504241181
 10
-12.580458441
 20
20.5972377809
 10
-13.0507650301
 20
20.847010799
 10
-13.5280890389
 20
21.102920101
 10
-14.0127771261
 20
21.3650388331
 10
-14.5044826331
 20
21.6332938491
 10
-15.0076148541
 20
21.9106426395
 10
-15.5236435539
 20
22.1980710345
 10
-16.0510989676
 20
22.4945932038
 10
-16.5899810954
 20
22.8002091476
  0
LWPOLYLINE
  5
431
100
AcDbEntity
  8
ASSI
100
AcDbPolyline
 62
7
  6
CONTINUOUS
 90
4
 70
0
 10
-0.6711593396
 20
19.5952645409
 10
-0.65236819
 20
19.5788571997
 10
-0.6318800667
 20
19.5647236634
 10
-0.6157970613
 20
19.5558389862
  0
LWPOLYLINE
  5
432
100
AcDbEntity
  8
ASSI
100
AcDbPolyline
 62
250
  6
CONTINUOUS
 90
7
 70
0
 10
3.8622225563
 20
19.7003023182
 10
3.8700213985
 20
19.6860866604
 10
3.87525387
 20
19.6732869863
 10
3.8778314365
 20
19.6621198777
 10
3.8777104876
 20
19.6527742905
 10
3.8748930744
 20
19.645408359
 10
3.8739100511
 20
19.6440601585
  0
LINE
  5
433
100
AcDbEntity
  8
ASSI
100
AcDbLine
 62
250
  6
CONTINUOUS
 10
1.4724543433
 20
-22.4092722184
 11
2.1052445528
 21
-21.6639590523
  0
LINE
  5
434
100
AcDbEntity
  8
ASSI
100
AcDbLine
 62
250
  6
CONTINUOUS
 10
1.6820966955
 20
-22.5958508594
 11
2.4189044997
 21
-21.7280236567
  0
LWPOLYLINE
  5
435
100
AcDbEntity
  8
DRAFT
100
AcDbPolyline
 62
7
  6
CONTINUOUS
 90
4
 70
0
 10
4.7102639801
 20
-17.0010587056
 10
4.7739407401
 20
-16.9494601039
 10
4.8325843271
 20
-16.8912585268
 10
4.8330537695
 20
-16.8906910624
  0
LWPOLYLINE
  5
436
100
AcDbEntity
  8
SUPERFICI
100
AcDbPolyline
 62
7
  6
CONTINUOUS
 90
4
 70
0
 10
4.7102639801
 20
-17.0010587056
 10
4.7739407401
 20
-16.9494601039
 10
4.8325843271
 20
-16.8912585268
 10
4.8330537695
 20
-16.8906910624
  0
LINE
  5
437
100
AcDbEntity
  8
ASSI
100
AcDbLine
 62
7
  6
CONTINUOUS
 10
4.4050281665
 20
-17.2009004229
 11
5.0997923529
 21
-16.697373642
  0
LINE
  5
438
100
AcDbEntity
  8
DRAFT
100
AcDbLine
 62
7
  6
CONTINUOUS
 10
4.7102639801
 20
-17.0010587056
 11
4.4050281665
 21
-17.2222767961
  0
LINE
  5
439
100
AcDbEntity
  8
SUPERFICI
100
AcDbLine
 62
7
  6
CONTINUOUS
 10
4.7102639801
 20
-17.0010587056
 11
4.4050281665
 21
-17.2222767961
  0
LWPOLYLINE
  5
43A
100
AcDbEntity
  8
DRAFT
100
AcDbPolyline
 62
7
  6
CONTINUOUS
 90
27
 70
0
 10
0.6022070053
 20
-17.4738093009
 10
0.5790500564
 20
-17.4875904272
 10
0.5470639452
 20
-17.51265499
 10
0.5182707853
 20
-17.5433088122
 10
0.4927083897
 20
-17.579269968
 10
0.471235212
 20
-17.6193014486
 10
0.4540550772
 20
-17.6632852463
 10
0.4409641603
 20
-17.7113393687
 10
0.4322094402
 20
-17.7625808289
 10
0.4278732434
 20
-17.817394791
 10
0.4278732434
 20
-17.8753960909
 10
0.4322094402
 20
-17.9345462498
 10
0.4409641603
 20
-17.99454243
 10
0.4540550772
 20
-18.0556874693
 10
0.471235212
 20
-18.1168514019
 10
0.4927083897
 20
-18.1783560601
 10
0.5182707853
 20
-18.2398796116
 10
0.5470639452
 20
-18.2993265937
 10
0.5790500564
 20
-18.3563772677
 10
0.6142669319
 20
-18.4113513724
 10
0.6519695574
 20
-18.4631126613
 10
0.6923430704
 20
-18.5117532258
 10
0.7352023333
 20
-18.5571809745
 10
0.7792469199
 20
-18.5979833871
 10
0.8240433545
 20
-18.6336896233
 10
0.8700251127
 20
-18.6647705234
 10
0.9171921944
 20
-18.6912260872
  0
LWPOLYLINE
  5
43B
100
AcDbEntity
  8
DRAFT
100
AcDbPolyline
 62
7
  6
CONTINUOUS
 90
27
 70
0
 10
1.2218751431
 20
-18.7134532209
 10
1.2553343324
 20
-18.6945194057
 10
1.2873204436
 20
-18.6694548429
 10
1.3161136035
 20
-18.6388010207
 10
1.3416759991
 20
-18.6028398648
 10
1.3631491768
 20
-18.5628083843
 10
1.3803293116
 20
-18.5188245866
 10
1.3934202285
 20
-18.4707704642
 10
1.4021749486
 20
-18.4195290039
 10
1.4065111454
 20
-18.3647150419
 10
1.4065111454
 20
-18.306713742
 10
1.4021749486
 20
-18.2475635831
 10
1.3934202285
 20
-18.1875674028
 10
1.3803293116
 20
-18.1264223635
 10
1.3631491768
 20
-18.0652584309
 10
1.3416759991
 20
-18.0037537728
 10
1.3161136035
 20
-17.9422302213
 10
1.2873204436
 20
-17.8827832392
 10
1.2553343324
 20
-17.8257325652
 10
1.2201174569
 20
-17.7707584605
 10
1.1824148314
 20
-17.7189971716
 10
1.1420413184
 20
-17.6703566071
 10
1.0991820555
 20
-17.6249288583
 10
1.0551374689
 20
-17.5841264458
 10
1.0103410343
 20
-17.5484202096
 10
0.9643592761
 20
-17.5173393095
 10
0.9171921944
 20
-17.4908837457
  0
LWPOLYLINE
  5
43C
100
AcDbEntity
  8
DRAFT
100
AcDbPolyline
 62
7
  6
CONTINUOUS
 90
27
 70
0
 10
1.5077874898
 20
-18.5783023854
 10
1.5415835913
 20
-18.5591779233
 10
1.5738919285
 20
-18.5338609397
 10
1.6029750804
 20
-18.5028985468
 10
1.6287948944
 20
-18.4665754265
 10
1.6504843606
 20
-18.4261408659
 10
1.6678376672
 20
-18.3817140267
 10
1.681060626
 20
-18.3331757472
 10
1.6899036623
 20
-18.2814178293
 10
1.6942835847
 20
-18.2260510887
 10
1.6942835847
 20
-18.1674647096
 10
1.6899036623
 20
-18.1077180466
 10
1.681060626
 20
-18.0471170923
 10
1.6678376672
 20
-17.985355854
 10
1.6504843606
 20
-17.9235757082
 10
1.6287948944
 20
-17.8614516814
 10
1.6029750804
 20
-17.7993087471
 10
1.5738919285
 20
-17.7392632023
 10
1.5415835913
 20
-17.6816378816
 10
1.5060119162
 20
-17.6261099503
 10
1.4679294553
 20
-17.5738272014
 10
1.4271492216
 20
-17.5246966528
 10
1.3838582021
 20
-17.4788112866
 10
1.3393699095
 20
-17.4375978421
 10
1.2941221816
 20
-17.4015318989
 10
1.2476771807
 20
-17.3701378774
 10
1.2000349069
 20
-17.3434157776
  0
LINE
  5
43D
100
AcDbEntity
  8
RACCORDO
100
AcDbLine
 62
7
  6
CONTINUOUS
 10
18.8279787012
 20
-9.6323226631
 11
11.235413801
 21
-13.6473960513
  0
LINE
  5
43E
100
AcDbEntity
  8
SUPERFICI
100
AcDbLine
 62
7
  6
CONTINUOUS
 10
18.8279787012
 20
-9.6323226631
 11
11.235413801
 21
-13.6473960513
  0
LINE
  5
43F
100
AcDbEntity
  8
DRAFT
100
AcDbLine
 62
7
  6
CONTINUOUS
 10
0.8818301154
 20
-17.3261837018
 11
0.6021612803
 21
-17.4738235482
  0
LINE
  5
440
100
AcDbEntity
  8
RACCORDO
100
AcDbLine
 62
250
  6
CONTINUOUS
 10
19.2475219122
 20
-9.3282608726
 11
4.7102639801
 21
-17.0010587056
  0
LINE
  5
441
100
AcDbEntity
  8
SUPERFICI
100
AcDbLine
 62
250
  6
CONTINUOUS
 10
19.2475219122
 20
-9.3282608726
 11
4.7102639801
 21
-17.0010587056
  0
LINE
  5
442
100
AcDbEntity
  8
RACCORDO
100
AcDbLine
 62
250
  6
CONTINUOUS
 10
19.586485396
 20
-8.4954968501
 11
5.1615100279
 21
-15.9642464848
  0
LINE
  5
443
100
AcDbEntity
  8
SUPERFICI
100
AcDbLine
 62
250
  6
CONTINUOUS
 10
19.586485396
 20
-8.4954968501
 11
5.1615100279
 21
-15.9642464848
  0
LINE
  5
444
100
AcDbEntity
  8
ASSI
100
AcDbLine
 62
7
  6
CONTINUOUS
 10
5.0997923529
 20
-16.697373642
 11
4.4050281665
 21
-17.0526699869
  0
LINE
  5
445
100
AcDbEntity
  8
RACCORDO
100
AcDbLine
 62
250
  6
CONTINUOUS
 10
0.4091530943
 20
-16.5578360417
 11
0.7757708382
 21
-16.3953402091
  0
LINE
  5
446
100
AcDbEntity
  8
RACCORDO
100
AcDbLine
 62
7
  6
CONTINUOUS
 10
0.3982412945
 20
-16.8182955117
 11
0.6103292979
 21
-16.7242918328
  0
LWPOLYLINE
  5
447
100
AcDbEntity
  8
RACCORDO
100
AcDbPolyline
 62
7
  6
CONTINUOUS
 90
7
 70
0
 10
19.6942181128
 20
18.1201015913
 10
19.6732461667
 20
18.1172118592
 10
19.6534808179
 20
18.1166494415
 10
19.6349220665
 20
18.1184143383
 10
19.6175699123
 20
18.1225065494
 10
19.6014243555
 20
18.128926075
 10
19.586485396
 20
18.1376729149
  0
LWPOLYLINE
  5
448
100
AcDbEntity
  8
SUPERFICI
100
AcDbPolyline
 62
7
  6
CONTINUOUS
 90
7
 70
0
 10
19.6942181128
 20
18.1201015913
 10
19.6732461667
 20
18.1172118592
 10
19.6534808179
 20
18.1166494415
 10
19.6349220665
 20
18.1184143383
 10
19.6175699123
 20
18.1225065494
 10
19.6014243555
 20
18.128926075
 10
19.586485396
 20
18.1376729149
  0
LINE
  5
449
100
AcDbEntity
  8
ASSI
100
AcDbLine
 62
7
  6
CONTINUOUS
 10
3.7102639801
 20
15.0679863101
 11
5.0997923529
 21
14.7874356861
  0
LINE
  5
44A
100
AcDbEntity
  8
ASSI
100
AcDbLine
 62
7
  6
CONTINUOUS
 10
3.7102639801
 20
15.0679863101
 11
5.1615100279
 21
14.7565768486
  0
LWPOLYLINE
  5
44B
100
AcDbEntity
  8
0
100
AcDbPolyline
 62
7
  6
CONTINUOUS
 90
6
 70
0
 10
-6.8130891819
 20
21.1053586027
 10
-6.8326626481
 20
21.1139510755
 10
-6.8534822439
 20
21.121224633
 10
-6.8755479692
 20
21.1271792754
 10
-6.8992483338
 20
21.1318674748
 10
-6.9091357501
 20
21.1332028735
  0
LWPOLYLINE
  5
44C
100
AcDbEntity
  8
ASSI
100
AcDbPolyline
 62
7
  6
CONTINUOUS
 90
4
 70
0
 10
1.4489646926
 20
18.5234573345
 10
1.4579529621
 20
18.5192139023
 10
1.4797068204
 20
18.5108944254
 10
1.501605454
 20
18.5050601226
  0
LINE
  5
44D
100
AcDbEntity
  8
ASSI
100
AcDbLine
 62
7
  6
CONTINUOUS
 10
5.0997923529
 20
14.7874356861
 11
5.1615100279
 21
14.7565768486
  0
LINE
  5
44E
100
AcDbEntity
  8
RACCORDO
100
AcDbLine
 62
7
  6
CONTINUOUS
 10
-13.397269854
 20
24.3772699255
 11
1.4522148588
 21
16.9525275691
  0
LINE
  5
44F
100
AcDbEntity
  8
0
100
AcDbLine
 62
7
  6
CONTINUOUS
 10
-2.9574414744
 20
19.177534749
 11
-6.8130891819
 21
21.1053586027
  0
LINE
  5
450
100
AcDbEntity
  8
0
100
AcDbLine
 62
7
  6
CONTINUOUS
 10
-0.0724830181
 20
17.9230242011
 11
-10.3967905858
 21
23.0851779849
  0
LINE
  5
451
100
AcDbEntity
  8
ASSI
100
AcDbLine
 62
7
  6
CONTINUOUS
 10
-12.3317760787
 20
24.7657257594
 11
-12.1382117926
 21
24.6689436164
  0
LINE
  5
452
100
AcDbEntity
  8
ASSI
100
AcDbLine
 62
7
  6
CONTINUOUS
 10
0.2547246264
 20
18.4724754068
 11
0.4482889125
 21
18.3756932638
  0
LINE
  5
453
100
AcDbEntity
  8
ASSI
100
AcDbLine
 62
7
  6
CONTINUOUS
 10
2.2686393908
 20
17.6045451035
 11
2.0684632118
 21
17.704633193
  0
LINE
  5
454
100
AcDbEntity
  8
ASSI
100
AcDbLine
 62
7
  6
CONTINUOUS
 10
0.0487638894
 20
18.7144828542
 11
-10.5180374933
 21
23.9978835456
  0
LINE
  5
455
100
AcDbEntity
  8
ASSI
100
AcDbLine
 62
7
  6
CONTINUOUS
 10
-12.5377368157
 20
25.0077332068
 11
-12.7379129947
 21
25.1078212963
  0
LINE
  5
456
100
AcDbEntity
  8
ASSI
100
AcDbLine
 62
7
  6
CONTINUOUS
 10
1.4489634331
 20
18.5234572265
 11
0.6478054749
 21
18.9240362056
  0
LINE
  5
457
100
AcDbEntity
  8
ASSI
100
AcDbLine
 62
7
  6
CONTINUOUS
 10
0.1799318883
 20
19.1579729989
 11
-0.6159981106
 21
19.5559379984
  0
LINE
  5
458
100
AcDbEntity
  8
ASSI
100
AcDbLine
 62
7
  6
CONTINUOUS
 10
-11.1375429072
 20
24.8167103967
 11
-11.9386952302
 21
25.2172865582
  0
LINE
  5
459
100
AcDbEntity
  8
ASSI
100
AcDbLine
 62
7
  6
CONTINUOUS
 10
-12.4065688168
 20
25.4512233515
 11
-13.2025040065
 21
25.8491909463
  0
LINE
  5
45A
100
AcDbEntity
  8
ASSI
100
AcDbLine
 62
250
  6
CONTINUOUS
 10
-12.3317760787
 20
25.5165587843
 11
-13.267244597
 21
25.984310394
  0
LINE
  5
45B
100
AcDbEntity
  8
ASSI
100
AcDbLine
 62
250
  6
CONTINUOUS
 10
0.2547246264
 20
19.2233084318
 11
-0.6807438919
 21
19.6910426909
  0
LINE
  5
45C
100
AcDbEntity
  8
ASSI
100
AcDbLine
 62
250
  6
CONTINUOUS
 10
-11.2027432743
 20
24.9520423821
 11
-12.1382117926
 21
25.4197766413
  0
LINE
  5
45D
100
AcDbEntity
  8
ASSI
100
AcDbLine
 62
250
  6
CONTINUOUS
 10
1.3837574308
 20
18.6588093736
 11
0.4482889125
 21
19.1265262887
  0
LWPOLYLINE
  5
45E
100
AcDbEntity
  8
ASSI
100
AcDbPolyline
 62
250
  6
CONTINUOUS
 90
16
 70
0
 10
-11.1375797923
 20
24.8167288492
 10
-11.1437751444
 20
24.8201253199
 10
-11.150908667
 20
24.8248363125
 10
-11.1577815271
 20
24.830317063
 10
-11.1643490448
 20
24.8365884523
 10
-11.1705646478
 20
24.8436673438
 10
-11.1763483184
 20
24.8515190081
 10
-11.1816610344
 20
24.8601404042
 10
-11.186464036
 20
24.8695241974
 10
-11.1906965787
 20
24.879599845
 10
-11.1943317286
 20
24.8903405874
 10
-11.1973446754
 20
24.9017168181
 10
-11.1997010323
 20
24.9136282539
 10
-11.2013882876
 20
24.9260070098
 10
-11.202403992
 20
24.9388278398
 10
-11.2027432743
 20
24.9520423821
  0
LWPOLYLINE
  5
45F
100
AcDbEntity
  8
ASSI
100
AcDbPolyline
 62
7
  6
CONTINUOUS
 90
9
 70
0
 10
-11.9382674317
 20
25.2170759829
 10
-11.9613002473
 20
25.2299267246
 10
-11.9913696001
 20
25.2504036785
 10
-12.0200706495
 20
25.2738158343
 10
-12.0473553651
 20
25.2996168787
 10
-12.0728390095
 20
25.3274299424
 10
-12.0963616404
 20
25.3569640449
 10
-12.1181262099
 20
25.3878562627
 10
-12.1382117926
 20
25.4197766413
  0
LWPOLYLINE
  5
460
100
AcDbEntity
  8
ASSI
100
AcDbPolyline
 62
7
  6
CONTINUOUS
 90
9
 70
0
 10
0.6482332734
 20
18.9238256304
 10
0.6252004578
 20
18.936676372
 10
0.595131105
 20
18.957153326
 10
0.5664300557
 20
18.9805654817
 10
0.53914534
 20
19.0063665261
 10
0.5136616957
 20
19.0341795899
 10
0.4901390647
 20
19.0637136924
 10
0.4683744953
 20
19.0946059102
 10
0.4482889125
 20
19.1265262887
  0
LWPOLYLINE
  5
461
100
AcDbEntity
  8
ASSI
100
AcDbPolyline
 62
250
  6
CONTINUOUS
 90
7
 70
0
 10
-0.6807438919
 20
19.6910426909
 10
-0.6978159665
 20
19.7007619099
 10
-0.712236014
 20
19.7115016802
 10
-0.7237627491
 20
19.7230822958
 10
-0.7322032993
 20
19.7353099816
 10
-0.7374164328
 20
19.747980135
 10
-0.7393225288
 20
19.7617271426
  0
LWPOLYLINE
  5
462
100
AcDbEntity
  8
ASSI
100
AcDbPolyline
 62
250
  6
CONTINUOUS
 90
7
 70
0
 10
-0.6807438919
 20
20.0083114913
 10
-0.6978159544
 20
20.0180307024
 10
-0.7122359958
 20
20.0287704647
 10
-0.72376273
 20
20.0403510733
 10
-0.7322032837
 20
20.0525787532
 10
-0.7374164237
 20
20.0652489026
 10
-0.7393225266
 20
20.078992035
  0
LWPOLYLINE
  5
463
100
AcDbEntity
  8
ASSI
100
AcDbPolyline
 62
250
  6
CONTINUOUS
 90
9
 70
0
 10
-13.2024910882
 20
25.8491844875
 10
-13.2119814768
 20
25.8546471039
 10
-13.2260307144
 20
25.8658762959
 10
-13.2382615211
 20
25.8799088145
 10
-13.2485053351
 20
25.8965567543
 10
-13.2566207519
 20
25.9155927229
 10
-13.2624972151
 20
25.9367578583
 10
-13.2660547624
 20
25.9597674224
 10
-13.267244588
 20
25.98431039
  0
LWPOLYLINE
  5
464
100
AcDbEntity
  8
ASSI
100
AcDbPolyline
 62
250
  6
CONTINUOUS
 90
13
 70
0
 10
-11.0284453984
 20
25.5723271371
 10
-11.0102934662
 20
25.5614624032
 10
-10.992409784
 20
25.5478426149
 10
-10.9751002282
 20
25.5317007203
 10
-10.9586608553
 20
25.5133128047
 10
-10.9433728387
 20
25.4929933686
 10
-10.9294976593
 20
25.4710899486
 10
-10.9172726333
 20
25.4479771732
 10
-10.9069068533
 20
25.4240503552
 10
-10.898577612
 20
25.3997187305
 10
-10.8924273698
 20
25.3753984589
 10
-10.8885613184
 20
25.3515055057
 10
-10.8870455813
 20
25.3284485278
  0
LWPOLYLINE
  5
465
100
AcDbEntity
  8
ASSI
100
AcDbPolyline
 62
250
  6
CONTINUOUS
 90
3
 70
0
 10
-0.6275543722
 20
19.5627968593
 10
-0.6194711899
 20
19.5577670652
 10
-0.6160032857
 20
19.5559405862
  0
LINE
  5
466
100
AcDbEntity
  8
RACCORDO
100
AcDbLine
 62
250
  6
CONTINUOUS
 10
19.586485396
 20
22.1125652195
 11
19.586485396
 21
18.1376729149
  0
LINE
  5
467
100
AcDbEntity
  8
SUPERFICI
100
AcDbLine
 62
250
  6
CONTINUOUS
 10
19.586485396
 20
22.1125652195
 11
19.586485396
 21
18.1376729149
  0
LINE
  5
468
100
AcDbEntity
  8
RACCORDO
100
AcDbLine
 62
250
  6
CONTINUOUS
 10
19.586485396
 20
16.4372102261
 11
19.586485396
 21
-8.4954968501
  0
LINE
  5
469
100
AcDbEntity
  8
SUPERFICI
100
AcDbLine
 62
250
  6
CONTINUOUS
 10
19.586485396
 20
16.4372102261
 11
19.586485396
 21
-8.4954968501
  0
LINE
  5
46A
100
AcDbEntity
  8
RACCORDO
100
AcDbLine
 62
7
  6
CONTINUOUS
 10
19.8390794256
 20
19.0184575369
 11
19.8390793378
 21
19.0182099567
  0
LINE
  5
46B
100
AcDbEntity
  8
SUPERFICI
100
AcDbLine
 62
250
  6
CONTINUOUS
 10
19.8390794256
 20
19.0184575369
 11
19.8390793378
 21
19.0182099567
  0
LWPOLYLINE
  5
46C
100
AcDbEntity
  8
RACCORDO
100
AcDbPolyline
 62
250
  6
CONTINUOUS
 90
29
 70
0
 10
19.8390793378
 20
19.0182099567
 10
19.838750967
 20
18.9747556494
 10
19.837544651
 20
18.9230297
 10
19.8355136924
 20
18.8727125895
 10
19.8327073383
 20
18.823813076
 10
19.8291781345
 20
18.7763475216
 10
19.8249771948
 20
18.7303171717
 10
19.8201279338
 20
18.6857073029
 10
19.8146718774
 20
18.6425330924
 10
19.8086454844
 20
18.6007916091
 10
19.8020392288
 20
18.5604421233
 10
19.7948762139
 20
18.5214572562
 10
19.7871822606
 20
18.4838755345
 10
19.7789269874
 20
18.4477578759
 10
19.7701183729
 20
18.4130583913
 10
19.7607744168
 20
18.3798356694
 10
19.7508605186
 20
18.3483106433
 10
19.7403792879
 20
18.3184523478
 10
19.7293401505
 20
18.2903069004
 10
19.7177050223
 20
18.2642141418
 10
19.705461711
 20
18.2401570444
 10
19.6926240658
 20
18.2181714048
 10
19.6791867715
 20
18.198678356
 10
19.6651373122
 20
18.181741302
 10
19.6504917583
 20
18.1673167631
 10
19.6352916222
 20
18.155664485
 10
19.6195577786
 20
18.1468759524
 10
19.6032861256
 20
18.1408760171
 10
19.586485396
 20
18.1376729149
  0
LWPOLYLINE
  5
46D
100
AcDbEntity
  8
SUPERFICI
100
AcDbPolyline
 62
250
  6
CONTINUOUS
 90
29
 70
0
 10
19.8390793378
 20
19.0182099567
 10
19.838750967
 20
18.9747556494
 10
19.837544651
 20
18.9230297
 10
19.8355136924
 20
18.8727125895
 10
19.8327073383
 20
18.823813076
 10
19.8291781345
 20
18.7763475216
 10
19.8249771948
 20
18.7303171717
 10
19.8201279338
 20
18.6857073029
 10
19.8146718774
 20
18.6425330924
 10
19.8086454844
 20
18.6007916091
 10
19.8020392288
 20
18.5604421233
 10
19.7948762139
 20
18.5214572562
 10
19.7871822606
 20
18.4838755345
 10
19.7789269874
 20
18.4477578759
 10
19.7701183729
 20
18.4130583913
 10
19.7607744168
 20
18.3798356694
 10
19.7508605186
 20
18.3483106433
 10
19.7403792879
 20
18.3184523478
 10
19.7293401505
 20
18.2903069004
 10
19.7177050223
 20
18.2642141418
 10
19.705461711
 20
18.2401570444
 10
19.6926240658
 20
18.2181714048
 10
19.6791867715
 20
18.198678356
 10
19.6651373122
 20
18.181741302
 10
19.6504917583
 20
18.1673167631
 10
19.6352916222
 20
18.155664485
 10
19.6195577786
 20
18.1468759524
 10
19.6032861256
 20
18.1408760171
 10
19.586485396
 20
18.1376729149
  0
LWPOLYLINE
  5
46E
100
AcDbEntity
  8
RACCORDO
100
AcDbPolyline
 62
250
  6
CONTINUOUS
 90
10
 70
0
 10
19.8390795757
 20
22.4251614862
 10
19.8363732228
 20
22.3902898969
 10
19.8270230102
 20
22.3517508993
 10
19.811064258
 20
22.3137582616
 10
19.7886157396
 20
22.276594745
 10
19.7598445284
 20
22.2405369399
 10
19.724964755
 20
22.2058532072
 10
19.6842360129
 20
22.1728016815
 10
19.6379614267
 20
22.1416283495
 10
19.586485396
 20
22.1125652195
  0
LWPOLYLINE
  5
46F
100
AcDbEntity
  8
SUPERFICI
100
AcDbPolyline
 62
250
  6
CONTINUOUS
 90
10
 70
0
 10
19.8390795757
 20
22.4251614862
 10
19.8363732228
 20
22.3902898969
 10
19.8270230102
 20
22.3517508993
 10
19.811064258
 20
22.3137582616
 10
19.7886157396
 20
22.276594745
 10
19.7598445284
 20
22.2405369399
 10
19.724964755
 20
22.2058532072
 10
19.6842360129
 20
22.1728016815
 10
19.6379614267
 20
22.1416283495
 10
19.586485396
 20
22.1125652195
  0
LWPOLYLINE
  5
470
100
AcDbEntity
  8
RACCORDO
100
AcDbPolyline
 62
250
  6
CONTINUOUS
 90
3
 70
0
 10
19.2475219122
 20
-9.3282608726
 10
19.2992920635
 20
-9.2864487959
 10
19.3473359328
 20
-9.2387719431
  0
LWPOLYLINE
  5
471
100
AcDbEntity
  8
SUPERFICI
100
AcDbPolyline
 62
250
  6
CONTINUOUS
 90
3
 70
0
 10
19.2475219122
 20
-9.3282608726
 10
19.2992920635
 20
-9.2864487959
 10
19.3473359328
 20
-9.2387719431
  0
LWPOLYLINE
  5
472
100
AcDbEntity
  8
RACCORDO
100
AcDbPolyline
 62
7
  6
CONTINUOUS
 90
13
 70
0
 10
19.3146327468
 20
-9.2865349531
 10
19.389187471
 20
-9.2278113745
 10
19.4599803199
 20
-9.1621969789
 10
19.5263557612
 20
-9.089875411
 10
19.5876163915
 20
-9.0112011144
 10
19.6432446668
 20
-8.9264406623
 10
19.6928877785
 20
-8.8356300109
 10
19.7360889485
 20
-8.7389328565
 10
19.7722682702
 20
-8.6369050818
 10
19.8009976245
 20
-8.5299815736
 10
19.8219334586
 20
-8.4184550622
 10
19.8347382745
 20
-8.3026419933
 10
19.8390795757
 20
-8.1829005834
  0
LWPOLYLINE
  5
473
100
AcDbEntity
  8
SUPERFICI
100
AcDbPolyline
 62
7
  6
CONTINUOUS
 90
13
 70
0
 10
19.3146327468
 20
-9.2865349531
 10
19.389187471
 20
-9.2278113745
 10
19.4599803199
 20
-9.1621969789
 10
19.5263557612
 20
-9.089875411
 10
19.5876163915
 20
-9.0112011144
 10
19.6432446668
 20
-8.9264406623
 10
19.6928877785
 20
-8.8356300109
 10
19.7360889485
 20
-8.7389328565
 10
19.7722682702
 20
-8.6369050818
 10
19.8009976245
 20
-8.5299815736
 10
19.8219334586
 20
-8.4184550622
 10
19.8347382745
 20
-8.3026419933
 10
19.8390795757
 20
-8.1829005834
  0
LINE
  5
474
100
AcDbEntity
  8
DRAFT
100
AcDbLine
 62
7
  6
CONTINUOUS
 10
11.235413801
 20
-13.6473960513
 11
10.482719717
 21
-14.1929072284
  0
LINE
  5
475
100
AcDbEntity
  8
SUPERFICI
100
AcDbLine
 62
7
  6
CONTINUOUS
 10
11.235413801
 20
-13.6473960513
 11
10.482719717
 21
-14.1929072284
  0
LINE
  5
476
100
AcDbEntity
  8
RACCORDO
100
AcDbLine
 62
250
  6
CONTINUOUS
 10
19.2475219122
 20
-9.3282608726
 11
18.8279787012
 21
-9.6323226631
  0
LINE
  5
477
100
AcDbEntity
  8
SUPERFICI
100
AcDbLine
 62
250
  6
CONTINUOUS
 10
19.2475219122
 20
-9.3282608726
 11
18.8279787012
 21
-9.6323226631
  0
LINE
  5
478
100
AcDbEntity
  8
RACCORDO
100
AcDbLine
 62
7
  6
CONTINUOUS
 10
19.3146327468
 20
-9.2865349531
 11
18.8982519073
 21
-9.5883048311
  0
LINE
  5
479
100
AcDbEntity
  8
SUPERFICI
100
AcDbLine
 62
7
  6
CONTINUOUS
 10
19.3146327468
 20
-9.2865349531
 11
18.8982519073
 21
-9.5883048311
  0
LWPOLYLINE
  5
47A
100
AcDbEntity
  8
RACCORDO
100
AcDbPolyline
 62
250
  6
CONTINUOUS
 90
3
 70
0
 10
19.3146327468
 20
-9.2865349531
 10
19.2963442863
 20
-9.2992395831
 10
19.2475219122
 20
-9.3282608726
  0
LWPOLYLINE
  5
47B
100
AcDbEntity
  8
SUPERFICI
100
AcDbPolyline
 62
250
  6
CONTINUOUS
 90
3
 70
0
 10
19.3146327468
 20
-9.2865349531
 10
19.2963442863
 20
-9.2992395831
 10
19.2475219122
 20
-9.3282608726
  0
LWPOLYLINE
  5
47C
100
AcDbEntity
  8
ASSI
100
AcDbPolyline
 62
7
  6
CONTINUOUS
 90
4
 70
0
 10
0.539164302
 20
-22.1109336815
 10
0.4897914538
 20
-22.1434767384
 10
0.4679478428
 20
-22.1585298047
 10
0.4482889125
 20
-22.1730778507
  0
LWPOLYLINE
  5
47D
100
AcDbEntity
  8
ASSI
100
AcDbPolyline
 62
7
  6
CONTINUOUS
 90
6
 70
0
 10
0.6897703691
 20
-22.0179302313
 10
0.6574942178
 20
-22.0378588604
 10
0.6257670706
 20
-22.0568609043
 10
0.595131105
 20
-22.0751295737
 10
0.5662201975
 20
-22.0931640101
 10
0.539164302
 20
-22.1109336815
  0
LWPOLYLINE
  5
47E
100
AcDbEntity
  8
RACCORDO
100
AcDbPolyline
 62
7
  6
CONTINUOUS
 90
3
 70
0
 10
18.8279787012
 20
-9.6323226631
 10
18.8843705466
 20
-9.5981306512
 10
18.8971048881
 20
-9.5891358935
  0
LWPOLYLINE
  5
47F
100
AcDbEntity
  8
SUPERFICI
100
AcDbPolyline
 62
7
  6
CONTINUOUS
 90
3
 70
0
 10
18.8279787012
 20
-9.6323226631
 10
18.8843705466
 20
-9.5981306512
 10
18.8971048881
 20
-9.5891358935
  0
LINE
  5
480
100
AcDbEntity
  8
ASSI
100
AcDbLine
 62
250
  6
CONTINUOUS
 10
3.7102639801
 20
-20.3525186546
 11
4.4050281665
 21
-19.977677437
  0
LINE
  5
481
100
AcDbEntity
  8
DRAFT
100
AcDbLine
 62
7
  6
CONTINUOUS
 10
10.482719717
 20
-14.1929072284
 11
4.4050281665
 21
-17.4068906355
  0
LINE
  5
482
100
AcDbEntity
  8
SUPERFICI
100
AcDbLine
 62
7
  6
CONTINUOUS
 10
10.482719717
 20
-14.1929072284
 11
4.4050281665
 21
-17.4068906355
  0
LINE
  5
483
100
AcDbEntity
  8
ASSI
100
AcDbLine
 62
7
  6
CONTINUOUS
 10
8.7828989414
 20
-15.3647219333
 11
4.4050281665
 21
-17.6244993544
  0
LINE
  5
484
100
AcDbEntity
  8
ASSI
100
AcDbLine
 62
7
  6
CONTINUOUS
 10
9.9741572614
 20
-14.6421708857
 11
4.4050281665
 21
-17.4901749286
  0
LWPOLYLINE
  5
485
100
AcDbEntity
  8
RACCORDO
100
AcDbPolyline
 62
250
  6
CONTINUOUS
 90
10
 70
0
 10
-3.3333800476
 20
-23.3896708221
 10
-3.301568854
 20
-23.374250069
 10
-3.2740434744
 20
-23.3546523349
 10
-3.2491141173
 20
-23.3303224496
 10
-3.2270536579
 20
-23.3015267862
 10
-3.2081035532
 20
-23.2685805878
 10
-3.1924712117
 20
-23.2318445212
 10
-3.180327727
 20
-23.1917207379
 10
-3.171806003
 20
-23.1486484747
 10
-3.1669992954
 20
-23.1030992352
  0
LINE
  5
486
100
AcDbEntity
  8
DRAFT
100
AcDbLine
 62
7
  6
CONTINUOUS
 10
1.5078719187
 20
-18.5782673084
 11
1.2219587405
 21
-18.7134184687
  0
LINE
  5
487
100
AcDbEntity
  8
ASSI
100
AcDbLine
 62
7
  6
CONTINUOUS
 10
1.3414562631
 20
18.1362163697
 11
0.7987302004
 21
18.2513456872
  0
LINE
  5
488
100
AcDbEntity
  8
ASSI
100
AcDbLine
 62
7
  6
CONTINUOUS
 10
1.5016622435
 20
18.5050408457
 11
2.1420495319
 21
18.3691945016
  0
LINE
  5
489
100
AcDbEntity
  8
ASSI
100
AcDbLine
 62
250
  6
CONTINUOUS
 10
1.6820966955
 20
18.62875328
 11
2.4189044997
 21
18.472453103
  0
LWPOLYLINE
  5
48A
100
AcDbEntity
  8
ASSI
100
AcDbPolyline
 62
250
  6
CONTINUOUS
 90
7
 70
0
 10
-0.5076587347
 20
20.3119338052
 10
-0.5264124747
 20
20.3195219027
 10
-0.5448032376
 20
20.3240393251
 10
-0.5625164738
 20
20.3254088099
 10
-0.5792492227
 20
20.3236069361
 10
-0.594715293
 20
20.3186645245
 10
-0.6000624323
 20
20.3160554006
  0
LWPOLYLINE
  5
48B
100
AcDbEntity
  8
ASSI
100
AcDbPolyline
 62
250
  6
CONTINUOUS
 90
13
 70
0
 10
-11.2027432743
 20
24.9520423821
 10
-11.1833048522
 20
24.9435063509
 10
-11.1618253275
 20
24.9362963302
 10
-11.1386641104
 20
24.9305329631
 10
-11.1142087505
 20
24.9263126862
 10
-11.0888684516
 20
24.9237061162
 10
-11.0630672252
 20
24.9227568679
 10
-11.0372367951
 20
24.9234808249
 10
-11.0118093738
 20
24.9258658733
 10
-10.9872104306
 20
24.929872105
 10
-10.9638515719
 20
24.9354324848
 10
-10.9421236542
 20
24.9424539726
 10
-10.922390244
 20
24.9508190802
  0
LWPOLYLINE
  5
48C
100
AcDbEntity
  8
ASSI
100
AcDbPolyline
 62
250
  6
CONTINUOUS
 90
13
 70
0
 10
-11.2027432743
 20
25.2693111825
 10
-11.1833048394
 20
25.2607751463
 10
-11.161825302
 20
25.253565123
 10
-11.1386640735
 20
25.2478017556
 10
-11.1142087041
 20
25.2435814801
 10
-11.0888683988
 20
25.2409749128
 10
-11.0630671698
 20
25.2400256679
 10
-11.0372367414
 20
25.2407496284
 10
-11.0118093258
 20
25.2431346797
 10
-10.9872103917
 20
25.247140913
 10
-10.9638515447
 20
25.2527012926
 10
-10.9421236404
 20
25.2597227781
 10
-10.922390244
 20
25.2680878806
  0
LWPOLYLINE
  5
48D
100
AcDbEntity
  8
ASSI
100
AcDbPolyline
 62
250
  6
CONTINUOUS
 90
13
 70
0
 10
-1.5260505216
 20
21.4416560904
 10
-1.506612137
 20
21.4331200739
 10
-1.4851326499
 20
21.4259100607
 10
-1.4619714669
 20
21.4201466948
 10
-1.4375161356
 20
21.4159264141
 10
-1.4121758568
 20
21.4133198362
 10
-1.3863746377
 20
21.4123705776
 10
-1.3605441997
 20
21.4130945243
 10
-1.335116758
 20
21.4154795647
 10
-1.3105177861
 20
21.4194857921
 10
-1.2871588935
 20
21.4250461726
 10
-1.2654309387
 20
21.4320676673
 10
-1.2456974912
 20
21.4404327885
  0
LWPOLYLINE
  5
48E
100
AcDbEntity
  8
ASSI
100
AcDbPolyline
 62
250
  6
CONTINUOUS
 90
14
 70
0
 10
-3.6423957512
 20
22.8552552944
 10
-3.6511405759
 20
22.8592499956
 10
-3.6601131353
 20
22.8628152585
 10
-3.6692871585
 20
22.8658946819
 10
-3.6786543517
 20
22.8684359613
 10
-3.6881578289
 20
22.8703719218
 10
-3.6976950306
 20
22.8716367715
 10
-3.7072271743
 20
22.8721862886
 10
-3.7167119043
 20
22.8719775043
 10
-3.7260444731
 20
22.8709780144
 10
-3.7351838211
 20
22.8691642885
 10
-3.7440867219
 20
22.8665157875
 10
-3.7526552346
 20
22.8630400748
 10
-3.7577472274
 20
22.8604900157
  0
LWPOLYLINE
  5
48F
100
AcDbEntity
  8
ASSI
100
AcDbPolyline
 62
250
  6
CONTINUOUS
 90
28
 70
0
 10
-3.7813489644
 20
22.612599987
 10
-3.7830846917
 20
22.6134307161
 10
-3.7848550458
 20
22.6141521053
 10
-3.7866600266
 20
22.6147641546
 10
-3.7885110807
 20
22.6152781175
 10
-3.7903967615
 20
22.6156827405
 10
-3.7922827294
 20
22.6159442633
 10
-3.7941698085
 20
22.6160580289
 10
-3.7960571748
 20
22.6160286944
 10
-3.7979080168
 20
22.6158364698
 10
-3.7997216401
 20
22.615475562
 10
-3.8014987391
 20
22.6149517643
 10
-3.8032045853
 20
22.6142626669
 10
-3.8048361545
 20
22.6134032384
 10
-3.806396471
 20
22.6123785103
 10
-3.8078598787
 20
22.6112011673
 10
-3.8092226228
 20
22.6098692967
 10
-3.8104884581
 20
22.6083848112
 10
-3.8116429934
 20
22.6067661335
 10
-3.8126843251
 20
22.6050125713
 10
-3.8136143568
 20
22.6031248169
 10
-3.814424408
 20
22.6011233692
 10
-3.8151133944
 20
22.599007203
 10
-3.8156824002
 20
22.5967773434
 10
-3.8161259983
 20
22.5944573647
 10
-3.8164423796
 20
22.5920551252
 10
-3.816633353
 20
22.5895627666
 10
-3.8166989187
 20
22.586980289
  0
LWPOLYLINE
  5
490
100
AcDbEntity
  8
ASSI
100
AcDbPolyline
 62
7
  6
CONTINUOUS
 90
4
 70
0
 10
-11.1375819246
 20
24.8167303947
 10
-11.131490121
 20
24.8137994745
 10
-11.1083866052
 20
24.8046667387
 10
-11.0849209817
 20
24.7983090695
  0
LINE
  5
491
100
AcDbEntity
  8
ASSI
100
AcDbLine
 62
7
  6
CONTINUOUS
 10
-1.5260505216
 20
20.2543833091
 11
-3.8166989187
 21
21.3997075077
  0
LINE
  5
492
100
AcDbEntity
  8
ASSI
100
AcDbLine
 62
7
  6
CONTINUOUS
 10
-5.2383611228
 20
22.1105386097
 11
-7.5290095199
 21
23.2558628083
  0
LINE
  5
493
100
AcDbEntity
  8
ASSI
100
AcDbLine
 62
250
  6
CONTINUOUS
 10
1.3837574308
 20
18.9760608299
 11
-0.6807438919
 21
20.0083114913
  0
LINE
  5
494
100
AcDbEntity
  8
ASSI
100
AcDbLine
 62
250
  6
CONTINUOUS
 10
-11.2027432743
 20
25.2693111825
 11
-13.267244597
 21
26.3015618439
  0
LINE
  5
495
100
AcDbEntity
  8
ASSI
100
AcDbLine
 62
7
  6
CONTINUOUS
 10
-9.2651454547
 20
24.5001774004
 11
-7.5875881637
 21
23.6613987549
  0
LINE
  5
496
100
AcDbEntity
  8
ASSI
100
AcDbLine
 62
7
  6
CONTINUOUS
 10
-4.7396620551
 20
22.2374357006
 11
-3.8752775624
 21
21.8052434542
  0
LINE
  5
497
100
AcDbEntity
  8
ASSI
100
AcDbLine
 62
7
  6
CONTINUOUS
 10
-1.0273514539
 20
20.3812803999
 11
-0.7003304827
 21
20.2177699144
  0
LINE
  5
498
100
AcDbEntity
  8
ASSI
100
AcDbLine
 62
7
  6
CONTINUOUS
 10
3.3570739267
 20
18.1890677097
 11
3.3213552504
 21
18.2069270478
  0
LINE
  5
499
100
AcDbEntity
  8
ASSI
100
AcDbLine
 62
250
  6
CONTINUOUS
 10
1.5580553067
 20
19.2790767845
 11
-0.5076587347
 21
20.3119338052
  0
LINE
  5
49A
100
AcDbEntity
  8
ASSI
100
AcDbLine
 62
250
  6
CONTINUOUS
 10
-11.0284453984
 20
25.5723271371
 11
-13.0941594398
 21
26.6051841578
  0
LINE
  5
49B
100
AcDbEntity
  8
ASSI
100
AcDbLine
 62
7
  6
CONTINUOUS
 10
-9.2651454547
 20
25.1921676519
 11
-8.5970097396
 21
24.8580997943
  0
LINE
  5
49C
100
AcDbEntity
  8
ASSI
100
AcDbLine
 62
7
  6
CONTINUOUS
 10
3.3213552504
 20
18.8989172993
 11
4.0515286238
 21
18.5338306127
  0
LINE
  5
49D
100
AcDbEntity
  8
ASSI
100
AcDbLine
 62
7
  6
CONTINUOUS
 10
-3.8752775624
 20
22.4979367288
 11
-4.0576018248
 21
22.5890988599
  0
LINE
  5
49E
100
AcDbEntity
  8
ASSI
100
AcDbLine
 62
7
  6
CONTINUOUS
 10
-3.8752775624
 20
22.5817616213
 11
-4.0594012503
 21
22.6738234653
  0
LINE
  5
49F
100
AcDbEntity
  8
ASSI
100
AcDbLine
 62
250
  6
CONTINUOUS
 10
-7.4936595656
 20
24.4687552877
 11
-5.2737110771
 21
23.3587810434
  0
LINE
  5
4A0
100
AcDbEntity
  8
ASSI
100
AcDbLine
 62
250
  6
CONTINUOUS
 10
-1.5614004758
 20
21.5026257428
 11
-3.7813489644
 21
22.612599987
  0
LINE
  5
4A1
100
AcDbEntity
  8
ASSI
100
AcDbLine
 62
250
  6
CONTINUOUS
 10
-7.3547063524
 20
24.7114105951
 11
-5.1347578638
 21
23.6014363508
  0
LINE
  5
4A2
100
AcDbEntity
  8
ASSI
100
AcDbLine
 62
250
  6
CONTINUOUS
 10
-1.4224472626
 20
21.7452810502
 11
-3.6423957512
 21
22.8552552944
  0
LINE
  5
4A3
100
AcDbEntity
  8
ASSI
100
AcDbLine
 62
7
  6
CONTINUOUS
 10
-7.1438520351
 20
24.8251713366
 11
-4.9164118264
 21
23.7114512323
  0
LINE
  5
4A4
100
AcDbEntity
  8
ASSI
100
AcDbLine
 62
7
  6
CONTINUOUS
 10
-3.4315414338
 20
22.969016036
 11
-1.2041012252
 21
21.8552959317
  0
LINE
  5
4A5
100
AcDbEntity
  8
ASSI
100
AcDbLine
 62
7
  6
CONTINUOUS
 10
-11.5279086936
 20
27.4502123678
 11
-9.4065452718
 21
26.3895306568
  0
LINE
  5
4A6
100
AcDbEntity
  8
ASSI
100
AcDbLine
 62
7
  6
CONTINUOUS
 10
1.0585920115
 20
21.1569620152
 11
3.1799554333
 21
20.0962803043
  0
LINE
  5
4A7
100
AcDbEntity
  8
ASSI
100
AcDbLine
 62
7
  6
CONTINUOUS
 10
-0.7883095648
 20
22.2980108065
 11
-2.7551136017
 21
23.2814128249
  0
LINE
  5
4A8
100
AcDbEntity
  8
ASSI
100
AcDbLine
 62
7
  6
CONTINUOUS
 10
-4.2631930619
 20
24.0354525551
 11
-6.2299970988
 21
25.0188545735
  0
LWPOLYLINE
  5
4A9
100
AcDbEntity
  8
ASSI
100
AcDbPolyline
 62
250
  6
CONTINUOUS
 90
28
 70
0
 10
-5.2737110771
 20
23.3587810434
 10
-5.271957201
 20
23.3578651717
 10
-5.270171457
 20
23.3568056329
 10
-5.2683538452
 20
23.3556024271
 10
-5.2664929314
 20
23.3542548799
 10
-5.2646001497
 20
23.3527636655
 10
-5.2627098026
 20
23.3511308072
 10
-5.2608212054
 20
23.3493508629
 10
-5.2589350428
 20
23.3474292746
 10
-5.2570876712
 20
23.3453843912
 10
-5.2552801312
 20
23.3432116152
 10
-5.2535113823
 20
23.3409155441
 10
-5.251814659
 20
23.3385283186
 10
-5.2501932987
 20
23.3360491165
 10
-5.2486439639
 20
23.3334787601
 10
-5.2471898765
 20
23.3308518576
 10
-5.2458340046
 20
23.3281697107
 10
-5.24457338
 20
23.3254310176
 10
-5.2434223202
 20
23.3226664812
 10
-5.2423822591
 20
23.3198761807
 10
-5.2414517627
 20
23.3170600368
 10
-5.240640846
 20
23.3142485141
 10
-5.2399508259
 20
23.3114416177
 10
-5.2393803854
 20
23.3086393425
 10
-5.2389355884
 20
23.3058721373
 10
-5.2386184563
 20
23.3031501518
 10
-5.2384269678
 20
23.3004632364
 10
-5.2383611228
 20
23.297811391
  0
LWPOLYLINE
  5
4AA
100
AcDbEntity
  8
ASSI
100
AcDbPolyline
 62
250
  6
CONTINUOUS
 90
28
 70
0
 10
-5.1347578638
 20
23.6014363508
 10
-5.1261587024
 20
23.5967524348
 10
-5.1173393701
 20
23.5914058574
 10
-5.1083245124
 20
23.5853676229
 10
-5.0991205918
 20
23.5785948545
 10
-5.089782178
 20
23.5710783872
 10
-5.0804094941
 20
23.5628563743
 10
-5.0710390808
 20
23.5539246913
 10
-5.0617106814
 20
23.5442839425
 10
-5.0525266897
 20
23.5340081064
 10
-5.0435270174
 20
23.5231174971
 10
-5.0347506699
 20
23.5116342763
 10
-5.0262897971
 20
23.4996602945
 10
-5.0181861565
 20
23.4872453863
 10
-5.0104650563
 20
23.4744189356
 10
-5.0031826711
 20
23.4612677073
 10
-4.9963723073
 20
23.4478520232
 10
-4.9900519322
 20
23.4342077232
 10
-4.9842474027
 20
23.420390136
 10
-4.9789804599
 20
23.406451311
 10
-4.9742692532
 20
23.3924398026
 10
-4.9701306748
 20
23.3784065973
 10
-4.9665796314
 20
23.3644021443
 10
-4.9636290277
 20
23.3504774526
 10
-4.9612894122
 20
23.3366841343
 10
-4.9595690368
 20
23.3230724162
 10
-4.9584739927
 20
23.309690988
 10
-4.9580080925
 20
23.2965880891
  0
LWPOLYLINE
  5
4AB
100
AcDbEntity
  8
ASSI
100
AcDbPolyline
 62
250
  6
CONTINUOUS
 90
13
 70
0
 10
-8.8824408052
 20
26.649490336
 10
-8.8636870696
 20
26.638926477
 10
-8.8452963101
 20
26.6255601991
 10
-8.8275830764
 20
26.6096201166
 10
-8.8108503288
 20
26.5913788646
 10
-8.7953842588
 20
26.5711484372
 10
-8.7814493932
 20
26.549274852
 10
-8.7692840684
 20
26.5261322299
 10
-8.7590963533
 20
26.5021163939
 10
-8.7510604925
 20
26.4776381011
 10
-8.7453139271
 20
26.4531160186
 10
-8.7419549425
 20
26.4289695634
 10
-8.7410409881
 20
26.4056117267
  0
LWPOLYLINE
  5
4AC
100
AcDbEntity
  8
ASSI
100
AcDbPolyline
 62
250
  6
CONTINUOUS
 90
7
 70
0
 10
-3.8166989187
 20
22.586980289
 10
-3.8337709812
 20
22.5966995001
 10
-3.8481910226
 20
22.6074392624
 10
-3.8597177568
 20
22.6190198709
 10
-3.8681583105
 20
22.6312475509
 10
-3.8733714505
 20
22.6439177003
 10
-3.8752775624
 20
22.6576909671
  0
LWPOLYLINE
  5
4AD
100
AcDbEntity
  8
ASSI
100
AcDbPolyline
 62
7
  6
CONTINUOUS
 90
13
 70
0
 10
3.1799554333
 20
20.0962803043
 10
3.1984067017
 20
20.0855678153
 10
3.2165490988
 20
20.072079449
 10
3.2340680713
 20
20.0560435794
 10
3.25065927
 20
20.0377317399
 10
3.2660377146
 20
20.0174566302
 10
3.279942815
 20
19.9955669456
 10
3.292139147
 20
19.9724383184
 10
3.3024156629
 20
19.9484651667
 10
3.3105934941
 20
19.924056749
 10
3.3165338515
 20
19.8996312595
 10
3.3201401885
 20
19.8756086083
 10
3.3213552504
 20
19.852401695
  0
LWPOLYLINE
  5
4AE
100
AcDbEntity
  8
RACCORDO
100
AcDbPolyline
 62
250
  6
CONTINUOUS
 90
13
 70
0
 10
-1.5326131916
 20
23.8638462864
 10
-1.514902256
 20
23.8527244104
 10
-1.4968341426
 20
23.8393199223
 10
-1.4787123813
 20
23.8238580543
 10
-1.4608413959
 20
23.8065985949
 10
-1.4435213763
 20
23.7878315106
 10
-1.4270432378
 20
23.7678720699
 10
-1.4116837677
 20
23.7470555858
 10
-1.3977009307
 20
23.7257317271
 10
-1.3853295381
 20
23.7042586253
 10
-1.3747773642
 20
23.6829969494
 10
-1.3662216435
 20
23.6623038501
 10
-1.35980606
 20
23.6425268998
  0
LWPOLYLINE
  5
4AF
100
AcDbEntity
  8
SUPERFICI
100
AcDbPolyline
 62
250
  6
CONTINUOUS
 90
13
 70
0
 10
-1.5326131916
 20
23.8638462864
 10
-1.514902256
 20
23.8527244104
 10
-1.4968341426
 20
23.8393199223
 10
-1.4787123813
 20
23.8238580543
 10
-1.4608413959
 20
23.8065985949
 10
-1.4435213763
 20
23.7878315106
 10
-1.4270432378
 20
23.7678720699
 10
-1.4116837677
 20
23.7470555858
 10
-1.3977009307
 20
23.7257317271
 10
-1.3853295381
 20
23.7042586253
 10
-1.3747773642
 20
23.6829969494
 10
-1.3662216435
 20
23.6623038501
 10
-1.35980606
 20
23.6425268998
  0
LINE
  5
4B0
100
AcDbEntity
  8
0
100
AcDbLine
 62
250
  6
CONTINUOUS
 10
9.8902397856
 20
25.124228422
 11
10.3048172973
 21
24.0486498818
  0
LINE
  5
4B1
100
AcDbEntity
  8
SUPERFICI
100
AcDbLine
 62
250
  6
CONTINUOUS
 10
9.8902397856
 20
25.124228422
 11
10.3048172973
 21
24.0486498818
  0
LINE
  5
4B2
100
AcDbEntity
  8
0
100
AcDbLine
 62
7
  6
CONTINUOUS
 10
11.0757349182
 20
22.4316270932
 11
10.8944688769
 21
22.9675325643
  0
LWPOLYLINE
  5
4B3
100
AcDbEntity
  8
RACCORDO
100
AcDbPolyline
 62
7
  6
CONTINUOUS
 90
10
 70
0
 10
19.8390795757
 20
22.4251614862
 10
19.8352746797
 20
22.5390991826
 10
19.8241285906
 20
22.6523633796
 10
19.8059902655
 20
22.764750653
 10
19.7810351643
 20
22.8764874298
 10
19.7494881648
 20
22.9871195973
 10
19.7118668987
 20
23.0954259864
 10
19.6685656632
 20
23.2009099574
 10
19.6196128816
 20
23.303836838
 10
19.5650808361
 20
23.4040812477
  0
LWPOLYLINE
  5
4B4
100
AcDbEntity
  8
SUPERFICI
100
AcDbPolyline
 62
7
  6
CONTINUOUS
 90
10
 70
0
 10
19.8390795757
 20
22.4251614862
 10
19.8352746797
 20
22.5390991826
 10
19.8241285906
 20
22.6523633796
 10
19.8059902655
 20
22.764750653
 10
19.7810351643
 20
22.8764874298
 10
19.7494881648
 20
22.9871195973
 10
19.7118668987
 20
23.0954259864
 10
19.6685656632
 20
23.2009099574
 10
19.6196128816
 20
23.303836838
 10
19.5650808361
 20
23.4040812477
  0
LINE
  5
4B5
100
AcDbEntity
  8
RACCORDO
100
AcDbLine
 62
7
  6
CONTINUOUS
 10
19.8390792119
 20
16.1812653904
 11
19.8390795375
 21
16.1808063227
  0
LINE
  5
4B6
100
AcDbEntity
  8
SUPERFICI
100
AcDbLine
 62
250
  6
CONTINUOUS
 10
19.8390536039
 20
16.1863260128
 11
19.8390795375
 21
16.1808063227
  0
LINE
  5
4B7
100
AcDbEntity
  8
RACCORDO
100
AcDbLine
 62
7
  6
CONTINUOUS
 10
19.8390795757
 20
22.4251614862
 11
19.8390795757
 21
19.0194760396
  0
LINE
  5
4B8
100
AcDbEntity
  8
SUPERFICI
100
AcDbLine
 62
7
  6
CONTINUOUS
 10
19.8390795757
 20
22.4251614862
 11
19.8390795757
 21
19.0194760396
  0
LINE
  5
4B9
100
AcDbEntity
  8
RACCORDO
100
AcDbLine
 62
7
  6
CONTINUOUS
 10
19.8390795757
 20
16.1805153701
 11
19.8390795757
 21
-8.1829005834
  0
LINE
  5
4BA
100
AcDbEntity
  8
SUPERFICI
100
AcDbLine
 62
7
  6
CONTINUOUS
 10
19.8390795757
 20
16.1805153701
 11
19.8390795757
 21
-8.1829005834
  0
LWPOLYLINE
  5
4BB
100
AcDbEntity
  8
RACCORDO
100
AcDbPolyline
 62
250
  6
CONTINUOUS
 90
11
 70
0
 10
19.8390795757
 20
-8.1829005834
 10
19.8382769361
 20
-8.2019012886
 10
19.8322943828
 20
-8.2380533451
 10
19.8205073935
 20
-8.2738469989
 10
19.8029925646
 20
-8.3090496497
 10
19.7798637136
 20
-8.3434325378
 10
19.7512711403
 20
-8.3767722307
 10
19.7174006497
 20
-8.4088520747
 10
19.6784723447
 20
-8.4394636031
 10
19.6347391954
 20
-8.4684078912
 10
19.586485396
 20
-8.4954968483
  0
LWPOLYLINE
  5
4BC
100
AcDbEntity
  8
SUPERFICI
100
AcDbPolyline
 62
250
  6
CONTINUOUS
 90
11
 70
0
 10
19.8390795757
 20
-8.1829005834
 10
19.8382769361
 20
-8.2019012886
 10
19.8322943828
 20
-8.2380533451
 10
19.8205073935
 20
-8.2738469989
 10
19.8029925646
 20
-8.3090496497
 10
19.7798637136
 20
-8.3434325378
 10
19.7512711403
 20
-8.3767722307
 10
19.7174006497
 20
-8.4088520747
 10
19.6784723447
 20
-8.4394636031
 10
19.6347391954
 20
-8.4684078912
 10
19.586485396
 20
-8.4954968483
  0
LWPOLYLINE
  5
4BD
100
AcDbEntity
  8
RACCORDO
100
AcDbPolyline
 62
250
  6
CONTINUOUS
 90
11
 70
0
 10
19.3473359328
 20
-9.2387719431
 10
19.3914478444
 20
-9.1854345705
 10
19.4314389396
 20
-9.1266652102
 10
19.4671380681
 20
-9.0627155722
 10
19.4983924905
 20
-8.9938594313
 10
19.5250683626
 20
-8.9203918497
 10
19.5470515764
 20
-8.8426273154
 10
19.5642481739
 20
-8.7608981329
 10
19.5765844683
 20
-8.6755539587
 10
19.584007498
 20
-8.5869604231
 10
19.586485396
 20
-8.4954968501
  0
LWPOLYLINE
  5
4BE
100
AcDbEntity
  8
SUPERFICI
100
AcDbPolyline
 62
250
  6
CONTINUOUS
 90
11
 70
0
 10
19.3473359328
 20
-9.2387719431
 10
19.3914478444
 20
-9.1854345705
 10
19.4314389396
 20
-9.1266652102
 10
19.4671380681
 20
-9.0627155722
 10
19.4983924905
 20
-8.9938594313
 10
19.5250683626
 20
-8.9203918497
 10
19.5470515764
 20
-8.8426273154
 10
19.5642481739
 20
-8.7608981329
 10
19.5765844683
 20
-8.6755539587
 10
19.584007498
 20
-8.5869604231
 10
19.586485396
 20
-8.4954968501
  0
LWPOLYLINE
  5
4BF
100
AcDbEntity
  8
ASSI
100
AcDbPolyline
 62
7
  6
CONTINUOUS
 90
10
 70
0
 10
3.8081262396
 20
-22.0536091797
 10
3.8303658786
 20
-22.0382477991
 10
3.8512118384
 20
-22.0202440444
 10
3.8703503747
 20
-21.9998006934
 10
3.8870729437
 20
-21.9777915656
 10
3.9016814474
 20
-21.9539519769
 10
3.9141090776
 20
-21.9281932952
 10
3.9237166196
 20
-21.9017937065
 10
3.9305083263
 20
-21.8750744667
 10
3.9345976978
 20
-21.8472956412
  0
LWPOLYLINE
  5
4C0
100
AcDbEntity
  8
ASSI
100
AcDbPolyline
 62
7
  6
CONTINUOUS
 90
5
 70
0
 10
3.2714588758
 20
-22.3435718252
 10
3.279942815
 20
-22.3382385041
 10
3.2921368273
 20
-22.3273050491
 10
3.3024113619
 20
-22.3136074226
 10
3.3105934941
 20
-22.2973789866
  0
LWPOLYLINE
  5
4C1
100
AcDbEntity
  8
ASSI
100
AcDbPolyline
 62
250
  6
CONTINUOUS
 90
7
 70
0
 10
3.8795916609
 20
-21.552808704
 10
3.8963219059
 20
-21.542941958
 10
3.9103648958
 20
-21.5320779628
 10
3.9214856562
 20
-21.5203985033
 10
3.9294981097
 20
-21.5080990095
 10
3.9342681899
 20
-21.4953852857
 10
3.9357237009
 20
-21.4833427972
  0
LWPOLYLINE
  5
4C2
100
AcDbEntity
  8
ASSI
100
AcDbPolyline
 62
250
  6
CONTINUOUS
 90
7
 70
0
 10
3.8795916609
 20
-21.8927522988
 10
3.8963218761
 20
-21.8828855938
 10
3.9103648518
 20
-21.8720216349
 10
3.9214856115
 20
-21.8603422055
 10
3.9294980747
 20
-21.8480427339
 10
3.9342681716
 20
-21.8353290233
 10
3.9357237009
 20
-21.8232864618
  0
LWPOLYLINE
  5
4C3
100
AcDbEntity
  8
ASSI
100
AcDbPolyline
 62
250
  6
CONTINUOUS
 90
8
 70
0
 10
1.6443791956
 20
-23.095170447
 10
1.6570031054
 20
-23.0877658288
 10
1.6692281216
 20
-23.0768183773
 10
1.6795938889
 20
-23.0630792826
 10
1.687923117
 20
-23.0467835341
 10
1.6940733474
 20
-23.0282098496
 10
1.6979393903
 20
-23.0076759081
 10
1.6994551238
 20
-22.9855329153
  0
LINE
  5
4C4
100
AcDbEntity
  8
ASSI
100
AcDbLine
 62
7
  6
CONTINUOUS
 10
3.7964568409
 20
-22.0603230657
 11
3.8081262396
 21
-22.0536091797
  0
LWPOLYLINE
  5
4C5
100
AcDbEntity
  8
ASSI
100
AcDbPolyline
 62
250
  6
CONTINUOUS
 90
28
 70
0
 10
3.845459717
 20
-21.9537193054
 10
3.8472561358
 20
-21.9527032251
 10
3.8490702017
 20
-21.9515456609
 10
3.8509019146
 20
-21.9502466128
 10
3.8527621622
 20
-21.9488032533
 10
3.8546400568
 20
-21.9472184098
 10
3.8565029358
 20
-21.9455005648
 10
3.8583508849
 20
-21.9436447796
 10
3.8601838183
 20
-21.9416559929
 10
3.8619688161
 20
-21.9395575028
 10
3.863704027
 20
-21.9373462332
 10
3.8653913023
 20
-21.9350252602
 10
3.8670032765
 20
-21.9326271103
 10
3.8685366386
 20
-21.9301523338
 10
3.8699946996
 20
-21.9276003803
 10
3.8713600264
 20
-21.9250021254
 10
3.8726304088
 20
-21.922358979
 10
3.8738080571
 20
-21.9196695312
 10
3.8748821693
 20
-21.9169604279
 10
3.8758518626
 20
-21.9142314593
 10
3.8767180198
 20
-21.9114828352
 10
3.8774724877
 20
-21.9087418301
 10
3.8781142463
 20
-21.9060085743
 10
3.8786443155
 20
-21.9032829374
 10
3.879057601
 20
-21.9005918031
 10
3.8793524047
 20
-21.8979441325
 10
3.8795304247
 20
-21.8953309644
 10
3.8795916609
 20
-21.8927522988
  0
LINE
  5
4C6
100
AcDbEntity
  8
ASSI
100
AcDbLine
 62
7
  6
CONTINUOUS
 10
3.5845238921
 20
-20.6207731693
 11
4.2803657377
 21
-20.2453505298
  0
LINE
  5
4C7
100
AcDbEntity
  8
ASSI
100
AcDbLine
 62
250
  6
CONTINUOUS
 10
3.3213552504
 20
-22.2364856889
 11
3.845459717
 21
-21.9537193054
  0
LINE
  5
4C8
100
AcDbEntity
  8
ASSI
100
AcDbLine
 62
7
  6
CONTINUOUS
 10
3.2715023102
 20
-22.3435484349
 11
3.7965565211
 21
-22.0602696425
  0
LINE
  5
4C9
100
AcDbEntity
  8
ASSI
100
AcDbLine
 62
7
  6
CONTINUOUS
 10
3.2672924392
 20
-22.3456553296
 11
3.2714588758
 21
-22.3435718252
  0
LINE
  5
4CA
100
AcDbEntity
  8
ASSI
100
AcDbLine
 62
7
  6
CONTINUOUS
 10
3.5844887901
 20
-20.6207920809
 11
3.5667479733
 21
-20.629210803
  0
LINE
  5
4CB
100
AcDbEntity
  8
ASSI
100
AcDbLine
 62
250
  6
CONTINUOUS
 10
3.3213552504
 20
-22.2364856889
 11
1.6994551238
 21
-22.9855329153
  0
LINE
  5
4CC
100
AcDbEntity
  8
ASSI
100
AcDbLine
 62
7
  6
CONTINUOUS
 10
1.6441468969
 20
-23.0952772469
 11
3.2672366335
 21
-22.3456811025
  0
LWPOLYLINE
  5
4CD
100
AcDbEntity
  8
ASSI
100
AcDbPolyline
 62
250
  6
CONTINUOUS
 90
28
 70
0
 10
1.6994551238
 20
-22.9855329153
 10
1.6976909324
 20
-22.9863094442
 10
1.6958965641
 20
-22.9869750879
 10
1.6940720189
 20
-22.9875298466
 10
1.6922059856
 20
-22.9879838794
 10
1.6903097754
 20
-22.9883270271
 10
1.6884173222
 20
-22.9885288121
 10
1.6865280062
 20
-22.9885846474
 10
1.6846424471
 20
-22.9884991199
 10
1.6827964381
 20
-22.9882555133
 10
1.6809910197
 20
-22.9878484382
 10
1.6792251514
 20
-22.987283284
 10
1.6775315047
 20
-22.9865595022
 10
1.6759133318
 20
-22.9856731509
 10
1.6743673807
 20
-22.9846281719
 10
1.6729165665
 20
-22.9834358432
 10
1.6715637817
 20
-22.9820945671
 10
1.6703061339
 20
-22.9806059411
 10
1.6691578614
 20
-22.9789860362
 10
1.6681203946
 20
-22.9772335245
 10
1.6671923031
 20
-22.9753497339
 10
1.6663835347
 20
-22.9733547186
 10
1.6656954108
 20
-22.9712471932
 10
1.6651266101
 20
-22.9690284432
 10
1.6646831164
 20
-22.966722379
 10
1.6643669243
 20
-22.9643369708
 10
1.6641760392
 20
-22.9618642485
 10
1.6641104611
 20
-22.9593042121
  0
LINE
  5
4CE
100
AcDbEntity
  8
ASSI
100
AcDbLine
 62
250
  6
CONTINUOUS
 10
2.6218294442
 20
-20.8008157026
 11
3.7102639801
 21
-20.352452501
  0
LINE
  5
4CF
100
AcDbEntity
  8
ASSI
100
AcDbLine
 62
7
  6
CONTINUOUS
 10
2.4794512221
 20
-21.0771051634
 11
3.5667002281
 21
-20.6292303219
  0
LINE
  5
4D0
100
AcDbEntity
  8
RACCORDO
100
AcDbLine
 62
250
  6
CONTINUOUS
 10
0.188430067
 20
-21.8263897059
 11
-3.1669992954
 21
-23.1030992352
  0
LINE
  5
4D1
100
AcDbEntity
  8
RACCORDO
100
AcDbLine
 62
7
  6
CONTINUOUS
 10
-3.3335741049
 20
-23.3897445443
 11
0.0257756373
 21
-22.1115434619
  0
LWPOLYLINE
  5
4D2
100
AcDbEntity
  8
RACCORDO
100
AcDbPolyline
 62
250
  6
CONTINUOUS
 90
22
 70
0
 10
-3.1669992954
 20
-23.1030992352
 10
-3.2034028003
 20
-23.1153628259
 10
-3.2391093619
 20
-23.1243186536
 10
-3.2741189802
 20
-23.1299667184
 10
-3.3086207262
 20
-23.1323083442
 10
-3.3424255288
 20
-23.1313422071
 10
-3.3749661749
 20
-23.1270643349
 10
-3.4062066729
 20
-23.1194172755
 10
-3.4361830144
 20
-23.1084584809
 10
-3.4644359611
 20
-23.0943563356
 10
-3.4909388704
 20
-23.0770607215
 10
-3.5157183849
 20
-23.0566217566
 10
-3.5383951944
 20
-23.0333581785
 10
-3.5589347832
 20
-23.007227599
 10
-3.5773716669
 20
-22.9782724064
 10
-3.5934300819
 20
-22.946938503
 10
-3.6070739277
 20
-22.9131703814
 10
-3.6183393048
 20
-22.8770235491
 10
-3.6270587509
 20
-22.839110431
 10
-3.6331764452
 20
-22.7996351689
 10
-3.6367482085
 20
-22.758393621
 10
-3.6377740408
 20
-22.7153857873
  0
LWPOLYLINE
  5
4D3
100
AcDbEntity
  8
ASSI
100
AcDbPolyline
 62
7
  6
CONTINUOUS
 90
4
 70
0
 10
1.0044793735
 20
21.1708379283
 10
1.0219897941
 20
21.1693591014
 10
1.040129298
 20
21.1647065172
 10
1.0585920115
 20
21.1569620152
  0
LINE
  5
4D4
100
AcDbEntity
  8
ASSI
100
AcDbLine
 62
7
  6
CONTINUOUS
 10
-11.245044442
 20
24.4294667222
 11
-11.7877705047
 21
24.5445960398
  0
LINE
  5
4D5
100
AcDbEntity
  8
ASSI
100
AcDbLine
 62
250
  6
CONTINUOUS
 10
-10.1675962054
 20
24.7657034556
 11
-10.9044040096
 21
24.9220036325
  0
LINE
  5
4D6
100
AcDbEntity
  8
ASSI
100
AcDbLine
 62
7
  6
CONTINUOUS
 10
-11.0849210475
 20
24.798308748
 11
-10.4440221495
 21
24.6623538447
  0
LWPOLYLINE
  5
4D7
100
AcDbEntity
  8
ASSI
100
AcDbPolyline
 62
250
  6
CONTINUOUS
 90
19
 70
0
 10
-10.9044040096
 20
24.9220036325
 10
-10.9059450467
 20
24.9223758242
 10
-10.9074609408
 20
24.9228930234
 10
-10.908951692
 20
24.9235552303
 10
-10.9104295303
 20
24.9243585713
 10
-10.9118822257
 20
24.9253069199
 10
-10.9132730878
 20
24.9264118965
 10
-10.91460096
 20
24.9276788542
 10
-10.915866999
 20
24.92910244
 10
-10.917037985
 20
24.9306782148
 10
-10.9181112946
 20
24.9324116506
 10
-10.9190895512
 20
24.9342972755
 10
-10.9199474052
 20
24.936314235
 10
-10.9206810411
 20
24.9384671787
 10
-10.9212942744
 20
24.9407514569
 10
-10.9217732017
 20
24.9431322665
 10
-10.9221131885
 20
24.9455980064
 10
-10.9223188693
 20
24.9481602776
 10
-10.922390244
 20
24.9508190802
  0
LWPOLYLINE
  5
4D8
100
AcDbEntity
  8
ASSI
100
AcDbPolyline
 62
7
  6
CONTINUOUS
 90
10
 70
0
 10
1.6987577744
 20
21.4184197405
 10
1.6777154778
 20
21.4261961112
 10
1.6558405554
 20
21.4318188805
 10
1.6333600957
 20
21.4351936065
 10
1.6104290833
 20
21.4362517558
 10
1.5872894465
 20
21.4349343532
 10
1.564262666
 20
21.4312291991
 10
1.5415687295
 20
21.4251560586
 10
1.5194109399
 20
21.4167552485
 10
1.5152345443
 20
21.4148800678
  0
LWPOLYLINE
  5
4D9
100
AcDbEntity
  8
RACCORDO
100
AcDbPolyline
 62
250
  6
CONTINUOUS
 90
8
 70
0
 10
-0.0680698771
 20
23.1315746291
 10
-0.0868945501
 20
23.1387206897
 10
-0.1047482105
 20
23.1432773414
 10
-0.1213309545
 20
23.1451680422
 10
-0.1363642274
 20
23.1443610322
 10
-0.149595502
 20
23.1408698677
 10
-0.1608025211
 20
23.1347531927
 10
-0.1648702481
 20
23.1314143892
  0
LWPOLYLINE
  5
4DA
100
AcDbEntity
  8
SUPERFICI
100
AcDbPolyline
 62
250
  6
CONTINUOUS
 90
8
 70
0
 10
-0.0680698771
 20
23.1315746291
 10
-0.0868945501
 20
23.1387206897
 10
-0.1047482105
 20
23.1432773414
 10
-0.1213309545
 20
23.1451680422
 10
-0.1363642274
 20
23.1443610322
 10
-0.149595502
 20
23.1408698677
 10
-0.1608025211
 20
23.1347531927
 10
-0.1648702481
 20
23.1314143892
  0
LWPOLYLINE
  5
4DB
100
AcDbEntity
  8
ASSI
100
AcDbPolyline
 62
7
  6
CONTINUOUS
 90
6
 70
0
 10
-11.5279086936
 20
27.4502123678
 10
-11.546359962
 20
27.4579625923
 10
-11.5645023591
 20
27.4626137299
 10
-11.5820213316
 20
27.4640882809
 10
-11.5986125303
 20
27.4623633391
 10
-11.6152477336
 20
27.4569021992
  0
LWPOLYLINE
  5
4DC
100
AcDbEntity
  8
ASSI
100
AcDbPolyline
 62
250
  6
CONTINUOUS
 90
6
 70
0
 10
1.6013180742
 20
21.4076108963
 10
1.5831661419
 20
21.4154998746
 10
1.5652824598
 20
21.4202708273
 10
1.5479729039
 20
21.4218421536
 10
1.5315335311
 20
21.4201869781
 10
1.5152345231
 20
21.4148801143
  0
LWPOLYLINE
  5
4DD
100
AcDbEntity
  8
RACCORDO
100
AcDbPolyline
 62
7
  6
CONTINUOUS
 90
16
 70
0
 10
-0.9469348454
 20
22.772202664
 10
-0.9699025684
 20
22.78250925
 10
-0.994283643
 20
22.7914640899
 10
-1.0200780692
 20
22.7990671837
 10
-1.0475768901
 20
22.8053683544
 10
-1.0764890626
 20
22.810317779
 10
-1.1059414577
 20
22.813765988
 10
-1.1359505557
 20
22.8156671846
 10
-1.1664998764
 20
22.8160671657
 10
-1.1966668499
 20
22.814953852
 10
-1.2264398121
 20
22.8122810783
 10
-1.2558304272
 20
22.8080950098
 10
-1.2839511175
 20
22.8025220632
 10
-1.3105060237
 20
22.7956043772
 10
-1.3357910051
 20
22.787299813
 10
-1.3598060617
 20
22.7776083706
  0
LWPOLYLINE
  5
4DE
100
AcDbEntity
  8
SUPERFICI
100
AcDbPolyline
 62
7
  6
CONTINUOUS
 90
16
 70
0
 10
-0.9469348454
 20
22.772202664
 10
-0.9699025684
 20
22.78250925
 10
-0.994283643
 20
22.7914640899
 10
-1.0200780692
 20
22.7990671837
 10
-1.0475768901
 20
22.8053683544
 10
-1.0764890626
 20
22.810317779
 10
-1.1059414577
 20
22.813765988
 10
-1.1359505557
 20
22.8156671846
 10
-1.1664998764
 20
22.8160671657
 10
-1.1966668499
 20
22.814953852
 10
-1.2264398121
 20
22.8122810783
 10
-1.2558304272
 20
22.8080950098
 10
-1.2839511175
 20
22.8025220632
 10
-1.3105060237
 20
22.7956043772
 10
-1.3357910051
 20
22.787299813
 10
-1.3598060617
 20
22.7776083706
  0
LINE
  5
4DF
100
AcDbEntity
  8
ASSI
100
AcDbLine
 62
7
  6
CONTINUOUS
 10
-10.8758088672
 20
27.7061231254
 11
-10.8900910744
 21
27.7126604788
  0
LINE
  5
4E0
100
AcDbEntity
  8
ASSI
100
AcDbLine
 62
7
  6
CONTINUOUS
 10
1.7106803518
 20
21.4128784133
 11
1.6987577744
 21
21.4184197405
  0
LINE
  5
4E1
100
AcDbEntity
  8
RACCORDO
100
AcDbLine
 62
250
  6
CONTINUOUS
 10
-0.5031641977
 20
24.6977225252
 11
-0.4997233682
 21
24.6961092583
  0
LINE
  5
4E2
100
AcDbEntity
  8
SUPERFICI
100
AcDbLine
 62
250
  6
CONTINUOUS
 10
-0.5031641977
 20
24.6977225252
 11
-0.4997233682
 21
24.6961092583
  0
LWPOLYLINE
  5
4E3
100
AcDbEntity
  8
ASSI
100
AcDbPolyline
 62
250
  6
CONTINUOUS
 90
13
 70
0
 10
3.8123926372
 20
20.362023557
 10
3.8091980736
 20
20.3635453857
 10
3.800862778
 20
20.3668516929
 10
3.7921893199
 20
20.3693702452
 10
3.7832077486
 20
20.3710938796
 10
3.7739499911
 20
20.3720179695
 10
3.7644448837
 20
20.3721408694
 10
3.7547253735
 20
20.3714628209
 10
3.7448249661
 20
20.3699868005
 10
3.7347739266
 20
20.3677177438
 10
3.7246054425
 20
20.3646628841
 10
3.7143557004
 20
20.3608326547
 10
3.7040598999
 20
20.3562399834
  0
LWPOLYLINE
  5
4E4
100
AcDbEntity
  8
ASSI
100
AcDbPolyline
 62
250
  6
CONTINUOUS
 90
13
 70
0
 10
1.7104203067
 20
21.4130097224
 10
1.7091494129
 20
21.4136333852
 10
1.7006734309
 20
21.4172178192
 10
1.6918301658
 20
21.4199878697
 10
1.6826530162
 20
21.4219331532
 10
1.6731728175
 20
21.4230472138
 10
1.6634243151
 20
21.42332574
 10
1.6534418443
 20
21.4227677057
 10
1.6432613987
 20
21.421375092
 10
1.6329216214
 20
21.4191532203
 10
1.6224602421
 20
21.4161106868
 10
1.6119138311
 20
21.412258801
 10
1.6013199997
 20
21.4076118114
  0
LINE
  5
4E5
100
AcDbEntity
  8
ASSI
100
AcDbLine
 62
250
  6
CONTINUOUS
 10
3.7040598999
 20
20.3562399834
 11
1.6013200266
 21
21.407611798
  0
LINE
  5
4E6
100
AcDbEntity
  8
ASSI
100
AcDbLine
 62
250
  6
CONTINUOUS
 10
-8.8824408052
 20
26.649490336
 11
-10.9851826309
 21
27.7008612489
  0
LINE
  5
4E7
100
AcDbEntity
  8
RACCORDO
100
AcDbLine
 62
7
  6
CONTINUOUS
 10
-0.6910180799
 20
22.6442442812
 11
-0.9469348454
 21
22.772202664
  0
LINE
  5
4E8
100
AcDbEntity
  8
SUPERFICI
100
AcDbLine
 62
7
  6
CONTINUOUS
 10
-0.6910180799
 20
22.6442442812
 11
-0.9469348454
 21
22.772202664
  0
LINE
  5
4E9
100
AcDbEntity
  8
RACCORDO
100
AcDbLine
 62
250
  6
CONTINUOUS
 10
-0.9469348454
 20
23.7547873238
 11
-0.1885292468
 21
23.3755845245
  0
LINE
  5
4EA
100
AcDbEntity
  8
SUPERFICI
100
AcDbLine
 62
250
  6
CONTINUOUS
 10
-0.9469348454
 20
23.7547873238
 11
-0.1885292468
 21
23.3755845245
  0
LINE
  5
4EB
100
AcDbEntity
  8
RACCORDO
100
AcDbLine
 62
250
  6
CONTINUOUS
 10
-0.8444944979
 20
23.9725029072
 11
-0.0860888992
 21
23.5933001079
  0
LINE
  5
4EC
100
AcDbEntity
  8
SUPERFICI
100
AcDbLine
 62
250
  6
CONTINUOUS
 10
-0.8444944979
 20
23.9725029072
 11
-0.0860888992
 21
23.5933001079
  0
LINE
  5
4ED
100
AcDbEntity
  8
RACCORDO
100
AcDbLine
 62
7
  6
CONTINUOUS
 10
-1.5576815389
 20
24.5728542885
 11
1.08028865
 21
23.253869194
  0
LINE
  5
4EE
100
AcDbEntity
  8
SUPERFICI
100
AcDbLine
 62
7
  6
CONTINUOUS
 10
-1.5576815389
 20
24.5728542885
 11
1.08028865
 21
23.253869194
  0
LINE
  5
4EF
100
AcDbEntity
  8
RACCORDO
100
AcDbLine
 62
250
  6
CONTINUOUS
 10
1.6962406908
 20
23.5489530357
 11
-0.5879391269
 21
24.6910429445
  0
LINE
  5
4F0
100
AcDbEntity
  8
SUPERFICI
100
AcDbLine
 62
250
  6
CONTINUOUS
 10
1.6962406908
 20
23.5489530357
 11
-0.5879391269
 21
24.6910429445
  0
LINE
  5
4F1
100
AcDbEntity
  8
RACCORDO
100
AcDbLine
 62
7
  6
CONTINUOUS
 10
3.0218609504
 20
22.9353170995
 11
2.98518946
 21
22.9536528447
  0
LINE
  5
4F2
100
AcDbEntity
  8
SUPERFICI
100
AcDbLine
 62
7
  6
CONTINUOUS
 10
3.0218609504
 20
22.9353170995
 11
2.98518946
 21
22.9536528447
  0
LINE
  5
4F3
100
AcDbEntity
  8
RACCORDO
100
AcDbLine
 62
7
  6
CONTINUOUS
 10
1.7464661275
 20
23.5730145109
 11
-0.4997305263
 21
24.6961128378
  0
LINE
  5
4F4
100
AcDbEntity
  8
SUPERFICI
100
AcDbLine
 62
7
  6
CONTINUOUS
 10
1.7464661275
 20
23.5730145109
 11
-0.4997305263
 21
24.6961128378
  0
LINE
  5
4F5
100
AcDbEntity
  8
ASSI
100
AcDbLine
 62
7
  6
CONTINUOUS
 10
-10.8760851535
 20
27.7062624526
 11
-8.7740259311
 21
26.6552327978
  0
LINE
  5
4F6
100
AcDbEntity
  8
ASSI
100
AcDbLine
 62
7
  6
CONTINUOUS
 10
3.8125042602
 20
20.3619676618
 11
1.7104146518
 21
21.4130125499
  0
LINE
  5
4F7
100
AcDbEntity
  8
SUPERFICI
100
AcDbLine
 62
250
  6
CONTINUOUS
 10
-0.4997123933
 20
24.6961037683
 11
-0.4961634589
 21
24.6942074607
  0
LWPOLYLINE
  5
4F8
100
AcDbEntity
  8
RACCORDO
100
AcDbPolyline
 62
250
  6
CONTINUOUS
 90
15
 70
0
 10
-0.0860888992
 20
23.5933001079
 10
-0.0525069228
 20
23.5740569819
 10
-0.0231903347
 20
23.5524335791
 10
0.001860865
 20
23.5284298993
 10
0.022850057
 20
23.5017975506
 10
0.0395738607
 20
23.4727849251
 10
0.0514221338
 20
23.4421371986
 10
0.0582789275
 20
23.409777251
 10
0.0602601905
 20
23.3757822025
 10
0.0571036277
 20
23.3411285903
 10
0.0486408884
 20
23.3057625016
 10
0.0350403233
 20
23.2697378492
 10
0.0165446885
 20
23.2341929083
 10
-0.0067650971
 20
23.1995071038
 10
-0.0349699523
 20
23.1653010107
  0
LWPOLYLINE
  5
4F9
100
AcDbEntity
  8
SUPERFICI
100
AcDbPolyline
 62
250
  6
CONTINUOUS
 90
15
 70
0
 10
-0.0860888992
 20
23.5933001079
 10
-0.0525069228
 20
23.5740569819
 10
-0.0231903347
 20
23.5524335791
 10
0.001860865
 20
23.5284298993
 10
0.022850057
 20
23.5017975506
 10
0.0395738607
 20
23.4727849251
 10
0.0514221338
 20
23.4421371986
 10
0.0582789275
 20
23.409777251
 10
0.0602601905
 20
23.3757822025
 10
0.0571036277
 20
23.3411285903
 10
0.0486408884
 20
23.3057625016
 10
0.0350403233
 20
23.2697378492
 10
0.0165446885
 20
23.2341929083
 10
-0.0067650971
 20
23.1995071038
 10
-0.0349699523
 20
23.1653010107
  0
LWPOLYLINE
  5
4FA
100
AcDbEntity
  8
ASSI
100
AcDbPolyline
 62
250
  6
CONTINUOUS
 90
13
 70
0
 10
-2.9149168683
 20
26.604042723
 10
-2.8922628289
 20
26.5908894513
 10
-2.8700343092
 20
26.5743468829
 10
-2.8485990711
 20
26.5546885641
 10
-2.8283117955
 20
26.5322396303
 10
-2.8095081514
 20
26.5073713654
 10
-2.7924992564
 20
26.4804950401
 10
-2.7775665841
 20
26.452055171
 10
-2.764957361
 20
26.4225223254
 10
-2.7548803835
 20
26.3923852702
 10
-2.7475024906
 20
26.3621427133
 10
-2.742945839
 20
26.3322950399
 10
-2.7412859254
 20
26.3033361757
  0
LWPOLYLINE
  5
4FB
100
AcDbEntity
  8
RACCORDO
100
AcDbPolyline
 62
250
  6
CONTINUOUS
 90
9
 70
0
 10
-0.1885292468
 20
23.3755845245
 10
-0.1686480704
 20
23.3639705337
 10
-0.1509863386
 20
23.3502260516
 10
-0.1357347636
 20
23.3344613662
 10
-0.1230701799
 20
23.3167676038
 10
-0.1131264841
 20
23.2973033187
 10
-0.1060118709
 20
23.2762899667
 10
-0.1018354543
 20
23.2538253535
 10
-0.1006613175
 20
23.2332236026
  0
LWPOLYLINE
  5
4FC
100
AcDbEntity
  8
SUPERFICI
100
AcDbPolyline
 62
250
  6
CONTINUOUS
 90
9
 70
0
 10
-0.1885292468
 20
23.3755845245
 10
-0.1686480704
 20
23.3639705337
 10
-0.1509863386
 20
23.3502260516
 10
-0.1357347636
 20
23.3344613662
 10
-0.1230701799
 20
23.3167676038
 10
-0.1131264841
 20
23.2973033187
 10
-0.1060118709
 20
23.2762899667
 10
-0.1018354543
 20
23.2538253535
 10
-0.1006613175
 20
23.2332236026
  0
LINE
  5
4FD
100
AcDbEntity
  8
DRAFT
100
AcDbLine
 62
7
  6
CONTINUOUS
 10
11.235413801
 20
20.3198162553
 11
10.482719717
 21
21.6180215164
  0
LINE
  5
4FE
100
AcDbEntity
  8
SUPERFICI
100
AcDbLine
 62
7
  6
CONTINUOUS
 10
11.235413801
 20
20.3198162553
 11
10.482719717
 21
21.6180215164
  0
LWPOLYLINE
  5
4FF
100
AcDbEntity
  8
ASSI
100
AcDbPolyline
 62
7
  6
CONTINUOUS
 90
3
 70
0
 10
6.0090884321
 20
24.5905474495
 10
5.951564442
 20
24.5759382414
 10
5.8937362671
 20
24.5558676152
  0
LWPOLYLINE
  5
500
100
AcDbEntity
  8
RACCORDO
100
AcDbPolyline
 62
7
  6
CONTINUOUS
 90
17
 70
0
 10
5.6862417003
 20
24.4587833938
 10
5.6240838481
 20
24.4529679359
 10
5.557586246
 20
24.4491239795
 10
5.4898100859
 20
24.4475885424
 10
5.4214362921
 20
24.4484123714
 10
5.3536234343
 20
24.4515957067
 10
5.2870560487
 20
24.4570675927
 10
5.2224241682
 20
24.4646857008
 10
5.1608524093
 20
24.4741926261
 10
5.1027923528
 20
24.4853615915
 10
5.0489007854
 20
24.4978593249
 10
5.0004123575
 20
24.5110960369
 10
4.9575876445
 20
24.5246368369
 10
4.9205475302
 20
24.5380438852
 10
4.8898950112
 20
24.5506179723
 10
4.865578958
 20
24.56182676
 10
4.8612611559
 20
24.5639609561
  0
LWPOLYLINE
  5
501
100
AcDbEntity
  8
SUPERFICI
100
AcDbPolyline
 62
7
  6
CONTINUOUS
 90
17
 70
0
 10
5.6862417003
 20
24.4587833938
 10
5.6240838481
 20
24.4529679359
 10
5.557586246
 20
24.4491239795
 10
5.4898100859
 20
24.4475885424
 10
5.4214362921
 20
24.4484123714
 10
5.3536234343
 20
24.4515957067
 10
5.2870560487
 20
24.4570675927
 10
5.2224241682
 20
24.4646857008
 10
5.1608524093
 20
24.4741926261
 10
5.1027923528
 20
24.4853615915
 10
5.0489007854
 20
24.4978593249
 10
5.0004123575
 20
24.5110960369
 10
4.9575876445
 20
24.5246368369
 10
4.9205475302
 20
24.5380438852
 10
4.8898950112
 20
24.5506179723
 10
4.865578958
 20
24.56182676
 10
4.8612611559
 20
24.5639609561
  0
LWPOLYLINE
  5
502
100
AcDbEntity
  8
ASSI
100
AcDbPolyline
 62
7
  6
CONTINUOUS
 90
5
 70
0
 10
2.6030894353
 20
23.9340806481
 10
2.5618662927
 20
23.9319698168
 10
2.5207625018
 20
23.9264196018
 10
2.481629345
 20
23.917631792
 10
2.4448642285
 20
23.9058329268
  0
LWPOLYLINE
  5
503
100
AcDbEntity
  8
RACCORDO
100
AcDbPolyline
 62
250
  6
CONTINUOUS
 90
4
 70
0
 10
5.4248504488
 20
24.3335978289
 10
5.3948031811
 20
24.3340573344
 10
5.2918169997
 20
24.3393387966
 10
5.2480686093
 20
24.3432110965
  0
LWPOLYLINE
  5
504
100
AcDbEntity
  8
SUPERFICI
100
AcDbPolyline
 62
250
  6
CONTINUOUS
 90
4
 70
0
 10
5.4248504488
 20
24.3335978289
 10
5.3948031811
 20
24.3340573344
 10
5.2918169997
 20
24.3393387966
 10
5.2480686093
 20
24.3432110965
  0
LWPOLYLINE
  5
505
100
AcDbEntity
  8
RACCORDO
100
AcDbPolyline
 62
7
  6
CONTINUOUS
 90
3
 70
0
 10
-1.6138382494
 20
24.5869868355
 10
-1.6041582391
 20
24.5866494215
 10
-1.5937470427
 20
24.5851945509
  0
LWPOLYLINE
  5
506
100
AcDbEntity
  8
SUPERFICI
100
AcDbPolyline
 62
7
  6
CONTINUOUS
 90
3
 70
0
 10
-1.6138382494
 20
24.5869868355
 10
-1.6041582391
 20
24.5866494215
 10
-1.5937470427
 20
24.5851945509
  0
LWPOLYLINE
  5
507
100
AcDbEntity
  8
ASSI
100
AcDbPolyline
 62
7
  6
CONTINUOUS
 90
4
 70
0
 10
-3.4991822313
 20
22.9863609274
 10
-3.4772942056
 20
22.9845123937
 10
-3.4546198257
 20
22.9786966634
 10
-3.4315414338
 20
22.969016036
  0
LWPOLYLINE
  5
508
100
AcDbEntity
  8
ASSI
100
AcDbPolyline
 62
7
  6
CONTINUOUS
 90
4
 70
0
 10
-7.2114928326
 20
24.842516228
 10
-7.1896048068
 20
24.8406676943
 10
-7.1669304269
 20
24.834851964
 10
-7.1438520351
 20
24.8251713366
  0
LWPOLYLINE
  5
509
100
AcDbEntity
  8
RACCORDO
100
AcDbPolyline
 62
7
  6
CONTINUOUS
 90
10
 70
0
 10
-0.6251676497
 20
24.7279895947
 10
-0.7062901081
 20
24.7397099494
 10
-0.7885637272
 20
24.7476132006
 10
-0.8713567887
 20
24.7517021641
 10
-0.9542359595
 20
24.7520004613
 10
-1.0369657895
 20
24.7485084659
 10
-1.1190165358
 20
24.7412128683
 10
-1.1998489674
 20
24.7301085693
 10
-1.2792471706
 20
24.7151285165
 10
-1.3567980008
 20
24.6961916674
  0
LWPOLYLINE
  5
50A
100
AcDbEntity
  8
SUPERFICI
100
AcDbPolyline
 62
7
  6
CONTINUOUS
 90
10
 70
0
 10
-0.6251676497
 20
24.7279895947
 10
-0.7062901081
 20
24.7397099494
 10
-0.7885637272
 20
24.7476132006
 10
-0.8713567887
 20
24.7517021641
 10
-0.9542359595
 20
24.7520004613
 10
-1.0369657895
 20
24.7485084659
 10
-1.1190165358
 20
24.7412128683
 10
-1.1998489674
 20
24.7301085693
 10
-1.2792471706
 20
24.7151285165
 10
-1.3567980008
 20
24.6961916674
  0
LWPOLYLINE
  5
50B
100
AcDbEntity
  8
ASSI
100
AcDbPolyline
 62
250
  6
CONTINUOUS
 90
12
 70
0
 10
-11.0848384539
 20
24.7982911967
 10
-11.0757402886
 20
24.7967273683
 10
-11.0555990153
 20
24.7957690716
 10
-11.0352502385
 20
24.7981639844
 10
-11.0150382808
 20
24.8038715799
 10
-10.9953051501
 20
24.8127952764
 10
-10.9763847509
 20
24.8247840717
 10
-10.958597232
 20
24.8396351014
 10
-10.9422435723
 20
24.8570970704
 10
-10.9276004892
 20
24.8768745045
 10
-10.9149157565
 20
24.8986327489
 10
-10.9044040096
 20
24.9220036325
  0
LWPOLYLINE
  5
50C
100
AcDbEntity
  8
RACCORDO
100
AcDbPolyline
 62
250
  6
CONTINUOUS
 90
13
 70
0
 10
-0.5879391269
 20
24.6910429445
 10
-0.6576613569
 20
24.7046176892
 10
-0.7284031558
 20
24.7148811904
 10
-0.8001645236
 20
24.7218334479
 10
-0.8736038999
 20
24.7254838225
 10
-0.9480628452
 20
24.7258229535
 10
-1.021566041
 20
24.7228227589
 10
-1.0940905511
 20
24.7163781972
 10
-1.1656593119
 20
24.7065943099
 10
-1.2343658131
 20
24.6937581394
 10
-1.2995745515
 20
24.6779653666
 10
-1.3619210305
 20
24.6591203105
 10
-1.4214052499
 20
24.6372229713
  0
LWPOLYLINE
  5
50D
100
AcDbEntity
  8
SUPERFICI
100
AcDbPolyline
 62
250
  6
CONTINUOUS
 90
13
 70
0
 10
-0.5879391269
 20
24.6910429445
 10
-0.6576613569
 20
24.7046176892
 10
-0.7284031558
 20
24.7148811904
 10
-0.8001645236
 20
24.7218334479
 10
-0.8736038999
 20
24.7254838225
 10
-0.9480628452
 20
24.7258229535
 10
-1.021566041
 20
24.7228227589
 10
-1.0940905511
 20
24.7163781972
 10
-1.1656593119
 20
24.7065943099
 10
-1.2343658131
 20
24.6937581394
 10
-1.2995745515
 20
24.6779653666
 10
-1.3619210305
 20
24.6591203105
 10
-1.4214052499
 20
24.6372229713
  0
LINE
  5
50E
100
AcDbEntity
  8
RACCORDO
100
AcDbLine
 62
7
  6
CONTINUOUS
 10
-0.5457439577
 20
24.7124552075
 11
-0.6251676497
 21
24.7279895947
  0
LINE
  5
50F
100
AcDbEntity
  8
SUPERFICI
100
AcDbLine
 62
7
  6
CONTINUOUS
 10
-0.5457439577
 20
24.7124552075
 11
-0.6251676497
 21
24.7279895947
  0
LWPOLYLINE
  5
510
100
AcDbEntity
  8
RACCORDO
100
AcDbPolyline
 62
7
  6
CONTINUOUS
 90
4
 70
0
 10
-1.5937470427
 20
24.5851945509
 10
-1.582626003
 20
24.5825173245
 10
-1.570809562
 20
24.578540148
 10
-1.5583404134
 20
24.5731837257
  0
LWPOLYLINE
  5
511
100
AcDbEntity
  8
SUPERFICI
100
AcDbPolyline
 62
7
  6
CONTINUOUS
 90
4
 70
0
 10
-1.5937470427
 20
24.5851945509
 10
-1.582626003
 20
24.5825173245
 10
-1.570809562
 20
24.578540148
 10
-1.5583404134
 20
24.5731837257
  0
LWPOLYLINE
  5
512
100
AcDbEntity
  8
RACCORDO
100
AcDbPolyline
 62
7
  6
CONTINUOUS
 90
7
 70
0
 10
-0.5457508153
 20
24.7124567319
 10
-0.5378901325
 20
24.7105407265
 10
-0.5287940796
 20
24.7078955834
 10
-0.5198306959
 20
24.7048216714
 10
-0.5110104129
 20
24.7013213203
 10
-0.5023529515
 20
24.6974001947
 10
-0.4997123933
 20
24.6961037683
  0
LWPOLYLINE
  5
513
100
AcDbEntity
  8
SUPERFICI
100
AcDbPolyline
 62
7
  6
CONTINUOUS
 90
7
 70
0
 10
-0.5457508153
 20
24.7124567319
 10
-0.5378901325
 20
24.7105407265
 10
-0.5287940796
 20
24.7078955834
 10
-0.5198306959
 20
24.7048216714
 10
-0.5110104129
 20
24.7013213203
 10
-0.5023529515
 20
24.6974001947
 10
-0.4997123933
 20
24.6961037683
  0
LWPOLYLINE
  5
514
100
AcDbEntity
  8
ASSI
100
AcDbPolyline
 62
7
  6
CONTINUOUS
 90
5
 70
0
 10
2.7654872881
 20
23.9085533448
 10
2.7268846209
 20
23.9199541232
 10
2.6866080919
 20
23.9280587608
 10
2.6446520371
 20
23.9328192487
 10
2.6030894353
 20
23.9340806481
  0
LWPOLYLINE
  5
515
100
AcDbEntity
  8
ASSI
100
AcDbPolyline
 62
7
  6
CONTINUOUS
 90
8
 70
0
 10
-10.8900910744
 20
27.7126604788
 10
-10.9113194205
 20
27.7202220058
 10
-10.9333616852
 20
27.7256006889
 10
-10.9559883466
 20
27.7287042969
 10
-10.9790474498
 20
27.7294668597
 10
-11.0023094645
 20
27.7278263697
 10
-11.0254316509
 20
27.7237732463
 10
-11.0481551265
 20
27.7173412924
  0
LWPOLYLINE
  5
516
100
AcDbEntity
  8
ASSI
100
AcDbPolyline
 62
250
  6
CONTINUOUS
 90
6
 70
0
 10
-3.0943810191
 20
26.6953512466
 10
-3.1170709344
 20
26.7052124696
 10
-3.1394255369
 20
26.7111761605
 10
-3.1610624815
 20
26.7131403185
 10
-3.1816116971
 20
26.7110713493
 10
-3.202285874
 20
26.7042996738
  0
LINE
  5
517
100
AcDbEntity
  8
SUPERFICI
100
AcDbLine
 62
250
  6
CONTINUOUS
 10
4.8612647175
 20
24.5639680869
 11
4.8613357782
 21
24.5639325671
  0
LINE
  5
518
100
AcDbEntity
  8
ASSI
100
AcDbLine
 62
7
  6
CONTINUOUS
 10
3.3845527835
 20
23.3281530388
 11
2.9886975336
 21
23.5260806638
  0
LINE
  5
519
100
AcDbEntity
  8
ASSI
100
AcDbLine
 62
7
  6
CONTINUOUS
 10
2.3329228098
 20
23.8539680257
 11
-0.2144209633
 21
25.1276399123
  0
LINE
  5
51A
100
AcDbEntity
  8
ASSI
100
AcDbLine
 62
7
  6
CONTINUOUS
 10
4.3544479254
 20
23.8209603789
 11
0.3950368032
 21
25.80066594
  0
LINE
  5
51B
100
AcDbEntity
  8
DRAFT
100
AcDbLine
 62
7
  6
CONTINUOUS
 10
10.482719717
 20
21.6180215164
 11
9.7343006236
 21
21.992231063
  0
LINE
  5
51C
100
AcDbEntity
  8
SUPERFICI
100
AcDbLine
 62
7
  6
CONTINUOUS
 10
10.482719717
 20
21.6180215164
 11
9.7343006236
 21
21.992231063
  0
LINE
  5
51D
100
AcDbEntity
  8
ASSI
100
AcDbLine
 62
7
  6
CONTINUOUS
 10
2.0711946366
 20
25.9316480829
 11
5.3443764249
 21
24.2950571888
  0
LINE
  5
51E
100
AcDbEntity
  8
RACCORDO
100
AcDbLine
 62
7
  6
CONTINUOUS
 10
4.8613357782
 20
24.5639325671
 11
2.0708047723
 21
25.95919807
  0
LINE
  5
51F
100
AcDbEntity
  8
SUPERFICI
100
AcDbLine
 62
7
  6
CONTINUOUS
 10
4.8612647175
 20
24.5639680869
 11
2.0708047723
 21
25.95919807
  0
LINE
  5
520
100
AcDbEntity
  8
ASSI
100
AcDbLine
 62
250
  6
CONTINUOUS
 10
-1.5498215857
 20
28.2664851279
 11
1.3035136966
 21
26.8398174867
  0
LINE
  5
521
100
AcDbEntity
  8
ASSI
100
AcDbLine
 62
250
  6
CONTINUOUS
 10
5.9295636591
 20
24.5267925055
 11
8.7828989414
 21
23.1001248643
  0
LWPOLYLINE
  5
522
100
AcDbEntity
  8
SUPERFICI
100
AcDbPolyline
 62
250
  6
CONTINUOUS
 90
4
 70
0
 10
4.8613357782
 20
24.5639325671
 10
4.8890594146
 20
24.5484004008
 10
4.9352306346
 20
24.5139423835
 10
4.961930526
 20
24.4862801382
  0
LINE
  5
523
100
AcDbEntity
  8
RACCORDO
100
AcDbLine
 62
7
  6
CONTINUOUS
 10
14.307857817
 20
26.1139434756
 11
14.3169732757
 21
26.0900496745
  0
LINE
  5
524
100
AcDbEntity
  8
SUPERFICI
100
AcDbLine
 62
7
  6
CONTINUOUS
 10
14.307857817
 20
26.1139434756
 11
14.3169732757
 21
26.0900496745
  0
LINE
  5
525
100
AcDbEntity
  8
ASSI
100
AcDbLine
 62
7
  6
CONTINUOUS
 10
0.3950368032
 20
25.80066594
 11
2.0123092378
 21
25.8827109199
  0
LWPOLYLINE
  5
526
100
AcDbEntity
  8
ASSI
100
AcDbPolyline
 62
7
  6
CONTINUOUS
 90
5
 70
0
 10
-3.0103290426
 20
26.7439768923
 10
-3.0509166216
 20
26.7424343838
 10
-3.0915002666
 20
26.7375681404
 10
-3.1302678605
 20
26.7295600193
 10
-3.1668246376
 20
26.7186141754
  0
LWPOLYLINE
  5
527
100
AcDbEntity
  8
RACCORDO
100
AcDbPolyline
 62
250
  6
CONTINUOUS
 90
4
 70
0
 10
4.7382401142
 20
24.5981253441
 10
4.7834326601
 20
24.5916625647
 10
4.8382787297
 20
24.5743999837
 10
4.8612647175
 20
24.5639680869
  0
LWPOLYLINE
  5
528
100
AcDbEntity
  8
SUPERFICI
100
AcDbPolyline
 62
250
  6
CONTINUOUS
 90
4
 70
0
 10
4.7382401142
 20
24.5981253441
 10
4.7834326601
 20
24.5916625647
 10
4.8382787297
 20
24.5743999837
 10
4.8612647175
 20
24.5639680869
  0
LWPOLYLINE
  5
529
100
AcDbEntity
  8
RACCORDO
100
AcDbPolyline
 62
7
  6
CONTINUOUS
 90
9
 70
0
 10
13.4442452772
 20
23.1591474909
 10
13.4381285366
 20
23.1607469886
 10
13.4283583229
 20
23.1622798024
 10
13.4180321274
 20
23.1626952468
 10
13.4072449303
 20
23.1619934743
 10
13.3962816713
 20
23.160174943
 10
13.3852373306
 20
23.1572398055
 10
13.3740169281
 20
23.1531879091
 10
13.3626204639
 20
23.1480192538
  0
LINE
  5
52A
100
AcDbEntity
  8
0
100
AcDbLine
 62
7
  6
CONTINUOUS
 10
12.0511824784
 20
22.4923002611
 11
11.6014378171
 21
22.6140480943
  0
LWPOLYLINE
  5
52B
100
AcDbEntity
  8
RACCORDO
100
AcDbPolyline
 62
7
  6
CONTINUOUS
 90
28
 70
0
 10
13.4442351409
 20
23.1591235384
 10
13.3355197943
 20
23.1904093842
 10
13.2206647514
 20
23.2197630612
 10
13.1034033274
 20
23.2460901314
 10
12.9840301626
 20
23.2693522231
 10
12.862809791
 20
23.2895227759
 10
12.7399804215
 20
23.3065820512
 10
12.6158316241
 20
23.3205058928
 10
12.490648161
 20
23.3312765618
 10
12.3646676435
 20
23.3388839615
 10
12.2381812574
 20
23.3433173402
 10
12.1114785345
 20
23.3445718949
 10
11.984796789
 20
23.3426471218
 10
11.8584255192
 20
23.3375457868
 10
11.7326559286
 20
23.3292765747
 10
11.6077263293
 20
23.3178486992
 10
11.4839274547
 20
23.303278867
 10
11.3615427023
 20
23.2855888454
 10
11.2407942661
 20
23.26479467
 10
11.121959345
 20
23.24092307
 10
11.0053235216
 20
23.2140080182
 10
10.8911119485
 20
23.1840732509
 10
10.7795967704
 20
23.151156147
 10
10.671050574
 20
23.1152995122
 10
10.5656836824
 20
23.0765278946
 10
10.4637368999
 20
23.0348750863
 10
10.3654907625
 20
22.9903943117
 10
10.2712067013
 20
22.9431369223
  0
LWPOLYLINE
  5
52C
100
AcDbEntity
  8
ASSI
100
AcDbPolyline
 62
7
  6
CONTINUOUS
 90
5
 70
0
 10
-2.8514467852
 20
26.7174396242
 10
-2.8891320977
 20
26.7288870603
 10
-2.9285010684
 20
26.7371777947
 10
-2.9695463297
 20
26.7422643377
 10
-3.0103290426
 20
26.7439768923
  0
LWPOLYLINE
  5
52D
100
AcDbEntity
  8
RACCORDO
100
AcDbPolyline
 62
7
  6
CONTINUOUS
 90
3
 70
0
 10
13.4562859589
 20
23.1543297102
 10
13.4474377486
 20
23.1580969578
 10
13.4442452772
 20
23.1591474909
  0
LWPOLYLINE
  5
52E
100
AcDbEntity
  8
ASSI
100
AcDbPolyline
 62
250
  6
CONTINUOUS
 90
10
 70
0
 10
1.7406106233
 20
26.8610687933
 10
1.6975496557
 20
26.8794106282
 10
1.6531910688
 20
26.892305925
 10
1.6069088585
 20
26.9001172388
 10
1.5589551882
 20
26.9028025608
 10
1.5095897852
 20
26.9003485848
 10
1.459085103
 20
26.8927674521
 10
1.40771752
 20
26.8801005142
 10
1.355765858
 20
26.8624181903
 10
1.3035136966
 20
26.8398174867
  0
LWPOLYLINE
  5
52F
100
AcDbEntity
  8
ASSI
100
AcDbPolyline
 62
7
  6
CONTINUOUS
 90
8
 70
0
 10
6.3631258267
 20
24.549808172
 10
6.329992529
 20
24.5649520303
 10
6.2813913933
 20
24.5821192519
 10
6.2302284771
 20
24.5944203093
 10
6.1769233162
 20
24.6015671201
 10
6.1220813332
 20
24.6033481523
 10
6.0660527205
 20
24.5996853003
 10
6.0090884321
 20
24.5905474495
  0
LINE
  5
530
100
AcDbEntity
  8
ASSI
100
AcDbLine
 62
7
  6
CONTINUOUS
 10
6.3622111648
 20
24.5502685225
 11
9.3728980873
 21
23.0449250612
  0
LINE
  5
531
100
AcDbEntity
  8
0
100
AcDbLine
 62
7
  6
CONTINUOUS
 10
10.9051911055
 20
22.4671967032
 11
10.3994941301
 21
22.7200451909
  0
LINE
  5
532
100
AcDbEntity
  8
0
100
AcDbLine
 62
7
  6
CONTINUOUS
 10
11.6014378171
 20
22.6140480943
 11
10.8944688769
 21
22.9675325643
  0
LINE
  5
533
100
AcDbEntity
  8
DRAFT
100
AcDbLine
 62
7
  6
CONTINUOUS
 10
10.9875274952
 20
23.6269549008
 11
10.5489170227
 21
23.8462601371
  0
LINE
  5
534
100
AcDbEntity
  8
SUPERFICI
100
AcDbLine
 62
7
  6
CONTINUOUS
 10
10.9875274952
 20
23.6269549008
 11
10.5489170227
 21
23.8462601371
  0
LINE
  5
535
100
AcDbEntity
  8
ASSI
100
AcDbLine
 62
7
  6
CONTINUOUS
 10
1.7407181041
 20
26.8610150318
 11
-1.2700749705
 21
28.3664115902
  0
LINE
  5
536
100
AcDbEntity
  8
RACCORDO
100
AcDbLine
 62
7
  6
CONTINUOUS
 10
14.3048140963
 20
22.7300656415
 11
14.4016396551
 21
22.6815867153
  0
LWPOLYLINE
  5
537
100
AcDbEntity
  8
RACCORDO
100
AcDbPolyline
 62
7
  6
CONTINUOUS
 90
10
 70
0
 10
14.266870029
 20
22.7427332965
 10
14.1693929754
 20
22.7927887282
 10
14.0737797735
 20
22.8417646038
 10
13.9800304236
 20
22.8896609234
 10
13.8881593423
 20
22.9364791112
 10
13.7981521129
 20
22.9822177429
 10
13.7099654849
 20
23.026872546
 10
13.6235850415
 20
23.0704420961
 10
13.5390251995
 20
23.1129278175
 10
13.4562859589
 20
23.1543297102
  0
LINE
  5
538
100
AcDbEntity
  8
RACCORDO
100
AcDbLine
 62
7
  6
CONTINUOUS
 10
14.2746284577
 20
22.7381468244
 11
14.266870029
 21
22.7427332965
  0
LWPOLYLINE
  5
539
100
AcDbEntity
  8
RACCORDO
100
AcDbPolyline
 62
250
  6
CONTINUOUS
 90
4
 70
0
 10
14.3048140963
 20
22.7300656415
 10
14.3293370867
 20
22.7095612631
 10
14.3537028483
 20
22.6882829987
 10
14.3732158106
 20
22.6704471102
  0
LWPOLYLINE
  5
53A
100
AcDbEntity
  8
RACCORDO
100
AcDbPolyline
 62
250
  6
CONTINUOUS
 90
5
 70
0
 10
14.2111774972
 20
22.7237696331
 10
14.2340379266
 20
22.7041908996
 10
14.2566154649
 20
22.6838378531
 10
14.2789101121
 20
22.6627104935
 10
14.3000534035
 20
22.6417739896
  0
LWPOLYLINE
  5
53B
100
AcDbEntity
  8
RACCORDO
100
AcDbPolyline
 62
250
  6
CONTINUOUS
 90
35
 70
0
 10
19.8390795757
 20
19.7104810412
 10
19.8506771021
 20
19.6736061207
 10
19.8706146095
 20
19.6006922492
 10
19.8869286066
 20
19.5297204988
 10
19.9005243669
 20
19.4606541638
 10
19.9115821237
 20
19.3936752945
 10
19.9201094987
 20
19.3287517931
 10
19.9267091801
 20
19.2655002299
 10
19.9315215941
 20
19.2039415416
 10
19.9345411335
 20
19.1441467359
 10
19.9361132716
 20
19.085788031
 10
19.9363294505
 20
19.0288173016
 10
19.9351985035
 20
18.9733409083
 10
19.9329206755
 20
18.9192528064
 10
19.9295595299
 20
18.8665382929
 10
19.9251369538
 20
18.8152521685
 10
19.9197820367
 20
18.765388232
 10
19.9135532972
 20
18.7169719884
 10
19.9064695291
 20
18.6700060336
 10
19.8985954454
 20
18.6244469885
 10
19.8899887612
 20
18.5803103625
 10
19.8806597256
 20
18.5375992523
 10
19.8705978071
 20
18.4962492241
 10
19.8598482154
 20
18.4562216672
 10
19.8484246607
 20
18.4175666312
 10
19.8362686914
 20
18.3803509551
 10
19.8234162479
 20
18.3445239048
 10
19.8098863601
 20
18.3101432189
 10
19.7955991676
 20
18.2774376561
 10
19.7805877097
 20
18.2463700112
 10
19.7648716114
 20
18.2169823666
 10
19.7483565271
 20
18.1896224963
 10
19.7310282491
 20
18.164408233
 10
19.7129474142
 20
18.1412272572
 10
19.6941315853
 20
18.120082724
  0
LWPOLYLINE
  5
53C
100
AcDbEntity
  8
SUPERFICI
100
AcDbPolyline
 62
250
  6
CONTINUOUS
 90
35
 70
0
 10
19.8390795757
 20
19.7104810412
 10
19.8506771021
 20
19.6736061207
 10
19.8706146095
 20
19.6006922492
 10
19.8869286066
 20
19.5297204988
 10
19.9005243669
 20
19.4606541638
 10
19.9115821237
 20
19.3936752945
 10
19.9201094987
 20
19.3287517931
 10
19.9267091801
 20
19.2655002299
 10
19.9315215941
 20
19.2039415416
 10
19.9345411335
 20
19.1441467359
 10
19.9361132716
 20
19.085788031
 10
19.9363294505
 20
19.0288173016
 10
19.9351985035
 20
18.9733409083
 10
19.9329206755
 20
18.9192528064
 10
19.9295595299
 20
18.8665382929
 10
19.9251369538
 20
18.8152521685
 10
19.9197820367
 20
18.765388232
 10
19.9135532972
 20
18.7169719884
 10
19.9064695291
 20
18.6700060336
 10
19.8985954454
 20
18.6244469885
 10
19.8899887612
 20
18.5803103625
 10
19.8806597256
 20
18.5375992523
 10
19.8705978071
 20
18.4962492241
 10
19.8598482154
 20
18.4562216672
 10
19.8484246607
 20
18.4175666312
 10
19.8362686914
 20
18.3803509551
 10
19.8234162479
 20
18.3445239048
 10
19.8098863601
 20
18.3101432189
 10
19.7955991676
 20
18.2774376561
 10
19.7805877097
 20
18.2463700112
 10
19.7648716114
 20
18.2169823666
 10
19.7483565271
 20
18.1896224963
 10
19.7310282491
 20
18.164408233
 10
19.7129474142
 20
18.1412272572
 10
19.6941315853
 20
18.120082724
  0
LINE
  5
53D
100
AcDbEntity
  8
RACCORDO
100
AcDbLine
 62
7
  6
CONTINUOUS
 10
15.2174404752
 20
23.3872185262
 11
14.4909430865
 21
23.7504672206
  0
LINE
  5
53E
100
AcDbEntity
  8
SUPERFICI
100
AcDbLine
 62
7
  6
CONTINUOUS
 10
15.2174404752
 20
23.3872185262
 11
14.4909430865
 21
23.7504672206
  0
LINE
  5
53F
100
AcDbEntity
  8
DRAFT
100
AcDbLine
 62
7
  6
CONTINUOUS
 10
15.0346108148
 20
23.494293209
 11
14.7304914309
 21
23.646352901
  0
LINE
  5
540
100
AcDbEntity
  8
SUPERFICI
100
AcDbLine
 62
7
  6
CONTINUOUS
 10
15.0346108148
 20
23.494293209
 11
14.7304914309
 21
23.646352901
  0
LINE
  5
541
100
AcDbEntity
  8
DRAFT
100
AcDbLine
 62
7
  6
CONTINUOUS
 10
17.4292108486
 20
24.1260796208
 11
14.3169732757
 21
25.6821984072
  0
LINE
  5
542
100
AcDbEntity
  8
SUPERFICI
100
AcDbLine
 62
7
  6
CONTINUOUS
 10
17.4292108486
 20
24.1260796208
 11
14.3169732757
 21
25.6821984072
  0
LWPOLYLINE
  5
543
100
AcDbEntity
  8
DRAFT
100
AcDbPolyline
 62
7
  6
CONTINUOUS
 90
10
 70
0
 10
15.0346108148
 20
23.494293209
 10
15.0031953604
 20
23.5123460213
 10
14.9711783831
 20
23.5301133237
 10
14.9385598829
 20
23.5475951163
 10
14.9053296922
 20
23.5647964829
 10
14.8714979786
 20
23.5817123397
 10
14.8370952454
 20
23.598327435
 10
14.8021316602
 20
23.6146366851
 10
14.7665970553
 20
23.6306451738
 10
14.7304914309
 20
23.646352901
  0
LWPOLYLINE
  5
544
100
AcDbEntity
  8
SUPERFICI
100
AcDbPolyline
 62
7
  6
CONTINUOUS
 90
10
 70
0
 10
15.0346108148
 20
23.494293209
 10
15.0031953604
 20
23.5123460213
 10
14.9711783831
 20
23.5301133237
 10
14.9385598829
 20
23.5475951163
 10
14.9053296922
 20
23.5647964829
 10
14.8714979786
 20
23.5817123397
 10
14.8370952454
 20
23.598327435
 10
14.8021316602
 20
23.6146366851
 10
14.7665970553
 20
23.6306451738
 10
14.7304914309
 20
23.646352901
  0
LWPOLYLINE
  5
545
100
AcDbEntity
  8
RACCORDO
100
AcDbPolyline
 62
7
  6
CONTINUOUS
 90
35
 70
0
 10
19.8390795757
 20
21.792569113
 10
19.9558531045
 20
21.7154670067
 10
20.095649778
 20
21.6109533605
 10
20.2323876337
 20
21.4964247634
 10
20.3652530772
 20
21.372708259
 10
20.4936385305
 20
21.2405614839
 10
20.6172201306
 20
21.1004940779
 10
20.735600292
 20
20.9530885742
 10
20.848354675
 20
20.7989776847
 10
20.9550302411
 20
20.6388709006
 10
21.0551872532
 20
20.4735151435
 10
21.148403197
 20
20.3036973817
 10
21.2343563196
 20
20.1300793511
 10
21.3127717012
 20
19.9532413924
 10
21.3833383762
 20
19.7738508286
 10
21.4457129586
 20
19.5927162686
 10
21.4995976946
 20
19.4106209736
 10
21.5447344177
 20
19.2283163906
 10
21.5808933204
 20
19.0465395535
 10
21.6078690644
 20
18.8660160937
 10
21.6254888697
 20
18.6873136414
 10
21.6335617709
 20
18.5113171257
 10
21.6319617091
 20
18.3391368849
 10
21.620614337
 20
18.1712209095
 10
21.5994797347
 20
18.0084439732
 10
21.5687503807
 20
17.8523503328
 10
21.5286458883
 20
17.7036083681
 10
21.4793195401
 20
17.5625154376
 10
21.4211244205
 20
17.4298493477
 10
21.3543160368
 20
17.3059519969
 10
21.2792473231
 20
17.1912928987
 10
21.1966576177
 20
17.0866952607
 10
21.1072184467
 20
16.9925679213
 10
21.0113941383
 20
16.9089873613
 10
20.9098026688
 20
16.8361384359
  0
LWPOLYLINE
  5
546
100
AcDbEntity
  8
SUPERFICI
100
AcDbPolyline
 62
7
  6
CONTINUOUS
 90
35
 70
0
 10
19.8390795757
 20
21.792569113
 10
19.9558531045
 20
21.7154670067
 10
20.095649778
 20
21.6109533605
 10
20.2323876337
 20
21.4964247634
 10
20.3652530772
 20
21.372708259
 10
20.4936385305
 20
21.2405614839
 10
20.6172201306
 20
21.1004940779
 10
20.735600292
 20
20.9530885742
 10
20.848354675
 20
20.7989776847
 10
20.9550302411
 20
20.6388709006
 10
21.0551872532
 20
20.4735151435
 10
21.148403197
 20
20.3036973817
 10
21.2343563196
 20
20.1300793511
 10
21.3127717012
 20
19.9532413924
 10
21.3833383762
 20
19.7738508286
 10
21.4457129586
 20
19.5927162686
 10
21.4995976946
 20
19.4106209736
 10
21.5447344177
 20
19.2283163906
 10
21.5808933204
 20
19.0465395535
 10
21.6078690644
 20
18.8660160937
 10
21.6254888697
 20
18.6873136414
 10
21.6335617709
 20
18.5113171257
 10
21.6319617091
 20
18.3391368849
 10
21.620614337
 20
18.1712209095
 10
21.5994797347
 20
18.0084439732
 10
21.5687503807
 20
17.8523503328
 10
21.5286458883
 20
17.7036083681
 10
21.4793195401
 20
17.5625154376
 10
21.4211244205
 20
17.4298493477
 10
21.3543160368
 20
17.3059519969
 10
21.2792473231
 20
17.1912928987
 10
21.1966576177
 20
17.0866952607
 10
21.1072184467
 20
16.9925679213
 10
21.0113941383
 20
16.9089873613
 10
20.9098026688
 20
16.8361384359
  0
LWPOLYLINE
  5
547
100
AcDbEntity
  8
RACCORDO
100
AcDbPolyline
 62
250
  6
CONTINUOUS
 90
34
 70
0
 10
19.8390795757
 20
21.713958592
 10
19.9171746665
 20
21.6584467885
 10
20.0543155364
 20
21.5489911793
 10
20.188858028
 20
21.4294657058
 10
20.3201746069
 20
21.300427857
 10
20.4476527654
 20
21.1624795087
 10
20.5706979023
 20
21.0162640981
 10
20.6887360977
 20
20.8624636194
 10
20.8012167922
 20
20.7017954373
 10
20.9076153468
 20
20.5350089499
 10
21.0074354898
 20
20.3628820944
 10
21.1002116312
 20
20.1862177196
 10
21.1855110364
 20
20.0058398387
 10
21.2629358453
 20
19.8225897849
 10
21.332124927
 20
19.637322287
 10
21.3927555647
 20
19.4509014839
 10
21.4445449602
 20
19.2641968941
 10
21.4872515532
 20
19.0780793599
 10
21.5206761483
 20
18.8934169856
 10
21.5446628438
 20
18.7110710878
 10
21.5590997591
 20
18.5318921788
 10
21.5639195564
 20
18.3567159988
 10
21.5590997548
 20
18.1863596184
 10
21.5446628352
 20
18.0216176272
 10
21.5206761354
 20
17.8632584278
 10
21.4872515361
 20
17.7120206516
 10
21.4445449388
 20
17.5686097139
 10
21.3927555392
 20
17.4336945232
 10
21.3321248974
 20
17.3079043619
 10
21.2629358117
 20
17.1918259501
 10
21.185510999
 20
17.0860007097
 10
21.1002115899
 20
16.9909222388
 10
21.0074354448
 20
16.9070340104
 10
20.9098026688
 20
16.8361384359
  0
LWPOLYLINE
  5
548
100
AcDbEntity
  8
SUPERFICI
100
AcDbPolyline
 62
250
  6
CONTINUOUS
 90
34
 70
0
 10
19.8390795757
 20
21.713958592
 10
19.9171746665
 20
21.6584467885
 10
20.0543155364
 20
21.5489911793
 10
20.188858028
 20
21.4294657058
 10
20.3201746069
 20
21.300427857
 10
20.4476527654
 20
21.1624795087
 10
20.5706979023
 20
21.0162640981
 10
20.6887360977
 20
20.8624636194
 10
20.8012167922
 20
20.7017954373
 10
20.9076153468
 20
20.5350089499
 10
21.0074354898
 20
20.3628820944
 10
21.1002116312
 20
20.1862177196
 10
21.1855110364
 20
20.0058398387
 10
21.2629358453
 20
19.8225897849
 10
21.332124927
 20
19.637322287
 10
21.3927555647
 20
19.4509014839
 10
21.4445449602
 20
19.2641968941
 10
21.4872515532
 20
19.0780793599
 10
21.5206761483
 20
18.8934169856
 10
21.5446628438
 20
18.7110710878
 10
21.5590997591
 20
18.5318921788
 10
21.5639195564
 20
18.3567159988
 10
21.5590997548
 20
18.1863596184
 10
21.5446628352
 20
18.0216176272
 10
21.5206761354
 20
17.8632584278
 10
21.4872515361
 20
17.7120206516
 10
21.4445449388
 20
17.5686097139
 10
21.3927555392
 20
17.4336945232
 10
21.3321248974
 20
17.3079043619
 10
21.2629358117
 20
17.1918259501
 10
21.185510999
 20
17.0860007097
 10
21.1002115899
 20
16.9909222388
 10
21.0074354448
 20
16.9070340104
 10
20.9098026688
 20
16.8361384359
  0
LINE
  5
549
100
AcDbEntity
  8
RACCORDO
100
AcDbLine
 62
250
  6
CONTINUOUS
 10
18.8279787012
 20
24.0078977274
 11
19.2475219122
 21
23.2842927259
  0
LINE
  5
54A
100
AcDbEntity
  8
SUPERFICI
100
AcDbLine
 62
250
  6
CONTINUOUS
 10
18.8279787012
 20
24.0078977274
 11
19.2475219122
 21
23.2842927259
  0
LINE
  5
54B
100
AcDbEntity
  8
RACCORDO
100
AcDbLine
 62
7
  6
CONTINUOUS
 10
19.2182430655
 20
24.0022879136
 11
19.5650808361
 21
23.4040812477
  0
LINE
  5
54C
100
AcDbEntity
  8
SUPERFICI
100
AcDbLine
 62
7
  6
CONTINUOUS
 10
19.2182430655
 20
24.0022879136
 11
19.5650808361
 21
23.4040812477
  0
LWPOLYLINE
  5
54D
100
AcDbEntity
  8
RACCORDO
100
AcDbPolyline
 62
250
  6
CONTINUOUS
 90
13
 70
0
 10
19.2475219122
 20
23.2842927259
 10
19.2992911616
 20
23.1907122085
 10
19.347334512
 20
23.0949927539
 10
19.3914462345
 20
22.9975442475
 10
19.4314374357
 20
22.8987839783
 10
19.4671368669
 20
22.7991348534
 10
19.4983916573
 20
22.6990235866
 10
19.5250679689
 20
22.5988788699
 10
19.5470515698
 20
22.4991295383
 10
19.5642483226
 20
22.4002027349
 10
19.5765845883
 20
22.3025220797
 10
19.5840075415
 20
22.2065058558
 10
19.586485396
 20
22.1125652195
  0
LWPOLYLINE
  5
54E
100
AcDbEntity
  8
SUPERFICI
100
AcDbPolyline
 62
250
  6
CONTINUOUS
 90
13
 70
0
 10
19.2475219122
 20
23.2842927259
 10
19.2992911616
 20
23.1907122085
 10
19.347334512
 20
23.0949927539
 10
19.3914462345
 20
22.9975442475
 10
19.4314374357
 20
22.8987839783
 10
19.4671368669
 20
22.7991348534
 10
19.4983916573
 20
22.6990235866
 10
19.5250679689
 20
22.5988788699
 10
19.5470515698
 20
22.4991295383
 10
19.5642483226
 20
22.4002027349
 10
19.5765845883
 20
22.3025220797
 10
19.5840075415
 20
22.2065058558
 10
19.586485396
 20
22.1125652195
  0
LINE
  5
54F
100
AcDbEntity
  8
RACCORDO
100
AcDbLine
 62
250
  6
CONTINUOUS
 10
18.8279787012
 20
24.0078977274
 11
18.0223067651
 21
24.4107336954
  0
LINE
  5
550
100
AcDbEntity
  8
SUPERFICI
100
AcDbLine
 62
250
  6
CONTINUOUS
 10
18.8279787012
 20
24.0078977274
 11
18.0223067651
 21
24.4107336954
  0
LINE
  5
551
100
AcDbEntity
  8
RACCORDO
100
AcDbLine
 62
250
  6
CONTINUOUS
 10
13.320643686
 20
26.761565235
 11
12.3494848524
 21
27.2471446518
  0
LINE
  5
552
100
AcDbEntity
  8
SUPERFICI
100
AcDbLine
 62
250
  6
CONTINUOUS
 10
13.320643686
 20
26.761565235
 11
12.3494848524
 21
27.2471446518
  0
LINE
  5
553
100
AcDbEntity
  8
SUPERFICI
100
AcDbLine
 62
250
  6
CONTINUOUS
 10
12.7408558659
 20
27.2672789375
 11
12.7408882204
 21
27.26726276
  0
LINE
  5
554
100
AcDbEntity
  8
RACCORDO
100
AcDbLine
 62
7
  6
CONTINUOUS
 10
19.1582540788
 20
24.0585798315
 11
18.3324951786
 21
24.4714592816
  0
LINE
  5
555
100
AcDbEntity
  8
SUPERFICI
100
AcDbLine
 62
7
  6
CONTINUOUS
 10
19.1582540788
 20
24.0585798315
 11
18.3324951786
 21
24.4714592816
  0
LINE
  5
556
100
AcDbEntity
  8
RACCORDO
100
AcDbLine
 62
7
  6
CONTINUOUS
 10
13.7932264576
 20
26.7410936421
 11
12.7408704449
 21
27.2672716485
  0
LINE
  5
557
100
AcDbEntity
  8
SUPERFICI
100
AcDbLine
 62
7
  6
CONTINUOUS
 10
13.7932264576
 20
26.7410936421
 11
12.7408704449
 21
27.2672716485
  0
LWPOLYLINE
  5
558
100
AcDbEntity
  8
RACCORDO
100
AcDbPolyline
 62
7
  6
CONTINUOUS
 90
4
 70
0
 10
19.1601796307
 20
24.0576168582
 10
19.1738231067
 20
24.0498021164
 10
19.1973588032
 20
24.0304298379
 10
19.217536946
 20
24.0035520064
  0
LWPOLYLINE
  5
559
100
AcDbEntity
  8
SUPERFICI
100
AcDbPolyline
 62
7
  6
CONTINUOUS
 90
4
 70
0
 10
19.1601796307
 20
24.0576168582
 10
19.1738231067
 20
24.0498021164
 10
19.1973588032
 20
24.0304298379
 10
19.217536946
 20
24.0035520064
  0
LWPOLYLINE
  5
55A
100
AcDbEntity
  8
RACCORDO
100
AcDbPolyline
 62
250
  6
CONTINUOUS
 90
12
 70
0
 10
19.5650808361
 20
23.4040812477
 10
19.5637216994
 20
23.4056783617
 10
19.5558027813
 20
23.4081999648
 10
19.5421581888
 20
23.4073311556
 10
19.5228894721
 20
23.4030784003
 10
19.4981400392
 20
23.39547335
 10
19.4680940882
 20
23.3845726055
 10
19.4329752367
 20
23.3704572958
 10
19.3930448577
 20
23.3532324747
 10
19.3486001338
 20
23.3330263384
 10
19.2999718458
 20
23.3099892714
 10
19.2475219111
 20
23.2842927277
  0
LWPOLYLINE
  5
55B
100
AcDbEntity
  8
SUPERFICI
100
AcDbPolyline
 62
250
  6
CONTINUOUS
 90
12
 70
0
 10
19.5650808361
 20
23.4040812477
 10
19.5637216994
 20
23.4056783617
 10
19.5558027813
 20
23.4081999648
 10
19.5421581888
 20
23.4073311556
 10
19.5228894721
 20
23.4030784003
 10
19.4981400392
 20
23.39547335
 10
19.4680940882
 20
23.3845726055
 10
19.4329752367
 20
23.3704572958
 10
19.3930448577
 20
23.3532324747
 10
19.3486001338
 20
23.3330263384
 10
19.2999718458
 20
23.3099892714
 10
19.2475219111
 20
23.2842927277
  0
ELLIPSE
  5
55C
100
AcDbEntity
  8
RACCORDO
100
AcDbEllipse
 62
7
  6
CONTINUOUS
 10
-0.1652318355
 20
-21.6492496617
 30
0.0
 11
-0.1999840611
 21
0.4586318226
 31
0.0
 40
0.6372798266
 41
-3.1718451134
 42
-2.2231487507
  0
ELLIPSE
  5
55D
100
AcDbEntity
  8
RACCORDO
100
AcDbEllipse
 62
7
  6
CONTINUOUS
 10
1.4334626117
 20
16.5108262918
 30
0.0
 11
-0.1996736685
 21
0.4584064956
 31
0.0
 40
0.6381227599
 41
-2.2220345828
 42
-0.6519234887
  0
ELLIPSE
  5
55E
100
AcDbEntity
  8
RACCORDO
100
AcDbEllipse
 62
7
  6
CONTINUOUS
 10
-13.4155374023
 20
23.9353262988
 30
0.0
 11
-0.1999840611
 21
0.4586318226
 31
0.0
 40
0.6372798266
 41
-0.6516671913
 42
0.029873806
  0
ELLIPSE
  5
55F
100
AcDbEntity
  8
DRAFT
100
AcDbEllipse
 62
7
  6
CONTINUOUS
 10
12.2662560324
 20
22.7632125951
 30
0.0
 11
2.7499350056
 21
-0.0386453369
 31
0.0
 40
0.4892375088
 41
8.654981679
 42
9.2672200839
  0
ELLIPSE
  5
560
100
AcDbEntity
  8
DRAFT
100
AcDbEllipse
 62
7
  6
CONTINUOUS
 10
12.9380074746
 20
22.6517149111
 30
0.0
 11
2.7583300471
 21
-0.038763314
 31
0.0
 40
0.4892375088
 41
0.9280596999
 42
2.3630697256
  0
ELLIPSE
  5
561
100
AcDbEntity
  8
RACCORDO
100
AcDbEllipse
 62
7
  6
CONTINUOUS
 10
17.6437217057
 20
23.8096154282
 30
0.0
 11
0.716172246
 21
0.6416715914
 31
0.0
 40
0.2882345029
 41
0.1142323894
 42
0.7807533904
  0
ELLIPSE
  5
562
100
AcDbEntity
  8
DRAFT
100
AcDbEllipse
 62
7
  6
CONTINUOUS
 10
12.9380074746
 20
22.6517149111
 30
0.0
 11
2.7583300471
 21
-0.038763314
 31
0.0
 40
0.4892375088
 41
0.4291477653
 42
0.6564870977
  0
ELLIPSE
  5
563
100
AcDbEntity
  8
DRAFT
100
AcDbEllipse
 62
7
  6
CONTINUOUS
 10
12.9380074746
 20
24.5964256224
 30
0.0
 11
2.7583515655
 21
-1.4175703156
 31
0.0
 40
0.0109499087
 41
-0.9155571536
 42
-0.85781018
  0
ELLIPSE
  5
564
100
AcDbEntity
  8
DRAFT
100
AcDbEllipse
 62
7
  6
CONTINUOUS
 10
12.9380074746
 20
24.5964256224
 30
0.0
 11
2.7583515655
 21
-1.4175703156
 31
0.0
 40
0.0109499087
 41
-0.7017315251
 42
-0.6439845515
  0
ELLIPSE
  5
565
100
AcDbEntity
  8
0
100
AcDbEllipse
 62
7
  6
CONTINUOUS
 10
12.2425172134
 20
23.9449747278
 30
0.0
 11
3.3311333813
 21
-0.0467042088
 31
0.0
 40
0.4892378494
 41
2.3616770883
 42
5.5059722822
  0
ELLIPSE
  5
566
100
AcDbEntity
  8
DRAFT
100
AcDbEllipse
 62
7
  6
CONTINUOUS
 10
12.9380074746
 20
23.084727613
 30
0.0
 11
2.7583300471
 21
-0.038763314
 31
0.0
 40
0.4892375088
 41
0.1708839954
 42
2.3630697256
  0
ELLIPSE
  5
567
100
AcDbEntity
  8
RACCORDO
100
AcDbEllipse
 62
7
  6
CONTINUOUS
 10
13.6770154586
 20
25.7929685517
 30
0.0
 11
-0.2796057293
 21
0.9974617846
 31
0.0
 40
0.6760995073
 41
4.8467711056
 42
6.4001141399
  0
ELLIPSE
  5
568
100
AcDbEntity
  8
ASSI
100
AcDbEllipse
 62
7
  6
CONTINUOUS
 10
4.0514209198
 20
-19.8007419037
 30
0.0
 11
-0.2237009107
 21
0.4473351135
 31
0.0
 40
0.6121897086
 41
-3.1230684064
 42
-2.2557347926
  0
ELLIPSE
  5
569
100
AcDbEntity
  8
ASSI
100
AcDbEllipse
 62
7
  6
CONTINUOUS
 10
4.0514209198
 20
18.1008058028
 30
0.0
 11
-0.2235807756
 21
0.4472283268
 31
0.0
 40
0.6125552124
 41
-2.255296188
 42
-0.6848044477
  0
ELLIPSE
  5
56A
100
AcDbEntity
  8
ASSI
100
AcDbEllipse
 62
7
  6
CONTINUOUS
 10
0.6250656078
 20
18.3390816114
 30
0.0
 11
0.2497264901
 21
-0.0900037588
 31
0.0
 40
0.1298948903
 41
-2.3094133153
 42
-0.756070281
  0
ELLIPSE
  5
56B
100
AcDbEntity
  8
ASSI
100
AcDbEllipse
 62
7
  6
CONTINUOUS
 10
0.4315013217
 20
18.4358637545
 30
0.0
 11
0.2497264901
 21
-0.0900037588
 31
0.0
 40
0.1298948903
 41
-3.0936186356
 42
-2.3094133153
  0
ELLIPSE
  5
56C
100
AcDbEntity
  8
ASSI
100
AcDbEllipse
 62
7
  6
CONTINUOUS
 10
-11.9614350973
 20
24.632331964
 30
0.0
 11
0.2497264901
 21
-0.0900037588
 31
0.0
 40
0.1298948903
 41
-2.3094133153
 42
-0.756070281
  0
ELLIPSE
  5
56D
100
AcDbEntity
  8
ASSI
100
AcDbEllipse
 62
7
  6
CONTINUOUS
 10
-12.1549993834
 20
24.7291141071
 30
0.0
 11
0.2497264901
 21
-0.0900037588
 31
0.0
 40
0.1298948903
 41
-3.0936186356
 42
-2.3094133153
  0
ELLIPSE
  5
56E
100
AcDbEntity
  8
ASSI
100
AcDbEllipse
 62
7
  6
CONTINUOUS
 10
0.4315013217
 20
-21.112074335
 30
0.0
 11
0.220014872
 21
0.1791173313
 31
0.0
 40
0.6627826692
 41
1.8788389155
 42
2.0871512675
  0
ELLIPSE
  5
56F
100
AcDbEntity
  8
ASSI
100
AcDbEllipse
 62
7
  6
CONTINUOUS
 10
9.3020603651
 20
21.9623099336
 30
0.0
 11
0.4349639225
 21
0.9005141702
 31
0.0
 40
0.6016116119
 41
-0.8943064336
 42
-0.6381625531
  0
ELLIPSE
  5
570
100
AcDbEntity
  8
ASSI
100
AcDbEllipse
 62
7
  6
CONTINUOUS
 10
9.3020603651
 20
-14.7707498561
 30
0.0
 11
0.4349639225
 21
0.9005141702
 31
0.0
 40
0.6016116119
 41
-1.150450314
 42
-0.9391738336
  0
ELLIPSE
  5
571
100
AcDbEntity
  8
ASSI
100
AcDbEllipse
 62
7
  6
CONTINUOUS
 10
9.4777096167
 20
-14.8585744819
 30
0.0
 11
0.9927147821
 21
0.620457446
 31
0.0
 40
0.0764819879
 41
-2.3927159682
 42
-1.0955168143
  0
ELLIPSE
  5
572
100
AcDbEntity
  8
ASSI
100
AcDbEllipse
 62
7
  6
CONTINUOUS
 10
-2.2693136909
 20
27.7479969616
 30
0.0
 11
1.004787277
 21
0.6140102217
 31
0.0
 40
0.0864918533
 41
0.0543763766
 42
0.7212730538
  0
ELLIPSE
  5
573
100
AcDbEntity
  8
ASSI
100
AcDbEllipse
 62
7
  6
CONTINUOUS
 10
-4.2586958808
 20
23.8211974961
 30
0.0
 11
-0.1172693628
 21
0.2208586762
 31
0.0
 40
0.5994421146
 41
-2.2699607138
 42
-0.6994689735
  0
ELLIPSE
  5
574
100
AcDbEntity
  8
ASSI
100
AcDbEllipse
 62
7
  6
CONTINUOUS
 10
4.8888483337
 20
74.7066057405
 30
0.0
 11
3.5378457856
 21
99.5794032239
 31
0.0
 40
0.0069684374
 41
4.1704972465
 42
4.1714623644
  0
ELLIPSE
  5
575
100
AcDbEntity
  8
ASSI
100
AcDbEllipse
 62
7
  6
CONTINUOUS
 10
-2.7503470169
 20
23.0670230642
 30
0.0
 11
-0.1174113663
 21
0.2209958577
 31
0.0
 40
0.5985429242
 41
-0.6989839728
 42
-0.0337839605
  0
ELLIPSE
  5
576
100
AcDbEntity
  8
ASSI
100
AcDbEllipse
 62
7
  6
CONTINUOUS
 10
2.6980138937
 20
23.4727158556
 30
0.0
 11
1.000203771
 21
-0.0143477891
 31
0.0
 40
0.4891226537
 41
-0.7775824994
 42
-0.0140546088
  0
ELLIPSE
  5
577
100
AcDbEntity
  8
0
100
AcDbEllipse
 62
7
  6
CONTINUOUS
 10
-0.0728057774
 20
17.7493188847
 30
0.0
 11
-0.0888806443
 21
0.1794588445
 31
0.0
 40
0.6133070172
 41
-2.2501183435
 42
-0.6816034901
  0
ELLIPSE
  5
578
100
AcDbEntity
  8
ASSI
100
AcDbEllipse
 62
7
  6
CONTINUOUS
 10
-0.9212854367
 20
77.6116726256
 30
0.0
 11
0.7093717925
 21
100.9935570733
 31
0.0
 40
0.0069790045
 41
-2.1156864167
 42
-2.111971229
  0
ELLIPSE
  5
579
100
AcDbEntity
  8
ASSI
100
AcDbEllipse
 62
7
  6
CONTINUOUS
 10
-0.9212854367
 20
24.7737229769
 30
0.0
 11
1.0
 21
-0.0
 31
0.0
 40
0.5003427338
 41
0.7857407797
 42
1.3334966153
  0
ELLIPSE
  5
57A
100
AcDbEntity
  8
ASSI
100
AcDbEllipse
 62
7
  6
CONTINUOUS
 10
-0.9212854367
 20
25.2823655208
 30
0.0
 11
0.9999753489
 21
-0.014348771
 31
0.0
 40
0.4893460778
 41
1.5857281126
 42
2.3628734463
  0
ELLIPSE
  5
57B
100
AcDbEntity
  8
ASSI
100
AcDbEllipse
 62
7
  6
CONTINUOUS
 10
2.6767189127
 20
22.9747208022
 30
0.0
 11
1.0006854676
 21
0.0
 31
0.0
 40
0.499657501
 41
0.4959893425
 42
0.7850555471
  0
ELLIPSE
  5
57C
100
AcDbEntity
  8
ASSI
100
AcDbEllipse
 62
7
  6
CONTINUOUS
 10
0.2255405847
 20
18.8142178189
 30
0.0
 11
0.249929385
 21
0.0111824824
 31
0.0
 40
0.5313301283
 41
3.1180383302
 42
3.9032222197
  0
ELLIPSE
  5
57D
100
AcDbEntity
  8
ASSI
100
AcDbEllipse
 62
7
  6
CONTINUOUS
 10
2.2452399071
 20
17.8043681577
 30
0.0
 11
0.249929385
 21
0.0111824824
 31
0.0
 40
0.5313301283
 41
-2.3799630874
 42
-0.8266200532
  0
ELLIPSE
  5
57E
100
AcDbEntity
  8
ASSI
100
AcDbEllipse
 62
7
  6
CONTINUOUS
 10
-10.341260798
 20
24.0976185103
 30
0.0
 11
0.249929385
 21
0.0111824824
 31
0.0
 40
0.5313301283
 41
-2.3799630874
 42
-0.8266200532
  0
ELLIPSE
  5
57F
100
AcDbEntity
  8
ASSI
100
AcDbEllipse
 62
7
  6
CONTINUOUS
 10
-12.3609601204
 20
25.1074681715
 30
0.0
 11
0.249929385
 21
0.0111824824
 31
0.0
 40
0.5313301283
 41
3.1180383322
 42
3.9032222197
  0
ELLIPSE
  5
580
100
AcDbEntity
  8
ASSI
100
AcDbEllipse
 62
7
  6
CONTINUOUS
 10
2.2452399071
 20
-21.4376698715
 30
0.0
 11
0.220014872
 21
0.1791173313
 31
0.0
 40
0.6627826692
 41
-2.8510033574
 42
-2.6599685648
  0
ELLIPSE
  5
581
100
AcDbEntity
  8
ASSI
100
AcDbEllipse
 62
7
  6
CONTINUOUS
 10
0.6250656078
 20
-21.834689503
 30
0.0
 11
0.220014872
 21
0.1791173313
 31
0.0
 40
0.6627826692
 41
-1.8038058062
 42
-1.2976603231
  0
ELLIPSE
  5
582
100
AcDbEntity
  8
ASSI
100
AcDbEllipse
 62
7
  6
CONTINUOUS
 10
-3.6752775624
 20
21.4794954794
 30
0.0
 11
0.199943508
 21
0.008945986
 31
0.0
 40
0.5313301283
 41
3.1180383302
 42
3.9032222197
  0
ELLIPSE
  5
583
100
AcDbEntity
  8
ASSI
100
AcDbEllipse
 62
7
  6
CONTINUOUS
 10
-1.3846291653
 20
20.3341712809
 30
0.0
 11
0.199943508
 21
0.008945986
 31
0.0
 40
0.5313301283
 41
-2.3799630874
 42
-0.8266200532
  0
ELLIPSE
  5
584
100
AcDbEntity
  8
ASSI
100
AcDbEllipse
 62
7
  6
CONTINUOUS
 10
-5.0969397666
 20
22.1903265815
 30
0.0
 11
0.199943508
 21
0.008945986
 31
0.0
 40
0.5313301283
 41
-2.3799630874
 42
-0.8266200532
  0
ELLIPSE
  5
585
100
AcDbEntity
  8
ASSI
100
AcDbEllipse
 62
7
  6
CONTINUOUS
 10
-7.3875881637
 20
23.33565078
 30
0.0
 11
0.199943508
 21
0.008945986
 31
0.0
 40
0.5313301283
 41
3.1180383322
 42
3.9032222197
  0
ELLIPSE
  5
586
100
AcDbEntity
  8
ASSI
100
AcDbEllipse
 62
7
  6
CONTINUOUS
 10
-12.737428462
 20
24.6739720848
 30
0.0
 11
-0.2236507175
 21
0.4481039483
 31
0.0
 40
0.6114248242
 41
-0.6832297371
 42
0.8861965936
  0
ELLIPSE
  5
587
100
AcDbEntity
  8
ASSI
100
AcDbEllipse
 62
7
  6
CONTINUOUS
 10
2.2681548582
 20
17.1711804247
 30
0.0
 11
-0.2231080361
 21
0.4476242326
 31
0.0
 40
0.6130677323
 41
-2.2534169372
 42
-0.6839906064
  0
ELLIPSE
  5
588
100
AcDbEntity
  8
ASSI
100
AcDbEllipse
 62
7
  6
CONTINUOUS
 10
0.4315013217
 20
-21.112074335
 30
0.0
 11
0.220014872
 21
0.1791173313
 31
0.0
 40
0.6627826692
 41
3.1357258855
 42
3.4321819498
  0
ELLIPSE
  5
589
100
AcDbEntity
  8
ASSI
100
AcDbEllipse
 62
7
  6
CONTINUOUS
 10
2.2681548582
 20
-20.6233843699
 30
0.0
 11
-0.2236507175
 21
0.4481039483
 31
0.0
 40
0.6114248242
 41
2.4583629164
 42
4.0277892472
  0
ELLIPSE
  5
58A
100
AcDbEntity
  8
0
100
AcDbEllipse
 62
7
  6
CONTINUOUS
 10
-10.3964678264
 20
22.9111499092
 30
0.0
 11
-0.0892456481
 21
0.1797773143
 31
0.0
 40
0.6105754279
 41
5.6028239993
 42
7.1713388527
  0
ELLIPSE
  5
58B
100
AcDbEntity
  8
ASSI
100
AcDbEllipse
 62
7
  6
CONTINUOUS
 10
15.0548436598
 20
29.4009009992
 30
0.0
 11
18.2927339069
 21
9.4748417608
 31
0.0
 40
0.0170707209
 41
-2.6536573066
 42
-2.3141694431
  0
ELLIPSE
  5
58C
100
AcDbEntity
  8
ASSI
100
AcDbEllipse
 62
7
  6
CONTINUOUS
 10
15.0548436598
 20
29.4009009992
 30
0.0
 11
18.2927339069
 21
9.4748417608
 31
0.0
 40
0.0170707209
 41
2.2964861198
 42
2.6359739833
  0
ELLIPSE
  5
58D
100
AcDbEntity
  8
RACCORDO
100
AcDbEllipse
 62
7
  6
CONTINUOUS
 10
0.7053589269
 20
-5.8019594769
 30
0.0
 11
-0.1570656702
 21
0.2574547774
 31
0.0
 40
0.5599604495
 41
-3.2116029863
 42
-2.300981329
  0
ELLIPSE
  5
58E
100
AcDbEntity
  8
ASSI
100
AcDbEllipse
 62
7
  6
CONTINUOUS
 10
1.8708663391
 20
25.9534323692
 30
0.0
 11
0.2002571891
 21
-0.0481060446
 31
0.0
 40
0.261363135
 41
-0.7257858084
 42
0.0669778862
  0
ELLIPSE
  5
58F
100
AcDbEntity
  8
RACCORDO
100
AcDbEllipse
 62
7
  6
CONTINUOUS
 10
0.3513613349
 20
-16.1827792782
 30
0.0
 11
-0.2685822327
 21
0.5369844567
 31
0.0
 40
0.6119614214
 41
-3.1700942144
 42
-2.2560086979
  0
ELLIPSE
  5
590
100
AcDbEntity
  8
ASSI
100
AcDbEllipse
 62
7
  6
CONTINUOUS
 10
0.6250656078
 20
-21.2088564781
 30
0.0
 11
0.220014872
 21
0.1791173313
 31
0.0
 40
0.6627826692
 41
-2.8510033574
 42
-1.2976603231
  0
ELLIPSE
  5
591
100
AcDbEntity
  8
ASSI
100
AcDbEllipse
 62
7
  6
CONTINUOUS
 10
9.4777096167
 20
21.8744853078
 30
0.0
 11
-0.7356038977
 21
1.2035991204
 31
0.0
 40
0.5552491559
 41
4.9268361304
 42
6.2240352843
  0
ELLIPSE
  5
592
100
AcDbEntity
  8
SUPERFICI
100
AcDbEllipse
 62
7
  6
CONTINUOUS
 10
12.9380074746
 20
22.6517149111
 30
0.0
 11
2.7583300471
 21
-0.038763314
 31
0.0
 40
0.4892375088
 41
0.4291477653
 42
0.6564870977
  0
ELLIPSE
  5
593
100
AcDbEntity
  8
SUPERFICI
100
AcDbEllipse
 62
7
  6
CONTINUOUS
 10
12.9380074746
 20
22.6517149111
 30
0.0
 11
2.7583300471
 21
-0.038763314
 31
0.0
 40
0.4892375088
 41
0.9280596999
 42
2.3630697256
  0
ELLIPSE
  5
594
100
AcDbEntity
  8
SUPERFICI
100
AcDbEllipse
 62
7
  6
CONTINUOUS
 10
12.2662560324
 20
22.7632125951
 30
0.0
 11
2.7499350056
 21
-0.0386453369
 31
0.0
 40
0.4892375088
 41
8.654981679
 42
9.2672200839
  0
ELLIPSE
  5
595
100
AcDbEntity
  8
SUPERFICI
100
AcDbEllipse
 62
7
  6
CONTINUOUS
 10
17.6437217057
 20
23.8096154282
 30
0.0
 11
0.716172246
 21
0.6416715914
 31
0.0
 40
0.2882345029
 41
0.1142323894
 42
0.7807533904
  0
ELLIPSE
  5
596
100
AcDbEntity
  8
SUPERFICI
100
AcDbEllipse
 62
7
  6
CONTINUOUS
 10
13.6770154586
 20
25.7929685517
 30
0.0
 11
-0.2796057293
 21
0.9974617846
 31
0.0
 40
0.6760995073
 41
4.8467711056
 42
6.4001141399
  0
ELLIPSE
  5
597
100
AcDbEntity
  8
SUPERFICI
100
AcDbEllipse
 62
7
  6
CONTINUOUS
 10
12.9380074746
 20
24.5964256224
 30
0.0
 11
2.7583515655
 21
-1.4175703156
 31
0.0
 40
0.0109499087
 41
-0.9155571536
 42
-0.85781018
  0
ELLIPSE
  5
598
100
AcDbEntity
  8
SUPERFICI
100
AcDbEllipse
 62
7
  6
CONTINUOUS
 10
12.9380074746
 20
24.5964256224
 30
0.0
 11
2.7583515655
 21
-1.4175703156
 31
0.0
 40
0.0109499087
 41
-0.7017315251
 42
-0.6439845515
  0
ELLIPSE
  5
599
100
AcDbEntity
  8
SUPERFICI
100
AcDbEllipse
 62
7
  6
CONTINUOUS
 10
12.2425172134
 20
23.9449747278
 30
0.0
 11
3.3311333813
 21
-0.0467042088
 31
0.0
 40
0.4892378494
 41
2.3616770883
 42
5.5059722822
  0
ELLIPSE
  5
59A
100
AcDbEntity
  8
SUPERFICI
100
AcDbEllipse
 62
7
  6
CONTINUOUS
 10
12.9380074746
 20
23.084727613
 30
0.0
 11
2.7583300471
 21
-0.038763314
 31
0.0
 40
0.4892375088
 41
0.1708839954
 42
2.3630697256
  0
ENDSEC
  0
SECTION
  2
OBJECTS
  0
DICTIONARY
  5
C
100
AcDbDictionary
280
0
281
1
  3
ACAD_GROUP
350
D
  3
ACAD_MLINESTYLE
350
17
  3
ACAD_LAYOUT
350
1A
  3
ACAD_PLOTSETTINGS
350
19
  3
ACAD_PLOTSTYLENAME
350
E
  0
DICTIONARY
  5
D
102
{ACAD_REACTORS
330
C
102
}
100
AcDbDictionary
280
0
281
1
  0
ACDBDICTIONARYWDFLT
  5
E
102
{ACAD_REACTORS
330
C
102
}
100
AcDbDictionary
281
1
  3
Normal
350
F
100
AcDbDictionaryWithDefault
340
F
  0
DICTIONARY
  5
17
102
{ACAD_REACTORS
330
C
102
}
100
AcDbDictionary
280
0
281
1
  3
Standard
350
18
  0
DICTIONARY
  5
19
102
{ACAD_REACTORS
330
C
102
}
100
AcDbDictionary
281
1
  0
DICTIONARY
  5
1A
102
{ACAD_REACTORS
330
C
102
}
100
AcDbDictionary
281
1
  3
Model
350
59B
  3
Layout1
350
59C
  0
ACDBPLACEHOLDER
  5
F
102
{ACAD_REACTORS
330
E
102
}
  0
MLINESTYLE
  5
18
102
{ACAD_REACTORS
330
17
102
}
100
AcDbMlineStyle
  2
STANDARD
 70
0
  3

 62
256
 51
90.0
 52
90.0
 71
2
 49
0.5
 62
256
  6
BYLAYER
 49
-0.5
 62
256
  6
BYLAYER
  0
LAYOUT
  5
59B
102
{ACAD_REACTORS
330
1A
102
}
100
AcDbPlotSettings
  1

  2
none_device
  4
ISO_A4_(297.00_x_210.00_MM)
  6

 40
0.0
 41
0.0
 42
0.0
 43
0.0
 44
297.0
 45
210.0
 46
0.0
 47
0.0
 48
0.0
 49
0.0
140
0.0
141
0.0
142
1.0
143
1.0
 70
1024
 72
1
 73
0
 74
0
  7

 75
0
147
1.0
148
0.0
149
0.0
100
AcDbLayout
  1
Model
 70
0
 71
0
 10
0.0
 20
0.0
 11
297.0
 21
210.0
 12
0.0
 22
0.0
 32
0.0
 14
0.0
 24
0.0
 34
0.0
 15
0.0
 25
0.0
 35
0.0
146
0.0
 13
0.0
 23
0.0
 33
0.0
 16
1.0
 26
0.0
 36
0.0
 17
0.0
 27
1.0
 37
0.0
 76
0
330
224
345
0
346
0
  0
LAYOUT
  5
59C
102
{ACAD_REACTORS
330
1A
102
}
100
AcDbPlotSettings
  1

  2
none_device
  4
ISO_A4_(297.00_x_210.00_MM)
  6

 40
0.0
 41
0.0
 42
0.0
 43
0.0
 44
297.0
 45
210.0
 46
0.0
 47
0.0
 48
0.0
 49
0.0
140
0.0
141
0.0
142
1.0
143
1.0
 70
0
 72
1
 73
0
 74
0
  7

 75
0
147
1.0
148
0.0
149
0.0
100
AcDbLayout
  1
Layout1
 70
0
 71
1
 10
0.0
 20
0.0
 11
297.0
 21
210.0
 12
0.0
 22
0.0
 32
0.0
 14
0.0
 24
0.0
 34
0.0
 15
0.0
 25
0.0
 35
0.0
146
0.0
 13
0.0
 23
0.0
 33
0.0
 16
1.0
 26
0.0
 36
0.0
 17
0.0
 27
1.0
 37
0.0
 76
0
330
225
345
0
346
0
  0
ENDSEC
  0
EOF
