  0
SECTION
  2
HEADER
  9
$ACADVER
  1
AC1024
  9
$DWGCODEPAGE
  3
ANSI_1252
  9
$EXTMAX
 10
297.0
 20
210.0
 30
0.0
  9
$EXTMIN
 10
0.0
 20
0.0
 30
0.0
  9
$LIMMIN
 10
0.0
 20
0.0
  9
$LIMMAX
 10
297.0
 20
210.0
  9
$VIEWCTR
 10
148.5
 20
105.0
  9
$VIEWSIZE
 40
210.0
  9
$CLAYER
  8
0
  9
$LTSCALE
 40
16.335
  9
$CELTYPE
  6
BYLAYER
  9
$DIMSCALE
 40
1.0
  9
$DIMASZ
 40
3.0
  9
$DIMEXO
 40
0.5
  9
$DIMDLI
 40
11.286
  9
$DIMEXE
 40
1.5
  9
$DIMCEN
 40
2.673
  9
$DIMLFAC
 40
1.0
  9
$DIMBLK
  1
_FILLED
  9
$DIMALT
 70
0
  9
$DIMALTF
 40
0.0393700787
  9
$DIMTXT
 40
3.0
  9
$DIMTOL
 70
1
  9
$DIMLIM
 70
0
  9
$DIMTFAC
 40
1.0
  9
$DIMTP
 40
0.01
  9
$DIMTM
 40
0.01
  9
$DIMGAP
 40
0.625
  9
$DIMDSEP
 70
44
  9
$AUNITS
 70
0
  9
$PDMODE
 70
3
  9
$PDSIZE
 40
3.0
  9
$HANDSEED
  5
4DC
  9
$TILEMODE
 70
1
  9
$MEASUREMENT
 70
1
  9
$INSUNITS
 70
4
  0
ENDSEC
  0
SECTION
  2
CLASSES
  0
CLASS
  1
ACDBDICTIONARYWDFLT
  2
AcDbDictionaryWithDefault
  3
AutoCAD 2000
 90
0
 91
1
280
0
281
0
  0
CLASS
  1
ACDBPLACEHOLDER
  2
AcDbPlaceHolder
  3
AutoCAD 2000
 90
0
 91
1
280
0
281
0
  0
CLASS
  1
LAYOUT
  2
AcDbLayout
  3
AutoCAD 2000
 90
0
 91
0
280
0
281
0
  0
ENDSEC
  0
SECTION
  2
TABLES
  0
TABLE
  2
VPORT
  5
8
100
AcDbSymbolTable
 70
2
  0
VPORT
  5
1F4
100
AcDbSymbolTableRecord
100
AcDbViewportTableRecord
  2
*ACTIVE
 70
0
 10
0.0
 20
0.0
 11
1.0
 21
1.0
 12
148.5
 22
105.0
 13
0.0
 23
0.0
 14
1.0
 24
1.0
 15
0.0
 25
0.0
 16
0.0
 26
0.0
 36
1.0
 17
0.0
 27
0.0
 37
0.0
 40
210.0
 41
1.4142857143
 42
50.0
 43
0.0
 44
0.0
 50
0.0
 51
0.0
 71
0
 72
100
 73
1
 74
1
 75
0
 76
0
 77
0
 78
0
  0
ENDTAB
  0
TABLE
  2
LTYPE
  5
5
100
AcDbSymbolTable
 70
6
  0
LTYPE
  5
14
100
AcDbSymbolTableRecord
100
AcDbLinetypeTableRecord
  2
BYBLOCK
 70
0
  3

 72
65
 73
0
 40
0.0
  0
LTYPE
  5
15
100
AcDbSymbolTableRecord
100
AcDbLinetypeTableRecord
  2
BYLAYER
 70
0
  3

 72
65
 73
0
 40
0.0
  0
LTYPE
  5
16
100
AcDbSymbolTableRecord
100
AcDbLinetypeTableRecord
  2
CONTINUOUS
 70
64
  3
Solid line
 72
65
 73
0
 40
0.0
  0
LTYPE
  5
1F5
100
AcDbSymbolTableRecord
100
AcDbLinetypeTableRecord
  2
CENTER
 70
64
  3
____ _ ____ _ ____ _ ____ _ ____ _ ____ _ ____
 72
65
 73
4
 40
0.6
 49
0.375
 74
0
 49
-0.075
 74
0
 49
0.075
 74
0
 49
-0.075
 74
0
  0
LTYPE
  5
1F6
100
AcDbSymbolTableRecord
100
AcDbLinetypeTableRecord
  2
HIDDEN
 70
64
  3
- - - - - - - - - - - - - - - - - - - -
 72
65
 73
2
 40
0.2
 49
0.1
 74
0
 49
-0.1
 74
0
  0
LTYPE
  5
1F7
100
AcDbSymbolTableRecord
100
AcDbLinetypeTableRecord
  2
PHANTOM
 70
64
  3
_____ _ _ _____ _ _ _____ _ _ _____
 72
65
 73
6
 40
0.8
 49
0.45
 74
0
 49
-0.05
 74
0
 49
0.1
 74
0
 49
-0.05
 74
0
 49
0.1
 74
0
 49
-0.05
 74
0
  0
LTYPE
  5
1F8
100
AcDbSymbolTableRecord
100
AcDbLinetypeTableRecord
  2
DOT
 70
64
  3
. . . . . . . . . . . . . . . . . . . .
 72
65
 73
2
 40
0.2
 49
0.1
 74
0
 49
-0.1
 74
0
  0
LTYPE
  5
1F9
100
AcDbSymbolTableRecord
100
AcDbLinetypeTableRecord
  2
DASHED
 70
64
  3
- - - - - - - - - - - - - - - - - - - -
 72
65
 73
2
 40
0.2
 49
0.1
 74
0
 49
-0.1
 74
0
  0
ENDTAB
  0
TABLE
  2
LAYER
  5
2
100
AcDbSymbolTable
 70
36
  0
LAYER
  5
10
100
AcDbSymbolTableRecord
100
AcDbLayerTableRecord
  2
0
 70
0
 62
7
  6
CONTINUOUS
370
-3
390
F
  0
LAYER
  5
1FA
100
AcDbSymbolTableRecord
100
AcDbLayerTableRecord
  2
DEFAULT_1
 70
0
 62
7
  6
CENTER
370
-3
390
F
  0
LAYER
  5
1FB
100
AcDbSymbolTableRecord
100
AcDbLayerTableRecord
  2
DEFAULT_2
 70
0
 62
7
  6
HIDDEN
370
-3
390
F
  0
LAYER
  5
1FC
100
AcDbSymbolTableRecord
100
AcDbLayerTableRecord
  2
DEFAULT_3
 70
0
 62
7
  6
PHANTOM
370
-3
390
F
  0
LAYER
  5
1FD
100
AcDbSymbolTableRecord
100
AcDbLayerTableRecord
  2
ASSI
 70
0
 62
7
  6
CONTINUOUS
370
-3
390
F
  0
LAYER
  5
1FE
100
AcDbSymbolTableRecord
100
AcDbLayerTableRecord
  2
COLORE_TOP
 70
0
 62
7
  6
CONTINUOUS
370
-3
390
F
  0
LAYER
  5
1FF
100
AcDbSymbolTableRecord
100
AcDbLayerTableRecord
  2
COORDINATE
 70
0
 62
7
  6
CONTINUOUS
370
-3
390
F
  0
LAYER
  5
200
100
AcDbSymbolTableRecord
100
AcDbLayerTableRecord
  2
COORD_ORIGINE
 70
0
 62
7
  6
CONTINUOUS
370
-3
390
F
  0
LAYER
  5
201
100
AcDbSymbolTableRecord
100
AcDbLayerTableRecord
  2
COPY-PUBBLISH
 70
0
 62
7
  6
CONTINUOUS
370
-3
390
F
  0
LAYER
  5
202
100
AcDbSymbolTableRecord
100
AcDbLayerTableRecord
  2
COPY_PUBLISH
 70
0
 62
7
  6
CONTINUOUS
370
-3
390
F
  0
LAYER
  5
203
100
AcDbSymbolTableRecord
100
AcDbLayerTableRecord
  2
COSMETIC
 70
0
 62
7
  6
CONTINUOUS
370
-3
390
F
  0
LAYER
  5
204
100
AcDbSymbolTableRecord
100
AcDbLayerTableRecord
  2
COSMETICHE
 70
0
 62
7
  6
CONTINUOUS
370
-3
390
F
  0
LAYER
  5
205
100
AcDbSymbolTableRecord
100
AcDbLayerTableRecord
  2
COSMETICI
 70
0
 62
7
  6
CONTINUOUS
370
-3
390
F
  0
LAYER
  5
206
100
AcDbSymbolTableRecord
100
AcDbLayerTableRecord
  2
CURVA_CENTRALE
 70
0
 62
7
  6
CONTINUOUS
370
-3
390
F
  0
LAYER
  5
207
100
AcDbSymbolTableRecord
100
AcDbLayerTableRecord
  2
CURVE
 70
0
 62
7
  6
CONTINUOUS
370
-3
390
F
  0
LAYER
  5
208
100
AcDbSymbolTableRecord
100
AcDbLayerTableRecord
  2
DRAFT
 70
0
 62
7
  6
CONTINUOUS
370
-3
390
F
  0
LAYER
  5
209
100
AcDbSymbolTableRecord
100
AcDbLayerTableRecord
  2
IGES_SCRITTE
 70
0
 62
7
  6
CONTINUOUS
370
-3
390
F
  0
LAYER
  5
20A
100
AcDbSymbolTableRecord
100
AcDbLayerTableRecord
  2
IMPORT_IGES
 70
0
 62
7
  6
CONTINUOUS
370
-3
390
F
  0
LAYER
  5
20B
100
AcDbSymbolTableRecord
100
AcDbLayerTableRecord
  2
INCISIONI_LASER
 70
0
 62
7
  6
CONTINUOUS
370
-3
390
F
  0
LAYER
  5
20C
100
AcDbSymbolTableRecord
100
AcDbLayerTableRecord
  2
INTFCLR_11
 70
0
 62
7
  6
CONTINUOUS
370
-3
390
F
  0
LAYER
  5
20D
100
AcDbSymbolTableRecord
100
AcDbLayerTableRecord
  2
INTF_1
 70
0
 62
7
  6
CONTINUOUS
370
-3
390
F
  0
LAYER
  5
20E
100
AcDbSymbolTableRecord
100
AcDbLayerTableRecord
  2
INTF_2
 70
0
 62
7
  6
CONTINUOUS
370
-3
390
F
  0
LAYER
  5
20F
100
AcDbSymbolTableRecord
100
AcDbLayerTableRecord
  2
INTF_3
 70
0
 62
7
  6
CONTINUOUS
370
-3
390
F
  0
LAYER
  5
210
100
AcDbSymbolTableRecord
100
AcDbLayerTableRecord
  2
NOTE
 70
0
 62
7
  6
CONTINUOUS
370
-3
390
F
  0
LAYER
  5
211
100
AcDbSymbolTableRecord
100
AcDbLayerTableRecord
  2
PIANI
 70
0
 62
7
  6
CONTINUOUS
370
-3
390
F
  0
LAYER
  5
212
100
AcDbSymbolTableRecord
100
AcDbLayerTableRecord
  2
PIANI_ORIGINE
 70
0
 62
7
  6
CONTINUOUS
370
-3
390
F
  0
LAYER
  5
213
100
AcDbSymbolTableRecord
100
AcDbLayerTableRecord
  2
PIANI_SFORMO
 70
0
 62
7
  6
CONTINUOUS
370
-3
390
F
  0
LAYER
  5
214
100
AcDbSymbolTableRecord
100
AcDbLayerTableRecord
  2
PUNTI
 70
0
 62
7
  6
CONTINUOUS
370
-3
390
F
  0
LAYER
  5
215
100
AcDbSymbolTableRecord
100
AcDbLayerTableRecord
  2
RACCORDO
 70
0
 62
7
  6
CONTINUOUS
370
-3
390
F
  0
LAYER
  5
216
100
AcDbSymbolTableRecord
100
AcDbLayerTableRecord
  2
RGB__255__255__255__
 70
0
 62
7
  6
CONTINUOUS
370
-3
390
F
  0
LAYER
  5
217
100
AcDbSymbolTableRecord
100
AcDbLayerTableRecord
  2
SMUSSO
 70
0
 62
7
  6
CONTINUOUS
370
-3
390
F
  0
LAYER
  5
218
100
AcDbSymbolTableRecord
100
AcDbLayerTableRecord
  2
SNAPLINE
 70
0
 62
7
  6
CONTINUOUS
370
-3
390
F
  0
LAYER
  5
219
100
AcDbSymbolTableRecord
100
AcDbLayerTableRecord
  2
SUPERFICI
 70
0
 62
7
  6
CONTINUOUS
370
-3
390
F
  0
LAYER
  5
21A
100
AcDbSymbolTableRecord
100
AcDbLayerTableRecord
  2
TRACCIABILITA
 70
0
 62
7
  6
CONTINUOUS
370
-3
390
F
  0
LAYER
  5
21B
100
AcDbSymbolTableRecord
100
AcDbLayerTableRecord
  2
TRASH
 70
0
 62
7
  6
CONTINUOUS
370
-3
390
F
  0
LAYER
  5
21C
100
AcDbSymbolTableRecord
100
AcDbLayerTableRecord
  2
XSEC_DATUMS
 70
0
 62
7
  6
CONTINUOUS
370
-3
390
F
  0
LAYER
  5
21D
100
AcDbSymbolTableRecord
100
AcDbLayerTableRecord
  2
___SHELL
 70
0
 62
7
  6
CONTINUOUS
370
-3
390
F
  0
ENDTAB
  0
TABLE
  2
STYLE
  5
3
100
AcDbSymbolTable
 70
1
  0
STYLE
  5
11
100
AcDbSymbolTableRecord
100
AcDbTextStyleTableRecord
  2
STANDARD
 70
0
 40
0.0
 41
0.8
 50
0.0
 71
0
 42
0.2
  3
txt
  4

  0
STYLE
  5
21E
100
AcDbSymbolTableRecord
100
AcDbTextStyleTableRecord
  2
TEXTSTYLE_1
 70
0
 40
0.0
 41
0.8
 50
0.0
 71
0
 42
0.2
  3
gdt
  4

  0
ENDTAB
  0
TABLE
  2
VIEW
  5
6
100
AcDbSymbolTable
 70
0
  0
ENDTAB
  0
TABLE
  2
UCS
  5
7
100
AcDbSymbolTable
 70
0
  0
ENDTAB
  0
TABLE
  2
APPID
  5
9
100
AcDbSymbolTable
 70
1
  0
APPID
  5
21F
100
AcDbSymbolTableRecord
100
AcDbRegAppTableRecord
  2
ACAD
 70
0
  0
ENDTAB
  0
TABLE
  2
BLOCK_RECORD
  5
1
100
AcDbSymbolTable
 70
0
  0
BLOCK_RECORD
  5
220
100
AcDbSymbolTableRecord
100
AcDbBlockTableRecord
  2
*Model_Space
  0
BLOCK_RECORD
  5
221
100
AcDbSymbolTableRecord
100
AcDbBlockTableRecord
  2
*Paper_Space
  0
BLOCK_RECORD
  5
222
100
AcDbSymbolTableRecord
100
AcDbBlockTableRecord
  2
_FILLED
  0
ENDTAB
  0
TABLE
  2
DIMSTYLE
  5
A
100
AcDbSymbolTable
 70
1
100
AcDbDimStyleTable
 71
0
  0
DIMSTYLE
105
223
100
AcDbSymbolTableRecord
100
AcDbDimStyleTableRecord
  2
STANDARD
 70
0
  3

  4

 40
1.0
 41
3.0
 42
0.5
 43
0.38
 44
1.5
 45
0.0
 46
0.0
 47
0.01
 48
0.01
140
3.0
141
0.09
142
0.0
143
25.4
144
1.0
145
0.0
146
1.0
147
0.625
 71
1
 72
0
 73
0
 74
0
 75
0
 76
0
 77
1
 78
8
 79
2
170
0
171
1
172
0
173
0
174
0
175
0
176
0
177
0
178
0
270
2
179
2
271
2
272
2
273
2
274
2
275
0
280
0
281
0
282
0
283
1
284
8
285
0
286
0
287
3
288
0
340
11
278
44
341
222
342
222
343
222
344
222
  0
ENDTAB
  0
ENDSEC
  0
SECTION
  2
BLOCKS
  0
BLOCK
  5
20
100
AcDbEntity
  8
0
100
AcDbBlockBegin
  2
*Model_Space
 70
0
 10
0.0
 20
0.0
 30
0.0
  3
*Model_Space
  1

  0
ENDBLK
  5
21
100
AcDbEntity
  8
0
100
AcDbBlockEnd
  0
BLOCK
  5
1C
100
AcDbEntity
  8
0
100
AcDbBlockBegin
  2
*Paper_Space
 70
0
 10
0.0
 20
0.0
 30
0.0
  3
*Paper_Space
  1

  0
ENDBLK
  5
1D
100
AcDbEntity
  8
0
100
AcDbBlockEnd
  0
BLOCK
  5
224
100
AcDbEntity
  8
0
100
AcDbBlockBegin
  2
_FILLED
 70
64
 10
0.0
 20
0.0
  3
_FILLED
  1

  0
SOLID
  5
225
100
AcDbEntity
  8
0
  6
BYBLOCK
 62
0
100
AcDbTrace
 10
0.0
 20
0.0
 11
-1.0
 21
0.3166666667
 12
-1.0
 22
-0.3166666667
 13
-1.0
 23
-0.3166666667
  0
ENDBLK
  5
226
100
AcDbEntity
  8
0
  6
BYBLOCK
 62
0
100
AcDbBlockEnd
  0
ENDSEC
  0
SECTION
  2
ENTITIES
  0
LWPOLYLINE
  5
227
100
AcDbEntity
  8
ASSI
100
AcDbPolyline
 62
7
  6
CONTINUOUS
 90
12
 70
0
 10
-12.4084241941
 20
26.5785565687
 10
-12.4269478356
 20
26.5674901516
 10
-12.4481572239
 20
26.5518487956
 10
-12.467968891
 20
26.5337749787
 10
-12.4861294446
 20
26.5134379025
 10
-12.5019807311
 20
26.4916767574
 10
-12.5157920081
 20
26.4682441328
 10
-12.5275121814
 20
26.4430367387
 10
-12.5365590272
 20
26.4172486087
 10
-12.5429309653
 20
26.3911860331
 10
-12.546728124
 20
26.3641718443
 10
-12.5477323449
 20
26.3414696989
  0
LINE
  5
228
100
AcDbEntity
  8
ASSI
100
AcDbLine
 62
7
  6
CONTINUOUS
 10
-12.4085653069
 20
26.5784812437
 11
-10.8413648165
 21
27.4240218625
  0
LINE
  5
229
100
AcDbEntity
  8
ASSI
100
AcDbLine
 62
250
  6
CONTINUOUS
 10
-12.3160686858
 20
26.5744096988
 11
-10.7498179396
 21
27.4194379088
  0
LINE
  5
22A
100
AcDbEntity
  8
ASSI
100
AcDbLine
 62
7
  6
CONTINUOUS
 10
-10.8371569796
 20
27.4261277402
 11
-10.8413224831
 21
27.4240447023
  0
LWPOLYLINE
  5
22B
100
AcDbEntity
  8
ASSI
100
AcDbPolyline
 62
250
  6
CONTINUOUS
 90
7
 70
0
 10
-12.4084244507
 20
26.5785570461
 10
-12.4031251683
 20
26.5811404514
 10
-12.3876591
 20
26.586082845
 10
-12.3709263599
 20
26.5878847042
 10
-12.3532131389
 20
26.5865152104
 10
-12.334822398
 20
26.5819977871
 10
-12.3160686858
 20
26.5744096988
  0
LINE
  5
22C
100
AcDbEntity
  8
ASSI
100
AcDbLine
 62
250
  6
CONTINUOUS
 10
-10.7498179396
 20
27.4194379088
 11
-10.2070918769
 21
27.6700867898
  0
LINE
  5
22D
100
AcDbEntity
  8
ASSI
100
AcDbLine
 62
7
  6
CONTINUOUS
 10
-10.8370991398
 20
27.4261545301
 11
-10.2931977814
 21
27.677345776
  0
LWPOLYLINE
  5
22E
100
AcDbEntity
  8
ASSI
100
AcDbPolyline
 62
250
  6
CONTINUOUS
 90
14
 70
0
 10
-10.2070918769
 20
27.6700867898
 10
-10.1985289774
 20
27.6739031536
 10
-10.189747347
 20
27.6772894552
 10
-10.1807719634
 20
27.6801907422
 10
-10.171610167
 20
27.6825555812
 10
-10.1623164685
 20
27.6843192133
 10
-10.1529898261
 20
27.6854192914
 10
-10.1436670782
 20
27.6858128876
 10
-10.1343883517
 20
27.6854582761
 10
-10.1252546456
 20
27.6843254267
 10
-10.1163051065
 20
27.6823914885
 10
-10.1075807845
 20
27.6796364132
 10
-10.0991762378
 20
27.6760686409
 10
-10.0980015665
 20
27.6754915767
  0
LINE
  5
22F
100
AcDbEntity
  8
ASSI
100
AcDbLine
 62
7
  6
CONTINUOUS
 10
-10.2700643725
 20
27.6865668334
 11
-10.2931977124
 21
27.6773456254
  0
LWPOLYLINE
  5
230
100
AcDbEntity
  8
ASSI
100
AcDbPolyline
 62
250
  6
CONTINUOUS
 90
6
 70
0
 10
-10.2931977814
 20
27.677345776
 10
-10.276876478
 20
27.6826628597
 10
-10.2604370979
 20
27.684318047
 10
-10.2431275299
 20
27.6827467278
 10
-10.2252438306
 20
27.6779757757
 10
-10.2070918769
 20
27.6700867898
  0
LWPOLYLINE
  5
231
100
AcDbEntity
  8
ASSI
100
AcDbPolyline
 62
7
  6
CONTINUOUS
 90
3
 70
0
 10
-11.587148738
 20
25.460202777
 10
-11.5713668715
 20
25.4722249711
 10
-11.5536853247
 20
25.4857843253
  0
LWPOLYLINE
  5
232
100
AcDbEntity
  8
RACCORDO
100
AcDbPolyline
 62
250
  6
CONTINUOUS
 90
20
 70
0
 10
-15.8642982991
 20
22.7335077022
 10
-15.9252066026
 20
22.6925349777
 10
-15.9852592787
 20
22.646737244
 10
-16.0441510378
 20
22.5963498583
 10
-16.1016163975
 20
22.5416437854
 10
-16.1573515552
 20
22.4828890529
 10
-16.2110533502
 20
22.420381465
 10
-16.262471547
 20
22.3544611842
 10
-16.3113327674
 20
22.2854624885
 10
-16.3573752085
 20
22.2137298096
 10
-16.400387288
 20
22.1396430094
 10
-16.4401428315
 20
22.0635766248
 10
-16.4764276957
 20
21.985913722
 10
-16.5090748422
 20
21.9070624906
 10
-16.537912355
 20
21.8274295804
 10
-16.5627877649
 20
21.7474103569
 10
-16.583591304
 20
21.6674024051
 10
-16.6002177913
 20
21.5878089964
 10
-16.6125702786
 20
21.5090372321
 10
-16.6205820212
 20
21.4314882001
  0
LINE
  5
233
100
AcDbEntity
  8
ASSI
100
AcDbLine
 62
7
  6
CONTINUOUS
 10
-12.1950757217
 20
25.0847033756
 11
-11.8328693664
 21
25.2994200967
  0
LINE
  5
234
100
AcDbEntity
  8
ASSI
100
AcDbLine
 62
250
  6
CONTINUOUS
 10
-11.9598222407
 20
25.0770468372
 11
-11.8328693664
 21
25.1523047793
  0
LWPOLYLINE
  5
235
100
AcDbEntity
  8
RACCORDO
100
AcDbPolyline
 62
7
  6
CONTINUOUS
 90
18
 70
0
 10
-15.9719286261
 20
22.8110198759
 10
-16.0502468259
 20
22.7681422589
 10
-16.1233830917
 20
22.7201958839
 10
-16.194939779
 20
22.6652378754
 10
-16.264184918
 20
22.6037037741
 10
-16.3294919847
 20
22.5371761489
 10
-16.3904980371
 20
22.4664411548
 10
-16.4475009885
 20
22.3914892966
 10
-16.5000198978
 20
22.313170598
 10
-16.5478959296
 20
22.232035197
 10
-16.5911219084
 20
22.1482746171
 10
-16.6294923642
 20
22.0623881163
 10
-16.6628687799
 20
21.9747280713
 10
-16.6910701942
 20
21.885595137
 10
-16.7138877952
 20
21.7953704523
 10
-16.7310895426
 20
21.7043100184
 10
-16.7424127528
 20
21.6126977644
 10
-16.7442041534
 20
21.5909182038
  0
LINE
  5
236
100
AcDbEntity
  8
ASSI
100
AcDbLine
 62
250
  6
CONTINUOUS
 10
-10.2503546444
 20
25.5415526781
 11
-8.6284545177
 21
26.3587561978
  0
LINE
  5
237
100
AcDbEntity
  8
ASSI
100
AcDbLine
 62
250
  6
CONTINUOUS
 10
-10.1089548273
 20
25.2976740687
 11
-8.4870547007
 21
26.1148775885
  0
LWPOLYLINE
  5
238
100
AcDbEntity
  8
RACCORDO
100
AcDbPolyline
 62
250
  6
CONTINUOUS
 90
3
 70
0
 10
-15.7412765934
 20
22.8002091359
 10
-15.8028782191
 20
22.7694584145
 10
-15.8642982991
 20
22.7335077022
  0
LINE
  5
239
100
AcDbEntity
  8
ASSI
100
AcDbLine
 62
250
  6
CONTINUOUS
 10
-8.6284545177
 20
26.3587561978
 11
-8.1043500512
 21
26.618715877
  0
LINE
  5
23A
100
AcDbEntity
  8
ASSI
100
AcDbLine
 62
250
  6
CONTINUOUS
 10
-8.4870547007
 20
26.1148775885
 11
-7.9629502341
 21
26.3748372676
  0
LINE
  5
23B
100
AcDbEntity
  8
RACCORDO
100
AcDbLine
 62
7
  6
CONTINUOUS
 10
-12.775684992
 20
24.3898346162
 11
-15.9719683577
 21
22.811009364
  0
LINE
  5
23C
100
AcDbEntity
  8
RACCORDO
100
AcDbLine
 62
250
  6
CONTINUOUS
 10
-12.5485653284
 20
24.3772699255
 11
-15.7412765698
 21
22.8002091476
  0
LWPOLYLINE
  5
23D
100
AcDbEntity
  8
ASSI
100
AcDbPolyline
 62
250
  6
CONTINUOUS
 90
28
 70
0
 10
-7.9629502341
 20
26.3748372676
 10
-7.9612465743
 20
26.3756440623
 10
-7.959513773
 20
26.3763404895
 10
-7.9577518302
 20
26.3769265494
 10
-7.9559498228
 20
26.3774125951
 10
-7.9541186739
 20
26.3777882735
 10
-7.952291153
 20
26.3780225247
 10
-7.9504666618
 20
26.3781107723
 10
-7.9486457985
 20
26.3780575928
 10
-7.9468631284
 20
26.3778456556
 10
-7.9451196561
 20
26.3774695535
 10
-7.9434143768
 20
26.3769346939
 10
-7.9417788413
 20
26.3762399677
 10
-7.9402161899
 20
26.375381377
 10
-7.9387232822
 20
26.3743629199
 10
-7.9373222473
 20
26.3731954808
 10
-7.9360158782
 20
26.3718774124
 10
-7.9348013818
 20
26.3704103622
 10
-7.933692508
 20
26.3688101566
 10
-7.9326906379
 20
26.3670754433
 10
-7.9317943903
 20
26.3652075747
 10
-7.9310133718
 20
26.3632264343
 10
-7.9303488583
 20
26.3611307141
 10
-7.9297995738
 20
26.3589217222
 10
-7.9293712969
 20
26.3566232664
 10
-7.9290659537
 20
26.3542432827
 10
-7.9288816182
 20
26.3517738352
 10
-7.9288182901
 20
26.3492149238
  0
LWPOLYLINE
  5
23E
100
AcDbEntity
  8
ASSI
100
AcDbPolyline
 62
250
  6
CONTINUOUS
 90
14
 70
0
 10
-8.1043500512
 20
26.618715877
 10
-8.0957598768
 20
26.6225990393
 10
-8.0869648573
 20
26.6260373049
 10
-8.0779904188
 20
26.6289774134
 10
-8.0688446145
 20
26.6313699902
 10
-8.0595816891
 20
26.6331522504
 10
-8.0502993018
 20
26.6342637848
 10
-8.0410339534
 20
26.6346642335
 10
-8.0318252884
 20
26.6343145421
 10
-8.0227723866
 20
26.6331870689
 10
-8.0139144687
 20
26.6312621485
 10
-8.0052900864
 20
26.6285225551
 10
-7.9969880111
 20
26.6249776815
 10
-7.9960166071
 20
26.6244990972
  0
LWPOLYLINE
  5
23F
100
AcDbEntity
  8
ASSI
100
AcDbPolyline
 62
250
  6
CONTINUOUS
 90
11
 70
0
 10
-12.4143550291
 20
26.4855247687
 10
-12.4055689392
 20
26.4970728105
 10
-12.3964662554
 20
26.5081134074
 10
-12.3870761416
 20
26.5186147115
 10
-12.3774281658
 20
26.5285452846
 10
-12.3675567144
 20
26.5378712744
 10
-12.3574976192
 20
26.5465603101
 10
-12.3472831059
 20
26.5545851435
 10
-12.3369482651
 20
26.5619186018
 10
-12.3265311189
 20
26.5685344029
 10
-12.3160686858
 20
26.5744096988
  0
LWPOLYLINE
  5
240
100
AcDbEntity
  8
ASSI
100
AcDbPolyline
 62
7
  6
CONTINUOUS
 90
12
 70
0
 10
-9.3895054514
 20
24.7349289965
 10
-9.4115381875
 20
24.7142842374
 10
-9.4354259792
 20
24.6950191433
 10
-9.4609932174
 20
24.6775265459
 10
-9.4881934677
 20
24.6621742868
 10
-9.5166080997
 20
24.6493209281
 10
-9.5454231459
 20
24.6392523549
 10
-9.5742528234
 20
24.6321550693
 10
-9.602801386
 20
24.6282074449
 10
-9.6303384635
 20
24.6274664406
 10
-9.6563930416
 20
24.6298587698
 10
-9.6672004547
 20
24.6318487677
  0
LWPOLYLINE
  5
241
100
AcDbEntity
  8
ASSI
100
AcDbPolyline
 62
250
  6
CONTINUOUS
 90
13
 70
0
 10
-6.5766155984
 20
24.680636136
 10
-6.594847411
 20
24.6696811558
 10
-6.6127328577
 20
24.6560323859
 10
-6.6299726669
 20
24.6399182067
 10
-6.6462783702
 20
24.621608252
 10
-6.6613771292
 20
24.6014088964
 10
-6.6750163012
 20
24.5796581295
 10
-6.6869676662
 20
24.5567199002
 10
-6.6970312456
 20
24.5329780267
 10
-6.7050386487
 20
24.5088297744
 10
-6.7108558901
 20
24.4846792085
 10
-6.7143856318
 20
24.460930433
 10
-6.7155688116
 20
24.4379808286
  0
LWPOLYLINE
  5
242
100
AcDbEntity
  8
ASSI
100
AcDbPolyline
 62
7
  6
CONTINUOUS
 90
12
 70
0
 10
-6.6919417513
 20
24.6858836505
 10
-6.6943052068
 20
24.6845904249
 10
-6.7145124366
 20
24.6718829319
 10
-6.7332911906
 20
24.6569869219
 10
-6.7503701682
 20
24.6401021355
 10
-6.7656392344
 20
24.6213020872
 10
-6.7788696424
 20
24.6008037665
 10
-6.7898581528
 20
24.5788953845
 10
-6.7985292379
 20
24.5556711014
 10
-6.8047656615
 20
24.5312950854
 10
-6.8084372975
 20
24.5060928248
 10
-6.8094972061
 20
24.4831222397
  0
LINE
  5
243
100
AcDbEntity
  8
ASSI
100
AcDbLine
 62
7
  6
CONTINUOUS
 10
-9.3895054514
 20
23.9767285504
 11
-8.4870547007
 21
24.4694029413
  0
LINE
  5
244
100
AcDbEntity
  8
ASSI
100
AcDbLine
 62
7
  6
CONTINUOUS
 10
-6.4801948771
 20
24.8001268197
 11
-6.6919897124
 21
24.6858586472
  0
LINE
  5
245
100
AcDbEntity
  8
ASSI
100
AcDbLine
 62
250
  6
CONTINUOUS
 10
-6.3657612811
 20
24.7943968776
 11
-6.5766155984
 21
24.680636136
  0
LWPOLYLINE
  5
246
100
AcDbEntity
  8
ASSI
100
AcDbPolyline
 62
250
  6
CONTINUOUS
 90
9
 70
0
 10
-1.9631951746
 20
26.2725617151
 10
-1.9368287919
 20
26.2866707075
 10
-1.9136536756
 20
26.3020435194
 10
-1.893918973
 20
26.3185122986
 10
-1.8778376234
 20
26.3358962619
 10
-1.8655792362
 20
26.3540077972
 10
-1.8572720617
 20
26.3726551262
 10
-1.8530065395
 20
26.3916394573
 10
-1.8524123927
 20
26.4033423111
  0
LWPOLYLINE
  5
247
100
AcDbEntity
  8
ASSI
100
AcDbPolyline
 62
250
  6
CONTINUOUS
 90
31
 70
0
 10
-2.1368261143
 20
26.573268264
 10
-2.1278257445
 20
26.5780798739
 10
-2.1200357738
 20
26.5832211045
 10
-2.1134562023
 20
26.5886919556
 10
-2.1080370348
 20
26.5945611391
 10
-2.1038282664
 20
26.6007599432
 10
-2.100979882
 20
26.6070822331
 10
-2.0995407779
 20
26.6135292737
 10
-2.0994620579
 20
26.6200998
 10
-2.1007470177
 20
26.6265838818
 10
-2.103440068
 20
26.6329787532
 10
-2.1074967982
 20
26.6392871801
 10
-2.112787273
 20
26.6453075304
 10
-2.1193511961
 20
26.6510305138
 10
-2.1271488637
 20
26.6564654205
 10
-2.1359312288
 20
26.6614384894
 10
-2.1457301574
 20
26.6659348018
 10
-2.1565137835
 20
26.6699692763
 10
-2.1679374626
 20
26.673412907
 10
-2.1800218755
 20
26.67624666
 10
-2.1927463414
 20
26.6784895691
 10
-2.2057041739
 20
26.6800697303
 10
-2.2189029302
 20
26.6809656487
 10
-2.2323350531
 20
26.6811988191
 10
-2.2455711835
 20
26.6807618215
 10
-2.2586060961
 20
26.6796327262
 10
-2.2714450164
 20
26.6778334629
 10
-2.2836742616
 20
26.6754224005
 10
-2.2951559377
 20
26.6724189953
 10
-2.3060279389
 20
26.668803791
 10
-2.3162902651
 20
26.6645767876
  0
LINE
  5
248
100
AcDbEntity
  8
ASSI
100
AcDbLine
 62
7
  6
CONTINUOUS
 10
-6.4801405842
 20
24.8001560576
 11
-6.4749325384
 21
24.8027604382
  0
LWPOLYLINE
  5
249
100
AcDbEntity
  8
ASSI
100
AcDbPolyline
 62
250
  6
CONTINUOUS
 90
13
 70
0
 10
-6.6919406348
 20
24.685885108
 10
-6.6866611043
 20
24.6885197877
 10
-6.6780233119
 20
24.6919953544
 10
-6.6690062132
 20
24.6946423767
 10
-6.6596449347
 20
24.6964509827
 10
-6.6499718673
 20
24.697415352
 10
-6.6400221592
 20
24.6975321699
 10
-6.6298319278
 20
24.6968010327
 10
-6.619438822
 20
24.6952246769
 10
-6.6088816455
 20
24.6928093314
 10
-6.5981993545
 20
24.689564268
 10
-6.5874308577
 20
24.685501504
 10
-6.5766155984
 20
24.680636136
  0
LINE
  5
24A
100
AcDbEntity
  8
ASSI
100
AcDbLine
 62
7
  6
CONTINUOUS
 10
-0.7717308317
 20
28.2357106688
 11
-7.8189189855
 21
24.8273253353
  0
LINE
  5
24B
100
AcDbEntity
  8
ASSI
100
AcDbLine
 62
250
  6
CONTINUOUS
 10
-5.4519063447
 20
24.9880801145
 11
-2.1368261143
 21
26.573268264
  0
LINE
  5
24C
100
AcDbEntity
  8
ASSI
100
AcDbLine
 62
250
  6
CONTINUOUS
 10
-5.0596119742
 20
24.7919329292
 11
-1.9631951746
 21
26.2725617151
  0
LINE
  5
24D
100
AcDbEntity
  8
ASSI
100
AcDbLine
 62
7
  6
CONTINUOUS
 10
-2.42419512
 20
26.6735252148
 11
-6.4748627813
 21
24.8027926543
  0
LINE
  5
24E
100
AcDbEntity
  8
ASSI
100
AcDbLine
 62
250
  6
CONTINUOUS
 10
-2.3162902651
 20
26.6645767876
 11
-6.3657612811
 21
24.7943968776
  0
LINE
  5
24F
100
AcDbEntity
  8
ASSI
100
AcDbLine
 62
7
  6
CONTINUOUS
 10
-2.3887338836
 20
26.6878397164
 11
-2.4243357224
 21
26.6734562124
  0
LINE
  5
250
100
AcDbEntity
  8
0
100
AcDbLine
 62
250
  6
CONTINUOUS
 10
-9.7237534351
 20
22.9648639788
 11
-9.5604710271
 21
23.0252891236
  0
LWPOLYLINE
  5
251
100
AcDbEntity
  8
ASSI
100
AcDbPolyline
 62
7
  6
CONTINUOUS
 90
3
 70
0
 10
-6.4749325384
 20
24.8027604382
 10
-6.4541357006
 20
24.8095882798
 10
-6.4334020785
 20
24.811741769
  0
LWPOLYLINE
  5
252
100
AcDbEntity
  8
ASSI
100
AcDbPolyline
 62
7
  6
CONTINUOUS
 90
6
 70
0
 10
-11.6269063079
 20
25.4218647951
 10
-11.6251100104
 20
25.4255448017
 10
-11.6198843848
 20
25.4317365972
 10
-11.6116871754
 20
25.4400769255
 10
-11.6007147249
 20
25.4496387181
 10
-11.587148738
 20
25.460202777
  0
LWPOLYLINE
  5
253
100
AcDbEntity
  8
ASSI
100
AcDbPolyline
 62
250
  6
CONTINUOUS
 90
7
 70
0
 10
-7.9344999516
 20
25.9065359881
 10
-7.9335168872
 20
25.9078842519
 10
-7.9306994997
 20
25.9152502014
 10
-7.9305785673
 20
25.9245957998
 10
-7.9331561362
 20
25.9357629106
 10
-7.9383885914
 20
25.9485625755
 10
-7.9461873948
 20
25.9627782117
  0
LWPOLYLINE
  5
254
100
AcDbEntity
  8
ASSI
100
AcDbPolyline
 62
7
  6
CONTINUOUS
 90
6
 70
0
 10
-7.9345251897
 20
25.9065050461
 10
-7.9250503872
 20
25.9189339552
 10
-7.9114378999
 20
25.9397885887
 10
-7.8995847688
 20
25.9620551357
 10
-7.8896418399
 20
25.985615564
 10
-7.8819879423
 20
26.0095923812
  0
LINE
  5
255
100
AcDbEntity
  8
ASSI
100
AcDbLine
 62
250
  6
CONTINUOUS
 10
-7.9461873948
 20
25.9627782117
 11
-8.4870547007
 21
25.2934907256
  0
LINE
  5
256
100
AcDbEntity
  8
ASSI
100
AcDbLine
 62
7
  6
CONTINUOUS
 10
-7.9344999516
 20
25.9065359881
 11
-8.4870547007
 21
25.2227860647
  0
LWPOLYLINE
  5
257
100
AcDbEntity
  8
ASSI
100
AcDbPolyline
 62
250
  6
CONTINUOUS
 90
13
 70
0
 10
-4.3566671098
 20
23.5706618917
 10
-4.3748989345
 20
23.5597069033
 10
-4.3927843907
 20
23.5460581233
 10
-4.4100242062
 20
23.5299439337
 10
-4.4263299129
 20
23.5116339691
 10
-4.4414286724
 20
23.4914346055
 10
-4.455067842
 20
23.4696838337
 10
-4.4670192023
 20
23.4467456033
 10
-4.4770827755
 20
23.423003733
 10
-4.4850901721
 20
23.398855488
 10
-4.4909074075
 20
23.3747049332
 10
-4.4944371449
 20
23.350956172
 10
-4.495620323
 20
23.3280065843
  0
LWPOLYLINE
  5
258
100
AcDbEntity
  8
ASSI
100
AcDbPolyline
 62
250
  6
CONTINUOUS
 90
7
 70
0
 10
2.7862215496
 20
26.1472085297
 10
2.8034702243
 20
26.1570165801
 10
2.8180047938
 20
26.1678147991
 10
2.8295765004
 20
26.1794184693
 10
2.8379872692
 20
26.191629087
 10
2.8430930909
 20
26.2042377452
 10
2.8448017216
 20
26.2177147272
  0
LINE
  5
259
100
AcDbEntity
  8
ASSI
100
AcDbLine
 62
7
  6
CONTINUOUS
 10
-4.1799173384
 20
22.0874597218
 11
-3.9615713011
 21
22.2066612415
  0
LINE
  5
25A
100
AcDbEntity
  8
ASSI
100
AcDbLine
 62
7
  6
CONTINUOUS
 10
-2.7678842759
 20
22.9439715191
 11
-2.9798073706
 21
22.8296340166
  0
LINE
  5
25B
100
AcDbEntity
  8
ASSI
100
AcDbLine
 62
250
  6
CONTINUOUS
 10
-2.6534506798
 20
22.938241577
 11
-2.8643049971
 21
22.8244808354
  0
LINE
  5
25C
100
AcDbEntity
  8
ASSI
100
AcDbLine
 62
7
  6
CONTINUOUS
 10
-3.9615713011
 20
22.2066612415
 11
-3.2795110707
 21
22.5583244009
  0
LINE
  5
25D
100
AcDbEntity
  8
ASSI
100
AcDbLine
 62
250
  6
CONTINUOUS
 10
-4.3566671098
 20
23.5706618917
 11
-4.1383210724
 21
23.6806767733
  0
LINE
  5
25E
100
AcDbEntity
  8
ASSI
100
AcDbLine
 62
250
  6
CONTINUOUS
 10
-4.1799173384
 20
23.2658136301
 11
-3.9615713011
 21
23.3758285116
  0
LINE
  5
25F
100
AcDbEntity
  8
ASSI
100
AcDbLine
 62
7
  6
CONTINUOUS
 10
-2.7678299829
 20
22.944000757
 11
-2.7626219372
 21
22.9466051375
  0
LINE
  5
260
100
AcDbEntity
  8
ASSI
100
AcDbLine
 62
7
  6
CONTINUOUS
 10
1.1731275572
 20
25.769891481
 11
0.0918841875
 21
25.2292697962
  0
LINE
  5
261
100
AcDbEntity
  8
RACCORDO
100
AcDbLine
 62
7
  6
CONTINUOUS
 10
-0.864550514
 20
24.5500016827
 11
-0.8029969884
 21
24.5807784455
  0
LINE
  5
262
100
AcDbEntity
  8
0
100
AcDbLine
 62
7
  6
CONTINUOUS
 10
-0.864550514
 20
24.5500016827
 11
-0.8029969884
 21
24.5807784455
  0
LINE
  5
263
100
AcDbEntity
  8
RACCORDO
100
AcDbLine
 62
250
  6
CONTINUOUS
 10
-0.7795907857
 20
24.5420798299
 11
-0.7135542693
 21
24.5750980881
  0
LINE
  5
264
100
AcDbEntity
  8
0
100
AcDbLine
 62
250
  6
CONTINUOUS
 10
-0.7795907857
 20
24.5420798299
 11
-0.7135542693
 21
24.5750980881
  0
LINE
  5
265
100
AcDbEntity
  8
ASSI
100
AcDbLine
 62
250
  6
CONTINUOUS
 10
-4.1383210724
 20
23.6806767733
 11
-3.4851023079
 21
24.0046780961
  0
LINE
  5
266
100
AcDbEntity
  8
ASSI
100
AcDbLine
 62
250
  6
CONTINUOUS
 10
-3.9615713011
 20
23.3758285116
 11
-3.3038028896
 21
23.7020864928
  0
LWPOLYLINE
  5
267
100
AcDbEntity
  8
RACCORDO
100
AcDbPolyline
 62
250
  6
CONTINUOUS
 90
118
 70
0
 10
-0.7135542693
 20
24.5750980881
 10
-0.7063401238
 20
24.5786610539
 10
-0.699041324
 20
24.5821783225
 10
-0.6916578699
 20
24.5856498939
 10
-0.6841885336
 20
24.5890763145
 10
-0.6766345431
 20
24.5924570378
 10
-0.6689995813
 20
24.5957904254
 10
-0.6612836259
 20
24.5990764435
 10
-0.6534866993
 20
24.6023151257
 10
-0.6456125519
 20
24.6055049346
 10
-0.6376611463
 20
24.6086458444
 10
-0.6296325201
 20
24.6117378809
 10
-0.6215305361
 20
24.6147795841
 10
-0.6133551589
 20
24.6177709276
 10
-0.605106424
 20
24.620711938
 10
-0.5967883006
 20
24.6236012343
 10
-0.5884007542
 20
24.6264387899
 10
-0.5799438192
 20
24.6292246316
 10
-0.5714215688
 20
24.6319574581
 10
-0.5628339729
 20
24.6346372415
 10
-0.5541810614
 20
24.6372640099
 10
-0.5454669977
 20
24.6398365457
 10
-0.5366917533
 20
24.642354821
 10
-0.5278553566
 20
24.6448188637
 10
-0.5189620559
 20
24.647227541
 10
-0.5100118263
 20
24.6495808241
 10
-0.5010046929
 20
24.6518787418
 10
-0.4919449784
 20
24.6541202479
 10
-0.4828326595
 20
24.6563053133
 10
-0.4736677597
 20
24.658433967
 10
-0.4644546727
 20
24.6605052495
 10
-0.4551933793
 20
24.6625191313
 10
-0.4458838988
 20
24.664475642
 10
-0.4365306829
 20
24.666373911
 10
-0.4271337137
 20
24.6682139088
 10
-0.4176930091
 20
24.669995665
 10
-0.4082130749
 20
24.6717183979
 10
-0.3986938972
 20
24.6733820776
 10
-0.3891354899
 20
24.674986734
 10
-0.3795424007
 20
24.6765316757
 10
-0.3699146169
 20
24.6780168729
 10
-0.3602521511
 20
24.6794423554
 10
-0.350559589
 20
24.6808075216
 10
-0.3408369218
 20
24.6821123414
 10
-0.3310841584
 20
24.6833568449
 10
-0.3213059103
 20
24.6845405211
 10
-0.3115021703
 20
24.6856633399
 10
-0.3016729457
 20
24.6867253314
 10
-0.2918228701
 20
24.6877260745
 10
-0.2819519399
 20
24.6886655391
 10
-0.2720601588
 20
24.6895437552
 10
-0.2621521715
 20
24.6903603918
 10
-0.2522279758
 20
24.6911154192
 10
-0.242287574
 20
24.691808867
 10
-0.2323356172
 20
24.6924404936
 10
-0.2223721065
 20
24.6930102692
 10
-0.2123970409
 20
24.6935182236
 10
-0.2024150686
 20
24.6939642037
 10
-0.1924261923
 20
24.6943481803
 10
-0.1824304093
 20
24.6946701826
 10
-0.1724323596
 20
24.6949301457
 10
-0.1624320485
 20
24.6951280405
 10
-0.1524294707
 20
24.695263896
 10
-0.14242925
 20
24.6953377342
 10
-0.1324313938
 20
24.6953495264
 10
-0.1224358946
 20
24.6952993013
 10
-0.1124473543
 20
24.6951871668
 10
-0.1024657823
 20
24.6950130946
 10
-0.0924911691
 20
24.6947771129
 10
-0.0825280883
 20
24.6944794143
 10
-0.0725765516
 20
24.6941199711
 10
-0.0626365474
 20
24.693698811
 10
-0.0527126142
 20
24.6932162099
 10
-0.0428047652
 20
24.6926721406
 10
-0.0329129873
 20
24.6920666304
 10
-0.02304178
 20
24.6914000372
 10
-0.0131911589
 20
24.6906723342
 10
-0.0033611083
 20
24.6898835483
 10
0.0064439185
 20
24.689034118
 10
0.0162239052
 20
24.6881240168
 10
0.0259788682
 20
24.6871532711
 10
0.0357044034
 20
24.6861223986
 10
0.0454004919
 20
24.6850313735
 10
0.0550671526
 20
24.6838802215
 10
0.0647000388
 20
24.6826695376
 10
0.0742991311
 20
24.6813992964
 10
0.0838644489
 20
24.6800695231
 10
0.0933917037
 20
24.6786808889
 10
0.1028808737
 20
24.6772333688
 10
0.1123319807
 20
24.6757269877
 10
0.1217408018
 20
24.6741624905
 10
0.1311073152
 20
24.6725398529
 10
0.1404315426
 20
24.6708590991
 10
0.1497093273
 20
24.6691210472
 10
0.1589406437
 20
24.6673256739
 10
0.1681255173
 20
24.6654730025
 10
0.1772598672
 20
24.6635639213
 10
0.186343668
 20
24.6615984072
 10
0.1953769452
 20
24.6595764833
 10
0.2043556938
 20
24.6574991072
 10
0.2132798879
 20
24.655366256
 10
0.2221495535
 20
24.6531779525
 10
0.2309607638
 20
24.6509352221
 10
0.2397134936
 20
24.648638042
 10
0.2484077681
 20
24.6462864351
 10
0.2570397356
 20
24.6438814952
 10
0.2656093647
 20
24.6414232016
 10
0.2741166869
 20
24.638911575
 10
0.2825579451
 20
24.636347772
 10
0.2909331048
 20
24.6337317734
 10
0.2992422004
 20
24.6310635985
 10
0.3074815781
 20
24.6283444616
 10
0.3156512087
 20
24.6255743422
 10
0.3237511214
 20
24.622753261
 10
0.33177775
 20
24.6198824942
 10
0.3397299056
 20
24.6169624675
 10
0.3476087772
 20
24.6139927554
 10
0.3554143646
 20
24.6109733578
  0
LWPOLYLINE
  5
268
100
AcDbEntity
  8
0
100
AcDbPolyline
 62
250
  6
CONTINUOUS
 90
118
 70
0
 10
-0.7135542693
 20
24.5750980881
 10
-0.7063401238
 20
24.5786610539
 10
-0.699041324
 20
24.5821783225
 10
-0.6916578699
 20
24.5856498939
 10
-0.6841885336
 20
24.5890763145
 10
-0.6766345431
 20
24.5924570378
 10
-0.6689995813
 20
24.5957904254
 10
-0.6612836259
 20
24.5990764435
 10
-0.6534866993
 20
24.6023151257
 10
-0.6456125519
 20
24.6055049346
 10
-0.6376611463
 20
24.6086458444
 10
-0.6296325201
 20
24.6117378809
 10
-0.6215305361
 20
24.6147795841
 10
-0.6133551589
 20
24.6177709276
 10
-0.605106424
 20
24.620711938
 10
-0.5967883006
 20
24.6236012343
 10
-0.5884007542
 20
24.6264387899
 10
-0.5799438192
 20
24.6292246316
 10
-0.5714215688
 20
24.6319574581
 10
-0.5628339729
 20
24.6346372415
 10
-0.5541810614
 20
24.6372640099
 10
-0.5454669977
 20
24.6398365457
 10
-0.5366917533
 20
24.642354821
 10
-0.5278553566
 20
24.6448188637
 10
-0.5189620559
 20
24.647227541
 10
-0.5100118263
 20
24.6495808241
 10
-0.5010046929
 20
24.6518787418
 10
-0.4919449784
 20
24.6541202479
 10
-0.4828326595
 20
24.6563053133
 10
-0.4736677597
 20
24.658433967
 10
-0.4644546727
 20
24.6605052495
 10
-0.4551933793
 20
24.6625191313
 10
-0.4458838988
 20
24.664475642
 10
-0.4365306829
 20
24.666373911
 10
-0.4271337137
 20
24.6682139088
 10
-0.4176930091
 20
24.669995665
 10
-0.4082130749
 20
24.6717183979
 10
-0.3986938972
 20
24.6733820776
 10
-0.3891354899
 20
24.674986734
 10
-0.3795424007
 20
24.6765316757
 10
-0.3699146169
 20
24.6780168729
 10
-0.3602521511
 20
24.6794423554
 10
-0.350559589
 20
24.6808075216
 10
-0.3408369218
 20
24.6821123414
 10
-0.3310841584
 20
24.6833568449
 10
-0.3213059103
 20
24.6845405211
 10
-0.3115021703
 20
24.6856633399
 10
-0.3016729457
 20
24.6867253314
 10
-0.2918228701
 20
24.6877260745
 10
-0.2819519399
 20
24.6886655391
 10
-0.2720601588
 20
24.6895437552
 10
-0.2621521715
 20
24.6903603918
 10
-0.2522279758
 20
24.6911154192
 10
-0.242287574
 20
24.691808867
 10
-0.2323356172
 20
24.6924404936
 10
-0.2223721065
 20
24.6930102692
 10
-0.2123970409
 20
24.6935182236
 10
-0.2024150686
 20
24.6939642037
 10
-0.1924261923
 20
24.6943481803
 10
-0.1824304093
 20
24.6946701826
 10
-0.1724323596
 20
24.6949301457
 10
-0.1624320485
 20
24.6951280405
 10
-0.1524294707
 20
24.695263896
 10
-0.14242925
 20
24.6953377342
 10
-0.1324313938
 20
24.6953495264
 10
-0.1224358946
 20
24.6952993013
 10
-0.1124473543
 20
24.6951871668
 10
-0.1024657823
 20
24.6950130946
 10
-0.0924911691
 20
24.6947771129
 10
-0.0825280883
 20
24.6944794143
 10
-0.0725765516
 20
24.6941199711
 10
-0.0626365474
 20
24.693698811
 10
-0.0527126142
 20
24.6932162099
 10
-0.0428047652
 20
24.6926721406
 10
-0.0329129873
 20
24.6920666304
 10
-0.02304178
 20
24.6914000372
 10
-0.0131911589
 20
24.6906723342
 10
-0.0033611083
 20
24.6898835483
 10
0.0064439185
 20
24.689034118
 10
0.0162239052
 20
24.6881240168
 10
0.0259788682
 20
24.6871532711
 10
0.0357044034
 20
24.6861223986
 10
0.0454004919
 20
24.6850313735
 10
0.0550671526
 20
24.6838802215
 10
0.0647000388
 20
24.6826695376
 10
0.0742991311
 20
24.6813992964
 10
0.0838644489
 20
24.6800695231
 10
0.0933917037
 20
24.6786808889
 10
0.1028808737
 20
24.6772333688
 10
0.1123319807
 20
24.6757269877
 10
0.1217408018
 20
24.6741624905
 10
0.1311073152
 20
24.6725398529
 10
0.1404315426
 20
24.6708590991
 10
0.1497093273
 20
24.6691210472
 10
0.1589406437
 20
24.6673256739
 10
0.1681255173
 20
24.6654730025
 10
0.1772598672
 20
24.6635639213
 10
0.186343668
 20
24.6615984072
 10
0.1953769452
 20
24.6595764833
 10
0.2043556938
 20
24.6574991072
 10
0.2132798879
 20
24.655366256
 10
0.2221495535
 20
24.6531779525
 10
0.2309607638
 20
24.6509352221
 10
0.2397134936
 20
24.648638042
 10
0.2484077681
 20
24.6462864351
 10
0.2570397356
 20
24.6438814952
 10
0.2656093647
 20
24.6414232016
 10
0.2741166869
 20
24.638911575
 10
0.2825579451
 20
24.636347772
 10
0.2909331048
 20
24.6337317734
 10
0.2992422004
 20
24.6310635985
 10
0.3074815781
 20
24.6283444616
 10
0.3156512087
 20
24.6255743422
 10
0.3237511214
 20
24.622753261
 10
0.33177775
 20
24.6198824942
 10
0.3397299056
 20
24.6169624675
 10
0.3476087772
 20
24.6139927554
 10
0.3554143646
 20
24.6109733578
  0
LWPOLYLINE
  5
269
100
AcDbEntity
  8
0
100
AcDbPolyline
 62
250
  6
CONTINUOUS
 90
38
 70
0
 10
-0.8029969884
 20
24.5807784455
 10
-0.8017290426
 20
24.5813975791
 10
-0.7996461362
 20
24.5823517702
 10
-0.7975331252
 20
24.5832428588
 10
-0.7953907488
 20
24.5840705333
 10
-0.7932197558
 20
24.5848345043
 10
-0.7910209057
 20
24.5855345047
 10
-0.7887949671
 20
24.5861702896
 10
-0.7865427184
 20
24.5867416368
 10
-0.7842649474
 20
24.5872483464
 10
-0.7819624503
 20
24.5876902414
 10
-0.7796360324
 20
24.5880671671
 10
-0.7772865071
 20
24.5883789917
 10
-0.7749146961
 20
24.5886256063
 10
-0.7725214286
 20
24.5888069246
 10
-0.7701075417
 20
24.5889228831
 10
-0.7676738793
 20
24.5889734414
 10
-0.7652212924
 20
24.5889585817
 10
-0.7627506387
 20
24.5888783093
 10
-0.7602627821
 20
24.5887326522
 10
-0.7577585926
 20
24.5885216614
 10
-0.7552389458
 20
24.5882454106
 10
-0.7527047227
 20
24.5879039964
 10
-0.7501568096
 20
24.5874975383
 10
-0.7475960974
 20
24.5870261783
 10
-0.7450234815
 20
24.5864900812
 10
-0.7424398615
 20
24.5858894346
 10
-0.7398461409
 20
24.5852244485
 10
-0.7372432265
 20
24.5844953554
 10
-0.7346320287
 20
24.5837024102
 10
-0.7320134604
 20
24.5828458902
 10
-0.7293884373
 20
24.5819260949
 10
-0.7267578774
 20
24.580943346
 10
-0.7241227005
 20
24.5798979872
 10
-0.721483828
 20
24.5787903838
 10
-0.7188421827
 20
24.5776209233
 10
-0.7161986883
 20
24.5763900146
 10
-0.7135542693
 20
24.5750980881
  0
LINE
  5
26A
100
AcDbEntity
  8
ASSI
100
AcDbLine
 62
250
  6
CONTINUOUS
 10
2.0816044506
 20
26.8090430277
 11
-0.1511048135
 21
25.741084772
  0
LINE
  5
26B
100
AcDbEntity
  8
ASSI
100
AcDbLine
 62
250
  6
CONTINUOUS
 10
2.2205361247
 20
26.5669531923
 11
0.0954936313
 21
25.5504945289
  0
LINE
  5
26C
100
AcDbEntity
  8
ASSI
100
AcDbLine
 62
7
  6
CONTINUOUS
 10
-0.850059156
 20
25.6054974186
 11
-1.9507511333
 21
25.0791741451
  0
LWPOLYLINE
  5
26D
100
AcDbEntity
  8
RACCORDO
100
AcDbPolyline
 62
7
  6
CONTINUOUS
 90
45
 70
0
 10
-0.8641182777
 20
24.5502155598
 10
-0.8626037545
 20
24.5509308179
 10
-0.8610645213
 20
24.5516052826
 10
-0.8595009775
 20
24.5522387552
 10
-0.8579135329
 20
24.5528310442
 10
-0.8563024694
 20
24.5533820352
 10
-0.8546682016
 20
24.5538915601
 10
-0.8530111544
 20
24.554359458
 10
-0.8513316328
 20
24.5547856415
 10
-0.8496300659
 20
24.5551699736
 10
-0.8479068928
 20
24.5555123246
 10
-0.8461624407
 20
24.5558126345
 10
-0.8443971522
 20
24.5560707975
 10
-0.8426114797
 20
24.5562867155
 10
-0.8408057718
 20
24.5564603561
 10
-0.8389804837
 20
24.5565916454
 10
-0.8371360801
 20
24.5566805169
 10
-0.8352729303
 20
24.5567269658
 10
-0.833391501
 20
24.5567309501
 10
-0.8314922681
 20
24.5566924355
 10
-0.8295756207
 20
24.5566114448
 10
-0.8276420359
 20
24.556487968
 10
-0.8256920002
 20
24.556322003
 10
-0.8237259208
 20
24.5561136
 10
-0.8217442848
 20
24.5558627814
 10
-0.8197475876
 20
24.555569577
 10
-0.8177362541
 20
24.5552340644
 10
-0.8157107798
 20
24.5548562981
 10
-0.8136716682
 20
24.5544363399
 10
-0.8116193606
 20
24.5539742945
 10
-0.8095543599
 20
24.5534702484
 10
-0.8074771768
 20
24.5529242954
 10
-0.8053882674
 20
24.5523365665
 10
-0.8032881412
 20
24.5517071803
 10
-0.8011773149
 20
24.5510362622
 10
-0.7990562584
 20
24.5503239692
 10
-0.7969254865
 20
24.5495704515
 10
-0.7947855209
 20
24.5487758659
 10
-0.7926368439
 20
24.5479403948
 10
-0.7904799747
 20
24.5470642195
 10
-0.7883154387
 20
24.5461475281
 10
-0.7861437296
 20
24.5451905274
 10
-0.7839653622
 20
24.5441934299
 10
-0.7817808721
 20
24.5431564537
 10
-0.7795907857
 20
24.5420798299
  0
LWPOLYLINE
  5
26E
100
AcDbEntity
  8
0
100
AcDbPolyline
 62
7
  6
CONTINUOUS
 90
45
 70
0
 10
-0.8641182777
 20
24.5502155598
 10
-0.8626037545
 20
24.5509308179
 10
-0.8610645213
 20
24.5516052826
 10
-0.8595009775
 20
24.5522387552
 10
-0.8579135329
 20
24.5528310442
 10
-0.8563024694
 20
24.5533820352
 10
-0.8546682016
 20
24.5538915601
 10
-0.8530111544
 20
24.554359458
 10
-0.8513316328
 20
24.5547856415
 10
-0.8496300659
 20
24.5551699736
 10
-0.8479068928
 20
24.5555123246
 10
-0.8461624407
 20
24.5558126345
 10
-0.8443971522
 20
24.5560707975
 10
-0.8426114797
 20
24.5562867155
 10
-0.8408057718
 20
24.5564603561
 10
-0.8389804837
 20
24.5565916454
 10
-0.8371360801
 20
24.5566805169
 10
-0.8352729303
 20
24.5567269658
 10
-0.833391501
 20
24.5567309501
 10
-0.8314922681
 20
24.5566924355
 10
-0.8295756207
 20
24.5566114448
 10
-0.8276420359
 20
24.556487968
 10
-0.8256920002
 20
24.556322003
 10
-0.8237259208
 20
24.5561136
 10
-0.8217442848
 20
24.5558627814
 10
-0.8197475876
 20
24.555569577
 10
-0.8177362541
 20
24.5552340644
 10
-0.8157107798
 20
24.5548562981
 10
-0.8136716682
 20
24.5544363399
 10
-0.8116193606
 20
24.5539742945
 10
-0.8095543599
 20
24.5534702484
 10
-0.8074771768
 20
24.5529242954
 10
-0.8053882674
 20
24.5523365665
 10
-0.8032881412
 20
24.5517071803
 10
-0.8011773149
 20
24.5510362622
 10
-0.7990562584
 20
24.5503239692
 10
-0.7969254865
 20
24.5495704515
 10
-0.7947855209
 20
24.5487758659
 10
-0.7926368439
 20
24.5479403948
 10
-0.7904799747
 20
24.5470642195
 10
-0.7883154387
 20
24.5461475281
 10
-0.7861437296
 20
24.5451905274
 10
-0.7839653622
 20
24.5441934299
 10
-0.7817808721
 20
24.5431564537
 10
-0.7795907857
 20
24.5420798299
  0
LINE
  5
26F
100
AcDbEntity
  8
ASSI
100
AcDbLine
 62
7
  6
CONTINUOUS
 10
-2.0851485659
 20
23.2594847911
 11
-2.76255218
 21
22.9466373537
  0
LINE
  5
270
100
AcDbEntity
  8
ASSI
100
AcDbLine
 62
250
  6
CONTINUOUS
 10
-1.9770228476
 20
23.2506383659
 11
-2.6534506798
 21
22.938241577
  0
LWPOLYLINE
  5
271
100
AcDbEntity
  8
RACCORDO
100
AcDbPolyline
 62
250
  6
CONTINUOUS
 90
37
 70
0
 10
-0.8017290426
 20
24.5813975791
 10
-0.7996461362
 20
24.5823517702
 10
-0.7975331252
 20
24.5832428588
 10
-0.7953907488
 20
24.5840705333
 10
-0.7932197558
 20
24.5848345043
 10
-0.7910209057
 20
24.5855345047
 10
-0.7887949671
 20
24.5861702896
 10
-0.7865427184
 20
24.5867416368
 10
-0.7842649474
 20
24.5872483464
 10
-0.7819624503
 20
24.5876902414
 10
-0.7796360324
 20
24.5880671671
 10
-0.7772865071
 20
24.5883789917
 10
-0.7749146961
 20
24.5886256063
 10
-0.7725214286
 20
24.5888069246
 10
-0.7701075417
 20
24.5889228831
 10
-0.7676738793
 20
24.5889734414
 10
-0.7652212924
 20
24.5889585817
 10
-0.7627506387
 20
24.5888783093
 10
-0.7602627821
 20
24.5887326522
 10
-0.7577585926
 20
24.5885216614
 10
-0.7552389458
 20
24.5882454106
 10
-0.7527047227
 20
24.5879039964
 10
-0.7501568096
 20
24.5874975383
 10
-0.7475960974
 20
24.5870261783
 10
-0.7450234815
 20
24.5864900812
 10
-0.7424398615
 20
24.5858894346
 10
-0.7398461409
 20
24.5852244485
 10
-0.7372432265
 20
24.5844953554
 10
-0.7346320287
 20
24.5837024102
 10
-0.7320134604
 20
24.5828458902
 10
-0.7293884373
 20
24.5819260949
 10
-0.7267578774
 20
24.580943346
 10
-0.7241227005
 20
24.5798979872
 10
-0.721483828
 20
24.5787903838
 10
-0.7188421827
 20
24.5776209233
 10
-0.7161986883
 20
24.5763900146
 10
-0.7135542693
 20
24.5750980881
  0
LWPOLYLINE
  5
272
100
AcDbEntity
  8
ASSI
100
AcDbPolyline
 62
250
  6
CONTINUOUS
 90
13
 70
0
 10
-4.1799173384
 20
23.2658136301
 10
-4.1996507486
 20
23.2574485225
 10
-4.2213786663
 20
23.2504270346
 10
-4.244737525
 20
23.2448666548
 10
-4.2693364683
 20
23.2408604232
 10
-4.2947638895
 20
23.2384753748
 10
-4.3205943196
 20
23.2377514178
 10
-4.3463955461
 20
23.2387006661
 10
-4.3717358449
 20
23.2413072361
 10
-4.3961912049
 20
23.245527513
 10
-4.4193524219
 20
23.25129088
 10
-4.4408319466
 20
23.2585009007
 10
-4.4602703688
 20
23.267036932
  0
LWPOLYLINE
  5
273
100
AcDbEntity
  8
ASSI
100
AcDbPolyline
 62
7
  6
CONTINUOUS
 90
3
 70
0
 10
-2.7626219372
 20
22.9466051375
 10
-2.7418250994
 20
22.9534329792
 10
-2.7210914773
 20
22.9555864684
  0
LWPOLYLINE
  5
274
100
AcDbEntity
  8
ASSI
100
AcDbPolyline
 62
250
  6
CONTINUOUS
 90
6
 70
0
 10
3.1950915899
 20
23.8633417965
 10
3.2143470664
 20
23.8691806607
 10
3.2349987012
 20
23.8711603048
 10
3.2567048017
 20
23.869248101
 10
3.279106212
 20
23.8634758094
 10
3.3018323106
 20
23.8539390516
  0
LWPOLYLINE
  5
275
100
AcDbEntity
  8
RACCORDO
100
AcDbPolyline
 62
7
  6
CONTINUOUS
 90
10
 70
0
 10
-3.1373382676
 20
-23.3835064935
 10
-3.0686114235
 20
-23.4102095701
 10
-3.0008350454
 20
-23.4296135515
 10
-2.9304721219
 20
-23.4431058434
 10
-2.8581768582
 20
-23.4503727071
 10
-2.7843842422
 20
-23.4512467778
 10
-2.7095783264
 20
-23.4456096311
 10
-2.6343947041
 20
-23.4334245741
 10
-2.5592609235
 20
-23.4147300298
 10
-2.4848726564
 20
-23.3897364476
  0
LWPOLYLINE
  5
276
100
AcDbEntity
  8
RACCORDO
100
AcDbPolyline
 62
250
  6
CONTINUOUS
 90
16
 70
0
 10
-3.4621308789
 20
-22.7188029809
 10
-3.4235114446
 20
-22.7340574685
 10
-3.3820796989
 20
-22.747379776
 10
-3.3382370825
 20
-22.7586408208
 10
-3.2924083957
 20
-22.7677314923
 10
-3.2450376819
 20
-22.7745637091
 10
-3.196583926
 20
-22.7790712723
 10
-3.1475166063
 20
-22.7812105074
 10
-3.0983111463
 20
-22.7809606868
 10
-3.0494443078
 20
-22.7783242311
 10
-3.0013895719
 20
-22.7733266855
 10
-2.9546125506
 20
-22.7660164721
 10
-2.9095664764
 20
-22.7564644213
 10
-2.8666878099
 20
-22.7447630847
 10
-2.8263920114
 20
-22.731025839
 10
-2.7890695152
 20
-22.7153857873
  0
LWPOLYLINE
  5
277
100
AcDbEntity
  8
RACCORDO
100
AcDbPolyline
 62
250
  6
CONTINUOUS
 90
14
 70
0
 10
-3.1372614266
 20
-23.3835482283
 10
-3.1789244556
 20
-23.3622811672
 10
-3.2224146547
 20
-23.3335304984
 10
-3.2628504812
 20
-23.2994862455
 10
-3.3000011819
 20
-23.2603354945
 10
-3.3336872181
 20
-23.2162759668
 10
-3.3637511641
 20
-23.1675287938
 10
-3.3900205767
 20
-23.1143542144
 10
-3.412366585
 20
-23.0570277911
 10
-3.4306897502
 20
-22.9958351045
 10
-3.4448877271
 20
-22.9310812979
 10
-3.4548864584
 20
-22.8630915281
 10
-3.4606433473
 20
-22.7922120808
 10
-3.4621309031
 20
-22.7188029748
  0
LWPOLYLINE
  5
278
100
AcDbEntity
  8
RACCORDO
100
AcDbPolyline
 62
7
  6
CONTINUOUS
 90
10
 70
0
 10
-17.866449601
 20
-16.0187733078
 10
-16.3918219095
 20
-16.841932118
 10
-14.8119451937
 20
-17.7001914699
 10
-13.2063336039
 20
-18.5485542192
 10
-11.5753613733
 20
-19.3868316761
 10
-9.9193998649
 20
-20.2148393728
 10
-8.2388279171
 20
-21.0323994013
 10
-6.5340393893
 20
-21.8393357327
 10
-4.8054351622
 20
-22.6354717355
 10
-3.1365048962
 20
-23.3838839477
  0
LINE
  5
279
100
AcDbEntity
  8
RACCORDO
100
AcDbLine
 62
7
  6
CONTINUOUS
 10
-17.8664488206
 20
-16.0187737492
 11
-17.8661899496
 21
-16.0189200792
  0
LWPOLYLINE
  5
27A
100
AcDbEntity
  8
RACCORDO
100
AcDbPolyline
 62
250
  6
CONTINUOUS
 90
31
 70
0
 10
-18.1623053851
 20
-15.3687157103
 10
-17.7173637675
 20
-15.6205613063
 10
-17.2704028502
 20
-15.8714387121
 10
-16.8214334685
 20
-16.1213445443
 10
-16.3705732236
 20
-16.3702168003
 10
-15.917727138
 20
-16.6181111515
 10
-15.4625826716
 20
-16.865198964
 10
-15.0049896615
 20
-17.111559145
 10
-14.5451097664
 20
-17.3571020492
 10
-14.0830957802
 20
-17.6017452624
 10
-13.6190003966
 20
-17.8454614032
 10
-13.1527884028
 20
-18.088269506
 10
-12.6844829624
 20
-18.3301576935
 10
-12.2140230796
 20
-18.5711573209
 10
-11.741486556
 20
-18.8112284121
 10
-11.2671079301
 20
-19.0502534607
 10
-10.7911962184
 20
-19.2880816116
 10
-10.3134685189
 20
-19.5248592074
 10
-9.8332658673
 20
-19.7609120611
 10
-9.351517625
 20
-19.9957842314
 10
-8.8673090585
 20
-20.2299221503
 10
-8.3771626253
 20
-20.4649814772
 10
-7.8818763932
 20
-20.7005388257
 10
-7.3805786804
 20
-20.9369669722
 10
-6.8671673871
 20
-21.1770599683
 10
-6.3413450027
 20
-21.42083697
 10
-5.8031709573
 20
-21.6681473045
 10
-5.2469279902
 20
-21.9214576105
 10
-4.6705457408
 20
-22.1815023624
 10
-4.0756813404
 20
-22.4473222623
 10
-3.46213088
 20
-22.7188029609
  0
LWPOLYLINE
  5
27B
100
AcDbEntity
  8
RACCORDO
100
AcDbPolyline
 62
250
  6
CONTINUOUS
 90
9
 70
0
 10
-18.1622952739
 20
-15.3687114238
 10
-18.1928048054
 20
-15.3494016174
 10
-18.2193699753
 20
-15.3287257537
 10
-18.2417333937
 20
-15.3068841615
 10
-18.2596783811
 20
-15.284088464
 10
-18.2730310685
 20
-15.2605595288
 10
-18.2816620817
 20
-15.2365253277
 10
-18.2854877947
 20
-15.2122187281
 10
-18.2856878087
 20
-15.2041416743
  0
LINE
  5
27C
100
AcDbEntity
  8
RACCORDO
100
AcDbLine
 62
7
  6
CONTINUOUS
 10
-0.8762462878
 20
24.5422647813
 11
-2.7369274245
 21
22.958471715
  0
LINE
  5
27D
100
AcDbEntity
  8
0
100
AcDbLine
 62
7
  6
CONTINUOUS
 10
-0.8762462878
 20
24.5422647813
 11
-2.7369274245
 21
22.958471715
  0
LINE
  5
27E
100
AcDbEntity
  8
RACCORDO
100
AcDbLine
 62
7
  6
CONTINUOUS
 10
-3.0956705195
 20
22.6531132013
 11
-3.1718139101
 21
22.5883007131
  0
LINE
  5
27F
100
AcDbEntity
  8
0
100
AcDbLine
 62
7
  6
CONTINUOUS
 10
-3.0956705195
 20
22.6531132013
 11
-3.1718139101
 21
22.5883007131
  0
LINE
  5
280
100
AcDbEntity
  8
0
100
AcDbLine
 62
250
  6
CONTINUOUS
 10
-0.7795907857
 20
24.5420798299
 11
-2.5251495847
 21
23.0562777395
  0
LINE
  5
281
100
AcDbEntity
  8
0
100
AcDbLine
 62
250
  6
CONTINUOUS
 10
-3.0971868084
 20
22.569365409
 11
-3.1107883356
 21
22.5577879259
  0
LWPOLYLINE
  5
282
100
AcDbEntity
  8
RACCORDO
100
AcDbPolyline
 62
7
  6
CONTINUOUS
 90
10
 70
0
 10
-0.8762430532
 20
24.5422675308
 10
-0.875306066
 20
24.5430484515
 10
-0.8740009004
 20
24.5440827224
 10
-0.8726684432
 20
24.5450779409
 10
-0.871309054
 20
24.5460338271
 10
-0.8699229419
 20
24.5469501881
 10
-0.8685104735
 20
24.5478267656
 10
-0.8670720258
 20
24.5486633084
 10
-0.8656078328
 20
24.5494596495
 10
-0.8645536527
 20
24.5500001134
  0
LWPOLYLINE
  5
283
100
AcDbEntity
  8
0
100
AcDbPolyline
 62
7
  6
CONTINUOUS
 90
10
 70
0
 10
-0.8762430532
 20
24.5422675308
 10
-0.875306066
 20
24.5430484515
 10
-0.8740009004
 20
24.5440827224
 10
-0.8726684432
 20
24.5450779409
 10
-0.871309054
 20
24.5460338271
 10
-0.8699229419
 20
24.5469501881
 10
-0.8685104735
 20
24.5478267656
 10
-0.8670720258
 20
24.5486633084
 10
-0.8656078328
 20
24.5494596495
 10
-0.8645536527
 20
24.5500001134
  0
LWPOLYLINE
  5
284
100
AcDbEntity
  8
ASSI
100
AcDbPolyline
 62
7
  6
CONTINUOUS
 90
10
 70
0
 10
-2.9798137006
 20
22.829630272
 10
-2.9878656054
 20
22.8250562855
 10
-3.011526168
 20
22.808748234
 10
-3.0330583558
 20
22.7892810607
 10
-3.051996764
 20
22.7669624018
 10
-3.0679091722
 20
22.7422512559
 10
-3.08065886
 20
22.7152432564
 10
-3.0899668417
 20
22.686198819
 10
-3.0955183806
 20
22.6557354172
 10
-3.0971862756
 20
22.6269881288
  0
LINE
  5
285
100
AcDbEntity
  8
ASSI
100
AcDbLine
 62
250
  6
CONTINUOUS
 10
-0.6443565086
 20
21.7145065911
 11
-0.4260104712
 21
21.8245214726
  0
LINE
  5
286
100
AcDbEntity
  8
ASSI
100
AcDbLine
 62
250
  6
CONTINUOUS
 10
-0.4676067372
 20
21.4096583295
 11
-0.2492606998
 21
21.519673211
  0
LINE
  5
287
100
AcDbEntity
  8
ASSI
100
AcDbLine
 62
250
  6
CONTINUOUS
 10
3.4845182328
 20
23.7641725387
 11
-0.4260104712
 21
21.8245214726
  0
LINE
  5
288
100
AcDbEntity
  8
ASSI
100
AcDbLine
 62
250
  6
CONTINUOUS
 10
3.6612680042
 20
23.459324277
 11
-0.2492606998
 21
21.519673211
  0
LINE
  5
289
100
AcDbEntity
  8
ASSI
100
AcDbLine
 62
7
  6
CONTINUOUS
 10
-0.0721857681
 20
22.2982198261
 11
3.1907348561
 21
23.861385607
  0
LINE
  5
28A
100
AcDbEntity
  8
ASSI
100
AcDbLine
 62
250
  6
CONTINUOUS
 10
-0.0102188108
 20
22.2672363475
 11
3.3018323106
 21
23.8539390516
  0
LINE
  5
28B
100
AcDbEntity
  8
ASSI
100
AcDbLine
 62
7
  6
CONTINUOUS
 10
3.763059532
 20
22.8868687255
 11
4.1839380757
 21
23.0884988027
  0
LINE
  5
28C
100
AcDbEntity
  8
ASSI
100
AcDbLine
 62
7
  6
CONTINUOUS
 10
4.4618829656
 20
23.468995314
 11
6.6187983801
 21
24.5019857954
  0
LINE
  5
28D
100
AcDbEntity
  8
ASSI
100
AcDbLine
 62
250
  6
CONTINUOUS
 10
4.4763052552
 20
23.4273797376
 11
6.7076544131
 21
24.4960180464
  0
LINE
  5
28E
100
AcDbEntity
  8
RACCORDO
100
AcDbLine
 62
7
  6
CONTINUOUS
 10
12.789609889
 20
27.344942785
 11
6.7201474515
 21
24.5418638963
  0
LINE
  5
28F
100
AcDbEntity
  8
0
100
AcDbLine
 62
7
  6
CONTINUOUS
 10
12.789609889
 20
27.344942785
 11
6.7201474515
 21
24.5418638963
  0
LINE
  5
290
100
AcDbEntity
  8
RACCORDO
100
AcDbLine
 62
250
  6
CONTINUOUS
 10
13.2212293141
 20
27.3091490787
 11
7.1597634763
 21
24.5097632847
  0
LINE
  5
291
100
AcDbEntity
  8
0
100
AcDbLine
 62
250
  6
CONTINUOUS
 10
13.2212293141
 20
27.3091490787
 11
7.1597634763
 21
24.5097632847
  0
LWPOLYLINE
  5
292
100
AcDbEntity
  8
RACCORDO
100
AcDbPolyline
 62
7
  6
CONTINUOUS
 90
70
 70
0
 10
12.789609889
 20
27.344942785
 10
12.801235041
 20
27.3502218864
 10
12.8129294357
 20
27.3553533377
 10
12.8246907675
 20
27.36033601
 10
12.8365193998
 20
27.3651699006
 10
12.8484103063
 20
27.3698528199
 10
12.86035297
 20
27.3743807498
 10
12.8723127599
 20
27.3787415795
 10
12.8843191053
 20
27.3829470696
 10
12.896458442
 20
27.3870259507
 10
12.9087894584
 20
27.3909932348
 10
12.9212504606
 20
27.3948243787
 10
12.9337473038
 20
27.3984890178
 10
12.9462539583
 20
27.401980572
 10
12.9587909555
 20
27.4053058372
 10
12.9713330552
 20
27.4084591739
 10
12.9838293145
 20
27.4114302889
 10
12.9963249899
 20
27.4142324488
 10
13.0089396794
 20
27.4168915398
 10
13.0217501495
 20
27.4194187659
 10
13.03467533
 20
27.4217931623
 10
13.0475981933
 20
27.4239922064
 10
13.060484758
 20
27.4260120599
 10
13.0733635277
 20
27.4278591345
 10
13.0862109343
 20
27.4295317854
 10
13.0989600349
 20
27.4310247078
 10
13.1116726756
 20
27.4323485313
 10
13.124518473
 20
27.4335197018
 10
13.1376102602
 20
27.4345416817
 10
13.1508294804
 20
27.435398364
 10
13.1639988581
 20
27.4360771648
 10
13.1770457666
 20
27.4365781058
 10
13.1900381897
 20
27.4369075326
 10
13.20301027
 20
27.4370679398
 10
13.2159361082
 20
27.4370603833
 10
13.2288369617
 20
27.4368862289
 10
13.2418169909
 20
27.4365429308
 10
13.2549602626
 20
27.4360233545
 10
13.2681760484
 20
27.4353261694
 10
13.2813068889
 20
27.434459566
 10
13.2942611185
 20
27.4334343193
 10
13.3071274203
 20
27.4322480854
 10
13.3200192439
 20
27.4308910232
 10
13.3329838884
 20
27.4293555228
 10
13.3459680708
 20
27.4276452703
 10
13.3589336808
 20
27.4257643733
 10
13.3718907508
 20
27.4237109308
 10
13.3848243927
 20
27.4214868613
 10
13.3976606692
 20
27.4191061466
 10
13.4103178455
 20
27.4165882846
 10
13.4228760954
 20
27.4139216169
 10
13.4355029812
 20
27.4110697767
 10
13.448312333
 20
27.4080003916
 10
13.4611814554
 20
27.4047361434
 10
13.4739237445
 20
27.4013239698
 10
13.4864375831
 20
27.3977967045
 10
13.4988249213
 20
27.3941311562
 10
13.5112057458
 20
27.3902926149
 10
13.5236376006
 20
27.386260157
 10
13.5360568745
 20
27.3820513118
 10
13.5484008705
 20
27.3776868427
 10
13.5606486535
 20
27.3731754182
 10
13.5728189572
 20
27.3685113789
 10
13.5849100833
 20
27.3636961624
 10
13.5969061844
 20
27.3587371872
 10
13.6088212004
 20
27.3536297686
 10
13.6206972441
 20
27.3483555614
 10
13.6325743823
 20
27.3428944452
 10
13.6444077729
 20
27.3372646713
 10
13.656102195
 20
27.3315124082
  0
LWPOLYLINE
  5
293
100
AcDbEntity
  8
0
100
AcDbPolyline
 62
7
  6
CONTINUOUS
 90
70
 70
0
 10
12.7958665155
 20
27.3477626491
 10
12.801235041
 20
27.3502218864
 10
12.8129294357
 20
27.3553533377
 10
12.8246907675
 20
27.36033601
 10
12.8365193998
 20
27.3651699006
 10
12.8484103063
 20
27.3698528199
 10
12.86035297
 20
27.3743807498
 10
12.8723127599
 20
27.3787415795
 10
12.8843191053
 20
27.3829470696
 10
12.896458442
 20
27.3870259507
 10
12.9087894584
 20
27.3909932348
 10
12.9212504606
 20
27.3948243787
 10
12.9337473038
 20
27.3984890178
 10
12.9462539583
 20
27.401980572
 10
12.9587909555
 20
27.4053058372
 10
12.9713330552
 20
27.4084591739
 10
12.9838293145
 20
27.4114302889
 10
12.9963249899
 20
27.4142324488
 10
13.0089396794
 20
27.4168915398
 10
13.0217501495
 20
27.4194187659
 10
13.03467533
 20
27.4217931623
 10
13.0475981933
 20
27.4239922064
 10
13.060484758
 20
27.4260120599
 10
13.0733635277
 20
27.4278591345
 10
13.0862109343
 20
27.4295317854
 10
13.0989600349
 20
27.4310247078
 10
13.1116726756
 20
27.4323485313
 10
13.124518473
 20
27.4335197018
 10
13.1376102602
 20
27.4345416817
 10
13.1508294804
 20
27.435398364
 10
13.1639988581
 20
27.4360771648
 10
13.1770457666
 20
27.4365781058
 10
13.1900381897
 20
27.4369075326
 10
13.20301027
 20
27.4370679398
 10
13.2159361082
 20
27.4370603833
 10
13.2288369617
 20
27.4368862289
 10
13.2418169909
 20
27.4365429308
 10
13.2549602626
 20
27.4360233545
 10
13.2681760484
 20
27.4353261694
 10
13.2813068889
 20
27.434459566
 10
13.2942611185
 20
27.4334343193
 10
13.3071274203
 20
27.4322480854
 10
13.3200192439
 20
27.4308910232
 10
13.3329838884
 20
27.4293555228
 10
13.3459680708
 20
27.4276452703
 10
13.3589336808
 20
27.4257643733
 10
13.3718907508
 20
27.4237109308
 10
13.3848243927
 20
27.4214868613
 10
13.3976606692
 20
27.4191061466
 10
13.4103178455
 20
27.4165882846
 10
13.4228760954
 20
27.4139216169
 10
13.4355029812
 20
27.4110697767
 10
13.448312333
 20
27.4080003916
 10
13.4611814554
 20
27.4047361434
 10
13.4739237445
 20
27.4013239698
 10
13.4864375831
 20
27.3977967045
 10
13.4988249213
 20
27.3941311562
 10
13.5112057458
 20
27.3902926149
 10
13.5236376006
 20
27.386260157
 10
13.5360568745
 20
27.3820513118
 10
13.5484008705
 20
27.3776868427
 10
13.5606486535
 20
27.3731754182
 10
13.5728189572
 20
27.3685113789
 10
13.5849100833
 20
27.3636961624
 10
13.5969061844
 20
27.3587371872
 10
13.6088212004
 20
27.3536297686
 10
13.6206972441
 20
27.3483555614
 10
13.6325743823
 20
27.3428944452
 10
13.6444077729
 20
27.3372646713
 10
13.6520231155
 20
27.3335188296
  0
LWPOLYLINE
  5
294
100
AcDbEntity
  8
ASSI
100
AcDbPolyline
 62
250
  6
CONTINUOUS
 90
7
 70
0
 10
6.6188069684
 20
24.5019899079
 10
6.6218526232
 20
24.5033678279
 10
6.6373097941
 20
24.5081436591
 10
6.653902909
 20
24.509798039
 10
6.6713542959
 20
24.5083032176
 10
6.6893719645
 20
24.5036841441
 10
6.7076544118
 20
24.4960180458
  0
LINE
  5
295
100
AcDbEntity
  8
ASSI
100
AcDbLine
 62
250
  6
CONTINUOUS
 10
3.190735052
 20
23.8613857009
 11
3.1950915899
 21
23.8633417965
  0
LINE
  5
296
100
AcDbEntity
  8
ASSI
100
AcDbLine
 62
7
  6
CONTINUOUS
 10
6.6718270211
 20
24.5250931561
 11
6.6188137689
 21
24.5019757091
  0
LWPOLYLINE
  5
297
100
AcDbEntity
  8
ASSI
100
AcDbPolyline
 62
250
  6
CONTINUOUS
 90
10
 70
0
 10
6.7076544131
 20
24.4960180464
 10
6.7598244688
 20
24.5186598029
 10
6.8115894803
 20
24.536435452
 10
6.8626658684
 20
24.5492479874
 10
6.9127720721
 20
24.5570283593
 10
6.9616344519
 20
24.5597338469
 10
7.0089887711
 20
24.5573482005
 10
7.0545737582
 20
24.5498854983
 10
7.0981387939
 20
24.5373869771
 10
7.140303234
 20
24.5194934059
  0
LWPOLYLINE
  5
298
100
AcDbEntity
  8
ASSI
100
AcDbPolyline
 62
250
  6
CONTINUOUS
 90
31
 70
0
 10
3.3018323106
 20
23.8539390516
 10
3.311884746
 20
23.8582427982
 10
3.3225809814
 20
23.8619449868
 10
3.3339210169
 20
23.8650456174
 10
3.3460454698
 20
23.8675671133
 10
3.3588137227
 20
23.8694870512
 10
3.3718039235
 20
23.8707381609
 10
3.3850187366
 20
23.8712969346
 10
3.3984554976
 20
23.87118688
 10
3.4116843599
 20
23.8704112503
 10
3.4246986158
 20
23.8689483696
 10
3.4375049731
 20
23.8668199138
 10
3.449693709
 20
23.8640941638
 10
3.4612448526
 20
23.8607518568
 10
3.4721783748
 20
23.8568122555
 10
3.4821444657
 20
23.8524014286
 10
3.4911117708
 20
23.8475041223
 10
3.4991116447
 20
23.8421355903
 10
3.5058883407
 20
23.8364676626
 10
3.5114024058
 20
23.830490689
 10
3.5156932929
 20
23.8242143197
 10
3.5186236147
 20
23.8178393347
 10
3.5201490564
 20
23.8113625754
 10
3.5203139327
 20
23.8047872005
 10
3.5191138006
 20
23.7983234664
 10
3.5164997981
 20
23.7919723284
 10
3.5125207871
 20
23.7857328312
 10
3.5073189109
 20
23.7798123646
 10
3.5009415502
 20
23.7742800586
 10
3.4933413242
 20
23.7690667833
 10
3.4845182328
 20
23.7641725387
  0
LINE
  5
299
100
AcDbEntity
  8
ASSI
100
AcDbLine
 62
7
  6
CONTINUOUS
 10
3.2229549825
 20
23.8750584678
 11
3.1906511671
 21
23.8613356894
  0
LWPOLYLINE
  5
29A
100
AcDbEntity
  8
RACCORDO
100
AcDbPolyline
 62
7
  6
CONTINUOUS
 90
52
 70
0
 10
6.4139119025
 20
24.4038615112
 10
6.4106988425
 20
24.4027889786
 10
6.403396195
 20
24.4004750546
 10
6.3960589509
 20
24.3982732829
 10
6.3886888302
 20
24.3961841798
 10
6.3812875625
 20
24.3942082358
 10
6.3738568856
 20
24.392345915
 10
6.3663985421
 20
24.3905976545
 10
6.3589142821
 20
24.3889638649
 10
6.3514058631
 20
24.3874449301
 10
6.3438750482
 20
24.3860412071
 10
6.3363236047
 20
24.3847530255
 10
6.3287533057
 20
24.3835806882
 10
6.3211659302
 20
24.3825244708
 10
6.3135632592
 20
24.3815846214
 10
6.3059470775
 20
24.3807613609
 10
6.2983191757
 20
24.3800548829
 10
6.2906813448
 20
24.3794653533
 10
6.2830353772
 20
24.3789929106
 10
6.2753830692
 20
24.3786376656
 10
6.2677262176
 20
24.3783997018
 10
6.2600666193
 20
24.3782790751
 10
6.2524060724
 20
24.3782758136
 10
6.2447463753
 20
24.3783899181
 10
6.2370893258
 20
24.3786213619
 10
6.2294367217
 20
24.3789700905
 10
6.2217903593
 20
24.3794360221
 10
6.2141520335
 20
24.3800190473
 10
6.2065235373
 20
24.3807190291
 10
6.1989066611
 20
24.3815358034
 10
6.1913031932
 20
24.3824691782
 10
6.183714919
 20
24.3835189344
 10
6.1761436194
 20
24.3846848255
 10
6.1685910722
 20
24.3859665779
 10
6.161059052
 20
24.3873638901
 10
6.153549327
 20
24.388876434
 10
6.1460636601
 20
24.3905038545
 10
6.1386038094
 20
24.3922457691
 10
6.1311715264
 20
24.3941017686
 10
6.1237685554
 20
24.3960714172
 10
6.1163966343
 20
24.3981542524
 10
6.1090574931
 20
24.4003497851
 10
6.1017528551
 20
24.4026574996
 10
6.0944844369
 20
24.4050768534
 10
6.0872539441
 20
24.4076072784
 10
6.0800630745
 20
24.4102481801
 10
6.0729135185
 20
24.4129989373
 10
6.0658069551
 20
24.4158589036
 10
6.0587450516
 20
24.4188274074
 10
6.0517294665
 20
24.4219037512
 10
6.0447618466
 20
24.4250872122
 10
6.0378438271
 20
24.4283770428
  0
LWPOLYLINE
  5
29B
100
AcDbEntity
  8
0
100
AcDbPolyline
 62
7
  6
CONTINUOUS
 90
52
 70
0
 10
6.4139119025
 20
24.4038615112
 10
6.4106988425
 20
24.4027889786
 10
6.403396195
 20
24.4004750546
 10
6.3960589509
 20
24.3982732829
 10
6.3886888302
 20
24.3961841798
 10
6.3812875625
 20
24.3942082358
 10
6.3738568856
 20
24.392345915
 10
6.3663985421
 20
24.3905976545
 10
6.3589142821
 20
24.3889638649
 10
6.3514058631
 20
24.3874449301
 10
6.3438750482
 20
24.3860412071
 10
6.3363236047
 20
24.3847530255
 10
6.3287533057
 20
24.3835806882
 10
6.3211659302
 20
24.3825244708
 10
6.3135632592
 20
24.3815846214
 10
6.3059470775
 20
24.3807613609
 10
6.2983191757
 20
24.3800548829
 10
6.2906813448
 20
24.3794653533
 10
6.2830353772
 20
24.3789929106
 10
6.2753830692
 20
24.3786376656
 10
6.2677262176
 20
24.3783997018
 10
6.2600666193
 20
24.3782790751
 10
6.2524060724
 20
24.3782758136
 10
6.2447463753
 20
24.3783899181
 10
6.2370893258
 20
24.3786213619
 10
6.2294367217
 20
24.3789700905
 10
6.2217903593
 20
24.3794360221
 10
6.2141520335
 20
24.3800190473
 10
6.2065235373
 20
24.3807190291
 10
6.1989066611
 20
24.3815358034
 10
6.1913031932
 20
24.3824691782
 10
6.183714919
 20
24.3835189344
 10
6.1761436194
 20
24.3846848255
 10
6.1685910722
 20
24.3859665779
 10
6.161059052
 20
24.3873638901
 10
6.153549327
 20
24.388876434
 10
6.1460636601
 20
24.3905038545
 10
6.1386038094
 20
24.3922457691
 10
6.1311715264
 20
24.3941017686
 10
6.1237685554
 20
24.3960714172
 10
6.1163966343
 20
24.3981542524
 10
6.1090574931
 20
24.4003497851
 10
6.1017528551
 20
24.4026574996
 10
6.0944844369
 20
24.4050768534
 10
6.0872539441
 20
24.4076072784
 10
6.0800630745
 20
24.4102481801
 10
6.0729135185
 20
24.4129989373
 10
6.0658069551
 20
24.4158589036
 10
6.0587450516
 20
24.4188274074
 10
6.0517294665
 20
24.4219037512
 10
6.0447618466
 20
24.4250872122
 10
6.0378438271
 20
24.4283770428
  0
LWPOLYLINE
  5
29C
100
AcDbEntity
  8
ASSI
100
AcDbPolyline
 62
7
  6
CONTINUOUS
 90
3
 70
0
 10
1.7493457596
 20
21.1328784047
 10
1.7659832299
 20
21.138340678
 10
1.7825701275
 20
21.1400634693
  0
LINE
  5
29D
100
AcDbEntity
  8
ASSI
100
AcDbLine
 62
250
  6
CONTINUOUS
 10
4.6403133103
 20
-21.5550762802
 11
4.0994460045
 21
-21.4458732851
  0
LINE
  5
29E
100
AcDbEntity
  8
ASSI
100
AcDbLine
 62
250
  6
CONTINUOUS
 10
4.5672068831
 20
-21.3002653719
 11
4.0994460045
 21
-21.2058228193
  0
LWPOLYLINE
  5
29F
100
AcDbEntity
  8
ASSI
100
AcDbPolyline
 62
7
  6
CONTINUOUS
 90
13
 70
0
 10
2.8833353068
 20
-21.6947335114
 10
2.9057316605
 20
-21.6999708758
 10
2.930103733
 20
-21.7058792073
 10
2.9561554899
 20
-21.7123067516
 10
2.9836887584
 20
-21.7190315898
 10
3.0122331685
 20
-21.7258700826
 10
3.0410600161
 20
-21.7326518561
 10
3.0698736257
 20
-21.7389839602
 10
3.0982880975
 20
-21.7446544193
 10
3.1254905319
 20
-21.7497241857
 10
3.1510622627
 20
-21.7540178178
 10
3.174955906
 20
-21.7571295781
 10
3.1969952538
 20
-21.7587981157
  0
LWPOLYLINE
  5
2A0
100
AcDbEntity
  8
ASSI
100
AcDbPolyline
 62
250
  6
CONTINUOUS
 90
13
 70
0
 10
2.1618481848
 20
-22.9888553692
 10
2.181286607
 20
-22.9973914005
 10
2.2027661317
 20
-23.0046014212
 10
2.2259273487
 20
-23.0103647883
 10
2.2503827087
 20
-23.0145850651
 10
2.2757230075
 20
-23.0171916351
 10
2.301524234
 20
-23.0181408834
 10
2.3273546641
 20
-23.0174169265
 10
2.3527820853
 20
-23.015031878
 10
2.3773810286
 20
-23.0110256464
 10
2.4007398873
 20
-23.0054652666
 10
2.422467805
 20
-22.9984437787
 10
2.4422012152
 20
-22.9900786711
  0
LWPOLYLINE
  5
2A1
100
AcDbEntity
  8
ASSI
100
AcDbPolyline
 62
250
  6
CONTINUOUS
 90
13
 70
0
 10
2.1618481848
 20
-22.6715865688
 10
2.1812866232
 20
-22.6801226064
 10
2.202766164
 20
-22.6873326303
 10
2.2259273955
 20
-22.6930959979
 10
2.2503827673
 20
-22.697316273
 10
2.2757230744
 20
-22.6999228397
 10
2.301524304
 20
-22.7008720836
 10
2.327354732
 20
-22.7001481222
 10
2.3527821461
 20
-22.6977630701
 10
2.3773810778
 20
-22.6937568364
 10
2.4007399216
 20
-22.6881964568
 10
2.4224678224
 20
-22.6811749719
 10
2.4422012152
 20
-22.6728098708
  0
LWPOLYLINE
  5
2A2
100
AcDbEntity
  8
ASSI
100
AcDbPolyline
 62
7
  6
CONTINUOUS
 90
10
 70
0
 10
2.2267698015
 20
-23.1240466128
 10
2.2392267068
 20
-23.1298169355
 10
2.2605620286
 20
-23.1376241067
 10
2.2827408028
 20
-23.1432182495
 10
2.3055267643
 20
-23.1465034424
 10
2.3287593667
 20
-23.147411495
 10
2.3521896725
 20
-23.1458814361
 10
2.3754816447
 20
-23.1419050917
 10
2.3984054677
 20
-23.1355063895
 10
2.4222375775
 20
-23.1260515457
  0
LINE
  5
2A3
100
AcDbEntity
  8
ASSI
100
AcDbLine
 62
7
  6
CONTINUOUS
 10
2.2270485571
 20
-23.1241873572
 11
0.4924662314
 21
-22.2568961944
  0
LINE
  5
2A4
100
AcDbEntity
  8
ASSI
100
AcDbLine
 62
250
  6
CONTINUOUS
 10
2.1618481848
 20
-22.9888553692
 11
0.6091418609
 21
-22.2125022073
  0
LINE
  5
2A5
100
AcDbEntity
  8
ASSI
100
AcDbLine
 62
250
  6
CONTINUOUS
 10
2.1618481848
 20
-22.6715865688
 11
1.2263796665
 21
-22.2038523097
  0
LINE
  5
2A6
100
AcDbEntity
  8
ASSI
100
AcDbLine
 62
250
  6
CONTINUOUS
 10
1.0328153804
 20
-22.1070701666
 11
0.9466638948
 21
-22.0639944238
  0
LINE
  5
2A7
100
AcDbEntity
  8
ASSI
100
AcDbLine
 62
250
  6
CONTINUOUS
 10
2.2505450973
 20
-22.4400466775
 11
1.4678611231
 21
-22.0487046903
  0
LWPOLYLINE
  5
2A8
100
AcDbEntity
  8
ASSI
100
AcDbPolyline
 62
250
  6
CONTINUOUS
 90
16
 70
0
 10
2.2267723047
 20
-23.1240486662
 10
2.2200369491
 20
-23.1203014138
 10
2.2124323773
 20
-23.1151377695
 10
2.2052730431
 20
-23.1092110965
 10
2.1985910502
 20
-23.1025475699
 10
2.1924039871
 20
-23.0951643333
 10
2.186737612
 20
-23.0870907134
 10
2.1816127904
 20
-23.0783564572
 10
2.1770469157
 20
-23.0689912784
 10
2.1730567617
 20
-23.0590292279
 10
2.1696563742
 20
-23.0485054142
 10
2.1668578355
 20
-23.0374573972
 10
2.1646714169
 20
-23.025926291
 10
2.1631046368
 20
-23.0139538851
 10
2.1621625553
 20
-23.0015822297
 10
2.1618481848
 20
-22.9888553692
  0
LWPOLYLINE
  5
2A9
100
AcDbEntity
  8
RACCORDO
100
AcDbPolyline
 62
250
  6
CONTINUOUS
 90
13
 70
0
 10
-18.1623053786
 20
-15.3687157055
 10
-18.1606220423
 20
-15.4422227067
 10
-18.1545457962
 20
-15.5132618353
 10
-18.1441113481
 20
-15.5814694644
 10
-18.1293836162
 20
-15.6464881474
 10
-18.1104372524
 20
-15.7079924312
 10
-18.0873530357
 20
-15.7656879572
 10
-18.0602544044
 20
-15.8192771452
 10
-18.0292843971
 20
-15.8684773483
 10
-17.9945827342
 20
-15.9130446889
 10
-17.9563376023
 20
-15.9527426552
 10
-17.9147507362
 20
-15.9873624276
 10
-17.8664488206
 20
-16.0187737492
  0
LWPOLYLINE
  5
2AA
100
AcDbEntity
  8
RACCORDO
100
AcDbPolyline
 62
7
  6
CONTINUOUS
 90
14
 70
0
 10
-18.2856878087
 20
-15.2041416743
 10
-18.2856786331
 20
-15.2265653072
 10
-18.2810198845
 20
-15.3223080865
 10
-18.2689558148
 20
-15.4144404678
 10
-18.2495392039
 20
-15.5030140751
 10
-18.2229446234
 20
-15.5874127083
 10
-18.1897972908
 20
-15.6662352811
 10
-18.1509110552
 20
-15.7386813984
 10
-18.1066048423
 20
-15.8050952866
 10
-18.0570800458
 20
-15.865644473
 10
-18.0029632466
 20
-15.9199257168
 10
-17.9448242235
 20
-15.9677547084
 10
-17.8826893317
 20
-16.0093163791
 10
-17.8662074838
 20
-16.0189101638
  0
LWPOLYLINE
  5
2AB
100
AcDbEntity
  8
RACCORDO
100
AcDbPolyline
 62
7
  6
CONTINUOUS
 90
10
 70
0
 10
-16.7442017853
 20
21.5910584637
 10
-17.0328783972
 20
17.5053511163
 10
-17.2964617443
 20
13.3600749839
 10
-17.5295463615
 20
9.2279052364
 10
-17.7320913863
 20
5.1092771278
 10
-17.9040773852
 20
1.0045472314
 10
-18.0454903066
 20
-3.0859577472
 10
-18.1563191314
 20
-7.1618851365
 10
-18.2365683905
 20
-11.2228206063
 10
-18.2856878087
 20
-15.2041416743
  0
LWPOLYLINE
  5
2AC
100
AcDbEntity
  8
RACCORDO
100
AcDbPolyline
 62
250
  6
CONTINUOUS
 90
10
 70
0
 10
-16.6205819927
 20
21.4314882087
 10
-16.9154879803
 20
17.2903289479
 10
-17.1795637419
 20
13.1612134687
 10
-17.4127716235
 20
9.0445225866
 10
-17.615086447
 20
4.9404508275
 10
-17.7864719304
 20
0.8495606
 10
-17.9268892711
 20
-3.2272218104
 10
-18.0363281076
 20
-7.2893452918
 10
-18.1147979588
 20
-11.3366304402
 10
-18.1623053851
 20
-15.3687157103
  0
LWPOLYLINE
  5
2AD
100
AcDbEntity
  8
ASSI
100
AcDbPolyline
 62
7
  6
CONTINUOUS
 90
9
 70
0
 10
4.4625639276
 20
23.4693622189
 10
4.4609216922
 20
23.4683347553
 10
4.4573677517
 20
23.4643649145
 10
4.4538767722
 20
23.4580897003
 10
4.4505165217
 20
23.4493454145
 10
4.447396465
 20
23.4383045394
 10
4.4447196725
 20
23.4256041153
 10
4.4425960506
 20
23.4114599969
 10
4.4410270714
 20
23.3956652387
  0
LWPOLYLINE
  5
2AE
100
AcDbEntity
  8
ASSI
100
AcDbPolyline
 62
7
  6
CONTINUOUS
 90
12
 70
0
 10
0.1780284154
 20
20.2852807674
 10
0.166732782
 20
20.2787949459
 10
0.1444417363
 20
20.263452998
 10
0.123544371
 20
20.2454589501
 10
0.1043520441
 20
20.2250113704
 10
0.0875773415
 20
20.2029840893
 10
0.0729144339
 20
20.1791032512
 10
0.0604381184
 20
20.1532855662
 10
0.0507996763
 20
20.1268340515
 10
0.0439925569
 20
20.1000801421
 10
0.0398959847
 20
20.0722751805
 10
0.0387682689
 20
20.048217576
  0
LWPOLYLINE
  5
2AF
100
AcDbEntity
  8
ASSI
100
AcDbPolyline
 62
250
  6
CONTINUOUS
 90
12
 70
0
 10
0.2704320193
 20
20.2811593462
 10
0.2619700047
 20
20.2764667298
 10
0.2532881863
 20
20.2711294944
 10
0.2444112512
 20
20.2651173425
 10
0.2353464238
 20
20.2583858653
 10
0.2261477551
 20
20.2509243318
 10
0.2169133967
 20
20.2427687921
 10
0.2076798929
 20
20.2339127129
 10
0.1984871328
 20
20.2243540791
 10
0.1894353797
 20
20.2141634816
 10
0.1805643584
 20
20.2033579077
 10
0.1719139666
 20
20.191956953
  0
LINE
  5
2B0
100
AcDbEntity
  8
ASSI
100
AcDbLine
 62
7
  6
CONTINUOUS
 10
-0.2492606998
 20
20.3505059409
 11
-0.4676067372
 21
20.2313044212
  0
LINE
  5
2B1
100
AcDbEntity
  8
ASSI
100
AcDbLine
 62
7
  6
CONTINUOUS
 10
1.7451358887
 20
21.1307715099
 11
0.1779353984
 21
20.2852308912
  0
LINE
  5
2B2
100
AcDbEntity
  8
ASSI
100
AcDbLine
 62
250
  6
CONTINUOUS
 10
1.8366827655
 20
21.1261875562
 11
0.2704320193
 21
20.2811593462
  0
LINE
  5
2B3
100
AcDbEntity
  8
ASSI
100
AcDbLine
 62
7
  6
CONTINUOUS
 10
1.745179323
 20
21.1307949002
 11
1.7493457596
 21
21.1328784047
  0
LINE
  5
2B4
100
AcDbEntity
  8
ASSI
100
AcDbLine
 62
7
  6
CONTINUOUS
 10
-0.2492606998
 20
20.3505059409
 11
3.6491012406
 21
22.2841222025
  0
LINE
  5
2B5
100
AcDbEntity
  8
ASSI
100
AcDbLine
 62
7
  6
CONTINUOUS
 10
9.5609896955
 20
23.0693504053
 11
4.1962384232
 21
20.5283715822
  0
LINE
  5
2B6
100
AcDbEntity
  8
ASSI
100
AcDbLine
 62
250
  6
CONTINUOUS
 10
2.3794107806
 20
21.3768373389
 11
1.8366827655
 21
21.1261875562
  0
LINE
  5
2B7
100
AcDbEntity
  8
ASSI
100
AcDbLine
 62
7
  6
CONTINUOUS
 10
2.2933252771
 20
21.3841056553
 11
1.7494015653
 21
21.1329041776
  0
LWPOLYLINE
  5
2B8
100
AcDbEntity
  8
ASSI
100
AcDbPolyline
 62
250
  6
CONTINUOUS
 90
3
 70
0
 10
4.5902428713
 20
-21.3081788268
 10
4.5842966256
 20
-21.3054829347
 10
4.5672076224
 20
-21.3002657572
  0
LINE
  5
2B9
100
AcDbEntity
  8
ASSI
100
AcDbLine
 62
7
  6
CONTINUOUS
 10
1.0563386178
 20
-21.3679987604
 11
1.2263796665
 21
-21.4530192848
  0
LINE
  5
2BA
100
AcDbEntity
  8
ASSI
100
AcDbLine
 62
7
  6
CONTINUOUS
 10
1.0801911046
 20
-20.7986512475
 11
1.1936561993
 21
-20.8553837949
  0
LINE
  5
2BB
100
AcDbEntity
  8
ASSI
100
AcDbLine
 62
7
  6
CONTINUOUS
 10
2.1195470171
 20
-21.3183292038
 11
2.8465539659
 21
-21.6818326782
  0
LINE
  5
2BC
100
AcDbEntity
  8
ASSI
100
AcDbLine
 62
7
  6
CONTINUOUS
 10
1.5538615922
 20
-20.4096534664
 11
2.1195470171
 21
-20.6924961789
  0
LINE
  5
2BD
100
AcDbEntity
  8
ASSI
100
AcDbLine
 62
7
  6
CONTINUOUS
 10
2.8465539659
 20
-20.9879199509
 11
3.0467301448
 21
-21.0880080404
  0
LINE
  5
2BE
100
AcDbEntity
  8
ASSI
100
AcDbLine
 62
250
  6
CONTINUOUS
 10
4.0994460045
 20
-21.0663937826
 11
4.5672068831
 21
-21.3002653719
  0
LINE
  5
2BF
100
AcDbEntity
  8
ASSI
100
AcDbLine
 62
7
  6
CONTINUOUS
 10
4.5904822895
 20
-21.3082980854
 11
4.0994460045
 21
-21.0627799426
  0
LWPOLYLINE
  5
2C0
100
AcDbEntity
  8
ASSI
100
AcDbPolyline
 62
250
  6
CONTINUOUS
 90
13
 70
0
 10
2.2505450973
 20
-22.4400466775
 10
2.2692581798
 20
-22.4504842496
 10
2.2888511118
 20
-22.4626851063
 10
2.308992362
 20
-22.4764427973
 10
2.3293411211
 20
-22.4915245293
 10
2.3495530683
 20
-22.5076751047
 10
2.3692861979
 20
-22.5246212402
 10
2.3882066064
 20
-22.5420761908
 10
2.4059941421
 20
-22.5597446019
 10
2.4223478229
 20
-22.5773275069
 10
2.4369909285
 20
-22.5945273861
 10
2.4496756835
 20
-22.6110532009
 10
2.4601874496
 20
-22.6266253184
  0
LWPOLYLINE
  5
2C1
100
AcDbEntity
  8
ASSI
100
AcDbPolyline
 62
7
  6
CONTINUOUS
 90
16
 70
0
 10
3.5719423254
 20
22.7279002637
 10
3.5953806724
 20
22.7496276664
 10
3.6156023599
 20
22.774852799
 10
3.632607388
 20
22.8035756616
 10
3.6464981711
 20
22.8361241018
 10
3.6571722947
 20
22.872170272
 10
3.6643225153
 20
22.9107306289
 10
3.6678464184
 20
22.9519788149
 10
3.6678464184
 20
22.9957411878
 10
3.6643225153
 20
23.0405132769
 10
3.6571722947
 20
23.0862238544
 10
3.6464981711
 20
23.1329441482
 10
3.632607388
 20
23.1793833716
 10
3.6156023599
 20
23.2251112622
 10
3.5953806724
 20
23.2705580823
 10
3.5719423254
 20
23.315723832
  0
LWPOLYLINE
  5
2C2
100
AcDbEntity
  8
ASSI
100
AcDbPolyline
 62
7
  6
CONTINUOUS
 90
3
 70
0
 10
0.9993519671
 20
19.1669524245
 10
1.0151338336
 20
19.1789746185
 10
1.0328153804
 20
19.1925339727
  0
LWPOLYLINE
  5
2C3
100
AcDbEntity
  8
ASSI
100
AcDbPolyline
 62
250
  6
CONTINUOUS
 90
7
 70
0
 10
4.657682415
 20
20.0559645712
 10
4.6744126161
 20
20.0658312669
 10
4.688455585
 20
20.0766952166
 10
4.6995763441
 20
20.0883746378
 10
4.7075888119
 20
20.1006741032
 10
4.7123589167
 20
20.1133878099
 10
4.7138144549
 20
20.1254304082
  0
LWPOLYLINE
  5
2C4
100
AcDbEntity
  8
ASSI
100
AcDbPolyline
 62
250
  6
CONTINUOUS
 90
7
 70
0
 10
4.657682415
 20
19.7160209764
 10
4.6744126301
 20
19.7258876814
 10
4.6884556059
 20
19.7367516403
 10
4.6995763655
 20
19.7484310697
 10
4.7075888287
 20
19.7607305413
 10
4.7123589256
 20
19.7734442519
 10
4.7138144549
 20
19.7854868134
  0
LWPOLYLINE
  5
2C5
100
AcDbEntity
  8
ASSI
100
AcDbPolyline
 62
250
  6
CONTINUOUS
 90
28
 70
0
 10
2.3361460607
 20
19.2483023255
 10
2.3270243355
 20
19.2432922506
 10
2.3177508715
 20
19.2376071361
 10
2.3083539366
 20
19.2312285914
 10
2.2988443223
 20
19.224125336
 10
2.2892773919
 20
19.2162986748
 10
2.2797501345
 20
19.2077951473
 10
2.270298937
 20
19.1986206755
 10
2.2609624788
 20
19.1887853877
 10
2.2518364884
 20
19.17836858
 10
2.242959804
 20
19.1674009333
 10
2.2343646167
 20
19.1559081099
 10
2.2261270206
 20
19.1439827788
 10
2.2182844367
 20
19.1316788229
 10
2.2108557332
 20
19.1190256496
 10
2.2038798149
 20
19.1060898016
 10
2.1973840063
 20
19.0929270613
 10
2.1913835625
 20
19.0795739106
 10
2.1858950625
 20
19.0660702311
 10
2.1809361028
 20
19.0524619757
 10
2.176522933
 20
19.0387967532
 10
2.1726685797
 20
19.0251169377
 10
2.1693857427
 20
19.0114694904
 10
2.1666850641
 20
18.997901021
 10
2.1645746893
 20
18.9844531664
 10
2.1630617974
 20
18.9711704285
 10
2.1621518957
 20
18.9580999008
 10
2.1618481848
 20
18.9452863709
  0
LWPOLYLINE
  5
2C6
100
AcDbEntity
  8
ASSI
100
AcDbPolyline
 62
250
  6
CONTINUOUS
 90
28
 70
0
 10
2.4775458778
 20
19.0044237162
 10
2.4756856317
 20
19.0034395496
 10
2.4738071114
 20
19.0023142126
 10
2.4719103172
 20
19.0010477051
 10
2.4699839744
 20
18.9996373932
 10
2.4680393576
 20
18.9980859108
 10
2.46611029
 20
18.9964011601
 10
2.4641966827
 20
18.9945782041
 10
2.4622986246
 20
18.9926219797
 10
2.4604502052
 20
18.9905552003
 10
2.4586533417
 20
18.988374757
 10
2.456906117
 20
18.9860837588
 10
2.4552368689
 20
18.9837142458
 10
2.4536490259
 20
18.9812667097
 10
2.4521391596
 20
18.9787406589
 10
2.4507253223
 20
18.9761666593
 10
2.4494098028
 20
18.9735460815
 10
2.4481903123
 20
18.9708775548
 10
2.4470780366
 20
18.9681875332
 10
2.4460738897
 20
18.9654757914
 10
2.4451769576
 20
18.9627425547
 10
2.4443956833
 20
18.9600149528
 10
2.4437311228
 20
18.9572930979
 10
2.44318222
 20
18.9545768778
 10
2.4427542504
 20
18.9518930856
 10
2.4424489722
 20
18.9492506522
 10
2.4422646271
 20
18.9466406467
 10
2.4422012152
 20
18.944063069
  0
LINE
  5
2C7
100
AcDbEntity
  8
ASSI
100
AcDbLine
 62
7
  6
CONTINUOUS
 10
10.7749153056
 20
22.1002380988
 11
4.3880264637
 21
18.7238526107
  0
LINE
  5
2C8
100
AcDbEntity
  8
ASSI
100
AcDbLine
 62
7
  6
CONTINUOUS
 10
10.7522480154
 20
22.498933214
 11
4.2149722521
 21
19.072491796
  0
LINE
  5
2C9
100
AcDbEntity
  8
ASSI
100
AcDbLine
 62
250
  6
CONTINUOUS
 10
3.9580461874
 20
20.0655058453
 11
2.3361460607
 21
19.2483023255
  0
LINE
  5
2CA
100
AcDbEntity
  8
ASSI
100
AcDbLine
 62
250
  6
CONTINUOUS
 10
4.0994460045
 20
19.8216272359
 11
2.4775458778
 21
19.0044237162
  0
LINE
  5
2CB
100
AcDbEntity
  8
ASSI
100
AcDbLine
 62
250
  6
CONTINUOUS
 10
4.4821506539
 20
20.3254655244
 11
3.9580461874
 21
20.0655058453
  0
LINE
  5
2CC
100
AcDbEntity
  8
ASSI
100
AcDbLine
 62
250
  6
CONTINUOUS
 10
4.623550471
 20
20.0815869151
 11
4.0994460045
 21
19.8216272359
  0
LINE
  5
2CD
100
AcDbEntity
  8
ASSI
100
AcDbLine
 62
250
  6
CONTINUOUS
 10
4.8296193778
 20
18.5030561536
 11
4.1348551914
 21
18.1584479953
  0
LINE
  5
2CE
100
AcDbEntity
  8
DRAFT
100
AcDbLine
 62
7
  6
CONTINUOUS
 10
4.8673090458
 20
18.4816095741
 11
11.260810471
 21
21.5872470573
  0
LINE
  5
2CF
100
AcDbEntity
  8
0
100
AcDbLine
 62
7
  6
CONTINUOUS
 10
4.8673090458
 20
18.4816095741
 11
11.260810471
 21
21.5872470573
  0
LINE
  5
2D0
100
AcDbEntity
  8
RACCORDO
100
AcDbLine
 62
250
  6
CONTINUOUS
 10
-1.0634962596
 20
15.461319
 11
2.3009193844
 21
16.9525275691
  0
LWPOLYLINE
  5
2D1
100
AcDbEntity
  8
ASSI
100
AcDbPolyline
 62
250
  6
CONTINUOUS
 90
13
 70
0
 10
2.4422012152
 20
18.944063069
 10
2.422467805
 20
18.9356979614
 10
2.4007398873
 20
18.9286764736
 10
2.3773810286
 20
18.9231160937
 10
2.3527820853
 20
18.9191098621
 10
2.3273546641
 20
18.9167248137
 10
2.301524234
 20
18.9160008567
 10
2.2757230075
 20
18.916950105
 10
2.2503827087
 20
18.919556675
 10
2.2259273487
 20
18.9237769519
 10
2.2027661317
 20
18.9295403189
 10
2.181286607
 20
18.9367503396
 10
2.1618481848
 20
18.9452863709
  0
LWPOLYLINE
  5
2D2
100
AcDbEntity
  8
ASSI
100
AcDbPolyline
 62
250
  6
CONTINUOUS
 90
13
 70
0
 10
2.4422012152
 20
18.6267942686
 10
2.4224677648
 20
18.6184291254
 10
2.4007398085
 20
18.6114076133
 10
2.3773809163
 20
18.6058472197
 10
2.3527819484
 20
18.6018409832
 10
2.327354513
 20
18.5994559369
 10
2.3015240798
 20
18.5987319877
 10
2.2757228621
 20
18.5996812475
 10
2.2503825828
 20
18.6022878308
 10
2.2259272496
 20
18.6065081209
 10
2.2027660639
 20
18.6122715003
 10
2.1812865732
 20
18.6194815314
 10
2.1618481848
 20
18.6280175704
  0
LWPOLYLINE
  5
2D3
100
AcDbEntity
  8
RACCORDO
100
AcDbPolyline
 62
250
  6
CONTINUOUS
 90
40
 70
0
 10
20.3109314749
 20
23.5561334001
 10
20.3226410649
 20
23.5608398322
 10
20.328309271
 20
23.5630739016
 10
20.3338518112
 20
23.5652280364
 10
20.3392677567
 20
23.5673018756
 10
20.3445562002
 20
23.5692950718
 10
20.3497162555
 20
23.571207291
 10
20.3547470579
 20
23.5730382127
 10
20.3596477645
 20
23.5747875301
 10
20.3644175542
 20
23.5764549502
 10
20.3690556277
 20
23.5780401936
 10
20.373561208
 20
23.5795429947
 10
20.3779335399
 20
23.5809631015
 10
20.382171891
 20
23.5823002763
 10
20.3862755511
 20
23.5835542949
 10
20.3902438325
 20
23.5847249472
 10
20.3940760703
 20
23.5858120371
 10
20.3977716225
 20
23.5868153823
 10
20.4013298697
 20
23.5877348149
 10
20.4047502158
 20
23.5885701807
 10
20.4080320876
 20
23.5893213397
 10
20.4111749354
 20
23.5899881662
 10
20.4141782323
 20
23.5905705483
 10
20.4170414753
 20
23.5910683885
 10
20.4197641846
 20
23.5914816033
 10
20.4223459039
 20
23.5918101236
 10
20.4247862006
 20
23.5920538942
 10
20.427084666
 20
23.5922128744
 10
20.4292409147
 20
23.5922870375
 10
20.4312545857
 20
23.592276371
 10
20.4331253413
 20
23.5921808768
 10
20.4348528682
 20
23.5920005709
 10
20.436436877
 20
23.5917354834
 10
20.4378771021
 20
23.5913856588
 10
20.4391733023
 20
23.5909511557
 10
20.4403252604
 20
23.5904320469
 10
20.4413327834
 20
23.5898284194
 10
20.4421957024
 20
23.5891403744
 10
20.4429138729
 20
23.588368027
 10
20.4434342898
 20
23.5876045268
  0
LWPOLYLINE
  5
2D4
100
AcDbEntity
  8
0
100
AcDbPolyline
 62
250
  6
CONTINUOUS
 90
40
 70
0
 10
20.3109314749
 20
23.5561334001
 10
20.3226410649
 20
23.5608398322
 10
20.328309271
 20
23.5630739016
 10
20.3338518112
 20
23.5652280364
 10
20.3392677567
 20
23.5673018756
 10
20.3445562002
 20
23.5692950718
 10
20.3497162555
 20
23.571207291
 10
20.3547470579
 20
23.5730382127
 10
20.3596477645
 20
23.5747875301
 10
20.3644175542
 20
23.5764549502
 10
20.3690556277
 20
23.5780401936
 10
20.373561208
 20
23.5795429947
 10
20.3779335399
 20
23.5809631015
 10
20.382171891
 20
23.5823002763
 10
20.3862755511
 20
23.5835542949
 10
20.3902438325
 20
23.5847249472
 10
20.3940760703
 20
23.5858120371
 10
20.3977716225
 20
23.5868153823
 10
20.4013298697
 20
23.5877348149
 10
20.4047502158
 20
23.5885701807
 10
20.4080320876
 20
23.5893213397
 10
20.4111749354
 20
23.5899881662
 10
20.4141782323
 20
23.5905705483
 10
20.4170414753
 20
23.5910683885
 10
20.4197641846
 20
23.5914816033
 10
20.4223459039
 20
23.5918101236
 10
20.4247862006
 20
23.5920538942
 10
20.427084666
 20
23.5922128744
 10
20.4292409147
 20
23.5922870375
 10
20.4312545857
 20
23.592276371
 10
20.4331253413
 20
23.5921808768
 10
20.4348528682
 20
23.5920005709
 10
20.436436877
 20
23.5917354834
 10
20.4378771021
 20
23.5913856588
 10
20.4391733023
 20
23.5909511557
 10
20.4403252604
 20
23.5904320469
 10
20.4413327834
 20
23.5898284194
 10
20.4421957024
 20
23.5891403744
 10
20.4429138729
 20
23.588368027
 10
20.4434342898
 20
23.5876045268
  0
LWPOLYLINE
  5
2D5
100
AcDbEntity
  8
DRAFT
100
AcDbPolyline
 62
7
  6
CONTINUOUS
 90
8
 70
0
 10
1.6952829484
 20
-18.7220005463
 10
1.7424500302
 20
-18.7427120641
 10
1.7884317883
 20
-18.7576129223
 10
1.8332282229
 20
-18.7667031207
 10
1.8772728095
 20
-18.7699452946
 10
1.9201320724
 20
-18.7673768089
 10
1.9605055854
 20
-18.7591097573
 10
1.9999658971
 20
-18.74422768
  0
LWPOLYLINE
  5
2D6
100
AcDbEntity
  8
DRAFT
100
AcDbPolyline
 62
7
  6
CONTINUOUS
 90
9
 70
0
 10
1.6952829484
 20
-17.5216582047
 10
1.6481158667
 20
-17.5009466868
 10
1.6021341085
 20
-17.4860458287
 10
1.5573376739
 20
-17.4769556303
 10
1.5132930874
 20
-17.4737134563
 10
1.4704338244
 20
-17.4762819421
 10
1.4300603114
 20
-17.4845489936
 10
1.3923576859
 20
-17.498607657
 10
1.3802977593
 20
-17.50458376
  0
LWPOLYLINE
  5
2D7
100
AcDbEntity
  8
DRAFT
100
AcDbPolyline
 62
7
  6
CONTINUOUS
 90
9
 70
0
 10
1.9781256609
 20
-17.3741902366
 10
1.930483387
 20
-17.3532700626
 10
1.8840383861
 20
-17.3382190832
 10
1.8387906582
 20
-17.3290372984
 10
1.7943023657
 20
-17.3257624504
 10
1.7510113461
 20
-17.3283567971
 10
1.7102311124
 20
-17.336707112
 10
1.6721486515
 20
-17.3509074
 10
1.6599670399
 20
-17.3569438048
  0
LINE
  5
2D8
100
AcDbEntity
  8
ASSI
100
AcDbLine
 62
250
  6
CONTINUOUS
 10
4.5851532047
 20
-21.3110506307
 11
4.5671560284
 21
-21.3002551041
  0
LWPOLYLINE
  5
2D9
100
AcDbEntity
  8
ASSI
100
AcDbPolyline
 62
7
  6
CONTINUOUS
 90
9
 70
0
 10
-12.5477328787
 20
26.0241609535
 10
-12.5475992592
 20
26.0160342088
 10
-12.5454164862
 20
25.9902663895
 10
-12.5405688547
 20
25.9650889412
 10
-12.5331061042
 20
25.9408200478
 10
-12.5232017816
 20
25.917853385
 10
-12.5109909997
 20
25.8963390066
 10
-12.4965738946
 20
25.8764046095
 10
-12.4801915535
 20
25.8583502617
  0
LWPOLYLINE
  5
2DA
100
AcDbEntity
  8
0
100
AcDbPolyline
 62
7
  6
CONTINUOUS
 90
34
 70
0
 10
-11.6939724158
 20
-11.9901704676
 10
-11.6934031192
 20
-12.048855706
 10
-11.6895959342
 20
-12.108792364
 10
-11.6825504467
 20
-12.1699802659
 10
-11.6721835102
 20
-12.2329235869
 10
-11.658576277
 20
-12.2971172872
 10
-11.6419749572
 20
-12.3610474673
 10
-11.6222388896
 20
-12.4246603463
 10
-11.5995063019
 20
-12.4880086966
 10
-11.5744428709
 20
-12.5497389778
 10
-11.5470700149
 20
-12.6096082046
 10
-11.517364237
 20
-12.667858528
 10
-11.4859251175
 20
-12.723864684
 10
-11.4528377581
 20
-12.777483661
 10
-11.4180153005
 20
-12.8288577655
 10
-11.3818002543
 20
-12.8777900891
 10
-11.3441191147
 20
-12.9243611625
 10
-11.3050434595
 20
-12.9684896549
 10
-11.2651343773
 20
-13.0097362798
 10
-11.2244038174
 20
-13.0480544256
 10
-11.1828388081
 20
-13.0834902815
 10
-11.1409643566
 20
-13.1157443287
 10
-11.0991494416
 20
-13.1446685129
 10
-11.0570252474
 20
-13.1704109662
 10
-11.0140098937
 20
-13.1931163577
 10
-10.9696619463
 20
-13.2131074336
 10
-10.9244201374
 20
-13.2300602454
 10
-10.8790229414
 20
-13.243149462
 10
-10.833137252
 20
-13.2522105888
 10
-10.7870949474
 20
-13.2574075405
 10
-10.7426354082
 20
-13.2584091083
 10
-10.7002048827
 20
-13.2549453512
 10
-10.6593608871
 20
-13.2472878231
 10
-10.6191169799
 20
-13.235432214
  0
LINE
  5
2DB
100
AcDbEntity
  8
ASSI
100
AcDbLine
 62
7
  6
CONTINUOUS
 10
-12.5477324401
 20
26.0241609538
 11
-12.5477324868
 21
26.3414980628
  0
LINE
  5
2DC
100
AcDbEntity
  8
ASSI
100
AcDbLine
 62
250
  6
CONTINUOUS
 10
-12.489153843
 20
25.953535935
 11
-12.489153843
 21
26.2707873848
  0
LINE
  5
2DD
100
AcDbEntity
  8
0
100
AcDbLine
 62
7
  6
CONTINUOUS
 10
-12.3130122941
 20
24.8206289584
 11
-12.3130122941
 21
24.2594934083
  0
LINE
  5
2DE
100
AcDbEntity
  8
ASSI
100
AcDbLine
 62
7
  6
CONTINUOUS
 10
-11.8328693664
 20
25.0686824399
 11
-11.8328693664
 21
25.5226445442
  0
LINE
  5
2DF
100
AcDbEntity
  8
ASSI
100
AcDbLine
 62
250
  6
CONTINUOUS
 10
-11.7596460617
 20
24.9769587477
 11
-11.7596460617
 21
25.4860328919
  0
LWPOLYLINE
  5
2E0
100
AcDbEntity
  8
ASSI
100
AcDbPolyline
 62
250
  6
CONTINUOUS
 90
18
 70
0
 10
-12.489153843
 20
26.2707873848
 10
-12.4889480689
 20
26.2813474779
 10
-12.4883079493
 20
26.2924030801
 10
-12.4871983811
 20
26.303941897
 10
-12.4855803201
 20
26.3159749791
 10
-12.4834221192
 20
26.3284523682
 10
-12.4807113136
 20
26.3412602893
 10
-12.4774273314
 20
26.3543643976
 10
-12.4735517075
 20
26.367725112
 10
-12.4690989193
 20
26.3812119466
 10
-12.4640656733
 20
26.394778757
 10
-12.4584515782
 20
26.4083753728
 10
-12.4522998073
 20
26.4218639653
 10
-12.4456291147
 20
26.4351866728
 10
-12.4384530128
 20
26.4483006482
 10
-12.4308266999
 20
26.4610966779
 10
-12.4227873717
 20
26.4735144101
 10
-12.4143550291
 20
26.4855247687
  0
LWPOLYLINE
  5
2E1
100
AcDbEntity
  8
ASSI
100
AcDbPolyline
 62
7
  6
CONTINUOUS
 90
3
 70
0
 10
-7.8819879423
 20
26.0095923812
 10
-7.8766235962
 20
26.033749399
 10
-7.8734806245
 20
26.0585788878
  0
LINE
  5
2E2
100
AcDbEntity
  8
ASSI
100
AcDbLine
 62
7
  6
CONTINUOUS
 10
4.0994460045
 20
18.1761525888
 11
3.1969952538
 21
17.6834781978
  0
LINE
  5
2E3
100
AcDbEntity
  8
ASSI
100
AcDbLine
 62
250
  6
CONTINUOUS
 10
4.1351646807
 20
18.1582932506
 11
3.0467301448
 21
17.5737706445
  0
LINE
  5
2E4
100
AcDbEntity
  8
ASSI
100
AcDbLine
 62
250
  6
CONTINUOUS
 10
4.4883547341
 20
17.5486853184
 11
3.3999201983
 21
16.9641627122
  0
LINE
  5
2E5
100
AcDbEntity
  8
RACCORDO
100
AcDbLine
 62
250
  6
CONTINUOUS
 10
20.0905910424
 20
23.454506167
 11
5.4884178208
 21
16.0256098392
  0
LINE
  5
2E6
100
AcDbEntity
  8
0
100
AcDbLine
 62
250
  6
CONTINUOUS
 10
20.0905910424
 20
23.454506167
 11
5.4884178208
 21
16.0256098392
  0
LINE
  5
2E7
100
AcDbEntity
  8
ASSI
100
AcDbLine
 62
250
  6
CONTINUOUS
 10
5.1831189205
 20
17.8933596303
 11
4.4883547341
 21
17.548751472
  0
LINE
  5
2E8
100
AcDbEntity
  8
RACCORDO
100
AcDbLine
 62
250
  6
CONTINUOUS
 10
20.0905910424
 20
23.454506167
 11
20.1084949838
 21
23.4633697199
  0
LINE
  5
2E9
100
AcDbEntity
  8
0
100
AcDbLine
 62
250
  6
CONTINUOUS
 10
20.0905910424
 20
23.454506167
 11
20.1084949838
 21
23.4633697199
  0
LINE
  5
2EA
100
AcDbEntity
  8
RACCORDO
100
AcDbLine
 62
250
  6
CONTINUOUS
 10
20.1084949838
 20
23.4633697199
 11
20.1260436033
 21
23.4719803701
  0
LINE
  5
2EB
100
AcDbEntity
  8
0
100
AcDbLine
 62
250
  6
CONTINUOUS
 10
20.1084949838
 20
23.4633697199
 11
20.1260436033
 21
23.4719803701
  0
LINE
  5
2EC
100
AcDbEntity
  8
RACCORDO
100
AcDbLine
 62
250
  6
CONTINUOUS
 10
20.1260436033
 20
23.4719803701
 11
20.1432251398
 21
23.4803323465
  0
LINE
  5
2ED
100
AcDbEntity
  8
0
100
AcDbLine
 62
250
  6
CONTINUOUS
 10
20.1260436033
 20
23.4719803701
 11
20.1432251398
 21
23.4803323465
  0
LWPOLYLINE
  5
2EE
100
AcDbEntity
  8
RACCORDO
100
AcDbPolyline
 62
7
  6
CONTINUOUS
 90
67
 70
0
 10
12.013504555
 20
20.2890417963
 10
19.7549373189
 20
24.0494049559
 10
19.7621420066
 20
24.0528120294
 10
19.7693067554
 20
24.0561380957
 10
19.7764306644
 20
24.059383072
 10
19.7835130987
 20
24.0625468221
 10
19.7905536895
 20
24.0656291521
 10
19.7975516754
 20
24.0686299817
 10
19.8045063073
 20
24.0715492315
 10
19.8114172409
 20
24.0743867176
 10
19.8182837276
 20
24.0771423899
 10
19.8251050316
 20
24.079816199
 10
19.8318808345
 20
24.0824079724
 10
19.8386104006
 20
24.0849176895
 10
19.845293008
 20
24.0873453314
 10
19.8519283651
 20
24.0896907376
 10
19.8585157498
 20
24.0919539173
 10
19.8650544543
 20
24.0941348812
 10
19.871544215
 20
24.0962334821
 10
19.8779843236
 20
24.0982497586
 10
19.884374087
 20
24.1001837511
 10
19.8907132704
 20
24.1020353262
 10
19.8970011801
 20
24.1038045517
 10
19.9032371377
 20
24.1054914974
 10
19.9094209384
 20
24.1070960446
 10
19.9155519033
 20
24.1086182897
 10
19.9216293692
 20
24.1100583318
 10
19.9276531621
 20
24.1114160672
 10
19.9336226182
 20
24.1126916208
 10
19.9395370899
 20
24.1138851204
 10
19.9453964348
 20
24.1149964779
 10
19.9512000047
 20
24.1160258465
 10
19.9569471679
 20
24.116973382
 10
19.962637814
 20
24.1178390124
 10
19.9682713109
 20
24.1186229183
 10
19.9738470431
 20
24.1193252838
 10
19.9793649327
 20
24.1199460525
 10
19.9848243641
 20
24.1204854326
 10
19.9902247381
 20
24.1209436353
 10
19.99556601
 20
24.1213206206
 10
20.0008475807
 20
24.1216166233
 10
20.006068868
 20
24.1218318812
 10
20.01122986
 20
24.1219663708
 10
20.0163299749
 20
24.1220203529
 10
20.0213686476
 20
24.1219940917
 10
20.0263458992
 20
24.1218875795
 10
20.0312611654
 20
24.1217011028
 10
20.0361138983
 20
24.1214349513
 10
20.0409041521
 20
24.1210891335
 10
20.04563138
 20
24.1206639607
 10
20.0502950518
 20
24.1201597475
 10
20.0548952552
 20
24.119576518
 10
20.0594314618
 20
24.1189146077
 10
20.0639031587
 20
24.1181743555
 10
20.0683104649
 20
24.1173558009
 10
20.0726528697
 20
24.1164593032
 10
20.0769298785
 20
24.1154852249
 10
20.0811416429
 20
24.1144336204
 10
20.0852876704
 20
24.1133048719
 10
20.0893674847
 20
24.1120993646
 10
20.0933812687
 20
24.1108171678
 10
20.097328549
 20
24.1094586856
 10
20.1012088669
 20
24.1080243254
 10
20.1050224369
 20
24.1065141705
 10
20.1087688038
 20
24.1049286464
 10
20.1124475275
 20
24.1032681819
 10
20.1160588526
 20
24.101532874
  0
LWPOLYLINE
  5
2EF
100
AcDbEntity
  8
0
100
AcDbPolyline
 62
7
  6
CONTINUOUS
 90
67
 70
0
 10
12.013504555
 20
20.2890417963
 10
19.7549373189
 20
24.0494049559
 10
19.7621420066
 20
24.0528120294
 10
19.7693067554
 20
24.0561380957
 10
19.7764306644
 20
24.059383072
 10
19.7835130987
 20
24.0625468221
 10
19.7905536895
 20
24.0656291521
 10
19.7975516754
 20
24.0686299817
 10
19.8045063073
 20
24.0715492315
 10
19.8114172409
 20
24.0743867176
 10
19.8182837276
 20
24.0771423899
 10
19.8251050316
 20
24.079816199
 10
19.8318808345
 20
24.0824079724
 10
19.8386104006
 20
24.0849176895
 10
19.845293008
 20
24.0873453314
 10
19.8519283651
 20
24.0896907376
 10
19.8585157498
 20
24.0919539173
 10
19.8650544543
 20
24.0941348812
 10
19.871544215
 20
24.0962334821
 10
19.8779843236
 20
24.0982497586
 10
19.884374087
 20
24.1001837511
 10
19.8907132704
 20
24.1020353262
 10
19.8970011801
 20
24.1038045517
 10
19.9032371377
 20
24.1054914974
 10
19.9094209384
 20
24.1070960446
 10
19.9155519033
 20
24.1086182897
 10
19.9216293692
 20
24.1100583318
 10
19.9276531621
 20
24.1114160672
 10
19.9336226182
 20
24.1126916208
 10
19.9395370899
 20
24.1138851204
 10
19.9453964348
 20
24.1149964779
 10
19.9512000047
 20
24.1160258465
 10
19.9569471679
 20
24.116973382
 10
19.962637814
 20
24.1178390124
 10
19.9682713109
 20
24.1186229183
 10
19.9738470431
 20
24.1193252838
 10
19.9793649327
 20
24.1199460525
 10
19.9848243641
 20
24.1204854326
 10
19.9902247381
 20
24.1209436353
 10
19.99556601
 20
24.1213206206
 10
20.0008475807
 20
24.1216166233
 10
20.006068868
 20
24.1218318812
 10
20.01122986
 20
24.1219663708
 10
20.0163299749
 20
24.1220203529
 10
20.0213686476
 20
24.1219940917
 10
20.0263458992
 20
24.1218875795
 10
20.0312611654
 20
24.1217011028
 10
20.0361138983
 20
24.1214349513
 10
20.0409041521
 20
24.1210891335
 10
20.04563138
 20
24.1206639607
 10
20.0502950518
 20
24.1201597475
 10
20.0548952552
 20
24.119576518
 10
20.0594314618
 20
24.1189146077
 10
20.0639031587
 20
24.1181743555
 10
20.0683104649
 20
24.1173558009
 10
20.0726528697
 20
24.1164593032
 10
20.0769298785
 20
24.1154852249
 10
20.0811416429
 20
24.1144336204
 10
20.0852876704
 20
24.1133048719
 10
20.0893674847
 20
24.1120993646
 10
20.0933812687
 20
24.1108171678
 10
20.097328549
 20
24.1094586856
 10
20.1012088669
 20
24.1080243254
 10
20.1050224369
 20
24.1065141705
 10
20.1087688038
 20
24.1049286464
 10
20.1124475275
 20
24.1032681819
 10
20.1160588526
 20
24.101532874
  0
LINE
  5
2F0
100
AcDbEntity
  8
RACCORDO
100
AcDbLine
 62
250
  6
CONTINUOUS
 10
20.1432251398
 20
23.4803323465
 11
20.160028078
 21
23.4884200516
  0
LINE
  5
2F1
100
AcDbEntity
  8
0
100
AcDbLine
 62
250
  6
CONTINUOUS
 10
20.1432251398
 20
23.4803323465
 11
20.160028078
 21
23.4884200516
  0
LINE
  5
2F2
100
AcDbEntity
  8
RACCORDO
100
AcDbLine
 62
250
  6
CONTINUOUS
 10
20.160028078
 20
23.4884200516
 11
20.1764411567
 21
23.4962380651
  0
LINE
  5
2F3
100
AcDbEntity
  8
0
100
AcDbLine
 62
250
  6
CONTINUOUS
 10
20.160028078
 20
23.4884200516
 11
20.1764411567
 21
23.4962380651
  0
LINE
  5
2F4
100
AcDbEntity
  8
RACCORDO
100
AcDbLine
 62
250
  6
CONTINUOUS
 10
20.1764411567
 20
23.4962380651
 11
20.1924533757
 21
23.5037811472
  0
LINE
  5
2F5
100
AcDbEntity
  8
0
100
AcDbLine
 62
250
  6
CONTINUOUS
 10
20.1764411567
 20
23.4962380651
 11
20.1924533757
 21
23.5037811472
  0
LINE
  5
2F6
100
AcDbEntity
  8
RACCORDO
100
AcDbLine
 62
250
  6
CONTINUOUS
 10
20.1924533757
 20
23.5037811472
 11
20.2080540034
 21
23.5110442425
  0
LINE
  5
2F7
100
AcDbEntity
  8
0
100
AcDbLine
 62
250
  6
CONTINUOUS
 10
20.1924533757
 20
23.5037811472
 11
20.2080540034
 21
23.5110442425
  0
LINE
  5
2F8
100
AcDbEntity
  8
RACCORDO
100
AcDbLine
 62
250
  6
CONTINUOUS
 10
20.2080540034
 20
23.5110442425
 11
20.2232325842
 21
23.5180224832
  0
LINE
  5
2F9
100
AcDbEntity
  8
0
100
AcDbLine
 62
250
  6
CONTINUOUS
 10
20.2080540034
 20
23.5110442425
 11
20.2232325842
 21
23.5180224832
  0
LINE
  5
2FA
100
AcDbEntity
  8
RACCORDO
100
AcDbLine
 62
250
  6
CONTINUOUS
 10
20.2232325842
 20
23.5180224832
 11
20.2379789454
 21
23.5247111926
  0
LINE
  5
2FB
100
AcDbEntity
  8
0
100
AcDbLine
 62
250
  6
CONTINUOUS
 10
20.2232325842
 20
23.5180224832
 11
20.2379789454
 21
23.5247111926
  0
LINE
  5
2FC
100
AcDbEntity
  8
RACCORDO
100
AcDbLine
 62
250
  6
CONTINUOUS
 10
20.2379789454
 20
23.5247111926
 11
20.2522832039
 21
23.5311058877
  0
LINE
  5
2FD
100
AcDbEntity
  8
0
100
AcDbLine
 62
250
  6
CONTINUOUS
 10
20.2379789454
 20
23.5247111926
 11
20.2522832039
 21
23.5311058877
  0
LINE
  5
2FE
100
AcDbEntity
  8
RACCORDO
100
AcDbLine
 62
250
  6
CONTINUOUS
 10
-0.7285612371
 20
14.8430831809
 11
2.635854407
 21
16.33429175
  0
LINE
  5
2FF
100
AcDbEntity
  8
RACCORDO
100
AcDbLine
 62
250
  6
CONTINUOUS
 10
20.2522832039
 20
23.5311058877
 11
20.2661357729
 21
23.5372022829
  0
LINE
  5
300
100
AcDbEntity
  8
0
100
AcDbLine
 62
250
  6
CONTINUOUS
 10
20.2522832039
 20
23.5311058877
 11
20.2661357729
 21
23.5372022829
  0
LINE
  5
301
100
AcDbEntity
  8
RACCORDO
100
AcDbLine
 62
250
  6
CONTINUOUS
 10
20.2661357729
 20
23.5372022829
 11
20.2795273684
 21
23.5429962923
  0
LINE
  5
302
100
AcDbEntity
  8
0
100
AcDbLine
 62
250
  6
CONTINUOUS
 10
20.2661357729
 20
23.5372022829
 11
20.2795273684
 21
23.5429962923
  0
LINE
  5
303
100
AcDbEntity
  8
RACCORDO
100
AcDbLine
 62
250
  6
CONTINUOUS
 10
20.2795273684
 20
23.5429962923
 11
20.2924490151
 21
23.5484840326
  0
LINE
  5
304
100
AcDbEntity
  8
0
100
AcDbLine
 62
250
  6
CONTINUOUS
 10
20.2795273684
 20
23.5429962923
 11
20.2924490151
 21
23.5484840326
  0
LWPOLYLINE
  5
305
100
AcDbEntity
  8
RACCORDO
100
AcDbPolyline
 62
250
  6
CONTINUOUS
 90
3
 70
0
 10
20.2924490151
 20
23.5484840326
 10
20.304892053
 20
23.5536618261
 10
20.3109314749
 20
23.5561334001
  0
LWPOLYLINE
  5
306
100
AcDbEntity
  8
0
100
AcDbPolyline
 62
250
  6
CONTINUOUS
 90
3
 70
0
 10
20.2924490151
 20
23.5484840326
 10
20.304892053
 20
23.5536618261
 10
20.3109314749
 20
23.5561334001
  0
LINE
  5
307
100
AcDbEntity
  8
DRAFT
100
AcDbLine
 62
7
  6
CONTINUOUS
 10
3.3999201983
 20
-16.3097354275
 11
1.5538615922
 21
-15.3867061245
  0
LWPOLYLINE
  5
308
100
AcDbEntity
  8
0
100
AcDbPolyline
 62
7
  6
CONTINUOUS
 90
25
 70
0
 10
-10.2600759481
 20
-10.0585269492
 10
-10.2610877388
 20
-9.9824076969
 10
-10.2672479584
 20
-9.9051782445
 10
-10.2785561118
 20
-9.8268383885
 10
-10.2951643623
 20
-9.746705971
 10
-10.3169166156
 20
-9.6654614329
 10
-10.3433498794
 20
-9.585148439
 10
-10.3745819287
 20
-9.505838296
 10
-10.4104886216
 20
-9.4274569442
 10
-10.4502457297
 20
-9.3518307574
 10
-10.4939528616
 20
-9.2790215474
 10
-10.5415029099
 20
-9.2089642736
 10
-10.5917644096
 20
-9.1432963069
 10
-10.6447826032
 20
-9.0821462281
 10
-10.7005058799
 20
-9.0253827359
 10
-10.7576615214
 20
-8.9742551643
 10
-10.8162567613
 20
-8.9288952424
 10
-10.8762807621
 20
-8.8891697247
 10
-10.936438379
 20
-8.8559325405
 10
-10.9967622222
 20
-8.8293080688
 10
-11.0572195192
 20
-8.8091718913
 10
-11.1164220926
 20
-8.7960069457
 10
-11.1743444865
 20
-8.7899819654
 10
-11.2310159168
 20
-8.7909298474
 10
-11.2851351148
 20
-8.7988319117
  0
LINE
  5
309
100
AcDbEntity
  8
ASSI
100
AcDbLine
 62
7
  6
CONTINUOUS
 10
-11.6269086294
 20
24.7857423382
 11
-11.6269086294
 21
25.4235877591
  0
LINE
  5
30A
100
AcDbEntity
  8
ASSI
100
AcDbLine
 62
250
  6
CONTINUOUS
 10
-11.5536853247
 20
24.7349513004
 11
-11.5536853247
 21
25.4857843253
  0
LINE
  5
30B
100
AcDbEntity
  8
ASSI
100
AcDbLine
 62
250
  6
CONTINUOUS
 10
-11.3601210386
 20
24.6381691573
 11
-11.3601210386
 21
25.3890021822
  0
LINE
  5
30C
100
AcDbEntity
  8
ASSI
100
AcDbLine
 62
250
  6
CONTINUOUS
 10
-11.0096797507
 20
24.5138215807
 11
-11.0096797507
 21
25.1110497364
  0
LINE
  5
30D
100
AcDbEntity
  8
ASSI
100
AcDbLine
 62
7
  6
CONTINUOUS
 10
-10.466953688
 20
24.8396867051
 11
-10.466953688
 21
24.3986922632
  0
LINE
  5
30E
100
AcDbEntity
  8
ASSI
100
AcDbLine
 62
250
  6
CONTINUOUS
 10
-10.4246525203
 20
24.9212679231
 11
-10.4246525203
 21
25.2385367235
  0
LINE
  5
30F
100
AcDbEntity
  8
ASSI
100
AcDbLine
 62
250
  6
CONTINUOUS
 10
-10.14429949
 20
24.9200446212
 11
-10.14429949
 21
25.2373134216
  0
LINE
  5
310
100
AcDbEntity
  8
ASSI
100
AcDbLine
 62
250
  6
CONTINUOUS
 10
-9.7399467393
 20
23.9671090865
 11
-9.7399467393
 21
24.6472803748
  0
LINE
  5
311
100
AcDbEntity
  8
ASSI
100
AcDbLine
 62
250
  6
CONTINUOUS
 10
-9.3895054514
 20
24.7349289965
 11
-9.3895054514
 21
23.9767285504
  0
LWPOLYLINE
  5
312
100
AcDbEntity
  8
ASSI
100
AcDbPolyline
 62
250
  6
CONTINUOUS
 90
28
 70
0
 10
-10.14429949
 20
25.2373134216
 10
-10.1442677328
 20
25.2394533684
 10
-10.1441322948
 20
25.2416818874
 10
-10.143893176
 20
25.2439989787
 10
-10.1435544757
 20
25.246416195
 10
-10.1431120946
 20
25.2489219837
 10
-10.1425537343
 20
25.2514816859
 10
-10.1418753466
 20
25.2540980878
 10
-10.1410809797
 20
25.2567684033
 10
-10.1401704798
 20
25.2594496161
 10
-10.1391397694
 20
25.2621425275
 10
-10.1379929261
 20
25.264846336
 10
-10.1367420291
 20
25.2675156208
 10
-10.1353850515
 20
25.2701474872
 10
-10.1339240201
 20
25.2727448297
 10
-10.1323770941
 20
25.2752709114
 10
-10.1307440563
 20
25.2777223595
 10
-10.1290251238
 20
25.2801025468
 10
-10.127239108
 20
25.2823848548
 10
-10.1253854545
 20
25.2845678411
 10
-10.1234647176
 20
25.2866529482
 10
-10.1214973707
 20
25.2886178856
 10
-10.1194828532
 20
25.290461345
 10
-10.1174217256
 20
25.2921846348
 10
-10.1153361436
 20
25.2937693886
 10
-10.1132334926
 20
25.2952094845
 10
-10.1111063871
 20
25.2965110446
 10
-10.1089548273
 20
25.2976740687
  0
LWPOLYLINE
  5
313
100
AcDbEntity
  8
DRAFT
100
AcDbPolyline
 62
7
  6
CONTINUOUS
 90
9
 70
0
 10
-11.6939724409
 20
-11.9901702264
 10
-11.6916657394
 20
-11.8484980951
 10
-11.6892969179
 20
-11.7058711516
 10
-11.686865053
 20
-11.5622889808
 10
-11.6843687266
 20
-11.4177230821
 10
-11.6818074728
 20
-11.2722011113
 10
-11.6791818714
 20
-11.1258069254
 10
-11.6764915777
 20
-10.9785682395
 10
-11.6737382346
 20
-10.8306181761
  0
LINE
  5
314
100
AcDbEntity
  8
0
100
AcDbLine
 62
7
  6
CONTINUOUS
 10
-10.3102681099
 20
-12.6820011526
 11
-10.3079004089
 21
-12.5366842486
  0
LWPOLYLINE
  5
315
100
AcDbEntity
  8
0
100
AcDbPolyline
 62
7
  6
CONTINUOUS
 90
8
 70
0
 10
-10.3079004089
 20
-12.5366842486
 10
-10.3054838253
 20
-12.3913444936
 10
-10.3030183598
 20
-12.2459819127
 10
-10.3005040132
 20
-12.1005965493
 10
-10.2979407859
 20
-11.9551884104
 10
-10.2953286774
 20
-11.809757467
 10
-10.2926676881
 20
-11.6643037263
 10
-10.2899578188
 20
-11.5188272313
  0
LWPOLYLINE
  5
316
100
AcDbEntity
  8
0
100
AcDbPolyline
 62
7
  6
CONTINUOUS
 90
10
 70
0
 10
-11.6709119487
 20
-10.681471568
 10
-11.6737412717
 20
-10.8307784504
 10
-11.6765014448
 20
-10.9791033387
 10
-11.6791934523
 20
-11.1264466708
 10
-11.6818181058
 20
-11.2727995347
 10
-11.6843765498
 20
-11.4181717156
 10
-11.6868702296
 20
-11.5625916813
 10
-11.689300233
 20
-11.7060691922
 10
-11.691667322
 20
-11.8485953167
 10
-11.6939724158
 20
-11.9901704676
  0
LINE
  5
317
100
AcDbEntity
  8
DRAFT
100
AcDbLine
 62
7
  6
CONTINUOUS
 10
-11.6737382346
 20
-10.8306181761
 11
-11.6709119487
 21
-10.681471568
  0
LWPOLYLINE
  5
318
100
AcDbEntity
  8
DRAFT
100
AcDbPolyline
 62
7
  6
CONTINUOUS
 90
10
 70
0
 10
-10.28719907
 20
-11.3733280073
 10
-10.2899578183
 20
-11.5188272032
 10
-10.2926676874
 20
-11.6643036852
 10
-10.2953286767
 20
-11.8097574282
 10
-10.297940786
 20
-11.9551884196
 10
-10.3005040145
 20
-12.1005966217
 10
-10.3030183608
 20
-12.2459819716
 10
-10.3054838243
 20
-12.3913444316
 10
-10.3079004046
 20
-12.536683989
 10
-10.3102681013
 20
-12.6820006188
  0
LINE
  5
319
100
AcDbEntity
  8
0
100
AcDbLine
 62
7
  6
CONTINUOUS
 10
-10.2899578188
 20
-11.5188272313
 11
-10.28719907
 21
-11.3733280073
  0
LINE
  5
31A
100
AcDbEntity
  8
DRAFT
100
AcDbLine
 62
7
  6
CONTINUOUS
 10
-11.6709119487
 20
-10.681471568
 11
-11.6680347799
 21
-10.5323282415
  0
LWPOLYLINE
  5
31B
100
AcDbEntity
  8
0
100
AcDbPolyline
 62
7
  6
CONTINUOUS
 90
9
 70
0
 10
-10.28719907
 20
-11.3733280073
 10
-10.2843176892
 20
-11.2240169081
 10
-10.2814011593
 20
-11.0755051861
 10
-10.2784503273
 20
-10.927793266
 10
-10.2754658946
 20
-10.7808746875
 10
-10.2724488353
 20
-10.6347567492
 10
-10.2694004188
 20
-10.4894605193
 10
-10.2663216419
 20
-10.3449933054
 10
-10.2632152099
 20
-10.2014412792
  0
LWPOLYLINE
  5
31C
100
AcDbEntity
  8
DRAFT
100
AcDbPolyline
 62
7
  6
CONTINUOUS
 90
8
 70
0
 10
-11.6680347799
 20
-10.5323282415
 10
-11.6651233459
 20
-10.384023217
 10
-11.6621753064
 20
-10.236398066
 10
-11.6591920123
 20
-10.0894835763
 10
-11.6561746795
 20
-9.9433026691
 10
-11.6531255036
 20
-9.7979233743
 10
-11.6500457981
 20
-9.653368657
 10
-11.6469359182
 20
-9.509616382
  0
LWPOLYLINE
  5
31D
100
AcDbEntity
  8
ASSI
100
AcDbPolyline
 62
250
  6
CONTINUOUS
 90
28
 70
0
 10
-10.4246525203
 20
25.2385367235
 10
-10.4244414144
 20
25.2492057209
 10
-10.4237848756
 20
25.2603567009
 10
-10.422649357
 20
25.2719760084
 10
-10.420997612
 20
25.2840735076
 10
-10.4187996626
 20
25.2965980717
 10
-10.4160446026
 20
25.3094348297
 10
-10.4127136659
 20
25.3225487982
 10
-10.4087905387
 20
25.3358999762
 10
-10.4042918598
 20
25.349357559
 10
-10.399216845
 20
25.3628738188
 10
-10.3935665518
 20
25.3764010748
 10
-10.3873839942
 20
25.3898076817
 10
-10.3806910863
 20
25.4030325683
 10
-10.373500351
 20
25.4160386428
 10
-10.3658579011
 20
25.4287353277
 10
-10.3577976086
 20
25.4410656971
 10
-10.3493403853
 20
25.4529972484
 10
-10.3405203645
 20
25.4644812628
 10
-10.3313699548
 20
25.4754753043
 10
-10.3219202402
 20
25.4859418452
 10
-10.3122057877
 20
25.4958428924
 10
-10.3022607221
 20
25.505143477
 10
-10.2921204522
 20
25.5138103137
 10
-10.2818228441
 20
25.5218115759
 10
-10.2714050467
 20
25.5291188525
 10
-10.2609032692
 20
25.5357069028
 10
-10.2503546444
 20
25.5415526781
  0
LWPOLYLINE
  5
31E
100
AcDbEntity
  8
0
100
AcDbPolyline
 62
7
  6
CONTINUOUS
 90
10
 70
0
 10
-11.6437966778
 20
-9.3666666924
 10
-11.6469355674
 20
-9.5096002876
 10
-11.6500449571
 20
-9.6533294875
 10
-11.6531240347
 20
-9.7978538887
 10
-11.6561721412
 20
-9.9431806827
 10
-11.6591882918
 20
-10.0893018598
 10
-11.6621712012
 20
-10.2361942204
 10
-11.6651199114
 20
-10.3838497656
 10
-11.668033766
 20
-10.5322756849
 10
-11.6709119487
 20
-10.681471568
  0
LINE
  5
31F
100
AcDbEntity
  8
DRAFT
100
AcDbLine
 62
7
  6
CONTINUOUS
 10
-11.646935741
 20
-9.5096083137
 11
-11.6437966836
 21
-9.3666669563
  0
LINE
  5
320
100
AcDbEntity
  8
0
100
AcDbLine
 62
7
  6
CONTINUOUS
 10
-10.2632152099
 20
-10.2014412792
 11
-10.2600759481
 21
-10.0585269492
  0
LWPOLYLINE
  5
321
100
AcDbEntity
  8
DRAFT
100
AcDbPolyline
 62
7
  6
CONTINUOUS
 90
10
 70
0
 10
-10.2600759351
 20
-10.0585271341
 10
-10.2632159765
 20
-10.2014761771
 10
-10.2663266797
 20
-10.3452280613
 10
-10.2694072249
 20
-10.4897823797
 10
-10.2724572564
 20
-10.6351612676
 10
-10.2754754613
 20
-10.7813417598
 10
-10.2784596456
 20
-10.928255826
 10
-10.2814085943
 20
-11.0758805451
 10
-10.2843219948
 20
-11.2242380695
 10
-10.28719907
 20
-11.3733280073
  0
LWPOLYLINE
  5
322
100
AcDbEntity
  8
DRAFT
100
AcDbPolyline
 62
7
  6
CONTINUOUS
 90
12
 70
0
 10
-10.3102681013
 20
-12.6820006188
 10
-10.3143767755
 20
-12.7564418397
 10
-10.3235521615
 20
-12.8265810971
 10
-10.3377937577
 20
-12.8924181942
 10
-10.357266247
 20
-12.9543478631
 10
-10.3818012212
 20
-13.0119737624
 10
-10.4108983556
 20
-13.0641090239
 10
-10.4446991289
 20
-13.1106917322
 10
-10.483055894
 20
-13.1517811572
 10
-10.5250363058
 20
-13.1863729918
 10
-10.5706576169
 20
-13.2142956541
 10
-10.619113898
 20
-13.2354392972
  0
LWPOLYLINE
  5
323
100
AcDbEntity
  8
DRAFT
100
AcDbPolyline
 62
7
  6
CONTINUOUS
 90
3
 70
0
 10
-11.6437966836
 20
-9.3666669563
 10
-11.6393543695
 20
-9.2927232613
 10
-11.6299615971
 20
-9.2229871415
  0
LWPOLYLINE
  5
324
100
AcDbEntity
  8
ASSI
100
AcDbPolyline
 62
250
  6
CONTINUOUS
 90
7
 70
0
 10
-7.8726862502
 20
26.4186807608
 10
-7.8741417795
 20
26.4066381993
 10
-7.8789118764
 20
26.3939244887
 10
-7.8869243396
 20
26.3816250171
 10
-7.8980450993
 20
26.3699455877
 10
-7.912088075
 20
26.3590816289
 10
-7.9288182901
 20
26.3492149238
  0
LWPOLYLINE
  5
325
100
AcDbEntity
  8
ASSI
100
AcDbPolyline
 62
250
  6
CONTINUOUS
 90
7
 70
0
 10
-7.8726862502
 20
26.078737166
 10
-7.8741417877
 20
26.0666945707
 10
-7.8789118919
 20
26.0539808637
 10
-7.8869243593
 20
26.0416813978
 10
-7.8980451184
 20
26.0300019758
 10
-7.9120880879
 20
26.0191380254
 10
-7.9288182901
 20
26.0092713289
  0
LWPOLYLINE
  5
326
100
AcDbEntity
  8
DRAFT
100
AcDbPolyline
 62
7
  6
CONTINUOUS
 90
7
 70
0
 10
-11.6299615971
 20
-9.2229871415
 10
-11.6156180048
 20
-9.1574584676
 10
-11.596168327
 20
-9.0957392189
 10
-11.5717642556
 20
-9.0382259092
 10
-11.5428655365
 20
-8.986110087
 10
-11.5092925151
 20
-8.9394296569
 10
-11.471218275
 20
-8.8981439322
  0
LWPOLYLINE
  5
327
100
AcDbEntity
  8
ASSI
100
AcDbPolyline
 62
250
  6
CONTINUOUS
 90
17
 70
0
 10
0.1719139666
 20
20.191956953
 10
0.1635756814
 20
20.180059865
 10
0.1555895534
 20
20.1677105027
 10
0.1479841565
 20
20.154938932
 10
0.1408213322
 20
20.1418403562
 10
0.1341351763
 20
20.128476252
 10
0.1279424181
 20
20.1148789814
 10
0.1222700296
 20
20.1011064696
 10
0.1171395222
 20
20.0872108813
 10
0.1125682331
 20
20.0732389873
 10
0.1085727968
 20
20.0592417617
 10
0.1051674656
 20
20.0452688043
 10
0.102364682
 20
20.0313705844
 10
0.1001747719
 20
20.0175992203
 10
0.0986053593
 20
20.0040046944
 10
0.0976616883
 20
19.9906347338
 10
0.0973468621
 20
19.9775370323
  0
LWPOLYLINE
  5
328
100
AcDbEntity
  8
ASSI
100
AcDbPolyline
 62
7
  6
CONTINUOUS
 90
14
 70
0
 10
3.1969952538
 20
18.441678644
 10
3.1793849502
 20
18.4248400227
 10
3.1605341477
 20
18.4089095257
 10
3.1405400368
 20
18.3940884259
 10
3.1194408806
 20
18.3805747205
 10
3.0974380588
 20
18.3685402603
 10
3.0748997369
 20
18.3581206576
 10
3.0519866092
 20
18.3494423239
 10
3.0288593466
 20
18.3426365664
 10
3.0059099673
 20
18.3377864441
 10
2.9833525182
 20
18.3349329656
 10
2.9613335049
 20
18.3341093386
 10
2.9401484324
 20
18.335300747
 10
2.9194002413
 20
18.3385770949
  0
LWPOLYLINE
  5
329
100
AcDbEntity
  8
RACCORDO
100
AcDbPolyline
 62
250
  6
CONTINUOUS
 90
60
 70
0
 10
20.504741518
 20
22.0228725923
 10
20.5136730241
 20
22.0275573174
 10
20.5224825021
 20
22.0322994554
 10
20.5311684761
 20
22.0370982118
 10
20.5397294906
 20
22.0419527825
 10
20.5481641111
 20
22.046862354
 10
20.5564709244
 20
22.0518261038
 10
20.5646485386
 20
22.0568432002
 10
20.5726955834
 20
22.0619128023
 10
20.5806107105
 20
22.0670340609
 10
20.5883925937
 20
22.0722061178
 10
20.596039929
 20
22.0774281063
 10
20.6035514351
 20
22.0826991516
 10
20.6109258534
 20
22.0880183703
 10
20.6181619481
 20
22.0933848712
 10
20.6252585069
 20
22.0987977551
 10
20.6322143406
 20
22.104256115
 10
20.6390282837
 20
22.1097590364
 10
20.6456991946
 20
22.1153055971
 10
20.6522259554
 20
22.1208948678
 10
20.6586074725
 20
22.126525912
 10
20.6648426766
 20
22.1321977861
 10
20.6709305231
 20
22.1379095398
 10
20.6768699917
 20
22.143660216
 10
20.6826600874
 20
22.1494488512
 10
20.6882998399
 20
22.1552744753
 10
20.6937883042
 20
22.1611361124
 10
20.6991245607
 20
22.1670327801
 10
20.7043077153
 20
22.1729634905
 10
20.7093368995
 20
22.1789272498
 10
20.7142112706
 20
22.1849230588
 10
20.7189300118
 20
22.1909499128
 10
20.7234923326
 20
22.197006802
 10
20.7278974684
 20
22.2030927114
 10
20.7321446811
 20
22.2092066213
 10
20.736233259
 20
22.2153475074
 10
20.7401625172
 20
22.2215143406
 10
20.7439317972
 20
22.2277060876
 10
20.7475404674
 20
22.2339217109
 10
20.7509879232
 20
22.2401601691
 10
20.7542735869
 20
22.2464204169
 10
20.757396908
 20
22.2527014053
 10
20.7603573632
 20
22.2590020818
 10
20.7631544563
 20
22.2653213908
 10
20.7657877188
 20
22.2716582734
 10
20.7682567094
 20
22.2780116678
 10
20.7705610143
 20
22.2843805094
 10
20.7727002476
 20
22.2907637311
 10
20.7746740507
 20
22.2971602633
 10
20.7764820929
 20
22.3035690342
 10
20.7781240712
 20
22.30998897
 10
20.7795997107
 20
22.316418995
 10
20.7809087638
 20
22.3228580317
 10
20.7820510115
 20
22.3293050012
 10
20.7830262621
 20
22.3357588234
 10
20.7838343524
 20
22.3422184167
 10
20.7844751469
 20
22.3486826989
 10
20.7849485383
 20
22.3551505868
 10
20.7852544473
 20
22.3616209967
 10
20.7853928225
 20
22.3680928443
  0
LWPOLYLINE
  5
32A
100
AcDbEntity
  8
0
100
AcDbPolyline
 62
250
  6
CONTINUOUS
 90
61
 70
0
 10
20.504741518
 20
22.0228725923
 10
20.5136730241
 20
22.0275573174
 10
20.5224825021
 20
22.0322994554
 10
20.5311684761
 20
22.0370982118
 10
20.5397294906
 20
22.0419527825
 10
20.5481641111
 20
22.046862354
 10
20.5564709244
 20
22.0518261038
 10
20.5646485386
 20
22.0568432002
 10
20.5726955834
 20
22.0619128023
 10
20.5806107105
 20
22.0670340609
 10
20.5883925937
 20
22.0722061178
 10
20.596039929
 20
22.0774281063
 10
20.6035514351
 20
22.0826991516
 10
20.6109258534
 20
22.0880183703
 10
20.6181619481
 20
22.0933848712
 10
20.6252585069
 20
22.0987977551
 10
20.6322143406
 20
22.104256115
 10
20.6390282837
 20
22.1097590364
 10
20.6456991946
 20
22.1153055971
 10
20.6522259554
 20
22.1208948678
 10
20.6586074725
 20
22.126525912
 10
20.6648426766
 20
22.1321977861
 10
20.6709305231
 20
22.1379095398
 10
20.6768699917
 20
22.143660216
 10
20.6826600874
 20
22.1494488512
 10
20.6882998399
 20
22.1552744753
 10
20.6937883042
 20
22.1611361124
 10
20.6991245607
 20
22.1670327801
 10
20.7043077153
 20
22.1729634905
 10
20.7093368995
 20
22.1789272498
 10
20.7142112706
 20
22.1849230588
 10
20.7189300118
 20
22.1909499128
 10
20.7234923326
 20
22.197006802
 10
20.7278974684
 20
22.2030927114
 10
20.7321446811
 20
22.2092066213
 10
20.736233259
 20
22.2153475074
 10
20.7401625172
 20
22.2215143406
 10
20.7439317972
 20
22.2277060876
 10
20.7475404674
 20
22.2339217109
 10
20.7509879232
 20
22.2401601691
 10
20.7542735869
 20
22.2464204169
 10
20.757396908
 20
22.2527014053
 10
20.7603573632
 20
22.2590020818
 10
20.7631544563
 20
22.2653213908
 10
20.7657877188
 20
22.2716582734
 10
20.7682567094
 20
22.2780116678
 10
20.7705610143
 20
22.2843805094
 10
20.7727002476
 20
22.2907637311
 10
20.7746740507
 20
22.2971602633
 10
20.7764820929
 20
22.3035690342
 10
20.7781240712
 20
22.30998897
 10
20.7795997107
 20
22.316418995
 10
20.7809087638
 20
22.3228580317
 10
20.7820510115
 20
22.3293050012
 10
20.7830262621
 20
22.3357588234
 10
20.7838343524
 20
22.3422184167
 10
20.7844751469
 20
22.3486826989
 10
20.7849485383
 20
22.3551505868
 10
20.7852544473
 20
22.3616209967
 10
20.7853928225
 20
22.3680928443
 10
20.7854017177
 20
22.3702017301
  0
LINE
  5
32B
100
AcDbEntity
  8
ASSI
100
AcDbLine
 62
7
  6
CONTINUOUS
 10
5.8778831069
 20
15.3325052113
 11
5.1831189205
 21
14.9683521802
  0
LINE
  5
32C
100
AcDbEntity
  8
RACCORDO
100
AcDbLine
 62
250
  6
CONTINUOUS
 10
20.504741518
 20
22.0228725923
 11
5.9396007819
 21
14.6128166448
  0
LINE
  5
32D
100
AcDbEntity
  8
0
100
AcDbLine
 62
250
  6
CONTINUOUS
 10
20.504741518
 20
22.0228725923
 11
5.9396007819
 21
14.6128166448
  0
LWPOLYLINE
  5
32E
100
AcDbEntity
  8
DRAFT
100
AcDbPolyline
 62
7
  6
CONTINUOUS
 90
26
 70
0
 10
-10.619113898
 20
-13.2354392972
 10
-10.6717603237
 20
-13.2501473837
 10
-10.7264456475
 20
-13.2574042826
 10
-10.7837506004
 20
-13.2576656764
 10
-10.8420931284
 20
-13.2509758885
 10
-10.9013739977
 20
-13.2371626124
 10
-10.9616900601
 20
-13.2163971964
 10
-11.0217582702
 20
-13.1892415921
 10
-11.0815520321
 20
-13.155606068
 10
-11.1410983498
 20
-13.1155805655
 10
-11.1991988375
 20
-13.0699984028
 10
-11.2559040542
 20
-13.0186744436
 10
-11.3111663648
 20
-12.9617950675
 10
-11.3636444337
 20
-12.9007527595
 10
-11.4131950249
 20
-12.83557716
 10
-11.4599673228
 20
-12.7662411364
 10
-11.5030622061
 20
-12.6940535837
 10
-11.5424976892
 20
-12.6187743117
 10
-11.578261898
 20
-12.5406460629
 10
-11.6094135582
 20
-12.4617033259
 10
-11.6357810192
 20
-12.3820664672
 10
-11.6575421344
 20
-12.301617719
 10
-11.674281677
 20
-12.2220351987
 10
-11.6858628832
 20
-12.143878988
 10
-11.6924262892
 20
-12.0665905949
 10
-11.6939724409
 20
-11.9901702264
  0
LWPOLYLINE
  5
32F
100
AcDbEntity
  8
ASSI
100
AcDbPolyline
 62
7
  6
CONTINUOUS
 90
5
 70
0
 10
4.6641759486
 20
-21.3681877328
 10
4.6476630026
 20
-21.3496209996
 10
4.6293479897
 20
-21.3331863755
 10
4.6093699125
 20
-21.3189488424
 10
4.590218675
 20
-21.308167366
  0
LWPOLYLINE
  5
330
100
AcDbEntity
  8
ASSI
100
AcDbPolyline
 62
7
  6
CONTINUOUS
 90
13
 70
0
 10
-8.4870547007
 20
26.1148775885
 10
-8.4882583175
 20
26.1380902244
 10
-8.4918675476
 20
26.162111429
 10
-8.497816457
 20
26.1865326425
 10
-8.5059985892
 20
26.2109389098
 10
-8.5162731238
 20
26.2349130521
 10
-8.5284671361
 20
26.2580428391
 10
-8.5423745563
 20
26.2799313638
 10
-8.5577549821
 20
26.300205483
 10
-8.5743418798
 20
26.3185194729
 10
-8.5918523003
 20
26.3345596185
 10
-8.6099918043
 20
26.3480494314
 10
-8.6284545177
 20
26.3587561978
  0
LINE
  5
331
100
AcDbEntity
  8
0
100
AcDbLine
 62
250
  6
CONTINUOUS
 10
-9.1755495684
 20
22.8328283942
 11
-9.1755495684
 21
22.6907620455
  0
LINE
  5
332
100
AcDbEntity
  8
0
100
AcDbLine
 62
250
  6
CONTINUOUS
 10
-8.896457297
 20
22.6932822585
 11
-8.896457297
 21
22.5512159098
  0
LINE
  5
333
100
AcDbEntity
  8
ASSI
100
AcDbLine
 62
7
  6
CONTINUOUS
 10
-8.4870547007
 20
24.4694029413
 11
-8.4870547007
 21
26.1148775885
  0
LINE
  5
334
100
AcDbEntity
  8
ASSI
100
AcDbLine
 62
250
  6
CONTINUOUS
 10
-7.9288182901
 20
26.3492149238
 11
-7.9288182901
 21
26.0092713289
  0
LINE
  5
335
100
AcDbEntity
  8
ASSI
100
AcDbLine
 62
7
  6
CONTINUOUS
 10
-7.872686677
 20
26.4188873374
 11
-7.8726862502
 21
26.0787371662
  0
LWPOLYLINE
  5
336
100
AcDbEntity
  8
ASSI
100
AcDbPolyline
 62
250
  6
CONTINUOUS
 90
28
 70
0
 10
-6.7509187659
 20
24.4123611306
 10
-6.7508889043
 20
24.4144617404
 10
-6.7507563592
 20
24.4165540864
 10
-6.7505211305
 20
24.4186381688
 10
-6.7501877706
 20
24.4207302647
 10
-6.7497517273
 20
24.4228140969
 10
-6.7491993433
 20
24.4248408334
 10
-6.7485264738
 20
24.4268094244
 10
-6.7477372638
 20
24.4287209198
 10
-6.7468304909
 20
24.4305296374
 10
-6.7458018554
 20
24.4322324034
 10
-6.7446556569
 20
24.4338323915
 10
-6.743403573
 20
24.4352934411
 10
-6.7420429732
 20
24.436610549
 10
-6.7405764879
 20
24.4377887183
 10
-6.7390236847
 20
24.4388067975
 10
-6.7373845275
 20
24.4396605262
 10
-6.7356590524
 20
24.4403541648
 10
-6.7338669356
 20
24.4408793423
 10
-6.7320077408
 20
24.441233923
 10
-6.7300819042
 20
24.4414200427
 10
-6.7281104114
 20
24.4414357385
 10
-6.7260926957
 20
24.4412791065
 10
-6.7240293237
 20
24.4409520506
 10
-6.7219429808
 20
24.44045832
 10
-6.7198412287
 20
24.4397991643
 10
-6.7177165056
 20
24.4389733338
 10
-6.7155688116
 20
24.4379808286
  0
LWPOLYLINE
  5
337
100
AcDbEntity
  8
ASSI
100
AcDbPolyline
 62
250
  6
CONTINUOUS
 90
19
 70
0
 10
-7.9288182901
 20
26.0092713289
 10
-7.9288497554
 20
26.0070904292
 10
-7.9289856718
 20
26.0048152255
 10
-7.9292260393
 20
26.002445718
 10
-7.9295663645
 20
25.9999704682
 10
-7.9300111409
 20
25.9974009145
 10
-7.9305738493
 20
25.9947713723
 10
-7.9312583791
 20
25.9920786366
 10
-7.932060841
 20
25.9893259124
 10
-7.9329830473
 20
25.9865571301
 10
-7.9340291862
 20
25.9837707537
 10
-7.9351950695
 20
25.9809683192
 10
-7.9364699458
 20
25.9781983659
 10
-7.9378576073
 20
25.9754615037
 10
-7.9393542617
 20
25.9727571226
 10
-7.9409377806
 20
25.970131932
 10
-7.9426007876
 20
25.9676015015
 10
-7.944350659
 20
25.9651502614
 10
-7.9461873948
 20
25.9627782117
  0
LINE
  5
338
100
AcDbEntity
  8
ASSI
100
AcDbLine
 62
7
  6
CONTINUOUS
 10
-7.8734806245
 20
26.0585788878
 11
-7.8726864329
 21
26.0787534632
  0
LWPOLYLINE
  5
339
100
AcDbEntity
  8
0
100
AcDbPolyline
 62
7
  6
CONTINUOUS
 90
3
 70
0
 10
-10.317723996
 20
-12.7886537711
 10
-10.3125809806
 20
-12.7363162634
 10
-10.3102681099
 20
-12.6820011526
  0
LWPOLYLINE
  5
33A
100
AcDbEntity
  8
ASSI
100
AcDbPolyline
 62
7
  6
CONTINUOUS
 90
10
 70
0
 10
-0.2492606998
 20
20.8545804031
 10
-0.2353197175
 20
20.8882601891
 10
-0.2248639807
 20
20.9243292216
 10
-0.2178934895
 20
20.9627875006
 10
-0.2144082439
 20
21.0040661087
 10
-0.2144082439
 20
21.0477339633
 10
-0.2178934895
 20
21.0924978169
 10
-0.2248639807
 20
21.1379265872
 10
-0.2353197175
 20
21.1844513565
 10
-0.2492606998
 20
21.2320721248
  0
LWPOLYLINE
  5
33B
100
AcDbEntity
  8
ASSI
100
AcDbPolyline
 62
7
  6
CONTINUOUS
 90
6
 70
0
 10
0.9595943972
 20
19.1286144426
 10
0.9613906947
 20
19.1322944491
 10
0.9666163204
 20
19.1384862446
 10
0.9748135297
 20
19.1468265729
 10
0.9857859803
 20
19.1563883655
 10
0.9993519671
 20
19.1669524245
  0
LWPOLYLINE
  5
33C
100
AcDbEntity
  8
ASSI
100
AcDbPolyline
 62
250
  6
CONTINUOUS
 90
10
 70
0
 10
4.6403133103
 20
19.6695278592
 10
4.6437511663
 20
19.6741584878
 10
4.6468323609
 20
19.6789775524
 10
4.649556894
 20
19.6839850528
 10
4.6519518689
 20
19.6892538126
 10
4.6539901823
 20
19.6947110082
 10
4.6555905246
 20
19.7001381695
 10
4.6567257925
 20
19.7054624729
 10
4.6574230893
 20
19.7107567418
 10
4.657682415
 20
19.7160209764
  0
LWPOLYLINE
  5
33D
100
AcDbEntity
  8
ASSI
100
AcDbPolyline
 62
7
  6
CONTINUOUS
 90
6
 70
0
 10
4.6519742001
 20
19.6132522472
 10
4.6598588561
 20
19.6234925765
 10
4.673831385
 20
19.6444745479
 10
4.6860101284
 20
19.6669304243
 10
4.6962462824
 20
19.6907390865
 10
4.7041403559
 20
19.7149749063
  0
LINE
  5
33E
100
AcDbEntity
  8
ASSI
100
AcDbLine
 62
250
  6
CONTINUOUS
 10
4.0994460045
 20
19.000240373
 11
4.6403133103
 21
19.6695278592
  0
LINE
  5
33F
100
AcDbEntity
  8
ASSI
100
AcDbLine
 62
7
  6
CONTINUOUS
 10
4.0994460045
 20
18.9295357122
 11
4.6520008049
 21
19.6132856992
  0
LWPOLYLINE
  5
340
100
AcDbEntity
  8
ASSI
100
AcDbPolyline
 62
7
  6
CONTINUOUS
 90
4
 70
0
 10
0.9877175465
 20
-22.0106203832
 10
0.9990043562
 20
-22.0402380063
 10
1.0147071811
 20
-22.0741610964
 10
1.0328153804
 20
-22.1070701666
  0
LWPOLYLINE
  5
341
100
AcDbEntity
  8
ASSI
100
AcDbPolyline
 62
250
  6
CONTINUOUS
 90
7
 70
0
 10
-12.5477324401
 20
26.0241609538
 10
-12.5458263748
 20
26.0104559958
 10
-12.5406132348
 20
25.9977858464
 10
-12.5321726811
 20
25.9855581664
 10
-12.5206459469
 20
25.9739775579
 10
-12.5062259055
 20
25.9632377955
 10
-12.489153843
 20
25.9535185844
  0
LWPOLYLINE
  5
342
100
AcDbEntity
  8
ASSI
100
AcDbPolyline
 62
250
  6
CONTINUOUS
 90
7
 70
0
 10
-12.5477324787
 20
26.3414696989
 10
-12.5458263817
 20
26.3277248209
 10
-12.5406132467
 20
26.3150546684
 10
-12.5321726957
 20
26.302826984
 10
-12.5206459609
 20
26.2912463702
 10
-12.5062259148
 20
26.2805066019
 10
-12.489153843
 20
26.2707873848
  0
LWPOLYLINE
  5
343
100
AcDbEntity
  8
ASSI
100
AcDbPolyline
 62
7
  6
CONTINUOUS
 90
10
 70
0
 10
-7.8726867796
 20
26.4188873373
 10
-7.8735684488
 20
26.4397327933
 10
-7.87791506
 20
26.4693946644
 10
-7.8858814815
 20
26.498107641
 10
-7.8973626744
 20
26.5253789282
 10
-7.9120402906
 20
26.5505577284
 10
-7.9296590079
 20
26.5733804218
 10
-7.9500621741
 20
26.5936844759
 10
-7.9728195089
 20
26.6110596263
 10
-7.9959330972
 20
26.6244564893
  0
LINE
  5
344
100
AcDbEntity
  8
ASSI
100
AcDbLine
 62
250
  6
CONTINUOUS
 10
-6.7509187659
 20
23.2250883492
 11
-6.7509187659
 21
24.4123611306
  0
LINE
  5
345
100
AcDbEntity
  8
ASSI
100
AcDbLine
 62
7
  6
CONTINUOUS
 10
-6.8094973842
 20
24.4831222398
 11
-6.8094974097
 21
23.298467303
  0
LWPOLYLINE
  5
346
100
AcDbEntity
  8
ASSI
100
AcDbPolyline
 62
250
  6
CONTINUOUS
 90
12
 70
0
 10
2.4601874496
 20
18.5979788209
 10
2.4496756835
 20
18.5746079
 10
2.4369909284
 20
18.55284963
 10
2.4223478225
 20
18.5330721821
 10
2.4059941414
 20
18.5156102096
 10
2.3882066052
 20
18.5007591861
 10
2.3692861962
 20
18.4887704052
 10
2.3495530658
 20
18.4798467287
 10
2.3293411177
 20
18.4741391537
 10
2.3089923584
 20
18.4717442579
 10
2.2888511088
 20
18.4727025651
 10
2.2797529968
 20
18.4742663868
  0
LWPOLYLINE
  5
347
100
AcDbEntity
  8
ASSI
100
AcDbPolyline
 62
7
  6
CONTINUOUS
 90
13
 70
0
 10
-3.9615713011
 20
23.3758285116
 10
-3.9630758222
 20
23.4048443065
 10
-3.9675873597
 20
23.4348708122
 10
-3.9750234965
 20
23.4653973291
 10
-3.9852511618
 20
23.4959051632
 10
-3.99809433
 20
23.5258728411
 10
-4.0133368453
 20
23.5547850749
 10
-4.0307211206
 20
23.5821457308
 10
-4.0499466529
 20
23.6074883797
 10
-4.0706802749
 20
23.6303808672
 10
-4.0925683007
 20
23.6504310491
 10
-4.1152426806
 20
23.6672933152
 10
-4.1383210724
 20
23.6806767733
  0
LINE
  5
348
100
AcDbEntity
  8
ASSI
100
AcDbLine
 62
7
  6
CONTINUOUS
 10
-3.2795110707
 20
22.5583244009
 11
-3.3038028896
 21
23.7020864928
  0
LINE
  5
349
100
AcDbEntity
  8
ASSI
100
AcDbLine
 62
250
  6
CONTINUOUS
 10
-4.4602703688
 20
23.267036932
 11
-4.4602703688
 21
22.0797641507
  0
LINE
  5
34A
100
AcDbEntity
  8
ASSI
100
AcDbLine
 62
250
  6
CONTINUOUS
 10
-4.1799173384
 20
23.2658136301
 11
-4.1799173384
 21
22.0874597218
  0
LINE
  5
34B
100
AcDbEntity
  8
ASSI
100
AcDbLine
 62
7
  6
CONTINUOUS
 10
-3.9615713011
 20
22.2066612415
 11
-3.9615713011
 21
23.3758285116
  0
LINE
  5
34C
100
AcDbEntity
  8
ASSI
100
AcDbLine
 62
250
  6
CONTINUOUS
 10
-3.0386081647
 20
22.5562058299
 11
-3.0386081647
 21
21.3689330486
  0
LINE
  5
34D
100
AcDbEntity
  8
ASSI
100
AcDbLine
 62
7
  6
CONTINUOUS
 10
-3.0971868084
 20
21.4423120023
 11
-3.0971867571
 21
22.626988129
  0
LWPOLYLINE
  5
34E
100
AcDbEntity
  8
RACCORDO
100
AcDbPolyline
 62
250
  6
CONTINUOUS
 90
5
 70
0
 10
-2.7890695152
 20
-22.7153857873
 10
-2.7457428138
 20
-18.6849555625
 10
-2.6704484202
 20
-14.6405323111
 10
-2.5631863343
 20
-10.5821160329
 10
-2.4239331017
 20
-6.5091468133
  0
LWPOLYLINE
  5
34F
100
AcDbEntity
  8
RACCORDO
100
AcDbPolyline
 62
250
  6
CONTINUOUS
 90
9
 70
0
 10
-3.46213088
 20
-22.7188029609
 10
-3.4159624994
 20
-18.6860481674
 10
-3.3384969327
 20
-14.6382608762
 10
-3.2297276195
 20
-10.5758026328
 10
-3.0896450407
 20
-6.4988528413
 10
-2.9182595575
 20
-2.4079626138
 10
-2.7156099724
 20
1.6959417645
 10
-2.4817325674
 20
5.8122978847
 10
-2.2166525208
 20
9.940911221
  0
LINE
  5
350
100
AcDbEntity
  8
RACCORDO
100
AcDbLine
 62
250
  6
CONTINUOUS
 10
-2.4239331017
 20
-6.5091468133
 11
-2.2527121768
 21
-2.4221845671
  0
LINE
  5
351
100
AcDbEntity
  8
RACCORDO
100
AcDbLine
 62
250
  6
CONTINUOUS
 10
-2.2527121768
 20
-2.4221845671
 11
-2.0495939233
 21
1.6770909616
  0
LWPOLYLINE
  5
352
100
AcDbEntity
  8
ASSI
100
AcDbPolyline
 62
250
  6
CONTINUOUS
 90
13
 70
0
 10
-3.0032582104
 20
22.581825528
 10
-3.0020750322
 20
22.6047751169
 10
-2.9985452946
 20
22.6285238792
 10
-2.9927280588
 20
22.6526744348
 10
-2.9847206618
 20
22.6768226804
 10
-2.9746570881
 20
22.700564551
 10
-2.9627057275
 20
22.7235027812
 10
-2.9490665577
 20
22.7452535527
 10
-2.9339677982
 20
22.7654529157
 10
-2.9176620918
 20
22.7837628795
 10
-2.9004222766
 20
22.7998770683
 10
-2.8825368211
 20
22.8135258476
 10
-2.8643049971
 20
22.8244808354
  0
LWPOLYLINE
  5
353
100
AcDbEntity
  8
ASSI
100
AcDbPolyline
 62
7
  6
CONTINUOUS
 90
9
 70
0
 10
-1.834674628
 20
25.2163425604
 10
-1.8354357091
 20
25.202964907
 10
-1.8400733218
 20
25.1832158171
 10
-1.8490793932
 20
25.16365895
 10
-1.8622912649
 20
25.1444171093
 10
-1.8791229713
 20
25.1262697619
 10
-1.8993791906
 20
25.1094767298
 10
-1.9232552446
 20
25.0937781909
 10
-1.9507511333
 20
25.0791741451
  0
LINE
  5
354
100
AcDbEntity
  8
RACCORDO
100
AcDbLine
 62
250
  6
CONTINUOUS
 10
-2.0495939233
 20
1.6770909616
 11
-1.8146017956
 21
5.788119858
  0
LINE
  5
355
100
AcDbEntity
  8
RACCORDO
100
AcDbLine
 62
250
  6
CONTINUOUS
 10
-1.8146017956
 20
5.788119858
 11
-1.5477123393
 21
9.9114620367
  0
LINE
  5
356
100
AcDbEntity
  8
RACCORDO
100
AcDbLine
 62
250
  6
CONTINUOUS
 10
-2.2166525208
 20
9.940911221
 11
-1.9204074872
 21
14.0814009583
  0
LINE
  5
357
100
AcDbEntity
  8
RACCORDO
100
AcDbLine
 62
250
  6
CONTINUOUS
 10
-1.5477123393
 20
9.9114620367
 11
-1.2489255544
 21
14.0471174979
  0
LWPOLYLINE
  5
358
100
AcDbEntity
  8
RACCORDO
100
AcDbPolyline
 62
250
  6
CONTINUOUS
 90
22
 70
0
 10
-1.9204074778
 20
14.0814009605
 10
-1.9125915147
 20
14.159047888
 10
-1.9005583829
 20
14.2379793344
 10
-1.8843676108
 20
14.3177906031
 10
-1.8640938259
 20
14.3980634317
 10
-1.8398416152
 20
14.4783942521
 10
-1.8117423116
 20
14.5583962647
 10
-1.7799243841
 20
14.6376621045
 10
-1.7445455814
 20
14.7157780374
 10
-1.7058056649
 20
14.7923522347
 10
-1.6638880175
 20
14.8669862498
 10
-1.6189966169
 20
14.9392944478
 10
-1.5713850876
 20
15.0089179879
 10
-1.5212784416
 20
15.0754940432
 10
-1.4689214135
 20
15.1386740136
 10
-1.414615491
 20
15.1981433625
 10
-1.3586240323
 20
15.2535863841
 10
-1.3012152981
 20
15.3047152803
 10
-1.2427101761
 20
15.3512867903
 10
-1.1834050686
 20
15.3930611138
 10
-1.1235709518
 20
15.4298048094
 10
-1.0634962597
 20
15.461319
  0
LWPOLYLINE
  5
359
100
AcDbEntity
  8
RACCORDO
100
AcDbPolyline
 62
250
  6
CONTINUOUS
 90
22
 70
0
 10
-1.2489255544
 20
14.0471174979
 10
-1.2441968348
 20
14.0924956432
 10
-1.2369833697
 20
14.1381796489
 10
-1.2272851592
 20
14.184169515
 10
-1.2150270175
 20
14.230723345
 10
-1.2002841303
 20
14.2775830353
 10
-1.1832820547
 20
14.3239742756
 10
-1.1639881542
 20
14.3698698711
 10
-1.1424350652
 20
14.4152970165
 10
-1.1189462536
 20
14.4595629855
 10
-1.0934896055
 20
14.5026528345
 10
-1.0660972347
 20
14.5445815072
 10
-1.0371889481
 20
14.5847011077
 10
-1.0067414404
 20
14.6229820919
 10
-0.9747780168
 20
14.659454004
 10
-0.9417884001
 20
14.6935575809
 10
-0.907740233
 20
14.7252635234
 10
-0.8726658726
 20
14.7546011306
 10
-0.8371521134
 20
14.7810990366
 10
-0.8013945535
 20
14.8046001193
 10
-0.7651975947
 20
14.8252615007
 10
-0.7285612371
 20
14.8430831809
  0
LWPOLYLINE
  5
35A
100
AcDbEntity
  8
ASSI
100
AcDbPolyline
 62
250
  6
CONTINUOUS
 90
6
 70
0
 10
4.6475176502
 20
-21.4040194077
 10
4.6394951922
 20
-21.381217937
 10
4.6290521927
 20
-21.3601828883
 10
4.6163653569
 20
-21.3412701949
 10
4.6016493578
 20
-21.3247998778
 10
4.5851532047
 20
-21.3110506307
  0
LWPOLYLINE
  5
35B
100
AcDbEntity
  8
ASSI
100
AcDbPolyline
 62
250
  6
CONTINUOUS
 90
7
 70
0
 10
-6.8094974097
 20
24.4830718084
 10
-6.8075912788
 20
24.4692984741
 10
-6.8023781251
 20
24.4566283333
 10
-6.7939375645
 20
24.4444006656
 10
-6.7824108322
 20
24.4328200717
 10
-6.7679908035
 20
24.4220803255
 10
-6.7509187659
 20
24.4123611306
  0
LINE
  5
35C
100
AcDbEntity
  8
DRAFT
100
AcDbLine
 62
7
  6
CONTINUOUS
 10
1.5538615922
 20
-15.3867061245
 11
1.3891116728
 21
-13.4248642375
  0
LWPOLYLINE
  5
35D
100
AcDbEntity
  8
ASSI
100
AcDbPolyline
 62
7
  6
CONTINUOUS
 90
12
 70
0
 10
-1.8524133766
 20
26.403408907
 10
-1.8540447403
 20
26.4296509457
 10
-1.8595686197
 20
26.4622742813
 10
-1.869017315
 20
26.4944670592
 10
-1.8823979182
 20
26.5257885648
 10
-1.8995754981
 20
26.5556572834
 10
-1.9204580367
 20
26.5837405862
 10
-1.944994109
 20
26.6097976778
 10
-1.9728022349
 20
26.6333237601
 10
-2.003406863
 20
26.6539412522
 10
-2.0370523619
 20
26.6718044107
 10
-2.0733560312
 20
26.6866651651
  0
LWPOLYLINE
  5
35E
100
AcDbEntity
  8
ASSI
100
AcDbPolyline
 62
250
  6
CONTINUOUS
 90
28
 70
0
 10
-0.4676067372
 20
21.4096583295
 10
-0.4679729268
 20
21.4209773202
 10
-0.4688325474
 20
21.4327469992
 10
-0.470212511
 20
21.4449465858
 10
-0.4721431201
 20
21.4575788572
 10
-0.4746461941
 20
21.4705864284
 10
-0.4777232414
 20
21.4838491266
 10
-0.4813842348
 20
21.4973267773
 10
-0.4856364234
 20
21.5109750457
 10
-0.4904531133
 20
21.524660571
 10
-0.4958245608
 20
21.5383297303
 10
-0.5017422906
 20
21.5519379697
 10
-0.5081600137
 20
21.5653663242
 10
-0.5150478837
 20
21.5785523829
 10
-0.5223889387
 20
21.5914640428
 10
-0.5301435837
 20
21.6040329019
 10
-0.5382763695
 20
21.616206431
 10
-0.5467630821
 20
21.6279532068
 10
-0.5555774927
 20
21.6392398277
 10
-0.5646885633
 20
21.6500282596
 10
-0.5740633066
 20
21.6602811666
 10
-0.583672079
 20
21.6699676478
 10
-0.5934810838
 20
21.6790542975
 10
-0.6034560016
 20
21.6875100207
 10
-0.6135659399
 20
21.6953091423
 10
-0.6237770644
 20
21.7024251894
 10
-0.6340525132
 20
21.708831884
 10
-0.6443565086
 20
21.7145065911
  0
LWPOLYLINE
  5
35F
100
AcDbEntity
  8
ASSI
100
AcDbPolyline
 62
250
  6
CONTINUOUS
 90
28
 70
0
 10
-0.7479597675
 20
21.4108816314
 10
-0.7479988026
 20
21.4131667512
 10
-0.7481480984
 20
21.4155315177
 10
-0.7484076548
 20
21.417975931
 10
-0.748774945
 20
21.4205127162
 10
-0.7492524958
 20
21.4231291482
 10
-0.7498478878
 20
21.425787051
 10
-0.7505652959
 20
21.4284886816
 10
-0.7514005452
 20
21.4312317829
 10
-0.7523486917
 20
21.4339714083
 10
-0.7534132033
 20
21.4367069226
 10
-0.7545906122
 20
21.4394389609
 10
-0.7558655705
 20
21.4421244814
 10
-0.7572390834
 20
21.4447596683
 10
-0.7587101457
 20
21.4473483372
 10
-0.7602603937
 20
21.4498588939
 10
-0.7618895902
 20
21.4522883511
 10
-0.7635979725
 20
21.454639696
 10
-0.7653678879
 20
21.4568902954
 10
-0.7671998839
 20
21.4590393035
 10
-0.7690934132
 20
21.4610875662
 10
-0.7710291808
 20
21.4630149887
 10
-0.7730075138
 20
21.464820443
 10
-0.7750280852
 20
21.4665050572
 10
-0.7770706193
 20
21.4680521194
 10
-0.7791283575
 20
21.4694560594
 10
-0.7812080583
 20
21.4707224475
 10
-0.7833097218
 20
21.4718512837
  0
LINE
  5
360
100
AcDbEntity
  8
ASSI
100
AcDbLine
 62
7
  6
CONTINUOUS
 10
-1.8347218391
 20
25.2163429128
 11
-1.852413505
 21
26.4034149598
  0
LINE
  5
361
100
AcDbEntity
  8
ASSI
100
AcDbLine
 62
250
  6
CONTINUOUS
 10
-1.9507511333
 20
25.0791741451
 11
-1.9631951746
 21
26.2725617151
  0
LWPOLYLINE
  5
362
100
AcDbEntity
  8
ASSI
100
AcDbPolyline
 62
7
  6
CONTINUOUS
 90
9
 70
0
 10
0.0387684002
 20
19.7309526836
 10
0.0387974614
 20
19.7271407028
 10
0.0406048594
 20
19.7006902868
 10
0.0452316528
 20
19.6747303735
 10
0.0526291997
 20
19.6496608144
 10
0.0626312601
 20
19.6259260556
 10
0.0751180375
 20
19.6036831169
 10
0.0899730678
 20
19.5830950642
 10
0.1069314144
 20
19.5644900819
  0
LINE
  5
363
100
AcDbEntity
  8
ASSI
100
AcDbLine
 62
250
  6
CONTINUOUS
 10
-0.850059156
 20
24.5572473617
 11
-0.850059156
 21
25.6054974186
  0
LINE
  5
364
100
AcDbEntity
  8
ASSI
100
AcDbLine
 62
250
  6
CONTINUOUS
 10
-0.7479597675
 20
20.2236088501
 11
-0.7479597675
 21
21.4108816314
  0
LINE
  5
365
100
AcDbEntity
  8
ASSI
100
AcDbLine
 62
250
  6
CONTINUOUS
 10
-0.4676067372
 20
20.2313044212
 11
-0.4676067372
 21
21.4096583295
  0
LINE
  5
366
100
AcDbEntity
  8
ASSI
100
AcDbLine
 62
7
  6
CONTINUOUS
 10
-0.2492606998
 20
20.3505059409
 11
-0.2492606998
 21
21.519673211
  0
LINE
  5
367
100
AcDbEntity
  8
ASSI
100
AcDbLine
 62
7
  6
CONTINUOUS
 10
0.0387682184
 20
20.0482477104
 11
0.0387682184
 21
19.7309789103
  0
LINE
  5
368
100
AcDbEntity
  8
ASSI
100
AcDbLine
 62
250
  6
CONTINUOUS
 10
0.0973468621
 20
19.9775370323
 11
0.0973468621
 21
19.6602682319
  0
LWPOLYLINE
  5
369
100
AcDbEntity
  8
ASSI
100
AcDbPolyline
 62
250
  6
CONTINUOUS
 90
13
 70
0
 10
-0.7833097218
 20
21.4718512837
 10
-0.782126542
 20
21.4948008881
 10
-0.7785968003
 20
21.5185496636
 10
-0.7727795589
 20
21.5427002295
 10
-0.7647721558
 20
21.5668484818
 10
-0.7547085764
 20
21.5905903553
 10
-0.7427572114
 20
21.6135285846
 10
-0.7291180394
 20
21.6352793515
 10
-0.7140192804
 20
21.6554787071
 10
-0.6977135771
 20
21.6737886618
 10
-0.6804737679
 20
21.689902841
 10
-0.6625883212
 20
21.7035516109
 10
-0.6443565086
 20
21.7145065911
  0
LWPOLYLINE
  5
36A
100
AcDbEntity
  8
ASSI
100
AcDbPolyline
 62
7
  6
CONTINUOUS
 90
3
 70
0
 10
4.7041403559
 20
19.7149749063
 10
4.7096812615
 20
19.7393984725
 10
4.7129578387
 20
19.7645406789
  0
LWPOLYLINE
  5
36B
100
AcDbEntity
  8
DRAFT
100
AcDbPolyline
 62
7
  6
CONTINUOUS
 90
3
 70
0
 10
-11.471218275
 20
-8.8981439322
 10
-11.4296332875
 20
-8.8633273116
 10
-11.3810300808
 20
-8.8333479586
  0
LINE
  5
36C
100
AcDbEntity
  8
DRAFT
100
AcDbLine
 62
7
  6
CONTINUOUS
 10
2.23892336
 20
-2.4845861555
 11
1.8554803957
 21
-2.2928646733
  0
LWPOLYLINE
  5
36D
100
AcDbEntity
  8
ASSI
100
AcDbPolyline
 62
7
  6
CONTINUOUS
 90
5
 70
0
 10
4.7076540774
 20
-21.4591691796
 10
4.700486951
 20
-21.4343270627
 10
4.6907694076
 20
-21.410783656
 10
4.6786280483
 20
-21.3886823988
 10
4.6641759486
 20
-21.3681877328
  0
LINE
  5
36E
100
AcDbEntity
  8
0
100
AcDbLine
 62
7
  6
CONTINUOUS
 10
3.3999201983
 20
-16.3097354275
 11
2.23892336
 21
-2.4845861555
  0
LWPOLYLINE
  5
36F
100
AcDbEntity
  8
ASSI
100
AcDbPolyline
 62
7
  6
CONTINUOUS
 90
13
 70
0
 10
-0.2492606998
 20
21.519673211
 10
-0.2507652209
 20
21.5486890059
 10
-0.2552767585
 20
21.5787155116
 10
-0.2627128953
 20
21.6092420285
 10
-0.2729405605
 20
21.6397498626
 10
-0.2857837288
 20
21.6697175405
 10
-0.3010262441
 20
21.6986297743
 10
-0.3184105194
 20
21.7259904302
 10
-0.3376360517
 20
21.7513330791
 10
-0.3583696737
 20
21.7742255666
 10
-0.3802576994
 20
21.7942757485
 10
-0.4029320794
 20
21.8111380146
 10
-0.4260104712
 20
21.8245214726
  0
LWPOLYLINE
  5
370
100
AcDbEntity
  8
ASSI
100
AcDbPolyline
 62
7
  6
CONTINUOUS
 90
16
 70
0
 10
0.0954936313
 20
25.5504945289
 10
0.0945839667
 20
25.5688872215
 10
0.091205551
 20
25.5871559678
 10
0.085352203
 20
25.6052887213
 10
0.0768753005
 20
25.6235659719
 10
0.0658985028
 20
25.6416551105
 10
0.0528219602
 20
25.6586175813
 10
0.037723028
 20
25.674187441
 10
0.0204954229
 20
25.688547721
 10
0.0012682465
 20
25.7014337714
 10
-0.0201037432
 20
25.7128403513
 10
-0.0434934225
 20
25.7226567379
 10
-0.0683525443
 20
25.7304731588
 10
-0.0944909731
 20
25.736126947
 10
-0.1220807329
 20
25.7396825591
 10
-0.1511048135
 20
25.741084772
  0
LWPOLYLINE
  5
371
100
AcDbEntity
  8
ASSI
100
AcDbPolyline
 62
250
  6
CONTINUOUS
 90
15
 70
0
 10
0.0973468621
 20
19.6602682319
 10
0.0975594719
 20
19.6497464902
 10
0.0982217665
 20
19.63915938
 10
0.0993714524
 20
19.6285573265
 10
0.1010499574
 20
19.6179732845
 10
0.1032915699
 20
19.6074911757
 10
0.1061121685
 20
19.5972372968
 10
0.1095351736
 20
19.5872717132
 10
0.1135815973
 20
19.5776580712
 10
0.1182405266
 20
19.5685144307
 10
0.1235174982
 20
19.5598972926
 10
0.1294149713
 20
19.5518638692
 10
0.1358933726
 20
19.5445114799
 10
0.1429391773
 20
19.5378838098
 10
0.1505363818
 20
19.5320224003
  0
LINE
  5
372
100
AcDbEntity
  8
ASSI
100
AcDbLine
 62
250
  6
CONTINUOUS
 10
0.5636697907
 20
24.5572473617
 11
0.5636697907
 21
25.0968654532
  0
LINE
  5
373
100
AcDbEntity
  8
ASSI
100
AcDbLine
 62
7
  6
CONTINUOUS
 10
0.7536313388
 20
19.2293941917
 11
0.7536313388
 21
18.7754320873
  0
LINE
  5
374
100
AcDbEntity
  8
ASSI
100
AcDbLine
 62
250
  6
CONTINUOUS
 10
0.8268546435
 20
19.1927825393
 11
0.8268546435
 21
18.6837083952
  0
LINE
  5
375
100
AcDbEntity
  8
ASSI
100
AcDbLine
 62
7
  6
CONTINUOUS
 10
0.9595920757
 20
18.4924919857
 11
0.9595920757
 21
19.1303374066
  0
LINE
  5
376
100
AcDbEntity
  8
ASSI
100
AcDbLine
 62
250
  6
CONTINUOUS
 10
1.0328153804
 20
-22.1070701666
 11
1.0328153804
 21
-21.8736440274
  0
LINE
  5
377
100
AcDbEntity
  8
ASSI
100
AcDbLine
 62
250
  6
CONTINUOUS
 10
1.0328153804
 20
18.4417009478
 11
1.0328153804
 21
19.1925339727
  0
LINE
  5
378
100
AcDbEntity
  8
ASSI
100
AcDbLine
 62
250
  6
CONTINUOUS
 10
1.2263796665
 20
-22.2038523097
 11
1.2263796665
 21
-21.4530192848
  0
LINE
  5
379
100
AcDbEntity
  8
ASSI
100
AcDbLine
 62
250
  6
CONTINUOUS
 10
1.2263796665
 20
18.3449188048
 11
1.2263796665
 21
19.0957518297
  0
LINE
  5
37A
100
AcDbEntity
  8
RACCORDO
100
AcDbLine
 62
7
  6
CONTINUOUS
 10
1.5538615922
 20
-16.4261146682
 11
1.5538615922
 21
-15.3867061245
  0
LINE
  5
37B
100
AcDbEntity
  8
ASSI
100
AcDbLine
 62
250
  6
CONTINUOUS
 10
1.5768209544
 20
-21.9575629879
 11
1.5768209544
 21
-21.331729963
  0
LINE
  5
37C
100
AcDbEntity
  8
ASSI
100
AcDbLine
 62
250
  6
CONTINUOUS
 10
1.5768209544
 20
18.2205712282
 11
1.5768209544
 21
18.8177993838
  0
LINE
  5
37D
100
AcDbEntity
  8
ASSI
100
AcDbLine
 62
7
  6
CONTINUOUS
 10
2.1195470171
 20
18.5464363525
 11
2.1195470171
 21
18.1054419106
  0
LINE
  5
37E
100
AcDbEntity
  8
ASSI
100
AcDbLine
 62
7
  6
CONTINUOUS
 10
2.1195470171
 20
-20.6924961789
 11
2.1195470171
 21
-21.3183292038
  0
LINE
  5
37F
100
AcDbEntity
  8
ASSI
100
AcDbLine
 62
250
  6
CONTINUOUS
 10
2.1618481848
 20
18.9452863709
 11
2.1618481848
 21
18.6280349145
  0
LINE
  5
380
100
AcDbEntity
  8
ASSI
100
AcDbLine
 62
250
  6
CONTINUOUS
 10
2.1618481848
 20
-22.9888553692
 11
2.1618481848
 21
-22.6715865688
  0
LINE
  5
381
100
AcDbEntity
  8
ASSI
100
AcDbLine
 62
250
  6
CONTINUOUS
 10
2.4422012152
 20
18.944063069
 11
2.4422012152
 21
18.6267942686
  0
LINE
  5
382
100
AcDbEntity
  8
ASSI
100
AcDbLine
 62
250
  6
CONTINUOUS
 10
2.4422012152
 20
-22.9900786711
 11
2.4422012152
 21
-22.6728098708
  0
LWPOLYLINE
  5
383
100
AcDbEntity
  8
ASSI
100
AcDbPolyline
 62
250
  6
CONTINUOUS
 90
19
 70
0
 10
2.1618481848
 20
-22.6715865688
 10
2.1620671973
 20
-22.660717583
 10
2.1627490896
 20
-22.6493449162
 10
2.163929778
 20
-22.6374829472
 10
2.165648549
 20
-22.6251252498
 10
2.1679377743
 20
-22.6123223354
 10
2.1708117848
 20
-22.5991842277
 10
2.1742919618
 20
-22.5857483944
 10
2.1783969767
 20
-22.5720580692
 10
2.1831141426
 20
-22.5582409763
 10
2.1884471082
 20
-22.5443479641
 10
2.1943962802
 20
-22.5304332903
 10
2.2009205763
 20
-22.5166315024
 10
2.2080050987
 20
-22.5029986915
 10
2.215632469
 20
-22.4895909094
 10
2.223736483
 20
-22.4765357132
 10
2.2322708632
 20
-22.4639063339
 10
2.2412182286
 20
-22.4517275518
 10
2.2505450973
 20
-22.4400466775
  0
LINE
  5
384
100
AcDbEntity
  8
RACCORDO
100
AcDbLine
 62
7
  6
CONTINUOUS
 10
1.0371345926
 20
-21.8263897059
 11
2.635854407
 21
16.33429175
  0
LINE
  5
385
100
AcDbEntity
  8
0
100
AcDbLine
 62
7
  6
CONTINUOUS
 10
2.23892336
 20
-2.4845861555
 11
3.3999201983
 21
12.4423079781
  0
LWPOLYLINE
  5
386
100
AcDbEntity
  8
0
100
AcDbPolyline
 62
7
  6
CONTINUOUS
 90
11
 70
0
 10
-11.3809985746
 20
-8.833413405
 10
-11.4309116735
 20
-8.864258937
 10
-11.4724979812
 20
-8.8993053858
 10
-11.5104417808
 20
-8.940800819
 10
-11.5438747337
 20
-8.9877137448
 10
-11.5726722056
 20
-9.0402310945
 10
-11.5969652759
 20
-9.0981686616
 10
-11.6162707986
 20
-9.1599389916
 10
-11.6304294891
 20
-9.2250136987
 10
-11.6396046026
 20
-9.2939228614
 10
-11.6437966778
 20
-9.3666666924
  0
LWPOLYLINE
  5
387
100
AcDbEntity
  8
ASSI
100
AcDbPolyline
 62
250
  6
CONTINUOUS
 90
13
 70
0
 10
2.4775458778
 20
19.0044237162
 10
2.4760301456
 20
19.0274806517
 10
2.4721641058
 20
19.0513735675
 10
2.4660138797
 20
19.0756938093
 10
2.4576846565
 20
19.1000254125
 10
2.4473188941
 20
19.1239522193
 10
2.4350938815
 20
19.1470649961
 10
2.4212187079
 20
19.1689684303
 10
2.4059306884
 20
19.1892878899
 10
2.389491305
 20
19.2076758329
 10
2.3721817315
 20
19.2238177556
 10
2.3542980243
 20
19.2374375703
 10
2.3361460607
 20
19.2483023255
  0
LWPOLYLINE
  5
388
100
AcDbEntity
  8
ASSI
100
AcDbPolyline
 62
250
  6
CONTINUOUS
 90
10
 70
0
 10
2.4422012152
 20
18.6267942686
 10
2.4424720899
 20
18.6217885904
 10
2.4431960604
 20
18.6172001468
 10
2.4443731264
 20
18.6130289377
 10
2.4460315504
 20
18.6092299554
 10
2.44814307
 20
18.6058482076
 10
2.4506228984
 20
18.6030187179
 10
2.4534427733
 20
18.6007864941
 10
2.456630957
 20
18.5991065285
 10
2.4601874496
 20
18.5979788209
  0
LWPOLYLINE
  5
389
100
AcDbEntity
  8
ASSI
100
AcDbPolyline
 62
250
  6
CONTINUOUS
 90
10
 70
0
 10
4.657682415
 20
-21.583583163
 10
4.6574208342
 20
-21.5785821319
 10
4.6567217041
 20
-21.5740061084
 10
4.6555850246
 20
-21.5698550926
 10
4.6539835032
 20
-21.5660845615
 10
4.6519444325
 20
-21.5627390381
 10
4.64954969
 20
-21.5599520914
 10
4.6468265685
 20
-21.5577682444
 10
4.6437477752
 20
-21.556142974
 10
4.6403133103
 20
-21.5550762802
  0
LWPOLYLINE
  5
38A
100
AcDbEntity
  8
ASSI
100
AcDbPolyline
 62
250
  6
CONTINUOUS
 90
13
 70
0
 10
2.2205361247
 20
26.5669531923
 10
2.2193532181
 20
26.5901892435
 10
2.2158240975
 20
26.6141689148
 10
2.2100078147
 20
26.6384909606
 10
2.2020016922
 20
26.6627484061
 10
2.1919396943
 20
26.6865353578
 10
2.1799901858
 20
26.7094537946
 10
2.1663531149
 20
26.7311202282
 10
2.1512566671
 20
26.7511721196
 10
2.1349534477
 20
26.7692739457
 10
2.1177162545
 20
26.7851228133
 10
2.099833513
 20
26.7984535271
 10
2.0816044506
 20
26.8090430277
  0
LWPOLYLINE
  5
38B
100
AcDbEntity
  8
ASSI
100
AcDbPolyline
 62
7
  6
CONTINUOUS
 90
12
 70
0
 10
2.8447906939
 20
26.2177145711
 10
2.8413205486
 20
26.2887311266
 10
2.8316837452
 20
26.3652770822
 10
2.8161459011
 20
26.4377354593
 10
2.7949547069
 20
26.5057383193
 10
2.7682938723
 20
26.5691077586
 10
2.7362480193
 20
26.6277524875
 10
2.6990148339
 20
26.6813453824
 10
2.6568750104
 20
26.729450911
 10
2.6101280324
 20
26.7716841661
 10
2.5591859663
 20
26.8076848828
 10
2.5187651115
 20
26.8302613257
  0
LWPOLYLINE
  5
38C
100
AcDbEntity
  8
ASSI
100
AcDbPolyline
 62
250
  6
CONTINUOUS
 90
9
 70
0
 10
2.1618481769
 20
18.6280349191
 10
2.16304708
 20
18.6034874666
 10
2.1666292959
 20
18.5804655884
 10
2.1725460261
 20
18.5592803136
 10
2.1807182994
 20
18.5402158868
 10
2.1910345846
 20
18.5235316799
 10
2.2033505247
 20
18.5094565845
 10
2.217496566
 20
18.498178996
 10
2.2270289701
 20
18.4926953784
  0
LWPOLYLINE
  5
38D
100
AcDbEntity
  8
ASSI
100
AcDbPolyline
 62
250
  6
CONTINUOUS
 90
22
 70
0
 10
2.7862215496
 20
26.1472085297
 10
2.7839195304
 20
26.1981565719
 10
2.7786108795
 20
26.2468544845
 10
2.770295597
 20
26.2933022673
 10
2.7588964617
 20
26.3377586848
 10
2.7444906947
 20
26.3799649727
 10
2.7273099596
 20
26.4191448376
 10
2.7073063593
 20
26.4552230073
 10
2.684527791
 20
26.488274754
 10
2.6593496092
 20
26.5177496021
 10
2.631731446
 20
26.5435847923
 10
2.6017136695
 20
26.5658430839
 10
2.5697927389
 20
26.5841622784
 10
2.5359393549
 20
26.5984751784
 10
2.5001828168
 20
26.6088489813
 10
2.463107482
 20
26.6151230814
 10
2.4246708524
 20
26.6172217034
 10
2.3849154261
 20
26.6152206227
 10
2.344553055
 20
26.6091865591
 10
2.303821023
 20
26.5991417529
 10
2.2624820463
 20
26.585063964
 10
2.2205361247
 20
26.5669531923
  0
LWPOLYLINE
  5
38E
100
AcDbEntity
  8
ASSI
100
AcDbPolyline
 62
7
  6
CONTINUOUS
 90
12
 70
0
 10
3.7673542739
 20
23.5876881078
 10
3.7661762626
 20
23.6150089836
 10
3.7610536629
 20
23.6484453656
 10
3.7518341579
 20
23.6814410491
 10
3.7385233634
 20
23.7135230999
 10
3.7212718794
 20
23.7440852762
 10
3.7001367401
 20
23.7728443654
 10
3.6751257105
 20
23.799567034
 10
3.6466632509
 20
23.8236613758
 10
3.6153054673
 20
23.8446839632
 10
3.5808149773
 20
23.8628054908
 10
3.5435780422
 20
23.8777788858
  0
LWPOLYLINE
  5
38F
100
AcDbEntity
  8
ASSI
100
AcDbPolyline
 62
250
  6
CONTINUOUS
 90
13
 70
0
 10
3.6612680042
 20
23.459324277
 10
3.6601255593
 20
23.4885216131
 10
3.6559268194
 20
23.5187047172
 10
3.6487435984
 20
23.549357348
 10
3.6386987555
 20
23.5799552333
 10
3.6259640944
 20
23.6099750378
 10
3.6107574249
 20
23.6389033135
 10
3.5933388366
 20
23.6662452812
 10
3.5740062509
 20
23.6915332935
 10
3.5530903255
 20
23.7143348331
 10
3.5309487993
 20
23.7342599104
 10
3.507960373
 20
23.7509677339
 10
3.4845182328
 20
23.7641725387
  0
LWPOLYLINE
  5
390
100
AcDbEntity
  8
ASSI
100
AcDbPolyline
 62
7
  6
CONTINUOUS
 90
8
 70
0
 10
4.4763052552
 20
23.4273797376
 10
4.4760588882
 20
23.4406118363
 10
4.474965959
 20
23.4513970978
 10
4.4731443817
 20
23.4597232359
 10
4.4706833916
 20
23.4655673337
 10
4.467703444
 20
23.4689365203
 10
4.4643990124
 20
23.4698686268
 10
4.4625639276
 20
23.4693622189
  0
LWPOLYLINE
  5
391
100
AcDbEntity
  8
ASSI
100
AcDbPolyline
 62
250
  6
CONTINUOUS
 90
28
 70
0
 10
4.657682415
 20
20.0559645712
 10
4.6576448181
 20
20.0581855276
 10
4.6575013683
 20
20.0603759816
 10
4.6572520655
 20
20.0625359332
 10
4.6568993534
 20
20.064680169
 10
4.6564407883
 20
20.0667939024
 10
4.6558690393
 20
20.0688327735
 10
4.6551801814
 20
20.0707949423
 10
4.6543781397
 20
20.0726822489
 10
4.6534673574
 20
20.0744558535
 10
4.6524445659
 20
20.0761118256
 10
4.6513130338
 20
20.0776540958
 10
4.6500870113
 20
20.0790556151
 10
4.6487655073
 20
20.0803117636
 10
4.6473495128
 20
20.0814271613
 10
4.6458562508
 20
20.0823886197
 10
4.6442858959
 20
20.0831934698
 10
4.6426382736
 20
20.0838443806
 10
4.6409300821
 20
20.0843361708
 10
4.6391607716
 20
20.0846674673
 10
4.6373308921
 20
20.0848396431
 10
4.6354587917
 20
20.0848516367
 10
4.6335441338
 20
20.0847020099
 10
4.6315872552
 20
20.0843922009
 10
4.6296075137
 20
20.0839254617
 10
4.6276113622
 20
20.0833028763
 10
4.625592348
 20
20.0825233608
 10
4.623550471
 20
20.0815869151
  0
LINE
  5
392
100
AcDbEntity
  8
ASSI
100
AcDbLine
 62
250
  6
CONTINUOUS
 10
2.7903999918
 20
25.8519364608
 11
2.7862215496
 21
26.1472085297
  0
LINE
  5
393
100
AcDbEntity
  8
ASSI
100
AcDbLine
 62
7
  6
CONTINUOUS
 10
2.8496058812
 20
25.8782259645
 11
2.84480171
 21
26.2177155426
  0
LWPOLYLINE
  5
394
100
AcDbEntity
  8
ASSI
100
AcDbPolyline
 62
7
  6
CONTINUOUS
 90
4
 70
0
 10
4.7138148861
 20
-21.5140890393
 10
4.7137963765
 20
-21.5110801131
 10
4.712103552
 20
-21.484884532
 10
4.7076540774
 20
-21.4591691796
  0
LINE
  5
395
100
AcDbEntity
  8
ASSI
100
AcDbLine
 62
250
  6
CONTINUOUS
 10
2.8465539659
 20
18.3540300223
 11
2.8465539659
 21
17.673858734
  0
LINE
  5
396
100
AcDbEntity
  8
ASSI
100
AcDbLine
 62
250
  6
CONTINUOUS
 10
2.8465539659
 20
-20.9879199509
 11
2.8465539659
 21
-21.6818326782
  0
LINE
  5
397
100
AcDbEntity
  8
ASSI
100
AcDbLine
 62
250
  6
CONTINUOUS
 10
3.1969952538
 20
18.441678644
 11
3.1969952538
 21
17.6834781978
  0
LINE
  5
398
100
AcDbEntity
  8
ASSI
100
AcDbLine
 62
250
  6
CONTINUOUS
 10
3.1969952538
 20
-21.1215164185
 11
3.1969952538
 21
-21.7587981157
  0
LINE
  5
399
100
AcDbEntity
  8
0
100
AcDbLine
 62
7
  6
CONTINUOUS
 10
3.3999201983
 20
-20.8315901616
 11
3.3999201983
 21
-16.3097354275
  0
LINE
  5
39A
100
AcDbEntity
  8
0
100
AcDbLine
 62
7
  6
CONTINUOUS
 10
3.3999201983
 20
12.4423079781
 11
3.3999201983
 21
16.9641627122
  0
LINE
  5
39B
100
AcDbEntity
  8
ASSI
100
AcDbLine
 62
7
  6
CONTINUOUS
 10
4.0994460045
 20
-22.2672601479
 11
4.0994460045
 21
-20.7610707212
  0
LINE
  5
39C
100
AcDbEntity
  8
ASSI
100
AcDbLine
 62
7
  6
CONTINUOUS
 10
4.0994460045
 20
18.1761525888
 11
4.0994460045
 21
19.8216272359
  0
LINE
  5
39D
100
AcDbEntity
  8
ASSI
100
AcDbLine
 62
7
  6
CONTINUOUS
 10
4.4883547341
 20
17.5486853184
 11
4.4883547341
 21
15.0372118511
  0
LINE
  5
39E
100
AcDbEntity
  8
ASSI
100
AcDbLine
 62
7
  6
CONTINUOUS
 10
4.4883547341
 20
-20.3832269601
 11
4.4883547341
 21
-17.8717534927
  0
LINE
  5
39F
100
AcDbEntity
  8
ASSI
100
AcDbLine
 62
250
  6
CONTINUOUS
 10
4.657682415
 20
-21.9235267579
 11
4.657682415
 21
-21.583583163
  0
LINE
  5
3A0
100
AcDbEntity
  8
ASSI
100
AcDbLine
 62
250
  6
CONTINUOUS
 10
4.657682415
 20
19.7160209764
 11
4.657682415
 21
20.0559645712
  0
LINE
  5
3A1
100
AcDbEntity
  8
ASSI
100
AcDbLine
 62
7
  6
CONTINUOUS
 10
4.7138144549
 20
-21.8540609208
 11
4.7138144549
 21
-21.5141172571
  0
LINE
  5
3A2
100
AcDbEntity
  8
ASSI
100
AcDbLine
 62
7
  6
CONTINUOUS
 10
4.7138144549
 20
19.7854868134
 11
4.7138142056
 21
20.1255882961
  0
LINE
  5
3A3
100
AcDbEntity
  8
ASSI
100
AcDbLine
 62
7
  6
CONTINUOUS
 10
3.7601793233
 20
22.4168923979
 11
3.7673542816
 21
23.5876718198
  0
LINE
  5
3A4
100
AcDbEntity
  8
ASSI
100
AcDbLine
 62
250
  6
CONTINUOUS
 10
3.6612680042
 20
23.459324277
 11
3.6573908625
 21
23.0848265748
  0
LINE
  5
3A5
100
AcDbEntity
  8
ASSI
100
AcDbLine
 62
250
  6
CONTINUOUS
 10
3.6551174087
 20
22.8652309883
 11
3.6491012406
 21
22.2841222025
  0
LWPOLYLINE
  5
3A6
100
AcDbEntity
  8
ASSI
100
AcDbPolyline
 62
250
  6
CONTINUOUS
 90
19
 70
0
 10
2.4422012152
 20
-22.6728098708
 10
2.4422337983
 20
-22.67062953
 10
2.4423745439
 20
-22.6683567409
 10
2.4426234518
 20
-22.6659915036
 10
2.4429758688
 20
-22.6635222997
 10
2.4434364482
 20
-22.6609606475
 10
2.4440191498
 20
-22.6583411019
 10
2.4447280012
 20
-22.655660527
 10
2.4455589748
 20
-22.6529220586
 10
2.4465139475
 20
-22.6501696595
 10
2.4475972559
 20
-22.6474018679
 10
2.4488045635
 20
-22.6446201455
 10
2.4501247365
 20
-22.6418728406
 10
2.4515617021
 20
-22.6391606304
 10
2.4531115331
 20
-22.6364828377
 10
2.4547513149
 20
-22.6338857785
 10
2.4564734091
 20
-22.6313848916
 10
2.458285454
 20
-22.6289647382
 10
2.4601874496
 20
-22.6266253184
  0
LWPOLYLINE
  5
3A7
100
AcDbEntity
  8
ASSI
100
AcDbPolyline
 62
7
  6
CONTINUOUS
 90
9
 70
0
 10
3.7600566564
 20
22.4168937121
 10
3.7599197405
 20
22.41170651
 10
3.7565375347
 20
22.3912911201
 10
3.7483332029
 20
22.3710438948
 10
3.7356815493
 20
22.3510325412
 10
3.7193552579
 20
22.3322367282
 10
3.69961189
 20
22.3149830123
 10
3.6761938842
 20
22.298944837
 10
3.6491012406
 20
22.2841222025
  0
LINE
  5
3A8
100
AcDbEntity
  8
ASSI
100
AcDbLine
 62
7
  6
CONTINUOUS
 10
4.4763052552
 20
23.4273797376
 11
4.4760848502
 21
23.4207199738
  0
LINE
  5
3A9
100
AcDbEntity
  8
ASSI
100
AcDbLine
 62
7
  6
CONTINUOUS
 10
4.7129578387
 20
19.7645406789
 11
4.713810524
 21
19.7855266515
  0
LWPOLYLINE
  5
3AA
100
AcDbEntity
  8
ASSI
100
AcDbPolyline
 62
250
  6
CONTINUOUS
 90
9
 70
0
 10
3.7673536913
 20
23.5875656057
 10
3.7670701959
 20
23.5808534081
 10
3.7634977148
 20
23.5614557411
 10
3.7558729625
 20
23.5424084392
 10
3.7442790062
 20
23.5239172467
 10
3.72883747
 20
23.5061753586
 10
3.7097114644
 20
23.4893740092
 10
3.6871072895
 20
23.4736997833
 10
3.6612680042
 20
23.459324277
  0
LINE
  5
3AB
100
AcDbEntity
  8
ASSI
100
AcDbLine
 62
250
  6
CONTINUOUS
 10
4.1530793774
 20
23.0737153413
 11
4.1626435375
 21
23.2973785798
  0
LINE
  5
3AC
100
AcDbEntity
  8
ASSI
100
AcDbLine
 62
7
  6
CONTINUOUS
 10
4.4410270714
 20
23.3956652387
 11
4.4400384782
 21
23.3782221054
  0
LWPOLYLINE
  5
3AD
100
AcDbEntity
  8
DRAFT
100
AcDbPolyline
 62
7
  6
CONTINUOUS
 90
27
 70
0
 10
-11.3810300808
 20
-8.8333479586
 10
-11.3359756921
 20
-8.8135422979
 10
-11.2847757682
 20
-8.7987544429
 10
-11.2307780281
 20
-8.7909604909
 10
-11.1741609852
 20
-8.7900350983
 10
-11.1163799442
 20
-8.7960138228
 10
-11.0575198448
 20
-8.8090460622
 10
-10.9974924945
 20
-8.8289810108
 10
-10.9374983192
 20
-8.8554060229
 10
-10.8774971676
 20
-8.8884484211
 10
-10.8175288583
 20
-8.9279807054
 10
-10.7589184725
 20
-8.9732100513
 10
-10.7016404092
 20
-9.0243404189
 10
-10.6457235471
 20
-9.0811692208
 10
-10.5925797099
 20
-9.1422960195
 10
-10.5423551841
 20
-9.2077280748
 10
-10.4949104654
 20
-9.2774610314
 10
-10.4512327068
 20
-9.3500788096
 10
-10.4113425459
 20
-9.4257964489
 10
-10.3752264635
 20
-9.5044019683
 10
-10.3438231677
 20
-9.5838400122
 10
-10.3173128575
 20
-9.663996557
 10
-10.2955219754
 20
-9.7449885039
 10
-10.2788602486
 20
-9.8251076496
 10
-10.2674658579
 20
-9.9037853001
 10
-10.261204291
 20
-9.981591744
 10
-10.2600759351
 20
-10.0585271341
  0
LWPOLYLINE
  5
3AE
100
AcDbEntity
  8
ASSI
100
AcDbPolyline
 62
7
  6
CONTINUOUS
 90
16
 70
0
 10
4.4883547341
 20
17.5486853184
 10
4.4864408546
 20
17.5945597934
 10
4.4806267043
 20
17.6419963267
 10
4.4709479318
 20
17.6905053101
 10
4.4574154334
 20
17.7397494069
 10
4.4401912926
 20
17.7890188133
 10
4.4197110039
 20
17.8372494494
 10
4.3964922756
 20
17.8835438524
 10
4.3706819172
 20
17.9278445881
 10
4.3421938943
 20
17.9703289318
 10
4.3110067846
 20
18.0108318493
 10
4.2776742728
 20
18.0484582783
 10
4.2429765393
 20
18.0823407174
 10
4.2074652977
 20
18.112043492
 10
4.1713969194
 20
18.1374338719
 10
4.1351646807
 20
18.1582932506
  0
LWPOLYLINE
  5
3AF
100
AcDbEntity
  8
ASSI
100
AcDbPolyline
 62
250
  6
CONTINUOUS
 90
13
 70
0
 10
4.623550471
 20
20.0815869151
 10
4.6226365139
 20
20.104944783
 10
4.6192775213
 20
20.1290912656
 10
4.6135309442
 20
20.1536133697
 10
4.6054950701
 20
20.178091678
 10
4.5953073419
 20
20.2021075219
 10
4.5831420068
 20
20.2252501428
 10
4.5692071364
 20
20.2471237174
 10
4.5537410681
 20
20.2673541276
 10
4.537008328
 20
20.2855953596
 10
4.5192951071
 20
20.3015354216
 10
4.5009043661
 20
20.3149016805
 10
4.4821506539
 20
20.3254655244
  0
LWPOLYLINE
  5
3B0
100
AcDbEntity
  8
ASSI
100
AcDbPolyline
 62
7
  6
CONTINUOUS
 90
11
 70
0
 10
4.7138140096
 20
20.1255882959
 10
4.7133437555
 20
20.1408344571
 10
4.7097035045
 20
20.1705017274
 10
4.7024883434
 20
20.199246157
 10
4.6918096296
 20
20.226593856
 10
4.6779893666
 20
20.2519002739
 10
4.6612775061
 20
20.2749383478
 10
4.6418073281
 20
20.2955912276
 10
4.6199870997
 20
20.3134572167
 10
4.5962543389
 20
20.3282547333
 10
4.5905926753
 20
20.3311936449
  0
LINE
  5
3B1
100
AcDbEntity
  8
ASSI
100
AcDbLine
 62
7
  6
CONTINUOUS
 10
5.1831189205
 20
-20.008451896
 11
5.1831189205
 21
-17.0834444459
  0
LINE
  5
3B2
100
AcDbEntity
  8
ASSI
100
AcDbLine
 62
7
  6
CONTINUOUS
 10
5.1831189205
 20
14.9683521802
 11
5.1831189205
 21
17.8933596303
  0
LINE
  5
3B3
100
AcDbEntity
  8
ASSI
100
AcDbLine
 62
7
  6
CONTINUOUS
 10
5.8778831069
 20
15.3325052113
 11
5.8778831069
 21
14.756661227
  0
LINE
  5
3B4
100
AcDbEntity
  8
ASSI
100
AcDbLine
 62
7
  6
CONTINUOUS
 10
5.8778831069
 20
-16.2549742658
 11
5.8778831069
 21
-16.728148101
  0
LINE
  5
3B5
100
AcDbEntity
  8
ASSI
100
AcDbLine
 62
7
  6
CONTINUOUS
 10
5.9396007819
 20
14.7258023895
 11
5.9396007819
 21
-16.1831629543
  0
LWPOLYLINE
  5
3B6
100
AcDbEntity
  8
ASSI
100
AcDbPolyline
 62
250
  6
CONTINUOUS
 90
8
 70
0
 10
4.623550471
 20
-21.9844937644
 10
4.6226365178
 20
-22.0063358572
 10
4.6192775364
 20
-22.0266162624
 10
4.6135309753
 20
-22.0449881106
 10
4.6054951197
 20
-22.0611371745
 10
4.5953074095
 20
-22.074787245
 10
4.5831420885
 20
-22.0857048549
 10
4.574647279
 20
-22.0910440994
  0
LWPOLYLINE
  5
3B7
100
AcDbEntity
  8
ASSI
100
AcDbPolyline
 62
7
  6
CONTINUOUS
 90
10
 70
0
 10
4.4883547341
 20
-20.3832931136
 10
4.4863958241
 20
-20.4272883561
 10
4.4805839037
 20
-20.4690848007
 10
4.470926869
 20
-20.5081986252
 10
4.457394147
 20
-20.5443079014
 10
4.4401373987
 20
-20.5768026327
 10
4.4196264091
 20
-20.6049375687
 10
4.3963835997
 20
-20.6283035721
 10
4.3705492476
 20
-20.6470080609
 10
4.3625795441
 20
-20.6515665399
  0
LINE
  5
3B8
100
AcDbEntity
  8
ASSI
100
AcDbLine
 62
7
  6
CONTINUOUS
 10
4.7126884518
 20
-21.8780701002
 11
4.7138143901
 21
-21.8540302658
  0
LWPOLYLINE
  5
3B9
100
AcDbEntity
  8
0
100
AcDbPolyline
 62
7
  6
CONTINUOUS
 90
3
 70
0
 10
-11.2851351148
 20
-8.7988319117
 10
-11.3366410594
 20
-8.8138543168
 10
-11.3809985746
 20
-8.833413405
  0
LWPOLYLINE
  5
3BA
100
AcDbEntity
  8
0
100
AcDbPolyline
 62
7
  6
CONTINUOUS
 90
14
 70
0
 10
-10.6191169799
 20
-13.235432214
 10
-10.5837683479
 20
-13.2209023678
 10
-10.5490234874
 20
-13.2021760229
 10
-10.5163688645
 20
-13.1800331107
 10
-10.485761814
 20
-13.1544911657
 10
-10.4572478358
 20
-13.1255338631
 10
-10.4310501812
 20
-13.0934037948
 10
-10.4071448664
 20
-13.0580153051
 10
-10.3855581892
 20
-13.0194550336
 10
-10.3665892436
 20
-12.9782242124
 10
-10.3502691693
 20
-12.9342599103
 10
-10.3365687362
 20
-12.8876258769
 10
-10.325696934
 20
-12.8390135825
 10
-10.317723996
 20
-12.7886537711
  0
LWPOLYLINE
  5
3BB
100
AcDbEntity
  8
RACCORDO
100
AcDbPolyline
 62
250
  6
CONTINUOUS
 90
9
 70
0
 10
-16.6205819895
 20
21.4314882312
 10
-16.6511139206
 20
21.4502673647
 10
-16.6777164565
 20
21.470052447
 10
-16.70013184
 20
21.4906517765
 10
-16.7181428835
 20
21.511865762
 10
-16.7315750746
 20
21.5334888567
 10
-16.7402982657
 20
21.55531155
 10
-16.7442279362
 20
21.5771223974
 10
-16.7442120393
 20
21.590918784
  0
LINE
  5
3BC
100
AcDbEntity
  8
ASSI
100
AcDbLine
 62
7
  6
CONTINUOUS
 10
10.7749153056
 20
22.1002380988
 11
10.7749153056
 21
22.2912601625
  0
LWPOLYLINE
  5
3BD
100
AcDbEntity
  8
ASSI
100
AcDbPolyline
 62
250
  6
CONTINUOUS
 90
7
 70
0
 10
4.6403133103
 20
-21.5550762802
 10
4.6481121137
 20
-21.5303488779
 10
4.6533445691
 20
-21.5048644581
 10
4.6559221382
 20
-21.4790542418
 10
4.6558012061
 20
-21.4533549627
 10
4.6529838192
 20
-21.4282014776
 10
4.6475176502
 20
-21.4040194077
  0
LWPOLYLINE
  5
3BE
100
AcDbEntity
  8
ASSI
100
AcDbPolyline
 62
7
  6
CONTINUOUS
 90
4
 70
0
 10
4.0886842481
 20
-22.3281534456
 10
4.0946331575
 20
-22.3096725896
 10
4.0982423876
 20
-22.2892577219
 10
4.0994460045
 20
-22.2672601479
  0
LWPOLYLINE
  5
3BF
100
AcDbEntity
  8
RACCORDO
100
AcDbPolyline
 62
250
  6
CONTINUOUS
 90
16
 70
0
 10
-1.920398694
 20
14.0814049112
 10
-1.8818020418
 20
14.0656195839
 10
-1.8404082416
 20
14.0514062426
 10
-1.7966183582
 20
14.0389026004
 10
-1.750856672
 20
14.0282298053
 10
-1.7035665684
 20
14.0194912658
 10
-1.6552062413
 20
14.0127716495
 10
-1.6062442543
 20
14.0081360628
 10
-1.5571550004
 20
14.0056294199
 10
-1.5084141056
 20
14.0052760077
 10
-1.4604938208
 20
14.0070792504
 10
-1.4138584458
 20
14.0110216763
 10
-1.368959831
 20
14.0170650874
 10
-1.3262329994
 20
14.0251509288
 10
-1.2860919316
 20
14.0352008569
 10
-1.2489255544
 20
14.0471174979
  0
LWPOLYLINE
  5
3C0
100
AcDbEntity
  8
RACCORDO
100
AcDbPolyline
 62
250
  6
CONTINUOUS
 90
6
 70
0
 10
-1.9204074872
 20
14.0814009583
 10
-2.4276359499
 20
14.3061198457
 10
-2.9326886299
 20
14.531697186
 10
-3.4355590467
 20
14.7581276955
 10
-3.9361218645
 20
14.9853520049
 10
-4.4344904605
 20
15.2134185004
  0
LWPOLYLINE
  5
3C1
100
AcDbEntity
  8
RACCORDO
100
AcDbPolyline
 62
250
  6
CONTINUOUS
 90
26
 70
0
 10
-4.4344904605
 20
15.2134185004
 10
-4.9310123347
 20
15.4424855189
 10
-5.4258468155
 20
15.6726289487
 10
-5.9188123953
 20
15.9037668188
 10
-6.4097431115
 20
16.1358217356
 10
-6.8985837831
 20
16.3687670646
 10
-7.385372949
 20
16.602620726
 10
-7.8700873299
 20
16.8373711828
 10
-8.3527898114
 20
17.073048969
 10
-8.8334002275
 20
17.3096151351
 10
-9.3116838467
 20
17.5469525388
 10
-9.7873404757
 20
17.7849074603
 10
-10.2606624053
 20
18.0236211684
 10
-10.7322979981
 20
18.2634214323
 10
-11.2013367078
 20
18.5038447897
 10
-11.6686698268
 20
18.7453472088
 10
-12.1375944626
 20
18.9896582859
 10
-12.6072580606
 20
19.2363771514
 10
-13.0784004587
 20
19.485935275
 10
-13.5565802149
 20
19.7413625891
 10
-14.0418150941
 20
20.0027982073
 10
-14.5337910082
 20
20.2702044115
 10
-15.0374035256
 20
20.5464108393
 10
-15.5540862605
 20
20.832431102
 10
-16.0818982814
 20
21.1274279625
 10
-16.6205819927
 20
21.4314882087
  0
LWPOLYLINE
  5
3C2
100
AcDbEntity
  8
ASSI
100
AcDbPolyline
 62
7
  6
CONTINUOUS
 90
4
 70
0
 10
-12.4801915535
 20
25.8583502617
 10
-12.4620929895
 20
25.8423655342
 10
-12.4423842063
 20
25.8284933789
 10
-12.4241531099
 20
25.81828745
  0
LINE
  5
3C3
100
AcDbEntity
  8
ASSI
100
AcDbLine
 62
7
  6
CONTINUOUS
 10
1.0714805486
 20
-21.0065680747
 11
1.5538615922
 21
-20.4096534664
  0
LWPOLYLINE
  5
3C4
100
AcDbEntity
  8
RACCORDO
100
AcDbPolyline
 62
250
  6
CONTINUOUS
 90
31
 70
0
 10
-1.0634962596
 20
15.461319
 10
-1.5701529842
 20
15.6842931423
 10
-2.0745593852
 20
15.9081828465
 10
-2.5767154629
 20
16.1329881127
 10
-3.0764842304
 20
16.3586469723
 10
-3.5740026745
 20
16.5852213939
 10
-4.0696817551
 20
16.812897283
 10
-4.5637354391
 20
17.0417716997
 10
-5.0559497596
 20
17.2717475841
 10
-5.5460937758
 20
17.502719662
 10
-6.034096893
 20
17.7346561266
 10
-6.5200297058
 20
17.9675887848
 10
-7.0038730572
 20
18.2015077826
 10
-7.4857041307
 20
18.436452534
 10
-7.9654457426
 20
18.6723836251
 10
-8.4428471853
 20
18.9091729601
 10
-8.9176247192
 20
19.1466760545
 10
-9.3900620839
 20
19.3850373928
 10
-9.8607597909
 20
19.6245623325
 10
-10.3288154079
 20
19.864754075
 10
-10.7951313671
 20
20.1061094189
 10
-11.2630154765
 20
20.3504241181
 10
-11.7317539154
 20
20.5972377809
 10
-12.2020605044
 20
20.847010799
 10
-12.6793845133
 20
21.102920101
 10
-13.1640726005
 20
21.3650388331
 10
-13.6557781075
 20
21.6332938491
 10
-14.1589103285
 20
21.9106426395
 10
-14.6749390283
 20
22.1980710345
 10
-15.202394442
 20
22.4945932038
 10
-15.7412765698
 20
22.8002091476
  0
LINE
  5
3C5
100
AcDbEntity
  8
DRAFT
100
AcDbLine
 62
7
  6
CONTINUOUS
 10
3.3999201983
 20
12.4423079781
 11
2.4918240667
 21
12.8963560439
  0
LWPOLYLINE
  5
3C6
100
AcDbEntity
  8
RACCORDO
100
AcDbPolyline
 62
250
  6
CONTINUOUS
 90
16
 70
0
 10
-1.0634962597
 20
15.461319
 10
-1.0275855567
 20
15.4400084528
 10
-0.9921692671
 20
15.4141421104
 10
-0.957635081
 20
15.3840031228
 10
-0.9243610325
 20
15.3499214114
 10
-0.8927113612
 20
15.3122700571
 10
-0.8630325252
 20
15.2714612166
 10
-0.8356494084
 20
15.2279416106
 10
-0.8108617647
 20
15.1821876333
 10
-0.788940936
 20
15.1347001382
 10
-0.7701268822
 20
15.0859989547
 10
-0.7546255542
 20
15.0366171981
 10
-0.74260664
 20
14.9870954338
 10
-0.7342017065
 20
14.9379757598
 10
-0.7295027595
 20
14.8897958725
 10
-0.7285612371
 20
14.8430831809
  0
LINE
  5
3C7
100
AcDbEntity
  8
ASSI
100
AcDbLine
 62
7
  6
CONTINUOUS
 10
5.1831189205
 20
16.5307961786
 11
5.8778831069
 21
15.3325052113
  0
LINE
  5
3C8
100
AcDbEntity
  8
RACCORDO
100
AcDbLine
 62
7
  6
CONTINUOUS
 10
5.1831189205
 20
16.5521725518
 11
5.4884178208
 21
16.0256098392
  0
LINE
  5
3C9
100
AcDbEntity
  8
0
100
AcDbLine
 62
7
  6
CONTINUOUS
 10
5.1831189205
 20
16.5521725518
 11
5.4884178208
 21
16.0256098392
  0
LWPOLYLINE
  5
3CA
100
AcDbEntity
  8
ASSI
100
AcDbPolyline
 62
250
  6
CONTINUOUS
 90
7
 70
0
 10
4.6403133103
 20
19.6695278592
 10
4.6481121526
 20
19.6553122013
 10
4.653344624
 20
19.6425125273
 10
4.6559221905
 20
19.6313454187
 10
4.6558012416
 20
19.6219998315
 10
4.6529838284
 20
19.6146338999
 10
4.6520008051
 20
19.6132856994
  0
LINE
  5
3CB
100
AcDbEntity
  8
ASSI
100
AcDbLine
 62
7
  6
CONTINUOUS
 10
1.5768209544
 20
-21.331729963
 11
2.1195470171
 21
-20.6924961789
  0
LINE
  5
3CC
100
AcDbEntity
  8
ASSI
100
AcDbLine
 62
7
  6
CONTINUOUS
 10
2.1195470171
 20
-21.3183292038
 11
1.5768209544
 21
-21.9575629879
  0
LINE
  5
3CD
100
AcDbEntity
  8
ASSI
100
AcDbLine
 62
250
  6
CONTINUOUS
 10
2.2505450973
 20
-22.4400466775
 11
2.8833353068
 21
-21.6947335114
  0
LINE
  5
3CE
100
AcDbEntity
  8
ASSI
100
AcDbLine
 62
250
  6
CONTINUOUS
 10
2.4601874496
 20
-22.6266253184
 11
3.1969952538
 21
-21.7587981157
  0
LINE
  5
3CF
100
AcDbEntity
  8
ASSI
100
AcDbLine
 62
7
  6
CONTINUOUS
 10
5.9396007819
 20
-16.1831629543
 11
4.4883547341
 21
-17.8717534927
  0
LINE
  5
3D0
100
AcDbEntity
  8
ASSI
100
AcDbLine
 62
7
  6
CONTINUOUS
 10
5.1831189205
 20
-17.231674882
 11
5.8778831069
 21
-16.728148101
  0
LINE
  5
3D1
100
AcDbEntity
  8
RACCORDO
100
AcDbLine
 62
7
  6
CONTINUOUS
 10
5.4884178208
 20
-17.0317874429
 11
5.1831189205
 21
-17.2530512551
  0
LINE
  5
3D2
100
AcDbEntity
  8
0
100
AcDbLine
 62
7
  6
CONTINUOUS
 10
5.4884178208
 20
-17.0317874429
 11
5.1831189205
 21
-17.2530512551
  0
LWPOLYLINE
  5
3D3
100
AcDbEntity
  8
DRAFT
100
AcDbPolyline
 62
7
  6
CONTINUOUS
 90
27
 70
0
 10
1.3802977593
 20
-17.50458376
 10
1.3571408104
 20
-17.5183648862
 10
1.3251546993
 20
-17.5434294491
 10
1.2963615393
 20
-17.5740832712
 10
1.2707991437
 20
-17.6100444271
 10
1.249325966
 20
-17.6500759076
 10
1.2321458312
 20
-17.6940597053
 10
1.2190549143
 20
-17.7421138277
 10
1.2103001943
 20
-17.793355288
 10
1.2059639974
 20
-17.84816925
 10
1.2059639974
 20
-17.9061705499
 10
1.2103001943
 20
-17.9653207088
 10
1.2190549143
 20
-18.0253168891
 10
1.2321458312
 20
-18.0864619284
 10
1.249325966
 20
-18.147625861
 10
1.2707991437
 20
-18.2091305191
 10
1.2963615393
 20
-18.2706540706
 10
1.3251546993
 20
-18.3301010527
 10
1.3571408104
 20
-18.3871517267
 10
1.3923576859
 20
-18.4421258314
 10
1.4300603114
 20
-18.4938871203
 10
1.4704338244
 20
-18.5425276848
 10
1.5132930874
 20
-18.5879554336
 10
1.5573376739
 20
-18.6287578461
 10
1.6021341085
 20
-18.6644640824
 10
1.6481158667
 20
-18.6955449824
 10
1.6952829484
 20
-18.7220005463
  0
LINE
  5
3D4
100
AcDbEntity
  8
DRAFT
100
AcDbLine
 62
7
  6
CONTINUOUS
 10
1.6599208695
 20
-17.3569581609
 11
1.3802520343
 21
-17.5045980073
  0
LINE
  5
3D5
100
AcDbEntity
  8
RACCORDO
100
AcDbLine
 62
250
  6
CONTINUOUS
 10
5.9396007819
 20
-15.9947964628
 11
20.504741518
 21
-8.3222076535
  0
LWPOLYLINE
  5
3D6
100
AcDbEntity
  8
DRAFT
100
AcDbPolyline
 62
250
  6
CONTINUOUS
 90
61
 70
0
 10
20.504741518
 20
-8.3222076535
 10
20.5135710676
 20
-8.317577096
 10
20.5222813945
 20
-8.3128904288
 10
20.5308710727
 20
-8.3081484192
 10
20.5393386959
 20
-8.3033518435
 10
20.5476828775
 20
-8.2985014872
 10
20.5559022514
 20
-8.2935981443
 10
20.563995472
 20
-8.2886426177
 10
20.571961214
 20
-8.2836357187
 10
20.5797981732
 20
-8.2785782672
 10
20.5875050665
 20
-8.2734710911
 10
20.5950806322
 20
-8.2683150268
 10
20.6025236297
 20
-8.2631109183
 10
20.6098328405
 20
-8.2578596177
 10
20.6170070679
 20
-8.2525619848
 10
20.6240451372
 20
-8.2472188871
 10
20.6309458961
 20
-8.2418311992
 10
20.6377082148
 20
-8.2363998035
 10
20.6443309859
 20
-8.230925589
 10
20.6508131253
 20
-8.2254094522
 10
20.6571535716
 20
-8.2198522961
 10
20.6633512866
 20
-8.2142550306
 10
20.6694052557
 20
-8.2086185722
 10
20.6753144876
 20
-8.2029438438
 10
20.6810780147
 20
-8.1972317743
 10
20.6866948936
 20
-8.1914832992
 10
20.6921642044
 20
-8.1856993595
 10
20.6974850517
 20
-8.1798809023
 10
20.7026565644
 20
-8.1740288802
 10
20.7076778956
 20
-8.1681442513
 10
20.7125482233
 20
-8.1622279793
 10
20.7172667501
 20
-8.1562810326
 10
20.7218327034
 20
-8.150304385
 10
20.7262453355
 20
-8.1442990151
 10
20.7305039242
 20
-8.1382659061
 10
20.7346077719
 20
-8.1322060458
 10
20.738556207
 20
-8.1261204264
 10
20.7423485828
 20
-8.1200100442
 10
20.7459842785
 20
-8.1138758998
 10
20.7494626988
 20
-8.1077189975
 10
20.7527832741
 20
-8.1015403452
 10
20.7559454609
 20
-8.0953409548
 10
20.7589487413
 20
-8.0891218411
 10
20.7617926236
 20
-8.0828840224
 10
20.7644766422
 20
-8.0766285201
 10
20.7670003577
 20
-8.0703563583
 10
20.7693633568
 20
-8.064068564
 10
20.7715652527
 20
-8.0577661666
 10
20.7736056849
 20
-8.0514501982
 10
20.7754843192
 20
-8.0451216927
 10
20.777200848
 20
-8.0387816863
 10
20.7787549904
 20
-8.0324312171
 10
20.7801464919
 20
-8.0260713249
 10
20.7813751246
 20
-8.0197030509
 10
20.7824406873
 20
-8.0133274378
 10
20.7833430057
 20
-8.0069455294
 10
20.784081932
 20
-8.0005583708
 10
20.7846573452
 20
-7.9941670076
 10
20.785069151
 20
-7.9877724863
 10
20.7853172821
 20
-7.9813758539
 10
20.7854017177
 20
-7.9748784957
  0
LWPOLYLINE
  5
3D7
100
AcDbEntity
  8
0
100
AcDbPolyline
 62
250
  6
CONTINUOUS
 90
61
 70
0
 10
5.9396007819
 20
-15.9947964628
 10
20.5135710676
 20
-8.317577096
 10
20.5222813945
 20
-8.3128904288
 10
20.5308710727
 20
-8.3081484192
 10
20.5393386959
 20
-8.3033518435
 10
20.5476828775
 20
-8.2985014872
 10
20.5559022514
 20
-8.2935981443
 10
20.563995472
 20
-8.2886426177
 10
20.571961214
 20
-8.2836357187
 10
20.5797981732
 20
-8.2785782672
 10
20.5875050665
 20
-8.2734710911
 10
20.5950806322
 20
-8.2683150268
 10
20.6025236297
 20
-8.2631109183
 10
20.6098328405
 20
-8.2578596177
 10
20.6170070679
 20
-8.2525619848
 10
20.6240451372
 20
-8.2472188871
 10
20.6309458961
 20
-8.2418311992
 10
20.6377082148
 20
-8.2363998035
 10
20.6443309859
 20
-8.230925589
 10
20.6508131253
 20
-8.2254094522
 10
20.6571535716
 20
-8.2198522961
 10
20.6633512866
 20
-8.2142550306
 10
20.6694052557
 20
-8.2086185722
 10
20.6753144876
 20
-8.2029438438
 10
20.6810780147
 20
-8.1972317743
 10
20.6866948936
 20
-8.1914832992
 10
20.6921642044
 20
-8.1856993595
 10
20.6974850517
 20
-8.1798809023
 10
20.7026565644
 20
-8.1740288802
 10
20.7076778956
 20
-8.1681442513
 10
20.7125482233
 20
-8.1622279793
 10
20.7172667501
 20
-8.1562810326
 10
20.7218327034
 20
-8.150304385
 10
20.7262453355
 20
-8.1442990151
 10
20.7305039242
 20
-8.1382659061
 10
20.7346077719
 20
-8.1322060458
 10
20.738556207
 20
-8.1261204264
 10
20.7423485828
 20
-8.1200100442
 10
20.7459842785
 20
-8.1138758998
 10
20.7494626988
 20
-8.1077189975
 10
20.7527832741
 20
-8.1015403452
 10
20.7559454609
 20
-8.0953409548
 10
20.7589487413
 20
-8.0891218411
 10
20.7617926236
 20
-8.0828840224
 10
20.7644766422
 20
-8.0766285201
 10
20.7670003577
 20
-8.0703563583
 10
20.7693633568
 20
-8.064068564
 10
20.7715652527
 20
-8.0577661666
 10
20.7736056849
 20
-8.0514501982
 10
20.7754843192
 20
-8.0451216927
 10
20.777200848
 20
-8.0387816863
 10
20.7787549904
 20
-8.0324312171
 10
20.7801464919
 20
-8.0260713249
 10
20.7813751246
 20
-8.0197030509
 10
20.7824406873
 20
-8.0133274378
 10
20.7833430057
 20
-8.0069455294
 10
20.784081932
 20
-8.0005583708
 10
20.7846573452
 20
-7.9941670076
 10
20.785069151
 20
-7.9877724863
 10
20.7853172821
 20
-7.9813758539
 10
20.7854017177
 20
-7.9748784957
  0
LINE
  5
3D8
100
AcDbEntity
  8
RACCORDO
100
AcDbLine
 62
250
  6
CONTINUOUS
 10
1.2578799732
 20
-16.55730248
 11
1.5538615922
 21
-16.4261146682
  0
LINE
  5
3D9
100
AcDbEntity
  8
RACCORDO
100
AcDbLine
 62
7
  6
CONTINUOUS
 10
1.2469681734
 20
-16.81776195
 11
1.3884200519
 21
-16.7550662918
  0
LINE
  5
3DA
100
AcDbEntity
  8
ASSI
100
AcDbLine
 62
7
  6
CONTINUOUS
 10
4.4883547341
 20
15.0372118511
 11
5.8778831069
 21
14.756661227
  0
LINE
  5
3DB
100
AcDbEntity
  8
ASSI
100
AcDbLine
 62
7
  6
CONTINUOUS
 10
4.4883547341
 20
15.0372118511
 11
5.9396007819
 21
14.7258023895
  0
LWPOLYLINE
  5
3DC
100
AcDbEntity
  8
RACCORDO
100
AcDbPolyline
 62
250
  6
CONTINUOUS
 90
8
 70
0
 10
-15.7412765934
 20
22.8002091359
 10
-15.7792217531
 20
22.8158264408
 10
-15.8168527931
 20
22.8264835726
 10
-15.8537577713
 20
22.8320638882
 10
-15.889532708
 20
22.8325063202
 10
-15.9237859729
 20
22.827806043
 10
-15.9561425774
 20
22.818014542
 10
-15.9719322392
 20
22.8110272006
  0
LINE
  5
3DD
100
AcDbEntity
  8
ASSI
100
AcDbLine
 62
7
  6
CONTINUOUS
 10
5.8778831069
 20
14.756661227
 11
5.9396007819
 21
14.7258023895
  0
LINE
  5
3DE
100
AcDbEntity
  8
RACCORDO
100
AcDbLine
 62
7
  6
CONTINUOUS
 10
-12.5485653284
 20
24.3772699255
 11
2.3009193844
 21
16.9525275691
  0
LINE
  5
3DF
100
AcDbEntity
  8
0
100
AcDbLine
 62
7
  6
CONTINUOUS
 10
0.705607736
 20
17.892249742
 11
-9.6186998318
 21
23.0544035259
  0
LINE
  5
3E0
100
AcDbEntity
  8
ASSI
100
AcDbLine
 62
7
  6
CONTINUOUS
 10
-11.5536853247
 20
24.7349513004
 11
-11.3601210386
 21
24.6381691573
  0
LINE
  5
3E1
100
AcDbEntity
  8
ASSI
100
AcDbLine
 62
7
  6
CONTINUOUS
 10
1.0328153804
 20
18.4417009478
 11
1.2263796665
 21
18.3449188048
  0
LINE
  5
3E2
100
AcDbEntity
  8
ASSI
100
AcDbLine
 62
7
  6
CONTINUOUS
 10
3.0467301448
 20
17.5737706445
 11
2.8465539659
 21
17.673858734
  0
LINE
  5
3E3
100
AcDbEntity
  8
ASSI
100
AcDbLine
 62
7
  6
CONTINUOUS
 10
0.8268546435
 20
18.6837083952
 11
-9.7399467393
 21
23.9671090865
  0
LINE
  5
3E4
100
AcDbEntity
  8
ASSI
100
AcDbLine
 62
7
  6
CONTINUOUS
 10
-11.7596460617
 20
24.9769587477
 11
-11.9598222407
 21
25.0770468372
  0
LWPOLYLINE
  5
3E5
100
AcDbEntity
  8
ASSI
100
AcDbPolyline
 62
250
  6
CONTINUOUS
 90
16
 70
0
 10
-10.3594890383
 20
24.7859543901
 10
-10.3656843904
 20
24.7893508608
 10
-10.372817913
 20
24.7940618535
 10
-10.3796907731
 20
24.799542604
 10
-10.3862582908
 20
24.8058139933
 10
-10.3924738938
 20
24.8128928848
 10
-10.3982575644
 20
24.820744549
 10
-10.4035702804
 20
24.8293659452
 10
-10.408373282
 20
24.8387497384
 10
-10.4126058247
 20
24.848825386
 10
-10.4162409745
 20
24.8595661283
 10
-10.4192539214
 20
24.870942359
 10
-10.4216102783
 20
24.8828537948
 10
-10.4232975335
 20
24.8952325508
 10
-10.424313238
 20
24.9080533807
 10
-10.4246525203
 20
24.9212679231
  0
LWPOLYLINE
  5
3E6
100
AcDbEntity
  8
ASSI
100
AcDbPolyline
 62
7
  6
CONTINUOUS
 90
9
 70
0
 10
-11.1601766777
 20
25.1863015239
 10
-11.1832094933
 20
25.1991522655
 10
-11.2132788461
 20
25.2196292195
 10
-11.2419798954
 20
25.2430413752
 10
-11.2692646111
 20
25.2688424197
 10
-11.2947482554
 20
25.2966554834
 10
-11.3182708864
 20
25.3261895859
 10
-11.3400354558
 20
25.3570818037
 10
-11.3601210386
 20
25.3890021822
  0
LWPOLYLINE
  5
3E7
100
AcDbEntity
  8
ASSI
100
AcDbPolyline
 62
250
  6
CONTINUOUS
 90
7
 70
0
 10
0.0973468621
 20
19.6602682319
 10
0.0802747875
 20
19.6699874509
 10
0.06585474
 20
19.6807272212
 10
0.054328005
 20
19.6923078368
 10
0.0458874547
 20
19.7045355226
 10
0.0406743213
 20
19.717205676
 10
0.0387682252
 20
19.7309526835
  0
LWPOLYLINE
  5
3E8
100
AcDbEntity
  8
ASSI
100
AcDbPolyline
 62
250
  6
CONTINUOUS
 90
9
 70
0
 10
-12.4244003342
 20
25.8184100284
 10
-12.4338907228
 20
25.8238726449
 10
-12.4479399604
 20
25.8351018368
 10
-12.4601707671
 20
25.8491343554
 10
-12.4704145811
 20
25.8657822953
 10
-12.4785299978
 20
25.8848182638
 10
-12.4844064611
 20
25.9059833992
 10
-12.4879640084
 20
25.9289929634
 10
-12.4891538339
 20
25.953535931
  0
LWPOLYLINE
  5
3E9
100
AcDbEntity
  8
ASSI
100
AcDbPolyline
 62
250
  6
CONTINUOUS
 90
13
 70
0
 10
-10.2503546444
 20
25.5415526781
 10
-10.2322027122
 20
25.5306879442
 10
-10.21431903
 20
25.5170681559
 10
-10.1970094741
 20
25.5009262613
 10
-10.1805701013
 20
25.4825383457
 10
-10.1652820847
 20
25.4622189096
 10
-10.1514069053
 20
25.4403154896
 10
-10.1391818793
 20
25.4172027142
 10
-10.1288160993
 20
25.3932758961
 10
-10.120486858
 20
25.3689442715
 10
-10.1143366158
 20
25.3446239998
 10
-10.1104705644
 20
25.3207310467
 10
-10.1089548273
 20
25.2976740687
  0
LWPOLYLINE
  5
3EA
100
AcDbEntity
  8
ASSI
100
AcDbPolyline
 62
250
  6
CONTINUOUS
 90
3
 70
0
 10
0.1505363818
 20
19.5320224003
 10
0.1586195641
 20
19.5269926062
 10
0.1620874683
 20
19.5251661272
  0
LWPOLYLINE
  5
3EB
100
AcDbEntity
  8
ASSI
100
AcDbPolyline
 62
7
  6
CONTINUOUS
 90
4
 70
0
 10
0.1069314144
 20
19.5644900819
 10
0.125722564
 20
19.5480827406
 10
0.1462106874
 20
19.5339492044
 10
0.1622936928
 20
19.5250645272
  0
LWPOLYLINE
  5
3EC
100
AcDbEntity
  8
RACCORDO
100
AcDbPolyline
 62
250
  6
CONTINUOUS
 90
73
 70
0
 10
20.0905910424
 20
-9.3396907525
 10
20.1014922696
 20
-9.3316551319
 10
20.1122717776
 20
-9.3234160412
 10
20.1229282782
 20
-9.3149744641
 10
20.1334604909
 20
-9.3063314123
 10
20.1438671641
 20
-9.2974879135
 10
20.1541470751
 20
-9.2884450108
 10
20.1642989975
 20
-9.279203781
 10
20.1743217165
 20
-9.2697653283
 10
20.1842140487
 20
-9.2601307714
 10
20.1939748125
 20
-9.2503012599
 10
20.2036028422
 20
-9.2402779652
 10
20.2130970029
 20
-9.2300620742
 10
20.2224561613
 20
-9.2196548042
 10
20.2316791996
 20
-9.2090573959
 10
20.2407650296
 20
-9.1982711049
 10
20.2497125676
 20
-9.1872972158
 10
20.2585207447
 20
-9.1761370367
 10
20.2671885203
 20
-9.1647918916
 10
20.2757148605
 20
-9.153263132
 10
20.2840987475
 20
-9.1415521312
 10
20.2923391904
 20
-9.1296602787
 10
20.3004352068
 20
-9.1175889905
 10
20.3083858305
 20
-9.1053397044
 10
20.3161901214
 20
-9.0929138739
 10
20.3238471495
 20
-9.0803129782
 10
20.3313560014
 20
-9.0675385177
 10
20.338715788
 20
-9.0545920094
 10
20.3459256329
 20
-9.0414749939
 10
20.3529846762
 20
-9.0281890329
 10
20.3598920814
 20
-9.0147357048
 10
20.3666470262
 20
-9.0011166104
 10
20.3732487054
 20
-8.9873333705
 10
20.3796963359
 20
-8.9733876233
 10
20.3859891506
 20
-8.9592810277
 10
20.3921263999
 20
-8.9450152622
 10
20.3981073546
 20
-8.930592023
 10
20.4039313038
 20
-8.9160130253
 10
20.4095975542
 20
-8.9012800037
 10
20.4151054315
 20
-8.8863947102
 10
20.4204542816
 20
-8.871358915
 10
20.4256434682
 20
-8.8561744066
 10
20.4306723726
 20
-8.8408429913
 10
20.4355403982
 20
-8.825366492
 10
20.4402469664
 20
-8.8097467493
 10
20.4447915148
 20
-8.7939856222
 10
20.4491735048
 20
-8.7780849843
 10
20.4533924164
 20
-8.7620467263
 10
20.4574477439
 20
-8.7458727573
 10
20.4613390075
 20
-8.7295649999
 10
20.4650657461
 20
-8.7131253928
 10
20.4686275115
 20
-8.6965558931
 10
20.4720238832
 20
-8.6798584697
 10
20.4752544594
 20
-8.6630351077
 10
20.4783188496
 20
-8.6460878109
 10
20.4812166931
 20
-8.6290185929
 10
20.4839476478
 20
-8.6118294828
 10
20.4865113815
 20
-8.5945225292
 10
20.4889075935
 20
-8.5770997891
 10
20.4911360021
 20
-8.5595633324
 10
20.4931963339
 20
-8.5419152481
 10
20.4950883485
 20
-8.5241576329
 10
20.4968118247
 20
-8.5062925969
 10
20.4983665482
 20
-8.4883222682
 10
20.4997523395
 20
-8.4702487799
 10
20.5009690377
 20
-8.452074281
 10
20.5020164873
 20
-8.433800942
 10
20.5028945689
 20
-8.4154309367
 10
20.5036031836
 20
-8.3969664442
 10
20.5041422358
 20
-8.3784096601
 10
20.5045116616
 20
-8.359762789
 10
20.5047114283
 20
-8.3410280451
 10
20.504741518
 20
-8.3222076535
  0
LWPOLYLINE
  5
3ED
100
AcDbEntity
  8
0
100
AcDbPolyline
 62
250
  6
CONTINUOUS
 90
73
 70
0
 10
20.0905910424
 20
-9.3396907525
 10
20.1014922696
 20
-9.3316551319
 10
20.1122717776
 20
-9.3234160412
 10
20.1229282782
 20
-9.3149744641
 10
20.1334604909
 20
-9.3063314123
 10
20.1438671641
 20
-9.2974879135
 10
20.1541470751
 20
-9.2884450108
 10
20.1642989975
 20
-9.279203781
 10
20.1743217165
 20
-9.2697653283
 10
20.1842140487
 20
-9.2601307714
 10
20.1939748125
 20
-9.2503012599
 10
20.2036028422
 20
-9.2402779652
 10
20.2130970029
 20
-9.2300620742
 10
20.2224561613
 20
-9.2196548042
 10
20.2316791996
 20
-9.2090573959
 10
20.2407650296
 20
-9.1982711049
 10
20.2497125676
 20
-9.1872972158
 10
20.2585207447
 20
-9.1761370367
 10
20.2671885203
 20
-9.1647918916
 10
20.2757148605
 20
-9.153263132
 10
20.2840987475
 20
-9.1415521312
 10
20.2923391904
 20
-9.1296602787
 10
20.3004352068
 20
-9.1175889905
 10
20.3083858305
 20
-9.1053397044
 10
20.3161901214
 20
-9.0929138739
 10
20.3238471495
 20
-9.0803129782
 10
20.3313560014
 20
-9.0675385177
 10
20.338715788
 20
-9.0545920094
 10
20.3459256329
 20
-9.0414749939
 10
20.3529846762
 20
-9.0281890329
 10
20.3598920814
 20
-9.0147357048
 10
20.3666470262
 20
-9.0011166104
 10
20.3732487054
 20
-8.9873333705
 10
20.3796963359
 20
-8.9733876233
 10
20.3859891506
 20
-8.9592810277
 10
20.3921263999
 20
-8.9450152622
 10
20.3981073546
 20
-8.930592023
 10
20.4039313038
 20
-8.9160130253
 10
20.4095975542
 20
-8.9012800037
 10
20.4151054315
 20
-8.8863947102
 10
20.4204542816
 20
-8.871358915
 10
20.4256434682
 20
-8.8561744066
 10
20.4306723726
 20
-8.8408429913
 10
20.4355403982
 20
-8.825366492
 10
20.4402469664
 20
-8.8097467493
 10
20.4447915148
 20
-8.7939856222
 10
20.4491735048
 20
-8.7780849843
 10
20.4533924164
 20
-8.7620467263
 10
20.4574477439
 20
-8.7458727573
 10
20.4613390075
 20
-8.7295649999
 10
20.4650657461
 20
-8.7131253928
 10
20.4686275115
 20
-8.6965558931
 10
20.4720238832
 20
-8.6798584697
 10
20.4752544594
 20
-8.6630351077
 10
20.4783188496
 20
-8.6460878109
 10
20.4812166931
 20
-8.6290185929
 10
20.4839476478
 20
-8.6118294828
 10
20.4865113815
 20
-8.5945225292
 10
20.4889075935
 20
-8.5770997891
 10
20.4911360021
 20
-8.5595633324
 10
20.4931963339
 20
-8.5419152481
 10
20.4950883485
 20
-8.5241576329
 10
20.4968118247
 20
-8.5062925969
 10
20.4983665482
 20
-8.4883222682
 10
20.4997523395
 20
-8.4702487799
 10
20.5009690377
 20
-8.452074281
 10
20.5020164873
 20
-8.433800942
 10
20.5028945689
 20
-8.4154309367
 10
20.5036031836
 20
-8.3969664442
 10
20.5041422358
 20
-8.3784096601
 10
20.5045116616
 20
-8.359762789
 10
20.5047114283
 20
-8.3410280451
 10
20.504741518
 20
-8.3222076535
  0
LWPOLYLINE
  5
3EE
100
AcDbEntity
  8
RACCORDO
100
AcDbPolyline
 62
7
  6
CONTINUOUS
 90
82
 70
0
 10
20.1651591929
 20
-9.2933282162
 10
20.1770589659
 20
-9.2846068461
 10
20.1905570306
 20
-9.2744752904
 10
20.2039434972
 20
-9.2641704319
 10
20.2172151702
 20
-9.2536943368
 10
20.2303708675
 20
-9.2430475526
 10
20.2434113887
 20
-9.23222896
 10
20.2563346635
 20
-9.2212397356
 10
20.2691385231
 20
-9.210081189
 10
20.2818235419
 20
-9.1987522067
 10
20.2943875737
 20
-9.1872540256
 10
20.306828507
 20
-9.1755879209
 10
20.3191468559
 20
-9.1637526674
 10
20.3313405856
 20
-9.1517493833
 10
20.3434074518
 20
-9.1395794552
 10
20.3553475622
 20
-9.1272419037
 10
20.3671588469
 20
-9.1147379152
 10
20.3788391395
 20
-9.1020688293
 10
20.390388323
 20
-9.089233751
 10
20.4018042828
 20
-9.0762339572
 10
20.4130849436
 20
-9.063070738
 10
20.4242301759
 20
-9.0497430826
 10
20.4352378095
 20
-9.0362523456
 10
20.4461058576
 20
-9.0225997482
 10
20.456834368
 20
-9.0087839119
 10
20.4674211664
 20
-8.9948062097
 10
20.4778642766
 20
-8.9806678243
 10
20.4881639322
 20
-8.9663669141
 10
20.4983180311
 20
-8.9519047416
 10
20.5083245107
 20
-8.9372825663
 10
20.5181835329
 20
-8.9224983468
 10
20.5278930533
 20
-8.9075532238
 10
20.537450931
 20
-8.8924485408
 10
20.5468570556
 20
-8.8771823682
 10
20.5561095422
 20
-8.8617555197
 10
20.5652060656
 20
-8.8461696179
 10
20.5741457654
 20
-8.8304237688
 10
20.582926599
 20
-8.81451907
 10
20.5915464534
 20
-8.798456851
 10
20.6000043084
 20
-8.782236398
 10
20.6082980972
 20
-8.7658589124
 10
20.6164257933
 20
-8.7493256005
 10
20.624386395
 20
-8.7326355931
 10
20.6321778037
 20
-8.7157902166
 10
20.6397980777
 20
-8.6987905176
 10
20.6472463923
 20
-8.6816350309
 10
20.6545208243
 20
-8.6643246589
 10
20.6616192534
 20
-8.6468608048
 10
20.6685405003
 20
-8.6292425741
 10
20.675282863
 20
-8.6114702776
 10
20.681844024
 20
-8.5935458502
 10
20.6882219212
 20
-8.5754706917
 10
20.694414653
 20
-8.5572458866
 10
20.7004203008
 20
-8.538872594
 10
20.706236892
 20
-8.5203522063
 10
20.7118626045
 20
-8.5016857903
 10
20.7172956002
 20
-8.4828744873
 10
20.7225339875
 20
-8.4639196714
 10
20.7275763172
 20
-8.4448211974
 10
20.7324204861
 20
-8.4255813548
 10
20.7370638357
 20
-8.4062050698
 10
20.7415050317
 20
-8.386692276
 10
20.7457422064
 20
-8.3670451819
 10
20.7497723368
 20
-8.3472720887
 10
20.7535941148
 20
-8.3273740584
 10
20.7572062114
 20
-8.3073522028
 10
20.7606061103
 20
-8.2872148879
 10
20.7637927539
 20
-8.2669631962
 10
20.7667650634
 20
-8.2465982079
 10
20.7695210174
 20
-8.2261282807
 10
20.7720598072
 20
-8.2055543307
 10
20.7743805546
 20
-8.1848775722
 10
20.776481662
 20
-8.1641068135
 10
20.7783625247
 20
-8.1432430702
 10
20.7800224986
 20
-8.1222873991
 10
20.7814604527
 20
-8.101248703
 10
20.7826759756
 20
-8.0801280337
 10
20.7836686273
 20
-8.0589263908
 10
20.7844377218
 20
-8.0376525563
 10
20.7849829672
 20
-8.0163100627
 10
20.7853042189
 20
-7.9948974604
 10
20.7854017176
 20
-7.9748784957
  0
LWPOLYLINE
  5
3EF
100
AcDbEntity
  8
0
100
AcDbPolyline
 62
7
  6
CONTINUOUS
 90
82
 70
0
 10
20.1651591929
 20
-9.2933282162
 10
20.1770589659
 20
-9.2846068461
 10
20.1905570306
 20
-9.2744752904
 10
20.2039434972
 20
-9.2641704319
 10
20.2172151702
 20
-9.2536943368
 10
20.2303708675
 20
-9.2430475526
 10
20.2434113887
 20
-9.23222896
 10
20.2563346635
 20
-9.2212397356
 10
20.2691385231
 20
-9.210081189
 10
20.2818235419
 20
-9.1987522067
 10
20.2943875737
 20
-9.1872540256
 10
20.306828507
 20
-9.1755879209
 10
20.3191468559
 20
-9.1637526674
 10
20.3313405856
 20
-9.1517493833
 10
20.3434074518
 20
-9.1395794552
 10
20.3553475622
 20
-9.1272419037
 10
20.3671588469
 20
-9.1147379152
 10
20.3788391395
 20
-9.1020688293
 10
20.390388323
 20
-9.089233751
 10
20.4018042828
 20
-9.0762339572
 10
20.4130849436
 20
-9.063070738
 10
20.4242301759
 20
-9.0497430826
 10
20.4352378095
 20
-9.0362523456
 10
20.4461058576
 20
-9.0225997482
 10
20.456834368
 20
-9.0087839119
 10
20.4674211664
 20
-8.9948062097
 10
20.4778642766
 20
-8.9806678243
 10
20.4881639322
 20
-8.9663669141
 10
20.4983180311
 20
-8.9519047416
 10
20.5083245107
 20
-8.9372825663
 10
20.5181835329
 20
-8.9224983468
 10
20.5278930533
 20
-8.9075532238
 10
20.537450931
 20
-8.8924485408
 10
20.5468570556
 20
-8.8771823682
 10
20.5561095422
 20
-8.8617555197
 10
20.5652060656
 20
-8.8461696179
 10
20.5741457654
 20
-8.8304237688
 10
20.582926599
 20
-8.81451907
 10
20.5915464534
 20
-8.798456851
 10
20.6000043084
 20
-8.782236398
 10
20.6082980972
 20
-8.7658589124
 10
20.6164257933
 20
-8.7493256005
 10
20.624386395
 20
-8.7326355931
 10
20.6321778037
 20
-8.7157902166
 10
20.6397980777
 20
-8.6987905176
 10
20.6472463923
 20
-8.6816350309
 10
20.6545208243
 20
-8.6643246589
 10
20.6616192534
 20
-8.6468608048
 10
20.6685405003
 20
-8.6292425741
 10
20.675282863
 20
-8.6114702776
 10
20.681844024
 20
-8.5935458502
 10
20.6882219212
 20
-8.5754706917
 10
20.694414653
 20
-8.5572458866
 10
20.7004203008
 20
-8.538872594
 10
20.706236892
 20
-8.5203522063
 10
20.7118626045
 20
-8.5016857903
 10
20.7172956002
 20
-8.4828744873
 10
20.7225339875
 20
-8.4639196714
 10
20.7275763172
 20
-8.4448211974
 10
20.7324204861
 20
-8.4255813548
 10
20.7370638357
 20
-8.4062050698
 10
20.7415050317
 20
-8.386692276
 10
20.7457422064
 20
-8.3670451819
 10
20.7497723368
 20
-8.3472720887
 10
20.7535941148
 20
-8.3273740584
 10
20.7572062114
 20
-8.3073522028
 10
20.7606061103
 20
-8.2872148879
 10
20.7637927539
 20
-8.2669631962
 10
20.7667650634
 20
-8.2465982079
 10
20.7695210174
 20
-8.2261282807
 10
20.7720598072
 20
-8.2055543307
 10
20.7743805546
 20
-8.1848775722
 10
20.776481662
 20
-8.1641068135
 10
20.7783625247
 20
-8.1432430702
 10
20.7800224986
 20
-8.1222873991
 10
20.7814604527
 20
-8.101248703
 10
20.7826759756
 20
-8.0801280337
 10
20.7836686273
 20
-8.0589263908
 10
20.7844377218
 20
-8.0376525563
 10
20.7849829672
 20
-8.0163100627
 10
20.7853042189
 20
-7.9948974604
 10
20.7854017176
 20
-7.9748784957
  0
LINE
  5
3F0
100
AcDbEntity
  8
DRAFT
100
AcDbLine
 62
7
  6
CONTINUOUS
 10
12.013504555
 20
-13.6781705104
 11
11.260810471
 21
-14.2236816874
  0
LINE
  5
3F1
100
AcDbEntity
  8
0
100
AcDbLine
 62
7
  6
CONTINUOUS
 10
12.013504555
 20
-13.6781705104
 11
11.260810471
 21
-14.2236816874
  0
LINE
  5
3F2
100
AcDbEntity
  8
RACCORDO
100
AcDbLine
 62
250
  6
CONTINUOUS
 10
19.7476934664
 20
-9.5882040121
 11
20.0905910424
 21
-9.3396907525
  0
LINE
  5
3F3
100
AcDbEntity
  8
0
100
AcDbLine
 62
250
  6
CONTINUOUS
 10
19.7476934664
 20
-9.5882040121
 11
20.0905910424
 21
-9.3396907525
  0
LINE
  5
3F4
100
AcDbEntity
  8
RACCORDO
100
AcDbLine
 62
7
  6
CONTINUOUS
 10
19.8239744532
 20
-9.5406001067
 11
20.1651586364
 21
-9.2933286197
  0
LINE
  5
3F5
100
AcDbEntity
  8
0
100
AcDbLine
 62
7
  6
CONTINUOUS
 10
19.8239744532
 20
-9.5406001067
 11
20.1651586364
 21
-9.2933286197
  0
LWPOLYLINE
  5
3F6
100
AcDbEntity
  8
ASSI
100
AcDbPolyline
 62
7
  6
CONTINUOUS
 90
4
 70
0
 10
1.3172550561
 20
-22.1417081405
 10
1.2678822078
 20
-22.1742511974
 10
1.2460385968
 20
-22.1893042638
 10
1.2263796665
 20
-22.2038523097
  0
LWPOLYLINE
  5
3F7
100
AcDbEntity
  8
ASSI
100
AcDbPolyline
 62
7
  6
CONTINUOUS
 90
6
 70
0
 10
1.4678611231
 20
-22.0487046903
 10
1.4355849718
 20
-22.0686333194
 10
1.4038578247
 20
-22.0876353633
 10
1.373221859
 20
-22.1059040327
 10
1.3443109515
 20
-22.1239384691
 10
1.3172550561
 20
-22.1417081405
  0
LWPOLYLINE
  5
3F8
100
AcDbEntity
  8
DRAFT
100
AcDbPolyline
 62
7
  6
CONTINUOUS
 90
27
 70
0
 10
1.9999658971
 20
-18.74422768
 10
2.0334250864
 20
-18.7252938647
 10
2.0654111976
 20
-18.7002293019
 10
2.0942043575
 20
-18.6695754797
 10
2.1197667531
 20
-18.6336143239
 10
2.1412399308
 20
-18.5935828434
 10
2.1584200656
 20
-18.5495990456
 10
2.1715109825
 20
-18.5015449232
 10
2.1802657026
 20
-18.450303463
 10
2.1846018994
 20
-18.3954895009
 10
2.1846018994
 20
-18.337488201
 10
2.1802657026
 20
-18.2783380421
 10
2.1715109825
 20
-18.2183418619
 10
2.1584200656
 20
-18.1571968226
 10
2.1412399308
 20
-18.09603289
 10
2.1197667531
 20
-18.0345282318
 10
2.0942043575
 20
-17.9730046803
 10
2.0654111976
 20
-17.9135576982
 10
2.0334250864
 20
-17.8565070242
 10
1.9982082109
 20
-17.8015329195
 10
1.9605055854
 20
-17.7497716306
 10
1.9201320724
 20
-17.7011310661
 10
1.8772728095
 20
-17.6557033174
 10
1.8332282229
 20
-17.6149009048
 10
1.7884317883
 20
-17.5791946686
 10
1.7424500302
 20
-17.5481137685
 10
1.6952829484
 20
-17.5216582047
  0
LWPOLYLINE
  5
3F9
100
AcDbEntity
  8
DRAFT
100
AcDbPolyline
 62
7
  6
CONTINUOUS
 90
27
 70
0
 10
2.2858782438
 20
-18.6090768445
 10
2.3196743453
 20
-18.5899523823
 10
2.3519826825
 20
-18.5646353988
 10
2.3810658344
 20
-18.5336730058
 10
2.4068856484
 20
-18.4973498855
 10
2.4285751146
 20
-18.4569153249
 10
2.4459284212
 20
-18.4124884858
 10
2.45915138
 20
-18.3639502063
 10
2.4679944164
 20
-18.3121922883
 10
2.4723743388
 20
-18.2568255477
 10
2.4723743388
 20
-18.1982391686
 10
2.4679944164
 20
-18.1384925056
 10
2.45915138
 20
-18.0778915513
 10
2.4459284212
 20
-18.0161303131
 10
2.4285751146
 20
-17.9543501673
 10
2.4068856484
 20
-17.8922261405
 10
2.3810658344
 20
-17.8300832062
 10
2.3519826825
 20
-17.7700376613
 10
2.3196743453
 20
-17.7124123406
 10
2.2841026703
 20
-17.6568844093
 10
2.2460202094
 20
-17.6046016605
 10
2.2052399757
 20
-17.5554711119
 10
2.1619489561
 20
-17.5095857457
 10
2.1174606636
 20
-17.4683723011
 10
2.0722129357
 20
-17.4323063579
 10
2.0257679348
 20
-17.4009123364
 10
1.9781256609
 20
-17.3741902366
  0
LWPOLYLINE
  5
3FA
100
AcDbEntity
  8
RACCORDO
100
AcDbPolyline
 62
250
  6
CONTINUOUS
 90
10
 70
0
 10
20.0905910424
 20
-9.3396907525
 10
20.0995866838
 20
-9.3348484598
 10
20.1084949838
 20
-9.3298635366
 10
20.1173144495
 20
-9.3247368182
 10
20.1260436033
 20
-9.3194691637
 10
20.1346809825
 20
-9.3140614556
 10
20.1432251398
 20
-9.3085146
 10
20.1516746436
 20
-9.3028295265
 10
20.1600280781
 20
-9.2970071875
 10
20.1651586364
 20
-9.2933286197
  0
LWPOLYLINE
  5
3FB
100
AcDbEntity
  8
0
100
AcDbPolyline
 62
250
  6
CONTINUOUS
 90
10
 70
0
 10
20.0905910424
 20
-9.3396907525
 10
20.0995866838
 20
-9.3348484598
 10
20.1084949838
 20
-9.3298635366
 10
20.1173144495
 20
-9.3247368182
 10
20.1260436033
 20
-9.3194691637
 10
20.1346809825
 20
-9.3140614556
 10
20.1432251398
 20
-9.3085146
 10
20.1516746436
 20
-9.3028295265
 10
20.1600280781
 20
-9.2970071875
 10
20.1651586364
 20
-9.2933286197
  0
LWPOLYLINE
  5
3FC
100
AcDbEntity
  8
RACCORDO
100
AcDbPolyline
 62
7
  6
CONTINUOUS
 90
12
 70
0
 10
19.7476934664
 20
-9.5882040121
 10
19.7549373189
 20
-9.5843107234
 10
19.7621420066
 20
-9.5803136159
 10
19.7693067554
 20
-9.5762133364
 10
19.7764306644
 20
-9.5720105115
 10
19.7835130987
 20
-9.5677058313
 10
19.7905536895
 20
-9.5633000453
 10
19.7975516754
 20
-9.5587938195
 10
19.8045063073
 20
-9.5541878387
 10
19.8114172409
 20
-9.5494828843
 10
19.8182837276
 20
-9.5446796394
 10
19.8239570642
 20
-9.5406126711
  0
LWPOLYLINE
  5
3FD
100
AcDbEntity
  8
0
100
AcDbPolyline
 62
7
  6
CONTINUOUS
 90
12
 70
0
 10
19.7476934664
 20
-9.5882040121
 10
19.7549373189
 20
-9.5843107234
 10
19.7621420066
 20
-9.5803136159
 10
19.7693067554
 20
-9.5762133364
 10
19.7764306644
 20
-9.5720105115
 10
19.7835130987
 20
-9.5677058313
 10
19.7905536895
 20
-9.5633000453
 10
19.7975516754
 20
-9.5587938195
 10
19.8045063073
 20
-9.5541878387
 10
19.8114172409
 20
-9.5494828843
 10
19.8182837276
 20
-9.5446796394
 10
19.8239570642
 20
-9.5406126711
  0
LINE
  5
3FE
100
AcDbEntity
  8
RACCORDO
100
AcDbLine
 62
7
  6
CONTINUOUS
 10
19.7476934664
 20
-9.5882040121
 11
12.013504555
 21
-13.6781705104
  0
LINE
  5
3FF
100
AcDbEntity
  8
0
100
AcDbLine
 62
7
  6
CONTINUOUS
 10
19.7476934664
 20
-9.5882040121
 11
12.013504555
 21
-13.6781705104
  0
LINE
  5
400
100
AcDbEntity
  8
DRAFT
100
AcDbLine
 62
7
  6
CONTINUOUS
 10
5.1831189205
 20
-17.4376650945
 11
11.260810471
 21
-14.2236816874
  0
LINE
  5
401
100
AcDbEntity
  8
0
100
AcDbLine
 62
7
  6
CONTINUOUS
 10
5.1831189205
 20
-17.4376650945
 11
11.260810471
 21
-14.2236816874
  0
LINE
  5
402
100
AcDbEntity
  8
RACCORDO
100
AcDbLine
 62
250
  6
CONTINUOUS
 10
5.4884178208
 20
-17.0317874429
 11
20.0905910424
 21
-9.3396907525
  0
LINE
  5
403
100
AcDbEntity
  8
0
100
AcDbLine
 62
250
  6
CONTINUOUS
 10
5.4884178208
 20
-17.0317874429
 11
20.0905910424
 21
-9.3396907525
  0
LINE
  5
404
100
AcDbEntity
  8
ASSI
100
AcDbLine
 62
7
  6
CONTINUOUS
 10
9.5609896955
 20
-15.3954963923
 11
5.1831189205
 21
-17.6552738135
  0
LINE
  5
405
100
AcDbEntity
  8
ASSI
100
AcDbLine
 62
7
  6
CONTINUOUS
 10
5.8778831069
 20
-16.728148101
 11
5.1831189205
 21
-17.0834444459
  0
LINE
  5
406
100
AcDbEntity
  8
ASSI
100
AcDbLine
 62
7
  6
CONTINUOUS
 10
10.7522480154
 20
-14.6729453448
 11
5.1831189205
 21
-17.5209493876
  0
LINE
  5
407
100
AcDbEntity
  8
DRAFT
100
AcDbLine
 62
7
  6
CONTINUOUS
 10
2.2859626727
 20
-18.6090417674
 11
2.0000494945
 21
-18.7441929277
  0
LINE
  5
408
100
AcDbEntity
  8
ASSI
100
AcDbLine
 62
7
  6
CONTINUOUS
 10
2.1195470171
 20
18.1054419106
 11
1.5768209544
 21
18.2205712282
  0
LINE
  5
409
100
AcDbEntity
  8
ASSI
100
AcDbLine
 62
250
  6
CONTINUOUS
 10
2.4601874496
 20
18.5979788209
 11
3.1969952538
 21
18.441678644
  0
LINE
  5
40A
100
AcDbEntity
  8
ASSI
100
AcDbLine
 62
7
  6
CONTINUOUS
 10
2.9201402859
 20
18.3384200426
 11
2.2796947943
 21
18.4742787487
  0
LWPOLYLINE
  5
40B
100
AcDbEntity
  8
ASSI
100
AcDbPolyline
 62
250
  6
CONTINUOUS
 90
7
 70
0
 10
0.2704320193
 20
20.2811593462
 10
0.2516782793
 20
20.2887474437
 10
0.2332875164
 20
20.293264866
 10
0.2155742803
 20
20.2946343508
 10
0.1988415313
 20
20.2928324771
 10
0.183375461
 20
20.2878900655
 10
0.1780283217
 20
20.2852809416
  0
LWPOLYLINE
  5
40C
100
AcDbEntity
  8
ASSI
100
AcDbPolyline
 62
250
  6
CONTINUOUS
 90
13
 70
0
 10
-10.4246525203
 20
24.9212679231
 10
-10.4052140981
 20
24.9127318918
 10
-10.3837345734
 20
24.9055218711
 10
-10.3605733564
 20
24.899758504
 10
-10.3361179965
 20
24.8955382272
 10
-10.3107776976
 20
24.8929316572
 10
-10.2849764712
 20
24.8919824089
 10
-10.259146041
 20
24.8927063659
 10
-10.2337186198
 20
24.8950914143
 10
-10.2091196766
 20
24.8990976459
 10
-10.1857608178
 20
24.9046580257
 10
-10.1640329001
 20
24.9116795136
 10
-10.14429949
 20
24.9200446212
  0
LWPOLYLINE
  5
40D
100
AcDbEntity
  8
ASSI
100
AcDbPolyline
 62
250
  6
CONTINUOUS
 90
13
 70
0
 10
-10.4246525203
 20
25.2385367235
 10
-10.4052140854
 20
25.2300006872
 10
-10.3837345479
 20
25.222790664
 10
-10.3605733194
 20
25.2170272965
 10
-10.3361179501
 20
25.2128070211
 10
-10.3107776448
 20
25.2102004537
 10
-10.2849764158
 20
25.2092512089
 10
-10.2591459874
 20
25.2099751693
 10
-10.2337185718
 20
25.2123602206
 10
-10.2091196377
 20
25.2163664539
 10
-10.1857607907
 20
25.2219268336
 10
-10.1640328864
 20
25.228948319
 10
-10.14429949
 20
25.2373134216
  0
LWPOLYLINE
  5
40E
100
AcDbEntity
  8
ASSI
100
AcDbPolyline
 62
250
  6
CONTINUOUS
 90
13
 70
0
 10
-0.7479597675
 20
21.4108816314
 10
-0.728521383
 20
21.4023456148
 10
-0.7070418959
 20
21.3951356017
 10
-0.6838807129
 20
21.3893722358
 10
-0.6594253816
 20
21.385151955
 10
-0.6340851027
 20
21.3825453771
 10
-0.6082838837
 20
21.3815961186
 10
-0.5824534457
 20
21.3823200652
 10
-0.557026004
 20
21.3847051057
 10
-0.5324270321
 20
21.3887113331
 10
-0.5090681395
 20
21.3942717136
 10
-0.4873401846
 20
21.4012932083
 10
-0.4676067372
 20
21.4096583295
  0
LWPOLYLINE
  5
40F
100
AcDbEntity
  8
ASSI
100
AcDbPolyline
 62
7
  6
CONTINUOUS
 90
4
 70
0
 10
2.2270554467
 20
18.4926828755
 10
2.2360437161
 20
18.4884394433
 10
2.2577975744
 20
18.4801199663
 10
2.279696208
 20
18.4742856636
  0
LWPOLYLINE
  5
410
100
AcDbEntity
  8
ASSI
100
AcDbPolyline
 62
250
  6
CONTINUOUS
 90
28
 70
0
 10
-3.0032582104
 20
22.581825528
 10
-3.0049939377
 20
22.5826562571
 10
-3.0067642918
 20
22.5833776463
 10
-3.0085692726
 20
22.5839896956
 10
-3.0104203266
 20
22.5845036585
 10
-3.0123060074
 20
22.5849082815
 10
-3.0141919754
 20
22.5851698042
 10
-3.0160790545
 20
22.5852835699
 10
-3.0179664208
 20
22.5852542353
 10
-3.0198172628
 20
22.5850620108
 10
-3.0216308861
 20
22.584701103
 10
-3.0234079851
 20
22.5841773053
 10
-3.0251138313
 20
22.5834882079
 10
-3.0267454005
 20
22.5826287794
 10
-3.028305717
 20
22.5816040513
 10
-3.0297691247
 20
22.5804267083
 10
-3.0311318688
 20
22.5790948377
 10
-3.0323977041
 20
22.5776103522
 10
-3.0335522394
 20
22.5759916744
 10
-3.0345935711
 20
22.5742381123
 10
-3.0355236028
 20
22.5723503579
 10
-3.036333654
 20
22.5703489102
 10
-3.0370226403
 20
22.5682327439
 10
-3.0375916462
 20
22.5660028843
 10
-3.0380352443
 20
22.5636829057
 10
-3.0383516255
 20
22.5612806661
 10
-3.038542599
 20
22.5587883076
 10
-3.0386081647
 20
22.5562058299
  0
LWPOLYLINE
  5
411
100
AcDbEntity
  8
ASSI
100
AcDbPolyline
 62
7
  6
CONTINUOUS
 90
4
 70
0
 10
-10.3594911706
 20
24.7859559356
 10
-10.353399367
 20
24.7830250155
 10
-10.3302958512
 20
24.7738922796
 10
-10.3068302277
 20
24.7675346105
  0
LINE
  5
412
100
AcDbEntity
  8
ASSI
100
AcDbLine
 62
7
  6
CONTINUOUS
 10
2.2270541871
 20
18.4926827675
 11
1.425896229
 21
18.8932617466
  0
LINE
  5
413
100
AcDbEntity
  8
ASSI
100
AcDbLine
 62
7
  6
CONTINUOUS
 10
0.9580226424
 20
19.1271985399
 11
0.1620926434
 21
19.5251635394
  0
LINE
  5
414
100
AcDbEntity
  8
ASSI
100
AcDbLine
 62
7
  6
CONTINUOUS
 10
-10.3594521532
 20
24.7859359377
 11
-11.1606044762
 21
25.1865120991
  0
LINE
  5
415
100
AcDbEntity
  8
ASSI
100
AcDbLine
 62
7
  6
CONTINUOUS
 10
-11.6284780628
 20
25.4204488924
 11
-12.4244132525
 21
25.8184164873
  0
LINE
  5
416
100
AcDbEntity
  8
ASSI
100
AcDbLine
 62
7
  6
CONTINUOUS
 10
-10.3594142561
 20
24.7859169998
 11
-10.3594890383
 21
24.7859543901
  0
LINE
  5
417
100
AcDbEntity
  8
ASSI
100
AcDbLine
 62
250
  6
CONTINUOUS
 10
-11.5536853247
 20
25.4857843253
 11
-12.489153843
 21
25.953535935
  0
LINE
  5
418
100
AcDbEntity
  8
ASSI
100
AcDbLine
 62
250
  6
CONTINUOUS
 10
1.0328153804
 20
19.1925339727
 11
0.0973468621
 21
19.6602682319
  0
LINE
  5
419
100
AcDbEntity
  8
ASSI
100
AcDbLine
 62
250
  6
CONTINUOUS
 10
-10.4246525203
 20
24.9212679231
 11
-11.3601210386
 21
25.3890021822
  0
LINE
  5
41A
100
AcDbEntity
  8
ASSI
100
AcDbLine
 62
250
  6
CONTINUOUS
 10
2.1618481848
 20
18.6280349145
 11
1.2263796665
 21
19.0957518297
  0
LINE
  5
41B
100
AcDbEntity
  8
ASSI
100
AcDbLine
 62
7
  6
CONTINUOUS
 10
-0.7479597675
 20
20.2236088501
 11
-3.0386081647
 21
21.3689330486
  0
LINE
  5
41C
100
AcDbEntity
  8
ASSI
100
AcDbLine
 62
7
  6
CONTINUOUS
 10
-4.4602703688
 20
22.0797641507
 11
-6.7509187659
 21
23.2250883492
  0
LINE
  5
41D
100
AcDbEntity
  8
ASSI
100
AcDbLine
 62
250
  6
CONTINUOUS
 10
2.1618481848
 20
18.9452863709
 11
0.0973468621
 21
19.9775370323
  0
LINE
  5
41E
100
AcDbEntity
  8
ASSI
100
AcDbLine
 62
250
  6
CONTINUOUS
 10
-10.4246525203
 20
25.2385367235
 11
-12.489153843
 21
26.2707873848
  0
LINE
  5
41F
100
AcDbEntity
  8
ASSI
100
AcDbLine
 62
7
  6
CONTINUOUS
 10
-8.4870547007
 20
24.4694029413
 11
-6.8094974097
 21
23.6306242958
  0
LINE
  5
420
100
AcDbEntity
  8
ASSI
100
AcDbLine
 62
7
  6
CONTINUOUS
 10
-3.9615713011
 20
22.2066612415
 11
-3.0971868084
 21
21.7744689952
  0
LINE
  5
421
100
AcDbEntity
  8
ASSI
100
AcDbLine
 62
7
  6
CONTINUOUS
 10
-0.2492606998
 20
20.3505059409
 11
0.0777602713
 21
20.1869954553
  0
LINE
  5
422
100
AcDbEntity
  8
ASSI
100
AcDbLine
 62
7
  6
CONTINUOUS
 10
4.1351646807
 20
18.1582932506
 11
4.0994460045
 21
18.1761525888
  0
LINE
  5
423
100
AcDbEntity
  8
ASSI
100
AcDbLine
 62
250
  6
CONTINUOUS
 10
2.3361460607
 20
19.2483023255
 11
0.2704320193
 21
20.2811593462
  0
LINE
  5
424
100
AcDbEntity
  8
ASSI
100
AcDbLine
 62
250
  6
CONTINUOUS
 10
-10.2503546444
 20
25.5415526781
 11
-12.3160686858
 21
26.5744096988
  0
LINE
  5
425
100
AcDbEntity
  8
ASSI
100
AcDbLine
 62
7
  6
CONTINUOUS
 10
-8.4870547007
 20
25.1613931929
 11
-7.8189189855
 21
24.8273253353
  0
LINE
  5
426
100
AcDbEntity
  8
ASSI
100
AcDbLine
 62
7
  6
CONTINUOUS
 10
4.0994460045
 20
18.8681428403
 11
4.8296193778
 21
18.5030561536
  0
LINE
  5
427
100
AcDbEntity
  8
ASSI
100
AcDbLine
 62
7
  6
CONTINUOUS
 10
-3.0971868084
 20
22.4671622698
 11
-3.2795110707
 21
22.5583244009
  0
LINE
  5
428
100
AcDbEntity
  8
ASSI
100
AcDbLine
 62
7
  6
CONTINUOUS
 10
-3.0971868084
 20
22.5509871623
 11
-3.2813104963
 21
22.6430490063
  0
LINE
  5
429
100
AcDbEntity
  8
ASSI
100
AcDbLine
 62
250
  6
CONTINUOUS
 10
-6.7155688116
 20
24.4379808286
 11
-4.495620323
 21
23.3280065843
  0
LINE
  5
42A
100
AcDbEntity
  8
ASSI
100
AcDbLine
 62
250
  6
CONTINUOUS
 10
-0.7833097218
 20
21.4718512837
 11
-3.0032582104
 21
22.581825528
  0
LINE
  5
42B
100
AcDbEntity
  8
ASSI
100
AcDbLine
 62
250
  6
CONTINUOUS
 10
-6.5766155984
 20
24.680636136
 11
-4.3566671098
 21
23.5706618917
  0
LINE
  5
42C
100
AcDbEntity
  8
ASSI
100
AcDbLine
 62
250
  6
CONTINUOUS
 10
-0.6443565086
 20
21.7145065911
 11
-2.8643049971
 21
22.8244808354
  0
LINE
  5
42D
100
AcDbEntity
  8
ASSI
100
AcDbLine
 62
7
  6
CONTINUOUS
 10
-6.3657612811
 20
24.7943968776
 11
-4.1383210724
 21
23.6806767733
  0
LINE
  5
42E
100
AcDbEntity
  8
ASSI
100
AcDbLine
 62
7
  6
CONTINUOUS
 10
-2.6534506798
 20
22.938241577
 11
-0.4260104712
 21
21.8245214726
  0
LWPOLYLINE
  5
42F
100
AcDbEntity
  8
ASSI
100
AcDbPolyline
 62
250
  6
CONTINUOUS
 90
28
 70
0
 10
-4.495620323
 20
23.3280065843
 10
-4.493866447
 20
23.3270907126
 10
-4.492080703
 20
23.3260311739
 10
-4.4902630912
 20
23.3248279681
 10
-4.4884021774
 20
23.3234804208
 10
-4.4865093957
 20
23.3219892065
 10
-4.4846190486
 20
23.3203563482
 10
-4.4827304514
 20
23.3185764039
 10
-4.4808442888
 20
23.3166548156
 10
-4.4789969171
 20
23.3146099321
 10
-4.4771893772
 20
23.3124371562
 10
-4.4754206283
 20
23.310141085
 10
-4.4737239049
 20
23.3077538596
 10
-4.4721025446
 20
23.3052746575
 10
-4.4705532099
 20
23.3027043011
 10
-4.4690991225
 20
23.3000773985
 10
-4.4677432506
 20
23.2973952516
 10
-4.466482626
 20
23.2946565586
 10
-4.4653315662
 20
23.2918920221
 10
-4.4642915051
 20
23.2891017217
 10
-4.4633610087
 20
23.2862855778
 10
-4.462550092
 20
23.2834740551
 10
-4.4618600718
 20
23.2806671587
 10
-4.4612896313
 20
23.2778648835
 10
-4.4608448344
 20
23.2750976783
 10
-4.4605277023
 20
23.2723756928
 10
-4.4603362138
 20
23.2696887774
 10
-4.4602703688
 20
23.267036932
  0
LWPOLYLINE
  5
430
100
AcDbEntity
  8
ASSI
100
AcDbPolyline
 62
250
  6
CONTINUOUS
 90
28
 70
0
 10
-4.3566671098
 20
23.5706618917
 10
-4.3480679484
 20
23.5659779758
 10
-4.3392486161
 20
23.5606313984
 10
-4.3302337584
 20
23.5545931639
 10
-4.3210298377
 20
23.5478203955
 10
-4.311691424
 20
23.5403039282
 10
-4.30231874
 20
23.5320819153
 10
-4.2929483267
 20
23.5231502323
 10
-4.2836199274
 20
23.5135094834
 10
-4.2744359357
 20
23.5032336474
 10
-4.2654362634
 20
23.4923430381
 10
-4.2566599159
 20
23.4808598172
 10
-4.2481990431
 20
23.4688858355
 10
-4.2400954024
 20
23.4564709273
 10
-4.2323743023
 20
23.4436444765
 10
-4.2250919171
 20
23.4304932483
 10
-4.2182815532
 20
23.4170775642
 10
-4.2119611781
 20
23.4034332642
 10
-4.2061566487
 20
23.389615677
 10
-4.2008897058
 20
23.375676852
 10
-4.1961784992
 20
23.3616653435
 10
-4.1920399208
 20
23.3476321382
 10
-4.1884888774
 20
23.3336276852
 10
-4.1855382737
 20
23.3197029935
 10
-4.1831986582
 20
23.3059096753
 10
-4.1814782828
 20
23.2922979571
 10
-4.1803832387
 20
23.278916529
 10
-4.1799173384
 20
23.2658136301
  0
LWPOLYLINE
  5
431
100
AcDbEntity
  8
ASSI
100
AcDbPolyline
 62
7
  6
CONTINUOUS
 90
9
 70
0
 10
1.4263240275
 20
18.8930511713
 10
1.4032912119
 20
18.905901913
 10
1.373221859
 20
18.926378867
 10
1.3445208097
 20
18.9497910227
 10
1.317236094
 20
18.9755920671
 10
1.2917524497
 20
19.0034051308
 10
1.2682298188
 20
19.0329392333
 10
1.2464652493
 20
19.0638314511
 10
1.2263796665
 20
19.0957518297
  0
LWPOLYLINE
  5
432
100
AcDbEntity
  8
ASSI
100
AcDbPolyline
 62
250
  6
CONTINUOUS
 90
13
 70
0
 10
-8.1043500512
 20
26.618715877
 10
-8.0855963156
 20
26.6081520179
 10
-8.0672055561
 20
26.5947857401
 10
-8.0494923224
 20
26.5788456576
 10
-8.0327595748
 20
26.5606044056
 10
-8.0172935048
 20
26.5403739781
 10
-8.0033586392
 20
26.5185003929
 10
-7.9911933144
 20
26.4953577708
 10
-7.9810055992
 20
26.4713419349
 10
-7.9729697385
 20
26.4468636421
 10
-7.967223173
 20
26.4223415596
 10
-7.9638641885
 20
26.3981951044
 10
-7.9629502341
 20
26.3748372676
  0
LWPOLYLINE
  5
433
100
AcDbEntity
  8
ASSI
100
AcDbPolyline
 62
250
  6
CONTINUOUS
 90
7
 70
0
 10
0.0973468621
 20
19.9775370323
 10
0.0802747996
 20
19.9872562433
 10
0.0658547582
 20
19.9979960057
 10
0.054328024
 20
20.0095766142
 10
0.0458874703
 20
20.0218042942
 10
0.0406743303
 20
20.0344744436
 10
0.0387682274
 20
20.048217576
  0
LWPOLYLINE
  5
434
100
AcDbEntity
  8
ASSI
100
AcDbPolyline
 62
250
  6
CONTINUOUS
 90
7
 70
0
 10
-3.0386081647
 20
22.5562058299
 10
-3.0556802272
 20
22.565925041
 10
-3.0701002686
 20
22.5766648034
 10
-3.0816270028
 20
22.5882454119
 10
-3.0900675564
 20
22.6004730919
 10
-3.0952806965
 20
22.6131432413
 10
-3.0971868084
 20
22.6269165081
  0
LWPOLYLINE
  5
435
100
AcDbEntity
  8
ASSI
100
AcDbPolyline
 62
7
  6
CONTINUOUS
 90
13
 70
0
 10
3.9580461874
 20
20.0655058453
 10
3.9764974557
 20
20.0547933563
 10
3.9946398528
 20
20.04130499
 10
4.0121588254
 20
20.0252691204
 10
4.028750024
 20
20.0069572809
 10
4.0441284686
 20
19.9866821711
 10
4.0580335691
 20
19.9647924866
 10
4.070229901
 20
19.9416638594
 10
4.0805064169
 20
19.9176907077
 10
4.0886842481
 20
19.8932822899
 10
4.0946246056
 20
19.8688568005
 10
4.0982309425
 20
19.8448341493
 10
4.0994460045
 20
19.8216272359
  0
LWPOLYLINE
  5
436
100
AcDbEntity
  8
RACCORDO
100
AcDbPolyline
 62
250
  6
CONTINUOUS
 90
72
 70
0
 10
20.5047114283
 20
22.0418330649
 10
20.5045116616
 20
22.0608746427
 10
20.5041422358
 20
22.0799950574
 10
20.5036031836
 20
22.0991920261
 10
20.5028945689
 20
22.1184632675
 10
20.5020164873
 20
22.1378065016
 10
20.5009690377
 20
22.1572194283
 10
20.4997523395
 20
22.176699732
 10
20.4983665482
 20
22.1962450975
 10
20.4968118247
 20
22.2158531957
 10
20.4950883485
 20
22.2355216933
 10
20.4931963339
 20
22.2552482568
 10
20.4911360021
 20
22.2750305379
 10
20.4889075935
 20
22.2948661808
 10
20.4865113815
 20
22.3147528318
 10
20.4839476478
 20
22.3346881241
 10
20.4812166931
 20
22.3546696835
 10
20.4783188496
 20
22.3746951365
 10
20.4752544594
 20
22.3947620992
 10
20.4720238832
 20
22.414868183
 10
20.4686275115
 20
22.4350109999
 10
20.4650657461
 20
22.4551881524
 10
20.4613390075
 20
22.475397239
 10
20.4574477439
 20
22.4956358596
 10
20.4533924164
 20
22.515901606
 10
20.4491735048
 20
22.536192066
 10
20.4447915148
 20
22.5565048289
 10
20.4402469664
 20
22.5768374779
 10
20.4355403982
 20
22.5971875932
 10
20.4306723726
 20
22.6175527562
 10
20.4256434682
 20
22.637930544
 10
20.4204542816
 20
22.6583185319
 10
20.4151054315
 20
22.6787142964
 10
20.4095975542
 20
22.6991154113
 10
20.4039313038
 20
22.7195194493
 10
20.3981073546
 20
22.7399239846
 10
20.3921263999
 20
22.7603265902
 10
20.3859891506
 20
22.7807248389
 10
20.3796963359
 20
22.8011163051
 10
20.3732487054
 20
22.8214985636
 10
20.3666470262
 20
22.8418691899
 10
20.3598920814
 20
22.8622257609
 10
20.3529846762
 20
22.8825658561
 10
20.3459256329
 20
22.9028870561
 10
20.338715788
 20
22.9231869429
 10
20.3313560014
 20
22.9434631029
 10
20.3238471495
 20
22.9637131248
 10
20.3161901214
 20
22.9839345988
 10
20.3083858305
 20
23.0041251205
 10
20.3004352068
 20
23.0242822895
 10
20.2923391904
 20
23.0444037066
 10
20.2840987475
 20
23.0644869803
 10
20.2757148605
 20
23.0845297225
 10
20.2671885203
 20
23.1045295465
 10
20.2585207447
 20
23.1244840756
 10
20.2497125676
 20
23.1443909372
 10
20.2407650296
 20
23.1642477593
 10
20.2316791996
 20
23.1840521816
 10
20.2224561613
 20
23.2038018504
 10
20.2130970029
 20
23.2234944139
 10
20.2036028422
 20
23.2431275319
 10
20.1939748125
 20
23.2626988709
 10
20.1842140487
 20
23.2822061001
 10
20.1743217165
 20
23.3016469033
 10
20.1642989975
 20
23.3210189685
 10
20.1541470751
 20
23.3403199826
 10
20.1438671641
 20
23.3595476491
 10
20.1334604909
 20
23.3786996869
 10
20.1229282782
 20
23.397773819
 10
20.1122717776
 20
23.4167677787
 10
20.1014922696
 20
23.4356793102
 10
19.7476934664
 20
24.0459170026
  0
LWPOLYLINE
  5
437
100
AcDbEntity
  8
0
100
AcDbPolyline
 62
250
  6
CONTINUOUS
 90
72
 70
0
 10
20.5047114283
 20
22.0418330649
 10
20.5045116616
 20
22.0608746427
 10
20.5041422358
 20
22.0799950574
 10
20.5036031836
 20
22.0991920261
 10
20.5028945689
 20
22.1184632675
 10
20.5020164873
 20
22.1378065016
 10
20.5009690377
 20
22.1572194283
 10
20.4997523395
 20
22.176699732
 10
20.4983665482
 20
22.1962450975
 10
20.4968118247
 20
22.2158531957
 10
20.4950883485
 20
22.2355216933
 10
20.4931963339
 20
22.2552482568
 10
20.4911360021
 20
22.2750305379
 10
20.4889075935
 20
22.2948661808
 10
20.4865113815
 20
22.3147528318
 10
20.4839476478
 20
22.3346881241
 10
20.4812166931
 20
22.3546696835
 10
20.4783188496
 20
22.3746951365
 10
20.4752544594
 20
22.3947620992
 10
20.4720238832
 20
22.414868183
 10
20.4686275115
 20
22.4350109999
 10
20.4650657461
 20
22.4551881524
 10
20.4613390075
 20
22.475397239
 10
20.4574477439
 20
22.4956358596
 10
20.4533924164
 20
22.515901606
 10
20.4491735048
 20
22.536192066
 10
20.4447915148
 20
22.5565048289
 10
20.4402469664
 20
22.5768374779
 10
20.4355403982
 20
22.5971875932
 10
20.4306723726
 20
22.6175527562
 10
20.4256434682
 20
22.637930544
 10
20.4204542816
 20
22.6583185319
 10
20.4151054315
 20
22.6787142964
 10
20.4095975542
 20
22.6991154113
 10
20.4039313038
 20
22.7195194493
 10
20.3981073546
 20
22.7399239846
 10
20.3921263999
 20
22.7603265902
 10
20.3859891506
 20
22.7807248389
 10
20.3796963359
 20
22.8011163051
 10
20.3732487054
 20
22.8214985636
 10
20.3666470262
 20
22.8418691899
 10
20.3598920814
 20
22.8622257609
 10
20.3529846762
 20
22.8825658561
 10
20.3459256329
 20
22.9028870561
 10
20.338715788
 20
22.9231869429
 10
20.3313560014
 20
22.9434631029
 10
20.3238471495
 20
22.9637131248
 10
20.3161901214
 20
22.9839345988
 10
20.3083858305
 20
23.0041251205
 10
20.3004352068
 20
23.0242822895
 10
20.2923391904
 20
23.0444037066
 10
20.2840987475
 20
23.0644869803
 10
20.2757148605
 20
23.0845297225
 10
20.2671885203
 20
23.1045295465
 10
20.2585207447
 20
23.1244840756
 10
20.2497125676
 20
23.1443909372
 10
20.2407650296
 20
23.1642477593
 10
20.2316791996
 20
23.1840521816
 10
20.2224561613
 20
23.2038018504
 10
20.2130970029
 20
23.2234944139
 10
20.2036028422
 20
23.2431275319
 10
20.1939748125
 20
23.2626988709
 10
20.1842140487
 20
23.2822061001
 10
20.1743217165
 20
23.3016469033
 10
20.1642989975
 20
23.3210189685
 10
20.1541470751
 20
23.3403199826
 10
20.1438671641
 20
23.3595476491
 10
20.1334604909
 20
23.3786996869
 10
20.1229282782
 20
23.397773819
 10
20.1122717776
 20
23.4167677787
 10
20.1014922696
 20
23.4356793102
 10
19.7476934664
 20
24.0459170026
  0
LWPOLYLINE
  5
438
100
AcDbEntity
  8
RACCORDO
100
AcDbPolyline
 62
7
  6
CONTINUOUS
 90
61
 70
0
 10
20.7854017176
 20
22.3702017301
 10
20.7853109741
 20
22.3895623579
 10
20.7850086411
 20
22.4105488319
 10
20.7844947427
 20
22.4315653937
 10
20.7837697854
 20
22.452613463
 10
20.7828344015
 20
22.4736897056
 10
20.781689567
 20
22.4947857183
 10
20.7803360116
 20
22.5159006351
 10
20.7787744189
 20
22.5370335476
 10
20.7770061076
 20
22.5581758509
 10
20.7750319074
 20
22.5793267775
 10
20.7728526007
 20
22.6004853995
 10
20.7704698845
 20
22.6216427823
 10
20.767884695
 20
22.6427980869
 10
20.7650979111
 20
22.6639504854
 10
20.7621115855
 20
22.6850909574
 10
20.7589267452
 20
22.7062186748
 10
20.7555443787
 20
22.7273328407
 10
20.7519668718
 20
22.7484243966
 10
20.7481954403
 20
22.7694920218
 10
20.7442310917
 20
22.7905354491
 10
20.7400762258
 20
22.811547119
 10
20.7357322336
 20
22.8325252659
 10
20.731200063
 20
22.8534700987
 10
20.7264816952
 20
22.8743769225
 10
20.7215783247
 20
22.8952448334
 10
20.7164910227
 20
22.9160731844
 10
20.7112217952
 20
22.9368575596
 10
20.7057717916
 20
22.9575970895
 10
20.7001420558
 20
22.9782910931
 10
20.694334619
 20
22.9989353429
 10
20.6883506928
 20
23.0195286068
 10
20.6821911985
 20
23.0400705626
 10
20.6758578211
 20
23.0605582595
 10
20.6693516309
 20
23.0809907343
 10
20.6626735659
 20
23.1013673728
 10
20.6558251443
 20
23.1216856623
 10
20.6488073326
 20
23.1419447684
 10
20.6416210326
 20
23.162143914
 10
20.6342677324
 20
23.1822806014
 10
20.6267484148
 20
23.2023537727
 10
20.6190638286
 20
23.2223628369
 10
20.6112151939
 20
23.2423059406
 10
20.6032033855
 20
23.2621820564
 10
20.5950290929
 20
23.2819905102
 10
20.586693276
 20
23.3017299232
 10
20.5781966417
 20
23.3213994036
 10
20.5695398697
 20
23.3409980769
 10
20.5607238346
 20
23.360524532
 10
20.5517491536
 20
23.3799778649
 10
20.5426164327
 20
23.3993571422
 10
20.5333264915
 20
23.4186608676
 10
20.5238798994
 20
23.4378880579
 10
20.5142771378
 20
23.4570378009
 10
20.5045189058
 20
23.4761086898
 10
20.494605692
 20
23.4950996974
 10
20.4845379157
 20
23.5140098138
 10
20.474316135
 20
23.5328377371
 10
20.4639407245
 20
23.5515824189
 10
20.4534120497
 20
23.5702427802
 10
20.4434342897
 20
23.5876045268
  0
LWPOLYLINE
  5
439
100
AcDbEntity
  8
0
100
AcDbPolyline
 62
7
  6
CONTINUOUS
 90
61
 70
0
 10
20.7854017176
 20
22.3702017301
 10
20.7853109741
 20
22.3895623579
 10
20.7850086411
 20
22.4105488319
 10
20.7844947427
 20
22.4315653937
 10
20.7837697854
 20
22.452613463
 10
20.7828344015
 20
22.4736897056
 10
20.781689567
 20
22.4947857183
 10
20.7803360116
 20
22.5159006351
 10
20.7787744189
 20
22.5370335476
 10
20.7770061076
 20
22.5581758509
 10
20.7750319074
 20
22.5793267775
 10
20.7728526007
 20
22.6004853995
 10
20.7704698845
 20
22.6216427823
 10
20.767884695
 20
22.6427980869
 10
20.7650979111
 20
22.6639504854
 10
20.7621115855
 20
22.6850909574
 10
20.7589267452
 20
22.7062186748
 10
20.7555443787
 20
22.7273328407
 10
20.7519668718
 20
22.7484243966
 10
20.7481954403
 20
22.7694920218
 10
20.7442310917
 20
22.7905354491
 10
20.7400762258
 20
22.811547119
 10
20.7357322336
 20
22.8325252659
 10
20.731200063
 20
22.8534700987
 10
20.7264816952
 20
22.8743769225
 10
20.7215783247
 20
22.8952448334
 10
20.7164910227
 20
22.9160731844
 10
20.7112217952
 20
22.9368575596
 10
20.7057717916
 20
22.9575970895
 10
20.7001420558
 20
22.9782910931
 10
20.694334619
 20
22.9989353429
 10
20.6883506928
 20
23.0195286068
 10
20.6821911985
 20
23.0400705626
 10
20.6758578211
 20
23.0605582595
 10
20.6693516309
 20
23.0809907343
 10
20.6626735659
 20
23.1013673728
 10
20.6558251443
 20
23.1216856623
 10
20.6488073326
 20
23.1419447684
 10
20.6416210326
 20
23.162143914
 10
20.6342677324
 20
23.1822806014
 10
20.6267484148
 20
23.2023537727
 10
20.6190638286
 20
23.2223628369
 10
20.6112151939
 20
23.2423059406
 10
20.6032033855
 20
23.2621820564
 10
20.5950290929
 20
23.2819905102
 10
20.586693276
 20
23.3017299232
 10
20.5781966417
 20
23.3213994036
 10
20.5695398697
 20
23.3409980769
 10
20.5607238346
 20
23.360524532
 10
20.5517491536
 20
23.3799778649
 10
20.5426164327
 20
23.3993571422
 10
20.5333264915
 20
23.4186608676
 10
20.5238798994
 20
23.4378880579
 10
20.5142771378
 20
23.4570378009
 10
20.5045189058
 20
23.4761086898
 10
20.494605692
 20
23.4950996974
 10
20.4845379157
 20
23.5140098138
 10
20.474316135
 20
23.5328377371
 10
20.4639407245
 20
23.5515824189
 10
20.4534120497
 20
23.5702427802
 10
20.4434342897
 20
23.5876045268
  0
LINE
  5
43A
100
AcDbEntity
  8
RACCORDO
100
AcDbLine
 62
250
  6
CONTINUOUS
 10
20.504741518
 20
-8.3222076535
 11
20.5047114283
 21
22.0418330649
  0
LINE
  5
43B
100
AcDbEntity
  8
0
100
AcDbLine
 62
250
  6
CONTINUOUS
 10
20.504741518
 20
-8.3222076535
 11
20.5047114283
 21
22.0418330649
  0
LINE
  5
43C
100
AcDbEntity
  8
RACCORDO
100
AcDbLine
 62
7
  6
CONTINUOUS
 10
20.7854017177
 20
-7.9748784683
 11
20.7854017177
 21
22.3702017776
  0
LINE
  5
43D
100
AcDbEntity
  8
0
100
AcDbLine
 62
7
  6
CONTINUOUS
 10
20.7854017177
 20
-7.9748784683
 11
20.7853928225
 21
22.3680928443
  0
LWPOLYLINE
  5
43E
100
AcDbEntity
  8
ASSI
100
AcDbPolyline
 62
7
  6
CONTINUOUS
 90
10
 70
0
 10
4.5862169936
 20
-22.0843836387
 10
4.6084566326
 20
-22.0690222582
 10
4.6293025925
 20
-22.0510185034
 10
4.6484411287
 20
-22.0305751524
 10
4.6651636978
 20
-22.0085660246
 10
4.6797722014
 20
-21.984726436
 10
4.6921998316
 20
-21.9589677542
 10
4.7018073737
 20
-21.9325681656
 10
4.7085990803
 20
-21.9058489257
 10
4.7126884518
 20
-21.8780701002
  0
LWPOLYLINE
  5
43F
100
AcDbEntity
  8
ASSI
100
AcDbPolyline
 62
7
  6
CONTINUOUS
 90
5
 70
0
 10
4.0495496299
 20
-22.3743462842
 10
4.0580335691
 20
-22.3690129632
 10
4.0702275813
 20
-22.3580795081
 10
4.0805021159
 20
-22.3443818816
 10
4.0886842481
 20
-22.3281534456
  0
LWPOLYLINE
  5
440
100
AcDbEntity
  8
ASSI
100
AcDbPolyline
 62
250
  6
CONTINUOUS
 90
7
 70
0
 10
4.657682415
 20
-21.583583163
 10
4.6744126599
 20
-21.5737164171
 10
4.6884556498
 20
-21.5628524218
 10
4.6995764102
 20
-21.5511729623
 10
4.7075888637
 20
-21.5388734685
 10
4.7123589439
 20
-21.5261597447
 10
4.7138144549
 20
-21.5141172562
  0
LWPOLYLINE
  5
441
100
AcDbEntity
  8
ASSI
100
AcDbPolyline
 62
250
  6
CONTINUOUS
 90
7
 70
0
 10
4.657682415
 20
-21.9235267579
 10
4.6744126301
 20
-21.9136600528
 10
4.6884556059
 20
-21.9027960939
 10
4.6995763655
 20
-21.8911166646
 10
4.7075888287
 20
-21.878817193
 10
4.7123589256
 20
-21.8661034823
 10
4.7138144549
 20
-21.8540609208
  0
LWPOLYLINE
  5
442
100
AcDbEntity
  8
ASSI
100
AcDbPolyline
 62
250
  6
CONTINUOUS
 90
8
 70
0
 10
2.4224699496
 20
-23.1259449061
 10
2.4350938594
 20
-23.1185402879
 10
2.4473188757
 20
-23.1075928364
 10
2.4576846429
 20
-23.0938537416
 10
2.466013871
 20
-23.0775579932
 10
2.4721641015
 20
-23.0589843087
 10
2.4760301443
 20
-23.0384503671
 10
2.4775458778
 20
-23.0163073743
  0
LINE
  5
443
100
AcDbEntity
  8
ASSI
100
AcDbLine
 62
7
  6
CONTINUOUS
 10
4.5745475949
 20
-22.0910975248
 11
4.5862169936
 21
-22.0843836387
  0
LWPOLYLINE
  5
444
100
AcDbEntity
  8
ASSI
100
AcDbPolyline
 62
250
  6
CONTINUOUS
 90
28
 70
0
 10
4.623550471
 20
-21.9844937644
 10
4.6253468898
 20
-21.9834776841
 10
4.6271609557
 20
-21.98232012
 10
4.6289926686
 20
-21.9810210718
 10
4.6308529162
 20
-21.9795777123
 10
4.6327308108
 20
-21.9779928689
 10
4.6345936898
 20
-21.9762750238
 10
4.6364416389
 20
-21.9744192387
 10
4.6382745723
 20
-21.9724304519
 10
4.6400595701
 20
-21.9703319618
 10
4.641794781
 20
-21.9681206922
 10
4.6434820563
 20
-21.9657997192
 10
4.6450940305
 20
-21.9634015693
 10
4.6466273926
 20
-21.9609267928
 10
4.6480854536
 20
-21.9583748393
 10
4.6494507804
 20
-21.9557765845
 10
4.6507211628
 20
-21.9531334381
 10
4.6518988111
 20
-21.9504439903
 10
4.6529729233
 20
-21.9477348869
 10
4.6539426166
 20
-21.9450059184
 10
4.6548087739
 20
-21.9422572943
 10
4.6555632417
 20
-21.9395162891
 10
4.6562050003
 20
-21.9367830333
 10
4.6567350696
 20
-21.9340573964
 10
4.6571483551
 20
-21.9313662621
 10
4.6574431588
 20
-21.9287185915
 10
4.6576211787
 20
-21.9261054234
 10
4.657682415
 20
-21.9235267579
  0
LINE
  5
445
100
AcDbEntity
  8
ASSI
100
AcDbLine
 62
250
  6
CONTINUOUS
 10
4.4883547341
 20
-20.3832931136
 11
5.1831189205
 21
-20.008451896
  0
LINE
  5
446
100
AcDbEntity
  8
ASSI
100
AcDbLine
 62
7
  6
CONTINUOUS
 10
4.3626146461
 20
-20.6515476283
 11
5.0584564917
 21
-20.2761249888
  0
LINE
  5
447
100
AcDbEntity
  8
ASSI
100
AcDbLine
 62
250
  6
CONTINUOUS
 10
4.0994460045
 20
-22.2672601479
 11
4.623550471
 21
-21.9844937644
  0
LINE
  5
448
100
AcDbEntity
  8
ASSI
100
AcDbLine
 62
7
  6
CONTINUOUS
 10
4.0495930642
 20
-22.3743228939
 11
4.5746472751
 21
-22.0910441015
  0
LINE
  5
449
100
AcDbEntity
  8
ASSI
100
AcDbLine
 62
7
  6
CONTINUOUS
 10
4.0453831933
 20
-22.3764297886
 11
4.0495496299
 21
-22.3743462842
  0
LWPOLYLINE
  5
44A
100
AcDbEntity
  8
RACCORDO
100
AcDbPolyline
 62
250
  6
CONTINUOUS
 90
10
 70
0
 10
-2.484675522
 20
-23.3896708221
 10
-2.4528643284
 20
-23.374250069
 10
-2.4253389488
 20
-23.3546523349
 10
-2.4004095917
 20
-23.3303224496
 10
-2.3783491323
 20
-23.3015267862
 10
-2.3593990276
 20
-23.2685805878
 10
-2.3437666861
 20
-23.2318445212
 10
-2.3316232014
 20
-23.1917207379
 10
-2.3231014774
 20
-23.1486484747
 10
-2.3182947698
 20
-23.1030992352
  0
LINE
  5
44B
100
AcDbEntity
  8
ASSI
100
AcDbLine
 62
7
  6
CONTINUOUS
 10
4.3625795441
 20
-20.6515665399
 11
4.3448387273
 21
-20.659985262
  0
LINE
  5
44C
100
AcDbEntity
  8
ASSI
100
AcDbLine
 62
250
  6
CONTINUOUS
 10
4.0994460045
 20
-22.2672601479
 11
2.4775458778
 21
-23.0163073743
  0
LINE
  5
44D
100
AcDbEntity
  8
ASSI
100
AcDbLine
 62
250
  6
CONTINUOUS
 10
3.3999201983
 20
-20.8315901616
 11
4.4883547341
 21
-20.3832269601
  0
LINE
  5
44E
100
AcDbEntity
  8
ASSI
100
AcDbLine
 62
7
  6
CONTINUOUS
 10
3.2575419761
 20
-21.1078796225
 11
4.3447909822
 21
-20.660004781
  0
LINE
  5
44F
100
AcDbEntity
  8
RACCORDO
100
AcDbLine
 62
250
  6
CONTINUOUS
 10
1.0371345926
 20
-21.8263897059
 11
-2.3182947698
 21
-23.1030992352
  0
LINE
  5
450
100
AcDbEntity
  8
RACCORDO
100
AcDbLine
 62
7
  6
CONTINUOUS
 10
-2.4848695793
 20
-23.3897445443
 11
0.8744801629
 21
-22.1115434619
  0
LWPOLYLINE
  5
451
100
AcDbEntity
  8
RACCORDO
100
AcDbPolyline
 62
250
  6
CONTINUOUS
 90
22
 70
0
 10
-2.3182947698
 20
-23.1030992352
 10
-2.3546982747
 20
-23.1153628259
 10
-2.3904048363
 20
-23.1243186536
 10
-2.4254144546
 20
-23.1299667184
 10
-2.4599162006
 20
-23.1323083442
 10
-2.4937210032
 20
-23.1313422071
 10
-2.5262616493
 20
-23.1270643349
 10
-2.5575021473
 20
-23.1194172755
 10
-2.5874784888
 20
-23.1084584809
 10
-2.6157314355
 20
-23.0943563356
 10
-2.6422343448
 20
-23.0770607215
 10
-2.6670138593
 20
-23.0566217566
 10
-2.6896906688
 20
-23.0333581785
 10
-2.7102302576
 20
-23.007227599
 10
-2.7286671413
 20
-22.9782724064
 10
-2.7447255563
 20
-22.946938503
 10
-2.7583694021
 20
-22.9131703814
 10
-2.7696347792
 20
-22.8770235491
 10
-2.7783542253
 20
-22.839110431
 10
-2.7844719196
 20
-22.7996351689
 10
-2.7880436829
 20
-22.758393621
 10
-2.7890695152
 20
-22.7153857873
  0
LWPOLYLINE
  5
452
100
AcDbEntity
  8
ASSI
100
AcDbPolyline
 62
7
  6
CONTINUOUS
 90
4
 70
0
 10
1.7825701275
 20
21.1400634693
 10
1.8000805481
 20
21.1385846423
 10
1.8182200521
 20
21.1339320581
 10
1.8366827655
 20
21.1261875562
  0
LINE
  5
453
100
AcDbEntity
  8
ASSI
100
AcDbLine
 62
7
  6
CONTINUOUS
 10
-10.466953688
 20
24.3986922632
 11
-11.0096797507
 21
24.5138215807
  0
LWPOLYLINE
  5
454
100
AcDbEntity
  8
ASSI
100
AcDbPolyline
 62
250
  6
CONTINUOUS
 90
19
 70
0
 10
-10.1263132556
 20
24.8912291735
 10
-10.1278542927
 20
24.8916013651
 10
-10.1293701868
 20
24.8921185644
 10
-10.130860938
 20
24.8927807712
 10
-10.1323387763
 20
24.8935841122
 10
-10.1337914716
 20
24.8945324609
 10
-10.1351823338
 20
24.8956374375
 10
-10.136510206
 20
24.8969043952
 10
-10.137776245
 20
24.8983279809
 10
-10.138947231
 20
24.8999037558
 10
-10.1400205406
 20
24.9016371916
 10
-10.1409987972
 20
24.9035228165
 10
-10.1418566511
 20
24.905539776
 10
-10.1425902871
 20
24.9076927196
 10
-10.1432035204
 20
24.9099769979
 10
-10.1436824477
 20
24.9123578074
 10
-10.1440224345
 20
24.9148235473
 10
-10.1442281152
 20
24.9173858186
 10
-10.14429949
 20
24.9200446212
  0
LWPOLYLINE
  5
455
100
AcDbEntity
  8
ASSI
100
AcDbPolyline
 62
7
  6
CONTINUOUS
 90
10
 70
0
 10
2.4768485284
 20
21.3876452814
 10
2.4558062318
 20
21.3954216521
 10
2.4339313094
 20
21.4010444214
 10
2.4114508497
 20
21.4044191475
 10
2.3885198373
 20
21.4054772968
 10
2.3653802005
 20
21.4041598941
 10
2.34235342
 20
21.4004547401
 10
2.3196594835
 20
21.3943815995
 10
2.2975016939
 20
21.3859807894
 10
2.2933252984
 20
21.3841056088
  0
LWPOLYLINE
  5
456
100
AcDbEntity
  8
ASSI
100
AcDbPolyline
 62
7
  6
CONTINUOUS
 90
6
 70
0
 10
-10.7498179396
 20
27.4194379088
 10
-10.768269208
 20
27.4271881332
 10
-10.7864116051
 20
27.4318392709
 10
-10.8039305776
 20
27.4333138219
 10
-10.8205217762
 20
27.43158888
 10
-10.8371569796
 20
27.4261277402
  0
LWPOLYLINE
  5
457
100
AcDbEntity
  8
ASSI
100
AcDbPolyline
 62
250
  6
CONTINUOUS
 90
6
 70
0
 10
2.3794088282
 20
21.3768364373
 10
2.361256896
 20
21.3847254156
 10
2.3433732138
 20
21.3894963683
 10
2.326063658
 20
21.3910676946
 10
2.3096242851
 20
21.3894125191
 10
2.2933252771
 20
21.3841056553
  0
LWPOLYLINE
  5
458
100
AcDbEntity
  8
ASSI
100
AcDbPolyline
 62
250
  6
CONTINUOUS
 90
14
 70
0
 10
-2.8643049971
 20
22.8244808354
 10
-2.8730498218
 20
22.8284755366
 10
-2.8820223812
 20
22.8320407995
 10
-2.8911964045
 20
22.8351202229
 10
-2.9005635977
 20
22.8376615023
 10
-2.9100670749
 20
22.8395974628
 10
-2.9196042766
 20
22.8408623125
 10
-2.9291364203
 20
22.8414118296
 10
-2.9386211503
 20
22.8412030453
 10
-2.9479537191
 20
22.8402035553
 10
-2.9570930671
 20
22.8383898294
 10
-2.9659959679
 20
22.8357413285
 10
-2.9745644806
 20
22.8322656157
 10
-2.9796564734
 20
22.8297155567
  0
LINE
  5
459
100
AcDbEntity
  8
ASSI
100
AcDbLine
 62
7
  6
CONTINUOUS
 10
-10.0977181132
 20
27.6753486663
 11
-10.1120003203
 21
27.6818860197
  0
LINE
  5
45A
100
AcDbEntity
  8
ASSI
100
AcDbLine
 62
7
  6
CONTINUOUS
 10
2.4887711058
 20
21.3821039542
 11
2.4768485284
 21
21.3876452814
  0
LWPOLYLINE
  5
45B
100
AcDbEntity
  8
ASSI
100
AcDbPolyline
 62
250
  6
CONTINUOUS
 90
13
 70
0
 10
4.5904833913
 20
20.331249098
 10
4.5872888276
 20
20.3327709267
 10
4.578953532
 20
20.3360772339
 10
4.5702800739
 20
20.3385957861
 10
4.5612985026
 20
20.3403194206
 10
4.5520407451
 20
20.3412435104
 10
4.5425356377
 20
20.3413664104
 10
4.5328161276
 20
20.3406883619
 10
4.5229157201
 20
20.3392123415
 10
4.5128646807
 20
20.3369432848
 10
4.5026961965
 20
20.333888425
 10
4.4924464544
 20
20.3300581956
 10
4.4821506539
 20
20.3254655244
  0
LWPOLYLINE
  5
45C
100
AcDbEntity
  8
ASSI
100
AcDbPolyline
 62
250
  6
CONTINUOUS
 90
13
 70
0
 10
2.4885110607
 20
21.3822352633
 10
2.4872401669
 20
21.3828589261
 10
2.4787641849
 20
21.3864433601
 10
2.4699209198
 20
21.3892134106
 10
2.4607437703
 20
21.3911586941
 10
2.4512635715
 20
21.3922727548
 10
2.4415150691
 20
21.3925512809
 10
2.4315325983
 20
21.3919932467
 10
2.4213521527
 20
21.390600633
 10
2.4110123754
 20
21.3883787612
 10
2.4005509961
 20
21.3853362278
 10
2.3900045851
 20
21.3814843419
 10
2.3794107537
 20
21.3768373523
  0
LINE
  5
45D
100
AcDbEntity
  8
ASSI
100
AcDbLine
 62
7
  6
CONTINUOUS
 10
-10.7498179396
 20
27.4194379088
 11
-8.6284545177
 21
26.3587561978
  0
LINE
  5
45E
100
AcDbEntity
  8
ASSI
100
AcDbLine
 62
7
  6
CONTINUOUS
 10
1.8366827655
 20
21.1261875562
 11
3.9580461874
 21
20.0655058453
  0
LINE
  5
45F
100
AcDbEntity
  8
ASSI
100
AcDbLine
 62
7
  6
CONTINUOUS
 10
-0.0102188108
 20
22.2672363475
 11
-1.9770228476
 21
23.2506383659
  0
LINE
  5
460
100
AcDbEntity
  8
ASSI
100
AcDbLine
 62
7
  6
CONTINUOUS
 10
-3.4851023079
 20
24.0046780961
 11
-5.4519063447
 21
24.9880801145
  0
LINE
  5
461
100
AcDbEntity
  8
ASSI
100
AcDbLine
 62
250
  6
CONTINUOUS
 10
4.4821506539
 20
20.3254655244
 11
2.3794107806
 21
21.3768373389
  0
LINE
  5
462
100
AcDbEntity
  8
ASSI
100
AcDbLine
 62
250
  6
CONTINUOUS
 10
-8.1043500512
 20
26.618715877
 11
-10.2070918769
 21
27.6700867898
  0
LINE
  5
463
100
AcDbEntity
  8
RACCORDO
100
AcDbLine
 62
7
  6
CONTINUOUS
 10
1.8583794041
 20
23.223094735
 11
-0.7795907857
 21
24.5420798299
  0
LINE
  5
464
100
AcDbEntity
  8
0
100
AcDbLine
 62
7
  6
CONTINUOUS
 10
1.8583794041
 20
23.223094735
 11
-0.7795907857
 21
24.5420798299
  0
LINE
  5
465
100
AcDbEntity
  8
ASSI
100
AcDbLine
 62
7
  6
CONTINUOUS
 10
-10.0979943995
 20
27.6754879936
 11
-7.9959351771
 21
26.6244583388
  0
LINE
  5
466
100
AcDbEntity
  8
ASSI
100
AcDbLine
 62
7
  6
CONTINUOUS
 10
4.5905950142
 20
20.3311932027
 11
2.4885054059
 21
21.3822380909
  0
LWPOLYLINE
  5
467
100
AcDbEntity
  8
ASSI
100
AcDbPolyline
 62
250
  6
CONTINUOUS
 90
13
 70
0
 10
-2.1368261143
 20
26.573268264
 10
-2.1141720748
 20
26.5601149923
 10
-2.0919435552
 20
26.5435724239
 10
-2.0705083171
 20
26.5239141051
 10
-2.0502210415
 20
26.5014651713
 10
-2.0314173973
 20
26.4765969064
 10
-2.0144085023
 20
26.4497205811
 10
-1.9994758301
 20
26.421280712
 10
-1.986866607
 20
26.3917478664
 10
-1.9767896295
 20
26.3616108111
 10
-1.9694117366
 20
26.3313682543
 10
-1.964855085
 20
26.3015205808
 10
-1.9631951713
 20
26.2725617167
  0
LINE
  5
468
100
AcDbEntity
  8
DRAFT
100
AcDbLine
 62
7
  6
CONTINUOUS
 10
12.013504555
 20
20.2890417963
 11
11.260810471
 21
21.5872470573
  0
LINE
  5
469
100
AcDbEntity
  8
0
100
AcDbLine
 62
7
  6
CONTINUOUS
 10
12.013504555
 20
20.2890417963
 11
11.260810471
 21
21.5872470573
  0
LINE
  5
46A
100
AcDbEntity
  8
ASSI
100
AcDbLine
 62
7
  6
CONTINUOUS
 10
2.422237651
 20
-23.1260517059
 11
4.0453273875
 21
-22.3764555616
  0
LWPOLYLINE
  5
46B
100
AcDbEntity
  8
ASSI
100
AcDbPolyline
 62
250
  6
CONTINUOUS
 90
28
 70
0
 10
2.4775458778
 20
-23.0163073743
 10
2.4757816864
 20
-23.0170839032
 10
2.4739873181
 20
-23.0177495469
 10
2.472162773
 20
-23.0183043056
 10
2.4702967397
 20
-23.0187583384
 10
2.4684005295
 20
-23.0191014861
 10
2.4665080762
 20
-23.0193032712
 10
2.4646187602
 20
-23.0193591064
 10
2.4627332011
 20
-23.0192735789
 10
2.4608871922
 20
-23.0190299723
 10
2.4590817737
 20
-23.0186228972
 10
2.4573159054
 20
-23.018057743
 10
2.4556222587
 20
-23.0173339613
 10
2.4540040859
 20
-23.0164476099
 10
2.4524581347
 20
-23.015402631
 10
2.4510073205
 20
-23.0142103023
 10
2.4496545357
 20
-23.0128690261
 10
2.4483968879
 20
-23.0113804001
 10
2.4472486155
 20
-23.0097604952
 10
2.4462111486
 20
-23.0080079836
 10
2.4452830571
 20
-23.0061241929
 10
2.4444742888
 20
-23.0041291776
 10
2.4437861649
 20
-23.0020216522
 10
2.4432173641
 20
-22.9998029022
 10
2.4427738704
 20
-22.997496838
 10
2.4424576783
 20
-22.9951114299
 10
2.4422667932
 20
-22.9926387076
 10
2.4422012152
 20
-22.9900786711
  0
LWPOLYLINE
  5
46C
100
AcDbEntity
  8
ASSI
100
AcDbPolyline
 62
7
  6
CONTINUOUS
 90
3
 70
0
 10
6.7871791861
 20
24.5597729904
 10
6.729655196
 20
24.5451637823
 10
6.6718270211
 20
24.5250931561
  0
LWPOLYLINE
  5
46D
100
AcDbEntity
  8
ASSI
100
AcDbPolyline
 62
7
  6
CONTINUOUS
 90
5
 70
0
 10
3.3811801893
 20
23.9033061891
 10
3.3399570467
 20
23.9011953578
 10
3.2988532558
 20
23.8956451428
 10
3.259720099
 20
23.886857333
 10
3.2229549825
 20
23.8750584678
  0
LWPOLYLINE
  5
46E
100
AcDbEntity
  8
ASSI
100
AcDbPolyline
 62
7
  6
CONTINUOUS
 90
4
 70
0
 10
-2.7210914773
 20
22.9555864684
 10
-2.6992034516
 20
22.9537379346
 10
-2.6765290716
 20
22.9479222044
 10
-2.6534506798
 20
22.938241577
  0
LWPOLYLINE
  5
46F
100
AcDbEntity
  8
ASSI
100
AcDbPolyline
 62
7
  6
CONTINUOUS
 90
4
 70
0
 10
-6.4334020785
 20
24.811741769
 10
-6.4115140528
 20
24.8098932353
 10
-6.3888396729
 20
24.804077505
 10
-6.3657612811
 20
24.7943968776
  0
LWPOLYLINE
  5
470
100
AcDbEntity
  8
ASSI
100
AcDbPolyline
 62
250
  6
CONTINUOUS
 90
12
 70
0
 10
-10.3067476999
 20
24.7675167376
 10
-10.2976495346
 20
24.7659529093
 10
-10.2775082612
 20
24.7649946126
 10
-10.2571594845
 20
24.7673895253
 10
-10.2369475268
 20
24.7730971209
 10
-10.2172143961
 20
24.7820208173
 10
-10.1982939969
 20
24.7940096127
 10
-10.180506478
 20
24.8088606423
 10
-10.1641528182
 20
24.8263226113
 10
-10.1495097352
 20
24.8461000455
 10
-10.1368250024
 20
24.8678582899
 10
-10.1263132556
 20
24.8912291735
  0
LINE
  5
471
100
AcDbEntity
  8
ASSI
100
AcDbLine
 62
250
  6
CONTINUOUS
 10
-9.3895054514
 20
24.7349289965
 11
-10.1263132556
 21
24.8912291735
  0
LINE
  5
472
100
AcDbEntity
  8
ASSI
100
AcDbLine
 62
7
  6
CONTINUOUS
 10
-10.3068302935
 20
24.767534289
 11
-9.6659313955
 21
24.6315793857
  0
LWPOLYLINE
  5
473
100
AcDbEntity
  8
ASSI
100
AcDbPolyline
 62
7
  6
CONTINUOUS
 90
5
 70
0
 10
3.5435780422
 20
23.8777788858
 10
3.504975375
 20
23.8891796642
 10
3.4646988459
 20
23.8972843018
 10
3.4227427911
 20
23.9020447896
 10
3.3811801893
 20
23.9033061891
  0
LWPOLYLINE
  5
474
100
AcDbEntity
  8
ASSI
100
AcDbPolyline
 62
7
  6
CONTINUOUS
 90
8
 70
0
 10
-10.1120003203
 20
27.6818860197
 10
-10.1332286665
 20
27.6894475468
 10
-10.1552709312
 20
27.6948262298
 10
-10.1778975926
 20
27.6979298378
 10
-10.2009566958
 20
27.6986924007
 10
-10.2242187105
 20
27.6970519107
 10
-10.2473408969
 20
27.6929987873
 10
-10.2700643725
 20
27.6865668334
  0
LWPOLYLINE
  5
475
100
AcDbEntity
  8
RACCORDO
100
AcDbPolyline
 62
7
  6
CONTINUOUS
 90
35
 70
0
 10
0.4345168144
 20
24.6215581756
 10
0.4324228728
 20
24.6223522469
 10
0.4303742263
 20
24.6230530625
 10
0.4282996462
 20
24.6236890033
 10
0.4261998015
 20
24.6242598833
 10
0.4240754748
 20
24.6247654867
 10
0.4219274538
 20
24.6252056222
 10
0.4197564286
 20
24.6255801747
 10
0.4175632079
 20
24.6258889964
 10
0.415348605
 20
24.6261319638
 10
0.4131133281
 20
24.6263090331
 10
0.41085821
 20
24.6264201246
 10
0.4085840864
 20
24.6264651833
 10
0.4062916815
 20
24.6264442365
 10
0.4039818491
 20
24.6263572731
 10
0.4016554449
 20
24.6262043066
 10
0.3993132066
 20
24.6259854352
 10
0.3969560059
 20
24.6257007163
 10
0.3945847163
 20
24.6253502316
 10
0.3922000856
 20
24.6249341502
 10
0.3898030013
 20
24.6244525976
 10
0.3873943514
 20
24.6239057235
 10
0.3849748917
 20
24.6232937672
 10
0.3825455224
 20
24.6226169218
 10
0.3801071433
 20
24.6218754043
 10
0.3776605153
 20
24.6210695235
 10
0.3752065485
 20
24.6201995395
 10
0.3727461518
 20
24.6192657358
 10
0.3702800886
 20
24.6182684898
 10
0.367809276
 20
24.6172081275
 10
0.3653346292
 20
24.6160849981
 10
0.3628569113
 20
24.6148995462
 10
0.3603769901
 20
24.6136521881
 10
0.3578958378
 20
24.612343312
 10
0.3554143753
 20
24.6109733524
  0
LWPOLYLINE
  5
476
100
AcDbEntity
  8
0
100
AcDbPolyline
 62
7
  6
CONTINUOUS
 90
35
 70
0
 10
0.4345168144
 20
24.6215581756
 10
0.4324228728
 20
24.6223522469
 10
0.4303742263
 20
24.6230530625
 10
0.4282996462
 20
24.6236890033
 10
0.4261998015
 20
24.6242598833
 10
0.4240754748
 20
24.6247654867
 10
0.4219274538
 20
24.6252056222
 10
0.4197564286
 20
24.6255801747
 10
0.4175632079
 20
24.6258889964
 10
0.415348605
 20
24.6261319638
 10
0.4131133281
 20
24.6263090331
 10
0.41085821
 20
24.6264201246
 10
0.4085840864
 20
24.6264651833
 10
0.4062916815
 20
24.6264442365
 10
0.4039818491
 20
24.6263572731
 10
0.4016554449
 20
24.6262043066
 10
0.3993132066
 20
24.6259854352
 10
0.3969560059
 20
24.6257007163
 10
0.3945847163
 20
24.6253502316
 10
0.3922000856
 20
24.6249341502
 10
0.3898030013
 20
24.6244525976
 10
0.3873943514
 20
24.6239057235
 10
0.3849748917
 20
24.6232937672
 10
0.3825455224
 20
24.6226169218
 10
0.3801071433
 20
24.6218754043
 10
0.3776605153
 20
24.6210695235
 10
0.3752065485
 20
24.6201995395
 10
0.3727461518
 20
24.6192657358
 10
0.3702800886
 20
24.6182684898
 10
0.367809276
 20
24.6172081275
 10
0.3653346292
 20
24.6160849981
 10
0.3628569113
 20
24.6148995462
 10
0.3603769901
 20
24.6136521881
 10
0.3578958378
 20
24.612343312
 10
0.3554143753
 20
24.6109733524
  0
LWPOLYLINE
  5
477
100
AcDbEntity
  8
RACCORDO
100
AcDbPolyline
 62
7
  6
CONTINUOUS
 90
104
 70
0
 10
0.4345168027
 20
24.6215581815
 10
0.4315863306
 20
24.6227213046
 10
0.420623964
 20
24.626990351
 10
0.4095864947
 20
24.6311608818
 10
0.3984745887
 20
24.6352337951
 10
0.387290289
 20
24.6392094459
 10
0.3760356623
 20
24.6430881646
 10
0.3647115
 20
24.6468706799
 10
0.3533198382
 20
24.6505572809
 10
0.3418626889
 20
24.6541482387
 10
0.3303409165
 20
24.6576441655
 10
0.3187565569
 20
24.6610452885
 10
0.3071115762
 20
24.6643518337
 10
0.295406834
 20
24.6675643369
 10
0.2836443126
 20
24.6706829837
 10
0.2718259958
 20
24.6737079528
 10
0.2599528174
 20
24.6766396878
 10
0.24802674
 20
24.6794783348
 10
0.2360497447
 20
24.6822240455
 10
0.2240228406
 20
24.6848771796
 10
0.2119480518
 20
24.6874378415
 10
0.1998272837
 20
24.6899061773
 10
0.1876614026
 20
24.6922825166
 10
0.1754525025
 20
24.6945669317
 10
0.163202402
 20
24.6967595567
 10
0.1509115867
 20
24.69886073
 10
0.1385820165
 20
24.7008705246
 10
0.1262156175
 20
24.7027890156
 10
0.1138128581
 20
24.7046164828
 10
0.101375671
 20
24.7063529783
 10
0.0889059875
 20
24.7079985434
 10
0.0764043079
 20
24.7095534013
 10
0.0638725396
 20
24.7110175805
 10
0.051312623
 20
24.7123910963
 10
0.0387251353
 20
24.7136741163
 10
0.0261119497
 20
24.7148666468
 10
0.0134750316
 20
24.7159686856
 10
0.0008151164
 20
24.7169803418
 10
-0.0118658858
 20
24.7179015996
 10
-0.0245660492
 20
24.7187324542
 10
-0.0372845976
 20
24.7194729702
 10
-0.0500196135
 20
24.7201231188
 10
-0.0627691785
 20
24.7206828895
 10
-0.0755324994
 20
24.7211523054
 10
-0.0883076617
 20
24.721531331
 10
-0.1010927418
 20
24.7218199461
 10
-0.1138869202
 20
24.7220181347
 10
-0.1266882927
 20
24.7221258582
 10
-0.1394949206
 20
24.7221430828
 10
-0.1523059254
 20
24.7220697599
 10
-0.1651193876
 20
24.7219058468
 10
-0.1779333757
 20
24.7216512961
 10
-0.1907469971
 20
24.7213060333
 10
-0.2035583253
 20
24.7208700068
 10
-0.2163654239
 20
24.720343157
 10
-0.2291673975
 20
24.7197253845
 10
-0.2419623322
 20
24.7190166235
 10
-0.2547482641
 20
24.7182168062
 10
-0.2675242375
 20
24.7173258091
 10
-0.2802883463
 20
24.7163435504
 10
-0.2930386031
 20
24.7152699593
 10
-0.3057739391
 20
24.7141048905
 10
-0.318492403
 20
24.7128482537
 10
-0.3311920385
 20
24.7114999731
 10
-0.3438717718
 20
24.71005987
 10
-0.3565296377
 20
24.7085278458
 10
-0.3691636789
 20
24.7069038166
 10
-0.3817728375
 20
24.7051875636
 10
-0.3943551211
 20
24.7033789836
 10
-0.4069085821
 20
24.7014779747
 10
-0.4194322463
 20
24.6994842643
 10
-0.4319241197
 20
24.6973977366
 10
-0.4443822318
 20
24.6952182669
 10
-0.4568056818
 20
24.6929455255
 10
-0.4691924753
 20
24.6905793732
 10
-0.4815406079
 20
24.6881196591
 10
-0.4938492195
 20
24.6855659961
 10
-0.5061163107
 20
24.6829182107
 10
-0.5183398396
 20
24.6801761251
 10
-0.5305189426
 20
24.6773392941
 10
-0.5426518716
 20
24.6744074375
 10
-0.5547362839
 20
24.6713804115
 10
-0.5667704854
 20
24.6682579171
 10
-0.5787526621
 20
24.6650396561
 10
-0.5906805193
 20
24.6617254628
 10
-0.6025517171
 20
24.6583151842
 10
-0.6143642003
 20
24.6548085773
 10
-0.6261159278
 20
24.6512054013
 10
-0.6378046738
 20
24.647505452
 10
-0.6494283915
 20
24.6437084688
 10
-0.6609850385
 20
24.6398141833
 10
-0.6724725165
 20
24.6358223215
 10
-0.683888809
 20
24.6317325848
 10
-0.6952318351
 20
24.6275446731
 10
-0.706499561
 20
24.6232582532
 10
-0.7176899274
 20
24.6188729951
 10
-0.7288008885
 20
24.6143885303
 10
-0.7398305961
 20
24.6098044018
 10
-0.750776943
 20
24.6051202295
 10
-0.7616378683
 20
24.6003355822
 10
-0.7724117881
 20
24.5954497972
 10
-0.7830968439
 20
24.5904622768
 10
-0.793690633
 20
24.5853726632
 10
-0.8029971903
 20
24.5807783442
  0
LWPOLYLINE
  5
478
100
AcDbEntity
  8
0
100
AcDbPolyline
 62
7
  6
CONTINUOUS
 90
104
 70
0
 10
0.4345168027
 20
24.6215581815
 10
0.4315863306
 20
24.6227213046
 10
0.420623964
 20
24.626990351
 10
0.4095864947
 20
24.6311608818
 10
0.3984745887
 20
24.6352337951
 10
0.387290289
 20
24.6392094459
 10
0.3760356623
 20
24.6430881646
 10
0.3647115
 20
24.6468706799
 10
0.3533198382
 20
24.6505572809
 10
0.3418626889
 20
24.6541482387
 10
0.3303409165
 20
24.6576441655
 10
0.3187565569
 20
24.6610452885
 10
0.3071115762
 20
24.6643518337
 10
0.295406834
 20
24.6675643369
 10
0.2836443126
 20
24.6706829837
 10
0.2718259958
 20
24.6737079528
 10
0.2599528174
 20
24.6766396878
 10
0.24802674
 20
24.6794783348
 10
0.2360497447
 20
24.6822240455
 10
0.2240228406
 20
24.6848771796
 10
0.2119480518
 20
24.6874378415
 10
0.1998272837
 20
24.6899061773
 10
0.1876614026
 20
24.6922825166
 10
0.1754525025
 20
24.6945669317
 10
0.163202402
 20
24.6967595567
 10
0.1509115867
 20
24.69886073
 10
0.1385820165
 20
24.7008705246
 10
0.1262156175
 20
24.7027890156
 10
0.1138128581
 20
24.7046164828
 10
0.101375671
 20
24.7063529783
 10
0.0889059875
 20
24.7079985434
 10
0.0764043079
 20
24.7095534013
 10
0.0638725396
 20
24.7110175805
 10
0.051312623
 20
24.7123910963
 10
0.0387251353
 20
24.7136741163
 10
0.0261119497
 20
24.7148666468
 10
0.0134750316
 20
24.7159686856
 10
0.0008151164
 20
24.7169803418
 10
-0.0118658858
 20
24.7179015996
 10
-0.0245660492
 20
24.7187324542
 10
-0.0372845976
 20
24.7194729702
 10
-0.0500196135
 20
24.7201231188
 10
-0.0627691785
 20
24.7206828895
 10
-0.0755324994
 20
24.7211523054
 10
-0.0883076617
 20
24.721531331
 10
-0.1010927418
 20
24.7218199461
 10
-0.1138869202
 20
24.7220181347
 10
-0.1266882927
 20
24.7221258582
 10
-0.1394949206
 20
24.7221430828
 10
-0.1523059254
 20
24.7220697599
 10
-0.1651193876
 20
24.7219058468
 10
-0.1779333757
 20
24.7216512961
 10
-0.1907469971
 20
24.7213060333
 10
-0.2035583253
 20
24.7208700068
 10
-0.2163654239
 20
24.720343157
 10
-0.2291673975
 20
24.7197253845
 10
-0.2419623322
 20
24.7190166235
 10
-0.2547482641
 20
24.7182168062
 10
-0.2675242375
 20
24.7173258091
 10
-0.2802883463
 20
24.7163435504
 10
-0.2930386031
 20
24.7152699593
 10
-0.3057739391
 20
24.7141048905
 10
-0.318492403
 20
24.7128482537
 10
-0.3311920385
 20
24.7114999731
 10
-0.3438717718
 20
24.71005987
 10
-0.3565296377
 20
24.7085278458
 10
-0.3691636789
 20
24.7069038166
 10
-0.3817728375
 20
24.7051875636
 10
-0.3943551211
 20
24.7033789836
 10
-0.4069085821
 20
24.7014779747
 10
-0.4194322463
 20
24.6994842643
 10
-0.4319241197
 20
24.6973977366
 10
-0.4443822318
 20
24.6952182669
 10
-0.4568056818
 20
24.6929455255
 10
-0.4691924753
 20
24.6905793732
 10
-0.4815406079
 20
24.6881196591
 10
-0.4938492195
 20
24.6855659961
 10
-0.5061163107
 20
24.6829182107
 10
-0.5183398396
 20
24.6801761251
 10
-0.5305189426
 20
24.6773392941
 10
-0.5426518716
 20
24.6744074375
 10
-0.5547362839
 20
24.6713804115
 10
-0.5667704854
 20
24.6682579171
 10
-0.5787526621
 20
24.6650396561
 10
-0.5906805193
 20
24.6617254628
 10
-0.6025517171
 20
24.6583151842
 10
-0.6143642003
 20
24.6548085773
 10
-0.6261159278
 20
24.6512054013
 10
-0.6378046738
 20
24.647505452
 10
-0.6494283915
 20
24.6437084688
 10
-0.6609850385
 20
24.6398141833
 10
-0.6724725165
 20
24.6358223215
 10
-0.683888809
 20
24.6317325848
 10
-0.6952318351
 20
24.6275446731
 10
-0.706499561
 20
24.6232582532
 10
-0.7176899274
 20
24.6188729951
 10
-0.7288008885
 20
24.6143885303
 10
-0.7398305961
 20
24.6098044018
 10
-0.750776943
 20
24.6051202295
 10
-0.7616378683
 20
24.6003355822
 10
-0.7724117881
 20
24.5954497972
 10
-0.7830968439
 20
24.5904622768
 10
-0.793690633
 20
24.5853726632
 10
-0.8017290426
 20
24.5813975791
  0
LWPOLYLINE
  5
479
100
AcDbEntity
  8
ASSI
100
AcDbPolyline
 62
250
  6
CONTINUOUS
 90
6
 70
0
 10
-2.3162902651
 20
26.6645767876
 10
-2.3389801803
 20
26.6744380105
 10
-2.3613347829
 20
26.6804017015
 10
-2.3829717274
 20
26.6823658595
 10
-2.4035209431
 20
26.6802968903
 10
-2.42419512
 20
26.6735252148
  0
LWPOLYLINE
  5
47A
100
AcDbEntity
  8
RACCORDO
100
AcDbPolyline
 62
7
  6
CONTINUOUS
 90
4
 70
0
 10
0.439655519
 20
24.6192544976
 10
0.4384057445
 20
24.6198632091
 10
0.4364393316
 20
24.6207570506
 10
0.4345168144
 20
24.6215581756
  0
LWPOLYLINE
  5
47B
100
AcDbEntity
  8
0
100
AcDbPolyline
 62
7
  6
CONTINUOUS
 90
4
 70
0
 10
0.439655519
 20
24.6192544976
 10
0.4384057445
 20
24.6198632091
 10
0.4364393316
 20
24.6207570506
 10
0.4345168144
 20
24.6215581756
  0
LINE
  5
47C
100
AcDbEntity
  8
RACCORDO
100
AcDbLine
 62
250
  6
CONTINUOUS
 10
3.783775169
 20
22.8967929556
 11
3.763183449
 21
22.9070888156
  0
LINE
  5
47D
100
AcDbEntity
  8
0
100
AcDbLine
 62
250
  6
CONTINUOUS
 10
3.783775169
 20
22.8967929556
 11
3.763183449
 21
22.9070888156
  0
LINE
  5
47E
100
AcDbEntity
  8
RACCORDO
100
AcDbLine
 62
250
  6
CONTINUOUS
 10
2.5083803461
 20
23.534490367
 11
0.3554143646
 21
24.6109733578
  0
LINE
  5
47F
100
AcDbEntity
  8
0
100
AcDbLine
 62
250
  6
CONTINUOUS
 10
2.5083803461
 20
23.534490367
 11
0.3554143646
 21
24.6109733578
  0
LINE
  5
480
100
AcDbEntity
  8
RACCORDO
100
AcDbLine
 62
7
  6
CONTINUOUS
 10
3.835254371
 20
22.9214550716
 11
3.7634913879
 21
22.9573365631
  0
LINE
  5
481
100
AcDbEntity
  8
0
100
AcDbLine
 62
7
  6
CONTINUOUS
 10
3.835254371
 20
22.9214550716
 11
3.7634913879
 21
22.9573365631
  0
LINE
  5
482
100
AcDbEntity
  8
RACCORDO
100
AcDbLine
 62
7
  6
CONTINUOUS
 10
2.5598595481
 20
23.559152483
 11
0.4396570346
 21
24.6192537398
  0
LINE
  5
483
100
AcDbEntity
  8
0
100
AcDbLine
 62
7
  6
CONTINUOUS
 10
2.5598595481
 20
23.559152483
 11
0.4396570346
 21
24.6192537398
  0
LINE
  5
484
100
AcDbEntity
  8
ASSI
100
AcDbLine
 62
7
  6
CONTINUOUS
 10
4.1626435375
 20
23.2973785798
 11
3.7667882876
 21
23.4953062048
  0
LINE
  5
485
100
AcDbEntity
  8
ASSI
100
AcDbLine
 62
7
  6
CONTINUOUS
 10
3.1110135638
 20
23.8231935667
 11
0.5636697907
 21
25.0968654532
  0
LINE
  5
486
100
AcDbEntity
  8
ASSI
100
AcDbLine
 62
7
  6
CONTINUOUS
 10
5.1325386794
 20
23.7901859199
 11
1.1731275572
 21
25.769891481
  0
LINE
  5
487
100
AcDbEntity
  8
DRAFT
100
AcDbLine
 62
7
  6
CONTINUOUS
 10
10.5123913777
 20
21.961456604
 11
11.260810471
 21
21.5872470573
  0
LINE
  5
488
100
AcDbEntity
  8
0
100
AcDbLine
 62
7
  6
CONTINUOUS
 10
10.5123913777
 20
21.961456604
 11
11.260810471
 21
21.5872470573
  0
LWPOLYLINE
  5
489
100
AcDbEntity
  8
RACCORDO
100
AcDbPolyline
 62
250
  6
CONTINUOUS
 90
28
 70
0
 10
6.0332990531
 20
24.4306026583
 10
6.0370378708
 20
24.428578756
 10
6.0408428743
 20
24.4263084459
 10
6.0447127518
 20
24.4237875904
 10
6.0486470415
 20
24.4210119242
 10
6.0526454855
 20
24.4179771408
 10
6.0567080246
 20
24.4146786395
 10
6.060834677
 20
24.4111118424
 10
6.0650265977
 20
24.4072713359
 10
6.0692827079
 20
24.4031534011
 10
6.073599901
 20
24.3987562504
 10
6.0779784879
 20
24.3940759699
 10
6.0824189872
 20
24.389107981
 10
6.0869188603
 20
24.3838498353
 10
6.0914799177
 20
24.3782962296
 10
6.0961016762
 20
24.3724440052
 10
6.1007784238
 20
24.3662943435
 10
6.1055114753
 20
24.3598434965
 10
6.1103016202
 20
24.3530876171
 10
6.1151426795
 20
24.3460283574
 10
6.1200365845
 20
24.3386618381
 10
6.1249841566
 20
24.3309849686
 10
6.1299778323
 20
24.3230011568
 10
6.1350203203
 20
24.3147061823
 10
6.1401123113
 20
24.3060980521
 10
6.1452435386
 20
24.2971843542
 10
6.1504159037
 20
24.2879634964
 10
6.154879962
 20
24.2798058681
  0
LWPOLYLINE
  5
48A
100
AcDbEntity
  8
0
100
AcDbPolyline
 62
250
  6
CONTINUOUS
 90
28
 70
0
 10
6.0332990531
 20
24.4306026583
 10
6.0370378708
 20
24.428578756
 10
6.0408428743
 20
24.4263084459
 10
6.0447127518
 20
24.4237875904
 10
6.0486470415
 20
24.4210119242
 10
6.0526454855
 20
24.4179771408
 10
6.0567080246
 20
24.4146786395
 10
6.060834677
 20
24.4111118424
 10
6.0650265977
 20
24.4072713359
 10
6.0692827079
 20
24.4031534011
 10
6.073599901
 20
24.3987562504
 10
6.0779784879
 20
24.3940759699
 10
6.0824189872
 20
24.389107981
 10
6.0869188603
 20
24.3838498353
 10
6.0914799177
 20
24.3782962296
 10
6.0961016762
 20
24.3724440052
 10
6.1007784238
 20
24.3662943435
 10
6.1055114753
 20
24.3598434965
 10
6.1103016202
 20
24.3530876171
 10
6.1151426795
 20
24.3460283574
 10
6.1200365845
 20
24.3386618381
 10
6.1249841566
 20
24.3309849686
 10
6.1299778323
 20
24.3230011568
 10
6.1350203203
 20
24.3147061823
 10
6.1401123113
 20
24.3060980521
 10
6.1452435386
 20
24.2971843542
 10
6.1504159037
 20
24.2879634964
 10
6.154879962
 20
24.2798058681
  0
LINE
  5
48B
100
AcDbEntity
  8
ASSI
100
AcDbLine
 62
7
  6
CONTINUOUS
 10
1.1731275572
 20
25.769891481
 11
2.7903999918
 21
25.8519364608
  0
LWPOLYLINE
  5
48C
100
AcDbEntity
  8
ASSI
100
AcDbPolyline
 62
7
  6
CONTINUOUS
 90
5
 70
0
 10
-2.2322382886
 20
26.7132024333
 10
-2.2728258675
 20
26.7116599248
 10
-2.3134095126
 20
26.7067936814
 10
-2.3521771064
 20
26.6987855603
 10
-2.3887338836
 20
26.6878397164
  0
LWPOLYLINE
  5
48D
100
AcDbEntity
  8
ASSI
100
AcDbPolyline
 62
7
  6
CONTINUOUS
 90
5
 70
0
 10
-2.0733560312
 20
26.6866651651
 10
-2.1110413437
 20
26.6981126012
 10
-2.1504103144
 20
26.7064033357
 10
-2.1914555757
 20
26.7114898786
 10
-2.2322382886
 20
26.7132024333
  0
LWPOLYLINE
  5
48E
100
AcDbEntity
  8
ASSI
100
AcDbPolyline
 62
250
  6
CONTINUOUS
 90
10
 70
0
 10
2.5187013773
 20
26.8302943342
 10
2.4756404097
 20
26.8486361692
 10
2.4312818228
 20
26.861531466
 10
2.3849996125
 20
26.8693427798
 10
2.3370459422
 20
26.8720281018
 10
2.2876805393
 20
26.8695741258
 10
2.2371758571
 20
26.8619929931
 10
2.185808274
 20
26.8493260551
 10
2.133856612
 20
26.8316437312
 10
2.0816044506
 20
26.8090430277
  0
LWPOLYLINE
  5
48F
100
AcDbEntity
  8
ASSI
100
AcDbPolyline
 62
7
  6
CONTINUOUS
 90
8
 70
0
 10
7.1412165807
 20
24.519033713
 10
7.108083283
 20
24.5341775713
 10
7.0594821474
 20
24.5513447929
 10
7.0083192311
 20
24.5636458502
 10
6.9550140702
 20
24.570792661
 10
6.9001720872
 20
24.5725736932
 10
6.8441434745
 20
24.5689108413
 10
6.7871791861
 20
24.5597729904
  0
LINE
  5
490
100
AcDbEntity
  8
RACCORDO
100
AcDbLine
 62
7
  6
CONTINUOUS
 10
6.0378438271
 20
24.4283770428
 11
6.0324194432
 21
24.4310483536
  0
LINE
  5
491
100
AcDbEntity
  8
0
100
AcDbLine
 62
7
  6
CONTINUOUS
 10
6.0378438271
 20
24.4283770428
 11
6.0324194432
 21
24.4310483536
  0
LINE
  5
492
100
AcDbEntity
  8
ASSI
100
AcDbLine
 62
7
  6
CONTINUOUS
 10
2.8492853906
 20
25.9008736239
 11
6.1224671789
 21
24.2642827297
  0
LINE
  5
493
100
AcDbEntity
  8
RACCORDO
100
AcDbLine
 62
7
  6
CONTINUOUS
 10
6.0325495846
 20
24.4309832735
 11
2.8475503271
 21
26.0234829022
  0
LINE
  5
494
100
AcDbEntity
  8
0
100
AcDbLine
 62
7
  6
CONTINUOUS
 10
6.0325495846
 20
24.4309832735
 11
2.8475503271
 21
26.0234829022
  0
LINE
  5
495
100
AcDbEntity
  8
ASSI
100
AcDbLine
 62
250
  6
CONTINUOUS
 10
-0.7717308317
 20
28.2357106688
 11
2.0816044506
 21
26.8090430277
  0
LINE
  5
496
100
AcDbEntity
  8
ASSI
100
AcDbLine
 62
250
  6
CONTINUOUS
 10
6.7076544131
 20
24.4960180464
 11
9.5609896955
 21
23.0693504053
  0
LINE
  5
497
100
AcDbEntity
  8
ASSI
100
AcDbLine
 62
7
  6
CONTINUOUS
 10
7.1403019188
 20
24.5194940635
 11
10.1509888414
 21
23.0141506022
  0
LINE
  5
498
100
AcDbEntity
  8
ASSI
100
AcDbLine
 62
7
  6
CONTINUOUS
 10
2.5188088582
 20
26.8302405727
 11
-0.4919842165
 21
28.3356371311
  0
LINE
  5
499
100
AcDbEntity
  8
RACCORDO
100
AcDbLine
 62
250
  6
CONTINUOUS
 10
6.0324194107
 20
24.4310483604
 11
6.0332990531
 21
24.4306026583
  0
LINE
  5
49A
100
AcDbEntity
  8
0
100
AcDbLine
 62
250
  6
CONTINUOUS
 10
6.0324194107
 20
24.4310483604
 11
6.0332990531
 21
24.4306026583
  0
LWPOLYLINE
  5
49B
100
AcDbEntity
  8
RACCORDO
100
AcDbPolyline
 62
250
  6
CONTINUOUS
 90
52
 70
0
 10
13.6520231155
 20
27.3335188296
 10
13.6450369684
 20
27.3368205348
 10
13.6377960434
 20
27.3400573535
 10
13.6304832514
 20
27.3431428715
 10
13.6230998176
 20
27.3460765721
 10
13.6156469793
 20
27.3488579635
 10
13.6081259852
 20
27.3514865797
 10
13.6005380956
 20
27.3539619803
 10
13.5928845817
 20
27.3562837505
 10
13.5851667262
 20
27.3584515012
 10
13.577385822
 20
27.3604648693
 10
13.5695431731
 20
27.3623235174
 10
13.5616400935
 20
27.3640271341
 10
13.5536779073
 20
27.3655754338
 10
13.5456579489
 20
27.3669681572
 10
13.5375815619
 20
27.3682050709
 10
13.5294500996
 20
27.3692859677
 10
13.5212649246
 20
27.3702106664
 10
13.5130274083
 20
27.3709790121
 10
13.504738931
 20
27.3715908761
 10
13.4964008815
 20
27.3720461558
 10
13.4880146569
 20
27.3723447749
 10
13.4795816623
 20
27.3724866835
 10
13.4711033109
 20
27.3724718577
 10
13.4625810232
 20
27.3723003
 10
13.4540162272
 20
27.3719720391
 10
13.445410358
 20
27.3714871301
 10
13.4367648576
 20
27.3708456543
 10
13.4280811746
 20
27.370047719
 10
13.4193607641
 20
27.3690934581
 10
13.4106050872
 20
27.3679830313
 10
13.401815611
 20
27.3667166248
 10
13.3929938083
 20
27.3652944507
 10
13.3841411571
 20
27.3637167474
 10
13.375259141
 20
27.3619837792
 10
13.3663492481
 20
27.3600958365
 10
13.3574129713
 20
27.3580532356
 10
13.348451808
 20
27.3558563188
 10
13.3394672597
 20
27.3535054542
 10
13.3304608319
 20
27.3510010356
 10
13.3214340336
 20
27.3483434828
 10
13.3123883774
 20
27.3455332411
 10
13.3033253789
 20
27.3425707812
 10
13.2942465568
 20
27.3394565996
 10
13.2851534322
 20
27.3361912181
 10
13.2760475288
 20
27.3327751839
 10
13.2669303723
 20
27.3292090693
 10
13.2578034905
 20
27.3254934718
 10
13.2486684126
 20
27.3216290141
 10
13.2395266692
 20
27.3176163437
 10
13.2303797922
 20
27.3134561329
 10
13.2212293141
 20
27.3091490787
  0
LWPOLYLINE
  5
49C
100
AcDbEntity
  8
0
100
AcDbPolyline
 62
250
  6
CONTINUOUS
 90
52
 70
0
 10
13.6520231155
 20
27.3335188296
 10
13.6450369684
 20
27.3368205348
 10
13.6377960434
 20
27.3400573535
 10
13.6304832514
 20
27.3431428715
 10
13.6230998176
 20
27.3460765721
 10
13.6156469793
 20
27.3488579635
 10
13.6081259852
 20
27.3514865797
 10
13.6005380956
 20
27.3539619803
 10
13.5928845817
 20
27.3562837505
 10
13.5851667262
 20
27.3584515012
 10
13.577385822
 20
27.3604648693
 10
13.5695431731
 20
27.3623235174
 10
13.5616400935
 20
27.3640271341
 10
13.5536779073
 20
27.3655754338
 10
13.5456579489
 20
27.3669681572
 10
13.5375815619
 20
27.3682050709
 10
13.5294500996
 20
27.3692859677
 10
13.5212649246
 20
27.3702106664
 10
13.5130274083
 20
27.3709790121
 10
13.504738931
 20
27.3715908761
 10
13.4964008815
 20
27.3720461558
 10
13.4880146569
 20
27.3723447749
 10
13.4795816623
 20
27.3724866835
 10
13.4711033109
 20
27.3724718577
 10
13.4625810232
 20
27.3723003
 10
13.4540162272
 20
27.3719720391
 10
13.445410358
 20
27.3714871301
 10
13.4367648576
 20
27.3708456543
 10
13.4280811746
 20
27.370047719
 10
13.4193607641
 20
27.3690934581
 10
13.4106050872
 20
27.3679830313
 10
13.401815611
 20
27.3667166248
 10
13.3929938083
 20
27.3652944507
 10
13.3841411571
 20
27.3637167474
 10
13.375259141
 20
27.3619837792
 10
13.3663492481
 20
27.3600958365
 10
13.3574129713
 20
27.3580532356
 10
13.348451808
 20
27.3558563188
 10
13.3394672597
 20
27.3535054542
 10
13.3304608319
 20
27.3510010356
 10
13.3214340336
 20
27.3483434828
 10
13.3123883774
 20
27.3455332411
 10
13.3033253789
 20
27.3425707812
 10
13.2942465568
 20
27.3394565996
 10
13.2851534322
 20
27.3361912181
 10
13.2760475288
 20
27.3327751839
 10
13.2669303723
 20
27.3292090693
 10
13.2578034905
 20
27.3254934718
 10
13.2486684126
 20
27.3216290141
 10
13.2395266692
 20
27.3176163437
 10
13.2303797922
 20
27.3134561329
 10
13.2212293141
 20
27.3091490787
  0
LINE
  5
49D
100
AcDbEntity
  8
0
100
AcDbLine
 62
250
  6
CONTINUOUS
 10
13.6561021947
 20
27.3315124083
 11
13.6520231155
 21
27.3335188296
  0
LINE
  5
49E
100
AcDbEntity
  8
RACCORDO
100
AcDbLine
 62
250
  6
CONTINUOUS
 10
19.7476934664
 20
24.0459170026
 11
13.2212293141
 21
27.3091490787
  0
LINE
  5
49F
100
AcDbEntity
  8
0
100
AcDbLine
 62
250
  6
CONTINUOUS
 10
19.7476934664
 20
24.0459170026
 11
13.2212293141
 21
27.3091490787
  0
LINE
  5
4A0
100
AcDbEntity
  8
RACCORDO
100
AcDbLine
 62
7
  6
CONTINUOUS
 10
20.1165924405
 20
24.1012672854
 11
13.6561021947
 21
27.3315124083
  0
LINE
  5
4A1
100
AcDbEntity
  8
0
100
AcDbLine
 62
7
  6
CONTINUOUS
 10
20.1165924405
 20
24.1012672854
 11
13.6561021947
 21
27.3315124083
  0
LWPOLYLINE
  5
4A2
100
AcDbEntity
  8
RACCORDO
100
AcDbPolyline
 62
250
  6
CONTINUOUS
 90
51
 70
0
 10
13.2212293141
 20
27.3091490787
 10
13.2121371736
 20
27.3137779406
 10
13.2030444766
 20
27.318256644
 10
13.1939527806
 20
27.3225844217
 10
13.1848636428
 20
27.3267605325
 10
13.17577862
 20
27.3307842611
 10
13.1666992682
 20
27.3346549184
 10
13.1576271425
 20
27.3383718414
 10
13.1485637967
 20
27.3419343934
 10
13.1395107834
 20
27.3453419643
 10
13.1304696529
 20
27.3485939704
 10
13.1214419539
 20
27.3516898548
 10
13.1124292326
 20
27.3546290871
 10
13.1034330328
 20
27.357411164
 10
13.0944548952
 20
27.3600356089
 10
13.0854963576
 20
27.3625019724
 10
13.0765589545
 20
27.3648098319
 10
13.0676442165
 20
27.3669587923
 10
13.0587536707
 20
27.3689484853
 10
13.0498888397
 20
27.3707785703
 10
13.041051242
 20
27.3724487338
 10
13.0322423912
 20
27.3739586897
 10
13.0234637961
 20
27.3753081795
 10
13.0147169602
 20
27.3764969719
 10
13.0060033818
 20
27.3775248633
 10
12.9973245532
 20
27.3783916777
 10
12.9886819609
 20
27.3790972667
 10
12.9800770853
 20
27.3796415093
 10
12.9715114002
 20
27.3800243124
 10
12.9629863727
 20
27.3802456104
 10
12.9545034629
 20
27.3803053653
 10
12.9460641238
 20
27.380203567
 10
12.9376698008
 20
27.3799402329
 10
12.9293219318
 20
27.3795154081
 10
12.9210219465
 20
27.3789291654
 10
12.9127712665
 20
27.3781816051
 10
12.9045713051
 20
27.3772728553
 10
12.8964234666
 20
27.3762030717
 10
12.8883291467
 20
27.3749724375
 10
12.8802897316
 20
27.3735811634
 10
12.8723065985
 20
27.3720294878
 10
12.8643811146
 20
27.3703176765
 10
12.8565146374
 20
27.3684460225
 10
12.8487085143
 20
27.3664148466
 10
12.8409640822
 20
27.3642244965
 10
12.8332826676
 20
27.3618753476
 10
12.8256655862
 20
27.359367802
 10
12.8181141427
 20
27.3567022893
 10
12.8106296304
 20
27.3538792661
 10
12.8032133312
 20
27.3508992159
 10
12.7958665155
 20
27.3477626491
  0
LWPOLYLINE
  5
4A3
100
AcDbEntity
  8
0
100
AcDbPolyline
 62
250
  6
CONTINUOUS
 90
52
 70
0
 10
13.2212293141
 20
27.3091490787
 10
13.2121371736
 20
27.3137779406
 10
13.2030444766
 20
27.318256644
 10
13.1939527806
 20
27.3225844217
 10
13.1848636428
 20
27.3267605325
 10
13.17577862
 20
27.3307842611
 10
13.1666992682
 20
27.3346549184
 10
13.1576271425
 20
27.3383718414
 10
13.1485637967
 20
27.3419343934
 10
13.1395107834
 20
27.3453419643
 10
13.1304696529
 20
27.3485939704
 10
13.1214419539
 20
27.3516898548
 10
13.1124292326
 20
27.3546290871
 10
13.1034330328
 20
27.357411164
 10
13.0944548952
 20
27.3600356089
 10
13.0854963576
 20
27.3625019724
 10
13.0765589545
 20
27.3648098319
 10
13.0676442165
 20
27.3669587923
 10
13.0587536707
 20
27.3689484853
 10
13.0498888397
 20
27.3707785703
 10
13.041051242
 20
27.3724487338
 10
13.0322423912
 20
27.3739586897
 10
13.0234637961
 20
27.3753081795
 10
13.0147169602
 20
27.3764969719
 10
13.0060033818
 20
27.3775248633
 10
12.9973245532
 20
27.3783916777
 10
12.9886819609
 20
27.3790972667
 10
12.9800770853
 20
27.3796415093
 10
12.9715114002
 20
27.3800243124
 10
12.9629863727
 20
27.3802456104
 10
12.9545034629
 20
27.3803053653
 10
12.9460641238
 20
27.380203567
 10
12.9376698008
 20
27.3799402329
 10
12.9293219318
 20
27.3795154081
 10
12.9210219465
 20
27.3789291654
 10
12.9127712665
 20
27.3781816051
 10
12.9045713051
 20
27.3772728553
 10
12.8964234666
 20
27.3762030717
 10
12.8883291467
 20
27.3749724375
 10
12.8802897316
 20
27.3735811634
 10
12.8723065985
 20
27.3720294878
 10
12.8643811146
 20
27.3703176765
 10
12.8565146374
 20
27.3684460225
 10
12.8487085143
 20
27.3664148466
 10
12.8409640822
 20
27.3642244965
 10
12.8332826676
 20
27.3618753476
 10
12.8256655862
 20
27.359367802
 10
12.8181141427
 20
27.3567022893
 10
12.8106296304
 20
27.3538792661
 10
12.8032133312
 20
27.3508992159
 10
12.7958665155
 20
27.3477626491
 10
12.789609889
 20
27.344942785
  0
LWPOLYLINE
  5
4A4
100
AcDbEntity
  8
RACCORDO
100
AcDbPolyline
 62
7
  6
CONTINUOUS
 90
24
 70
0
 10
20.1165924405
 20
24.1012672854
 10
20.1196023429
 20
24.0997231687
 10
20.1230775764
 20
24.0978395154
 10
20.1264848273
 20
24.0958820242
 10
20.1298236782
 20
24.0938511609
 10
20.1330937256
 20
24.0917473948
 10
20.1362952723
 20
24.0895708486
 10
20.1394279199
 20
24.0873220073
 10
20.1424912831
 20
24.0850013589
 10
20.1454856926
 20
24.0826090384
 10
20.1484107689
 20
24.0801455489
 10
20.1512661451
 20
24.077611397
 10
20.1540521789
 20
24.075006729
 10
20.1567685097
 20
24.0723320657
 10
20.1594147888
 20
24.0695879309
 10
20.1619914
 20
24.0667744822
 10
20.1644980015
 20
24.0638922571
 10
20.166934263
 20
24.060941796
 10
20.1693005935
 20
24.0579232671
 10
20.1715966699
 20
24.0548372238
 10
20.1738221799
 20
24.0516842224
 10
20.1759775571
 20
24.0484644414
 10
20.1780624968
 20
24.0451784491
 10
20.180076705
 20
24.0418268172
  0
LWPOLYLINE
  5
4A5
100
AcDbEntity
  8
0
100
AcDbPolyline
 62
7
  6
CONTINUOUS
 90
24
 70
0
 10
20.1165924405
 20
24.1012672854
 10
20.1196023429
 20
24.0997231687
 10
20.1230775764
 20
24.0978395154
 10
20.1264848273
 20
24.0958820242
 10
20.1298236782
 20
24.0938511609
 10
20.1330937256
 20
24.0917473948
 10
20.1362952723
 20
24.0895708486
 10
20.1394279199
 20
24.0873220073
 10
20.1424912831
 20
24.0850013589
 10
20.1454856926
 20
24.0826090384
 10
20.1484107689
 20
24.0801455489
 10
20.1512661451
 20
24.077611397
 10
20.1540521789
 20
24.075006729
 10
20.1567685097
 20
24.0723320657
 10
20.1594147888
 20
24.0695879309
 10
20.1619914
 20
24.0667744822
 10
20.1644980015
 20
24.0638922571
 10
20.166934263
 20
24.060941796
 10
20.1693005935
 20
24.0579232671
 10
20.1715966699
 20
24.0548372238
 10
20.1738221799
 20
24.0516842224
 10
20.1759775571
 20
24.0484644414
 10
20.1780624968
 20
24.0451784491
 10
20.180076705
 20
24.0418268172
  0
LINE
  5
4A6
100
AcDbEntity
  8
RACCORDO
100
AcDbLine
 62
7
  6
CONTINUOUS
 10
20.4434342912
 20
23.5876045244
 11
20.180076705
 21
24.0418268172
  0
LINE
  5
4A7
100
AcDbEntity
  8
0
100
AcDbLine
 62
7
  6
CONTINUOUS
 10
20.4434342912
 20
23.5876045244
 11
20.180076705
 21
24.0418268172
  0
ELLIPSE
  5
4A8
100
AcDbEntity
  8
RACCORDO
100
AcDbEllipse
 62
7
  6
CONTINUOUS
 10
0.6834726902
 20
-21.6492496617
 30
0.0
 11
-0.1999840611
 21
0.4586318226
 31
0.0
 40
0.6372798266
 41
-3.1718451134
 42
-2.2231487507
  0
ELLIPSE
  5
4A9
100
AcDbEntity
  8
RACCORDO
100
AcDbEllipse
 62
7
  6
CONTINUOUS
 10
2.2821671374
 20
16.5108262918
 30
0.0
 11
-0.1996736685
 21
0.4584064956
 31
0.0
 40
0.6381227599
 41
-2.2220345828
 42
-0.6519234887
  0
ELLIPSE
  5
4AA
100
AcDbEntity
  8
RACCORDO
100
AcDbEllipse
 62
7
  6
CONTINUOUS
 10
-12.5668328767
 20
23.9353262988
 30
0.0
 11
-0.1999840611
 21
0.4586318226
 31
0.0
 40
0.6372798266
 41
-0.6516671913
 42
0.029873806
  0
ELLIPSE
  5
4AB
100
AcDbEntity
  8
RACCORDO
100
AcDbEllipse
 62
7
  6
CONTINUOUS
 10
4.4881393097
 20
15.3009722025
 30
0.0
 11
-0.894612936
 21
1.7887945813
 31
0.0
 40
0.6124635976
 41
4.1145333773
 42
4.2146921133
  0
ELLIPSE
  5
4AC
100
AcDbEntity
  8
RACCORDO
100
AcDbEllipse
 62
7
  6
CONTINUOUS
 10
4.4881393097
 20
15.3009722025
 30
0.0
 11
-0.894612936
 21
1.7887945813
 31
0.0
 40
0.6124635976
 41
-1.6023899898
 42
-1.470288718
  0
ELLIPSE
  5
4AD
100
AcDbEntity
  8
RACCORDO
100
AcDbEllipse
 62
7
  6
CONTINUOUS
 10
4.4881393097
 20
-15.306871295
 30
0.0
 11
-0.894811907
 21
1.788971565
 31
0.0
 40
0.6123121697
 41
-3.0410143285
 42
-2.9089130568
  0
ELLIPSE
  5
4AE
100
AcDbEntity
  8
RACCORDO
100
AcDbEllipse
 62
7
  6
CONTINUOUS
 10
4.4881393097
 20
-15.306871295
 30
0.0
 11
-0.894811907
 21
1.788971565
 31
0.0
 40
0.6123121697
 41
-2.4428098527
 42
-2.3909185435
  0
ELLIPSE
  5
4AF
100
AcDbEntity
  8
ASSI
100
AcDbEllipse
 62
7
  6
CONTINUOUS
 10
4.8295116738
 20
-19.8315163628
 30
0.0
 11
-0.2237009107
 21
0.4473351135
 31
0.0
 40
0.6121897086
 41
-3.1230684064
 42
-2.2557347926
  0
ELLIPSE
  5
4B0
100
AcDbEntity
  8
ASSI
100
AcDbEllipse
 62
7
  6
CONTINUOUS
 10
4.8295116738
 20
18.0700313437
 30
0.0
 11
-0.2235807756
 21
0.4472283268
 31
0.0
 40
0.6125552124
 41
-2.255296188
 42
-0.6848044477
  0
ELLIPSE
  5
4B1
100
AcDbEntity
  8
ASSI
100
AcDbEllipse
 62
7
  6
CONTINUOUS
 10
1.4031563618
 20
18.3083071524
 30
0.0
 11
0.2497264901
 21
-0.0900037588
 31
0.0
 40
0.1298948903
 41
-2.3094133153
 42
-0.756070281
  0
ELLIPSE
  5
4B2
100
AcDbEntity
  8
ASSI
100
AcDbEllipse
 62
7
  6
CONTINUOUS
 10
1.2095920757
 20
18.4050892955
 30
0.0
 11
0.2497264901
 21
-0.0900037588
 31
0.0
 40
0.1298948903
 41
-3.0936186356
 42
-2.3094133153
  0
ELLIPSE
  5
4B3
100
AcDbEntity
  8
ASSI
100
AcDbEllipse
 62
7
  6
CONTINUOUS
 10
-11.1833443433
 20
24.601557505
 30
0.0
 11
0.2497264901
 21
-0.0900037588
 31
0.0
 40
0.1298948903
 41
-2.3094133153
 42
-0.756070281
  0
ELLIPSE
  5
4B4
100
AcDbEntity
  8
ASSI
100
AcDbEllipse
 62
7
  6
CONTINUOUS
 10
-11.3769086294
 20
24.698339648
 30
0.0
 11
0.2497264901
 21
-0.0900037588
 31
0.0
 40
0.1298948903
 41
-3.0936186356
 42
-2.3094133153
  0
ELLIPSE
  5
4B5
100
AcDbEntity
  8
ASSI
100
AcDbEllipse
 62
7
  6
CONTINUOUS
 10
10.0801511192
 20
21.9315354745
 30
0.0
 11
0.4349639225
 21
0.9005141702
 31
0.0
 40
0.6016116119
 41
-0.8943064336
 42
-0.6381625531
  0
ELLIPSE
  5
4B6
100
AcDbEntity
  8
ASSI
100
AcDbEllipse
 62
7
  6
CONTINUOUS
 10
10.0801511192
 20
-14.8015243152
 30
0.0
 11
0.4349639225
 21
0.9005141702
 31
0.0
 40
0.6016116119
 41
-1.150450314
 42
-0.9391738336
  0
ELLIPSE
  5
4B7
100
AcDbEntity
  8
ASSI
100
AcDbEllipse
 62
7
  6
CONTINUOUS
 10
10.2558003708
 20
-14.889348941
 30
0.0
 11
0.9927147821
 21
0.620457446
 31
0.0
 40
0.0764819879
 41
-2.3927159682
 42
-1.0955168143
  0
ELLIPSE
  5
4B8
100
AcDbEntity
  8
ASSI
100
AcDbEllipse
 62
7
  6
CONTINUOUS
 10
-1.4912229369
 20
27.7172225026
 30
0.0
 11
1.004787277
 21
0.6140102217
 31
0.0
 40
0.0864918533
 41
0.0543763766
 42
0.7212730538
  0
ELLIPSE
  5
4B9
100
AcDbEntity
  8
ASSI
100
AcDbEllipse
 62
7
  6
CONTINUOUS
 10
-3.4806051268
 20
23.7904230371
 30
0.0
 11
-0.1172693628
 21
0.2208586762
 31
0.0
 40
0.5994421146
 41
-2.2699607138
 42
-0.6994689735
  0
ELLIPSE
  5
4BA
100
AcDbEntity
  8
ASSI
100
AcDbEllipse
 62
7
  6
CONTINUOUS
 10
5.6669390877
 20
74.6758312814
 30
0.0
 11
3.5378457856
 21
99.5794032239
 31
0.0
 40
0.0069684374
 41
4.1704972465
 42
4.1714623644
  0
ELLIPSE
  5
4BB
100
AcDbEntity
  8
ASSI
100
AcDbEllipse
 62
7
  6
CONTINUOUS
 10
-1.9722562629
 20
23.0362486051
 30
0.0
 11
-0.1174113663
 21
0.2209958577
 31
0.0
 40
0.5985429242
 41
-0.6989839728
 42
-0.0337839605
  0
ELLIPSE
  5
4BC
100
AcDbEntity
  8
ASSI
100
AcDbEllipse
 62
7
  6
CONTINUOUS
 10
3.4761046477
 20
23.4419413966
 30
0.0
 11
1.000203771
 21
-0.0143477891
 31
0.0
 40
0.4891226537
 41
-0.7775824994
 42
-0.0140546088
  0
ELLIPSE
  5
4BD
100
AcDbEntity
  8
0
100
AcDbEllipse
 62
7
  6
CONTINUOUS
 10
0.7052849766
 20
17.7185444257
 30
0.0
 11
-0.0888806443
 21
0.1794588445
 31
0.0
 40
0.6133070172
 41
-2.0679935957
 42
-0.6816034901
  0
ELLIPSE
  5
4BE
100
AcDbEntity
  8
ASSI
100
AcDbEllipse
 62
7
  6
CONTINUOUS
 10
-0.1431946827
 20
77.5808981666
 30
0.0
 11
0.7093717925
 21
100.9935570733
 31
0.0
 40
0.0069790045
 41
-2.1156864167
 42
-2.111971229
  0
ELLIPSE
  5
4BF
100
AcDbEntity
  8
ASSI
100
AcDbEllipse
 62
7
  6
CONTINUOUS
 10
-0.1431946827
 20
24.7429485178
 30
0.0
 11
1.0
 21
-0.0
 31
0.0
 40
0.5003427338
 41
0.7857407797
 42
1.3334966153
  0
ELLIPSE
  5
4C0
100
AcDbEntity
  8
ASSI
100
AcDbEllipse
 62
7
  6
CONTINUOUS
 10
-0.1431946827
 20
25.2515910618
 30
0.0
 11
0.9999753489
 21
-0.014348771
 31
0.0
 40
0.4893460778
 41
1.5857281126
 42
2.3628734463
  0
ELLIPSE
  5
4C1
100
AcDbEntity
  8
ASSI
100
AcDbEllipse
 62
7
  6
CONTINUOUS
 10
3.4548096667
 20
22.9439463431
 30
0.0
 11
1.0006854676
 21
0.0
 31
0.0
 40
0.499657501
 41
0.4959893425
 42
0.7850555471
  0
ELLIPSE
  5
4C2
100
AcDbEntity
  8
ASSI
100
AcDbEllipse
 62
7
  6
CONTINUOUS
 10
1.0036313388
 20
18.7834433599
 30
0.0
 11
0.249929385
 21
0.0111824824
 31
0.0
 40
0.5313301283
 41
3.1180383302
 42
3.9032222197
  0
ELLIPSE
  5
4C3
100
AcDbEntity
  8
ASSI
100
AcDbEllipse
 62
7
  6
CONTINUOUS
 10
3.0233306612
 20
17.7735936987
 30
0.0
 11
0.249929385
 21
0.0111824824
 31
0.0
 40
0.5313301283
 41
-2.3799630874
 42
-0.8266200532
  0
ELLIPSE
  5
4C4
100
AcDbEntity
  8
ASSI
100
AcDbEllipse
 62
7
  6
CONTINUOUS
 10
-9.563170044
 20
24.0668440512
 30
0.0
 11
0.249929385
 21
0.0111824824
 31
0.0
 40
0.5313301283
 41
-2.3799630874
 42
-0.8266200532
  0
ELLIPSE
  5
4C5
100
AcDbEntity
  8
ASSI
100
AcDbEllipse
 62
7
  6
CONTINUOUS
 10
-11.5828693664
 20
25.0766937124
 30
0.0
 11
0.249929385
 21
0.0111824824
 31
0.0
 40
0.5313301283
 41
3.1180383322
 42
3.9032222197
  0
ELLIPSE
  5
4C6
100
AcDbEntity
  8
ASSI
100
AcDbEllipse
 62
7
  6
CONTINUOUS
 10
3.0233306612
 20
-21.4684443305
 30
0.0
 11
0.220014872
 21
0.1791173313
 31
0.0
 40
0.6627826692
 41
-2.8510033574
 42
-2.6599685648
  0
ELLIPSE
  5
4C7
100
AcDbEntity
  8
ASSI
100
AcDbEllipse
 62
7
  6
CONTINUOUS
 10
1.4031563618
 20
-21.865463962
 30
0.0
 11
0.220014872
 21
0.1791173313
 31
0.0
 40
0.6627826692
 41
-1.8038058062
 42
-1.2976603231
  0
ELLIPSE
  5
4C8
100
AcDbEntity
  8
ASSI
100
AcDbEllipse
 62
7
  6
CONTINUOUS
 10
-2.8971868084
 20
21.4487210204
 30
0.0
 11
0.199943508
 21
0.008945986
 31
0.0
 40
0.5313301283
 41
3.1180383302
 42
3.9032222197
  0
ELLIPSE
  5
4C9
100
AcDbEntity
  8
ASSI
100
AcDbEllipse
 62
7
  6
CONTINUOUS
 10
-0.6065384113
 20
20.3033968218
 30
0.0
 11
0.199943508
 21
0.008945986
 31
0.0
 40
0.5313301283
 41
-2.3799630874
 42
-0.8266200532
  0
ELLIPSE
  5
4CA
100
AcDbEntity
  8
ASSI
100
AcDbEllipse
 62
7
  6
CONTINUOUS
 10
-4.3188490125
 20
22.1595521224
 30
0.0
 11
0.199943508
 21
0.008945986
 31
0.0
 40
0.5313301283
 41
-2.3799630874
 42
-0.8266200532
  0
ELLIPSE
  5
4CB
100
AcDbEntity
  8
ASSI
100
AcDbEllipse
 62
7
  6
CONTINUOUS
 10
-6.6094974097
 20
23.304876321
 30
0.0
 11
0.199943508
 21
0.008945986
 31
0.0
 40
0.5313301283
 41
3.1180383322
 42
3.9032222197
  0
ELLIPSE
  5
4CC
100
AcDbEntity
  8
ASSI
100
AcDbEllipse
 62
7
  6
CONTINUOUS
 10
-11.959337708
 20
24.6431976258
 30
0.0
 11
-0.2236507175
 21
0.4481039483
 31
0.0
 40
0.6114248242
 41
-0.6832297371
 42
0.8861965936
  0
ELLIPSE
  5
4CD
100
AcDbEntity
  8
ASSI
100
AcDbEllipse
 62
7
  6
CONTINUOUS
 10
3.0462456122
 20
17.1404059656
 30
0.0
 11
-0.2231080361
 21
0.4476242326
 31
0.0
 40
0.6130677323
 41
-2.2534169372
 42
-0.6839906064
  0
ELLIPSE
  5
4CE
100
AcDbEntity
  8
ASSI
100
AcDbEllipse
 62
7
  6
CONTINUOUS
 10
3.0462456122
 20
-20.654158829
 30
0.0
 11
-0.2236507175
 21
0.4481039483
 31
0.0
 40
0.6114248242
 41
2.4583629164
 42
4.0277892472
  0
ELLIPSE
  5
4CF
100
AcDbEntity
  8
0
100
AcDbEllipse
 62
7
  6
CONTINUOUS
 10
-9.6183770724
 20
22.8803754502
 30
0.0
 11
-0.0892456481
 21
0.1797773143
 31
0.0
 40
0.6105754279
 41
5.6028239993
 42
6.9892141049
  0
ELLIPSE
  5
4D0
100
AcDbEntity
  8
ASSI
100
AcDbEllipse
 62
7
  6
CONTINUOUS
 10
15.8329344138
 20
29.3701265402
 30
0.0
 11
18.2927339069
 21
9.4748417608
 31
0.0
 40
0.0170707209
 41
-2.6536573066
 42
-2.3141694431
  0
ELLIPSE
  5
4D1
100
AcDbEntity
  8
ASSI
100
AcDbEllipse
 62
7
  6
CONTINUOUS
 10
15.8329344138
 20
29.3701265402
 30
0.0
 11
18.2927339069
 21
9.4748417608
 31
0.0
 40
0.0170707209
 41
2.2964861198
 42
2.6359739833
  0
ELLIPSE
  5
4D2
100
AcDbEntity
  8
ASSI
100
AcDbEllipse
 62
7
  6
CONTINUOUS
 10
2.6489570932
 20
25.9226579102
 30
0.0
 11
0.2002571891
 21
-0.0481060446
 31
0.0
 40
0.261363135
 41
-0.7257858084
 42
0.0669778862
  0
ELLIPSE
  5
4D3
100
AcDbEntity
  8
RACCORDO
100
AcDbEllipse
 62
7
  6
CONTINUOUS
 10
1.1294520889
 20
-16.2135537372
 30
0.0
 11
-0.2685822327
 21
0.5369844567
 31
0.0
 40
0.6119614214
 41
-3.1700942144
 42
-2.2560086979
  0
ELLIPSE
  5
4D4
100
AcDbEntity
  8
ASSI
100
AcDbEllipse
 62
7
  6
CONTINUOUS
 10
1.4031563618
 20
-21.2396309371
 30
0.0
 11
0.220014872
 21
0.1791173313
 31
0.0
 40
0.6627826692
 41
-2.8510033574
 42
-1.2976603231
  0
ELLIPSE
  5
4D5
100
AcDbEntity
  8
ASSI
100
AcDbEllipse
 62
7
  6
CONTINUOUS
 10
10.2558003708
 20
21.8437108487
 30
0.0
 11
-0.7356038977
 21
1.2035991204
 31
0.0
 40
0.5552491559
 41
4.9268361304
 42
6.2240352843
  0
ELLIPSE
  5
4D6
100
AcDbEntity
  8
0
100
AcDbEllipse
 62
7
  6
CONTINUOUS
 10
4.4881393097
 20
15.3009722025
 30
0.0
 11
-0.894612936
 21
1.7887945813
 31
0.0
 40
0.6124635976
 41
4.1145333773
 42
4.2146921133
  0
ELLIPSE
  5
4D7
100
AcDbEntity
  8
0
100
AcDbEllipse
 62
7
  6
CONTINUOUS
 10
4.4881393097
 20
15.3009722025
 30
0.0
 11
-0.894612936
 21
1.7887945813
 31
0.0
 40
0.6124635976
 41
-1.6023899898
 42
-1.470288718
  0
ELLIPSE
  5
4D8
100
AcDbEntity
  8
0
100
AcDbEllipse
 62
7
  6
CONTINUOUS
 10
4.4881393097
 20
-15.306871295
 30
0.0
 11
-0.894811907
 21
1.788971565
 31
0.0
 40
0.6123121697
 41
-3.0410143285
 42
-2.9089130568
  0
ELLIPSE
  5
4D9
100
AcDbEntity
  8
0
100
AcDbEllipse
 62
7
  6
CONTINUOUS
 10
4.4881393097
 20
-15.306871295
 30
0.0
 11
-0.894811907
 21
1.788971565
 31
0.0
 40
0.6123121697
 41
-2.4428098527
 42
-2.3909185435
  0
ENDSEC
  0
SECTION
  2
OBJECTS
  0
DICTIONARY
  5
C
100
AcDbDictionary
280
0
281
1
  3
ACAD_GROUP
350
D
  3
ACAD_MLINESTYLE
350
17
  3
ACAD_LAYOUT
350
1A
  3
ACAD_PLOTSETTINGS
350
19
  3
ACAD_PLOTSTYLENAME
350
E
  0
DICTIONARY
  5
D
102
{ACAD_REACTORS
330
C
102
}
100
AcDbDictionary
280
0
281
1
  0
ACDBDICTIONARYWDFLT
  5
E
102
{ACAD_REACTORS
330
C
102
}
100
AcDbDictionary
281
1
  3
Normal
350
F
100
AcDbDictionaryWithDefault
340
F
  0
DICTIONARY
  5
17
102
{ACAD_REACTORS
330
C
102
}
100
AcDbDictionary
280
0
281
1
  3
Standard
350
18
  0
DICTIONARY
  5
19
102
{ACAD_REACTORS
330
C
102
}
100
AcDbDictionary
281
1
  0
DICTIONARY
  5
1A
102
{ACAD_REACTORS
330
C
102
}
100
AcDbDictionary
281
1
  3
Model
350
4DA
  3
Layout1
350
4DB
  0
ACDBPLACEHOLDER
  5
F
102
{ACAD_REACTORS
330
E
102
}
  0
MLINESTYLE
  5
18
102
{ACAD_REACTORS
330
17
102
}
100
AcDbMlineStyle
  2
STANDARD
 70
0
  3

 62
256
 51
90.0
 52
90.0
 71
2
 49
0.5
 62
256
  6
BYLAYER
 49
-0.5
 62
256
  6
BYLAYER
  0
LAYOUT
  5
4DA
102
{ACAD_REACTORS
330
1A
102
}
100
AcDbPlotSettings
  1

  2
none_device
  4
ISO_A4_(297.00_x_210.00_MM)
  6

 40
0.0
 41
0.0
 42
0.0
 43
0.0
 44
297.0
 45
210.0
 46
0.0
 47
0.0
 48
0.0
 49
0.0
140
0.0
141
0.0
142
1.0
143
1.0
 70
1024
 72
1
 73
0
 74
0
  7

 75
0
147
1.0
148
0.0
149
0.0
100
AcDbLayout
  1
Model
 70
0
 71
0
 10
0.0
 20
0.0
 11
297.0
 21
210.0
 12
0.0
 22
0.0
 32
0.0
 14
0.0
 24
0.0
 34
0.0
 15
0.0
 25
0.0
 35
0.0
146
0.0
 13
0.0
 23
0.0
 33
0.0
 16
1.0
 26
0.0
 36
0.0
 17
0.0
 27
1.0
 37
0.0
 76
0
330
220
345
0
346
0
  0
LAYOUT
  5
4DB
102
{ACAD_REACTORS
330
1A
102
}
100
AcDbPlotSettings
  1

  2
none_device
  4
ISO_A4_(297.00_x_210.00_MM)
  6

 40
0.0
 41
0.0
 42
0.0
 43
0.0
 44
297.0
 45
210.0
 46
0.0
 47
0.0
 48
0.0
 49
0.0
140
0.0
141
0.0
142
1.0
143
1.0
 70
0
 72
1
 73
0
 74
0
  7

 75
0
147
1.0
148
0.0
149
0.0
100
AcDbLayout
  1
Layout1
 70
0
 71
1
 10
0.0
 20
0.0
 11
297.0
 21
210.0
 12
0.0
 22
0.0
 32
0.0
 14
0.0
 24
0.0
 34
0.0
 15
0.0
 25
0.0
 35
0.0
146
0.0
 13
0.0
 23
0.0
 33
0.0
 16
1.0
 26
0.0
 36
0.0
 17
0.0
 27
1.0
 37
0.0
 76
0
330
221
345
0
346
0
  0
ENDSEC
  0
EOF
