  0
SECTION
  2
HEADER
  9
$ACADVER
  1
AC1024
  9
$DWGCODEPAGE
  3
ANSI_1252
  9
$EXTMAX
 10
297.0
 20
210.0
 30
0.0
  9
$EXTMIN
 10
0.0
 20
0.0
 30
0.0
  9
$LIMMIN
 10
0.0
 20
0.0
  9
$LIMMAX
 10
297.0
 20
210.0
  9
$VIEWCTR
 10
148.5
 20
105.0
  9
$VIEWSIZE
 40
210.0
  9
$CLAYER
  8
0
  9
$LTSCALE
 40
16.335
  9
$CELTYPE
  6
BYLAYER
  9
$DIMSCALE
 40
1.0
  9
$DIMASZ
 40
3.0
  9
$DIMEXO
 40
0.5
  9
$DIMDLI
 40
11.286
  9
$DIMEXE
 40
1.5
  9
$DIMCEN
 40
2.673
  9
$DIMLFAC
 40
1.0
  9
$DIMBLK
  1
_FILLED
  9
$DIMALT
 70
0
  9
$DIMALTF
 40
0.0393700787
  9
$DIMTXT
 40
3.0
  9
$DIMTOL
 70
1
  9
$DIMLIM
 70
0
  9
$DIMTFAC
 40
1.0
  9
$DIMTP
 40
0.01
  9
$DIMTM
 40
0.01
  9
$DIMGAP
 40
0.625
  9
$DIMDSEP
 70
44
  9
$AUNITS
 70
0
  9
$PDMODE
 70
3
  9
$PDSIZE
 40
3.0
  9
$HANDSEED
  5
5C0
  9
$TILEMODE
 70
1
  9
$MEASUREMENT
 70
1
  9
$INSUNITS
 70
4
  0
ENDSEC
  0
SECTION
  2
CLASSES
  0
CLASS
  1
ACDBDICTIONARYWDFLT
  2
AcDbDictionaryWithDefault
  3
AutoCAD 2000
 90
0
 91
1
280
0
281
0
  0
CLASS
  1
ACDBPLACEHOLDER
  2
AcDbPlaceHolder
  3
AutoCAD 2000
 90
0
 91
1
280
0
281
0
  0
CLASS
  1
LAYOUT
  2
AcDbLayout
  3
AutoCAD 2000
 90
0
 91
0
280
0
281
0
  0
ENDSEC
  0
SECTION
  2
TABLES
  0
TABLE
  2
VPORT
  5
8
100
AcDbSymbolTable
 70
2
  0
VPORT
  5
1F4
100
AcDbSymbolTableRecord
100
AcDbViewportTableRecord
  2
*ACTIVE
 70
0
 10
0.0
 20
0.0
 11
1.0
 21
1.0
 12
148.5
 22
105.0
 13
0.0
 23
0.0
 14
1.0
 24
1.0
 15
0.0
 25
0.0
 16
0.0
 26
0.0
 36
1.0
 17
0.0
 27
0.0
 37
0.0
 40
210.0
 41
1.4142857143
 42
50.0
 43
0.0
 44
0.0
 50
0.0
 51
0.0
 71
0
 72
100
 73
1
 74
1
 75
0
 76
0
 77
0
 78
0
  0
ENDTAB
  0
TABLE
  2
LTYPE
  5
5
100
AcDbSymbolTable
 70
6
  0
LTYPE
  5
14
100
AcDbSymbolTableRecord
100
AcDbLinetypeTableRecord
  2
BYBLOCK
 70
0
  3

 72
65
 73
0
 40
0.0
  0
LTYPE
  5
15
100
AcDbSymbolTableRecord
100
AcDbLinetypeTableRecord
  2
BYLAYER
 70
0
  3

 72
65
 73
0
 40
0.0
  0
LTYPE
  5
16
100
AcDbSymbolTableRecord
100
AcDbLinetypeTableRecord
  2
CONTINUOUS
 70
64
  3
Solid line
 72
65
 73
0
 40
0.0
  0
LTYPE
  5
1F5
100
AcDbSymbolTableRecord
100
AcDbLinetypeTableRecord
  2
CENTER
 70
64
  3
____ _ ____ _ ____ _ ____ _ ____ _ ____ _ ____
 72
65
 73
4
 40
0.6
 49
0.375
 74
0
 49
-0.075
 74
0
 49
0.075
 74
0
 49
-0.075
 74
0
  0
LTYPE
  5
1F6
100
AcDbSymbolTableRecord
100
AcDbLinetypeTableRecord
  2
HIDDEN
 70
64
  3
- - - - - - - - - - - - - - - - - - - -
 72
65
 73
2
 40
0.2
 49
0.1
 74
0
 49
-0.1
 74
0
  0
LTYPE
  5
1F7
100
AcDbSymbolTableRecord
100
AcDbLinetypeTableRecord
  2
PHANTOM
 70
64
  3
_____ _ _ _____ _ _ _____ _ _ _____
 72
65
 73
6
 40
0.8
 49
0.45
 74
0
 49
-0.05
 74
0
 49
0.1
 74
0
 49
-0.05
 74
0
 49
0.1
 74
0
 49
-0.05
 74
0
  0
LTYPE
  5
1F8
100
AcDbSymbolTableRecord
100
AcDbLinetypeTableRecord
  2
DOT
 70
64
  3
. . . . . . . . . . . . . . . . . . . .
 72
65
 73
2
 40
0.2
 49
0.1
 74
0
 49
-0.1
 74
0
  0
LTYPE
  5
1F9
100
AcDbSymbolTableRecord
100
AcDbLinetypeTableRecord
  2
DASHED
 70
64
  3
- - - - - - - - - - - - - - - - - - - -
 72
65
 73
2
 40
0.2
 49
0.1
 74
0
 49
-0.1
 74
0
  0
ENDTAB
  0
TABLE
  2
LAYER
  5
2
100
AcDbSymbolTable
 70
36
  0
LAYER
  5
10
100
AcDbSymbolTableRecord
100
AcDbLayerTableRecord
  2
0
 70
0
 62
7
  6
CONTINUOUS
370
-3
390
F
  0
LAYER
  5
1FA
100
AcDbSymbolTableRecord
100
AcDbLayerTableRecord
  2
DEFAULT_1
 70
0
 62
7
  6
CENTER
370
-3
390
F
  0
LAYER
  5
1FB
100
AcDbSymbolTableRecord
100
AcDbLayerTableRecord
  2
DEFAULT_2
 70
0
 62
7
  6
HIDDEN
370
-3
390
F
  0
LAYER
  5
1FC
100
AcDbSymbolTableRecord
100
AcDbLayerTableRecord
  2
DEFAULT_3
 70
0
 62
7
  6
PHANTOM
370
-3
390
F
  0
LAYER
  5
1FD
100
AcDbSymbolTableRecord
100
AcDbLayerTableRecord
  2
ASSI
 70
0
 62
7
  6
CONTINUOUS
370
-3
390
F
  0
LAYER
  5
1FE
100
AcDbSymbolTableRecord
100
AcDbLayerTableRecord
  2
COLORE_TOP
 70
0
 62
7
  6
CONTINUOUS
370
-3
390
F
  0
LAYER
  5
1FF
100
AcDbSymbolTableRecord
100
AcDbLayerTableRecord
  2
COORDINATE
 70
0
 62
7
  6
CONTINUOUS
370
-3
390
F
  0
LAYER
  5
200
100
AcDbSymbolTableRecord
100
AcDbLayerTableRecord
  2
COORD_ORIGINE
 70
0
 62
7
  6
CONTINUOUS
370
-3
390
F
  0
LAYER
  5
201
100
AcDbSymbolTableRecord
100
AcDbLayerTableRecord
  2
COPY-PUBBLISH
 70
0
 62
7
  6
CONTINUOUS
370
-3
390
F
  0
LAYER
  5
202
100
AcDbSymbolTableRecord
100
AcDbLayerTableRecord
  2
COPY_PUBLISH
 70
0
 62
7
  6
CONTINUOUS
370
-3
390
F
  0
LAYER
  5
203
100
AcDbSymbolTableRecord
100
AcDbLayerTableRecord
  2
COSMETIC
 70
0
 62
7
  6
CONTINUOUS
370
-3
390
F
  0
LAYER
  5
204
100
AcDbSymbolTableRecord
100
AcDbLayerTableRecord
  2
COSMETICHE
 70
0
 62
7
  6
CONTINUOUS
370
-3
390
F
  0
LAYER
  5
205
100
AcDbSymbolTableRecord
100
AcDbLayerTableRecord
  2
CURVE
 70
0
 62
7
  6
CONTINUOUS
370
-3
390
F
  0
LAYER
  5
206
100
AcDbSymbolTableRecord
100
AcDbLayerTableRecord
  2
DRAFT
 70
0
 62
7
  6
CONTINUOUS
370
-3
390
F
  0
LAYER
  5
207
100
AcDbSymbolTableRecord
100
AcDbLayerTableRecord
  2
IMPIANTO
 70
0
 62
7
  6
CONTINUOUS
370
-3
390
F
  0
LAYER
  5
208
100
AcDbSymbolTableRecord
100
AcDbLayerTableRecord
  2
IMPORTED
 70
0
 62
7
  6
CONTINUOUS
370
-3
390
F
  0
LAYER
  5
209
100
AcDbSymbolTableRecord
100
AcDbLayerTableRecord
  2
IMPORT_IGES
 70
0
 62
7
  6
CONTINUOUS
370
-3
390
F
  0
LAYER
  5
20A
100
AcDbSymbolTableRecord
100
AcDbLayerTableRecord
  2
INTFCLR_11
 70
0
 62
7
  6
CONTINUOUS
370
-3
390
F
  0
LAYER
  5
20B
100
AcDbSymbolTableRecord
100
AcDbLayerTableRecord
  2
INTFCLR_3
 70
0
 62
7
  6
CONTINUOUS
370
-3
390
F
  0
LAYER
  5
20C
100
AcDbSymbolTableRecord
100
AcDbLayerTableRecord
  2
INTF_1
 70
0
 62
7
  6
CONTINUOUS
370
-3
390
F
  0
LAYER
  5
20D
100
AcDbSymbolTableRecord
100
AcDbLayerTableRecord
  2
INTF_12
 70
0
 62
7
  6
CONTINUOUS
370
-3
390
F
  0
LAYER
  5
20E
100
AcDbSymbolTableRecord
100
AcDbLayerTableRecord
  2
INTF_2
 70
0
 62
7
  6
CONTINUOUS
370
-3
390
F
  0
LAYER
  5
20F
100
AcDbSymbolTableRecord
100
AcDbLayerTableRecord
  2
INTF_3
 70
0
 62
7
  6
CONTINUOUS
370
-3
390
F
  0
LAYER
  5
210
100
AcDbSymbolTableRecord
100
AcDbLayerTableRecord
  2
LIVELLO_1
 70
0
 62
7
  6
CONTINUOUS
370
-3
390
F
  0
LAYER
  5
211
100
AcDbSymbolTableRecord
100
AcDbLayerTableRecord
  2
NOTE
 70
0
 62
7
  6
CONTINUOUS
370
-3
390
F
  0
LAYER
  5
212
100
AcDbSymbolTableRecord
100
AcDbLayerTableRecord
  2
PIANI
 70
0
 62
7
  6
CONTINUOUS
370
-3
390
F
  0
LAYER
  5
213
100
AcDbSymbolTableRecord
100
AcDbLayerTableRecord
  2
PIANI_ORIGINE
 70
0
 62
7
  6
CONTINUOUS
370
-3
390
F
  0
LAYER
  5
214
100
AcDbSymbolTableRecord
100
AcDbLayerTableRecord
  2
PIANI_SFORMO
 70
0
 62
7
  6
CONTINUOUS
370
-3
390
F
  0
LAYER
  5
215
100
AcDbSymbolTableRecord
100
AcDbLayerTableRecord
  2
PUNTI
 70
0
 62
7
  6
CONTINUOUS
370
-3
390
F
  0
LAYER
  5
216
100
AcDbSymbolTableRecord
100
AcDbLayerTableRecord
  2
RACCORDO
 70
0
 62
7
  6
CONTINUOUS
370
-3
390
F
  0
LAYER
  5
217
100
AcDbSymbolTableRecord
100
AcDbLayerTableRecord
  2
RGB__255__255__255__
 70
0
 62
7
  6
CONTINUOUS
370
-3
390
F
  0
LAYER
  5
218
100
AcDbSymbolTableRecord
100
AcDbLayerTableRecord
  2
RINTRACCIABILITA
 70
0
 62
7
  6
CONTINUOUS
370
-3
390
F
  0
LAYER
  5
219
100
AcDbSymbolTableRecord
100
AcDbLayerTableRecord
  2
SMUSSO
 70
0
 62
7
  6
CONTINUOUS
370
-3
390
F
  0
LAYER
  5
21A
100
AcDbSymbolTableRecord
100
AcDbLayerTableRecord
  2
SNAPLINE
 70
0
 62
7
  6
CONTINUOUS
370
-3
390
F
  0
LAYER
  5
21B
100
AcDbSymbolTableRecord
100
AcDbLayerTableRecord
  2
SUPERFICI
 70
0
 62
7
  6
CONTINUOUS
370
-3
390
F
  0
LAYER
  5
21C
100
AcDbSymbolTableRecord
100
AcDbLayerTableRecord
  2
TRASH
 70
0
 62
7
  6
CONTINUOUS
370
-3
390
F
  0
LAYER
  5
21D
100
AcDbSymbolTableRecord
100
AcDbLayerTableRecord
  2
XSEC_DATUMS
 70
0
 62
7
  6
CONTINUOUS
370
-3
390
F
  0
LAYER
  5
21E
100
AcDbSymbolTableRecord
100
AcDbLayerTableRecord
  2
___SHELL
 70
0
 62
7
  6
CONTINUOUS
370
-3
390
F
  0
ENDTAB
  0
TABLE
  2
STYLE
  5
3
100
AcDbSymbolTable
 70
1
  0
STYLE
  5
11
100
AcDbSymbolTableRecord
100
AcDbTextStyleTableRecord
  2
STANDARD
 70
0
 40
0.0
 41
0.8
 50
0.0
 71
0
 42
0.2
  3
txt
  4

  0
STYLE
  5
21F
100
AcDbSymbolTableRecord
100
AcDbTextStyleTableRecord
  2
TEXTSTYLE_1
 70
0
 40
0.0
 41
0.8
 50
0.0
 71
0
 42
0.2
  3
gdt
  4

  0
ENDTAB
  0
TABLE
  2
VIEW
  5
6
100
AcDbSymbolTable
 70
0
  0
ENDTAB
  0
TABLE
  2
UCS
  5
7
100
AcDbSymbolTable
 70
0
  0
ENDTAB
  0
TABLE
  2
APPID
  5
9
100
AcDbSymbolTable
 70
1
  0
APPID
  5
220
100
AcDbSymbolTableRecord
100
AcDbRegAppTableRecord
  2
ACAD
 70
0
  0
ENDTAB
  0
TABLE
  2
BLOCK_RECORD
  5
1
100
AcDbSymbolTable
 70
0
  0
BLOCK_RECORD
  5
221
100
AcDbSymbolTableRecord
100
AcDbBlockTableRecord
  2
*Model_Space
  0
BLOCK_RECORD
  5
222
100
AcDbSymbolTableRecord
100
AcDbBlockTableRecord
  2
*Paper_Space
  0
BLOCK_RECORD
  5
223
100
AcDbSymbolTableRecord
100
AcDbBlockTableRecord
  2
_FILLED
  0
ENDTAB
  0
TABLE
  2
DIMSTYLE
  5
A
100
AcDbSymbolTable
 70
1
100
AcDbDimStyleTable
 71
0
  0
DIMSTYLE
105
224
100
AcDbSymbolTableRecord
100
AcDbDimStyleTableRecord
  2
STANDARD
 70
0
  3

  4

 40
1.0
 41
3.0
 42
0.5
 43
0.38
 44
1.5
 45
0.0
 46
0.0
 47
0.01
 48
0.01
140
3.0
141
0.0
142
0.0
143
25.4
144
1.0
145
0.0
146
1.0
147
0.625
 71
1
 72
0
 73
0
 74
0
 75
0
 76
0
 77
1
 78
8
 79
2
170
0
171
1
172
0
173
0
174
0
175
0
176
0
177
0
178
0
270
2
179
2
271
2
272
2
273
2
274
2
275
0
280
0
281
0
282
0
283
1
284
8
285
0
286
0
287
3
288
0
340
11
278
44
341
223
342
223
343
223
344
223
  0
ENDTAB
  0
ENDSEC
  0
SECTION
  2
BLOCKS
  0
BLOCK
  5
20
100
AcDbEntity
  8
0
100
AcDbBlockBegin
  2
*Model_Space
 70
0
 10
0.0
 20
0.0
 30
0.0
  3
*Model_Space
  1

  0
ENDBLK
  5
21
100
AcDbEntity
  8
0
100
AcDbBlockEnd
  0
BLOCK
  5
1C
100
AcDbEntity
  8
0
100
AcDbBlockBegin
  2
*Paper_Space
 70
0
 10
0.0
 20
0.0
 30
0.0
  3
*Paper_Space
  1

  0
ENDBLK
  5
1D
100
AcDbEntity
  8
0
100
AcDbBlockEnd
  0
BLOCK
  5
225
100
AcDbEntity
  8
0
100
AcDbBlockBegin
  2
_FILLED
 70
64
 10
0.0
 20
0.0
 30
0.0
  3
_FILLED
  1

  0
SOLID
  5
226
100
AcDbEntity
  8
0
  6
BYBLOCK
 62
0
100
AcDbTrace
 10
0.0
 20
0.0
 30
0.0
 11
-1.0
 21
0.3166666667
 31
0.0
 12
-1.0
 22
-0.3166666667
 32
0.0
 13
-1.0
 23
-0.3166666667
 33
0.0
  0
ENDBLK
  5
227
100
AcDbEntity
  8
0
  6
BYBLOCK
 62
0
100
AcDbBlockEnd
  0
ENDSEC
  0
SECTION
  2
ENTITIES
  0
LINE
  5
228
100
AcDbEntity
  8
ASSI
100
AcDbLine
 62
7
  6
CONTINUOUS
 10
-12.6597964983
 20
21.7519619965
 30
0.0
 11
-12.2061646213
 21
22.1803416938
 31
0.0
  0
LWPOLYLINE
  5
229
100
AcDbEntity
  8
RACCORDO
100
AcDbPolyline
 62
7
  6
CONTINUOUS
 90
18
 70
0
 10
-15.674609211
 20
18.8412426658
 10
-15.7348769442
 20
18.7867124663
 10
-15.7914394928
 20
18.728141649
 10
-15.8444926457
 20
18.6660088194
 10
-15.8943671521
 20
18.6005317269
 10
-15.9412582465
 20
18.5318888967
 10
-15.9851884694
 20
18.4604007785
 10
-16.0261824988
 20
18.3862996536
 10
-16.0641666689
 20
18.3098790514
 10
-16.0990593239
 20
18.2314421809
 10
-16.1307481
 20
18.1512591118
 10
-16.1590671867
 20
18.069708126
 10
-16.1838780431
 20
17.9870634313
 10
-16.2049884804
 20
17.9036263362
 10
-16.2222024215
 20
17.8196962083
 10
-16.2352976047
 20
17.7354342151
 10
-16.2440029495
 20
17.65107325
 10
-16.2454334095
 20
17.6303899841
  0
LWPOLYLINE
  5
22A
100
AcDbEntity
  8
ASSI
100
AcDbPolyline
 62
7
  6
CONTINUOUS
 90
12
 70
0
 10
-12.6885991628
 20
23.0890750439
 10
-12.6926721772
 20
23.0854295176
 10
-12.7104072764
 20
23.0674846369
 10
-12.7260283779
 20
23.0483184683
 10
-12.7400745953
 20
23.0275072773
 10
-12.752452838
 20
23.0052155522
 10
-12.7627022932
 20
22.9824901651
 10
-12.7711025635
 20
22.9589470245
 10
-12.7776872889
 20
22.9341867429
 10
-12.782049843
 20
22.9093779597
 10
-12.7841618738
 20
22.8846993272
 10
-12.7843702032
 20
22.8741047193
  0
LINE
  5
22B
100
AcDbEntity
  8
ASSI
100
AcDbLine
 62
7
  6
CONTINUOUS
 10
-12.6886745411
 20
23.0890095909
 30
0.0
 11
-11.4271153331
 21
24.19404433
 31
0.0
  0
LINE
  5
22C
100
AcDbEntity
  8
ASSI
100
AcDbLine
 62
250
  6
CONTINUOUS
 10
-12.558896642
 20
23.1007289115
 30
0.0
 11
-11.2980807653
 21
24.205112546
 31
0.0
  0
LINE
  5
22D
100
AcDbEntity
  8
RACCORDO
100
AcDbLine
 62
7
  6
CONTINUOUS
 10
-13.1052036994
 20
20.9680692909
 30
0.0
 11
-15.674609211
 21
18.8412426658
 31
0.0
  0
LINE
  5
22E
100
AcDbEntity
  8
RACCORDO
100
AcDbLine
 62
7
  6
CONTINUOUS
 10
-15.6675149832
 20
18.8471681477
 30
0.0
 11
-15.6680500856
 21
18.8467265107
 31
0.0
  0
LINE
  5
22F
100
AcDbEntity
  8
ASSI
100
AcDbLine
 62
7
  6
CONTINUOUS
 10
-11.4224575663
 20
24.1978616978
 30
0.0
 11
-11.4270716583
 21
24.194082586
 31
0.0
  0
LINE
  5
230
100
AcDbEntity
  8
ASSI
100
AcDbLine
 62
7
  6
CONTINUOUS
 10
-11.4224224931
 20
24.1978885771
 30
0.0
 11
-10.9781451149
 21
24.5378221405
 31
0.0
  0
LINE
  5
231
100
AcDbEntity
  8
ASSI
100
AcDbLine
 62
250
  6
CONTINUOUS
 10
-11.2980807653
 20
24.205112546
 30
0.0
 11
-10.8546097165
 21
24.5444291561
 31
0.0
  0
LWPOLYLINE
  5
232
100
AcDbEntity
  8
RACCORDO
100
AcDbPolyline
 62
7
  6
CONTINUOUS
 90
3
 70
0
 10
2.1151885345
 20
30.4252758406
 10
2.0956595898
 20
30.4131510065
 10
2.0763332865
 20
30.4007251258
  0
LWPOLYLINE
  5
233
100
AcDbEntity
  8
0
100
AcDbPolyline
 62
7
  6
CONTINUOUS
 90
3
 70
0
 10
2.1151885345
 20
30.4252758406
 10
2.0956595898
 20
30.4131510065
 10
2.0763332865
 20
30.4007251258
  0
LINE
  5
234
100
AcDbEntity
  8
RACCORDO
100
AcDbLine
 62
7
  6
CONTINUOUS
 10
2.2831405119
 20
30.525835963
 30
0.0
 11
2.1151885345
 21
30.4252758406
 31
0.0
  0
LINE
  5
235
100
AcDbEntity
  8
0
100
AcDbLine
 62
7
  6
CONTINUOUS
 10
2.2831405119
 20
30.525835963
 30
0.0
 11
2.1151885345
 21
30.4252758406
 31
0.0
  0
LINE
  5
236
100
AcDbEntity
  8
RACCORDO
100
AcDbLine
 62
250
  6
CONTINUOUS
 10
2.2274826818
 20
30.4876646646
 30
0.0
 11
2.0701384886
 21
30.3935134467
 31
0.0
  0
LINE
  5
237
100
AcDbEntity
  8
0
100
AcDbLine
 62
250
  6
CONTINUOUS
 10
2.2274826818
 20
30.4876646646
 30
0.0
 11
2.0701384886
 21
30.3935134467
 31
0.0
  0
LWPOLYLINE
  5
238
100
AcDbEntity
  8
ASSI
100
AcDbPolyline
 62
7
  6
CONTINUOUS
 90
5
 70
0
 10
-10.9004041102
 20
24.576809553
 10
-10.9273405081
 20
24.5674327884
 10
-10.9527709678
 20
24.5547752225
 10
-10.9757697434
 20
24.5396164301
 10
-10.9781274149
 20
24.5378355303
  0
LINE
  5
239
100
AcDbEntity
  8
ASSI
100
AcDbLine
 62
250
  6
CONTINUOUS
 10
-12.3314540121
 20
21.7852130292
 30
0.0
 11
-12.2061646213
 21
21.9035279758
 31
0.0
  0
LINE
  5
23A
100
AcDbEntity
  8
ASSI
100
AcDbLine
 62
7
  6
CONTINUOUS
 10
-9.4141777145
 20
20.7961110847
 30
0.0
 11
-8.6767692714
 21
21.432115461
 31
0.0
  0
LINE
  5
23B
100
AcDbEntity
  8
RACCORDO
100
AcDbLine
 62
250
  6
CONTINUOUS
 10
-12.78174409
 20
20.9961136648
 30
0.0
 11
-15.3417262268
 21
18.8771417074
 31
0.0
  0
LINE
  5
23C
100
AcDbEntity
  8
ASSI
100
AcDbLine
 62
250
  6
CONTINUOUS
 10
-8.8405747281
 20
23.2181227183
 30
0.0
 11
-8.4186759779
 21
23.5661032498
 31
0.0
  0
LINE
  5
23D
100
AcDbEntity
  8
ASSI
100
AcDbLine
 62
250
  6
CONTINUOUS
 10
-8.6767692714
 20
22.9885292973
 30
0.0
 11
-8.2548705212
 21
23.3365098288
 31
0.0
  0
LINE
  5
23E
100
AcDbEntity
  8
ASSI
100
AcDbLine
 62
250
  6
CONTINUOUS
 10
-10.1658579596
 20
22.1396306269
 30
0.0
 11
-8.8405747281
 21
23.2181227183
 31
0.0
  0
LINE
  5
23F
100
AcDbEntity
  8
ASSI
100
AcDbLine
 62
250
  6
CONTINUOUS
 10
-10.0020525029
 20
21.9100372059
 30
0.0
 11
-8.6767692714
 21
22.9885292973
 31
0.0
  0
LINE
  5
240
100
AcDbEntity
  8
ASSI
100
AcDbLine
 62
7
  6
CONTINUOUS
 10
-2.444524151
 20
26.4860771308
 30
0.0
 11
-8.1483390977
 21
21.9057951761
 31
0.0
  0
LINE
  5
241
100
AcDbEntity
  8
ASSI
100
AcDbLine
 62
7
  6
CONTINUOUS
 10
-2.5015613862
 20
26.5626335532
 30
0.0
 11
-8.2807853243
 21
21.9589885667
 31
0.0
  0
LINE
  5
242
100
AcDbEntity
  8
RACCORDO
100
AcDbLine
 62
250
  6
CONTINUOUS
 10
2.2274826818
 20
30.4876646646
 30
0.0
 11
-4.1571200553
 21
25.4948932485
 31
0.0
  0
LINE
  5
243
100
AcDbEntity
  8
0
100
AcDbLine
 62
250
  6
CONTINUOUS
 10
2.2274826818
 20
30.4876646646
 30
0.0
 11
-4.1571200553
 21
25.4948932485
 31
0.0
  0
LINE
  5
244
100
AcDbEntity
  8
RACCORDO
100
AcDbLine
 62
250
  6
CONTINUOUS
 10
2.8066224279
 20
30.4949566235
 30
0.0
 11
-2.1539623175
 21
26.6157699703
 31
0.0
  0
LINE
  5
245
100
AcDbEntity
  8
0
100
AcDbLine
 62
250
  6
CONTINUOUS
 10
2.8066224279
 20
30.4949566235
 30
0.0
 11
-2.1539623175
 21
26.6157699703
 31
0.0
  0
LINE
  5
246
100
AcDbEntity
  8
RACCORDO
100
AcDbLine
 62
250
  6
CONTINUOUS
 10
-8.591674746
 20
22.0838487673
 30
0.0
 11
2.0701384886
 21
30.3935134467
 31
0.0
  0
LINE
  5
247
100
AcDbEntity
  8
0
100
AcDbLine
 62
250
  6
CONTINUOUS
 10
-8.591674746
 20
22.0838487673
 30
0.0
 11
2.0701384886
 21
30.3935134467
 31
0.0
  0
LINE
  5
248
100
AcDbEntity
  8
DRAFT
100
AcDbLine
 62
7
  6
CONTINUOUS
 10
-8.3694502758
 20
21.9945984101
 30
0.0
 11
-2.9022860712
 21
26.245757615
 31
0.0
  0
LINE
  5
249
100
AcDbEntity
  8
0
100
AcDbLine
 62
7
  6
CONTINUOUS
 10
-8.3694502758
 20
21.9945984101
 30
0.0
 11
-2.9022860712
 21
26.245757615
 31
0.0
  0
LWPOLYLINE
  5
24A
100
AcDbEntity
  8
RACCORDO
100
AcDbPolyline
 62
7
  6
CONTINUOUS
 90
7
 70
0
 10
2.0763332865
 20
30.4007251258
 10
2.0572147142
 20
30.388001712
 10
2.0383084629
 20
30.3749840833
 10
2.0196186586
 20
30.361675338
 10
2.0011497925
 20
30.3480789384
 10
1.9829065031
 20
30.3341987266
 10
-8.5990290614
 20
22.0868024261
  0
LWPOLYLINE
  5
24B
100
AcDbEntity
  8
0
100
AcDbPolyline
 62
7
  6
CONTINUOUS
 90
7
 70
0
 10
2.0763332865
 20
30.4007251258
 10
2.0572147142
 20
30.388001712
 10
2.0383084629
 20
30.3749840833
 10
2.0196186586
 20
30.361675338
 10
2.0011497925
 20
30.3480789384
 10
1.9829065031
 20
30.3341987266
 10
-8.5990290614
 20
22.0868024261
  0
LINE
  5
24C
100
AcDbEntity
  8
0
100
AcDbLine
 62
250
  6
CONTINUOUS
 10
-9.7828795393
 20
19.7916036283
 30
0.0
 11
-9.628151623
 21
19.8929042333
 31
0.0
  0
LINE
  5
24D
100
AcDbEntity
  8
RACCORDO
100
AcDbLine
 62
7
  6
CONTINUOUS
 10
-2.9022860712
 20
26.245757615
 30
0.0
 11
-4.1571200553
 21
25.4948932485
 31
0.0
  0
LINE
  5
24E
100
AcDbEntity
  8
0
100
AcDbLine
 62
7
  6
CONTINUOUS
 10
-2.9022860712
 20
26.245757615
 30
0.0
 11
-4.1571200553
 21
25.4948932485
 31
0.0
  0
LWPOLYLINE
  5
24F
100
AcDbEntity
  8
ASSI
100
AcDbPolyline
 62
7
  6
CONTINUOUS
 90
4
 70
0
 10
-2.9813978069
 20
24.3269624931
 10
-3.0174105253
 20
24.3099062846
 10
-3.0505702279
 20
24.2896759772
 10
-3.0647154661
 20
24.279415276
  0
LINE
  5
250
100
AcDbEntity
  8
0
100
AcDbLine
 62
7
  6
CONTINUOUS
 10
1.3899714854
 20
26.2836531003
 30
0.0
 11
2.009421789
 21
26.5182770798
 31
0.0
  0
LINE
  5
251
100
AcDbEntity
  8
ASSI
100
AcDbLine
 62
7
  6
CONTINUOUS
 10
0.1744609552
 20
23.974921923
 30
0.0
 11
1.4898728264
 21
24.3603978652
 31
0.0
  0
LINE
  5
252
100
AcDbEntity
  8
ASSI
100
AcDbLine
 62
250
  6
CONTINUOUS
 10
6.3395297819
 20
-21.899337201
 30
0.0
 11
5.9041371169
 21
-21.9014011331
 31
0.0
  0
LWPOLYLINE
  5
253
100
AcDbEntity
  8
RACCORDO
100
AcDbPolyline
 62
7
  6
CONTINUOUS
 90
12
 70
0
 10
-0.0340114797
 20
-25.0875657615
 10
0.0268744231
 20
-25.1057781131
 10
0.0841802559
 20
-25.1173914555
 10
0.1432432691
 20
-25.1241109596
 10
0.20378912
 20
-25.1257100248
 10
0.2653412993
 20
-25.1219924931
 10
0.3276090551
 20
-25.1128176493
 10
0.3902940958
 20
-25.0980745707
 10
0.4530681114
 20
-25.0776863658
 10
0.5157893794
 20
-25.0515278476
 10
0.5783450078
 20
-25.0194562299
 10
0.6418714126
 20
-24.9804911
  0
LWPOLYLINE
  5
254
100
AcDbEntity
  8
RACCORDO
100
AcDbPolyline
 62
7
  6
CONTINUOUS
 90
10
 70
0
 10
-17.0747929748
 20
-18.2435386747
 10
-15.3369978448
 20
-19.0267160359
 10
-13.4834438342
 20
-19.8390176548
 10
-11.6086380783
 20
-20.6372467662
 10
-9.7130122938
 20
-21.4212226594
 10
-7.7969998889
 20
-22.1907667871
 10
-5.8610446085
 20
-22.9457071065
 10
-3.9055980616
 20
-23.6858781435
 10
-1.9311135192
 20
-24.4111166993
 10
-0.0338103083
 20
-25.0876392827
  0
LWPOLYLINE
  5
255
100
AcDbEntity
  8
ASSI
100
AcDbPolyline
 62
7
  6
CONTINUOUS
 90
9
 70
0
 10
-6.5507358906
 20
21.592969963
 10
-6.5648247435
 20
21.5795571314
 10
-6.5816797247
 20
21.5598712168
 10
-6.5961507427
 20
21.5383564636
 10
-6.6080627366
 20
21.5152884024
 10
-6.6173346213
 20
21.4907799251
 10
-6.6238072984
 20
21.4650912195
 10
-6.6273361021
 20
21.4386723272
 10
-6.6280289552
 20
21.4203983642
  0
LINE
  5
256
100
AcDbEntity
  8
ASSI
100
AcDbLine
 62
7
  6
CONTINUOUS
 10
-6.3806375384
 20
21.7419662036
 30
0.0
 11
-6.5511053286
 21
21.5926487329
 31
0.0
  0
LINE
  5
257
100
AcDbEntity
  8
ASSI
100
AcDbLine
 62
250
  6
CONTINUOUS
 10
-6.2193443288
 20
21.7558014735
 30
0.0
 11
-6.3890799037
 21
21.6071253705
 31
0.0
  0
LINE
  5
258
100
AcDbEntity
  8
RACCORDO
100
AcDbLine
 62
7
  6
CONTINUOUS
 10
4.3858713343
 20
29.8310593575
 30
0.0
 11
0.9786060505
 21
26.9874958123
 31
0.0
  0
LINE
  5
259
100
AcDbEntity
  8
0
100
AcDbLine
 62
7
  6
CONTINUOUS
 10
4.3858713343
 20
29.8310593575
 30
0.0
 11
0.9786060505
 21
26.9874958123
 31
0.0
  0
LINE
  5
25A
100
AcDbEntity
  8
DRAFT
100
AcDbLine
 62
7
  6
CONTINUOUS
 10
4.390765998
 20
29.4184196897
 30
0.0
 11
0.9786060505
 21
26.5994797493
 31
0.0
  0
LINE
  5
25B
100
AcDbEntity
  8
0
100
AcDbLine
 62
7
  6
CONTINUOUS
 10
4.390765998
 20
29.4184196897
 30
0.0
 11
0.9786060505
 21
26.5994797493
 31
0.0
  0
LINE
  5
25C
100
AcDbEntity
  8
ASSI
100
AcDbLine
 62
7
  6
CONTINUOUS
 10
-6.3805808412
 20
21.7420157468
 30
0.0
 11
-6.3748143234
 21
21.7467387378
 31
0.0
  0
LINE
  5
25D
100
AcDbEntity
  8
ASSI
100
AcDbLine
 62
250
  6
CONTINUOUS
 10
-5.3915743665
 20
22.0682436694
 30
0.0
 11
-2.7019892952
 21
24.2022775173
 31
0.0
  0
LINE
  5
25E
100
AcDbEntity
  8
ASSI
100
AcDbLine
 62
250
  6
CONTINUOUS
 10
-5.019953262
 20
21.9189922559
 30
0.0
 11
-2.4997740322
 21
23.9186121365
 31
0.0
  0
LINE
  5
25F
100
AcDbEntity
  8
RACCORDO
100
AcDbLine
 62
7
  6
CONTINUOUS
 10
3.4233818839
 20
30.2472521215
 30
0.0
 11
0.5233744745
 21
27.9506770128
 31
0.0
  0
LINE
  5
260
100
AcDbEntity
  8
0
100
AcDbLine
 62
7
  6
CONTINUOUS
 10
3.4233818839
 20
30.2472521215
 30
0.0
 11
0.5233744745
 21
27.9506770128
 31
0.0
  0
LINE
  5
261
100
AcDbEntity
  8
ASSI
100
AcDbLine
 62
250
  6
CONTINUOUS
 10
-2.9104500598
 20
24.2875626547
 30
0.0
 11
-6.2193443288
 21
21.7558014735
 31
0.0
  0
LINE
  5
262
100
AcDbEntity
  8
ASSI
100
AcDbLine
 62
7
  6
CONTINUOUS
 10
-3.0647184185
 20
24.2794191358
 30
0.0
 11
-6.3747714885
 21
21.7467715124
 31
0.0
  0
LINE
  5
263
100
AcDbEntity
  8
ASSI
100
AcDbLine
 62
250
  6
CONTINUOUS
 10
6.2311208485
 20
-21.6463231053
 30
0.0
 11
5.9041371169
 21
-21.6478731366
 31
0.0
  0
LWPOLYLINE
  5
264
100
AcDbEntity
  8
ASSI
100
AcDbPolyline
 62
7
  6
CONTINUOUS
 90
10
 70
0
 10
4.3235110721
 20
-23.8152042507
 10
4.3484781764
 20
-23.8235285084
 10
4.3753509095
 20
-23.8288371262
 10
4.4033963816
 20
-23.830644803
 10
4.4319103479
 20
-23.828698364
 10
4.459908106
 20
-23.8230101283
 10
4.4870245467
 20
-23.8136931744
 10
4.5126290093
 20
-23.8010533534
 10
4.5357941041
 20
-23.7858685174
 10
4.5385617631
 20
-23.7837826148
  0
LINE
  5
265
100
AcDbEntity
  8
ASSI
100
AcDbLine
 62
7
  6
CONTINUOUS
 10
4.3239279519
 20
-23.8153741307
 30
0.0
 11
3.116724585
 21
-23.3305340427
 31
0.0
  0
LINE
  5
266
100
AcDbEntity
  8
ASSI
100
AcDbLine
 62
250
  6
CONTINUOUS
 10
4.2734544513
 20
-23.7007455664
 30
0.0
 11
3.205048043
 21
-23.2716494662
 31
0.0
  0
LINE
  5
267
100
AcDbEntity
  8
ASSI
100
AcDbLine
 62
250
  6
CONTINUOUS
 10
4.2734544513
 20
-23.4006488426
 30
0.0
 11
3.4643174114
 21
-23.0756811658
 31
0.0
  0
LINE
  5
268
100
AcDbEntity
  8
ASSI
100
AcDbLine
 62
250
  6
CONTINUOUS
 10
4.3455089647
 20
-23.1647099973
 30
0.0
 11
3.5207090003
 21
-22.833451737
 31
0.0
  0
LWPOLYLINE
  5
269
100
AcDbEntity
  8
RACCORDO
100
AcDbPolyline
 62
7
  6
CONTINUOUS
 90
14
 70
0
 10
-17.495672752
 20
-17.4643246648
 10
-17.4955855663
 20
-17.4930177842
 10
-17.4908898928
 20
-17.5859393522
 10
-17.4795841866
 20
-17.6736749404
 10
-17.4618432217
 20
-17.7564357763
 10
-17.4377712349
 20
-17.8343773435
 10
-17.4075171002
 20
-17.9073042275
 10
-17.371289658
 20
-17.9750162791
 10
-17.3292891293
 20
-18.0373337683
 10
-17.2819962069
 20
-18.0937237775
 10
-17.2299919959
 20
-18.1437730996
 10
-17.1738604403
 20
-18.1872254861
 10
-17.1144643536
 20
-18.2237361143
 10
-17.0741877265
 20
-18.2438143045
  0
LWPOLYLINE
  5
26A
100
AcDbEntity
  8
RACCORDO
100
AcDbPolyline
 62
7
  6
CONTINUOUS
 90
10
 70
0
 10
-16.2454234344
 20
17.6306495112
 10
-16.4784350264
 20
13.7107154295
 10
-16.6913590867
 20
9.7393682846
 10
-16.8798336546
 20
5.7863884227
 10
-17.0438254968
 20
1.8521952926
 10
-17.1833185786
 20
-2.0628702579
 10
-17.2983011868
 20
-5.958496699
 10
-17.388764023
 20
-9.8343485534
 10
-17.4547102182
 20
-13.6900350676
 10
-17.495678848
 20
-17.4643008291
  0
LWPOLYLINE
  5
26B
100
AcDbEntity
  8
ASSI
100
AcDbPolyline
 62
7
  6
CONTINUOUS
 90
6
 70
0
 10
-8.2349068179
 20
22.9125767305
 10
-8.2331866295
 20
22.9155328794
 10
-8.2230118251
 20
22.9348510259
 10
-8.214127164
 20
22.9551453351
 10
-8.2068702832
 20
22.9755530108
 10
-8.2011274593
 20
22.996198807
  0
LINE
  5
26C
100
AcDbEntity
  8
ASSI
100
AcDbLine
 62
250
  6
CONTINUOUS
 10
-8.2413766065
 20
22.9500186014
 30
0.0
 11
-8.6767692714
 21
22.2115997466
 31
0.0
  0
LINE
  5
26D
100
AcDbEntity
  8
ASSI
100
AcDbLine
 62
7
  6
CONTINUOUS
 10
-8.2349022511
 20
22.9125843073
 30
0.0
 11
-8.6767692714
 21
22.1631850514
 31
0.0
  0
LINE
  5
26E
100
AcDbEntity
  8
ASSI
100
AcDbLine
 62
7
  6
CONTINUOUS
 10
-3.434196188
 20
19.3265799196
 30
0.0
 11
-2.8851446588
 21
19.7920689472
 31
0.0
  0
LINE
  5
26F
100
AcDbEntity
  8
ASSI
100
AcDbLine
 62
250
  6
CONTINUOUS
 10
-3.6389530089
 20
20.7194581459
 30
0.0
 11
-3.1131185655
 21
21.1531644532
 31
0.0
  0
LINE
  5
270
100
AcDbEntity
  8
ASSI
100
AcDbLine
 62
250
  6
CONTINUOUS
 10
-3.434196188
 20
20.4324663696
 30
0.0
 11
-2.9046993253
 21
20.8691934269
 31
0.0
  0
LINE
  5
271
100
AcDbEntity
  8
0
100
AcDbLine
 62
7
  6
CONTINUOUS
 10
1.5042464749
 20
25.8571127033
 30
0.0
 11
1.9057499803
 21
26.1860051206
 31
0.0
  0
LINE
  5
272
100
AcDbEntity
  8
ASSI
100
AcDbLine
 62
7
  6
CONTINUOUS
 10
0.1744609552
 20
23.974921923
 30
0.0
 11
-0.7025999574
 21
23.2564756835
 31
0.0
  0
LINE
  5
273
100
AcDbEntity
  8
RACCORDO
100
AcDbLine
 62
7
  6
CONTINUOUS
 10
4.2737437835
 20
26.6357520853
 30
0.0
 11
3.2099369499
 21
25.7643325429
 31
0.0
  0
LINE
  5
274
100
AcDbEntity
  8
RACCORDO
100
AcDbLine
 62
7
  6
CONTINUOUS
 10
2.6411325972
 20
25.2983952946
 30
0.0
 11
2.3709743459
 21
25.0770946107
 31
0.0
  0
LINE
  5
275
100
AcDbEntity
  8
0
100
AcDbLine
 62
7
  6
CONTINUOUS
 10
5.0487362461
 20
26.2056910878
 30
0.0
 11
3.595769675
 21
25.0154905508
 31
0.0
  0
LINE
  5
276
100
AcDbEntity
  8
RACCORDO
100
AcDbLine
 62
7
  6
CONTINUOUS
 10
5.2567283216
 20
26.2409658792
 30
0.0
 11
4.1929194031
 21
25.3695446288
 31
0.0
  0
LINE
  5
277
100
AcDbEntity
  8
ASSI
100
AcDbLine
 62
250
  6
CONTINUOUS
 10
-3.8173674114
 20
20.5742676557
 30
0.0
 11
-3.6389530089
 21
20.7194581459
 31
0.0
  0
LINE
  5
278
100
AcDbEntity
  8
ASSI
100
AcDbLine
 62
250
  6
CONTINUOUS
 10
-3.6126105905
 20
20.2872758794
 30
0.0
 11
-3.434196188
 21
20.4324663696
 31
0.0
  0
LINE
  5
279
100
AcDbEntity
  8
ASSI
100
AcDbLine
 62
250
  6
CONTINUOUS
 10
0.860939029
 20
25.1585285978
 30
0.0
 11
-0.9503806495
 21
23.7208778125
 31
0.0
  0
LINE
  5
27A
100
AcDbEntity
  8
ASSI
100
AcDbLine
 62
250
  6
CONTINUOUS
 10
1.0227424279
 20
24.9301544219
 30
0.0
 11
-0.7012309294
 21
23.5618307183
 31
0.0
  0
LINE
  5
27B
100
AcDbEntity
  8
ASSI
100
AcDbLine
 62
7
  6
CONTINUOUS
 10
-1.587947277
 20
23.4961370646
 30
0.0
 11
-2.4809587592
 21
22.7875828902
 31
0.0
  0
LINE
  5
27C
100
AcDbEntity
  8
0
100
AcDbLine
 62
250
  6
CONTINUOUS
 10
-1.4750708424
 20
22.3652273916
 30
0.0
 11
-1.4750305396
 21
22.365258236
 31
0.0
  0
LINE
  5
27D
100
AcDbEntity
  8
RACCORDO
100
AcDbLine
 62
250
  6
CONTINUOUS
 10
-1.1968004506
 20
22.3583561155
 30
0.0
 11
-1.1661920436
 21
22.3817757749
 31
0.0
  0
LINE
  5
27E
100
AcDbEntity
  8
0
100
AcDbLine
 62
250
  6
CONTINUOUS
 10
-1.1968004506
 20
22.3583561155
 30
0.0
 11
-1.1661920436
 21
22.3817757749
 31
0.0
  0
LINE
  5
27F
100
AcDbEntity
  8
ASSI
100
AcDbLine
 62
7
  6
CONTINUOUS
 10
-1.5201424042
 20
20.4435227767
 30
0.0
 11
-2.074223256
 21
20.0195743886
 31
0.0
  0
LINE
  5
280
100
AcDbEntity
  8
ASSI
100
AcDbLine
 62
250
  6
CONTINUOUS
 10
-1.3660749708
 20
20.4515123594
 30
0.0
 11
-1.9187960963
 21
20.0286043498
 31
0.0
  0
LWPOLYLINE
  5
281
100
AcDbEntity
  8
ASSI
100
AcDbPolyline
 62
7
  6
CONTINUOUS
 90
4
 70
0
 10
3.5134566841
 20
21.7055830403
 10
3.4777796443
 20
21.6866826161
 10
3.4453556316
 20
21.6646326986
 10
3.4404296216
 20
21.6607888746
  0
LWPOLYLINE
  5
282
100
AcDbEntity
  8
ASSI
100
AcDbPolyline
 62
7
  6
CONTINUOUS
 90
3
 70
0
 10
6.2499830916
 20
23.0934151059
 10
6.1989950292
 20
23.0682240224
 10
6.1475780126
 20
23.0368338623
  0
LINE
  5
283
100
AcDbEntity
  8
RACCORDO
100
AcDbLine
 62
250
  6
CONTINUOUS
 10
9.9910679741
 20
22.8292588617
 30
0.0
 11
9.9905691878
 21
22.8290699072
 31
0.0
  0
LINE
  5
284
100
AcDbEntity
  8
0
100
AcDbLine
 62
7
  6
CONTINUOUS
 10
9.9910679505
 20
22.8292588527
 30
0.0
 11
10.610518254
 21
23.0638828323
 31
0.0
  0
LINE
  5
285
100
AcDbEntity
  8
ASSI
100
AcDbLine
 62
7
  6
CONTINUOUS
 10
3.9788748048
 20
-21.9909594106
 30
0.0
 11
4.8210803162
 21
-22.3292081311
 31
0.0
  0
LINE
  5
286
100
AcDbEntity
  8
ASSI
100
AcDbLine
 62
7
  6
CONTINUOUS
 10
3.5775540633
 20
-21.237819949
 30
0.0
 11
3.9788748048
 21
-21.3989994063
 31
0.0
  0
LINE
  5
287
100
AcDbEntity
  8
ASSI
100
AcDbLine
 62
7
  6
CONTINUOUS
 10
4.8210803162
 20
-21.6728532175
 30
0.0
 11
5.0529755979
 21
-21.7659875906
 31
0.0
  0
LINE
  5
288
100
AcDbEntity
  8
ASSI
100
AcDbLine
 62
250
  6
CONTINUOUS
 10
5.9041371169
 20
-21.5150049274
 30
0.0
 11
6.2311208485
 21
-21.6463231053
 31
0.0
  0
LINE
  5
289
100
AcDbEntity
  8
ASSI
100
AcDbLine
 62
7
  6
CONTINUOUS
 10
6.2524418451
 20
-21.6503711431
 30
0.0
 11
5.9041371169
 21
-21.5104841117
 31
0.0
  0
LINE
  5
28A
100
AcDbEntity
  8
RACCORDO
100
AcDbLine
 62
7
  6
CONTINUOUS
 10
-2.8994042924
 20
20.5775285392
 30
0.0
 11
-1.5331993041
 21
22.3130821741
 31
0.0
  0
LINE
  5
28B
100
AcDbEntity
  8
0
100
AcDbLine
 62
7
  6
CONTINUOUS
 10
-2.8994042924
 20
20.5775285392
 30
0.0
 11
-1.5331993041
 21
22.3130821741
 31
0.0
  0
LINE
  5
28C
100
AcDbEntity
  8
RACCORDO
100
AcDbLine
 62
250
  6
CONTINUOUS
 10
-2.8926791407
 20
20.2070888056
 30
0.0
 11
-1.198655589
 21
22.3590855835
 31
0.0
  0
LINE
  5
28D
100
AcDbEntity
  8
0
100
AcDbLine
 62
250
  6
CONTINUOUS
 10
-2.8926791407
 20
20.2070888056
 30
0.0
 11
-1.198655589
 21
22.3590855835
 31
0.0
  0
LWPOLYLINE
  5
28E
100
AcDbEntity
  8
ASSI
100
AcDbPolyline
 62
7
  6
CONTINUOUS
 90
9
 70
0
 10
-2.2502257358
 20
19.8657405404
 10
-2.2645109322
 20
19.8521157024
 10
-2.2807912823
 20
19.8331205543
 10
-2.2949389633
 20
19.8122736756
 10
-2.3067341633
 20
19.7898221192
 10
-2.3160348616
 20
19.7659320065
 10
-2.3226784742
 20
19.7408166575
 10
-2.3264992451
 20
19.7149213474
 10
-2.327480349
 20
19.6932280144
  0
LINE
  5
28F
100
AcDbEntity
  8
ASSI
100
AcDbLine
 62
7
  6
CONTINUOUS
 10
-2.0800893059
 20
20.0147690798
 30
0.0
 11
-2.2505595415
 21
19.8654494671
 31
0.0
  0
LINE
  5
290
100
AcDbEntity
  8
ASSI
100
AcDbLine
 62
250
  6
CONTINUOUS
 10
-1.9187960963
 20
20.0286043498
 30
0.0
 11
-2.0885316712
 21
19.8799282467
 31
0.0
  0
LINE
  5
291
100
AcDbEntity
  8
ASSI
100
AcDbLine
 62
7
  6
CONTINUOUS
 10
-3.6126105905
 20
19.1727000152
 30
0.0
 11
-3.434196188
 21
19.3265799196
 31
0.0
  0
LINE
  5
292
100
AcDbEntity
  8
0
100
AcDbLine
 62
7
  6
CONTINUOUS
 10
3.957330476
 20
25.0616638201
 30
0.0
 11
3.9363339338
 21
25.0444644596
 31
0.0
  0
LINE
  5
293
100
AcDbEntity
  8
ASSI
100
AcDbLine
 62
7
  6
CONTINUOUS
 10
-2.0800326087
 20
20.014818623
 30
0.0
 11
-2.0742660909
 21
20.019541614
 31
0.0
  0
LINE
  5
294
100
AcDbEntity
  8
RACCORDO
100
AcDbLine
 62
7
  6
CONTINUOUS
 10
8.8223091963
 20
28.0789211969
 30
0.0
 11
5.9334726175
 21
25.7778596308
 31
0.0
  0
LINE
  5
295
100
AcDbEntity
  8
0
100
AcDbLine
 62
7
  6
CONTINUOUS
 10
8.8223091963
 20
28.0789211969
 30
0.0
 11
5.9334726175
 21
25.7778596308
 31
0.0
  0
LINE
  5
296
100
AcDbEntity
  8
ASSI
100
AcDbLine
 62
7
  6
CONTINUOUS
 10
0.81664482
 20
19.5748828831
 30
0.0
 11
3.4403772282
 21
21.6607626228
 31
0.0
  0
LINE
  5
297
100
AcDbEntity
  8
ASSI
100
AcDbLine
 62
250
  6
CONTINUOUS
 10
0.9123808301
 20
19.5364331432
 30
0.0
 11
3.598456812
 21
21.6718763204
 31
0.0
  0
LINE
  5
298
100
AcDbEntity
  8
ASSI
100
AcDbLine
 62
7
  6
CONTINUOUS
 10
6.1475780126
 20
23.0368338623
 30
0.0
 11
6.0935463062
 21
22.9972930481
 31
0.0
  0
LWPOLYLINE
  5
299
100
AcDbEntity
  8
ASSI
100
AcDbPolyline
 62
7
  6
CONTINUOUS
 90
5
 70
0
 10
3.6838903436
 20
18.7216986051
 10
3.6573699637
 20
18.7129755488
 10
3.6322583744
 20
18.7010804418
 10
3.6093144161
 20
18.6866421004
 10
3.602833094
 20
18.6818562669
  0
LWPOLYLINE
  5
29A
100
AcDbEntity
  8
ASSI
100
AcDbPolyline
 62
7
  6
CONTINUOUS
 90
7
 70
0
 10
-12.784370766
 20
22.5741819642
 10
-12.7843016221
 20
22.5681916559
 10
-12.7825942324
 20
22.5441562177
 10
-12.7782807462
 20
22.5193122651
 10
-12.7712127418
 20
22.4947915492
 10
-12.7613862194
 20
22.4711265461
 10
-12.7486953337
 20
22.4484453258
  0
LINE
  5
29B
100
AcDbEntity
  8
ASSI
100
AcDbLine
 62
7
  6
CONTINUOUS
 10
-12.7843704509
 20
22.5741509225
 30
0.0
 11
-12.7843704509
 21
22.8742476462
 31
0.0
  0
LINE
  5
29C
100
AcDbEntity
  8
0
100
AcDbLine
 62
7
  6
CONTINUOUS
 10
-12.7406091241
 20
21.5399627316
 30
0.0
 11
-12.7406091241
 21
20.9795929351
 31
0.0
  0
LINE
  5
29D
100
AcDbEntity
  8
ASSI
100
AcDbLine
 62
250
  6
CONTINUOUS
 10
-12.6990857382
 20
22.4801980719
 30
0.0
 11
-12.6990857382
 21
22.7802783842
 31
0.0
  0
LINE
  5
29E
100
AcDbEntity
  8
ASSI
100
AcDbLine
 62
7
  6
CONTINUOUS
 10
-12.2061646213
 20
21.8142310523
 30
0.0
 11
-12.2061646213
 21
22.1878561587
 31
0.0
  0
LINE
  5
29F
100
AcDbEntity
  8
ASSI
100
AcDbLine
 62
250
  6
CONTINUOUS
 10
-12.0995587304
 20
21.6920786561
 30
0.0
 11
-12.0995587304
 21
22.1450408295
 31
0.0
  0
LWPOLYLINE
  5
2A0
100
AcDbEntity
  8
ASSI
100
AcDbPolyline
 62
7
  6
CONTINUOUS
 90
3
 70
0
 10
-8.2011274593
 20
22.996198807
 10
-8.196839196
 20
23.0174503739
 10
-8.1941920256
 20
23.0386638623
  0
LINE
  5
2A1
100
AcDbEntity
  8
ASSI
100
AcDbLine
 62
7
  6
CONTINUOUS
 10
0.8663520445
 20
17.5993827959
 30
0.0
 11
0.687937642
 21
17.4455028914
 31
0.0
  0
LINE
  5
2A2
100
AcDbEntity
  8
ASSI
100
AcDbLine
 62
250
  6
CONTINUOUS
 10
3.8095309473
 20
21.5886667838
 30
0.0
 11
0.6615952237
 21
18.9922610221
 31
0.0
  0
LINE
  5
2A3
100
AcDbEntity
  8
ASSI
100
AcDbLine
 62
250
  6
CONTINUOUS
 10
4.0142877682
 20
21.3016750075
 30
0.0
 11
0.8663520445
 21
18.7052692459
 31
0.0
  0
LINE
  5
2A4
100
AcDbEntity
  8
ASSI
100
AcDbLine
 62
7
  6
CONTINUOUS
 10
0.8663520445
 20
17.5993827959
 30
0.0
 11
4.0044936476
 21
20.187710403
 31
0.0
  0
LINE
  5
2A5
100
AcDbEntity
  8
ASSI
100
AcDbLine
 62
7
  6
CONTINUOUS
 10
3.9635663905
 20
20.6078657184
 30
0.0
 11
3.050852517
 21
19.8566172083
 31
0.0
  0
LINE
  5
2A6
100
AcDbEntity
  8
ASSI
100
AcDbLine
 62
7
  6
CONTINUOUS
 10
3.1538364131
 20
18.3380632402
 30
0.0
 11
3.1584496273
 21
18.341841633
 31
0.0
  0
LINE
  5
2A7
100
AcDbEntity
  8
ASSI
100
AcDbLine
 62
250
  6
CONTINUOUS
 10
0.4831808212
 20
18.8470705319
 30
0.0
 11
0.6615952237
 21
18.9922610221
 31
0.0
  0
LINE
  5
2A8
100
AcDbEntity
  8
ASSI
100
AcDbLine
 62
250
  6
CONTINUOUS
 10
0.687937642
 20
18.5600787556
 30
0.0
 11
0.8663520445
 21
18.7052692459
 31
0.0
  0
LINE
  5
2A9
100
AcDbEntity
  8
ASSI
100
AcDbLine
 62
7
  6
CONTINUOUS
 10
4.0764768321
 20
21.0210528841
 30
0.0
 11
4.243716671
 21
21.1540093512
 31
0.0
  0
LINE
  5
2AA
100
AcDbEntity
  8
ASSI
100
AcDbLine
 62
7
  6
CONTINUOUS
 10
4.3656451302
 20
21.6240696272
 30
0.0
 11
6.0935754012
 21
22.9973321876
 31
0.0
  0
LINE
  5
2AB
100
AcDbEntity
  8
ASSI
100
AcDbLine
 62
250
  6
CONTINUOUS
 10
4.4102699883
 20
21.5679196633
 30
0.0
 11
6.2200140437
 21
23.0062032544
 31
0.0
  0
LINE
  5
2AC
100
AcDbEntity
  8
RACCORDO
100
AcDbLine
 62
7
  6
CONTINUOUS
 10
12.0244783489
 20
26.792857874
 30
0.0
 11
9.1244709396
 21
24.4962827653
 31
0.0
  0
LINE
  5
2AD
100
AcDbEntity
  8
0
100
AcDbLine
 62
7
  6
CONTINUOUS
 10
12.0244783489
 20
26.792857874
 30
0.0
 11
9.1244709396
 21
24.4962827653
 31
0.0
  0
LINE
  5
2AE
100
AcDbEntity
  8
ASSI
100
AcDbLine
 62
250
  6
CONTINUOUS
 10
3.7262982671
 20
18.6884096523
 30
0.0
 11
3.282825623
 21
18.3490918216
 31
0.0
  0
LINE
  5
2AF
100
AcDbEntity
  8
ASSI
100
AcDbLine
 62
7
  6
CONTINUOUS
 10
3.6028330723
 20
18.6818562954
 30
0.0
 11
3.1584838953
 21
18.3418678527
 31
0.0
  0
LINE
  5
2B0
100
AcDbEntity
  8
DRAFT
100
AcDbLine
 62
7
  6
CONTINUOUS
 10
5.46213071
 20
-17.2436265602
 30
0.0
 11
3.7444257846
 21
-16.5537575374
 31
0.0
  0
LWPOLYLINE
  5
2B1
100
AcDbEntity
  8
ASSI
100
AcDbPolyline
 62
7
  6
CONTINUOUS
 90
5
 70
0
 10
6.3202550539
 20
-21.6942813535
 10
6.3002711154
 20
-21.6772835176
 10
6.2787432578
 20
-21.6631227761
 10
6.2562298069
 20
-21.6519378076
 10
6.2521729091
 20
-21.6502655265
  0
LINE
  5
2B2
100
AcDbEntity
  8
ASSI
100
AcDbLine
 62
7
  6
CONTINUOUS
 10
-11.7219925761
 20
21.4012574095
 30
0.0
 11
-11.7219925761
 21
21.991805956
 31
0.0
  0
LINE
  5
2B3
100
AcDbEntity
  8
ASSI
100
AcDbLine
 62
250
  6
CONTINUOUS
 10
-11.6153866852
 20
21.3347492717
 30
0.0
 11
-11.6153866852
 21
22.0449436893
 31
0.0
  0
LINE
  5
2B4
100
AcDbEntity
  8
ASSI
100
AcDbLine
 62
250
  6
CONTINUOUS
 10
-11.39115099
 20
21.2446911612
 30
0.0
 11
-11.39115099
 21
21.9548855789
 31
0.0
  0
LINE
  5
2B5
100
AcDbEntity
  8
ASSI
100
AcDbLine
 62
250
  6
CONTINUOUS
 10
-11.0455026323
 20
21.161696858
 30
0.0
 11
-11.0455026323
 21
21.7217081374
 31
0.0
  0
LINE
  5
2B6
100
AcDbEntity
  8
ASSI
100
AcDbLine
 62
7
  6
CONTINUOUS
 10
-10.6020315835
 20
21.5436001664
 30
0.0
 11
-10.6020315835
 21
21.1550329022
 31
0.0
  0
LINE
  5
2B7
100
AcDbEntity
  8
ASSI
100
AcDbLine
 62
250
  6
CONTINUOUS
 10
-10.307451937
 20
21.5196476077
 30
0.0
 11
-10.307451937
 21
21.8197443316
 31
0.0
  0
LINE
  5
2B8
100
AcDbEntity
  8
ASSI
100
AcDbLine
 62
250
  6
CONTINUOUS
 10
-10.0309332509
 20
21.5461889158
 30
0.0
 11
-10.0309332509
 21
21.8462856396
 31
0.0
  0
LINE
  5
2B9
100
AcDbEntity
  8
ASSI
100
AcDbLine
 62
250
  6
CONTINUOUS
 10
-9.7598260722
 20
20.7523892725
 30
0.0
 11
-9.7598260722
 21
21.3834421424
 31
0.0
  0
LWPOLYLINE
  5
2BA
100
AcDbEntity
  8
ASSI
100
AcDbPolyline
 62
7
  6
CONTINUOUS
 90
12
 70
0
 10
1.8922934833
 20
17.2330426235
 10
1.8898438932
 20
17.2308693631
 10
1.8720725752
 20
17.2132053275
 10
1.8563753473
 20
17.1942970368
 10
1.8422352611
 20
17.1737524861
 10
1.8297426149
 20
17.1517379023
 10
1.8193427872
 20
17.1292547336
 10
1.8107489001
 20
17.1059050139
 10
1.8039334242
 20
17.0813204713
 10
1.7993112557
 20
17.0566778727
 10
1.7969053361
 20
17.0321501353
 10
1.7965361781
 20
17.0180595515
  0
LINE
  5
2BB
100
AcDbEntity
  8
ASSI
100
AcDbLine
 62
7
  6
CONTINUOUS
 10
3.1537910553
 20
18.3380236056
 30
0.0
 11
1.8922318474
 21
17.2329888666
 31
0.0
  0
LINE
  5
2BC
100
AcDbEntity
  8
ASSI
100
AcDbLine
 62
250
  6
CONTINUOUS
 10
3.282825623
 20
18.3490918216
 30
0.0
 11
2.0220097464
 21
17.2447081871
 31
0.0
  0
LINE
  5
2BD
100
AcDbEntity
  8
RACCORDO
100
AcDbLine
 62
7
  6
CONTINUOUS
 10
12.9869677994
 20
26.3766651099
 30
0.0
 11
9.5797025156
 21
23.5331015647
 31
0.0
  0
LINE
  5
2BE
100
AcDbEntity
  8
0
100
AcDbLine
 62
7
  6
CONTINUOUS
 10
12.9869677994
 20
26.3766651099
 30
0.0
 11
9.5797025156
 21
23.5331015647
 31
0.0
  0
LINE
  5
2BF
100
AcDbEntity
  8
DRAFT
100
AcDbLine
 62
7
  6
CONTINUOUS
 10
12.9918624631
 20
25.9640254421
 30
0.0
 11
9.5797025156
 21
23.1450855018
 31
0.0
  0
LINE
  5
2C0
100
AcDbEntity
  8
0
100
AcDbLine
 62
7
  6
CONTINUOUS
 10
12.9918624631
 20
25.9640254421
 30
0.0
 11
9.5797025156
 21
23.1450855018
 31
0.0
  0
LINE
  5
2C1
100
AcDbEntity
  8
ASSI
100
AcDbLine
 62
250
  6
CONTINUOUS
 10
6.1622304105
 20
17.7100825254
 30
0.0
 11
5.7403316602
 21
17.3621019939
 31
0.0
  0
LINE
  5
2C2
100
AcDbEntity
  8
ASSI
100
AcDbLine
 62
250
  6
CONTINUOUS
 10
5.7403316602
 20
17.3621019939
 30
0.0
 11
4.4150484287
 21
16.2836099025
 31
0.0
  0
LINE
  5
2C3
100
AcDbEntity
  8
ASSI
100
AcDbLine
 62
250
  6
CONTINUOUS
 10
5.9041371169
 20
17.1325085729
 30
0.0
 11
4.5788538854
 21
16.0540164815
 31
0.0
  0
LINE
  5
2C4
100
AcDbEntity
  8
ASSI
100
AcDbLine
 62
7
  6
CONTINUOUS
 10
9.5254772238
 20
21.6786547214
 30
0.0
 11
5.0967083162
 21
18.1996174756
 31
0.0
  0
LWPOLYLINE
  5
2C5
100
AcDbEntity
  8
ASSI
100
AcDbPolyline
 62
7
  6
CONTINUOUS
 90
11
 70
0
 10
-8.1932023433
 20
23.3831885276
 10
-8.1940826796
 20
23.4042793513
 10
-8.1980291711
 20
23.4320552522
 10
-8.2054669168
 20
23.459842675
 10
-8.2163949389
 20
23.4865504137
 10
-8.2305564172
 20
23.5113701194
 10
-8.2478668111
 20
23.5341214534
 10
-8.2681084584
 20
23.554406865
 10
-8.2908914183
 20
23.5717761604
 10
-8.315749332
 20
23.5858689791
 10
-8.3283646305
 20
23.5914287563
  0
LINE
  5
2C6
100
AcDbEntity
  8
ASSI
100
AcDbLine
 62
250
  6
CONTINUOUS
 10
-9.4141777145
 20
21.5132741641
 30
0.0
 11
-9.4141777145
 21
20.7961110847
 31
0.0
  0
LINE
  5
2C7
100
AcDbEntity
  8
0
100
AcDbLine
 62
250
  6
CONTINUOUS
 10
-9.3037429927
 20
19.7632526016
 30
0.0
 11
-9.3037429927
 21
19.5992700144
 31
0.0
  0
LINE
  5
2C8
100
AcDbEntity
  8
0
100
AcDbLine
 62
250
  6
CONTINUOUS
 10
-9.0282563333
 20
19.6526109484
 30
0.0
 11
-9.0282563333
 21
19.4886283613
 31
0.0
  0
LINE
  5
2C9
100
AcDbEntity
  8
ASSI
100
AcDbLine
 62
7
  6
CONTINUOUS
 10
-8.6767692714
 20
21.432115461
 30
0.0
 11
-8.6767692714
 21
22.9885292973
 31
0.0
  0
LINE
  5
2CA
100
AcDbEntity
  8
ASSI
100
AcDbLine
 62
250
  6
CONTINUOUS
 10
-8.2273946544
 20
23.3189228986
 30
0.0
 11
-8.2273946544
 21
22.9973786466
 31
0.0
  0
LINE
  5
2CB
100
AcDbEntity
  8
ASSI
100
AcDbLine
 62
7
  6
CONTINUOUS
 10
-8.1932022741
 20
23.3831885281
 30
0.0
 11
-8.1932021689
 21
23.0615266214
 31
0.0
  0
LINE
  5
2CC
100
AcDbEntity
  8
ASSI
100
AcDbLine
 62
7
  6
CONTINUOUS
 10
-8.1941920256
 20
23.0386638623
 30
0.0
 11
-8.1932022949
 21
23.0615421475
 31
0.0
  0
LINE
  5
2CD
100
AcDbEntity
  8
DRAFT
100
AcDbLine
 62
7
  6
CONTINUOUS
 10
6.0155602168
 20
16.2172538938
 30
0.0
 11
11.1103714385
 21
20.6179584511
 31
0.0
  0
LINE
  5
2CE
100
AcDbEntity
  8
0
100
AcDbLine
 62
7
  6
CONTINUOUS
 10
6.0155602168
 20
16.2172538938
 30
0.0
 11
11.1103714385
 21
20.6179584511
 31
0.0
  0
LINE
  5
2CF
100
AcDbEntity
  8
ASSI
100
AcDbLine
 62
7
  6
CONTINUOUS
 10
10.6904668236
 20
20.8990455291
 30
0.0
 11
6.3866709403
 21
17.1842502445
 31
0.0
  0
LINE
  5
2D0
100
AcDbEntity
  8
ASSI
100
AcDbLine
 62
7
  6
CONTINUOUS
 10
5.9041371169
 20
15.5760947366
 30
0.0
 11
5.1667286739
 21
14.9400903603
 31
0.0
  0
LINE
  5
2D1
100
AcDbEntity
  8
ASSI
100
AcDbLine
 62
7
  6
CONTINUOUS
 10
10.6722198862
 20
21.2717459982
 30
0.0
 11
6.3794753516
 21
17.5892089069
 31
0.0
  0
LINE
  5
2D2
100
AcDbEntity
  8
ASSI
100
AcDbLine
 62
250
  6
CONTINUOUS
 10
5.9455156292
 20
15.5594761932
 30
0.0
 11
5.0529755979
 21
14.803234175
 31
0.0
  0
LINE
  5
2D3
100
AcDbEntity
  8
ASSI
100
AcDbLine
 62
250
  6
CONTINUOUS
 10
6.3546707413
 20
14.9855740613
 30
0.0
 11
5.46213071
 21
14.2293320431
 31
0.0
  0
LINE
  5
2D4
100
AcDbEntity
  8
ASSI
100
AcDbLine
 62
250
  6
CONTINUOUS
 10
6.3260358672
 20
17.4804891044
 30
0.0
 11
5.9041371169
 21
17.1325085729
 31
0.0
  0
LINE
  5
2D5
100
AcDbEntity
  8
ASSI
100
AcDbLine
 62
250
  6
CONTINUOUS
 10
6.5044351838
 20
16.0209106856
 30
0.0
 11
5.9451570995
 21
15.5596201868
 31
0.0
  0
LINE
  5
2D6
100
AcDbEntity
  8
ASSI
100
AcDbLine
 62
250
  6
CONTINUOUS
 10
6.9139488255
 20
15.4469271331
 30
0.0
 11
6.3546707413
 21
14.9856366343
 31
0.0
  0
LINE
  5
2D7
100
AcDbEntity
  8
RACCORDO
100
AcDbLine
 62
250
  6
CONTINUOUS
 10
11.9396900413
 20
19.4555668008
 30
0.0
 11
18.0401651173
 21
24.3768224473
 31
0.0
  0
LINE
  5
2D8
100
AcDbEntity
  8
0
100
AcDbLine
 62
250
  6
CONTINUOUS
 10
11.9396900413
 20
19.4555668008
 30
0.0
 11
18.0401651173
 21
24.3768224473
 31
0.0
  0
LINE
  5
2D9
100
AcDbEntity
  8
RACCORDO
100
AcDbLine
 62
7
  6
CONTINUOUS
 10
17.4234056613
 20
24.6245269494
 30
0.0
 11
14.5345690826
 21
22.3234653833
 31
0.0
  0
LINE
  5
2DA
100
AcDbEntity
  8
0
100
AcDbLine
 62
7
  6
CONTINUOUS
 10
17.4234056613
 20
24.6245269494
 30
0.0
 11
14.5345690826
 21
22.3234653833
 31
0.0
  0
LINE
  5
2DB
100
AcDbEntity
  8
RACCORDO
100
AcDbLine
 62
250
  6
CONTINUOUS
 10
1.66183542
 20
12.0481280211
 30
0.0
 11
4.420729543
 21
14.0872124331
 31
0.0
  0
LINE
  5
2DC
100
AcDbEntity
  8
RACCORDO
100
AcDbLine
 62
250
  6
CONTINUOUS
 10
2.0562668984
 20
11.4625241571
 30
0.0
 11
4.8151610214
 21
13.5016085691
 31
0.0
  0
LINE
  5
2DD
100
AcDbEntity
  8
ASSI
100
AcDbLine
 62
7
  6
CONTINUOUS
 10
-6.6280292101
 20
20.3011961794
 30
0.0
 11
-6.6280292101
 21
21.4204555306
 31
0.0
  0
LINE
  5
2DE
100
AcDbEntity
  8
ASSI
100
AcDbLine
 62
250
  6
CONTINUOUS
 10
-6.5427444974
 20
20.2034742624
 30
0.0
 11
-6.5427444974
 21
21.3264862684
 31
0.0
  0
LINE
  5
2DF
100
AcDbEntity
  8
0
100
AcDbLine
 62
7
  6
CONTINUOUS
 10
11.8637315613
 20
22.5303230042
 30
0.0
 11
11.6345900441
 21
22.2680696032
 31
0.0
  0
LINE
  5
2E0
100
AcDbEntity
  8
ASSI
100
AcDbLine
 62
7
  6
CONTINUOUS
 10
7.4732269097
 20
13.1600123259
 30
0.0
 11
6.9139488255
 21
12.6802348146
 31
0.0
  0
LINE
  5
2E1
100
AcDbEntity
  8
RACCORDO
100
AcDbLine
 62
250
  6
CONTINUOUS
 10
18.7766490566
 20
23.6838021631
 30
0.0
 11
7.0220485393
 21
13.812613485
 31
0.0
  0
LINE
  5
2E2
100
AcDbEntity
  8
0
100
AcDbLine
 62
250
  6
CONTINUOUS
 10
18.7766490566
 20
23.6838021631
 30
0.0
 11
7.0220485393
 21
13.812613485
 31
0.0
  0
LINE
  5
2E3
100
AcDbEntity
  8
RACCORDO
100
AcDbLine
 62
250
  6
CONTINUOUS
 10
19.2564241313
 20
22.3328341846
 30
0.0
 11
7.5447241163
 21
12.4976721629
 31
0.0
  0
LINE
  5
2E4
100
AcDbEntity
  8
0
100
AcDbLine
 62
250
  6
CONTINUOUS
 10
19.2564241313
 20
22.3328341846
 30
0.0
 11
7.5447241163
 21
12.4976721629
 31
0.0
  0
LINE
  5
2E5
100
AcDbEntity
  8
RACCORDO
100
AcDbLine
 62
250
  6
CONTINUOUS
 10
12.3652054226
 20
18.8591548494
 30
0.0
 11
18.6193048634
 21
23.9043393315
 31
0.0
  0
LINE
  5
2E6
100
AcDbEntity
  8
0
100
AcDbLine
 62
250
  6
CONTINUOUS
 10
12.3652054226
 20
18.8591548494
 30
0.0
 11
18.6193048634
 21
23.9043393315
 31
0.0
  0
LINE
  5
2E7
100
AcDbEntity
  8
ASSI
100
AcDbLine
 62
7
  6
CONTINUOUS
 10
-2.8851446588
 20
19.7920689472
 30
0.0
 11
-2.9046993253
 21
20.8691934269
 31
0.0
  0
LINE
  5
2E8
100
AcDbEntity
  8
ASSI
100
AcDbLine
 62
250
  6
CONTINUOUS
 10
-3.8891292766
 20
20.2607345714
 30
0.0
 11
-3.8891292766
 21
19.1377225654
 31
0.0
  0
LINE
  5
2E9
100
AcDbEntity
  8
ASSI
100
AcDbLine
 62
250
  6
CONTINUOUS
 10
-3.6126105905
 20
20.2872758794
 30
0.0
 11
-3.6126105905
 21
19.1727000152
 31
0.0
  0
LINE
  5
2EA
100
AcDbEntity
  8
ASSI
100
AcDbLine
 62
7
  6
CONTINUOUS
 10
-3.434196188
 20
19.3265799196
 30
0.0
 11
-3.434196188
 21
20.4324663696
 31
0.0
  0
LINE
  5
2EB
100
AcDbEntity
  8
ASSI
100
AcDbLine
 62
7
  6
CONTINUOUS
 10
-2.3274809776
 20
19.6932584067
 30
0.0
 11
-2.3274809776
 21
18.5739990553
 31
0.0
  0
LINE
  5
2EC
100
AcDbEntity
  8
ASSI
100
AcDbLine
 62
250
  6
CONTINUOUS
 10
-2.2421962649
 20
19.5992891446
 30
0.0
 11
-2.2421962649
 21
18.4762771386
 31
0.0
  0
LINE
  5
2ED
100
AcDbEntity
  8
0
100
AcDbLine
 62
7
  6
CONTINUOUS
 10
3.957330476
 20
25.0616638201
 30
0.0
 11
3.9531820137
 21
25.0463826527
 31
0.0
  0
LWPOLYLINE
  5
2EE
100
AcDbEntity
  8
ASSI
100
AcDbPolyline
 62
7
  6
CONTINUOUS
 90
5
 70
0
 10
6.3460071993
 20
17.0565682533
 10
6.3552759521
 20
17.073524821
 10
6.3646101822
 20
17.0937879143
 10
6.3723000781
 20
17.1142289614
 10
6.3784846582
 20
17.1350002014
  0
LINE
  5
2EF
100
AcDbEntity
  8
ASSI
100
AcDbLine
 62
250
  6
CONTINUOUS
 10
5.9041371169
 20
16.3555790222
 30
0.0
 11
6.3395297819
 21
17.093997877
 31
0.0
  0
LINE
  5
2F0
100
AcDbEntity
  8
ASSI
100
AcDbLine
 62
7
  6
CONTINUOUS
 10
5.9041371169
 20
16.307164327
 30
0.0
 11
6.3460041744
 21
17.0565636459
 31
0.0
  0
LINE
  5
2F1
100
AcDbEntity
  8
DRAFT
100
AcDbLine
 62
7
  6
CONTINUOUS
 10
4.5100880099
 20
-4.3836728745
 30
0.0
 11
4.1826748605
 21
-4.2521763723
 31
0.0
  0
LWPOLYLINE
  5
2F2
100
AcDbEntity
  8
ASSI
100
AcDbPolyline
 62
7
  6
CONTINUOUS
 90
16
 70
0
 10
-2.4313841387
 20
24.0423546305
 10
-2.4326360337
 20
24.0641360777
 10
-2.4379737783
 20
24.0984280567
 10
-2.4474771589
 20
24.1322521906
 10
-2.4611285939
 20
24.1651093648
 10
-2.4787577695
 20
24.1964269514
 10
-2.5002266965
 20
24.2258589261
 10
-2.5254435098
 20
24.2531231153
 10
-2.5540461934
 20
24.2777371523
 10
-2.5855851021
 20
24.299362866
 10
-2.6202554205
 20
24.3180830583
 10
-2.6576455534
 20
24.3335716674
 10
-2.6964831801
 20
24.3454017993
 10
-2.7370100526
 20
24.3537298571
 10
-2.7791037515
 20
24.3584792192
 10
-2.8209299345
 20
24.3594600914
  0
LINE
  5
2F3
100
AcDbEntity
  8
ASSI
100
AcDbLine
 62
7
  6
CONTINUOUS
 10
-2.4093100783
 20
22.9170677095
 30
0.0
 11
-2.4313689461
 21
24.0423474445
 31
0.0
  0
LINE
  5
2F4
100
AcDbEntity
  8
ASSI
100
AcDbLine
 62
250
  6
CONTINUOUS
 10
-2.4809587592
 20
22.7875828902
 30
0.0
 11
-2.4997740322
 21
23.9186121365
 31
0.0
  0
LINE
  5
2F5
100
AcDbEntity
  8
ASSI
100
AcDbLine
 62
250
  6
CONTINUOUS
 10
-1.5784511098
 20
22.2555967041
 30
0.0
 11
-1.587947277
 21
23.4961370646
 31
0.0
  0
LINE
  5
2F6
100
AcDbEntity
  8
ASSI
100
AcDbLine
 62
250
  6
CONTINUOUS
 10
-0.1879397235
 20
22.6236905224
 30
0.0
 11
-0.1919982919
 21
23.1538852649
 31
0.0
  0
LWPOLYLINE
  5
2F7
100
AcDbEntity
  8
ASSI
100
AcDbPolyline
 62
7
  6
CONTINUOUS
 90
6
 70
0
 10
1.7965360605
 20
16.7181485715
 10
1.7979584513
 20
16.6912439708
 10
1.8020839036
 20
16.6657166666
 10
1.809089536
 20
16.6405025069
 10
1.8189883628
 20
16.6161857982
 10
1.8319058879
 20
16.5928878541
  0
LINE
  5
2F8
100
AcDbEntity
  8
ASSI
100
AcDbLine
 62
250
  6
CONTINUOUS
 10
1.4898728264
 20
24.3603978652
 30
0.0
 11
1.4850322852
 21
24.6396563517
 31
0.0
  0
LINE
  5
2F9
100
AcDbEntity
  8
ASSI
100
AcDbLine
 62
7
  6
CONTINUOUS
 10
1.5266209665
 20
24.3931219415
 30
0.0
 11
1.5211967901
 21
24.7060512719
 31
0.0
  0
LINE
  5
2FA
100
AcDbEntity
  8
ASSI
100
AcDbLine
 62
250
  6
CONTINUOUS
 10
0.4114189559
 20
17.4105254416
 30
0.0
 11
0.4114189559
 21
18.5335374476
 31
0.0
  0
LINE
  5
2FB
100
AcDbEntity
  8
ASSI
100
AcDbLine
 62
250
  6
CONTINUOUS
 10
0.687937642
 20
17.4455028914
 30
0.0
 11
0.687937642
 21
18.5600787556
 31
0.0
  0
LINE
  5
2FC
100
AcDbEntity
  8
ASSI
100
AcDbLine
 62
7
  6
CONTINUOUS
 10
0.8663520445
 20
17.5993827959
 30
0.0
 11
0.8663520445
 21
18.7052692459
 31
0.0
  0
LINE
  5
2FD
100
AcDbEntity
  8
0
100
AcDbLine
 62
250
  6
CONTINUOUS
 10
0.9786060505
 20
26.5994797493
 30
0.0
 11
0.9786060505
 21
26.9874958123
 31
0.0
  0
LINE
  5
2FE
100
AcDbEntity
  8
DRAFT
100
AcDbLine
 62
7
  6
CONTINUOUS
 10
1.530305584
 20
27.0552637319
 30
0.0
 11
1.530305584
 21
26.6456877097
 31
0.0
  0
LINE
  5
2FF
100
AcDbEntity
  8
0
100
AcDbLine
 62
7
  6
CONTINUOUS
 10
1.530305584
 20
27.0552637319
 30
0.0
 11
1.530305584
 21
26.6456877097
 31
0.0
  0
LINE
  5
300
100
AcDbEntity
  8
ASSI
100
AcDbLine
 62
7
  6
CONTINUOUS
 10
1.7965359374
 20
17.0182269219
 30
0.0
 11
1.7965359374
 21
16.7181301983
 31
0.0
  0
LINE
  5
301
100
AcDbEntity
  8
ASSI
100
AcDbLine
 62
250
  6
CONTINUOUS
 10
1.8818206501
 20
16.9242576598
 30
0.0
 11
1.8818206501
 21
16.624160936
 31
0.0
  0
LINE
  5
302
100
AcDbEntity
  8
DRAFT
100
AcDbLine
 62
7
  6
CONTINUOUS
 10
2.3446508446
 20
27.0805392911
 30
0.0
 11
2.3446508446
 21
26.6252357553
 31
0.0
  0
LINE
  5
303
100
AcDbEntity
  8
0
100
AcDbLine
 62
7
  6
CONTINUOUS
 10
2.3446508446
 20
27.0805392911
 30
0.0
 11
2.3446508446
 21
26.6252357553
 31
0.0
  0
LINE
  5
304
100
AcDbEntity
  8
ASSI
100
AcDbLine
 62
7
  6
CONTINUOUS
 10
2.3747417671
 20
16.3318354343
 30
0.0
 11
2.3747417671
 21
15.9582103275
 31
0.0
  0
LINE
  5
305
100
AcDbEntity
  8
ASSI
100
AcDbLine
 62
250
  6
CONTINUOUS
 10
2.481347658
 20
16.2890201051
 30
0.0
 11
2.481347658
 21
15.8360579317
 31
0.0
  0
LINE
  5
306
100
AcDbEntity
  8
0
100
AcDbLine
 62
7
  6
CONTINUOUS
 10
2.6411325972
 20
25.2983952946
 30
0.0
 11
2.6411325972
 21
25.0409496183
 31
0.0
  0
LINE
  5
307
100
AcDbEntity
  8
0
100
AcDbLine
 62
7
  6
CONTINUOUS
 10
2.7247423418
 20
25.8570793244
 30
0.0
 11
2.7247423418
 21
25.0323968301
 31
0.0
  0
LWPOLYLINE
  5
308
100
AcDbEntity
  8
ASSI
100
AcDbPolyline
 62
7
  6
CONTINUOUS
 90
3
 70
0
 10
6.3784846582
 20
17.1350002014
 10
6.3832086337
 20
17.1564500658
 10
6.3862643761
 20
17.1778930606
  0
LINE
  5
309
100
AcDbEntity
  8
DRAFT
100
AcDbLine
 62
7
  6
CONTINUOUS
 10
19.442122566
 20
17.0883967955
 30
0.0
 11
20.309533269
 21
17.9889296009
 31
0.0
  0
LINE
  5
30A
100
AcDbEntity
  8
0
100
AcDbLine
 62
7
  6
CONTINUOUS
 10
19.442122566
 20
17.0883967955
 30
0.0
 11
20.309533269
 21
17.9889296009
 31
0.0
  0
LWPOLYLINE
  5
30B
100
AcDbEntity
  8
ASSI
100
AcDbPolyline
 62
7
  6
CONTINUOUS
 90
6
 70
0
 10
6.382449147
 20
-21.8077184327
 10
6.3756635316
 20
-21.7826831515
 10
6.366024788
 20
-21.7584872253
 10
6.3534069909
 20
-21.7352441636
 10
6.3380613384
 20
-21.7136984491
 10
6.3202550539
 20
-21.6942813535
  0
LINE
  5
30C
100
AcDbEntity
  8
0
100
AcDbLine
 62
7
  6
CONTINUOUS
 10
5.46213071
 20
-17.2436265602
 30
0.0
 11
4.5100880099
 21
-4.3836728745
 31
0.0
  0
LWPOLYLINE
  5
30D
100
AcDbEntity
  8
ASSI
100
AcDbPolyline
 62
7
  6
CONTINUOUS
 90
12
 70
0
 10
1.5211916855
 20
24.7058121536
 10
1.5168238636
 20
24.7861798327
 10
1.5076296766
 20
24.8560273147
 10
1.4932407054
 20
24.92262697
 10
1.47355884
 20
24.9853255149
 10
1.4488336075
 20
25.0429174083
 10
1.4192187639
 20
25.0951028529
 10
1.3847108657
 20
25.1418817954
 10
1.3457568246
 20
25.1826150484
 10
1.3027330645
 20
25.2169817566
 10
1.2561922384
 20
25.2446658521
 10
1.2265614988
 20
25.2580717825
  0
LWPOLYLINE
  5
30E
100
AcDbEntity
  8
ASSI
100
AcDbPolyline
 62
7
  6
CONTINUOUS
 90
16
 70
0
 10
4.0788930782
 20
21.420183596
 10
4.0779569731
 20
21.4452751507
 10
4.072872917
 20
21.4808256627
 10
4.0633394653
 20
21.5158663116
 10
4.0493917133
 20
21.5498425195
 10
4.0312299373
 20
21.5821379692
 10
4.0089877886
 20
21.6124244447
 10
3.9827379774
 20
21.6404191676
 10
3.9529019514
 20
21.6655696817
 10
3.9200111584
 20
21.6874875889
 10
3.8838294626
 20
21.7062799762
 10
3.844818362
 20
21.7216091567
 10
3.8044385992
 20
21.7330053145
 10
3.7624610959
 20
21.7406587532
 10
3.7189805201
 20
21.7444910347
 10
3.6759892524
 20
21.7443541153
  0
LINE
  5
30F
100
AcDbEntity
  8
ASSI
100
AcDbLine
 62
7
  6
CONTINUOUS
 10
2.8589138122
 20
15.5452366851
 30
0.0
 11
2.8589138122
 21
16.1357852316
 31
0.0
  0
LINE
  5
310
100
AcDbEntity
  8
ASSI
100
AcDbLine
 62
250
  6
CONTINUOUS
 10
2.9655197031
 20
15.4787285473
 30
0.0
 11
2.9655197031
 21
16.1889229649
 31
0.0
  0
LINE
  5
311
100
AcDbEntity
  8
ASSI
100
AcDbLine
 62
250
  6
CONTINUOUS
 10
3.1897553983
 20
15.3886704368
 30
0.0
 11
3.1897553983
 21
16.0988648545
 31
0.0
  0
LINE
  5
312
100
AcDbEntity
  8
0
100
AcDbLine
 62
7
  6
CONTINUOUS
 10
3.2099369499
 20
25.7643325429
 30
0.0
 11
3.2099369499
 21
25.0069071549
 31
0.0
  0
LINE
  5
313
100
AcDbEntity
  8
ASSI
100
AcDbLine
 62
250
  6
CONTINUOUS
 10
3.535403756
 20
-22.6978288849
 30
0.0
 11
3.535403756
 21
-22.4209723044
 31
0.0
  0
LINE
  5
314
100
AcDbEntity
  8
ASSI
100
AcDbLine
 62
250
  6
CONTINUOUS
 10
3.535403756
 20
15.3056761336
 30
0.0
 11
3.535403756
 21
15.865687413
 31
0.0
  0
LINE
  5
315
100
AcDbEntity
  8
ASSI
100
AcDbLine
 62
7
  6
CONTINUOUS
 10
3.9788748048
 20
15.687579442
 30
0.0
 11
3.9788748048
 21
15.2990121778
 31
0.0
  0
LINE
  5
316
100
AcDbEntity
  8
ASSI
100
AcDbLine
 62
7
  6
CONTINUOUS
 10
3.9788748048
 20
-21.3989994063
 30
0.0
 11
3.9788748048
 21
-21.9909594106
 31
0.0
  0
LINE
  5
317
100
AcDbEntity
  8
0
100
AcDbLine
 62
7
  6
CONTINUOUS
 10
4.1929194031
 20
25.3695446288
 30
0.0
 11
4.1929194031
 21
25.0802779993
 31
0.0
  0
LINE
  5
318
100
AcDbEntity
  8
ASSI
100
AcDbLine
 62
250
  6
CONTINUOUS
 10
4.2734544513
 20
15.9637236072
 30
0.0
 11
4.2734544513
 21
15.6636432886
 31
0.0
  0
LINE
  5
319
100
AcDbEntity
  8
ASSI
100
AcDbLine
 62
250
  6
CONTINUOUS
 10
4.2734544513
 20
-23.7007455664
 30
0.0
 11
4.2734544513
 21
-23.4006488426
 31
0.0
  0
LINE
  5
31A
100
AcDbEntity
  8
RACCORDO
100
AcDbLine
 62
7
  6
CONTINUOUS
 10
4.390765998
 20
29.7276888003
 30
0.0
 11
4.390765998
 21
29.4184196897
 31
0.0
  0
LINE
  5
31B
100
AcDbEntity
  8
0
100
AcDbLine
 62
7
  6
CONTINUOUS
 10
4.390765998
 20
29.7276888003
 30
0.0
 11
4.390765998
 21
29.4184196897
 31
0.0
  0
LINE
  5
31C
100
AcDbEntity
  8
ASSI
100
AcDbLine
 62
250
  6
CONTINUOUS
 10
4.5499731375
 20
15.9902649152
 30
0.0
 11
4.5499731375
 21
15.6901681914
 31
0.0
  0
LINE
  5
31D
100
AcDbEntity
  8
ASSI
100
AcDbLine
 62
250
  6
CONTINUOUS
 10
4.5499731375
 20
-23.6742042584
 30
0.0
 11
4.5499731375
 21
-23.3741075346
 31
0.0
  0
LINE
  5
31E
100
AcDbEntity
  8
ASSI
100
AcDbLine
 62
250
  6
CONTINUOUS
 10
4.8210803162
 20
15.527421418
 30
0.0
 11
4.8210803162
 21
14.8963685481
 31
0.0
  0
LINE
  5
31F
100
AcDbEntity
  8
ASSI
100
AcDbLine
 62
250
  6
CONTINUOUS
 10
4.8210803162
 20
-21.6728532175
 30
0.0
 11
4.8210803162
 21
-22.3292081311
 31
0.0
  0
LINE
  5
320
100
AcDbEntity
  8
RACCORDO
100
AcDbLine
 62
7
  6
CONTINUOUS
 10
5.0487362461
 20
26.3340837246
 30
0.0
 11
5.0487362461
 21
26.2056910878
 31
0.0
  0
LINE
  5
321
100
AcDbEntity
  8
ASSI
100
AcDbLine
 62
250
  6
CONTINUOUS
 10
5.1667286739
 20
15.6572534397
 30
0.0
 11
5.1667286739
 21
14.9400903603
 31
0.0
  0
LINE
  5
322
100
AcDbEntity
  8
ASSI
100
AcDbLine
 62
250
  6
CONTINUOUS
 10
5.1667286739
 20
-21.7950404825
 30
0.0
 11
5.1667286739
 21
-22.367384839
 31
0.0
  0
LINE
  5
323
100
AcDbEntity
  8
ASSI
100
AcDbLine
 62
7
  6
CONTINUOUS
 10
4.0721526936
 20
20.3107478609
 30
0.0
 11
4.0789067046
 21
21.4201992859
 31
0.0
  0
LINE
  5
324
100
AcDbEntity
  8
RACCORDO
100
AcDbLine
 62
7
  6
CONTINUOUS
 10
3.5183441357
 20
-22.8998331071
 30
0.0
 11
4.8151610214
 21
13.5016085691
 31
0.0
  0
LINE
  5
325
100
AcDbEntity
  8
0
100
AcDbLine
 62
7
  6
CONTINUOUS
 10
4.5100880099
 20
-4.3836728745
 30
0.0
 11
5.46213071
 21
9.9522213102
 31
0.0
  0
LINE
  5
326
100
AcDbEntity
  8
0
100
AcDbLine
 62
7
  6
CONTINUOUS
 10
11.8637315613
 20
22.5303230042
 30
0.0
 11
12.0381976235
 21
23.0949890534
 31
0.0
  0
LWPOLYLINE
  5
327
100
AcDbEntity
  8
ASSI
100
AcDbPolyline
 62
7
  6
CONTINUOUS
 90
4
 70
0
 10
-12.7486953337
 20
22.4484453258
 10
-12.7333828728
 20
22.4274346775
 10
-12.7157046247
 20
22.4084996494
 10
-12.6959339536
 20
22.3919177221
  0
LWPOLYLINE
  5
328
100
AcDbEntity
  8
ASSI
100
AcDbPolyline
 62
7
  6
CONTINUOUS
 90
3
 70
0
 10
6.3877045425
 20
-21.8587734297
 10
6.3864012913
 20
-21.8330347926
 10
6.382449147
 20
-21.8077184327
  0
LWPOLYLINE
  5
329
100
AcDbEntity
  8
ASSI
100
AcDbPolyline
 62
7
  6
CONTINUOUS
 90
11
 70
0
 10
6.3877040832
 20
17.5270638905
 10
6.3873392768
 20
17.5407503581
 10
6.3843216526
 20
17.5682249407
 10
6.3778900676
 20
17.5960730176
 10
6.3679818668
 20
17.6230546082
 10
6.3547895438
 20
17.6483462794
 10
6.3383285199
 20
17.6717937962
 10
6.3188251861
 20
17.6929018731
 10
6.296651789
 20
17.7111893373
 10
6.2722511697
 20
17.726273645
 10
6.252509458
 20
17.7354209302
  0
LINE
  5
32A
100
AcDbEntity
  8
0
100
AcDbLine
 62
7
  6
CONTINUOUS
 10
5.46213071
 20
-21.520737293
 30
0.0
 11
5.46213071
 21
-17.2436265602
 31
0.0
  0
LINE
  5
32B
100
AcDbEntity
  8
0
100
AcDbLine
 62
7
  6
CONTINUOUS
 10
5.46213071
 20
9.9522213102
 30
0.0
 11
5.46213071
 21
14.2293320431
 31
0.0
  0
LINE
  5
32C
100
AcDbEntity
  8
ASSI
100
AcDbLine
 62
7
  6
CONTINUOUS
 10
5.9041371169
 20
-22.6783306839
 30
0.0
 11
5.9041371169
 21
-21.3680542908
 31
0.0
  0
LINE
  5
32D
100
AcDbEntity
  8
ASSI
100
AcDbLine
 62
7
  6
CONTINUOUS
 10
5.9041371169
 20
15.5760947366
 30
0.0
 11
5.9041371169
 21
17.1325085729
 31
0.0
  0
LINE
  5
32E
100
AcDbEntity
  8
ASSI
100
AcDbLine
 62
250
  6
CONTINUOUS
 10
6.353511734
 20
-22.2444620557
 30
0.0
 11
6.353511734
 21
-21.9229178037
 31
0.0
  0
LINE
  5
32F
100
AcDbEntity
  8
ASSI
100
AcDbLine
 62
250
  6
CONTINUOUS
 10
6.353511734
 20
17.1413579222
 30
0.0
 11
6.353511734
 21
17.4629021742
 31
0.0
  0
LINE
  5
330
100
AcDbEntity
  8
ASSI
100
AcDbLine
 62
7
  6
CONTINUOUS
 10
6.3546707413
 20
14.9855740613
 30
0.0
 11
6.3546707413
 21
12.6100333254
 31
0.0
  0
LINE
  5
331
100
AcDbEntity
  8
ASSI
100
AcDbLine
 62
7
  6
CONTINUOUS
 10
6.3546707413
 20
-20.8932850934
 30
0.0
 11
6.3546707413
 21
-18.5177443576
 31
0.0
  0
LINE
  5
332
100
AcDbEntity
  8
ASSI
100
AcDbLine
 62
7
  6
CONTINUOUS
 10
6.3877042195
 20
-22.1803140811
 30
0.0
 11
6.3877042195
 21
-21.8587697716
 31
0.0
  0
LINE
  5
333
100
AcDbEntity
  8
ASSI
100
AcDbLine
 62
7
  6
CONTINUOUS
 10
6.3877042195
 20
17.2055058968
 30
0.0
 11
6.3877042195
 21
17.5270501489
 31
0.0
  0
LINE
  5
334
100
AcDbEntity
  8
ASSI
100
AcDbLine
 62
7
  6
CONTINUOUS
 10
6.9139488255
 20
-20.4034604633
 30
0.0
 11
6.9139488255
 21
-17.6367681448
 31
0.0
  0
LINE
  5
335
100
AcDbEntity
  8
ASSI
100
AcDbLine
 62
7
  6
CONTINUOUS
 10
6.9139488255
 20
12.6802348146
 30
0.0
 11
6.9139488255
 21
15.4469271331
 31
0.0
  0
LINE
  5
336
100
AcDbEntity
  8
ASSI
100
AcDbLine
 62
7
  6
CONTINUOUS
 10
7.4732269097
 20
13.1600123259
 30
0.0
 11
7.4732269097
 21
12.6153357208
 31
0.0
  0
LINE
  5
337
100
AcDbEntity
  8
ASSI
100
AcDbLine
 62
7
  6
CONTINUOUS
 10
7.4732269097
 20
-16.7616541091
 30
0.0
 11
7.4732269097
 21
-17.1653679542
 31
0.0
  0
LINE
  5
338
100
AcDbEntity
  8
ASSI
100
AcDbLine
 62
7
  6
CONTINUOUS
 10
7.5447241163
 20
12.5866208307
 30
0.0
 11
7.5447241163
 21
-16.6494062391
 31
0.0
  0
LINE
  5
339
100
AcDbEntity
  8
ASSI
100
AcDbLine
 62
7
  6
CONTINUOUS
 10
6.3876277846
 20
17.1992118101
 30
0.0
 11
6.3877014913
 21
17.2055315851
 31
0.0
  0
LINE
  5
33A
100
AcDbEntity
  8
ASSI
100
AcDbLine
 62
7
  6
CONTINUOUS
 10
6.387333514
 20
-22.1942628568
 30
0.0
 11
6.3877039672
 21
-22.1801459041
 31
0.0
  0
LINE
  5
33B
100
AcDbEntity
  8
ASSI
100
AcDbLine
 62
7
  6
CONTINUOUS
 10
6.3862643761
 20
17.1778930606
 30
0.0
 11
6.3876277846
 21
17.1992118101
 31
0.0
  0
LINE
  5
33C
100
AcDbEntity
  8
0
100
AcDbLine
 62
7
  6
CONTINUOUS
 10
12.5529915733
 20
22.460260611
 30
0.0
 11
12.7274576354
 21
23.0249266602
 31
0.0
  0
LINE
  5
33D
100
AcDbEntity
  8
0
100
AcDbLine
 62
250
  6
CONTINUOUS
 10
9.5797025156
 20
23.1450855018
 30
0.0
 11
9.5797025156
 21
23.5331015647
 31
0.0
  0
LINE
  5
33E
100
AcDbEntity
  8
DRAFT
100
AcDbLine
 62
7
  6
CONTINUOUS
 10
10.131402049
 20
23.6008694843
 30
0.0
 11
10.131402049
 21
23.1912934622
 31
0.0
  0
LINE
  5
33F
100
AcDbEntity
  8
0
100
AcDbLine
 62
7
  6
CONTINUOUS
 10
10.131402049
 20
23.6008694843
 30
0.0
 11
10.131402049
 21
23.1912934622
 31
0.0
  0
LINE
  5
340
100
AcDbEntity
  8
0
100
AcDbLine
 62
7
  6
CONTINUOUS
 10
11.9162715637
 20
21.5524043196
 30
0.0
 11
12.0381976235
 21
23.0949890534
 31
0.0
  0
LINE
  5
341
100
AcDbEntity
  8
ASSI
100
AcDbLine
 62
7
  6
CONTINUOUS
 10
6.3849242734
 20
-22.2187973894
 30
0.0
 11
6.387333514
 21
-22.1942628568
 31
0.0
  0
LINE
  5
342
100
AcDbEntity
  8
DRAFT
100
AcDbLine
 62
7
  6
CONTINUOUS
 10
19.4421223074
 20
5.7840983159
 30
0.0
 11
20.3095332689
 21
6.6846313896
 31
0.0
  0
LINE
  5
343
100
AcDbEntity
  8
0
100
AcDbLine
 62
7
  6
CONTINUOUS
 10
19.4421223074
 20
5.7840983159
 30
0.0
 11
20.3095332689
 21
6.6846313896
 31
0.0
  0
LINE
  5
344
100
AcDbEntity
  8
ASSI
100
AcDbLine
 62
7
  6
CONTINUOUS
 10
10.6904668236
 20
20.8990455291
 30
0.0
 11
10.6904668236
 21
21.0797285822
 31
0.0
  0
LINE
  5
345
100
AcDbEntity
  8
DRAFT
100
AcDbLine
 62
7
  6
CONTINUOUS
 10
10.9457473096
 20
23.1706647374
 30
0.0
 11
10.9457473096
 21
23.6261450435
 31
0.0
  0
LINE
  5
346
100
AcDbEntity
  8
0
100
AcDbLine
 62
7
  6
CONTINUOUS
 10
10.9457473096
 20
23.1706647374
 30
0.0
 11
10.9457473096
 21
23.6261450435
 31
0.0
  0
LINE
  5
347
100
AcDbEntity
  8
0
100
AcDbLine
 62
7
  6
CONTINUOUS
 10
11.6345900441
 20
22.2680696032
 30
0.0
 11
11.6345900441
 21
21.557175785
 31
0.0
  0
LINE
  5
348
100
AcDbEntity
  8
0
100
AcDbLine
 62
7
  6
CONTINUOUS
 10
11.8637315613
 20
21.5522425968
 30
0.0
 11
11.8637315613
 21
22.5303230042
 31
0.0
  0
LINE
  5
349
100
AcDbEntity
  8
0
100
AcDbLine
 62
7
  6
CONTINUOUS
 10
12.5529915733
 20
22.460260611
 30
0.0
 11
12.5529915733
 21
21.5918283533
 31
0.0
  0
LINE
  5
34A
100
AcDbEntity
  8
0
100
AcDbLine
 62
7
  6
CONTINUOUS
 10
12.6110549805
 20
22.1688131989
 30
0.0
 11
12.6110549805
 21
21.5990492443
 31
0.0
  0
LWPOLYLINE
  5
34B
100
AcDbEntity
  8
ASSI
100
AcDbPolyline
 62
7
  6
CONTINUOUS
 90
3
 70
0
 10
6.3734787025
 20
-22.2680310976
 10
6.3802982348
 20
-22.2434442389
 10
6.3849242734
 20
-22.2187973894
  0
LINE
  5
34C
100
AcDbEntity
  8
RACCORDO
100
AcDbLine
 62
7
  6
CONTINUOUS
 10
14.163734646
 20
-3.3013905048
 30
0.0
 11
14.1692043497
 21
-3.2965263535
 31
0.0
  0
LINE
  5
34D
100
AcDbEntity
  8
0
100
AcDbLine
 62
7
  6
CONTINUOUS
 10
14.16373465
 20
-3.3013905012
 30
0.0
 11
14.1692043497
 21
-3.2965263535
 31
0.0
  0
LINE
  5
34E
100
AcDbEntity
  8
RACCORDO
100
AcDbLine
 62
250
  6
CONTINUOUS
 10
19.2564241313
 20
1.4419737492
 30
0.0
 11
13.8314267142
 21
-3.3099321206
 31
0.0
  0
LINE
  5
34F
100
AcDbEntity
  8
0
100
AcDbLine
 62
250
  6
CONTINUOUS
 10
19.2564241313
 20
1.4419737492
 30
0.0
 11
13.8314267142
 21
-3.3099321206
 31
0.0
  0
LINE
  5
350
100
AcDbEntity
  8
RACCORDO
100
AcDbLine
 62
7
  6
CONTINUOUS
 10
19.0862863433
 20
1.0104828902
 30
0.0
 11
14.1686898362
 21
-3.296976434
 31
0.0
  0
LINE
  5
351
100
AcDbEntity
  8
0
100
AcDbLine
 62
7
  6
CONTINUOUS
 10
19.0862863433
 20
1.0104828902
 30
0.0
 11
14.1686898362
 21
-3.296976434
 31
0.0
  0
LINE
  5
352
100
AcDbEntity
  8
ASSI
100
AcDbLine
 62
7
  6
CONTINUOUS
 10
6.3546707413
 20
12.6100333254
 30
0.0
 11
7.4732269097
 21
12.6153357208
 31
0.0
  0
LINE
  5
353
100
AcDbEntity
  8
DRAFT
100
AcDbLine
 62
7
  6
CONTINUOUS
 10
5.46213071
 20
9.9522213102
 30
0.0
 11
4.6996225339
 21
10.2584617841
 31
0.0
  0
LWPOLYLINE
  5
354
100
AcDbEntity
  8
ASSI
100
AcDbPolyline
 62
7
  6
CONTINUOUS
 90
4
 70
0
 10
-12.6959339536
 20
22.3919177221
 10
-12.6746619252
 20
22.3780771067
 10
-12.6524113457
 20
22.3671138388
 10
-12.6488531818
 20
22.3656521825
  0
LWPOLYLINE
  5
355
100
AcDbEntity
  8
ASSI
100
AcDbPolyline
 62
7
  6
CONTINUOUS
 90
4
 70
0
 10
1.8319058879
 20
16.5928878541
 10
1.8475908638
 20
16.5713303048
 10
1.8657653413
 20
16.5519480775
 10
1.8861346045
 20
16.535042144
  0
LINE
  5
356
100
AcDbEntity
  8
0
100
AcDbLine
 62
250
  6
CONTINUOUS
 10
0.5233744745
 20
27.9506770128
 30
0.0
 11
0.9786060505
 21
26.9874958123
 31
0.0
  0
LINE
  5
357
100
AcDbEntity
  8
0
100
AcDbLine
 62
7
  6
CONTINUOUS
 10
2.1501274006
 20
25.5977123625
 30
0.0
 11
1.9057499803
 21
26.1860051206
 31
0.0
  0
LINE
  5
358
100
AcDbEntity
  8
RACCORDO
100
AcDbLine
 62
7
  6
CONTINUOUS
 10
12.9918624631
 20
26.2732945528
 30
0.0
 11
12.9918624631
 21
25.9640254421
 31
0.0
  0
LINE
  5
359
100
AcDbEntity
  8
0
100
AcDbLine
 62
7
  6
CONTINUOUS
 10
12.9918624631
 20
26.2732945528
 30
0.0
 11
12.9918624631
 21
25.9640254421
 31
0.0
  0
LINE
  5
35A
100
AcDbEntity
  8
RACCORDO
100
AcDbLine
 62
250
  6
CONTINUOUS
 10
13.8314267142
 20
-11.0404886918
 30
0.0
 11
13.8314267142
 21
-3.3099321206
 31
0.0
  0
LINE
  5
35B
100
AcDbEntity
  8
0
100
AcDbLine
 62
250
  6
CONTINUOUS
 10
13.8314267142
 20
-11.0404886918
 30
0.0
 11
13.8314267142
 21
-3.3099321206
 31
0.0
  0
LINE
  5
35C
100
AcDbEntity
  8
RACCORDO
100
AcDbLine
 62
7
  6
CONTINUOUS
 10
14.0023891417
 20
-10.719748819
 30
0.0
 11
14.0023891417
 21
-3.663861243
 31
0.0
  0
LINE
  5
35D
100
AcDbEntity
  8
0
100
AcDbLine
 62
7
  6
CONTINUOUS
 10
14.0023891417
 20
-10.719748819
 30
0.0
 11
14.0023890607
 21
-3.6645694161
 31
0.0
  0
LINE
  5
35E
100
AcDbEntity
  8
0
100
AcDbLine
 62
7
  6
CONTINUOUS
 10
14.0023891417
 20
-3.6643990561
 30
0.0
 11
14.0023891417
 21
-3.663861243
 31
0.0
  0
LINE
  5
35F
100
AcDbEntity
  8
0
100
AcDbLine
 62
250
  6
CONTINUOUS
 10
14.0023890607
 20
-3.6645694161
 30
0.0
 11
14.0023891417
 21
-3.6643990561
 31
0.0
  0
LWPOLYLINE
  5
360
100
AcDbEntity
  8
RACCORDO
100
AcDbPolyline
 62
7
  6
CONTINUOUS
 90
26
 70
0
 10
14.0023892197
 20
-3.6644024661
 10
14.0026748797
 20
-3.647723929
 10
14.0034896494
 20
-3.6316755197
 10
14.004839903
 20
-3.6155891052
 10
14.0067325105
 20
-3.5994717115
 10
14.0091685274
 20
-3.5833710717
 10
14.0121501224
 20
-3.567307272
 10
14.0156790662
 20
-3.5512989954
 10
14.0197494254
 20
-3.5353911568
 10
14.0243581843
 20
-3.5196053111
 10
14.0295030527
 20
-3.5039579181
 10
14.0351738848
 20
-3.4884850108
 10
14.0413641651
 20
-3.4732061361
 10
14.0480678201
 20
-3.4581378793
 10
14.0552714061
 20
-3.4433103732
 10
14.062965879
 20
-3.4287405274
 10
14.0711416623
 20
-3.4144448595
 10
14.0797811717
 20
-3.4004511812
 10
14.0888729662
 20
-3.3867739805
 10
14.0984043328
 20
-3.3734285276
 10
14.1083525009
 20
-3.3604415685
 10
14.1187034733
 20
-3.3478251969
 10
14.1294418478
 20
-3.3355922468
 10
14.1405393986
 20
-3.3237676776
 10
14.1519746768
 20
-3.3123655883
 10
14.163734646
 20
-3.3013905048
  0
LWPOLYLINE
  5
361
100
AcDbEntity
  8
0
100
AcDbPolyline
 62
7
  6
CONTINUOUS
 90
26
 70
0
 10
14.0023892197
 20
-3.6644024661
 10
14.0026748798
 20
-3.6477239248
 10
14.0034896496
 20
-3.6316755154
 10
14.0048399034
 20
-3.6155891009
 10
14.0067325111
 20
-3.5994717071
 10
14.0091685281
 20
-3.5833710672
 10
14.0121501233
 20
-3.5673072676
 10
14.0156790672
 20
-3.5512989909
 10
14.0197494266
 20
-3.5353911522
 10
14.0243581857
 20
-3.5196053065
 10
14.0295030543
 20
-3.5039579136
 10
14.0351738866
 20
-3.4884850063
 10
14.041364167
 20
-3.4732061316
 10
14.0480678222
 20
-3.4581378748
 10
14.0552714084
 20
-3.4433103687
 10
14.0629658814
 20
-3.4287405229
 10
14.0711416649
 20
-3.4144448551
 10
14.0797811745
 20
-3.4004511769
 10
14.0888729692
 20
-3.3867739762
 10
14.098404336
 20
-3.3734285233
 10
14.1083525042
 20
-3.3604415643
 10
14.1187034767
 20
-3.3478251928
 10
14.1294418514
 20
-3.3355922428
 10
14.1405394024
 20
-3.3237676737
 10
14.1519746807
 20
-3.3123655845
 10
14.16373465
 20
-3.3013905012
  0
LINE
  5
362
100
AcDbEntity
  8
ASSI
100
AcDbLine
 62
7
  6
CONTINUOUS
 10
3.5473052784
 20
-22.0868984812
 30
0.0
 11
3.9788748048
 21
-21.3989994063
 31
0.0
  0
LINE
  5
363
100
AcDbEntity
  8
ASSI
100
AcDbLine
 62
7
  6
CONTINUOUS
 10
3.9788748048
 20
-21.9909594106
 30
0.0
 11
3.535403756
 21
-22.6978288849
 31
0.0
  0
LINE
  5
364
100
AcDbEntity
  8
ASSI
100
AcDbLine
 62
7
  6
CONTINUOUS
 10
6.3546707413
 20
12.6100333254
 30
0.0
 11
7.5447241163
 21
12.5866208307
 31
0.0
  0
LINE
  5
365
100
AcDbEntity
  8
ASSI
100
AcDbLine
 62
7
  6
CONTINUOUS
 10
7.4732269097
 20
12.6153357208
 30
0.0
 11
7.5447241163
 21
12.5866208307
 31
0.0
  0
LINE
  5
366
100
AcDbEntity
  8
RACCORDO
100
AcDbLine
 62
7
  6
CONTINUOUS
 10
-12.78174409
 20
20.9961136648
 30
0.0
 11
4.420729543
 21
14.0872124331
 31
0.0
  0
LINE
  5
367
100
AcDbEntity
  8
0
100
AcDbLine
 62
7
  6
CONTINUOUS
 10
2.3408884589
 20
15.0865060885
 30
0.0
 11
-9.6193668731
 21
19.8900142675
 31
0.0
  0
LWPOLYLINE
  5
368
100
AcDbEntity
  8
ASSI
100
AcDbPolyline
 62
7
  6
CONTINUOUS
 90
3
 70
0
 10
1.8861346045
 20
16.535042144
 10
1.9080757268
 20
16.5210247991
 10
1.9320296028
 20
16.509640206
  0
LINE
  5
369
100
AcDbEntity
  8
ASSI
100
AcDbLine
 62
7
  6
CONTINUOUS
 10
6.9139488255
 20
13.9439090974
 30
0.0
 11
7.4732269097
 21
13.1600123259
 31
0.0
  0
LINE
  5
36A
100
AcDbEntity
  8
RACCORDO
100
AcDbLine
 62
7
  6
CONTINUOUS
 10
6.9139488255
 20
13.9641284809
 30
0.0
 11
7.0220485393
 21
13.812613485
 31
0.0
  0
LINE
  5
36B
100
AcDbEntity
  8
0
100
AcDbLine
 62
7
  6
CONTINUOUS
 10
6.9139488255
 20
13.9641284809
 30
0.0
 11
7.0220485393
 21
13.812613485
 31
0.0
  0
LWPOLYLINE
  5
36C
100
AcDbEntity
  8
ASSI
100
AcDbPolyline
 62
7
  6
CONTINUOUS
 90
4
 70
0
 10
6.3419848247
 20
-22.3358717968
 10
6.3544789748
 20
-22.3138613618
 10
6.3648812561
 20
-22.2913808345
 10
6.3734787025
 20
-22.2680310976
  0
LINE
  5
36D
100
AcDbEntity
  8
ASSI
100
AcDbLine
 62
250
  6
CONTINUOUS
 10
4.3455089647
 20
-23.1647099973
 30
0.0
 11
4.862573018
 21
-22.3405371532
 31
0.0
  0
LINE
  5
36E
100
AcDbEntity
  8
ASSI
100
AcDbLine
 62
250
  6
CONTINUOUS
 10
4.5646700072
 20
-23.3270346163
 30
0.0
 11
5.1667286739
 21
-22.367384839
 31
0.0
  0
LINE
  5
36F
100
AcDbEntity
  8
ASSI
100
AcDbLine
 62
7
  6
CONTINUOUS
 10
7.5447241163
 20
-16.6494062391
 30
0.0
 11
6.3546707413
 21
-18.5177443576
 31
0.0
  0
LINE
  5
370
100
AcDbEntity
  8
RACCORDO
100
AcDbLine
 62
250
  6
CONTINUOUS
 10
7.5447241163
 20
-16.4530360363
 30
0.0
 11
13.8314267142
 21
-11.0404886918
 31
0.0
  0
LINE
  5
371
100
AcDbEntity
  8
0
100
AcDbLine
 62
250
  6
CONTINUOUS
 10
7.5447241163
 20
-16.4530360363
 30
0.0
 11
13.8314267142
 21
-11.0404886918
 31
0.0
  0
LINE
  5
372
100
AcDbEntity
  8
ASSI
100
AcDbLine
 62
7
  6
CONTINUOUS
 10
3.9788748048
 20
15.2990121778
 30
0.0
 11
3.535403756
 21
15.3056761336
 31
0.0
  0
LINE
  5
373
100
AcDbEntity
  8
ASSI
100
AcDbLine
 62
7
  6
CONTINUOUS
 10
4.3998615828
 20
15.5337509924
 30
0.0
 11
4.9271321073
 21
15.5258277978
 31
0.0
  0
LINE
  5
374
100
AcDbEntity
  8
ASSI
100
AcDbLine
 62
250
  6
CONTINUOUS
 10
4.5646700072
 20
15.6663004616
 30
0.0
 11
5.1667286739
 21
15.6572534397
 31
0.0
  0
LWPOLYLINE
  5
375
100
AcDbEntity
  8
ASSI
100
AcDbPolyline
 62
7
  6
CONTINUOUS
 90
5
 70
0
 10
-10.2569018197
 20
21.4049886582
 10
-10.2459377684
 20
21.4009382186
 10
-10.2189968462
 20
21.3937597275
 10
-10.191222712
 20
21.3901678206
 10
-10.1814124967
 20
21.3897780077
  0
LWPOLYLINE
  5
376
100
AcDbEntity
  8
ASSI
100
AcDbPolyline
 62
7
  6
CONTINUOUS
 90
5
 70
0
 10
4.3239971008
 20
15.5489722967
 10
4.3285550788
 20
15.5472039432
 10
4.3514049191
 20
15.5400861466
 10
4.3750482572
 20
15.5355744703
 10
4.3998786279
 20
15.5337573874
  0
LINE
  5
377
100
AcDbEntity
  8
ASSI
100
AcDbLine
 62
7
  6
CONTINUOUS
 10
-11.6153866852
 20
21.3347492717
 30
0.0
 11
-11.39115099
 21
21.2446911612
 31
0.0
  0
LINE
  5
378
100
AcDbEntity
  8
ASSI
100
AcDbLine
 62
7
  6
CONTINUOUS
 10
2.9655197031
 20
15.4787285473
 30
0.0
 11
3.1897553983
 21
15.3886704368
 31
0.0
  0
LINE
  5
379
100
AcDbEntity
  8
ASSI
100
AcDbLine
 62
7
  6
CONTINUOUS
 10
5.0529755979
 20
14.803234175
 30
0.0
 11
4.8210803162
 21
14.8963685481
 31
0.0
  0
LINE
  5
37A
100
AcDbEntity
  8
ASSI
100
AcDbLine
 62
7
  6
CONTINUOUS
 10
2.481347658
 20
15.8360579317
 30
0.0
 11
-9.7598260722
 21
20.7523892725
 31
0.0
  0
LINE
  5
37B
100
AcDbEntity
  8
ASSI
100
AcDbLine
 62
7
  6
CONTINUOUS
 10
-12.0995587304
 20
21.6920786561
 30
0.0
 11
-12.3314540121
 21
21.7852130292
 31
0.0
  0
LINE
  5
37C
100
AcDbEntity
  8
ASSI
100
AcDbLine
 62
7
  6
CONTINUOUS
 10
4.3239779394
 20
15.5489782738
 30
0.0
 11
3.3928319959
 21
15.9229474461
 31
0.0
  0
LINE
  5
37D
100
AcDbEntity
  8
ASSI
100
AcDbLine
 62
7
  6
CONTINUOUS
 10
2.8628871796
 20
16.1357852316
 30
0.0
 11
1.9317922632
 21
16.5097339411
 31
0.0
  0
LINE
  5
37E
100
AcDbEntity
  8
ASSI
100
AcDbLine
 62
7
  6
CONTINUOUS
 10
-10.2569785213
 20
21.4050190776
 30
0.0
 11
-11.1880743925
 21
21.7789681705
 31
0.0
  0
LINE
  5
37F
100
AcDbEntity
  8
ASSI
100
AcDbLine
 62
7
  6
CONTINUOUS
 10
-11.7180192087
 20
21.991805956
 30
0.0
 11
-12.6491209801
 21
22.3657574186
 31
0.0
  0
LINE
  5
380
100
AcDbEntity
  8
ASSI
100
AcDbLine
 62
250
  6
CONTINUOUS
 10
-11.6153866852
 20
22.0449436893
 30
0.0
 11
-12.6990857382
 21
22.4801980719
 31
0.0
  0
LINE
  5
381
100
AcDbEntity
  8
ASSI
100
AcDbLine
 62
250
  6
CONTINUOUS
 10
2.9655197031
 20
16.1889229649
 30
0.0
 11
1.8818206501
 21
16.624160936
 31
0.0
  0
LINE
  5
382
100
AcDbEntity
  8
ASSI
100
AcDbLine
 62
250
  6
CONTINUOUS
 10
-10.307451937
 20
21.5196476077
 30
0.0
 11
-11.39115099
 21
21.9548855789
 31
0.0
  0
LINE
  5
383
100
AcDbEntity
  8
ASSI
100
AcDbLine
 62
250
  6
CONTINUOUS
 10
4.2734544513
 20
15.6636432886
 30
0.0
 11
3.1897553983
 21
16.0988648545
 31
0.0
  0
LINE
  5
384
100
AcDbEntity
  8
ASSI
100
AcDbLine
 62
7
  6
CONTINUOUS
 10
0.4114189559
 20
17.4105254416
 30
0.0
 11
-2.2421962649
 21
18.4762771386
 31
0.0
  0
LINE
  5
385
100
AcDbEntity
  8
ASSI
100
AcDbLine
 62
7
  6
CONTINUOUS
 10
-3.8891292766
 20
19.1377225654
 30
0.0
 11
-6.5427444974
 21
20.2034742624
 31
0.0
  0
LINE
  5
386
100
AcDbEntity
  8
ASSI
100
AcDbLine
 62
250
  6
CONTINUOUS
 10
4.2734544513
 20
15.9637236072
 30
0.0
 11
1.8818206501
 21
16.9242576598
 31
0.0
  0
LINE
  5
387
100
AcDbEntity
  8
ASSI
100
AcDbLine
 62
250
  6
CONTINUOUS
 10
-10.307451937
 20
21.8197443316
 30
0.0
 11
-12.6990857382
 21
22.7802783842
 31
0.0
  0
LINE
  5
388
100
AcDbEntity
  8
ASSI
100
AcDbLine
 62
7
  6
CONTINUOUS
 10
-8.6767692714
 20
21.432115461
 30
0.0
 11
-6.6280292101
 21
20.6092952646
 31
0.0
  0
LINE
  5
389
100
AcDbEntity
  8
ASSI
100
AcDbLine
 62
7
  6
CONTINUOUS
 10
-3.434196188
 20
19.3265799196
 30
0.0
 11
-2.3274809776
 21
18.8820981408
 31
0.0
  0
LINE
  5
38A
100
AcDbEntity
  8
ASSI
100
AcDbLine
 62
7
  6
CONTINUOUS
 10
0.8663520445
 20
17.5993827959
 30
0.0
 11
1.8610261698
 21
17.1998992428
 31
0.0
  0
LINE
  5
38B
100
AcDbEntity
  8
ASSI
100
AcDbLine
 62
7
  6
CONTINUOUS
 10
5.9455156292
 20
15.5594761932
 30
0.0
 11
5.9041371169
 21
15.5760947366
 31
0.0
  0
LINE
  5
38C
100
AcDbEntity
  8
ASSI
100
AcDbLine
 62
250
  6
CONTINUOUS
 10
4.4150484287
 20
16.2836099025
 30
0.0
 11
2.0220097464
 21
17.2447081871
 31
0.0
  0
LINE
  5
38D
100
AcDbEntity
  8
ASSI
100
AcDbLine
 62
250
  6
CONTINUOUS
 10
-10.1658579596
 20
22.1396306269
 30
0.0
 11
-12.558896642
 21
23.1007289115
 31
0.0
  0
LINE
  5
38E
100
AcDbEntity
  8
ASSI
100
AcDbLine
 62
7
  6
CONTINUOUS
 10
-8.6767692714
 20
22.1180246471
 30
0.0
 11
-8.1483390977
 21
21.9057951761
 31
0.0
  0
LINE
  5
38F
100
AcDbEntity
  8
ASSI
100
AcDbLine
 62
7
  6
CONTINUOUS
 10
5.9041371169
 20
16.2620039227
 30
0.0
 11
6.5044351838
 21
16.0209106856
 31
0.0
  0
LINE
  5
390
100
AcDbEntity
  8
ASSI
100
AcDbLine
 62
7
  6
CONTINUOUS
 10
-2.3274809776
 20
19.5680986406
 30
0.0
 11
-2.8851446588
 21
19.7920689472
 31
0.0
  0
LINE
  5
391
100
AcDbEntity
  8
ASSI
100
AcDbLine
 62
250
  6
CONTINUOUS
 10
-6.5017931332
 20
21.3509906415
 30
0.0
 11
-3.9300806408
 21
20.3181329266
 31
0.0
  0
LINE
  5
392
100
AcDbEntity
  8
ASSI
100
AcDbLine
 62
250
  6
CONTINUOUS
 10
0.3704675917
 20
18.5909358029
 30
0.0
 11
-2.2012449007
 21
19.6237935177
 31
0.0
  0
LINE
  5
393
100
AcDbEntity
  8
ASSI
100
AcDbLine
 62
7
  6
CONTINUOUS
 10
-2.3327694362
 20
19.680060265
 30
0.0
 11
-2.8871533536
 21
19.9027133445
 31
0.0
  0
LINE
  5
394
100
AcDbEntity
  8
0
100
AcDbLine
 62
7
  6
CONTINUOUS
 10
11.4251899498
 20
21.5903382294
 30
0.0
 11
11.4294023772
 21
21.5691940853
 31
0.0
  0
LINE
  5
395
100
AcDbEntity
  8
0
100
AcDbLine
 62
7
  6
CONTINUOUS
 10
12.6110549805
 20
22.1688131989
 30
0.0
 11
12.5529915733
 21
22.460260611
 31
0.0
  0
LWPOLYLINE
  5
396
100
AcDbEntity
  8
RACCORDO
100
AcDbPolyline
 62
7
  6
CONTINUOUS
 90
31
 70
0
 10
19.4273865469
 20
22.6535055191
 10
19.4270648776
 20
22.6878343181
 10
19.4257538242
 20
22.7309240399
 10
19.4234282062
 20
22.7742392981
 10
19.4200811906
 20
22.8177844356
 10
19.4157090301
 20
22.8615245096
 10
19.4103149108
 20
22.9053845846
 10
19.403897662
 20
22.9493530864
 10
19.3964564616
 20
22.9934147369
 10
19.388002953
 20
23.0374906767
 10
19.3785395848
 20
23.0815699653
 10
19.3680687264
 20
23.1256389611
 10
19.3566108223
 20
23.1696164014
 10
19.3441719972
 20
23.2134904818
 10
19.3307570343
 20
23.2572507912
 10
19.3163935052
 20
23.300819486
 10
19.3010918042
 20
23.3441806483
 10
19.2848575451
 20
23.387330366
 10
19.2677179294
 20
23.4302098401
 10
19.2496833053
 20
23.4728071116
 10
19.2307614593
 20
23.5151157408
 10
19.2109798831
 20
23.5570857218
 10
19.1903482966
 20
23.598708618
 10
19.1688759844
 20
23.6399754479
 10
19.146594196
 20
23.6808359565
 10
19.123513931
 20
23.721281232
 10
19.0996445331
 20
23.7613030673
 10
19.0750196631
 20
23.8008540858
 10
19.0496580268
 20
23.8399143233
 10
19.0235620948
 20
23.8784882197
 10
19.001550659
 20
23.9098505246
  0
LWPOLYLINE
  5
397
100
AcDbEntity
  8
0
100
AcDbPolyline
 62
7
  6
CONTINUOUS
 90
31
 70
0
 10
19.4273865469
 20
22.6535055191
 10
19.4270648776
 20
22.6878343181
 10
19.4257538242
 20
22.7309240399
 10
19.4234282062
 20
22.7742392981
 10
19.4200811906
 20
22.8177844356
 10
19.4157090301
 20
22.8615245096
 10
19.4103149108
 20
22.9053845846
 10
19.403897662
 20
22.9493530864
 10
19.3964564616
 20
22.9934147369
 10
19.388002953
 20
23.0374906767
 10
19.3785395848
 20
23.0815699653
 10
19.3680687264
 20
23.1256389611
 10
19.3566108223
 20
23.1696164014
 10
19.3441719972
 20
23.2134904818
 10
19.3307570343
 20
23.2572507912
 10
19.3163935052
 20
23.300819486
 10
19.3010918042
 20
23.3441806483
 10
19.2848575451
 20
23.387330366
 10
19.2677179294
 20
23.4302098401
 10
19.2496833053
 20
23.4728071116
 10
19.2307614593
 20
23.5151157408
 10
19.2109798831
 20
23.5570857218
 10
19.1903482966
 20
23.598708618
 10
19.1688759844
 20
23.6399754479
 10
19.146594196
 20
23.6808359565
 10
19.123513931
 20
23.721281232
 10
19.0996445331
 20
23.7613030673
 10
19.0750196631
 20
23.8008540858
 10
19.0496580268
 20
23.8399143233
 10
19.0235620948
 20
23.8784882197
 10
19.001550659
 20
23.9098505246
  0
LINE
  5
398
100
AcDbEntity
  8
RACCORDO
100
AcDbLine
 62
250
  6
CONTINUOUS
 10
19.2564241313
 20
1.4419737492
 30
0.0
 11
19.2564241313
 21
5.7506773877
 31
0.0
  0
LINE
  5
399
100
AcDbEntity
  8
0
100
AcDbLine
 62
250
  6
CONTINUOUS
 10
19.2564241313
 20
1.4419737492
 30
0.0
 11
19.2564241313
 21
5.7506773877
 31
0.0
  0
LINE
  5
39A
100
AcDbEntity
  8
RACCORDO
100
AcDbLine
 62
250
  6
CONTINUOUS
 10
19.2564241313
 20
7.4272119507
 30
0.0
 11
19.2564241313
 21
17.0549755903
 31
0.0
  0
LINE
  5
39B
100
AcDbEntity
  8
0
100
AcDbLine
 62
250
  6
CONTINUOUS
 10
19.2564241313
 20
7.4272119507
 30
0.0
 11
19.2564241313
 21
17.0549755903
 31
0.0
  0
LINE
  5
39C
100
AcDbEntity
  8
RACCORDO
100
AcDbLine
 62
250
  6
CONTINUOUS
 10
19.2564241313
 20
18.7315101709
 30
0.0
 11
19.2564241313
 21
22.3328341846
 31
0.0
  0
LINE
  5
39D
100
AcDbEntity
  8
0
100
AcDbLine
 62
250
  6
CONTINUOUS
 10
19.2564241313
 20
18.7315101709
 30
0.0
 11
19.2564241313
 21
22.3328341846
 31
0.0
  0
LINE
  5
39E
100
AcDbEntity
  8
0
100
AcDbLine
 62
250
  6
CONTINUOUS
 10
19.4273865587
 20
8.102647441
 30
0.0
 11
19.4273865576
 21
8.1025551388
 31
0.0
  0
LINE
  5
39F
100
AcDbEntity
  8
RACCORDO
100
AcDbLine
 62
7
  6
CONTINUOUS
 10
19.4273865587
 20
1.762713622
 30
0.0
 11
19.4273865587
 21
5.7167151227
 31
0.0
  0
LINE
  5
3A0
100
AcDbEntity
  8
0
100
AcDbLine
 62
7
  6
CONTINUOUS
 10
19.4273865587
 20
1.762713622
 30
0.0
 11
19.4273865587
 21
5.7167151227
 31
0.0
  0
LINE
  5
3A1
100
AcDbEntity
  8
RACCORDO
100
AcDbLine
 62
7
  6
CONTINUOUS
 10
19.4273865576
 20
8.1025551388
 30
0.0
 11
19.4273865587
 21
17.0209697996
 31
0.0
  0
LINE
  5
3A2
100
AcDbEntity
  8
0
100
AcDbLine
 62
7
  6
CONTINUOUS
 10
19.4273865587
 20
8.1026541597
 30
0.0
 11
19.4273865587
 21
17.0209697996
 31
0.0
  0
LINE
  5
3A3
100
AcDbEntity
  8
RACCORDO
100
AcDbLine
 62
7
  6
CONTINUOUS
 10
19.4273865587
 20
19.4070020785
 30
0.0
 11
19.4273865587
 21
22.6535157815
 31
0.0
  0
LINE
  5
3A4
100
AcDbEntity
  8
0
100
AcDbLine
 62
7
  6
CONTINUOUS
 10
19.4273865587
 20
19.4070020785
 30
0.0
 11
19.4273865587
 21
22.6535157815
 31
0.0
  0
LINE
  5
3A5
100
AcDbEntity
  8
0
100
AcDbLine
 62
250
  6
CONTINUOUS
 10
19.4273865576
 20
5.7167587581
 30
0.0
 11
19.4273865586
 21
5.7167246754
 31
0.0
  0
LINE
  5
3A6
100
AcDbEntity
  8
RACCORDO
100
AcDbLine
 62
7
  6
CONTINUOUS
 10
19.4273865463
 20
17.0211191887
 30
0.0
 11
19.4273865585
 21
17.0210227754
 31
0.0
  0
LINE
  5
3A7
100
AcDbEntity
  8
0
100
AcDbLine
 62
250
  6
CONTINUOUS
 10
19.4273865463
 20
17.0211191887
 30
0.0
 11
19.4273865585
 21
17.0210227754
 31
0.0
  0
LINE
  5
3A8
100
AcDbEntity
  8
RACCORDO
100
AcDbLine
 62
7
  6
CONTINUOUS
 10
19.4273865587
 20
19.4069244139
 30
0.0
 11
19.4273865434
 21
19.406635835
 31
0.0
  0
LINE
  5
3A9
100
AcDbEntity
  8
0
100
AcDbLine
 62
250
  6
CONTINUOUS
 10
19.4273865587
 20
19.4069244139
 30
0.0
 11
19.4273865434
 21
19.406635835
 31
0.0
  0
LWPOLYLINE
  5
3AA
100
AcDbEntity
  8
RACCORDO
100
AcDbPolyline
 62
7
  6
CONTINUOUS
 90
17
 70
0
 10
19.4273866383
 20
17.0210183615
 10
19.4274288214
 20
17.0250414242
 10
19.4277735307
 20
17.0331071217
 10
19.4284196051
 20
17.0406270727
 10
19.4293087092
 20
17.0475621377
 10
19.4303884406
 20
17.0539249432
 10
19.4316212402
 20
17.0597755774
 10
19.4329645628
 20
17.0651155026
 10
19.4343708033
 20
17.0699258317
 10
19.4358059686
 20
17.0742329109
 10
19.4372310806
 20
17.0780388781
 10
19.4386013973
 20
17.0813321127
 10
19.4398765987
 20
17.0841146409
 10
19.441016272
 20
17.0863882987
 10
19.4419731558
 20
17.0881434969
 10
19.4426927964
 20
17.0893635207
 10
19.443128898
 20
17.0900509222
  0
LWPOLYLINE
  5
3AB
100
AcDbEntity
  8
0
100
AcDbPolyline
 62
7
  6
CONTINUOUS
 90
17
 70
0
 10
19.4273866383
 20
17.0210183615
 10
19.4274288214
 20
17.0250414242
 10
19.4277735307
 20
17.0331071217
 10
19.4284196051
 20
17.0406270727
 10
19.4293087092
 20
17.0475621377
 10
19.4303884406
 20
17.0539249432
 10
19.4316212402
 20
17.0597755774
 10
19.4329645628
 20
17.0651155026
 10
19.4343708033
 20
17.0699258317
 10
19.4358059686
 20
17.0742329109
 10
19.4372310806
 20
17.0780388781
 10
19.4386013973
 20
17.0813321127
 10
19.4398765987
 20
17.0841146409
 10
19.441016272
 20
17.0863882987
 10
19.4419731558
 20
17.0881434969
 10
19.4426927964
 20
17.0893635207
 10
19.443128898
 20
17.0900509222
  0
LWPOLYLINE
  5
3AC
100
AcDbEntity
  8
RACCORDO
100
AcDbPolyline
 62
7
  6
CONTINUOUS
 90
17
 70
0
 10
19.4273866039
 20
5.7167219637
 10
19.4274288567
 20
5.7207467975
 10
19.4277738354
 20
5.7288139032
 10
19.4284203218
 20
5.7363354078
 10
19.4293099782
 20
5.7432722766
 10
19.4303903611
 20
5.7496368369
 10
19.4316238627
 20
5.7554887552
 10
19.4329678388
 20
5.7608293268
 10
19.4343746433
 20
5.7656398656
 10
19.435810263
 20
5.7699468224
 10
19.4372356887
 20
5.7737523195
 10
19.4386061604
 20
5.7770447583
 10
19.4398813152
 20
5.7798262093
 10
19.4410205717
 20
5.78209828
 10
19.4419766415
 20
5.783851443
 10
19.442695167
 20
5.7850691918
 10
19.4431300156
 20
5.7857543714
  0
LWPOLYLINE
  5
3AD
100
AcDbEntity
  8
0
100
AcDbPolyline
 62
7
  6
CONTINUOUS
 90
17
 70
0
 10
19.4273866039
 20
5.7167219637
 10
19.4274288567
 20
5.7207467975
 10
19.4277738354
 20
5.7288139032
 10
19.4284203218
 20
5.7363354078
 10
19.4293099782
 20
5.7432722766
 10
19.4303903611
 20
5.7496368369
 10
19.4316238627
 20
5.7554887552
 10
19.4329678388
 20
5.7608293268
 10
19.4343746433
 20
5.7656398656
 10
19.435810263
 20
5.7699468224
 10
19.4372356887
 20
5.7737523195
 10
19.4386061604
 20
5.7770447583
 10
19.4398813152
 20
5.7798262093
 10
19.4410205717
 20
5.78209828
 10
19.4419766415
 20
5.783851443
 10
19.442695167
 20
5.7850691918
 10
19.4431300156
 20
5.7857543714
  0
LINE
  5
3AE
100
AcDbEntity
  8
ASSI
100
AcDbLine
 62
250
  6
CONTINUOUS
 10
6.3546707413
 20
-20.8933476664
 30
0.0
 11
6.9139488255
 21
-20.4034604633
 31
0.0
  0
LINE
  5
3AF
100
AcDbEntity
  8
ASSI
100
AcDbLine
 62
7
  6
CONTINUOUS
 10
6.2669669579
 20
-21.1114010687
 30
0.0
 11
6.8269443825
 21
-20.6209012939
 31
0.0
  0
LWPOLYLINE
  5
3B0
100
AcDbEntity
  8
RACCORDO
100
AcDbPolyline
 62
7
  6
CONTINUOUS
 90
37
 70
0
 10
13.4778423016
 20
-11.915024851
 10
13.4916067679
 20
-11.90302297
 10
13.5183717311
 20
-11.8787876706
 10
13.544547414
 20
-11.8538729614
 10
13.5701106765
 20
-11.8282995089
 10
13.5950512042
 20
-11.802076419
 10
13.6193701315
 20
-11.775199637
 10
13.6430508469
 20
-11.7476839222
 10
13.6660772616
 20
-11.7195447379
 10
13.6884496184
 20
-11.6907771184
 10
13.710151806
 20
-11.6613956607
 10
13.7311679201
 20
-11.6314164645
 10
13.751496601
 20
-11.6008346863
 10
13.7711220068
 20
-11.5696656071
 10
13.7900288037
 20
-11.5379251335
 10
13.8082147499
 20
-11.5056074603
 10
13.8256645771
 20
-11.4727281329
 10
13.8423633961
 20
-11.4393032139
 10
13.8583077781
 20
-11.4053256616
 10
13.8734828242
 20
-11.3708113977
 10
13.8878742388
 20
-11.3357763394
 10
13.9014775712
 20
-11.3002113183
 10
13.9142789073
 20
-11.2641298132
 10
13.9262633199
 20
-11.2275499727
 10
13.9374230354
 20
-11.1904674769
 10
13.9477452074
 20
-11.1528922325
 10
13.9572145354
 20
-11.1148456481
 10
13.9658188761
 20
-11.0763386261
 10
13.9735454685
 20
-11.0373854911
 10
13.9803818596
 20
-10.9980033658
 10
13.9863165877
 20
-10.9582053582
 10
13.9913380655
 20
-10.9180058563
 10
13.995435187
 20
-10.8774209137
 10
13.9985973502
 20
-10.8364639282
 10
14.0008139591
 20
-10.7951486333
 10
14.0020749715
 20
-10.7534923112
 10
14.0023891303
 20
-10.719752788
  0
LWPOLYLINE
  5
3B1
100
AcDbEntity
  8
0
100
AcDbPolyline
 62
7
  6
CONTINUOUS
 90
37
 70
0
 10
13.4778423016
 20
-11.915024851
 10
13.4916067679
 20
-11.90302297
 10
13.5183717311
 20
-11.8787876706
 10
13.544547414
 20
-11.8538729614
 10
13.5701106765
 20
-11.8282995089
 10
13.5950512042
 20
-11.802076419
 10
13.6193701315
 20
-11.775199637
 10
13.6430508469
 20
-11.7476839222
 10
13.6660772616
 20
-11.7195447379
 10
13.6884496184
 20
-11.6907771184
 10
13.710151806
 20
-11.6613956607
 10
13.7311679201
 20
-11.6314164645
 10
13.751496601
 20
-11.6008346863
 10
13.7711220068
 20
-11.5696656071
 10
13.7900288037
 20
-11.5379251335
 10
13.8082147499
 20
-11.5056074603
 10
13.8256645771
 20
-11.4727281329
 10
13.8423633961
 20
-11.4393032139
 10
13.8583077781
 20
-11.4053256616
 10
13.8734828242
 20
-11.3708113977
 10
13.8878742388
 20
-11.3357763394
 10
13.9014775712
 20
-11.3002113183
 10
13.9142789073
 20
-11.2641298132
 10
13.9262633199
 20
-11.2275499727
 10
13.9374230354
 20
-11.1904674769
 10
13.9477452074
 20
-11.1528922325
 10
13.9572145354
 20
-11.1148456481
 10
13.9658188761
 20
-11.0763386261
 10
13.9735454685
 20
-11.0373854911
 10
13.9803818596
 20
-10.9980033658
 10
13.9863165877
 20
-10.9582053582
 10
13.9913380655
 20
-10.9180058563
 10
13.995435187
 20
-10.8774209137
 10
13.9985973502
 20
-10.8364639282
 10
14.0008139591
 20
-10.7951486333
 10
14.0020749715
 20
-10.7534923112
 10
14.0023891303
 20
-10.719752788
  0
LINE
  5
3B2
100
AcDbEntity
  8
RACCORDO
100
AcDbLine
 62
7
  6
CONTINUOUS
 10
7.4732269097
 20
-17.084708736
 30
0.0
 11
13.4778621321
 21
-11.9150077805
 31
0.0
  0
LINE
  5
3B3
100
AcDbEntity
  8
0
100
AcDbLine
 62
7
  6
CONTINUOUS
 10
7.4732269097
 20
-17.084708736
 30
0.0
 11
13.4778621321
 21
-11.9150077805
 31
0.0
  0
LINE
  5
3B4
100
AcDbEntity
  8
ASSI
100
AcDbLine
 62
7
  6
CONTINUOUS
 10
7.4732269097
 20
-17.1653679542
 30
0.0
 11
6.9179800906
 21
-17.6333703018
 31
0.0
  0
LINE
  5
3B5
100
AcDbEntity
  8
DRAFT
100
AcDbLine
 62
7
  6
CONTINUOUS
 10
4.2528302007
 20
-19.3809345242
 30
0.0
 11
4.0190330092
 21
-19.5634256035
 31
0.0
  0
LWPOLYLINE
  5
3B6
100
AcDbEntity
  8
ASSI
100
AcDbPolyline
 62
7
  6
CONTINUOUS
 90
6
 70
0
 10
-10.7630876612
 20
24.5692669925
 10
-10.7895988578
 20
24.5779926319
 10
-10.8163294855
 20
24.5830743892
 10
-10.8442235617
 20
24.584695482
 10
-10.8725792309
 20
24.582601706
 10
-10.9004041102
 20
24.576809553
  0
LWPOLYLINE
  5
3B7
100
AcDbEntity
  8
ASSI
100
AcDbPolyline
 62
7
  6
CONTINUOUS
 90
6
 70
0
 10
3.8178095305
 20
18.7132495514
 10
3.7931087105
 20
18.7215001203
 10
3.7665924402
 20
18.7267931097
 10
3.7390962749
 20
18.728678808
 10
3.7112531466
 20
18.7269724742
 10
3.6838903436
 20
18.7216986051
  0
LINE
  5
3B8
100
AcDbEntity
  8
ASSI
100
AcDbLine
 62
250
  6
CONTINUOUS
 10
-6.3890799037
 20
21.6071253705
 30
0.0
 11
-3.8173674114
 21
20.5742676557
 31
0.0
  0
LINE
  5
3B9
100
AcDbEntity
  8
ASSI
100
AcDbLine
 62
250
  6
CONTINUOUS
 10
0.4831808212
 20
18.8470705319
 30
0.0
 11
-2.0885316712
 21
19.8799282467
 31
0.0
  0
LINE
  5
3BA
100
AcDbEntity
  8
ASSI
100
AcDbLine
 62
7
  6
CONTINUOUS
 10
-6.2193443288
 20
21.7558014735
 30
0.0
 11
-3.6389530089
 21
20.7194581459
 31
0.0
  0
LINE
  5
3BB
100
AcDbEntity
  8
ASSI
100
AcDbLine
 62
7
  6
CONTINUOUS
 10
-1.9187960963
 20
20.0286043498
 30
0.0
 11
0.6615952237
 21
18.9922610221
 31
0.0
  0
LINE
  5
3BC
100
AcDbEntity
  8
ASSI
100
AcDbLine
 62
7
  6
CONTINUOUS
 10
-11.2980807653
 20
24.205112546
 30
0.0
 11
-8.8405747281
 21
23.2181227183
 31
0.0
  0
LINE
  5
3BD
100
AcDbEntity
  8
ASSI
100
AcDbLine
 62
7
  6
CONTINUOUS
 10
3.282825623
 20
18.3490918216
 30
0.0
 11
5.7403316602
 21
17.3621019939
 31
0.0
  0
LINE
  5
3BE
100
AcDbEntity
  8
ASSI
100
AcDbLine
 62
7
  6
CONTINUOUS
 10
0.9123808301
 20
19.5364331432
 30
0.0
 11
-1.3660749708
 21
20.4515123594
 31
0.0
  0
LINE
  5
3BF
100
AcDbEntity
  8
ASSI
100
AcDbLine
 62
7
  6
CONTINUOUS
 10
-3.1131185655
 20
21.1531644532
 30
0.0
 11
-5.3915743665
 21
22.0682436694
 31
0.0
  0
LINE
  5
3C0
100
AcDbEntity
  8
ASSI
100
AcDbLine
 62
250
  6
CONTINUOUS
 10
6.1622304105
 20
17.7100825254
 30
0.0
 11
3.7262982671
 21
18.6884096523
 31
0.0
  0
LINE
  5
3C1
100
AcDbEntity
  8
ASSI
100
AcDbLine
 62
250
  6
CONTINUOUS
 10
-8.4186759779
 20
23.5661032498
 30
0.0
 11
-10.8546097165
 21
24.5444291561
 31
0.0
  0
LINE
  5
3C2
100
AcDbEntity
  8
ASSI
100
AcDbLine
 62
7
  6
CONTINUOUS
 10
6.2524482807
 20
17.7354462504
 30
0.0
 11
3.8174173402
 21
18.7134095726
 31
0.0
  0
LINE
  5
3C3
100
AcDbEntity
  8
ASSI
100
AcDbLine
 62
7
  6
CONTINUOUS
 10
-10.7634892592
 20
24.5694303817
 30
0.0
 11
-8.3283690101
 21
23.5914310995
 31
0.0
  0
LINE
  5
3C4
100
AcDbEntity
  8
0
100
AcDbLine
 62
250
  6
CONTINUOUS
 10
9.1244709396
 20
24.4962827653
 30
0.0
 11
9.5797025156
 21
23.5331015647
 31
0.0
  0
LWPOLYLINE
  5
3C5
100
AcDbEntity
  8
ASSI
100
AcDbPolyline
 62
7
  6
CONTINUOUS
 90
5
 70
0
 10
6.2919472786
 20
-22.3951292252
 10
6.29438272
 20
-22.3929686767
 10
6.3121491701
 20
-22.3753126361
 10
6.3278445292
 20
-22.3564110565
 10
6.3419848247
 20
-22.3358717968
  0
LINE
  5
3C6
100
AcDbEntity
  8
ASSI
100
AcDbLine
 62
250
  6
CONTINUOUS
 10
5.9041371169
 20
-22.6783306839
 30
0.0
 11
6.3260358672
 21
-22.3087778539
 31
0.0
  0
LINE
  5
3C7
100
AcDbEntity
  8
ASSI
100
AcDbLine
 62
7
  6
CONTINUOUS
 10
5.8693662279
 20
-22.7652799603
 30
0.0
 11
6.2920083097
 21
-22.3950760257
 31
0.0
  0
LINE
  5
3C8
100
AcDbEntity
  8
ASSI
100
AcDbLine
 62
7
  6
CONTINUOUS
 10
5.8647076559
 20
-22.7690979877
 30
0.0
 11
5.8693208702
 21
-22.7653195948
 31
0.0
  0
LINE
  5
3C9
100
AcDbEntity
  8
ASSI
100
AcDbLine
 62
7
  6
CONTINUOUS
 10
6.2668573919
 20
-21.1114970184
 30
0.0
 11
6.2478148984
 21
-21.1264495568
 31
0.0
  0
LINE
  5
3CA
100
AcDbEntity
  8
ASSI
100
AcDbLine
 62
250
  6
CONTINUOUS
 10
5.9041371169
 20
-22.6783306839
 30
0.0
 11
4.5788538854
 21
-23.6923554205
 31
0.0
  0
LINE
  5
3CB
100
AcDbEntity
  8
ASSI
100
AcDbLine
 62
7
  6
CONTINUOUS
 10
5.864673388
 20
-22.7691242073
 30
0.0
 11
4.5385838271
 21
-23.7837658973
 31
0.0
  0
LINE
  5
3CC
100
AcDbEntity
  8
ASSI
100
AcDbLine
 62
250
  6
CONTINUOUS
 10
5.46213071
 20
-21.520737293
 30
0.0
 11
6.3546707413
 21
-20.8932850934
 31
0.0
  0
LINE
  5
3CD
100
AcDbEntity
  8
ASSI
100
AcDbLine
 62
7
  6
CONTINUOUS
 10
5.3560013881
 20
-21.7533915941
 30
0.0
 11
6.2477406841
 21
-21.1265023083
 31
0.0
  0
LINE
  5
3CE
100
AcDbEntity
  8
RACCORDO
100
AcDbLine
 62
250
  6
CONTINUOUS
 10
3.5183441357
 20
-22.8998331071
 30
0.0
 11
0.7667393208
 21
-24.734307073
 31
0.0
  0
LINE
  5
3CF
100
AcDbEntity
  8
RACCORDO
100
AcDbLine
 62
7
  6
CONTINUOUS
 10
0.641875289
 20
-24.9804969308
 30
0.0
 11
3.3968414883
 21
-23.1437822375
 31
0.0
  0
LWPOLYLINE
  5
3D0
100
AcDbEntity
  8
ASSI
100
AcDbPolyline
 62
7
  6
CONTINUOUS
 90
5
 70
0
 10
3.6759892524
 20
21.7443541153
 10
3.6334739664
 20
21.7403680945
 10
3.5912835549
 20
21.7324078614
 10
3.551210892
 20
21.7207715734
 10
3.5134566841
 20
21.7055830403
  0
LINE
  5
3D1
100
AcDbEntity
  8
ASSI
100
AcDbLine
 62
7
  6
CONTINUOUS
 10
-10.6020315835
 20
21.1550329022
 30
0.0
 11
-11.0455026323
 21
21.161696858
 31
0.0
  0
LINE
  5
3D2
100
AcDbEntity
  8
ASSI
100
AcDbLine
 62
250
  6
CONTINUOUS
 10
-9.4141777145
 20
21.5132741641
 30
0.0
 11
-10.0162363812
 21
21.522321186
 31
0.0
  0
LINE
  5
3D3
100
AcDbEntity
  8
ASSI
100
AcDbLine
 62
7
  6
CONTINUOUS
 10
-10.1814125006
 20
21.3897776985
 30
0.0
 11
-9.6534400554
 21
21.3818434998
 31
0.0
  0
LWPOLYLINE
  5
3D4
100
AcDbEntity
  8
RACCORDO
100
AcDbPolyline
 62
7
  6
CONTINUOUS
 90
67
 70
0
 10
-0.1962977041
 20
22.6236240528
 10
-0.2078700941
 20
22.6281513349
 10
-0.2268821319
 20
22.6350838177
 10
-0.2461453954
 20
22.6415027058
 10
-0.2655795758
 20
22.64739978
 10
-0.285203282
 20
22.6528006039
 10
-0.3051362995
 20
22.6577509821
 10
-0.3253541363
 20
22.6622529216
 10
-0.3458336677
 20
22.6663103735
 10
-0.3667000663
 20
22.6699527136
 10
-0.3879397477
 20
22.6731775418
 10
-0.4095308616
 20
22.6759821018
 10
-0.431586479
 20
22.6783780047
 10
-0.4540926007
 20
22.6803568634
 10
-0.4770352707
 20
22.6819107969
 10
-0.5005259074
 20
22.6830370275
 10
-0.5245833786
 20
22.6837215154
 10
-0.5491629184
 20
22.683947962
 10
-0.5742779253
 20
22.6837013745
 10
-0.5999724507
 20
22.6829634233
 10
-0.6261748934
 20
22.6817177663
 10
-0.6527244327
 20
22.6799587608
 10
-0.6796324358
 20
22.677674982
 10
-0.706860635
 20
22.6748580888
 10
-0.7341768101
 20
22.671526332
 10
-0.7616317913
 20
22.6676710477
 10
-0.7891516378
 20
22.6632990878
 10
-0.8163261098
 20
22.6584838033
 10
-0.8431492763
 20
22.6532442264
 10
-0.8696196098
 20
22.6475973159
 10
-0.895348112
 20
22.6416518281
 10
-0.9202155612
 20
22.6354731302
 10
-0.9443548936
 20
22.6290642163
 10
-0.9677627856
 20
22.6224575172
 10
-0.9903934151
 20
22.6156978137
 10
-1.0123083914
 20
22.6087973666
 10
-1.0336606888
 20
22.6017328647
 10
-1.054470923
 20
22.5945177882
 10
-1.0747273972
 20
22.5871760063
 10
-1.094527028
 20
22.5796899967
 10
-1.1138969603
 20
22.5720640654
 10
-1.1328144441
 20
22.5643215693
 10
-1.1512970827
 20
22.5564697955
 10
-1.1693498984
 20
22.5485205818
 10
-1.1869717242
 20
22.5404883628
 10
-1.2041686143
 20
22.5323842527
 10
-1.2209369044
 20
22.524223887
 10
-1.2372833839
 20
22.51601791
 10
-1.2532271735
 20
22.507770206
 10
-1.2687609573
 20
22.4994979225
 10
-1.283892484
 20
22.4912104512
 10
-1.2986593157
 20
22.4828998888
 10
-1.3130601214
 20
22.4745790367
 10
-1.3270902783
 20
22.4662629718
 10
-1.3407771919
 20
22.4579475797
 10
-1.3541063848
 20
22.449653749
 10
-1.3670774819
 20
22.441394395
 10
-1.379732375
 20
22.4331548997
 10
-1.3920402821
 20
22.4249674246
 10
-1.4039999766
 20
22.416845893
 10
-1.4156864463
 20
22.4087513001
 10
-1.4270594985
 20
22.4007230884
 10
-1.4380917329
 20
22.3927939509
 10
-1.4488616128
 20
22.3849202923
 10
-1.4593543684
 20
22.3771250089
 10
-1.469464374
 20
22.3695012702
 10
-1.4988398551
 20
22.3470408208
  0
LWPOLYLINE
  5
3D5
100
AcDbEntity
  8
0
100
AcDbPolyline
 62
7
  6
CONTINUOUS
 90
67
 70
0
 10
-0.1962977041
 20
22.6236240528
 10
-0.2078700941
 20
22.6281513349
 10
-0.2268821319
 20
22.6350838177
 10
-0.2461453954
 20
22.6415027058
 10
-0.2655795758
 20
22.64739978
 10
-0.285203282
 20
22.6528006039
 10
-0.3051362994
 20
22.6577509821
 10
-0.3253541363
 20
22.6622529216
 10
-0.3458336677
 20
22.6663103735
 10
-0.3667000663
 20
22.6699527136
 10
-0.3879397477
 20
22.6731775418
 10
-0.4095308616
 20
22.6759821018
 10
-0.431586479
 20
22.6783780047
 10
-0.4540926007
 20
22.6803568634
 10
-0.4770352707
 20
22.6819107969
 10
-0.5005259074
 20
22.6830370275
 10
-0.5245833785
 20
22.6837215154
 10
-0.5491629184
 20
22.683947962
 10
-0.5742779253
 20
22.6837013745
 10
-0.5999724507
 20
22.6829634233
 10
-0.6261748934
 20
22.6817177663
 10
-0.6527244326
 20
22.6799587608
 10
-0.6796324357
 20
22.677674982
 10
-0.706860635
 20
22.6748580888
 10
-0.7341768101
 20
22.671526332
 10
-0.7616317912
 20
22.6676710477
 10
-0.7891516377
 20
22.6632990878
 10
-0.8163261097
 20
22.6584838034
 10
-0.8431492763
 20
22.6532442264
 10
-0.8696196098
 20
22.6475973159
 10
-0.8953481119
 20
22.6416518281
 10
-0.9202155611
 20
22.6354731302
 10
-0.9443548935
 20
22.6290642163
 10
-0.9677627855
 20
22.6224575172
 10
-0.9903934151
 20
22.6156978137
 10
-1.0123083914
 20
22.6087973666
 10
-1.0336606888
 20
22.6017328648
 10
-1.0544709229
 20
22.5945177882
 10
-1.0747273971
 20
22.5871760063
 10
-1.0945270279
 20
22.5796899967
 10
-1.1138969602
 20
22.5720640654
 10
-1.132814444
 20
22.5643215693
 10
-1.1512970826
 20
22.5564697955
 10
-1.1693498984
 20
22.5485205818
 10
-1.1869717242
 20
22.5404883628
 10
-1.2041686143
 20
22.5323842527
 10
-1.2209369044
 20
22.524223887
 10
-1.2372833839
 20
22.51601791
 10
-1.2532271734
 20
22.507770206
 10
-1.2687609573
 20
22.4994979225
 10
-1.283892484
 20
22.4912104512
 10
-1.2986593157
 20
22.4828998888
 10
-1.3130601214
 20
22.4745790367
 10
-1.3270902783
 20
22.4662629718
 10
-1.3407771919
 20
22.4579475797
 10
-1.3541063848
 20
22.449653749
 10
-1.3670774819
 20
22.441394395
 10
-1.379732375
 20
22.4331548997
 10
-1.3920402821
 20
22.4249674246
 10
-1.4039999766
 20
22.416845893
 10
-1.4156864463
 20
22.4087513001
 10
-1.4270594985
 20
22.4007230884
 10
-1.4380917329
 20
22.3927939509
 10
-1.4488616128
 20
22.3849202923
 10
-1.4593543684
 20
22.3771250089
 10
-1.469464374
 20
22.3695012702
 10
-1.4988398551
 20
22.3470408208
  0
LINE
  5
3D6
100
AcDbEntity
  8
RACCORDO
100
AcDbLine
 62
7
  6
CONTINUOUS
 10
-1.1968004506
 20
22.3583561155
 30
0.0
 11
2.4669733901
 21
20.8869019432
 31
0.0
  0
LINE
  5
3D7
100
AcDbEntity
  8
0
100
AcDbLine
 62
7
  6
CONTINUOUS
 10
-1.1968004506
 20
22.3583561155
 30
0.0
 11
2.4669733901
 21
20.8869019432
 31
0.0
  0
LINE
  5
3D8
100
AcDbEntity
  8
RACCORDO
100
AcDbLine
 62
250
  6
CONTINUOUS
 10
2.9832699814
 20
21.2973601882
 30
0.0
 11
-0.2688393793
 21
22.6034806245
 31
0.0
  0
LINE
  5
3D9
100
AcDbEntity
  8
0
100
AcDbLine
 62
250
  6
CONTINUOUS
 10
2.9832699814
 20
21.2973601882
 30
0.0
 11
-0.2688393793
 21
22.6034806245
 31
0.0
  0
LINE
  5
3DA
100
AcDbEntity
  8
RACCORDO
100
AcDbLine
 62
7
  6
CONTINUOUS
 10
3.02445056
 20
21.3300989439
 30
0.0
 11
-0.1963037791
 21
22.6236264967
 31
0.0
  0
LINE
  5
3DB
100
AcDbEntity
  8
0
100
AcDbLine
 62
7
  6
CONTINUOUS
 10
3.02445056
 20
21.3300989439
 30
0.0
 11
-0.1963037791
 21
22.6236264967
 31
0.0
  0
LINE
  5
3DC
100
AcDbEntity
  8
ASSI
100
AcDbLine
 62
7
  6
CONTINUOUS
 10
3.4716198228
 20
21.6824936357
 30
0.0
 11
-0.1919982919
 21
23.1538852649
 31
0.0
  0
LINE
  5
3DD
100
AcDbEntity
  8
ASSI
100
AcDbLine
 62
7
  6
CONTINUOUS
 10
4.9236498109
 20
22.0675406106
 30
0.0
 11
0.1744609552
 21
23.974921923
 31
0.0
  0
LINE
  5
3DE
100
AcDbEntity
  8
0
100
AcDbLine
 62
7
  6
CONTINUOUS
 10
2.3232388363
 20
25.5281869072
 30
0.0
 11
2.6411325972
 21
25.2983952946
 31
0.0
  0
LINE
  5
3DF
100
AcDbEntity
  8
RACCORDO
100
AcDbLine
 62
7
  6
CONTINUOUS
 10
12.3652054226
 20
18.8591548494
 30
0.0
 11
11.1103714385
 21
20.6179584511
 31
0.0
  0
LINE
  5
3E0
100
AcDbEntity
  8
0
100
AcDbLine
 62
7
  6
CONTINUOUS
 10
12.3652054226
 20
18.8591548494
 30
0.0
 11
11.1103714385
 21
20.6179584511
 31
0.0
  0
LWPOLYLINE
  5
3E1
100
AcDbEntity
  8
ASSI
100
AcDbPolyline
 62
7
  6
CONTINUOUS
 90
5
 70
0
 10
-2.8209299345
 20
24.3594600914
 10
-2.862513929
 20
24.35679171
 10
-2.9039764312
 20
24.3503598981
 10
-2.9436548634
 20
24.3403878069
 10
-2.9813978069
 20
24.3269624931
  0
LINE
  5
3E2
100
AcDbEntity
  8
RACCORDO
100
AcDbLine
 62
7
  6
CONTINUOUS
 10
11.4251899498
 20
21.5903382294
 30
0.0
 11
10.7886375603
 21
21.6550429607
 31
0.0
  0
LINE
  5
3E3
100
AcDbEntity
  8
RACCORDO
100
AcDbLine
 62
7
  6
CONTINUOUS
 10
14.0580045219
 20
22.02173264
 30
0.0
 11
12.6110549805
 21
22.1688131989
 31
0.0
  0
LINE
  5
3E4
100
AcDbEntity
  8
RACCORDO
100
AcDbLine
 62
7
  6
CONTINUOUS
 10
11.6345900441
 20
22.2680696032
 30
0.0
 11
9.8084329014
 21
22.4536961268
 31
0.0
  0
LINE
  5
3E5
100
AcDbEntity
  8
0
100
AcDbLine
 62
7
  6
CONTINUOUS
 10
12.0381976235
 20
23.0949890534
 30
0.0
 11
12.7274576354
 21
23.0249266602
 31
0.0
  0
LWPOLYLINE
  5
3E6
100
AcDbEntity
  8
ASSI
100
AcDbPolyline
 62
7
  6
CONTINUOUS
 90
8
 70
0
 10
6.5809659375
 20
23.1076188971
 10
6.5389630794
 20
23.1217716886
 10
6.494700856
 20
23.1309630164
 10
6.44812937
 20
23.1349138756
 10
6.3997886204
 20
23.133265532
 10
6.3504675875
 20
23.125843564
 10
6.3005132612
 20
23.11258868
 10
6.2499830916
 20
23.0934151059
  0
LINE
  5
3E7
100
AcDbEntity
  8
ASSI
100
AcDbLine
 62
7
  6
CONTINUOUS
 10
1.5260461859
 20
24.4262819439
 30
0.0
 11
5.7546551235
 21
22.7279772628
 31
0.0
  0
LINE
  5
3E8
100
AcDbEntity
  8
DRAFT
100
AcDbLine
 62
7
  6
CONTINUOUS
 10
-2.9022860712
 20
26.245757615
 30
0.0
 11
-2.9003369388
 21
26.2449747995
 31
0.0
  0
LINE
  5
3E9
100
AcDbEntity
  8
0
100
AcDbLine
 62
7
  6
CONTINUOUS
 10
-2.9022860712
 20
26.245757615
 30
0.0
 11
-2.9003369388
 21
26.2449747995
 31
0.0
  0
LINE
  5
3EA
100
AcDbEntity
  8
DRAFT
100
AcDbLine
 62
7
  6
CONTINUOUS
 10
10.6015619383
 20
20.8223078172
 30
0.0
 11
11.1103714385
 21
20.6179584511
 31
0.0
  0
LINE
  5
3EB
100
AcDbEntity
  8
0
100
AcDbLine
 62
7
  6
CONTINUOUS
 10
10.6015619383
 20
20.8223078172
 30
0.0
 11
11.1103714385
 21
20.6179584511
 31
0.0
  0
LINE
  5
3EC
100
AcDbEntity
  8
ASSI
100
AcDbLine
 62
250
  6
CONTINUOUS
 10
-2.444524151
 20
26.4860771308
 30
0.0
 11
0.860939029
 21
25.1585285978
 31
0.0
  0
LINE
  5
3ED
100
AcDbEntity
  8
ASSI
100
AcDbLine
 62
250
  6
CONTINUOUS
 10
6.2200140437
 20
23.0062032544
 30
0.0
 11
9.5254772238
 21
21.6786547214
 31
0.0
  0
LINE
  5
3EE
100
AcDbEntity
  8
ASSI
100
AcDbLine
 62
7
  6
CONTINUOUS
 10
6.5799304304
 20
23.1080417417
 30
0.0
 11
10.0783876122
 21
21.7029824666
 31
0.0
  0
LINE
  5
3EF
100
AcDbEntity
  8
0
100
AcDbLine
 62
7
  6
CONTINUOUS
 10
2.3232388363
 20
25.5281869072
 30
0.0
 11
1.5042464749
 21
25.8571127033
 31
0.0
  0
LINE
  5
3F0
100
AcDbEntity
  8
0
100
AcDbLine
 62
7
  6
CONTINUOUS
 10
3.985402139
 20
25.0503896074
 30
0.0
 11
3.957330476
 21
25.0616638201
 31
0.0
  0
LINE
  5
3F1
100
AcDbEntity
  8
0
100
AcDbLine
 62
7
  6
CONTINUOUS
 10
2.7247423418
 20
25.8570793244
 30
0.0
 11
1.9057499803
 21
26.1860051206
 31
0.0
  0
LINE
  5
3F2
100
AcDbEntity
  8
ASSI
100
AcDbLine
 62
7
  6
CONTINUOUS
 10
1.226608545
 20
25.2580563266
 30
0.0
 11
-2.272078541
 21
26.6632081085
 31
0.0
  0
LINE
  5
3F3
100
AcDbEntity
  8
0
100
AcDbLine
 62
7
  6
CONTINUOUS
 10
4.5078499164
 20
25.1418950193
 30
0.0
 11
4.1929194031
 21
25.3695446288
 31
0.0
  0
LINE
  5
3F4
100
AcDbEntity
  8
0
100
AcDbLine
 62
7
  6
CONTINUOUS
 10
3.2099369499
 20
25.7643325429
 30
0.0
 11
2.7247423418
 21
25.8570793244
 31
0.0
  0
LINE
  5
3F5
100
AcDbEntity
  8
RACCORDO
100
AcDbLine
 62
7
  6
CONTINUOUS
 10
4.3497000925
 20
26.6596428165
 30
0.0
 11
4.3447704616
 21
26.6610586074
 31
0.0
  0
LINE
  5
3F6
100
AcDbEntity
  8
0
100
AcDbLine
 62
7
  6
CONTINUOUS
 10
14.0451769799
 20
22.8292588527
 30
0.0
 11
13.4257266763
 21
23.0638828323
 31
0.0
  0
LINE
  5
3F7
100
AcDbEntity
  8
RACCORDO
100
AcDbLine
 62
250
  6
CONTINUOUS
 10
13.4257266763
 20
23.0638828323
 30
0.0
 11
13.4272749316
 21
23.0632959493
 31
0.0
  0
LINE
  5
3F8
100
AcDbEntity
  8
DRAFT
100
AcDbLine
 62
7
  6
CONTINUOUS
 10
9.7978080228
 20
23.3252723438
 30
0.0
 11
10.131402049
 21
23.1912934622
 31
0.0
  0
LINE
  5
3F9
100
AcDbEntity
  8
0
100
AcDbLine
 62
7
  6
CONTINUOUS
 10
9.7978080228
 20
23.3252723438
 30
0.0
 11
10.131402049
 21
23.1912934622
 31
0.0
  0
LINE
  5
3FA
100
AcDbEntity
  8
SMUSSO
100
AcDbLine
 62
7
  6
CONTINUOUS
 10
1.530305584
 20
26.6456877097
 30
0.0
 11
1.1967115577
 21
26.7796665913
 31
0.0
  0
LINE
  5
3FB
100
AcDbEntity
  8
0
100
AcDbLine
 62
7
  6
CONTINUOUS
 10
1.530305584
 20
26.6456877097
 30
0.0
 11
1.1967115577
 21
26.7796665913
 31
0.0
  0
LINE
  5
3FC
100
AcDbEntity
  8
DRAFT
100
AcDbLine
 62
7
  6
CONTINUOUS
 10
13.7921278968
 20
23.6297159732
 30
0.0
 11
14.1444368008
 21
23.4882207747
 31
0.0
  0
LINE
  5
3FD
100
AcDbEntity
  8
0
100
AcDbLine
 62
7
  6
CONTINUOUS
 10
13.7921278968
 20
23.6297159732
 30
0.0
 11
14.1444368008
 21
23.4882207747
 31
0.0
  0
LINE
  5
3FE
100
AcDbEntity
  8
DRAFT
100
AcDbLine
 62
7
  6
CONTINUOUS
 10
5.5433403357
 20
26.9426150222
 30
0.0
 11
5.1910314318
 21
27.0841102207
 31
0.0
  0
LINE
  5
3FF
100
AcDbEntity
  8
0
100
AcDbLine
 62
7
  6
CONTINUOUS
 10
5.5433403357
 20
26.9426150222
 30
0.0
 11
5.1910314318
 21
27.0841102207
 31
0.0
  0
LINE
  5
400
100
AcDbEntity
  8
RACCORDO
100
AcDbLine
 62
7
  6
CONTINUOUS
 10
5.9901955757
 20
26.0307834334
 30
0.0
 11
5.9968099288
 21
26.0277532767
 31
0.0
  0
LINE
  5
401
100
AcDbEntity
  8
DRAFT
100
AcDbLine
 62
7
  6
CONTINUOUS
 10
17.0559173502
 20
24.3318093775
 30
0.0
 11
12.9918624631
 21
25.9640254421
 31
0.0
  0
LINE
  5
402
100
AcDbEntity
  8
0
100
AcDbLine
 62
7
  6
CONTINUOUS
 10
17.0559173502
 20
24.3318093775
 30
0.0
 11
12.9918624631
 21
25.9640254421
 31
0.0
  0
LINE
  5
403
100
AcDbEntity
  8
DRAFT
100
AcDbLine
 62
7
  6
CONTINUOUS
 10
8.4548208851
 20
27.7862036251
 30
0.0
 11
4.390765998
 21
29.4184196897
 31
0.0
  0
LINE
  5
404
100
AcDbEntity
  8
0
100
AcDbLine
 62
7
  6
CONTINUOUS
 10
8.4548208851
 20
27.7862036251
 30
0.0
 11
4.390765998
 21
29.4184196897
 31
0.0
  0
LINE
  5
405
100
AcDbEntity
  8
RACCORDO
100
AcDbLine
 62
250
  6
CONTINUOUS
 10
17.4234056613
 20
24.6245269494
 30
0.0
 11
18.0401651173
 21
24.3768224473
 31
0.0
  0
LINE
  5
406
100
AcDbEntity
  8
0
100
AcDbLine
 62
250
  6
CONTINUOUS
 10
17.4234056613
 20
24.6245269494
 30
0.0
 11
18.0401651173
 21
24.3768224473
 31
0.0
  0
LINE
  5
407
100
AcDbEntity
  8
RACCORDO
100
AcDbLine
 62
250
  6
CONTINUOUS
 10
12.0244783489
 20
26.792857874
 30
0.0
 11
8.8223091963
 21
28.0789211969
 31
0.0
  0
LINE
  5
408
100
AcDbEntity
  8
0
100
AcDbLine
 62
250
  6
CONTINUOUS
 10
12.0244783489
 20
26.792857874
 30
0.0
 11
8.8223091963
 21
28.0789211969
 31
0.0
  0
LINE
  5
409
100
AcDbEntity
  8
RACCORDO
100
AcDbLine
 62
250
  6
CONTINUOUS
 10
3.4233818839
 20
30.2472521215
 30
0.0
 11
2.8066224279
 21
30.4949566235
 31
0.0
  0
LINE
  5
40A
100
AcDbEntity
  8
0
100
AcDbLine
 62
250
  6
CONTINUOUS
 10
3.4233818839
 20
30.2472521215
 30
0.0
 11
2.8066224279
 21
30.4949566235
 31
0.0
  0
LINE
  5
40B
100
AcDbEntity
  8
RACCORDO
100
AcDbLine
 62
7
  6
CONTINUOUS
 10
17.6770486699
 20
24.7690472212
 30
0.0
 11
18.4028431165
 21
24.4775518088
 31
0.0
  0
LINE
  5
40C
100
AcDbEntity
  8
0
100
AcDbLine
 62
7
  6
CONTINUOUS
 10
17.6770486699
 20
24.7690472212
 30
0.0
 11
18.4028431165
 21
24.4775518088
 31
0.0
  0
LINE
  5
40D
100
AcDbEntity
  8
RACCORDO
100
AcDbLine
 62
7
  6
CONTINUOUS
 10
12.4961913388
 20
26.849796325
 30
0.0
 11
9.0759522048
 21
28.2234414687
 31
0.0
  0
LINE
  5
40E
100
AcDbEntity
  8
0
100
AcDbLine
 62
7
  6
CONTINUOUS
 10
12.4961913388
 20
26.849796325
 30
0.0
 11
9.0759522048
 21
28.2234414687
 31
0.0
  0
LINE
  5
40F
100
AcDbEntity
  8
RACCORDO
100
AcDbLine
 62
7
  6
CONTINUOUS
 10
3.8950948738
 20
30.3041905726
 30
0.0
 11
3.1693004271
 21
30.595685985
 31
0.0
  0
LINE
  5
410
100
AcDbEntity
  8
0
100
AcDbLine
 62
7
  6
CONTINUOUS
 10
3.8950948738
 20
30.3041905726
 30
0.0
 11
3.1693004271
 21
30.595685985
 31
0.0
  0
LINE
  5
411
100
AcDbEntity
  8
RACCORDO
100
AcDbLine
 62
250
  6
CONTINUOUS
 10
18.6193048634
 20
23.9043393315
 30
0.0
 11
18.7766490566
 21
23.6838021631
 31
0.0
  0
LINE
  5
412
100
AcDbEntity
  8
0
100
AcDbLine
 62
250
  6
CONTINUOUS
 10
18.6193048634
 20
23.9043393315
 30
0.0
 11
18.7766490566
 21
23.6838021631
 31
0.0
  0
LINE
  5
413
100
AcDbEntity
  8
RACCORDO
100
AcDbLine
 62
7
  6
CONTINUOUS
 10
18.8442065427
 20
24.1303876101
 30
0.0
 11
19.0015507359
 21
23.9098504417
 31
0.0
  0
LINE
  5
414
100
AcDbEntity
  8
0
100
AcDbLine
 62
7
  6
CONTINUOUS
 10
18.8442065427
 20
24.1303876101
 30
0.0
 11
19.0015507359
 21
23.9098504417
 31
0.0
  0
ARC
  5
415
100
AcDbEntity
  8
0
100
AcDbCircle
 62
7
  6
CONTINUOUS
 10
-8.9190269513
 20
-15.1110174056
 30
0.0
 40
0.7718257139
100
AcDbArc
 50
354.2983679091
 51
359.2679320964
  0
ARC
  5
416
100
AcDbEntity
  8
DRAFT
100
AcDbCircle
 62
7
  6
CONTINUOUS
 10
-9.117817261
 20
-11.9628358838
 30
0.0
 40
0.5876407014
100
AcDbArc
 50
157.8858739446
 51
162.7140466452
  0
ARC
  5
417
100
AcDbEntity
  8
DRAFT
100
AcDbCircle
 62
7
  6
CONTINUOUS
 10
-9.1401046444
 20
-11.9540569311
 30
0.0
 40
0.5636880687
100
AcDbArc
 50
156.594917344
 51
157.8597504143
  0
ARC
  5
418
100
AcDbEntity
  8
DRAFT
100
AcDbCircle
 62
7
  6
CONTINUOUS
 10
-9.160265276
 20
-11.9450769936
 30
0.0
 40
0.5416192219
100
AcDbArc
 50
151.3824163417
 51
156.6195305022
  0
ARC
  5
419
100
AcDbEntity
  8
DRAFT
100
AcDbCircle
 62
7
  6
CONTINUOUS
 10
-9.178773993
 20
-11.935261685
 30
0.0
 40
0.5206705099
100
AcDbArc
 50
149.9780848367
 51
151.3550458083
  0
ARC
  5
41A
100
AcDbEntity
  8
DRAFT
100
AcDbCircle
 62
7
  6
CONTINUOUS
 10
-9.1917852405
 20
-11.9276124175
 30
0.0
 40
0.5055777736
100
AcDbArc
 50
145.7528676301
 51
149.9908980134
  0
ARC
  5
41B
100
AcDbEntity
  8
DRAFT
100
AcDbCircle
 62
7
  6
CONTINUOUS
 10
-9.2057448129
 20
-11.9182196172
 30
0.0
 40
0.4887526238
100
AcDbArc
 50
143.0430619212
 51
145.7421199228
  0
ARC
  5
41C
100
AcDbEntity
  8
DRAFT
100
AcDbCircle
 62
7
  6
CONTINUOUS
 10
-9.2138201062
 20
-11.9121597584
 30
0.0
 40
0.4786564816
100
AcDbArc
 50
139.8295829639
 51
143.0415505231
  0
ARC
  5
41D
100
AcDbEntity
  8
DRAFT
100
AcDbCircle
 62
7
  6
CONTINUOUS
 10
-9.2197755846
 20
-11.9071331404
 30
0.0
 40
0.4708632402
100
AcDbArc
 50
135.8572690213
 51
139.8295008826
  0
ARC
  5
41E
100
AcDbEntity
  8
DRAFT
100
AcDbCircle
 62
7
  6
CONTINUOUS
 10
-9.2236977078
 20
-11.9033782268
 30
0.0
 40
0.4654335955
100
AcDbArc
 50
133.4041819509
 51
135.8527138789
  0
ARC
  5
41F
100
AcDbEntity
  8
DRAFT
100
AcDbCircle
 62
7
  6
CONTINUOUS
 10
-9.225742482
 20
-11.9012235834
 30
0.0
 40
0.462463147
100
AcDbArc
 50
130.8593379699
 51
133.4035580595
  0
ARC
  5
420
100
AcDbEntity
  8
0
100
AcDbCircle
 62
7
  6
CONTINUOUS
 10
-9.2270944344
 20
-11.8996812986
 30
0.0
 40
0.4604130599
100
AcDbArc
 50
128.5901320339
 51
130.8576520771
  0
ARC
  5
421
100
AcDbEntity
  8
0
100
AcDbCircle
 62
7
  6
CONTINUOUS
 10
-8.6266842423
 20
-15.2077135395
 30
0.0
 40
0.4582750263
100
AcDbArc
 50
302.4840039111
 51
308.0424126725
  0
ARC
  5
422
100
AcDbEntity
  8
0
100
AcDbCircle
 62
7
  6
CONTINUOUS
 10
3.6453215891
 20
21.1421267337
 30
0.0
 40
5.2544511291
100
AcDbArc
 50
73.1260556022
 51
74.5087845964
  0
ARC
  5
423
100
AcDbEntity
  8
RACCORDO
100
AcDbCircle
 62
7
  6
CONTINUOUS
 10
3.489923154
 20
22.8515631202
 30
0.0
 40
3.9042148214
100
AcDbArc
 50
77.3524215923
 51
78.2951171962
  0
ARC
  5
424
100
AcDbEntity
  8
RACCORDO
100
AcDbCircle
 62
7
  6
CONTINUOUS
 10
3.144947119
 20
23.5202524012
 30
0.0
 40
3.2058648987
100
AcDbArc
 50
110.4677569031
 51
110.7445747623
  0
ARC
  5
425
100
AcDbEntity
  8
RACCORDO
100
AcDbCircle
 62
7
  6
CONTINUOUS
 10
2.7966119706
 20
29.6677299248
 30
0.0
 40
0.9999994558
100
AcDbArc
 50
68.1183179474
 51
120.8953584381
  0
ARC
  5
426
100
AcDbEntity
  8
0
100
AcDbCircle
 62
7
  6
CONTINUOUS
 10
2.7966119706
 20
29.6677299248
 30
0.0
 40
0.9999994558
100
AcDbArc
 50
68.1183179474
 51
120.8953584381
  0
ARC
  5
427
100
AcDbEntity
  8
RACCORDO
100
AcDbCircle
 62
250
  6
CONTINUOUS
 10
2.5322629019
 20
29.620193804
 30
0.0
 40
0.9008785951
100
AcDbArc
 50
120.8619166073
 51
127.9198648287
  0
ARC
  5
428
100
AcDbEntity
  8
0
100
AcDbCircle
 62
250
  6
CONTINUOUS
 10
2.5322629019
 20
29.620193804
 30
0.0
 40
0.9008785951
100
AcDbArc
 50
120.8619166073
 51
127.9198648287
  0
ARC
  5
429
100
AcDbEntity
  8
ASSI
100
AcDbCircle
 62
250
  6
CONTINUOUS
 10
0.8144197974
 20
24.6454556225
 30
0.0
 40
0.6696298918
100
AcDbArc
 50
7.4866713313
 51
11.1712023127
  0
ARC
  5
42A
100
AcDbEntity
  8
RACCORDO
100
AcDbCircle
 62
250
  6
CONTINUOUS
 10
2.406573849
 20
29.962618414
 30
0.0
 40
0.5466802365
100
AcDbArc
 50
120.904672361
 51
127.9821000842
  0
ARC
  5
42B
100
AcDbEntity
  8
0
100
AcDbCircle
 62
250
  6
CONTINUOUS
 10
2.406573849
 20
29.962618414
 30
0.0
 40
0.5466802365
100
AcDbArc
 50
120.904672361
 51
127.9821000842
  0
ARC
  5
42C
100
AcDbEntity
  8
RACCORDO
100
AcDbCircle
 62
250
  6
CONTINUOUS
 10
2.5639179568
 20
30.0567697472
 30
0.0
 40
0.5466800931
100
AcDbArc
 50
120.9042362961
 51
127.9821004719
  0
ARC
  5
42D
100
AcDbEntity
  8
0
100
AcDbCircle
 62
250
  6
CONTINUOUS
 10
2.5639179568
 20
30.0567697472
 30
0.0
 40
0.5466800931
100
AcDbArc
 50
120.9042362961
 51
127.9821004719
  0
ARC
  5
42E
100
AcDbEntity
  8
RACCORDO
100
AcDbCircle
 62
250
  6
CONTINUOUS
 10
3.0869940805
 20
30.3907528429
 30
0.0
 40
0.2208435592
100
AcDbArc
 50
68.1183543513
 51
69.2446923131
  0
ARC
  5
42F
100
AcDbEntity
  8
0
100
AcDbCircle
 62
250
  6
CONTINUOUS
 10
3.0869940805
 20
30.3907528429
 30
0.0
 40
0.2208435592
100
AcDbArc
 50
68.1183543513
 51
69.2446923131
  0
ARC
  5
430
100
AcDbEntity
  8
RACCORDO
100
AcDbCircle
 62
7
  6
CONTINUOUS
 10
-1.3814401697
 20
22.1934748514
 30
0.0
 40
0.1933006444
100
AcDbArc
 50
121.7069923526
 51
127.425586332
  0
ARC
  5
431
100
AcDbEntity
  8
0
100
AcDbCircle
 62
7
  6
CONTINUOUS
 10
-1.3814401697
 20
22.1934748514
 30
0.0
 40
0.1933006444
100
AcDbArc
 50
121.7069923526
 51
127.425586332
  0
ARC
  5
432
100
AcDbEntity
  8
ASSI
100
AcDbCircle
 62
250
  6
CONTINUOUS
 10
1.8628753702
 20
16.7181467508
 30
0.0
 40
0.0663336363
100
AcDbArc
 50
180.0142947564
 51
185.5641124215
  0
ARC
  5
433
100
AcDbEntity
  8
ASSI
100
AcDbCircle
 62
250
  6
CONTINUOUS
 10
3.7965488141
 20
18.6614130157
 30
0.0
 40
0.0560278578
100
AcDbArc
 50
68.1282953767
 51
73.76961128
  0
ARC
  5
434
100
AcDbEntity
  8
ASSI
100
AcDbCircle
 62
250
  6
CONTINUOUS
 10
-10.7843379511
 20
24.5175098972
 30
0.0
 40
0.0559497616
100
AcDbArc
 50
68.1387660938
 51
74.1659844356
  0
ARC
  5
435
100
AcDbEntity
  8
RACCORDO
100
AcDbCircle
 62
7
  6
CONTINUOUS
 10
18.4273862657
 20
1.7627136864
 30
0.0
 40
1.0000001764
100
AcDbArc
 50
311.2161391993
 51
0.0000669922
  0
ARC
  5
436
100
AcDbEntity
  8
0
100
AcDbCircle
 62
7
  6
CONTINUOUS
 10
18.4273862657
 20
1.7627136864
 30
0.0
 40
1.0000001764
100
AcDbArc
 50
311.2161391993
 51
0.0000669922
  0
ARC
  5
437
100
AcDbEntity
  8
ASSI
100
AcDbCircle
 62
250
  6
CONTINUOUS
 10
6.1229705589
 20
-21.8352067716
 30
0.0
 40
0.2257239165
100
AcDbArc
 50
3.2533232761
 51
16.406124048
  0
ARC
  5
438
100
AcDbEntity
  8
ASSI
100
AcDbCircle
 62
250
  6
CONTINUOUS
 10
6.1311818968
 20
-21.832844437
 30
0.0
 40
0.2171796924
100
AcDbArc
 50
16.4201310928
 51
23.1729246679
  0
ARC
  5
439
100
AcDbEntity
  8
ASSI
100
AcDbCircle
 62
250
  6
CONTINUOUS
 10
6.1707659248
 20
-21.7975070841
 30
0.0
 40
0.1627707396
100
AcDbArc
 50
60.8576093433
 51
68.2507284156
  0
ARC
  5
43A
100
AcDbEntity
  8
RACCORDO
100
AcDbCircle
 62
250
  6
CONTINUOUS
 10
12.4427980642
 20
18.5987682862
 30
0.0
 40
4.5237874486
100
AcDbArc
 50
68.7083407497
 51
69.2548737296
  0
ARC
  5
43B
100
AcDbEntity
  8
RACCORDO
100
AcDbCircle
 62
250
  6
CONTINUOUS
 10
12.4855899462
 20
18.7077542561
 30
0.0
 40
4.4067020246
100
AcDbArc
 50
67.5774218461
 51
68.7121968455
  0
ARC
  5
43C
100
AcDbEntity
  8
RACCORDO
100
AcDbCircle
 62
250
  6
CONTINUOUS
 10
12.5388948232
 20
18.8364041524
 30
0.0
 40
4.2674462776
100
AcDbArc
 50
66.5006201812
 51
67.5801510344
  0
ARC
  5
43D
100
AcDbEntity
  8
RACCORDO
100
AcDbCircle
 62
250
  6
CONTINUOUS
 10
12.5992339344
 20
18.9743386736
 30
0.0
 40
4.1168918882
100
AcDbArc
 50
65.2354531615
 51
66.5052818656
  0
ARC
  5
43E
100
AcDbEntity
  8
RACCORDO
100
AcDbCircle
 62
250
  6
CONTINUOUS
 10
12.655188871
 20
19.0954461299
 30
0.0
 40
3.9834828759
100
AcDbArc
 50
64.3291397634
 51
65.2365809098
  0
ARC
  5
43F
100
AcDbEntity
  8
RACCORDO
100
AcDbCircle
 62
250
  6
CONTINUOUS
 10
12.7234743673
 20
19.2360708323
 30
0.0
 40
3.8271569121
100
AcDbArc
 50
62.6349395154
 51
64.3385237457
  0
ARC
  5
440
100
AcDbEntity
  8
RACCORDO
100
AcDbCircle
 62
250
  6
CONTINUOUS
 10
12.7733810407
 20
19.3329004144
 30
0.0
 40
3.7182229496
100
AcDbArc
 50
62.1031424803
 51
62.6320639357
  0
ARC
  5
441
100
AcDbEntity
  8
RACCORDO
100
AcDbCircle
 62
7
  6
CONTINUOUS
 10
4.3118710971
 20
23.0204447717
 30
0.0
 40
3.4471591168
100
AcDbArc
 50
57.9633703286
 51
60.7388997835
  0
ARC
  5
442
100
AcDbEntity
  8
RACCORDO
100
AcDbCircle
 62
250
  6
CONTINUOUS
 10
12.9188952191
 20
19.5985827724
 30
0.0
 40
3.4153345281
100
AcDbArc
 50
57.7643094163
 51
62.1752181539
  0
ARC
  5
443
100
AcDbEntity
  8
RACCORDO
100
AcDbCircle
 62
250
  6
CONTINUOUS
 10
4.3541078432
 20
23.1125571732
 30
0.0
 40
3.3455643093
100
AcDbArc
 50
57.7459962304
 51
60.5976788813
  0
ARC
  5
444
100
AcDbEntity
  8
RACCORDO
100
AcDbCircle
 62
7
  6
CONTINUOUS
 10
11.7456460486
 20
20.0669076486
 30
0.0
 40
3.2047426358
100
AcDbArc
 50
110.4680883557
 51
110.7445742446
  0
ARC
  5
445
100
AcDbEntity
  8
RACCORDO
100
AcDbCircle
 62
7
  6
CONTINUOUS
 10
18.0301540733
 20
23.5495941163
 30
0.0
 40
1.0000012527
100
AcDbArc
 50
35.5063209297
 51
68.1184872185
  0
ARC
  5
446
100
AcDbEntity
  8
0
100
AcDbCircle
 62
7
  6
CONTINUOUS
 10
18.0301540733
 20
23.5495941163
 30
0.0
 40
1.0000012527
100
AcDbArc
 50
35.5063209297
 51
68.1184872185
  0
ARC
  5
447
100
AcDbEntity
  8
RACCORDO
100
AcDbCircle
 62
250
  6
CONTINUOUS
 10
19.2204478865
 20
17.292587742
 30
0.0
 40
0.3013079152
100
AcDbArc
 50
317.4598196505
 51
318.0006790263
  0
ARC
  5
448
100
AcDbEntity
  8
0
100
AcDbCircle
 62
250
  6
CONTINUOUS
 10
19.2204478865
 20
17.292587742
 30
0.0
 40
0.3013079152
100
AcDbArc
 50
317.4598196505
 51
318.0006790263
  0
ARC
  5
449
100
AcDbEntity
  8
ASSI
100
AcDbCircle
 62
250
  6
CONTINUOUS
 10
6.5004077172
 20
22.9099960135
 30
0.0
 40
0.2134148051
100
AcDbArc
 50
68.1170422474
 51
72.5848690636
  0
ARC
  5
44A
100
AcDbEntity
  8
RACCORDO
100
AcDbCircle
 62
7
  6
CONTINUOUS
 10
70.747316441
 20
-83.4052943501
 30
0.0
 40
122.1895474041
100
AcDbArc
 50
119.9862378953
 51
120.1804672257
  0
ARC
  5
44B
100
AcDbEntity
  8
RACCORDO
100
AcDbCircle
 62
250
  6
CONTINUOUS
 10
70.6013871431
 20
209.5951346237
 30
0.0
 40
210.8466631175
100
AcDbArc
 50
249.6157161736
 51
250.7164596981
  0
ARC
  5
44C
100
AcDbEntity
  8
RACCORDO
100
AcDbCircle
 62
250
  6
CONTINUOUS
 10
64.3378719847
 20
160.9845000242
 30
0.0
 40
196.4443079511
100
AcDbArc
 50
245.441264752
 51
250.7957216103
  0
ARC
  5
44D
100
AcDbEntity
  8
RACCORDO
100
AcDbCircle
 62
250
  6
CONTINUOUS
 10
65.2229660724
 20
195.3054179318
 30
0.0
 40
195.578417797
100
AcDbArc
 50
245.4430947211
 51
249.6261937273
  0
ARC
  5
44E
100
AcDbEntity
  8
RACCORDO
100
AcDbCircle
 62
250
  6
CONTINUOUS
 10
652.032749096
 20
-30.8345890378
 30
0.0
 40
652.3777776502
100
AcDbArc
 50
176.4410419669
 51
176.6752969328
  0
ARC
  5
44F
100
AcDbEntity
  8
RACCORDO
100
AcDbCircle
 62
250
  6
CONTINUOUS
 10
628.8619081946
 20
-29.5884251722
 30
0.0
 40
629.1736727783
100
AcDbArc
 50
176.6662164765
 51
177.9990916261
  0
ARC
  5
450
100
AcDbEntity
  8
RACCORDO
100
AcDbCircle
 62
250
  6
CONTINUOUS
 10
608.3615767961
 20
-22.4032111519
 30
0.0
 40
625.6888032158
100
AcDbArc
 50
176.3511824195
 51
179.5681701678
  0
ARC
  5
451
100
AcDbEntity
  8
RACCORDO
100
AcDbCircle
 62
250
  6
CONTINUOUS
 10
611.7681691164
 20
-28.9055175503
 30
0.0
 40
611.416816529
100
AcDbArc
 50
176.2942075074
 51
178.0415541637
  0
ARC
  5
452
100
AcDbEntity
  8
RACCORDO
100
AcDbCircle
 62
250
  6
CONTINUOUS
 10
591.0292960974
 20
-28.3748997611
 30
0.0
 40
591.3217674606
100
AcDbArc
 50
177.9886121975
 51
179.6271539156
  0
ARC
  5
453
100
AcDbEntity
  8
RACCORDO
100
AcDbCircle
 62
250
  6
CONTINUOUS
 10
572.5374296422
 20
-27.6426061258
 30
0.0
 40
572.1658385036
100
AcDbArc
 50
178.0336909005
 51
179.6808381624
  0
ARC
  5
454
100
AcDbEntity
  8
0
100
AcDbCircle
 62
7
  6
CONTINUOUS
 10
479.7746250844
 20
-21.2327784185
 30
0.0
 40
489.5714819775
100
AcDbArc
 50
178.9177614935
 51
179.0639383374
  0
ARC
  5
455
100
AcDbEntity
  8
DRAFT
100
AcDbCircle
 62
7
  6
CONTINUOUS
 10
481.3776001149
 20
-21.8765693665
 30
0.0
 40
489.57148188
100
AcDbArc
 50
178.9177615012
 51
179.0639383374
  0
ARC
  5
456
100
AcDbEntity
  8
0
100
AcDbCircle
 62
7
  6
CONTINUOUS
 10
481.1337875275
 20
-21.872401321
 30
0.0
 40
489.3276339031
100
AcDbArc
 50
178.9336130547
 51
179.0473686099
  0
ARC
  5
457
100
AcDbEntity
  8
DRAFT
100
AcDbCircle
 62
7
  6
CONTINUOUS
 10
479.5307291954
 20
-21.2286088884
 30
0.0
 40
489.3275506867
100
AcDbArc
 50
178.9336146726
 51
179.0473750623
  0
ARC
  5
458
100
AcDbEntity
  8
DRAFT
100
AcDbCircle
 62
7
  6
CONTINUOUS
 10
478.3657566218
 20
-21.8267201149
 30
0.0
 40
486.5592308914
100
AcDbArc
 50
179.0640133915
 51
179.2103149688
  0
ARC
  5
459
100
AcDbEntity
  8
0
100
AcDbCircle
 62
7
  6
CONTINUOUS
 10
476.7627702749
 20
-21.1829327654
 30
0.0
 40
486.559209875
100
AcDbArc
 50
179.0640133903
 51
179.2103174137
  0
ARC
  5
45A
100
AcDbEntity
  8
0
100
AcDbCircle
 62
7
  6
CONTINUOUS
 10
478.1148988915
 20
-21.8230686624
 30
0.0
 40
486.3083468239
100
AcDbArc
 50
179.080239714
 51
179.1940885819
  0
SPLINE
  5
45B
100
AcDbEntity
  8
RACCORDO
100
AcDbSpline
 62
7
  6
CONTINUOUS
 70
0
 71
3
 72
9
 73
5
 74
0
 42
0.0000001
 43
0.0000001
 44
0.0000000001
 40
0.0
 40
0.0
 40
0.0
 40
0.0
 40
0.5164171958
 40
1.0
 40
1.0
 40
1.0
 40
1.0
 10
1.3899714854
 20
26.2836531003
 30
0.0
 10
1.2337339585
 20
26.2244763267
 30
0.0
 10
0.9370856191
 20
26.0933808444
 30
0.0
 10
0.6591465322
 20
25.9254703938
 30
0.0
 10
0.5318750958
 20
25.834489557
 30
0.0
  0
SPLINE
  5
45C
100
AcDbEntity
  8
RACCORDO
100
AcDbSpline
 62
7
  6
CONTINUOUS
 70
0
 71
3
 72
11
 73
7
 74
0
 42
0.0000001
 43
0.0000001
 44
0.0000000001
 40
0.0
 40
0.0
 40
0.0
 40
0.0
 40
0.2519306884
 40
0.5079611903
 40
0.7598599963
 40
1.0
 40
1.0
 40
1.0
 40
1.0
 10
4.2819741233
 20
26.6745918454
 30
0.0
 10
4.0937029459
 20
26.7136032851
 30
0.0
 10
3.7079841928
 20
26.7648295317
 30
0.0
 10
3.1264741356
 20
26.7648224114
 30
0.0
 10
2.5588850521
 20
26.6895903874
 30
0.0
 10
2.1956212108
 20
26.5878153631
 30
0.0
 10
2.0239195912
 20
26.5237282261
 30
0.0
  0
SPLINE
  5
45D
100
AcDbEntity
  8
RACCORDO
100
AcDbSpline
 62
7
  6
CONTINUOUS
 70
0
 71
3
 72
9
 73
5
 74
0
 42
0.0000001
 43
0.0000001
 44
0.0000000001
 40
0.0
 40
0.0
 40
0.0
 40
0.0
 40
0.5000582703
 40
1.0
 40
1.0
 40
1.0
 40
1.0
 10
5.3326825456
 20
26.2648549025
 30
0.0
 10
5.4426353327
 20
26.2268464636
 30
0.0
 10
5.6620287838
 20
26.1494314662
 30
0.0
 10
5.8808717004
 20
26.0704853154
 30
0.0
 10
5.9901955757
 20
26.0307834334
 30
0.0
  0
SPLINE
  5
45E
100
AcDbEntity
  8
RACCORDO
100
AcDbSpline
 62
7
  6
CONTINUOUS
 70
0
 71
3
 72
11
 73
7
 74
0
 42
0.0000001
 43
0.0000001
 44
0.0000000001
 40
0.0
 40
0.0
 40
0.0
 40
0.0
 40
0.300899541
 40
0.5638065386
 40
0.7929270935
 40
1.0
 40
1.0
 40
1.0
 40
1.0
 10
5.2567048824
 20
26.240946679
 30
0.0
 10
5.2631343199
 20
26.2462133658
 30
0.0
 10
5.2758680166
 20
26.2553075652
 30
0.0
 10
5.2958439095
 20
26.2646674118
 30
0.0
 10
5.315039749
 20
26.268415931
 30
0.0
 10
5.3272768287
 20
26.2667235488
 30
0.0
 10
5.3326825456
 20
26.2648549025
 30
0.0
  0
SPLINE
  5
45F
100
AcDbEntity
  8
RACCORDO
100
AcDbSpline
 62
7
  6
CONTINUOUS
 70
0
 71
3
 72
9
 73
5
 74
0
 42
0.0000001
 43
0.0000001
 44
0.0000000001
 40
0.0
 40
0.0
 40
0.0
 40
0.0
 40
0.4999417294
 40
1.0
 40
1.0
 40
1.0
 40
1.0
 10
5.0072131226
 20
26.4255713474
 30
0.0
 10
4.8978892474
 20
26.4652732293
 30
0.0
 10
4.6790463299
 20
26.5442193779
 30
0.0
 10
4.4596528797
 20
26.6216343776
 30
0.0
 10
4.3497000925
 20
26.6596428165
 30
0.0
  0
SPLINE
  5
460
100
AcDbEntity
  8
RACCORDO
100
AcDbSpline
 62
7
  6
CONTINUOUS
 70
0
 71
3
 72
11
 73
7
 74
0
 42
0.0000001
 43
0.0000001
 44
0.0000000001
 40
0.0
 40
0.0
 40
0.0
 40
0.0
 40
0.3143818777
 40
0.5810860221
 40
0.8039479872
 40
1.0
 40
1.0
 40
1.0
 40
1.0
 10
5.0487362461
 20
26.3340837246
 30
0.0
 10
5.0487362461
 20
26.3452170864
 30
0.0
 10
5.0472881391
 20
26.3658635068
 30
0.0
 10
5.0396000953
 20
26.3935362279
 30
0.0
 10
5.0265366165
 20
26.4145707517
 30
0.0
 10
5.0137390037
 20
26.4232014189
 30
0.0
 10
5.0072131226
 20
26.4255713474
 30
0.0
  0
SPLINE
  5
461
100
AcDbEntity
  8
RACCORDO
100
AcDbSpline
 62
250
  6
CONTINUOUS
 70
0
 71
3
 72
13
 73
9
 74
0
 42
0.0000001
 43
0.0000001
 44
0.0000000001
 40
0.0
 40
0.0
 40
0.0
 40
0.0
 40
0.1028966454
 40
0.2107689683
 40
0.3247637618
 40
0.4456242585
 40
0.7087961892
 40
1.0
 40
1.0
 40
1.0
 40
1.0
 10
0.9048656865
 20
25.5610503862
 30
0.0
 10
0.9206755438
 20
25.6102898386
 30
0.0
 10
0.961621565
 20
25.7085627671
 30
0.0
 10
1.0467359745
 20
25.8484570439
 30
0.0
 10
1.1557554754
 20
25.9824534994
 30
0.0
 10
1.3364732919
 20
26.1563849294
 30
0.0
 10
1.618248546
 20
26.3496819812
 30
0.0
 10
1.8725531393
 20
26.4664359362
 30
0.0
 10
2.0094217941
 20
26.5182770755
 30
0.0
  0
SPLINE
  5
462
100
AcDbEntity
  8
RACCORDO
100
AcDbSpline
 62
250
  6
CONTINUOUS
 70
0
 71
3
 72
10
 73
6
 74
0
 42
0.0000001
 43
0.0000001
 44
0.0000000001
 40
0.0
 40
0.0
 40
0.0
 40
0.0
 40
0.2737052253
 40
0.5312169132
 40
1.0
 40
1.0
 40
1.0
 40
1.0
 10
5.3326825456
 20
26.2648549025
 30
0.0
 10
5.3911100262
 20
26.2268624139
 30
0.0
 10
5.5011489151
 20
26.1475900875
 30
0.0
 10
5.6903103007
 20
25.9768931875
 30
0.0
 10
5.8048740822
 20
25.8276076049
 30
0.0
 10
5.8608155483
 20
25.7221615428
 30
0.0
  0
SPLINE
  5
463
100
AcDbEntity
  8
RACCORDO
100
AcDbSpline
 62
250
  6
CONTINUOUS
 70
0
 71
3
 72
11
 73
7
 74
0
 42
0.0000001
 43
0.0000001
 44
0.0000000001
 40
0.0
 40
0.0
 40
0.0
 40
0.0
 40
0.2757325644
 40
0.5333624207
 40
0.7739822929
 40
1.0
 40
1.0
 40
1.0
 40
1.0
 10
5.2567283216
 20
26.2409658792
 30
0.0
 10
5.3169307152
 20
26.2007921409
 30
0.0
 10
5.4293720445
 20
26.1167651301
 30
0.0
 10
5.5761141221
 20
25.9753971201
 30
0.0
 10
5.6931163327
 20
25.8246596131
 30
0.0
 10
5.7516257019
 20
25.716196354
 30
0.0
 10
5.7747057233
 20
25.6615435263
 30
0.0
  0
SPLINE
  5
464
100
AcDbEntity
  8
RACCORDO
100
AcDbSpline
 62
250
  6
CONTINUOUS
 70
0
 71
3
 72
19
 73
15
 74
0
 42
0.0000001
 43
0.0000001
 44
0.0000000001
 40
0.0
 40
0.0
 40
0.0
 40
0.0
 40
0.043372479
 40
0.0888263024
 40
0.1370694105
 40
0.1885655907
 40
0.2435473632
 40
0.3020450795
 40
0.363918238
 40
0.4288867117
 40
0.5663731679
 40
0.7105943422
 40
0.8567878677
 40
1.0
 40
1.0
 40
1.0
 40
1.0
 10
1.009489862
 20
25.5046733762
 30
0.0
 10
1.020887476
 20
25.5575536659
 30
0.0
 10
1.0549018803
 20
25.663784417
 30
0.0
 10
1.1354729858
 20
25.8154288041
 30
0.0
 10
1.2451208695
 20
25.9604054179
 30
0.0
 10
1.3822365326
 20
26.0969602195
 30
0.0
 10
1.5450129572
 20
26.2235556495
 30
0.0
 10
1.7313838451
 20
26.3387015938
 30
0.0
 10
1.9390154917
 20
26.4410329301
 30
0.0
 10
2.2464701369
 20
26.560932471
 30
0.0
 10
2.6668001476
 20
26.6694020259
 30
0.0
 10
3.1983663757
 20
26.7313986486
 30
0.0
 10
3.7405544024
 20
26.7246856583
 30
0.0
 10
4.0991727677
 20
26.6735483804
 30
0.0
 10
4.2737437835
 20
26.6357520853
 30
0.0
  0
SPLINE
  5
465
100
AcDbEntity
  8
RACCORDO
100
AcDbSpline
 62
250
  6
CONTINUOUS
 70
0
 71
3
 72
9
 73
5
 74
0
 42
0.0000001
 43
0.0000001
 44
0.0000000001
 40
0.0
 40
0.0
 40
0.0
 40
0.0
 40
0.5191051226
 40
1.0
 40
1.0
 40
1.0
 40
1.0
 10
1.3899715493
 20
26.2836530448
 30
0.0
 10
1.2328357513
 20
26.2241373201
 30
0.0
 10
0.9360986925
 20
26.0927378763
 30
0.0
 10
0.6585551753
 20
25.9237028795
 30
0.0
 10
0.5325171761
 20
25.8323534513
 30
0.0
  0
LINE
  5
466
100
AcDbEntity
  8
RACCORDO
100
AcDbLine
 62
250
  6
CONTINUOUS
 10
5.9965759972
 20
26.0271924696
 30
0.0
 11
5.9901955757
 21
26.0307834334
 31
0.0
  0
SPLINE
  5
467
100
AcDbEntity
  8
RACCORDO
100
AcDbSpline
 62
7
  6
CONTINUOUS
 70
0
 71
3
 72
11
 73
7
 74
0
 42
0.0000001
 43
0.0000001
 44
0.0000000001
 40
0.0
 40
0.0
 40
0.0
 40
0.0
 40
0.2081393472
 40
0.4393349677
 40
0.7023648011
 40
1.0
 40
1.0
 40
1.0
 40
1.0
 10
4.3447643685
 20
26.6610417021
 30
0.0
 10
4.3394978625
 20
26.6622211171
 30
0.0
 10
4.3278927302
 20
26.662742239
 30
0.0
 10
4.3100432498
 20
26.658320602
 30
0.0
 10
4.2915330562
 20
26.6491613924
 30
0.0
 10
4.2796926341
 20
26.6406250984
 30
0.0
 10
4.2737224293
 20
26.635734593
 30
0.0
  0
SPLINE
  5
468
100
AcDbEntity
  8
RACCORDO
100
AcDbSpline
 62
7
  6
CONTINUOUS
 70
0
 71
3
 72
9
 73
5
 74
0
 42
0.0000001
 43
0.0000001
 44
0.0000000001
 40
0.0
 40
0.0
 40
0.0
 40
0.0
 40
0.5163838454
 40
1.0
 40
1.0
 40
1.0
 40
1.0
 10
9.9905673141
 20
22.8290666653
 30
0.0
 10
9.8345264276
 20
22.7699445504
 30
0.0
 10
9.5382284363
 20
22.6389836095
 30
0.0
 10
9.2606014974
 20
22.4712869559
 30
0.0
 10
9.1334477084
 20
22.3804329459
 30
0.0
  0
SPLINE
  5
469
100
AcDbEntity
  8
RACCORDO
100
AcDbSpline
 62
7
  6
CONTINUOUS
 70
0
 71
3
 72
9
 73
5
 74
0
 42
0.0000001
 43
0.0000001
 44
0.0000000001
 40
0.0
 40
0.0
 40
0.0
 40
0.0
 40
0.2406267262
 40
1.0
 40
1.0
 40
1.0
 40
1.0
 10
14.7415994029
 20
22.4882145044
 30
0.0
 10
14.6887985125
 20
22.5212648702
 30
0.0
 10
14.4655309879
 20
22.6524580985
 30
0.0
 10
14.2285970695
 20
22.759803401
 30
0.0
 10
14.0447548149
 20
22.8294179024
 30
0.0
  0
SPLINE
  5
46A
100
AcDbEntity
  8
RACCORDO
100
AcDbSpline
 62
7
  6
CONTINUOUS
 70
0
 71
3
 72
15
 73
11
 74
0
 42
0.0000001
 43
0.0000001
 44
0.0000000001
 40
0.0
 40
0.0
 40
0.0
 40
0.0
 40
0.1194367802
 40
0.2434844587
 40
0.3707508755
 40
0.4997106183
 40
0.6287086877
 40
0.7560894143
 40
0.880315361
 40
1.0
 40
1.0
 40
1.0
 40
1.0
 10
13.4257266763
 20
23.0638828323
 30
0.0
 10
13.3194018172
 20
23.1041546046
 30
0.0
 10
13.0981758478
 20
23.1748000627
 30
0.0
 10
12.752945561
 20
23.2502545701
 30
0.0
 10
12.3934381898
 20
23.2963231117
 30
0.0
 10
12.0266534862
 20
23.3122506088
 30
0.0
 10
11.6597016567
 20
23.2977323989
 30
0.0
 10
11.299703856
 20
23.2530470059
 30
0.0
 10
10.9536590768
 20
23.1789329125
 30
0.0
 10
10.7317325901
 20
23.1091663092
 30
0.0
 10
10.6249935851
 20
23.0693255772
 30
0.0
  0
SPLINE
  5
46B
100
AcDbEntity
  8
RACCORDO
100
AcDbSpline
 62
250
  6
CONTINUOUS
 70
0
 71
3
 72
11
 73
7
 74
0
 42
0.0000001
 43
0.0000001
 44
0.0000000001
 40
0.0
 40
0.0
 40
0.0
 40
0.0
 40
0.2212301604
 40
0.4617218446
 40
0.7217145725
 40
1.0
 40
1.0
 40
1.0
 40
1.0
 10
9.6779616546
 20
22.4286293266
 30
0.0
 10
9.7290278284
 20
22.4955623606
 30
0.0
 10
9.8494521814
 20
22.6249663098
 30
0.0
 10
10.0667051583
 20
22.7944480737
 30
0.0
 10
10.3233463123
 20
22.9441720929
 30
0.0
 10
10.511483789
 20
23.0263688644
 30
0.0
 10
10.6105186514
 20
23.0638813575
 30
0.0
  0
SPLINE
  5
46C
100
AcDbEntity
  8
RACCORDO
100
AcDbSpline
 62
250
  6
CONTINUOUS
 70
0
 71
3
 72
11
 73
7
 74
0
 42
0.0000001
 43
0.0000001
 44
0.0000000001
 40
0.0
 40
0.0
 40
0.0
 40
0.0
 40
0.2851597444
 40
0.5471655742
 40
0.7848487843
 40
1.0
 40
1.0
 40
1.0
 40
1.0
 10
13.4272741825
 20
23.0632952997
 30
0.0
 10
13.5455253783
 20
23.0184329116
 30
0.0
 10
13.7676673743
 20
22.9187132023
 30
0.0
 10
14.062799736
 20
22.7314831287
 30
0.0
 10
14.2988653159
 20
22.5172273988
 30
0.0
 10
14.4171301285
 20
22.3521591857
 30
0.0
 10
14.4618591506
 20
22.2678668592
 30
0.0
  0
SPLINE
  5
46D
100
AcDbEntity
  8
RACCORDO
100
AcDbSpline
 62
250
  6
CONTINUOUS
 70
0
 71
3
 72
23
 73
19
 74
0
 42
0.0000001
 43
0.0000001
 44
0.0000000001
 40
0.0
 40
0.0
 40
0.0
 40
0.0
 40
0.0508483588
 40
0.1064567778
 40
0.1668042402
 40
0.2314727394
 40
0.2997478857
 40
0.3707026412
 40
0.4432677993
 40
0.5162941229
 40
0.5886109523
 40
0.6590820197
 40
0.7266607229
 40
0.7904542105
 40
0.8498015936
 40
0.9043627689
 40
0.9542216203
 40
1.0
 40
1.0
 40
1.0
 40
1.0
 10
9.8084329014
 20
22.4536961268
 30
0.0
 10
9.8624369276
 20
22.5220781388
 30
0.0
 10
9.9905860279
 20
22.6536364454
 30
0.0
 10
10.2220462232
 20
22.8230563741
 30
0.0
 10
10.4955272626
 20
22.9698791065
 30
0.0
 10
10.8046469103
 20
23.090766727
 30
0.0
 10
11.1422605286
 20
23.1830529839
 30
0.0
 10
11.5004788013
 20
23.2445943872
 30
0.0
 10
11.8708916451
 20
23.2739573082
 30
0.0
 10
12.2447749043
 20
23.2704496819
 30
0.0
 10
12.6133172866
 20
23.2341545176
 30
0.0
 10
12.967840938
 20
23.1659242121
 30
0.0
 10
13.3000184847
 20
23.0673548299
 30
0.0
 10
13.6020933398
 20
22.9407138359
 30
0.0
 10
13.8670672555
 20
22.7888614486
 30
0.0
 10
14.08885619
 20
22.6149853166
 30
0.0
 10
14.2621519051
 20
22.4227730489
 30
0.0
 10
14.3452096819
 20
22.2795537116
 30
0.0
 10
14.3757432505
 20
22.2072927416
 30
0.0
  0
SPLINE
  5
46E
100
AcDbEntity
  8
RACCORDO
100
AcDbSpline
 62
250
  6
CONTINUOUS
 70
0
 71
3
 72
9
 73
5
 74
0
 42
0.0000001
 43
0.0000001
 44
0.0000000001
 40
0.0
 40
0.0
 40
0.0
 40
0.0
 40
0.5190941337
 40
1.0
 40
1.0
 40
1.0
 40
1.0
 10
9.9905715717
 20
22.8290678372
 30
0.0
 10
9.8335324448
 20
22.7695685247
 30
0.0
 10
9.53696922
 20
22.6382175774
 30
0.0
 10
9.259594701
 20
22.4692538871
 30
0.0
 10
9.1336184088
 20
22.3779595356
 30
0.0
  0
SPLINE
  5
46F
100
AcDbEntity
  8
RACCORDO
100
AcDbSpline
 62
7
  6
CONTINUOUS
 70
0
 71
3
 72
9
 73
5
 74
0
 42
0.0000001
 43
0.0000001
 44
0.0000000001
 40
0.0
 40
0.0
 40
0.0
 40
0.0
 40
0.515195213
 40
1.0
 40
1.0
 40
1.0
 40
1.0
 10
9.8083923092
 20
22.4537002529
 30
0.0
 10
9.7854263832
 20
22.4560347097
 30
0.0
 10
9.7399808354
 20
22.4546097378
 30
0.0
 10
9.6967777668
 20
22.4394840006
 30
0.0
 10
9.6779616546
 20
22.4286293266
 30
0.0
  0
SPLINE
  5
470
100
AcDbEntity
  8
0
100
AcDbSpline
 62
7
  6
CONTINUOUS
 70
0
 71
3
 72
14
 73
10
 74
0
 42
0.0000001
 43
0.0000001
 44
0.0000000001
 40
0.0
 40
0.0
 40
0.0
 40
0.0
 40
0.1234442831
 40
0.2579172071
 40
0.5368667301
 40
0.6701555104
 40
0.7920430424
 40
0.9009876949
 40
1.0
 40
1.0
 40
1.0
 40
1.0
 10
-9.7502245777
 20
-14.4771140614
 30
0.0
 10
-9.7513872438
 20
-14.5615056386
 30
0.0
 10
-9.7266960289
 20
-14.7386836908
 30
0.0
 10
-9.5920556956
 20
-15.0822401979
 30
0.0
 10
-9.3498286806
 20
-15.3832811252
 30
0.0
 10
-9.0430749332
 20
-15.5857571893
 30
0.0
 10
-8.8055415609
 20
-15.6699734324
 30
0.0
 10
-8.576135524
 20
-15.6800548728
 30
0.0
 10
-8.4376643701
 20
-15.6306451382
 30
0.0
 10
-8.380561166
 20
-15.5942875052
 30
0.0
  0
SPLINE
  5
471
100
AcDbEntity
  8
0
100
AcDbSpline
 62
7
  6
CONTINUOUS
 70
0
 71
3
 72
10
 73
6
 74
0
 42
0.0000001
 43
0.0000001
 44
0.0000000001
 40
0.0
 40
0.0
 40
0.0
 40
0.0
 40
0.2331709469
 40
0.4747455647
 40
1.0
 40
1.0
 40
1.0
 40
1.0
 10
-9.5282883595
 20
-11.5514537793
 30
0.0
 10
-9.5566872377
 20
-11.5760165338
 30
0.0
 10
-9.6085224221
 20
-11.6334309576
 30
0.0
 10
-9.6860894762
 20
-11.7758264189
 30
0.0
 10
-9.7079297579
 20
-11.9014282424
 30
0.0
 10
-9.7095269586
 20
-11.9859951558
 30
0.0
  0
SPLINE
  5
472
100
AcDbEntity
  8
0
100
AcDbSpline
 62
7
  6
CONTINUOUS
 70
0
 71
3
 72
10
 73
6
 74
0
 42
0.0000001
 43
0.0000001
 44
0.0000000001
 40
0.0
 40
0.0
 40
0.0
 40
0.0
 40
0.2367896219
 40
0.4795827522
 40
1.0
 40
1.0
 40
1.0
 40
1.0
 10
-8.3442747209
 20
-15.5686302361
 30
0.0
 10
-8.3170851541
 20
-15.5473517787
 30
0.0
 10
-8.2667888223
 20
-15.4977250306
 30
0.0
 10
-8.1876368435
 20
-15.3742013253
 30
0.0
 10
-8.1585851165
 20
-15.263200146
 30
0.0
 10
-8.1510196597
 20
-15.1876968193
 30
0.0
  0
SPLINE
  5
473
100
AcDbEntity
  8
0
100
AcDbSpline
 62
7
  6
CONTINUOUS
 70
0
 71
3
 72
16
 73
12
 74
0
 42
0.0000001
 43
0.0000001
 44
0.0000000001
 40
0.0
 40
0.0
 40
0.0
 40
0.0
 40
0.124489498
 40
0.2600254893
 40
0.4012895803
 40
0.5414906359
 40
0.6740610782
 40
0.794306349
 40
0.9012786657
 40
0.9512332448
 40
1.0
 40
1.0
 40
1.0
 40
1.0
 10
-8.1065474737
 20
-12.629787753
 30
0.0
 10
-8.1048983605
 20
-12.542503739
 30
0.0
 10
-8.1304744042
 20
-12.3592165488
 30
0.0
 10
-8.2362035244
 20
-12.0961030258
 30
0.0
 10
-8.4012065204
 20
-11.8520699742
 30
0.0
 10
-8.6110629146
 20
-11.6483607654
 30
0.0
 10
-8.8479169627
 20
-11.5025398814
 30
0.0
 10
-9.092160767
 20
-11.4274760615
 30
0.0
 10
-9.2914199431
 20
-11.4328020816
 30
0.0
 10
-9.4283239944
 20
-11.4813145487
 30
0.0
 10
-9.4875442399
 20
-11.5184789634
 30
0.0
 10
-9.5142747726
 20
-11.5398096005
 30
0.0
  0
LINE
  5
474
100
AcDbEntity
  8
0
100
AcDbLine
 62
7
  6
CONTINUOUS
 10
-8.1285476343
 20
-13.8786205933
 30
0.0
 11
-8.1262125033
 21
-13.7369436805
 31
0.0
  0
LINE
  5
475
100
AcDbEntity
  8
0
100
AcDbLine
 62
7
  6
CONTINUOUS
 10
-8.1090960091
 20
-12.7655791552
 30
0.0
 11
-8.1065496618
 21
-12.629786888
 31
0.0
  0
LINE
  5
476
100
AcDbEntity
  8
0
100
AcDbLine
 62
7
  6
CONTINUOUS
 10
-8.1472615713
 20
-15.1208798051
 30
0.0
 11
-8.1453414147
 21
-14.9829745147
 31
0.0
  0
LINE
  5
477
100
AcDbEntity
  8
0
100
AcDbLine
 62
7
  6
CONTINUOUS
 10
-8.1307899446
 20
-14.016771276
 30
0.0
 11
-8.128552542
 21
-13.878618653
 31
0.0
  0
SPLINE
  5
478
100
AcDbEntity
  8
DRAFT
100
AcDbSpline
 62
7
  6
CONTINUOUS
 70
0
 71
3
 72
11
 73
7
 74
0
 42
0.0000001
 43
0.0000001
 44
0.0000000001
 40
0.0
 40
0.0
 40
0.0
 40
0.0
 40
0.2726182302
 40
0.5265225566
 40
0.7662209627
 40
1.0
 40
1.0
 40
1.0
 40
1.0
 10
-8.1472642305
 20
-15.1208782442
 30
0.0
 10
-8.1479521164
 20
-15.1707758093
 30
0.0
 10
-8.1582010274
 20
-15.2673932096
 30
0.0
 10
-8.2035911573
 20
-15.4014774672
 30
0.0
 10
-8.27760699
 20
-15.5140305214
 30
0.0
 10
-8.3444899935
 20
-15.5712654495
 30
0.0
 10
-8.3805709613
 20
-15.5942739792
 30
0.0
  0
SPLINE
  5
479
100
AcDbEntity
  8
DRAFT
100
AcDbSpline
 62
7
  6
CONTINUOUS
 70
0
 71
3
 72
16
 73
12
 74
0
 42
0.0000001
 43
0.0000001
 44
0.0000000001
 40
0.0
 40
0.0
 40
0.0
 40
0.0
 40
0.0488098414
 40
0.0986180601
 40
0.2049934874
 40
0.3246965057
 40
0.4570647756
 40
0.5974311341
 40
0.7391099895
 40
0.8751262781
 40
1.0
 40
1.0
 40
1.0
 40
1.0
 10
-9.528287829
 20
-11.551454409
 30
0.0
 10
-9.5021786756
 20
-11.5288714156
 30
0.0
 10
-9.4440083414
 20
-11.4891142766
 30
0.0
 10
-9.3081188529
 20
-11.4356222643
 30
0.0
 10
-9.1080325425
 20
-11.4249640147
 30
0.0
 10
-8.8612025588
 20
-11.4962666303
 30
0.0
 10
-8.6209336539
 20
-11.6404158971
 30
0.0
 10
-8.4073994522
 20
-11.8443790863
 30
0.0
 10
-8.2391241388
 20
-12.0901932002
 30
0.0
 10
-8.1310957162
 20
-12.3560111474
 30
0.0
 10
-8.1048791286
 20
-12.541486874
 30
0.0
 10
-8.1065474574
 20
-12.6297879285
 30
0.0
  0
SPLINE
  5
47A
100
AcDbEntity
  8
DRAFT
100
AcDbSpline
 62
7
  6
CONTINUOUS
 70
0
 71
3
 72
16
 73
12
 74
0
 42
0.0000001
 43
0.0000001
 44
0.0000000001
 40
0.0
 40
0.0
 40
0.0
 40
0.0
 40
0.048843907
 40
0.0993418149
 40
0.2080720053
 40
0.3297326334
 40
0.4627768112
 40
0.6024916629
 40
0.7426398022
 40
0.8768167536
 40
1.0
 40
1.0
 40
1.0
 40
1.0
 10
-8.3805709613
 20
-15.5942739792
 30
0.0
 10
-8.4087838329
 20
-15.6122650902
 30
0.0
 10
-8.4703759177
 20
-15.6426264296
 30
0.0
 10
-8.6092828053
 20
-15.6782446875
 30
0.0
 10
-8.8057829544
 20
-15.6701319853
 30
0.0
 10
-9.0429400655
 20
-15.5857094856
 30
0.0
 10
-9.2704464903
 20
-15.4357443241
 30
0.0
 10
-9.470364833
 20
-15.2329317068
 30
0.0
 10
-9.6266851669
 20
-14.9939039702
 30
0.0
 10
-9.7267513242
 20
-14.7385448486
 30
0.0
 10
-9.7513871173
 20
-14.5614940116
 30
0.0
 10
-9.7502246082
 20
-14.4771138327
 30
0.0
  0
SPLINE
  5
47B
100
AcDbEntity
  8
DRAFT
100
AcDbSpline
 62
7
  6
CONTINUOUS
 70
0
 71
3
 72
9
 73
5
 74
0
 42
0.0000001
 43
0.0000001
 44
0.0000000001
 40
0.0
 40
0.0
 40
0.0
 40
0.0
 40
0.2593386904
 40
1.0
 40
1.0
 40
1.0
 40
1.0
 10
-9.7095269634
 20
-11.9859954065
 30
0.0
 10
-9.7091996798
 20
-11.9686667383
 30
0.0
 10
-9.705812446
 20
-11.9019241527
 30
0.0
 10
-9.693645708
 20
-11.8354804124
 30
0.0
 10
-9.6789163916
 20
-11.7882238581
 30
0.0
  0
LINE
  5
47C
100
AcDbEntity
  8
DRAFT
100
AcDbLine
 62
7
  6
CONTINUOUS
 10
-9.7315227632
 20
-13.2348296433
 30
0.0
 11
-9.7291885467
 21
-13.0932077297
 31
0.0
  0
LINE
  5
47D
100
AcDbEntity
  8
DRAFT
100
AcDbLine
 62
7
  6
CONTINUOUS
 10
-9.7120713964
 20
-12.1218020871
 30
0.0
 11
-9.7095247974
 21
-11.9859962903
 31
0.0
  0
LINE
  5
47E
100
AcDbEntity
  8
DRAFT
100
AcDbLine
 62
7
  6
CONTINUOUS
 10
-9.7502271819
 20
-14.4771127831
 30
0.0
 11
-9.747154087
 21
-14.2577267038
 31
0.0
  0
LINE
  5
47F
100
AcDbEntity
  8
DRAFT
100
AcDbLine
 62
7
  6
CONTINUOUS
 10
-9.747154087
 20
-14.2577267038
 30
0.0
 11
-9.7338108551
 21
-13.3764469313
 31
0.0
  0
LINE
  5
480
100
AcDbEntity
  8
DRAFT
100
AcDbLine
 62
7
  6
CONTINUOUS
 10
-9.7338108551
 20
-13.3764469313
 30
0.0
 11
-9.731517877
 21
-13.2348316367
 31
0.0
  0
SPLINE
  5
481
100
AcDbEntity
  8
RACCORDO
100
AcDbSpline
 62
250
  6
CONTINUOUS
 70
0
 71
3
 72
11
 73
7
 74
0
 42
0.0000001
 43
0.0000001
 44
0.0000000001
 40
0.0
 40
0.0
 40
0.0
 40
0.0
 40
0.256461857
 40
0.5240952358
 40
0.778750651
 40
1.0
 40
1.0
 40
1.0
 40
1.0
 10
-0.2799513071
 20
-24.5269645313
 30
0.0
 10
-0.2245417426
 20
-24.5461337222
 30
0.0
 10
-0.1059920815
 20
-24.5705712466
 30
0.0
 10
0.0732146
 20
-24.5701295661
 30
0.0
 10
0.2406785431
 20
-24.5348594982
 30
0.0
 10
0.3402388008
 20
-24.4860766158
 30
0.0
 10
0.3804681639
 20
-24.4554157678
 30
0.0
  0
SPLINE
  5
482
100
AcDbEntity
  8
RACCORDO
100
AcDbSpline
 62
250
  6
CONTINUOUS
 70
0
 71
3
 72
9
 73
5
 74
0
 42
0.0000001
 43
0.0000001
 44
0.0000000001
 40
0.0
 40
0.0
 40
0.0
 40
0.0
 40
0.5070420167
 40
1.0
 40
1.0
 40
1.0
 40
1.0
 10
1.66183542
 20
12.0481280211
 30
0.0
 10
-1.2642248059
 20
13.0654640563
 30
0.0
 10
-6.9904112753
 20
15.2031595839
 30
0.0
 10
-12.6065284682
 20
17.6162845414
 30
0.0
 10
-15.3417262268
 20
18.8771417074
 30
0.0
  0
SPLINE
  5
483
100
AcDbEntity
  8
RACCORDO
100
AcDbSpline
 62
250
  6
CONTINUOUS
 70
0
 71
3
 72
11
 73
7
 74
0
 42
0.0000001
 43
0.0000001
 44
0.0000000001
 40
0.0
 40
0.0
 40
0.0
 40
0.0
 40
0.2604741433
 40
0.5310582401
 40
0.7850248236
 40
1.0
 40
1.0
 40
1.0
 40
1.0
 10
0.9706392964
 20
10.5767243356
 30
0.0
 10
1.0261234835
 20
10.5570855879
 30
0.0
 10
1.1440462365
 20
10.5301427999
 30
0.0
 10
1.3222311976
 20
10.5226434897
 30
0.0
 10
1.4884815817
 20
10.546637781
 30
0.0
 10
1.5889204188
 20
10.5860198878
 30
0.0
 10
1.6297706852
 20
10.6123049404
 30
0.0
  0
SPLINE
  5
484
100
AcDbEntity
  8
RACCORDO
100
AcDbSpline
 62
250
  6
CONTINUOUS
 70
0
 71
3
 72
11
 73
7
 74
0
 42
0.0000001
 43
0.0000001
 44
0.0000000001
 40
0.0
 40
0.0
 40
0.0
 40
0.0
 40
0.2449009228
 40
0.4413444595
 40
0.638869907
 40
1.0
 40
1.0
 40
1.0
 40
1.0
 10
1.66183542
 20
12.0481280211
 30
0.0
 10
1.7174484386
 20
12.0245642138
 30
0.0
 10
1.8103284391
 20
11.9639032546
 30
0.0
 10
1.918947548
 20
11.848452386
 30
0.0
 10
2.0184344463
 20
11.6906005422
 30
0.0
 10
2.0578160869
 20
11.5515751132
 30
0.0
 10
2.0562668984
 20
11.4625241571
 30
0.0
  0
SPLINE
  5
485
100
AcDbEntity
  8
RACCORDO
100
AcDbSpline
 62
250
  6
CONTINUOUS
 70
0
 71
3
 72
11
 73
7
 74
0
 42
0.0000001
 43
0.0000001
 44
0.0000000001
 40
0.0
 40
0.0
 40
0.0
 40
0.0
 40
0.277902573
 40
0.5347649025
 40
0.7728219106
 40
1.0
 40
1.0
 40
1.0
 40
1.0
 10
-15.3417262457
 20
18.8771416917
 30
0.0
 10
-15.3713301248
 20
18.8884009233
 30
0.0
 10
-15.430548374
 20
18.9048159372
 30
0.0
 10
-15.5193920776
 20
18.9089593507
 30
0.0
 10
-15.6007824629
 20
18.8907954199
 30
0.0
 10
-15.6475063576
 20
18.8636007714
 30
0.0
 10
-15.667508544
 20
18.8471603417
 30
0.0
  0
SPLINE
  5
486
100
AcDbEntity
  8
RACCORDO
100
AcDbSpline
 62
250
  6
CONTINUOUS
 70
0
 71
3
 72
11
 73
7
 74
0
 42
0.0000001
 43
0.0000001
 44
0.0000000001
 40
0.0
 40
0.0
 40
0.0
 40
0.0
 40
0.309382896
 40
0.5759447935
 40
0.8012619491
 40
1.0
 40
1.0
 40
1.0
 40
1.0
 10
-16.0588719497
 20
17.416151678
 30
0.0
 10
-16.0870298364
 20
17.4289355043
 30
0.0
 10
-16.1378637176
 20
17.4566764711
 30
0.0
 10
-16.1995941446
 20
17.5088102746
 30
0.0
 10
-16.2386395512
 20
17.5672727735
 30
0.0
 10
-16.2466357914
 20
17.6105618019
 30
0.0
 10
-16.245441142
 20
17.6303904622
 30
0.0
  0
SPLINE
  5
487
100
AcDbEntity
  8
RACCORDO
100
AcDbSpline
 62
250
  6
CONTINUOUS
 70
0
 71
3
 72
11
 73
7
 74
0
 42
0.0000001
 43
0.0000001
 44
0.0000000001
 40
0.0
 40
0.0
 40
0.0
 40
0.0
 40
0.2971628011
 40
0.5595047857
 40
0.789635628
 40
1.0
 40
1.0
 40
1.0
 40
1.0
 10
-17.3094472219
 20
-17.6875257777
 30
0.0
 10
-17.3369382443
 20
-17.6748022909
 30
0.0
 10
-17.3869458731
 20
-17.6465771732
 30
0.0
 10
-17.447716271
 20
-17.5926184796
 30
0.0
 10
-17.4867088192
 20
-17.5310984051
 30
0.0
 10
-17.4958303214
 20
-17.4857685264
 30
0.0
 10
-17.4956736085
 20
-17.4643246583
 30
0.0
  0
SPLINE
  5
488
100
AcDbEntity
  8
RACCORDO
100
AcDbSpline
 62
250
  6
CONTINUOUS
 70
0
 71
3
 72
11
 73
7
 74
0
 42
0.0000001
 43
0.0000001
 44
0.0000000001
 40
0.0
 40
0.0
 40
0.0
 40
0.0
 40
0.3106692846
 40
0.5772914418
 40
0.8024807827
 40
1.0
 40
1.0
 40
1.0
 40
1.0
 10
-17.3094556407
 20
-17.6875316454
 30
0.0
 10
-17.3098104184
 20
-17.7531459763
 30
0.0
 10
-17.3021172923
 20
-17.8754815816
 30
0.0
 10
-17.259081622
 20
-18.0408092106
 30
0.0
 10
-17.185561238
 20
-18.1692447665
 30
0.0
 10
-17.112737567
 20
-18.2262048602
 30
0.0
 10
-17.0747921741
 20
-18.243539204
 30
0.0
  0
SPLINE
  5
489
100
AcDbEntity
  8
RACCORDO
100
AcDbSpline
 62
250
  6
CONTINUOUS
 70
0
 71
3
 72
12
 73
8
 74
0
 42
0.0000001
 43
0.0000001
 44
0.0000000001
 40
0.0
 40
0.0
 40
0.0
 40
0.0
 40
0.2514508838
 40
0.5209322275
 40
0.7791091499
 40
0.8955808859
 40
1.0
 40
1.0
 40
1.0
 40
1.0
 10
0.9706323936
 20
10.5767187988
 30
0.0
 10
0.9792731614
 20
10.7157781881
 30
0.0
 10
1.0318546695
 20
11.00197769
 30
0.0
 10
1.1818890048
 20
11.4084331555
 30
0.0
 10
1.3606633069
 20
11.7201705152
 30
0.0
 10
1.5279515618
 20
11.9268698594
 30
0.0
 10
1.6167498779
 20
12.0118671559
 30
0.0
 10
1.66183542
 20
12.0481280211
 30
0.0
  0
SPLINE
  5
48A
100
AcDbEntity
  8
RACCORDO
100
AcDbSpline
 62
250
  6
CONTINUOUS
 70
0
 71
3
 72
12
 73
8
 74
0
 42
0.0000001
 43
0.0000001
 44
0.0000000001
 40
0.0
 40
0.0
 40
0.0
 40
0.0
 40
0.1054789534
 40
0.2225713544
 40
0.4808904461
 40
0.749572395
 40
1.0
 40
1.0
 40
1.0
 40
1.0
 10
-15.3417262457
 20
18.8771416917
 30
0.0
 10
-15.3883748263
 20
18.8416738395
 30
0.0
 10
-15.4803726867
 20
18.758236677
 30
0.0
 10
-15.6537997701
 20
18.5543622769
 30
0.0
 10
-15.8394104224
 20
18.2453774883
 30
0.0
 10
-15.9952849817
 20
17.8407502083
 30
0.0
 10
-16.0499041936
 20
17.5549921531
 30
0.0
 10
-16.0588719764
 20
17.4161516431
 30
0.0
  0
SPLINE
  5
48B
100
AcDbEntity
  8
RACCORDO
100
AcDbSpline
 62
250
  6
CONTINUOUS
 70
0
 71
3
 72
15
 73
11
 74
0
 42
0.0000001
 43
0.0000001
 44
0.0000000001
 40
0.0
 40
0.0
 40
0.0
 40
0.0
 40
0.1381937424
 40
0.2578503926
 40
0.3638269983
 40
0.4652780718
 40
0.5731511152
 40
0.69599212
 40
0.838102218
 40
1.0
 40
1.0
 40
1.0
 40
1.0
 10
0.7667393208
 20
-24.734307073
 30
0.0
 10
0.7424748798
 20
-24.7504773135
 30
0.0
 10
0.69454137
 20
-24.777087906
 30
0.0
 10
0.6197480839
 20
-24.7980739596
 30
0.0
 10
0.5492979681
 20
-24.7950369426
 30
0.0
 10
0.4873839018
 20
-24.7662103464
 30
0.0
 10
0.4386531244
 20
-24.7138835315
 30
0.0
 10
0.4042177585
 20
-24.642195876
 30
0.0
 10
0.3839735935
 20
-24.5538881669
 30
0.0
 10
0.3802852039
 20
-24.4895757001
 30
0.0
 10
0.3804681639
 20
-24.4554157678
 30
0.0
  0
SPLINE
  5
48C
100
AcDbEntity
  8
RACCORDO
100
AcDbSpline
 62
250
  6
CONTINUOUS
 70
0
 71
3
 72
11
 73
7
 74
0
 42
0.0000001
 43
0.0000001
 44
0.0000000001
 40
0.0
 40
0.0
 40
0.0
 40
0.0
 40
0.2501817963
 40
0.5186354785
 40
0.7770435212
 40
1.0
 40
1.0
 40
1.0
 40
1.0
 10
1.6297706853
 20
10.6123049404
 30
0.0
 10
1.6350117737
 20
10.6934000344
 30
0.0
 10
1.6674118045
 20
10.8602550169
 30
0.0
 10
1.7603307543
 20
11.0962635507
 30
0.0
 10
1.8886857266
 20
11.304608698
 30
0.0
 10
1.9980343455
 20
11.4194688371
 30
0.0
 10
2.0562668984
 20
11.4625241571
 30
0.0
  0
LINE
  5
48D
100
AcDbEntity
  8
RACCORDO
100
AcDbLine
 62
250
  6
CONTINUOUS
 10
-2.8396554004
 20
11.9522025014
 30
0.0
 11
-2.8663920935
 21
11.962142046
 31
0.0
  0
SPLINE
  5
48E
100
AcDbEntity
  8
RACCORDO
100
AcDbSpline
 62
250
  6
CONTINUOUS
 70
0
 71
3
 72
10
 73
6
 74
0
 42
0.0000001
 43
0.0000001
 44
0.0000000001
 40
0.0
 40
0.0
 40
0.0
 40
0.0
 40
0.2329722404
 40
0.4740432598
 40
1.0
 40
1.0
 40
1.0
 40
1.0
 10
0.6421461062
 20
-24.9802905008
 30
0.0
 10
0.6605411931
 20
-24.9680335008
 30
0.0
 10
0.6947270022
 20
-24.937807513
 30
0.0
 10
0.747509258
 20
-24.8579623869
 30
0.0
 10
0.764078908
 20
-24.7841393167
 30
0.0
 10
0.7667393208
 20
-24.734307073
 30
0.0
  0
LINE
  5
48F
100
AcDbEntity
  8
RACCORDO
100
AcDbLine
 62
250
  6
CONTINUOUS
 10
0.9131143998
 20
9.6621526204
 30
0.0
 11
0.9706323855
 21
10.5767187952
 31
0.0
  0
SPLINE
  5
490
100
AcDbEntity
  8
RACCORDO
100
AcDbSpline
 62
250
  6
CONTINUOUS
 70
0
 71
3
 72
12
 73
8
 74
0
 42
0.0000001
 43
0.0000001
 44
0.0000000001
 40
0.0
 40
0.0
 40
0.0
 40
0.0
 40
0.0953031441
 40
0.194246542
 40
0.4158888592
 40
0.6834309685
 40
1.0
 40
1.0
 40
1.0
 40
1.0
 10
-0.0339485899
 20
-25.0875871234
 30
0.0
 10
-0.0533880457
 20
-25.0807481273
 30
0.0
 10
-0.0914336094
 20
-25.0618295432
 30
0.0
 10
-0.1607998607
 20
-25.0034561933
 30
0.0
 10
-0.2282842818
 20
-24.8920300763
 30
0.0
 10
-0.2727514806
 20
-24.722207938
 30
0.0
 10
-0.2804929038
 20
-24.5954140636
 30
0.0
 10
-0.2799513258
 20
-24.5269645308
 30
0.0
  0
SPLINE
  5
491
100
AcDbEntity
  8
ASSI
100
AcDbSpline
 62
7
  6
CONTINUOUS
 70
0
 71
3
 72
9
 73
5
 74
0
 42
0.0000001
 43
0.0000001
 44
0.0000000001
 40
0.0
 40
0.0
 40
0.0
 40
0.0
 40
0.3898489839
 40
1.0
 40
1.0
 40
1.0
 40
1.0
 10
4.3558364267
 20
21.6162725096
 30
0.0
 10
4.3475909313
 20
21.6097348522
 30
0.0
 10
4.3353863588
 20
21.583598972
 30
0.0
 10
4.3323755971
 20
21.556935643
 30
0.0
 10
4.3317328145
 20
21.5404790132
 30
0.0
  0
SPLINE
  5
492
100
AcDbEntity
  8
ASSI
100
AcDbSpline
 62
7
  6
CONTINUOUS
 70
0
 71
3
 72
12
 73
8
 74
0
 42
0.0000001
 43
0.0000001
 44
0.0000000001
 40
0.0
 40
0.0
 40
0.0
 40
0.0
 40
0.1017890723
 40
0.2074610816
 40
0.4397978442
 40
0.7069919276
 40
1.0
 40
1.0
 40
1.0
 40
1.0
 10
3.9639777878
 20
20.6082241304
 30
0.0
 10
3.9793295898
 20
20.6209427809
 30
0.0
 10
4.0072126413
 20
20.651286254
 30
0.0
 10
4.0473861567
 20
20.7284359074
 30
0.0
 10
4.061956437
 20
20.8498232275
 30
0.0
 10
4.0271374849
 20
21.0031357957
 30
0.0
 10
3.9750431009
 20
21.1012610555
 30
0.0
 10
3.9423815078
 20
21.1484470105
 30
0.0
  0
SPLINE
  5
493
100
AcDbEntity
  8
DRAFT
100
AcDbSpline
 62
7
  6
CONTINUOUS
 70
0
 71
3
 72
11
 73
7
 74
0
 42
0.0000001
 43
0.0000001
 44
0.0000000001
 40
0.0
 40
0.0
 40
0.0
 40
0.0
 40
0.2775651906
 40
0.533789993
 40
0.7721736708
 40
1.0
 40
1.0
 40
1.0
 40
1.0
 10
3.635640054
 20
-19.6082813125
 30
0.0
 10
3.6710092553
 20
-19.6193446416
 30
0.0
 10
3.7410729876
 20
-19.6349162843
 30
0.0
 10
3.8450322271
 20
-19.6359508855
 30
0.0
 10
3.9398807836
 20
-19.6132991242
 30
0.0
 10
3.9949748517
 20
-19.5821956344
 30
0.0
 10
4.018957328
 20
-19.5634844245
 30
0.0
  0
SPLINE
  5
494
100
AcDbEntity
  8
ASSI
100
AcDbSpline
 62
7
  6
CONTINUOUS
 70
0
 71
3
 72
11
 73
7
 74
0
 42
0.0000001
 43
0.0000001
 44
0.0000000001
 40
0.0
 40
0.0
 40
0.0
 40
0.0
 40
0.2296626971
 40
0.4763821137
 40
0.7354145219
 40
1.0
 40
1.0
 40
1.0
 40
1.0
 10
-0.7012309294
 20
23.5618307183
 30
0.0
 10
-0.7011183091
 20
23.5870350385
 30
0.0
 10
-0.7186379054
 20
23.6400862291
 30
0.0
 10
-0.781566019
 20
23.6949563428
 30
0.0
 10
-0.863242814
 20
23.7224277268
 30
0.0
 10
-0.921474123
 20
23.7236295798
 30
0.0
 10
-0.9503806495
 20
23.7208778125
 30
0.0
  0
SPLINE
  5
495
100
AcDbEntity
  8
ASSI
100
AcDbSpline
 62
7
  6
CONTINUOUS
 70
0
 71
3
 72
11
 73
7
 74
0
 42
0.0000001
 43
0.0000001
 44
0.0000000001
 40
0.0
 40
0.0
 40
0.0
 40
0.0
 40
0.3381828284
 40
0.6069802388
 40
0.8093210228
 40
1.0
 40
1.0
 40
1.0
 40
1.0
 10
4.4102699883
 20
21.5679196633
 30
0.0
 10
4.4075303442
 20
21.5770693625
 30
0.0
 10
4.40142801
 20
21.5932472924
 30
0.0
 10
4.3890273903
 20
21.6125428709
 30
0.0
 10
4.3720936881
 20
21.6236823615
 30
0.0
 10
4.3600561925
 20
21.6196182616
 30
0.0
 10
4.3558364267
 20
21.6162725096
 30
0.0
  0
SPLINE
  5
496
100
AcDbEntity
  8
ASSI
100
AcDbSpline
 62
7
  6
CONTINUOUS
 70
0
 71
3
 72
8
 73
4
 74
0
 42
0.0000001
 43
0.0000001
 44
0.0000000001
 40
0.0
 40
0.0
 40
0.0
 40
0.0
 40
1.0
 40
1.0
 40
1.0
 40
1.0
 10
-6.3748124013
 20
21.746735274
 30
0.0
 10
-6.3655211789
 20
21.7538506883
 30
0.0
 10
-6.3549841851
 20
21.7595329539
 30
0.0
 10
-6.3439922744
 20
21.7635496485
 30
0.0
  0
SPLINE
  5
497
100
AcDbEntity
  8
ASSI
100
AcDbSpline
 62
7
  6
CONTINUOUS
 70
0
 71
3
 72
9
 73
5
 74
0
 42
0.0000001
 43
0.0000001
 44
0.0000000001
 40
0.0
 40
0.0
 40
0.0
 40
0.0
 40
0.4676465715
 40
1.0
 40
1.0
 40
1.0
 40
1.0
 10
-6.3439922744
 20
21.7635496485
 30
0.0
 10
-6.325401151
 20
21.7703432685
 30
0.0
 10
-6.2819135853
 20
21.7750767053
 30
0.0
 10
-6.2402533083
 20
21.7641989911
 30
0.0
 10
-6.2193443288
 20
21.7558014735
 30
0.0
  0
SPLINE
  5
498
100
AcDbEntity
  8
ASSI
100
AcDbSpline
 62
250
  6
CONTINUOUS
 70
0
 71
3
 72
9
 73
5
 74
0
 42
0.0000001
 43
0.0000001
 44
0.0000000001
 40
0.0
 40
0.0
 40
0.0
 40
0.0
 40
0.4809358489
 40
1.0
 40
1.0
 40
1.0
 40
1.0
 10
4.2734544513
 20
-23.4006488426
 30
0.0
 10
4.2734542793
 20
-23.3607675697
 30
0.0
 10
4.289145691
 20
-23.2779704798
 30
0.0
 10
4.3230356237
 20
-23.2014203759
 30
0.0
 10
4.3455089647
 20
-23.1647099973
 30
0.0
  0
SPLINE
  5
499
100
AcDbEntity
  8
ASSI
100
AcDbSpline
 62
7
  6
CONTINUOUS
 70
0
 71
3
 72
8
 73
4
 74
0
 42
0.0000001
 43
0.0000001
 44
0.0000000001
 40
0.0
 40
0.0
 40
0.0
 40
0.0
 40
1.0
 40
1.0
 40
1.0
 40
1.0
 10
-2.0742641688
 20
20.0195381502
 30
0.0
 10
-2.0649729464
 20
20.0266535645
 30
0.0
 10
-2.0544359526
 20
20.0323358301
 30
0.0
 10
-2.0434440419
 20
20.0363525247
 30
0.0
  0
SPLINE
  5
49A
100
AcDbEntity
  8
ASSI
100
AcDbSpline
 62
7
  6
CONTINUOUS
 70
0
 71
3
 72
9
 73
5
 74
0
 42
0.0000001
 43
0.0000001
 44
0.0000000001
 40
0.0
 40
0.0
 40
0.0
 40
0.0
 40
0.4676465715
 40
1.0
 40
1.0
 40
1.0
 40
1.0
 10
-2.0434440419
 20
20.0363525247
 30
0.0
 10
-2.0248529185
 20
20.0431461448
 30
0.0
 10
-1.9813653527
 20
20.0478795815
 30
0.0
 10
-1.9397050758
 20
20.0370018673
 30
0.0
 10
-1.9187960963
 20
20.0286043498
 30
0.0
  0
SPLINE
  5
49B
100
AcDbEntity
  8
ASSI
100
AcDbSpline
 62
250
  6
CONTINUOUS
 70
0
 71
3
 72
10
 73
6
 74
0
 42
0.0000001
 43
0.0000001
 44
0.0000000001
 40
0.0
 40
0.0
 40
0.0
 40
0.0
 40
0.2265146531
 40
0.4647603438
 40
1.0
 40
1.0
 40
1.0
 40
1.0
 10
3.4404254401
 20
21.6607941194
 30
0.0
 10
3.4501793512
 20
21.6685460771
 30
0.0
 10
3.4729868215
 20
21.6812084781
 30
0.0
 10
3.5275581042
 20
21.6921754917
 30
0.0
 10
3.5711338814
 20
21.6828393569
 30
0.0
 10
3.598456812
 20
21.6718763204
 30
0.0
  0
SPLINE
  5
49C
100
AcDbEntity
  8
ASSI
100
AcDbSpline
 62
250
  6
CONTINUOUS
 70
0
 71
3
 72
9
 73
5
 74
0
 42
0.0000001
 43
0.0000001
 44
0.0000000001
 40
0.0
 40
0.0
 40
0.0
 40
0.0
 40
0.4654311439
 40
1.0
 40
1.0
 40
1.0
 40
1.0
 10
4.0789071818
 20
21.420131297
 30
0.0
 10
4.0787761795
 20
21.3986771106
 30
0.0
 10
4.0652716855
 20
21.3522637171
 30
0.0
 10
4.0332587868
 20
21.3174010171
 30
0.0
 10
4.0142877682
 20
21.3016750075
 30
0.0
  0
SPLINE
  5
49D
100
AcDbEntity
  8
ASSI
100
AcDbSpline
 62
7
  6
CONTINUOUS
 70
0
 71
3
 72
9
 73
5
 74
0
 42
0.0000001
 43
0.0000001
 44
0.0000000001
 40
0.0
 40
0.0
 40
0.0
 40
0.0
 40
0.4643193158
 40
1.0
 40
1.0
 40
1.0
 40
1.0
 10
4.0721528925
 20
20.3107481318
 30
0.0
 10
4.0720141822
 20
20.2884737599
 30
0.0
 10
4.057786747
 20
20.2401886666
 30
0.0
 10
4.0243185536
 20
20.2040619123
 30
0.0
 10
4.0044936476
 20
20.187710403
 30
0.0
  0
SPLINE
  5
49E
100
AcDbEntity
  8
ASSI
100
AcDbSpline
 62
250
  6
CONTINUOUS
 70
0
 71
3
 72
11
 73
7
 74
0
 42
0.0000001
 43
0.0000001
 44
0.0000000001
 40
0.0
 40
0.0
 40
0.0
 40
0.0
 40
0.2271892693
 40
0.4892997599
 40
0.7571332874
 40
1.0
 40
1.0
 40
1.0
 40
1.0
 10
2.0220097464
 20
17.2447081871
 30
0.0
 10
2.0013505894
 20
17.2271407915
 30
0.0
 10
1.9633190491
 20
17.1817981276
 30
0.0
 10
1.9199455449
 20
17.1020528532
 30
0.0
 10
1.8903836087
 20
17.0142182429
 30
0.0
 10
1.8818204431
 20
16.9532475234
 30
0.0
 10
1.8818206501
 20
16.9242576598
 30
0.0
  0
SPLINE
  5
49F
100
AcDbEntity
  8
ASSI
100
AcDbSpline
 62
250
  6
CONTINUOUS
 70
0
 71
3
 72
11
 73
7
 74
0
 42
0.0000001
 43
0.0000001
 44
0.0000000001
 40
0.0
 40
0.0
 40
0.0
 40
0.0
 40
0.2276261725
 40
0.4897585861
 40
0.757370048
 40
1.0
 40
1.0
 40
1.0
 40
1.0
 10
4.4150484287
 20
16.2836099025
 30
0.0
 10
4.3942098462
 20
16.2661496059
 30
0.0
 10
4.3558052291
 20
16.2209940783
 30
0.0
 10
4.3119741266
 20
16.1413953621
 30
0.0
 10
4.2821026543
 20
16.0536545408
 30
0.0
 10
4.2734542502
 20
15.9927021343
 30
0.0
 10
4.2734544513
 20
15.9637236072
 30
0.0
  0
SPLINE
  5
4A0
100
AcDbEntity
  8
ASSI
100
AcDbSpline
 62
250
  6
CONTINUOUS
 70
0
 71
3
 72
11
 73
7
 74
0
 42
0.0000001
 43
0.0000001
 44
0.0000000001
 40
0.0
 40
0.0
 40
0.0
 40
0.0
 40
0.3123404726
 40
0.5795004522
 40
0.8033409702
 40
1.0
 40
1.0
 40
1.0
 40
1.0
 10
4.2734544419
 20
15.6636432929
 30
0.0
 10
4.2734548921
 20
15.6499002745
 30
0.0
 10
4.2752432291
 20
15.6243265171
 30
0.0
 10
4.28450396
 20
15.5899140417
 30
0.0
 10
4.3003077841
 20
15.5634595031
 30
0.0
 10
4.3159096598
 20
15.5522409046
 30
0.0
 10
4.3239383606
 20
15.5490137176
 30
0.0
  0
SPLINE
  5
4A1
100
AcDbEntity
  8
ASSI
100
AcDbSpline
 62
7
  6
CONTINUOUS
 70
0
 71
3
 72
9
 73
5
 74
0
 42
0.0000001
 43
0.0000001
 44
0.0000000001
 40
0.0
 40
0.0
 40
0.0
 40
0.0
 40
0.4623053527
 40
1.0
 40
1.0
 40
1.0
 40
1.0
 10
-2.4093101367
 20
22.9170677087
 30
0.0
 10
-2.4088457756
 20
22.8936354431
 30
0.0
 10
-2.4235023262
 20
22.8421901004
 30
0.0
 10
-2.4596051083
 20
22.8045258062
 30
0.0
 10
-2.4809587592
 20
22.7875828902
 30
0.0
  0
SPLINE
  5
4A2
100
AcDbEntity
  8
ASSI
100
AcDbSpline
 62
250
  6
CONTINUOUS
 70
0
 71
3
 72
11
 73
7
 74
0
 42
0.0000001
 43
0.0000001
 44
0.0000000001
 40
0.0
 40
0.0
 40
0.0
 40
0.0
 40
0.3136538124
 40
0.5808352646
 40
0.8045048076
 40
1.0
 40
1.0
 40
1.0
 40
1.0
 10
1.8818206501
 20
16.624160936
 30
0.0
 10
1.8818207143
 20
16.6104081879
 30
0.0
 10
1.8835605744
 20
16.5848619399
 30
0.0
 10
1.8927687149
 20
16.5505123956
 30
0.0
 10
1.9083821833
 20
16.5241523012
 30
0.0
 10
1.9238369414
 20
16.5129276385
 30
0.0
 10
1.9317917385
 20
16.5097342135
 30
0.0
  0
SPLINE
  5
4A3
100
AcDbEntity
  8
ASSI
100
AcDbSpline
 62
250
  6
CONTINUOUS
 70
0
 71
3
 72
9
 73
5
 74
0
 42
0.0000001
 43
0.0000001
 44
0.0000000001
 40
0.0
 40
0.0
 40
0.0
 40
0.0
 40
0.465837978
 40
1.0
 40
1.0
 40
1.0
 40
1.0
 10
-8.1932079675
 20
23.0615266186
 30
0.0
 10
-8.1932062254
 20
23.0499645079
 30
0.0
 10
-8.2003122794
 20
23.0249443586
 30
0.0
 10
-8.217294732
 20
23.0059672372
 30
0.0
 10
-8.2273946544
 20
22.9973786466
 30
0.0
  0
SPLINE
  5
4A4
100
AcDbEntity
  8
ASSI
100
AcDbSpline
 62
250
  6
CONTINUOUS
 70
0
 71
3
 72
9
 73
5
 74
0
 42
0.0000001
 43
0.0000001
 44
0.0000000001
 40
0.0
 40
0.0
 40
0.0
 40
0.0
 40
0.4658379785
 40
1.0
 40
1.0
 40
1.0
 40
1.0
 10
-8.1932079674
 20
23.3830708729
 30
0.0
 10
-8.1932062249
 20
23.3715087619
 30
0.0
 10
-8.2003122787
 20
23.3464886116
 30
0.0
 10
-8.2172947317
 20
23.3275114894
 30
0.0
 10
-8.2273946544
 20
23.3189228986
 30
0.0
  0
SPLINE
  5
4A5
100
AcDbEntity
  8
ASSI
100
AcDbSpline
 62
250
  6
CONTINUOUS
 70
0
 71
3
 72
11
 73
7
 74
0
 42
0.0000001
 43
0.0000001
 44
0.0000000001
 40
0.0
 40
0.0
 40
0.0
 40
0.0
 40
0.2427908277
 40
0.5106100257
 40
0.7727395358
 40
1.0
 40
1.0
 40
1.0
 40
1.0
 10
-12.6990857382
 20
22.7802783842
 30
0.0
 10
-12.6990858711
 20
22.809259187
 30
0.0
 10
-12.6905264995
 20
22.8702191074
 30
0.0
 10
-12.6609721729
 20
22.9580473074
 30
0.0
 10
-12.6175992757
 20
23.0378032168
 30
0.0
 10
-12.5795620666
 20
23.0831557721
 30
0.0
 10
-12.558896642
 20
23.1007289115
 30
0.0
  0
SPLINE
  5
4A6
100
AcDbEntity
  8
ASSI
100
AcDbSpline
 62
250
  6
CONTINUOUS
 70
0
 71
3
 72
11
 73
7
 74
0
 42
0.0000001
 43
0.0000001
 44
0.0000000001
 40
0.0
 40
0.0
 40
0.0
 40
0.0
 40
0.242569762
 40
0.5101768075
 40
0.7723236826
 40
1.0
 40
1.0
 40
1.0
 40
1.0
 10
-10.307451937
 20
21.8197443316
 30
0.0
 10
-10.3074521411
 20
21.8487156718
 30
0.0
 10
-10.2988065959
 20
21.9096603359
 30
0.0
 10
-10.2689408914
 20
21.9973968539
 30
0.0
 10
-10.2251097595
 20
22.0770037223
 30
0.0
 10
-10.1867011733
 20
22.1221665293
 30
0.0
 10
-10.1658579596
 20
22.1396306269
 30
0.0
  0
SPLINE
  5
4A7
100
AcDbEntity
  8
ASSI
100
AcDbSpline
 62
250
  6
CONTINUOUS
 70
0
 71
3
 72
10
 73
6
 74
0
 42
0.0000001
 43
0.0000001
 44
0.0000000001
 40
0.0
 40
0.0
 40
0.0
 40
0.0
 40
0.1946884778
 40
0.5428983517
 40
1.0
 40
1.0
 40
1.0
 40
1.0
 10
-8.2349031709
 20
22.9125848498
 30
0.0
 10
-8.2335972103
 20
22.9147941025
 30
0.0
 10
-8.231345531
 20
22.9218334315
 30
0.0
 10
-8.2335791496
 20
22.9352632811
 30
0.0
 10
-8.2383044816
 20
22.9448350793
 30
0.0
 10
-8.2413766065
 20
22.9500186014
 30
0.0
  0
SPLINE
  5
4A8
100
AcDbEntity
  8
ASSI
100
AcDbSpline
 62
250
  6
CONTINUOUS
 70
0
 71
3
 72
11
 73
7
 74
0
 42
0.0000001
 43
0.0000001
 44
0.0000000001
 40
0.0
 40
0.0
 40
0.0
 40
0.0
 40
0.1964431006
 40
0.4203424281
 40
0.6871248041
 40
1.0
 40
1.0
 40
1.0
 40
1.0
 10
-10.2568982701
 20
21.4049869001
 30
0.0
 10
-10.2649282048
 20
21.4081975602
 30
0.0
 10
-10.2805316127
 20
21.4194243921
 30
0.0
 10
-10.2963561515
 20
21.4458489081
 30
0.0
 10
-10.3056878189
 20
21.4802754785
 30
0.0
 10
-10.3074519936
 20
21.5058739
 30
0.0
 10
-10.307451937
 20
21.5196476077
 30
0.0
  0
SPLINE
  5
4A9
100
AcDbEntity
  8
ASSI
100
AcDbSpline
 62
250
  6
CONTINUOUS
 70
0
 71
3
 72
9
 73
5
 74
0
 42
0.0000001
 43
0.0000001
 44
0.0000000001
 40
0.0
 40
0.0
 40
0.0
 40
0.0
 40
0.5616532883
 40
1.0
 40
1.0
 40
1.0
 40
1.0
 10
-10.8546097165
 20
24.5444291561
 30
0.0
 10
-10.8410627793
 20
24.5551080327
 30
0.0
 10
-10.8146344323
 20
24.5719024945
 30
0.0
 10
-10.7820236802
 20
24.5750109751
 30
0.0
 10
-10.7690719774
 20
24.5713367109
 30
0.0
  0
SPLINE
  5
4AA
100
AcDbEntity
  8
ASSI
100
AcDbSpline
 62
250
  6
CONTINUOUS
 70
0
 71
3
 72
11
 73
7
 74
0
 42
0.0000001
 43
0.0000001
 44
0.0000000001
 40
0.0
 40
0.0
 40
0.0
 40
0.0
 40
0.3014082945
 40
0.5633033945
 40
0.7916362771
 40
1.0
 40
1.0
 40
1.0
 40
1.0
 10
-8.4186759779
 20
23.5661032498
 30
0.0
 10
-8.4110000644
 20
23.5722458417
 30
0.0
 10
-8.3958168154
 20
23.5827670223
 30
0.0
 10
-8.3719738352
 20
23.5932098232
 30
0.0
 10
-8.3491331629
 20
23.5967542456
 30
0.0
 10
-8.3347790817
 20
23.594004176
 30
0.0
 10
-8.3284720323
 20
23.5914723113
 30
0.0
  0
SPLINE
  5
4AB
100
AcDbEntity
  8
ASSI
100
AcDbSpline
 62
250
  6
CONTINUOUS
 70
0
 71
3
 72
10
 73
6
 74
0
 42
0.0000001
 43
0.0000001
 44
0.0000000001
 40
0.0
 40
0.0
 40
0.0
 40
0.0
 40
0.2377734348
 40
0.4824413398
 40
1.0
 40
1.0
 40
1.0
 40
1.0
 10
-10.1810446093
 20
21.3897836562
 30
0.0
 10
-10.1632491715
 20
21.3894951467
 30
0.0
 10
-10.1267141146
 20
21.3957210905
 30
0.0
 10
-10.0606796364
 20
21.4333471034
 30
0.0
 10
-10.0277795999
 20
21.4853406757
 30
0.0
 10
-10.0162363812
 20
21.522321186
 30
0.0
  0
SPLINE
  5
4AC
100
AcDbEntity
  8
ASSI
100
AcDbSpline
 62
250
  6
CONTINUOUS
 70
0
 71
3
 72
10
 73
6
 74
0
 42
0.0000001
 43
0.0000001
 44
0.0000000001
 40
0.0
 40
0.0
 40
0.0
 40
0.0
 40
0.5341315695
 40
0.7497120006
 40
1.0
 40
1.0
 40
1.0
 40
1.0
 10
-8.2548705212
 20
23.3365098288
 30
0.0
 10
-8.2507325745
 20
23.3399229067
 30
0.0
 10
-8.242985804
 20
23.3444868274
 30
0.0
 10
-8.233201829
 20
23.3400456046
 30
0.0
 10
-8.2307376456
 20
23.3357988321
 30
0.0
 10
-8.229789968
 20
23.3334708579
 30
0.0
  0
SPLINE
  5
4AD
100
AcDbEntity
  8
ASSI
100
AcDbSpline
 62
250
  6
CONTINUOUS
 70
0
 71
3
 72
9
 73
5
 74
0
 42
0.0000001
 43
0.0000001
 44
0.0000000001
 40
0.0
 40
0.0
 40
0.0
 40
0.0
 40
0.221080394
 40
1.0
 40
1.0
 40
1.0
 40
1.0
 10
-8.229789968
 20
23.3334708579
 30
0.0
 10
-8.2293788156
 20
23.3324608604
 30
0.0
 10
-8.2278365582
 20
23.327762782
 30
0.0
 10
-8.2273946362
 20
23.3227649144
 30
0.0
 10
-8.2273946544
 20
23.3189228986
 30
0.0
  0
SPLINE
  5
4AE
100
AcDbEntity
  8
ASSI
100
AcDbSpline
 62
250
  6
CONTINUOUS
 70
0
 71
3
 72
9
 73
5
 74
0
 42
0.0000001
 43
0.0000001
 44
0.0000000001
 40
0.0
 40
0.0
 40
0.0
 40
0.0
 40
0.230405017
 40
1.0
 40
1.0
 40
1.0
 40
1.0
 10
-8.2273946544
 20
22.9973786466
 30
0.0
 10
-8.227394624
 20
22.9935625285
 30
0.0
 10
-8.2289568869
 20
22.9770277897
 30
0.0
 10
-8.2349024555
 20
22.9609985604
 30
0.0
 10
-8.2413766065
 20
22.9500186014
 30
0.0
  0
SPLINE
  5
4AF
100
AcDbEntity
  8
ASSI
100
AcDbSpline
 62
7
  6
CONTINUOUS
 70
0
 71
3
 72
9
 73
5
 74
0
 42
0.0000001
 43
0.0000001
 44
0.0000000001
 40
0.0
 40
0.0
 40
0.0
 40
0.0
 40
0.2449299241
 40
1.0
 40
1.0
 40
1.0
 40
1.0
 10
3.158451165
 20
18.341838862
 30
0.0
 10
3.1614630037
 20
18.3441453916
 30
0.0
 10
3.1743473663
 20
18.352791107
 30
0.0
 10
3.1894042604
 20
18.3580127527
 30
0.0
 10
3.2009218271
 20
18.3600413473
 30
0.0
  0
SPLINE
  5
4B0
100
AcDbEntity
  8
ASSI
100
AcDbSpline
 62
7
  6
CONTINUOUS
 70
0
 71
3
 72
9
 73
5
 74
0
 42
0.0000001
 43
0.0000001
 44
0.0000000001
 40
0.0
 40
0.0
 40
0.0
 40
0.0
 40
0.2319060719
 40
1.0
 40
1.0
 40
1.0
 40
1.0
 10
3.2009218271
 20
18.3600413473
 30
0.0
 10
3.2072604168
 20
18.3611577662
 30
0.0
 10
3.2350200565
 20
18.3635868674
 30
0.0
 10
3.2630442484
 20
18.3570364677
 30
0.0
 10
3.282825623
 20
18.3490918216
 30
0.0
  0
SPLINE
  5
4B1
100
AcDbEntity
  8
ASSI
100
AcDbSpline
 62
250
  6
CONTINUOUS
 70
0
 71
3
 72
8
 73
4
 74
0
 42
0.0000001
 43
0.0000001
 44
0.0000000001
 40
0.0
 40
0.0
 40
0.0
 40
0.0
 40
1.0
 40
1.0
 40
1.0
 40
1.0
 10
6.3395297819
 20
-21.899337201
 30
0.0
 10
6.3468373708
 20
-21.8745790903
 30
0.0
 10
6.3497925667
 20
-21.8481694
 30
0.0
 10
6.3483306943
 20
-21.8223967822
 30
0.0
  0
SPLINE
  5
4B2
100
AcDbEntity
  8
ASSI
100
AcDbSpline
 62
250
  6
CONTINUOUS
 70
0
 71
3
 72
9
 73
5
 74
0
 42
0.0000001
 43
0.0000001
 44
0.0000000001
 40
0.0
 40
0.0
 40
0.0
 40
0.0
 40
0.5104419941
 40
1.0
 40
1.0
 40
1.0
 40
1.0
 10
6.3308398346
 20
-21.7473825938
 30
0.0
 10
6.322517271
 20
-21.7279660245
 30
0.0
 10
6.3004376847
 20
-21.6920619908
 30
0.0
 10
6.2677348071
 20
-21.6651960682
 30
0.0
 10
6.2500322985
 20
-21.6553411399
 30
0.0
  0
SPLINE
  5
4B3
100
AcDbEntity
  8
ASSI
100
AcDbSpline
 62
250
  6
CONTINUOUS
 70
0
 71
3
 72
9
 73
5
 74
0
 42
0.0000001
 43
0.0000001
 44
0.0000000001
 40
0.0
 40
0.0
 40
0.0
 40
0.0
 40
0.5341614015
 40
1.0
 40
1.0
 40
1.0
 40
1.0
 10
6.353511734
 20
-21.9229178037
 30
0.0
 10
6.3636111619
 20
-21.9143296187
 30
0.0
 10
6.3805928338
 20
-21.8953535433
 30
0.0
 10
6.3876995233
 20
-21.8703350125
 30
0.0
 10
6.3876984214
 20
-21.8587734306
 30
0.0
  0
SPLINE
  5
4B4
100
AcDbEntity
  8
ASSI
100
AcDbSpline
 62
250
  6
CONTINUOUS
 70
0
 71
3
 72
9
 73
5
 74
0
 42
0.0000001
 43
0.0000001
 44
0.0000000001
 40
0.0
 40
0.0
 40
0.0
 40
0.0
 40
0.5341620215
 40
1.0
 40
1.0
 40
1.0
 40
1.0
 10
6.353511734
 20
-22.2444620557
 30
0.0
 10
6.3636116566
 20
-22.2358734649
 30
0.0
 10
6.3805941096
 20
-22.2168963427
 30
0.0
 10
6.3877001635
 20
-22.1918761925
 30
0.0
 10
6.3876984209
 20
-22.1803140814
 30
0.0
  0
SPLINE
  5
4B5
100
AcDbEntity
  8
ASSI
100
AcDbSpline
 62
250
  6
CONTINUOUS
 70
0
 71
3
 72
9
 73
5
 74
0
 42
0.0000001
 43
0.0000001
 44
0.0000000001
 40
0.0
 40
0.0
 40
0.0
 40
0.0
 40
0.5266129468
 40
1.0
 40
1.0
 40
1.0
 40
1.0
 10
6.3260358672
 20
-22.3087778539
 30
0.0
 10
6.3262365879
 20
-22.3254548357
 30
0.0
 10
6.3217168336
 20
-22.3577027466
 30
0.0
 10
6.3032797805
 20
-22.3851902314
 30
0.0
 10
6.2920047944
 20
-22.395072004
 30
0.0
  0
SPLINE
  5
4B6
100
AcDbEntity
  8
ASSI
100
AcDbSpline
 62
250
  6
CONTINUOUS
 70
0
 71
3
 72
11
 73
7
 74
0
 42
0.0000001
 43
0.0000001
 44
0.0000000001
 40
0.0
 40
0.0
 40
0.0
 40
0.0
 40
0.268267991
 40
0.5492465416
 40
0.804279021
 40
1.0
 40
1.0
 40
1.0
 40
1.0
 10
4.3455089647
 20
-23.1647099973
 30
0.0
 10
4.3682286649
 20
-23.1742646456
 30
0.0
 10
4.4133047869
 20
-23.1972633483
 30
0.0
 10
4.4753321266
 20
-23.2377375556
 30
0.0
 10
4.5271325733
 20
-23.2806431834
 30
0.0
 10
4.5552446835
 20
-23.3117209514
 30
0.0
 10
4.5646700072
 20
-23.3270346163
 30
0.0
  0
SPLINE
  5
4B7
100
AcDbEntity
  8
ASSI
100
AcDbSpline
 62
7
  6
CONTINUOUS
 70
0
 71
3
 72
11
 73
7
 74
0
 42
0.0000001
 43
0.0000001
 44
0.0000000001
 40
0.0
 40
0.0
 40
0.0
 40
0.0
 40
0.2843288082
 40
0.5668550694
 40
0.811560554
 40
1.0
 40
1.0
 40
1.0
 40
1.0
 10
4.862573018
 20
-22.3405371532
 30
0.0
 10
4.8912418668
 20
-22.3450578834
 30
0.0
 10
4.9482869577
 20
-22.3547168534
 30
0.0
 10
5.0304131254
 20
-22.365974332
 30
0.0
 10
5.1032592928
 20
-22.3714350309
 30
0.0
 10
5.1477196046
 20
-22.3703250229
 30
0.0
 10
5.1667286739
 20
-22.367384839
 30
0.0
  0
SPLINE
  5
4B8
100
AcDbEntity
  8
ASSI
100
AcDbSpline
 62
250
  6
CONTINUOUS
 70
0
 71
3
 72
11
 73
7
 74
0
 42
0.0000001
 43
0.0000001
 44
0.0000000001
 40
0.0
 40
0.0
 40
0.0
 40
0.0
 40
0.2528709513
 40
0.5208296411
 40
0.7774602032
 40
1.0
 40
1.0
 40
1.0
 40
1.0
 10
4.2734544513
 20
-23.4006488426
 30
0.0
 10
4.2959774048
 20
-23.4096945686
 30
0.0
 10
4.3451865474
 20
-23.4215172959
 30
0.0
 10
4.4203476045
 20
-23.4226467995
 30
0.0
 10
4.4911381033
 20
-23.4082209292
 30
0.0
 10
4.5332077322
 20
-23.3873431555
 30
0.0
 10
4.5499731375
 20
-23.3741075346
 30
0.0
  0
SPLINE
  5
4B9
100
AcDbEntity
  8
ASSI
100
AcDbSpline
 62
250
  6
CONTINUOUS
 70
0
 71
3
 72
11
 73
7
 74
0
 42
0.0000001
 43
0.0000001
 44
0.0000000001
 40
0.0
 40
0.0
 40
0.0
 40
0.0
 40
0.2528709494
 40
0.5208296381
 40
0.7774602015
 40
1.0
 40
1.0
 40
1.0
 40
1.0
 10
4.2734544513
 20
-23.7007455664
 30
0.0
 10
4.2959774047
 20
-23.7097912922
 30
0.0
 10
4.3451865469
 20
-23.7216140195
 30
0.0
 10
4.4203476038
 20
-23.7227435231
 30
0.0
 10
4.4911381028
 20
-23.708317653
 30
0.0
 10
4.5332077321
 20
-23.6874398793
 30
0.0
 10
4.5499731375
 20
-23.6742042584
 30
0.0
  0
SPLINE
  5
4BA
100
AcDbEntity
  8
ASSI
100
AcDbSpline
 62
250
  6
CONTINUOUS
 70
0
 71
3
 72
10
 73
6
 74
0
 42
0.0000001
 43
0.0000001
 44
0.0000000001
 40
0.0
 40
0.0
 40
0.0
 40
0.0
 40
0.226060619
 40
0.4640560023
 40
1.0
 40
1.0
 40
1.0
 40
1.0
 10
-10.9781255979
 20
24.5378331563
 30
0.0
 10
-10.9704193805
 20
24.5437316917
 30
0.0
 10
-10.9524692847
 20
24.5532713306
 30
0.0
 10
-10.9097393238
 20
24.5610909949
 30
0.0
 10
-10.8758493561
 20
24.5532736533
 30
0.0
 10
-10.8546097165
 20
24.5444291561
 30
0.0
  0
SPLINE
  5
4BB
100
AcDbEntity
  8
ASSI
100
AcDbSpline
 62
250
  6
CONTINUOUS
 70
0
 71
3
 72
11
 73
7
 74
0
 42
0.0000001
 43
0.0000001
 44
0.0000000001
 40
0.0
 40
0.0
 40
0.0
 40
0.0
 40
0.2078675847
 40
0.4373492688
 40
0.701213634
 40
1.0
 40
1.0
 40
1.0
 40
1.0
 10
-12.7843644763
 20
22.8741047233
 30
0.0
 10
-12.7843430273
 20
22.8648318976
 30
0.0
 10
-12.7799364623
 20
22.8451660773
 30
0.0
 10
-12.7618254855
 20
22.8189757462
 30
0.0
 10
-12.7340483146
 20
22.7965736199
 30
0.0
 10
-12.7114541782
 20
22.7852458286
 30
0.0
 10
-12.6990857382
 20
22.7802783842
 30
0.0
  0
SPLINE
  5
4BC
100
AcDbEntity
  8
ASSI
100
AcDbSpline
 62
250
  6
CONTINUOUS
 70
0
 71
3
 72
10
 73
6
 74
0
 42
0.0000001
 43
0.0000001
 44
0.0000000001
 40
0.0
 40
0.0
 40
0.0
 40
0.0
 40
0.2239215199
 40
0.4610175477
 40
1.0
 40
1.0
 40
1.0
 40
1.0
 10
-12.68859591
 20
23.0890713294
 30
0.0
 10
-12.6809544055
 20
23.0957535953
 30
0.0
 10
-12.662672233
 20
23.1068246863
 30
0.0
 10
-12.617861358
 20
23.1168748148
 30
0.0
 10
-12.5816868378
 20
23.1095392757
 30
0.0
 10
-12.558896642
 20
23.1007289115
 30
0.0
  0
SPLINE
  5
4BD
100
AcDbEntity
  8
ASSI
100
AcDbSpline
 62
7
  6
CONTINUOUS
 70
0
 71
3
 72
9
 73
5
 74
0
 42
0.0000001
 43
0.0000001
 44
0.0000000001
 40
0.0
 40
0.0
 40
0.0
 40
0.0
 40
0.539932886
 40
1.0
 40
1.0
 40
1.0
 40
1.0
 10
-11.2980807653
 20
24.205112546
 30
0.0
 10
-11.3196080125
 20
24.2137583738
 30
0.0
 10
-11.3629395703
 20
24.2238086228
 30
0.0
 10
-11.4067615477
 20
24.2098781345
 30
0.0
 10
-11.4224552234
 20
24.1978595864
 30
0.0
  0
SPLINE
  5
4BE
100
AcDbEntity
  8
ASSI
100
AcDbSpline
 62
250
  6
CONTINUOUS
 70
0
 71
3
 72
11
 73
7
 74
0
 42
0.0000001
 43
0.0000001
 44
0.0000000001
 40
0.0
 40
0.0
 40
0.0
 40
0.0
 40
0.2078649896
 40
0.4373058241
 40
0.7011619259
 40
1.0
 40
1.0
 40
1.0
 40
1.0
 10
-12.7843646524
 20
22.5741509228
 30
0.0
 10
-12.7843632534
 20
22.5648684455
 30
0.0
 10
-12.7799895677
 20
22.5451732183
 30
0.0
 10
-12.7618858724
 20
22.5189367196
 30
0.0
 10
-12.7340883554
 20
22.4964980582
 30
0.0
 10
-12.7114693161
 20
22.4851551845
 30
0.0
 10
-12.6990857382
 20
22.4801816604
 30
0.0
  0
SPLINE
  5
4BF
100
AcDbEntity
  8
ASSI
100
AcDbSpline
 62
250
  6
CONTINUOUS
 70
0
 71
3
 72
9
 73
5
 74
0
 42
0.0000001
 43
0.0000001
 44
0.0000000001
 40
0.0
 40
0.0
 40
0.0
 40
0.0
 40
0.5915223652
 40
1.0
 40
1.0
 40
1.0
 40
1.0
 10
6.353511734
 20
-21.9229178037
 30
0.0
 10
6.3535112463
 20
-21.9175538153
 30
0.0
 10
6.3529047118
 20
-21.9082354785
 30
0.0
 10
6.3458971768
 20
-21.9005467242
 30
0.0
 10
6.3423011062
 20
-21.8996585942
 30
0.0
  0
LINE
  5
4C0
100
AcDbEntity
  8
ASSI
100
AcDbLine
 62
250
  6
CONTINUOUS
 10
6.3423011062
 20
-21.8996585942
 30
0.0
 11
6.3395297819
 21
-21.899337201
 31
0.0
  0
SPLINE
  5
4C1
100
AcDbEntity
  8
ASSI
100
AcDbSpline
 62
250
  6
CONTINUOUS
 70
0
 71
3
 72
9
 73
5
 74
0
 42
0.0000001
 43
0.0000001
 44
0.0000000001
 40
0.0
 40
0.0
 40
0.0
 40
0.0
 40
0.4882046612
 40
1.0
 40
1.0
 40
1.0
 40
1.0
 10
6.3260358672
 20
-22.3087778539
 30
0.0
 10
6.3347478091
 20
-22.3011467847
 30
0.0
 10
6.3472978413
 20
-22.2800578726
 30
0.0
 10
6.3535118553
 20
-22.256603189
 30
0.0
 10
6.353511734
 20
-22.2444620557
 30
0.0
  0
SPLINE
  5
4C2
100
AcDbEntity
  8
ASSI
100
AcDbSpline
 62
250
  6
CONTINUOUS
 70
0
 71
3
 72
9
 73
5
 74
0
 42
0.0000001
 43
0.0000001
 44
0.0000000001
 40
0.0
 40
0.0
 40
0.0
 40
0.0
 40
0.4709553504
 40
1.0
 40
1.0
 40
1.0
 40
1.0
 10
4.5385819347
 20
-23.7837634193
 30
0.0
 10
4.5513636998
 20
-23.7739749589
 30
0.0
 10
4.5728085688
 20
-23.7451794832
 30
0.0
 10
4.5786296403
 20
-23.7104390753
 30
0.0
 10
4.5788538854
 20
-23.6923554205
 30
0.0
  0
SPLINE
  5
4C3
100
AcDbEntity
  8
ASSI
100
AcDbSpline
 62
250
  6
CONTINUOUS
 70
0
 71
3
 72
11
 73
7
 74
0
 42
0.0000001
 43
0.0000001
 44
0.0000000001
 40
0.0
 40
0.0
 40
0.0
 40
0.0
 40
0.2963658701
 40
0.5604404144
 40
0.7916884113
 40
1.0
 40
1.0
 40
1.0
 40
1.0
 10
1.8818206501
 20
16.624160936
 30
0.0
 10
1.8701196267
 20
16.6288603309
 30
0.0
 10
1.8486298036
 20
16.6395255138
 30
0.0
 10
1.8217837324
 20
16.6603406732
 30
0.0
 10
1.8034419208
 20
16.6845459128
 30
0.0
 10
1.7977132598
 20
16.7028937833
 30
0.0
 10
1.7968542764
 20
16.7117150737
 30
0.0
  0
SPLINE
  5
4C4
100
AcDbEntity
  8
ASSI
100
AcDbSpline
 62
250
  6
CONTINUOUS
 70
0
 71
3
 72
11
 73
7
 74
0
 42
0.0000001
 43
0.0000001
 44
0.0000000001
 40
0.0
 40
0.0
 40
0.0
 40
0.0
 40
0.2987775072
 40
0.5626432683
 40
0.7921319362
 40
1.0
 40
1.0
 40
1.0
 40
1.0
 10
1.8818206501
 20
16.9242576598
 30
0.0
 10
1.8694547993
 20
16.9292240643
 30
0.0
 10
1.8468649228
 20
16.9405492762
 30
0.0
 10
1.8190912353
 20
16.9629451563
 30
0.0
 10
1.8009790225
 20
16.9891275962
 30
0.0
 10
1.7965668468
 20
17.0087883844
 30
0.0
 10
1.7965419731
 20
17.0180595566
 30
0.0
  0
SPLINE
  5
4C5
100
AcDbEntity
  8
ASSI
100
AcDbSpline
 62
250
  6
CONTINUOUS
 70
0
 71
3
 72
10
 73
6
 74
0
 42
0.0000001
 43
0.0000001
 44
0.0000000001
 40
0.0
 40
0.0
 40
0.0
 40
0.0
 40
0.5389842726
 40
0.7760778653
 40
1.0
 40
1.0
 40
1.0
 40
1.0
 10
2.0220097464
 20
17.2447081871
 30
0.0
 10
1.9992165243
 20
17.2535197212
 30
0.0
 10
1.9630365791
 20
17.2608555424
 30
0.0
 10
1.9182207076
 20
17.2507992355
 30
0.0
 10
1.8999380678
 20
17.2397234098
 30
0.0
 10
1.8922968963
 20
17.2330387256
 30
0.0
  0
SPLINE
  5
4C6
100
AcDbEntity
  8
ASSI
100
AcDbSpline
 62
250
  6
CONTINUOUS
 70
0
 71
3
 72
11
 73
7
 74
0
 42
0.0000001
 43
0.0000001
 44
0.0000000001
 40
0.0
 40
0.0
 40
0.0
 40
0.0
 40
0.1965120924
 40
0.4206276829
 40
0.6874241252
 40
1.0
 40
1.0
 40
1.0
 40
1.0
 10
4.3235159595
 20
-23.815206458
 30
0.0
 10
4.3155460112
 20
-23.8119306757
 30
0.0
 10
4.3000957336
 20
-23.800619596
 30
0.0
 10
4.2844411585
 20
-23.7742338415
 30
0.0
 10
4.2752023893
 20
-23.7399355244
 30
0.0
 10
4.2734543979
 20
-23.7144517585
 30
0.0
 10
4.2734544513
 20
-23.7007455664
 30
0.0
  0
SPLINE
  5
4C7
100
AcDbEntity
  8
ASSI
100
AcDbSpline
 62
250
  6
CONTINUOUS
 70
0
 71
3
 72
10
 73
6
 74
0
 42
0.0000001
 43
0.0000001
 44
0.0000000001
 40
0.0
 40
0.0
 40
0.0
 40
0.0
 40
0.5359380178
 40
0.7739419699
 40
1.0
 40
1.0
 40
1.0
 40
1.0
 10
3.7262966718
 20
18.6884084317
 30
0.0
 10
3.7050682565
 20
18.697248255
 30
0.0
 10
3.6711985331
 20
18.7050640294
 30
0.0
 10
3.628488395
 20
18.6972660995
 30
0.0
 10
3.6105415235
 20
18.6877434634
 30
0.0
 10
3.602834943
 20
18.6818538492
 30
0.0
  0
SPLINE
  5
4C8
100
AcDbEntity
  8
ASSI
100
AcDbSpline
 62
250
  6
CONTINUOUS
 70
0
 71
3
 72
10
 73
6
 74
0
 42
0.0000001
 43
0.0000001
 44
0.0000000001
 40
0.0
 40
0.0
 40
0.0
 40
0.0
 40
0.5175584883
 40
0.7622269801
 40
1.0
 40
1.0
 40
1.0
 40
1.0
 10
4.5646700072
 20
15.6663004616
 30
0.0
 10
4.5531276356
 20
15.629322665
 30
0.0
 10
4.5202314274
 20
15.5773328655
 30
0.0
 10
4.4542044924
 20
15.5397053587
 30
0.0
 10
4.4176728831
 20
15.5334762061
 30
0.0
 10
4.3998787434
 20
15.5337626576
 30
0.0
  0
SPLINE
  5
4C9
100
AcDbEntity
  8
ASSI
100
AcDbSpline
 62
7
  6
CONTINUOUS
 70
0
 71
3
 72
9
 73
5
 74
0
 42
0.0000001
 43
0.0000001
 44
0.0000000001
 40
0.0
 40
0.0
 40
0.0
 40
0.0
 40
0.4935090309
 40
1.0
 40
1.0
 40
1.0
 40
1.0
 10
5.1667286739
 20
15.6572534397
 30
0.0
 10
5.1401537851
 20
15.6194042132
 30
0.0
 10
5.0690289065
 20
15.5540033175
 30
0.0
 10
4.9744454697
 20
15.5250904464
 30
0.0
 10
4.9269876218
 20
15.5258283968
 30
0.0
  0
SPLINE
  5
4CA
100
AcDbEntity
  8
ASSI
100
AcDbSpline
 62
250
  6
CONTINUOUS
 70
0
 71
3
 72
11
 73
7
 74
0
 42
0.0000001
 43
0.0000001
 44
0.0000000001
 40
0.0
 40
0.0
 40
0.0
 40
0.0
 40
0.222539852
 40
0.4791703964
 40
0.7471290472
 40
1.0
 40
1.0
 40
1.0
 40
1.0
 10
4.5499731375
 20
15.6901681914
 30
0.0
 10
4.5332077372
 20
15.6769325509
 30
0.0
 10
4.4911381113
 20
15.6560547431
 30
0.0
 10
4.4203476038
 20
15.6416288553
 30
0.0
 10
4.3451865402
 20
15.6427583764
 30
0.0
 10
4.2959774001
 20
15.6545811365
 30
0.0
 10
4.2734544513
 20
15.6636268832
 30
0.0
  0
SPLINE
  5
4CB
100
AcDbEntity
  8
ASSI
100
AcDbSpline
 62
250
  6
CONTINUOUS
 70
0
 71
3
 72
11
 73
7
 74
0
 42
0.0000001
 43
0.0000001
 44
0.0000000001
 40
0.0
 40
0.0
 40
0.0
 40
0.0
 40
0.2225397985
 40
0.4791703619
 40
0.7471290506
 40
1.0
 40
1.0
 40
1.0
 40
1.0
 10
4.5499731375
 20
15.9902649152
 30
0.0
 10
4.5332077321
 20
15.9770292942
 30
0.0
 10
4.4911381028
 20
15.9561515206
 30
0.0
 10
4.4203476038
 20
15.9417256504
 30
0.0
 10
4.3451865469
 20
15.9428551541
 30
0.0
 10
4.2959774047
 20
15.9546778813
 30
0.0
 10
4.2734544513
 20
15.9637236072
 30
0.0
  0
SPLINE
  5
4CC
100
AcDbEntity
  8
ASSI
100
AcDbSpline
 62
250
  6
CONTINUOUS
 70
0
 71
3
 72
11
 73
7
 74
0
 42
0.0000001
 43
0.0000001
 44
0.0000000001
 40
0.0
 40
0.0
 40
0.0
 40
0.0
 40
0.2318528427
 40
0.4897084652
 40
0.7532341258
 40
1.0
 40
1.0
 40
1.0
 40
1.0
 10
4.5788538854
 20
16.0540164815
 30
0.0
 10
4.5785653225
 20
16.0768312464
 30
0.0
 10
4.568054814
 20
16.1249594523
 30
0.0
 10
4.5322926775
 20
16.1907369879
 30
0.0
 10
4.4805711645
 20
16.2468657446
 30
0.0
 10
4.4374616899
 20
16.2742628694
 30
0.0
 10
4.4150484287
 20
16.2836099025
 30
0.0
  0
SPLINE
  5
4CD
100
AcDbEntity
  8
ASSI
100
AcDbSpline
 62
250
  6
CONTINUOUS
 70
0
 71
3
 72
9
 73
5
 74
0
 42
0.0000001
 43
0.0000001
 44
0.0000000001
 40
0.0
 40
0.0
 40
0.0
 40
0.0
 40
0.3243983722
 40
1.0
 40
1.0
 40
1.0
 40
1.0
 10
6.3395297819
 20
17.093997877
 30
0.0
 10
6.3416680325
 20
17.0903900739
 30
0.0
 10
6.3475827414
 20
17.0792943592
 30
0.0
 10
6.3504483804
 20
17.0640890707
 30
0.0
 10
6.3460060556
 20
17.0565689282
 30
0.0
  0
SPLINE
  5
4CE
100
AcDbEntity
  8
ASSI
100
AcDbSpline
 62
250
  6
CONTINUOUS
 70
0
 71
3
 72
9
 73
5
 74
0
 42
0.0000001
 43
0.0000001
 44
0.0000000001
 40
0.0
 40
0.0
 40
0.0
 40
0.0
 40
0.5341620215
 40
1.0
 40
1.0
 40
1.0
 40
1.0
 10
6.353511734
 20
17.1413579222
 30
0.0
 10
6.3636116566
 20
17.1499465131
 30
0.0
 10
6.3805941096
 20
17.1689236352
 30
0.0
 10
6.3877001635
 20
17.1939437855
 30
0.0
 10
6.3876984209
 20
17.2055058965
 30
0.0
  0
SPLINE
  5
4CF
100
AcDbEntity
  8
ASSI
100
AcDbSpline
 62
250
  6
CONTINUOUS
 70
0
 71
3
 72
9
 73
5
 74
0
 42
0.0000001
 43
0.0000001
 44
0.0000000001
 40
0.0
 40
0.0
 40
0.0
 40
0.0
 40
0.534162022
 40
1.0
 40
1.0
 40
1.0
 40
1.0
 10
6.353511734
 20
17.4629021742
 30
0.0
 10
6.3636116563
 20
17.4714907648
 30
0.0
 10
6.3805941089
 20
17.490467886
 30
0.0
 10
6.3877001629
 20
17.5154880352
 30
0.0
 10
6.3876984209
 20
17.5270501458
 30
0.0
  0
SPLINE
  5
4D0
100
AcDbEntity
  8
ASSI
100
AcDbSpline
 62
250
  6
CONTINUOUS
 70
0
 71
3
 72
10
 73
6
 74
0
 42
0.0000001
 43
0.0000001
 44
0.0000000001
 40
0.0
 40
0.0
 40
0.0
 40
0.0
 40
0.4872883578
 40
0.7511883143
 40
1.0
 40
1.0
 40
1.0
 40
1.0
 10
6.3260358672
 20
17.4804891044
 30
0.0
 10
6.3266008761
 20
17.5283940742
 30
0.0
 10
6.2964685911
 20
17.602745027
 30
0.0
 10
6.22902801
 20
17.6745123121
 30
0.0
 10
6.1850423808
 20
17.7012500148
 30
0.0
 10
6.1622304105
 20
17.7100825254
 30
0.0
  0
SPLINE
  5
4D1
100
AcDbEntity
  8
ASSI
100
AcDbSpline
 62
7
  6
CONTINUOUS
 70
0
 71
3
 72
10
 73
6
 74
0
 42
0.0000001
 43
0.0000001
 44
0.0000000001
 40
0.0
 40
0.0
 40
0.0
 40
0.0
 40
0.2478876795
 40
0.6413979178
 40
1.0
 40
1.0
 40
1.0
 40
1.0
 10
5.7403316602
 20
17.3621019939
 30
0.0
 10
5.7629493605
 20
17.3530182156
 30
0.0
 10
5.8174210524
 20
17.3191399399
 30
0.0
 10
5.8811036276
 20
17.2415503122
 30
0.0
 10
5.9041371169
 20
17.1677682757
 30
0.0
 10
5.9041371169
 20
17.1325085729
 30
0.0
  0
SPLINE
  5
4D2
100
AcDbEntity
  8
ASSI
100
AcDbSpline
 62
7
  6
CONTINUOUS
 70
0
 71
3
 72
9
 73
5
 74
0
 42
0.0000001
 43
0.0000001
 44
0.0000000001
 40
0.0
 40
0.0
 40
0.0
 40
0.0
 40
0.4934424416
 40
1.0
 40
1.0
 40
1.0
 40
1.0
 10
-9.4141777145
 20
21.5132741641
 30
0.0
 10
-9.4407590161
 20
21.475415804
 30
0.0
 10
-9.511907675
 20
21.4100058471
 30
0.0
 10
-9.6065525195
 20
21.3810543881
 30
0.0
 10
-9.654033179
 20
21.3818713739
 30
0.0
  0
SPLINE
  5
4D3
100
AcDbEntity
  8
ASSI
100
AcDbSpline
 62
7
  6
CONTINUOUS
 70
0
 71
3
 72
9
 73
5
 74
0
 42
0.0000001
 43
0.0000001
 44
0.0000000001
 40
0.0
 40
0.0
 40
0.0
 40
0.0
 40
0.7439380091
 40
1.0
 40
1.0
 40
1.0
 40
1.0
 10
5.8693182665
 20
-22.7653148263
 30
0.0
 10
5.8762161245
 20
-22.7592692771
 30
0.0
 10
5.8842896244
 20
-22.7496277342
 30
0.0
 10
5.8902675332
 20
-22.7388391427
 30
0.0
 10
5.8916700964
 20
-22.7360107538
 30
0.0
  0
SPLINE
  5
4D4
100
AcDbEntity
  8
ASSI
100
AcDbSpline
 62
7
  6
CONTINUOUS
 70
0
 71
3
 72
9
 73
5
 74
0
 42
0.0000001
 43
0.0000001
 44
0.0000000001
 40
0.0
 40
0.0
 40
0.0
 40
0.0
 40
0.2373553626
 40
1.0
 40
1.0
 40
1.0
 40
1.0
 10
5.8916700964
 20
-22.7360107538
 30
0.0
 10
5.8937549815
 20
-22.7318064047
 30
0.0
 10
5.9013236206
 20
-22.7134926012
 30
0.0
 10
5.9041371169
 20
-22.693409399
 30
0.0
 10
5.9041371169
 20
-22.6783306839
 30
0.0
  0
SPLINE
  5
4D5
100
AcDbEntity
  8
ASSI
100
AcDbSpline
 62
250
  6
CONTINUOUS
 70
0
 71
3
 72
11
 73
7
 74
0
 42
0.0000001
 43
0.0000001
 44
0.0000000001
 40
0.0
 40
0.0
 40
0.0
 40
0.0
 40
0.2528709494
 40
0.5208296381
 40
0.7774602015
 40
1.0
 40
1.0
 40
1.0
 40
1.0
 10
-10.307451937
 20
21.5196476077
 30
0.0
 10
-10.2849289837
 20
21.5106018819
 30
0.0
 10
-10.2357198415
 20
21.4987791547
 30
0.0
 10
-10.1605587845
 20
21.497649651
 30
0.0
 10
-10.0897682856
 20
21.5120755211
 30
0.0
 10
-10.0476986563
 20
21.5329532948
 30
0.0
 10
-10.0309332509
 20
21.5461889158
 30
0.0
  0
SPLINE
  5
4D6
100
AcDbEntity
  8
ASSI
100
AcDbSpline
 62
250
  6
CONTINUOUS
 70
0
 71
3
 72
11
 73
7
 74
0
 42
0.0000001
 43
0.0000001
 44
0.0000000001
 40
0.0
 40
0.0
 40
0.0
 40
0.0
 40
0.2528709509
 40
0.5208296405
 40
0.7774602029
 40
1.0
 40
1.0
 40
1.0
 40
1.0
 10
-10.307451937
 20
21.8197443316
 30
0.0
 10
-10.2849289835
 20
21.8106986056
 30
0.0
 10
-10.2357198411
 20
21.7988758783
 30
0.0
 10
-10.160558784
 20
21.7977463747
 30
0.0
 10
-10.0897682852
 20
21.812172245
 30
0.0
 10
-10.0476986562
 20
21.8330500187
 30
0.0
 10
-10.0309332509
 20
21.8462856396
 30
0.0
  0
SPLINE
  5
4D7
100
AcDbEntity
  8
ASSI
100
AcDbSpline
 62
250
  6
CONTINUOUS
 70
0
 71
3
 72
11
 73
7
 74
0
 42
0.0000001
 43
0.0000001
 44
0.0000000001
 40
0.0
 40
0.0
 40
0.0
 40
0.0
 40
0.2467658699
 40
0.5102915274
 40
0.768147153
 40
1.0
 40
1.0
 40
1.0
 40
1.0
 10
-10.1658579596
 20
22.1396306269
 30
0.0
 10
-10.1434446988
 20
22.130283594
 30
0.0
 10
-10.1003352247
 20
22.1028864698
 30
0.0
 10
-10.0486137117
 20
22.0467577136
 30
0.0
 10
-10.0128515747
 20
21.9809801779
 30
0.0
 10
-10.0023410658
 20
21.9328519713
 30
0.0
 10
-10.0020525029
 20
21.9100372059
 30
0.0
  0
SPLINE
  5
4D8
100
AcDbEntity
  8
ASSI
100
AcDbSpline
 62
7
  6
CONTINUOUS
 70
0
 71
3
 72
10
 73
6
 74
0
 42
0.0000001
 43
0.0000001
 44
0.0000000001
 40
0.0
 40
0.0
 40
0.0
 40
0.0
 40
0.2332962063
 40
0.6225412807
 40
1.0
 40
1.0
 40
1.0
 40
1.0
 10
-8.6767692714
 20
22.9885292973
 30
0.0
 10
-8.6767692714
 20
23.0114734163
 30
0.0
 10
-8.689500338
 20
23.0727442178
 30
0.0
 10
-8.7434075202
 20
23.157754375
 30
0.0
 10
-8.8061269803
 20
23.2042877262
 30
0.0
 10
-8.8405747281
 20
23.2181227183
 30
0.0
  0
SPLINE
  5
4D9
100
AcDbEntity
  8
ASSI
100
AcDbSpline
 62
250
  6
CONTINUOUS
 70
0
 71
3
 72
11
 73
7
 74
0
 42
0.0000001
 43
0.0000001
 44
0.0000000001
 40
0.0
 40
0.0
 40
0.0
 40
0.0
 40
0.3252954024
 40
0.5877332336
 40
0.7992094574
 40
1.0
 40
1.0
 40
1.0
 40
1.0
 10
6.353511734
 20
17.4629021742
 30
0.0
 10
6.3535117272
 20
17.4662875244
 30
0.0
 10
6.3530080406
 20
17.4724318708
 30
0.0
 10
6.3502591742
 20
17.4804213532
 30
0.0
 10
6.3452100692
 20
17.4857881116
 30
0.0
 10
6.340685559
 20
17.4866051842
 30
0.0
 10
6.3386021422
 20
17.4864441919
 30
0.0
  0
SPLINE
  5
4DA
100
AcDbEntity
  8
ASSI
100
AcDbSpline
 62
250
  6
CONTINUOUS
 70
0
 71
3
 72
9
 73
5
 74
0
 42
0.0000001
 43
0.0000001
 44
0.0000000001
 40
0.0
 40
0.0
 40
0.0
 40
0.0
 40
0.2156862611
 40
1.0
 40
1.0
 40
1.0
 40
1.0
 10
6.3386021422
 20
17.4864441919
 30
0.0
 10
6.3375960059
 20
17.4863664446
 30
0.0
 10
6.3329691547
 20
17.4854674502
 30
0.0
 10
6.3288667401
 20
17.4828240585
 30
0.0
 10
6.3260358672
 20
17.4804891044
 30
0.0
  0
SPLINE
  5
4DB
100
AcDbEntity
  8
ASSI
100
AcDbSpline
 62
250
  6
CONTINUOUS
 70
0
 71
3
 72
10
 73
6
 74
0
 42
0.0000001
 43
0.0000001
 44
0.0000000001
 40
0.0
 40
0.0
 40
0.0
 40
0.0
 40
0.2488116887
 40
0.5127116475
 40
1.0
 40
1.0
 40
1.0
 40
1.0
 10
-8.4186759779
 20
23.5661032498
 30
0.0
 10
-8.3958640073
 20
23.557270739
 30
0.0
 10
-8.3518783778
 20
23.5305330359
 30
0.0
 10
-8.284437797
 20
23.4587657505
 30
0.0
 10
-8.2543055124
 20
23.384414798
 30
0.0
 10
-8.2548705212
 20
23.3365098288
 30
0.0
  0
SPLINE
  5
4DC
100
AcDbEntity
  8
ASSI
100
AcDbSpline
 62
250
  6
CONTINUOUS
 70
0
 71
3
 72
9
 73
5
 74
0
 42
0.0000001
 43
0.0000001
 44
0.0000000001
 40
0.0
 40
0.0
 40
0.0
 40
0.0
 40
0.5385227302
 40
1.0
 40
1.0
 40
1.0
 40
1.0
 10
-2.4997740322
 20
23.9186121365
 30
0.0
 10
-2.4793971002
 20
23.9348601202
 30
0.0
 10
-2.4449926238
 20
23.9708358246
 30
0.0
 10
-2.43092338
 20
24.0199208292
 30
0.0
 10
-2.4313668222
 20
24.0422495945
 30
0.0
  0
SPLINE
  5
4DD
100
AcDbEntity
  8
ASSI
100
AcDbSpline
 62
250
  6
CONTINUOUS
 70
0
 71
3
 72
8
 73
4
 74
0
 42
0.0000001
 43
0.0000001
 44
0.0000000001
 40
0.0
 40
0.0
 40
0.0
 40
0.0
 40
1.0
 40
1.0
 40
1.0
 40
1.0
 10
6.2521840348
 20
-21.6502878158
 30
0.0
 10
6.2455423881
 20
-21.6476560757
 30
0.0
 10
6.2382657285
 20
-21.6463453693
 30
0.0
 10
6.2311217067
 20
-21.6463234651
 30
0.0
  0
SPLINE
  5
4DE
100
AcDbEntity
  8
ASSI
100
AcDbSpline
 62
250
  6
CONTINUOUS
 70
0
 71
3
 72
8
 73
4
 74
0
 42
0.0000001
 43
0.0000001
 44
0.0000000001
 40
0.0
 40
0.0
 40
0.0
 40
0.0
 40
1.0
 40
1.0
 40
1.0
 40
1.0
 10
6.3395297819
 20
17.093997877
 30
0.0
 10
6.341472778
 20
17.0972936717
 30
0.0
 10
6.3432179636
 20
17.1007119264
 30
0.0
 10
6.3447793309
 20
17.1042047232
 30
0.0
  0
SPLINE
  5
4DF
100
AcDbEntity
  8
ASSI
100
AcDbSpline
 62
250
  6
CONTINUOUS
 70
0
 71
3
 72
9
 73
5
 74
0
 42
0.0000001
 43
0.0000001
 44
0.0000000001
 40
0.0
 40
0.0
 40
0.0
 40
0.0
 40
0.2598314899
 40
1.0
 40
1.0
 40
1.0
 40
1.0
 10
6.3447793309
 20
17.1042047232
 30
0.0
 10
6.3459574301
 20
17.1068401448
 30
0.0
 10
6.3500769346
 20
17.117154975
 30
0.0
 10
6.3526860776
 20
17.1281361358
 30
0.0
 10
6.353313932
 20
17.136335487
 30
0.0
  0
LINE
  5
4E0
100
AcDbEntity
  8
ASSI
100
AcDbLine
 62
250
  6
CONTINUOUS
 10
6.353313932
 20
17.136335487
 30
0.0
 11
6.353511734
 21
17.1413579222
 31
0.0
  0
SPLINE
  5
4E1
100
AcDbEntity
  8
ASSI
100
AcDbSpline
 62
250
  6
CONTINUOUS
 70
0
 71
3
 72
11
 73
7
 74
0
 42
0.0000001
 43
0.0000001
 44
0.0000000001
 40
0.0
 40
0.0
 40
0.0
 40
0.0
 40
0.2319659519
 40
0.4897430721
 40
0.75316549
 40
1.0
 40
1.0
 40
1.0
 40
1.0
 10
0.687937642
 20
18.5600787556
 30
0.0
 10
0.6876495203
 20
18.5886259357
 30
0.0
 10
0.6746382037
 20
18.6488578736
 30
0.0
 10
0.6299745803
 20
18.7311580166
 30
0.0
 10
0.5652418325
 20
18.8013043538
 30
0.0
 10
0.5112499936
 20
18.8354525479
 30
0.0
 10
0.4831808212
 20
18.8470705319
 30
0.0
  0
SPLINE
  5
4E2
100
AcDbEntity
  8
ASSI
100
AcDbSpline
 62
7
  6
CONTINUOUS
 70
0
 71
3
 72
10
 73
6
 74
0
 42
0.0000001
 43
0.0000001
 44
0.0000000001
 40
0.0
 40
0.0
 40
0.0
 40
0.0
 40
0.2332962063
 40
0.6225412807
 40
1.0
 40
1.0
 40
1.0
 40
1.0
 10
0.8663520445
 20
18.7052692459
 30
0.0
 10
0.8663520445
 20
18.7339493946
 30
0.0
 10
0.8504382113
 20
18.8105378965
 30
0.0
 10
0.7830542336
 20
18.9168005929
 30
0.0
 10
0.7046549084
 20
18.974967282
 30
0.0
 10
0.6615952237
 20
18.9922610221
 30
0.0
  0
SPLINE
  5
4E3
100
AcDbEntity
  8
ASSI
100
AcDbSpline
 62
250
  6
CONTINUOUS
 70
0
 71
3
 72
11
 73
7
 74
0
 42
0.0000001
 43
0.0000001
 44
0.0000000001
 40
0.0
 40
0.0
 40
0.0
 40
0.0
 40
0.2333027597
 40
0.4902756844
 40
0.7526380214
 40
1.0
 40
1.0
 40
1.0
 40
1.0
 10
4.0142877682
 20
21.3016750075
 30
0.0
 10
4.0146278935
 20
21.330512816
 30
0.0
 10
4.0027214705
 20
21.3913967231
 30
0.0
 10
3.9583715001
 20
21.4743904772
 30
0.0
 10
3.8929381937
 20
21.5443747203
 30
0.0
 10
3.8380459102
 20
21.5776261455
 30
0.0
 10
3.8095309473
 20
21.5886667838
 30
0.0
  0
SPLINE
  5
4E4
100
AcDbEntity
  8
ASSI
100
AcDbSpline
 62
250
  6
CONTINUOUS
 70
0
 71
3
 72
11
 73
7
 74
0
 42
0.0000001
 43
0.0000001
 44
0.0000000001
 40
0.0
 40
0.0
 40
0.0
 40
0.0
 40
0.2823079504
 40
0.5401302199
 40
0.7764633491
 40
1.0
 40
1.0
 40
1.0
 40
1.0
 10
-2.0885316712
 20
19.8799282467
 30
0.0
 10
-2.1034473792
 20
19.8857390881
 30
0.0
 10
-2.1331166938
 20
19.8942932056
 30
0.0
 10
-2.1775206908
 20
19.8967406745
 30
0.0
 10
-2.2178250895
 20
19.8878204795
 30
0.0
 10
-2.2406534091
 20
19.8740585992
 30
0.0
 10
-2.2502207617
 20
19.8657444625
 30
0.0
  0
SPLINE
  5
4E5
100
AcDbEntity
  8
ASSI
100
AcDbSpline
 62
250
  6
CONTINUOUS
 70
0
 71
3
 72
11
 73
7
 74
0
 42
0.0000001
 43
0.0000001
 44
0.0000000001
 40
0.0
 40
0.0
 40
0.0
 40
0.0
 40
0.2467741831
 40
0.5101940021
 40
0.7679840331
 40
1.0
 40
1.0
 40
1.0
 40
1.0
 10
-3.8173674114
 20
20.5742676557
 30
0.0
 10
-3.7893050623
 20
20.5626525983
 30
0.0
 10
-3.7353191882
 20
20.5285106165
 30
0.0
 10
-3.6705861756
 20
20.4583728774
 30
0.0
 10
-3.6259140081
 20
20.3760689427
 30
0.0
 10
-3.6128986076
 20
20.3158292169
 30
0.0
 10
-3.6126105905
 20
20.2872758794
 30
0.0
  0
SPLINE
  5
4E6
100
AcDbEntity
  8
ASSI
100
AcDbSpline
 62
7
  6
CONTINUOUS
 70
0
 71
3
 72
10
 73
6
 74
0
 42
0.0000001
 43
0.0000001
 44
0.0000000001
 40
0.0
 40
0.0
 40
0.0
 40
0.0
 40
0.2332962063
 40
0.6225412807
 40
1.0
 40
1.0
 40
1.0
 40
1.0
 10
-3.434196188
 20
20.4324663696
 30
0.0
 10
-3.434196188
 20
20.4611465183
 30
0.0
 10
-3.4501100212
 20
20.5377350203
 30
0.0
 10
-3.5174939989
 20
20.6439977167
 30
0.0
 10
-3.5958933241
 20
20.7021644057
 30
0.0
 10
-3.6389530089
 20
20.7194581459
 30
0.0
  0
SPLINE
  5
4E7
100
AcDbEntity
  8
ASSI
100
AcDbSpline
 62
250
  6
CONTINUOUS
 70
0
 71
3
 72
10
 73
6
 74
0
 42
0.0000001
 43
0.0000001
 44
0.0000000001
 40
0.0
 40
0.0
 40
0.0
 40
0.0
 40
0.375290616
 40
0.7642200384
 40
1.0
 40
1.0
 40
1.0
 40
1.0
 10
-2.7019892952
 20
24.2022775173
 30
0.0
 10
-2.6597193121
 20
24.1852847317
 30
0.0
 10
-2.5825524175
 20
24.1279961925
 30
0.0
 10
-2.5162667262
 20
24.0229432977
 30
0.0
 10
-2.500165401
 20
23.947231544
 30
0.0
 10
-2.4997740295
 20
23.9186121387
 30
0.0
  0
SPLINE
  5
4E8
100
AcDbEntity
  8
ASSI
100
AcDbSpline
 62
250
  6
CONTINUOUS
 70
0
 71
3
 72
10
 73
6
 74
0
 42
0.0000001
 43
0.0000001
 44
0.0000000001
 40
0.0
 40
0.0
 40
0.0
 40
0.0
 40
0.5359325942
 40
0.7739442797
 40
1.0
 40
1.0
 40
1.0
 40
1.0
 10
-2.9104500598
 20
24.2875626547
 30
0.0
 10
-2.936972916
 20
24.2986071609
 30
0.0
 10
-2.9792872367
 20
24.308375108
 30
0.0
 10
-3.032652538
 20
24.2986521898
 30
0.0
 10
-3.0550824742
 20
24.2867680614
 30
0.0
 10
-3.064716101
 20
24.2794161035
 30
0.0
  0
SPLINE
  5
4E9
100
AcDbEntity
  8
ASSI
100
AcDbSpline
 62
250
  6
CONTINUOUS
 70
0
 71
3
 72
11
 73
7
 74
0
 42
0.0000001
 43
0.0000001
 44
0.0000000001
 40
0.0
 40
0.0
 40
0.0
 40
0.0
 40
0.2988270927
 40
0.5626849646
 40
0.7921344873
 40
1.0
 40
1.0
 40
1.0
 40
1.0
 10
-2.2421962649
 20
19.5992891446
 30
0.0
 10
-2.2545766242
 20
19.6042613761
 30
0.0
 10
-2.2771903692
 20
19.6156010428
 30
0.0
 10
-2.3049835632
 20
19.6380319343
 30
0.0
 10
-2.3230888146
 20
19.6642586125
 30
0.0
 10
-2.3274695017
 20
19.6839475895
 30
0.0
 10
-2.3274751675
 20
19.693228017
 30
0.0
  0
SPLINE
  5
4EA
100
AcDbEntity
  8
ASSI
100
AcDbSpline
 62
250
  6
CONTINUOUS
 70
0
 71
3
 72
11
 73
7
 74
0
 42
0.0000001
 43
0.0000001
 44
0.0000000001
 40
0.0
 40
0.0
 40
0.0
 40
0.0
 40
0.2427329138
 40
0.5104359372
 40
0.7725496601
 40
1.0
 40
1.0
 40
1.0
 40
1.0
 10
-2.2012449007
 20
19.6237935177
 30
0.0
 10
-2.2012449007
 20
19.6469793541
 30
0.0
 10
-2.1943616742
 20
19.6957452074
 30
0.0
 10
-2.1705907125
 20
19.7659718379
 30
0.0
 10
-2.1357102074
 20
19.8297118146
 30
0.0
 10
-2.1051339985
 20
19.8659145467
 30
0.0
 10
-2.0885316712
 20
19.8799282467
 30
0.0
  0
SPLINE
  5
4EB
100
AcDbEntity
  8
ASSI
100
AcDbSpline
 62
250
  6
CONTINUOUS
 70
0
 71
3
 72
11
 73
7
 74
0
 42
0.0000001
 43
0.0000001
 44
0.0000000001
 40
0.0
 40
0.0
 40
0.0
 40
0.0
 40
0.2427329153
 40
0.5104359397
 40
0.7725496617
 40
1.0
 40
1.0
 40
1.0
 40
1.0
 10
0.3704675917
 20
18.5909358029
 30
0.0
 10
0.3704675917
 20
18.6141216394
 30
0.0
 10
0.3773508184
 20
18.6628874929
 30
0.0
 10
0.4011217803
 20
18.7331141235
 30
0.0
 10
0.4360022854
 20
18.7968541
 30
0.0
 10
0.466578494
 20
18.8330568319
 30
0.0
 10
0.4831808212
 20
18.8470705319
 30
0.0
  0
SPLINE
  5
4EC
100
AcDbEntity
  8
ASSI
100
AcDbSpline
 62
250
  6
CONTINUOUS
 70
0
 71
3
 72
11
 73
7
 74
0
 42
0.0000001
 43
0.0000001
 44
0.0000000001
 40
0.0
 40
0.0
 40
0.0
 40
0.0
 40
0.2528709448
 40
0.5208296308
 40
0.7774601979
 40
1.0
 40
1.0
 40
1.0
 40
1.0
 10
0.4114189559
 20
18.5335374476
 30
0.0
 10
0.4339419089
 20
18.5244917222
 30
0.0
 10
0.4831510503
 20
18.5126689953
 30
0.0
 10
0.5583121068
 20
18.5115394915
 30
0.0
 10
0.6291026062
 20
18.5259653611
 30
0.0
 10
0.6711722363
 20
18.5468431346
 30
0.0
 10
0.687937642
 20
18.5600787556
 30
0.0
  0
SPLINE
  5
4ED
100
AcDbEntity
  8
ASSI
100
AcDbSpline
 62
250
  6
CONTINUOUS
 70
0
 71
3
 72
11
 73
7
 74
0
 42
0.0000001
 43
0.0000001
 44
0.0000000001
 40
0.0
 40
0.0
 40
0.0
 40
0.0
 40
0.2225397985
 40
0.4791703619
 40
0.7471290506
 40
1.0
 40
1.0
 40
1.0
 40
1.0
 10
-3.6126105905
 20
20.2872758794
 30
0.0
 10
-3.6293759959
 20
20.2740402585
 30
0.0
 10
-3.6714456252
 20
20.2531624848
 30
0.0
 10
-3.7422361242
 20
20.2387366147
 30
0.0
 10
-3.8173971811
 20
20.2398661183
 30
0.0
 10
-3.8666063233
 20
20.2516888456
 30
0.0
 10
-3.8891292766
 20
20.2607345714
 30
0.0
  0
SPLINE
  5
4EE
100
AcDbEntity
  8
ASSI
100
AcDbSpline
 62
250
  6
CONTINUOUS
 70
0
 71
3
 72
11
 73
7
 74
0
 42
0.0000001
 43
0.0000001
 44
0.0000000001
 40
0.0
 40
0.0
 40
0.0
 40
0.0
 40
0.2274503398
 40
0.489564063
 40
0.7572670864
 40
1.0
 40
1.0
 40
1.0
 40
1.0
 10
-3.8173674114
 20
20.5742676557
 30
0.0
 10
-3.8339697386
 20
20.5602539556
 30
0.0
 10
-3.8645459472
 20
20.5240512234
 30
0.0
 10
-3.8994264523
 20
20.4603112467
 30
0.0
 10
-3.9231974141
 20
20.3900846162
 30
0.0
 10
-3.9300806407
 20
20.341318763
 30
0.0
 10
-3.9300806408
 20
20.3181329266
 30
0.0
  0
SPLINE
  5
4EF
100
AcDbEntity
  8
ASSI
100
AcDbSpline
 62
250
  6
CONTINUOUS
 70
0
 71
3
 72
11
 73
7
 74
0
 42
0.0000001
 43
0.0000001
 44
0.0000000001
 40
0.0
 40
0.0
 40
0.0
 40
0.0
 40
0.2274503383
 40
0.4895640603
 40
0.7572670847
 40
1.0
 40
1.0
 40
1.0
 40
1.0
 10
-6.3890799037
 20
21.6071253705
 30
0.0
 10
-6.4056822309
 20
21.5931116706
 30
0.0
 10
-6.4362584395
 20
21.5569089387
 30
0.0
 10
-6.4711389446
 20
21.4931689621
 30
0.0
 10
-6.4949099065
 20
21.4229423315
 30
0.0
 10
-6.5017931332
 20
21.374176478
 30
0.0
 10
-6.5017931332
 20
21.3509906415
 30
0.0
  0
SPLINE
  5
4F0
100
AcDbEntity
  8
ASSI
100
AcDbSpline
 62
250
  6
CONTINUOUS
 70
0
 71
3
 72
11
 73
7
 74
0
 42
0.0000001
 43
0.0000001
 44
0.0000000001
 40
0.0
 40
0.0
 40
0.0
 40
0.0
 40
0.3005513313
 40
0.5634253439
 40
0.7928287339
 40
1.0
 40
1.0
 40
1.0
 40
1.0
 10
6.2200140437
 20
23.0062032544
 30
0.0
 10
6.2493474339
 20
23.0295109738
 30
0.0
 10
6.3073157697
 20
23.0697393575
 30
0.0
 10
6.3978120036
 20
23.1111149319
 30
0.0
 10
6.48439004
 20
23.1280199479
 30
0.0
 10
6.5396398729
 20
23.1213584112
 30
0.0
 10
6.564281228
 20
23.1136281663
 30
0.0
  0
SPLINE
  5
4F1
100
AcDbEntity
  8
ASSI
100
AcDbSpline
 62
250
  6
CONTINUOUS
 70
0
 71
3
 72
11
 73
7
 74
0
 42
0.0000001
 43
0.0000001
 44
0.0000000001
 40
0.0
 40
0.0
 40
0.0
 40
0.0
 40
0.2039475913
 40
0.4199614712
 40
0.6817037971
 40
1.0
 40
1.0
 40
1.0
 40
1.0
 10
-10.0162363812
 20
21.522321186
 30
0.0
 10
-10.0183426808
 20
21.5223527914
 30
0.0
 10
-10.0227854047
 20
21.5235482432
 30
0.0
 10
-10.027689096
 20
21.5289954063
 30
0.0
 10
-10.0304300061
 20
21.5368817179
 30
0.0
 10
-10.0309332687
 20
21.5429012934
 30
0.0
 10
-10.0309332509
 20
21.5461889158
 30
0.0
  0
SPLINE
  5
4F2
100
AcDbEntity
  8
ASSI
100
AcDbSpline
 62
250
  6
CONTINUOUS
 70
0
 71
3
 72
9
 73
5
 74
0
 42
0.0000001
 43
0.0000001
 44
0.0000000001
 40
0.0
 40
0.0
 40
0.0
 40
0.0
 40
0.5095334867
 40
1.0
 40
1.0
 40
1.0
 40
1.0
 10
-10.0309332509
 20
21.8462856396
 30
0.0
 10
-10.0309334156
 20
21.8584026656
 30
0.0
 10
-10.0243730827
 20
21.8819096602
 30
0.0
 10
-10.0110991497
 20
21.9026752916
 30
0.0
 10
-10.0020525029
 20
21.9100372059
 30
0.0
  0
SPLINE
  5
4F3
100
AcDbEntity
  8
ASSI
100
AcDbSpline
 62
250
  6
CONTINUOUS
 70
0
 71
3
 72
10
 73
6
 74
0
 42
0.0000001
 43
0.0000001
 44
0.0000000001
 40
0.0
 40
0.0
 40
0.0
 40
0.0
 40
0.235355925
 40
0.6243388165
 40
1.0
 40
1.0
 40
1.0
 40
1.0
 10
1.0227424279
 20
24.9301544219
 30
0.0
 10
1.0226243363
 20
24.9531221402
 30
0.0
 10
1.0100463677
 20
25.0140547859
 30
0.0
 10
0.956987051
 20
25.0986858635
 30
0.0
 10
0.894955097
 20
25.1448582992
 30
0.0
 10
0.860939029
 20
25.1585285978
 30
0.0
  0
SPLINE
  5
4F4
100
AcDbEntity
  8
ASSI
100
AcDbSpline
 62
250
  6
CONTINUOUS
 70
0
 71
3
 72
9
 73
5
 74
0
 42
0.0000001
 43
0.0000001
 44
0.0000000001
 40
0.0
 40
0.0
 40
0.0
 40
0.0
 40
0.5379419503
 40
1.0
 40
1.0
 40
1.0
 40
1.0
 10
1.4850322852
 20
24.6396563517
 30
0.0
 10
1.4957642733
 20
24.6484474822
 30
0.0
 10
1.5138305957
 20
24.6678130736
 30
0.0
 10
1.5213562494
 20
24.6938972966
 30
0.0
 10
1.5211942383
 20
24.705812205
 30
0.0
  0
SPLINE
  5
4F5
100
AcDbEntity
  8
DRAFT
100
AcDbSpline
 62
7
  6
CONTINUOUS
 70
0
 71
3
 72
9
 73
5
 74
0
 42
0.0000001
 43
0.0000001
 44
0.0000000001
 40
0.0
 40
0.0
 40
0.0
 40
0.0
 40
0.2578100468
 40
1.0
 40
1.0
 40
1.0
 40
1.0
 10
3.8150443959
 20
-18.2613812545
 30
0.0
 10
3.804225569
 20
-18.2570361698
 30
0.0
 10
3.7618574463
 20
-18.2412233033
 30
0.0
 10
3.7178546138
 20
-18.2296493648
 30
0.0
 10
3.6847588594
 20
-18.2240652648
 30
0.0
  0
SPLINE
  5
4F6
100
AcDbEntity
  8
ASSI
100
AcDbSpline
 62
250
  6
CONTINUOUS
 70
0
 71
3
 72
11
 73
7
 74
0
 42
0.0000001
 43
0.0000001
 44
0.0000000001
 40
0.0
 40
0.0
 40
0.0
 40
0.0
 40
0.1956276183
 40
0.41916523
 40
0.6867307822
 40
1.0
 40
1.0
 40
1.0
 40
1.0
 10
-12.6491026952
 20
22.365769653
 30
0.0
 10
-12.6570625271
 20
22.3689691866
 30
0.0
 10
-12.6725384895
 20
22.3801649035
 30
0.0
 10
-12.6881599461
 20
22.4065564935
 30
0.0
 10
-12.6973180949
 20
22.4409146107
 30
0.0
 10
-12.6990854039
 20
22.4664603541
 30
0.0
 10
-12.6990857279
 20
22.4801980683
 30
0.0
  0
SPLINE
  5
4F7
100
AcDbEntity
  8
ASSI
100
AcDbSpline
 62
7
  6
CONTINUOUS
 70
0
 71
3
 72
13
 73
9
 74
0
 42
0.0000001
 43
0.0000001
 44
0.0000000001
 40
0.0
 40
0.0
 40
0.0
 40
0.0
 40
0.0402961382
 40
0.1088868695
 40
0.2038919617
 40
0.3231686952
 40
0.6252178938
 40
1.0
 40
1.0
 40
1.0
 40
1.0
 10
-11.7206454173
 20
21.9928833632
 30
0.0
 10
-11.7191371447
 20
21.9923920302
 30
0.0
 10
-11.714663468
 20
21.9932058359
 30
0.0
 10
-11.7071602153
 20
21.9956367047
 30
0.0
 10
-11.6968622272
 20
22.0000692542
 30
0.0
 10
-11.6786020289
 20
22.0089266053
 30
0.0
 10
-11.651047441
 20
22.0239317789
 30
0.0
 10
-11.6280467923
 20
22.0373681667
 30
0.0
 10
-11.6153866852
 20
22.0449436893
 30
0.0
  0
SPLINE
  5
4F8
100
AcDbEntity
  8
ASSI
100
AcDbSpline
 62
7
  6
CONTINUOUS
 70
0
 71
3
 72
9
 73
5
 74
0
 42
0.0000001
 43
0.0000001
 44
0.0000000001
 40
0.0
 40
0.0
 40
0.0
 40
0.0
 40
0.4849626645
 40
1.0
 40
1.0
 40
1.0
 40
1.0
 10
-11.1869304505
 20
21.7785314002
 30
0.0
 10
-11.2276558354
 20
21.7952173023
 30
0.0
 10
-11.3038024328
 20
21.8482005467
 30
0.0
 10
-11.3640045126
 20
21.9168364641
 30
0.0
 10
-11.39115099
 20
21.9548855789
 30
0.0
  0
SPLINE
  5
4F9
100
AcDbEntity
  8
ASSI
100
AcDbSpline
 62
250
  6
CONTINUOUS
 70
0
 71
3
 72
16
 73
12
 74
0
 42
0.0000001
 43
0.0000001
 44
0.0000000001
 40
0.0
 40
0.0
 40
0.0
 40
0.0
 40
0.127984112
 40
0.2770472793
 40
0.4337345118
 40
0.5820768383
 40
0.7088264837
 40
0.809698027
 40
0.8543647506
 40
0.8990392404
 40
1.0
 40
1.0
 40
1.0
 40
1.0
 10
3.598456812
 20
21.6718763204
 30
0.0
 10
3.6090442588
 20
21.6802998872
 30
0.0
 10
3.6359070853
 20
21.693511139
 30
0.0
 10
3.681183351
 20
21.7025392032
 30
0.0
 10
3.7295620591
 20
21.7017539973
 30
0.0
 10
3.7743678372
 20
21.6910516473
 30
0.0
 10
3.809894011
 20
21.6720869797
 30
0.0
 10
3.828854095
 20
21.6484075846
 30
0.0
 10
3.8322682046
 20
21.6281526565
 30
0.0
 10
3.8283422756
 20
21.6080251887
 30
0.0
 10
3.8177662427
 20
21.595455781
 30
0.0
 10
3.8095309473
 20
21.5886667838
 30
0.0
  0
SPLINE
  5
4FA
100
AcDbEntity
  8
ASSI
100
AcDbSpline
 62
250
  6
CONTINUOUS
 70
0
 71
3
 72
9
 73
5
 74
0
 42
0.0000001
 43
0.0000001
 44
0.0000000001
 40
0.0
 40
0.0
 40
0.0
 40
0.0
 40
0.4380685399
 40
1.0
 40
1.0
 40
1.0
 40
1.0
 10
3.8122086222
 20
18.7152079156
 30
0.0
 10
3.7992388714
 20
18.7189845937
 30
0.0
 10
3.7664526317
 20
18.7160022938
 30
0.0
 10
3.7399063929
 20
18.699136947
 30
0.0
 10
3.726298236
 20
18.6884096648
 30
0.0
  0
SPLINE
  5
4FB
100
AcDbEntity
  8
ASSI
100
AcDbSpline
 62
250
  6
CONTINUOUS
 70
0
 71
3
 72
11
 73
7
 74
0
 42
0.0000001
 43
0.0000001
 44
0.0000000001
 40
0.0
 40
0.0
 40
0.0
 40
0.0
 40
0.20833358
 40
0.4366334212
 40
0.698540645
 40
1.0
 40
1.0
 40
1.0
 40
1.0
 10
6.2524457158
 20
17.735447251
 30
0.0
 10
6.2461389879
 20
17.7379795527
 30
0.0
 10
6.2317863162
 20
17.7407340162
 30
0.0
 10
6.2089433788
 20
17.7371931631
 30
0.0
 10
6.1850957646
 20
17.7267502249
 30
0.0
 10
6.1699086117
 20
17.7162268871
 30
0.0
 10
6.1622304105
 20
17.7100825254
 30
0.0
  0
SPLINE
  5
4FC
100
AcDbEntity
  8
ASSI
100
AcDbSpline
 62
250
  6
CONTINUOUS
 70
0
 71
3
 72
16
 73
12
 74
0
 42
0.0000001
 43
0.0000001
 44
0.0000000001
 40
0.0
 40
0.0
 40
0.0
 40
0.0
 40
0.102027177
 40
0.1468830099
 40
0.1914024723
 40
0.2912491485
 40
0.4168215572
 40
0.5644338144
 40
0.7210929233
 40
0.8708398166
 40
1.0
 40
1.0
 40
1.0
 40
1.0
 10
-2.7019892952
 20
24.2022775173
 30
0.0
 10
-2.6935385504
 20
24.2089787315
 30
0.0
 10
-2.6825951672
 20
24.221365335
 30
0.0
 10
-2.6779957791
 20
24.2414619053
 30
0.0
 10
-2.6807331374
 20
24.2617193722
 30
0.0
 10
-2.6989887779
 20
24.2856923606
 30
0.0
 10
-2.7340034542
 20
24.305001819
 30
0.0
 10
-2.7784935836
 20
24.3161288883
 30
0.0
 10
-2.8268543799
 20
24.3173745255
 30
0.0
 10
-2.8724066868
 20
24.3087767091
 30
0.0
 10
-2.8996117941
 20
24.2958661956
 30
0.0
 10
-2.9104500598
 20
24.2875626547
 30
0.0
  0
SPLINE
  5
4FD
100
AcDbEntity
  8
ASSI
100
AcDbSpline
 62
7
  6
CONTINUOUS
 70
0
 71
3
 72
13
 73
9
 74
0
 42
0.0000001
 43
0.0000001
 44
0.0000000001
 40
0.0
 40
0.0
 40
0.0
 40
0.0
 40
0.0402961382
 40
0.1088868695
 40
0.2038919617
 40
0.3231686952
 40
0.6252178938
 40
1.0
 40
1.0
 40
1.0
 40
1.0
 10
2.8602609711
 20
16.1368626388
 30
0.0
 10
2.8617692437
 20
16.1363713058
 30
0.0
 10
2.8662429203
 20
16.1371851115
 30
0.0
 10
2.8737461731
 20
16.1396159803
 30
0.0
 10
2.8840441611
 20
16.1440485298
 30
0.0
 10
2.9023043594
 20
16.1529058809
 30
0.0
 10
2.9298589474
 20
16.1679110545
 30
0.0
 10
2.9528595961
 20
16.1813474423
 30
0.0
 10
2.9655197031
 20
16.1889229649
 30
0.0
  0
SPLINE
  5
4FE
100
AcDbEntity
  8
ASSI
100
AcDbSpline
 62
7
  6
CONTINUOUS
 70
0
 71
3
 72
9
 73
5
 74
0
 42
0.0000001
 43
0.0000001
 44
0.0000000001
 40
0.0
 40
0.0
 40
0.0
 40
0.0
 40
0.4849626645
 40
1.0
 40
1.0
 40
1.0
 40
1.0
 10
3.3939759379
 20
15.9225106758
 30
0.0
 10
3.3532505529
 20
15.9391965779
 30
0.0
 10
3.2771039555
 20
15.9921798223
 30
0.0
 10
3.2169018757
 20
16.0608157397
 30
0.0
 10
3.1897553983
 20
16.0988648545
 30
0.0
  0
SPLINE
  5
4FF
100
AcDbEntity
  8
ASSI
100
AcDbSpline
 62
250
  6
CONTINUOUS
 70
0
 71
3
 72
10
 73
6
 74
0
 42
0.0000001
 43
0.0000001
 44
0.0000000001
 40
0.0
 40
0.0
 40
0.0
 40
0.0
 40
0.5091343872
 40
0.7406017523
 40
1.0
 40
1.0
 40
1.0
 40
1.0
 10
-2.2012449007
 20
19.6237935177
 30
0.0
 10
-2.2102021271
 20
19.6273910563
 30
0.0
 10
-2.2271838373
 20
19.6288542108
 30
0.0
 10
-2.240542369
 20
19.6137676811
 30
0.0
 10
-2.2421961642
 20
19.6042070755
 30
0.0
 10
-2.2421962649
 20
19.5992891446
 30
0.0
  0
SPLINE
  5
500
100
AcDbEntity
  8
ASSI
100
AcDbSpline
 62
250
  6
CONTINUOUS
 70
0
 71
3
 72
9
 73
5
 74
0
 42
0.0000001
 43
0.0000001
 44
0.0000000001
 40
0.0
 40
0.0
 40
0.0
 40
0.0
 40
0.2369531687
 40
1.0
 40
1.0
 40
1.0
 40
1.0
 10
0.4114189559
 20
18.5335374476
 30
0.0
 10
0.411418919
 20
18.5392726981
 30
0.0
 10
0.4064990528
 20
18.5632533304
 30
0.0
 10
0.3876060147
 20
18.584052869
 30
0.0
 10
0.3704675917
 20
18.5909358029
 30
0.0
  0
SPLINE
  5
501
100
AcDbEntity
  8
ASSI
100
AcDbSpline
 62
250
  6
CONTINUOUS
 70
0
 71
3
 72
10
 73
6
 74
0
 42
0.0000001
 43
0.0000001
 44
0.0000000001
 40
0.0
 40
0.0
 40
0.0
 40
0.0
 40
0.259331281
 40
0.49079355
 40
1.0
 40
1.0
 40
1.0
 40
1.0
 10
-6.5427444974
 20
21.3264862684
 30
0.0
 10
-6.5427444633
 20
21.3314028903
 30
0.0
 10
-6.5410912697
 20
21.3409617015
 30
0.0
 10
-6.5277360818
 20
21.3560508746
 30
0.0
 10
-6.51075154
 20
21.3545886997
 30
0.0
 10
-6.5017931332
 20
21.3509906415
 30
0.0
  0
SPLINE
  5
502
100
AcDbEntity
  8
ASSI
100
AcDbSpline
 62
250
  6
CONTINUOUS
 70
0
 71
3
 72
9
 73
5
 74
0
 42
0.0000001
 43
0.0000001
 44
0.0000000001
 40
0.0
 40
0.0
 40
0.0
 40
0.0
 40
0.7629966881
 40
1.0
 40
1.0
 40
1.0
 40
1.0
 10
-3.9300806408
 20
20.3181329266
 30
0.0
 10
-3.9129432562
 20
20.3112504673
 30
0.0
 10
-3.894050203
 20
20.2904517601
 30
0.0
 10
-3.8891292451
 20
20.2664710583
 30
0.0
 10
-3.8891292766
 20
20.2607345714
 30
0.0
  0
SPLINE
  5
503
100
AcDbEntity
  8
ASSI
100
AcDbSpline
 62
7
  6
CONTINUOUS
 70
0
 71
3
 72
11
 73
7
 74
0
 42
0.0000001
 43
0.0000001
 44
0.0000000001
 40
0.0
 40
0.0
 40
0.0
 40
0.0
 40
0.2186678989
 40
0.4573836574
 40
0.7186061281
 40
1.0
 40
1.0
 40
1.0
 40
1.0
 10
0.8663520445
 20
18.0761743823
 30
0.0
 10
0.8802063042
 20
18.0992156656
 30
0.0
 10
0.901271797
 20
18.1524044912
 30
0.0
 10
0.9107708763
 20
18.2410803527
 30
0.0
 10
0.8994655554
 20
18.3371456912
 30
0.0
 10
0.8793520614
 20
18.4011717049
 30
0.0
 10
0.8663520445
 20
18.4332344803
 30
0.0
  0
SPLINE
  5
504
100
AcDbEntity
  8
DRAFT
100
AcDbSpline
 62
7
  6
CONTINUOUS
 70
0
 71
3
 72
14
 73
10
 74
0
 42
0.0000001
 43
0.0000001
 44
0.0000000001
 40
0.0
 40
0.0
 40
0.0
 40
0.0
 40
0.0966975287
 40
0.2003629888
 40
0.315501894
 40
0.4427335784
 40
0.5796561142
 40
0.721898454
 40
1.0
 40
1.0
 40
1.0
 40
1.0
 10
4.018957328
 20
-19.5634844245
 30
0.0
 10
4.0514289025
 20
-19.5381499912
 30
0.0
 10
4.1084241088
 20
-19.4712064675
 30
0.0
 10
4.1526758489
 20
-19.3417030159
 30
0.0
 10
4.1567556476
 20
-19.1925736982
 30
0.0
 10
4.1220788521
 20
-19.0334934516
 30
0.0
 10
4.051452757
 20
-18.8742041309
 30
0.0
 10
3.9174124973
 20
-18.6775310366
 30
0.0
 10
3.7785132566
 20
-18.5561591683
 30
0.0
 10
3.6752294728
 20
-18.4981711002
 30
0.0
  0
SPLINE
  5
505
100
AcDbEntity
  8
DRAFT
100
AcDbSpline
 62
7
  6
CONTINUOUS
 70
0
 71
3
 72
14
 73
10
 74
0
 42
0.0000001
 43
0.0000001
 44
0.0000000001
 40
0.0
 40
0.0
 40
0.0
 40
0.0
 40
0.0966065714
 40
0.2011639651
 40
0.3183546472
 40
0.4481553221
 40
0.7283466283
 40
0.8683309844
 40
1.0
 40
1.0
 40
1.0
 40
1.0
 10
4.2527537636
 20
-19.3809939327
 30
0.0
 10
4.288047819
 20
-19.3534573891
 30
0.0
 10
4.3493672694
 20
-19.2790018725
 30
0.0
 10
4.3921989991
 20
-19.1347130268
 30
0.0
 10
4.3882107383
 20
-18.96971243
 30
0.0
 10
4.3220134986
 20
-18.7327810449
 30
0.0
 10
4.1771505239
 20
-18.513632802
 30
0.0
 10
3.9828349659
 20
-18.3459601158
 30
0.0
 10
3.8716612881
 20
-18.2841198749
 30
0.0
 10
3.8150443959
 20
-18.2613812545
 30
0.0
  0
LINE
  5
506
100
AcDbEntity
  8
ASSI
100
AcDbLine
 62
250
  6
CONTINUOUS
 10
4.0142877682
 20
21.3016750075
 30
0.0
 11
4.0118268411
 21
21.0217738509
 31
0.0
  0
LINE
  5
507
100
AcDbEntity
  8
ASSI
100
AcDbLine
 62
250
  6
CONTINUOUS
 10
4.0086364927
 20
20.6589097104
 30
0.0
 11
4.0081883998
 21
20.6079444752
 31
0.0
  0
LINE
  5
508
100
AcDbEntity
  8
ASSI
100
AcDbLine
 62
250
  6
CONTINUOUS
 10
4.0081883998
 20
20.6079444752
 30
0.0
 11
4.0044936476
 21
20.187710403
 31
0.0
  0
SPLINE
  5
509
100
AcDbEntity
  8
ASSI
100
AcDbSpline
 62
250
  6
CONTINUOUS
 70
0
 71
3
 72
10
 73
6
 74
0
 42
0.0000001
 43
0.0000001
 44
0.0000000001
 40
0.0
 40
0.0
 40
0.0
 40
0.0
 40
0.2265111571
 40
0.4647525757
 40
1.0
 40
1.0
 40
1.0
 40
1.0
 10
6.0935778295
 20
22.9973288308
 30
0.0
 10
6.1013796162
 20
23.0035339048
 30
0.0
 10
6.1196256133
 20
23.0136694089
 30
0.0
 10
6.1632874126
 20
23.0224506854
 30
0.0
 10
6.1981535279
 20
23.0149773536
 30
0.0
 10
6.2200140426
 20
23.0062032535
 30
0.0
  0
SPLINE
  5
50A
100
AcDbEntity
  8
ASSI
100
AcDbSpline
 62
250
  6
CONTINUOUS
 70
0
 71
3
 72
9
 73
5
 74
0
 42
0.0000001
 43
0.0000001
 44
0.0000000001
 40
0.0
 40
0.0
 40
0.0
 40
0.0
 40
0.2582038613
 40
1.0
 40
1.0
 40
1.0
 40
1.0
 10
1.4850322852
 20
24.6396563517
 30
0.0
 10
1.4848918699
 20
24.6476867093
 30
0.0
 10
1.4839453383
 20
24.6787778722
 30
0.0
 10
1.4813573838
 20
24.7098293862
 30
0.0
 10
1.4783412274
 20
24.7327054174
 30
0.0
  0
SPLINE
  5
50B
100
AcDbEntity
  8
ASSI
100
AcDbSpline
 62
250
  6
CONTINUOUS
 70
0
 71
3
 72
15
 73
11
 74
0
 42
0.0000001
 43
0.0000001
 44
0.0000000001
 40
0.0
 40
0.0
 40
0.0
 40
0.0
 40
0.1467967954
 40
0.2753928016
 40
0.3891554453
 40
0.4947038816
 40
0.6011974041
 40
0.717439617
 40
0.849518688
 40
1.0
 40
1.0
 40
1.0
 40
1.0
 10
1.4713619816
 20
24.7751905779
 30
0.0
 10
1.4655445028
 20
24.8044401401
 30
0.0
 10
1.4506317284
 20
24.8587008155
 30
0.0
 10
1.4147855693
 20
24.9298949754
 30
0.0
 10
1.3671157018
 20
24.9834825409
 30
0.0
 10
1.3082206192
 20
25.0166053294
 30
0.0
 10
1.2409724201
 20
25.0268606618
 30
0.0
 10
1.1689445574
 20
25.0147254153
 30
0.0
 10
1.0942407665
 20
24.9818451983
 30
0.0
 10
1.0466892003
 20
24.9491580585
 30
0.0
 10
1.0227424279
 20
24.9301544219
 30
0.0
  0
SPLINE
  5
50C
100
AcDbEntity
  8
ASSI
100
AcDbSpline
 62
7
  6
CONTINUOUS
 70
0
 71
3
 72
11
 73
7
 74
0
 42
0.0000001
 43
0.0000001
 44
0.0000000001
 40
0.0
 40
0.0
 40
0.0
 40
0.0
 40
0.2325410398
 40
0.4899750507
 40
0.7531662523
 40
1.0
 40
1.0
 40
1.0
 40
1.0
 10
6.3546707413
 20
14.9855740613
 30
0.0
 10
6.3546707413
 20
15.0428468152
 30
0.0
 10
6.329401331
 20
15.1637211302
 30
0.0
 10
6.2397848361
 20
15.328462122
 30
0.0
 10
6.1096942636
 20
15.4679116639
 30
0.0
 10
6.0019288189
 20
15.5368193844
 30
0.0
 10
5.9455156292
 20
15.5594761932
 30
0.0
  0
SPLINE
  5
50D
100
AcDbEntity
  8
ASSI
100
AcDbSpline
 62
7
  6
CONTINUOUS
 70
0
 71
3
 72
9
 73
5
 74
0
 42
0.0000001
 43
0.0000001
 44
0.0000000001
 40
0.0
 40
0.0
 40
0.0
 40
0.0
 40
0.5267752794
 40
1.0
 40
1.0
 40
1.0
 40
1.0
 10
6.3546707413
 20
-20.8933476664
 30
0.0
 10
6.3546707413
 20
-20.9356118936
 30
0.0
 10
6.3423018862
 20
-21.0170974036
 30
0.0
 10
6.295434605
 20
-21.086503897
 30
0.0
 10
6.266852012
 20
-21.1114956184
 30
0.0
  0
SPLINE
  5
50E
100
AcDbEntity
  8
ASSI
100
AcDbSpline
 62
250
  6
CONTINUOUS
 70
0
 71
3
 72
11
 73
7
 74
0
 42
0.0000001
 43
0.0000001
 44
0.0000000001
 40
0.0
 40
0.0
 40
0.0
 40
0.0
 40
0.2103459288
 40
0.43935063
 40
0.7006270498
 40
1.0
 40
1.0
 40
1.0
 40
1.0
 10
1.2263588007
 20
25.2581565665
 30
0.0
 10
1.2006255845
 20
25.2684942244
 30
0.0
 10
1.1423597524
 20
25.27994601
 30
0.0
 10
1.0496477398
 20
25.26643797
 30
0.0
 10
0.9531757284
 20
25.2250638223
 30
0.0
 10
0.8918535838
 20
25.183066753
 30
0.0
 10
0.860939029
 20
25.1585285978
 30
0.0
  0
SPLINE
  5
50F
100
AcDbEntity
  8
ASSI
100
AcDbSpline
 62
250
  6
CONTINUOUS
 70
0
 71
3
 72
11
 73
7
 74
0
 42
0.0000001
 43
0.0000001
 44
0.0000000001
 40
0.0
 40
0.0
 40
0.0
 40
0.0
 40
0.2078659889
 40
0.4373231657
 40
0.7011825878
 40
1.0
 40
1.0
 40
1.0
 40
1.0
 10
-6.6280233782
 20
21.4203983666
 30
0.0
 10
-6.6280139548
 20
21.4111197461
 30
0.0
 10
-6.6236271039
 20
21.3914362765
 30
0.0
 10
-6.6055204847
 20
21.3652182489
 30
0.0
 10
-6.5777311013
 20
21.3427942021
 30
0.0
 10
-6.555122021
 20
21.331457361
 30
0.0
 10
-6.5427444974
 20
21.3264862684
 30
0.0
  0
SPLINE
  5
510
100
AcDbEntity
  8
ASSI
100
AcDbSpline
 62
250
  6
CONTINUOUS
 70
0
 71
3
 72
11
 73
7
 74
0
 42
0.0000001
 43
0.0000001
 44
0.0000000001
 40
0.0
 40
0.0
 40
0.0
 40
0.0
 40
0.2235021607
 40
0.4598155686
 40
0.7176314029
 40
1.0
 40
1.0
 40
1.0
 40
1.0
 10
-6.5507323705
 20
21.5929739559
 30
0.0
 10
-6.5411649888
 20
21.6012795796
 30
0.0
 10
-6.5183418779
 20
21.615027823
 30
0.0
 10
-6.4780511557
 20
21.6239365844
 30
0.0
 10
-6.4336582503
 20
21.6214893787
 30
0.0
 10
-6.4039945801
 20
21.6129357876
 30
0.0
 10
-6.3890799037
 20
21.6071253705
 30
0.0
  0
SPLINE
  5
511
100
AcDbEntity
  8
ASSI
100
AcDbSpline
 62
250
  6
CONTINUOUS
 70
0
 71
3
 72
10
 73
6
 74
0
 42
0.0000001
 43
0.0000001
 44
0.0000000001
 40
0.0
 40
0.0
 40
0.0
 40
0.0
 40
0.2716954876
 40
0.4804552456
 40
1.0
 40
1.0
 40
1.0
 40
1.0
 10
4.5788538854
 20
-23.6923554205
 30
0.0
 10
4.5755852012
 20
-23.6948565017
 30
0.0
 10
4.5691078315
 20
-23.6989121099
 30
0.0
 10
4.5524201183
 20
-23.6965913832
 30
0.0
 10
4.5499730984
 20
-23.6820745975
 30
0.0
 10
4.5499731375
 20
-23.6742042584
 30
0.0
  0
SPLINE
  5
512
100
AcDbEntity
  8
ASSI
100
AcDbSpline
 62
250
  6
CONTINUOUS
 70
0
 71
3
 72
9
 73
5
 74
0
 42
0.0000001
 43
0.0000001
 44
0.0000000001
 40
0.0
 40
0.0
 40
0.0
 40
0.0
 40
0.2302500956
 40
1.0
 40
1.0
 40
1.0
 40
1.0
 10
4.5499731375
 20
-23.3741075346
 30
0.0
 10
4.5499731056
 20
-23.3702965267
 30
0.0
 10
4.5516124925
 20
-23.3537740709
 30
0.0
 10
4.5578990541
 20
-23.3378270638
 30
0.0
 10
4.5646700072
 20
-23.3270346163
 30
0.0
  0
SPLINE
  5
513
100
AcDbEntity
  8
ASSI
100
AcDbSpline
 62
250
  6
CONTINUOUS
 70
0
 71
3
 72
11
 73
7
 74
0
 42
0.0000001
 43
0.0000001
 44
0.0000000001
 40
0.0
 40
0.0
 40
0.0
 40
0.0
 40
0.3180293877
 40
0.5799937947
 40
0.7961076941
 40
1.0
 40
1.0
 40
1.0
 40
1.0
 10
4.5499731375
 20
15.6901681914
 30
0.0
 10
4.5499734514
 20
15.6868835176
 30
0.0
 10
4.5504824963
 20
15.6808666639
 30
0.0
 10
4.5532127848
 20
15.672974713
 30
0.0
 10
4.5581232148
 20
15.6675321869
 30
0.0
 10
4.562564358
 20
15.6663289727
 30
0.0
 10
4.5646700072
 20
15.6663004616
 30
0.0
  0
SPLINE
  5
514
100
AcDbEntity
  8
ASSI
100
AcDbSpline
 62
250
  6
CONTINUOUS
 70
0
 71
3
 72
9
 73
5
 74
0
 42
0.0000001
 43
0.0000001
 44
0.0000000001
 40
0.0
 40
0.0
 40
0.0
 40
0.0
 40
0.490402379
 40
1.0
 40
1.0
 40
1.0
 40
1.0
 10
4.5788538854
 20
16.0540164815
 30
0.0
 10
4.5698084811
 20
16.0466554542
 30
0.0
 10
4.5565339194
 20
16.0258905717
 30
0.0
 10
4.5499730102
 20
16.002383468
 30
0.0
 10
4.5499731375
 20
15.9902649152
 30
0.0
  0
SPLINE
  5
515
100
AcDbEntity
  8
RACCORDO
100
AcDbSpline
 62
7
  6
CONTINUOUS
 70
0
 71
3
 72
9
 73
5
 74
0
 42
0.0000001
 43
0.0000001
 44
0.0000000001
 40
0.0
 40
0.0
 40
0.0
 40
0.0
 40
0.2494321817
 40
1.0
 40
1.0
 40
1.0
 40
1.0
 10
-1.4989148742
 20
22.3469832646
 30
0.0
 10
-1.5021159791
 20
22.3445321924
 30
0.0
 10
-1.514637594
 20
22.3343032651
 30
0.0
 10
-1.5258343773
 20
22.3224641542
 30
0.0
 10
-1.5333255877
 20
22.3129213749
 30
0.0
  0
SPLINE
  5
516
100
AcDbEntity
  8
0
100
AcDbSpline
 62
7
  6
CONTINUOUS
 70
0
 71
3
 72
9
 73
5
 74
0
 42
0.0000001
 43
0.0000001
 44
0.0000000001
 40
0.0
 40
0.0
 40
0.0
 40
0.0
 40
0.4957301625
 40
1.0
 40
1.0
 40
1.0
 40
1.0
 10
9.0960496498
 20
22.6396890698
 30
0.0
 10
9.0960497006
 20
22.5907904844
 30
0.0
 10
9.1041111445
 20
22.4919908558
 30
0.0
 10
9.127831734
 20
22.3957849467
 30
0.0
 10
9.1433115125
 20
22.3485140566
 30
0.0
  0
SPLINE
  5
517
100
AcDbEntity
  8
0
100
AcDbSpline
 62
7
  6
CONTINUOUS
 70
0
 71
3
 72
9
 73
5
 74
0
 42
0.0000001
 43
0.0000001
 44
0.0000000001
 40
0.0
 40
0.0
 40
0.0
 40
0.0
 40
0.4957301634
 40
1.0
 40
1.0
 40
1.0
 40
1.0
 10
0.4949531847
 20
26.0940833173
 30
0.0
 10
0.4949532356
 20
26.045184737
 30
0.0
 10
0.5030146778
 20
25.9463851187
 30
0.0
 10
0.5267352624
 20
25.8501792191
 30
0.0
 10
0.5422150379
 20
25.8029083335
 30
0.0
  0
SPLINE
  5
518
100
AcDbEntity
  8
RACCORDO
100
AcDbSpline
 62
7
  6
CONTINUOUS
 70
0
 71
3
 72
21
 73
17
 74
0
 42
0.0000001
 43
0.0000001
 44
0.0000000001
 40
0.0
 40
0.0
 40
0.0
 40
0.0
 40
0.1385046272
 40
0.2081576666
 40
0.2775135915
 40
0.4137059221
 40
0.4799668729
 40
0.5446054251
 40
0.6074358658
 40
0.6683582134
 40
0.7273678029
 40
0.7845587498
 40
0.8401200912
 40
0.8943219184
 40
0.9474938255
 40
1.0
 40
1.0
 40
1.0
 40
1.0
 10
19.4274019262
 20
10.670288349
 30
0.0
 10
19.5845101
 20
10.5336729753
 30
0.0
 10
19.8053058913
 20
10.3098073718
 30
0.0
 10
20.0639821573
 20
9.9821889249
 30
0.0
 10
20.2957871668
 20
9.639202176
 30
0.0
 10
20.4863189225
 20
9.2755486148
 30
0.0
 10
20.6282930936
 20
8.8996020201
 30
0.0
 10
20.7077918614
 20
8.6190466302
 30
0.0
 10
20.760137455
 20
8.3403213832
 30
0.0
 10
20.7844284377
 20
8.0662000155
 30
0.0
 10
20.7799144672
 20
7.7994551785
 30
0.0
 10
20.7459983897
 20
7.5428821032
 30
0.0
 10
20.6822803528
 20
7.2994178205
 30
0.0
 10
20.5886568123
 20
7.0722187925
 30
0.0
 10
20.4656236864
 20
6.8647904834
 30
0.0
 10
20.3642877281
 20
6.7414766494
 30
0.0
 10
20.3095332687
 20
6.6846313895
 30
0.0
  0
SPLINE
  5
519
100
AcDbEntity
  8
RACCORDO
100
AcDbSpline
 62
7
  6
CONTINUOUS
 70
0
 71
3
 72
21
 73
17
 74
0
 42
0.0000001
 43
0.0000001
 44
0.0000000001
 40
0.0
 40
0.0
 40
0.0
 40
0.0
 40
0.1385046272
 40
0.2081576666
 40
0.2775135915
 40
0.4137059221
 40
0.4799668729
 40
0.5446054251
 40
0.6074358658
 40
0.6683582134
 40
0.7273678029
 40
0.7845587498
 40
0.8401200912
 40
0.8943219184
 40
0.9474938255
 40
1.0
 40
1.0
 40
1.0
 40
1.0
 10
19.4274019262
 20
21.9745865602
 30
0.0
 10
19.5845101
 20
21.8379711865
 30
0.0
 10
19.8053058913
 20
21.614105583
 30
0.0
 10
20.0639821573
 20
21.2864871361
 30
0.0
 10
20.2957871668
 20
20.9435003872
 30
0.0
 10
20.4863189225
 20
20.579846826
 30
0.0
 10
20.6282930936
 20
20.2039002313
 30
0.0
 10
20.7077918614
 20
19.9233448414
 30
0.0
 10
20.760137455
 20
19.6446195944
 30
0.0
 10
20.7844284377
 20
19.3704982267
 30
0.0
 10
20.7799144672
 20
19.1037533897
 30
0.0
 10
20.7459983897
 20
18.8471803143
 30
0.0
 10
20.6822803528
 20
18.6037160317
 30
0.0
 10
20.5886568123
 20
18.3765170037
 30
0.0
 10
20.4656236864
 20
18.1690886946
 30
0.0
 10
20.3642877281
 20
18.0457748606
 30
0.0
 10
20.3095332687
 20
17.9889296006
 30
0.0
  0
SPLINE
  5
51A
100
AcDbEntity
  8
RACCORDO
100
AcDbSpline
 62
250
  6
CONTINUOUS
 70
0
 71
3
 72
17
 73
13
 74
0
 42
0.0000001
 43
0.0000001
 44
0.0000000001
 40
0.0
 40
0.0
 40
0.0
 40
0.0
 40
0.257194928
 40
0.3855113728
 40
0.5134046227
 40
0.6405201936
 40
0.7035748842
 40
0.7660569593
 40
0.8276515635
 40
0.8878307223
 40
0.9457197716
 40
1.0
 40
1.0
 40
1.0
 40
1.0
 10
19.427519425
 20
20.0222195919
 30
0.0
 10
19.4525094998
 20
19.9128559737
 30
0.0
 10
19.4787964415
 20
19.7461235397
 30
0.0
 10
19.4924573996
 20
19.5225115678
 30
0.0
 10
19.491941485
 20
19.3551904319
 30
0.0
 10
19.4821282624
 20
19.2166736401
 30
0.0
 10
19.4679087095
 20
19.1073656223
 30
0.0
 10
19.4538173873
 20
19.0269370642
 30
0.0
 10
19.4358890169
 20
18.9485525069
 30
0.0
 10
19.4136165842
 20
18.8733457973
 30
0.0
 10
19.3864345655
 20
18.8031608367
 30
0.0
 10
19.3637124879
 20
18.7596221612
 30
0.0
 10
19.3510503588
 20
18.7396168397
 30
0.0
  0
SPLINE
  5
51B
100
AcDbEntity
  8
RACCORDO
100
AcDbSpline
 62
7
  6
CONTINUOUS
 70
0
 71
3
 72
11
 73
7
 74
0
 42
0.0000001
 43
0.0000001
 44
0.0000000001
 40
0.0
 40
0.0
 40
0.0
 40
0.0
 40
0.2835624479
 40
0.5394292431
 40
0.774480377
 40
1.0
 40
1.0
 40
1.0
 40
1.0
 10
19.3510503588
 20
18.7396168397
 30
0.0
 10
19.3427523317
 20
18.735479349
 30
0.0
 10
19.3263938346
 20
18.7286474961
 30
0.0
 10
19.3014293135
 20
18.7233772088
 30
0.0
 10
19.2777608273
 20
18.7240875068
 30
0.0
 10
19.2631725438
 20
18.7285369332
 30
0.0
 10
19.2564241313
 20
18.7315101709
 30
0.0
  0
SPLINE
  5
51C
100
AcDbEntity
  8
RACCORDO
100
AcDbSpline
 62
250
  6
CONTINUOUS
 70
0
 71
3
 72
17
 73
13
 74
0
 42
0.0000001
 43
0.0000001
 44
0.0000000001
 40
0.0
 40
0.0
 40
0.0
 40
0.0
 40
0.2571947565
 40
0.3855111691
 40
0.5134042746
 40
0.6405196907
 40
0.7035744355
 40
0.7660565442
 40
0.8276511868
 40
0.8878307119
 40
0.9457199634
 40
1.0
 40
1.0
 40
1.0
 40
1.0
 10
19.4275333006
 20
8.7178606963
 30
0.0
 10
19.4525192431
 20
8.6085017078
 30
0.0
 10
19.4788014426
 20
8.4417768792
 30
0.0
 10
19.4924584215
 20
8.2181755382
 30
0.0
 10
19.4919402151
 20
8.050862556
 30
0.0
 10
19.4821260385
 20
7.9123526018
 30
0.0
 10
19.4679062142
 20
7.8030499577
 30
0.0
 10
19.4538146999
 20
7.7226253347
 30
0.0
 10
19.4358864192
 20
7.6442445113
 30
0.0
 10
19.41361452
 20
7.5690412603
 30
0.0
 10
19.3864329529
 20
7.4988598346
 30
0.0
 10
19.3637122553
 20
7.4553230897
 30
0.0
 10
19.3510507389
 20
7.435318818
 30
0.0
  0
SPLINE
  5
51D
100
AcDbEntity
  8
RACCORDO
100
AcDbSpline
 62
7
  6
CONTINUOUS
 70
0
 71
3
 72
11
 73
7
 74
0
 42
0.0000001
 43
0.0000001
 44
0.0000000001
 40
0.0
 40
0.0
 40
0.0
 40
0.0
 40
0.2835627636
 40
0.5394295271
 40
0.7744804968
 40
1.0
 40
1.0
 40
1.0
 40
1.0
 10
19.3510507389
 20
7.435318818
 30
0.0
 10
19.3427526669
 20
7.4311813054
 30
0.0
 10
19.3263941337
 20
7.42434933
 30
0.0
 10
19.30142949
 20
7.4190789913
 30
0.0
 10
19.2777609363
 20
7.4197893492
 30
0.0
 10
19.2631725483
 20
7.4242386548
 30
0.0
 10
19.2564241313
 20
7.4272119507
 30
0.0
  0
SPLINE
  5
51E
100
AcDbEntity
  8
RACCORDO
100
AcDbSpline
 62
250
  6
CONTINUOUS
 70
0
 71
3
 72
20
 73
16
 74
0
 42
0.0000001
 43
0.0000001
 44
0.0000000001
 40
0.0
 40
0.0
 40
0.0
 40
0.0
 40
0.1401305736
 40
0.2594279253
 40
0.3542680736
 40
0.4267270015
 40
0.4828053521
 40
0.529252614
 40
0.5715183873
 40
0.6130319702
 40
0.655515033
 40
0.6996583429
 40
0.7933318978
 40
0.8938015301
 40
1.0
 40
1.0
 40
1.0
 40
1.0
 10
19.2564241313
 20
5.7506775892
 30
0.0
 10
19.2646173659
 20
5.7614082211
 30
0.0
 10
19.2803498335
 20
5.7808622504
 30
0.0
 10
19.3041312593
 20
5.8054357616
 30
0.0
 10
19.3258693737
 20
5.8226470383
 30
0.0
 10
19.3451250809
 20
5.832652152
 30
0.0
 10
19.3618177915
 20
5.8363613358
 30
0.0
 10
19.3759432124
 20
5.8349641259
 30
0.0
 10
19.3875818759
 20
5.8298083028
 30
0.0
 10
19.3970965336
 20
5.8220523823
 30
0.0
 10
19.4049131393
 20
5.8124118325
 30
0.0
 10
19.4136248579
 20
5.7973218971
 30
0.0
 10
19.4212954985
 20
5.7754934267
 30
0.0
 10
19.4263692322
 20
5.746928332
 30
0.0
 10
19.4273856524
 20
5.7269900331
 30
0.0
 10
19.4273865568
 20
5.7167582913
 30
0.0
  0
SPLINE
  5
51F
100
AcDbEntity
  8
RACCORDO
100
AcDbSpline
 62
7
  6
CONTINUOUS
 70
0
 71
3
 72
9
 73
5
 74
0
 42
0.0000001
 43
0.0000001
 44
0.0000000001
 40
0.0
 40
0.0
 40
0.0
 40
0.0
 40
0.5194501402
 40
1.0
 40
1.0
 40
1.0
 40
1.0
 10
19.2564241313
 20
5.7506773877
 30
0.0
 10
19.269621162
 20
5.7789364515
 30
0.0
 10
19.2977381611
 20
5.8321522432
 30
0.0
 10
19.332598604
 20
5.8813227237
 30
0.0
 10
19.3510507148
 20
5.9035042413
 30
0.0
  0
SPLINE
  5
520
100
AcDbEntity
  8
RACCORDO
100
AcDbSpline
 62
250
  6
CONTINUOUS
 70
0
 71
3
 72
19
 73
15
 74
0
 42
0.0000001
 43
0.0000001
 44
0.0000000001
 40
0.0
 40
0.0
 40
0.0
 40
0.0
 40
0.1284987563
 40
0.2267451687
 40
0.302393118
 40
0.3625632105
 40
0.4130223227
 40
0.4581492364
 40
0.5010945809
 40
0.54401667
 40
0.6347162434
 40
0.7380842048
 40
0.858607722
 40
1.0
 40
1.0
 40
1.0
 40
1.0
 10
19.3510507148
 20
5.9035042413
 30
0.0
 10
19.3611313717
 20
5.9113131799
 30
0.0
 10
19.3797227032
 20
5.9241492569
 30
0.0
 10
19.4070242856
 20
5.9369965484
 30
0.0
 10
19.4298211442
 20
5.9423988342
 30
0.0
 10
19.448523506
 20
5.9420820274
 30
0.0
 10
19.4634979046
 20
5.9374437233
 30
0.0
 10
19.4750301383
 20
5.9296068301
 30
0.0
 10
19.4833995301
 20
5.9194531728
 30
0.0
 10
19.490837026
 20
5.9034106637
 30
0.0
 10
19.493129673
 20
5.879345872
 30
0.0
 10
19.4857613289
 20
5.8486192928
 30
0.0
 10
19.4688872898
 20
5.81622523
 30
0.0
 10
19.4526434055
 20
5.7957574087
 30
0.0
 10
19.4431947437
 20
5.7853848824
 30
0.0
  0
LINE
  5
521
100
AcDbEntity
  8
RACCORDO
100
AcDbLine
 62
250
  6
CONTINUOUS
 10
19.4431947437
 20
5.7853848824
 30
0.0
 11
19.4423712773
 21
5.7844845447
 31
0.0
  0
SPLINE
  5
522
100
AcDbEntity
  8
RACCORDO
100
AcDbSpline
 62
250
  6
CONTINUOUS
 70
0
 71
3
 72
13
 73
9
 74
0
 42
0.0000001
 43
0.0000001
 44
0.0000000001
 40
0.0
 40
0.0
 40
0.0
 40
0.0
 40
0.1121539495
 40
0.2258527769
 40
0.3425108425
 40
0.4633083415
 40
0.7200615962
 40
1.0
 40
1.0
 40
1.0
 40
1.0
 10
-1.4750305055
 20
22.3652581915
 30
0.0
 10
-1.4654247752
 20
22.3726077302
 30
0.0
 10
-1.4448498729
 20
22.3858714035
 30
0.0
 10
-1.4108980642
 20
22.4007757539
 30
0.0
 10
-1.374177287
 20
22.41059557
 30
0.0
 10
-1.3210969161
 20
22.4169028375
 30
0.0
 10
-1.2496776579
 20
22.4109091677
 30
0.0
 10
-1.1940613197
 20
22.3933809518
 30
0.0
 10
-1.1661920436
 20
22.3817757749
 30
0.0
  0
SPLINE
  5
523
100
AcDbEntity
  8
RACCORDO
100
AcDbSpline
 62
250
  6
CONTINUOUS
 70
0
 71
3
 72
13
 73
9
 74
0
 42
0.0000001
 43
0.0000001
 44
0.0000000001
 40
0.0
 40
0.0
 40
0.0
 40
0.0
 40
0.1160030455
 40
0.2330700291
 40
0.352112674
 40
0.4739450261
 40
0.7282325841
 40
1.0
 40
1.0
 40
1.0
 40
1.0
 10
13.4778582364
 20
-11.9150111491
 30
0.0
 10
13.5063588957
 20
-11.8904734835
 30
0.0
 10
13.5605998562
 20
-11.8375363517
 30
0.0
 10
13.6320106738
 20
-11.7481308042
 30
0.0
 10
13.6931748197
 20
-11.6491857113
 30
0.0
 10
13.7614330424
 20
-11.5035461554
 30
0.0
 10
13.8182157478
 20
-11.2996419196
 30
0.0
 10
13.8316444911
 20
-11.1285956947
 30
0.0
 10
13.8314267142
 20
-11.0404886918
 30
0.0
  0
SPLINE
  5
524
100
AcDbEntity
  8
RACCORDO
100
AcDbSpline
 62
250
  6
CONTINUOUS
 70
0
 71
3
 72
11
 73
7
 74
0
 42
0.0000001
 43
0.0000001
 44
0.0000000001
 40
0.0
 40
0.0
 40
0.0
 40
0.0
 40
0.3010721724
 40
0.5628959546
 40
0.7913839478
 40
1.0
 40
1.0
 40
1.0
 40
1.0
 10
-0.2688393793
 20
22.6034806245
 30
0.0
 10
-0.2626629663
 20
22.6083860783
 30
0.0
 10
-0.2504447625
 20
22.6167842324
 30
0.0
 10
-0.2312696961
 20
22.6250973292
 30
0.0
 10
-0.2129088629
 20
22.6278890994
 30
0.0
 10
-0.2013753947
 20
22.6256631679
 30
0.0
 10
-0.1963038208
 20
22.6236263929
 30
0.0
  0
SPLINE
  5
525
100
AcDbEntity
  8
RACCORDO
100
AcDbSpline
 62
250
  6
CONTINUOUS
 70
0
 71
3
 72
19
 73
15
 74
0
 42
0.0000001
 43
0.0000001
 44
0.0000000001
 40
0.0
 40
0.0
 40
0.0
 40
0.0
 40
0.0519297422
 40
0.1038830558
 40
0.1569467384
 40
0.211753167
 40
0.3277314153
 40
0.4527477495
 40
0.5860269329
 40
0.7254154743
 40
0.796209318
 40
0.866556549
 40
0.9350815123
 40
1.0
 40
1.0
 40
1.0
 40
1.0
 10
-1.1661920436
 20
22.3817757749
 30
0.0
 10
-1.1529040348
 20
22.3919429193
 30
0.0
 10
-1.126859802
 20
22.4129731391
 30
0.0
 10
-1.0873791134
 20
22.4445719894
 30
0.0
 10
-1.0458967837
 20
22.4751216294
 30
0.0
 10
-0.9854778586
 20
22.5145750864
 30
0.0
 10
-0.9007752378
 20
22.5588795409
 30
0.0
 10
-0.7873852816
 20
22.6008283492
 30
0.0
 10
-0.6623749461
 20
22.6303054105
 30
0.0
 10
-0.5519699932
 20
22.642070235
 30
0.0
 10
-0.4615073903
 20
22.6419103476
 30
0.0
 10
-0.3941014137
 20
22.6361723294
 30
0.0
 10
-0.3294279088
 20
22.6241880932
 30
0.0
 10
-0.2882488599
 20
22.6112759106
 30
0.0
 10
-0.2688393793
 20
22.6034806245
 30
0.0
  0
SPLINE
  5
526
100
AcDbEntity
  8
RACCORDO
100
AcDbSpline
 62
250
  6
CONTINUOUS
 70
0
 71
3
 72
21
 73
17
 74
0
 42
0.0000001
 43
0.0000001
 44
0.0000000001
 40
0.0
 40
0.0
 40
0.0
 40
0.0
 40
0.1429631434
 40
0.2147110971
 40
0.2860120481
 40
0.3564327555
 40
0.4255642039
 40
0.4930342334
 40
0.5585207115
 40
0.6217654556
 40
0.6825890476
 40
0.7965585564
 40
0.8500588547
 40
0.9015043176
 40
0.9513074934
 40
1.0
 40
1.0
 40
1.0
 40
1.0
 10
19.4274466624
 20
21.8708722678
 30
0.0
 10
19.5812211457
 20
21.7302837576
 30
0.0
 10
19.7970562491
 20
21.5017434294
 30
0.0
 10
20.0495860537
 20
21.1698242907
 30
0.0
 10
20.2198989013
 20
20.9091175658
 30
0.0
 10
20.3688615814
 20
20.6400241418
 30
0.0
 10
20.4948220886
 20
20.3655327838
 30
0.0
 10
20.5963531226
 20
20.0887182551
 30
0.0
 10
20.6723069948
 20
19.8126998231
 30
0.0
 10
20.7218071856
 20
19.540460036
 30
0.0
 10
20.7511388375
 20
19.1944828572
 30
0.0
 10
20.7286011308
 20
18.8590940835
 30
0.0
 10
20.6478028022
 20
18.549645409
 30
0.0
 10
20.5618675968
 20
18.3403056372
 30
0.0
 10
20.4502575484
 20
18.1515460738
 30
0.0
 10
20.3587638674
 20
18.0400404457
 30
0.0
 10
20.3095332091
 20
17.9889296665
 30
0.0
  0
SPLINE
  5
527
100
AcDbEntity
  8
RACCORDO
100
AcDbSpline
 62
7
  6
CONTINUOUS
 70
0
 71
3
 72
12
 73
8
 74
0
 42
0.0000001
 43
0.0000001
 44
0.0000000001
 40
0.0
 40
0.0
 40
0.0
 40
0.0
 40
0.2874837286
 40
0.5484513869
 40
0.7836862103
 40
0.8936453002
 40
1.0
 40
1.0
 40
1.0
 40
1.0
 10
-1.198655589
 20
22.3590855835
 30
0.0
 10
-1.2249443743
 20
22.3692040181
 30
0.0
 10
-1.2766317647
 20
22.3849291131
 30
0.0
 10
-1.3533771028
 20
22.3937912797
 30
0.0
 10
-1.4131214437
 20
22.3871841485
 30
0.0
 10
-1.4552124838
 20
22.3731097456
 30
0.0
 10
-1.4741691556
 20
22.3634028165
 30
0.0
 10
-1.4830342486
 20
22.3579247898
 30
0.0
  0
SPLINE
  5
528
100
AcDbEntity
  8
RACCORDO
100
AcDbSpline
 62
250
  6
CONTINUOUS
 70
0
 71
3
 72
21
 73
17
 74
0
 42
0.0000001
 43
0.0000001
 44
0.0000000001
 40
0.0
 40
0.0
 40
0.0
 40
0.0
 40
0.0486925066
 40
0.0984956824
 40
0.1499411452
 40
0.2034414435
 40
0.3174109522
 40
0.3782345443
 40
0.4414792883
 40
0.5069657665
 40
0.5744357959
 40
0.6435672444
 40
0.7139879518
 40
0.7852889028
 40
0.8570368565
 40
1.0
 40
1.0
 40
1.0
 40
1.0
 10
20.3095332038
 20
6.6846314497
 30
0.0
 10
20.3587638625
 20
6.7357422288
 30
0.0
 10
20.4502575442
 20
6.8472478566
 30
0.0
 10
20.5618675936
 20
7.0360074197
 30
0.0
 10
20.6478028
 20
7.2453471914
 30
0.0
 10
20.7286011299
 20
7.554795866
 30
0.0
 10
20.7511388375
 20
7.8901846401
 30
0.0
 10
20.7218071864
 20
8.2361618195
 30
0.0
 10
20.672306996
 20
8.5084016071
 30
0.0
 10
20.5963531241
 20
8.7844200397
 30
0.0
 10
20.4948220901
 20
9.0612345691
 30
0.0
 10
20.368861583
 20
9.3357259277
 30
0.0
 10
20.2198989028
 20
9.6048193524
 30
0.0
 10
20.0495860549
 20
9.8655260779
 30
0.0
 10
19.7970562499
 20
10.1974452174
 30
0.0
 10
19.5812211461
 20
10.4259855463
 30
0.0
 10
19.4274466624
 20
10.5665740567
 30
0.0
  0
SPLINE
  5
529
100
AcDbEntity
  8
RACCORDO
100
AcDbSpline
 62
250
  6
CONTINUOUS
 70
0
 71
3
 72
13
 73
9
 74
0
 42
0.0000001
 43
0.0000001
 44
0.0000000001
 40
0.0
 40
0.0
 40
0.0
 40
0.0
 40
0.1161871236
 40
0.2333504771
 40
0.3524159507
 40
0.4742153869
 40
0.7283506745
 40
1.0
 40
1.0
 40
1.0
 40
1.0
 10
19.0862877993
 20
1.0104841683
 30
0.0
 10
19.1002217984
 20
1.0226893994
 30
0.0
 10
19.1267083593
 20
1.0489750878
 30
0.0
 10
19.1614917858
 20
1.0932671344
 30
0.0
 10
19.1911721177
 20
1.1421844879
 30
0.0
 10
19.2241192122
 20
1.2140634387
 30
0.0
 10
19.2511393691
 20
1.3145365127
 30
0.0
 10
19.2569453494
 20
1.3986680831
 30
0.0
 10
19.2564241313
 20
1.4419737492
 30
0.0
  0
SPLINE
  5
52A
100
AcDbEntity
  8
RACCORDO
100
AcDbSpline
 62
250
  6
CONTINUOUS
 70
0
 71
3
 72
19
 73
15
 74
0
 42
0.0000001
 43
0.0000001
 44
0.0000000001
 40
0.0
 40
0.0
 40
0.0
 40
0.0
 40
0.135300581
 40
0.2704782658
 40
0.4053535692
 40
0.5394819416
 40
0.6059675591
 40
0.6717204058
 40
0.7362495993
 40
0.7987175356
 40
0.8577815102
 40
0.9116550292
 40
0.9589317918
 40
1.0
 40
1.0
 40
1.0
 40
1.0
 10
19.4273865568
 20
8.102555149
 30
0.0
 10
19.4273856183
 20
8.0700718159
 30
0.0
 10
19.4262840199
 20
8.005128599
 30
0.0
 10
19.4210636275
 20
7.9079261297
 30
0.0
 10
19.411829466
 20
7.8112995093
 30
0.0
 10
19.4001519364
 20
7.7315533871
 30
0.0
 10
19.3877062487
 20
7.6688123416
 30
0.0
 10
19.376617766
 20
7.6228747212
 30
0.0
 10
19.3634508719
 20
7.5784844271
 30
0.0
 10
19.3478620336
 20
7.536574087
 30
0.0
 10
19.3295368503
 20
7.4985660498
 30
0.0
 10
19.3082806943
 20
7.4663103451
 30
0.0
 10
19.284193317
 20
7.4417137392
 30
0.0
 10
19.2656068084
 20
7.4308024958
 30
0.0
 10
19.2564241313
 20
7.4272117495
 30
0.0
  0
SPLINE
  5
52B
100
AcDbEntity
  8
RACCORDO
100
AcDbSpline
 62
250
  6
CONTINUOUS
 70
0
 71
3
 72
19
 73
15
 74
0
 42
0.0000001
 43
0.0000001
 44
0.0000000001
 40
0.0
 40
0.0
 40
0.0
 40
0.0
 40
0.1353038464
 40
0.2704844254
 40
0.4053619483
 40
0.5394918167
 40
0.6059774065
 40
0.6717292599
 40
0.7362567606
 40
0.7987232858
 40
0.8577850079
 40
0.9116558807
 40
0.9589311913
 40
1.0
 40
1.0
 40
1.0
 40
1.0
 10
19.4273865552
 20
19.4066358737
 30
0.0
 10
19.427383009
 20
19.3741615592
 30
0.0
 10
19.4262772018
 20
19.3092365445
 30
0.0
 10
19.4210512111
 20
19.2120617737
 30
0.0
 10
19.4118129144
 20
19.115463386
 30
0.0
 10
19.4001331721
 20
19.0357412619
 30
0.0
 10
19.3876862782
 20
18.9730200121
 30
0.0
 10
19.3765974196
 20
18.9270978194
 30
0.0
 10
19.3634308217
 20
18.8827230318
 30
0.0
 10
19.3478430341
 20
18.8408280586
 30
0.0
 10
19.3295199138
 20
18.8028348256
 30
0.0
 10
19.3082672356
 20
18.770592619
 30
0.0
 10
19.2841852509
 20
18.7460065718
 30
0.0
 10
19.2656041677
 20
18.7350996861
 30
0.0
 10
19.2564241313
 20
18.7315099607
 30
0.0
  0
SPLINE
  5
52C
100
AcDbEntity
  8
RACCORDO
100
AcDbSpline
 62
250
  6
CONTINUOUS
 70
0
 71
3
 72
18
 73
14
 74
0
 42
0.0000001
 43
0.0000001
 44
0.0000000001
 40
0.0
 40
0.0
 40
0.0
 40
0.0
 40
0.0281382951
 40
0.0388369775
 40
0.0512541534
 40
0.0814663469
 40
0.1190495767
 40
0.164076552
 40
0.2165274346
 40
0.2763268045
 40
0.417479179
 40
0.5862866843
 40
1.0
 40
1.0
 40
1.0
 40
1.0
 10
18.8442065416
 20
24.1303876093
 30
0.0
 10
18.8459661445
 20
24.1279212293
 30
0.0
 10
18.8450755794
 20
24.1228933446
 30
0.0
 10
18.8429974084
 20
24.1179260339
 30
0.0
 10
18.8403491183
 20
24.1127824449
 30
0.0
 10
18.8356334937
 20
24.1055532988
 30
0.0
 10
18.8282509584
 20
24.0958875936
 30
0.0
 10
18.8188206198
 20
24.0848143345
 30
0.0
 10
18.8073594202
 20
24.0723425874
 30
0.0
 10
18.7883192166
 20
24.0527963416
 30
0.0
 10
18.7595481944
 20
24.0252613175
 30
0.0
 10
18.7016860837
 20
23.9730658913
 30
0.0
 10
18.6536979857
 20
23.932648774
 30
0.0
 10
18.6193048634
 20
23.9043393315
 30
0.0
  0
SPLINE
  5
52D
100
AcDbEntity
  8
RACCORDO
100
AcDbSpline
 62
250
  6
CONTINUOUS
 70
0
 71
3
 72
18
 73
14
 74
0
 42
0.0000001
 43
0.0000001
 44
0.0000000001
 40
0.0
 40
0.0
 40
0.0
 40
0.0
 40
0.0281382951
 40
0.0388369775
 40
0.0512541534
 40
0.0814663469
 40
0.1190495767
 40
0.164076552
 40
0.2165274346
 40
0.2763268044
 40
0.4174791789
 40
0.5862866843
 40
1.0
 40
1.0
 40
1.0
 40
1.0
 10
19.0015507348
 20
23.9098504409
 30
0.0
 10
19.0033103377
 20
23.9073840608
 30
0.0
 10
19.0024197726
 20
23.9023561762
 30
0.0
 10
19.0003416016
 20
23.8973888655
 30
0.0
 10
18.9976933115
 20
23.8922452765
 30
0.0
 10
18.9929776869
 20
23.8850161304
 30
0.0
 10
18.9855951516
 20
23.8753504252
 30
0.0
 10
18.976164813
 20
23.864277166
 30
0.0
 10
18.9647036134
 20
23.8518054189
 30
0.0
 10
18.9456634098
 20
23.8322591732
 30
0.0
 10
18.9168923876
 20
23.8047241491
 30
0.0
 10
18.8590302769
 20
23.7525287229
 30
0.0
 10
18.8110421789
 20
23.7121116056
 30
0.0
 10
18.7766490566
 20
23.6838021631
 30
0.0
  0
SPLINE
  5
52E
100
AcDbEntity
  8
RACCORDO
100
AcDbSpline
 62
250
  6
CONTINUOUS
 70
0
 71
3
 72
13
 73
9
 74
0
 42
0.0000001
 43
0.0000001
 44
0.0000000001
 40
0.0
 40
0.0
 40
0.0
 40
0.0
 40
0.1032502999
 40
0.2091423497
 40
0.3200555274
 40
0.4379290444
 40
0.6993755986
 40
1.0
 40
1.0
 40
1.0
 40
1.0
 10
18.402842901
 20
24.4775517739
 30
0.0
 10
18.3902741846
 20
24.4825996887
 30
0.0
 10
18.363803579
 20
24.4904760152
 30
0.0
 10
18.3218638774
 20
24.4950438694
 30
0.0
 10
18.2778482186
 20
24.4924636038
 30
0.0
 10
18.2147278285
 20
24.4791364214
 30
0.0
 10
18.1320966545
 20
24.4433264846
 30
0.0
 10
18.0710465482
 20
24.4013492094
 30
0.0
 10
18.0401651173
 20
24.3768224473
 30
0.0
  0
SPLINE
  5
52F
100
AcDbEntity
  8
RACCORDO
100
AcDbSpline
 62
250
  6
CONTINUOUS
 70
0
 71
3
 72
14
 73
10
 74
0
 42
0.0000001
 43
0.0000001
 44
0.0000000001
 40
0.0
 40
0.0
 40
0.0
 40
0.0
 40
0.0903882315
 40
0.1902432866
 40
0.3001172714
 40
0.4201484117
 40
0.5502838311
 40
0.690398337
 40
1.0
 40
1.0
 40
1.0
 40
1.0
 10
14.0023895085
 20
-3.6644021107
 30
0.0
 10
14.0023901744
 20
-3.6523769277
 30
0.0
 10
13.9999145418
 20
-3.6270515416
 30
0.0
 10
13.9905334244
 20
-3.5881568852
 30
0.0
 10
13.9757773297
 20
-3.5467710321
 30
0.0
 10
13.9559846198
 20
-3.5031057902
 30
0.0
 10
13.931422479
 20
-3.4573231077
 30
0.0
 10
13.8912344994
 20
-3.3914419077
 30
0.0
 10
13.8564260246
 20
-3.342667197
 30
0.0
 10
13.8314267142
 20
-3.3099321608
 30
0.0
  0
LINE
  5
530
100
AcDbEntity
  8
RACCORDO
100
AcDbLine
 62
250
  6
CONTINUOUS
 10
14.1692044085
 20
-3.2965265532
 30
0.0
 11
14.166524867
 21
-3.298677242
 31
0.0
  0
SPLINE
  5
531
100
AcDbEntity
  8
RACCORDO
100
AcDbSpline
 62
250
  6
CONTINUOUS
 70
0
 71
3
 72
16
 73
12
 74
0
 42
0.0000001
 43
0.0000001
 44
0.0000000001
 40
0.0
 40
0.0
 40
0.0
 40
0.0
 40
0.0290724654
 40
0.0625903398
 40
0.1008021756
 40
0.143757125
 40
0.2436969348
 40
0.3617658217
 40
0.4971246875
 40
0.6490133983
 40
1.0
 40
1.0
 40
1.0
 40
1.0
 10
14.166524867
 20
-3.298677242
 30
0.0
 10
14.1638808549
 20
-3.3006287125
 30
0.0
 10
14.1577379003
 20
-3.3042220156
 30
0.0
 10
14.1471752998
 20
-3.308551593
 30
0.0
 10
14.134728308
 20
-3.3122363117
 30
0.0
 10
14.1147010536
 20
-3.316543473
 30
0.0
 10
14.0853718715
 20
-3.3201401522
 30
0.0
 10
14.0454611912
 20
-3.3221341085
 30
0.0
 10
13.9996295519
 20
-3.3220504383
 30
0.0
 10
13.9275348615
 20
-3.3191242683
 30
0.0
 10
13.8708779864
 20
-3.314126231
 30
0.0
 10
13.8314267416
 20
-3.3099320966
 30
0.0
  0
SPLINE
  5
532
100
AcDbEntity
  8
DRAFT
100
AcDbSpline
 62
7
  6
CONTINUOUS
 70
0
 71
3
 72
9
 73
5
 74
0
 42
0.0000001
 43
0.0000001
 44
0.0000000001
 40
0.0
 40
0.0
 40
0.0
 40
0.0
 40
0.2558777912
 40
1.0
 40
1.0
 40
1.0
 40
1.0
 10
13.7921278968
 20
23.6297159732
 30
0.0
 10
13.8228122298
 20
23.6193370242
 30
0.0
 10
13.9421757916
 20
23.5771659824
 30
0.0
 10
14.0592602995
 20
23.5284528717
 30
0.0
 10
14.1444368008
 20
23.4882207747
 30
0.0
  0
SPLINE
  5
533
100
AcDbEntity
  8
DRAFT
100
AcDbSpline
 62
7
  6
CONTINUOUS
 70
0
 71
3
 72
9
 73
5
 74
0
 42
0.0000001
 43
0.0000001
 44
0.0000000001
 40
0.0
 40
0.0
 40
0.0
 40
0.0
 40
0.2558777912
 40
1.0
 40
1.0
 40
1.0
 40
1.0
 10
5.1910314318
 20
27.0841102207
 30
0.0
 10
5.2217157648
 20
27.0737312718
 30
0.0
 10
5.3410793266
 20
27.0315602299
 30
0.0
 10
5.4581638344
 20
26.9828471192
 30
0.0
 10
5.5433403357
 20
26.9426150222
 30
0.0
  0
SPLINE
  5
534
100
AcDbEntity
  8
RACCORDO
100
AcDbSpline
 62
250
  6
CONTINUOUS
 70
0
 71
3
 72
12
 73
8
 74
0
 42
0.0000001
 43
0.0000001
 44
0.0000000001
 40
0.0
 40
0.0
 40
0.0
 40
0.0
 40
0.2780636136
 40
0.5335238476
 40
0.7713963687
 40
0.8863278647
 40
1.0
 40
1.0
 40
1.0
 40
1.0
 10
13.8314267142
 20
-11.0404886918
 30
0.0
 10
13.8578856843
 20
-11.0179889882
 30
0.0
 10
13.9055489325
 20
-10.9708689197
 30
0.0
 10
13.9606534022
 20
-10.8910722321
 30
0.0
 10
13.9893124536
 20
-10.8198523848
 30
0.0
 10
14.0005270062
 20
-10.7625412412
 30
0.0
 10
14.0023890066
 20
-10.7339512073
 30
0.0
 10
14.0023890734
 20
-10.719752788
 30
0.0
  0
SPLINE
  5
535
100
AcDbEntity
  8
RACCORDO
100
AcDbSpline
 62
7
  6
CONTINUOUS
 70
0
 71
3
 72
44
 73
40
 74
0
 42
0.0000001
 43
0.0000001
 44
0.0000000001
 40
0.0
 40
0.0
 40
0.0
 40
0.0
 40
0.0730869472
 40
0.1468373665
 40
0.2214226379
 40
0.259103615
 40
0.2970984806
 40
0.3354630149
 40
0.374270143
 40
0.4136171945
 40
0.4536357611
 40
0.4944994998
 40
0.515310816
 40
0.5363931998
 40
0.5577111851
 40
0.5790861305
 40
0.5999411182
 40
0.6097958973
 40
0.6189723935
 40
0.6272861765
 40
0.6346786282
 40
0.6412366622
 40
0.6471380443
 40
0.6525797484
 40
0.6577322092
 40
0.6676238242
 40
0.6774420418
 40
0.687423076
 40
0.6976431918
 40
0.7081149234
 40
0.7297535298
 40
0.7521999832
 40
0.7753056618
 40
0.7989527987
 40
0.8230509829
 40
0.847530466
 40
0.8974239982
 40
0.9483181682
 40
1.0
 40
1.0
 40
1.0
 40
1.0
 10
19.3510504257
 20
17.2078021051
 30
0.0
 10
19.4033387643
 20
17.2706585815
 30
0.0
 10
19.5078229629
 20
17.3974158921
 30
0.0
 10
19.6632724198
 20
17.5902771386
 30
0.0
 10
19.7916189681
 20
17.7540913542
 30
0.0
 10
19.8934855085
 20
17.887808786
 30
0.0
 10
19.9697087162
 20
17.9901144578
 30
0.0
 10
20.0453668957
 20
18.0944008047
 30
0.0
 10
20.1202737497
 20
18.2010842745
 30
0.0
 10
20.194137839
 20
18.3107365558
 30
0.0
 10
20.2664542812
 20
18.42415984
 30
0.0
 10
20.3242945342
 20
18.5221681992
 30
0.0
 10
20.368250595
 20
18.6036623941
 30
0.0
 10
20.3997360368
 20
18.6669984539
 30
0.0
 10
20.4286592625
 20
18.7322555785
 30
0.0
 10
20.4534170375
 20
18.7989488874
 30
0.0
 10
20.4687016822
 20
18.855338693
 30
0.0
 10
20.4755524067
 20
18.8994801722
 30
0.0
 10
20.4774089084
 20
18.9300701044
 30
0.0
 10
20.4758769041
 20
18.9579394847
 30
0.0
 10
20.4710592704
 20
18.9824709868
 30
0.0
 10
20.4633553754
 20
19.0034084352
 30
0.0
 10
20.4533166087
 20
19.0208488943
 30
0.0
 10
20.4414908639
 20
19.0351253436
 30
0.0
 10
20.4242092802
 20
19.050299962
 30
0.0
 10
20.3996532529
 20
19.0640209631
 30
0.0
 10
20.3677598575
 20
19.0738442724
 30
0.0
 10
20.334466427
 20
19.0788800174
 30
0.0
 10
20.3001333471
 20
19.0803028797
 30
0.0
 10
20.2527785506
 20
19.0783925018
 30
0.0
 10
20.192180215
 20
19.070174577
 30
0.0
 10
20.1186927369
 20
19.0541730558
 30
0.0
 10
20.0440681301
 20
19.0334640732
 30
0.0
 10
19.9686277715
 20
19.0091003338
 30
0.0
 10
19.8925705403
 20
18.9817992886
 30
0.0
 10
19.7898749681
 20
18.9419161044
 30
0.0
 10
19.6608788498
 20
18.8870759354
 30
0.0
 10
19.5059334924
 20
18.8157302517
 30
0.0
 10
19.4027913842
 20
18.7654155033
 30
0.0
 10
19.3510503588
 20
18.7396168397
 30
0.0
  0
SPLINE
  5
536
100
AcDbEntity
  8
RACCORDO
100
AcDbSpline
 62
7
  6
CONTINUOUS
 70
0
 71
3
 72
44
 73
40
 74
0
 42
0.0000001
 43
0.0000001
 44
0.0000000001
 40
0.0
 40
0.0
 40
0.0
 40
0.0
 40
0.0730869477
 40
0.1468373676
 40
0.2214226396
 40
0.259103617
 40
0.297098483
 40
0.3354630176
 40
0.3742701461
 40
0.4136171978
 40
0.4536357647
 40
0.4944995034
 40
0.5153108196
 40
0.5363932033
 40
0.5577111883
 40
0.5790861337
 40
0.5999411221
 40
0.6097959022
 40
0.6189724001
 40
0.6272861853
 40
0.6346786394
 40
0.6412366756
 40
0.6471380595
 40
0.6525797649
 40
0.6577322265
 40
0.667623842
 40
0.6774420593
 40
0.6874230929
 40
0.6976432079
 40
0.7081149387
 40
0.7297535433
 40
0.7521999951
 40
0.7753056722
 40
0.7989528076
 40
0.8230509905
 40
0.8475304724
 40
0.8974240023
 40
0.9483181701
 40
1.0
 40
1.0
 40
1.0
 40
1.0
 10
19.3510507148
 20
5.9035042413
 30
0.0
 10
19.403339039
 20
5.9663607027
 30
0.0
 10
19.507823209
 20
6.0931179829
 30
0.0
 10
19.6632726231
 20
6.2859791834
 30
0.0
 10
19.7916191359
 20
6.4497933599
 30
0.0
 10
19.8934856479
 20
6.5835107599
 30
0.0
 10
19.9697088343
 20
6.6858164074
 30
0.0
 10
20.0453669927
 20
6.7901027295
 30
0.0
 10
20.1202738256
 20
6.8967861738
 30
0.0
 10
20.1941378938
 20
7.0064384286
 30
0.0
 10
20.2664543154
 20
7.1198616851
 30
0.0
 10
20.3242945519
 20
7.2178700197
 30
0.0
 10
20.3682506004
 20
7.2993641937
 30
0.0
 10
20.3997360337
 20
7.3627002367
 30
0.0
 10
20.4286592523
 20
7.4279573435
 30
0.0
 10
20.4534170233
 20
7.4946506346
 30
0.0
 10
20.468701669
 20
7.5510404258
 30
0.0
 10
20.4755523993
 20
7.5951818962
 30
0.0
 10
20.4774089077
 20
7.6257718254
 30
0.0
 10
20.475876912
 20
7.6536412058
 30
0.0
 10
20.4710592882
 20
7.6781727109
 30
0.0
 10
20.4633554031
 20
7.6991101642
 30
0.0
 10
20.4533166457
 20
7.7165506295
 30
0.0
 10
20.4414909096
 20
7.7308270852
 30
0.0
 10
20.424209337
 20
7.7460017116
 30
0.0
 10
20.3996533221
 20
7.7597227227
 30
0.0
 10
20.3677599393
 20
7.7695460428
 30
0.0
 10
20.334466521
 20
7.7745817973
 30
0.0
 10
20.3001334529
 20
7.7760046685
 30
0.0
 10
20.2527786721
 20
7.7740943021
 30
0.0
 10
20.1921803554
 20
7.7658763907
 30
0.0
 10
20.1186928996
 20
7.749874885
 30
0.0
 10
20.0440683149
 20
7.7291659175
 30
0.0
 10
19.9686279782
 20
7.7048021931
 30
0.0
 10
19.8925707689
 20
7.6775011628
 30
0.0
 10
19.7898752257
 20
7.6376179985
 30
0.0
 10
19.6608791435
 20
7.5827778542
 30
0.0
 10
19.5059338294
 20
7.5114322002
 30
0.0
 10
19.4027917499
 20
7.4611174717
 30
0.0
 10
19.3510507389
 20
7.435318818
 30
0.0
  0
SPLINE
  5
537
100
AcDbEntity
  8
0
100
AcDbSpline
 62
7
  6
CONTINUOUS
 70
0
 71
3
 72
14
 73
10
 74
0
 42
0.0000001
 43
0.0000001
 44
0.0000000001
 40
0.0
 40
0.0
 40
0.0
 40
0.0
 40
0.2784358968
 40
0.4089408116
 40
0.5341960539
 40
0.654929158
 40
0.7720588939
 40
0.8866755158
 40
1.0
 40
1.0
 40
1.0
 40
1.0
 10
0.9786060505
 20
26.9874958123
 30
0.0
 10
0.9038650761
 20
26.9251200673
 30
0.0
 10
0.8005983626
 20
26.8248375945
 30
0.0
 10
0.686562397
 20
26.6766110501
 30
0.0
 10
0.6172956857
 20
26.5643675384
 30
0.0
 10
0.5629274534
 20
26.4493330988
 30
0.0
 10
0.5238084823
 20
26.3321370746
 30
0.0
 10
0.5002189303
 20
26.21349706
 30
0.0
 10
0.4949531435
 20
26.1337049847
 30
0.0
 10
0.4949531847
 20
26.0940833173
 30
0.0
  0
SPLINE
  5
538
100
AcDbEntity
  8
0
100
AcDbSpline
 62
7
  6
CONTINUOUS
 70
0
 71
3
 72
14
 73
10
 74
0
 42
0.0000001
 43
0.0000001
 44
0.0000000001
 40
0.0
 40
0.0
 40
0.0
 40
0.0
 40
0.2784358968
 40
0.4089408116
 40
0.5341960539
 40
0.654929158
 40
0.7720588939
 40
0.8866755158
 40
1.0
 40
1.0
 40
1.0
 40
1.0
 10
9.5797025156
 20
23.5331015647
 30
0.0
 10
9.5049615411
 20
23.4707258198
 30
0.0
 10
9.4016948277
 20
23.370443347
 30
0.0
 10
9.287658862
 20
23.2222168025
 30
0.0
 10
9.2183921507
 20
23.1099732908
 30
0.0
 10
9.1640239185
 20
22.9949388512
 30
0.0
 10
9.1249049474
 20
22.8777428271
 30
0.0
 10
9.1013153954
 20
22.7591028124
 30
0.0
 10
9.0960496086
 20
22.6793107372
 30
0.0
 10
9.0960496498
 20
22.6396890698
 30
0.0
  0
SPLINE
  5
539
100
AcDbEntity
  8
RACCORDO
100
AcDbSpline
 62
250
  6
CONTINUOUS
 70
0
 71
3
 72
12
 73
8
 74
0
 42
0.0000001
 43
0.0000001
 44
0.0000000001
 40
0.0
 40
0.0
 40
0.0
 40
0.0
 40
0.2780637804
 40
0.5335239366
 40
0.7713963098
 40
0.8863277928
 40
1.0
 40
1.0
 40
1.0
 40
1.0
 10
19.2564241313
 20
1.4419737492
 30
0.0
 10
19.282883396
 20
1.4644737034
 30
0.0
 10
19.3305471225
 20
1.5115943221
 30
0.0
 10
19.3856519112
 20
1.5913920449
 30
0.0
 10
19.4143107791
 20
1.6626128314
 30
0.0
 10
19.4255248983
 20
1.7199246793
 30
0.0
 10
19.427386595
 20
1.7485150454
 30
0.0
 10
19.4273864905
 20
1.7627136233
 30
0.0
  0
SPLINE
  5
53A
100
AcDbEntity
  8
RACCORDO
100
AcDbSpline
 62
250
  6
CONTINUOUS
 70
0
 71
3
 72
12
 73
8
 74
0
 42
0.0000001
 43
0.0000001
 44
0.0000000001
 40
0.0
 40
0.0
 40
0.0
 40
0.0
 40
0.278071131
 40
0.5335334291
 40
0.7714029917
 40
0.8863315261
 40
1.0
 40
1.0
 40
1.0
 40
1.0
 10
19.2564241313
 20
22.3328341846
 30
0.0
 10
19.2828823778
 20
22.3553281245
 30
0.0
 10
19.3305444585
 20
22.4024368311
 30
0.0
 10
19.3856486095
 20
22.4822171541
 30
0.0
 10
19.4143083296
 20
22.5534239563
 30
0.0
 10
19.4255236561
 20
22.6107248158
 30
0.0
 10
19.4273861516
 20
22.639309695
 30
0.0
 10
19.4273864904
 20
22.6535055216
 30
0.0
  0
SPLINE
  5
53B
100
AcDbEntity
  8
RACCORDO
100
AcDbSpline
 62
250
  6
CONTINUOUS
 70
0
 71
3
 72
12
 73
8
 74
0
 42
0.0000001
 43
0.0000001
 44
0.0000000001
 40
0.0
 40
0.0
 40
0.0
 40
0.0
 40
0.2664615724
 40
0.5246849286
 40
0.6493485524
 40
0.7703680227
 40
1.0
 40
1.0
 40
1.0
 40
1.0
 10
18.7766490566
 20
23.6838021631
 30
0.0
 10
18.8519912864
 20
23.5787878515
 30
0.0
 10
18.9868851678
 20
23.3619424727
 30
0.0
 10
19.115257602
 20
23.0730694933
 30
0.0
 10
19.1884837426
 20
22.8396117526
 30
0.0
 10
19.2397531345
 20
22.6146993763
 30
0.0
 10
19.2566982878
 20
22.4442155784
 30
0.0
 10
19.2564241313
 20
22.3328341846
 30
0.0
  0
SPLINE
  5
53C
100
AcDbEntity
  8
RACCORDO
100
AcDbSpline
 62
250
  6
CONTINUOUS
 70
0
 71
3
 72
11
 73
7
 74
0
 42
0.0000001
 43
0.0000001
 44
0.0000000001
 40
0.0
 40
0.0
 40
0.0
 40
0.0
 40
0.2589315034
 40
0.5151189531
 40
0.7635549669
 40
1.0
 40
1.0
 40
1.0
 40
1.0
 10
18.6193048634
 20
23.9043393315
 30
0.0
 10
18.5816404981
 20
23.9577238972
 30
0.0
 10
18.4994611644
 20
24.0590116097
 30
0.0
 10
18.358748067
 20
24.1914570369
 30
0.0
 10
18.2055979486
 20
24.2998036356
 30
0.0
 10
18.0956418605
 20
24.354875804
 30
0.0
 10
18.0401651173
 20
24.3768224473
 30
0.0
  0
SPLINE
  5
53D
100
AcDbEntity
  8
RACCORDO
100
AcDbSpline
 62
250
  6
CONTINUOUS
 70
0
 71
3
 72
13
 73
9
 74
0
 42
0.0000001
 43
0.0000001
 44
0.0000000001
 40
0.0
 40
0.0
 40
0.0
 40
0.0
 40
0.2776507672
 40
0.5347561365
 40
0.6563104682
 40
0.7737891565
 40
0.888010616
 40
1.0
 40
1.0
 40
1.0
 40
1.0
 10
2.8066224279
 20
30.4949566235
 30
0.0
 10
2.7552260245
 20
30.5159112231
 30
0.0
 10
2.6526393018
 20
30.5482377741
 30
0.0
 10
2.5210977203
 20
30.5624172883
 30
0.0
 10
2.4219349925
 20
30.5555100509
 30
0.0
 10
2.352449968
 20
30.5418240969
 30
0.0
 10
2.2872076198
 20
30.5196486097
 30
0.0
 10
2.2466822077
 20
30.4991785377
 30
0.0
 10
2.2274826818
 20
30.4876646646
 30
0.0
  0
SPLINE
  5
53E
100
AcDbEntity
  8
RACCORDO
100
AcDbSpline
 62
250
  6
CONTINUOUS
 70
0
 71
3
 72
13
 73
9
 74
0
 42
0.0000001
 43
0.0000001
 44
0.0000000001
 40
0.0
 40
0.0
 40
0.0
 40
0.0
 40
0.3001634061
 40
0.5617267909
 40
0.6797810352
 40
0.7908742643
 40
0.8968543046
 40
1.0
 40
1.0
 40
1.0
 40
1.0
 10
2.8066224279
 20
30.4949566235
 30
0.0
 10
2.8371184135
 20
30.5191772559
 30
0.0
 10
2.8974213632
 20
30.5607115488
 30
0.0
 10
2.9789530642
 20
30.5964373007
 30
0.0
 10
3.0413224824
 20
30.6101451104
 30
0.0
 10
3.0848736695
 20
30.6132019244
 30
0.0
 10
3.1264299067
 20
30.609309134
 30
0.0
 10
3.1527421579
 20
30.6020066232
 30
0.0
 10
3.1652561052
 20
30.597264182
 30
0.0
  0
SPLINE
  5
53F
100
AcDbEntity
  8
RACCORDO
100
AcDbSpline
 62
250
  6
CONTINUOUS
 70
0
 71
3
 72
20
 73
16
 74
0
 42
0.0000001
 43
0.0000001
 44
0.0000000001
 40
0.0
 40
0.0
 40
0.0
 40
0.0
 40
0.140129337
 40
0.2594316615
 40
0.3542836929
 40
0.4267571309
 40
0.4828476443
 40
0.5293014939
 40
0.5715687938
 40
0.6130802109
 40
0.6555590835
 40
0.6996969019
 40
0.793357684
 40
0.8938140936
 40
1.0
 40
1.0
 40
1.0
 40
1.0
 10
19.2564241313
 20
17.0549758004
 30
0.0
 10
19.2646155695
 20
17.0657040725
 30
0.0
 10
19.2803448285
 20
17.0851543601
 30
0.0
 10
19.3041214455
 20
17.1097245232
 30
0.0
 10
19.3258557781
 20
17.1269358872
 30
0.0
 10
19.3451088412
 20
17.1369439123
 30
0.0
 10
19.3617998882
 20
17.1406579695
 30
0.0
 10
19.3759247493
 20
17.139266825
 30
0.0
 10
19.3875639556
 20
17.1341174478
 30
0.0
 10
19.3970797133
 20
17.1263676035
 30
0.0
 10
19.4048974454
 20
17.1167327536
 30
0.0
 10
19.4136110606
 20
17.1016506299
 30
0.0
 10
19.4212848485
 20
17.0798315798
 30
0.0
 10
19.4263634687
 20
17.0512773086
 30
0.0
 10
19.4273834357
 20
17.0313458944
 30
0.0
 10
19.427386555
 20
17.0211175205
 30
0.0
  0
SPLINE
  5
540
100
AcDbEntity
  8
RACCORDO
100
AcDbSpline
 62
7
  6
CONTINUOUS
 70
0
 71
3
 72
9
 73
5
 74
0
 42
0.0000001
 43
0.0000001
 44
0.0000000001
 40
0.0
 40
0.0
 40
0.0
 40
0.0
 40
0.5194500432
 40
1.0
 40
1.0
 40
1.0
 40
1.0
 10
19.2564241313
 20
17.0549755903
 30
0.0
 10
19.2696211651
 20
17.0832345616
 30
0.0
 10
19.2977380388
 20
17.1364502444
 30
0.0
 10
19.3325983563
 20
17.1856206379
 30
0.0
 10
19.3510504257
 20
17.2078021051
 30
0.0
  0
SPLINE
  5
541
100
AcDbEntity
  8
RACCORDO
100
AcDbSpline
 62
250
  6
CONTINUOUS
 70
0
 71
3
 72
19
 73
15
 74
0
 42
0.0000001
 43
0.0000001
 44
0.0000000001
 40
0.0
 40
0.0
 40
0.0
 40
0.0
 40
0.1287145825
 40
0.2272525113
 40
0.303204633
 40
0.36364565
 40
0.4143163299
 40
0.4595861247
 40
0.502607731
 40
0.5455476763
 40
0.6361348127
 40
0.7392147816
 40
0.8592719412
 40
1.0
 40
1.0
 40
1.0
 40
1.0
 10
19.3510504257
 20
17.2078021051
 30
0.0
 10
19.3610890656
 20
17.2155784688
 30
0.0
 10
19.3796096359
 20
17.2283716392
 30
0.0
 10
19.4068079172
 20
17.2412088643
 30
0.0
 10
19.4295390024
 20
17.246656899
 30
0.0
 10
19.4482088025
 20
17.2464217673
 30
0.0
 10
19.4631815692
 20
17.2418859259
 30
0.0
 10
19.4747409368
 20
17.2341606435
 30
0.0
 10
19.4831621497
 20
17.2241198484
 30
0.0
 10
19.4906935916
 20
17.2082374339
 30
0.0
 10
19.4931723784
 20
17.1843701733
 30
0.0
 10
19.486099988
 20
17.153849572
 30
0.0
 10
19.4696102056
 20
17.1216538475
 30
0.0
 10
19.4536552124
 20
17.1012937604
 30
0.0
 10
19.444365694
 20
17.0909760477
 30
0.0
  0
SPLINE
  5
542
100
AcDbEntity
  8
0
100
AcDbSpline
 62
7
  6
CONTINUOUS
 70
0
 71
3
 72
21
 73
17
 74
0
 42
0.0000001
 43
0.0000001
 44
0.0000000001
 40
0.0
 40
0.0
 40
0.0
 40
0.0
 40
0.1385046272
 40
0.2081576666
 40
0.2775135915
 40
0.4137059221
 40
0.4799668729
 40
0.5446054251
 40
0.6074358658
 40
0.6683582134
 40
0.7273678029
 40
0.7845587498
 40
0.8401200912
 40
0.8943219184
 40
0.9474938255
 40
1.0
 40
1.0
 40
1.0
 40
1.0
 10
19.4274019262
 20
21.9745865602
 30
0.0
 10
19.5845101
 20
21.8379711865
 30
0.0
 10
19.8053058913
 20
21.614105583
 30
0.0
 10
20.0639821573
 20
21.2864871361
 30
0.0
 10
20.2957871668
 20
20.9435003872
 30
0.0
 10
20.4863189225
 20
20.579846826
 30
0.0
 10
20.6282930936
 20
20.2039002312
 30
0.0
 10
20.7077918614
 20
19.9233448414
 30
0.0
 10
20.760137455
 20
19.6446195943
 30
0.0
 10
20.7844284377
 20
19.3704982267
 30
0.0
 10
20.7799144672
 20
19.1037533897
 30
0.0
 10
20.7459983897
 20
18.8471803143
 30
0.0
 10
20.6822803528
 20
18.6037160316
 30
0.0
 10
20.5886568123
 20
18.3765170036
 30
0.0
 10
20.4656236864
 20
18.1690886945
 30
0.0
 10
20.3642877281
 20
18.0457748606
 30
0.0
 10
20.3095332687
 20
17.9889296006
 30
0.0
  0
SPLINE
  5
543
100
AcDbEntity
  8
0
100
AcDbSpline
 62
7
  6
CONTINUOUS
 70
0
 71
3
 72
21
 73
17
 74
0
 42
0.0000001
 43
0.0000001
 44
0.0000000001
 40
0.0
 40
0.0
 40
0.0
 40
0.0
 40
0.1385046272
 40
0.2081576666
 40
0.2775135915
 40
0.4137059221
 40
0.4799668729
 40
0.5446054251
 40
0.6074358658
 40
0.6683582134
 40
0.7273678029
 40
0.7845587498
 40
0.8401200912
 40
0.8943219184
 40
0.9474938255
 40
1.0
 40
1.0
 40
1.0
 40
1.0
 10
19.4274019262
 20
10.6702883491
 30
0.0
 10
19.5845101
 20
10.5336729753
 30
0.0
 10
19.8053058913
 20
10.3098073718
 30
0.0
 10
20.0639821573
 20
9.9821889249
 30
0.0
 10
20.2957871668
 20
9.639202176
 30
0.0
 10
20.4863189225
 20
9.2755486148
 30
0.0
 10
20.6282930936
 20
8.89960202
 30
0.0
 10
20.7077918614
 20
8.6190466302
 30
0.0
 10
20.760137455
 20
8.3403213832
 30
0.0
 10
20.7844284377
 20
8.0662000155
 30
0.0
 10
20.7799144672
 20
7.7994551785
 30
0.0
 10
20.7459983897
 20
7.5428821031
 30
0.0
 10
20.6822803528
 20
7.2994178204
 30
0.0
 10
20.5886568123
 20
7.0722187924
 30
0.0
 10
20.4656236864
 20
6.8647904833
 30
0.0
 10
20.3642877281
 20
6.7414766494
 30
0.0
 10
20.3095332687
 20
6.6846313894
 30
0.0
  0
SPLINE
  5
544
100
AcDbEntity
  8
0
100
AcDbSpline
 62
7
  6
CONTINUOUS
 70
0
 71
3
 72
9
 73
5
 74
0
 42
0.0000001
 43
0.0000001
 44
0.0000000001
 40
0.0
 40
0.0
 40
0.0
 40
0.0
 40
0.2494321817
 40
1.0
 40
1.0
 40
1.0
 40
1.0
 10
-1.4989148742
 20
22.3469832646
 30
0.0
 10
-1.5021159791
 20
22.3445321924
 30
0.0
 10
-1.514637594
 20
22.3343032651
 30
0.0
 10
-1.5258343773
 20
22.3224641542
 30
0.0
 10
-1.5333255877
 20
22.3129213749
 30
0.0
  0
SPLINE
  5
545
100
AcDbEntity
  8
0
100
AcDbSpline
 62
250
  6
CONTINUOUS
 70
0
 71
3
 72
21
 73
17
 74
0
 42
0.0000001
 43
0.0000001
 44
0.0000000001
 40
0.0
 40
0.0
 40
0.0
 40
0.0
 40
0.1429631434
 40
0.2147110971
 40
0.2860120481
 40
0.3564327555
 40
0.4255642039
 40
0.4930342334
 40
0.5585207115
 40
0.6217654556
 40
0.6825890476
 40
0.7965585564
 40
0.8500588547
 40
0.9015043176
 40
0.9513074934
 40
1.0
 40
1.0
 40
1.0
 40
1.0
 10
19.4274466624
 20
21.8708722678
 30
0.0
 10
19.5812211457
 20
21.7302837576
 30
0.0
 10
19.7970562491
 20
21.5017434293
 30
0.0
 10
20.0495860537
 20
21.1698242907
 30
0.0
 10
20.2198989013
 20
20.9091175658
 30
0.0
 10
20.3688615814
 20
20.6400241418
 30
0.0
 10
20.4948220886
 20
20.3655327838
 30
0.0
 10
20.5963531226
 20
20.0887182551
 30
0.0
 10
20.6723069948
 20
19.812699823
 30
0.0
 10
20.7218071856
 20
19.540460036
 30
0.0
 10
20.7511388375
 20
19.1944828571
 30
0.0
 10
20.7286011308
 20
18.8590940835
 30
0.0
 10
20.6478028021
 20
18.5496454089
 30
0.0
 10
20.5618675967
 20
18.3403056372
 30
0.0
 10
20.4502575484
 20
18.1515460738
 30
0.0
 10
20.3587638674
 20
18.0400404456
 30
0.0
 10
20.3095332091
 20
17.9889296664
 30
0.0
  0
LINE
  5
546
100
AcDbEntity
  8
0
100
AcDbLine
 62
250
  6
CONTINUOUS
 10
14.1692044085
 20
-3.2965265532
 30
0.0
 11
14.166524867
 21
-3.298677242
 31
0.0
  0
SPLINE
  5
547
100
AcDbEntity
  8
0
100
AcDbSpline
 62
250
  6
CONTINUOUS
 70
0
 71
3
 72
16
 73
12
 74
0
 42
0.0000001
 43
0.0000001
 44
0.0000000001
 40
0.0
 40
0.0
 40
0.0
 40
0.0
 40
0.0290724654
 40
0.0625903398
 40
0.1008021756
 40
0.143757125
 40
0.2436969348
 40
0.3617658217
 40
0.4971246875
 40
0.6490133983
 40
1.0
 40
1.0
 40
1.0
 40
1.0
 10
14.166524867
 20
-3.298677242
 30
0.0
 10
14.1638808549
 20
-3.3006287125
 30
0.0
 10
14.1577379003
 20
-3.3042220156
 30
0.0
 10
14.1471752998
 20
-3.308551593
 30
0.0
 10
14.134728308
 20
-3.3122363117
 30
0.0
 10
14.1147010536
 20
-3.316543473
 30
0.0
 10
14.0853718715
 20
-3.3201401522
 30
0.0
 10
14.0454611912
 20
-3.3221341085
 30
0.0
 10
13.9996295519
 20
-3.3220504383
 30
0.0
 10
13.9275348615
 20
-3.3191242683
 30
0.0
 10
13.8708779864
 20
-3.314126231
 30
0.0
 10
13.8314267416
 20
-3.3099320966
 30
0.0
  0
SPLINE
  5
548
100
AcDbEntity
  8
0
100
AcDbSpline
 62
250
  6
CONTINUOUS
 70
0
 71
3
 72
14
 73
10
 74
0
 42
0.0000001
 43
0.0000001
 44
0.0000000001
 40
0.0
 40
0.0
 40
0.0
 40
0.0
 40
0.0903882315
 40
0.1902432866
 40
0.3001172714
 40
0.4201484117
 40
0.5502838311
 40
0.690398337
 40
1.0
 40
1.0
 40
1.0
 40
1.0
 10
14.0023895085
 20
-3.6644021107
 30
0.0
 10
14.0023901744
 20
-3.6523769277
 30
0.0
 10
13.9999145418
 20
-3.6270515416
 30
0.0
 10
13.9905334244
 20
-3.5881568852
 30
0.0
 10
13.9757773297
 20
-3.5467710321
 30
0.0
 10
13.9559846198
 20
-3.5031057902
 30
0.0
 10
13.931422479
 20
-3.4573231077
 30
0.0
 10
13.8912344994
 20
-3.3914419077
 30
0.0
 10
13.8564260246
 20
-3.342667197
 30
0.0
 10
13.8314267142
 20
-3.3099321608
 30
0.0
  0
SPLINE
  5
549
100
AcDbEntity
  8
0
100
AcDbSpline
 62
250
  6
CONTINUOUS
 70
0
 71
3
 72
12
 73
8
 74
0
 42
0.0000001
 43
0.0000001
 44
0.0000000001
 40
0.0
 40
0.0
 40
0.0
 40
0.0
 40
0.2780636136
 40
0.5335238476
 40
0.7713963687
 40
0.8863278647
 40
1.0
 40
1.0
 40
1.0
 40
1.0
 10
13.8314267142
 20
-11.0404886918
 30
0.0
 10
13.8578856843
 20
-11.0179889882
 30
0.0
 10
13.9055489325
 20
-10.9708689197
 30
0.0
 10
13.9606534022
 20
-10.8910722321
 30
0.0
 10
13.9893124536
 20
-10.8198523848
 30
0.0
 10
14.0005270062
 20
-10.7625412412
 30
0.0
 10
14.0023890066
 20
-10.7339512073
 30
0.0
 10
14.0023890734
 20
-10.719752788
 30
0.0
  0
SPLINE
  5
54A
100
AcDbEntity
  8
0
100
AcDbSpline
 62
250
  6
CONTINUOUS
 70
0
 71
3
 72
13
 73
9
 74
0
 42
0.0000001
 43
0.0000001
 44
0.0000000001
 40
0.0
 40
0.0
 40
0.0
 40
0.0
 40
0.1121539495
 40
0.2258527769
 40
0.3425108425
 40
0.4633083415
 40
0.7200615962
 40
1.0
 40
1.0
 40
1.0
 40
1.0
 10
-1.4750305055
 20
22.3652581915
 30
0.0
 10
-1.4654247752
 20
22.3726077302
 30
0.0
 10
-1.4448498729
 20
22.3858714035
 30
0.0
 10
-1.4108980642
 20
22.4007757539
 30
0.0
 10
-1.374177287
 20
22.41059557
 30
0.0
 10
-1.3210969161
 20
22.4169028375
 30
0.0
 10
-1.2496776579
 20
22.4109091677
 30
0.0
 10
-1.1940613197
 20
22.3933809518
 30
0.0
 10
-1.1661920436
 20
22.3817757749
 30
0.0
  0
SPLINE
  5
54B
100
AcDbEntity
  8
0
100
AcDbSpline
 62
250
  6
CONTINUOUS
 70
0
 71
3
 72
13
 73
9
 74
0
 42
0.0000001
 43
0.0000001
 44
0.0000000001
 40
0.0
 40
0.0
 40
0.0
 40
0.0
 40
0.1160030455
 40
0.2330700291
 40
0.352112674
 40
0.4739450261
 40
0.7282325841
 40
1.0
 40
1.0
 40
1.0
 40
1.0
 10
13.4778582364
 20
-11.9150111491
 30
0.0
 10
13.5063588957
 20
-11.8904734835
 30
0.0
 10
13.5605998562
 20
-11.8375363517
 30
0.0
 10
13.6320106738
 20
-11.7481308042
 30
0.0
 10
13.6931748197
 20
-11.6491857113
 30
0.0
 10
13.7614330424
 20
-11.5035461554
 30
0.0
 10
13.8182157478
 20
-11.2996419196
 30
0.0
 10
13.8316444911
 20
-11.1285956947
 30
0.0
 10
13.8314267142
 20
-11.0404886918
 30
0.0
  0
SPLINE
  5
54C
100
AcDbEntity
  8
0
100
AcDbSpline
 62
250
  6
CONTINUOUS
 70
0
 71
3
 72
19
 73
15
 74
0
 42
0.0000001
 43
0.0000001
 44
0.0000000001
 40
0.0
 40
0.0
 40
0.0
 40
0.0
 40
0.1284987563
 40
0.2267451687
 40
0.302393118
 40
0.3625632105
 40
0.4130223227
 40
0.4581492364
 40
0.5010945809
 40
0.54401667
 40
0.6347162434
 40
0.7380842048
 40
0.858607722
 40
1.0
 40
1.0
 40
1.0
 40
1.0
 10
19.3510507148
 20
5.9035042413
 30
0.0
 10
19.3611313717
 20
5.9113131799
 30
0.0
 10
19.3797227032
 20
5.9241492569
 30
0.0
 10
19.4070242856
 20
5.9369965484
 30
0.0
 10
19.4298211442
 20
5.9423988342
 30
0.0
 10
19.448523506
 20
5.9420820274
 30
0.0
 10
19.4634979046
 20
5.9374437233
 30
0.0
 10
19.4750301383
 20
5.9296068301
 30
0.0
 10
19.4833995301
 20
5.9194531728
 30
0.0
 10
19.490837026
 20
5.9034106637
 30
0.0
 10
19.493129673
 20
5.879345872
 30
0.0
 10
19.4857613289
 20
5.8486192928
 30
0.0
 10
19.4688872898
 20
5.81622523
 30
0.0
 10
19.4526434055
 20
5.7957574087
 30
0.0
 10
19.4431947437
 20
5.7853848824
 30
0.0
  0
LINE
  5
54D
100
AcDbEntity
  8
0
100
AcDbLine
 62
250
  6
CONTINUOUS
 10
19.4431947437
 20
5.7853848824
 30
0.0
 11
19.4423712773
 21
5.7844845447
 31
0.0
  0
SPLINE
  5
54E
100
AcDbEntity
  8
0
100
AcDbSpline
 62
7
  6
CONTINUOUS
 70
0
 71
3
 72
9
 73
5
 74
0
 42
0.0000001
 43
0.0000001
 44
0.0000000001
 40
0.0
 40
0.0
 40
0.0
 40
0.0
 40
0.5194501402
 40
1.0
 40
1.0
 40
1.0
 40
1.0
 10
19.2564241313
 20
5.7506773877
 30
0.0
 10
19.269621162
 20
5.7789364515
 30
0.0
 10
19.2977381611
 20
5.8321522432
 30
0.0
 10
19.332598604
 20
5.8813227237
 30
0.0
 10
19.3510507148
 20
5.9035042413
 30
0.0
  0
SPLINE
  5
54F
100
AcDbEntity
  8
0
100
AcDbSpline
 62
250
  6
CONTINUOUS
 70
0
 71
3
 72
20
 73
16
 74
0
 42
0.0000001
 43
0.0000001
 44
0.0000000001
 40
0.0
 40
0.0
 40
0.0
 40
0.0
 40
0.1401305736
 40
0.2594279253
 40
0.3542680736
 40
0.4267270015
 40
0.4828053521
 40
0.529252614
 40
0.5715183873
 40
0.6130319702
 40
0.655515033
 40
0.6996583429
 40
0.7933318978
 40
0.8938015301
 40
1.0
 40
1.0
 40
1.0
 40
1.0
 10
19.2564241313
 20
5.7506775892
 30
0.0
 10
19.2646173659
 20
5.7614082211
 30
0.0
 10
19.2803498335
 20
5.7808622504
 30
0.0
 10
19.3041312593
 20
5.8054357616
 30
0.0
 10
19.3258693737
 20
5.8226470383
 30
0.0
 10
19.3451250809
 20
5.832652152
 30
0.0
 10
19.3618177915
 20
5.8363613358
 30
0.0
 10
19.3759432124
 20
5.8349641259
 30
0.0
 10
19.3875818759
 20
5.8298083028
 30
0.0
 10
19.3970965336
 20
5.8220523823
 30
0.0
 10
19.4049131393
 20
5.8124118325
 30
0.0
 10
19.4136248579
 20
5.7973218971
 30
0.0
 10
19.4212954985
 20
5.7754934267
 30
0.0
 10
19.4263692322
 20
5.746928332
 30
0.0
 10
19.4273856524
 20
5.7269900331
 30
0.0
 10
19.4273865568
 20
5.7167582913
 30
0.0
  0
SPLINE
  5
550
100
AcDbEntity
  8
0
100
AcDbSpline
 62
7
  6
CONTINUOUS
 70
0
 71
3
 72
11
 73
7
 74
0
 42
0.0000001
 43
0.0000001
 44
0.0000000001
 40
0.0
 40
0.0
 40
0.0
 40
0.0
 40
0.2835627636
 40
0.5394295271
 40
0.7744804968
 40
1.0
 40
1.0
 40
1.0
 40
1.0
 10
19.3510507389
 20
7.435318818
 30
0.0
 10
19.3427526669
 20
7.4311813054
 30
0.0
 10
19.3263941337
 20
7.42434933
 30
0.0
 10
19.30142949
 20
7.4190789913
 30
0.0
 10
19.2777609363
 20
7.4197893492
 30
0.0
 10
19.2631725483
 20
7.4242386548
 30
0.0
 10
19.2564241313
 20
7.4272119507
 30
0.0
  0
SPLINE
  5
551
100
AcDbEntity
  8
0
100
AcDbSpline
 62
250
  6
CONTINUOUS
 70
0
 71
3
 72
17
 73
13
 74
0
 42
0.0000001
 43
0.0000001
 44
0.0000000001
 40
0.0
 40
0.0
 40
0.0
 40
0.0
 40
0.2571947565
 40
0.3855111691
 40
0.5134042746
 40
0.6405196907
 40
0.7035744355
 40
0.7660565442
 40
0.8276511868
 40
0.8878307119
 40
0.9457199634
 40
1.0
 40
1.0
 40
1.0
 40
1.0
 10
19.4275333006
 20
8.7178606963
 30
0.0
 10
19.4525192431
 20
8.6085017078
 30
0.0
 10
19.4788014426
 20
8.4417768792
 30
0.0
 10
19.4924584215
 20
8.2181755382
 30
0.0
 10
19.4919402151
 20
8.050862556
 30
0.0
 10
19.4821260385
 20
7.9123526018
 30
0.0
 10
19.4679062142
 20
7.8030499577
 30
0.0
 10
19.4538146999
 20
7.7226253347
 30
0.0
 10
19.4358864192
 20
7.6442445113
 30
0.0
 10
19.41361452
 20
7.5690412603
 30
0.0
 10
19.3864329529
 20
7.4988598346
 30
0.0
 10
19.3637122553
 20
7.4553230897
 30
0.0
 10
19.3510507389
 20
7.435318818
 30
0.0
  0
SPLINE
  5
552
100
AcDbEntity
  8
0
100
AcDbSpline
 62
7
  6
CONTINUOUS
 70
0
 71
3
 72
11
 73
7
 74
0
 42
0.0000001
 43
0.0000001
 44
0.0000000001
 40
0.0
 40
0.0
 40
0.0
 40
0.0
 40
0.2835624479
 40
0.5394292431
 40
0.774480377
 40
1.0
 40
1.0
 40
1.0
 40
1.0
 10
19.3510503588
 20
18.7396168397
 30
0.0
 10
19.3427523317
 20
18.735479349
 30
0.0
 10
19.3263938346
 20
18.7286474961
 30
0.0
 10
19.3014293135
 20
18.7233772088
 30
0.0
 10
19.2777608273
 20
18.7240875068
 30
0.0
 10
19.2631725438
 20
18.7285369332
 30
0.0
 10
19.2564241313
 20
18.7315101709
 30
0.0
  0
SPLINE
  5
553
100
AcDbEntity
  8
0
100
AcDbSpline
 62
250
  6
CONTINUOUS
 70
0
 71
3
 72
17
 73
13
 74
0
 42
0.0000001
 43
0.0000001
 44
0.0000000001
 40
0.0
 40
0.0
 40
0.0
 40
0.0
 40
0.257194928
 40
0.3855113728
 40
0.5134046227
 40
0.6405201936
 40
0.7035748842
 40
0.7660569593
 40
0.8276515635
 40
0.8878307223
 40
0.9457197716
 40
1.0
 40
1.0
 40
1.0
 40
1.0
 10
19.427519425
 20
20.0222195919
 30
0.0
 10
19.4525094998
 20
19.9128559737
 30
0.0
 10
19.4787964415
 20
19.7461235397
 30
0.0
 10
19.4924573996
 20
19.5225115678
 30
0.0
 10
19.491941485
 20
19.3551904319
 30
0.0
 10
19.4821282624
 20
19.2166736401
 30
0.0
 10
19.4679087095
 20
19.1073656223
 30
0.0
 10
19.4538173873
 20
19.0269370642
 30
0.0
 10
19.4358890169
 20
18.9485525069
 30
0.0
 10
19.4136165842
 20
18.8733457973
 30
0.0
 10
19.3864345655
 20
18.8031608367
 30
0.0
 10
19.3637124879
 20
18.7596221612
 30
0.0
 10
19.3510503588
 20
18.7396168397
 30
0.0
  0
SPLINE
  5
554
100
AcDbEntity
  8
0
100
AcDbSpline
 62
250
  6
CONTINUOUS
 70
0
 71
3
 72
19
 73
15
 74
0
 42
0.0000001
 43
0.0000001
 44
0.0000000001
 40
0.0
 40
0.0
 40
0.0
 40
0.0
 40
0.1287145825
 40
0.2272525113
 40
0.303204633
 40
0.36364565
 40
0.4143163299
 40
0.4595861247
 40
0.502607731
 40
0.5455476763
 40
0.6361348127
 40
0.7392147816
 40
0.8592719412
 40
1.0
 40
1.0
 40
1.0
 40
1.0
 10
19.3510504257
 20
17.2078021051
 30
0.0
 10
19.3610890656
 20
17.2155784688
 30
0.0
 10
19.3796096359
 20
17.2283716392
 30
0.0
 10
19.4068079172
 20
17.2412088643
 30
0.0
 10
19.4295390024
 20
17.246656899
 30
0.0
 10
19.4482088025
 20
17.2464217673
 30
0.0
 10
19.4631815692
 20
17.2418859259
 30
0.0
 10
19.4747409368
 20
17.2341606435
 30
0.0
 10
19.4831621497
 20
17.2241198484
 30
0.0
 10
19.4906935916
 20
17.2082374339
 30
0.0
 10
19.4931723784
 20
17.1843701733
 30
0.0
 10
19.486099988
 20
17.153849572
 30
0.0
 10
19.4696102056
 20
17.1216538475
 30
0.0
 10
19.4536552124
 20
17.1012937604
 30
0.0
 10
19.444365694
 20
17.0909760477
 30
0.0
  0
SPLINE
  5
555
100
AcDbEntity
  8
0
100
AcDbSpline
 62
7
  6
CONTINUOUS
 70
0
 71
3
 72
9
 73
5
 74
0
 42
0.0000001
 43
0.0000001
 44
0.0000000001
 40
0.0
 40
0.0
 40
0.0
 40
0.0
 40
0.5194500432
 40
1.0
 40
1.0
 40
1.0
 40
1.0
 10
19.2564241313
 20
17.0549755903
 30
0.0
 10
19.2696211651
 20
17.0832345616
 30
0.0
 10
19.2977380388
 20
17.1364502444
 30
0.0
 10
19.3325983563
 20
17.1856206379
 30
0.0
 10
19.3510504257
 20
17.2078021051
 30
0.0
  0
SPLINE
  5
556
100
AcDbEntity
  8
0
100
AcDbSpline
 62
250
  6
CONTINUOUS
 70
0
 71
3
 72
20
 73
16
 74
0
 42
0.0000001
 43
0.0000001
 44
0.0000000001
 40
0.0
 40
0.0
 40
0.0
 40
0.0
 40
0.140129337
 40
0.2594316615
 40
0.3542836929
 40
0.4267571309
 40
0.4828476443
 40
0.5293014939
 40
0.5715687938
 40
0.6130802109
 40
0.6555590835
 40
0.6996969019
 40
0.793357684
 40
0.8938140936
 40
1.0
 40
1.0
 40
1.0
 40
1.0
 10
19.2564241313
 20
17.0549758004
 30
0.0
 10
19.2646155695
 20
17.0657040725
 30
0.0
 10
19.2803448285
 20
17.0851543601
 30
0.0
 10
19.3041214455
 20
17.1097245232
 30
0.0
 10
19.3258557781
 20
17.1269358872
 30
0.0
 10
19.3451088412
 20
17.1369439123
 30
0.0
 10
19.3617998882
 20
17.1406579695
 30
0.0
 10
19.3759247493
 20
17.139266825
 30
0.0
 10
19.3875639556
 20
17.1341174478
 30
0.0
 10
19.3970797133
 20
17.1263676035
 30
0.0
 10
19.4048974454
 20
17.1167327536
 30
0.0
 10
19.4136110606
 20
17.1016506299
 30
0.0
 10
19.4212848485
 20
17.0798315798
 30
0.0
 10
19.4263634687
 20
17.0512773086
 30
0.0
 10
19.4273834357
 20
17.0313458944
 30
0.0
 10
19.427386555
 20
17.0211175205
 30
0.0
  0
SPLINE
  5
557
100
AcDbEntity
  8
0
100
AcDbSpline
 62
250
  6
CONTINUOUS
 70
0
 71
3
 72
11
 73
7
 74
0
 42
0.0000001
 43
0.0000001
 44
0.0000000001
 40
0.0
 40
0.0
 40
0.0
 40
0.0
 40
0.3010721724
 40
0.5628959546
 40
0.7913839478
 40
1.0
 40
1.0
 40
1.0
 40
1.0
 10
-0.2688393793
 20
22.6034806245
 30
0.0
 10
-0.2626629663
 20
22.6083860783
 30
0.0
 10
-0.2504447625
 20
22.6167842324
 30
0.0
 10
-0.2312696961
 20
22.6250973292
 30
0.0
 10
-0.2129088629
 20
22.6278890994
 30
0.0
 10
-0.2013753947
 20
22.6256631679
 30
0.0
 10
-0.1963038208
 20
22.6236263929
 30
0.0
  0
SPLINE
  5
558
100
AcDbEntity
  8
0
100
AcDbSpline
 62
7
  6
CONTINUOUS
 70
0
 71
3
 72
12
 73
8
 74
0
 42
0.0000001
 43
0.0000001
 44
0.0000000001
 40
0.0
 40
0.0
 40
0.0
 40
0.0
 40
0.2874837286
 40
0.5484513869
 40
0.7836862103
 40
0.8936453002
 40
1.0
 40
1.0
 40
1.0
 40
1.0
 10
-1.198655589
 20
22.3590855835
 30
0.0
 10
-1.2249443743
 20
22.3692040181
 30
0.0
 10
-1.2766317647
 20
22.3849291131
 30
0.0
 10
-1.3533771028
 20
22.3937912797
 30
0.0
 10
-1.4131214437
 20
22.3871841485
 30
0.0
 10
-1.4552124838
 20
22.3731097456
 30
0.0
 10
-1.4741691556
 20
22.3634028165
 30
0.0
 10
-1.4830342486
 20
22.3579247898
 30
0.0
  0
SPLINE
  5
559
100
AcDbEntity
  8
0
100
AcDbSpline
 62
250
  6
CONTINUOUS
 70
0
 71
3
 72
19
 73
15
 74
0
 42
0.0000001
 43
0.0000001
 44
0.0000000001
 40
0.0
 40
0.0
 40
0.0
 40
0.0
 40
0.0519297422
 40
0.1038830558
 40
0.1569467384
 40
0.211753167
 40
0.3277314153
 40
0.4527477495
 40
0.5860269329
 40
0.7254154743
 40
0.796209318
 40
0.866556549
 40
0.9350815123
 40
1.0
 40
1.0
 40
1.0
 40
1.0
 10
-1.1661920436
 20
22.3817757749
 30
0.0
 10
-1.1529040348
 20
22.3919429193
 30
0.0
 10
-1.126859802
 20
22.4129731391
 30
0.0
 10
-1.0873791134
 20
22.4445719894
 30
0.0
 10
-1.0458967837
 20
22.4751216294
 30
0.0
 10
-0.9854778586
 20
22.5145750864
 30
0.0
 10
-0.9007752378
 20
22.5588795409
 30
0.0
 10
-0.7873852816
 20
22.6008283492
 30
0.0
 10
-0.6623749461
 20
22.6303054105
 30
0.0
 10
-0.5519699932
 20
22.642070235
 30
0.0
 10
-0.4615073903
 20
22.6419103476
 30
0.0
 10
-0.3941014137
 20
22.6361723294
 30
0.0
 10
-0.3294279088
 20
22.6241880932
 30
0.0
 10
-0.2882488599
 20
22.6112759106
 30
0.0
 10
-0.2688393793
 20
22.6034806245
 30
0.0
  0
SPLINE
  5
55A
100
AcDbEntity
  8
0
100
AcDbSpline
 62
7
  6
CONTINUOUS
 70
0
 71
3
 72
9
 73
5
 74
0
 42
0.0000001
 43
0.0000001
 44
0.0000000001
 40
0.0
 40
0.0
 40
0.0
 40
0.0
 40
0.2558777912
 40
1.0
 40
1.0
 40
1.0
 40
1.0
 10
13.7921278968
 20
23.6297159732
 30
0.0
 10
13.8228122298
 20
23.6193370242
 30
0.0
 10
13.9421757916
 20
23.5771659824
 30
0.0
 10
14.0592602995
 20
23.5284528717
 30
0.0
 10
14.1444368008
 20
23.4882207747
 30
0.0
  0
SPLINE
  5
55B
100
AcDbEntity
  8
0
100
AcDbSpline
 62
7
  6
CONTINUOUS
 70
0
 71
3
 72
9
 73
5
 74
0
 42
0.0000001
 43
0.0000001
 44
0.0000000001
 40
0.0
 40
0.0
 40
0.0
 40
0.0
 40
0.2558777912
 40
1.0
 40
1.0
 40
1.0
 40
1.0
 10
5.1910314318
 20
27.0841102207
 30
0.0
 10
5.2217157648
 20
27.0737312718
 30
0.0
 10
5.3410793266
 20
27.0315602299
 30
0.0
 10
5.4581638344
 20
26.9828471192
 30
0.0
 10
5.5433403357
 20
26.9426150222
 30
0.0
  0
SPLINE
  5
55C
100
AcDbEntity
  8
0
100
AcDbSpline
 62
250
  6
CONTINUOUS
 70
0
 71
3
 72
21
 73
17
 74
0
 42
0.0000001
 43
0.0000001
 44
0.0000000001
 40
0.0
 40
0.0
 40
0.0
 40
0.0
 40
0.0486925066
 40
0.0984956824
 40
0.1499411452
 40
0.2034414435
 40
0.3174109522
 40
0.3782345443
 40
0.4414792883
 40
0.5069657665
 40
0.5744357959
 40
0.6435672444
 40
0.7139879518
 40
0.7852889028
 40
0.8570368565
 40
1.0
 40
1.0
 40
1.0
 40
1.0
 10
20.3095332038
 20
6.6846314497
 30
0.0
 10
20.3587638625
 20
6.7357422288
 30
0.0
 10
20.4502575442
 20
6.8472478566
 30
0.0
 10
20.5618675936
 20
7.0360074197
 30
0.0
 10
20.6478028
 20
7.2453471914
 30
0.0
 10
20.7286011299
 20
7.554795866
 30
0.0
 10
20.7511388375
 20
7.8901846401
 30
0.0
 10
20.7218071864
 20
8.2361618195
 30
0.0
 10
20.672306996
 20
8.5084016071
 30
0.0
 10
20.5963531241
 20
8.7844200397
 30
0.0
 10
20.4948220901
 20
9.0612345691
 30
0.0
 10
20.368861583
 20
9.3357259277
 30
0.0
 10
20.2198989028
 20
9.6048193524
 30
0.0
 10
20.0495860549
 20
9.8655260779
 30
0.0
 10
19.7970562499
 20
10.1974452174
 30
0.0
 10
19.5812211461
 20
10.4259855463
 30
0.0
 10
19.4274466624
 20
10.5665740567
 30
0.0
  0
SPLINE
  5
55D
100
AcDbEntity
  8
0
100
AcDbSpline
 62
250
  6
CONTINUOUS
 70
0
 71
3
 72
13
 73
9
 74
0
 42
0.0000001
 43
0.0000001
 44
0.0000000001
 40
0.0
 40
0.0
 40
0.0
 40
0.0
 40
0.1032502999
 40
0.2091423497
 40
0.3200555274
 40
0.4379290444
 40
0.6993755986
 40
1.0
 40
1.0
 40
1.0
 40
1.0
 10
18.402842901
 20
24.4775517739
 30
0.0
 10
18.3902741846
 20
24.4825996887
 30
0.0
 10
18.363803579
 20
24.4904760152
 30
0.0
 10
18.3218638774
 20
24.4950438694
 30
0.0
 10
18.2778482186
 20
24.4924636038
 30
0.0
 10
18.2147278285
 20
24.4791364214
 30
0.0
 10
18.1320966545
 20
24.4433264846
 30
0.0
 10
18.0710465482
 20
24.4013492094
 30
0.0
 10
18.0401651173
 20
24.3768224473
 30
0.0
  0
SPLINE
  5
55E
100
AcDbEntity
  8
0
100
AcDbSpline
 62
250
  6
CONTINUOUS
 70
0
 71
3
 72
13
 73
9
 74
0
 42
0.0000001
 43
0.0000001
 44
0.0000000001
 40
0.0
 40
0.0
 40
0.0
 40
0.0
 40
0.1161871236
 40
0.2333504771
 40
0.3524159507
 40
0.4742153869
 40
0.7283506745
 40
1.0
 40
1.0
 40
1.0
 40
1.0
 10
19.0862877993
 20
1.0104841683
 30
0.0
 10
19.1002217984
 20
1.0226893994
 30
0.0
 10
19.1267083593
 20
1.0489750878
 30
0.0
 10
19.1614917858
 20
1.0932671344
 30
0.0
 10
19.1911721177
 20
1.1421844879
 30
0.0
 10
19.2241192122
 20
1.2140634387
 30
0.0
 10
19.2511393691
 20
1.3145365127
 30
0.0
 10
19.2569453494
 20
1.3986680831
 30
0.0
 10
19.2564241313
 20
1.4419737492
 30
0.0
  0
SPLINE
  5
55F
100
AcDbEntity
  8
0
100
AcDbSpline
 62
250
  6
CONTINUOUS
 70
0
 71
3
 72
18
 73
14
 74
0
 42
0.0000001
 43
0.0000001
 44
0.0000000001
 40
0.0
 40
0.0
 40
0.0
 40
0.0
 40
0.0281382951
 40
0.0388369775
 40
0.0512541534
 40
0.0814663469
 40
0.1190495767
 40
0.164076552
 40
0.2165274346
 40
0.2763268044
 40
0.4174791789
 40
0.5862866843
 40
1.0
 40
1.0
 40
1.0
 40
1.0
 10
19.0015507348
 20
23.9098504409
 30
0.0
 10
19.0033103377
 20
23.9073840608
 30
0.0
 10
19.0024197726
 20
23.9023561762
 30
0.0
 10
19.0003416016
 20
23.8973888655
 30
0.0
 10
18.9976933115
 20
23.8922452765
 30
0.0
 10
18.9929776869
 20
23.8850161304
 30
0.0
 10
18.9855951516
 20
23.8753504252
 30
0.0
 10
18.976164813
 20
23.864277166
 30
0.0
 10
18.9647036134
 20
23.8518054189
 30
0.0
 10
18.9456634098
 20
23.8322591732
 30
0.0
 10
18.9168923876
 20
23.8047241491
 30
0.0
 10
18.8590302769
 20
23.7525287229
 30
0.0
 10
18.8110421789
 20
23.7121116056
 30
0.0
 10
18.7766490566
 20
23.6838021631
 30
0.0
  0
SPLINE
  5
560
100
AcDbEntity
  8
0
100
AcDbSpline
 62
250
  6
CONTINUOUS
 70
0
 71
3
 72
18
 73
14
 74
0
 42
0.0000001
 43
0.0000001
 44
0.0000000001
 40
0.0
 40
0.0
 40
0.0
 40
0.0
 40
0.0281382951
 40
0.0388369775
 40
0.0512541534
 40
0.0814663469
 40
0.1190495767
 40
0.164076552
 40
0.2165274346
 40
0.2763268045
 40
0.417479179
 40
0.5862866843
 40
1.0
 40
1.0
 40
1.0
 40
1.0
 10
18.8442065416
 20
24.1303876093
 30
0.0
 10
18.8459661445
 20
24.1279212293
 30
0.0
 10
18.8450755794
 20
24.1228933446
 30
0.0
 10
18.8429974084
 20
24.1179260339
 30
0.0
 10
18.8403491183
 20
24.1127824449
 30
0.0
 10
18.8356334937
 20
24.1055532988
 30
0.0
 10
18.8282509584
 20
24.0958875936
 30
0.0
 10
18.8188206198
 20
24.0848143345
 30
0.0
 10
18.8073594202
 20
24.0723425874
 30
0.0
 10
18.7883192166
 20
24.0527963416
 30
0.0
 10
18.7595481944
 20
24.0252613175
 30
0.0
 10
18.7016860837
 20
23.9730658913
 30
0.0
 10
18.6536979857
 20
23.932648774
 30
0.0
 10
18.6193048634
 20
23.9043393315
 30
0.0
  0
SPLINE
  5
561
100
AcDbEntity
  8
0
100
AcDbSpline
 62
250
  6
CONTINUOUS
 70
0
 71
3
 72
19
 73
15
 74
0
 42
0.0000001
 43
0.0000001
 44
0.0000000001
 40
0.0
 40
0.0
 40
0.0
 40
0.0
 40
0.1353038464
 40
0.2704844254
 40
0.4053619483
 40
0.5394918167
 40
0.6059774065
 40
0.6717292599
 40
0.7362567606
 40
0.7987232858
 40
0.8577850079
 40
0.9116558807
 40
0.9589311913
 40
1.0
 40
1.0
 40
1.0
 40
1.0
 10
19.4273865552
 20
19.4066358737
 30
0.0
 10
19.427383009
 20
19.3741615592
 30
0.0
 10
19.4262772018
 20
19.3092365445
 30
0.0
 10
19.4210512111
 20
19.2120617737
 30
0.0
 10
19.4118129144
 20
19.115463386
 30
0.0
 10
19.4001331721
 20
19.0357412619
 30
0.0
 10
19.3876862782
 20
18.9730200121
 30
0.0
 10
19.3765974196
 20
18.9270978194
 30
0.0
 10
19.3634308217
 20
18.8827230318
 30
0.0
 10
19.3478430341
 20
18.8408280586
 30
0.0
 10
19.3295199138
 20
18.8028348256
 30
0.0
 10
19.3082672356
 20
18.770592619
 30
0.0
 10
19.2841852509
 20
18.7460065718
 30
0.0
 10
19.2656041677
 20
18.7350996861
 30
0.0
 10
19.2564241313
 20
18.7315099607
 30
0.0
  0
SPLINE
  5
562
100
AcDbEntity
  8
0
100
AcDbSpline
 62
7
  6
CONTINUOUS
 70
0
 71
3
 72
44
 73
40
 74
0
 42
0.0000001
 43
0.0000001
 44
0.0000000001
 40
0.0
 40
0.0
 40
0.0
 40
0.0
 40
0.0730869472
 40
0.1468373665
 40
0.2214226379
 40
0.259103615
 40
0.2970984806
 40
0.3354630149
 40
0.374270143
 40
0.4136171945
 40
0.4536357611
 40
0.4944994998
 40
0.515310816
 40
0.5363931998
 40
0.5577111851
 40
0.5790861305
 40
0.5999411182
 40
0.6097958973
 40
0.6189723935
 40
0.6272861765
 40
0.6346786282
 40
0.6412366622
 40
0.6471380443
 40
0.6525797484
 40
0.6577322092
 40
0.6676238242
 40
0.6774420418
 40
0.687423076
 40
0.6976431918
 40
0.7081149234
 40
0.7297535298
 40
0.7521999832
 40
0.7753056618
 40
0.7989527987
 40
0.8230509829
 40
0.847530466
 40
0.8974239982
 40
0.9483181682
 40
1.0
 40
1.0
 40
1.0
 40
1.0
 10
19.3510504257
 20
17.2078021051
 30
0.0
 10
19.4033387643
 20
17.2706585815
 30
0.0
 10
19.5078229629
 20
17.3974158921
 30
0.0
 10
19.6632724198
 20
17.5902771386
 30
0.0
 10
19.7916189681
 20
17.7540913542
 30
0.0
 10
19.8934855085
 20
17.887808786
 30
0.0
 10
19.9697087162
 20
17.9901144578
 30
0.0
 10
20.0453668957
 20
18.0944008047
 30
0.0
 10
20.1202737497
 20
18.2010842745
 30
0.0
 10
20.194137839
 20
18.3107365558
 30
0.0
 10
20.2664542812
 20
18.42415984
 30
0.0
 10
20.3242945342
 20
18.5221681992
 30
0.0
 10
20.368250595
 20
18.6036623941
 30
0.0
 10
20.3997360368
 20
18.6669984539
 30
0.0
 10
20.4286592625
 20
18.7322555785
 30
0.0
 10
20.4534170375
 20
18.7989488874
 30
0.0
 10
20.4687016822
 20
18.855338693
 30
0.0
 10
20.4755524067
 20
18.8994801722
 30
0.0
 10
20.4774089084
 20
18.9300701044
 30
0.0
 10
20.4758769041
 20
18.9579394847
 30
0.0
 10
20.4710592704
 20
18.9824709868
 30
0.0
 10
20.4633553754
 20
19.0034084352
 30
0.0
 10
20.4533166087
 20
19.0208488943
 30
0.0
 10
20.4414908639
 20
19.0351253436
 30
0.0
 10
20.4242092802
 20
19.050299962
 30
0.0
 10
20.3996532529
 20
19.0640209631
 30
0.0
 10
20.3677598575
 20
19.0738442724
 30
0.0
 10
20.334466427
 20
19.0788800174
 30
0.0
 10
20.3001333471
 20
19.0803028797
 30
0.0
 10
20.2527785506
 20
19.0783925018
 30
0.0
 10
20.192180215
 20
19.070174577
 30
0.0
 10
20.1186927369
 20
19.0541730558
 30
0.0
 10
20.0440681301
 20
19.0334640732
 30
0.0
 10
19.9686277715
 20
19.0091003338
 30
0.0
 10
19.8925705403
 20
18.9817992886
 30
0.0
 10
19.7898749681
 20
18.9419161044
 30
0.0
 10
19.6608788498
 20
18.8870759354
 30
0.0
 10
19.5059334924
 20
18.8157302517
 30
0.0
 10
19.4027913842
 20
18.7654155033
 30
0.0
 10
19.3510503588
 20
18.7396168397
 30
0.0
  0
SPLINE
  5
563
100
AcDbEntity
  8
0
100
AcDbSpline
 62
7
  6
CONTINUOUS
 70
0
 71
3
 72
44
 73
40
 74
0
 42
0.0000001
 43
0.0000001
 44
0.0000000001
 40
0.0
 40
0.0
 40
0.0
 40
0.0
 40
0.0730869477
 40
0.1468373676
 40
0.2214226396
 40
0.259103617
 40
0.297098483
 40
0.3354630176
 40
0.3742701461
 40
0.4136171978
 40
0.4536357647
 40
0.4944995034
 40
0.5153108196
 40
0.5363932033
 40
0.5577111883
 40
0.5790861337
 40
0.5999411221
 40
0.6097959022
 40
0.6189724001
 40
0.6272861853
 40
0.6346786394
 40
0.6412366756
 40
0.6471380595
 40
0.6525797649
 40
0.6577322265
 40
0.667623842
 40
0.6774420593
 40
0.6874230929
 40
0.6976432079
 40
0.7081149387
 40
0.7297535433
 40
0.7521999951
 40
0.7753056722
 40
0.7989528076
 40
0.8230509905
 40
0.8475304724
 40
0.8974240023
 40
0.9483181701
 40
1.0
 40
1.0
 40
1.0
 40
1.0
 10
19.3510507148
 20
5.9035042413
 30
0.0
 10
19.403339039
 20
5.9663607027
 30
0.0
 10
19.507823209
 20
6.0931179829
 30
0.0
 10
19.6632726231
 20
6.2859791834
 30
0.0
 10
19.7916191359
 20
6.4497933599
 30
0.0
 10
19.8934856479
 20
6.5835107599
 30
0.0
 10
19.9697088343
 20
6.6858164074
 30
0.0
 10
20.0453669927
 20
6.7901027295
 30
0.0
 10
20.1202738256
 20
6.8967861738
 30
0.0
 10
20.1941378938
 20
7.0064384286
 30
0.0
 10
20.2664543154
 20
7.1198616851
 30
0.0
 10
20.3242945519
 20
7.2178700197
 30
0.0
 10
20.3682506004
 20
7.2993641937
 30
0.0
 10
20.3997360337
 20
7.3627002367
 30
0.0
 10
20.4286592523
 20
7.4279573435
 30
0.0
 10
20.4534170233
 20
7.4946506346
 30
0.0
 10
20.468701669
 20
7.5510404258
 30
0.0
 10
20.4755523993
 20
7.5951818962
 30
0.0
 10
20.4774089077
 20
7.6257718254
 30
0.0
 10
20.475876912
 20
7.6536412058
 30
0.0
 10
20.4710592882
 20
7.6781727109
 30
0.0
 10
20.4633554031
 20
7.6991101642
 30
0.0
 10
20.4533166457
 20
7.7165506295
 30
0.0
 10
20.4414909096
 20
7.7308270852
 30
0.0
 10
20.424209337
 20
7.7460017116
 30
0.0
 10
20.3996533221
 20
7.7597227227
 30
0.0
 10
20.3677599393
 20
7.7695460428
 30
0.0
 10
20.334466521
 20
7.7745817973
 30
0.0
 10
20.3001334529
 20
7.7760046685
 30
0.0
 10
20.2527786721
 20
7.7740943021
 30
0.0
 10
20.1921803554
 20
7.7658763907
 30
0.0
 10
20.1186928996
 20
7.749874885
 30
0.0
 10
20.0440683149
 20
7.7291659175
 30
0.0
 10
19.9686279782
 20
7.7048021931
 30
0.0
 10
19.8925707689
 20
7.6775011628
 30
0.0
 10
19.7898752257
 20
7.6376179985
 30
0.0
 10
19.6608791435
 20
7.5827778542
 30
0.0
 10
19.5059338294
 20
7.5114322002
 30
0.0
 10
19.4027917499
 20
7.4611174717
 30
0.0
 10
19.3510507389
 20
7.435318818
 30
0.0
  0
SPLINE
  5
564
100
AcDbEntity
  8
0
100
AcDbSpline
 62
250
  6
CONTINUOUS
 70
0
 71
3
 72
12
 73
8
 74
0
 42
0.0000001
 43
0.0000001
 44
0.0000000001
 40
0.0
 40
0.0
 40
0.0
 40
0.0
 40
0.2780637804
 40
0.5335239366
 40
0.7713963098
 40
0.8863277928
 40
1.0
 40
1.0
 40
1.0
 40
1.0
 10
19.2564241313
 20
1.4419737492
 30
0.0
 10
19.282883396
 20
1.4644737034
 30
0.0
 10
19.3305471225
 20
1.5115943221
 30
0.0
 10
19.3856519112
 20
1.5913920449
 30
0.0
 10
19.4143107791
 20
1.6626128314
 30
0.0
 10
19.4255248983
 20
1.7199246793
 30
0.0
 10
19.427386595
 20
1.7485150454
 30
0.0
 10
19.4273864905
 20
1.7627136233
 30
0.0
  0
SPLINE
  5
565
100
AcDbEntity
  8
0
100
AcDbSpline
 62
250
  6
CONTINUOUS
 70
0
 71
3
 72
12
 73
8
 74
0
 42
0.0000001
 43
0.0000001
 44
0.0000000001
 40
0.0
 40
0.0
 40
0.0
 40
0.0
 40
0.278071131
 40
0.5335334291
 40
0.7714029917
 40
0.8863315261
 40
1.0
 40
1.0
 40
1.0
 40
1.0
 10
19.2564241313
 20
22.3328341846
 30
0.0
 10
19.2828823778
 20
22.3553281245
 30
0.0
 10
19.3305444585
 20
22.4024368311
 30
0.0
 10
19.3856486095
 20
22.4822171541
 30
0.0
 10
19.4143083296
 20
22.5534239563
 30
0.0
 10
19.4255236561
 20
22.6107248158
 30
0.0
 10
19.4273861516
 20
22.639309695
 30
0.0
 10
19.4273864904
 20
22.6535055216
 30
0.0
  0
SPLINE
  5
566
100
AcDbEntity
  8
0
100
AcDbSpline
 62
250
  6
CONTINUOUS
 70
0
 71
3
 72
12
 73
8
 74
0
 42
0.0000001
 43
0.0000001
 44
0.0000000001
 40
0.0
 40
0.0
 40
0.0
 40
0.0
 40
0.2664615724
 40
0.5246849286
 40
0.6493485524
 40
0.7703680227
 40
1.0
 40
1.0
 40
1.0
 40
1.0
 10
18.7766490566
 20
23.6838021631
 30
0.0
 10
18.8519912864
 20
23.5787878515
 30
0.0
 10
18.9868851678
 20
23.3619424727
 30
0.0
 10
19.115257602
 20
23.0730694933
 30
0.0
 10
19.1884837426
 20
22.8396117526
 30
0.0
 10
19.2397531345
 20
22.6146993763
 30
0.0
 10
19.2566982878
 20
22.4442155784
 30
0.0
 10
19.2564241313
 20
22.3328341846
 30
0.0
  0
SPLINE
  5
567
100
AcDbEntity
  8
0
100
AcDbSpline
 62
250
  6
CONTINUOUS
 70
0
 71
3
 72
11
 73
7
 74
0
 42
0.0000001
 43
0.0000001
 44
0.0000000001
 40
0.0
 40
0.0
 40
0.0
 40
0.0
 40
0.2589315034
 40
0.5151189531
 40
0.7635549669
 40
1.0
 40
1.0
 40
1.0
 40
1.0
 10
18.6193048634
 20
23.9043393315
 30
0.0
 10
18.5816404981
 20
23.9577238972
 30
0.0
 10
18.4994611644
 20
24.0590116097
 30
0.0
 10
18.358748067
 20
24.1914570369
 30
0.0
 10
18.2055979486
 20
24.2998036356
 30
0.0
 10
18.0956418605
 20
24.354875804
 30
0.0
 10
18.0401651173
 20
24.3768224473
 30
0.0
  0
SPLINE
  5
568
100
AcDbEntity
  8
0
100
AcDbSpline
 62
250
  6
CONTINUOUS
 70
0
 71
3
 72
13
 73
9
 74
0
 42
0.0000001
 43
0.0000001
 44
0.0000000001
 40
0.0
 40
0.0
 40
0.0
 40
0.0
 40
0.3001634061
 40
0.5617267909
 40
0.6797810352
 40
0.7908742643
 40
0.8968543046
 40
1.0
 40
1.0
 40
1.0
 40
1.0
 10
2.8066224279
 20
30.4949566235
 30
0.0
 10
2.8371184135
 20
30.5191772559
 30
0.0
 10
2.8974213632
 20
30.5607115488
 30
0.0
 10
2.9789530642
 20
30.5964373007
 30
0.0
 10
3.0413224824
 20
30.6101451104
 30
0.0
 10
3.0848736695
 20
30.6132019244
 30
0.0
 10
3.1264299067
 20
30.609309134
 30
0.0
 10
3.1527421579
 20
30.6020066232
 30
0.0
 10
3.1652561052
 20
30.597264182
 30
0.0
  0
SPLINE
  5
569
100
AcDbEntity
  8
0
100
AcDbSpline
 62
250
  6
CONTINUOUS
 70
0
 71
3
 72
13
 73
9
 74
0
 42
0.0000001
 43
0.0000001
 44
0.0000000001
 40
0.0
 40
0.0
 40
0.0
 40
0.0
 40
0.2776507672
 40
0.5347561365
 40
0.6563104682
 40
0.7737891565
 40
0.888010616
 40
1.0
 40
1.0
 40
1.0
 40
1.0
 10
2.8066224279
 20
30.4949566235
 30
0.0
 10
2.7552260245
 20
30.5159112231
 30
0.0
 10
2.6526393018
 20
30.5482377741
 30
0.0
 10
2.5210977203
 20
30.5624172883
 30
0.0
 10
2.4219349925
 20
30.5555100509
 30
0.0
 10
2.352449968
 20
30.5418240969
 30
0.0
 10
2.2872076198
 20
30.5196486097
 30
0.0
 10
2.2466822077
 20
30.4991785377
 30
0.0
 10
2.2274826818
 20
30.4876646646
 30
0.0
  0
SPLINE
  5
56A
100
AcDbEntity
  8
0
100
AcDbSpline
 62
250
  6
CONTINUOUS
 70
0
 71
3
 72
19
 73
15
 74
0
 42
0.0000001
 43
0.0000001
 44
0.0000000001
 40
0.0
 40
0.0
 40
0.0
 40
0.0
 40
0.135300581
 40
0.2704782658
 40
0.4053535692
 40
0.5394819416
 40
0.6059675591
 40
0.6717204058
 40
0.7362495993
 40
0.7987175356
 40
0.8577815102
 40
0.9116550292
 40
0.9589317918
 40
1.0
 40
1.0
 40
1.0
 40
1.0
 10
19.4273865568
 20
8.102555149
 30
0.0
 10
19.4273856183
 20
8.0700718159
 30
0.0
 10
19.4262840199
 20
8.005128599
 30
0.0
 10
19.4210636275
 20
7.9079261297
 30
0.0
 10
19.411829466
 20
7.8112995093
 30
0.0
 10
19.4001519364
 20
7.7315533871
 30
0.0
 10
19.3877062487
 20
7.6688123416
 30
0.0
 10
19.376617766
 20
7.6228747212
 30
0.0
 10
19.3634508719
 20
7.5784844271
 30
0.0
 10
19.3478620336
 20
7.536574087
 30
0.0
 10
19.3295368503
 20
7.4985660498
 30
0.0
 10
19.3082806943
 20
7.4663103451
 30
0.0
 10
19.284193317
 20
7.4417137392
 30
0.0
 10
19.2656068084
 20
7.4308024958
 30
0.0
 10
19.2564241313
 20
7.4272117495
 30
0.0
  0
ELLIPSE
  5
56B
100
AcDbEntity
  8
RACCORDO
100
AcDbEllipse
 62
7
  6
CONTINUOUS
 10
3.1086380023
 20
-22.7349929612
 30
0.0
 11
-0.2986895364
 21
0.4014048671
 31
0.0
 40
0.6996338907
 41
-3.1775348962
 42
-2.423621663
  0
ELLIPSE
  5
56C
100
AcDbEntity
  8
RACCORDO
100
AcDbEllipse
 62
7
  6
CONTINUOUS
 10
4.4054343112
 20
13.6658711268
 30
0.0
 11
-0.2985879503
 21
0.4010570841
 31
0.0
 40
0.7005847088
 41
-2.4232048661
 42
-0.853093772
  0
ELLIPSE
  5
56D
100
AcDbEntity
  8
RACCORDO
100
AcDbEllipse
 62
7
  6
CONTINUOUS
 10
-12.7964778197
 20
20.5745468466
 30
0.0
 11
-0.2986895364
 21
0.4014048671
 31
0.0
 40
0.6996338907
 41
-0.8521401035
 42
0.0366699141
  0
ELLIPSE
  5
56E
100
AcDbEntity
  8
ASSI
100
AcDbEllipse
 62
7
  6
CONTINUOUS
 10
6.5043104134
 20
-20.2388156716
 30
0.0
 11
-0.3169109156
 21
0.3869345179
 31
0.0
 40
0.670809718
 41
-3.1189696451
 42
-2.4553554967
  0
ELLIPSE
  5
56F
100
AcDbEntity
  8
ASSI
100
AcDbEllipse
 62
7
  6
CONTINUOUS
 10
6.5043104134
 20
15.6113223842
 30
0.0
 11
-0.3168729153
 21
0.3867726039
 31
0.0
 40
0.6712104788
 41
-2.4552091068
 42
-0.8847173665
  0
ELLIPSE
  5
570
100
AcDbEntity
  8
ASSI
100
AcDbEllipse
 62
7
  6
CONTINUOUS
 10
3.3331495074
 20
15.3878976011
 30
0.0
 11
0.2497065505
 21
-0.0699912687
 31
0.0
 40
0.1730136333
 41
-2.1332048293
 42
-0.579861795
  0
ELLIPSE
  5
571
100
AcDbEntity
  8
ASSI
100
AcDbEllipse
 62
7
  6
CONTINUOUS
 10
3.1089138122
 20
15.4779557116
 30
0.0
 11
0.2497065505
 21
-0.0699912687
 31
0.0
 40
0.1730136333
 41
-3.0915361384
 42
-2.1332048293
  0
ELLIPSE
  5
572
100
AcDbEntity
  8
ASSI
100
AcDbEllipse
 62
7
  6
CONTINUOUS
 10
-11.2477568809
 20
21.2439183255
 30
0.0
 11
0.2497065505
 21
-0.0699912687
 31
0.0
 40
0.1730136333
 41
-2.1332048293
 42
-0.579861795
  0
ELLIPSE
  5
573
100
AcDbEntity
  8
ASSI
100
AcDbEllipse
 62
7
  6
CONTINUOUS
 10
-11.4719925761
 20
21.333976436
 30
0.0
 11
0.2497065505
 21
-0.0699912687
 31
0.0
 40
0.1730136333
 41
-3.0915361384
 42
-2.1332048293
  0
ELLIPSE
  5
574
100
AcDbEntity
  8
ASSI
100
AcDbEllipse
 62
7
  6
CONTINUOUS
 10
10.1311887394
 20
20.6041397312
 30
0.0
 11
0.3609241303
 21
0.9326631928
 31
0.0
 40
0.458075675
 41
-0.8693289497
 42
-0.6131850692
  0
ELLIPSE
  5
575
100
AcDbEntity
  8
ASSI
100
AcDbEllipse
 62
7
  6
CONTINUOUS
 10
-3.1095174154
 20
20.9513919728
 30
0.0
 11
-0.1625146743
 21
0.1900010152
 31
0.0
 40
0.6563705712
 41
-2.4691737663
 42
-0.898682026
  0
ELLIPSE
  5
576
100
AcDbEntity
  8
ASSI
100
AcDbEllipse
 62
7
  6
CONTINUOUS
 10
5.5814418378
 20
70.161879344
 30
0.0
 11
3.361656165
 21
94.6073573123
 31
0.0
 40
0.0058809093
 41
-2.1140604322
 42
-2.1103452444
  0
ELLIPSE
  5
577
100
AcDbEntity
  8
ASSI
100
AcDbEllipse
 62
7
  6
CONTINUOUS
 10
-1.3621617285
 20
20.2496145357
 30
0.0
 11
-0.1625608641
 21
0.1902058938
 31
0.0
 40
0.6553964474
 41
-0.8974928192
 42
-0.0349831269
  0
ELLIPSE
  5
578
100
AcDbEntity
  8
0
100
AcDbEllipse
 62
7
  6
CONTINUOUS
 10
2.3405145564
 20
14.9222000418
 30
0.0
 11
-0.1262532163
 21
0.1552737229
 31
0.0
 40
0.6729644614
 41
-2.450216817
 42
-0.8817019636
  0
ELLIPSE
  5
579
100
AcDbEntity
  8
ASSI
100
AcDbEllipse
 62
7
  6
CONTINUOUS
 10
-3.273738162
 20
25.9878605818
 30
0.0
 11
1.0048735789
 21
0.6729900454
 31
0.0
 40
0.0652557815
 41
-0.6453210963
 42
0.6518780575
  0
ELLIPSE
  5
57A
100
AcDbEntity
  8
ASSI
100
AcDbEllipse
 62
7
  6
CONTINUOUS
 10
-1.1493420866
 20
72.86511391
 30
0.0
 11
0.085060811
 21
95.923252966
 31
0.0
 40
0.0059773055
 41
-2.1143322489
 42
-2.1106170612
  0
ELLIPSE
  5
57B
100
AcDbEntity
  8
ASSI
100
AcDbEllipse
 62
7
  6
CONTINUOUS
 10
-0.7652098439
 20
22.6836523828
 30
0.0
 11
1.0000206696
 21
-0.0002005927
 31
0.0
 40
0.5739458546
 41
0.9605060513
 42
1.5082618869
  0
ELLIPSE
  5
57C
100
AcDbEntity
  8
ASSI
100
AcDbEllipse
 62
7
  6
CONTINUOUS
 10
-0.7689076785
 20
23.1667223433
 30
0.0
 11
1.0000607388
 21
-0.0124020305
 31
0.0
 40
0.5618375086
 41
1.7602321161
 42
2.5373774498
  0
ELLIPSE
  5
57D
100
AcDbEntity
  8
ASSI
100
AcDbEllipse
 62
7
  6
CONTINUOUS
 10
3.4238910957
 20
21.4827998312
 30
0.0
 11
1.000275873
 21
-0.0122714276
 31
0.0
 40
0.561597706
 41
5.6799562128
 42
6.4571015466
  0
ELLIPSE
  5
57E
100
AcDbEntity
  8
ASSI
100
AcDbEllipse
 62
7
  6
CONTINUOUS
 10
3.4029196333
 20
21.0096376165
 30
0.0
 11
1.0006647985
 21
0.0002002106
 31
0.0
 40
0.5732071936
 41
0.4116008068
 42
0.8294147643
  0
ELLIPSE
  5
57F
100
AcDbEntity
  8
ASSI
100
AcDbEllipse
 62
7
  6
CONTINUOUS
 10
2.6247417671
 20
15.9642519941
 30
0.0
 11
0.2499293568
 21
0.009771784
 31
0.0
 40
0.6081570881
 41
3.1179734409
 42
4.077750384
  0
ELLIPSE
  5
580
100
AcDbEntity
  8
ASSI
100
AcDbEllipse
 62
7
  6
CONTINUOUS
 10
4.9644744253
 20
15.0245626106
 30
0.0
 11
0.2499293568
 21
0.009771784
 31
0.0
 40
0.6081570881
 41
-2.2054349231
 42
-0.6520918889
  0
ELLIPSE
  5
581
100
AcDbEntity
  8
ASSI
100
AcDbEllipse
 62
7
  6
CONTINUOUS
 10
-9.6164319631
 20
20.880583335
 30
0.0
 11
0.2499293568
 21
0.009771784
 31
0.0
 40
0.6081570881
 41
-2.2054349231
 42
-0.6520918889
  0
ELLIPSE
  5
582
100
AcDbEntity
  8
ASSI
100
AcDbEllipse
 62
7
  6
CONTINUOUS
 10
-11.9561646213
 20
21.8202727186
 30
0.0
 11
0.2499293568
 21
0.009771784
 31
0.0
 40
0.6081570881
 41
3.1179733728
 42
4.077750384
  0
ELLIPSE
  5
583
100
AcDbEntity
  8
ASSI
100
AcDbEllipse
 62
7
  6
CONTINUOUS
 10
4.9644744253
 20
-22.0935121401
 30
0.0
 11
0.1997382246
 21
0.198664618
 31
0.0
 40
0.7567950566
 41
-2.8269058184
 42
-2.6358710258
  0
ELLIPSE
  5
584
100
AcDbEntity
  8
ASSI
100
AcDbEllipse
 62
7
  6
CONTINUOUS
 10
-2.1274809776
 20
18.5788323886
 30
0.0
 11
0.1999434854
 21
0.0078174272
 31
0.0
 40
0.6081570881
 41
3.1179734409
 42
4.077750384
  0
ELLIPSE
  5
585
100
AcDbEntity
  8
ASSI
100
AcDbEllipse
 62
7
  6
CONTINUOUS
 10
0.5261342432
 20
17.5130806916
 30
0.0
 11
0.1999434854
 21
0.0078174272
 31
0.0
 40
0.6081570881
 41
-2.2054349231
 42
-0.6520918889
  0
ELLIPSE
  5
586
100
AcDbEntity
  8
ASSI
100
AcDbEllipse
 62
7
  6
CONTINUOUS
 10
-3.7744139894
 20
19.2402778154
 30
0.0
 11
0.1999434854
 21
0.0078174272
 31
0.0
 40
0.6081570881
 41
-2.2054349231
 42
-0.6520918889
  0
ELLIPSE
  5
587
100
AcDbEntity
  8
ASSI
100
AcDbEllipse
 62
7
  6
CONTINUOUS
 10
-6.4280292101
 20
20.3060295124
 30
0.0
 11
0.1999434854
 21
0.0078174272
 31
0.0
 40
0.6081570881
 41
3.1179733728
 42
4.077750384
  0
ELLIPSE
  5
588
100
AcDbEntity
  8
ASSI
100
AcDbEllipse
 62
7
  6
CONTINUOUS
 10
-12.3308927024
 20
21.3748494924
 30
0.0
 11
-0.3166934957
 21
0.3878404978
 31
0.0
 40
0.6702436759
 41
-0.8821199121
 42
0.6873064187
  0
ELLIPSE
  5
589
100
AcDbEntity
  8
ASSI
100
AcDbEllipse
 62
7
  6
CONTINUOUS
 10
5.0524142882
 20
14.3933215075
 30
0.0
 11
-0.3165198962
 21
0.3871139532
 31
0.0
 40
0.6720475734
 41
-2.4536186814
 42
-0.8841923507
  0
ELLIPSE
  5
58A
100
AcDbEntity
  8
ASSI
100
AcDbEllipse
 62
7
  6
CONTINUOUS
 10
13.8123550904
 20
29.2634939523
 30
0.0
 11
14.7248791155
 21
12.5261813432
 31
0.0
 40
0.014760238
 41
-2.6573712457
 42
-2.4030044782
  0
ELLIPSE
  5
58B
100
AcDbEntity
  8
ASSI
100
AcDbEllipse
 62
7
  6
CONTINUOUS
 10
5.0524142882
 20
-21.3556240538
 30
0.0
 11
-0.3166934957
 21
0.3878404978
 31
0.0
 40
0.6702436759
 41
2.2594727415
 42
3.8288990723
  0
ELLIPSE
  5
58C
100
AcDbEntity
  8
0
100
AcDbEllipse
 62
7
  6
CONTINUOUS
 10
-9.6189929706
 20
19.7254078854
 30
0.0
 11
-0.1263730777
 21
0.1557547309
 31
0.0
 40
0.6699552963
 41
5.404898426
 42
6.9734132794
  0
ELLIPSE
  5
58D
100
AcDbEntity
  8
ASSI
100
AcDbEllipse
 62
7
  6
CONTINUOUS
 10
13.8123550904
 20
29.2634939523
 30
0.0
 11
14.7248791155
 21
12.5261813432
 31
0.0
 40
0.014760238
 41
2.2927721807
 42
2.6322600442
  0
ELLIPSE
  5
58E
100
AcDbEntity
  8
ASSI
100
AcDbEllipse
 62
7
  6
CONTINUOUS
 10
1.3260174616
 20
24.4262058738
 30
0.0
 11
0.2002557398
 21
-0.0380654797
 31
0.0
 40
0.3171006239
 41
-0.5548407301
 42
0.0670296361
  0
ELLIPSE
  5
58F
100
AcDbEntity
  8
ASSI
100
AcDbEllipse
 62
7
  6
CONTINUOUS
 10
10.3346706566
 20
20.5224168059
 30
0.0
 11
-0.7858461616
 21
1.1731918886
 31
0.0
 40
0.5191454105
 41
5.0253281695
 42
6.3225273233
  0
ELLIPSE
  5
590
100
AcDbEntity
  8
DRAFT
100
AcDbEllipse
 62
7
  6
CONTINUOUS
 10
3.2449530692
 20
25.7059528875
 30
0.0
 11
2.7499926927
 21
-0.0111285351
 31
0.0
 40
0.5696663125
 41
2.5417593552
 42
3.0226891475
  0
ELLIPSE
  5
591
100
AcDbEntity
  8
DRAFT
100
AcDbEllipse
 62
7
  6
CONTINUOUS
 10
11.8460495343
 20
22.2515586399
 30
0.0
 11
2.7499926927
 21
-0.0111285351
 31
0.0
 40
0.5696663125
 41
2.5417593552
 42
3.0226891475
  0
ELLIPSE
  5
592
100
AcDbEntity
  8
DRAFT
100
AcDbEllipse
 62
7
  6
CONTINUOUS
 10
12.3909471488
 20
22.2838092098
 30
0.0
 11
2.7583879104
 21
-0.0111625084
 31
0.0
 40
0.5696663125
 41
1.0629608177
 42
2.5330327089
  0
ELLIPSE
  5
593
100
AcDbEntity
  8
DRAFT
100
AcDbEllipse
 62
7
  6
CONTINUOUS
 10
12.3909471488
 20
22.2838092098
 30
0.0
 11
2.7583879104
 21
-0.0111625084
 31
0.0
 40
0.5696663125
 41
0.2901636124
 42
0.8615119465
  0
ELLIPSE
  5
594
100
AcDbEntity
  8
DRAFT
100
AcDbEllipse
 62
7
  6
CONTINUOUS
 10
12.3909471488
 20
24.1571040105
 30
0.0
 11
2.7583774253
 21
-1.0875888242
 31
0.0
 40
0.0091152074
 41
1.0415643967
 42
1.0642495048
  0
ELLIPSE
  5
595
100
AcDbEntity
  8
DRAFT
100
AcDbEllipse
 62
7
  6
CONTINUOUS
 10
3.7898506838
 20
25.7382034574
 30
0.0
 11
2.7583879104
 21
-0.0111625084
 31
0.0
 40
0.5696663125
 41
0.2901636124
 42
0.8615119465
  0
ELLIPSE
  5
596
100
AcDbEntity
  8
DRAFT
100
AcDbEllipse
 62
7
  6
CONTINUOUS
 10
3.7898506838
 20
25.7382034574
 30
0.0
 11
2.7583879104
 21
-0.0111625084
 31
0.0
 40
0.5696663125
 41
1.0629608177
 42
2.5330327089
  0
ELLIPSE
  5
597
100
AcDbEntity
  8
DRAFT
100
AcDbEllipse
 62
7
  6
CONTINUOUS
 10
3.7898506838
 20
27.611498258
 30
0.0
 11
2.7583774253
 21
-1.0875888242
 31
0.0
 40
0.0091152074
 41
0.8628006337
 42
0.8854857418
  0
ELLIPSE
  5
598
100
AcDbEntity
  8
DRAFT
100
AcDbEllipse
 62
7
  6
CONTINUOUS
 10
3.7898506838
 20
27.611498258
 30
0.0
 11
2.7583774253
 21
-1.0875888242
 31
0.0
 40
0.0091152074
 41
1.0415643967
 42
1.0642495048
  0
ELLIPSE
  5
599
100
AcDbEntity
  8
DRAFT
100
AcDbEllipse
 62
7
  6
CONTINUOUS
 10
12.3909471488
 20
24.1571040105
 30
0.0
 11
2.7583774253
 21
-1.0875888242
 31
0.0
 40
0.0091152074
 41
0.8628006337
 42
0.8854857418
  0
ELLIPSE
  5
59A
100
AcDbEntity
  8
RACCORDO
100
AcDbEllipse
 62
7
  6
CONTINUOUS
 10
16.9403869828
 20
23.98727055
 30
0.0
 11
0.7426163521
 21
0.7780442769
 31
0.0
 40
0.1249403664
 41
0.049987108
 42
0.7397086271
  0
ELLIPSE
  5
59B
100
AcDbEntity
  8
RACCORDO
100
AcDbEllipse
 62
7
  6
CONTINUOUS
 10
8.3392905178
 20
27.4416647976
 30
0.0
 11
0.7426163521
 21
0.7780442769
 31
0.0
 40
0.1249403664
 41
0.049987108
 42
0.7397086271
  0
ELLIPSE
  5
59C
100
AcDbEntity
  8
RACCORDO
100
AcDbEllipse
 62
7
  6
CONTINUOUS
 10
12.4254346583
 20
25.8005771908
 30
0.0
 11
0.3667674849
 21
0.9303298023
 31
0.0
 40
0.4639756799
 41
-0.8664843406
 42
-0.734926305
  0
ELLIPSE
  5
59D
100
AcDbEntity
  8
RACCORDO
100
AcDbEllipse
 62
7
  6
CONTINUOUS
 10
3.8243381933
 20
29.2549714383
 30
0.0
 11
0.3667674849
 21
0.9303298023
 31
0.0
 40
0.4639756799
 41
-0.8664843406
 42
-0.734926305
  0
ELLIPSE
  5
59E
100
AcDbEntity
  8
0
100
AcDbEllipse
 62
7
  6
CONTINUOUS
 10
3.2258639794
 20
26.8622354535
 30
0.0
 11
3.3022389943
 21
-0.03944562
 31
0.0
 40
0.561818812
 41
2.5360631738
 42
5.6803583678
  0
ELLIPSE
  5
59F
100
AcDbEntity
  8
RACCORDO
100
AcDbEllipse
 62
7
  6
CONTINUOUS
 10
-2.1630850609
 20
21.2092309243
 30
0.0
 11
1.0020693637
 21
1.127212572
 31
0.0
 40
0.2768210239
 41
0.0990902864
 42
0.1035950892
  0
ELLIPSE
  5
5A0
100
AcDbEntity
  8
RACCORDO
100
AcDbEllipse
 62
7
  6
CONTINUOUS
 10
5.8632699657
 20
-15.8316844854
 30
0.0
 11
-1.2677684437
 21
1.5472787173
 31
0.0
 40
0.6709103902
 41
-2.642391107
 42
-2.6219244942
  0
ELLIPSE
  5
5A1
100
AcDbEntity
  8
0
100
AcDbEllipse
 62
7
  6
CONTINUOUS
 10
11.8269604444
 20
23.407841206
 30
0.0
 11
3.3022389943
 21
-0.03944562
 31
0.0
 40
0.561818812
 41
2.5360631738
 42
5.6803583678
  0
ELLIPSE
  5
5A2
100
AcDbEntity
  8
RACCORDO
100
AcDbEllipse
 62
7
  6
CONTINUOUS
 10
12.4874764492
 20
25.7756598088
 30
0.0
 11
-0.3047210096
 21
1.0986358117
 31
0.0
 40
0.6117276799
 41
5.1139705116
 42
6.5357555103
  0
ELLIPSE
  5
5A3
100
AcDbEntity
  8
RACCORDO
100
AcDbEllipse
 62
7
  6
CONTINUOUS
 10
3.8863799842
 20
29.2300540564
 30
0.0
 11
-0.3047210096
 21
1.0986358117
 31
0.0
 40
0.6117276799
 41
5.1139705116
 42
6.5357555103
  0
ELLIPSE
  5
5A4
100
AcDbEntity
  8
RACCORDO
100
AcDbEllipse
 62
7
  6
CONTINUOUS
 10
5.8632699657
 20
13.1195188658
 30
0.0
 11
1.2677055941
 21
-1.5470103314
 31
0.0
 40
0.6710763966
 41
7.0562762252
 42
7.1562782268
  0
ELLIPSE
  5
5A5
100
AcDbEntity
  8
RACCORDO
100
AcDbEllipse
 62
7
  6
CONTINUOUS
 10
5.8632699657
 20
13.1195188658
 30
0.0
 11
1.2677055941
 21
-1.5470103314
 31
0.0
 40
0.6710763966
 41
1.3397846773
 42
1.4714494955
  0
ELLIPSE
  5
5A6
100
AcDbEntity
  8
DRAFT
100
AcDbEllipse
 62
7
  6
CONTINUOUS
 10
3.7898506838
 20
26.1477794795
 30
0.0
 11
2.7583879104
 21
-0.0111625084
 31
0.0
 40
0.5696663125
 41
0.0792068312
 42
2.5330327089
  0
ELLIPSE
  5
5A7
100
AcDbEntity
  8
DRAFT
100
AcDbEllipse
 62
7
  6
CONTINUOUS
 10
12.3909471488
 20
22.693385232
 30
0.0
 11
2.7583879104
 21
-0.0111625084
 31
0.0
 40
0.5696663125
 41
0.0792068312
 42
2.5330327089
  0
ELLIPSE
  5
5A8
100
AcDbEntity
  8
0
100
AcDbEllipse
 62
7
  6
CONTINUOUS
 10
12.3909471488
 20
24.1571040105
 30
0.0
 11
2.7583774253
 21
-1.0875888242
 31
0.0
 40
0.0091152074
 41
1.0415643967
 42
1.0642495048
  0
ELLIPSE
  5
5A9
100
AcDbEntity
  8
0
100
AcDbEllipse
 62
7
  6
CONTINUOUS
 10
3.7898506838
 20
27.611498258
 30
0.0
 11
2.7583774253
 21
-1.0875888242
 31
0.0
 40
0.0091152074
 41
0.8628006337
 42
0.8854857418
  0
ELLIPSE
  5
5AA
100
AcDbEntity
  8
0
100
AcDbEllipse
 62
7
  6
CONTINUOUS
 10
3.7898506838
 20
27.611498258
 30
0.0
 11
2.7583774253
 21
-1.0875888242
 31
0.0
 40
0.0091152074
 41
1.0415643967
 42
1.0642495048
  0
ELLIPSE
  5
5AB
100
AcDbEntity
  8
0
100
AcDbEllipse
 62
7
  6
CONTINUOUS
 10
12.3909471488
 20
24.1571040105
 30
0.0
 11
2.7583774253
 21
-1.0875888242
 31
0.0
 40
0.0091152074
 41
0.8628006337
 42
0.8854857418
  0
ELLIPSE
  5
5AC
100
AcDbEntity
  8
0
100
AcDbEllipse
 62
7
  6
CONTINUOUS
 10
12.3909471488
 20
22.2838092098
 30
0.0
 11
2.7583879104
 21
-0.0111625084
 31
0.0
 40
0.5696663125
 41
1.0629608177
 42
2.5330327089
  0
ELLIPSE
  5
5AD
100
AcDbEntity
  8
0
100
AcDbEllipse
 62
7
  6
CONTINUOUS
 10
12.3909471488
 20
22.2838092098
 30
0.0
 11
2.7583879104
 21
-0.0111625084
 31
0.0
 40
0.5696663125
 41
0.2901636124
 42
0.8615119465
  0
ELLIPSE
  5
5AE
100
AcDbEntity
  8
0
100
AcDbEllipse
 62
7
  6
CONTINUOUS
 10
3.7898506838
 20
25.7382034574
 30
0.0
 11
2.7583879104
 21
-0.0111625084
 31
0.0
 40
0.5696663125
 41
0.2901636124
 42
0.8615119465
  0
ELLIPSE
  5
5AF
100
AcDbEntity
  8
0
100
AcDbEllipse
 62
7
  6
CONTINUOUS
 10
3.7898506838
 20
25.7382034574
 30
0.0
 11
2.7583879104
 21
-0.0111625084
 31
0.0
 40
0.5696663125
 41
1.0629608177
 42
2.5330327089
  0
ELLIPSE
  5
5B0
100
AcDbEntity
  8
0
100
AcDbEllipse
 62
7
  6
CONTINUOUS
 10
3.2449530692
 20
25.7059528875
 30
0.0
 11
2.7499926927
 21
-0.0111285351
 31
0.0
 40
0.5696663125
 41
2.5417593552
 42
3.0226891475
  0
ELLIPSE
  5
5B1
100
AcDbEntity
  8
0
100
AcDbEllipse
 62
7
  6
CONTINUOUS
 10
11.8460495343
 20
22.2515586399
 30
0.0
 11
2.7499926927
 21
-0.0111285351
 31
0.0
 40
0.5696663125
 41
2.5417593552
 42
3.0226891475
  0
ELLIPSE
  5
5B2
100
AcDbEntity
  8
0
100
AcDbEllipse
 62
7
  6
CONTINUOUS
 10
16.9403869828
 20
23.98727055
 30
0.0
 11
0.7426163521
 21
0.7780442769
 31
0.0
 40
0.1249403664
 41
0.049987108
 42
0.7397086271
  0
ELLIPSE
  5
5B3
100
AcDbEntity
  8
0
100
AcDbEllipse
 62
7
  6
CONTINUOUS
 10
8.3392905178
 20
27.4416647976
 30
0.0
 11
0.7426163521
 21
0.7780442769
 31
0.0
 40
0.1249403664
 41
0.049987108
 42
0.7397086271
  0
ELLIPSE
  5
5B4
100
AcDbEntity
  8
0
100
AcDbEllipse
 62
7
  6
CONTINUOUS
 10
12.4254346583
 20
25.8005771908
 30
0.0
 11
0.3667674849
 21
0.9303298023
 31
0.0
 40
0.4639756799
 41
-0.8664843406
 42
-0.734926305
  0
ELLIPSE
  5
5B5
100
AcDbEntity
  8
0
100
AcDbEllipse
 62
7
  6
CONTINUOUS
 10
3.8243381933
 20
29.2549714383
 30
0.0
 11
0.3667674849
 21
0.9303298023
 31
0.0
 40
0.4639756799
 41
-0.8664843406
 42
-0.734926305
  0
ELLIPSE
  5
5B6
100
AcDbEntity
  8
0
100
AcDbEllipse
 62
7
  6
CONTINUOUS
 10
5.8632699657
 20
-15.8316844854
 30
0.0
 11
-1.2677684437
 21
1.5472787173
 31
0.0
 40
0.6709103902
 41
-2.642391107
 42
-2.6219244942
  0
ELLIPSE
  5
5B7
100
AcDbEntity
  8
0
100
AcDbEllipse
 62
7
  6
CONTINUOUS
 10
-2.1630850609
 20
21.2092309243
 30
0.0
 11
1.0020693637
 21
1.127212572
 31
0.0
 40
0.2768210239
 41
0.0990902864
 42
0.1035950892
  0
ELLIPSE
  5
5B8
100
AcDbEntity
  8
0
100
AcDbEllipse
 62
7
  6
CONTINUOUS
 10
5.8632699657
 20
13.1195188658
 30
0.0
 11
1.2677055941
 21
-1.5470103314
 31
0.0
 40
0.6710763966
 41
7.0562762252
 42
7.1562782268
  0
ELLIPSE
  5
5B9
100
AcDbEntity
  8
0
100
AcDbEllipse
 62
7
  6
CONTINUOUS
 10
5.8632699657
 20
13.1195188658
 30
0.0
 11
1.2677055941
 21
-1.5470103314
 31
0.0
 40
0.6710763966
 41
1.3397846773
 42
1.4714494955
  0
ELLIPSE
  5
5BA
100
AcDbEntity
  8
0
100
AcDbEllipse
 62
7
  6
CONTINUOUS
 10
3.8863799842
 20
29.2300540564
 30
0.0
 11
-0.3047210096
 21
1.0986358117
 31
0.0
 40
0.6117276799
 41
5.1139705116
 42
6.5357555103
  0
ELLIPSE
  5
5BB
100
AcDbEntity
  8
0
100
AcDbEllipse
 62
7
  6
CONTINUOUS
 10
12.4874764492
 20
25.7756598088
 30
0.0
 11
-0.3047210096
 21
1.0986358117
 31
0.0
 40
0.6117276799
 41
5.1139705116
 42
6.5357555103
  0
ELLIPSE
  5
5BC
100
AcDbEntity
  8
0
100
AcDbEllipse
 62
7
  6
CONTINUOUS
 10
3.7898506838
 20
26.1477794795
 30
0.0
 11
2.7583879104
 21
-0.0111625084
 31
0.0
 40
0.5696663125
 41
0.0792068312
 42
2.5330327089
  0
ELLIPSE
  5
5BD
100
AcDbEntity
  8
0
100
AcDbEllipse
 62
7
  6
CONTINUOUS
 10
12.3909471488
 20
22.693385232
 30
0.0
 11
2.7583879104
 21
-0.0111625084
 31
0.0
 40
0.5696663125
 41
0.0792068312
 42
2.5330327089
  0
ENDSEC
  0
SECTION
  2
OBJECTS
  0
DICTIONARY
  5
C
100
AcDbDictionary
280
0
281
1
  3
ACAD_GROUP
350
D
  3
ACAD_MLINESTYLE
350
17
  3
ACAD_LAYOUT
350
1A
  3
ACAD_PLOTSETTINGS
350
19
  3
ACAD_PLOTSTYLENAME
350
E
  0
DICTIONARY
  5
D
102
{ACAD_REACTORS
330
C
102
}
100
AcDbDictionary
280
0
281
1
  0
ACDBDICTIONARYWDFLT
  5
E
102
{ACAD_REACTORS
330
C
102
}
100
AcDbDictionary
281
1
  3
Normal
350
F
100
AcDbDictionaryWithDefault
340
F
  0
DICTIONARY
  5
17
102
{ACAD_REACTORS
330
C
102
}
100
AcDbDictionary
280
0
281
1
  3
Standard
350
18
  0
DICTIONARY
  5
19
102
{ACAD_REACTORS
330
C
102
}
100
AcDbDictionary
281
1
  0
DICTIONARY
  5
1A
102
{ACAD_REACTORS
330
C
102
}
100
AcDbDictionary
281
1
  3
Model
350
5BE
  3
Layout1
350
5BF
  0
ACDBPLACEHOLDER
  5
F
102
{ACAD_REACTORS
330
E
102
}
  0
MLINESTYLE
  5
18
102
{ACAD_REACTORS
330
17
102
}
100
AcDbMlineStyle
  2
STANDARD
 70
0
  3

 62
256
 51
90.0
 52
90.0
 71
2
 49
0.5
 62
256
  6
BYLAYER
 49
-0.5
 62
256
  6
BYLAYER
  0
LAYOUT
  5
5BE
102
{ACAD_REACTORS
330
1A
102
}
100
AcDbPlotSettings
  1

  2
none_device
  4
ISO_A4_(297.00_x_210.00_MM)
  6

 40
0.0
 41
0.0
 42
0.0
 43
0.0
 44
297.0
 45
210.0
 46
0.0
 47
0.0
 48
0.0
 49
0.0
140
0.0
141
0.0
142
1.0
143
1.0
 70
1024
 72
1
 73
0
 74
0
  7

 75
0
147
1.0
148
0.0
149
0.0
100
AcDbLayout
  1
Model
 70
0
 71
0
 10
0.0
 20
0.0
 11
297.0
 21
210.0
 12
0.0
 22
0.0
 32
0.0
 14
0.0
 24
0.0
 34
0.0
 15
0.0
 25
0.0
 35
0.0
146
0.0
 13
0.0
 23
0.0
 33
0.0
 16
1.0
 26
0.0
 36
0.0
 17
0.0
 27
1.0
 37
0.0
 76
0
330
221
345
0
346
0
  0
LAYOUT
  5
5BF
102
{ACAD_REACTORS
330
1A
102
}
100
AcDbPlotSettings
  1

  2
none_device
  4
ISO_A4_(297.00_x_210.00_MM)
  6

 40
0.0
 41
0.0
 42
0.0
 43
0.0
 44
297.0
 45
210.0
 46
0.0
 47
0.0
 48
0.0
 49
0.0
140
0.0
141
0.0
142
1.0
143
1.0
 70
0
 72
1
 73
0
 74
0
  7

 75
0
147
1.0
148
0.0
149
0.0
100
AcDbLayout
  1
Layout1
 70
0
 71
1
 10
0.0
 20
0.0
 11
297.0
 21
210.0
 12
0.0
 22
0.0
 32
0.0
 14
0.0
 24
0.0
 34
0.0
 15
0.0
 25
0.0
 35
0.0
146
0.0
 13
0.0
 23
0.0
 33
0.0
 16
1.0
 26
0.0
 36
0.0
 17
0.0
 27
1.0
 37
0.0
 76
0
330
222
345
0
346
0
  0
ENDSEC
  0
EOF
