  0
SECTION
  2
HEADER
  9
$ACADVER
  1
AC1024
  9
$DWGCODEPAGE
  3
ANSI_1252
  9
$EXTMAX
 10
297.0
 20
210.0
 30
0.0
  9
$EXTMIN
 10
0.0
 20
0.0
 30
0.0
  9
$LIMMIN
 10
0.0
 20
0.0
  9
$LIMMAX
 10
297.0
 20
210.0
  9
$VIEWCTR
 10
148.5
 20
105.0
  9
$VIEWSIZE
 40
210.0
  9
$CLAYER
  8
0
  9
$LTSCALE
 40
16.335
  9
$CELTYPE
  6
BYLAYER
  9
$DIMSCALE
 40
1.0
  9
$DIMASZ
 40
3.0
  9
$DIMEXO
 40
0.5
  9
$DIMDLI
 40
11.286
  9
$DIMEXE
 40
1.5
  9
$DIMCEN
 40
2.673
  9
$DIMLFAC
 40
1.0
  9
$DIMBLK
  1
_FILLED
  9
$DIMALT
 70
0
  9
$DIMALTF
 40
0.0393700787
  9
$DIMTXT
 40
3.0
  9
$DIMTOL
 70
1
  9
$DIMLIM
 70
0
  9
$DIMTFAC
 40
1.0
  9
$DIMTP
 40
0.01
  9
$DIMTM
 40
0.01
  9
$DIMGAP
 40
0.625
  9
$DIMDSEP
 70
44
  9
$AUNITS
 70
0
  9
$PDMODE
 70
3
  9
$PDSIZE
 40
3.0
  9
$HANDSEED
  5
5C6
  9
$TILEMODE
 70
1
  9
$MEASUREMENT
 70
1
  9
$INSUNITS
 70
4
  0
ENDSEC
  0
SECTION
  2
CLASSES
  0
CLASS
  1
ACDBDICTIONARYWDFLT
  2
AcDbDictionaryWithDefault
  3
AutoCAD 2000
 90
0
 91
1
280
0
281
0
  0
CLASS
  1
ACDBPLACEHOLDER
  2
AcDbPlaceHolder
  3
AutoCAD 2000
 90
0
 91
1
280
0
281
0
  0
CLASS
  1
LAYOUT
  2
AcDbLayout
  3
AutoCAD 2000
 90
0
 91
0
280
0
281
0
  0
ENDSEC
  0
SECTION
  2
TABLES
  0
TABLE
  2
VPORT
  5
8
100
AcDbSymbolTable
 70
2
  0
VPORT
  5
1F4
100
AcDbSymbolTableRecord
100
AcDbViewportTableRecord
  2
*ACTIVE
 70
0
 10
0.0
 20
0.0
 11
1.0
 21
1.0
 12
148.5
 22
105.0
 13
0.0
 23
0.0
 14
1.0
 24
1.0
 15
0.0
 25
0.0
 16
0.0
 26
0.0
 36
1.0
 17
0.0
 27
0.0
 37
0.0
 40
210.0
 41
1.4142857143
 42
50.0
 43
0.0
 44
0.0
 50
0.0
 51
0.0
 71
0
 72
100
 73
1
 74
1
 75
0
 76
0
 77
0
 78
0
  0
ENDTAB
  0
TABLE
  2
LTYPE
  5
5
100
AcDbSymbolTable
 70
6
  0
LTYPE
  5
14
100
AcDbSymbolTableRecord
100
AcDbLinetypeTableRecord
  2
BYBLOCK
 70
0
  3

 72
65
 73
0
 40
0.0
  0
LTYPE
  5
15
100
AcDbSymbolTableRecord
100
AcDbLinetypeTableRecord
  2
BYLAYER
 70
0
  3

 72
65
 73
0
 40
0.0
  0
LTYPE
  5
16
100
AcDbSymbolTableRecord
100
AcDbLinetypeTableRecord
  2
CONTINUOUS
 70
64
  3
Solid line
 72
65
 73
0
 40
0.0
  0
LTYPE
  5
1F5
100
AcDbSymbolTableRecord
100
AcDbLinetypeTableRecord
  2
CENTER
 70
64
  3
____ _ ____ _ ____ _ ____ _ ____ _ ____ _ ____
 72
65
 73
4
 40
0.6
 49
0.375
 74
0
 49
-0.075
 74
0
 49
0.075
 74
0
 49
-0.075
 74
0
  0
LTYPE
  5
1F6
100
AcDbSymbolTableRecord
100
AcDbLinetypeTableRecord
  2
HIDDEN
 70
64
  3
- - - - - - - - - - - - - - - - - - - -
 72
65
 73
2
 40
0.2
 49
0.1
 74
0
 49
-0.1
 74
0
  0
LTYPE
  5
1F7
100
AcDbSymbolTableRecord
100
AcDbLinetypeTableRecord
  2
PHANTOM
 70
64
  3
_____ _ _ _____ _ _ _____ _ _ _____
 72
65
 73
6
 40
0.8
 49
0.45
 74
0
 49
-0.05
 74
0
 49
0.1
 74
0
 49
-0.05
 74
0
 49
0.1
 74
0
 49
-0.05
 74
0
  0
LTYPE
  5
1F8
100
AcDbSymbolTableRecord
100
AcDbLinetypeTableRecord
  2
DOT
 70
64
  3
. . . . . . . . . . . . . . . . . . . .
 72
65
 73
2
 40
0.2
 49
0.1
 74
0
 49
-0.1
 74
0
  0
LTYPE
  5
1F9
100
AcDbSymbolTableRecord
100
AcDbLinetypeTableRecord
  2
DASHED
 70
64
  3
- - - - - - - - - - - - - - - - - - - -
 72
65
 73
2
 40
0.2
 49
0.1
 74
0
 49
-0.1
 74
0
  0
ENDTAB
  0
TABLE
  2
LAYER
  5
2
100
AcDbSymbolTable
 70
36
  0
LAYER
  5
10
100
AcDbSymbolTableRecord
100
AcDbLayerTableRecord
  2
0
 70
0
 62
7
  6
CONTINUOUS
370
-3
390
F
  0
LAYER
  5
1FA
100
AcDbSymbolTableRecord
100
AcDbLayerTableRecord
  2
DEFAULT_1
 70
0
 62
7
  6
CENTER
370
-3
390
F
  0
LAYER
  5
1FB
100
AcDbSymbolTableRecord
100
AcDbLayerTableRecord
  2
DEFAULT_2
 70
0
 62
7
  6
HIDDEN
370
-3
390
F
  0
LAYER
  5
1FC
100
AcDbSymbolTableRecord
100
AcDbLayerTableRecord
  2
DEFAULT_3
 70
0
 62
7
  6
PHANTOM
370
-3
390
F
  0
LAYER
  5
1FD
100
AcDbSymbolTableRecord
100
AcDbLayerTableRecord
  2
ASSI
 70
0
 62
7
  6
CONTINUOUS
370
-3
390
F
  0
LAYER
  5
1FE
100
AcDbSymbolTableRecord
100
AcDbLayerTableRecord
  2
COLORE_TOP
 70
0
 62
7
  6
CONTINUOUS
370
-3
390
F
  0
LAYER
  5
1FF
100
AcDbSymbolTableRecord
100
AcDbLayerTableRecord
  2
COORDINATE
 70
0
 62
7
  6
CONTINUOUS
370
-3
390
F
  0
LAYER
  5
200
100
AcDbSymbolTableRecord
100
AcDbLayerTableRecord
  2
COORD_ORIGINE
 70
0
 62
7
  6
CONTINUOUS
370
-3
390
F
  0
LAYER
  5
201
100
AcDbSymbolTableRecord
100
AcDbLayerTableRecord
  2
COPY-PUBBLISH
 70
0
 62
7
  6
CONTINUOUS
370
-3
390
F
  0
LAYER
  5
202
100
AcDbSymbolTableRecord
100
AcDbLayerTableRecord
  2
COPY_PUBLISH
 70
0
 62
7
  6
CONTINUOUS
370
-3
390
F
  0
LAYER
  5
203
100
AcDbSymbolTableRecord
100
AcDbLayerTableRecord
  2
COSMETIC
 70
0
 62
7
  6
CONTINUOUS
370
-3
390
F
  0
LAYER
  5
204
100
AcDbSymbolTableRecord
100
AcDbLayerTableRecord
  2
COSMETICHE
 70
0
 62
7
  6
CONTINUOUS
370
-3
390
F
  0
LAYER
  5
205
100
AcDbSymbolTableRecord
100
AcDbLayerTableRecord
  2
CURVA_CENTRALE
 70
0
 62
7
  6
CONTINUOUS
370
-3
390
F
  0
LAYER
  5
206
100
AcDbSymbolTableRecord
100
AcDbLayerTableRecord
  2
CURVE
 70
0
 62
7
  6
CONTINUOUS
370
-3
390
F
  0
LAYER
  5
207
100
AcDbSymbolTableRecord
100
AcDbLayerTableRecord
  2
DRAFT
 70
0
 62
7
  6
CONTINUOUS
370
-3
390
F
  0
LAYER
  5
208
100
AcDbSymbolTableRecord
100
AcDbLayerTableRecord
  2
IMPIANTO
 70
0
 62
7
  6
CONTINUOUS
370
-3
390
F
  0
LAYER
  5
209
100
AcDbSymbolTableRecord
100
AcDbLayerTableRecord
  2
IMPORTED
 70
0
 62
7
  6
CONTINUOUS
370
-3
390
F
  0
LAYER
  5
20A
100
AcDbSymbolTableRecord
100
AcDbLayerTableRecord
  2
IMPORT_IGES
 70
0
 62
7
  6
CONTINUOUS
370
-3
390
F
  0
LAYER
  5
20B
100
AcDbSymbolTableRecord
100
AcDbLayerTableRecord
  2
INTFCLR_11
 70
0
 62
7
  6
CONTINUOUS
370
-3
390
F
  0
LAYER
  5
20C
100
AcDbSymbolTableRecord
100
AcDbLayerTableRecord
  2
INTFCLR_3
 70
0
 62
7
  6
CONTINUOUS
370
-3
390
F
  0
LAYER
  5
20D
100
AcDbSymbolTableRecord
100
AcDbLayerTableRecord
  2
INTF_1
 70
0
 62
7
  6
CONTINUOUS
370
-3
390
F
  0
LAYER
  5
20E
100
AcDbSymbolTableRecord
100
AcDbLayerTableRecord
  2
INTF_2
 70
0
 62
7
  6
CONTINUOUS
370
-3
390
F
  0
LAYER
  5
20F
100
AcDbSymbolTableRecord
100
AcDbLayerTableRecord
  2
INTF_3
 70
0
 62
7
  6
CONTINUOUS
370
-3
390
F
  0
LAYER
  5
210
100
AcDbSymbolTableRecord
100
AcDbLayerTableRecord
  2
INTF_6
 70
0
 62
7
  6
CONTINUOUS
370
-3
390
F
  0
LAYER
  5
211
100
AcDbSymbolTableRecord
100
AcDbLayerTableRecord
  2
NOTE
 70
0
 62
7
  6
CONTINUOUS
370
-3
390
F
  0
LAYER
  5
212
100
AcDbSymbolTableRecord
100
AcDbLayerTableRecord
  2
PIANI
 70
0
 62
7
  6
CONTINUOUS
370
-3
390
F
  0
LAYER
  5
213
100
AcDbSymbolTableRecord
100
AcDbLayerTableRecord
  2
PIANI_ORIGINE
 70
0
 62
7
  6
CONTINUOUS
370
-3
390
F
  0
LAYER
  5
214
100
AcDbSymbolTableRecord
100
AcDbLayerTableRecord
  2
PIANI_SFORMO
 70
0
 62
7
  6
CONTINUOUS
370
-3
390
F
  0
LAYER
  5
215
100
AcDbSymbolTableRecord
100
AcDbLayerTableRecord
  2
PUNTI
 70
0
 62
7
  6
CONTINUOUS
370
-3
390
F
  0
LAYER
  5
216
100
AcDbSymbolTableRecord
100
AcDbLayerTableRecord
  2
RACCORDO
 70
0
 62
7
  6
CONTINUOUS
370
-3
390
F
  0
LAYER
  5
217
100
AcDbSymbolTableRecord
100
AcDbLayerTableRecord
  2
RGB__255__255__255__
 70
0
 62
7
  6
CONTINUOUS
370
-3
390
F
  0
LAYER
  5
218
100
AcDbSymbolTableRecord
100
AcDbLayerTableRecord
  2
RINTRACCIABILITA
 70
0
 62
7
  6
CONTINUOUS
370
-3
390
F
  0
LAYER
  5
219
100
AcDbSymbolTableRecord
100
AcDbLayerTableRecord
  2
SMUSSO
 70
0
 62
7
  6
CONTINUOUS
370
-3
390
F
  0
LAYER
  5
21A
100
AcDbSymbolTableRecord
100
AcDbLayerTableRecord
  2
SNAPLINE
 70
0
 62
7
  6
CONTINUOUS
370
-3
390
F
  0
LAYER
  5
21B
100
AcDbSymbolTableRecord
100
AcDbLayerTableRecord
  2
SUPERFICI
 70
0
 62
7
  6
CONTINUOUS
370
-3
390
F
  0
LAYER
  5
21C
100
AcDbSymbolTableRecord
100
AcDbLayerTableRecord
  2
TRASH
 70
0
 62
7
  6
CONTINUOUS
370
-3
390
F
  0
LAYER
  5
21D
100
AcDbSymbolTableRecord
100
AcDbLayerTableRecord
  2
XSEC_DATUMS
 70
0
 62
7
  6
CONTINUOUS
370
-3
390
F
  0
LAYER
  5
21E
100
AcDbSymbolTableRecord
100
AcDbLayerTableRecord
  2
___SHELL
 70
0
 62
7
  6
CONTINUOUS
370
-3
390
F
  0
ENDTAB
  0
TABLE
  2
STYLE
  5
3
100
AcDbSymbolTable
 70
1
  0
STYLE
  5
11
100
AcDbSymbolTableRecord
100
AcDbTextStyleTableRecord
  2
STANDARD
 70
0
 40
0.0
 41
0.8
 50
0.0
 71
0
 42
0.2
  3
txt
  4

  0
STYLE
  5
21F
100
AcDbSymbolTableRecord
100
AcDbTextStyleTableRecord
  2
TEXTSTYLE_1
 70
0
 40
0.0
 41
0.8
 50
0.0
 71
0
 42
0.2
  3
gdt
  4

  0
ENDTAB
  0
TABLE
  2
VIEW
  5
6
100
AcDbSymbolTable
 70
0
  0
ENDTAB
  0
TABLE
  2
UCS
  5
7
100
AcDbSymbolTable
 70
0
  0
ENDTAB
  0
TABLE
  2
APPID
  5
9
100
AcDbSymbolTable
 70
1
  0
APPID
  5
220
100
AcDbSymbolTableRecord
100
AcDbRegAppTableRecord
  2
ACAD
 70
0
  0
ENDTAB
  0
TABLE
  2
BLOCK_RECORD
  5
1
100
AcDbSymbolTable
 70
0
  0
BLOCK_RECORD
  5
221
100
AcDbSymbolTableRecord
100
AcDbBlockTableRecord
  2
*Model_Space
  0
BLOCK_RECORD
  5
222
100
AcDbSymbolTableRecord
100
AcDbBlockTableRecord
  2
*Paper_Space
  0
BLOCK_RECORD
  5
223
100
AcDbSymbolTableRecord
100
AcDbBlockTableRecord
  2
_FILLED
  0
ENDTAB
  0
TABLE
  2
DIMSTYLE
  5
A
100
AcDbSymbolTable
 70
1
100
AcDbDimStyleTable
 71
0
  0
DIMSTYLE
105
224
100
AcDbSymbolTableRecord
100
AcDbDimStyleTableRecord
  2
STANDARD
 70
0
  3

  4

 40
1.0
 41
3.0
 42
0.5
 43
0.38
 44
1.5
 45
0.0
 46
0.0
 47
0.01
 48
0.01
140
3.0
141
0.09
142
0.0
143
25.4
144
1.0
145
0.0
146
1.0
147
0.625
 71
1
 72
0
 73
0
 74
0
 75
0
 76
0
 77
1
 78
8
 79
2
170
0
171
1
172
0
173
0
174
0
175
0
176
0
177
0
178
0
270
2
179
2
271
2
272
2
273
2
274
2
275
0
280
0
281
0
282
0
283
1
284
8
285
0
286
0
287
3
288
0
340
11
278
44
341
223
342
223
343
223
344
223
  0
ENDTAB
  0
ENDSEC
  0
SECTION
  2
BLOCKS
  0
BLOCK
  5
20
100
AcDbEntity
  8
0
100
AcDbBlockBegin
  2
*Model_Space
 70
0
 10
0.0
 20
0.0
 30
0.0
  3
*Model_Space
  1

  0
ENDBLK
  5
21
100
AcDbEntity
  8
0
100
AcDbBlockEnd
  0
BLOCK
  5
1C
100
AcDbEntity
  8
0
100
AcDbBlockBegin
  2
*Paper_Space
 70
0
 10
0.0
 20
0.0
 30
0.0
  3
*Paper_Space
  1

  0
ENDBLK
  5
1D
100
AcDbEntity
  8
0
100
AcDbBlockEnd
  0
BLOCK
  5
225
100
AcDbEntity
  8
0
100
AcDbBlockBegin
  2
_FILLED
 70
64
 10
0.0
 20
0.0
  3
_FILLED
  1

  0
SOLID
  5
226
100
AcDbEntity
  8
0
  6
BYBLOCK
 62
0
100
AcDbTrace
 10
0.0
 20
0.0
 11
-1.0
 21
0.3166666667
 12
-1.0
 22
-0.3166666667
 13
-1.0
 23
-0.3166666667
  0
ENDBLK
  5
227
100
AcDbEntity
  8
0
  6
BYBLOCK
 62
0
100
AcDbBlockEnd
  0
ENDSEC
  0
SECTION
  2
ENTITIES
  0
LWPOLYLINE
  5
228
100
AcDbEntity
  8
ASSI
100
AcDbPolyline
 62
7
  6
CONTINUOUS
 90
12
 70
0
 10
-14.3392688707
 20
23.1433656698
 10
-14.3577925123
 20
23.1322992527
 10
-14.3790019005
 20
23.1166578966
 10
-14.3988135677
 20
23.0985840797
 10
-14.4169741213
 20
23.0782470035
 10
-14.4328254077
 20
23.0564858584
 10
-14.4466366847
 20
23.0330532339
 10
-14.4583568581
 20
23.0078458398
 10
-14.4674037038
 20
22.9820577098
 10
-14.4737756419
 20
22.9559951341
 10
-14.4775728006
 20
22.9289809454
 10
-14.4785770216
 20
22.9062788
  0
LINE
  5
229
100
AcDbEntity
  8
ASSI
100
AcDbLine
 62
7
  6
CONTINUOUS
 10
-14.3394099835
 20
23.1432903447
 11
-12.7722094931
 21
23.9888309635
  0
LINE
  5
22A
100
AcDbEntity
  8
ASSI
100
AcDbLine
 62
250
  6
CONTINUOUS
 10
-14.2469133624
 20
23.1392187998
 11
-12.6806626163
 21
23.9842470098
  0
LINE
  5
22B
100
AcDbEntity
  8
ASSI
100
AcDbLine
 62
7
  6
CONTINUOUS
 10
-12.7680016562
 20
23.9909368412
 11
-12.7721671597
 21
23.9888538034
  0
LINE
  5
22C
100
AcDbEntity
  8
ASSI
100
AcDbLine
 62
7
  6
CONTINUOUS
 10
-12.7679438164
 20
23.9909636312
 11
-12.2240424581
 21
24.2421548771
  0
LWPOLYLINE
  5
22D
100
AcDbEntity
  8
ASSI
100
AcDbPolyline
 62
250
  6
CONTINUOUS
 90
11
 70
0
 10
-14.3451997058
 20
23.0503338698
 10
-14.3364136159
 20
23.0618819115
 10
-14.3273109321
 20
23.0729225085
 10
-14.3179208183
 20
23.0834238125
 10
-14.3082728425
 20
23.0933543857
 10
-14.298401391
 20
23.1026803755
 10
-14.2883422958
 20
23.1113694111
 10
-14.2781277825
 20
23.1193942445
 10
-14.2677929417
 20
23.1267277028
 10
-14.2573757955
 20
23.1333435039
 10
-14.2469133624
 20
23.1392187998
  0
LINE
  5
22E
100
AcDbEntity
  8
ASSI
100
AcDbLine
 62
7
  6
CONTINUOUS
 10
-13.5179934146
 20
22.0250118781
 11
-13.4845300013
 21
22.0505934263
  0
LWPOLYLINE
  5
22F
100
AcDbEntity
  8
RACCORDO
100
AcDbPolyline
 62
250
  6
CONTINUOUS
 90
20
 70
0
 10
-17.7951429889
 20
19.2983167993
 10
-17.8560512935
 20
19.2573440754
 10
-17.9161039707
 20
19.2115463424
 10
-17.9749957311
 20
19.1611589574
 10
-18.032461092
 20
19.1064528851
 10
-18.0881962508
 20
19.0476981532
 10
-18.141898047
 20
18.985190566
 10
-18.1933162449
 20
18.9192702857
 10
-18.2421774663
 20
18.8502715906
 10
-18.2882199085
 20
18.7785389122
 10
-18.331231989
 20
18.7044521125
 10
-18.3709875333
 20
18.6283857283
 10
-18.4072723983
 20
18.5507228259
 10
-18.4399195456
 20
18.471871595
 10
-18.4687570592
 20
18.3922386852
 10
-18.4936324699
 20
18.3122194621
 10
-18.514436009
 20
18.2322115103
 10
-18.5310624955
 20
18.1526181011
 10
-18.5434149812
 20
18.073846336
 10
-18.5514267216
 20
17.9962973028
  0
LINE
  5
230
100
AcDbEntity
  8
ASSI
100
AcDbLine
 62
7
  6
CONTINUOUS
 10
-14.1259203983
 20
21.6495124766
 11
-13.763714043
 21
21.8642291978
  0
LINE
  5
231
100
AcDbEntity
  8
ASSI
100
AcDbLine
 62
250
  6
CONTINUOUS
 10
-13.8906669173
 20
21.6418559383
 11
-13.763714043
 21
21.7171138803
  0
LWPOLYLINE
  5
232
100
AcDbEntity
  8
RACCORDO
100
AcDbPolyline
 62
7
  6
CONTINUOUS
 90
18
 70
0
 10
-17.9026690797
 20
19.3758803933
 10
-17.9826129525
 20
19.332033736
 10
-18.0553253604
 20
19.2842239724
 10
-18.1253709771
 20
19.2303888669
 10
-18.1925640274
 20
19.1708558683
 10
-18.2564816725
 20
19.1061628387
 10
-18.3170438819
 20
19.0365353556
 10
-18.3740772586
 20
18.9622464738
 10
-18.426994848
 20
18.8840996123
 10
-18.4756519612
 20
18.8024103205
 10
-18.5198467264
 20
18.7174760117
 10
-18.5590492351
 20
18.6303029489
 10
-18.5931129588
 20
18.5412574363
 10
-18.6218442278
 20
18.4506523844
 10
-18.6448945437
 20
18.359445883
 10
-18.6620918013
 20
18.2681103653
 10
-18.6733256629
 20
18.1767495968
 10
-18.6750467143
 20
18.1557565258
  0
LINE
  5
233
100
AcDbEntity
  8
ASSI
100
AcDbLine
 62
250
  6
CONTINUOUS
 10
-12.181199321
 20
22.1063617791
 11
-10.5592991944
 21
22.9235652989
  0
LINE
  5
234
100
AcDbEntity
  8
ASSI
100
AcDbLine
 62
250
  6
CONTINUOUS
 10
-12.039799504
 20
21.8624831698
 11
-10.4178993773
 21
22.6796866895
  0
LWPOLYLINE
  5
235
100
AcDbEntity
  8
RACCORDO
100
AcDbPolyline
 62
250
  6
CONTINUOUS
 90
3
 70
0
 10
-17.6721212807
 20
19.3650182317
 10
-17.7337229077
 20
19.334267511
 10
-17.7951429889
 20
19.2983167993
  0
LINE
  5
236
100
AcDbEntity
  8
ASSI
100
AcDbLine
 62
250
  6
CONTINUOUS
 10
-10.5592991944
 20
22.9235652989
 11
-10.0351947278
 21
23.183524978
  0
LINE
  5
237
100
AcDbEntity
  8
ASSI
100
AcDbLine
 62
250
  6
CONTINUOUS
 10
-10.4178993773
 20
22.6796866895
 11
-9.8937949108
 21
22.9396463687
  0
LINE
  5
238
100
AcDbEntity
  8
RACCORDO
100
AcDbLine
 62
7
  6
CONTINUOUS
 10
-14.7065296687
 20
20.9546437173
 11
-17.902813045
 21
19.3758184598
  0
LINE
  5
239
100
AcDbEntity
  8
RACCORDO
100
AcDbLine
 62
250
  6
CONTINUOUS
 10
-14.479410005
 20
20.9420790265
 11
-17.6721212807
 21
19.3650182317
  0
LWPOLYLINE
  5
23A
100
AcDbEntity
  8
ASSI
100
AcDbPolyline
 62
250
  6
CONTINUOUS
 90
7
 70
0
 10
-14.3392691273
 20
23.1433661472
 10
-14.3339698449
 20
23.1459495525
 10
-14.3185037766
 20
23.1508919461
 10
-14.3017710365
 20
23.1526938052
 10
-14.2840578156
 20
23.1513243115
 10
-14.2656670746
 20
23.1468068882
 10
-14.2469133624
 20
23.1392187998
  0
LWPOLYLINE
  5
23B
100
AcDbEntity
  8
ASSI
100
AcDbPolyline
 62
250
  6
CONTINUOUS
 90
28
 70
0
 10
-9.8937949108
 20
22.9396463687
 10
-9.8920912509
 20
22.9404531633
 10
-9.8903584496
 20
22.9411495906
 10
-9.8885965068
 20
22.9417356504
 10
-9.8867944994
 20
22.9422216962
 10
-9.8849633505
 20
22.9425973746
 10
-9.8831358297
 20
22.9428316258
 10
-9.8813113384
 20
22.9429198734
 10
-9.8794904752
 20
22.9428666938
 10
-9.877707805
 20
22.9426547566
 10
-9.8759643327
 20
22.9422786546
 10
-9.8742590535
 20
22.9417437949
 10
-9.8726235179
 20
22.9410490687
 10
-9.8710608666
 20
22.9401904781
 10
-9.8695679589
 20
22.9391720209
 10
-9.8681669239
 20
22.9380045818
 10
-9.8668605548
 20
22.9366865135
 10
-9.8656460584
 20
22.9352194633
 10
-9.8645371846
 20
22.9336192577
 10
-9.8635353145
 20
22.9318845444
 10
-9.862639067
 20
22.9300166757
 10
-9.8618580484
 20
22.9280355353
 10
-9.8611935349
 20
22.9259398151
 10
-9.8606442505
 20
22.9237308232
 10
-9.8602159735
 20
22.9214323674
 10
-9.8599106304
 20
22.9190523838
 10
-9.8597262948
 20
22.9165829362
 10
-9.8596629668
 20
22.9140240248
  0
LINE
  5
23C
100
AcDbEntity
  8
ASSI
100
AcDbLine
 62
250
  6
CONTINUOUS
 10
-12.6806626163
 20
23.9842470098
 11
-12.1379365536
 21
24.2348958909
  0
LWPOLYLINE
  5
23D
100
AcDbEntity
  8
ASSI
100
AcDbPolyline
 62
250
  6
CONTINUOUS
 90
14
 70
0
 10
-10.0351947278
 20
23.183524978
 10
-10.0266045535
 20
23.1874081404
 10
-10.017809534
 20
23.190846406
 10
-10.0088350954
 20
23.1937865145
 10
-9.9996892911
 20
23.1961790913
 10
-9.9904263657
 20
23.1979613514
 10
-9.9811439784
 20
23.1990728858
 10
-9.9718786301
 20
23.1994733345
 10
-9.962669965
 20
23.1991236432
 10
-9.9536170632
 20
23.19799617
 10
-9.9447591453
 20
23.1960712496
 10
-9.9361347631
 20
23.1933316561
 10
-9.9278326878
 20
23.1897867826
 10
-9.9268612838
 20
23.1893081982
  0
LWPOLYLINE
  5
23E
100
AcDbEntity
  8
ASSI
100
AcDbPolyline
 62
250
  6
CONTINUOUS
 90
14
 70
0
 10
-12.1379365536
 20
24.2348958909
 10
-12.1293736541
 20
24.2387122546
 10
-12.1205920236
 20
24.2420985562
 10
-12.1116166401
 20
24.2449998432
 10
-12.1024548436
 20
24.2473646823
 10
-12.0931611451
 20
24.2491283143
 10
-12.0838345027
 20
24.2502283925
 10
-12.0745117548
 20
24.2506219887
 10
-12.0652330283
 20
24.2502673771
 10
-12.0560993223
 20
24.2491345278
 10
-12.0471497831
 20
24.2472005895
 10
-12.0384254611
 20
24.2444455143
 10
-12.0300209144
 20
24.2408777419
 10
-12.0288462432
 20
24.2403006777
  0
LINE
  5
23F
100
AcDbEntity
  8
ASSI
100
AcDbLine
 62
7
  6
CONTINUOUS
 10
-12.2009090491
 20
24.2513759345
 11
-12.224042389
 21
24.2421547264
  0
LWPOLYLINE
  5
240
100
AcDbEntity
  8
ASSI
100
AcDbPolyline
 62
250
  6
CONTINUOUS
 90
6
 70
0
 10
-12.2240424581
 20
24.2421548771
 10
-12.2077211546
 20
24.2474719608
 10
-12.1912817745
 20
24.249127148
 10
-12.1739722066
 20
24.2475558288
 10
-12.1560885073
 20
24.2427848767
 10
-12.1379365536
 20
24.2348958909
  0
LWPOLYLINE
  5
241
100
AcDbEntity
  8
RACCORDO
100
AcDbPolyline
 62
250
  6
CONTINUOUS
 90
13
 70
0
 10
-5.3929755493
 20
-26.1539938816
 10
-5.3442465887
 20
-26.1727654598
 10
-5.2912783715
 20
-26.1884661564
 10
-5.2348724396
 20
-26.2008583808
 10
-5.1758823558
 20
-26.2097546074
 10
-5.1152007879
 20
-26.2150202141
 10
-5.053746
 20
-26.2165755192
 10
-4.9924479567
 20
-26.2143969869
 10
-4.932234251
 20
-26.2085175838
 10
-4.8740160671
 20
-26.1990262802
 10
-4.8186743918
 20
-26.1860667031
 10
-4.7670466831
 20
-26.1698349634
 10
-4.7199141977
 20
-26.1505766881
  0
LWPOLYLINE
  5
242
100
AcDbEntity
  8
RACCORDO
100
AcDbPolyline
 62
7
  6
CONTINUOUS
 90
10
 70
0
 10
-5.068166226
 20
-26.8187048348
 10
-4.9986578443
 20
-26.8456676659
 10
-4.931472419
 20
-26.8648539118
 10
-4.8621031387
 20
-26.878181672
 10
-4.7907329051
 20
-26.8854660101
 10
-4.7177799103
 20
-26.8865150195
 10
-4.6437098303
 20
-26.8811843973
 10
-4.568664878
 20
-26.869312434
 10
-4.492921011
 20
-26.8507393096
 10
-4.4157843962
 20
-26.8249527685
  0
LWPOLYLINE
  5
243
100
AcDbEntity
  8
RACCORDO
100
AcDbPolyline
 62
250
  6
CONTINUOUS
 90
14
 70
0
 10
-5.0680894324
 20
-26.8187465529
 10
-5.1097691318
 20
-26.7974720757
 10
-5.1532593298
 20
-26.7687214075
 10
-5.1936951553
 20
-26.7346771551
 10
-5.2308458549
 20
-26.6955264045
 10
-5.2645318902
 20
-26.6514668773
 10
-5.2945958354
 20
-26.6027197047
 10
-5.3208652473
 20
-26.5495451256
 10
-5.3432112547
 20
-26.4922187027
 10
-5.3615344191
 20
-26.4310260165
 10
-5.375732396
 20
-26.3662722099
 10
-5.3857311282
 20
-26.2982824398
 10
-5.391488019
 20
-26.2274029917
 10
-5.3929755774
 20
-26.1539938847
  0
LWPOLYLINE
  5
244
100
AcDbEntity
  8
RACCORDO
100
AcDbPolyline
 62
7
  6
CONTINUOUS
 90
10
 70
0
 10
-19.7972943009
 20
-19.4539641996
 10
-18.3226638471
 20
-20.2771245345
 10
-16.7427849129
 20
-21.1353850296
 10
-15.1371718799
 20
-21.9837484675
 10
-13.5061988747
 20
-22.8220261801
 10
-11.8502373732
 20
-23.6500338596
 10
-10.1696660776
 20
-24.467593432
 10
-8.4648788537
 20
-25.274529022
 10
-6.7362768605
 20
-26.0706640654
 10
-5.0673495609
 20
-26.8190748613
  0
LINE
  5
245
100
AcDbEntity
  8
RACCORDO
100
AcDbLine
 62
7
  6
CONTINUOUS
 10
-19.7972935206
 20
-19.453964641
 11
-19.7969989232
 21
-19.4541311485
  0
LWPOLYLINE
  5
246
100
AcDbEntity
  8
RACCORDO
100
AcDbPolyline
 62
250
  6
CONTINUOUS
 90
31
 70
0
 10
-20.0931500651
 20
-18.8039066069
 10
-19.6480946026
 20
-19.0558163711
 10
-19.201013101
 20
-19.306760642
 10
-18.7519163199
 20
-19.5567360007
 10
-18.3008939226
 20
-19.8056957231
 10
-17.8478784527
 20
-20.0536800243
 10
-17.3926416888
 20
-20.3008146115
 10
-16.9350888272
 20
-20.5471497561
 10
-16.4753289175
 20
-20.7926255526
 10
-16.0134372158
 20
-21.0372015298
 10
-15.5494557945
 20
-21.2808558827
 10
-15.0833599825
 20
-21.5236020485
 10
-14.6151254064
 20
-21.765452615
 10
-14.144645588
 20
-22.0064615566
 10
-13.6720421529
 20
-22.2465655773
 10
-13.1976365853
 20
-22.4856029518
 10
-12.7217318224
 20
-22.7234263343
 10
-12.2440520521
 20
-22.9601789973
 10
-11.764047565
 20
-23.1961337853
 10
-11.2827763534
 20
-23.4307741004
 10
-10.7991999336
 20
-23.6646092468
 10
-10.3095694437
 20
-23.8994263087
 10
-9.8146623412
 20
-24.1348102962
 10
-9.3136243583
 20
-24.3711241684
 10
-8.8001329919
 20
-24.6112632589
 10
-8.2735884821
 20
-24.8553821525
 10
-7.734341032
 20
-25.1031892937
 10
-7.1773482884
 20
-25.3568408792
 10
-6.6007716391
 20
-25.6169711474
 10
-6.0060471399
 20
-25.8827261551
 10
-5.3929755504
 20
-26.1539938618
  0
LWPOLYLINE
  5
247
100
AcDbEntity
  8
RACCORDO
100
AcDbPolyline
 62
250
  6
CONTINUOUS
 90
7
 70
0
 10
-20.0931399646
 20
-18.8039023211
 10
-20.1306712989
 20
-18.779544003
 10
-20.1619361144
 20
-18.7531285858
 10
-20.1864613059
 20
-18.7250557924
 10
-20.2038757536
 20
-18.695750426
 10
-20.2139159387
 20
-18.6656559406
 10
-20.2165323903
 20
-18.6393203148
  0
LWPOLYLINE
  5
248
100
AcDbEntity
  8
ASSI
100
AcDbPolyline
 62
7
  6
CONTINUOUS
 90
12
 70
0
 10
-11.320350128
 20
21.2997380976
 10
-11.3423828642
 20
21.2790933385
 10
-11.3662706558
 20
21.2598282444
 10
-11.3918378941
 20
21.242335647
 10
-11.4190381444
 20
21.2269833879
 10
-11.4474527764
 20
21.2141300292
 10
-11.4762678226
 20
21.2040614559
 10
-11.5050975001
 20
21.1969641704
 10
-11.5336460626
 20
21.1930165459
 10
-11.5611831401
 20
21.1922755417
 10
-11.5872377183
 20
21.1946678708
 10
-11.5980451314
 20
21.1966578688
  0
LWPOLYLINE
  5
249
100
AcDbEntity
  8
ASSI
100
AcDbPolyline
 62
250
  6
CONTINUOUS
 90
13
 70
0
 10
-8.507460275
 20
21.2454452371
 10
-8.5256920877
 20
21.2344902569
 10
-8.5435775344
 20
21.2208414869
 10
-8.5608173436
 20
21.2047273078
 10
-8.5771230468
 20
21.186417353
 10
-8.5922218059
 20
21.1662179974
 10
-8.6058609779
 20
21.1444672306
 10
-8.6178123428
 20
21.1215290013
 10
-8.6278759222
 20
21.0977871278
 10
-8.6358833254
 20
21.0736388755
 10
-8.6417005668
 20
21.0494883096
 10
-8.6452303084
 20
21.025739534
 10
-8.6464134883
 20
21.0027899297
  0
LWPOLYLINE
  5
24A
100
AcDbEntity
  8
ASSI
100
AcDbPolyline
 62
7
  6
CONTINUOUS
 90
12
 70
0
 10
-8.622786428
 20
21.2506927516
 10
-8.6251498835
 20
21.249399526
 10
-8.6453571132
 20
21.236692033
 10
-8.6641358673
 20
21.221796023
 10
-8.6812148448
 20
21.2049112366
 10
-8.696483911
 20
21.1861111882
 10
-8.709714319
 20
21.1656128676
 10
-8.7207028294
 20
21.1437044856
 10
-8.7293739145
 20
21.1204802025
 10
-8.7356103382
 20
21.0961041865
 10
-8.7392819742
 20
21.0709019258
 10
-8.7403418828
 20
21.0479313408
  0
LINE
  5
24B
100
AcDbEntity
  8
ASSI
100
AcDbLine
 62
7
  6
CONTINUOUS
 10
-11.320350128
 20
20.5415376515
 11
-10.4178993773
 21
21.0342120424
  0
LINE
  5
24C
100
AcDbEntity
  8
ASSI
100
AcDbLine
 62
7
  6
CONTINUOUS
 10
-8.4110395537
 20
21.3649359208
 11
-8.622834389
 21
21.2506677482
  0
LINE
  5
24D
100
AcDbEntity
  8
ASSI
100
AcDbLine
 62
250
  6
CONTINUOUS
 10
-8.2966059577
 20
21.3592059786
 11
-8.507460275
 21
21.2454452371
  0
LINE
  5
24E
100
AcDbEntity
  8
ASSI
100
AcDbLine
 62
7
  6
CONTINUOUS
 10
-8.4109852608
 20
21.3649651587
 11
-8.4057772151
 21
21.3675695392
  0
LWPOLYLINE
  5
24F
100
AcDbEntity
  8
ASSI
100
AcDbPolyline
 62
250
  6
CONTINUOUS
 90
13
 70
0
 10
-8.6227853114
 20
21.2506942091
 10
-8.6175057809
 20
21.2533288887
 10
-8.6088679886
 20
21.2568044554
 10
-8.5998508898
 20
21.2594514777
 10
-8.5904896113
 20
21.2612600838
 10
-8.580816544
 20
21.262224453
 10
-8.5708668359
 20
21.2623412709
 10
-8.5606766045
 20
21.2616101337
 10
-8.5502834987
 20
21.260033778
 10
-8.5397263222
 20
21.2576184325
 10
-8.5290440311
 20
21.254373369
 10
-8.5182755343
 20
21.250310605
 10
-8.507460275
 20
21.2454452371
  0
LINE
  5
250
100
AcDbEntity
  8
ASSI
100
AcDbLine
 62
7
  6
CONTINUOUS
 10
-2.7025755084
 20
24.8005197699
 11
-9.7497636622
 21
21.3921344363
  0
LINE
  5
251
100
AcDbEntity
  8
ASSI
100
AcDbLine
 62
250
  6
CONTINUOUS
 10
-7.3827510214
 20
21.5528892155
 11
-4.0676707909
 21
23.1380773651
  0
LINE
  5
252
100
AcDbEntity
  8
RACCORDO
100
AcDbLine
 62
7
  6
CONTINUOUS
 10
3.9352473284
 20
27.364487394
 11
-1.8727964784
 21
24.6254300248
  0
LINE
  5
253
100
AcDbEntity
  8
RACCORDO
100
AcDbLine
 62
250
  6
CONTINUOUS
 10
4.3741320789
 20
27.3320844591
 11
-1.6264189053
 21
24.5022412383
  0
LWPOLYLINE
  5
254
100
AcDbEntity
  8
RACCORDO
100
AcDbPolyline
 62
250
  6
CONTINUOUS
 90
25
 70
0
 10
4.3741320789
 20
27.3320844591
 10
4.3934046834
 20
27.3409867207
 10
4.4126537956
 20
27.3492339154
 10
4.431865102
 20
27.3568199089
 10
4.4510243097
 20
27.3637390564
 10
4.4701171796
 20
27.3699862144
 10
4.4891295372
 20
27.3755567422
 10
4.5080472644
 20
27.3804464987
 10
4.5268562734
 20
27.3846518373
 10
4.5455425402
 20
27.3881696206
 10
4.5640921567
 20
27.3909972312
 10
4.5824913427
 20
27.3931325691
 10
4.6007264189
 20
27.3945740465
 10
4.6187838272
 20
27.3953205915
 10
4.6366501384
 20
27.3953716484
 10
4.6543120649
 20
27.3947271792
 10
4.6717564725
 20
27.3933876631
 10
4.6889703904
 20
27.3913540962
 10
4.7059410183
 20
27.3886279906
 10
4.7226557368
 20
27.3852113736
 10
4.739102117
 20
27.3811067856
 10
4.7552679293
 20
27.3763172788
 10
4.7711411528
 20
27.3708464147
 10
4.7867099842
 20
27.3646982615
 10
4.8019628466
 20
27.3578773909
  0
LINE
  5
255
100
AcDbEntity
  8
ASSI
100
AcDbLine
 62
7
  6
CONTINUOUS
 10
-4.3550397966
 20
23.2383343159
 11
-8.4057074579
 21
21.3676017554
  0
LINE
  5
256
100
AcDbEntity
  8
ASSI
100
AcDbLine
 62
250
  6
CONTINUOUS
 10
-4.2471349417
 20
23.2293858887
 11
-8.2966059577
 21
21.3592059786
  0
LWPOLYLINE
  5
257
100
AcDbEntity
  8
RACCORDO
100
AcDbPolyline
 62
7
  6
CONTINUOUS
 90
36
 70
0
 10
3.9352159297
 20
27.3644725848
 10
3.9518939658
 20
27.3721522299
 10
3.9763309563
 20
27.3827449708
 10
4.0008432483
 20
27.392606496
 10
4.0253019661
 20
27.4017078516
 10
4.0497641409
 20
27.4100937591
 10
4.074483974
 20
27.4178590306
 10
4.0995442358
 20
27.4250213457
 10
4.1248204546
 20
27.4315373438
 10
4.1502650284
 20
27.4373928959
 10
4.1758368655
 20
27.4425789544
 10
4.2015309357
 20
27.4470953644
 10
4.2273532437
 20
27.4509425884
 10
4.2532810613
 20
27.4541159221
 10
4.2792931507
 20
27.4566118101
 10
4.3053985527
 20
27.4584292569
 10
4.3315754832
 20
27.4595639937
 10
4.35780283
 20
27.4600126434
 10
4.3840910415
 20
27.4597719289
 10
4.4104229064
 20
27.4588373842
 10
4.4367728624
 20
27.4572055228
 10
4.4631387341
 20
27.4548716974
 10
4.4895045194
 20
27.4518317439
 10
4.515842722
 20
27.4480834393
 10
4.5421336135
 20
27.4436245185
 10
4.5683645586
 20
27.4384517476
 10
4.5945039996
 20
27.4325661386
 10
4.6205040721
 20
27.4259749106
 10
4.6463170807
 20
27.4186890057
 10
4.6719480331
 20
27.4107060559
 10
4.6974274388
 20
27.4020123308
 10
4.7227462988
 20
27.3926038567
 10
4.7478680094
 20
27.3824873037
 10
4.7727799682
 20
27.371661079
 10
4.7974675469
 20
27.3601240715
 10
4.8090051388
 20
27.354447699
  0
LINE
  5
258
100
AcDbEntity
  8
ASSI
100
AcDbLine
 62
7
  6
CONTINUOUS
 10
-4.3195785602
 20
23.2526488175
 11
-4.3551803991
 21
23.2382653134
  0
LWPOLYLINE
  5
259
100
AcDbEntity
  8
ASSI
100
AcDbPolyline
 62
7
  6
CONTINUOUS
 90
3
 70
0
 10
-8.4057772151
 20
21.3675695392
 10
-8.3849803772
 20
21.3743973808
 10
-8.3642467552
 20
21.37655087
  0
LINE
  5
25A
100
AcDbEntity
  8
ASSI
100
AcDbLine
 62
250
  6
CONTINUOUS
 10
2.7094686337
 20
-24.9902671792
 11
2.1686013278
 21
-24.881064184
  0
LINE
  5
25B
100
AcDbEntity
  8
ASSI
100
AcDbLine
 62
250
  6
CONTINUOUS
 10
2.6363622065
 20
-24.7354562708
 11
2.1686013278
 21
-24.6410137182
  0
LWPOLYLINE
  5
25C
100
AcDbEntity
  8
ASSI
100
AcDbPolyline
 62
7
  6
CONTINUOUS
 90
4
 70
0
 10
0.9524906301
 20
-25.1299244103
 10
0.9748869839
 20
-25.1351617747
 10
0.9992590564
 20
-25.1410701063
 10
1.0528440818
 20
-25.1542224887
  0
LWPOLYLINE
  5
25D
100
AcDbEntity
  8
ASSI
100
AcDbPolyline
 62
7
  6
CONTINUOUS
 90
9
 70
0
 10
1.0528440818
 20
-25.1542224887
 10
1.0813884919
 20
-25.1610609816
 10
1.1102153394
 20
-25.1678427551
 10
1.139028949
 20
-25.1741748592
 10
1.1674434209
 20
-25.1798453182
 10
1.1946458552
 20
-25.1849150847
 10
1.2202175861
 20
-25.1892087167
 10
1.2441112293
 20
-25.1923204771
 10
1.2661505771
 20
-25.1939890147
  0
LWPOLYLINE
  5
25E
100
AcDbEntity
  8
ASSI
100
AcDbPolyline
 62
250
  6
CONTINUOUS
 90
13
 70
0
 10
0.2310035082
 20
-26.4240462682
 10
0.2504419303
 20
-26.4325822994
 10
0.2719214551
 20
-26.4397923201
 10
0.2950826721
 20
-26.4455556872
 10
0.319538032
 20
-26.4497759641
 10
0.3448783309
 20
-26.4523825341
 10
0.3706795573
 20
-26.4533317824
 10
0.3965099874
 20
-26.4526078254
 10
0.4219374087
 20
-26.450222777
 10
0.4465363519
 20
-26.4462165453
 10
0.4698952106
 20
-26.4406561655
 10
0.4916231283
 20
-26.4336346777
 10
0.5113565385
 20
-26.4252695701
  0
LWPOLYLINE
  5
25F
100
AcDbEntity
  8
ASSI
100
AcDbPolyline
 62
250
  6
CONTINUOUS
 90
13
 70
0
 10
0.2310035082
 20
-26.1067774678
 10
0.2504419465
 20
-26.1153135054
 10
0.2719214873
 20
-26.1225235293
 10
0.2950827189
 20
-26.1282868968
 10
0.3195380907
 20
-26.132507172
 10
0.3448783977
 20
-26.1351137386
 10
0.3706796274
 20
-26.1360629825
 10
0.3965100554
 20
-26.1353390212
 10
0.4219374695
 20
-26.1329539691
 10
0.4465364012
 20
-26.1289477353
 10
0.469895245
 20
-26.1233873557
 10
0.4916231457
 20
-26.1163658709
 10
0.5113565385
 20
-26.1080007697
  0
LWPOLYLINE
  5
260
100
AcDbEntity
  8
ASSI
100
AcDbPolyline
 62
7
  6
CONTINUOUS
 90
10
 70
0
 10
0.2959251249
 20
-26.5592375118
 10
0.3083820301
 20
-26.5650078345
 10
0.3297173519
 20
-26.5728150057
 10
0.3518961262
 20
-26.5784091484
 10
0.3746820876
 20
-26.5816943414
 10
0.3979146901
 20
-26.582602394
 10
0.4213449959
 20
-26.5810723351
 10
0.4446369681
 20
-26.5770959906
 10
0.4675607911
 20
-26.5706972884
 10
0.4913929009
 20
-26.5612424447
  0
LINE
  5
261
100
AcDbEntity
  8
ASSI
100
AcDbLine
 62
7
  6
CONTINUOUS
 10
0.2962038804
 20
-26.5593782562
 11
-1.4383784452
 21
-25.6920870934
  0
LINE
  5
262
100
AcDbEntity
  8
ASSI
100
AcDbLine
 62
250
  6
CONTINUOUS
 10
0.2310035082
 20
-26.4240462682
 11
-1.3217028157
 21
-25.6476931062
  0
LINE
  5
263
100
AcDbEntity
  8
ASSI
100
AcDbLine
 62
250
  6
CONTINUOUS
 10
0.2310035082
 20
-26.1067774678
 11
-0.7044650101
 21
-25.6390432086
  0
LINE
  5
264
100
AcDbEntity
  8
ASSI
100
AcDbLine
 62
250
  6
CONTINUOUS
 10
-0.8980292962
 20
-25.5422610656
 11
-0.9841807818
 21
-25.4991853228
  0
LINE
  5
265
100
AcDbEntity
  8
ASSI
100
AcDbLine
 62
250
  6
CONTINUOUS
 10
0.3197004207
 20
-25.8752375764
 11
-0.4629835536
 21
-25.4838955893
  0
LINE
  5
266
100
AcDbEntity
  8
ASSI
100
AcDbLine
 62
7
  6
CONTINUOUS
 10
-0.8745060589
 20
-24.8031896594
 11
-0.7044650101
 21
-24.8882101837
  0
LWPOLYLINE
  5
267
100
AcDbEntity
  8
ASSI
100
AcDbPolyline
 62
250
  6
CONTINUOUS
 90
16
 70
0
 10
0.2959276281
 20
-26.5592395652
 10
0.2891922724
 20
-26.5554923128
 10
0.2815877007
 20
-26.5503286685
 10
0.2744283664
 20
-26.5444019954
 10
0.2677463735
 20
-26.5377384688
 10
0.2615593104
 20
-26.5303552323
 10
0.2558929354
 20
-26.5222816124
 10
0.2507681138
 20
-26.5135473561
 10
0.246202239
 20
-26.5041821773
 10
0.2422120851
 20
-26.4942201269
 10
0.2388116976
 20
-26.4836963131
 10
0.2360131588
 20
-26.4726482961
 10
0.2338267402
 20
-26.46111719
 10
0.2322599601
 20
-26.449144784
 10
0.2313178786
 20
-26.4367731287
 10
0.2310035082
 20
-26.4240462682
  0
LWPOLYLINE
  5
268
100
AcDbEntity
  8
RACCORDO
100
AcDbPolyline
 62
250
  6
CONTINUOUS
 90
13
 70
0
 10
-20.0931500692
 20
-18.803906603
 10
-20.0914667343
 20
-18.8774136032
 10
-20.0853904892
 20
-18.9484527312
 10
-20.0749560417
 20
-19.01666036
 10
-20.0602283098
 20
-19.081679043
 10
-20.0412819455
 20
-19.1431833271
 10
-20.0181977283
 20
-19.2008788533
 10
-19.9910990966
 20
-19.2544680415
 10
-19.9601290887
 20
-19.3036682449
 10
-19.9254274253
 20
-19.3482355857
 10
-19.8871822928
 20
-19.3879335523
 10
-19.8455954261
 20
-19.4225533251
 10
-19.7972935206
 20
-19.453964641
  0
LWPOLYLINE
  5
269
100
AcDbEntity
  8
ASSI
100
AcDbPolyline
 62
7
  6
CONTINUOUS
 90
6
 70
0
 10
-13.5577509845
 20
21.9866738962
 10
-13.5559546871
 20
21.9903539027
 10
-13.5507290614
 20
21.9965456983
 10
-13.5425318521
 20
22.0048860266
 10
-13.5315594015
 20
22.0144478192
 10
-13.5179934146
 20
22.0250118781
  0
LWPOLYLINE
  5
26A
100
AcDbEntity
  8
ASSI
100
AcDbPolyline
 62
250
  6
CONTINUOUS
 90
7
 70
0
 10
-9.8653446282
 20
22.4713450892
 10
-9.8643615638
 20
22.472693353
 10
-9.8615441764
 20
22.4800593024
 10
-9.8614232439
 20
22.4894049009
 10
-9.8640008128
 20
22.5005720117
 10
-9.869233268
 20
22.5133716765
 10
-9.8770320715
 20
22.5275873128
  0
LWPOLYLINE
  5
26B
100
AcDbEntity
  8
ASSI
100
AcDbPolyline
 62
7
  6
CONTINUOUS
 90
6
 70
0
 10
-9.8653698663
 20
22.4713141472
 10
-9.8558950639
 20
22.4837430562
 10
-9.8422825766
 20
22.5045976898
 10
-9.8304294455
 20
22.5268642367
 10
-9.8204865165
 20
22.5504246651
 10
-9.8128326189
 20
22.5744014822
  0
LINE
  5
26C
100
AcDbEntity
  8
ASSI
100
AcDbLine
 62
250
  6
CONTINUOUS
 10
-9.8770320715
 20
22.5275873128
 11
-10.4178993773
 21
21.8582998267
  0
LINE
  5
26D
100
AcDbEntity
  8
ASSI
100
AcDbLine
 62
7
  6
CONTINUOUS
 10
-9.8653446282
 20
22.4713450892
 11
-10.4178993773
 21
21.7875951658
  0
LWPOLYLINE
  5
26E
100
AcDbEntity
  8
ASSI
100
AcDbPolyline
 62
250
  6
CONTINUOUS
 90
13
 70
0
 10
-6.2875117864
 20
20.1354709928
 10
-6.3057436112
 20
20.1245160043
 10
-6.3236290673
 20
20.1108672243
 10
-6.3408688829
 20
20.0947530347
 10
-6.3571745895
 20
20.0764430701
 10
-6.3722733491
 20
20.0562437065
 10
-6.3859125187
 20
20.0344929347
 10
-6.3978638789
 20
20.0115547044
 10
-6.4079274522
 20
19.987812834
 10
-6.4159348487
 20
19.963664589
 10
-6.4217520842
 20
19.9395140343
 10
-6.4252818215
 20
19.9157652731
 10
-6.4264649997
 20
19.8928156854
  0
LWPOLYLINE
  5
26F
100
AcDbEntity
  8
ASSI
100
AcDbPolyline
 62
250
  6
CONTINUOUS
 90
9
 70
0
 10
-3.8940398513
 20
22.8373708161
 10
-3.8676734686
 20
22.8514798085
 10
-3.8444983522
 20
22.8668526205
 10
-3.8247636496
 20
22.8833213997
 10
-3.8086823
 20
22.900705363
 10
-3.7964239129
 20
22.9188168983
 10
-3.7881167383
 20
22.9374642272
 10
-3.7838512162
 20
22.9564485584
 10
-3.7832570694
 20
22.9681514121
  0
LWPOLYLINE
  5
270
100
AcDbEntity
  8
ASSI
100
AcDbPolyline
 62
250
  6
CONTINUOUS
 90
31
 70
0
 10
-4.0676707909
 20
23.1380773651
 10
-4.0586704211
 20
23.142888975
 10
-4.0508804505
 20
23.1480302055
 10
-4.0443008789
 20
23.1535010567
 10
-4.0388817114
 20
23.1593702402
 10
-4.034672943
 20
23.1655690443
 10
-4.0318245586
 20
23.1718913341
 10
-4.0303854546
 20
23.1783383747
 10
-4.0303067345
 20
23.184908901
 10
-4.0315916944
 20
23.1913929828
 10
-4.0342847447
 20
23.1977878542
 10
-4.0383414749
 20
23.2040962811
 10
-4.0436319496
 20
23.2101166314
 10
-4.0501958727
 20
23.2158396148
 10
-4.0579935403
 20
23.2212745216
 10
-4.0667759055
 20
23.2262475904
 10
-4.076574834
 20
23.2307439028
 10
-4.0873584601
 20
23.2347783774
 10
-4.0987821393
 20
23.2382220081
 10
-4.1108665522
 20
23.241055761
 10
-4.1235910181
 20
23.2432986702
 10
-4.1365488505
 20
23.2448788313
 10
-4.1497476069
 20
23.2457747497
 10
-4.1631797297
 20
23.2460079202
 10
-4.1764158602
 20
23.2455709226
 10
-4.1894507728
 20
23.2444418273
 10
-4.202289693
 20
23.242642564
 10
-4.2145189383
 20
23.2402315016
 10
-4.2260006144
 20
23.2372280964
 10
-4.2368726155
 20
23.2336128921
 10
-4.2471349417
 20
23.2293858887
  0
LWPOLYLINE
  5
271
100
AcDbEntity
  8
0
100
AcDbPolyline
 62
7
  6
CONTINUOUS
 90
38
 70
0
 10
1.7274421722
 20
24.3382963952
 10
1.6869237152
 20
24.3172374372
 10
1.6473094583
 20
24.2957527051
 10
1.6086172937
 20
24.2738519026
 10
1.5708646969
 20
24.2515449214
 10
1.5340687193
 20
24.2288418366
 10
1.4982459799
 20
24.2057529023
 10
1.4634126586
 20
24.1822885467
 10
1.4295844879
 20
24.1584593678
 10
1.3967767468
 20
24.1342761281
 10
1.365004253
 20
24.1097497502
 10
1.3342813568
 20
24.0848913118
 10
1.3046219346
 20
24.0597120401
 10
1.2760393821
 20
24.0342233078
 10
1.2485466091
 20
24.008436627
 10
1.2221560327
 20
23.9823636444
 10
1.1968795725
 20
23.9560161361
 10
1.1727286449
 20
23.9294060022
 10
1.1497141578
 20
23.9025452614
 10
1.1278465058
 20
23.8754460455
 10
1.1071355657
 20
23.8481205942
 10
1.0875906918
 20
23.8205812491
 10
1.0692207115
 20
23.7928404487
 10
1.052033922
 20
23.7649107223
 10
1.0360380857
 20
23.7368046846
 10
1.0212404273
 20
23.7085350298
 10
1.0076476303
 20
23.6801145264
 10
0.9952658339
 20
23.6515560104
 10
0.9841006305
 20
23.6228723808
 10
0.974157063
 20
23.5940765926
 10
0.9654396224
 20
23.5651816517
 10
0.9579522461
 20
23.5362006088
 10
0.9516983158
 20
23.5071465533
 10
0.9466806561
 20
23.4780326077
 10
0.9429015333
 20
23.4488719217
 10
0.9403626543
 20
23.4196776659
 10
0.9390651657
 20
23.390463026
 10
0.9388809074
 20
23.3745461568
  0
LINE
  5
272
100
AcDbEntity
  8
RACCORDO
100
AcDbLine
 62
7
  6
CONTINUOUS
 10
5.9438219499
 20
26.4836060119
 11
1.7274421722
 21
24.3382963952
  0
LINE
  5
273
100
AcDbEntity
  8
ASSI
100
AcDbLine
 62
250
  6
CONTINUOUS
 10
-6.2875117864
 20
20.1354709928
 11
-6.0691657491
 21
20.2454858743
  0
LINE
  5
274
100
AcDbEntity
  8
ASSI
100
AcDbLine
 62
250
  6
CONTINUOUS
 10
-6.1107620151
 20
19.8306227311
 11
-5.8924159777
 21
19.9406376127
  0
LINE
  5
275
100
AcDbEntity
  8
DRAFT
100
AcDbLine
 62
7
  6
CONTINUOUS
 10
5.9498789368
 20
26.0461175447
 11
1.7274421722
 21
23.9280773523
  0
LINE
  5
276
100
AcDbEntity
  8
ASSI
100
AcDbLine
 62
7
  6
CONTINUOUS
 10
-0.7577171195
 20
22.334700582
 11
-1.8389604891
 21
21.7940788972
  0
LINE
  5
277
100
AcDbEntity
  8
ASSI
100
AcDbLine
 62
250
  6
CONTINUOUS
 10
-6.0691657491
 20
20.2454858743
 11
-5.4159469845
 21
20.5694871971
  0
LINE
  5
278
100
AcDbEntity
  8
ASSI
100
AcDbLine
 62
250
  6
CONTINUOUS
 10
-5.8924159777
 20
19.9406376127
 11
-5.2346475663
 21
20.2668955939
  0
LINE
  5
279
100
AcDbEntity
  8
ASSI
100
AcDbLine
 62
250
  6
CONTINUOUS
 10
0.150759774
 20
23.3738521287
 11
-2.0819494902
 21
22.305893873
  0
LINE
  5
27A
100
AcDbEntity
  8
ASSI
100
AcDbLine
 62
250
  6
CONTINUOUS
 10
0.2896914481
 20
23.1317622934
 11
-1.8353510453
 21
22.1153036299
  0
LINE
  5
27B
100
AcDbEntity
  8
ASSI
100
AcDbLine
 62
250
  6
CONTINUOUS
 10
-6.9904566508
 20
21.3567420302
 11
-3.8940398513
 21
22.8373708161
  0
LINE
  5
27C
100
AcDbEntity
  8
ASSI
100
AcDbLine
 62
7
  6
CONTINUOUS
 10
-2.7809038327
 20
22.1703065196
 11
-3.8815958099
 21
21.6439832462
  0
LINE
  5
27D
100
AcDbEntity
  8
RACCORDO
100
AcDbLine
 62
7
  6
CONTINUOUS
 10
4.9065299368
 20
27.0658855301
 11
1.3334562383
 21
25.3604522133
  0
LWPOLYLINE
  5
27E
100
AcDbEntity
  8
RACCORDO
100
AcDbPolyline
 62
250
  6
CONTINUOUS
 90
22
 70
0
 10
-2.6767079906
 20
21.0360464974
 10
-2.6735796774
 20
21.0374564294
 10
-2.664331215
 20
21.0412303235
 10
-2.6548716007
 20
21.044512779
 10
-2.6452109603
 20
21.0473002822
 10
-2.6353596347
 20
21.0495898494
 10
-2.6253281687
 20
21.0513790298
 10
-2.6151273002
 20
21.0526659083
 10
-2.6047679483
 20
21.0534491073
 10
-2.5942612018
 20
21.0537277885
 10
-2.5836183071
 20
21.0535016536
 10
-2.5728506565
 20
21.0527709447
 10
-2.5619697759
 20
21.051536444
 10
-2.5509873123
 20
21.0497994727
 10
-2.5399150213
 20
21.0475618903
 10
-2.5287647549
 20
21.0448260918
 10
-2.5175484485
 20
21.0415950056
 10
-2.506278108
 20
21.0378720904
 10
-2.4949657974
 20
21.0336613312
 10
-2.4836236256
 20
21.0289672352
 10
-2.4722637332
 20
21.0237948271
 10
-2.46089828
 20
21.0181496434
  0
LINE
  5
27F
100
AcDbEntity
  8
RACCORDO
100
AcDbLine
 62
250
  6
CONTINUOUS
 10
-2.3301197512
 20
21.0796198836
 11
-2.3230210447
 21
21.0826876681
  0
LWPOLYLINE
  5
280
100
AcDbEntity
  8
ASSI
100
AcDbPolyline
 62
250
  6
CONTINUOUS
 90
13
 70
0
 10
-6.1107620151
 20
19.8306227311
 10
-6.1304954253
 20
19.8222576236
 10
-6.152223343
 20
19.8152361357
 10
-6.1755822017
 20
19.8096757559
 10
-6.2001811449
 20
19.8056695243
 10
-6.2256085662
 20
19.8032844758
 10
-6.2514389963
 20
19.8025605189
 10
-6.2772402227
 20
19.8035097671
 10
-6.3025805216
 20
19.8061163372
 10
-6.3270358815
 20
19.810336614
 10
-6.3501970985
 20
19.8160999811
 10
-6.3716766233
 20
19.8233100018
 10
-6.3911150454
 20
19.8318460331
  0
LINE
  5
281
100
AcDbEntity
  8
RACCORDO
100
AcDbLine
 62
250
  6
CONTINUOUS
 10
-2.3230210447
 20
21.0826876681
 11
-2.3157861049
 21
21.0857660688
  0
LINE
  5
282
100
AcDbEntity
  8
RACCORDO
100
AcDbLine
 62
250
  6
CONTINUOUS
 10
-2.3157861049
 20
21.0857660688
 11
-2.3084102768
 21
21.088852761
  0
LINE
  5
283
100
AcDbEntity
  8
RACCORDO
100
AcDbLine
 62
250
  6
CONTINUOUS
 10
-2.3084102768
 20
21.088852761
 11
-2.3008891653
 21
21.091945246
  0
LINE
  5
284
100
AcDbEntity
  8
RACCORDO
100
AcDbLine
 62
250
  6
CONTINUOUS
 10
-2.3008891653
 20
21.091945246
 11
-2.2932198225
 21
21.0950418508
  0
LINE
  5
285
100
AcDbEntity
  8
RACCORDO
100
AcDbLine
 62
250
  6
CONTINUOUS
 10
-2.2932198225
 20
21.0950418508
 11
-2.2853977944
 21
21.098140057
  0
LINE
  5
286
100
AcDbEntity
  8
RACCORDO
100
AcDbLine
 62
250
  6
CONTINUOUS
 10
-2.2853977944
 20
21.098140057
 11
-2.2774189322
 21
21.1012371493
  0
LINE
  5
287
100
AcDbEntity
  8
RACCORDO
100
AcDbLine
 62
250
  6
CONTINUOUS
 10
-2.2774189322
 20
21.1012371493
 11
-2.2692806006
 21
21.1043312538
  0
LINE
  5
288
100
AcDbEntity
  8
0
100
AcDbLine
 62
250
  6
CONTINUOUS
 10
-11.6545981117
 20
19.5296730799
 11
-11.4913157038
 21
19.5900982246
  0
LINE
  5
289
100
AcDbEntity
  8
RACCORDO
100
AcDbLine
 62
250
  6
CONTINUOUS
 10
-2.2692806006
 20
21.1043312538
 11
-2.2609790332
 21
21.1074194636
  0
LINE
  5
28A
100
AcDbEntity
  8
RACCORDO
100
AcDbLine
 62
250
  6
CONTINUOUS
 10
-2.2609790332
 20
21.1074194636
 11
-2.2525108837
 21
21.1104986573
  0
LINE
  5
28B
100
AcDbEntity
  8
RACCORDO
100
AcDbLine
 62
250
  6
CONTINUOUS
 10
-2.2525108837
 20
21.1104986573
 11
-2.2438736863
 21
21.11356682
  0
LINE
  5
28C
100
AcDbEntity
  8
RACCORDO
100
AcDbLine
 62
250
  6
CONTINUOUS
 10
-2.2438736863
 20
21.11356682
 11
-2.2350633105
 21
21.116621061
  0
LINE
  5
28D
100
AcDbEntity
  8
RACCORDO
100
AcDbLine
 62
250
  6
CONTINUOUS
 10
-2.2350633105
 20
21.116621061
 11
-2.2260765217
 21
21.1196580765
  0
LINE
  5
28E
100
AcDbEntity
  8
RACCORDO
100
AcDbLine
 62
250
  6
CONTINUOUS
 10
-2.2260765217
 20
21.1196580765
 11
-2.2169114016
 21
21.1226755746
  0
LINE
  5
28F
100
AcDbEntity
  8
RACCORDO
100
AcDbLine
 62
250
  6
CONTINUOUS
 10
-2.2169114016
 20
21.1226755746
 11
-2.2075655428
 21
21.1256699353
  0
LINE
  5
290
100
AcDbEntity
  8
RACCORDO
100
AcDbLine
 62
250
  6
CONTINUOUS
 10
-2.2075655428
 20
21.1256699353
 11
-2.1980366074
 21
21.1286374658
  0
LINE
  5
291
100
AcDbEntity
  8
RACCORDO
100
AcDbLine
 62
250
  6
CONTINUOUS
 10
-2.1980366074
 20
21.1286374658
 11
-2.1883231374
 21
21.1315756595
  0
LWPOLYLINE
  5
292
100
AcDbEntity
  8
RACCORDO
100
AcDbPolyline
 62
250
  6
CONTINUOUS
 90
3
 70
0
 10
-2.1883231374
 20
21.1315756595
 10
-2.1784229999
 20
21.1344807181
 10
-2.173402489
 20
21.135919456
  0
LWPOLYLINE
  5
293
100
AcDbEntity
  8
0
100
AcDbPolyline
 62
7
  6
CONTINUOUS
 90
3
 70
0
 10
-12.8390955091
 20
-16.8444943837
 10
-12.8506219364
 20
-16.8401515938
 10
-12.8622825496
 20
-16.8348227952
  0
LWPOLYLINE
  5
294
100
AcDbEntity
  8
0
100
AcDbPolyline
 62
7
  6
CONTINUOUS
 90
7
 70
0
 10
-12.8622817967
 20
-16.8348229975
 10
-12.8435945329
 20
-16.8429283431
 10
-12.8253702493
 20
-16.8484591476
 10
-12.8076091714
 20
-16.8514155077
 10
-12.7900820227
 20
-16.8517876146
 10
-12.7730183056
 20
-16.849585367
 10
-12.7604268644
 20
-16.8460832784
  0
LWPOLYLINE
  5
295
100
AcDbEntity
  8
DRAFT
100
AcDbPolyline
 62
7
  6
CONTINUOUS
 90
8
 70
0
 10
-0.2355617282
 20
-22.1571914452
 10
-0.1883946465
 20
-22.1779029631
 10
-0.1424128883
 20
-22.1928038212
 10
-0.0976164537
 20
-22.2018940196
 10
-0.0535718672
 20
-22.2051361936
 10
-0.0107126042
 20
-22.2025677078
 10
0.0296609087
 20
-22.1943006563
 10
0.0691212205
 20
-22.1794185789
  0
LWPOLYLINE
  5
296
100
AcDbEntity
  8
ASSI
100
AcDbPolyline
 62
250
  6
CONTINUOUS
 90
3
 70
0
 10
2.6593981947
 20
-24.7433697258
 10
2.6534519489
 20
-24.7406738336
 10
2.6363629457
 20
-24.7354566562
  0
LINE
  5
297
100
AcDbEntity
  8
ASSI
100
AcDbLine
 62
7
  6
CONTINUOUS
 10
-0.8506535721
 20
-24.2338421465
 11
-0.7371884774
 21
-24.2905746938
  0
LINE
  5
298
100
AcDbEntity
  8
ASSI
100
AcDbLine
 62
7
  6
CONTINUOUS
 10
0.1887023405
 20
-24.7535201028
 11
0.9157092892
 21
-25.1170235771
  0
LINE
  5
299
100
AcDbEntity
  8
ASSI
100
AcDbLine
 62
7
  6
CONTINUOUS
 10
-0.3769830845
 20
-23.8448443654
 11
0.1887023405
 21
-24.1276870778
  0
LINE
  5
29A
100
AcDbEntity
  8
ASSI
100
AcDbLine
 62
7
  6
CONTINUOUS
 10
0.9157092892
 20
-24.4231108499
 11
1.1158854682
 21
-24.5231989394
  0
LINE
  5
29B
100
AcDbEntity
  8
ASSI
100
AcDbLine
 62
250
  6
CONTINUOUS
 10
2.1686013278
 20
-24.5015846815
 11
2.6363622065
 21
-24.7354562708
  0
LINE
  5
29C
100
AcDbEntity
  8
ASSI
100
AcDbLine
 62
7
  6
CONTINUOUS
 10
2.6596376128
 20
-24.7434889843
 11
2.1686013278
 21
-24.4979708416
  0
LINE
  5
29D
100
AcDbEntity
  8
0
100
AcDbLine
 62
7
  6
CONTINUOUS
 10
-13.0390612928
 20
-16.7464332493
 11
-12.8622817967
 21
-16.8348229975
  0
LINE
  5
29E
100
AcDbEntity
  8
0
100
AcDbLine
 62
7
  6
CONTINUOUS
 10
-13.039060353
 20
-16.7464338935
 11
-13.0506880944
 21
-16.7401205315
  0
LWPOLYLINE
  5
29F
100
AcDbEntity
  8
ASSI
100
AcDbPolyline
 62
250
  6
CONTINUOUS
 90
13
 70
0
 10
0.3197004207
 20
-25.8752375764
 10
0.3384135032
 20
-25.8856751485
 10
0.3580064352
 20
-25.8978760052
 10
0.3781476854
 20
-25.9116336963
 10
0.3984964444
 20
-25.9267154283
 10
0.4187083916
 20
-25.9428660037
 10
0.4384415213
 20
-25.9598121392
 10
0.4573619298
 20
-25.9772670898
 10
0.4751494655
 20
-25.9949355009
 10
0.4915031462
 20
-26.0125184059
 10
0.5061462518
 20
-26.0297182851
 10
0.5188310068
 20
-26.0462440998
 10
0.5293427729
 20
-26.0618162174
  0
LWPOLYLINE
  5
2A0
100
AcDbEntity
  8
0
100
AcDbPolyline
 62
7
  6
CONTINUOUS
 90
22
 70
0
 10
-13.0506880944
 20
-16.7401205315
 10
-13.0621544639
 20
-16.7329668935
 10
-13.0734595056
 20
-16.7249729987
 10
-13.0846500713
 20
-16.7160974795
 10
-13.0956793659
 20
-16.7063817272
 10
-13.1064070044
 20
-16.6959499166
 10
-13.1168296515
 20
-16.684793163
 10
-13.1269507706
 20
-16.6729204048
 10
-13.1366402605
 20
-16.6604825898
 10
-13.1458916273
 20
-16.6474719822
 10
-13.1547115342
 20
-16.6338963887
 10
-13.162989687
 20
-16.619930102
 10
-13.1707206786
 20
-16.6055685127
 10
-13.1779100995
 20
-16.5908163069
 10
-13.1844642067
 20
-16.5758617454
 10
-13.1903739044
 20
-16.5607024799
 10
-13.1956484606
 20
-16.5453409306
 10
-13.2002217166
 20
-16.5299725292
 10
-13.2040846387
 20
-16.5145973271
 10
-13.2072463933
 20
-16.4992153284
 10
-13.2096681456
 20
-16.484021905
 10
-13.2113369841
 20
-16.4690821954
  0
LWPOLYLINE
  5
2A1
100
AcDbEntity
  8
RACCORDO
100
AcDbPolyline
 62
7
  6
CONTINUOUS
 90
14
 70
0
 10
-20.2165323903
 20
-18.6393203148
 10
-20.2165307283
 20
-18.6609330891
 10
-20.2119964953
 20
-18.7560086938
 10
-20.2001460071
 20
-18.8476376904
 10
-20.1810077252
 20
-18.9358489177
 10
-20.1547250022
 20
-19.0200405282
 10
-20.1218608362
 20
-19.0988631894
 10
-20.0831115215
 20
-19.171604934
 10
-20.0387966692
 20
-19.2384594421
 10
-19.9892857618
 20
-19.2993253284
 10
-19.9354175878
 20
-19.3536499844
 10
-19.8776336248
 20
-19.4014808276
 10
-19.8156017709
 20
-19.4432636611
 10
-19.7970166356
 20
-19.4541211305
  0
LWPOLYLINE
  5
2A2
100
AcDbEntity
  8
RACCORDO
100
AcDbPolyline
 62
7
  6
CONTINUOUS
 90
10
 70
0
 10
-18.6750464621
 20
18.1558675638
 10
-18.9637230739
 20
14.0701602165
 10
-19.227306421
 20
9.9248840843
 10
-19.4603910382
 20
5.792714337
 10
-19.662936063
 20
1.6740862286
 10
-19.8349220618
 20
-2.4306436676
 10
-19.9763349832
 20
-6.5211486461
 10
-20.0871638081
 20
-10.5970760352
 10
-20.1674130671
 20
-14.6580115049
 10
-20.2165403674
 20
-18.6392860655
  0
LWPOLYLINE
  5
2A3
100
AcDbEntity
  8
RACCORDO
100
AcDbPolyline
 62
250
  6
CONTINUOUS
 90
10
 70
0
 10
-18.5514266748
 20
17.996297312
 10
-18.8463326599
 20
13.8551380499
 10
-19.1104084198
 20
9.7260225699
 10
-19.3436163001
 20
5.6093316872
 10
-19.5459311231
 20
1.5052599279
 10
-19.7173166066
 20
-2.5856302993
 10
-19.8577339477
 20
-6.6624127093
 10
-19.967172785
 20
-10.7245361901
 10
-20.0456426374
 20
-14.7718213378
 10
-20.0931500651
 20
-18.8039066069
  0
LWPOLYLINE
  5
2A4
100
AcDbEntity
  8
ASSI
100
AcDbPolyline
 62
250
  6
CONTINUOUS
 90
7
 70
0
 10
0.855376873
 20
22.7120176308
 10
0.8726255477
 20
22.7218256811
 10
0.8871601172
 20
22.7326239002
 10
0.8987318238
 20
22.7442275703
 10
0.9071425926
 20
22.7564381881
 10
0.9122484142
 20
22.7690468463
 10
0.9139570449
 20
22.7825238283
  0
LWPOLYLINE
  5
2A5
100
AcDbEntity
  8
ASSI
100
AcDbPolyline
 62
7
  6
CONTINUOUS
 90
10
 70
0
 10
-4.9106583773
 20
19.3944393731
 10
-4.9187102821
 20
19.3898653866
 10
-4.9423708446
 20
19.3735573351
 10
-4.9639030325
 20
19.3540901618
 10
-4.9828414406
 20
19.3317715028
 10
-4.9987538488
 20
19.3070603569
 10
-5.0115035366
 20
19.2800523574
 10
-5.0208115183
 20
19.2510079201
 10
-5.0263630572
 20
19.2205445183
 10
-5.0280309523
 20
19.1917972298
  0
LINE
  5
2A6
100
AcDbEntity
  8
ASSI
100
AcDbLine
 62
7
  6
CONTINUOUS
 10
-6.1107620151
 20
18.6522688228
 11
-5.8924159777
 21
18.7714703426
  0
LINE
  5
2A7
100
AcDbEntity
  8
ASSI
100
AcDbLine
 62
7
  6
CONTINUOUS
 10
-4.6987289525
 20
19.5087806202
 11
-4.9106520472
 21
19.3944431177
  0
LINE
  5
2A8
100
AcDbEntity
  8
ASSI
100
AcDbLine
 62
250
  6
CONTINUOUS
 10
-4.5842953565
 20
19.503050678
 11
-4.7951496738
 21
19.3892899365
  0
LINE
  5
2A9
100
AcDbEntity
  8
0
100
AcDbLine
 62
7
  6
CONTINUOUS
 10
1.4150969103
 20
23.0328408662
 11
2.0473849668
 21
23.3662588608
  0
LINE
  5
2AA
100
AcDbEntity
  8
RACCORDO
100
AcDbLine
 62
250
  6
CONTINUOUS
 10
2.0472571848
 20
23.3661914739
 11
2.0473849668
 21
23.3662588608
  0
LINE
  5
2AB
100
AcDbEntity
  8
ASSI
100
AcDbLine
 62
7
  6
CONTINUOUS
 10
-5.8924159777
 20
18.7714703426
 11
-5.2103557474
 21
19.123133502
  0
LINE
  5
2AC
100
AcDbEntity
  8
ASSI
100
AcDbLine
 62
7
  6
CONTINUOUS
 10
-4.6986746596
 20
19.5088098581
 11
-4.6934666138
 21
19.5114142386
  0
LINE
  5
2AD
100
AcDbEntity
  8
0
100
AcDbLine
 62
7
  6
CONTINUOUS
 10
2.1756723956
 20
23.1431671295
 11
2.6706471425
 21
23.3906545029
  0
LINE
  5
2AE
100
AcDbEntity
  8
RACCORDO
100
AcDbLine
 62
7
  6
CONTINUOUS
 10
5.138825055
 20
23.5711543552
 11
3.8273607439
 21
22.9154221997
  0
LINE
  5
2AF
100
AcDbEntity
  8
RACCORDO
100
AcDbLine
 62
7
  6
CONTINUOUS
 10
5.9873557627
 20
23.1468915716
 11
5.1655719331
 21
22.7359996568
  0
LWPOLYLINE
  5
2B0
100
AcDbEntity
  8
RACCORDO
100
AcDbPolyline
 62
7
  6
CONTINUOUS
 90
6
 70
0
 10
-2.7105478826
 20
21.0204181138
 10
-2.7192541109
 20
21.0160691804
 10
-2.727355872
 20
21.011390262
 10
-2.7351731462
 20
21.006232767
 10
-2.7427004294
 20
21.0006008056
 10
-2.7485824246
 20
20.9956916114
  0
LINE
  5
2B1
100
AcDbEntity
  8
RACCORDO
100
AcDbLine
 62
7
  6
CONTINUOUS
 10
9.5669811196
 20
24.7356599387
 11
6.0035502831
 21
23.0254051909
  0
LINE
  5
2B2
100
AcDbEntity
  8
RACCORDO
100
AcDbLine
 62
250
  6
CONTINUOUS
 10
-2.4396469199
 20
21.0281542494
 11
-2.3855594055
 21
21.0542234688
  0
LINE
  5
2B3
100
AcDbEntity
  8
RACCORDO
100
AcDbLine
 62
250
  6
CONTINUOUS
 10
-2.450345574
 20
21.0230742588
 11
-2.4396469199
 21
21.0281542494
  0
LINE
  5
2B4
100
AcDbEntity
  8
RACCORDO
100
AcDbLine
 62
250
  6
CONTINUOUS
 10
-2.3855594055
 20
21.0542234688
 11
-2.373230721
 21
21.0600602522
  0
LINE
  5
2B5
100
AcDbEntity
  8
RACCORDO
100
AcDbLine
 62
250
  6
CONTINUOUS
 10
-2.4582726501
 20
21.0193661693
 11
-2.450345574
 21
21.0230742588
  0
LINE
  5
2B6
100
AcDbEntity
  8
RACCORDO
100
AcDbLine
 62
250
  6
CONTINUOUS
 10
-2.373230721
 20
21.0600602522
 11
-2.3637148578
 21
21.0645014089
  0
LINE
  5
2B7
100
AcDbEntity
  8
RACCORDO
100
AcDbLine
 62
250
  6
CONTINUOUS
 10
-2.4983572759
 20
21.0008498377
 11
-2.4582726501
 21
21.0193661693
  0
LINE
  5
2B8
100
AcDbEntity
  8
ASSI
100
AcDbLine
 62
7
  6
CONTINUOUS
 10
-4.0159932426
 20
19.8242938921
 11
-4.6933968567
 21
19.5114464548
  0
LINE
  5
2B9
100
AcDbEntity
  8
ASSI
100
AcDbLine
 62
250
  6
CONTINUOUS
 10
-3.9078675243
 20
19.815447467
 11
-4.5842953565
 21
19.503050678
  0
LINE
  5
2BA
100
AcDbEntity
  8
RACCORDO
100
AcDbLine
 62
7
  6
CONTINUOUS
 10
-2.6598206791
 20
21.0438071385
 11
-2.710512378
 21
21.0204345111
  0
LINE
  5
2BB
100
AcDbEntity
  8
RACCORDO
100
AcDbLine
 62
250
  6
CONTINUOUS
 10
-2.3637148578
 20
21.0645014089
 11
-2.3539507793
 21
21.0689908376
  0
LWPOLYLINE
  5
2BC
100
AcDbEntity
  8
RACCORDO
100
AcDbPolyline
 62
250
  6
CONTINUOUS
 90
17
 70
0
 10
-1.5063844368
 20
21.128155373
 10
-1.5005709914
 20
21.1307912404
 10
-1.4947715604
 20
21.1331274968
 10
-1.4889959581
 20
21.1351601884
 10
-1.4832539581
 20
21.1368858756
 10
-1.4775552773
 20
21.138301638
 10
-1.4719095595
 20
21.1394050797
 10
-1.4663263586
 20
21.1401943336
 10
-1.4608151228
 20
21.140668064
 10
-1.4553851785
 20
21.1408254691
 10
-1.4500457145
 20
21.1406662827
 10
-1.4448057666
 20
21.1401907742
 10
-1.4396742022
 20
21.1393997482
 10
-1.434659705
 20
21.1382945433
 10
-1.429770761
 20
21.1368770298
 10
-1.4250156434
 20
21.1351496066
 10
-1.4204626333
 20
21.1331417597
  0
LWPOLYLINE
  5
2BD
100
AcDbEntity
  8
RACCORDO
100
AcDbPolyline
 62
7
  6
CONTINUOUS
 90
10
 70
0
 10
5.9873268668
 20
23.1468771237
 10
5.9987233311
 20
23.1520457789
 10
6.0099437336
 20
23.1560976753
 10
6.0209880743
 20
23.1590328128
 10
6.0319513332
 20
23.1608513442
 10
6.0427385304
 20
23.1615531166
 10
6.0530647258
 20
23.1611376723
 10
6.0628349395
 20
23.1596048584
 10
6.0721441516
 20
23.1569548277
 10
6.0809923619
 20
23.1531875801
  0
LINE
  5
2BE
100
AcDbEntity
  8
RACCORDO
100
AcDbLine
 62
250
  6
CONTINUOUS
 10
-2.3539507793
 20
21.0689908376
 11
-2.3472962777
 21
21.0720077438
  0
LINE
  5
2BF
100
AcDbEntity
  8
ASSI
100
AcDbLine
 62
250
  6
CONTINUOUS
 10
1.2598903754
 20
20.4261948019
 11
1.2642469132
 21
20.4281508975
  0
LINE
  5
2C0
100
AcDbEntity
  8
RACCORDO
100
AcDbLine
 62
250
  6
CONTINUOUS
 10
-2.3472962777
 20
21.0720077438
 11
-2.3405204889
 21
21.0750416033
  0
LWPOLYLINE
  5
2C1
100
AcDbEntity
  8
RACCORDO
100
AcDbPolyline
 62
250
  6
CONTINUOUS
 90
3
 70
0
 10
-2.3405204889
 20
21.0750416033
 10
-2.3336185927
 20
21.0780902671
 10
-2.3301197512
 20
21.0796198836
  0
LWPOLYLINE
  5
2C2
100
AcDbEntity
  8
ASSI
100
AcDbPolyline
 62
250
  6
CONTINUOUS
 90
31
 70
0
 10
1.370987634
 20
20.4187481526
 10
1.3810400694
 20
20.4230518993
 10
1.3917363048
 20
20.4267540879
 10
1.4030763402
 20
20.4298547184
 10
1.4152007931
 20
20.4323762144
 10
1.4279690461
 20
20.4342961523
 10
1.4409592468
 20
20.435547262
 10
1.45417406
 20
20.4361060356
 10
1.467610821
 20
20.435995981
 10
1.4808396833
 20
20.4352203513
 10
1.4938539392
 20
20.4337574707
 10
1.5066602965
 20
20.4316290149
 10
1.5188490324
 20
20.4289032648
 10
1.5304001759
 20
20.4255609578
 10
1.5413336981
 20
20.4216213565
 10
1.551299789
 20
20.4172105296
 10
1.5602670942
 20
20.4123132233
 10
1.5682669681
 20
20.4069446914
 10
1.5750436641
 20
20.4012767636
 10
1.5805577291
 20
20.3952997901
 10
1.5848486163
 20
20.3890234207
 10
1.5877789381
 20
20.3826484358
 10
1.5893043797
 20
20.3761716765
 10
1.589469256
 20
20.3695963016
 10
1.5882691239
 20
20.3631325674
 10
1.5856551214
 20
20.3567814295
 10
1.5816761105
 20
20.3505419322
 10
1.5764742342
 20
20.3446214657
 10
1.5700968736
 20
20.3390891597
 10
1.5624966476
 20
20.3338758844
 10
1.5536735562
 20
20.3289816397
  0
LINE
  5
2C3
100
AcDbEntity
  8
ASSI
100
AcDbLine
 62
7
  6
CONTINUOUS
 10
1.2921103059
 20
20.4398675689
 11
1.2598064904
 21
20.4261447904
  0
LWPOLYLINE
  5
2C4
100
AcDbEntity
  8
ASSI
100
AcDbPolyline
 62
7
  6
CONTINUOUS
 90
3
 70
0
 10
-4.6934666138
 20
19.5114142386
 10
-4.672669776
 20
19.5182420802
 10
-4.6519361539
 20
19.5203955694
  0
LWPOLYLINE
  5
2C5
100
AcDbEntity
  8
ASSI
100
AcDbPolyline
 62
250
  6
CONTINUOUS
 90
6
 70
0
 10
1.2642469132
 20
20.4281508975
 10
1.2835023897
 20
20.4339897618
 10
1.3041540246
 20
20.4359694059
 10
1.325860125
 20
20.434057202
 10
1.3482615354
 20
20.4282849105
 10
1.370987634
 20
20.4187481526
  0
LINE
  5
2C6
100
AcDbEntity
  8
0
100
AcDbLine
 62
7
  6
CONTINUOUS
 10
-12.8052271244
 20
-16.8516195036
 11
-12.8163980744
 21
-16.8502283268
  0
LWPOLYLINE
  5
2C7
100
AcDbEntity
  8
0
100
AcDbPolyline
 62
7
  6
CONTINUOUS
 90
3
 70
0
 10
-12.8163980744
 20
-16.8502283268
 10
-12.8277033119
 20
-16.8478511842
 10
-12.8390955091
 20
-16.8444943837
  0
LWPOLYLINE
  5
2C8
100
AcDbEntity
  8
DRAFT
100
AcDbPolyline
 62
7
  6
CONTINUOUS
 90
9
 70
0
 10
-0.2355617282
 20
-20.9568491036
 10
-0.28272881
 20
-20.9361375858
 10
-0.3287105681
 20
-20.9212367276
 10
-0.3735070028
 20
-20.9121465292
 10
-0.4175515893
 20
-20.9089043553
 10
-0.4604108523
 20
-20.911472841
 10
-0.5007843652
 20
-20.9197398926
 10
-0.5384869907
 20
-20.933798556
 10
-0.5505469173
 20
-20.9397746589
  0
LWPOLYLINE
  5
2C9
100
AcDbEntity
  8
DRAFT
100
AcDbPolyline
 62
7
  6
CONTINUOUS
 90
9
 70
0
 10
0.0472809842
 20
-20.8093811355
 10
-0.0003612896
 20
-20.7884609615
 10
-0.0468062905
 20
-20.7734099821
 10
-0.0920540184
 20
-20.7642281974
 10
-0.136542311
 20
-20.7609533494
 10
-0.1798333305
 20
-20.7635476961
 10
-0.2206135642
 20
-20.771898011
 10
-0.2586960251
 20
-20.7860982989
 10
-0.2708776368
 20
-20.7921347038
  0
LINE
  5
2CA
100
AcDbEntity
  8
ASSI
100
AcDbLine
 62
250
  6
CONTINUOUS
 10
2.654308528
 20
-24.7462415296
 11
2.6363113517
 21
-24.7354460031
  0
LINE
  5
2CB
100
AcDbEntity
  8
RACCORDO
100
AcDbLine
 62
7
  6
CONTINUOUS
 10
-4.1663872735
 20
19.7548369448
 11
-2.7486149634
 21
20.9956628233
  0
LINE
  5
2CC
100
AcDbEntity
  8
RACCORDO
100
AcDbLine
 62
250
  6
CONTINUOUS
 10
-3.8744166418
 20
19.7987220257
 11
-2.4999622007
 21
21.0016363634
  0
LINE
  5
2CD
100
AcDbEntity
  8
ASSI
100
AcDbLine
 62
7
  6
CONTINUOUS
 10
-2.1801053765
 20
16.915315042
 11
-2.3984514139
 21
16.7961135222
  0
LINE
  5
2CE
100
AcDbEntity
  8
ASSI
100
AcDbLine
 62
250
  6
CONTINUOUS
 10
-2.5752011852
 20
18.2793156922
 11
-2.3568551478
 21
18.3893305737
  0
LINE
  5
2CF
100
AcDbEntity
  8
ASSI
100
AcDbLine
 62
250
  6
CONTINUOUS
 10
-2.3984514139
 20
17.9744674305
 11
-2.1801053765
 21
18.084482312
  0
LINE
  5
2D0
100
AcDbEntity
  8
ASSI
100
AcDbLine
 62
7
  6
CONTINUOUS
 10
-0.1856653536
 20
17.6956040013
 11
-0.181498917
 21
17.6976875057
  0
LINE
  5
2D1
100
AcDbEntity
  8
ASSI
100
AcDbLine
 62
250
  6
CONTINUOUS
 10
1.5536735562
 20
20.3289816397
 11
-2.3568551478
 21
18.3893305737
  0
LINE
  5
2D2
100
AcDbEntity
  8
ASSI
100
AcDbLine
 62
250
  6
CONTINUOUS
 10
1.7304233276
 20
20.024133378
 11
-2.1801053765
 21
18.084482312
  0
LINE
  5
2D3
100
AcDbEntity
  8
ASSI
100
AcDbLine
 62
7
  6
CONTINUOUS
 10
-2.1801053765
 20
16.915315042
 11
1.718256564
 21
18.8489313035
  0
LINE
  5
2D4
100
AcDbEntity
  8
ASSI
100
AcDbLine
 62
7
  6
CONTINUOUS
 10
-2.0030304447
 20
18.8630289272
 11
1.2598901795
 21
20.4261947081
  0
LINE
  5
2D5
100
AcDbEntity
  8
ASSI
100
AcDbLine
 62
250
  6
CONTINUOUS
 10
-1.9410634874
 20
18.8320454486
 11
1.370987634
 21
20.4187481526
  0
LINE
  5
2D6
100
AcDbEntity
  8
ASSI
100
AcDbLine
 62
7
  6
CONTINUOUS
 10
1.8322148553
 20
19.4516778266
 11
2.253093399
 21
19.6533079038
  0
LINE
  5
2D7
100
AcDbEntity
  8
ASSI
100
AcDbLine
 62
7
  6
CONTINUOUS
 10
2.5310382889
 20
20.0338044151
 11
4.6879537034
 21
21.0667948964
  0
LINE
  5
2D8
100
AcDbEntity
  8
ASSI
100
AcDbLine
 62
250
  6
CONTINUOUS
 10
2.5454605785
 20
19.9921888387
 11
4.7768097365
 21
21.0608271475
  0
LINE
  5
2D9
100
AcDbEntity
  8
RACCORDO
100
AcDbLine
 62
7
  6
CONTINUOUS
 10
12.3311511393
 20
23.3535749289
 11
8.7580774408
 21
21.648141612
  0
LINE
  5
2DA
100
AcDbEntity
  8
ASSI
100
AcDbLine
 62
250
  6
CONTINUOUS
 10
0.4485661039
 20
17.94164644
 11
-0.0941619111
 21
17.6909966572
  0
LINE
  5
2DB
100
AcDbEntity
  8
ASSI
100
AcDbLine
 62
7
  6
CONTINUOUS
 10
0.3624806004
 20
17.9489147563
 11
-0.1814431113
 21
17.6977132786
  0
LWPOLYLINE
  5
2DC
100
AcDbEntity
  8
ASSI
100
AcDbPolyline
 62
250
  6
CONTINUOUS
 90
7
 70
0
 10
4.6879622918
 20
21.0667990089
 10
4.6910079465
 20
21.0681769289
 10
4.7064651175
 20
21.0729527602
 10
4.7230582324
 20
21.07460714
 10
4.7405096192
 20
21.0731123187
 10
4.7585272878
 20
21.0684932452
 10
4.7768097351
 20
21.0608271469
  0
LINE
  5
2DD
100
AcDbEntity
  8
ASSI
100
AcDbLine
 62
7
  6
CONTINUOUS
 10
4.7409823445
 20
21.0899022572
 11
4.6879690922
 21
21.0667848102
  0
LWPOLYLINE
  5
2DE
100
AcDbEntity
  8
ASSI
100
AcDbPolyline
 62
250
  6
CONTINUOUS
 90
10
 70
0
 10
4.7768097365
 20
21.0608271475
 10
4.8289797921
 20
21.0834689039
 10
4.8807448037
 20
21.101244553
 10
4.9318211917
 20
21.1140570884
 10
4.9819273955
 20
21.1218374604
 10
5.0307897753
 20
21.124542948
 10
5.0781440945
 20
21.1221573015
 10
5.1237290816
 20
21.1146945994
 10
5.1672941173
 20
21.1021960782
 10
5.2094585573
 20
21.0843025069
  0
LWPOLYLINE
  5
2DF
100
AcDbEntity
  8
ASSI
100
AcDbPolyline
 62
7
  6
CONTINUOUS
 90
3
 70
0
 10
-0.181498917
 20
17.6976875057
 10
-0.1648614468
 20
17.703149779
 10
-0.1482745491
 20
17.7048725704
  0
LWPOLYLINE
  5
2E0
100
AcDbEntity
  8
0
100
AcDbPolyline
 62
7
  6
CONTINUOUS
 90
3
 70
0
 10
-12.7837176647
 20
-16.8513743174
 10
-12.7943324443
 20
-16.8520057924
 10
-12.8052271244
 20
-16.8516195036
  0
LINE
  5
2E1
100
AcDbEntity
  8
0
100
AcDbLine
 62
7
  6
CONTINUOUS
 10
-12.9500191982
 20
-12.0828513672
 11
-12.9686854691
 21
-12.0747333892
  0
LINE
  5
2E2
100
AcDbEntity
  8
DRAFT
100
AcDbLine
 62
7
  6
CONTINUOUS
 10
1.4690755216
 20
-19.7449263265
 11
-0.3769830845
 21
-18.8218970234
  0
LINE
  5
2E3
100
AcDbEntity
  8
0
100
AcDbLine
 62
7
  6
CONTINUOUS
 10
-12.773245145
 20
-12.1712383936
 11
-12.9173094372
 21
-12.099230727
  0
LINE
  5
2E4
100
AcDbEntity
  8
0
100
AcDbLine
 62
7
  6
CONTINUOUS
 10
-12.9238524242
 20
-12.0959551535
 11
-12.9500191982
 21
-12.0828513672
  0
LINE
  5
2E5
100
AcDbEntity
  8
0
100
AcDbLine
 62
7
  6
CONTINUOUS
 10
-12.9303956999
 20
-12.0926794355
 11
-12.8911339112
 21
-12.1123307298
  0
LWPOLYLINE
  5
2E6
100
AcDbEntity
  8
0
100
AcDbPolyline
 62
7
  6
CONTINUOUS
 90
25
 70
0
 10
-12.773244394
 20
-12.1712389243
 10
-12.7615964556
 20
-12.1775450603
 10
-12.7501174637
 20
-12.1846945427
 10
-12.7388074676
 20
-12.1926873925
 10
-12.7276197926
 20
-12.2015650579
 10
-12.7166011799
 20
-12.2112861191
 10
-12.7058918464
 20
-12.2217263151
 10
-12.6954953896
 20
-12.2328946183
 10
-12.6854083567
 20
-12.2447821184
 10
-12.6757604806
 20
-12.2572377708
 10
-12.6665585785
 20
-12.2702694374
 10
-12.6577960222
 20
-12.2838693375
 10
-12.6495824514
 20
-12.2978629963
 10
-12.6419235764
 20
-12.3122551231
 10
-12.6348138891
 20
-12.3270410954
 10
-12.6283462586
 20
-12.3420324654
 10
-12.622530063
 20
-12.3572317299
 10
-12.6173561111
 20
-12.3726364726
 10
-12.612889456
 20
-12.3880508933
 10
-12.6091393677
 20
-12.4034750867
 10
-12.6060967175
 20
-12.4189090191
 10
-12.6037989824
 20
-12.4341567075
 10
-12.6022586886
 20
-12.4491528392
 10
-12.601463389
 20
-12.4639627613
 10
-12.6014130927
 20
-12.4785864772
  0
LWPOLYLINE
  5
2E7
100
AcDbEntity
  8
0
100
AcDbPolyline
 62
7
  6
CONTINUOUS
 90
3
 70
0
 10
-13.2113369841
 20
-16.4690821954
 10
-13.2122658978
 20
-16.4543310938
 10
-13.2124548969
 20
-16.439768604
  0
LWPOLYLINE
  5
2E8
100
AcDbEntity
  8
0
100
AcDbPolyline
 62
7
  6
CONTINUOUS
 90
16
 70
0
 10
-13.2124548945
 20
-16.4397684409
 10
-13.2117998934
 20
-16.4632987727
 10
-13.2092554058
 20
-16.48715466
 10
-13.2048213506
 20
-16.5113360711
 10
-13.1984011011
 20
-16.5361734685
 10
-13.1900907316
 20
-16.5613361537
 10
-13.1801792453
 20
-16.5858323727
 10
-13.1685906616
 20
-16.6096034399
 10
-13.1554002209
 20
-16.6327077318
 10
-13.1411241114
 20
-16.6543292484
 10
-13.1257353144
 20
-16.6743755784
 10
-13.1092602187
 20
-16.6929388718
 10
-13.0922956491
 20
-16.7094802024
 10
-13.0750406039
 20
-16.7238199559
 10
-13.0572958853
 20
-16.7361376669
 10
-13.0390612928
 20
-16.7464332493
  0
LWPOLYLINE
  5
2E9
100
AcDbEntity
  8
ASSI
100
AcDbPolyline
 62
7
  6
CONTINUOUS
 90
9
 70
0
 10
-14.4785775554
 20
22.5889700546
 10
-14.4784439358
 20
22.5808433099
 10
-14.4762611628
 20
22.5550754905
 10
-14.4714135313
 20
22.5298980423
 10
-14.4639507808
 20
22.5056291489
 10
-14.4540464582
 20
22.4826624861
 10
-14.4418356764
 20
22.4611481077
 10
-14.4274185712
 20
22.4412137106
 10
-14.4110362302
 20
22.4231593627
  0
LINE
  5
2EA
100
AcDbEntity
  8
ASSI
100
AcDbLine
 62
7
  6
CONTINUOUS
 10
-14.4785771168
 20
22.5889700548
 11
-14.4785771634
 21
22.9063071638
  0
LINE
  5
2EB
100
AcDbEntity
  8
ASSI
100
AcDbLine
 62
250
  6
CONTINUOUS
 10
-14.4199985196
 20
22.518345036
 11
-14.4199985196
 21
22.8355964859
  0
LINE
  5
2EC
100
AcDbEntity
  8
0
100
AcDbLine
 62
7
  6
CONTINUOUS
 10
-14.2438569707
 20
21.3854380594
 11
-14.2438569707
 21
20.8243025094
  0
LINE
  5
2ED
100
AcDbEntity
  8
ASSI
100
AcDbLine
 62
7
  6
CONTINUOUS
 10
-13.763714043
 20
21.633491541
 11
-13.763714043
 21
22.0874536453
  0
LINE
  5
2EE
100
AcDbEntity
  8
ASSI
100
AcDbLine
 62
250
  6
CONTINUOUS
 10
-13.6904907383
 20
21.5417678488
 11
-13.6904907383
 21
22.0508419929
  0
LINE
  5
2EF
100
AcDbEntity
  8
ASSI
100
AcDbLine
 62
7
  6
CONTINUOUS
 10
-13.557753306
 20
21.3505514393
 11
-13.557753306
 21
21.9883968602
  0
LINE
  5
2F0
100
AcDbEntity
  8
ASSI
100
AcDbLine
 62
250
  6
CONTINUOUS
 10
-13.4845300013
 20
21.2997604014
 11
-13.4845300013
 21
22.0505934263
  0
LWPOLYLINE
  5
2F1
100
AcDbEntity
  8
ASSI
100
AcDbPolyline
 62
250
  6
CONTINUOUS
 90
18
 70
0
 10
-14.4199985196
 20
22.8355964859
 10
-14.4197927455
 20
22.846156579
 10
-14.4191526259
 20
22.8572121812
 10
-14.4180430578
 20
22.868750998
 10
-14.4164249967
 20
22.8807840801
 10
-14.4142667958
 20
22.8932614693
 10
-14.4115559903
 20
22.9060693903
 10
-14.4082720081
 20
22.9191734986
 10
-14.4043963842
 20
22.9325342131
 10
-14.3999435959
 20
22.9460210476
 10
-14.39491035
 20
22.959587858
 10
-14.3892962549
 20
22.9731844738
 10
-14.383144484
 20
22.9866730663
 10
-14.3764737913
 20
22.9999957739
 10
-14.3692976894
 20
23.0131097493
 10
-14.3616713766
 20
23.0259057789
 10
-14.3536320483
 20
23.0383235111
 10
-14.3451997058
 20
23.0503338698
  0
LWPOLYLINE
  5
2F2
100
AcDbEntity
  8
0
100
AcDbPolyline
 62
7
  6
CONTINUOUS
 90
10
 70
0
 10
-13.3342656617
 20
7.5455585518
 10
-13.3639872955
 20
7.3286730501
 10
-13.3898821613
 20
7.1097622076
 10
-13.4119520027
 20
6.8888253603
 10
-13.430205011
 20
6.6657565413
 10
-13.4446349416
 20
6.4406610354
 10
-13.4552216295
 20
6.213855173
 10
-13.4619585694
 20
5.9854443629
 10
-13.4648523859
 20
5.7553233047
 10
-13.4639023189
 20
5.5234923969
  0
LWPOLYLINE
  5
2F3
100
AcDbEntity
  8
0
100
AcDbPolyline
 62
7
  6
CONTINUOUS
 90
10
 70
0
 10
-12.9204923296
 20
7.2811142837
 10
-12.94877972
 20
7.0750921924
 10
-12.9734211329
 20
6.8671626798
 10
-12.9944179862
 20
6.6573252077
 10
-13.0117773093
 20
6.4454789532
 10
-13.0254935413
 20
6.2317242406
 10
-13.035548998
 20
6.0163623544
 10
-13.0419379025
 20
5.7994937258
 10
-13.0446659059
 20
5.5810181247
 10
-13.0437322205
 20
5.3609359578
  0
LWPOLYLINE
  5
2F4
100
AcDbEntity
  8
0
100
AcDbPolyline
 62
7
  6
CONTINUOUS
 90
11
 70
0
 10
-12.9204926314
 20
7.2811125077
 10
-12.9123826822
 20
7.3286174073
 10
-12.9022700449
 20
7.3745031834
 10
-12.8901544048
 20
7.4187699748
 10
-12.875992278
 20
7.4615553711
 10
-12.8598260645
 20
7.502722253
 10
-12.8417842629
 20
7.5418587057
 10
-12.8218304151
 20
7.5789466245
 10
-12.7999995146
 20
7.614004756
 10
-12.7765275118
 20
7.6466763537
 10
-12.7514926398
 20
7.6768426902
  0
LWPOLYLINE
  5
2F5
100
AcDbEntity
  8
0
100
AcDbPolyline
 62
7
  6
CONTINUOUS
 90
3
 70
0
 10
-12.2173640856
 20
7.9351767733
 10
-12.2148737437
 20
7.9476258921
 10
-12.2133975981
 20
7.960941753
  0
LWPOLYLINE
  5
2F6
100
AcDbEntity
  8
0
100
AcDbPolyline
 62
7
  6
CONTINUOUS
 90
4
 70
0
 10
-13.3105824861
 20
7.6716670846
 10
-13.3195134859
 20
7.6304126906
 10
-13.3274078336
 20
7.5883765321
 10
-13.3342656617
 20
7.5455585518
  0
LWPOLYLINE
  5
2F7
100
AcDbEntity
  8
ASSI
100
AcDbPolyline
 62
7
  6
CONTINUOUS
 90
3
 70
0
 10
-9.8128326189
 20
22.5744014822
 10
-9.8074682729
 20
22.5985585001
 10
-9.8043253011
 20
22.6233879889
  0
LWPOLYLINE
  5
2F8
100
AcDbEntity
  8
0
100
AcDbPolyline
 62
7
  6
CONTINUOUS
 90
11
 70
0
 10
-13.3105824919
 20
7.6716670594
 10
-13.3006037903
 20
7.7121802938
 10
-13.2895879395
 20
7.751912037
 10
-13.2775661284
 20
7.7907453058
 10
-13.2645357191
 20
7.8286752194
 10
-13.2504988499
 20
7.8657068748
 10
-13.235493913
 20
7.9017382411
 10
-13.2195179732
 20
7.9367666678
 10
-13.2025733544
 20
7.9707950708
 10
-13.1847063864
 20
8.0037297488
 10
-13.1659142305
 20
8.0355678129
  0
LWPOLYLINE
  5
2F9
100
AcDbEntity
  8
RACCORDO
100
AcDbPolyline
 62
250
  6
CONTINUOUS
 90
9
 70
0
 10
1.5418786881
 20
22.9766350533
 10
1.5861071851
 20
23.027435116
 10
1.6451860556
 20
23.0866943332
 10
1.7102788351
 20
23.1443022664
 10
1.7811546669
 20
23.200075734
 10
1.8576478047
 20
23.2539036696
 10
1.9396392084
 20
23.3057048533
 10
2.0268878054
 20
23.3553224926
 10
2.0472571848
 20
23.3661914739
  0
LWPOLYLINE
  5
2FA
100
AcDbEntity
  8
0
100
AcDbPolyline
 62
7
  6
CONTINUOUS
 90
3
 70
0
 10
-12.7514926398
 20
7.6768426902
 10
-12.7248151136
 20
7.7046231812
 10
-12.6964939641
 20
7.7300182524
  0
LWPOLYLINE
  5
2FB
100
AcDbEntity
  8
0
100
AcDbPolyline
 62
7
  6
CONTINUOUS
 90
6
 70
0
 10
-12.2447411383
 20
7.8866155101
 10
-12.2374663933
 20
7.8940481807
 10
-12.2310476429
 20
7.902783437
 10
-12.2254511198
 20
7.9127555085
 10
-12.2208685992
 20
7.9235944084
 10
-12.2173640856
 20
7.9351767733
  0
LWPOLYLINE
  5
2FC
100
AcDbEntity
  8
0
100
AcDbPolyline
 62
7
  6
CONTINUOUS
 90
10
 70
0
 10
-12.696494168
 20
7.730018047
 10
-12.7340742632
 20
7.6954029151
 10
-12.7685930674
 20
7.6567224184
 10
-12.8000529689
 20
7.613975511
 10
-12.8286108843
 20
7.5668258064
 10
-12.8541134145
 20
7.5156081329
 10
-12.8760977138
 20
7.4613281787
 10
-12.8944108138
 20
7.4043206111
 10
-12.9092087504
 20
7.3442494318
 10
-12.9204923296
 20
7.2811142837
  0
LWPOLYLINE
  5
2FD
100
AcDbEntity
  8
0
100
AcDbPolyline
 62
7
  6
CONTINUOUS
 90
9
 70
0
 10
-12.9845172732
 20
8.2476858567
 10
-13.0100521864
 20
8.2255198598
 10
-13.0347793428
 20
8.2020996738
 10
-13.0586991808
 20
8.1774251064
 10
-13.0818334331
 20
8.1514702163
 10
-13.1041611501
 20
8.1242606006
 10
-13.1256187733
 20
8.0958733656
 10
-13.1462034948
 20
8.0663057577
 10
-13.1659188883
 20
8.0355601957
  0
LWPOLYLINE
  5
2FE
100
AcDbEntity
  8
0
100
AcDbPolyline
 62
7
  6
CONTINUOUS
 90
3
 70
0
 10
-12.8550370458
 20
8.3370617112
 10
-12.9211700295
 20
8.2956480897
 10
-12.9845172732
 20
8.2476858567
  0
LWPOLYLINE
  5
2FF
100
AcDbEntity
  8
ASSI
100
AcDbPolyline
 62
7
  6
CONTINUOUS
 90
9
 70
0
 10
2.531719251
 20
20.0341713199
 10
2.5300770156
 20
20.0331438564
 10
2.526523075
 20
20.0291740155
 10
2.5230320955
 20
20.0228988014
 10
2.519671845
 20
20.0141545156
 10
2.5165517883
 20
20.0031136404
 10
2.5138749958
 20
19.9904132164
 10
2.5117513739
 20
19.976269098
 10
2.5101823947
 20
19.9604743397
  0
LWPOLYLINE
  5
300
100
AcDbEntity
  8
ASSI
100
AcDbPolyline
 62
7
  6
CONTINUOUS
 90
12
 70
0
 10
-1.7528162613
 20
16.8500898685
 10
-1.7641118946
 20
16.843604047
 10
-1.7864029403
 20
16.828262099
 10
-1.8073003056
 20
16.8102680512
 10
-1.8264926325
 20
16.7898204715
 10
-1.8432673352
 20
16.7677931903
 10
-1.8579302428
 20
16.7439123523
 10
-1.8704065582
 20
16.7180946673
 10
-1.8800450004
 20
16.6916431525
 10
-1.8868521197
 20
16.6648892432
 10
-1.8909486919
 20
16.6370842815
 10
-1.8920764077
 20
16.613026677
  0
LWPOLYLINE
  5
301
100
AcDbEntity
  8
ASSI
100
AcDbPolyline
 62
250
  6
CONTINUOUS
 90
12
 70
0
 10
-1.6604126573
 20
16.8459684472
 10
-1.6688746719
 20
16.8412758309
 10
-1.6775564903
 20
16.8359385955
 10
-1.6864334255
 20
16.8299264436
 10
-1.6954982528
 20
16.8231949663
 10
-1.7046969215
 20
16.8157334328
 10
-1.71393128
 20
16.8075778932
 10
-1.7231647837
 20
16.7987218139
 10
-1.7323575438
 20
16.7891631801
 10
-1.741409297
 20
16.7789725826
 10
-1.7502803182
 20
16.7681670087
 10
-1.75893071
 20
16.756766054
  0
LWPOLYLINE
  5
302
100
AcDbEntity
  8
ASSI
100
AcDbPolyline
 62
250
  6
CONTINUOUS
 90
28
 70
0
 10
0.4053013841
 20
15.8131114266
 10
0.3961796589
 20
15.8081013516
 10
0.3869061948
 20
15.8024162371
 10
0.3775092599
 20
15.7960376925
 10
0.3679996457
 20
15.788934437
 10
0.3584327152
 20
15.7811077758
 10
0.3489054578
 20
15.7726042484
 10
0.3394542603
 20
15.7634297765
 10
0.3301178022
 20
15.7535944887
 10
0.3209918117
 20
15.7431776811
 10
0.3121151274
 20
15.7322100344
 10
0.3035199401
 20
15.7207172109
 10
0.2952823439
 20
15.7087918798
 10
0.2874397601
 20
15.6964879239
 10
0.2800110565
 20
15.6838347507
 10
0.2730351383
 20
15.6708989027
 10
0.2665393297
 20
15.6577361624
 10
0.2605388859
 20
15.6443830116
 10
0.2550503859
 20
15.6308793322
 10
0.2500914262
 20
15.6172710768
 10
0.2456782564
 20
15.6036058542
 10
0.241823903
 20
15.5899260387
 10
0.238541066
 20
15.5762785914
 10
0.2358403874
 20
15.562710122
 10
0.2337300126
 20
15.5492622674
 10
0.2322171208
 20
15.5359795295
 10
0.2313072191
 20
15.5229090019
 10
0.2310035082
 20
15.510095472
  0
LINE
  5
303
100
AcDbEntity
  8
0
100
AcDbLine
 62
7
  6
CONTINUOUS
 10
-12.8550365723
 20
8.3370619022
 11
-12.8290155556
 21
8.3511651663
  0
LINE
  5
304
100
AcDbEntity
  8
ASSI
100
AcDbLine
 62
7
  6
CONTINUOUS
 10
-0.185708788
 20
17.695580611
 11
-1.7529092782
 21
16.8500399923
  0
LINE
  5
305
100
AcDbEntity
  8
ASSI
100
AcDbLine
 62
250
  6
CONTINUOUS
 10
-0.0941619111
 20
17.6909966572
 11
-1.6604126573
 21
16.8459684472
  0
LWPOLYLINE
  5
306
100
AcDbEntity
  8
ASSI
100
AcDbPolyline
 62
250
  6
CONTINUOUS
 90
28
 70
0
 10
0.5467012012
 20
15.5692328172
 10
0.544840955
 20
15.5682486506
 10
0.5429624348
 20
15.5671233136
 10
0.5410656405
 20
15.5658568062
 10
0.5391392978
 20
15.5644464942
 10
0.537194681
 20
15.5628950119
 10
0.5352656133
 20
15.5612102612
 10
0.533352006
 20
15.5593873051
 10
0.5314539479
 20
15.5574310807
 10
0.5296055285
 20
15.5553643014
 10
0.5278086651
 20
15.5531838581
 10
0.5260614404
 20
15.5508928598
 10
0.5243921923
 20
15.5485233469
 10
0.5228043493
 20
15.5460758108
 10
0.521294483
 20
15.54354976
 10
0.5198806456
 20
15.5409757604
 10
0.5185651261
 20
15.5383551825
 10
0.5173456357
 20
15.5356866558
 10
0.5162333599
 20
15.5329966342
 10
0.5152292131
 20
15.5302848924
 10
0.514332281
 20
15.5275516558
 10
0.5135510067
 20
15.5248240539
 10
0.5128864461
 20
15.522102199
 10
0.5123375434
 20
15.5193859789
 10
0.5119095737
 20
15.5167021866
 10
0.5116042956
 20
15.5140597532
 10
0.5114199505
 20
15.5114497477
 10
0.5113565385
 20
15.50887217
  0
LWPOLYLINE
  5
307
100
AcDbEntity
  8
0
100
AcDbPolyline
 62
7
  6
CONTINUOUS
 90
38
 70
0
 10
9.1520633746
 20
20.625985794
 10
9.1115449176
 20
20.604926836
 10
9.0719306608
 20
20.5834421039
 10
9.0332384961
 20
20.5615413014
 10
8.9954858994
 20
20.5392343202
 10
8.9586899217
 20
20.5165312354
 10
8.9228671824
 20
20.4934423011
 10
8.888033861
 20
20.4699779455
 10
8.8542056904
 20
20.4461487665
 10
8.8213979492
 20
20.4219655269
 10
8.7896254554
 20
20.397439149
 10
8.7589025593
 20
20.3725807105
 10
8.729243137
 20
20.3474014389
 10
8.7006605846
 20
20.3219127066
 10
8.6731678115
 20
20.2961260257
 10
8.6467772351
 20
20.2700530431
 10
8.621500775
 20
20.2437055349
 10
8.5973498474
 20
20.217095401
 10
8.5743353602
 20
20.1902346602
 10
8.5524677083
 20
20.1631354443
 10
8.5317567682
 20
20.135809993
 10
8.5122118942
 20
20.1082706479
 10
8.493841914
 20
20.0805298475
 10
8.4766551245
 20
20.0526001211
 10
8.4606592882
 20
20.0244940833
 10
8.4458616298
 20
19.9962244286
 10
8.4322688327
 20
19.9678039251
 10
8.4198870364
 20
19.9392454092
 10
8.408721833
 20
19.9105617796
 10
8.3987782655
 20
19.8817659914
 10
8.3900608249
 20
19.8528710505
 10
8.3825734486
 20
19.8238900075
 10
8.3763195183
 20
19.794835952
 10
8.3713018586
 20
19.7657220065
 10
8.3675227358
 20
19.7365613205
 10
8.3649838567
 20
19.7073670646
 10
8.3636863682
 20
19.6781524248
 10
8.3635021098
 20
19.6622355556
  0
LINE
  5
308
100
AcDbEntity
  8
RACCORDO
100
AcDbLine
 62
7
  6
CONTINUOUS
 10
13.3684431524
 20
22.7712954107
 11
9.1520633746
 21
20.625985794
  0
LINE
  5
309
100
AcDbEntity
  8
ASSI
100
AcDbLine
 62
250
  6
CONTINUOUS
 10
2.0272015107
 20
16.6303149463
 11
0.4053013841
 21
15.8131114266
  0
LINE
  5
30A
100
AcDbEntity
  8
ASSI
100
AcDbLine
 62
250
  6
CONTINUOUS
 10
2.1686013278
 20
16.386436337
 11
0.5467012012
 21
15.5692328172
  0
LINE
  5
30B
100
AcDbEntity
  8
DRAFT
100
AcDbLine
 62
7
  6
CONTINUOUS
 10
13.3745001392
 20
22.3338069435
 11
9.1520633746
 21
20.2157667511
  0
LINE
  5
30C
100
AcDbEntity
  8
ASSI
100
AcDbLine
 62
250
  6
CONTINUOUS
 10
2.5513059773
 20
16.8902746255
 11
2.0272015107
 21
16.6303149463
  0
LINE
  5
30D
100
AcDbEntity
  8
ASSI
100
AcDbLine
 62
250
  6
CONTINUOUS
 10
2.6927057944
 20
16.6463960161
 11
2.1686013278
 21
16.386436337
  0
LINE
  5
30E
100
AcDbEntity
  8
ASSI
100
AcDbLine
 62
7
  6
CONTINUOUS
 10
7.6301450188
 20
19.6341595063
 11
2.2653937466
 21
17.0931806833
  0
LWPOLYLINE
  5
30F
100
AcDbEntity
  8
ASSI
100
AcDbPolyline
 62
250
  6
CONTINUOUS
 90
13
 70
0
 10
0.5113565385
 20
15.50887217
 10
0.4916231283
 20
15.5005070625
 10
0.4698952106
 20
15.4934855746
 10
0.4465363519
 20
15.4879251948
 10
0.4219374087
 20
15.4839189632
 10
0.3965099874
 20
15.4815339147
 10
0.3706795573
 20
15.4808099578
 10
0.3448783309
 20
15.481759206
 10
0.319538032
 20
15.4843657761
 10
0.2950826721
 20
15.4885860529
 10
0.2719214551
 20
15.49434942
 10
0.2504419303
 20
15.5015594407
 10
0.2310035082
 20
15.510095472
  0
LWPOLYLINE
  5
310
100
AcDbEntity
  8
ASSI
100
AcDbPolyline
 62
250
  6
CONTINUOUS
 90
13
 70
0
 10
0.5113565385
 20
15.1916033697
 10
0.4916230882
 20
15.1832382264
 10
0.4698951318
 20
15.1762167144
 10
0.4465362397
 20
15.1706563208
 10
0.4219372717
 20
15.1666500842
 10
0.3965098363
 20
15.164265038
 10
0.3706794031
 20
15.1635410888
 10
0.3448781855
 20
15.1644903486
 10
0.3195379061
 20
15.1670969318
 10
0.295082573
 20
15.1713172219
 10
0.2719213873
 20
15.1770806013
 10
0.2504418966
 20
15.1842906324
 10
0.2310035082
 20
15.1928266715
  0
LINE
  5
311
100
AcDbEntity
  8
0
100
AcDbLine
 62
7
  6
CONTINUOUS
 10
-12.9869056698
 20
-12.0691985682
 11
-13.0046800515
 21
-12.0662470131
  0
LINE
  5
312
100
AcDbEntity
  8
0
100
AcDbLine
 62
7
  6
CONTINUOUS
 10
-12.9686854691
 20
-12.0747333892
 11
-12.9869056698
 21
-12.0691985682
  0
LWPOLYLINE
  5
313
100
AcDbEntity
  8
ASSI
100
AcDbPolyline
 62
7
  6
CONTINUOUS
 90
5
 70
0
 10
2.733331272
 20
-24.8033786318
 10
2.716818326
 20
-24.7848118985
 10
2.698503313
 20
-24.7683772744
 10
2.6785252359
 20
-24.7541397414
 10
2.6593739983
 20
-24.7433582649
  0
LWPOLYLINE
  5
314
100
AcDbEntity
  8
0
100
AcDbPolyline
 62
7
  6
CONTINUOUS
 90
3
 70
0
 10
-13.0382114389
 20
5.2555078994
 10
-13.0420143798
 20
5.3084366335
 10
-13.0437322243
 20
5.3609358939
  0
LWPOLYLINE
  5
315
100
AcDbEntity
  8
0
100
AcDbPolyline
 62
7
  6
CONTINUOUS
 90
8
 70
0
 10
-12.1937886488
 20
8.2668430854
 10
-12.1939811114
 20
8.2698234019
 10
-12.194224664
 20
8.2729069428
 10
-12.1945320913
 20
8.276095985
 10
-12.1949028091
 20
8.2793924078
 10
-12.1953373964
 20
8.2827943341
 10
-12.1958503816
 20
8.2862984069
 10
-12.1964402063
 20
8.2898994642
  0
LINE
  5
316
100
AcDbEntity
  8
0
100
AcDbLine
 62
7
  6
CONTINUOUS
 10
-12.1936470292
 20
8.2639650624
 11
-12.1938346702
 21
8.2676493977
  0
LWPOLYLINE
  5
317
100
AcDbEntity
  8
0
100
AcDbPolyline
 62
7
  6
CONTINUOUS
 90
3
 70
0
 10
-13.460601224
 20
5.4297221534
 10
-13.4627855102
 20
5.4767511534
 10
-13.4639023156
 20
5.5234921289
  0
LWPOLYLINE
  5
318
100
AcDbEntity
  8
0
100
AcDbPolyline
 62
7
  6
CONTINUOUS
 90
10
 70
0
 10
-13.0437322205
 20
5.3609359578
 10
-13.0409326134
 20
5.2904461802
 10
-13.0344632647
 20
5.2194969153
 10
-13.0243235569
 20
5.1480884393
 10
-13.010391227
 20
5.0757579542
 10
-12.9927857549
 20
5.0029694673
 10
-12.971869228
 20
4.9311134346
 10
-12.9477614853
 20
4.8606537267
 10
-12.9203392525
 20
4.7911279868
 10
-12.8896001397
 20
4.7225372577
  0
LINE
  5
319
100
AcDbEntity
  8
0
100
AcDbLine
 62
7
  6
CONTINUOUS
 10
-12.1935565036
 20
8.2611902621
 11
-12.1936691893
 21
8.2644300778
  0
LINE
  5
31A
100
AcDbEntity
  8
0
100
AcDbLine
 62
7
  6
CONTINUOUS
 10
-12.1935579104
 20
8.2613037296
 11
-12.1935010129
 21
8.2582696364
  0
LWPOLYLINE
  5
31B
100
AcDbEntity
  8
0
100
AcDbPolyline
 62
7
  6
CONTINUOUS
 90
16
 70
0
 10
-12.6014130962
 20
-12.4785866201
 10
-12.6018470358
 20
-12.4549641595
 10
-12.60418402
 20
-12.4310229295
 10
-12.6084239671
 20
-12.4067628961
 10
-12.6146601309
 20
-12.3818536388
 10
-12.6227986809
 20
-12.3566253274
 10
-12.632558932
 20
-12.3320688263
 10
-12.6440183117
 20
-12.3082409966
 10
-12.6570985821
 20
-12.2850846288
 10
-12.6712859137
 20
-12.2634196414
 10
-12.6866078574
 20
-12.2433394506
 10
-12.7030361544
 20
-12.2247503375
 10
-12.7199738115
 20
-12.2081917622
 10
-12.7372218804
 20
-12.1938435684
 10
-12.7549790661
 20
-12.1815258111
 10
-12.773245145
 20
-12.1712383936
  0
LINE
  5
31C
100
AcDbEntity
  8
0
100
AcDbLine
 62
7
  6
CONTINUOUS
 10
-12.1935050344
 20
8.2585191981
 11
-12.1934983208
 21
8.2553285136
  0
LINE
  5
31D
100
AcDbEntity
  8
ASSI
100
AcDbLine
 62
250
  6
CONTINUOUS
 10
-13.2909657152
 20
21.2029782584
 11
-13.2909657152
 21
21.9538112833
  0
LINE
  5
31E
100
AcDbEntity
  8
ASSI
100
AcDbLine
 62
250
  6
CONTINUOUS
 10
-12.9405244273
 20
21.0786306818
 11
-12.9405244273
 21
21.6758588375
  0
LINE
  5
31F
100
AcDbEntity
  8
ASSI
100
AcDbLine
 62
7
  6
CONTINUOUS
 10
-12.3977983646
 20
21.4044958061
 11
-12.3977983646
 21
20.9635013643
  0
LINE
  5
320
100
AcDbEntity
  8
ASSI
100
AcDbLine
 62
250
  6
CONTINUOUS
 10
-12.3554971969
 20
21.4860770241
 11
-12.3554971969
 21
21.8033458245
  0
LINE
  5
321
100
AcDbEntity
  8
ASSI
100
AcDbLine
 62
250
  6
CONTINUOUS
 10
-12.0751441666
 20
21.4848537222
 11
-12.0751441666
 21
21.8021225226
  0
LINE
  5
322
100
AcDbEntity
  8
ASSI
100
AcDbLine
 62
250
  6
CONTINUOUS
 10
-11.6707914159
 20
20.5319181876
 11
-11.6707914159
 21
21.2120894759
  0
LINE
  5
323
100
AcDbEntity
  8
ASSI
100
AcDbLine
 62
250
  6
CONTINUOUS
 10
-11.320350128
 20
21.2997380976
 11
-11.320350128
 21
20.5415376515
  0
LINE
  5
324
100
AcDbEntity
  8
0
100
AcDbLine
 62
7
  6
CONTINUOUS
 10
-11.6479260583
 20
7.6592818036
 11
-11.6477122607
 21
7.678097762
  0
LWPOLYLINE
  5
325
100
AcDbEntity
  8
0
100
AcDbPolyline
 62
7
  6
CONTINUOUS
 90
3
 70
0
 10
-12.1934920957
 20
8.2559588579
 10
-12.1935378963
 20
8.2524798606
 10
-12.1936157612
 20
8.2497235101
  0
LWPOLYLINE
  5
326
100
AcDbEntity
  8
ASSI
100
AcDbPolyline
 62
250
  6
CONTINUOUS
 90
28
 70
0
 10
-12.0751441666
 20
21.8021225226
 10
-12.0751124095
 20
21.8042624694
 10
-12.0749769715
 20
21.8064909884
 10
-12.0747378526
 20
21.8088080797
 10
-12.0743991524
 20
21.8112252961
 10
-12.0739567713
 20
21.8137310847
 10
-12.073398411
 20
21.816290787
 10
-12.0727200232
 20
21.8189071889
 10
-12.0719256563
 20
21.8215775044
 10
-12.0710151564
 20
21.8242587171
 10
-12.0699844461
 20
21.8269516285
 10
-12.0688376028
 20
21.8296554371
 10
-12.0675867057
 20
21.8323247219
 10
-12.0662297281
 20
21.8349565882
 10
-12.0647686967
 20
21.8375539307
 10
-12.0632217707
 20
21.8400800125
 10
-12.0615887329
 20
21.8425314605
 10
-12.0598698005
 20
21.8449116478
 10
-12.0580837846
 20
21.8471939559
 10
-12.0562301312
 20
21.8493769422
 10
-12.0543093943
 20
21.8514620493
 10
-12.0523420474
 20
21.8534269866
 10
-12.0503275298
 20
21.8552704461
 10
-12.0482664022
 20
21.8569937358
 10
-12.0461808203
 20
21.8585784897
 10
-12.0440781692
 20
21.8600185856
 10
-12.0419510638
 20
21.8613201456
 10
-12.039799504
 20
21.8624831698
  0
LINE
  5
327
100
AcDbEntity
  8
0
100
AcDbLine
 62
7
  6
CONTINUOUS
 10
-12.6744760477
 20
-16.1908884332
 11
-12.682124811
 21
-16.7049336469
  0
LINE
  5
328
100
AcDbEntity
  8
0
100
AcDbLine
 62
7
  6
CONTINUOUS
 10
-12.6751962858
 20
-16.2362888873
 11
-12.6677578677
 21
-15.7674056651
  0
LWPOLYLINE
  5
329
100
AcDbEntity
  8
ASSI
100
AcDbPolyline
 62
250
  6
CONTINUOUS
 90
28
 70
0
 10
-12.3554971969
 20
21.8033458245
 10
-12.3552860911
 20
21.814014822
 10
-12.3546295523
 20
21.825165802
 10
-12.3534940337
 20
21.8367851094
 10
-12.3518422887
 20
21.8488826087
 10
-12.3496443392
 20
21.8614071727
 10
-12.3468892792
 20
21.8742439307
 10
-12.3435583426
 20
21.8873578993
 10
-12.3396352153
 20
21.9007090772
 10
-12.3351365364
 20
21.91416666
 10
-12.3300615216
 20
21.9276829199
 10
-12.3244112284
 20
21.9412101758
 10
-12.3182286708
 20
21.9546167827
 10
-12.3115357629
 20
21.9678416694
 10
-12.3043450276
 20
21.9808477438
 10
-12.2967025778
 20
21.9935444288
 10
-12.2886422852
 20
22.0058747982
 10
-12.2801850619
 20
22.0178063495
 10
-12.2713650411
 20
22.0292903639
 10
-12.2622146315
 20
22.0402844053
 10
-12.2527649168
 20
22.0507509462
 10
-12.2430504643
 20
22.0606519935
 10
-12.2331053988
 20
22.0699525781
 10
-12.2229651289
 20
22.0786194147
 10
-12.2126675207
 20
22.086620677
 10
-12.2022497234
 20
22.0939279535
 10
-12.1917479459
 20
22.1005160038
 10
-12.181199321
 20
22.1063617791
  0
LWPOLYLINE
  5
32A
100
AcDbEntity
  8
0
100
AcDbPolyline
 62
7
  6
CONTINUOUS
 90
10
 70
0
 10
-13.1317431772
 20
-12.2134213726
 10
-13.1427503923
 20
-12.6839564941
 10
-13.1532478426
 20
-13.1542583055
 10
-13.1632355077
 20
-13.6243259585
 10
-13.1727133663
 20
-14.0941585528
 10
-13.1816813993
 20
-14.5637552921
 10
-13.1901395892
 20
-15.0331154837
 10
-13.198087916
 20
-15.5022383309
 10
-13.2055263581
 20
-15.9711229329
 10
-13.2124548945
 20
-16.4397684409
  0
LWPOLYLINE
  5
32B
100
AcDbEntity
  8
0
100
AcDbPolyline
 62
7
  6
CONTINUOUS
 90
8
 70
0
 10
-12.6014130927
 20
-12.4785864772
 10
-12.6124202757
 20
-12.9491201911
 10
-12.6229177122
 20
-13.4194213077
 10
-12.6329053799
 20
-13.8894889776
 10
-12.6423832643
 20
-14.3593227745
 10
-12.6513513337
 20
-14.8289214253
 10
-12.6598095433
 20
-15.2982828122
 10
-12.6677578677
 20
-15.7674056651
  0
LWPOLYLINE
  5
32C
100
AcDbEntity
  8
0
100
AcDbPolyline
 62
7
  6
CONTINUOUS
 90
13
 70
0
 10
-11.6477122856
 20
7.6780973984
 10
-11.6480963459
 20
7.6643229026
 10
-11.64742222
 20
7.6503687582
 10
-11.6456898836
 20
7.6362349768
 10
-11.6428644888
 20
7.6217581371
 10
-11.638980719
 20
7.6071017337
 10
-11.6341428491
 20
7.592756153
 10
-11.6283009022
 20
7.5787222117
 10
-11.6215046123
 20
7.564999203
 10
-11.6140079204
 20
7.5520751871
 10
-11.6058954441
 20
7.5401128654
 10
-11.597082379
 20
7.5289496226
 10
-11.5875685913
 20
7.5185855188
  0
LWPOLYLINE
  5
32D
100
AcDbEntity
  8
0
100
AcDbPolyline
 62
7
  6
CONTINUOUS
 90
3
 70
0
 10
-12.193652789
 20
8.2488320766
 10
-12.1935729426
 20
8.2511289313
 10
-12.1935182167
 20
8.2535022526
  0
LWPOLYLINE
  5
32E
100
AcDbEntity
  8
0
100
AcDbPolyline
 62
7
  6
CONTINUOUS
 90
16
 70
0
 10
-12.682124811
 20
-16.7049336469
 10
-12.6827246128
 20
-16.7191173619
 10
-12.6840640667
 20
-16.7327477617
 10
-12.6861431627
 20
-16.7458248426
 10
-12.6889773106
 20
-16.7583992774
 10
-12.6925510233
 20
-16.7704203602
 10
-12.6968179411
 20
-16.7817360176
 10
-12.7017864551
 20
-16.7923380436
 10
-12.7074480424
 20
-16.8022345884
 10
-12.7137309951
 20
-16.8112981233
 10
-12.7206439879
 20
-16.8195162122
 10
-12.7281781756
 20
-16.8269012193
 10
-12.7362356089
 20
-16.8333628336
 10
-12.7448219417
 20
-16.8388914117
 10
-12.7539313378
 20
-16.8434965201
 10
-12.7604239743
 20
-16.846090012
  0
LINE
  5
32F
100
AcDbEntity
  8
0
100
AcDbLine
 62
7
  6
CONTINUOUS
 10
-12.1937525426
 20
8.2467960692
 11
-12.1936157612
 21
8.2497235101
  0
LINE
  5
330
100
AcDbEntity
  8
0
100
AcDbLine
 62
7
  6
CONTINUOUS
 10
-13.1317431786
 20
-12.2134214343
 11
-13.1310046673
 21
-12.1991791904
  0
LINE
  5
331
100
AcDbEntity
  8
0
100
AcDbLine
 62
7
  6
CONTINUOUS
 10
-12.6833852483
 20
-16.7270302654
 11
-12.6821248118
 21
-16.7049337024
  0
LINE
  5
332
100
AcDbEntity
  8
0
100
AcDbLine
 62
7
  6
CONTINUOUS
 10
-12.1937358965
 20
8.2470596281
 11
-12.1938983036
 21
8.2444882143
  0
LINE
  5
333
100
AcDbEntity
  8
0
100
AcDbLine
 62
7
  6
CONTINUOUS
 10
-12.1938983036
 20
8.2444882143
 11
-12.2133975988
 21
7.9609417426
  0
LINE
  5
334
100
AcDbEntity
  8
0
100
AcDbLine
 62
7
  6
CONTINUOUS
 10
-11.6282131292
 20
7.9616418758
 11
-11.6477122856
 21
7.6780973984
  0
LWPOLYLINE
  5
335
100
AcDbEntity
  8
0
100
AcDbPolyline
 62
7
  6
CONTINUOUS
 90
12
 70
0
 10
-13.1310046673
 20
-12.1991791904
 10
-13.1295317028
 20
-12.1854920695
 10
-13.1273242758
 20
-12.172360068
 10
-13.1243664605
 20
-12.1597322042
 10
-13.120674103
 20
-12.1476594257
 10
-13.1162948456
 20
-12.1362946204
 10
-13.1112202548
 20
-12.1256460207
 10
-13.1054586219
 20
-12.1157053336
 10
-13.0990826991
 20
-12.1066006691
 10
-13.0920837597
 20
-12.098344434
 10
-13.0844703432
 20
-12.0909241417
 10
-13.0763411391
 20
-12.0844305794
  0
LINE
  5
336
100
AcDbEntity
  8
0
100
AcDbLine
 62
7
  6
CONTINUOUS
 10
-11.6282131292
 20
7.9616418758
 11
-11.6271397282
 21
7.9713737683
  0
LWPOLYLINE
  5
337
100
AcDbEntity
  8
0
100
AcDbPolyline
 62
7
  6
CONTINUOUS
 90
3
 70
0
 10
-10.7113571148
 20
4.6100731341
 10
-10.736921651
 20
4.3913233441
 10
-10.7661990207
 20
4.1746538463
  0
LWPOLYLINE
  5
338
100
AcDbEntity
  8
ASSI
100
AcDbPolyline
 62
250
  6
CONTINUOUS
 90
7
 70
0
 10
-9.8035309269
 20
22.9834898619
 10
-9.8049864562
 20
22.9714473004
 10
-9.809756553
 20
22.9587335897
 10
-9.8177690163
 20
22.9464341181
 10
-9.8288897759
 20
22.9347546888
 10
-9.8429327517
 20
22.9238907299
 10
-9.8596629668
 20
22.9140240248
  0
LWPOLYLINE
  5
339
100
AcDbEntity
  8
ASSI
100
AcDbPolyline
 62
250
  6
CONTINUOUS
 90
7
 70
0
 10
-9.8035309269
 20
22.6435462671
 10
-9.8049864644
 20
22.6315036718
 10
-9.8097565685
 20
22.6187899647
 10
-9.8177690359
 20
22.6064904988
 10
-9.8288897951
 20
22.5948110769
 10
-9.8429327646
 20
22.5839471264
 10
-9.8596629668
 20
22.57408043
  0
LWPOLYLINE
  5
33A
100
AcDbEntity
  8
0
100
AcDbPolyline
 62
7
  6
CONTINUOUS
 90
9
 70
0
 10
-12.2133975988
 20
7.9609417426
 10
-12.2157066771
 20
7.9430847575
 10
-12.2197175844
 20
7.9270010667
 10
-12.2254302594
 20
7.9126907004
 10
-12.2330376063
 20
7.8999376995
 10
-12.2423462333
 20
7.8889582386
 10
-12.2527767065
 20
7.8804005209
 10
-12.2641358125
 20
7.8744806483
 10
-12.2662623748
 20
7.8736853969
  0
LINE
  5
33B
100
AcDbEntity
  8
0
100
AcDbLine
 62
7
  6
CONTINUOUS
 10
-10.7729699431
 20
4.1318667397
 11
-10.7661995831
 21
4.1746499519
  0
LWPOLYLINE
  5
33C
100
AcDbEntity
  8
0
100
AcDbPolyline
 62
7
  6
CONTINUOUS
 90
15
 70
0
 10
-11.6271922212
 20
7.9710430256
 10
-11.6256736205
 20
7.9804611172
 10
-11.6238148798
 20
7.988903098
 10
-11.6215203295
 20
7.9966745071
 10
-11.618833158
 20
8.0038005451
 10
-11.6158829273
 20
8.0103568126
 10
-11.6126722783
 20
8.0163512
 10
-11.6091985659
 20
8.0217758205
 10
-11.6055834366
 20
8.026682603
 10
-11.6018343754
 20
8.0310637412
 10
-11.5979438989
 20
8.0349270423
 10
-11.5940112192
 20
8.0383478475
 10
-11.5900559861
 20
8.0413192399
 10
-11.5860585623
 20
8.0438481322
 10
-11.5829608479
 20
8.045562865
  0
LWPOLYLINE
  5
33D
100
AcDbEntity
  8
0
100
AcDbPolyline
 62
7
  6
CONTINUOUS
 90
13
 70
0
 10
-11.1907028149
 20
4.4344192543
 10
-11.1986922405
 20
4.386970671
 10
-11.2087163269
 20
4.3411267735
 10
-11.2207748309
 20
4.2968876751
 10
-11.2349100602
 20
4.2541164289
 10
-11.2510787458
 20
4.2129504151
 10
-11.2691522456
 20
4.1738012572
 10
-11.2891663734
 20
4.1366871811
 10
-11.3110838977
 20
4.1015906028
 10
-11.3346668467
 20
4.0688693351
 10
-11.3598354596
 20
4.0386428509
 10
-11.3866678975
 20
4.0107924045
 10
-11.4151631508
 20
3.9853184493
  0
LWPOLYLINE
  5
33E
100
AcDbEntity
  8
0
100
AcDbPolyline
 62
7
  6
CONTINUOUS
 90
5
 70
0
 10
-10.8106691244
 20
3.9683771334
 10
-10.7996498129
 20
4.00811073
 10
-10.789689915
 20
4.0486165665
 10
-10.7808000802
 20
4.0898555986
 10
-10.7729699431
 20
4.1318667397
  0
LWPOLYLINE
  5
33F
100
AcDbEntity
  8
0
100
AcDbPolyline
 62
7
  6
CONTINUOUS
 90
6
 70
0
 10
-10.8106686384
 20
3.9683787997
 10
-10.8227158379
 20
3.9295339661
 10
-10.8357931501
 20
3.8915834281
 10
-10.8498978548
 20
3.8545223407
 10
-10.864990821
 20
3.8184529044
 10
-10.8810745188
 20
3.7833779631
  0
LINE
  5
340
100
AcDbEntity
  8
0
100
AcDbLine
 62
7
  6
CONTINUOUS
 10
-10.8981457388
 20
3.7492952696
 11
-10.8810744441
 21
3.7833781223
  0
LINE
  5
341
100
AcDbEntity
  8
0
100
AcDbLine
 62
7
  6
CONTINUOUS
 10
-10.8981459198
 20
3.7492949288
 11
-10.9161576821
 21
3.7162978403
  0
LWPOLYLINE
  5
342
100
AcDbEntity
  8
RACCORDO
100
AcDbPolyline
 62
250
  6
CONTINUOUS
 90
47
 70
0
 10
1.6227697146
 20
22.9435894013
 10
1.6515364898
 20
22.98204236
 10
1.7008197081
 20
23.0388230374
 10
1.7559533827
 20
23.0944136518
 10
1.8164568611
 20
23.1483561741
 10
1.8823292127
 20
23.2006090736
 10
1.953571368
 20
23.251213881
 10
2.0297054657
 20
23.2998371595
 10
2.1107220947
 20
23.3464649021
 10
2.1966306661
 20
23.3911111157
 10
2.2869815518
 20
23.4334843848
 10
2.382031832
 20
23.4736435828
 10
2.4815244265
 20
23.5115298363
 10
2.5842384668
 20
23.5466751094
 10
2.6905793356
 20
23.5790528293
 10
2.8001416502
 20
23.6086895689
 10
2.9104883946
 20
23.6351970111
 10
3.0215929115
 20
23.6583964045
 10
3.1334818582
 20
23.6784665006
 10
3.2437981903
 20
23.6955552363
 10
3.3521886802
 20
23.7095291322
 10
3.4590065555
 20
23.7205216678
 10
3.5629544546
 20
23.729081219
 10
3.6637902891
 20
23.7351837885
 10
3.7617561473
 20
23.7388533737
 10
3.8562809337
 20
23.7407103425
 10
3.9472026738
 20
23.7407762114
 10
4.034683342
 20
23.7390294639
 10
4.1186377653
 20
23.7360259185
 10
4.1989418387
 20
23.7318071179
 10
4.2757196673
 20
23.7263315194
 10
4.3492583938
 20
23.7200303138
 10
4.4195249274
 20
23.71294428
 10
4.486552359
 20
23.7050326391
 10
4.5507271032
 20
23.6966042449
 10
4.61203485
 20
23.6876936044
 10
4.6704899094
 20
23.6782662106
 10
4.7265216259
 20
23.6685273968
 10
4.7801262095
 20
23.658505875
 10
4.8313074501
 20
23.6481729333
 10
4.8805060624
 20
23.6376477686
 10
4.9277252073
 20
23.6269532294
 10
4.9729617239
 20
23.6160664673
 10
5.0166468438
 20
23.6050381336
 10
5.0589243109
 20
23.5938851123
 10
5.0996503813
 20
23.5825905195
 10
5.138825055
 20
23.5711543552
  0
LWPOLYLINE
  5
343
100
AcDbEntity
  8
ASSI
100
AcDbPolyline
 62
7
  6
CONTINUOUS
 90
16
 70
0
 10
1.6410976488
 20
19.2927093647
 10
1.6645359957
 20
19.3144367674
 10
1.6847576833
 20
19.3396619001
 10
1.7017627113
 20
19.3683847626
 10
1.7156534944
 20
19.4009332028
 10
1.7263276181
 20
19.436979373
 10
1.7334778387
 20
19.4755397299
 10
1.7370017417
 20
19.516787916
 10
1.7370017417
 20
19.5605502888
 10
1.7334778387
 20
19.6053223779
 10
1.7263276181
 20
19.6510329555
 10
1.7156534944
 20
19.6977532493
 10
1.7017627113
 20
19.7441924726
 10
1.6847576833
 20
19.7899203632
 10
1.6645359957
 20
19.8353671834
 10
1.6410976488
 20
19.880532933
  0
LINE
  5
344
100
AcDbEntity
  8
ASSI
100
AcDbLine
 62
7
  6
CONTINUOUS
 10
-0.9314927095
 20
15.7317615255
 11
-0.8980292962
 21
15.7573430738
  0
LWPOLYLINE
  5
345
100
AcDbEntity
  8
ASSI
100
AcDbPolyline
 62
250
  6
CONTINUOUS
 90
7
 70
0
 10
2.7268377383
 20
16.6207736723
 10
2.7435679394
 20
16.6306403679
 10
2.7576109084
 20
16.6415043176
 10
2.7687316675
 20
16.6531837389
 10
2.7767441352
 20
16.6654832043
 10
2.78151424
 20
16.678196911
 10
2.7829697783
 20
16.6902395092
  0
LWPOLYLINE
  5
346
100
AcDbEntity
  8
ASSI
100
AcDbPolyline
 62
250
  6
CONTINUOUS
 90
7
 70
0
 10
2.7268377383
 20
16.2808300774
 10
2.7435679535
 20
16.2906967825
 10
2.7576109292
 20
16.3015607413
 10
2.7687316888
 20
16.3132401707
 10
2.7767441521
 20
16.3255396423
 10
2.781514249
 20
16.3382533529
 10
2.7829697783
 20
16.3502959145
  0
LINE
  5
347
100
AcDbEntity
  8
ASSI
100
AcDbLine
 62
7
  6
CONTINUOUS
 10
2.1686013278
 20
14.7409616898
 11
1.2661505771
 21
14.2482872989
  0
LWPOLYLINE
  5
348
100
AcDbEntity
  8
0
100
AcDbPolyline
 62
7
  6
CONTINUOUS
 90
15
 70
0
 10
-11.5829680042
 20
8.0455787632
 10
-11.5841484503
 20
8.0449389747
 10
-11.5880159972
 20
8.0426450947
 10
-11.5918775797
 20
8.0400126086
 10
-11.5956873219
 20
8.0369577695
 10
-11.5994606075
 20
8.033474271
 10
-11.6031820434
 20
8.0295684225
 10
-11.6067596004
 20
8.0251753963
 10
-11.6101988754
 20
8.0202891183
 10
-11.6134942711
 20
8.0149156613
 10
-11.616536983
 20
8.0090084105
 10
-11.619329866
 20
8.0025747905
 10
-11.6218700685
 20
7.9956073736
 10
-11.6240402369
 20
7.9880372619
 10
-11.6258012519
 20
7.9798414896
  0
LINE
  5
349
100
AcDbEntity
  8
ASSI
100
AcDbLine
 62
250
  6
CONTINUOUS
 10
2.2043200041
 20
14.7231023517
 11
1.1158854682
 21
14.1385797455
  0
LINE
  5
34A
100
AcDbEntity
  8
ASSI
100
AcDbLine
 62
250
  6
CONTINUOUS
 10
2.5575100575
 20
14.1134944195
 11
1.4690755216
 21
13.5289718133
  0
LINE
  5
34B
100
AcDbEntity
  8
ASSI
100
AcDbLine
 62
7
  6
CONTINUOUS
 10
8.8440706289
 20
18.6650471998
 11
2.4571817871
 21
15.2886617117
  0
LINE
  5
34C
100
AcDbEntity
  8
0
100
AcDbLine
 62
7
  6
CONTINUOUS
 10
8.8397181031
 20
19.3205302599
 11
9.4720061693
 21
19.6539482596
  0
LINE
  5
34D
100
AcDbEntity
  8
RACCORDO
100
AcDbLine
 62
250
  6
CONTINUOUS
 10
9.4718783873
 20
19.6538808727
 11
9.4720061693
 21
19.6539482596
  0
LINE
  5
34E
100
AcDbEntity
  8
DRAFT
100
AcDbLine
 62
7
  6
CONTINUOUS
 10
2.9138220109
 20
15.0593070051
 11
9.2065398466
 21
18.3649344288
  0
LINE
  5
34F
100
AcDbEntity
  8
ASSI
100
AcDbLine
 62
7
  6
CONTINUOUS
 10
8.8214033388
 20
19.0637423151
 11
2.2841275755
 21
15.637300897
  0
LWPOLYLINE
  5
350
100
AcDbEntity
  8
0
100
AcDbPolyline
 62
7
  6
CONTINUOUS
 90
12
 70
0
 10
-11.5829608479
 20
8.045562865
 10
-11.5820592403
 20
8.0460306058
 10
-11.578064542
 20
8.0478751078
 10
-11.5740679569
 20
8.0493731868
 10
-11.5700902331
 20
8.0505955746
 10
-11.5661288005
 20
8.0515483565
 10
-11.5621862395
 20
8.0522254432
 10
-11.5582910271
 20
8.0526793033
 10
-11.5544454364
 20
8.0529115279
 10
-11.5506472084
 20
8.0529205201
 10
-11.5469180267
 20
8.0527539641
 10
-11.5432593619
 20
8.0524128994
  0
LINE
  5
351
100
AcDbEntity
  8
0
100
AcDbLine
 62
7
  6
CONTINUOUS
 10
9.6002935981
 20
19.4308565282
 11
10.0952683449
 21
19.6783439017
  0
LINE
  5
352
100
AcDbEntity
  8
RACCORDO
100
AcDbLine
 62
7
  6
CONTINUOUS
 10
12.5634462574
 20
19.858843754
 11
11.2519819464
 21
19.2031115984
  0
LINE
  5
353
100
AcDbEntity
  8
RACCORDO
100
AcDbLine
 62
7
  6
CONTINUOUS
 10
13.4119769652
 20
19.4345809704
 11
12.5901931394
 21
19.0236890575
  0
LINE
  5
354
100
AcDbEntity
  8
ASSI
100
AcDbLine
 62
250
  6
CONTINUOUS
 10
2.8987747012
 20
15.0678652547
 11
2.2040105148
 21
14.7232570963
  0
LINE
  5
355
100
AcDbEntity
  8
ASSI
100
AcDbLine
 62
250
  6
CONTINUOUS
 10
3.2522742439
 20
14.4581687314
 11
2.5575100575
 21
14.113560573
  0
LWPOLYLINE
  5
356
100
AcDbEntity
  8
0
100
AcDbPolyline
 62
7
  6
CONTINUOUS
 90
4
 70
0
 10
-12.8290155556
 20
8.3511651663
 10
-12.7861145733
 20
8.3719284068
 10
-12.7140923622
 20
8.400330056
 10
-12.6392720732
 20
8.4221886809
  0
LINE
  5
357
100
AcDbEntity
  8
RACCORDO
100
AcDbLine
 62
7
  6
CONTINUOUS
 10
16.9916023221
 20
21.0233493375
 11
13.4281714856
 21
19.3130945896
  0
LWPOLYLINE
  5
358
100
AcDbEntity
  8
RACCORDO
100
AcDbPolyline
 62
7
  6
CONTINUOUS
 90
10
 70
0
 10
13.4119480693
 20
19.4345665224
 10
13.4233445335
 20
19.4397351777
 10
13.434564936
 20
19.4437870741
 10
13.4456092767
 20
19.4467222116
 10
13.4565725357
 20
19.4485407429
 10
13.4673597328
 20
19.4492425154
 10
13.4776859282
 20
19.4488270711
 10
13.487456142
 20
19.4472942572
 10
13.496765354
 20
19.4446442264
 10
13.5056135643
 20
19.4408769788
  0
LINE
  5
359
100
AcDbEntity
  8
RACCORDO
100
AcDbLine
 62
250
  6
CONTINUOUS
 10
-2.994340942
 20
12.0261280985
 11
0.3700747077
 21
13.5173366701
  0
LINE
  5
35A
100
AcDbEntity
  8
RACCORDO
100
AcDbLine
 62
250
  6
CONTINUOUS
 10
-2.6594059195
 20
11.4078922794
 11
0.7050097303
 21
12.899100851
  0
LWPOLYLINE
  5
35B
100
AcDbEntity
  8
0
100
AcDbPolyline
 62
7
  6
CONTINUOUS
 90
4
 70
0
 10
-12.2662591387
 20
7.8736769042
 10
-12.2614632988
 20
7.8756337121
 10
-12.25283788
 20
7.8804197581
 10
-12.2447411383
 20
7.8866155101
  0
LWPOLYLINE
  5
35C
100
AcDbEntity
  8
0
100
AcDbPolyline
 62
7
  6
CONTINUOUS
 90
6
 70
0
 10
-12.5136610213
 20
7.8346838859
 10
-12.5302281044
 20
7.8284931551
 10
-12.574374854
 20
7.809154668
 10
-12.6167190793
 20
7.7863273576
 10
-12.6574250605
 20
7.7599486884
 10
-12.696494168
 20
7.730018047
  0
LINE
  5
35D
100
AcDbEntity
  8
0
100
AcDbLine
 62
7
  6
CONTINUOUS
 10
-12.4844397669
 20
7.8442817672
 11
-12.5136610213
 21
7.8346838859
  0
LWPOLYLINE
  5
35E
100
AcDbEntity
  8
0
100
AcDbPolyline
 62
7
  6
CONTINUOUS
 90
3
 70
0
 10
-13.0046800515
 20
-12.0662470131
 10
-13.0222378406
 20
-12.065888944
 10
-13.0393500844
 20
-12.0681142558
  0
LWPOLYLINE
  5
35F
100
AcDbEntity
  8
ASSI
100
AcDbPolyline
 62
250
  6
CONTINUOUS
 90
7
 70
0
 10
-14.4785771168
 20
22.5889700548
 10
-14.4766710515
 20
22.5752650968
 10
-14.4714579114
 20
22.5625949474
 10
-14.4630173577
 20
22.5503672675
 10
-14.4514906236
 20
22.5387866589
 10
-14.4370705822
 20
22.5280468966
 10
-14.4199985196
 20
22.5183276855
  0
LWPOLYLINE
  5
360
100
AcDbEntity
  8
ASSI
100
AcDbPolyline
 62
250
  6
CONTINUOUS
 90
7
 70
0
 10
-14.4785771554
 20
22.9062787999
 10
-14.4766710584
 20
22.8925339219
 10
-14.4714579234
 20
22.8798637695
 10
-14.4630173723
 20
22.8676360851
 10
-14.4514906375
 20
22.8560554712
 10
-14.4370705914
 20
22.8453157029
 10
-14.4199985196
 20
22.8355964859
  0
LWPOLYLINE
  5
361
100
AcDbEntity
  8
ASSI
100
AcDbPolyline
 62
7
  6
CONTINUOUS
 90
13
 70
0
 10
-10.4178993773
 20
22.6796866895
 10
-10.4191029942
 20
22.7028993255
 10
-10.4227122242
 20
22.7269205301
 10
-10.4286611336
 20
22.7513417436
 10
-10.4368432659
 20
22.7757480108
 10
-10.4471178005
 20
22.7997221531
 10
-10.4593118127
 20
22.8228519402
 10
-10.4732192329
 20
22.8447404649
 10
-10.4885996588
 20
22.865014584
 10
-10.5051865564
 20
22.883328574
 10
-10.522696977
 20
22.8993687196
 10
-10.5408364809
 20
22.9128585324
 10
-10.5592991944
 20
22.9235652989
  0
LWPOLYLINE
  5
362
100
AcDbEntity
  8
0
100
AcDbPolyline
 62
7
  6
CONTINUOUS
 90
10
 70
0
 10
-11.0674629204
 20
6.3545890753
 10
-11.0701106026
 20
6.4251572655
 10
-11.076485896
 20
6.4961580159
 10
-11.0865880599
 20
6.5675916726
 10
-11.1005381082
 20
6.6399217727
 10
-11.1182121027
 20
6.7126860968
 10
-11.1392420509
 20
6.7844962992
 10
-11.1635044966
 20
6.8548899777
 10
-11.1911196258
 20
6.924331043
 10
-11.2220851887
 20
6.9928205124
  0
LINE
  5
363
100
AcDbEntity
  8
0
100
AcDbLine
 62
7
  6
CONTINUOUS
 10
-10.6360553128
 20
5.9646685706
 11
-10.6365629002
 21
6.1967161176
  0
LWPOLYLINE
  5
364
100
AcDbEntity
  8
0
100
AcDbPolyline
 62
7
  6
CONTINUOUS
 90
10
 70
0
 10
-11.0674629165
 20
6.354589144
 10
-11.0670420384
 20
6.1342631763
 10
-11.0701525171
 20
5.9156059441
 10
-11.0767957359
 20
5.6986169074
 10
-11.0869789707
 20
5.4831951904
 10
-11.1006963619
 20
5.2694411755
 10
-11.1179293817
 20
5.0576563171
 10
-11.1386719672
 20
4.8479411098
 10
-11.1629300407
 20
4.6401952815
 10
-11.1907028149
 20
4.4344192543
  0
LINE
  5
365
100
AcDbEntity
  8
0
100
AcDbLine
 62
250
  6
CONTINUOUS
 10
-11.106394245
 20
19.3976374953
 11
-11.106394245
 21
19.2555711465
  0
LINE
  5
366
100
AcDbEntity
  8
0
100
AcDbLine
 62
250
  6
CONTINUOUS
 10
-10.8273019737
 20
19.2580913596
 11
-10.8273019737
 21
19.1160250108
  0
LINE
  5
367
100
AcDbEntity
  8
ASSI
100
AcDbLine
 62
7
  6
CONTINUOUS
 10
-10.4178993773
 20
21.0342120424
 11
-10.4178993773
 21
22.6796866895
  0
LINE
  5
368
100
AcDbEntity
  8
ASSI
100
AcDbLine
 62
250
  6
CONTINUOUS
 10
-9.8596629668
 20
22.9140240248
 11
-9.8596629668
 21
22.57408043
  0
LINE
  5
369
100
AcDbEntity
  8
ASSI
100
AcDbLine
 62
7
  6
CONTINUOUS
 10
-9.8035313536
 20
22.9836964384
 11
-9.8035309269
 21
22.6435462673
  0
LINE
  5
36A
100
AcDbEntity
  8
0
100
AcDbLine
 62
7
  6
CONTINUOUS
 10
-10.6392784848
 20
5.7343863354
 11
-10.6360553128
 21
5.9646685706
  0
LWPOLYLINE
  5
36B
100
AcDbEntity
  8
ASSI
100
AcDbPolyline
 62
250
  6
CONTINUOUS
 90
28
 70
0
 10
-8.6817634425
 20
20.9771702316
 10
-8.6817335809
 20
20.9792708414
 10
-8.6816010358
 20
20.9813631875
 10
-8.6813658071
 20
20.9834472698
 10
-8.6810324473
 20
20.9855393657
 10
-8.6805964039
 20
20.9876231979
 10
-8.6800440199
 20
20.9896499345
 10
-8.6793711505
 20
20.9916185255
 10
-8.6785819404
 20
20.9935300209
 10
-8.6776751676
 20
20.9953387384
 10
-8.676646532
 20
20.9970415044
 10
-8.6755003336
 20
20.9986414926
 10
-8.6742482496
 20
21.0001025422
 10
-8.6728876499
 20
21.0014196501
 10
-8.6714211646
 20
21.0025978194
 10
-8.6698683614
 20
21.0036158985
 10
-8.6682292041
 20
21.0044696272
 10
-8.666503729
 20
21.0051632658
 10
-8.6647116123
 20
21.0056884434
 10
-8.6628524174
 20
21.0060430241
 10
-8.6609265809
 20
21.0062291438
 10
-8.6589550881
 20
21.0062448396
 10
-8.6569373724
 20
21.0060882076
 10
-8.6548740004
 20
21.0057611517
 10
-8.6527876574
 20
21.0052674211
 10
-8.6506859053
 20
21.0046082654
 10
-8.6485611823
 20
21.0037824349
 10
-8.6464134883
 20
21.0027899297
  0
LWPOLYLINE
  5
36C
100
AcDbEntity
  8
ASSI
100
AcDbPolyline
 62
250
  6
CONTINUOUS
 90
19
 70
0
 10
-9.8596629668
 20
22.57408043
 10
-9.859694432
 20
22.5718995302
 10
-9.8598303484
 20
22.5696243266
 10
-9.860070716
 20
22.5672548191
 10
-9.8604110412
 20
22.5647795692
 10
-9.8608558175
 20
22.5622100155
 10
-9.8614185259
 20
22.5595804734
 10
-9.8621030557
 20
22.5568877376
 10
-9.8629055176
 20
22.5541350134
 10
-9.863827724
 20
22.5513662312
 10
-9.8648738628
 20
22.5485798547
 10
-9.8660397461
 20
22.5457774202
 10
-9.8673146224
 20
22.5430074669
 10
-9.8687022839
 20
22.5402706047
 10
-9.8701989384
 20
22.5375662237
 10
-9.8717824572
 20
22.534941033
 10
-9.8734454642
 20
22.5324106026
 10
-9.8751953357
 20
22.5299593625
 10
-9.8770320715
 20
22.5275873128
  0
LWPOLYLINE
  5
36D
100
AcDbEntity
  8
0
100
AcDbPolyline
 62
7
  6
CONTINUOUS
 90
3
 70
0
 10
-10.6392784564
 20
5.7343875688
 10
-10.6462340848
 20
5.5058704104
 10
-10.6569306879
 20
5.2790120211
  0
LINE
  5
36E
100
AcDbEntity
  8
ASSI
100
AcDbLine
 62
7
  6
CONTINUOUS
 10
-9.8043253011
 20
22.6233879889
 11
-9.8035311096
 21
22.6435625642
  0
LWPOLYLINE
  5
36F
100
AcDbEntity
  8
0
100
AcDbPolyline
 62
7
  6
CONTINUOUS
 90
4
 70
0
 10
-10.711357465
 20
4.6100698767
 10
-10.6895063891
 20
4.8308999101
 10
-10.6713619073
 20
5.0539150078
 10
-10.6569308052
 20
5.279009909
  0
LWPOLYLINE
  5
370
100
AcDbEntity
  8
ASSI
100
AcDbPolyline
 62
250
  6
CONTINUOUS
 90
17
 70
0
 10
-1.75893071
 20
16.756766054
 10
-1.7672689952
 20
16.7448689661
 10
-1.7752551233
 20
16.7325196037
 10
-1.7828605202
 20
16.7197480331
 10
-1.7900233444
 20
16.7066494572
 10
-1.7967095004
 20
16.6932853531
 10
-1.8029022586
 20
16.6796880824
 10
-1.808574647
 20
16.6659155707
 10
-1.8137051544
 20
16.6520199823
 10
-1.8182764435
 20
16.6380480884
 10
-1.8222718798
 20
16.6240508627
 10
-1.825677211
 20
16.6100779054
 10
-1.8284799946
 20
16.5961796855
 10
-1.8306699048
 20
16.5824083214
 10
-1.8322393173
 20
16.5688137954
 10
-1.8331829884
 20
16.5554438348
 10
-1.8334978145
 20
16.5423461333
  0
LWPOLYLINE
  5
371
100
AcDbEntity
  8
ASSI
100
AcDbPolyline
 62
7
  6
CONTINUOUS
 90
14
 70
0
 10
1.2661505771
 20
15.006487745
 10
1.2485402735
 20
14.9896491237
 10
1.229689471
 20
14.9737186267
 10
1.2096953601
 20
14.958897527
 10
1.1885962039
 20
14.9453838216
 10
1.1665933821
 20
14.9333493613
 10
1.1440550602
 20
14.9229297586
 10
1.1211419326
 20
14.9142514249
 10
1.09801467
 20
14.9074456674
 10
1.0750652907
 20
14.9025955452
 10
1.0525078415
 20
14.8997420667
 10
1.0304888282
 20
14.8989184397
 10
1.0093037558
 20
14.9001098481
 10
0.9885555647
 20
14.9033861959
  0
LWPOLYLINE
  5
372
100
AcDbEntity
  8
0
100
AcDbPolyline
 62
7
  6
CONTINUOUS
 90
10
 70
0
 10
-11.4151628332
 20
3.9853188309
 10
-11.3773539078
 20
4.0200382305
 10
-11.3426416923
 20
4.0588063738
 10
-11.3110286503
 20
4.101622157
 10
-11.2823623318
 20
4.1488199887
 10
-11.2567987479
 20
4.2000638385
 10
-11.2348032043
 20
4.2543468907
 10
-11.2165320216
 20
4.3113330016
 10
-11.2018317039
 20
4.3713570455
 10
-11.1907029003
 20
4.4344187191
  0
LWPOLYLINE
  5
373
100
AcDbEntity
  8
0
100
AcDbPolyline
 62
7
  6
CONTINUOUS
 90
10
 70
0
 10
-11.1183193516
 20
3.4714896039
 10
-11.0925183452
 20
3.4937704018
 10
-11.0675348214
 20
3.5173010523
 10
-11.043369247
 20
3.5420813448
 10
-11.0200005201
 20
3.5681368878
 10
-10.9974505696
 20
3.5954416969
 10
-10.9757844251
 20
3.6239181657
 10
-10.9550057991
 20
3.6535686086
 10
-10.9351117554
 20
3.684390358
 10
-10.916157417
 20
3.7162983058
  0
LWPOLYLINE
  5
374
100
AcDbEntity
  8
0
100
AcDbPolyline
 62
7
  6
CONTINUOUS
 90
4
 70
0
 10
-11.4151631508
 20
3.9853184493
 10
-11.4529101513
 20
3.956358673
 10
-11.4921453226
 20
3.9306997487
 10
-11.5247626483
 20
3.9124673423
  0
LINE
  5
375
100
AcDbEntity
  8
0
100
AcDbLine
 62
7
  6
CONTINUOUS
 10
-11.4662549521
 20
3.9465690511
 11
-11.4151628332
 21
3.9853188309
  0
LWPOLYLINE
  5
376
100
AcDbEntity
  8
0
100
AcDbPolyline
 62
7
  6
CONTINUOUS
 90
5
 70
0
 10
-11.1183192913
 20
3.4714896608
 10
-11.1945591798
 20
3.4151206145
 10
-11.2743588773
 20
3.367956576
 10
-11.3577121657
 20
3.3300003743
 10
-11.380720292
 20
3.3214176615
  0
LINE
  5
377
100
AcDbEntity
  8
0
100
AcDbLine
 62
7
  6
CONTINUOUS
 10
-11.5245974487
 20
3.9121038815
 11
-11.4662549521
 21
3.9465690511
  0
LINE
  5
378
100
AcDbEntity
  8
RACCORDO
100
AcDbLine
 62
250
  6
CONTINUOUS
 10
18.1597463658
 20
20.019315268
 11
3.5575731442
 21
12.5904189403
  0
LINE
  5
379
100
AcDbEntity
  8
RACCORDO
100
AcDbLine
 62
250
  6
CONTINUOUS
 10
9.9520667823
 20
17.07909067
 11
17.52400018
 21
20.7571504085
  0
LINE
  5
37A
100
AcDbEntity
  8
RACCORDO
100
AcDbLine
 62
250
  6
CONTINUOUS
 10
10.2897351162
 20
16.4966989429
 11
18.0239240276
 21
20.2535741492
  0
LINE
  5
37B
100
AcDbEntity
  8
0
100
AcDbLine
 62
7
  6
CONTINUOUS
 10
-13.0369571321
 20
4.1884503512
 11
-13.0881827065
 21
4.2707551156
  0
LINE
  5
37C
100
AcDbEntity
  8
0
100
AcDbLine
 62
7
  6
CONTINUOUS
 10
-13.0877947048
 20
4.2701063731
 11
-13.1359235055
 21
4.353489564
  0
LWPOLYLINE
  5
37D
100
AcDbEntity
  8
0
100
AcDbPolyline
 62
7
  6
CONTINUOUS
 90
3
 70
0
 10
-12.8247396738
 20
4.5970912422
 10
-12.8580652877
 20
4.6589836647
 10
-12.8895995047
 20
4.7225356592
  0
LWPOLYLINE
  5
37E
100
AcDbEntity
  8
0
100
AcDbPolyline
 62
7
  6
CONTINUOUS
 90
3
 70
0
 10
-13.13568228
 20
4.3530516237
 10
-13.1810093736
 20
4.4379241139
 10
-13.223443312
 20
4.5240574538
  0
LWPOLYLINE
  5
37F
100
AcDbEntity
  8
0
100
AcDbPolyline
 62
7
  6
CONTINUOUS
 90
23
 70
0
 10
-12.8896001397
 20
4.7225372577
 10
-12.8478274154
 20
4.6386491357
 10
-12.8018747879
 20
4.5567259003
 10
-12.7517371105
 20
4.476769797
 10
-12.6967808842
 20
4.3977864966
 10
-12.6376263553
 20
4.3207760916
 10
-12.5761528058
 20
4.2487308452
 10
-12.5121735913
 20
4.1821290352
 10
-12.4458694896
 20
4.1204950189
 10
-12.3796808355
 20
4.0653859294
 10
-12.3146310707
 20
4.0176465493
 10
-12.2497022037
 20
3.9764298309
 10
-12.1842762372
 20
3.9407535111
 10
-12.1182963197
 20
3.9101352382
 10
-12.0518187413
 20
3.8850576487
 10
-11.9843925027
 20
3.865987124
 10
-11.9151126128
 20
3.8527504036
 10
-11.8448790802
 20
3.8455229104
 10
-11.7759522278
 20
3.845292381
 10
-11.7083266511
 20
3.8526606623
 10
-11.6420125872
 20
3.8670237567
 10
-11.5793035194
 20
3.8875564204
 10
-11.5245974487
 20
3.9121038815
  0
LINE
  5
380
100
AcDbEntity
  8
0
100
AcDbLine
 62
7
  6
CONTINUOUS
 10
-13.2234422727
 20
4.5240552627
 11
-13.1808971247
 21
4.4377016954
  0
LINE
  5
381
100
AcDbEntity
  8
0
100
AcDbLine
 62
7
  6
CONTINUOUS
 10
-13.2445939392
 20
4.5697953248
 11
-13.2234422727
 21
4.5240552627
  0
LINE
  5
382
100
AcDbEntity
  8
0
100
AcDbLine
 62
7
  6
CONTINUOUS
 10
-12.8895995047
 20
4.7225356592
 11
-12.9128998246
 21
4.7737487451
  0
LWPOLYLINE
  5
383
100
AcDbEntity
  8
0
100
AcDbPolyline
 62
7
  6
CONTINUOUS
 90
19
 70
0
 10
-13.2445949046
 20
4.5697974638
 10
-13.2648370692
 20
4.6159278967
 10
-13.2841702776
 20
4.6624485473
 10
-13.3026125735
 20
4.7094059288
 10
-13.3201467501
 20
4.7567531631
 10
-13.3367204237
 20
4.8043499504
 10
-13.3523298657
 20
4.8521935433
 10
-13.3669795986
 20
4.9002863443
 10
-13.3806296854
 20
4.94849575
 10
-13.3932777678
 20
4.996821928
 10
-13.4049268987
 20
5.0452644094
 10
-13.4155453077
 20
5.0936896159
 10
-13.4251304828
 20
5.1420973521
 10
-13.4336855093
 20
5.1904875649
 10
-13.4411870482
 20
5.2387268758
 10
-13.4476324782
 20
5.2868163194
 10
-13.4530248534
 20
5.3347546736
 10
-13.4573493755
 20
5.3824051648
 10
-13.4606011941
 20
5.4297217179
  0
LWPOLYLINE
  5
384
100
AcDbEntity
  8
0
100
AcDbPolyline
 62
7
  6
CONTINUOUS
 90
10
 70
0
 10
-12.9128998246
 20
4.7737487451
 10
-12.9343816065
 20
4.8256081751
 10
-12.9540458524
 20
4.8781135111
 10
-12.9719521273
 20
4.9314325228
 10
-12.9880424601
 20
4.9853967395
 10
-13.0021416123
 20
5.0395013376
 10
-13.0142241079
 20
5.093767284
 10
-13.0243167921
 20
5.1481730122
 10
-13.0323231574
 20
5.2021498
 10
-13.0382114389
 20
5.2555078994
  0
LWPOLYLINE
  5
385
100
AcDbEntity
  8
ASSI
100
AcDbPolyline
 62
7
  6
CONTINUOUS
 90
4
 70
0
 10
-0.9431271301
 20
-25.4458112822
 10
-0.9318403205
 20
-25.4754289052
 10
-0.9161374955
 20
-25.5093519953
 10
-0.8980292962
 20
-25.5422610656
  0
LINE
  5
386
100
AcDbEntity
  8
0
100
AcDbLine
 62
7
  6
CONTINUOUS
 10
-12.2033123796
 20
8.318315485
 11
-12.2049603604
 21
8.3233651984
  0
LINE
  5
387
100
AcDbEntity
  8
0
100
AcDbLine
 62
7
  6
CONTINUOUS
 10
-12.201982761
 20
8.3138797459
 11
-12.20341955
 21
8.3186456161
  0
LINE
  5
388
100
AcDbEntity
  8
0
100
AcDbLine
 62
7
  6
CONTINUOUS
 10
-12.2020250421
 20
8.3140460954
 11
-12.2007763102
 21
8.309561484
  0
LINE
  5
389
100
AcDbEntity
  8
0
100
AcDbLine
 62
7
  6
CONTINUOUS
 10
-12.2007762735
 20
8.3095704744
 11
-12.1996490192
 21
8.3052000662
  0
LINE
  5
38A
100
AcDbEntity
  8
0
100
AcDbLine
 62
7
  6
CONTINUOUS
 10
-12.1986433264
 20
8.3009701389
 11
-12.1996943015
 21
8.3053979662
  0
LINE
  5
38B
100
AcDbEntity
  8
0
100
AcDbLine
 62
7
  6
CONTINUOUS
 10
-12.1987354748
 20
8.3013519196
 11
-12.197759088
 21
8.2968633995
  0
LINE
  5
38C
100
AcDbEntity
  8
0
100
AcDbLine
 62
7
  6
CONTINUOUS
 10
-12.1978742225
 20
8.2974201596
 11
-12.1969715154
 21
8.2928632336
  0
LWPOLYLINE
  5
38D
100
AcDbEntity
  8
0
100
AcDbPolyline
 62
7
  6
CONTINUOUS
 90
8
 70
0
 10
-12.1971084225
 20
8.2936026706
 10
-12.1962783087
 20
8.2889679029
 10
-12.1956817765
 20
8.2851791421
 10
-12.1951640405
 20
8.2814855468
 10
-12.1947235441
 20
8.2778831611
 10
-12.1943618498
 20
8.2743759385
 10
-12.1940657574
 20
8.2709643388
 10
-12.1938346702
 20
8.2676493977
  0
LWPOLYLINE
  5
38E
100
AcDbEntity
  8
ASSI
100
AcDbPolyline
 62
7
  6
CONTINUOUS
 90
10
 70
0
 10
-9.8035314562
 20
22.9836964383
 10
-9.8044131254
 20
23.0045418943
 10
-9.8087597367
 20
23.0342037654
 10
-9.8167261582
 20
23.0629167421
 10
-9.8282073511
 20
23.0901880292
 10
-9.8428849673
 20
23.1153668294
 10
-9.8605036845
 20
23.1381895228
 10
-9.8809068507
 20
23.1584935769
 10
-9.9036641855
 20
23.1758687274
 10
-9.9267777738
 20
23.1892655903
  0
LINE
  5
38F
100
AcDbEntity
  8
ASSI
100
AcDbLine
 62
7
  6
CONTINUOUS
 10
-8.7403420863
 20
19.863276404
 11
-8.7403420863
 21
21.0478809099
  0
LINE
  5
390
100
AcDbEntity
  8
ASSI
100
AcDbLine
 62
250
  6
CONTINUOUS
 10
-8.6817634425
 20
19.7898974503
 11
-8.6817634425
 21
20.9771702316
  0
LWPOLYLINE
  5
391
100
AcDbEntity
  8
ASSI
100
AcDbPolyline
 62
7
  6
CONTINUOUS
 90
10
 70
0
 10
-2.1801053765
 20
17.4193895041
 10
-2.1661643941
 20
17.4530692901
 10
-2.1557086573
 20
17.4891383226
 10
-2.1487381661
 20
17.5275966017
 10
-2.1452529206
 20
17.5688752097
 10
-2.1452529206
 20
17.6125430643
 10
-2.1487381661
 20
17.657306918
 10
-2.1557086573
 20
17.7027356882
 10
-2.1661643941
 20
17.7492604575
 10
-2.1801053765
 20
17.7968812259
  0
LWPOLYLINE
  5
392
100
AcDbEntity
  8
ASSI
100
AcDbPolyline
 62
7
  6
CONTINUOUS
 90
6
 70
0
 10
-0.9712502794
 20
15.6934235436
 10
-0.969453982
 20
15.6971035502
 10
-0.9642283563
 20
15.7032953457
 10
-0.9560311469
 20
15.711635674
 10
-0.9450586964
 20
15.7211974666
 10
-0.9314927095
 20
15.7317615255
  0
LWPOLYLINE
  5
393
100
AcDbEntity
  8
ASSI
100
AcDbPolyline
 62
250
  6
CONTINUOUS
 90
10
 70
0
 10
2.7094686337
 20
16.2343369602
 10
2.7129064897
 20
16.2389675889
 10
2.7159876843
 20
16.2437866534
 10
2.7187122174
 20
16.2487941538
 10
2.7211071923
 20
16.2540629136
 10
2.7231455057
 20
16.2595201093
 10
2.724745848
 20
16.2649472705
 10
2.7258811159
 20
16.2702715739
 10
2.7265784127
 20
16.2755658429
 10
2.7268377383
 20
16.2808300774
  0
LWPOLYLINE
  5
394
100
AcDbEntity
  8
ASSI
100
AcDbPolyline
 62
7
  6
CONTINUOUS
 90
6
 70
0
 10
2.7211295234
 20
16.1780613483
 10
2.7290141795
 20
16.1883016776
 10
2.7429867084
 20
16.209283649
 10
2.7551654518
 20
16.2317395254
 10
2.7654016057
 20
16.2555481875
 10
2.7732956793
 20
16.2797840074
  0
LINE
  5
395
100
AcDbEntity
  8
ASSI
100
AcDbLine
 62
250
  6
CONTINUOUS
 10
2.1686013278
 20
15.5650494741
 11
2.7094686337
 21
16.2343369602
  0
LINE
  5
396
100
AcDbEntity
  8
ASSI
100
AcDbLine
 62
7
  6
CONTINUOUS
 10
2.1686013278
 20
15.4943448132
 11
2.7211561283
 21
16.1780948002
  0
LWPOLYLINE
  5
397
100
AcDbEntity
  8
RACCORDO
100
AcDbPolyline
 62
250
  6
CONTINUOUS
 90
30
 70
0
 10
18.5738968414
 20
18.5876816934
 10
18.5925579799
 20
18.5976079224
 10
18.6106710748
 20
18.6077847487
 10
18.6282226754
 20
18.6182046125
 10
18.6451997475
 20
18.6288597769
 10
18.6615896841
 20
18.639742324
 10
18.6773803137
 20
18.6508441605
 10
18.6925599103
 20
18.66215704
 10
18.7071172014
 20
18.6736725593
 10
18.7210413765
 20
18.6853821555
 10
18.7343220957
 20
18.6972771305
 10
18.7469494965
 20
18.7093486492
 10
18.7589142017
 20
18.7215877359
 10
18.7702073264
 20
18.7339852997
 10
18.7808204841
 20
18.7465321321
 10
18.7907457935
 20
18.7592189051
 10
18.799975884
 20
18.7720361952
 10
18.8085039012
 20
18.7849744824
 10
18.8163235123
 20
18.798024149
 10
18.8234289103
 20
18.8111755016
 10
18.8298148187
 20
18.8244187725
 10
18.8354764954
 20
18.8377441188
 10
18.8404097358
 20
18.8511416426
 10
18.8446108766
 20
18.8646013933
 10
18.848076798
 20
18.878113369
 10
18.8508049262
 20
18.8916675331
 10
18.8527932352
 20
18.9052538186
 10
18.8540402485
 20
18.9188621313
 10
18.8545450402
 20
18.9324823627
 10
18.8545570407
 20
18.9349188621
  0
LINE
  5
398
100
AcDbEntity
  8
ASSI
100
AcDbLine
 62
7
  6
CONTINUOUS
 10
3.9470384303
 20
11.8973143124
 11
3.2522742439
 21
11.5331612813
  0
LWPOLYLINE
  5
399
100
AcDbEntity
  8
0
100
AcDbPolyline
 62
7
  6
CONTINUOUS
 90
17
 70
0
 10
-11.5247626483
 20
3.9124673423
 10
-11.5328673643
 20
3.908342264
 10
-11.5751923388
 20
3.8892557232
 10
-11.6190010627
 20
3.8734720163
 10
-11.6639396835
 20
3.8610851693
 10
-11.7100117329
 20
3.8520998448
 10
-11.7572109698
 20
3.8465125843
 10
-11.8051698122
 20
3.8444048274
 10
-11.8538689906
 20
3.8458065158
 10
-11.9033256453
 20
3.8506886463
 10
-11.9532277511
 20
3.8590438296
 10
-12.0036591908
 20
3.8709278135
 10
-12.0545343487
 20
3.8862856016
 10
-12.1052882847
 20
3.9049431082
 10
-12.1558121712
 20
3.9268848708
 10
-12.2062147833
 20
3.9521263616
 10
-12.2562588345
 20
3.9805393534
  0
LINE
  5
39A
100
AcDbEntity
  8
RACCORDO
100
AcDbLine
 62
250
  6
CONTINUOUS
 10
18.5738968414
 20
18.5876816934
 11
4.0087561053
 21
11.1776257458
  0
LWPOLYLINE
  5
39B
100
AcDbEntity
  8
0
100
AcDbPolyline
 62
7
  6
CONTINUOUS
 90
4
 70
0
 10
-11.3528429578
 20
3.3319168642
 10
-11.2707870281
 20
3.3696135639
 10
-11.1926101499
 20
3.4161388687
 10
-11.1183193516
 20
3.4714896039
  0
LINE
  5
39C
100
AcDbEntity
  8
0
100
AcDbLine
 62
7
  6
CONTINUOUS
 10
-11.3807441038
 20
3.3214789322
 11
-11.3528429578
 21
3.3319168642
  0
LINE
  5
39D
100
AcDbEntity
  8
0
100
AcDbLine
 62
7
  6
CONTINUOUS
 10
-12.751565189
 20
3.8195721867
 11
-12.8129931947
 21
3.8882180121
  0
LINE
  5
39E
100
AcDbEntity
  8
0
100
AcDbLine
 62
7
  6
CONTINUOUS
 10
-12.8116679307
 20
3.8866866134
 11
-12.8719259843
 21
3.9590244914
  0
LINE
  5
39F
100
AcDbEntity
  8
0
100
AcDbLine
 62
7
  6
CONTINUOUS
 10
-12.8707970988
 20
3.9576194921
 11
-12.9289966742
 21
4.0327672389
  0
LINE
  5
3A0
100
AcDbEntity
  8
0
100
AcDbLine
 62
7
  6
CONTINUOUS
 10
-12.9280611742
 20
4.031514569
 11
-12.9841845616
 21
4.1095725677
  0
LINE
  5
3A1
100
AcDbEntity
  8
0
100
AcDbLine
 62
7
  6
CONTINUOUS
 10
-12.9834395126
 20
4.1085023376
 11
-13.0375147159
 21
4.1893122153
  0
LWPOLYLINE
  5
3A2
100
AcDbEntity
  8
0
100
AcDbPolyline
 62
7
  6
CONTINUOUS
 90
22
 70
0
 10
-10.879394356
 20
7.1951177891
 10
-10.857972509
 20
7.149490405
 10
-10.8374703433
 20
7.1034684547
 10
-10.817888286
 20
7.0570517432
 10
-10.7992089129
 20
7.0101934097
 10
-10.7814504083
 20
6.9629399655
 10
-10.7646666403
 20
6.9154312628
 10
-10.7488622568
 20
6.8676696325
 10
-10.7340333589
 20
6.8196524002
 10
-10.7202210767
 20
6.7715118761
 10
-10.7074285971
 20
6.7232475769
 10
-10.6956534169
 20
6.6748596725
 10
-10.6849281921
 20
6.6264814285
 10
-10.6752561531
 20
6.578112776
 10
-10.6666346659
 20
6.529753511
 10
-10.659087639
 20
6.4815366778
 10
-10.6526182829
 20
6.4334610144
 10
-10.6472238748
 20
6.3855275601
 10
-10.6429194609
 20
6.3378727973
 10
-10.6397101976
 20
6.2905421573
 10
-10.6375913022
 20
6.2434900398
 10
-10.636562903
 20
6.1967163859
  0
LWPOLYLINE
  5
3A3
100
AcDbEntity
  8
0
100
AcDbPolyline
 62
7
  6
CONTINUOUS
 90
13
 70
0
 10
-11.2220844991
 20
6.9928189535
 10
-11.1986120638
 20
6.9416826384
 10
-11.1769760607
 20
6.88989123
 10
-11.1571774259
 20
6.8374443044
 10
-11.1391577844
 20
6.7841735732
 10
-11.122977008
 20
6.730246637
 10
-11.1088134913
 20
6.6761668702
 10
-11.0966948332
 20
6.6219121907
 10
-11.0865947989
 20
6.5675040577
 10
-11.0786113162
 20
6.5135110447
 10
-11.0727774645
 20
6.4601224835
 10
-11.0690612301
 20
6.4071485633
 10
-11.0674629165
 20
6.354589144
  0
LWPOLYLINE
  5
3A4
100
AcDbEntity
  8
0
100
AcDbPolyline
 62
7
  6
CONTINUOUS
 90
23
 70
0
 10
-12.2121932183
 20
8.3420481644
 10
-12.2144541753
 20
8.3470626023
 10
-12.2168998491
 20
8.352126991
 10
-12.2195305782
 20
8.3572434684
 10
-12.2223459938
 20
8.3624099098
 10
-12.2253641322
 20
8.3675863682
 10
-12.2285768849
 20
8.3727666485
 10
-12.2319923231
 20
8.377956962
 10
-12.2356527473
 20
8.3831359745
 10
-12.2395605387
 20
8.3883175101
 10
-12.2437132608
 20
8.3934877686
 10
-12.2481459786
 20
8.3985839837
 10
-12.2528721442
 20
8.4036268344
 10
-12.2578782302
 20
8.4085956743
 10
-12.2631588296
 20
8.4133657496
 10
-12.2687216481
 20
8.4179446137
 10
-12.2745588971
 20
8.422324749
 10
-12.2806419353
 20
8.4263587922
 10
-12.2869670665
 20
8.4300506888
 10
-12.2935379048
 20
8.4333965286
 10
-12.3003367833
 20
8.4362371606
 10
-12.3073577853
 20
8.4385195463
 10
-12.3146067377
 20
8.4402967624
  0
LINE
  5
3A5
100
AcDbEntity
  8
0
100
AcDbLine
 62
7
  6
CONTINUOUS
 10
-12.2100978782
 20
8.3371172315
 11
-12.2127176239
 21
8.3432542901
  0
LINE
  5
3A6
100
AcDbEntity
  8
0
100
AcDbLine
 62
7
  6
CONTINUOUS
 10
-12.2085019802
 20
8.3331253861
 11
-12.2066469285
 21
8.3281996978
  0
LWPOLYLINE
  5
3A7
100
AcDbEntity
  8
0
100
AcDbPolyline
 62
7
  6
CONTINUOUS
 90
3
 70
0
 10
-12.2064054235
 20
8.3275120564
 10
-12.2081688304
 20
8.3322728966
 10
-12.2105255722
 20
8.3381442386
  0
LINE
  5
3A8
100
AcDbEntity
  8
0
100
AcDbLine
 62
7
  6
CONTINUOUS
 10
-12.2047865654
 20
8.3228589715
 11
-12.2066469285
 21
8.3281996978
  0
LWPOLYLINE
  5
3A9
100
AcDbEntity
  8
ASSI
100
AcDbPolyline
 62
7
  6
CONTINUOUS
 90
13
 70
0
 10
-5.8924159777
 20
19.9406376127
 10
-5.8939204988
 20
19.9696534076
 10
-5.8984320364
 20
19.9996799133
 10
-5.9058681731
 20
20.0302064302
 10
-5.9160958384
 20
20.0607142642
 10
-5.9289390067
 20
20.0906819422
 10
-5.944181522
 20
20.1195941759
 10
-5.9615657972
 20
20.1469548318
 10
-5.9807913295
 20
20.1722974807
 10
-6.0015249516
 20
20.1951899682
 10
-6.0234129773
 20
20.2152401502
 10
-6.0460873573
 20
20.2321024163
 10
-6.0691657491
 20
20.2454858743
  0
LINE
  5
3AA
100
AcDbEntity
  8
ASSI
100
AcDbLine
 62
7
  6
CONTINUOUS
 10
-5.2103557474
 20
19.123133502
 11
-5.2346475663
 21
20.2668955939
  0
LINE
  5
3AB
100
AcDbEntity
  8
ASSI
100
AcDbLine
 62
250
  6
CONTINUOUS
 10
-6.3911150454
 20
19.8318460331
 11
-6.3911150454
 21
18.6445732517
  0
LINE
  5
3AC
100
AcDbEntity
  8
ASSI
100
AcDbLine
 62
250
  6
CONTINUOUS
 10
-6.1107620151
 20
19.8306227311
 11
-6.1107620151
 21
18.6522688228
  0
LINE
  5
3AD
100
AcDbEntity
  8
ASSI
100
AcDbLine
 62
7
  6
CONTINUOUS
 10
-5.8924159777
 20
18.7714703426
 11
-5.8924159777
 21
19.9406376127
  0
LINE
  5
3AE
100
AcDbEntity
  8
ASSI
100
AcDbLine
 62
250
  6
CONTINUOUS
 10
-4.9694528413
 20
19.121014931
 11
-4.9694528413
 21
17.9337421497
  0
LINE
  5
3AF
100
AcDbEntity
  8
ASSI
100
AcDbLine
 62
7
  6
CONTINUOUS
 10
-5.0280314851
 20
18.0071211034
 11
-5.0280314338
 21
19.19179723
  0
LWPOLYLINE
  5
3B0
100
AcDbEntity
  8
RACCORDO
100
AcDbPolyline
 62
250
  6
CONTINUOUS
 90
5
 70
0
 10
-4.7199141977
 20
-26.1505766881
 10
-4.6765874937
 20
-22.1201464622
 10
-4.6012930981
 20
-18.07572321
 10
-4.494031011
 20
-14.0173069314
 10
-4.3547777778
 20
-9.9443377118
  0
LWPOLYLINE
  5
3B1
100
AcDbEntity
  8
RACCORDO
100
AcDbPolyline
 62
250
  6
CONTINUOUS
 90
9
 70
0
 10
-5.3929755504
 20
-26.1539938618
 10
-5.3468071726
 20
-22.1212390672
 10
-5.269341608
 20
-18.0734517752
 10
-5.1605722961
 20
-14.0109935313
 10
-5.0204897179
 20
-9.9340437397
 10
-4.8491042347
 20
-5.8431535124
 10
-4.646454649
 20
-1.7392491345
 10
-4.4125772432
 20
2.3771069851
 10
-4.1474971953
 20
6.5057203208
  0
LWPOLYLINE
  5
3B2
100
AcDbEntity
  8
ASSI
100
AcDbPolyline
 62
250
  6
CONTINUOUS
 90
13
 70
0
 10
-4.934102887
 20
19.1466346291
 10
-4.9329197088
 20
19.169584218
 10
-4.9293899712
 20
19.1933329803
 10
-4.9235727354
 20
19.2174835358
 10
-4.9155653384
 20
19.2416317814
 10
-4.9055017647
 20
19.265373652
 10
-4.8935504041
 20
19.2883118823
 10
-4.8799112344
 20
19.3100626537
 10
-4.8648124749
 20
19.3302620167
 10
-4.8485067684
 20
19.3485719806
 10
-4.8312669532
 20
19.3646861694
 10
-4.8133814977
 20
19.3783349486
 10
-4.7951496738
 20
19.3892899365
  0
LWPOLYLINE
  5
3B3
100
AcDbEntity
  8
ASSI
100
AcDbPolyline
 62
7
  6
CONTINUOUS
 90
9
 70
0
 10
-3.7655193047
 20
21.7811516615
 10
-3.7662803857
 20
21.7677740081
 10
-3.7709179984
 20
21.7480249181
 10
-3.7799240698
 20
21.728468051
 10
-3.7931359415
 20
21.7092262104
 10
-3.809967648
 20
21.6910788629
 10
-3.8302238672
 20
21.6742858308
 10
-3.8540999212
 20
21.6585872919
 10
-3.8815958099
 20
21.6439832462
  0
LINE
  5
3B4
100
AcDbEntity
  8
RACCORDO
100
AcDbLine
 62
250
  6
CONTINUOUS
 10
-4.1474971953
 20
6.5057203208
 11
-3.8512521599
 21
10.6462100572
  0
LWPOLYLINE
  5
3B5
100
AcDbEntity
  8
RACCORDO
100
AcDbPolyline
 62
250
  6
CONTINUOUS
 90
22
 70
0
 10
-3.8512521523
 20
10.6462100548
 10
-3.8434361876
 20
10.7238569816
 10
-3.8314030546
 20
10.8027884274
 10
-3.8152122819
 20
10.8825996958
 10
-3.794938497
 20
10.9628725244
 10
-3.7706862868
 20
11.0432033451
 10
-3.7425869837
 20
11.1232053579
 10
-3.7107690566
 20
11.2024711979
 10
-3.6753902544
 20
11.280587131
 10
-3.6366503385
 20
11.3571613287
 10
-3.5947326916
 20
11.4317953441
 10
-3.5498412917
 20
11.5041035424
 10
-3.502229763
 20
11.5737270828
 10
-3.4521231178
 20
11.6403031384
 10
-3.3997660904
 20
11.7034831092
 10
-3.3454601686
 20
11.7629524586
 10
-3.2894687107
 20
11.8183954805
 10
-3.2320599773
 20
11.8695243771
 10
-3.173554856
 20
11.9160958876
 10
-3.1142497494
 20
11.9578702114
 10
-3.0544156333
 20
11.9946139074
 10
-2.9943409421
 20
12.0261280985
  0
LWPOLYLINE
  5
3B6
100
AcDbEntity
  8
RACCORDO
100
AcDbPolyline
 62
250
  6
CONTINUOUS
 90
22
 70
0
 10
-3.1797702343
 20
10.6119265972
 10
-3.1750415162
 20
10.657304742
 10
-3.1678280522
 20
10.7029887473
 10
-3.1581298424
 20
10.7489786132
 10
-3.1458717009
 20
10.7955324431
 10
-3.1311288136
 20
10.8423921335
 10
-3.1141267378
 20
10.8887833739
 10
-3.0948328373
 20
10.9346789694
 10
-3.0732797483
 20
10.9801061148
 10
-3.0497909365
 20
11.0243720838
 10
-3.0243342884
 20
11.0674619329
 10
-2.9969419176
 20
11.1093906055
 10
-2.9680336309
 20
11.1495102061
 10
-2.9375861232
 20
11.1877911903
 10
-2.9056226996
 20
11.2242631024
 10
-2.8726330828
 20
11.2583666793
 10
-2.8385849156
 20
11.2900726218
 10
-2.8035105552
 20
11.319410229
 10
-2.767996796
 20
11.345908135
 10
-2.732239236
 20
11.3694092178
 10
-2.6960422772
 20
11.3900705992
 10
-2.6594059195
 20
11.4078922794
  0
LWPOLYLINE
  5
3B7
100
AcDbEntity
  8
ASSI
100
AcDbPolyline
 62
250
  6
CONTINUOUS
 90
12
 70
0
 10
0.5293427729
 20
15.162787922
 10
0.5188310068
 20
15.139417001
 10
0.5061462517
 20
15.1176587311
 10
0.4915031459
 20
15.0978812831
 10
0.4751494648
 20
15.0804193107
 10
0.4573619286
 20
15.0655682872
 10
0.4384415196
 20
15.0535795062
 10
0.4187083891
 20
15.0446558297
 10
0.3984964411
 20
15.0389482548
 10
0.3781476818
 20
15.036553359
 10
0.3580064321
 20
15.0375116662
 10
0.3489083202
 20
15.0390754879
  0
LWPOLYLINE
  5
3B8
100
AcDbEntity
  8
RACCORDO
100
AcDbPolyline
 62
250
  6
CONTINUOUS
 90
47
 70
0
 10
9.0473909126
 20
19.231278794
 10
9.0761576922
 20
19.2697317588
 10
9.1254409106
 20
19.3265124362
 10
9.1805745852
 20
19.3821030506
 10
9.2410780636
 20
19.4360455729
 10
9.3069504152
 20
19.4882984724
 10
9.3781925705
 20
19.5389032798
 10
9.4543266682
 20
19.5875265583
 10
9.5353432971
 20
19.6341543008
 10
9.6212518685
 20
19.6788005145
 10
9.7116027542
 20
19.7211737836
 10
9.8066530344
 20
19.7613329816
 10
9.9061456289
 20
19.799219235
 10
10.0088596693
 20
19.8343645082
 10
10.115200538
 20
19.8667422281
 10
10.2247628526
 20
19.8963789677
 10
10.335109597
 20
19.9228864098
 10
10.446214114
 20
19.9460858033
 10
10.5581030607
 20
19.9661558993
 10
10.6684193928
 20
19.9832446351
 10
10.7768098827
 20
19.997218531
 10
10.883627758
 20
20.0082110665
 10
10.9875756571
 20
20.0167706178
 10
11.0884114915
 20
20.0228731873
 10
11.1863773498
 20
20.0265427725
 10
11.2809021361
 20
20.0283997413
 10
11.3718238762
 20
20.0284656102
 10
11.4593045444
 20
20.0267188627
 10
11.5432589678
 20
20.0237153173
 10
11.6235630412
 20
20.0194965167
 10
11.7003408697
 20
20.0140209182
 10
11.7738795962
 20
20.0077197125
 10
11.8441461299
 20
20.0006336788
 10
11.9111735615
 20
19.9927220379
 10
11.9753483056
 20
19.9842936437
 10
12.0366560524
 20
19.9753830031
 10
12.0951111118
 20
19.9659556093
 10
12.1511428283
 20
19.9562167955
 10
12.2047474119
 20
19.9461952738
 10
12.2559286526
 20
19.9358623321
 10
12.3051272649
 20
19.9253371673
 10
12.3523464098
 20
19.9146426282
 10
12.3975829263
 20
19.903755866
 10
12.4412680462
 20
19.8927275324
 10
12.4835455133
 20
19.8815745111
 10
12.5242715837
 20
19.8702799183
 10
12.5634462574
 20
19.858843754
  0
LWPOLYLINE
  5
3B9
100
AcDbEntity
  8
RACCORDO
100
AcDbPolyline
 62
250
  6
CONTINUOUS
 90
9
 70
0
 10
8.9664998957
 20
19.264324458
 10
9.0107283876
 20
19.3151245148
 10
9.0698072581
 20
19.374383732
 10
9.1349000375
 20
19.4319916652
 10
9.2057758694
 20
19.4877651328
 10
9.2822690071
 20
19.5415930684
 10
9.3642604109
 20
19.593394252
 10
9.4515090079
 20
19.6430118914
 10
9.4718783873
 20
19.6538808727
  0
LWPOLYLINE
  5
3BA
100
AcDbEntity
  8
RACCORDO
100
AcDbPolyline
 62
250
  6
CONTINUOUS
 90
56
 70
0
 10
18.6914465226
 20
13.1451780976
 10
18.6985511079
 20
13.1477289494
 10
18.7057298639
 20
13.1500487979
 10
18.7129817919
 20
13.1521390412
 10
18.7203036274
 20
13.1540170389
 10
18.7276962808
 20
13.155668591
 10
18.7351645491
 20
13.1570483072
 10
18.7427185706
 20
13.1581607532
 10
18.7503442817
 20
13.1590063335
 10
18.7580093804
 20
13.1595343301
 10
18.7657136345
 20
13.1597442986
 10
18.7734515738
 20
13.1596435914
 10
18.7811822686
 20
13.1591940042
 10
18.7888941937
 20
13.1583972408
 10
18.7965914102
 20
13.1572603977
 10
18.8042555235
 20
13.1557542689
 10
18.8118736507
 20
13.1538878603
 10
18.8194490938
 20
13.1516633821
 10
18.8269863264
 20
13.149043065
 10
18.8344798753
 20
13.1460396097
 10
18.8419223349
 20
13.1426555129
 10
18.8493129941
 20
13.1388404078
 10
18.856649044
 20
13.1346071231
 10
18.8639158358
 20
13.1299637201
 10
18.8710919565
 20
13.1248561955
 10
18.8781710179
 20
13.1192993501
 10
18.885136542
 20
13.1133062615
 10
18.8919486714
 20
13.1068243522
 10
18.8985959266
 20
13.0998746493
 10
18.9050608926
 20
13.0924722518
 10
18.9112909401
 20
13.08456051
 10
18.9172690445
 20
13.0761758596
 10
18.922976318
 20
13.0673282364
 10
18.928351342
 20
13.057928932
 10
18.9333781875
 20
13.0480307647
 10
18.9380256891
 20
13.0376440252
 10
18.9421989523
 20
13.0266301779
 10
18.945887506
 20
13.0150097801
 10
18.9490344772
 20
13.0028561301
 10
18.951466732
 20
12.9901216711
 10
18.9531444284
 20
12.9767723677
 10
18.9540288413
 20
12.9629580674
 10
18.9539627891
 20
12.9488880131
 10
18.9528974683
 20
12.9345995619
 10
18.9508376017
 20
12.920130232
 10
18.9477361457
 20
12.9056477142
 10
18.9435470307
 20
12.8911275415
 10
18.9382969423
 20
12.876637875
 10
18.9320814574
 20
12.8624357072
 10
18.9249301943
 20
12.8485699061
 10
18.9168391876
 20
12.8349670007
 10
18.9078752837
 20
12.8216668961
 10
18.8980482933
 20
12.8086545218
 10
18.8873725938
 20
12.7959200697
 10
18.8759258973
 20
12.7835044767
 10
18.8637305694
 20
12.7713998082
  0
LWPOLYLINE
  5
3BB
100
AcDbEntity
  8
0
100
AcDbPolyline
 62
7
  6
CONTINUOUS
 90
14
 70
0
 10
-11.380720292
 20
3.3214176615
 10
-11.4457638574
 20
3.3013381716
 10
-11.5373517043
 20
3.2818915802
 10
-11.6290177557
 20
3.2714127201
 10
-11.7203160191
 20
3.2705117734
 10
-11.8116944244
 20
3.2785777905
 10
-11.9010515937
 20
3.2935243355
 10
-11.9883106471
 20
3.3155919992
 10
-12.0735593524
 20
3.3445354388
 10
-12.1549542466
 20
3.3775345429
 10
-12.2315523468
 20
3.4140592562
 10
-12.3043168057
 20
3.4546308432
 10
-12.3742656627
 20
3.4980051731
 10
-12.441149069
 20
3.5435191527
  0
LINE
  5
3BC
100
AcDbEntity
  8
DRAFT
100
AcDbLine
 62
7
  6
CONTINUOUS
 10
0.3080786834
 20
-5.9197770544
 11
-0.0753642809
 21
-5.7280555723
  0
LINE
  5
3BD
100
AcDbEntity
  8
0
100
AcDbLine
 62
7
  6
CONTINUOUS
 10
-12.4388042337
 20
3.5418190745
 11
-12.5052286137
 21
3.5918307496
  0
LINE
  5
3BE
100
AcDbEntity
  8
0
100
AcDbLine
 62
7
  6
CONTINUOUS
 10
-12.5030778522
 20
3.5901375449
 11
-12.5682829057
 21
3.6436802706
  0
LINE
  5
3BF
100
AcDbEntity
  8
0
100
AcDbLine
 62
7
  6
CONTINUOUS
 10
-12.5663054464
 20
3.641996922
 11
-12.630891565
 21
3.6992323837
  0
LINE
  5
3C0
100
AcDbEntity
  8
0
100
AcDbLine
 62
7
  6
CONTINUOUS
 10
-12.6290798133
 20
3.6975555975
 11
-12.6924763853
 21
3.7583217465
  0
LINE
  5
3C1
100
AcDbEntity
  8
0
100
AcDbLine
 62
7
  6
CONTINUOUS
 10
-12.6908096452
 20
3.7566544723
 11
-12.7530750153
 21
3.8211954645
  0
LWPOLYLINE
  5
3C2
100
AcDbEntity
  8
0
100
AcDbPolyline
 62
7
  6
CONTINUOUS
 90
3
 70
0
 10
-11.1158499735
 20
7.6007077864
 10
-11.1838308534
 20
7.6940208585
 10
-11.2544488972
 20
7.7828368452
  0
LWPOLYLINE
  5
3C3
100
AcDbEntity
  8
0
100
AcDbPolyline
 62
7
  6
CONTINUOUS
 90
4
 70
0
 10
-11.1158503732
 20
7.6007085171
 10
-11.0513300308
 20
7.5040490249
 10
-10.9905477652
 20
7.4044237907
 10
-10.9332346635
 20
7.301447271
  0
LINE
  5
3C4
100
AcDbEntity
  8
0
100
AcDbLine
 62
7
  6
CONTINUOUS
 10
-10.8793955699
 20
7.1951203088
 11
-10.9332349634
 21
7.3014481035
  0
LWPOLYLINE
  5
3C5
100
AcDbEntity
  8
ASSI
100
AcDbPolyline
 62
250
  6
CONTINUOUS
 90
6
 70
0
 10
2.7166729735
 20
-24.8392103067
 10
2.7086505155
 20
-24.8164088359
 10
2.6982075161
 20
-24.7953737872
 10
2.6855206802
 20
-24.7764610938
 10
2.6708046811
 20
-24.7599907767
 10
2.654308528
 20
-24.7462415296
  0
LWPOLYLINE
  5
3C6
100
AcDbEntity
  8
ASSI
100
AcDbPolyline
 62
250
  6
CONTINUOUS
 90
7
 70
0
 10
-8.7403420863
 20
21.0478809095
 10
-8.7384359555
 20
21.0341075752
 10
-8.7332228018
 20
21.0214374343
 10
-8.7247822412
 20
21.0092097667
 10
-8.7132555088
 20
20.9976291728
 10
-8.6988354801
 20
20.9868894266
 10
-8.6817634425
 20
20.9771702316
  0
LWPOLYLINE
  5
3C7
100
AcDbEntity
  8
ASSI
100
AcDbPolyline
 62
7
  6
CONTINUOUS
 90
12
 70
0
 10
-3.7832580532
 20
22.968218008
 10
-3.784889417
 20
22.9944600468
 10
-3.7904132963
 20
23.0270833823
 10
-3.7998619917
 20
23.0592761602
 10
-3.8132425948
 20
23.0905976659
 10
-3.8304201747
 20
23.1204663845
 10
-3.8513027133
 20
23.1485496873
 10
-3.8758387856
 20
23.1746067789
 10
-3.9036469115
 20
23.1981328611
 10
-3.9342515396
 20
23.2187503533
 10
-3.9678970385
 20
23.2366135117
 10
-4.0042007079
 20
23.2514742662
  0
LWPOLYLINE
  5
3C8
100
AcDbEntity
  8
ASSI
100
AcDbPolyline
 62
250
  6
CONTINUOUS
 90
28
 70
0
 10
-2.6788044442
 20
17.9756907324
 10
-2.6788434793
 20
17.9779758523
 10
-2.678992775
 20
17.9803406188
 10
-2.6792523314
 20
17.982785032
 10
-2.6796196216
 20
17.9853218173
 10
-2.6800971724
 20
17.9879382493
 10
-2.6806925645
 20
17.990596152
 10
-2.6814099725
 20
17.9932977826
 10
-2.6822452218
 20
17.996040884
 10
-2.6831933683
 20
17.9987805093
 10
-2.68425788
 20
18.0015160237
 10
-2.6854352889
 20
18.004248062
 10
-2.6867102471
 20
18.0069335825
 10
-2.6880837601
 20
18.0095687693
 10
-2.6895548224
 20
18.0121574383
 10
-2.6911050703
 20
18.014667995
 10
-2.6927342669
 20
18.0170974521
 10
-2.6944426491
 20
18.019448797
 10
-2.6962125645
 20
18.0216993965
 10
-2.6980445606
 20
18.0238484046
 10
-2.6999380898
 20
18.0258966673
 10
-2.7018738574
 20
18.0278240897
 10
-2.7038521905
 20
18.0296295441
 10
-2.7058727619
 20
18.0313141582
 10
-2.707915296
 20
18.0328612205
 10
-2.7099730341
 20
18.0342651604
 10
-2.712052735
 20
18.0355315485
 10
-2.7141543985
 20
18.0366603848
  0
LINE
  5
3C9
100
AcDbEntity
  8
ASSI
100
AcDbLine
 62
7
  6
CONTINUOUS
 10
-3.7655665157
 20
21.7811520138
 11
-3.7832581817
 21
22.9682240609
  0
LINE
  5
3CA
100
AcDbEntity
  8
ASSI
100
AcDbLine
 62
250
  6
CONTINUOUS
 10
-3.8815958099
 20
21.6439832462
 11
-3.8940398513
 21
22.8373708161
  0
LINE
  5
3CB
100
AcDbEntity
  8
ASSI
100
AcDbLine
 62
250
  6
CONTINUOUS
 10
-2.7809038327
 20
20.9674037973
 11
-2.7809038327
 21
22.1703065196
  0
LINE
  5
3CC
100
AcDbEntity
  8
ASSI
100
AcDbLine
 62
250
  6
CONTINUOUS
 10
-2.6788044442
 20
16.7884179511
 11
-2.6788044442
 21
17.9756907324
  0
LINE
  5
3CD
100
AcDbEntity
  8
ASSI
100
AcDbLine
 62
250
  6
CONTINUOUS
 10
-2.3984514139
 20
16.7961135222
 11
-2.3984514139
 21
17.9744674305
  0
LINE
  5
3CE
100
AcDbEntity
  8
ASSI
100
AcDbLine
 62
7
  6
CONTINUOUS
 10
-2.1801053765
 20
16.915315042
 11
-2.1801053765
 21
18.084482312
  0
LINE
  5
3CF
100
AcDbEntity
  8
RACCORDO
100
AcDbLine
 62
250
  6
CONTINUOUS
 10
-4.3547777778
 20
-9.9443377118
 11
-4.183556853
 21
-5.8573754657
  0
LINE
  5
3D0
100
AcDbEntity
  8
RACCORDO
100
AcDbLine
 62
250
  6
CONTINUOUS
 10
-4.183556853
 20
-5.8573754657
 11
-3.9804385999
 21
-1.7580999374
  0
LWPOLYLINE
  5
3D1
100
AcDbEntity
  8
ASSI
100
AcDbPolyline
 62
250
  6
CONTINUOUS
 90
13
 70
0
 10
-2.7141543985
 20
18.0366603848
 10
-2.7129712186
 20
18.0596099891
 10
-2.709441477
 20
18.0833587647
 10
-2.7036242356
 20
18.1075093306
 10
-2.6956168324
 20
18.1316575829
 10
-2.685553253
 20
18.1553994564
 10
-2.6736018881
 20
18.1783376857
 10
-2.6599627161
 20
18.2000884525
 10
-2.644863957
 20
18.2202878081
 10
-2.6285582538
 20
18.2385977629
 10
-2.6113184446
 20
18.254711942
 10
-2.5934329979
 20
18.268360712
 10
-2.5752011852
 20
18.2793156922
  0
LINE
  5
3D2
100
AcDbEntity
  8
RACCORDO
100
AcDbLine
 62
250
  6
CONTINUOUS
 10
-3.9804385999
 20
-1.7580999374
 11
-3.745446473
 21
2.3529289585
  0
LINE
  5
3D3
100
AcDbEntity
  8
RACCORDO
100
AcDbLine
 62
250
  6
CONTINUOUS
 10
-3.745446473
 20
2.3529289585
 11
-3.4785570178
 21
6.4762711367
  0
LINE
  5
3D4
100
AcDbEntity
  8
RACCORDO
100
AcDbLine
 62
250
  6
CONTINUOUS
 10
-3.4785570178
 20
6.4762711367
 11
-3.1797702343
 21
10.6119265972
  0
LWPOLYLINE
  5
3D5
100
AcDbEntity
  8
0
100
AcDbPolyline
 62
7
  6
CONTINUOUS
 90
14
 70
0
 10
-12.4388042337
 20
3.5418190745
 10
-12.3716337229
 20
3.4962885545
 10
-12.3012657302
 20
3.4528559503
 10
-12.2279885542
 20
3.4122166608
 10
-12.1508279808
 20
3.3756987645
 10
-12.0687745313
 20
3.3427910685
 10
-11.9828170299
 20
3.3140137677
 10
-11.8949816488
 20
3.2922407492
 10
-11.8051871191
 20
3.2777854837
 10
-11.7135045182
 20
3.2703389493
 10
-11.6222005574
 20
3.2718360515
 10
-11.5308757221
 20
3.2829548711
 10
-11.4399294077
 20
3.3030173023
 10
-11.3807441038
 20
3.3214789322
  0
LWPOLYLINE
  5
3D6
100
AcDbEntity
  8
0
100
AcDbPolyline
 62
7
  6
CONTINUOUS
 90
13
 70
0
 10
-12.306037774
 20
4.0122046513
 10
-12.3554582926
 20
4.0470413653
 10
-12.4040041598
 20
4.0846782079
 10
-12.4515944563
 20
4.1250801287
 10
-12.4983118017
 20
4.1682814128
 10
-12.5438865165
 20
4.214014239
 10
-12.5883496875
 20
4.2623426644
 10
-12.6316722508
 20
4.3132017238
 10
-12.67349526
 20
4.3661296508
 10
-12.7138004299
 20
4.4211071529
 10
-12.7526087987
 20
4.4781523015
 10
-12.7896213628
 20
4.5368589682
 10
-12.8247396738
 20
4.5970912422
  0
LWPOLYLINE
  5
3D7
100
AcDbEntity
  8
0
100
AcDbPolyline
 62
7
  6
CONTINUOUS
 90
3
 70
0
 10
-11.4812792368
 20
8.0211666037
 10
-11.4030402721
 20
7.9462159204
 10
-11.3274287821
 20
7.8667731644
  0
LWPOLYLINE
  5
3D8
100
AcDbEntity
  8
0
100
AcDbPolyline
 62
7
  6
CONTINUOUS
 90
10
 70
0
 10
-11.5875685913
 20
7.5185855188
 10
-11.5405438035
 20
7.4692811771
 10
-11.4950068585
 20
7.4175424485
 10
-11.450959082
 20
7.3633687411
 10
-11.408250972
 20
7.3065499245
 10
-11.3670341556
 20
7.2472951634
 10
-11.3277622413
 20
7.1862325514
 10
-11.2905877845
 20
7.1235708488
 10
-11.2553614365
 20
7.0590998484
 10
-11.2220844991
 20
6.9928189535
  0
LWPOLYLINE
  5
3D9
100
AcDbEntity
  8
0
100
AcDbPolyline
 62
7
  6
CONTINUOUS
 90
9
 70
0
 10
-11.5875682618
 20
7.5185849653
 10
-11.6002946545
 20
7.5329110067
 10
-11.6116163057
 20
7.5483747907
 10
-11.6215335875
 20
7.5649761512
 10
-11.6301893122
 20
7.5830989913
 10
-11.637441147
 20
7.6023591876
 10
-11.6428618586
 20
7.6216044878
 10
-11.6463092782
 20
7.6404507019
 10
-11.6479260583
 20
7.6592818036
  0
LINE
  5
3DA
100
AcDbEntity
  8
0
100
AcDbLine
 62
7
  6
CONTINUOUS
 10
-11.2544490987
 20
7.7828370986
 11
-11.3274291666
 21
7.8667736679
  0
LWPOLYLINE
  5
3DB
100
AcDbEntity
  8
ASSI
100
AcDbPolyline
 62
7
  6
CONTINUOUS
 90
5
 70
0
 10
2.7768094007
 20
-24.8943600786
 10
2.7696422744
 20
-24.8695179617
 10
2.7599247309
 20
-24.845974555
 10
2.7477833716
 20
-24.8238732977
 10
2.733331272
 20
-24.8033786318
  0
LINE
  5
3DC
100
AcDbEntity
  8
DRAFT
100
AcDbLine
 62
7
  6
CONTINUOUS
 10
-0.3769830845
 20
-18.8218970234
 11
-0.5417330038
 21
-16.8600551365
  0
LINE
  5
3DD
100
AcDbEntity
  8
0
100
AcDbLine
 62
7
  6
CONTINUOUS
 10
1.4690755216
 20
-19.7449263265
 11
0.3080786834
 21
-5.9197770544
  0
LWPOLYLINE
  5
3DE
100
AcDbEntity
  8
ASSI
100
AcDbPolyline
 62
7
  6
CONTINUOUS
 90
13
 70
0
 10
-2.1801053765
 20
18.084482312
 10
-2.1816098976
 20
18.1134981069
 10
-2.1861214351
 20
18.1435246127
 10
-2.1935575719
 20
18.1740511296
 10
-2.2037852372
 20
18.2045589636
 10
-2.2166284055
 20
18.2345266415
 10
-2.2318709207
 20
18.2634388753
 10
-2.249255196
 20
18.2907995312
 10
-2.2684807283
 20
18.3161421801
 10
-2.2892143504
 20
18.3390346676
 10
-2.3111023761
 20
18.3590848496
 10
-2.333776756
 20
18.3759471157
 10
-2.3568551478
 20
18.3893305737
  0
LWPOLYLINE
  5
3DF
100
AcDbEntity
  8
ASSI
100
AcDbPolyline
 62
7
  6
CONTINUOUS
 90
16
 70
0
 10
-1.8353510453
 20
22.1153036299
 10
-1.8362607099
 20
22.1336963225
 10
-1.8396391256
 20
22.1519650688
 10
-1.8454924737
 20
22.1700978224
 10
-1.8539693761
 20
22.1883750729
 10
-1.8649461738
 20
22.2064642116
 10
-1.8780227164
 20
22.2234266824
 10
-1.8931216487
 20
22.2389965421
 10
-1.9103492537
 20
22.2533568221
 10
-1.9295764302
 20
22.2662428724
 10
-1.9509484198
 20
22.2776494523
 10
-1.9743380992
 20
22.2874658389
 10
-1.9991972209
 20
22.2952822598
 10
-2.0253356498
 20
22.3009360481
 10
-2.0529254096
 20
22.3044916601
 10
-2.0819494902
 20
22.305893873
  0
LWPOLYLINE
  5
3E0
100
AcDbEntity
  8
ASSI
100
AcDbPolyline
 62
250
  6
CONTINUOUS
 90
28
 70
0
 10
-2.3984514139
 20
17.9744674305
 10
-2.3988176035
 20
17.9857864212
 10
-2.3996772241
 20
17.9975561003
 10
-2.4010571877
 20
18.0097556868
 10
-2.4029877968
 20
18.0223879582
 10
-2.4054908708
 20
18.0353955295
 10
-2.4085679181
 20
18.0486582276
 10
-2.4122289114
 20
18.0621358783
 10
-2.4164811
 20
18.0757841467
 10
-2.4212977899
 20
18.0894696721
 10
-2.4266692374
 20
18.1031388314
 10
-2.4325869673
 20
18.1167470708
 10
-2.4390046903
 20
18.1301754253
 10
-2.4458925603
 20
18.143361484
 10
-2.4532336153
 20
18.1562731438
 10
-2.4609882603
 20
18.168842003
 10
-2.4691210462
 20
18.1810155321
 10
-2.4776077587
 20
18.1927623079
 10
-2.4864221694
 20
18.2040489287
 10
-2.49553324
 20
18.2148373606
 10
-2.5049079832
 20
18.2250902677
 10
-2.5145167556
 20
18.2347767488
 10
-2.5243257604
 20
18.2438633985
 10
-2.5343006783
 20
18.2523191217
 10
-2.5444106166
 20
18.2601182433
 10
-2.554621741
 20
18.2672342904
 10
-2.5648971898
 20
18.273640985
 10
-2.5752011852
 20
18.2793156922
  0
LWPOLYLINE
  5
3E1
100
AcDbEntity
  8
ASSI
100
AcDbPolyline
 62
250
  6
CONTINUOUS
 90
15
 70
0
 10
-1.8334978145
 20
16.2250773329
 10
-1.8332852047
 20
16.2145555913
 10
-1.8326229101
 20
16.203968481
 10
-1.8314732243
 20
16.1933664276
 10
-1.8297947192
 20
16.1827823855
 10
-1.8275531067
 20
16.1723002768
 10
-1.8247325082
 20
16.1620463978
 10
-1.8213095031
 20
16.1520808142
 10
-1.8172630793
 20
16.1424671722
 10
-1.81260415
 20
16.1333235317
 10
-1.8073271784
 20
16.1247063937
 10
-1.8014297054
 20
16.1166729702
 10
-1.794951304
 20
16.109320581
 10
-1.7879054993
 20
16.1026929109
 10
-1.7803082948
 20
16.0968315013
  0
LWPOLYLINE
  5
3E2
100
AcDbEntity
  8
ASSI
100
AcDbPolyline
 62
7
  6
CONTINUOUS
 90
9
 70
0
 10
-1.8920762765
 20
16.2957617846
 10
-1.8920472152
 20
16.2919498039
 10
-1.8902398173
 20
16.2654993879
 10
-1.8856130239
 20
16.2395394745
 10
-1.8782154769
 20
16.2144699154
 10
-1.8682134165
 20
16.1907351566
 10
-1.8557266392
 20
16.1684922179
 10
-1.8408716088
 20
16.1479041652
 10
-1.8239132623
 20
16.129299183
  0
LINE
  5
3E3
100
AcDbEntity
  8
ASSI
100
AcDbLine
 62
7
  6
CONTINUOUS
 10
-1.8920764583
 20
16.6130568114
 11
-1.8920764583
 21
16.2957880114
  0
LINE
  5
3E4
100
AcDbEntity
  8
ASSI
100
AcDbLine
 62
250
  6
CONTINUOUS
 10
-1.8334978145
 20
16.5423461333
 11
-1.8334978145
 21
16.2250773329
  0
LINE
  5
3E5
100
AcDbEntity
  8
ASSI
100
AcDbLine
 62
250
  6
CONTINUOUS
 10
-1.367174886
 20
21.1065105516
 11
-1.367174886
 21
21.6616745543
  0
LINE
  5
3E6
100
AcDbEntity
  8
ASSI
100
AcDbLine
 62
7
  6
CONTINUOUS
 10
-1.1772133379
 20
15.7942032927
 11
-1.1772133379
 21
15.3402411883
  0
LINE
  5
3E7
100
AcDbEntity
  8
ASSI
100
AcDbLine
 62
250
  6
CONTINUOUS
 10
-1.1039900332
 20
15.7575916404
 11
-1.1039900332
 21
15.2485174962
  0
LINE
  5
3E8
100
AcDbEntity
  8
ASSI
100
AcDbLine
 62
7
  6
CONTINUOUS
 10
-0.9712526009
 20
15.0573010867
 11
-0.9712526009
 21
15.6951465076
  0
LINE
  5
3E9
100
AcDbEntity
  8
ASSI
100
AcDbLine
 62
250
  6
CONTINUOUS
 10
-0.8980292962
 20
-25.5422610656
 11
-0.8980292962
 21
-25.3088349263
  0
LINE
  5
3EA
100
AcDbEntity
  8
ASSI
100
AcDbLine
 62
250
  6
CONTINUOUS
 10
-0.8980292962
 20
15.0065100489
 11
-0.8980292962
 21
15.7573430738
  0
LINE
  5
3EB
100
AcDbEntity
  8
ASSI
100
AcDbLine
 62
250
  6
CONTINUOUS
 10
-0.7044650101
 20
-25.6390432086
 11
-0.7044650101
 21
-24.8882101837
  0
LINE
  5
3EC
100
AcDbEntity
  8
ASSI
100
AcDbLine
 62
250
  6
CONTINUOUS
 10
-0.7044650101
 20
14.9097279058
 11
-0.7044650101
 21
15.6605609307
  0
LINE
  5
3ED
100
AcDbEntity
  8
RACCORDO
100
AcDbLine
 62
7
  6
CONTINUOUS
 10
-0.3769830845
 20
-19.8613055671
 11
-0.3769830845
 21
-18.8218970234
  0
LINE
  5
3EE
100
AcDbEntity
  8
ASSI
100
AcDbLine
 62
250
  6
CONTINUOUS
 10
-0.3540237222
 20
-25.3927538868
 11
-0.3540237222
 21
-24.7669208619
  0
LINE
  5
3EF
100
AcDbEntity
  8
ASSI
100
AcDbLine
 62
250
  6
CONTINUOUS
 10
-0.3540237222
 20
14.7853803292
 11
-0.3540237222
 21
15.3826084849
  0
LINE
  5
3F0
100
AcDbEntity
  8
ASSI
100
AcDbLine
 62
7
  6
CONTINUOUS
 10
0.1887023405
 20
15.1112454535
 11
0.1887023405
 21
14.6702510117
  0
LINE
  5
3F1
100
AcDbEntity
  8
ASSI
100
AcDbLine
 62
7
  6
CONTINUOUS
 10
0.1887023405
 20
-24.1276870778
 11
0.1887023405
 21
-24.7535201028
  0
LINE
  5
3F2
100
AcDbEntity
  8
ASSI
100
AcDbLine
 62
250
  6
CONTINUOUS
 10
0.2310035082
 20
15.510095472
 11
0.2310035082
 21
15.1928440156
  0
LINE
  5
3F3
100
AcDbEntity
  8
ASSI
100
AcDbLine
 62
250
  6
CONTINUOUS
 10
0.2310035082
 20
-26.4240462682
 11
0.2310035082
 21
-26.1067774678
  0
LINE
  5
3F4
100
AcDbEntity
  8
RACCORDO
100
AcDbLine
 62
7
  6
CONTINUOUS
 10
-0.893710084
 20
-25.2615806048
 11
0.7050097303
 21
12.899100851
  0
LWPOLYLINE
  5
3F5
100
AcDbEntity
  8
ASSI
100
AcDbPolyline
 62
7
  6
CONTINUOUS
 90
3
 70
0
 10
2.7732956793
 20
16.2797840074
 10
2.7788365849
 20
16.3042075735
 10
2.7821131621
 20
16.3293497799
  0
LINE
  5
3F6
100
AcDbEntity
  8
DRAFT
100
AcDbLine
 62
7
  6
CONTINUOUS
 10
18.8545570411
 20
12.755309871
 11
19.7697338281
 21
13.3472384901
  0
LWPOLYLINE
  5
3F7
100
AcDbEntity
  8
RACCORDO
100
AcDbPolyline
 62
7
  6
CONTINUOUS
 90
16
 70
0
 10
18.6914469116
 20
2.813495586
 10
18.6824856964
 20
2.8117283385
 10
18.6736635891
 20
2.8103749394
 10
18.6649805897
 20
2.8094353887
 10
18.6564262243
 20
2.8089112436
 10
18.6480109669
 20
2.8088009468
 10
18.6397662387
 20
2.8090998272
 10
18.6316958648
 20
2.8098146851
 10
18.6237960201
 20
2.8109387202
 10
18.6160866516
 20
2.81244686
 10
18.6085734265
 20
2.8143447815
 10
18.6012506776
 20
2.8166268079
 10
18.5941213501
 20
2.8192508365
 10
18.5871864258
 20
2.8222028331
 10
18.5804449229
 20
2.8254968321
 10
18.5738968414
 20
2.8291328332
  0
LINE
  5
3F8
100
AcDbEntity
  8
0
100
AcDbLine
 62
7
  6
CONTINUOUS
 10
-11.4956634757
 20
8.0327945792
 11
-11.4983869586
 21
8.0346756482
  0
LINE
  5
3F9
100
AcDbEntity
  8
0
100
AcDbLine
 62
7
  6
CONTINUOUS
 10
-11.4936124116
 20
8.0313087486
 11
-11.4960068232
 21
8.0330337893
  0
LWPOLYLINE
  5
3FA
100
AcDbEntity
  8
0
100
AcDbPolyline
 62
7
  6
CONTINUOUS
 90
3
 70
0
 10
-11.4936959849
 20
8.031372418
 10
-11.4914538644
 20
8.0296908266
 10
-11.4892810501
 20
8.0279897189
  0
LINE
  5
3FB
100
AcDbEntity
  8
0
100
AcDbLine
 62
7
  6
CONTINUOUS
 10
-11.48974674
 20
8.0283635931
 11
-11.4916384597
 21
8.029830178
  0
LWPOLYLINE
  5
3FC
100
AcDbEntity
  8
0
100
AcDbPolyline
 62
7
  6
CONTINUOUS
 90
3
 70
0
 10
-11.48974674
 20
8.0283635931
 10
-11.4871772096
 20
8.0262851399
 10
-11.485142235
 20
8.0245824367
  0
LWPOLYLINE
  5
3FD
100
AcDbEntity
  8
0
100
AcDbPolyline
 62
7
  6
CONTINUOUS
 90
3
 70
0
 10
-11.4844840155
 20
8.0240155287
 10
-11.4861795762
 20
8.0254546378
 10
-11.4879321418
 20
8.0269042642
  0
LINE
  5
3FE
100
AcDbEntity
  8
0
100
AcDbLine
 62
7
  6
CONTINUOUS
 10
-11.4829817797
 20
8.022701001
 11
-11.485142235
 21
8.0245824367
  0
LINE
  5
3FF
100
AcDbEntity
  8
0
100
AcDbLine
 62
7
  6
CONTINUOUS
 10
-11.4831762427
 20
8.0228762585
 11
-11.4812792368
 21
8.0211666037
  0
LWPOLYLINE
  5
400
100
AcDbEntity
  8
ASSI
100
AcDbPolyline
 62
250
  6
CONTINUOUS
 90
13
 70
0
 10
0.5467012012
 20
15.5692328172
 10
0.5451854689
 20
15.5922897527
 10
0.5413194292
 20
15.6161826685
 10
0.5351692031
 20
15.6405029103
 10
0.5268399799
 20
15.6648345136
 10
0.5164742174
 20
15.6887613204
 10
0.5042492049
 20
15.7118740971
 10
0.4903740312
 20
15.7337775314
 10
0.4750860118
 20
15.7540969909
 10
0.4586466283
 20
15.772484934
 10
0.4413370549
 20
15.7886268567
 10
0.4234533477
 20
15.8022466714
 10
0.4053013841
 20
15.8131114266
  0
LWPOLYLINE
  5
401
100
AcDbEntity
  8
ASSI
100
AcDbPolyline
 62
250
  6
CONTINUOUS
 90
10
 70
0
 10
0.5113565385
 20
15.1916033697
 10
0.5116274133
 20
15.1865976915
 10
0.5123513837
 20
15.1820092479
 10
0.5135284498
 20
15.1778380388
 10
0.5151868737
 20
15.1740390564
 10
0.5172983933
 20
15.1706573086
 10
0.5197782217
 20
15.1678278189
 10
0.5225980967
 20
15.1655955952
 10
0.5257862804
 20
15.1639156295
 10
0.5293427729
 20
15.162787922
  0
LWPOLYLINE
  5
402
100
AcDbEntity
  8
ASSI
100
AcDbPolyline
 62
250
  6
CONTINUOUS
 90
10
 70
0
 10
2.7268377383
 20
-25.018774062
 10
2.7265761576
 20
-25.0137730308
 10
2.7258770275
 20
-25.0091970073
 10
2.724740348
 20
-25.0050459916
 10
2.7231388266
 20
-25.0012754605
 10
2.7210997558
 20
-24.9979299371
 10
2.7187050134
 20
-24.9951429904
 10
2.7159818918
 20
-24.9929591433
 10
2.7129030986
 20
-24.9913338729
 10
2.7094686337
 20
-24.9902671792
  0
LWPOLYLINE
  5
403
100
AcDbEntity
  8
ASSI
100
AcDbPolyline
 62
250
  6
CONTINUOUS
 90
13
 70
0
 10
0.2896914481
 20
23.1317622934
 10
0.2885085415
 20
23.1549983445
 10
0.2849794208
 20
23.1789780159
 10
0.2791631381
 20
23.2033000616
 10
0.2711570155
 20
23.2275575071
 10
0.2610950176
 20
23.2513444588
 10
0.2491455092
 20
23.2742628957
 10
0.2355084382
 20
23.2959293293
 10
0.2204119904
 20
23.3159812207
 10
0.2041087711
 20
23.3340830468
 10
0.1868715779
 20
23.3499319143
 10
0.1689888364
 20
23.3632626281
 10
0.150759774
 20
23.3738521287
  0
LWPOLYLINE
  5
404
100
AcDbEntity
  8
ASSI
100
AcDbPolyline
 62
7
  6
CONTINUOUS
 90
12
 70
0
 10
0.9139460173
 20
22.7825236722
 10
0.910475872
 20
22.8535402276
 10
0.9008390686
 20
22.9300861832
 10
0.8853012245
 20
23.0025445604
 10
0.8641100303
 20
23.0705474204
 10
0.8374491957
 20
23.1339168596
 10
0.8054033427
 20
23.1925615885
 10
0.7681701573
 20
23.2461544835
 10
0.7260303338
 20
23.294260012
 10
0.6792833558
 20
23.3364932672
 10
0.6283412897
 20
23.3724939838
 10
0.5879204349
 20
23.3950704267
  0
LWPOLYLINE
  5
405
100
AcDbEntity
  8
ASSI
100
AcDbPolyline
 62
250
  6
CONTINUOUS
 90
9
 70
0
 10
0.2310035003
 20
15.1928440201
 10
0.2322024033
 20
15.1682965677
 10
0.2357846192
 20
15.1452746894
 10
0.2417013495
 20
15.1240894147
 10
0.2498736227
 20
15.1050249878
 10
0.2601899079
 20
15.0883407809
 10
0.2725058481
 20
15.0742656856
 10
0.2866518893
 20
15.062988097
 10
0.2961842935
 20
15.0575044795
  0
LWPOLYLINE
  5
406
100
AcDbEntity
  8
ASSI
100
AcDbPolyline
 62
250
  6
CONTINUOUS
 90
22
 70
0
 10
0.855376873
 20
22.7120176308
 10
0.8530748538
 20
22.762965673
 10
0.8477662029
 20
22.8116635855
 10
0.8394509204
 20
22.8581113683
 10
0.828051785
 20
22.9025677859
 10
0.8136460181
 20
22.9447740737
 10
0.796465283
 20
22.9839539387
 10
0.7764616827
 20
23.0200321083
 10
0.7536831143
 20
23.0530838551
 10
0.7285049326
 20
23.0825587032
 10
0.7008867694
 20
23.1083938934
 10
0.6708689928
 20
23.1306521849
 10
0.6389480622
 20
23.1489713795
 10
0.6050946782
 20
23.1632842794
 10
0.5693381402
 20
23.1736580823
 10
0.5322628054
 20
23.1799321825
 10
0.4938261758
 20
23.1820308045
 10
0.4540707495
 20
23.1800297237
 10
0.4137083783
 20
23.1739956602
 10
0.3729763464
 20
23.163950854
 10
0.3316373696
 20
23.1498730651
 10
0.2896914481
 20
23.1317622934
  0
LWPOLYLINE
  5
407
100
AcDbEntity
  8
ASSI
100
AcDbPolyline
 62
250
  6
CONTINUOUS
 90
13
 70
0
 10
1.7304233276
 20
20.024133378
 10
1.7292808826
 20
20.0533307142
 10
1.7250821427
 20
20.0835138183
 10
1.7178989218
 20
20.114166449
 10
1.7078540789
 20
20.1447643344
 10
1.6951194178
 20
20.1747841389
 10
1.6799127482
 20
20.2037124145
 10
1.6624941599
 20
20.2310543823
 10
1.6431615742
 20
20.2563423945
 10
1.6222456489
 20
20.2791439341
 10
1.6001041226
 20
20.2990690115
 10
1.5771156964
 20
20.3157768349
 10
1.5536735562
 20
20.3289816397
  0
LINE
  5
408
100
AcDbEntity
  8
ASSI
100
AcDbLine
 62
250
  6
CONTINUOUS
 10
0.8595553152
 20
22.4167455619
 11
0.855376873
 21
22.7120176308
  0
LINE
  5
409
100
AcDbEntity
  8
ASSI
100
AcDbLine
 62
7
  6
CONTINUOUS
 10
0.9187612046
 20
22.4430350656
 11
0.9139570334
 21
22.7825246437
  0
LWPOLYLINE
  5
40A
100
AcDbEntity
  8
0
100
AcDbPolyline
 62
7
  6
CONTINUOUS
 90
4
 70
0
 10
0.9388809074
 20
23.3745461568
 10
0.9390096536
 20
23.3612411972
 10
0.9401961431
 20
23.3320253776
 10
0.9423255239
 20
23.3064191756
  0
LINE
  5
40B
100
AcDbEntity
  8
ASSI
100
AcDbLine
 62
250
  6
CONTINUOUS
 10
0.5113565385
 20
15.50887217
 11
0.5113565385
 21
15.1916033697
  0
LINE
  5
40C
100
AcDbEntity
  8
ASSI
100
AcDbLine
 62
250
  6
CONTINUOUS
 10
0.5113565385
 20
-26.4252695701
 11
0.5113565385
 21
-26.1080007697
  0
LINE
  5
40D
100
AcDbEntity
  8
ASSI
100
AcDbLine
 62
250
  6
CONTINUOUS
 10
0.9157092892
 20
14.9188391233
 11
0.9157092892
 21
14.238667835
  0
LINE
  5
40E
100
AcDbEntity
  8
ASSI
100
AcDbLine
 62
250
  6
CONTINUOUS
 10
0.9157092892
 20
-24.4231108499
 11
0.9157092892
 21
-25.1170235771
  0
LINE
  5
40F
100
AcDbEntity
  8
ASSI
100
AcDbLine
 62
250
  6
CONTINUOUS
 10
1.2661505771
 20
15.006487745
 11
1.2661505771
 21
14.2482872989
  0
LINE
  5
410
100
AcDbEntity
  8
ASSI
100
AcDbLine
 62
250
  6
CONTINUOUS
 10
1.2661505771
 20
-24.5567073175
 11
1.2661505771
 21
-25.1939890147
  0
LINE
  5
411
100
AcDbEntity
  8
0
100
AcDbLine
 62
7
  6
CONTINUOUS
 10
1.4690755216
 20
-24.2667810606
 11
1.4690755216
 21
-19.7449263265
  0
LINE
  5
412
100
AcDbEntity
  8
0
100
AcDbLine
 62
7
  6
CONTINUOUS
 10
1.4690755216
 20
9.0071170792
 11
1.4690755216
 21
13.5289718133
  0
LINE
  5
413
100
AcDbEntity
  8
0
100
AcDbLine
 62
250
  6
CONTINUOUS
 10
1.7274421722
 20
23.9280773523
 11
1.7274421722
 21
24.3382963952
  0
LINE
  5
414
100
AcDbEntity
  8
ASSI
100
AcDbLine
 62
7
  6
CONTINUOUS
 10
2.1686013278
 20
-25.7024510469
 11
2.1686013278
 21
-24.1962616201
  0
LINE
  5
415
100
AcDbEntity
  8
ASSI
100
AcDbLine
 62
7
  6
CONTINUOUS
 10
2.1686013278
 20
14.7409616898
 11
2.1686013278
 21
16.386436337
  0
LINE
  5
416
100
AcDbEntity
  8
DRAFT
100
AcDbLine
 62
7
  6
CONTINUOUS
 10
2.4101523701
 20
24.2705354445
 11
2.4101523701
 21
23.8375227427
  0
LINE
  5
417
100
AcDbEntity
  8
ASSI
100
AcDbLine
 62
7
  6
CONTINUOUS
 10
2.5575100575
 20
14.1134944195
 11
2.5575100575
 21
11.6020209521
  0
LINE
  5
418
100
AcDbEntity
  8
ASSI
100
AcDbLine
 62
7
  6
CONTINUOUS
 10
2.5575100575
 20
-23.818417859
 11
2.5575100575
 21
-21.3069443917
  0
LINE
  5
419
100
AcDbEntity
  8
ASSI
100
AcDbLine
 62
7
  6
CONTINUOUS
 10
1.8293346467
 20
18.9817014989
 11
1.8365096049
 21
20.1524809209
  0
LINE
  5
41A
100
AcDbEntity
  8
ASSI
100
AcDbLine
 62
250
  6
CONTINUOUS
 10
1.7304233276
 20
20.024133378
 11
1.7265461858
 21
19.6496356759
  0
LINE
  5
41B
100
AcDbEntity
  8
ASSI
100
AcDbLine
 62
250
  6
CONTINUOUS
 10
1.724272732
 20
19.4300400893
 11
1.718256564
 21
18.8489313035
  0
LWPOLYLINE
  5
41C
100
AcDbEntity
  8
ASSI
100
AcDbPolyline
 62
250
  6
CONTINUOUS
 90
19
 70
0
 10
0.5113565385
 20
-26.1080007697
 10
0.5113891217
 20
-26.1058204289
 10
0.5115298672
 20
-26.1035476399
 10
0.5117787752
 20
-26.1011824025
 10
0.5121311922
 20
-26.0987131986
 10
0.5125917716
 20
-26.0961515465
 10
0.5131744732
 20
-26.0935320009
 10
0.5138833246
 20
-26.0908514259
 10
0.5147142982
 20
-26.0881129576
 10
0.5156692708
 20
-26.0853605585
 10
0.5167525793
 20
-26.0825927668
 10
0.5179598868
 20
-26.0798110445
 10
0.5192800599
 20
-26.0770637395
 10
0.5207170254
 20
-26.0743515294
 10
0.5222668565
 20
-26.0716737366
 10
0.5239066382
 20
-26.0690766774
 10
0.5256287324
 20
-26.0665757905
 10
0.5274407773
 20
-26.0641556372
 10
0.5293427729
 20
-26.0618162174
  0
LWPOLYLINE
  5
41D
100
AcDbEntity
  8
ASSI
100
AcDbPolyline
 62
250
  6
CONTINUOUS
 90
19
 70
0
 10
0.2310035082
 20
-26.1067774678
 10
0.2312225207
 20
-26.095908482
 10
0.231904413
 20
-26.0845358152
 10
0.2330851014
 20
-26.0726738461
 10
0.2348038723
 20
-26.0603161487
 10
0.2370930976
 20
-26.0475132343
 10
0.2399671082
 20
-26.0343751266
 10
0.2434472852
 20
-26.0209392934
 10
0.2475523001
 20
-26.0072489681
 10
0.252269466
 20
-25.9934318752
 10
0.2576024316
 20
-25.979538863
 10
0.2635516036
 20
-25.9656241892
 10
0.2700758997
 20
-25.9518224013
 10
0.2771604221
 20
-25.9381895905
 10
0.2847877924
 20
-25.9247818084
 10
0.2928918064
 20
-25.9117266122
 10
0.3014261865
 20
-25.8990972329
 10
0.310373552
 20
-25.8869184507
 10
0.3197004207
 20
-25.8752375764
  0
LWPOLYLINE
  5
41E
100
AcDbEntity
  8
ASSI
100
AcDbPolyline
 62
7
  6
CONTINUOUS
 90
9
 70
0
 10
1.8292119798
 20
18.9817028131
 10
1.8290750638
 20
18.976515611
 10
1.8256928581
 20
18.9561002211
 10
1.8174885263
 20
18.9358529958
 10
1.8048368727
 20
18.9158416422
 10
1.7885105813
 20
18.8970458293
 10
1.7687672134
 20
18.8797921133
 10
1.7453492076
 20
18.8637539381
 10
1.718256564
 20
18.8489313035
  0
LINE
  5
41F
100
AcDbEntity
  8
ASSI
100
AcDbLine
 62
7
  6
CONTINUOUS
 10
2.5454605785
 20
19.9921888387
 11
2.5452401735
 21
19.9855290748
  0
LINE
  5
420
100
AcDbEntity
  8
ASSI
100
AcDbLine
 62
7
  6
CONTINUOUS
 10
2.7821131621
 20
16.3293497799
 11
2.7829658474
 21
16.3503357526
  0
LWPOLYLINE
  5
421
100
AcDbEntity
  8
ASSI
100
AcDbPolyline
 62
250
  6
CONTINUOUS
 90
9
 70
0
 10
1.8365090146
 20
20.1523747068
 10
1.8362255193
 20
20.1456625092
 10
1.8326530382
 20
20.1262648422
 10
1.8250282859
 20
20.1072175403
 10
1.8134343296
 20
20.0887263478
 10
1.7979927933
 20
20.0709844597
 10
1.7788667877
 20
20.0541831103
 10
1.7562626128
 20
20.0385088844
 10
1.7304233276
 20
20.024133378
  0
LINE
  5
422
100
AcDbEntity
  8
ASSI
100
AcDbLine
 62
250
  6
CONTINUOUS
 10
2.2222347008
 20
19.6385244424
 11
2.2317988609
 21
19.8621876809
  0
LINE
  5
423
100
AcDbEntity
  8
ASSI
100
AcDbLine
 62
7
  6
CONTINUOUS
 10
2.5101823947
 20
19.9604743397
 11
2.5091938015
 21
19.9430312065
  0
LINE
  5
424
100
AcDbEntity
  8
0
100
AcDbLine
 62
7
  6
CONTINUOUS
 10
0.3080786834
 20
-5.9197770544
 11
1.4690755216
 21
9.0071170792
  0
LWPOLYLINE
  5
425
100
AcDbEntity
  8
RACCORDO
100
AcDbPolyline
 62
7
  6
CONTINUOUS
 90
136
 70
0
 10
18.6914465226
 20
13.1451780976
 10
18.7508433984
 20
13.1939062653
 10
18.8083606433
 20
13.2414173463
 10
18.8639982574
 20
13.2877113405
 10
18.9177011554
 20
13.3327536931
 10
18.9695244225
 20
13.376578959
 10
19.0196333147
 20
13.4192908026
 10
19.0680350778
 20
13.4608941512
 10
19.114722466
 20
13.5013840776
 10
19.1598389971
 20
13.5408494651
 10
19.2033888772
 20
13.5792928381
 10
19.2453679004
 20
13.6167116723
 10
19.2859069669
 20
13.6531872779
 10
19.3250099975
 20
13.6887220323
 10
19.3626730716
 20
13.723313558
 10
19.399015327
 20
13.757036034
 10
19.4340404238
 20
13.7898917192
 10
19.467744702
 20
13.8218783545
 10
19.5002363198
 20
13.8530633415
 10
19.5315186215
 20
13.883448775
 10
19.5615882628
 20
13.9130325601
 10
19.5905433691
 20
13.9418758135
 10
19.618387019
 20
13.9699805201
 10
19.6451161339
 20
13.9973446949
 10
19.670819604
 20
14.0240235004
 10
19.6955002751
 20
14.0500188641
 10
19.7191553014
 20
14.0753288583
 10
19.7418650351
 20
14.1000028629
 10
19.7636320863
 20
14.1240427799
 10
19.784453845
 20
14.1474467072
 10
19.8044028333
 20
14.1702583177
 10
19.8234814152
 20
14.1924795335
 10
19.8416872268
 20
14.2141084324
 10
19.8590856983
 20
14.2351829204
 10
19.8756789077
 20
14.2557049802
 10
19.891464777
 20
14.2756726292
 10
19.9065025031
 20
14.2951178248
 10
19.9207937903
 20
14.3140426241
 10
19.9343369343
 20
14.33244497
 10
19.9471860184
 20
14.3503506487
 10
19.9593422529
 20
14.3677617864
 10
19.9708044274
 20
14.3846762568
 10
19.9816229949
 20
14.401113468
 10
19.9917984079
 20
14.4170753549
 10
20.0013302138
 20
14.4325599827
 10
20.0102675069
 20
14.4475809545
 10
20.018610025
 20
14.4621401514
 10
20.0263580302
 20
14.4762356925
 10
20.0335614041
 20
14.4898755379
 10
20.0402187153
 20
14.5030603937
 10
20.0463313952
 20
14.5157895539
 10
20.0519536192
 20
14.5280688604
 10
20.0570807573
 20
14.5398891713
 10
20.0617174395
 20
14.5512596284
 10
20.0659317315
 20
14.5622134989
 10
20.069721692
 20
14.5727373513
 10
20.0730892622
 20
14.5828446171
 10
20.0761083311
 20
14.5926088569
 10
20.0787842054
 20
14.6020277918
 10
20.0811115783
 20
14.6111037008
 10
20.083148418
 20
14.6199169817
 10
20.0849021239
 20
14.6284726307
 10
20.0863652966
 20
14.6367656516
 10
20.0875737069
 20
14.6448614544
 10
20.0885336409
 20
14.6527642884
 10
20.0892388123
 20
14.6604699043
 10
20.0897061336
 20
14.6680309629
 10
20.0899412653
 20
14.6754506362
 10
20.0899385469
 20
14.6827257522
 10
20.0896979087
 20
14.689899456
 10
20.0892250011
 20
14.6969744791
 10
20.0885141738
 20
14.7039480901
 10
20.0875484067
 20
14.7108552391
 10
20.0863340215
 20
14.7176980582
 10
20.0848646965
 20
14.7244744154
 10
20.083104447
 20
14.7312128653
 10
20.0810609321
 20
14.7379157499
 10
20.0787264925
 20
14.7445807273
 10
20.0760421656
 20
14.7512293263
 10
20.0730131307
 20
14.7578699398
 10
20.0696342083
 20
14.7644941748
 10
20.0658308969
 20
14.7710983822
 10
20.0616007792
 20
14.7776943531
 10
20.0569462725
 20
14.7842702963
 10
20.0518001261
 20
14.7907871892
 10
20.0461579372
 20
14.7972487724
 10
20.0400241087
 20
14.8036513053
 10
20.0333445988
 20
14.8099445438
 10
20.0261181285
 20
14.8161262027
 10
20.018345977
 20
14.8221985671
 10
20.0099779396
 20
14.8281182487
 10
20.0010136131
 20
14.8338832224
 10
19.9914534008
 20
14.8394955131
 10
19.9812483082
 20
14.8449178073
 10
19.9703988487
 20
14.850148602
 10
19.9589045089
 20
14.8551894
 10
19.9467147548
 20
14.8600073966
 10
19.9338307913
 20
14.86460173
 10
19.9202514134
 20
14.8689732619
 10
19.9059224723
 20
14.8730917725
 10
19.890845683
 20
14.876956973
 10
19.8750193304
 20
14.8805691521
 10
19.8583841204
 20
14.8838989566
 10
19.8409421408
 20
14.8869465599
 10
19.8226913039
 20
14.8897117886
 10
19.8035660513
 20
14.8921647689
 10
19.7835687372
 20
14.8943060318
 10
19.7626970076
 20
14.8961350462
 10
19.7408782418
 20
14.8976203456
 10
19.7181151172
 20
14.8987627343
 10
19.6944049565
 20
14.8995614081
 10
19.6696671068
 20
14.8999824873
 10
19.6439041896
 20
14.9000269866
 10
19.6171135835
 20
14.8996938913
 10
19.5892067718
 20
14.8989462782
 10
19.5601877418
 20
14.897785422
 10
19.5300525061
 20
14.8962100479
 10
19.4987005862
 20
14.8941794082
 10
19.4661333369
 20
14.8916946979
 10
19.4323494033
 20
14.8887547219
 10
19.397244242
 20
14.8853151475
 10
19.360812954
 20
14.8813760221
 10
19.3230604383
 20
14.8769372983
 10
19.2838968485
 20
14.8719545012
 10
19.2433309391
 20
14.8664293039
 10
19.2013539556
 20
14.8603600332
 10
19.1578497882
 20
14.8536971954
 10
19.1128333406
 20
14.8464445031
 10
19.0662897093
 20
14.8385982436
 10
19.0180580732
 20
14.8300977844
 10
18.9681386061
 20
14.8209447489
 10
18.9165311343
 20
14.8111375139
 10
18.8630743159
 20
14.8006105772
 10
18.8077143703
 20
14.7893421048
 10
18.7505050782
 20
14.7773539307
 10
18.6914464395
 20
14.7646460551
  0
LWPOLYLINE
  5
426
100
AcDbEntity
  8
0
100
AcDbPolyline
 62
7
  6
CONTINUOUS
 90
8
 70
0
 10
-11.5175987269
 20
8.0452851249
 10
-11.5141634227
 20
8.0437223268
 10
-11.5113578018
 20
8.0423343516
 10
-11.5086233536
 20
8.040894777
 10
-11.5059571481
 20
8.0394034217
 10
-11.5033621262
 20
8.0378604622
 10
-11.5008384755
 20
8.0362840673
 10
-11.4983869586
 20
8.0346756482
  0
LWPOLYLINE
  5
427
100
AcDbEntity
  8
0
100
AcDbPolyline
 62
7
  6
CONTINUOUS
 90
8
 70
0
 10
-11.4977913938
 20
8.0342710401
 10
-11.4999954705
 20
8.0357379321
 10
-11.5022763915
 20
8.0371954588
 10
-11.5046359706
 20
8.0386275941
 10
-11.5070755872
 20
8.0400362173
 10
-11.5095938508
 20
8.041419454
 10
-11.5121884205
 20
8.0427556485
 10
-11.5148554263
 20
8.0440439053
  0
LWPOLYLINE
  5
428
100
AcDbEntity
  8
ASSI
100
AcDbPolyline
 62
7
  6
CONTINUOUS
 90
12
 70
0
 10
1.8365095972
 20
20.1524972089
 10
1.8353315859
 20
20.1798180847
 10
1.8302089862
 20
20.2132544667
 10
1.8209894813
 20
20.2462501501
 10
1.8076786868
 20
20.278332201
 10
1.7904272027
 20
20.3088943773
 10
1.7692920634
 20
20.3376534665
 10
1.7442810339
 20
20.364376135
 10
1.7158185743
 20
20.3884704768
 10
1.6844607907
 20
20.4094930643
 10
1.6499703006
 20
20.4276145918
 10
1.6127333655
 20
20.4425879868
  0
LWPOLYLINE
  5
429
100
AcDbEntity
  8
ASSI
100
AcDbPolyline
 62
7
  6
CONTINUOUS
 90
16
 70
0
 10
2.5575100575
 20
14.1134944195
 10
2.555596178
 20
14.1593688945
 10
2.5497820276
 20
14.2068054277
 10
2.5401032551
 20
14.2553144111
 10
2.5265707567
 20
14.304558508
 10
2.5093466159
 20
14.3538279143
 10
2.4888663273
 20
14.4020585505
 10
2.4656475989
 20
14.4483529534
 10
2.4398372406
 20
14.4926536892
 10
2.4113492176
 20
14.5351380329
 10
2.380162108
 20
14.5756409504
 10
2.3468295961
 20
14.6132673794
 10
2.3121318627
 20
14.6471498185
 10
2.2766206211
 20
14.6768525931
 10
2.2405522428
 20
14.702242973
 10
2.2043200041
 20
14.7231023517
  0
LWPOLYLINE
  5
42A
100
AcDbEntity
  8
ASSI
100
AcDbPolyline
 62
250
  6
CONTINUOUS
 90
13
 70
0
 10
2.6927057944
 20
16.6463960161
 10
2.6917918372
 20
16.669753884
 10
2.6884328446
 20
16.6939003666
 10
2.6826862676
 20
16.7184224708
 10
2.6746503935
 20
16.7429007791
 10
2.6644626652
 20
16.766916623
 10
2.6522973301
 20
16.7900592438
 10
2.6383624598
 20
16.8119328184
 10
2.6228963915
 20
16.8321632286
 10
2.6061636514
 20
16.8504044606
 10
2.5884504304
 20
16.8663445227
 10
2.5700596895
 20
16.8797107816
 10
2.5513059773
 20
16.8902746255
  0
LWPOLYLINE
  5
42B
100
AcDbEntity
  8
ASSI
100
AcDbPolyline
 62
7
  6
CONTINUOUS
 90
11
 70
0
 10
2.782969333
 20
16.690397397
 10
2.7824990789
 20
16.7056435582
 10
2.7788588278
 20
16.7353108284
 10
2.7716436668
 20
16.7640552581
 10
2.760964953
 20
16.7914029571
 10
2.74714469
 20
16.8167093749
 10
2.7304328294
 20
16.8397474489
 10
2.7109626514
 20
16.8604003286
 10
2.6891424231
 20
16.8782663177
 10
2.6654096622
 20
16.8930638343
 10
2.6597479987
 20
16.8960027459
  0
LWPOLYLINE
  5
42C
100
AcDbEntity
  8
ASSI
100
AcDbPolyline
 62
7
  6
CONTINUOUS
 90
8
 70
0
 10
2.5454605785
 20
19.9921888387
 10
2.5452142116
 20
20.0054209373
 10
2.5441212824
 20
20.0162061988
 10
2.542299705
 20
20.0245323369
 10
2.539838715
 20
20.0303764348
 10
2.5368587673
 20
20.0337456213
 10
2.5335543357
 20
20.0346777279
 10
2.531719251
 20
20.0341713199
  0
LWPOLYLINE
  5
42D
100
AcDbEntity
  8
ASSI
100
AcDbPolyline
 62
250
  6
CONTINUOUS
 90
28
 70
0
 10
2.7268377383
 20
16.6207736723
 10
2.7268001415
 20
16.6229946287
 10
2.7266566916
 20
16.6251850827
 10
2.7264073888
 20
16.6273450343
 10
2.7260546767
 20
16.6294892701
 10
2.7255961117
 20
16.6316030034
 10
2.7250243626
 20
16.6336418745
 10
2.7243355048
 20
16.6356040434
 10
2.723533463
 20
16.63749135
 10
2.7226226808
 20
16.6392649545
 10
2.7215998892
 20
16.6409209267
 10
2.7204683572
 20
16.6424631968
 10
2.7192423347
 20
16.6438647161
 10
2.7179208307
 20
16.6451208646
 10
2.7165048362
 20
16.6462362624
 10
2.7150115741
 20
16.6471977208
 10
2.7134412193
 20
16.6480025709
 10
2.7117935969
 20
16.6486534817
 10
2.7100854055
 20
16.6491452719
 10
2.708316095
 20
16.6494765683
 10
2.7064862154
 20
16.6496487442
 10
2.7046141151
 20
16.6496607377
 10
2.7026994572
 20
16.649511111
 10
2.7007425785
 20
16.649201302
 10
2.6987628371
 20
16.6487345627
 10
2.6967666856
 20
16.6481119774
 10
2.6947476713
 20
16.6473324618
 10
2.6927057944
 20
16.6463960161
  0
LWPOLYLINE
  5
42E
100
AcDbEntity
  8
ASSI
100
AcDbPolyline
 62
7
  6
CONTINUOUS
 90
4
 70
0
 10
2.7829702095
 20
-24.9492799382
 10
2.7829516999
 20
-24.946271012
 10
2.7812588754
 20
-24.920075431
 10
2.7768094007
 20
-24.8943600786
  0
LINE
  5
42F
100
AcDbEntity
  8
ASSI
100
AcDbLine
 62
250
  6
CONTINUOUS
 10
2.7268377383
 20
-25.3587176568
 11
2.7268377383
 21
-25.018774062
  0
LINE
  5
430
100
AcDbEntity
  8
ASSI
100
AcDbLine
 62
250
  6
CONTINUOUS
 10
2.7268377383
 20
16.2808300774
 11
2.7268377383
 21
16.6207736723
  0
LINE
  5
431
100
AcDbEntity
  8
ASSI
100
AcDbLine
 62
7
  6
CONTINUOUS
 10
2.7829697783
 20
-25.2892518198
 11
2.7829697783
 21
-24.949308156
  0
LINE
  5
432
100
AcDbEntity
  8
ASSI
100
AcDbLine
 62
7
  6
CONTINUOUS
 10
2.7829697783
 20
16.3502959145
 11
2.782969529
 21
16.6903973971
  0
LINE
  5
433
100
AcDbEntity
  8
ASSI
100
AcDbLine
 62
7
  6
CONTINUOUS
 10
3.2522742439
 20
-23.443642795
 11
3.2522742439
 21
-20.5186353449
  0
LINE
  5
434
100
AcDbEntity
  8
ASSI
100
AcDbLine
 62
7
  6
CONTINUOUS
 10
3.2522742439
 20
11.5331612813
 11
3.2522742439
 21
14.4581687314
  0
LINE
  5
435
100
AcDbEntity
  8
0
100
AcDbLine
 62
7
  6
CONTINUOUS
 10
3.3776160826
 20
23.0371700328
 11
3.3776160826
 21
22.584845393
  0
LINE
  5
436
100
AcDbEntity
  8
0
100
AcDbLine
 62
7
  6
CONTINUOUS
 10
3.8273607439
 20
22.9154221997
 11
3.8273607439
 21
22.5757976167
  0
LINE
  5
437
100
AcDbEntity
  8
DRAFT
100
AcDbLine
 62
7
  6
CONTINUOUS
 10
3.8656576027
 20
24.2111128787
 11
3.8656576027
 21
23.7673595827
  0
LINE
  5
438
100
AcDbEntity
  8
ASSI
100
AcDbLine
 62
7
  6
CONTINUOUS
 10
3.9470384303
 20
11.8973143124
 11
3.9470384303
 21
11.3214703281
  0
LINE
  5
439
100
AcDbEntity
  8
ASSI
100
AcDbLine
 62
7
  6
CONTINUOUS
 10
3.9470384303
 20
-19.6901651647
 11
3.9470384303
 21
-20.163339
  0
LINE
  5
43A
100
AcDbEntity
  8
ASSI
100
AcDbLine
 62
7
  6
CONTINUOUS
 10
4.0087561053
 20
11.2906114906
 11
4.0087561053
 21
-19.6183538532
  0
LWPOLYLINE
  5
43B
100
AcDbEntity
  8
ASSI
100
AcDbPolyline
 62
250
  6
CONTINUOUS
 90
8
 70
0
 10
2.6927057944
 20
-25.4196846633
 10
2.6917918411
 20
-25.4415267561
 10
2.6884328597
 20
-25.4618071614
 10
2.6826862987
 20
-25.4801790096
 10
2.674650443
 20
-25.4963280734
 10
2.6644627329
 20
-25.5099781439
 10
2.6522974119
 20
-25.5208957539
 10
2.6438026024
 20
-25.5262349983
  0
LWPOLYLINE
  5
43C
100
AcDbEntity
  8
ASSI
100
AcDbPolyline
 62
7
  6
CONTINUOUS
 90
10
 70
0
 10
2.5575100575
 20
-23.8184840126
 10
2.5555511475
 20
-23.8624792551
 10
2.5497392271
 20
-23.9042756996
 10
2.5400821924
 20
-23.9433895241
 10
2.5265494704
 20
-23.9794988003
 10
2.509292722
 20
-24.0119935317
 10
2.4887817324
 20
-24.0401284677
 10
2.465538923
 20
-24.063494471
 10
2.439704571
 20
-24.0821989599
 10
2.4317348675
 20
-24.0867574389
  0
LINE
  5
43D
100
AcDbEntity
  8
ASSI
100
AcDbLine
 62
7
  6
CONTINUOUS
 10
2.7818437752
 20
-25.3132609992
 11
2.7829697135
 21
-25.2892211647
  0
LINE
  5
43E
100
AcDbEntity
  8
RACCORDO
100
AcDbLine
 62
250
  6
CONTINUOUS
 10
18.8637305694
 20
12.7713998082
 11
18.8545570411
 21
12.763019904
  0
LWPOLYLINE
  5
43F
100
AcDbEntity
  8
RACCORDO
100
AcDbPolyline
 62
250
  6
CONTINUOUS
 90
56
 70
0
 10
18.5738968414
 20
13.0078147198
 10
18.5797587608
 20
13.0130556568
 10
18.5855929226
 20
13.0180714763
 10
18.5913982408
 20
13.0228622662
 10
18.5971678734
 20
13.0274294271
 10
18.6029065724
 20
13.0317716657
 10
18.6086301328
 20
13.0358852401
 10
18.6143389741
 20
13.0397738355
 10
18.6200293511
 20
13.0434343405
 10
18.6257099542
 20
13.0468531659
 10
18.6313804617
 20
13.0500324013
 10
18.6370370506
 20
13.052970749
 10
18.6426826114
 20
13.0556497299
 10
18.6483132668
 20
13.058069517
 10
18.6539282677
 20
13.0602307684
 10
18.6595346169
 20
13.062115916
 10
18.6651180162
 20
13.0637265492
 10
18.6706874373
 20
13.0650619993
 10
18.6762826108
 20
13.0661020477
 10
18.6818936074
 20
13.0668573695
 10
18.687520868
 20
13.0673194213
 10
18.6932151603
 20
13.0674406197
 10
18.6989865984
 20
13.0672277399
 10
18.7048084311
 20
13.0666780136
 10
18.7106730723
 20
13.0657303958
 10
18.7165755591
 20
13.0643812589
 10
18.7225027684
 20
13.0626379604
 10
18.7284350221
 20
13.0604557045
 10
18.7343622506
 20
13.0578297494
 10
18.7402762064
 20
13.0547678503
 10
18.7461606738
 20
13.0512435542
 10
18.7519976461
 20
13.0472608664
 10
18.7577866646
 20
13.0428180341
 10
18.763536363
 20
13.0378801089
 10
18.7692302113
 20
13.0324549525
 10
18.7748612295
 20
13.0265372412
 10
18.7804471744
 20
13.0200731513
 10
18.7859732409
 20
13.0130644956
 10
18.7914215852
 20
13.0055126737
 10
18.7967985324
 20
12.9973642549
 10
18.8020847663
 20
12.9886167617
 10
18.8072572592
 20
12.9792758961
 10
18.8123100549
 20
12.9693011596
 10
18.8172170993
 20
12.9586902213
 10
18.8219521977
 20
12.9474478052
 10
18.8265020583
 20
12.9355443558
 10
18.8308320424
 20
12.9229841198
 10
18.8349129381
 20
12.90976361
 10
18.838728992
 20
12.8958419877
 10
18.8422337594
 20
12.8812371872
 10
18.845391748
 20
12.8659296175
 10
18.8481824537
 20
12.8498226405
 10
18.8505485925
 20
12.8328871914
 10
18.8524257665
 20
12.8151469866
 10
18.8537559724
 20
12.7965840493
 10
18.854465146
 20
12.7770273637
  0
LWPOLYLINE
  5
440
100
AcDbEntity
  8
0
100
AcDbPolyline
 62
7
  6
CONTINUOUS
 90
3
 70
0
 10
-13.0763411391
 20
-12.0844305794
 10
-13.0676903648
 20
-12.078873359
 10
-13.0641308198
 20
-12.0769332908
  0
LWPOLYLINE
  5
441
100
AcDbEntity
  8
0
100
AcDbPolyline
 62
7
  6
CONTINUOUS
 90
10
 70
0
 10
-13.0641246702
 20
-12.076945918
 10
-13.0701046014
 20
-12.080356145
 10
-13.0837477293
 20
-12.0903730876
 10
-13.0957946072
 20
-12.1025186874
 10
-13.1061611795
 20
-12.1168675137
 10
-13.1149323683
 20
-12.1333453678
 10
-13.1218970347
 20
-12.1513043649
 10
-13.126985038
 20
-12.1705286477
 10
-13.1302670589
 20
-12.191234306
 10
-13.1317431772
 20
-12.2134213726
  0
LINE
  5
442
100
AcDbEntity
  8
0
100
AcDbLine
 62
7
  6
CONTINUOUS
 10
-11.5294365774
 20
8.0495710817
 11
-11.5261923667
 21
8.0485643118
  0
LINE
  5
443
100
AcDbEntity
  8
0
100
AcDbLine
 62
7
  6
CONTINUOUS
 10
-11.5230563967
 20
8.0474751161
 11
-11.5263419536
 21
8.0486186019
  0
LWPOLYLINE
  5
444
100
AcDbEntity
  8
0
100
AcDbPolyline
 62
7
  6
CONTINUOUS
 90
3
 70
0
 10
-11.5230563967
 20
8.0474751161
 10
-11.5200127268
 20
8.0462927061
 10
-11.5170488341
 20
8.0450410708
  0
LWPOLYLINE
  5
445
100
AcDbEntity
  8
0
100
AcDbPolyline
 62
7
  6
CONTINUOUS
 90
3
 70
0
 10
-11.5175987269
 20
8.0452851249
 10
-11.5204275737
 20
8.0464603457
 10
-11.5233419976
 20
8.0475724701
  0
LINE
  5
446
100
AcDbEntity
  8
RACCORDO
100
AcDbLine
 62
7
  6
CONTINUOUS
 10
5.9498789368
 20
26.3730835924
 11
5.9498789368
 21
26.0461175447
  0
LWPOLYLINE
  5
447
100
AcDbEntity
  8
0
100
AcDbPolyline
 62
7
  6
CONTINUOUS
 90
12
 70
0
 10
-13.0641308198
 20
-12.0769332908
 10
-13.0585236001
 20
-12.074242782
 10
-13.0489566349
 20
-12.0706006953
 10
-13.0389840661
 20
-12.0679610489
 10
-13.0286111086
 20
-12.0663098123
 10
-13.0179695539
 20
-12.0656668945
 10
-13.0070559013
 20
-12.0660452784
 10
-12.9958735068
 20
-12.0674319191
 10
-12.9845645381
 20
-12.0698077233
 10
-12.9731763823
 20
-12.073166326
 10
-12.9616615859
 20
-12.0775140637
 10
-12.9500201002
 20
-12.0828509153
  0
LINE
  5
448
100
AcDbEntity
  8
0
100
AcDbLine
 62
7
  6
CONTINUOUS
 10
-13.0553301084
 20
-12.0728927193
 11
-13.0641246702
 21
-12.076945918
  0
LWPOLYLINE
  5
449
100
AcDbEntity
  8
RACCORDO
100
AcDbPolyline
 62
250
  6
CONTINUOUS
 90
56
 70
0
 10
18.6914468816
 20
1.1940278187
 10
18.6985131122
 20
1.1965633477
 10
18.7056429155
 20
1.1988697156
 10
18.7128353302
 20
1.2009482651
 10
18.7200708447
 20
1.2028140716
 10
18.7273667392
 20
1.2044550428
 10
18.734776676
 20
1.2058324751
 10
18.7423255731
 20
1.2069583436
 10
18.74998444
 20
1.2078258882
 10
18.7577250223
 20
1.2083695693
 10
18.7655622115
 20
1.2085875807
 10
18.7734747785
 20
1.2084894829
 10
18.7813794692
 20
1.2080276252
 10
18.7892563285
 20
1.2071991437
 10
18.7971173475
 20
1.2060162847
 10
18.804926618
 20
1.2044545862
 10
18.8126624725
 20
1.2025241148
 10
18.8203368228
 20
1.2002261795
 10
18.8279628176
 20
1.1975246884
 10
18.8355342784
 20
1.1944350238
 10
18.8430441568
 20
1.1909573991
 10
18.8505017065
 20
1.1870360635
 10
18.8579139844
 20
1.182677156
 10
18.8652553541
 20
1.1778967996
 10
18.8724833844
 20
1.1726573741
 10
18.8795886246
 20
1.1669699847
 10
18.8865578073
 20
1.1608512365
 10
18.8933408798
 20
1.154274052
 10
18.8999156199
 20
1.1472714736
 10
18.9062779408
 20
1.1398434234
 10
18.9124011933
 20
1.131917925
 10
18.9182719337
 20
1.1235369859
 10
18.9238686689
 20
1.1147038228
 10
18.9291444008
 20
1.1052988753
 10
18.9340907701
 20
1.0953638478
 10
18.9386663545
 20
1.0849237421
 10
18.9427629888
 20
1.0738491335
 10
18.9463678076
 20
1.0621506571
 10
18.9494245867
 20
1.0499140974
 10
18.9517544497
 20
1.0371306949
 10
18.9533153972
 20
1.0237866969
 10
18.9540756686
 20
1.0100053454
 10
18.9538862304
 20
0.9959640781
 10
18.9526970515
 20
0.9816813793
 10
18.950512421
 20
0.9672161559
 10
18.9472944214
 20
0.9527648374
 10
18.9430012712
 20
0.9383126289
 10
18.9376597912
 20
0.9239113897
 10
18.9313694923
 20
0.9098062674
 10
18.9241631681
 20
0.8960459294
 10
18.9160349303
 20
0.8825548247
 10
18.9070458109
 20
0.869361405
 10
18.8972033537
 20
0.8564478396
 10
18.8865234175
 20
0.8438080332
 10
18.8750826144
 20
0.831482649
 10
18.8629023235
 20
0.8194634067
  0
LWPOLYLINE
  5
44A
100
AcDbEntity
  8
0
100
AcDbPolyline
 62
7
  6
CONTINUOUS
 90
12
 70
0
 10
-11.5427524759
 20
8.0523420783
 10
-11.5462884691
 20
8.0527116326
 10
-11.5498877793
 20
8.0529050094
 10
-11.5535527044
 20
8.0529230983
 10
-11.5572809315
 20
8.0527650162
 10
-11.5610478369
 20
8.0523854639
 10
-11.5648549706
 20
8.0517851874
 10
-11.5687007707
 20
8.0509634455
 10
-11.5725559506
 20
8.0498727054
 10
-11.5764158537
 20
8.0485203287
 10
-11.5802851288
 20
8.0468989567
 10
-11.5829680042
 20
8.0455787632
  0
LINE
  5
44B
100
AcDbEntity
  8
0
100
AcDbLine
 62
7
  6
CONTINUOUS
 10
-11.5392975112
 20
8.0518389856
 11
-11.5432593619
 21
8.0524128994
  0
LWPOLYLINE
  5
44C
100
AcDbEntity
  8
0
100
AcDbPolyline
 62
7
  6
CONTINUOUS
 90
23
 70
0
 10
-12.3220835897
 20
8.4415688305
 10
-12.3143335509
 20
8.4402295757
 10
-12.3068300829
 20
8.4383544008
 10
-12.2995727761
 20
8.4359432292
 10
-12.2925550927
 20
8.4329374732
 10
-12.2857836704
 20
8.4293956781
 10
-12.2792783303
 20
8.4254935184
 10
-12.2730350206
 20
8.4212346315
 10
-12.2670578845
 20
8.4166153406
 10
-12.2613790456
 20
8.4118003443
 10
-12.2560086558
 20
8.4067996837
 10
-12.2509366558
 20
8.4016032777
 10
-12.2461648612
 20
8.396345637
 10
-12.2417096867
 20
8.3910531227
 10
-12.2375547999
 20
8.3856993381
 10
-12.2336528919
 20
8.3803396595
 10
-12.2300015473
 20
8.3749829849
 10
-12.2266032381
 20
8.3696203917
 10
-12.2234179757
 20
8.3642805294
 10
-12.2204398285
 20
8.3589599865
 10
-12.2176747677
 20
8.3536621574
 10
-12.2151006528
 20
8.3484259026
 10
-12.2127176239
 20
8.3432542901
  0
LWPOLYLINE
  5
44D
100
AcDbEntity
  8
0
100
AcDbPolyline
 62
7
  6
CONTINUOUS
 90
3
 70
0
 10
-11.5361665206
 20
8.0512486591
 10
-11.5327534543
 20
8.0504722845
 10
-11.5294267692
 20
8.0495649015
  0
LWPOLYLINE
  5
44E
100
AcDbEntity
  8
0
100
AcDbPolyline
 62
7
  6
CONTINUOUS
 90
3
 70
0
 10
-11.5326334403
 20
8.0504339943
 10
-11.5359249532
 20
8.0512032628
 10
-11.5396697597
 20
8.0518962796
  0
LWPOLYLINE
  5
44F
100
AcDbEntity
  8
RACCORDO
100
AcDbPolyline
 62
250
  6
CONTINUOUS
 90
8
 70
0
 10
-18.5514266717
 20
17.9962973343
 10
-18.5889883558
 20
18.0199357661
 10
-18.6203067732
 20
18.0450717451
 10
-18.644907998
 20
18.0713249011
 10
-18.6624197519
 20
18.098297958
 10
-18.6725770383
 20
18.1255827459
 10
-18.6752261519
 20
18.1527663778
 10
-18.6750545876
 20
18.1557571079
  0
LWPOLYLINE
  5
450
100
AcDbEntity
  8
0
100
AcDbPolyline
 62
7
  6
CONTINUOUS
 90
4
 70
0
 10
8.3635021098
 20
19.6622355556
 10
8.3636308561
 20
19.6489305959
 10
8.3648173455
 20
19.6197147764
 10
8.3669467262
 20
19.5941085764
  0
LINE
  5
451
100
AcDbEntity
  8
ASSI
100
AcDbLine
 62
7
  6
CONTINUOUS
 10
8.8440706289
 20
18.6650471998
 11
8.8440706289
 21
18.8560692636
  0
LINE
  5
452
100
AcDbEntity
  8
0
100
AcDbLine
 62
250
  6
CONTINUOUS
 10
9.1520633746
 20
20.2157667511
 11
9.1520633746
 21
20.625985794
  0
LWPOLYLINE
  5
453
100
AcDbEntity
  8
RACCORDO
100
AcDbPolyline
 62
7
  6
CONTINUOUS
 90
16
 70
0
 10
18.5738968414
 20
13.0078144977
 10
18.5804449114
 20
13.0182312322
 10
18.5871864002
 20
13.0285062515
 10
18.5941213077
 20
13.0386395557
 10
18.6012506153
 20
13.0486461932
 10
18.6085733417
 20
13.0585111156
 10
18.6160865426
 20
13.0681891772
 10
18.6237958856
 20
13.0776805718
 10
18.6316957031
 20
13.0869851058
 10
18.6397660484
 20
13.0960570526
 10
18.6480107461
 20
13.1048935722
 10
18.6564259716
 20
13.1134975047
 10
18.664980304
 20
13.1218316441
 10
18.6736632699
 20
13.1298835884
 10
18.6824853427
 20
13.1376657395
 10
18.6914465226
 20
13.1451780976
  0
LINE
  5
454
100
AcDbEntity
  8
0
100
AcDbLine
 62
7
  6
CONTINUOUS
 10
-13.0393500844
 20
-12.0681142558
 11
-13.0553301084
 21
-12.0728927193
  0
LWPOLYLINE
  5
455
100
AcDbEntity
  8
0
100
AcDbPolyline
 62
7
  6
CONTINUOUS
 90
4
 70
0
 10
-12.2902175382
 20
7.8699069435
 10
-12.2801043826
 20
7.8704060399
 10
-12.2705195928
 20
7.8723149819
 10
-12.2662591387
 20
7.8736769042
  0
LINE
  5
456
100
AcDbEntity
  8
0
100
AcDbLine
 62
7
  6
CONTINUOUS
 10
-12.29021782
 20
7.8699069175
 11
-12.3404686337
 21
7.8691165311
  0
LWPOLYLINE
  5
457
100
AcDbEntity
  8
0
100
AcDbPolyline
 62
7
  6
CONTINUOUS
 90
3
 70
0
 10
-12.3220835897
 20
8.4415688305
 10
-12.4041335664
 20
8.4469131122
 10
-12.4842943974
 20
8.4454790528
  0
LWPOLYLINE
  5
458
100
AcDbEntity
  8
RACCORDO
100
AcDbPolyline
 62
250
  6
CONTINUOUS
 90
13
 70
0
 10
-3.8512433685
 20
10.6462140054
 10
-3.802545266
 20
10.6267223195
 10
-3.7496314636
 20
10.6097418304
 10
-3.6933026631
 20
10.59552949
 10
-3.6344112426
 20
10.5843003624
 10
-3.5738483583
 20
10.5762243687
 10
-3.5125304592
 20
10.571423716
 10
-3.4513854194
 20
10.5699710487
 10
-3.3913384974
 20
10.5718883489
 10
-3.3332983345
 20
10.5771466037
 10
-3.2781432055
 20
10.585666244
 10
-3.2267077284
 20
10.5973183491
 10
-3.1797702344
 20
10.6119265972
  0
LWPOLYLINE
  5
459
100
AcDbEntity
  8
RACCORDO
100
AcDbPolyline
 62
250
  6
CONTINUOUS
 90
6
 70
0
 10
-3.8512521599
 20
10.6462100572
 10
-4.3586108242
 20
10.8709868621
 10
-4.8637986805
 20
11.0966252938
 10
-5.3668091718
 20
11.3231200997
 10
-5.86754758
 20
11.5504259276
 10
-6.3660962658
 20
11.7785773236
  0
LWPOLYLINE
  5
45A
100
AcDbEntity
  8
RACCORDO
100
AcDbPolyline
 62
250
  6
CONTINUOUS
 90
26
 70
0
 10
-6.3660962658
 20
11.7785773236
 10
-6.8627112984
 20
12.0076903441
 10
-7.3574947308
 20
12.2378131563
 10
-7.8503248711
 20
12.4688903087
 10
-8.3411200466
 20
12.700883447
 10
-8.8298362984
 20
12.9337713
 10
-9.3165008928
 20
13.1675664606
 10
-9.801139451
 20
13.4022811553
 10
-10.2838599937
 20
13.6379686171
 10
-10.7645356162
 20
13.8745679184
 10
-11.2428431917
 20
14.1119184374
 10
-11.7184896683
 20
14.3498695256
 10
-12.1917611994
 20
14.5885589418
 10
-12.6632003954
 20
14.8282599939
 10
-13.1317759235
 20
15.0684452229
 10
-13.5985049153
 20
15.3096324804
 10
-14.0669466115
 20
15.5536865887
 10
-14.5362647007
 20
15.8002167421
 10
-15.0071795376
 20
16.049645731
 10
-15.4854517867
 20
16.305113249
 10
-15.9713683124
 20
16.5669084291
 10
-16.4643335081
 20
16.8348484934
 10
-16.9686253503
 20
17.1114277314
 10
-17.485478962
 20
17.3975450484
 10
-18.0131635252
 20
17.6924733146
 10
-18.5514266748
 20
17.996297312
  0
LINE
  5
45B
100
AcDbEntity
  8
DRAFT
100
AcDbLine
 62
7
  6
CONTINUOUS
 10
1.4690755216
 20
9.0071170792
 11
0.5609793901
 21
9.4611651449
  0
LWPOLYLINE
  5
45C
100
AcDbEntity
  8
RACCORDO
100
AcDbPolyline
 62
250
  6
CONTINUOUS
 90
16
 70
0
 10
-2.9943409421
 20
12.0261280985
 10
-2.9584302391
 20
12.0048175513
 10
-2.9230139495
 20
11.9789512089
 10
-2.8884797634
 20
11.9488122213
 10
-2.8552057149
 20
11.9147305099
 10
-2.8235560436
 20
11.8770791555
 10
-2.7938772076
 20
11.8362703151
 10
-2.7664940908
 20
11.7927507091
 10
-2.7417064471
 20
11.7469967318
 10
-2.7197856184
 20
11.6995092367
 10
-2.7009715646
 20
11.6508080532
 10
-2.6854702366
 20
11.6014262966
 10
-2.6734513224
 20
11.5519045323
 10
-2.6650463889
 20
11.5027848583
 10
-2.660347442
 20
11.454604971
 10
-2.6594059195
 20
11.4078922794
  0
LWPOLYLINE
  5
45D
100
AcDbEntity
  8
ASSI
100
AcDbPolyline
 62
7
  6
CONTINUOUS
 90
4
 70
0
 10
-14.4110362302
 20
22.4231593627
 10
-14.3929376661
 20
22.4071746353
 10
-14.3732288829
 20
22.3933024799
 10
-14.3549977866
 20
22.383096551
  0
LINE
  5
45E
100
AcDbEntity
  8
ASSI
100
AcDbLine
 62
7
  6
CONTINUOUS
 10
3.2522742439
 20
13.0956052797
 11
3.9470384303
 21
11.8973143124
  0
LINE
  5
45F
100
AcDbEntity
  8
RACCORDO
100
AcDbLine
 62
7
  6
CONTINUOUS
 10
3.2522742439
 20
13.1169816528
 11
3.5575731442
 21
12.5904189403
  0
LINE
  5
460
100
AcDbEntity
  8
DRAFT
100
AcDbLine
 62
7
  6
CONTINUOUS
 10
9.8347735726
 20
20.5582248433
 11
9.8347735726
 21
20.1252121414
  0
LINE
  5
461
100
AcDbEntity
  8
0
100
AcDbLine
 62
7
  6
CONTINUOUS
 10
10.802237285
 20
19.3248594316
 11
10.802237285
 21
18.8725347912
  0
LINE
  5
462
100
AcDbEntity
  8
0
100
AcDbLine
 62
7
  6
CONTINUOUS
 10
11.2519819464
 20
19.2031115984
 11
11.2519819464
 21
18.8634870087
  0
LINE
  5
463
100
AcDbEntity
  8
DRAFT
100
AcDbLine
 62
7
  6
CONTINUOUS
 10
11.2902788051
 20
20.0550489815
 11
11.2902788051
 21
20.4988022774
  0
LWPOLYLINE
  5
464
100
AcDbEntity
  8
ASSI
100
AcDbPolyline
 62
250
  6
CONTINUOUS
 90
7
 70
0
 10
2.7094686337
 20
-24.9902671792
 10
2.7172674371
 20
-24.9655397769
 10
2.7224998924
 20
-24.940055357
 10
2.7250774616
 20
-24.9142451407
 10
2.7249565295
 20
-24.8885458617
 10
2.7221391425
 20
-24.8633923766
 10
2.7166729735
 20
-24.8392103067
  0
LWPOLYLINE
  5
465
100
AcDbEntity
  8
ASSI
100
AcDbPolyline
 62
7
  6
CONTINUOUS
 90
4
 70
0
 10
2.1578395715
 20
-25.7633443446
 10
2.1637884809
 20
-25.7448634885
 10
2.1673977109
 20
-25.7244486209
 10
2.1686013278
 20
-25.7024510469
  0
LWPOLYLINE
  5
466
100
AcDbEntity
  8
RACCORDO
100
AcDbPolyline
 62
250
  6
CONTINUOUS
 90
56
 70
0
 10
18.5738968414
 20
1.0566641475
 10
18.5797083544
 20
1.0618622175
 10
18.5854991526
 20
1.0668428657
 10
18.5912679987
 20
1.0716062606
 10
18.5970086791
 20
1.0761551267
 10
18.6027249863
 20
1.0804870139
 10
18.6084302452
 20
1.0845945092
 10
18.6141247842
 20
1.0884809319
 10
18.6198047505
 20
1.0921436321
 10
18.6254764765
 20
1.0955665293
 10
18.6311395937
 20
1.0987512789
 10
18.6367902585
 20
1.1016970512
 10
18.6424291856
 20
1.1043841703
 10
18.6480530689
 20
1.1068124024
 10
18.6536606544
 20
1.1089827925
 10
18.659255366
 20
1.1108776856
 10
18.6648238995
 20
1.1124977221
 10
18.6703745817
 20
1.1138430643
 10
18.6759415006
 20
1.1148959381
 10
18.6815085565
 20
1.1156666881
 10
18.6870835012
 20
1.1161467347
 10
18.6927313622
 20
1.1162914948
 10
18.6984539935
 20
1.1161146107
 10
18.7042329902
 20
1.1156064687
 10
18.7100973632
 20
1.1146892769
 10
18.7160572412
 20
1.113359639
 10
18.722079111
 20
1.1116262776
 10
18.7281254531
 20
1.1094296979
 10
18.7341896319
 20
1.106756397
 10
18.7402562509
 20
1.1036238037
 10
18.7462784067
 20
1.1000175439
 10
18.7522289058
 20
1.095943211
 10
18.7581176945
 20
1.0913969893
 10
18.7639542577
 20
1.0863499635
 10
18.7697195491
 20
1.0808140562
 10
18.7754100375
 20
1.0747795182
 10
18.7810523084
 20
1.0681860425
 10
18.7866339545
 20
1.0610328411
 10
18.792133403
 20
1.0533240088
 10
18.7975556758
 20
1.0450077559
 10
18.8028895455
 20
1.0360630464
 10
18.8081018467
 20
1.0265142513
 10
18.8131619653
 20
1.0163776765
 10
18.8180364227
 20
1.0056736149
 10
18.8227152793
 20
0.994382662
 10
18.8271983856
 20
0.9824616053
 10
18.8314506644
 20
0.9699273621
 10
18.8354483754
 20
0.9567631666
 10
18.8391915073
 20
0.942876366
 10
18.8426351567
 20
0.9282713243
 10
18.8457370439
 20
0.9129424701
 10
18.8484746805
 20
0.8967831652
 10
18.8507909012
 20
0.8797337839
 10
18.8526124681
 20
0.8618487821
 10
18.8538729812
 20
0.8431917361
 10
18.8545015634
 20
0.8236391971
  0
LWPOLYLINE
  5
467
100
AcDbEntity
  8
RACCORDO
100
AcDbPolyline
 62
7
  6
CONTINUOUS
 90
136
 70
0
 10
18.6914468816
 20
1.1940278187
 10
18.7508437393
 20
1.2427559737
 10
18.8083609669
 20
1.2902670424
 10
18.8639985644
 20
1.3365610248
 10
18.9177014466
 20
1.3816033662
 10
18.9695246987
 20
1.4254286212
 10
19.0196335764
 20
1.4681404545
 10
19.0680353257
 20
1.509743793
 10
19.1147227006
 20
1.5502337098
 10
19.1598392192
 20
1.589699088
 10
19.2033890871
 20
1.6281424521
 10
19.2453680987
 20
1.6655612777
 10
19.2859071541
 20
1.702036875
 10
19.3250101742
 20
1.7375716214
 10
19.3626732381
 20
1.7721631395
 10
19.3990154839
 20
1.8058856081
 10
19.4340405714
 20
1.8387412862
 10
19.4677448408
 20
1.8707279148
 10
19.5002364502
 20
1.9019128952
 10
19.5315187439
 20
1.9322983224
 10
19.5615883775
 20
1.9618821014
 10
19.5905434766
 20
1.9907253491
 10
19.6183871195
 20
2.01883005
 10
19.6451162278
 20
2.0461942195
 10
19.6708196916
 20
2.0728730198
 10
19.6955003567
 20
2.0988683785
 10
19.7191553773
 20
2.124178368
 10
19.7418651056
 20
2.1488523679
 10
19.7636321517
 20
2.1728922806
 10
19.7844539056
 20
2.1962962037
 10
19.8044028893
 20
2.21910781
 10
19.8234814668
 20
2.2413290219
 10
19.8416872742
 20
2.262957917
 10
19.8590857418
 20
2.2840324014
 10
19.8756789475
 20
2.3045544578
 10
19.8914648134
 20
2.3245221035
 10
19.9065025362
 20
2.3439672958
 10
19.9207938203
 20
2.3628920921
 10
19.9343369614
 20
2.381294435
 10
19.9471860428
 20
2.3992001109
 10
19.9593422747
 20
2.4166112458
 10
19.9708044469
 20
2.4335257137
 10
19.9816230121
 20
2.4499629224
 10
19.9917984231
 20
2.465924807
 10
20.0013302271
 20
2.4814094324
 10
20.0102675185
 20
2.496430402
 10
20.0186100349
 20
2.5109895969
 10
20.0263580387
 20
2.525085136
 10
20.0335614113
 20
2.5387249795
 10
20.0402187212
 20
2.5519098336
 10
20.0463314
 20
2.5646389921
 10
20.0519536231
 20
2.5769182969
 10
20.0570807603
 20
2.5887386063
 10
20.0617174419
 20
2.600109062
 10
20.0659317332
 20
2.6110629311
 10
20.0697216932
 20
2.6215867824
 10
20.0730892629
 20
2.631694047
 10
20.0761083314
 20
2.6414582857
 10
20.0787842054
 20
2.6508772197
 10
20.0811115781
 20
2.6599531277
 10
20.0831484177
 20
2.6687664078
 10
20.0849021234
 20
2.677322056
 10
20.0863652961
 20
2.6856150762
 10
20.0875737064
 20
2.6937108782
 10
20.0885336404
 20
2.7016137115
 10
20.0892388119
 20
2.7093193267
 10
20.0897061333
 20
2.7168803847
 10
20.0899412652
 20
2.7243000573
 10
20.089938547
 20
2.7315751727
 10
20.0896979091
 20
2.7387488759
 10
20.0892250018
 20
2.7458238984
 10
20.0885141749
 20
2.7527975087
 10
20.0875484082
 20
2.7597046571
 10
20.0863340235
 20
2.7665474756
 10
20.0848646991
 20
2.7733238322
 10
20.0831044502
 20
2.7800622815
 10
20.0810609361
 20
2.7867651655
 10
20.0787264974
 20
2.7934301423
 10
20.0760421713
 20
2.8000787407
 10
20.0730131375
 20
2.8067193534
 10
20.0696342164
 20
2.8133435878
 10
20.0658309062
 20
2.8199477946
 10
20.0616007901
 20
2.8265437648
 10
20.0569462849
 20
2.8331197074
 10
20.0518001403
 20
2.8396365998
 10
20.0461579533
 20
2.8460981825
 10
20.0400241269
 20
2.852500715
 10
20.0333446193
 20
2.8587939531
 10
20.0261181514
 20
2.8649756117
 10
20.0183460024
 20
2.871047976
 10
20.0099779677
 20
2.8769676574
 10
20.0010136441
 20
2.8827326311
 10
19.9914534349
 20
2.8883449218
 10
19.9812483457
 20
2.8937672161
 10
19.9703988896
 20
2.8989980109
 10
19.9589045535
 20
2.9040388092
 10
19.9467148032
 20
2.9088568061
 10
19.9338308438
 20
2.91345114
 10
19.9202514702
 20
2.9178226724
 10
19.9059225336
 20
2.9219411836
 10
19.890845749
 20
2.9258063848
 10
19.8750194014
 20
2.9294185647
 10
19.8583841966
 20
2.9327483701
 10
19.8409422226
 20
2.9357959744
 10
19.8226913913
 20
2.9385612042
 10
19.8035661448
 20
2.9410141857
 10
19.7835688371
 20
2.9431554498
 10
19.762697114
 20
2.9449844657
 10
19.7408783552
 20
2.9464697666
 10
19.7181152378
 20
2.9476121571
 10
19.6944050847
 20
2.9484108326
 10
19.669667243
 20
2.9488319138
 10
19.6439043341
 20
2.9488764152
 10
19.6171137366
 20
2.9485433221
 10
19.5892069339
 20
2.9477957114
 10
19.5601879134
 20
2.9466348577
 10
19.5300526877
 20
2.9450594863
 10
19.4987007781
 20
2.9430288495
 10
19.4661335396
 20
2.9405441422
 10
19.4323496173
 20
2.9376041695
 10
19.3972444677
 20
2.9341645985
 10
19.360813192
 20
2.9302254767
 10
19.323060689
 20
2.9257867568
 10
19.2838971124
 20
2.9208039637
 10
19.2433312166
 20
2.9152787706
 10
19.2013542471
 20
2.9092095044
 10
19.1578500944
 20
2.9025466713
 10
19.1128336623
 20
2.8952939839
 10
19.0662900471
 20
2.8874477296
 10
19.0180584279
 20
2.878947276
 10
18.9681389784
 20
2.8697942463
 10
18.9165315249
 20
2.8599870172
 10
18.8630747256
 20
2.8494600869
 10
18.8077148
 20
2.8381916212
 10
18.7505055287
 20
2.8262034543
 10
18.6914469116
 20
2.813495586
  0
LWPOLYLINE
  5
468
100
AcDbEntity
  8
RACCORDO
100
AcDbPolyline
 62
250
  6
CONTINUOUS
 90
104
 70
0
 10
19.7747412506
 20
1.3993456672
 10
19.8061356156
 20
1.4206559864
 10
19.836891742
 20
1.4430807408
 10
19.8669962277
 20
1.466610159
 10
19.896435945
 20
1.491233984
 10
19.9251980192
 20
1.5169414513
 10
19.9532698636
 20
1.5437213108
 10
19.980639204
 20
1.5715618487
 10
20.0072941095
 20
1.6004509246
 10
20.0332229683
 20
1.6303759533
 10
20.0584144745
 20
1.6613238911
 10
20.0828576092
 20
1.6932812065
 10
20.1065416742
 20
1.7262339123
 10
20.1294563139
 20
1.7601675949
 10
20.1515915402
 20
1.7950674579
 10
20.1729377104
 20
1.830918298
 10
20.1934855161
 20
1.8677044873
 10
20.2132259695
 20
1.9054099411
 10
20.2321504315
 20
1.9440181586
 10
20.2502506289
 20
1.983512255
 10
20.2675186717
 20
2.0238750083
 10
20.2839470357
 20
2.0650888311
 10
20.2995285552
 20
2.1071357533
 10
20.3142564158
 20
2.1499973928
 10
20.3281241742
 20
2.1936549988
 10
20.3411257699
 20
2.2380894847
 10
20.3532555341
 20
2.2832814694
 10
20.3645081789
 20
2.3292112522
 10
20.3748787945
 20
2.3758587989
 10
20.3843628465
 20
2.423203722
 10
20.3929561884
 20
2.4712253215
 10
20.4006550661
 20
2.5199026121
 10
20.4074561217
 20
2.5692143545
 10
20.4133563883
 20
2.6191390376
 10
20.4183532904
 20
2.669654874
 10
20.422444644
 20
2.7207397951
 10
20.4256286616
 20
2.7723714817
 10
20.4279039529
 20
2.8245273827
 10
20.429269525
 20
2.8771847304
 10
20.4297247819
 20
2.9303205366
 10
20.4292695249
 20
2.9839115998
 10
20.4279039526
 20
3.0379345197
 10
20.4256286613
 20
3.0923657121
 10
20.4224446435
 20
3.1471814163
 10
20.4183532898
 20
3.2023576911
 10
20.4133563876
 20
3.2578704296
 10
20.4074561208
 20
3.3136953795
 10
20.4006550652
 20
3.3698081773
 10
20.3929561874
 20
3.4261843457
 10
20.3843628453
 20
3.4827992871
 10
20.3748787931
 20
3.5396282624
 10
20.3645081775
 20
3.5966464246
 10
20.3532555325
 20
3.6538288523
 10
20.3411257683
 20
3.7111506012
 10
20.3281241725
 20
3.7685866828
 10
20.3142564139
 20
3.8261120473
 10
20.2995285532
 20
3.8837015473
 10
20.2839470336
 20
3.9413299891
 10
20.2675186695
 20
3.998972176
 10
20.2502506266
 20
4.0566029721
 10
20.2321504291
 20
4.1141972659
 10
20.2132259669
 20
4.1717299453
 10
20.1934855135
 20
4.2291758525
 10
20.1729377077
 20
4.2865098475
 10
20.1515915373
 20
4.3437068579
 10
20.1294563109
 20
4.4007419473
 10
20.1065416711
 20
4.4575902695
 10
20.082857606
 20
4.5142270403
 10
20.0584144712
 20
4.5706274903
 10
20.033222965
 20
4.6267669343
 10
20.007294106
 20
4.6826208218
 10
19.9806392004
 20
4.7381648032
 10
19.9532698599
 20
4.7933746816
 10
19.9251980154
 20
4.8482263855
 10
19.8964359412
 20
4.9026959268
 10
19.8669962238
 20
4.956759469
 10
19.836891738
 20
5.0103933729
 10
19.8061356115
 20
5.0635742538
 10
19.7747412463
 20
5.1162789381
 10
19.7427223316
 20
5.1684844414
 10
19.7100928651
 20
5.2201679377
 10
19.6768671204
 20
5.2713068181
 10
19.643059623
 20
5.3218787288
 10
19.6086851191
 20
5.3718616137
 10
19.5737585947
 20
5.4212336825
 10
19.5382952852
 20
5.4699733963
 10
19.5023106892
 20
5.518059452
 10
19.465820539
 20
5.5654708266
 10
19.4288407799
 20
5.6121868039
 10
19.391387548
 20
5.6581870012
 10
19.3534771822
 20
5.703451351
 10
19.3151262274
 20
5.7479600979
 10
19.2763514374
 20
5.7916937973
 10
19.237169752
 20
5.8346333425
 10
19.1975982839
 20
5.8767599801
 10
19.157654308
 20
5.9180553203
 10
19.117355263
 20
5.9585013345
 10
19.0767187456
 20
5.9980803619
 10
19.0357624993
 20
6.0367751208
 10
18.9945044034
 20
6.074568719
 10
18.952962468
 20
6.1114446581
 10
18.911154837
 20
6.1473868317
 10
18.8690997769
 20
6.1823795362
 10
18.8545570411
 20
6.1940827362
  0
LINE
  5
469
100
AcDbEntity
  8
RACCORDO
100
AcDbLine
 62
250
  6
CONTINUOUS
 10
19.7697338307
 20
1.3960879196
 11
19.7747412506
 21
1.3993456672
  0
LINE
  5
46A
100
AcDbEntity
  8
DRAFT
100
AcDbLine
 62
7
  6
CONTINUOUS
 10
18.8545570411
 20
0.8041592988
 11
19.769733828
 21
1.3960879178
  0
LWPOLYLINE
  5
46B
100
AcDbEntity
  8
RACCORDO
100
AcDbPolyline
 62
250
  6
CONTINUOUS
 90
28
 70
0
 10
12.3705989157
 20
-7.2462427585
 10
12.3678334321
 20
-7.2474967072
 10
12.3634053343
 20
-7.2488461389
 10
12.3579427839
 20
-7.2498852213
 10
12.3514051252
 20
-7.2505865533
 10
12.3437667015
 20
-7.2509182019
 10
12.3349598333
 20
-7.2508732437
 10
12.3249435968
 20
-7.2504298363
 10
12.3136875131
 20
-7.2495596184
 10
12.3011390501
 20
-7.2482494059
 10
12.2872505291
 20
-7.2464818691
 10
12.2719921316
 20
-7.2442327379
 10
12.2553379359
 20
-7.2414824486
 10
12.2372229859
 20
-7.238219175
 10
12.2176303294
 20
-7.2344251019
 10
12.1966114963
 20
-7.2300819573
 10
12.1741280361
 20
-7.2251957793
 10
12.1501464379
 20
-7.2197575704
 10
12.1247339987
 20
-7.2137387765
 10
12.0978332657
 20
-7.2071485096
 10
12.0694343401
 20
-7.1999928648
 10
12.0396861619
 20
-7.1922508107
 10
12.0085292996
 20
-7.183940551
 10
11.9759720228
 20
-7.1750838984
 10
11.9422864135
 20
-7.1656832551
 10
11.907563528
 20
-7.1557665717
 10
11.8716983848
 20
-7.1453771449
 10
11.8346842673
 20
-7.1345513011
  0
LWPOLYLINE
  5
46C
100
AcDbEntity
  8
0
100
AcDbPolyline
 62
7
  6
CONTINUOUS
 90
10
 70
0
 10
-12.7604268644
 20
-16.8460832784
 10
-12.757106736
 20
-16.8448385632
 10
-12.7424242621
 20
-16.837416496
 10
-12.7288947026
 20
-16.8274501964
 10
-12.7169776271
 20
-16.815362315
 10
-12.7067581506
 20
-16.8010791586
 10
-12.6981519496
 20
-16.7846747571
 10
-12.6913647159
 20
-16.7667934745
 10
-12.6864652424
 20
-16.7476501999
 10
-12.6833852483
 20
-16.7270302654
  0
LWPOLYLINE
  5
46D
100
AcDbEntity
  8
0
100
AcDbPolyline
 62
7
  6
CONTINUOUS
 90
3
 70
0
 10
-12.2662623748
 20
7.8736853969
 10
-12.2766163042
 20
7.8709827275
 10
-12.29021782
 20
7.8699069175
  0
LWPOLYLINE
  5
46E
100
AcDbEntity
  8
0
100
AcDbPolyline
 62
7
  6
CONTINUOUS
 90
4
 70
0
 10
-12.4844387035
 20
7.8442822069
 10
-12.4374964451
 20
7.8563355917
 10
-12.389561022
 20
7.8645928898
 10
-12.3404685211
 20
7.869116464
  0
LWPOLYLINE
  5
46F
100
AcDbEntity
  8
RACCORDO
100
AcDbPolyline
 62
7
  6
CONTINUOUS
 90
16
 70
0
 10
18.6914464395
 20
14.7646460551
 10
18.6824852662
 20
14.7628788463
 10
18.6736632
 20
14.761525479
 10
18.6649802409
 20
14.7605859532
 10
18.6564259154
 20
14.7600618251
 10
18.6480106969
 20
14.7599515384
 10
18.6397660059
 20
14.7602504249
 10
18.6316956668
 20
14.7609652851
 10
18.6237958552
 20
14.7620893185
 10
18.6160865178
 20
14.7635974544
 10
18.6085733223
 20
14.7654953679
 10
18.601250601
 20
14.7677773839
 10
18.5941212979
 20
14.7704014062
 10
18.5871863942
 20
14.7733534028
 10
18.5804449087
 20
14.7766474058
 10
18.5738968414
 20
14.780283415
  0
LINE
  5
470
100
AcDbEntity
  8
0
100
AcDbLine
 62
7
  6
CONTINUOUS
 10
-12.5625706859
 20
8.4372648027
 11
-12.6392706456
 21
8.4221888782
  0
LINE
  5
471
100
AcDbEntity
  8
0
100
AcDbLine
 62
7
  6
CONTINUOUS
 10
-12.5625716367
 20
8.4372647029
 11
-12.4842959599
 21
8.4454787855
  0
LWPOLYLINE
  5
472
100
AcDbEntity
  8
RACCORDO
100
AcDbPolyline
 62
250
  6
CONTINUOUS
 90
8
 70
0
 10
-17.6721212807
 20
19.3650182317
 10
-17.7100664404
 20
19.3806355366
 10
-17.7476974804
 20
19.3912926683
 10
-17.7846024586
 20
19.396872984
 10
-17.8203773954
 20
19.3973154159
 10
-17.8546306602
 20
19.3926151387
 10
-17.8869872647
 20
19.3828236377
 10
-17.9026726924
 20
19.3758877214
  0
LWPOLYLINE
  5
473
100
AcDbEntity
  8
RACCORDO
100
AcDbPolyline
 62
250
  6
CONTINUOUS
 90
31
 70
0
 10
-2.994340942
 20
12.0261280985
 10
-3.5012045981
 20
12.2491940486
 10
-4.005797535
 20
12.4731676143
 10
-4.5081197528
 20
12.6980487958
 10
-5.0080543918
 20
12.9237853833
 10
-5.5057183116
 20
13.1504295865
 10
-6.0014620917
 20
13.3781380342
 10
-6.4954502475
 20
13.6069847616
 10
-6.9875182637
 20
13.8368957334
 10
-7.4775231732
 20
14.0678054726
 10
-7.9654135241
 20
14.2996902823
 10
-8.4512407684
 20
14.5325738594
 10
-8.935016295
 20
14.7664618172
 10
-9.4168493926
 20
15.0014094723
 10
-9.8966307726
 20
15.2373615082
 10
-10.3740439572
 20
15.4741575892
 10
-10.8488147252
 20
15.7116593167
 10
-11.3212172979
 20
15.9500050893
 10
-11.7917578623
 20
16.1894497671
 10
-12.2594360237
 20
16.4294456421
 10
-12.7252521766
 20
16.6705404223
 10
-13.1927136922
 20
16.9146320915
 10
-13.6611018568
 20
17.1612538068
 10
-14.1311353839
 20
17.410872411
 10
-14.6084777848
 20
17.6667864162
 10
-15.0937289071
 20
17.9292083882
 10
-15.5862889031
 20
18.1979257611
 10
-16.0900217416
 20
18.4755993504
 10
-16.6062154121
 20
18.7631160945
 10
-17.1335819251
 20
19.059589055
 10
-17.6721212807
 20
19.3650182317
  0
LWPOLYLINE
  5
474
100
AcDbEntity
  8
ASSI
100
AcDbPolyline
 62
7
  6
CONTINUOUS
 90
4
 70
0
 10
-1.8239132623
 20
16.129299183
 10
-1.8051221126
 20
16.1128918417
 10
-1.7846339893
 20
16.0987583054
 10
-1.7685509839
 20
16.0898736283
  0
LWPOLYLINE
  5
475
100
AcDbEntity
  8
ASSI
100
AcDbPolyline
 62
250
  6
CONTINUOUS
 90
7
 70
0
 10
2.7094686337
 20
16.2343369602
 10
2.7172674759
 20
16.2201213024
 10
2.7224999474
 20
16.2073216283
 10
2.7250775139
 20
16.1961545198
 10
2.7249565649
 20
16.1868089325
 10
2.7221391518
 20
16.179443001
 10
2.7211561285
 20
16.1780948005
  0
LINE
  5
476
100
AcDbEntity
  8
0
100
AcDbLine
 62
250
  6
CONTINUOUS
 10
1.3334562383
 20
25.3604522133
 11
1.7274421722
 21
24.3382963952
  0
LINE
  5
477
100
AcDbEntity
  8
0
100
AcDbLine
 62
7
  6
CONTINUOUS
 10
2.8721465004
 20
22.7949300771
 11
2.6706471425
 21
23.3906545029
  0
LWPOLYLINE
  5
478
100
AcDbEntity
  8
RACCORDO
100
AcDbPolyline
 62
250
  6
CONTINUOUS
 90
24
 70
0
 10
12.1153363688
 20
-7.67230174
 10
12.1148149293
 20
-7.6599194649
 10
12.1134496057
 20
-7.6465807941
 10
12.1111985615
 20
-7.632265518
 10
12.1080196573
 20
-7.6169661032
 10
12.10387229
 20
-7.6006480589
 10
12.0987152826
 20
-7.5832824415
 10
12.0925089718
 20
-7.5648625654
 10
12.0852181371
 20
-7.545385477
 10
12.0767994176
 20
-7.5248007708
 10
12.067222186
 20
-7.5031150617
 10
12.0564818792
 20
-7.4804102832
 10
12.0445594118
 20
-7.4566578797
 10
12.0314273181
 20
-7.4318380517
 10
12.0170834071
 20
-7.4060463749
 10
12.0015046855
 20
-7.3792304021
 10
11.9846849504
 20
-7.3513896268
 10
11.9666631603
 20
-7.3226994896
 10
11.9474242023
 20
-7.2930990221
 10
11.9269837663
 20
-7.2625967807
 10
11.9054546765
 20
-7.2314796662
 10
11.8828964685
 20
-7.1998319381
 10
11.8592980151
 20
-7.1675292314
 10
11.8346842332
 20
-7.134551362
  0
LINE
  5
479
100
AcDbEntity
  8
RACCORDO
100
AcDbLine
 62
250
  6
CONTINUOUS
 10
12.1153444329
 20
-7.673991297
 11
12.1153363688
 21
-7.67230174
  0
LINE
  5
47A
100
AcDbEntity
  8
RACCORDO
100
AcDbLine
 62
250
  6
CONTINUOUS
 10
11.8346842332
 20
-15.3074643004
 11
11.8346842332
 21
-7.1345513195
  0
LINE
  5
47B
100
AcDbEntity
  8
RACCORDO
100
AcDbLine
 62
7
  6
CONTINUOUS
 10
12.1153444329
 20
-14.9601351151
 11
12.1153444329
 21
-7.6733522928
  0
LINE
  5
47C
100
AcDbEntity
  8
RACCORDO
100
AcDbLine
 62
7
  6
CONTINUOUS
 10
13.3745001392
 20
22.6607729912
 11
13.3745001392
 21
22.3338069435
  0
LWPOLYLINE
  5
47D
100
AcDbEntity
  8
RACCORDO
100
AcDbPolyline
 62
7
  6
CONTINUOUS
 90
35
 70
0
 10
12.1153442873
 20
-7.6740001205
 10
12.1155263042
 20
-7.6607627251
 10
12.1161512665
 20
-7.6461278246
 10
12.1172442297
 20
-7.6312439646
 10
12.1188191569
 20
-7.616207799
 10
12.1208919515
 20
-7.6010359151
 10
12.1234778734
 20
-7.5857475773
 10
12.1265740333
 20
-7.5704430879
 10
12.1301840613
 20
-7.5551520543
 10
12.13431583
 20
-7.5398823307
 10
12.1389594966
 20
-7.5246996924
 10
12.1441122984
 20
-7.509630006
 10
12.149775762
 20
-7.4946840237
 10
12.1559386891
 20
-7.4799028744
 10
12.1625967035
 20
-7.4653044964
 10
12.169745126
 20
-7.4509060335
 10
12.1773670479
 20
-7.4367453831
 10
12.1854536552
 20
-7.4228399008
 10
12.1939970054
 20
-7.4092041452
 10
12.2029769913
 20
-7.3958693906
 10
12.2123821601
 20
-7.382850115
 10
12.2222010498
 20
-7.3701597512
 10
12.2324098197
 20
-7.3578253413
 10
12.2429945966
 20
-7.3458586178
 10
12.2539411251
 20
-7.3342708393
 10
12.2652217099
 20
-7.3230853175
 10
12.2768213345
 20
-7.3123099661
 10
12.2887226137
 20
-7.3019541587
 10
12.3008911094
 20
-7.2920397014
 10
12.3133094787
 20
-7.2825714101
 10
12.3259587881
 20
-7.2735546322
 10
12.3387990359
 20
-7.2650074168
 10
12.351803117
 20
-7.256935586
 10
12.3649585899
 20
-7.2493348949
 10
12.370604641
 20
-7.2462397866
  0
LINE
  5
47E
100
AcDbEntity
  8
RACCORDO
100
AcDbLine
 62
7
  6
CONTINUOUS
 10
18.8555370558
 20
12.7741479579
 11
18.8555582681
 21
12.7742054385
  0
LINE
  5
47F
100
AcDbEntity
  8
RACCORDO
100
AcDbLine
 62
250
  6
CONTINUOUS
 10
18.8629023235
 20
0.8194634067
 11
18.8545570411
 21
0.8118783439
  0
LWPOLYLINE
  5
480
100
AcDbEntity
  8
RACCORDO
100
AcDbPolyline
 62
250
  6
CONTINUOUS
 90
31
 70
0
 10
18.3362093154
 20
-4.0275673843
 10
18.3507494635
 20
-4.0188937139
 10
18.364912951
 20
-4.0095614172
 10
18.3786890259
 20
-3.9995775784
 10
18.3920672304
 20
-3.988949776
 10
18.4050374087
 20
-3.9776860774
 10
18.417589715
 20
-3.9657950328
 10
18.4297146203
 20
-3.9532856688
 10
18.4414029202
 20
-3.9401674811
 10
18.452645742
 20
-3.9264504276
 10
18.4634345507
 20
-3.9121449212
 10
18.4737611564
 20
-3.8972618213
 10
18.4836177198
 20
-3.8818124255
 10
18.4929967586
 20
-3.8658084617
 10
18.5018911528
 20
-3.8492620787
 10
18.5102941506
 20
-3.8321858368
 10
18.5181993729
 20
-3.814592699
 10
18.5256008188
 20
-3.7964960203
 10
18.5324928696
 20
-3.777909538
 10
18.5388702935
 20
-3.7588473614
 10
18.5447282491
 20
-3.7393239606
 10
18.5500622896
 20
-3.7193541561
 10
18.5548683657
 20
-3.6989531075
 10
18.5591428291
 20
-3.6781363014
 10
18.5628824349
 20
-3.6569195401
 10
18.5660843444
 20
-3.6353189295
 10
18.5687461269
 20
-3.6133508662
 10
18.5708657618
 20
-3.5910320268
 10
18.5724416399
 20
-3.5683793564
 10
18.5734725651
 20
-3.5454100515
 10
18.573957755
 20
-3.5221415477
  0
LWPOLYLINE
  5
481
100
AcDbEntity
  8
RACCORDO
100
AcDbPolyline
 62
7
  6
CONTINUOUS
 90
41
 70
0
 10
18.3293793198
 20
-4.031344026
 10
18.3454994943
 20
-4.0224543271
 10
18.3687290915
 20
-4.0089493888
 10
18.391602931
 20
-3.9948153518
 10
18.4141026598
 20
-3.9800618771
 10
18.4362072716
 20
-3.9647013249
 10
18.4579037307
 20
-3.9487413336
 10
18.4791854549
 20
-3.932184435
 10
18.5000426121
 20
-3.9150347878
 10
18.5204508165
 20
-3.89730889
 10
18.5403822338
 20
-3.8790286353
 10
18.5598144319
 20
-3.8602136705
 10
18.5787397269
 20
-3.8408705001
 10
18.597152916
 20
-3.8210020984
 10
18.6150411118
 20
-3.8006189111
 10
18.6323869552
 20
-3.7797371634
 10
18.6491779961
 20
-3.7583681936
 10
18.6654004318
 20
-3.7365255082
 10
18.6810395614
 20
-3.7142247052
 10
18.696081892
 20
-3.6914807283
 10
18.7105140864
 20
-3.6683092616
 10
18.7243232696
 20
-3.6447263115
 10
18.7374971857
 20
-3.6207478938
 10
18.750023829
 20
-3.5963906549
 10
18.7618914297
 20
-3.5716720129
 10
18.7730887196
 20
-3.5466097091
 10
18.7836052499
 20
-3.5212210043
 10
18.7934304342
 20
-3.4955249435
 10
18.8025537145
 20
-3.4695425568
 10
18.8109665603
 20
-3.443291143
 10
18.8186597706
 20
-3.416791845
 10
18.8256233889
 20
-3.3900721809
 10
18.8318486041
 20
-3.3631613576
 10
18.8373316056
 20
-3.3360707516
 10
18.8420698034
 20
-3.3088013476
 10
18.8460589391
 20
-3.2813545451
 10
18.8492892376
 20
-3.2537701631
 10
18.8517522242
 20
-3.2261072745
 10
18.8534449028
 20
-3.1984114448
 10
18.8543684937
 20
-3.1706803335
 10
18.8545570411
 20
-3.1512608433
  0
LINE
  5
482
100
AcDbEntity
  8
RACCORDO
100
AcDbLine
 62
250
  6
CONTINUOUS
 10
18.5738968414
 20
-3.4985915085
 11
11.8346842332
 21
-7.1345513195
  0
LINE
  5
483
100
AcDbEntity
  8
RACCORDO
100
AcDbLine
 62
7
  6
CONTINUOUS
 10
18.3293808615
 20
-4.0313431942
 11
12.3704303785
 21
-7.2463336882
  0
LWPOLYLINE
  5
484
100
AcDbEntity
  8
RACCORDO
100
AcDbPolyline
 62
250
  6
CONTINUOUS
 90
29
 70
0
 10
18.5738968414
 20
-3.4985915085
 10
18.5925581568
 20
-3.4886620688
 10
18.6106714204
 20
-3.478482068
 10
18.6282231807
 20
-3.4680590658
 10
18.6452004041
 20
-3.4574008019
 10
18.6615904818
 20
-3.4465151918
 10
18.6773812396
 20
-3.4354103209
 10
18.6925609502
 20
-3.4240944366
 10
18.7071183417
 20
-3.4125759417
 10
18.7210426034
 20
-3.4008633901
 10
18.734323395
 20
-3.3889654797
 10
18.7469508539
 20
-3.3768910463
 10
18.7589156024
 20
-3.3646490569
 10
18.7702087553
 20
-3.3522486028
 10
18.7808219261
 20
-3.3396988926
 10
18.7907472333
 20
-3.3270092463
 10
18.7999773064
 20
-3.3141890874
 10
18.8085052908
 20
-3.3012479365
 10
18.8163248536
 20
-3.2881954042
 10
18.823430188
 20
-3.2750411836
 10
18.8298160175
 20
-3.2617950433
 10
18.8354776
 20
-3.2484668204
 10
18.8404107312
 20
-3.2350664128
 10
18.8446117478
 20
-3.2216037718
 10
18.8480775304
 20
-3.2080888955
 10
18.8508055053
 20
-3.1945318202
 10
18.852793647
 20
-3.1809426137
 10
18.8540404792
 20
-3.1673313679
 10
18.8545290884
 20
-3.1541398392
  0
LWPOLYLINE
  5
485
100
AcDbEntity
  8
0
100
AcDbPolyline
 62
7
  6
CONTINUOUS
 90
4
 70
0
 10
-12.7604239743
 20
-16.846090012
 10
-12.7634486674
 20
-16.847116688
 10
-12.7733792831
 20
-16.8497380082
 10
-12.7837176647
 20
-16.8513743174
  0
LINE
  5
486
100
AcDbEntity
  8
ASSI
100
AcDbLine
 62
7
  6
CONTINUOUS
 10
2.5575100575
 20
11.6020209521
 11
3.9470384303
 21
11.3214703281
  0
LINE
  5
487
100
AcDbEntity
  8
ASSI
100
AcDbLine
 62
7
  6
CONTINUOUS
 10
2.5575100575
 20
11.6020209521
 11
4.0087561053
 21
11.2906114906
  0
LWPOLYLINE
  5
488
100
AcDbEntity
  8
ASSI
100
AcDbPolyline
 62
7
  6
CONTINUOUS
 90
4
 70
0
 10
0.29621077
 20
15.0574919765
 10
0.3051990394
 20
15.0532485443
 10
0.3269528978
 20
15.0449290674
 10
0.3488515314
 20
15.0390947646
  0
LWPOLYLINE
  5
489
100
AcDbEntity
  8
ASSI
100
AcDbPolyline
 62
7
  6
CONTINUOUS
 90
4
 70
0
 10
-12.2903358473
 20
21.3507650367
 10
-12.2842440437
 20
21.3478341165
 10
-12.2611405278
 20
21.3387013807
 10
-12.2376749043
 20
21.3323437115
  0
LINE
  5
48A
100
AcDbEntity
  8
ASSI
100
AcDbLine
 62
7
  6
CONTINUOUS
 10
3.9470384303
 20
11.3214703281
 11
4.0087561053
 21
11.2906114906
  0
LINE
  5
48B
100
AcDbEntity
  8
RACCORDO
100
AcDbLine
 62
7
  6
CONTINUOUS
 10
-14.479410005
 20
20.9420790265
 11
0.3700747077
 21
13.5173366701
  0
LINE
  5
48C
100
AcDbEntity
  8
0
100
AcDbLine
 62
7
  6
CONTINUOUS
 10
-1.2252369407
 20
14.4570588431
 11
-11.5495445084
 21
19.619212627
  0
LINE
  5
48D
100
AcDbEntity
  8
ASSI
100
AcDbLine
 62
7
  6
CONTINUOUS
 10
-13.4845300013
 20
21.2997604014
 11
-13.2909657152
 21
21.2029782584
  0
LINE
  5
48E
100
AcDbEntity
  8
ASSI
100
AcDbLine
 62
7
  6
CONTINUOUS
 10
-0.8980292962
 20
15.0065100489
 11
-0.7044650101
 21
14.9097279058
  0
LINE
  5
48F
100
AcDbEntity
  8
ASSI
100
AcDbLine
 62
7
  6
CONTINUOUS
 10
1.1158854682
 20
14.1385797455
 11
0.9157092892
 21
14.238667835
  0
LINE
  5
490
100
AcDbEntity
  8
ASSI
100
AcDbLine
 62
7
  6
CONTINUOUS
 10
-1.1039900332
 20
15.2485174962
 11
-11.6707914159
 21
20.5319181876
  0
LINE
  5
491
100
AcDbEntity
  8
ASSI
100
AcDbLine
 62
7
  6
CONTINUOUS
 10
-13.6904907383
 20
21.5417678488
 11
-13.8906669173
 21
21.6418559383
  0
LINE
  5
492
100
AcDbEntity
  8
ASSI
100
AcDbLine
 62
7
  6
CONTINUOUS
 10
0.2962095105
 20
15.0574918685
 11
-0.5049484477
 21
15.4580708476
  0
LINE
  5
493
100
AcDbEntity
  8
ASSI
100
AcDbLine
 62
7
  6
CONTINUOUS
 10
-0.9728220343
 20
15.6920076409
 11
-1.7687520333
 21
16.0899726404
  0
LINE
  5
494
100
AcDbEntity
  8
ASSI
100
AcDbLine
 62
7
  6
CONTINUOUS
 10
-12.2902968299
 20
21.3507450387
 11
-13.0914491528
 21
21.7513212002
  0
LINE
  5
495
100
AcDbEntity
  8
ASSI
100
AcDbLine
 62
7
  6
CONTINUOUS
 10
-13.5593227394
 20
21.9852579935
 11
-14.3552579291
 21
22.3832255883
  0
LINE
  5
496
100
AcDbEntity
  8
ASSI
100
AcDbLine
 62
250
  6
CONTINUOUS
 10
-13.4845300013
 20
22.0505934263
 11
-14.4199985196
 21
22.518345036
  0
LINE
  5
497
100
AcDbEntity
  8
ASSI
100
AcDbLine
 62
250
  6
CONTINUOUS
 10
-0.8980292962
 20
15.7573430738
 11
-1.8334978145
 21
16.2250773329
  0
LINE
  5
498
100
AcDbEntity
  8
ASSI
100
AcDbLine
 62
250
  6
CONTINUOUS
 10
-12.3554971969
 20
21.4860770241
 11
-13.2909657152
 21
21.9538112833
  0
LINE
  5
499
100
AcDbEntity
  8
ASSI
100
AcDbLine
 62
250
  6
CONTINUOUS
 10
0.2310035082
 20
15.1928440156
 11
-0.7044650101
 21
15.6605609307
  0
LINE
  5
49A
100
AcDbEntity
  8
ASSI
100
AcDbLine
 62
7
  6
CONTINUOUS
 10
-2.6788044442
 20
16.7884179511
 11
-4.9694528413
 21
17.9337421497
  0
LINE
  5
49B
100
AcDbEntity
  8
ASSI
100
AcDbLine
 62
7
  6
CONTINUOUS
 10
-6.3911150454
 20
18.6445732517
 11
-8.6817634425
 21
19.7898974503
  0
LINE
  5
49C
100
AcDbEntity
  8
ASSI
100
AcDbLine
 62
250
  6
CONTINUOUS
 10
0.2310035082
 20
15.510095472
 11
-1.8334978145
 21
16.5423461333
  0
LINE
  5
49D
100
AcDbEntity
  8
ASSI
100
AcDbLine
 62
250
  6
CONTINUOUS
 10
-12.3554971969
 20
21.8033458245
 11
-14.4199985196
 21
22.8355964859
  0
LWPOLYLINE
  5
49E
100
AcDbEntity
  8
ASSI
100
AcDbPolyline
 62
250
  6
CONTINUOUS
 90
16
 70
0
 10
-12.2903337149
 20
21.3507634912
 10
-12.296529067
 20
21.3541599619
 10
-12.3036625896
 20
21.3588709545
 10
-12.3105354497
 20
21.364351705
 10
-12.3171029674
 20
21.3706230943
 10
-12.3233185704
 20
21.3777019859
 10
-12.3291022411
 20
21.3855536501
 10
-12.3344149571
 20
21.3941750462
 10
-12.3392179586
 20
21.4035588394
 10
-12.3434505013
 20
21.413634487
 10
-12.3470856512
 20
21.4243752294
 10
-12.350098598
 20
21.4357514601
 10
-12.3524549549
 20
21.4476628959
 10
-12.3541422102
 20
21.4600416518
 10
-12.3551579146
 20
21.4728624818
 10
-12.3554971969
 20
21.4860770241
  0
LWPOLYLINE
  5
49F
100
AcDbEntity
  8
ASSI
100
AcDbPolyline
 62
7
  6
CONTINUOUS
 90
9
 70
0
 10
-13.0910213543
 20
21.7511106249
 10
-13.1140541699
 20
21.7639613666
 10
-13.1441235227
 20
21.7844383206
 10
-13.1728245721
 20
21.8078504763
 10
-13.2001092878
 20
21.8336515207
 10
-13.2255929321
 20
21.8614645844
 10
-13.249115563
 20
21.890998687
 10
-13.2708801325
 20
21.9218909048
 10
-13.2909657152
 20
21.9538112833
  0
LWPOLYLINE
  5
4A0
100
AcDbEntity
  8
ASSI
100
AcDbPolyline
 62
7
  6
CONTINUOUS
 90
9
 70
0
 10
-0.5045206492
 20
15.4578602724
 10
-0.5275534648
 20
15.470711014
 10
-0.5576228176
 20
15.491187968
 10
-0.5863238669
 20
15.5146001237
 10
-0.6136085826
 20
15.5404011682
 10
-0.639092227
 20
15.5682142319
 10
-0.6626148579
 20
15.5977483344
 10
-0.6843794274
 20
15.6286405522
 10
-0.7044650101
 20
15.6605609307
  0
LWPOLYLINE
  5
4A1
100
AcDbEntity
  8
ASSI
100
AcDbPolyline
 62
250
  6
CONTINUOUS
 90
7
 70
0
 10
-1.8334978145
 20
16.2250773329
 10
-1.8505698892
 20
16.234796552
 10
-1.8649899367
 20
16.2455363222
 10
-1.8765166717
 20
16.2571169378
 10
-1.8849572219
 20
16.2693446236
 10
-1.8901703554
 20
16.282014777
 10
-1.8920764514
 20
16.2957617846
  0
LWPOLYLINE
  5
4A2
100
AcDbEntity
  8
ASSI
100
AcDbPolyline
 62
250
  6
CONTINUOUS
 90
7
 70
0
 10
-1.8334978145
 20
16.5423461333
 10
-1.8505698771
 20
16.5520653444
 10
-1.8649899185
 20
16.5628051067
 10
-1.8765166526
 20
16.5743857153
 10
-1.8849572063
 20
16.5866133952
 10
-1.8901703464
 20
16.5992835447
 10
-1.8920764492
 20
16.613026677
  0
LWPOLYLINE
  5
4A3
100
AcDbEntity
  8
ASSI
100
AcDbPolyline
 62
250
  6
CONTINUOUS
 90
9
 70
0
 10
-14.3552450109
 20
22.3832191295
 10
-14.3647353994
 20
22.3886817459
 10
-14.378784637
 20
22.3999109379
 10
-14.3910154437
 20
22.4139434565
 10
-14.4012592577
 20
22.4305913963
 10
-14.4093746745
 20
22.4496273649
 10
-14.4152511377
 20
22.4707925003
 10
-14.4188086851
 20
22.4938020644
 10
-14.4199985106
 20
22.5183450321
  0
LWPOLYLINE
  5
4A4
100
AcDbEntity
  8
ASSI
100
AcDbPolyline
 62
250
  6
CONTINUOUS
 90
13
 70
0
 10
-12.181199321
 20
22.1063617791
 10
-12.1630473888
 20
22.0954970453
 10
-12.1451637066
 20
22.081877257
 10
-12.1278541508
 20
22.0657353623
 10
-12.1114147779
 20
22.0473474467
 10
-12.0961267613
 20
22.0270280107
 10
-12.0822515819
 20
22.0051245907
 10
-12.0700265559
 20
21.9820118152
 10
-12.0596607759
 20
21.9580849972
 10
-12.0513315346
 20
21.9337533725
 10
-12.0451812924
 20
21.9094331009
 10
-12.041315241
 20
21.8855401477
 10
-12.039799504
 20
21.8624831698
  0
LWPOLYLINE
  5
4A5
100
AcDbEntity
  8
ASSI
100
AcDbPolyline
 62
250
  6
CONTINUOUS
 90
3
 70
0
 10
-1.7803082948
 20
16.0968315013
 10
-1.7722251125
 20
16.0918017072
 10
-1.7687572083
 20
16.0899752282
  0
LWPOLYLINE
  5
4A6
100
AcDbEntity
  8
RACCORDO
100
AcDbPolyline
 62
7
  6
CONTINUOUS
 90
16
 70
0
 10
18.5738968414
 20
1.0566639344
 10
18.5804449214
 20
1.0670806709
 10
18.5871864227
 20
1.0773556987
 10
18.5941213454
 20
1.0874890178
 10
18.6012506711
 20
1.0974956789
 10
18.6085734182
 20
1.1073606314
 10
18.6160866413
 20
1.1170387229
 10
18.6237960077
 20
1.1265301453
 10
18.6316958502
 20
1.1358347067
 10
18.639766222
 20
1.1449066794
 10
18.6480109479
 20
1.1537432238
 10
18.656426203
 20
1.1623471796
 10
18.6649805661
 20
1.1706813378
 10
18.6736635634
 20
1.1787332956
 10
18.6824856685
 20
1.1865154559
 10
18.6914468816
 20
1.1940278187
  0
LINE
  5
4A7
100
AcDbEntity
  8
ASSI
100
AcDbLine
 62
7
  6
CONTINUOUS
 10
-0.859364128
 20
-24.4417589737
 11
-0.3769830845
 21
-23.8448443654
  0
LINE
  5
4A8
100
AcDbEntity
  8
ASSI
100
AcDbLine
 62
7
  6
CONTINUOUS
 10
-0.3540237222
 20
-24.7669208619
 11
0.1887023405
 21
-24.1276870778
  0
LINE
  5
4A9
100
AcDbEntity
  8
ASSI
100
AcDbLine
 62
7
  6
CONTINUOUS
 10
0.1887023405
 20
-24.7535201028
 11
-0.3540237222
 21
-25.3927538868
  0
LINE
  5
4AA
100
AcDbEntity
  8
ASSI
100
AcDbLine
 62
7
  6
CONTINUOUS
 10
4.0087561053
 20
-19.6183538532
 11
2.5575100575
 21
-21.3069443917
  0
LINE
  5
4AB
100
AcDbEntity
  8
ASSI
100
AcDbLine
 62
7
  6
CONTINUOUS
 10
0.1887023405
 20
14.6702510117
 11
-0.3540237222
 21
14.7853803292
  0
LINE
  5
4AC
100
AcDbEntity
  8
ASSI
100
AcDbLine
 62
7
  6
CONTINUOUS
 10
0.3489083209
 20
15.0390754877
 11
0.9892956093
 21
14.9032291436
  0
LINE
  5
4AD
100
AcDbEntity
  8
ASSI
100
AcDbLine
 62
250
  6
CONTINUOUS
 10
0.5293427729
 20
15.162787922
 11
1.2661505771
 21
15.006487745
  0
LWPOLYLINE
  5
4AE
100
AcDbEntity
  8
ASSI
100
AcDbPolyline
 62
250
  6
CONTINUOUS
 90
7
 70
0
 10
-1.6604126573
 20
16.8459684472
 10
-1.6791663973
 20
16.8535565447
 10
-1.6975571602
 20
16.8580739671
 10
-1.7152703964
 20
16.8594434519
 10
-1.7320031453
 20
16.8576415781
 10
-1.7474692156
 20
16.8526991666
 10
-1.7528163549
 20
16.8500900426
  0
LWPOLYLINE
  5
4AF
100
AcDbEntity
  8
ASSI
100
AcDbPolyline
 62
250
  6
CONTINUOUS
 90
13
 70
0
 10
-12.3554971969
 20
21.4860770241
 10
-12.3360587748
 20
21.4775409929
 10
-12.3145792501
 20
21.4703309722
 10
-12.291418033
 20
21.4645676051
 10
-12.2669626731
 20
21.4603473283
 10
-12.2416223743
 20
21.4577407582
 10
-12.2158211478
 20
21.45679151
 10
-12.1899907177
 20
21.4575154669
 10
-12.1645632964
 20
21.4599005153
 10
-12.1399643532
 20
21.463906747
 10
-12.1166054945
 20
21.4694671268
 10
-12.0948775768
 20
21.4764886147
 10
-12.0751441666
 20
21.4848537222
  0
LWPOLYLINE
  5
4B0
100
AcDbEntity
  8
ASSI
100
AcDbPolyline
 62
250
  6
CONTINUOUS
 90
13
 70
0
 10
-12.3554971969
 20
21.8033458245
 10
-12.336058762
 20
21.7948097883
 10
-12.3145792246
 20
21.7875997651
 10
-12.2914179961
 20
21.7818363976
 10
-12.2669626268
 20
21.7776161221
 10
-12.2416223215
 20
21.7750095548
 10
-12.2158210925
 20
21.7740603099
 10
-12.189990664
 20
21.7747842704
 10
-12.1645632484
 20
21.7771693217
 10
-12.1399643143
 20
21.781175555
 10
-12.1166054673
 20
21.7867359346
 10
-12.094877563
 20
21.7937574201
 10
-12.0751441666
 20
21.8021225226
  0
LWPOLYLINE
  5
4B1
100
AcDbEntity
  8
ASSI
100
AcDbPolyline
 62
250
  6
CONTINUOUS
 90
13
 70
0
 10
-2.6788044442
 20
17.9756907324
 10
-2.6593660596
 20
17.9671547159
 10
-2.6378865725
 20
17.9599447027
 10
-2.6147253895
 20
17.9541813368
 10
-2.5902700582
 20
17.9499610561
 10
-2.5649297794
 20
17.9473544782
 10
-2.5391285603
 20
17.9464052197
 10
-2.5132981224
 20
17.9471291663
 10
-2.4878706806
 20
17.9495142067
 10
-2.4632717087
 20
17.9535204341
 10
-2.4399128162
 20
17.9590808146
 10
-2.4181848613
 20
17.9661023093
 10
-2.3984514139
 20
17.9744674305
  0
LWPOLYLINE
  5
4B2
100
AcDbEntity
  8
ASSI
100
AcDbPolyline
 62
250
  6
CONTINUOUS
 90
14
 70
0
 10
-4.7951496738
 20
19.3892899365
 10
-4.8038944985
 20
19.3932846376
 10
-4.8128670579
 20
19.3968499006
 10
-4.8220410811
 20
19.399929324
 10
-4.8314082743
 20
19.4024706033
 10
-4.8409117515
 20
19.4044065639
 10
-4.8504489533
 20
19.4056714135
 10
-4.8599810969
 20
19.4062209306
 10
-4.869465827
 20
19.4060121463
 10
-4.8787983958
 20
19.4050126564
 10
-4.8879377438
 20
19.4031989305
 10
-4.8968406445
 20
19.4005504295
 10
-4.9054091572
 20
19.3970747168
 10
-4.91050115
 20
19.3945246577
  0
LWPOLYLINE
  5
4B3
100
AcDbEntity
  8
ASSI
100
AcDbPolyline
 62
250
  6
CONTINUOUS
 90
28
 70
0
 10
-4.934102887
 20
19.1466346291
 10
-4.9358386144
 20
19.1474653581
 10
-4.9376089684
 20
19.1481867473
 10
-4.9394139492
 20
19.1487987966
 10
-4.9412650033
 20
19.1493127595
 10
-4.9431506841
 20
19.1497173825
 10
-4.9450366521
 20
19.1499789053
 10
-4.9469237312
 20
19.1500926709
 10
-4.9488110975
 20
19.1500633364
 10
-4.9506619394
 20
19.1498711119
 10
-4.9524755627
 20
19.1495102041
 10
-4.9542526617
 20
19.1489864063
 10
-4.9559585079
 20
19.1482973089
 10
-4.9575900772
 20
19.1474378805
 10
-4.9591503936
 20
19.1464131524
 10
-4.9606138014
 20
19.1452358093
 10
-4.9619765454
 20
19.1439039387
 10
-4.9632423808
 20
19.1424194532
 10
-4.9643969161
 20
19.1408007755
 10
-4.9654382478
 20
19.1390472134
 10
-4.9663682794
 20
19.137159459
 10
-4.9671783306
 20
19.1351580112
 10
-4.967867317
 20
19.133041845
 10
-4.9684363229
 20
19.1308119854
 10
-4.968879921
 20
19.1284920067
 10
-4.9691963022
 20
19.1260897672
 10
-4.9693872756
 20
19.1235974086
 10
-4.9694528413
 20
19.121014931
  0
LINE
  5
4B4
100
AcDbEntity
  8
ASSI
100
AcDbLine
 62
7
  6
CONTINUOUS
 10
-10.4178993773
 20
21.0342120424
 11
-8.7403420863
 21
20.1954333969
  0
LINE
  5
4B5
100
AcDbEntity
  8
ASSI
100
AcDbLine
 62
7
  6
CONTINUOUS
 10
-5.8924159777
 20
18.7714703426
 11
-5.0280314851
 21
18.3392780963
  0
LINE
  5
4B6
100
AcDbEntity
  8
ASSI
100
AcDbLine
 62
7
  6
CONTINUOUS
 10
-2.1801053765
 20
16.915315042
 11
-1.8530844053
 21
16.7518045564
  0
LINE
  5
4B7
100
AcDbEntity
  8
ASSI
100
AcDbLine
 62
7
  6
CONTINUOUS
 10
2.2043200041
 20
14.7231023517
 11
2.1686013278
 21
14.7409616898
  0
LINE
  5
4B8
100
AcDbEntity
  8
ASSI
100
AcDbLine
 62
250
  6
CONTINUOUS
 10
0.4053013841
 20
15.8131114266
 11
-1.6604126573
 21
16.8459684472
  0
LINE
  5
4B9
100
AcDbEntity
  8
ASSI
100
AcDbLine
 62
250
  6
CONTINUOUS
 10
-12.181199321
 20
22.1063617791
 11
-14.2469133624
 21
23.1392187998
  0
LINE
  5
4BA
100
AcDbEntity
  8
ASSI
100
AcDbLine
 62
7
  6
CONTINUOUS
 10
-10.4178993773
 20
21.7262022939
 11
-9.7497636622
 21
21.3921344363
  0
LINE
  5
4BB
100
AcDbEntity
  8
ASSI
100
AcDbLine
 62
7
  6
CONTINUOUS
 10
2.1686013278
 20
15.4329519414
 11
2.8987747012
 21
15.0678652547
  0
LINE
  5
4BC
100
AcDbEntity
  8
ASSI
100
AcDbLine
 62
7
  6
CONTINUOUS
 10
-5.0280314851
 20
19.0319713708
 11
-5.2103557474
 21
19.123133502
  0
LINE
  5
4BD
100
AcDbEntity
  8
ASSI
100
AcDbLine
 62
7
  6
CONTINUOUS
 10
-5.0280314851
 20
19.1157962634
 11
-5.212155173
 21
19.2078581073
  0
LINE
  5
4BE
100
AcDbEntity
  8
ASSI
100
AcDbLine
 62
250
  6
CONTINUOUS
 10
-8.6464134883
 20
21.0027899297
 11
-6.4264649997
 21
19.8928156854
  0
LINE
  5
4BF
100
AcDbEntity
  8
ASSI
100
AcDbLine
 62
250
  6
CONTINUOUS
 10
-2.7141543985
 20
18.0366603848
 11
-4.934102887
 21
19.1466346291
  0
LINE
  5
4C0
100
AcDbEntity
  8
ASSI
100
AcDbLine
 62
250
  6
CONTINUOUS
 10
-8.507460275
 20
21.2454452371
 11
-6.2875117864
 21
20.1354709928
  0
LINE
  5
4C1
100
AcDbEntity
  8
ASSI
100
AcDbLine
 62
250
  6
CONTINUOUS
 10
-2.5752011852
 20
18.2793156922
 11
-4.7951496738
 21
19.3892899365
  0
LINE
  5
4C2
100
AcDbEntity
  8
ASSI
100
AcDbLine
 62
7
  6
CONTINUOUS
 10
-8.2966059577
 20
21.3592059786
 11
-6.0691657491
 21
20.2454858743
  0
LINE
  5
4C3
100
AcDbEntity
  8
ASSI
100
AcDbLine
 62
7
  6
CONTINUOUS
 10
-4.5842953565
 20
19.503050678
 11
-2.3568551478
 21
18.3893305737
  0
LINE
  5
4C4
100
AcDbEntity
  8
ASSI
100
AcDbLine
 62
7
  6
CONTINUOUS
 10
-12.6806626163
 20
23.9842470098
 11
-10.5592991944
 21
22.9235652989
  0
LINE
  5
4C5
100
AcDbEntity
  8
ASSI
100
AcDbLine
 62
7
  6
CONTINUOUS
 10
-0.0941619111
 20
17.6909966572
 11
2.0272015107
 21
16.6303149463
  0
LINE
  5
4C6
100
AcDbEntity
  8
ASSI
100
AcDbLine
 62
7
  6
CONTINUOUS
 10
-1.9410634874
 20
18.8320454486
 11
-3.9078675243
 21
19.815447467
  0
LINE
  5
4C7
100
AcDbEntity
  8
ASSI
100
AcDbLine
 62
7
  6
CONTINUOUS
 10
-5.4159469845
 20
20.5694871971
 11
-7.3827510214
 21
21.5528892155
  0
LINE
  5
4C8
100
AcDbEntity
  8
ASSI
100
AcDbLine
 62
250
  6
CONTINUOUS
 10
2.5513059773
 20
16.8902746255
 11
0.4485661039
 21
17.94164644
  0
LINE
  5
4C9
100
AcDbEntity
  8
ASSI
100
AcDbLine
 62
250
  6
CONTINUOUS
 10
-10.0351947278
 20
23.183524978
 11
-12.1379365536
 21
24.2348958909
  0
LINE
  5
4CA
100
AcDbEntity
  8
ASSI
100
AcDbLine
 62
7
  6
CONTINUOUS
 10
-9.9268612838
 20
23.1893081982
 11
-9.9267798537
 21
23.1892674398
  0
LINE
  5
4CB
100
AcDbEntity
  8
ASSI
100
AcDbLine
 62
7
  6
CONTINUOUS
 10
-12.0288462432
 20
24.2403006777
 11
-12.0285672329
 21
24.2401606262
  0
LINE
  5
4CC
100
AcDbEntity
  8
ASSI
100
AcDbLine
 62
7
  6
CONTINUOUS
 10
0.5579304276
 20
17.9469118086
 11
0.5576663841
 21
17.9470443644
  0
LWPOLYLINE
  5
4CD
100
AcDbEntity
  8
ASSI
100
AcDbPolyline
 62
250
  6
CONTINUOUS
 90
28
 70
0
 10
-6.4264649997
 20
19.8928156854
 10
-6.4247111236
 20
19.8918998137
 10
-6.4229253796
 20
19.8908402749
 10
-6.4211077678
 20
19.8896370691
 10
-6.419246854
 20
19.8882895219
 10
-6.4173540724
 20
19.8867983076
 10
-6.4154637253
 20
19.8851654492
 10
-6.4135751281
 20
19.883385505
 10
-6.4116889654
 20
19.8814639167
 10
-6.4098415938
 20
19.8794190332
 10
-6.4080340539
 20
19.8772462572
 10
-6.4062653049
 20
19.8749501861
 10
-6.4045685816
 20
19.8725629607
 10
-6.4029472213
 20
19.8700837585
 10
-6.4013978865
 20
19.8675134021
 10
-6.3999437991
 20
19.8648864996
 10
-6.3985879272
 20
19.8622043527
 10
-6.3973273027
 20
19.8594656597
 10
-6.3961762428
 20
19.8567011232
 10
-6.3951361817
 20
19.8539108227
 10
-6.3942056854
 20
19.8510946788
 10
-6.3933947686
 20
19.8482831561
 10
-6.3927047485
 20
19.8454762597
 10
-6.392134308
 20
19.8426739845
 10
-6.391689511
 20
19.8399067793
 10
-6.3913723789
 20
19.8371847939
 10
-6.3911808904
 20
19.8344978784
 10
-6.3911150454
 20
19.8318460331
  0
LWPOLYLINE
  5
4CE
100
AcDbEntity
  8
ASSI
100
AcDbPolyline
 62
250
  6
CONTINUOUS
 90
28
 70
0
 10
-6.2875117864
 20
20.1354709928
 10
-6.278912625
 20
20.1307870768
 10
-6.2700932927
 20
20.1254404994
 10
-6.261078435
 20
20.119402265
 10
-6.2518745144
 20
20.1126294966
 10
-6.2425361006
 20
20.1051130293
 10
-6.2331634167
 20
20.0968910163
 10
-6.2237930034
 20
20.0879593333
 10
-6.214464604
 20
20.0783185845
 10
-6.2052806123
 20
20.0680427484
 10
-6.19628094
 20
20.0571521391
 10
-6.1875045926
 20
20.0456689183
 10
-6.1790437198
 20
20.0336949365
 10
-6.1709400791
 20
20.0212800284
 10
-6.163218979
 20
20.0084535776
 10
-6.1559365937
 20
19.9953023494
 10
-6.1491262299
 20
19.9818866652
 10
-6.1428058548
 20
19.9682423652
 10
-6.1370013253
 20
19.9544247781
 10
-6.1317343825
 20
19.940485953
 10
-6.1270231758
 20
19.9264744446
 10
-6.1228845975
 20
19.9124412393
 10
-6.119333554
 20
19.8984367863
 10
-6.1163829504
 20
19.8845120946
 10
-6.1140433348
 20
19.8707187764
 10
-6.1123229594
 20
19.8571070582
 10
-6.1112279154
 20
19.84372563
 10
-6.1107620151
 20
19.8306227311
  0
LWPOLYLINE
  5
4CF
100
AcDbEntity
  8
ASSI
100
AcDbPolyline
 62
250
  6
CONTINUOUS
 90
13
 70
0
 10
-10.0351947278
 20
23.183524978
 10
-10.0164409922
 20
23.172961119
 10
-9.9980502328
 20
23.1595948411
 10
-9.980336999
 20
23.1436547587
 10
-9.9636042515
 20
23.1254135066
 10
-9.9481381815
 20
23.1051830792
 10
-9.9342033159
 20
23.083309494
 10
-9.922037991
 20
23.0601668719
 10
-9.9118502759
 20
23.0361510359
 10
-9.9038144152
 20
23.0116727431
 10
-9.8980678497
 20
22.9871506606
 10
-9.8947088651
 20
22.9630042054
 10
-9.8937949108
 20
22.9396463687
  0
LWPOLYLINE
  5
4D0
100
AcDbEntity
  8
ASSI
100
AcDbPolyline
 62
250
  6
CONTINUOUS
 90
7
 70
0
 10
-4.9694528413
 20
19.121014931
 10
-4.9865249038
 20
19.1307341421
 10
-5.0009449452
 20
19.1414739044
 10
-5.0124716794
 20
19.1530545129
 10
-5.0209122331
 20
19.1652821929
 10
-5.0261253731
 20
19.1779523423
 10
-5.0280314851
 20
19.1917256091
  0
LWPOLYLINE
  5
4D1
100
AcDbEntity
  8
ASSI
100
AcDbPolyline
 62
7
  6
CONTINUOUS
 90
13
 70
0
 10
2.0272015107
 20
16.6303149463
 10
2.0456527791
 20
16.6196024573
 10
2.0637951762
 20
16.606114091
 10
2.0813141487
 20
16.5900782214
 10
2.0979053473
 20
16.5717663819
 10
2.1132837919
 20
16.5514912722
 10
2.1271888924
 20
16.5296015876
 10
2.1393852244
 20
16.5064729605
 10
2.1496617402
 20
16.4824998087
 10
2.1578395715
 20
16.458091391
 10
2.1637799289
 20
16.4336659015
 10
2.1673862659
 20
16.4096432504
 10
2.1686013278
 20
16.386436337
  0
LWPOLYLINE
  5
4D2
100
AcDbEntity
  8
RACCORDO
100
AcDbPolyline
 62
7
  6
CONTINUOUS
 90
104
 70
0
 10
18.8545570411
 20
6.2843313744
 10
18.867278386
 20
6.275076549
 10
18.9120999978
 20
6.2412082275
 10
18.9565838447
 20
6.2063333153
 10
19.0007415047
 20
6.1704485278
 10
19.0445720818
 20
6.1335583366
 10
19.0880438343
 20
6.095693003
 10
19.1311214548
 20
6.0568881664
 10
19.1737843755
 20
6.0171681444
 10
19.2160220823
 20
5.9765483407
 10
19.2578145837
 20
5.9350534113
 10
19.2991407097
 20
5.8927101412
 10
19.3399914633
 20
5.8495333571
 10
19.3803645851
 20
5.8055299805
 10
19.4202554088
 20
5.7607082981
 10
19.4596378813
 20
5.7151006214
 10
19.4984778067
 20
5.6687509993
 10
19.536746705
 20
5.6216995346
 10
19.5744453315
 20
5.573951293
 10
19.6115830688
 20
5.5254981314
 10
19.648158771
 20
5.476342992
 10
19.6841439666
 20
5.4265254176
 10
19.7195069179
 20
5.3760923776
 10
19.7542242056
 20
5.3250819355
 10
19.7882932286
 20
5.2735024608
 10
19.8217138005
 20
5.2213570961
 10
19.8544777721
 20
5.1686599868
 10
19.8865664697
 20
5.1154424308
 10
19.9179636067
 20
5.0617331876
 10
19.9486549508
 20
5.007558591
 10
19.9786298844
 20
4.9529392107
 10
20.0078779181
 20
4.8978955314
 10
20.036386522
 20
4.8424522245
 10
20.0641444589
 20
4.7866320459
 10
20.0911431412
 20
4.7304526036
 10
20.1173718023
 20
4.6739360089
 10
20.1428182851
 20
4.6171079221
 10
20.1674719912
 20
4.5599912505
 10
20.1913225105
 20
4.5026089474
 10
20.214358713
 20
4.4449863238
 10
20.2365693822
 20
4.3871498453
 10
20.257941848
 20
4.3291311512
 10
20.2784691986
 20
4.2709472987
 10
20.2981485222
 20
4.2126026484
 10
20.3169753014
 20
4.1541035877
 10
20.3349334778
 20
4.0954923233
 10
20.3520039052
 20
4.0368267695
 10
20.3681717759
 20
3.9781573163
 10
20.3834372327
 20
3.9194824932
 10
20.3978035048
 20
3.8607821636
 10
20.4112676957
 20
3.8020525479
 10
20.4238137661
 20
3.7433463448
 10
20.4354255084
 20
3.6847276411
 10
20.4460924139
 20
3.62624353
 10
20.4558129596
 20
3.5678951491
 10
20.4645853441
 20
3.5096770988
 10
20.4724044777
 20
3.4515968536
 10
20.4792607033
 20
3.3936954709
 10
20.4851453723
 20
3.3360173002
 10
20.490052791
 20
3.2785886914
 10
20.4939779756
 20
3.221430743
 10
20.4969153783
 20
3.1645786742
 10
20.4988605273
 20
3.1080656311
 10
20.4998100248
 20
3.0519046635
 10
20.4997598918
 20
2.9961001178
 10
20.4987045785
 20
2.9406416887
 10
20.4966393919
 20
2.8855866573
 10
20.4935653752
 20
2.8310382126
 10
20.4894869496
 20
2.7770640328
 10
20.4844024794
 20
2.7236368271
 10
20.4783051117
 20
2.670715969
 10
20.471182886
 20
2.6182591252
 10
20.46304033
 20
2.5663541065
 10
20.4538996961
 20
2.5151519892
 10
20.4437794718
 20
2.46473041
 10
20.4326750234
 20
2.4150439093
 10
20.4205784532
 20
2.3660554522
 10
20.4074789376
 20
2.3177353749
 10
20.3933911604
 20
2.2701517325
 10
20.3783480621
 20
2.2234116081
 10
20.3623663738
 20
2.1775501261
 10
20.3454486311
 20
2.1325592532
 10
20.3276139168
 20
2.0884754829
 10
20.3088779007
 20
2.0453208901
 10
20.2892480836
 20
2.0030972968
 10
20.268732795
 20
1.9618099015
 10
20.2473239331
 20
1.9214348635
 10
20.2250516309
 20
1.8820220218
 10
20.2019888213
 20
1.8436810031
 10
20.1781959196
 20
1.8064786299
 10
20.1536550935
 20
1.7703548046
 10
20.1283233923
 20
1.7352287852
 10
20.1021834679
 20
1.7010710761
 10
20.0752803864
 20
1.6679352946
 10
20.047662717
 20
1.635869157
 10
20.0193655534
 20
1.6048967044
 10
19.9903934313
 20
1.5750065896
 10
19.9607521482
 20
1.5461915724
 10
19.9304641064
 20
1.5184614261
 10
19.8995468626
 20
1.4918203713
 10
19.8679976491
 20
1.4662563003
 10
19.8358283488
 20
1.4417714868
 10
19.8030668462
 20
1.4183797631
 10
19.7697338276
 20
1.3960879176
  0
LINE
  5
4D3
100
AcDbEntity
  8
0
100
AcDbLine
 62
250
  6
CONTINUOUS
 10
8.7580774408
 20
21.648141612
 11
9.1520633746
 21
20.625985794
  0
LINE
  5
4D4
100
AcDbEntity
  8
0
100
AcDbLine
 62
7
  6
CONTINUOUS
 10
10.2967677028
 20
19.0826194759
 11
10.0952683449
 21
19.6783439017
  0
LINE
  5
4D5
100
AcDbEntity
  8
RACCORDO
100
AcDbLine
 62
250
  6
CONTINUOUS
 10
18.573957755
 20
-3.5221415477
 11
18.5738968414
 21
1.0566639344
  0
LINE
  5
4D6
100
AcDbEntity
  8
RACCORDO
100
AcDbLine
 62
250
  6
CONTINUOUS
 10
18.5738968414
 20
2.8291328332
 11
18.5738968414
 21
13.0078144977
  0
LINE
  5
4D7
100
AcDbEntity
  8
RACCORDO
100
AcDbLine
 62
250
  6
CONTINUOUS
 10
18.5738968414
 20
14.780283415
 11
18.5738968414
 21
18.5876816934
  0
LWPOLYLINE
  5
4D8
100
AcDbEntity
  8
RACCORDO
100
AcDbPolyline
 62
7
  6
CONTINUOUS
 90
6
 70
0
 10
18.8545575587
 20
12.7669958157
 10
18.8546097452
 20
12.7687702868
 10
18.8548102764
 20
12.7708411132
 10
18.8550841972
 20
12.7724426847
 10
18.8553553124
 20
12.7735641129
 10
18.8555370558
 20
12.7741479579
  0
LINE
  5
4D9
100
AcDbEntity
  8
RACCORDO
100
AcDbLine
 62
7
  6
CONTINUOUS
 10
18.8555369324
 20
0.8229970729
 11
18.8555581729
 21
0.8230546312
  0
LINE
  5
4DA
100
AcDbEntity
  8
ASSI
100
AcDbLine
 62
250
  6
CONTINUOUS
 10
0.3197004207
 20
-25.8752375764
 11
0.9524906301
 21
-25.1299244103
  0
LINE
  5
4DB
100
AcDbEntity
  8
ASSI
100
AcDbLine
 62
250
  6
CONTINUOUS
 10
0.5293427729
 20
-26.0618162174
 11
1.2661505771
 21
-25.1939890147
  0
LWPOLYLINE
  5
4DC
100
AcDbEntity
  8
DRAFT
100
AcDbPolyline
 62
7
  6
CONTINUOUS
 90
27
 70
0
 10
-0.5505469173
 20
-20.9397746589
 10
-0.5737038662
 20
-20.9535557852
 10
-0.6056899774
 20
-20.978620348
 10
-0.6344831373
 20
-21.0092741702
 10
-0.6600455329
 20
-21.045235326
 10
-0.6815187106
 20
-21.0852668065
 10
-0.6986988455
 20
-21.1292506043
 10
-0.7117897624
 20
-21.1773047267
 10
-0.7205444824
 20
-21.2285461869
 10
-0.7248806793
 20
-21.283360149
 10
-0.7248806793
 20
-21.3413614488
 10
-0.7205444824
 20
-21.4005116078
 10
-0.7117897624
 20
-21.460507788
 10
-0.6986988455
 20
-21.5216528273
 10
-0.6815187106
 20
-21.5828167599
 10
-0.6600455329
 20
-21.6443214181
 10
-0.6344831373
 20
-21.7058449696
 10
-0.6056899774
 20
-21.7652919517
 10
-0.5737038662
 20
-21.8223426257
 10
-0.5384869907
 20
-21.8773167304
 10
-0.5007843652
 20
-21.9290780193
 10
-0.4604108523
 20
-21.9777185838
 10
-0.4175515893
 20
-22.0231463325
 10
-0.3735070028
 20
-22.0639487451
 10
-0.3287105681
 20
-22.0996549813
 10
-0.28272881
 20
-22.1307358813
 10
-0.2355617282
 20
-22.1571914452
  0
LINE
  5
4DD
100
AcDbEntity
  8
DRAFT
100
AcDbLine
 62
7
  6
CONTINUOUS
 10
-0.2709238072
 20
-20.7921490598
 11
-0.5505926424
 21
-20.9397889062
  0
LINE
  5
4DE
100
AcDbEntity
  8
RACCORDO
100
AcDbLine
 62
250
  6
CONTINUOUS
 10
-0.6729647034
 20
-19.992493379
 11
-0.3769830845
 21
-19.8613055671
  0
LINE
  5
4DF
100
AcDbEntity
  8
RACCORDO
100
AcDbLine
 62
7
  6
CONTINUOUS
 10
-0.6838765032
 20
-20.2529528489
 11
-0.5424246247
 21
-20.1902571907
  0
LWPOLYLINE
  5
4E0
100
AcDbEntity
  8
ASSI
100
AcDbPolyline
 62
7
  6
CONTINUOUS
 90
4
 70
0
 10
-0.1482745491
 20
17.7048725704
 10
-0.1307641286
 20
17.7033937434
 10
-0.1126246246
 20
17.6987411592
 10
-0.0941619111
 20
17.6909966572
  0
LINE
  5
4E1
100
AcDbEntity
  8
ASSI
100
AcDbLine
 62
7
  6
CONTINUOUS
 10
-12.3977983646
 20
20.9635013643
 11
-12.9405244273
 21
21.0786306818
  0
LINE
  5
4E2
100
AcDbEntity
  8
ASSI
100
AcDbLine
 62
250
  6
CONTINUOUS
 10
-11.320350128
 20
21.2997380976
 11
-12.0571579322
 21
21.4560382746
  0
LINE
  5
4E3
100
AcDbEntity
  8
ASSI
100
AcDbLine
 62
7
  6
CONTINUOUS
 10
-12.2376749702
 20
21.33234339
 11
-11.5967760721
 21
21.1963884867
  0
LWPOLYLINE
  5
4E4
100
AcDbEntity
  8
ASSI
100
AcDbPolyline
 62
250
  6
CONTINUOUS
 90
19
 70
0
 10
-12.0571579322
 20
21.4560382746
 10
-12.0586989693
 20
21.4564104662
 10
-12.0602148634
 20
21.4569276654
 10
-12.0617056146
 20
21.4575898723
 10
-12.0631834529
 20
21.4583932133
 10
-12.0646361483
 20
21.4593415619
 10
-12.0660270105
 20
21.4604465385
 10
-12.0673548826
 20
21.4617134963
 10
-12.0686209216
 20
21.463137082
 10
-12.0697919076
 20
21.4647128568
 10
-12.0708652172
 20
21.4664462926
 10
-12.0718434738
 20
21.4683319176
 10
-12.0727013278
 20
21.4703488771
 10
-12.0734349637
 20
21.4725018207
 10
-12.0740481971
 20
21.4747860989
 10
-12.0745271243
 20
21.4771669085
 10
-12.0748671111
 20
21.4796326484
 10
-12.0750727919
 20
21.4821949196
 10
-12.0751441666
 20
21.4848537222
  0
LWPOLYLINE
  5
4E5
100
AcDbEntity
  8
ASSI
100
AcDbPolyline
 62
7
  6
CONTINUOUS
 90
10
 70
0
 10
0.5460038518
 20
17.9524543825
 10
0.5249615551
 20
17.9602307532
 10
0.5030866327
 20
17.9658535225
 10
0.480606173
 20
17.9692282485
 10
0.4576751607
 20
17.9702863978
 10
0.4345355239
 20
17.9689689952
 10
0.4115087434
 20
17.9652638411
 10
0.3888148069
 20
17.9591907006
 10
0.3666570173
 20
17.9507898905
 10
0.3624806217
 20
17.9489147098
  0
LWPOLYLINE
  5
4E6
100
AcDbEntity
  8
ASSI
100
AcDbPolyline
 62
7
  6
CONTINUOUS
 90
6
 70
0
 10
-12.6806626163
 20
23.9842470098
 10
-12.6991138846
 20
23.9919972343
 10
-12.7172562817
 20
23.9966483719
 10
-12.7347752542
 20
23.9981229229
 10
-12.7513664529
 20
23.9963979811
 10
-12.7680016562
 20
23.9909368412
  0
LWPOLYLINE
  5
4E7
100
AcDbEntity
  8
ASSI
100
AcDbPolyline
 62
250
  6
CONTINUOUS
 90
6
 70
0
 10
0.4485641516
 20
17.9416455383
 10
0.4304122193
 20
17.9495345167
 10
0.4125285371
 20
17.9543054693
 10
0.3952189813
 20
17.9558767956
 10
0.3787796084
 20
17.9542216201
 10
0.3624806004
 20
17.9489147563
  0
LINE
  5
4E8
100
AcDbEntity
  8
ASSI
100
AcDbLine
 62
7
  6
CONTINUOUS
 10
-12.0285627898
 20
24.2401577674
 11
-12.042844997
 21
24.2466951208
  0
LWPOLYLINE
  5
4E9
100
AcDbEntity
  8
RACCORDO
100
AcDbPolyline
 62
7
  6
CONTINUOUS
 90
21
 70
0
 10
-2.4999622007
 20
21.0016363634
 10
-2.511799245
 20
21.0071103945
 10
-2.5235701371
 20
21.0121284227
 10
-2.5352623273
 20
21.016684734
 10
-2.5468624685
 20
21.0207742489
 10
-2.5583588785
 20
21.0243922546
 10
-2.5697415375
 20
21.0275342598
 10
-2.5809977876
 20
21.030196664
 10
-2.5921155214
 20
21.0323762533
 10
-2.6030856029
 20
21.0340696541
 10
-2.6138956775
 20
21.0352748128
 10
-2.6245337733
 20
21.0359899866
 10
-2.6349914226
 20
21.0362128419
 10
-2.6452561957
 20
21.0359429287
 10
-2.6553168502
 20
21.0351800963
 10
-2.665166805
 20
21.0339229788
 10
-2.6747948658
 20
21.0321724909
 10
-2.6841892786
 20
21.0299299966
 10
-2.6933428525
 20
21.0271955762
 10
-2.70224271
 20
21.0239727625
 10
-2.7105478826
 20
21.0204181138
  0
LINE
  5
4EA
100
AcDbEntity
  8
ASSI
100
AcDbLine
 62
7
  6
CONTINUOUS
 10
0.5579264292
 20
17.9469130553
 11
0.5460038518
 21
17.9524543825
  0
LWPOLYLINE
  5
4EB
100
AcDbEntity
  8
ASSI
100
AcDbPolyline
 62
250
  6
CONTINUOUS
 90
13
 70
0
 10
2.6596387146
 20
16.896058199
 10
2.656444151
 20
16.8975800277
 10
2.6481088554
 20
16.9008863349
 10
2.6394353973
 20
16.9034048872
 10
2.630453826
 20
16.9051285216
 10
2.6211960685
 20
16.9060526115
 10
2.6116909611
 20
16.9061755114
 10
2.6019714509
 20
16.905497463
 10
2.5920710435
 20
16.9040214426
 10
2.582020004
 20
16.9017523858
 10
2.5718515199
 20
16.8986975261
 10
2.5616017778
 20
16.8948672967
 10
2.5513059773
 20
16.8902746255
  0
LWPOLYLINE
  5
4EC
100
AcDbEntity
  8
RACCORDO
100
AcDbPolyline
 62
7
  6
CONTINUOUS
 90
64
 70
0
 10
-1.4194062016
 20
21.1326262056
 10
-1.4298474535
 20
21.1377216884
 10
-1.4473535352
 20
21.1457289775
 10
-1.465330873
 20
21.1533046355
 10
-1.4837479769
 20
21.16044247
 10
-1.5025957712
 20
21.167148195
 10
-1.5218867407
 20
21.1734350926
 10
-1.5415982159
 20
21.1793045658
 10
-1.5617077343
 20
21.1847598275
 10
-1.5822239022
 20
21.189812603
 10
-1.6030946231
 20
21.1944597566
 10
-1.6243314586
 20
21.1987135237
 10
-1.6460365903
 20
21.2025988546
 10
-1.6681614937
 20
21.2061086276
 10
-1.6907249119
 20
21.2092471617
 10
-1.7139306695
 20
21.21203669
 10
-1.7378550991
 20
21.21447168
 10
-1.7623983503
 20
21.2165273104
 10
-1.7874979878
 20
21.2181872573
 10
-1.8132568147
 20
21.2194451637
 10
-1.83954425
 20
21.2202810724
 10
-1.8659444585
 20
21.2206806547
 10
-1.8924204494
 20
21.2206517222
 10
-1.9189818771
 20
21.2202013311
 10
-1.9452837067
 20
21.2193483833
 10
-1.9712358329
 20
21.2181168588
 10
-1.9969101936
 20
21.216522771
 10
-2.0222071202
 20
21.2145905531
 10
-2.0471067151
 20
21.2123409663
 10
-2.071617789
 20
21.2097912939
 10
-2.0956846625
 20
21.2069651541
 10
-2.1192886871
 20
21.2038829871
 10
-2.1424434302
 20
21.200560433
 10
-2.165141606
 20
21.1970150263
 10
-2.1873755384
 20
21.1932640581
 10
-2.2091512678
 20
21.1893220487
 10
-2.2304809845
 20
21.1852015032
 10
-2.2513651
 20
21.1809164168
 10
-2.2718031632
 20
21.1764806182
 10
-2.2918044308
 20
21.1719053977
 10
-2.3113711777
 20
21.1672031037
 10
-2.3305018834
 20
21.1623867741
 10
-2.3491984296
 20
21.1574684552
 10
-2.3674704898
 20
21.1524578136
 10
-2.3853093417
 20
21.1473693528
 10
-2.4026883306
 20
21.1422233025
 10
-2.4195954155
 20
21.1370364148
 10
-2.4360453438
 20
21.1318172412
 10
-2.4520502413
 20
21.1265745335
 10
-2.4675899222
 20
21.1213275798
 10
-2.4826858096
 20
21.1160817567
 10
-2.4974075501
 20
21.110824106
 10
-2.5117536948
 20
21.1055654271
 10
-2.5257188493
 20
21.1003181236
 10
-2.5393591704
 20
21.0950708892
 10
-2.5526573554
 20
21.0898397461
 10
-2.5656134704
 20
21.08463437
 10
-2.5782996678
 20
21.0794347106
 10
-2.5906784829
 20
21.0742648336
 10
-2.6027506775
 20
21.0691337814
 10
-2.6146281361
 20
21.0640024142
 10
-2.6262646579
 20
21.0588988414
 10
-2.6376269381
 20
21.0538471009
 10
-2.6598206791
 20
21.0438071385
  0
LWPOLYLINE
  5
4ED
100
AcDbEntity
  8
ASSI
100
AcDbPolyline
 62
250
  6
CONTINUOUS
 90
13
 70
0
 10
0.5576663841
 20
17.9470443644
 10
0.5563954903
 20
17.9476680272
 10
0.5479195083
 20
17.9512524612
 10
0.5390762432
 20
17.9540225117
 10
0.5298990936
 20
17.9559677952
 10
0.5204188949
 20
17.9570818558
 10
0.5106703925
 20
17.957360382
 10
0.5006879216
 20
17.9568023477
 10
0.4905074761
 20
17.955409734
 10
0.4801676988
 20
17.9531878623
 10
0.4697063195
 20
17.9501453288
 10
0.4591599084
 20
17.946293443
 10
0.4485660771
 20
17.9416464534
  0
LINE
  5
4EE
100
AcDbEntity
  8
ASSI
100
AcDbLine
 62
7
  6
CONTINUOUS
 10
-9.9268557912
 20
23.1893054522
 11
-12.0288390761
 21
24.2402970946
  0
LINE
  5
4EF
100
AcDbEntity
  8
RACCORDO
100
AcDbLine
 62
7
  6
CONTINUOUS
 10
-2.4983572759
 20
21.0008498377
 11
-0.0724652726
 21
19.787903836
  0
LINE
  5
4F0
100
AcDbEntity
  8
RACCORDO
100
AcDbLine
 62
250
  6
CONTINUOUS
 10
1.8395462044
 20
19.4551900524
 11
1.8322587101
 21
19.4588337996
  0
LINE
  5
4F1
100
AcDbEntity
  8
RACCORDO
100
AcDbLine
 62
250
  6
CONTINUOUS
 10
0.5641513815
 20
20.0928874638
 11
-1.5089437256
 21
21.1294213978
  0
LINE
  5
4F2
100
AcDbEntity
  8
RACCORDO
100
AcDbLine
 62
7
  6
CONTINUOUS
 10
1.8885314435
 20
19.4786573868
 11
1.8325517306
 21
19.5066472433
  0
LINE
  5
4F3
100
AcDbEntity
  8
RACCORDO
100
AcDbLine
 62
7
  6
CONTINUOUS
 10
0.6131366206
 20
20.1163547983
 11
-1.4194098605
 21
21.1326280388
  0
LINE
  5
4F4
100
AcDbEntity
  8
ASSI
100
AcDbLine
 62
7
  6
CONTINUOUS
 10
2.6597503376
 20
16.8960023038
 11
0.5576607292
 21
17.947047192
  0
LWPOLYLINE
  5
4F5
100
AcDbEntity
  8
ASSI
100
AcDbPolyline
 62
250
  6
CONTINUOUS
 90
13
 70
0
 10
-4.0676707909
 20
23.1380773651
 10
-4.0450167515
 20
23.1249240933
 10
-4.0227882318
 20
23.1083815249
 10
-4.0013529937
 20
23.0887232061
 10
-3.9810657181
 20
23.0662742723
 10
-3.962262074
 20
23.0414060075
 10
-3.945253179
 20
23.0145296822
 10
-3.9303205067
 20
22.986089813
 10
-3.9177112837
 20
22.9565569674
 10
-3.9076343061
 20
22.9264199122
 10
-3.9002564132
 20
22.8961773553
 10
-3.8956997616
 20
22.8663296819
 10
-3.894039848
 20
22.8373708178
  0
LINE
  5
4F6
100
AcDbEntity
  8
RACCORDO
100
AcDbLine
 62
7
  6
CONTINUOUS
 10
10.2897351162
 20
16.4966989429
 11
9.2065398466
 21
18.3649344288
  0
LINE
  5
4F7
100
AcDbEntity
  8
RACCORDO
100
AcDbLine
 62
250
  6
CONTINUOUS
 10
18.854465146
 20
12.7770273637
 11
18.8545566556
 21
12.76761978
  0
LWPOLYLINE
  5
4F8
100
AcDbEntity
  8
RACCORDO
100
AcDbPolyline
 62
7
  6
CONTINUOUS
 90
31
 70
0
 10
18.8545570302
 20
18.9349188612
 10
18.8542697384
 20
18.9694864967
 10
18.8531326672
 20
19.0119775968
 10
18.851138591
 20
19.0545324018
 10
18.8482938392
 20
19.0971561227
 10
18.8446058963
 20
19.1398282717
 10
18.840085703
 20
19.1824993374
 10
18.8347412188
 20
19.2251632166
 10
18.8285796961
 20
19.2678121502
 10
18.8216156767
 20
19.3103920327
 10
18.8138577641
 20
19.3528962819
 10
18.8053134824
 20
19.3953183068
 10
18.7960011838
 20
19.4376024012
 10
18.7859304015
 20
19.479739789
 10
18.7751087975
 20
19.5217262065
 10
18.7635565845
 20
19.5635113256
 10
18.7512858127
 20
19.6050788908
 10
18.7383024631
 20
19.646432406
 10
18.7246196329
 20
19.6875498977
 10
18.7102464041
 20
19.7284216426
 10
18.6951893183
 20
19.769044075
 10
18.6794578461
 20
19.8094031324
 10
18.6630587555
 20
19.8494916895
 10
18.6459978959
 20
19.8893027928
 10
18.6282839965
 20
19.9288217498
 10
18.6099228936
 20
19.9680402335
 10
18.5909189425
 20
20.0069509672
 10
18.5712789374
 20
20.0455412018
 10
18.5510072266
 20
20.0838018697
 10
18.5301069172
 20
20.1217253937
 10
18.5125895866
 20
20.1524136478
  0
LINE
  5
4F9
100
AcDbEntity
  8
RACCORDO
100
AcDbLine
 62
250
  6
CONTINUOUS
 10
18.8545015634
 20
0.8236391971
 11
18.85455667
 21
0.8164618193
  0
LINE
  5
4FA
100
AcDbEntity
  8
RACCORDO
100
AcDbLine
 62
7
  6
CONTINUOUS
 10
18.8545570411
 20
-3.1512623232
 11
18.85455667
 21
0.8164618193
  0
LINE
  5
4FB
100
AcDbEntity
  8
RACCORDO
100
AcDbLine
 62
7
  6
CONTINUOUS
 10
18.8545570411
 20
18.9349314107
 11
18.8545566398
 21
15.7142285271
  0
LINE
  5
4FC
100
AcDbEntity
  8
RACCORDO
100
AcDbLine
 62
7
  6
CONTINUOUS
 10
18.8545566556
 20
12.76761978
 11
18.8545566713
 21
3.7631343208
  0
LWPOLYLINE
  5
4FD
100
AcDbEntity
  8
RACCORDO
100
AcDbPolyline
 62
250
  6
CONTINUOUS
 90
57
 70
0
 10
18.8545566713
 20
3.7631343208
 10
18.8545031659
 20
3.7465491973
 10
18.8538778008
 20
3.7005084198
 10
18.8526189775
 20
3.6564547576
 10
18.8507975437
 20
3.614146572
 10
18.8484802725
 20
3.5736331043
 10
18.8457407881
 20
3.5350383891
 10
18.8426363493
 20
3.4982435777
 10
18.8391896285
 20
3.4629326603
 10
18.835443185
 20
3.429091273
 10
18.8314419882
 20
3.3967349786
 10
18.8271857757
 20
3.3655935823
 10
18.8226982694
 20
3.3356246135
 10
18.8180146297
 20
3.3068703968
 10
18.8131347085
 20
3.2791890337
 10
18.8080678902
 20
3.2525173842
 10
18.8028481037
 20
3.2269177282
 10
18.7975073135
 20
3.2024363013
 10
18.7920793779
 20
3.1791267873
 10
18.7865752064
 20
3.1569321084
 10
18.7809897782
 20
3.1357323109
 10
18.7753449406
 20
3.1155393925
 10
18.7696530768
 20
3.0963379967
 10
18.7638870657
 20
3.0779683476
 10
18.7580503739
 20
3.0604008981
 10
18.7521621979
 20
3.0436629979
 10
18.7462127502
 20
3.0276813516
 10
18.7401920281
 20
3.0124134361
 10
18.7341273072
 20
2.9978999851
 10
18.7280653545
 20
2.9841921709
 10
18.7220216132
 20
2.9713111069
 10
18.7160026731
 20
2.9592317479
 10
18.7100457463
 20
2.9479347608
 10
18.7041842572
 20
2.9374590104
 10
18.6984081238
 20
2.9277603133
 10
18.6926882078
 20
2.9186948901
 10
18.6870428258
 20
2.9102643377
 10
18.6814701695
 20
2.9024630412
 10
18.6759052884
 20
2.895138078
 10
18.6703404026
 20
2.8882618979
 10
18.6647916165
 20
2.8818602922
 10
18.6592249833
 20
2.8758619236
 10
18.6536322118
 20
2.8702515459
 10
18.6480265637
 20
2.8650436035
 10
18.642404646
 20
2.8602118903
 10
18.6367677258
 20
2.8557553299
 10
18.6311190917
 20
2.8516741879
 10
18.6254580162
 20
2.8479443724
 10
18.6197883374
 20
2.844566317
 10
18.6141104241
 20
2.8415387634
 10
18.6084179399
 20
2.8388352143
 10
18.6027147324
 20
2.8364547424
 10
18.5970004736
 20
2.8343976067
 10
18.5912618439
 20
2.832639375
 10
18.5854950514
 20
2.8311718825
 10
18.5797063054
 20
2.8300030204
 10
18.5738968414
 20
2.8291326206
  0
LWPOLYLINE
  5
4FE
100
AcDbEntity
  8
RACCORDO
100
AcDbPolyline
 62
250
  6
CONTINUOUS
 90
57
 70
0
 10
18.8545566398
 20
15.7142285271
 10
18.8544573218
 20
15.6911888153
 10
18.8537334376
 20
15.645182459
 10
18.852390581
 20
15.6014262271
 10
18.8505036472
 20
15.5595582559
 10
18.8481295835
 20
15.5193996104
 10
18.8453315499
 20
15.4809896264
 10
18.8421672029
 20
15.4442942921
 10
18.8386575499
 20
15.4090241806
 10
18.8348386844
 20
15.3751325635
 10
18.8307566777
 20
15.3426677575
 10
18.8264264177
 20
15.311483396
 10
18.8218765793
 20
15.2815598386
 10
18.8171419782
 20
15.2529159721
 10
18.8122359575
 20
15.2254635609
 10
18.8071845827
 20
15.199203924
 10
18.8020138464
 20
15.174133353
 10
18.796729959
 20
15.1501564209
 10
18.7913560029
 20
15.1272804671
 10
18.7859111792
 20
15.1054949202
 10
18.7803892326
 20
15.0846781404
 10
18.7748079582
 20
15.0648314798
 10
18.7691821735
 20
15.0459503665
 10
18.7634943236
 20
15.027905281
 10
18.7577514544
 20
15.0106779127
 10
18.751970046
 20
14.9942840178
 10
18.746141524
 20
14.9786460735
 10
18.7402666098
 20
14.9637431726
 10
18.7343630785
 20
14.9495939496
 10
18.7284464169
 20
14.9361803479
 10
18.7225250485
 20
14.9235054337
 10
18.7166087919
 20
14.9115631374
 10
18.7107158189
 20
14.9003213351
 10
18.704858508
 20
14.8897889364
 10
18.6990423091
 20
14.8799533738
 10
18.6932750912
 20
14.8707500985
 10
18.6875832367
 20
14.8622003172
 10
18.6819568339
 20
14.8542788699
 10
18.6763463395
 20
14.846852485
 10
18.6707518476
 20
14.839903752
 10
18.6651827408
 20
14.8334479544
 10
18.6595989339
 20
14.8274023113
 10
18.6539913101
 20
14.8217492732
 10
18.6483742588
 20
14.81650549
 10
18.6427407645
 20
14.8116402203
 10
18.637091405
 20
14.8071512198
 10
18.6314301803
 20
14.8030399232
 10
18.6257546449
 20
14.7992812851
 10
18.6200686223
 20
14.7958754346
 10
18.6143724226
 20
14.7928214584
 10
18.6086578109
 20
14.7900929277
 10
18.6029285395
 20
14.7876886318
 10
18.5971841984
 20
14.7856092033
 10
18.5914094786
 20
14.7838313136
 10
18.5855998095
 20
14.782347225
 10
18.5797618952
 20
14.7811645501
 10
18.5738968414
 20
14.7802831928
  0
LWPOLYLINE
  5
4FF
100
AcDbEntity
  8
RACCORDO
100
AcDbPolyline
 62
7
  6
CONTINUOUS
 90
6
 70
0
 10
18.8545575457
 20
0.815843862
 10
18.854609728
 20
0.8176187192
 10
18.8548101289
 20
0.8196896823
 10
18.8550840915
 20
0.8212915347
 10
18.8553552048
 20
0.8224131354
 10
18.8555369324
 20
0.8229970729
  0
LWPOLYLINE
  5
500
100
AcDbEntity
  8
RACCORDO
100
AcDbPolyline
 62
250
  6
CONTINUOUS
 90
34
 70
0
 10
11.4840900468
 20
-16.2737014268
 10
11.5042646279
 20
-16.2550217949
 10
11.5239175606
 20
-16.2355578688
 10
11.5430396798
 20
-16.2153187649
 10
11.5616219086
 20
-16.1943140622
 10
11.5796553054
 20
-16.1725538304
 10
11.5971312946
 20
-16.15004846
 10
11.6140415204
 20
-16.1268087077
 10
11.6303779319
 20
-16.1028456191
 10
11.6461328225
 20
-16.0781705441
 10
11.6612986864
 20
-16.0527952289
 10
11.6758682832
 20
-16.0267317608
 10
11.6898347248
 20
-15.9999924941
 10
11.7031913724
 20
-15.9725901302
 10
11.7159318427
 20
-15.9445377325
 10
11.7280500704
 20
-15.9158486682
 10
11.7395402972
 20
-15.8865365833
 10
11.7503970487
 20
-15.8566154281
 10
11.7606151413
 20
-15.8260994719
 10
11.7701897249
 20
-15.7950032491
 10
11.7791162548
 20
-15.7633415342
 10
11.7873904685
 20
-15.7311293679
 10
11.7950084532
 20
-15.6983820635
 10
11.8019665946
 20
-15.665115195
 10
11.8082615454
 20
-15.6313445696
 10
11.8138903499
 20
-15.5970861825
 10
11.8188503351
 20
-15.5623563722
 10
11.823139062
 20
-15.5271718094
 10
11.826754525
 20
-15.4915493191
 10
11.82969505
 20
-15.4555057355
 10
11.8319591751
 20
-15.4190580508
 10
11.833545821
 20
-15.3822235332
 10
11.8344543044
 20
-15.3450197256
 10
11.8346842332
 20
-15.3074643004
  0
LWPOLYLINE
  5
501
100
AcDbEntity
  8
RACCORDO
100
AcDbPolyline
 62
250
  6
CONTINUOUS
 90
4
 70
0
 10
11.4205337576
 20
-16.3249473994
 10
11.4422145711
 20
-16.3086726098
 10
11.4634033755
 20
-16.2915878979
 10
11.4840900468
 20
-16.2737014268
  0
LWPOLYLINE
  5
502
100
AcDbEntity
  8
RACCORDO
100
AcDbPolyline
 62
7
  6
CONTINUOUS
 90
40
 70
0
 10
11.4951124639
 20
-16.2785771975
 10
11.5147461492
 20
-16.2640818686
 10
11.5428413457
 20
-16.2423868308
 10
11.5704443907
 20
-16.2199226037
 10
11.5975272324
 20
-16.1967067746
 10
11.6240768272
 20
-16.1727454416
 10
11.6500944835
 20
-16.1480310307
 10
11.6755602767
 20
-16.1225748867
 10
11.700454878
 20
-16.0963887824
 10
11.7247790523
 20
-16.069462814
 10
11.7485135728
 20
-16.0418079084
 10
11.7716386175
 20
-16.0134369167
 10
11.7941523776
 20
-15.9843400496
 10
11.816036296
 20
-15.9545273911
 10
11.837270418
 20
-15.9240126826
 10
11.8578493941
 20
-15.8927885819
 10
11.87775434
 20
-15.8608666163
 10
11.896966854
 20
-15.8282590924
 10
11.9154811942
 20
-15.7949568602
 10
11.9332777919
 20
-15.7609737211
 10
11.9503399617
 20
-15.7263192558
 10
11.9666645629
 20
-15.6909744628
 10
11.9822353022
 20
-15.654944549
 10
11.9970312606
 20
-15.6182458943
 10
12.011040977
 20
-15.5808727096
 10
12.0242521416
 20
-15.542818065
 10
12.0366402724
 20
-15.5041092173
 10
12.0481787534
 20
-15.4647897737
 10
12.0588535419
 20
-15.4248694804
 10
12.0686500466
 20
-15.3843598087
 10
12.0775473072
 20
-15.3433060219
 10
12.0855346735
 20
-15.3017164574
 10
12.0926004622
 20
-15.2596031106
 10
12.0987285309
 20
-15.2170158976
 10
12.1039107323
 20
-15.1739641798
 10
12.1081384084
 20
-15.1304579814
 10
12.1114005713
 20
-15.0865468094
 10
12.1136904225
 20
-15.0422522879
 10
12.1150026199
 20
-14.997571213
 10
12.1153444233
 20
-14.9601362388
  0
LINE
  5
503
100
AcDbEntity
  8
ASSI
100
AcDbLine
 62
7
  6
CONTINUOUS
 10
3.2522742439
 20
-20.6668657809
 11
3.9470384303
 21
-20.163339
  0
LINE
  5
504
100
AcDbEntity
  8
RACCORDO
100
AcDbLine
 62
7
  6
CONTINUOUS
 10
3.5575731442
 20
-20.4669783418
 11
3.2522742439
 21
-20.6882421541
  0
LINE
  5
505
100
AcDbEntity
  8
RACCORDO
100
AcDbLine
 62
7
  6
CONTINUOUS
 10
9.2065398466
 20
-17.748324909
 11
10.2897351162
 21
-16.9632846927
  0
LINE
  5
506
100
AcDbEntity
  8
RACCORDO
100
AcDbLine
 62
250
  6
CONTINUOUS
 10
11.2145792106
 20
-16.4742119011
 11
11.4205337576
 21
-16.3249473994
  0
LINE
  5
507
100
AcDbEntity
  8
RACCORDO
100
AcDbLine
 62
7
  6
CONTINUOUS
 10
11.2891468046
 20
-16.4278497682
 11
11.4951013516
 21
-16.2785852665
  0
LWPOLYLINE
  5
508
100
AcDbEntity
  8
RACCORDO
100
AcDbPolyline
 62
7
  6
CONTINUOUS
 90
6
 70
0
 10
11.2891468046
 20
-16.4278497682
 10
11.275881801
 20
-16.4372997107
 10
11.2624560106
 20
-16.4465382051
 10
11.2488745302
 20
-16.4555611895
 10
11.2351367535
 20
-16.4643684431
 10
11.2212541553
 20
-16.4729521324
  0
LINE
  5
509
100
AcDbEntity
  8
RACCORDO
100
AcDbLine
 62
7
  6
CONTINUOUS
 10
11.2212541553
 20
-16.4729521324
 11
11.2072503121
 21
-16.4812981481
  0
LWPOLYLINE
  5
50A
100
AcDbEntity
  8
RACCORDO
100
AcDbPolyline
 62
7
  6
CONTINUOUS
 90
4
 70
0
 10
11.2072503121
 20
-16.4812981481
 10
11.1931370991
 20
-16.489400784
 10
11.178914683
 20
-16.497261412
 10
11.169785726
 20
-16.5021495323
  0
LWPOLYLINE
  5
50B
100
AcDbEntity
  8
DRAFT
100
AcDbPolyline
 62
7
  6
CONTINUOUS
 90
27
 70
0
 10
0.0691212205
 20
-22.1794185789
 10
0.1025804098
 20
-22.1604847637
 10
0.1345665209
 20
-22.1354202008
 10
0.1633596809
 20
-22.1047663787
 10
0.1889220765
 20
-22.0688052228
 10
0.2103952542
 20
-22.0287737423
 10
0.227575389
 20
-21.9847899446
 10
0.2406663059
 20
-21.9367358222
 10
0.2494210259
 20
-21.8854943619
 10
0.2537572228
 20
-21.8306803999
 10
0.2537572228
 20
-21.7726791
 10
0.2494210259
 20
-21.7135289411
 10
0.2406663059
 20
-21.6535327608
 10
0.227575389
 20
-21.5923877215
 10
0.2103952542
 20
-21.5312237889
 10
0.1889220765
 20
-21.4697191307
 10
0.1633596809
 20
-21.4081955793
 10
0.1345665209
 20
-21.3487485972
 10
0.1025804098
 20
-21.2916979231
 10
0.0673635343
 20
-21.2367238185
 10
0.0296609087
 20
-21.1849625296
 10
-0.0107126042
 20
-21.1363219651
 10
-0.0535718672
 20
-21.0908942163
 10
-0.0976164537
 20
-21.0500918038
 10
-0.1424128883
 20
-21.0143855675
 10
-0.1883946465
 20
-20.9833046675
 10
-0.2355617282
 20
-20.9568491036
  0
LWPOLYLINE
  5
50C
100
AcDbEntity
  8
DRAFT
100
AcDbPolyline
 62
7
  6
CONTINUOUS
 90
27
 70
0
 10
0.3550335672
 20
-22.0442677434
 10
0.3888296687
 20
-22.0251432813
 10
0.4211380058
 20
-21.9998262977
 10
0.4502211578
 20
-21.9688639048
 10
0.4760409718
 20
-21.9325407845
 10
0.497730438
 20
-21.8921062239
 10
0.5150837446
 20
-21.8476793847
 10
0.5283067034
 20
-21.7991411052
 10
0.5371497397
 20
-21.7473831873
 10
0.5415296621
 20
-21.6920164467
 10
0.5415296621
 20
-21.6334300676
 10
0.5371497397
 20
-21.5736834046
 10
0.5283067034
 20
-21.5130824503
 10
0.5150837446
 20
-21.451321212
 10
0.497730438
 20
-21.3895410662
 10
0.4760409718
 20
-21.3274170394
 10
0.4502211578
 20
-21.2652741051
 10
0.4211380058
 20
-21.2052285602
 10
0.3888296687
 20
-21.1476032395
 10
0.3532579936
 20
-21.0920753083
 10
0.3151755327
 20
-21.0397925594
 10
0.274395299
 20
-20.9906620108
 10
0.2311042795
 20
-20.9447766446
 10
0.1866159869
 20
-20.9035632
 10
0.141368259
 20
-20.8674972569
 10
0.0949232581
 20
-20.8361032354
 10
0.0472809842
 20
-20.8093811355
  0
LWPOLYLINE
  5
50D
100
AcDbEntity
  8
RACCORDO
100
AcDbPolyline
 62
250
  6
CONTINUOUS
 90
4
 70
0
 10
11.1697912806
 20
-16.5021465951
 10
11.184939279
 20
-16.493675298
 10
11.1999697101
 20
-16.4843099144
 10
11.2145792106
 20
-16.4742119011
  0
LWPOLYLINE
  5
50E
100
AcDbEntity
  8
RACCORDO
100
AcDbPolyline
 62
250
  6
CONTINUOUS
 90
5
 70
0
 10
11.4205337576
 20
-16.3249473994
 10
11.4393702729
 20
-16.3145871915
 10
11.4578123897
 20
-16.3035989543
 10
11.4758464127
 20
-16.2919908478
 10
11.4951013516
 20
-16.2785852665
  0
LWPOLYLINE
  5
50F
100
AcDbEntity
  8
RACCORDO
100
AcDbPolyline
 62
250
  6
CONTINUOUS
 90
5
 70
0
 10
11.2145792106
 20
-16.4742119011
 10
11.2334157258
 20
-16.4638516932
 10
11.2518578425
 20
-16.4528634561
 10
11.2698918654
 20
-16.4412553497
 10
11.2891468046
 20
-16.4278497682
  0
LWPOLYLINE
  5
510
100
AcDbEntity
  8
RACCORDO
100
AcDbPolyline
 62
250
  6
CONTINUOUS
 90
29
 70
0
 10
11.8346842332
 20
-15.3074643004
 10
11.8533453717
 20
-15.2975349574
 10
11.8714584667
 20
-15.2873550595
 10
11.8890100672
 20
-15.2769321662
 10
11.9059871394
 20
-15.2662740177
 10
11.9223770759
 20
-15.2553885288
 10
11.9381677056
 20
-15.244283783
 10
11.9533473022
 20
-15.2329680269
 10
11.9679045932
 20
-15.2214496636
 10
11.9818287684
 20
-15.2097372467
 10
11.9951094875
 20
-15.1978394738
 10
12.0077368883
 20
-15.1857651804
 10
12.0197015936
 20
-15.1735233329
 10
12.0309947182
 20
-15.1611230221
 10
12.0416078759
 20
-15.1485734565
 10
12.0515331853
 20
-15.1358839557
 10
12.0607632758
 20
-15.1230639427
 10
12.0692912931
 20
-15.1101229379
 10
12.0771109041
 20
-15.0970705514
 10
12.0842163021
 20
-15.0839164758
 10
12.0906022105
 20
-15.0706704795
 10
12.0962638872
 20
-15.0573423991
 10
12.1011971276
 20
-15.043942132
 10
12.1053982684
 20
-15.0304796293
 10
12.1088641898
 20
-15.0169648884
 10
12.111592318
 20
-15.0034079454
 10
12.113580627
 20
-14.9898188678
 10
12.1148276404
 20
-14.9762077468
 10
12.115332432
 20
-14.9625846902
  0
LINE
  5
511
100
AcDbEntity
  8
RACCORDO
100
AcDbLine
 62
250
  6
CONTINUOUS
 10
11.2145792106
 20
-16.4742119011
 11
10.2897351162
 21
-16.9632846927
  0
LINE
  5
512
100
AcDbEntity
  8
RACCORDO
100
AcDbLine
 62
7
  6
CONTINUOUS
 10
11.1697912806
 20
-16.5021465951
 11
10.2680430139
 21
-16.9790059326
  0
LINE
  5
513
100
AcDbEntity
  8
RACCORDO
100
AcDbLine
 62
250
  6
CONTINUOUS
 10
4.0087561053
 20
-19.4299873617
 11
11.8346842332
 21
-15.3074643004
  0
LINE
  5
514
100
AcDbEntity
  8
RACCORDO
100
AcDbLine
 62
250
  6
CONTINUOUS
 10
3.5575731442
 20
-20.4669783418
 11
11.4205337576
 21
-16.3249473994
  0
LINE
  5
515
100
AcDbEntity
  8
DRAFT
100
AcDbLine
 62
7
  6
CONTINUOUS
 10
3.2522742439
 20
-20.8761600001
 11
9.2065398466
 21
-17.748324909
  0
LINE
  5
516
100
AcDbEntity
  8
ASSI
100
AcDbLine
 62
7
  6
CONTINUOUS
 10
7.6301450188
 20
-18.8306872912
 11
3.2522742439
 21
-21.0904647124
  0
LINE
  5
517
100
AcDbEntity
  8
ASSI
100
AcDbLine
 62
7
  6
CONTINUOUS
 10
3.9470384303
 20
-20.163339
 11
3.2522742439
 21
-20.5186353449
  0
LINE
  5
518
100
AcDbEntity
  8
ASSI
100
AcDbLine
 62
7
  6
CONTINUOUS
 10
8.8214033388
 20
-18.1081362437
 11
3.2522742439
 21
-20.9561402865
  0
LINE
  5
519
100
AcDbEntity
  8
DRAFT
100
AcDbLine
 62
7
  6
CONTINUOUS
 10
0.3551179961
 20
-22.0442326663
 11
0.0692048179
 21
-22.1793838266
  0
LWPOLYLINE
  5
51A
100
AcDbEntity
  8
ASSI
100
AcDbPolyline
 62
7
  6
CONTINUOUS
 90
3
 70
0
 10
4.8563345095
 20
21.1245820915
 10
4.7988105194
 20
21.1099728834
 10
4.7409823445
 20
21.0899022572
  0
LWPOLYLINE
  5
51B
100
AcDbEntity
  8
ASSI
100
AcDbPolyline
 62
7
  6
CONTINUOUS
 90
5
 70
0
 10
1.4503355126
 20
20.4681152901
 10
1.4091123701
 20
20.4660044588
 10
1.3680085791
 20
20.4604542438
 10
1.3288754223
 20
20.451666434
 10
1.2921103059
 20
20.4398675689
  0
LWPOLYLINE
  5
51C
100
AcDbEntity
  8
ASSI
100
AcDbPolyline
 62
7
  6
CONTINUOUS
 90
4
 70
0
 10
-4.6519361539
 20
19.5203955694
 10
-4.6300481282
 20
19.5185470357
 10
-4.6073737483
 20
19.5127313054
 10
-4.5842953565
 20
19.503050678
  0
LWPOLYLINE
  5
51D
100
AcDbEntity
  8
ASSI
100
AcDbPolyline
 62
7
  6
CONTINUOUS
 90
4
 70
0
 10
-8.3642467552
 20
21.37655087
 10
-8.3423587295
 20
21.3747023363
 10
-8.3196843495
 20
21.3688866061
 10
-8.2966059577
 20
21.3592059786
  0
LWPOLYLINE
  5
51E
100
AcDbEntity
  8
ASSI
100
AcDbPolyline
 62
250
  6
CONTINUOUS
 90
12
 70
0
 10
-12.2375923766
 20
21.3323258387
 10
-12.2284942113
 20
21.3307620103
 10
-12.2083529379
 20
21.3298037136
 10
-12.1880041612
 20
21.3321986264
 10
-12.1677922034
 20
21.3379062219
 10
-12.1480590727
 20
21.3468299184
 10
-12.1291386735
 20
21.3588187138
 10
-12.1113511546
 20
21.3736697434
 10
-12.0949974949
 20
21.3911317124
 10
-12.0803544118
 20
21.4109091465
 10
-12.0676696791
 20
21.4326673909
 10
-12.0571579322
 20
21.4560382746
  0
LWPOLYLINE
  5
51F
100
AcDbEntity
  8
ASSI
100
AcDbPolyline
 62
7
  6
CONTINUOUS
 90
5
 70
0
 10
1.6127333655
 20
20.4425879868
 10
1.5741306983
 20
20.4539887652
 10
1.5338541692
 20
20.4620934028
 10
1.4918981145
 20
20.4668538907
 10
1.4503355126
 20
20.4681152901
  0
LWPOLYLINE
  5
520
100
AcDbEntity
  8
ASSI
100
AcDbPolyline
 62
7
  6
CONTINUOUS
 90
8
 70
0
 10
-12.042844997
 20
24.2466951208
 10
-12.0640733431
 20
24.2542566478
 10
-12.0861156079
 20
24.2596353309
 10
-12.1087422692
 20
24.2627389389
 10
-12.1318013724
 20
24.2635015018
 10
-12.1550633871
 20
24.2618610118
 10
-12.1781855735
 20
24.2578078883
 10
-12.2009090491
 20
24.2513759345
  0
LWPOLYLINE
  5
521
100
AcDbEntity
  8
ASSI
100
AcDbPolyline
 62
250
  6
CONTINUOUS
 90
6
 70
0
 10
-4.2471349417
 20
23.2293858887
 10
-4.269824857
 20
23.2392471116
 10
-4.2921794595
 20
23.2452108025
 10
-4.3138164041
 20
23.2471749605
 10
-4.3343656198
 20
23.2451059913
 10
-4.3550397966
 20
23.2383343159
  0
LINE
  5
522
100
AcDbEntity
  8
ASSI
100
AcDbLine
 62
7
  6
CONTINUOUS
 10
2.2317988609
 20
19.8621876809
 11
1.835943611
 21
20.0601153058
  0
LINE
  5
523
100
AcDbEntity
  8
ASSI
100
AcDbLine
 62
7
  6
CONTINUOUS
 10
1.1801688872
 20
20.3880026677
 11
-1.367174886
 21
21.6616745543
  0
LINE
  5
524
100
AcDbEntity
  8
ASSI
100
AcDbLine
 62
7
  6
CONTINUOUS
 10
3.2016940028
 20
20.3549950209
 11
-0.7577171195
 21
22.334700582
  0
LINE
  5
525
100
AcDbEntity
  8
ASSI
100
AcDbLine
 62
7
  6
CONTINUOUS
 10
0.918440714
 20
22.4656827249
 11
4.1916225022
 21
20.8290918308
  0
LINE
  5
526
100
AcDbEntity
  8
DRAFT
100
AcDbLine
 62
7
  6
CONTINUOUS
 10
8.7285027043
 20
18.6039529999
 11
9.2065398466
 21
18.3649344288
  0
LINE
  5
527
100
AcDbEntity
  8
0
100
AcDbLine
 62
7
  6
CONTINUOUS
 10
2.8826413357
 20
22.7896826594
 11
3.080031991
 21
22.6073890795
  0
LWPOLYLINE
  5
528
100
AcDbEntity
  8
RACCORDO
100
AcDbPolyline
 62
250
  6
CONTINUOUS
 90
57
 70
0
 10
18.8545570411
 20
4.4652190023
 10
18.8628227262
 20
4.4388612952
 10
18.875002225
 20
4.396710331
 10
18.8864433162
 20
4.3535495994
 10
18.897124519
 20
4.3094072124
 10
18.9069691714
 20
4.2643668032
 10
18.9159612781
 20
4.2184493757
 10
18.9240934877
 20
4.1716334114
 10
18.9313051613
 20
4.1239410141
 10
18.9376021693
 20
4.0751165684
 10
18.9429517053
 20
4.0254156664
 10
18.9472543207
 20
3.975637866
 10
18.9504834107
 20
3.9258175867
 10
18.952679787
 20
3.8759421454
 10
18.9538795991
 20
3.8267571622
 10
18.9540781686
 20
3.778275083
 10
18.9533257714
 20
3.7305150837
 10
18.9517708983
 20
3.6842450127
 10
18.9494450072
 20
3.6396756942
 10
18.9463903155
 20
3.5966320377
 10
18.9427860982
 20
3.555307889
 10
18.9386886002
 20
3.5158668237
 10
18.9341108399
 20
3.4781726761
 10
18.9291617103
 20
3.4419674542
 10
18.9238829875
 20
3.407272519
 10
18.9182828763
 20
3.3740835021
 10
18.9124083197
 20
3.3421001919
 10
18.9062809737
 20
3.311288465
 10
18.8999141998
 20
3.2816927566
 10
18.8933341535
 20
3.253128347
 10
18.8865444611
 20
3.2255410979
 10
18.8795678103
 20
3.1989918043
 10
18.8724551497
 20
3.1734671632
 10
18.865219652
 20
3.1489780681
 10
18.8578709379
 20
3.1255186336
 10
18.8504527769
 20
3.1030500055
 10
18.8429914379
 20
3.0816147328
 10
18.8354793292
 20
3.0611739707
 10
18.8279067752
 20
3.0415662638
 10
18.8202808596
 20
3.022777777
 10
18.8126077507
 20
3.0048247209
 10
18.8048737746
 20
2.9875901961
 10
18.7970669528
 20
2.9710364858
 10
18.7892090153
 20
2.9552029273
 10
18.7813355225
 20
2.9400880039
 10
18.773434424
 20
2.9256782844
 10
18.7655257217
 20
2.9119886169
 10
18.7576924758
 20
2.8990599509
 10
18.7499559162
 20
2.8869334644
 10
18.7423011392
 20
2.8755693938
 10
18.7347561842
 20
2.864887256
 10
18.7273499466
 20
2.854915603
 10
18.7200575955
 20
2.8456270229
 10
18.7128255305
 20
2.8368568719
 10
18.7056364906
 20
2.82855047
 10
18.6985099644
 20
2.8207632478
 10
18.6914469116
 20
2.813495586
  0
LWPOLYLINE
  5
529
100
AcDbEntity
  8
ASSI
100
AcDbPolyline
 62
7
  6
CONTINUOUS
 90
10
 70
0
 10
2.6553723169
 20
-25.5195745377
 10
2.677611956
 20
-25.5042131571
 10
2.6984579158
 20
-25.4862094024
 10
2.7175964521
 20
-25.4657660514
 10
2.7343190211
 20
-25.4437569236
 10
2.7489275248
 20
-25.4199173349
 10
2.761355155
 20
-25.3941586532
 10
2.770962697
 20
-25.3677590645
 10
2.7777544036
 20
-25.3410398247
 10
2.7818437752
 20
-25.3132609992
  0
LWPOLYLINE
  5
52A
100
AcDbEntity
  8
ASSI
100
AcDbPolyline
 62
7
  6
CONTINUOUS
 90
4
 70
0
 10
-0.6135896206
 20
-25.5768990394
 10
-0.6629624688
 20
-25.6094420964
 10
-0.6848060798
 20
-25.6244951627
 10
-0.7044650101
 20
-25.6390432086
  0
LWPOLYLINE
  5
52B
100
AcDbEntity
  8
ASSI
100
AcDbPolyline
 62
7
  6
CONTINUOUS
 90
5
 70
0
 10
2.1187049532
 20
-25.8095371832
 10
2.1271888924
 20
-25.8042038621
 10
2.1393829046
 20
-25.7932704071
 10
2.1496574393
 20
-25.7795727806
 10
2.1578395715
 20
-25.7633443446
  0
LWPOLYLINE
  5
52C
100
AcDbEntity
  8
ASSI
100
AcDbPolyline
 62
7
  6
CONTINUOUS
 90
6
 70
0
 10
-0.4629835536
 20
-25.4838955893
 10
-0.4952597048
 20
-25.5038242183
 10
-0.526986852
 20
-25.5228262623
 10
-0.5576228176
 20
-25.5410949316
 10
-0.5865337251
 20
-25.5591293681
 10
-0.6135896206
 20
-25.5768990394
  0
LWPOLYLINE
  5
52D
100
AcDbEntity
  8
ASSI
100
AcDbPolyline
 62
250
  6
CONTINUOUS
 90
7
 70
0
 10
2.7268377383
 20
-25.018774062
 10
2.7435679833
 20
-25.008907316
 10
2.7576109732
 20
-24.9980433207
 10
2.7687317336
 20
-24.9863638613
 10
2.7767441871
 20
-24.9740643675
 10
2.7815142673
 20
-24.9613506437
 10
2.7829697783
 20
-24.9493081552
  0
LINE
  5
52E
100
AcDbEntity
  8
ASSI
100
AcDbLine
 62
250
  6
CONTINUOUS
 10
2.5575100575
 20
-23.8184840126
 11
3.2522742439
 21
-23.443642795
  0
LINE
  5
52F
100
AcDbEntity
  8
ASSI
100
AcDbLine
 62
7
  6
CONTINUOUS
 10
2.4317699695
 20
-24.0867385273
 11
3.1276118151
 21
-23.7113158878
  0
LWPOLYLINE
  5
530
100
AcDbEntity
  8
RACCORDO
100
AcDbPolyline
 62
250
  6
CONTINUOUS
 90
10
 70
0
 10
-4.4155202096
 20
-26.8248617253
 10
-4.383709016
 20
-26.8094409721
 10
-4.3561836364
 20
-26.789843238
 10
-4.3312542794
 20
-26.7655133528
 10
-4.3091938199
 20
-26.7367176894
 10
-4.2902437153
 20
-26.703771491
 10
-4.2746113737
 20
-26.6670354244
 10
-4.2624678891
 20
-26.626911641
 10
-4.253946165
 20
-26.5838393779
 10
-4.2491394574
 20
-26.5382901384
  0
LINE
  5
531
100
AcDbEntity
  8
ASSI
100
AcDbLine
 62
7
  6
CONTINUOUS
 10
2.4317348675
 20
-24.0867574389
 11
2.4139940507
 21
-24.0951761609
  0
LINE
  5
532
100
AcDbEntity
  8
ASSI
100
AcDbLine
 62
250
  6
CONTINUOUS
 10
1.4690755216
 20
-24.2667810606
 11
2.5575100575
 21
-23.818417859
  0
LINE
  5
533
100
AcDbEntity
  8
RACCORDO
100
AcDbLine
 62
250
  6
CONTINUOUS
 10
-2.173402489
 20
21.135919456
 11
-2.1632199437
 21
21.1387680504
  0
LWPOLYLINE
  5
534
100
AcDbEntity
  8
RACCORDO
100
AcDbPolyline
 62
250
  6
CONTINUOUS
 90
3
 70
0
 10
-2.1632199437
 20
21.1387680504
 10
-2.1528480424
 20
21.1415738247
 10
-2.1475909761
 20
21.1429601236
  0
LWPOLYLINE
  5
535
100
AcDbEntity
  8
RACCORDO
100
AcDbPolyline
 62
250
  6
CONTINUOUS
 90
4
 70
0
 10
-2.1475909761
 20
21.1429601236
 10
-2.1369343808
 20
21.1456951088
 10
-2.1315348517
 20
21.1470437951
 10
-2.126087989
 20
21.1483784038
  0
LWPOLYLINE
  5
536
100
AcDbEntity
  8
RACCORDO
100
AcDbPolyline
 62
250
  6
CONTINUOUS
 90
128
 70
0
 10
-2.126087989
 20
21.1483784038
 10
-2.115052111
 20
21.1510054248
 10
-2.1094635297
 20
21.1522962313
 10
-2.1038277729
 20
21.1535714132
 10
-2.0981450406
 20
21.1548309299
 10
-2.0924162917
 20
21.1560730721
 10
-2.0866413646
 20
21.1572978621
 10
-2.0808204207
 20
21.1585052775
 10
-2.0749549032
 20
21.1596935419
 10
-2.0690449928
 20
21.1608626109
 10
-2.0630905088
 20
21.1620125288
 10
-2.0570923518
 20
21.1631416527
 10
-2.0510502901
 20
21.1642500197
 10
-2.0449645555
 20
21.1653375926
 10
-2.0388367439
 20
21.1664026174
 10
-2.032658537
 20
21.1674462682
 10
-2.0264382532
 20
21.1684673708
 10
-2.0202024428
 20
21.1694606486
 10
-2.0139546778
 20
21.1704251541
 10
-2.0076913864
 20
21.1713618348
 10
-2.0014284028
 20
21.1722682567
 10
-1.9951682197
 20
21.1731438587
 10
-1.9889083444
 20
21.1739892019
 10
-1.9826571333
 20
21.1748035354
 10
-1.9764156862
 20
21.1755866198
 10
-1.9701829032
 20
21.1763386945
 10
-1.9639638407
 20
21.1770597273
 10
-1.9577588744
 20
21.1777496207
 10
-1.9515676287
 20
21.1784084722
 10
-1.9453940323
 20
21.1790365419
 10
-1.9392384795
 20
21.1796337582
 10
-1.9331005761
 20
21.1802001927
 10
-1.926983069
 20
21.1807363197
 10
-1.920886234
 20
21.1812421022
 10
-1.9148097954
 20
21.1817175773
 10
-1.9087556727
 20
21.1821633306
 10
-1.9027234891
 20
21.182579372
 10
-1.8967136215
 20
21.1829656917
 10
-1.8907291204
 20
21.1833228453
 10
-1.8847701774
 20
21.183650799
 10
-1.8788366009
 20
21.1839495866
 10
-1.8729308669
 20
21.1842198654
 10
-1.8670531439
 20
21.1844616142
 10
-1.8612032633
 20
21.1846748542
 10
-1.8553831954
 20
21.1848603061
 10
-1.8495928614
 20
21.1850179596
 10
-1.8438323402
 20
21.185147825
 10
-1.8381038383
 20
21.185250654
 10
-1.832407333
 20
21.18532643
 10
-1.8267428471
 20
21.1853751696
 10
-1.8211126553
 20
21.1853976744
 10
-1.815516883
 20
21.1853939281
 10
-1.8099554047
 20
21.1853639471
 10
-1.8044301193
 20
21.1853085808
 10
-1.7989412189
 20
21.1852278228
 10
-1.7934885112
 20
21.1851216797
 10
-1.7880733179
 20
21.1849910204
 10
-1.7826956938
 20
21.1848358425
 10
-1.7773555841
 20
21.1846561485
 10
-1.772054146
 20
21.1844528144
 10
-1.7667910968
 20
21.1842258163
 10
-1.7615667191
 20
21.1839751781
 10
-1.7563830189
 20
21.1837018481
 10
-1.7512402058
 20
21.1834058209
 10
-1.7461380701
 20
21.1830871018
 10
-1.7410779881
 20
21.1827466555
 10
-1.7360601725
 20
21.1823844896
 10
-1.7310844106
 20
21.1820005965
 10
-1.7261514408
 20
21.1815959183
 10
-1.7212613465
 20
21.1811704611
 10
-1.7164140443
 20
21.1807242186
 10
-1.711610022
 20
21.1802581146
 10
-1.706849332
 20
21.1797721552
 10
-1.7021319219
 20
21.1792663341
 10
-1.6974581231
 20
21.1787415567
 10
-1.6928279919
 20
21.1781978316
 10
-1.6882414719
 20
21.1776351502
 10
-1.6836987247
 20
21.177054392
 10
-1.6791998293
 20
21.1764555717
 10
-1.6747447067
 20
21.1758386746
 10
-1.6703332805
 20
21.1752045367
 10
-1.6659656023
 20
21.1745531719
 10
-1.6616416205
 20
21.1738845662
 10
-1.6573611045
 20
21.1731995132
 10
-1.6531240917
 20
21.1724980267
 10
-1.6489305446
 20
21.1717800928
 10
-1.6447801205
 20
21.1710464634
 10
-1.6406728689
 20
21.1702971567
 10
-1.6366087401
 20
21.1695321544
 10
-1.6325872429
 20
21.1687521541
 10
-1.6286084138
 20
21.167957174
 10
-1.6246722163
 20
21.1671471958
 10
-1.6207780485
 20
21.166322862
 10
-1.6169259514
 20
21.1654841944
 10
-1.6131158841
 20
21.1646311712
 10
-1.609347122
 20
21.1637643698
 10
-1.6056197071
 20
21.1628838154
 10
-1.6019335973
 20
21.1619894828
 10
-1.5982879426
 20
21.1610818737
 10
-1.594682759
 20
21.1601610096
 10
-1.5911180305
 20
21.159226869
 10
-1.5875928579
 20
21.1582798884
 10
-1.5841072417
 20
21.1573200865
 10
-1.5806611815
 20
21.1563474446
 10
-1.5772537772
 20
21.1553623435
 10
-1.5738850387
 20
21.1543648058
 10
-1.5705549562
 20
21.1533548089
 10
-1.5672625998
 20
21.1523326663
 10
-1.5640079771
 20
21.1512984017
 10
-1.5607910806
 20
21.1502519914
 10
-1.5576109583
 20
21.149193678
 10
-1.5544676022
 20
21.1481234814
 10
-1.5513610204
 20
21.1470413817
 10
-1.5482902851
 20
21.145947561
 10
-1.5452553732
 20
21.1448420339
 10
-1.5422563078
 20
21.1437247858
 10
-1.5392922309
 20
21.1425959545
 10
-1.5363631069
 20
21.1414555493
 10
-1.5334689713
 20
21.140303561
 10
-1.5306090726
 20
21.1391401
 10
-1.527783385
 20
21.1379651766
 10
-1.5249919342
 20
21.1367787805
 10
-1.5222340456
 20
21.135580991
 10
-1.5195097067
 20
21.1343718263
 10
-1.51681893
 20
21.1331512681
 10
-1.5141610784
 20
21.1319193413
 10
-1.5115359394
 20
21.1306760539
 10
-1.5089437256
 20
21.1294213978
  0
LINE
  5
537
100
AcDbEntity
  8
ASSI
100
AcDbLine
 62
7
  6
CONTINUOUS
 10
-0.7577171195
 20
22.334700582
 11
0.8595553152
 21
22.4167455619
  0
LWPOLYLINE
  5
538
100
AcDbEntity
  8
RACCORDO
100
AcDbPolyline
 62
7
  6
CONTINUOUS
 90
9
 70
0
 10
12.6450447451
 20
19.8699588282
 10
12.6389280046
 20
19.8715583259
 10
12.6291577908
 20
19.8730911398
 10
12.6188315954
 20
19.8735065841
 10
12.6080443982
 20
19.8728048116
 10
12.5970811393
 20
19.8709862803
 10
12.5860367986
 20
19.8680511428
 10
12.5748163961
 20
19.8639992464
 10
12.5634199318
 20
19.8588305912
  0
LINE
  5
539
100
AcDbEntity
  8
0
100
AcDbLine
 62
7
  6
CONTINUOUS
 10
11.2519819464
 20
19.2031115984
 11
10.802237285
 21
19.3248594316
  0
LINE
  5
53A
100
AcDbEntity
  8
0
100
AcDbLine
 62
7
  6
CONTINUOUS
 10
3.8273607439
 20
22.9154221997
 11
3.3776160826
 21
23.0371700328
  0
LWPOLYLINE
  5
53B
100
AcDbEntity
  8
RACCORDO
100
AcDbPolyline
 62
7
  6
CONTINUOUS
 90
28
 70
0
 10
12.6450346089
 20
19.8699348757
 10
12.5363192623
 20
19.9012207215
 10
12.4214642194
 20
19.9305743985
 10
12.3042027954
 20
19.9569014687
 10
12.1848296306
 20
19.9801635605
 10
12.0636092589
 20
20.0003341133
 10
11.9407798895
 20
20.0173933886
 10
11.8166310921
 20
20.0313172301
 10
11.691447629
 20
20.0420878991
 10
11.5654671115
 20
20.0496952988
 10
11.4389807254
 20
20.0541286775
 10
11.3122780024
 20
20.0553832322
 10
11.185596257
 20
20.0534584591
 10
11.0592249872
 20
20.0483571241
 10
10.9334553966
 20
20.040087912
 10
10.8085257973
 20
20.0286600365
 10
10.6847269226
 20
20.0140902043
 10
10.5623421703
 20
19.9964001827
 10
10.4415937341
 20
19.9756060073
 10
10.322758813
 20
19.9517344073
 10
10.2061229896
 20
19.9248193555
 10
10.0919114165
 20
19.8948845882
 10
9.9803962383
 20
19.8619674843
 10
9.8718500419
 20
19.8261108495
 10
9.7664831503
 20
19.7873392319
 10
9.6645363679
 20
19.7456864236
 10
9.5662902305
 20
19.701205649
 10
9.4720061693
 20
19.6539482596
  0
LWPOLYLINE
  5
53C
100
AcDbEntity
  8
ASSI
100
AcDbPolyline
 62
7
  6
CONTINUOUS
 90
5
 70
0
 10
-4.0042007079
 20
23.2514742662
 10
-4.0418860203
 20
23.2629217023
 10
-4.0812549911
 20
23.2712124367
 10
-4.1223002523
 20
23.2762989797
 10
-4.1630829652
 20
23.2780115344
  0
LWPOLYLINE
  5
53D
100
AcDbEntity
  8
ASSI
100
AcDbPolyline
 62
250
  6
CONTINUOUS
 90
10
 70
0
 10
0.5878567007
 20
23.3951034353
 10
0.544795733
 20
23.4134452703
 10
0.5004371462
 20
23.4263405671
 10
0.4541549359
 20
23.4341518808
 10
0.4062012655
 20
23.4368372028
 10
0.3568358626
 20
23.4343832268
 10
0.3063311804
 20
23.4268020941
 10
0.2549635973
 20
23.4141351562
 10
0.2030119354
 20
23.3964528323
 10
0.150759774
 20
23.3738521287
  0
LWPOLYLINE
  5
53E
100
AcDbEntity
  8
ASSI
100
AcDbPolyline
 62
7
  6
CONTINUOUS
 90
8
 70
0
 10
5.2103719041
 20
21.083842814
 10
5.1772386064
 20
21.0989866723
 10
5.1286374707
 20
21.1161538939
 10
5.0774745545
 20
21.1284549513
 10
5.0241693936
 20
21.1356017621
 10
4.9693274106
 20
21.1373827943
 10
4.9132987979
 20
21.1337199423
 10
4.8563345095
 20
21.1245820915
  0
LINE
  5
53F
100
AcDbEntity
  8
ASSI
100
AcDbLine
 62
250
  6
CONTINUOUS
 10
-2.7025755084
 20
24.8005197699
 11
0.150759774
 21
23.3738521287
  0
LINE
  5
540
100
AcDbEntity
  8
ASSI
100
AcDbLine
 62
250
  6
CONTINUOUS
 10
4.7768097365
 20
21.0608271475
 11
7.6301450188
 21
19.6341595063
  0
LINE
  5
541
100
AcDbEntity
  8
ASSI
100
AcDbLine
 62
7
  6
CONTINUOUS
 10
5.2094572422
 20
21.0843031645
 11
8.2201441647
 21
19.5789597032
  0
LINE
  5
542
100
AcDbEntity
  8
0
100
AcDbLine
 62
7
  6
CONTINUOUS
 10
10.3072625382
 20
19.0773720582
 11
9.6002935981
 21
19.4308565282
  0
LINE
  5
543
100
AcDbEntity
  8
0
100
AcDbLine
 62
7
  6
CONTINUOUS
 10
2.8826413357
 20
22.7896826594
 11
2.1756723956
 21
23.1431671295
  0
LINE
  5
544
100
AcDbEntity
  8
0
100
AcDbLine
 62
7
  6
CONTINUOUS
 10
10.802237285
 20
19.3248594316
 11
10.0952683449
 21
19.6783439017
  0
LINE
  5
545
100
AcDbEntity
  8
0
100
AcDbLine
 62
7
  6
CONTINUOUS
 10
3.3776160826
 20
23.0371700328
 11
2.6706471425
 21
23.3906545029
  0
LINE
  5
546
100
AcDbEntity
  8
DRAFT
100
AcDbLine
 62
7
  6
CONTINUOUS
 10
9.4024593218
 20
20.3413692668
 11
9.8347735726
 21
20.1252121414
  0
LINE
  5
547
100
AcDbEntity
  8
SMUSSO
100
AcDbLine
 62
7
  6
CONTINUOUS
 10
2.4101523701
 20
23.8375227427
 11
1.9778381194
 21
24.053679868
  0
LINE
  5
548
100
AcDbEntity
  8
ASSI
100
AcDbLine
 62
7
  6
CONTINUOUS
 10
0.5879641815
 20
23.3950496738
 11
-2.4228288932
 21
24.9004462322
  0
LINE
  5
549
100
AcDbEntity
  8
RACCORDO
100
AcDbLine
 62
7
  6
CONTINUOUS
 10
6.0508067232
 20
23.161268763
 11
6.0430482946
 21
23.1658552351
  0
LWPOLYLINE
  5
54A
100
AcDbEntity
  8
RACCORDO
100
AcDbPolyline
 62
250
  6
CONTINUOUS
 90
4
 70
0
 10
6.0809923619
 20
23.1531875801
 10
6.1055153522
 20
23.1326832017
 10
6.1298811138
 20
23.1114049373
 10
6.1480789376
 20
23.0947711556
  0
LWPOLYLINE
  5
54B
100
AcDbEntity
  8
RACCORDO
100
AcDbPolyline
 62
250
  6
CONTINUOUS
 90
6
 70
0
 10
5.9873557627
 20
23.1468915716
 10
6.0102161921
 20
23.1273128382
 10
6.0327937304
 20
23.1069597916
 10
6.0550883776
 20
23.085832432
 10
6.0771338759
 20
23.0640025451
 10
6.0792945222
 20
23.0617583434
  0
LINE
  5
54C
100
AcDbEntity
  8
0
100
AcDbLine
 62
7
  6
CONTINUOUS
 10
10.3072625382
 20
19.0773720582
 11
10.5046532054
 21
18.8950784673
  0
LWPOLYLINE
  5
54D
100
AcDbEntity
  8
RACCORDO
100
AcDbPolyline
 62
250
  6
CONTINUOUS
 90
57
 70
0
 10
18.8545570411
 20
16.4164095405
 10
18.8638980862
 20
16.3864301951
 10
18.8760967181
 20
16.3438958086
 10
18.8875407431
 20
16.3003568474
 10
18.8982122083
 20
16.2558198136
 10
18.908044242
 20
16.2102973652
 10
18.9170372034
 20
16.1636835305
 10
18.9251615967
 20
16.1160806153
 10
18.932314178
 20
16.0678192263
 10
18.9384794054
 20
16.0188352548
 10
18.9436590046
 20
15.9692005401
 10
18.9477959797
 20
15.9194609904
 10
18.9508755039
 20
15.8695565174
 10
18.9529237938
 20
15.8195674401
 10
18.9539744316
 20
15.7702640571
 10
18.9540187019
 20
15.7216193878
 10
18.9531102911
 20
15.6736916165
 10
18.9514098545
 20
15.6273923023
 10
18.9489582376
 20
15.5830377173
 10
18.9457948111
 20
15.5403494023
 10
18.9420921635
 20
15.4993515221
 10
18.9379067633
 20
15.4601667363
 10
18.9332492534
 20
15.4226987698
 10
18.9282141959
 20
15.386639945
 10
18.922832718
 20
15.351958394
 10
18.9171206985
 20
15.3187019438
 10
18.9111392001
 20
15.2866791205
 10
18.9049071657
 20
15.255864399
 10
18.8984414675
 20
15.2262937207
 10
18.8917940444
 20
15.1978661135
 10
18.8849819252
 20
15.1705815696
 10
18.8780168441
 20
15.1444472875
 10
18.8709389387
 20
15.1193721564
 10
18.8637647187
 20
15.0953655438
 10
18.8565004776
 20
15.0724230764
 10
18.8491677503
 20
15.0504323385
 10
18.8417811709
 20
15.0294001798
 10
18.8343435164
 20
15.0093231726
 10
18.8268556035
 20
14.9900729168
 10
18.8193247603
 20
14.9716415784
 10
18.8117565006
 20
14.9540393039
 10
18.8041466391
 20
14.9371642422
 10
18.796492045
 20
14.9209964978
 10
18.7888054025
 20
14.9055575989
 10
18.7811048396
 20
14.890807611
 10
18.7733867127
 20
14.8767388346
 10
18.7656620983
 20
14.8633603015
 10
18.7579703498
 20
14.8506571072
 10
18.7503168565
 20
14.8386404676
 10
18.7427018942
 20
14.8273003633
 10
18.7351563732
 20
14.8165899846
 10
18.7276936058
 20
14.8065251038
 10
18.7203041807
 20
14.7970909842
 10
18.7129841365
 20
14.7881949356
 10
18.7057328414
 20
14.7798063024
 10
18.6985532768
 20
14.7719565429
 10
18.6914464395
 20
14.7646460551
  0
LWPOLYLINE
  5
54E
100
AcDbEntity
  8
ASSI
100
AcDbPolyline
 62
250
  6
CONTINUOUS
 90
7
 70
0
 10
2.7268377383
 20
-25.3587176568
 10
2.7435679535
 20
-25.3488509517
 10
2.7576109292
 20
-25.3379869929
 10
2.7687316888
 20
-25.3263075635
 10
2.7767441521
 20
-25.3140080919
 10
2.781514249
 20
-25.3012943813
 10
2.7829697783
 20
-25.2892518198
  0
LWPOLYLINE
  5
54F
100
AcDbEntity
  8
ASSI
100
AcDbPolyline
 62
250
  6
CONTINUOUS
 90
8
 70
0
 10
0.4916252729
 20
-26.561135805
 10
0.5042491828
 20
-26.5537311868
 10
0.516474199
 20
-26.5427837353
 10
0.5268399663
 20
-26.5290446405
 10
0.5351691944
 20
-26.5127488921
 10
0.5413194248
 20
-26.4941752076
 10
0.5451854677
 20
-26.4736412661
 10
0.5467012012
 20
-26.4514982733
  0
LINE
  5
550
100
AcDbEntity
  8
ASSI
100
AcDbLine
 62
7
  6
CONTINUOUS
 10
2.6437029183
 20
-25.5262884237
 11
2.6553723169
 21
-25.5195745377
  0
LWPOLYLINE
  5
551
100
AcDbEntity
  8
ASSI
100
AcDbPolyline
 62
250
  6
CONTINUOUS
 90
28
 70
0
 10
2.6927057944
 20
-25.4196846633
 10
2.6945022132
 20
-25.4186685831
 10
2.6963162791
 20
-25.4175110189
 10
2.698147992
 20
-25.4162119708
 10
2.7000082396
 20
-25.4147686113
 10
2.7018861342
 20
-25.4131837678
 10
2.7037490132
 20
-25.4114659228
 10
2.7055969622
 20
-25.4096101376
 10
2.7074298956
 20
-25.4076213509
 10
2.7092148935
 20
-25.4055228607
 10
2.7109501044
 20
-25.4033115911
 10
2.7126373797
 20
-25.4009906182
 10
2.7142493538
 20
-25.3985924683
 10
2.715782716
 20
-25.3961176918
 10
2.7172407769
 20
-25.3935657383
 10
2.7186061038
 20
-25.3909674834
 10
2.7198764862
 20
-25.388324337
 10
2.7210541344
 20
-25.3856348892
 10
2.7221282466
 20
-25.3829257858
 10
2.72309794
 20
-25.3801968173
 10
2.7239640972
 20
-25.3774481932
 10
2.724718565
 20
-25.3747071881
 10
2.7253603237
 20
-25.3719739323
 10
2.7258903929
 20
-25.3692482954
 10
2.7263036784
 20
-25.366557161
 10
2.7265984821
 20
-25.3639094904
 10
2.7267765021
 20
-25.3612963224
 10
2.7268377383
 20
-25.3587176568
  0
LINE
  5
552
100
AcDbEntity
  8
ASSI
100
AcDbLine
 62
250
  6
CONTINUOUS
 10
2.1686013278
 20
-25.7024510469
 11
2.6927057944
 21
-25.4196846633
  0
LINE
  5
553
100
AcDbEntity
  8
ASSI
100
AcDbLine
 62
7
  6
CONTINUOUS
 10
2.1187483876
 20
-25.8095137929
 11
2.6438025985
 21
-25.5262350005
  0
LINE
  5
554
100
AcDbEntity
  8
ASSI
100
AcDbLine
 62
7
  6
CONTINUOUS
 10
2.1145385166
 20
-25.8116206876
 11
2.1187049532
 21
-25.8095371832
  0
LINE
  5
555
100
AcDbEntity
  8
ASSI
100
AcDbLine
 62
250
  6
CONTINUOUS
 10
2.1686013278
 20
-25.7024510469
 11
0.5467012012
 21
-26.4514982733
  0
LINE
  5
556
100
AcDbEntity
  8
ASSI
100
AcDbLine
 62
7
  6
CONTINUOUS
 10
0.4913929743
 20
-26.5612426048
 11
2.1144827109
 21
-25.8116464605
  0
LWPOLYLINE
  5
557
100
AcDbEntity
  8
ASSI
100
AcDbPolyline
 62
250
  6
CONTINUOUS
 90
28
 70
0
 10
0.5467012012
 20
-26.4514982733
 10
0.5449370098
 20
-26.4522748021
 10
0.5431426415
 20
-26.4529404459
 10
0.5413180963
 20
-26.4534952046
 10
0.539452063
 20
-26.4539492374
 10
0.5375558528
 20
-26.4542923851
 10
0.5356633996
 20
-26.4544941701
 10
0.5337740836
 20
-26.4545500053
 10
0.5318885245
 20
-26.4544644779
 10
0.5300425155
 20
-26.4542208713
 10
0.5282370971
 20
-26.4538137962
 10
0.5264712287
 20
-26.453248642
 10
0.5247775821
 20
-26.4525248602
 10
0.5231594092
 20
-26.4516385088
 10
0.5216134581
 20
-26.4505935299
 10
0.5201626439
 20
-26.4494012012
 10
0.5188098591
 20
-26.448059925
 10
0.5175522113
 20
-26.4465712991
 10
0.5164039388
 20
-26.4449513942
 10
0.515366472
 20
-26.4431988825
 10
0.5144383805
 20
-26.4413150919
 10
0.5136296121
 20
-26.4393200766
 10
0.5129414882
 20
-26.4372125512
 10
0.5123726875
 20
-26.4349938011
 10
0.5119291938
 20
-26.4326877369
 10
0.5116130017
 20
-26.4303023288
 10
0.5114221166
 20
-26.4278296065
 10
0.5113565385
 20
-26.4252695701
  0
LINE
  5
558
100
AcDbEntity
  8
ASSI
100
AcDbLine
 62
7
  6
CONTINUOUS
 10
1.3266972994
 20
-24.5430705214
 11
2.4139463055
 21
-24.0951956799
  0
LINE
  5
559
100
AcDbEntity
  8
RACCORDO
100
AcDbLine
 62
250
  6
CONTINUOUS
 10
-0.893710084
 20
-25.2615806048
 11
-4.2491394574
 21
-26.5382901384
  0
LINE
  5
55A
100
AcDbEntity
  8
RACCORDO
100
AcDbLine
 62
7
  6
CONTINUOUS
 10
-4.4157813197
 20
-26.8249608672
 11
-1.0563645137
 21
-25.5467343608
  0
LWPOLYLINE
  5
55B
100
AcDbEntity
  8
RACCORDO
100
AcDbPolyline
 62
250
  6
CONTINUOUS
 90
22
 70
0
 10
-4.2491394574
 20
-26.5382901384
 10
-4.2855429624
 20
-26.550553729
 10
-4.321249524
 20
-26.5595095568
 10
-4.3562591422
 20
-26.5651576215
 10
-4.3907608882
 20
-26.5674992474
 10
-4.4245656908
 20
-26.5665331103
 10
-4.457106337
 20
-26.5622552382
 10
-4.488346835
 20
-26.5546081788
 10
-4.5183231765
 20
-26.5436493843
 10
-4.5465761233
 20
-26.529547239
 10
-4.5730790326
 20
-26.512251625
 10
-4.5978585472
 20
-26.4918126601
 10
-4.6205353567
 20
-26.4685490821
 10
-4.6410749456
 20
-26.4424185026
 10
-4.6595118294
 20
-26.41346331
 10
-4.6755702444
 20
-26.3821294067
 10
-4.6892140905
 20
-26.3483612852
 10
-4.7004794679
 20
-26.3122144529
 10
-4.7091989136
 20
-26.2743013346
 10
-4.7153166066
 20
-26.2348260718
 10
-4.718888368
 20
-26.193584523
 10
-4.7199141977
 20
-26.1505766881
  0
LWPOLYLINE
  5
55C
100
AcDbEntity
  8
ASSI
100
AcDbPolyline
 62
7
  6
CONTINUOUS
 90
5
 70
0
 10
-4.1630829652
 20
23.2780115344
 10
-4.2036705442
 20
23.2764690258
 10
-4.2442541892
 20
23.2716027825
 10
-4.2830217831
 20
23.2635946614
 10
-4.3195785602
 20
23.2526488175
  0
LWPOLYLINE
  5
55D
100
AcDbEntity
  8
RACCORDO
100
AcDbPolyline
 62
7
  6
CONTINUOUS
 90
9
 70
0
 10
5.2204235427
 20
23.5822694294
 10
5.2143068021
 20
23.5838689271
 10
5.2045365884
 20
23.585401741
 10
5.1942103929
 20
23.5858171854
 10
5.1834231958
 20
23.5851154129
 10
5.1724599368
 20
23.5832968815
 10
5.1614155961
 20
23.580361744
 10
5.1501951936
 20
23.5763098476
 10
5.1387987294
 20
23.5711411924
  0
LWPOLYLINE
  5
55E
100
AcDbEntity
  8
RACCORDO
100
AcDbPolyline
 62
7
  6
CONTINUOUS
 90
28
 70
0
 10
5.2204134064
 20
23.582245477
 10
5.1116980599
 20
23.6135313227
 10
4.9968430169
 20
23.6428849998
 10
4.8795815929
 20
23.6692120699
 10
4.7602084282
 20
23.6924741617
 10
4.6389880565
 20
23.7126447145
 10
4.516158687
 20
23.7297039898
 10
4.3920098896
 20
23.7436278313
 10
4.2668264265
 20
23.7543985003
 10
4.140845909
 20
23.7620059
 10
4.0143595229
 20
23.7664392787
 10
3.8876568
 20
23.7676938334
 10
3.7609750545
 20
23.7657690603
 10
3.6346037847
 20
23.7606677253
 10
3.5088341942
 20
23.7523985132
 10
3.3839045948
 20
23.7409706377
 10
3.2601057202
 20
23.7264008055
 10
3.1377209678
 20
23.7087107839
 10
3.0169725316
 20
23.6879166085
 10
2.8981376105
 20
23.6640450085
 10
2.7815017871
 20
23.6371299568
 10
2.6672902141
 20
23.6071951894
 10
2.5557750359
 20
23.5742780855
 10
2.4472288395
 20
23.5384214507
 10
2.3418619479
 20
23.4996498332
 10
2.2399151655
 20
23.4579970248
 10
2.141669028
 20
23.4135162503
 10
2.0473849668
 20
23.3662588608
  0
LWPOLYLINE
  5
55F
100
AcDbEntity
  8
RACCORDO
100
AcDbPolyline
 62
7
  6
CONTINUOUS
 90
3
 70
0
 10
12.6570854269
 20
19.8651410476
 10
12.6482372166
 20
19.8689082951
 10
12.6450447451
 20
19.8699588282
  0
LWPOLYLINE
  5
560
100
AcDbEntity
  8
RACCORDO
100
AcDbPolyline
 62
7
  6
CONTINUOUS
 90
3
 70
0
 10
5.2324642244
 20
23.5774516488
 10
5.2236160141
 20
23.5812188964
 10
5.2204235427
 20
23.5822694294
  0
LWPOLYLINE
  5
561
100
AcDbEntity
  8
DRAFT
100
AcDbPolyline
 62
7
  6
CONTINUOUS
 90
10
 70
0
 10
13.5777375082
 20
20.180387543
 10
13.6138431278
 20
20.1646798181
 10
13.6493777302
 20
20.1486713307
 10
13.6843413154
 20
20.1323620806
 10
13.7187440526
 20
20.1157469832
 10
13.7525757726
 20
20.0988311232
 10
13.7858059673
 20
20.0816297546
 10
13.8184244675
 20
20.064147962
 10
13.8504414425
 20
20.0463806608
 10
13.8818568922
 20
20.028327851
  0
LWPOLYLINE
  5
562
100
AcDbEntity
  8
DRAFT
100
AcDbPolyline
 62
7
  6
CONTINUOUS
 90
10
 70
0
 10
6.1531163058
 20
23.8926981442
 10
6.1892219254
 20
23.8769904194
 10
6.2247565278
 20
23.8609819319
 10
6.2597201129
 20
23.8446726818
 10
6.2941228501
 20
23.8280575844
 10
6.3279545701
 20
23.8111417244
 10
6.3611847649
 20
23.7939403558
 10
6.3938032651
 20
23.7764585632
 10
6.42582024
 20
23.7586912621
 10
6.4572356897
 20
23.7406384523
  0
LINE
  5
563
100
AcDbEntity
  8
DRAFT
100
AcDbLine
 62
7
  6
CONTINUOUS
 10
5.9695784647
 20
23.9688072122
 11
6.6011097858
 21
23.6530415516
  0
LINE
  5
564
100
AcDbEntity
  8
DRAFT
100
AcDbLine
 62
7
  6
CONTINUOUS
 10
13.3941996672
 20
20.2564966109
 11
14.0257309883
 21
19.9407309504
  0
LINE
  5
565
100
AcDbEntity
  8
DRAFT
100
AcDbLine
 62
7
  6
CONTINUOUS
 10
13.5777375082
 20
20.180387543
 11
13.8818568922
 21
20.028327851
  0
LINE
  5
566
100
AcDbEntity
  8
DRAFT
100
AcDbLine
 62
7
  6
CONTINUOUS
 10
6.4572356897
 20
23.7406384523
 11
6.1531163058
 21
23.8926981442
  0
LINE
  5
567
100
AcDbEntity
  8
RACCORDO
100
AcDbLine
 62
7
  6
CONTINUOUS
 10
6.0809923619
 20
23.1531875801
 11
6.173404523
 21
23.1069260716
  0
LINE
  5
568
100
AcDbEntity
  8
RACCORDO
100
AcDbLine
 62
7
  6
CONTINUOUS
 10
13.5056135643
 20
19.4408769788
 11
13.5980257255
 21
19.3946154704
  0
LWPOLYLINE
  5
569
100
AcDbEntity
  8
RACCORDO
100
AcDbPolyline
 62
7
  6
CONTINUOUS
 90
10
 70
0
 10
6.0430482946
 20
23.1658552351
 10
5.9455712409
 20
23.2159106667
 10
5.8499580391
 20
23.2648865424
 10
5.7562086891
 20
23.312782862
 10
5.6643376078
 20
23.3596010497
 10
5.5743303784
 20
23.4053396815
 10
5.4861437504
 20
23.4499944845
 10
5.399763307
 20
23.4935640346
 10
5.315203465
 20
23.5360497561
 10
5.2324642244
 20
23.5774516488
  0
LWPOLYLINE
  5
56A
100
AcDbEntity
  8
RACCORDO
100
AcDbPolyline
 62
7
  6
CONTINUOUS
 90
10
 70
0
 10
13.467669497
 20
19.4535446338
 10
13.3701924433
 20
19.5036000655
 10
13.2745792415
 20
19.5525759411
 10
13.1808298916
 20
19.6004722607
 10
13.0889588103
 20
19.6472904485
 10
12.9989515808
 20
19.6930290802
 10
12.9107649528
 20
19.7376838833
 10
12.8243845094
 20
19.7812534334
 10
12.7398246675
 20
19.8237391548
 10
12.6570854269
 20
19.8651410476
  0
LINE
  5
56B
100
AcDbEntity
  8
RACCORDO
100
AcDbLine
 62
7
  6
CONTINUOUS
 10
13.4754279257
 20
19.4489581617
 11
13.467669497
 21
19.4535446338
  0
LWPOLYLINE
  5
56C
100
AcDbEntity
  8
RACCORDO
100
AcDbPolyline
 62
250
  6
CONTINUOUS
 90
4
 70
0
 10
13.5056135643
 20
19.4408769788
 10
13.5301365546
 20
19.4203726005
 10
13.5545023163
 20
19.399094336
 10
13.5727001401
 20
19.3824605543
  0
LWPOLYLINE
  5
56D
100
AcDbEntity
  8
RACCORDO
100
AcDbPolyline
 62
250
  6
CONTINUOUS
 90
6
 70
0
 10
13.4119769652
 20
19.4345809704
 10
13.4348373946
 20
19.4150022369
 10
13.4574149329
 20
19.3946491904
 10
13.4797095801
 20
19.3735218308
 10
13.5017550784
 20
19.3516919439
 10
13.5039157247
 20
19.3494477421
  0
LWPOLYLINE
  5
56E
100
AcDbEntity
  8
RACCORDO
100
AcDbPolyline
 62
250
  6
CONTINUOUS
 90
26
 70
0
 10
17.9588730606
 20
20.7795137381
 10
17.9518237644
 20
20.7829467463
 10
17.9365710546
 20
20.7897671693
 10
17.9210023935
 20
20.7959148993
 10
17.9051293575
 20
20.8013853651
 10
17.8889637493
 20
20.8061744991
 10
17.8725175891
 20
20.8102787402
 10
17.8558031059
 20
20.8136950366
 10
17.8388327279
 20
20.8164208481
 10
17.8216190739
 20
20.8184541478
 10
17.8041749433
 20
20.8197934238
 10
17.7865133065
 20
20.8204376803
 10
17.7686472966
 20
20.8203864381
 10
17.7505902008
 20
20.8196397356
 10
17.7323554472
 20
20.8181981283
 10
17.7139565934
 20
20.8160626884
 10
17.6954073177
 20
20.8132350037
 10
17.6767213996
 20
20.8097171739
 10
17.6579127464
 20
20.8055118167
 10
17.6389953813
 20
20.8006220692
 10
17.6199833912
 20
20.7950515778
 10
17.6008908934
 20
20.7888044835
 10
17.5817320615
 20
20.7818854268
 10
17.5625211338
 20
20.7742995508
 10
17.5432724024
 20
20.7660525001
 10
17.52400018
 20
20.7571504085
  0
LWPOLYLINE
  5
56F
100
AcDbEntity
  8
RACCORDO
100
AcDbPolyline
 62
250
  6
CONTINUOUS
 90
24
 70
0
 10
4.3741320789
 20
27.3320844591
 10
4.3537133199
 20
27.3420678655
 10
4.3333013935
 20
27.3513052116
 10
4.3129135648
 20
27.3597886842
 10
4.2925670783
 20
27.3675111077
 10
4.2722791436
 20
27.3744659503
 10
4.2520669208
 20
27.3806473295
 10
4.2319475061
 20
27.3860500167
 10
4.2119379169
 20
27.3906694423
 10
4.192055078
 20
27.394501699
 10
4.1723158068
 20
27.3975435454
 10
4.1527367993
 20
27.3997924086
 10
4.133334616
 20
27.4012463864
 10
4.1141256679
 20
27.4019042491
 10
4.0951262023
 20
27.4017654402
 10
4.0763522896
 20
27.4008300772
 10
4.0578198093
 20
27.3990989511
 10
4.0395444367
 20
27.3965735262
 10
4.0215416295
 20
27.3932559386
 10
4.0038266151
 20
27.3891489944
 10
3.9864143773
 20
27.3842561673
 10
3.9693196439
 20
27.3785815959
 10
3.9525568741
 20
27.3721300799
 10
3.9352473284
 20
27.364487394
  0
LINE
  5
570
100
AcDbEntity
  8
DRAFT
100
AcDbLine
 62
7
  6
CONTINUOUS
 10
16.48331571
 20
20.7793991581
 11
13.3745001392
 21
22.3338069435
  0
LINE
  5
571
100
AcDbEntity
  8
DRAFT
100
AcDbLine
 62
7
  6
CONTINUOUS
 10
9.0586945075
 20
24.4917097594
 11
5.9498789368
 21
26.0461175447
  0
LINE
  5
572
100
AcDbEntity
  8
RACCORDO
100
AcDbLine
 62
250
  6
CONTINUOUS
 10
16.9916023221
 20
21.0233493375
 11
17.52400018
 21
20.7571504085
  0
LINE
  5
573
100
AcDbEntity
  8
RACCORDO
100
AcDbLine
 62
250
  6
CONTINUOUS
 10
12.3311511393
 20
23.3535749289
 11
9.5669811196
 21
24.7356599387
  0
LINE
  5
574
100
AcDbEntity
  8
RACCORDO
100
AcDbLine
 62
250
  6
CONTINUOUS
 10
4.9065299368
 20
27.0658855301
 11
4.3741320789
 21
27.3320844591
  0
LINE
  5
575
100
AcDbEntity
  8
RACCORDO
100
AcDbLine
 62
7
  6
CONTINUOUS
 10
17.3382343133
 20
21.0898331117
 11
17.9588730606
 21
20.7795137381
  0
LINE
  5
576
100
AcDbEntity
  8
RACCORDO
100
AcDbLine
 62
7
  6
CONTINUOUS
 10
12.8542649092
 20
23.3318178138
 11
9.9136131109
 21
24.802143713
  0
LINE
  5
577
100
AcDbEntity
  8
RACCORDO
100
AcDbLine
 62
7
  6
CONTINUOUS
 10
5.4296437067
 20
27.044128415
 11
4.8090049595
 21
27.3544477887
  0
LWPOLYLINE
  5
578
100
AcDbEntity
  8
RACCORDO
100
AcDbPolyline
 62
7
  6
CONTINUOUS
 90
104
 70
0
 10
18.8545570411
 20
18.2354819466
 10
18.8672783858
 20
18.2262271214
 10
18.9120999976
 20
18.1923587999
 10
18.9565838446
 20
18.1574838877
 10
19.0007415045
 20
18.1215991002
 10
19.0445720817
 20
18.084708909
 10
19.0880438341
 20
18.0468435754
 10
19.1311214546
 20
18.0080387387
 10
19.1737843753
 20
17.9683187168
 10
19.2160220821
 20
17.927698913
 10
19.2578145835
 20
17.8862039837
 10
19.2991407096
 20
17.8438607136
 10
19.3399914632
 20
17.8006839294
 10
19.380364585
 20
17.7566805528
 10
19.4202554087
 20
17.7118588704
 10
19.4596378812
 20
17.6662511937
 10
19.4984778066
 20
17.6199015716
 10
19.5367467049
 20
17.572850107
 10
19.5744453314
 20
17.5251018653
 10
19.6115830687
 20
17.4766487037
 10
19.648158771
 20
17.4274935643
 10
19.6841439666
 20
17.3776759899
 10
19.7195069179
 20
17.3272429499
 10
19.7542242056
 20
17.2762325078
 10
19.7882932286
 20
17.2246530331
 10
19.8217138005
 20
17.1725076683
 10
19.8544777721
 20
17.1198105591
 10
19.8865664697
 20
17.0665930031
 10
19.9179636067
 20
17.0128837599
 10
19.9486549508
 20
16.9587091633
 10
19.9786298844
 20
16.904089783
 10
20.0078779181
 20
16.8490461037
 10
20.036386522
 20
16.7936027968
 10
20.0641444589
 20
16.7377826181
 10
20.0911431412
 20
16.6816031758
 10
20.1173718023
 20
16.6250865811
 10
20.1428182851
 20
16.5682584943
 10
20.1674719913
 20
16.5111418227
 10
20.1913225105
 20
16.4537595196
 10
20.2143587131
 20
16.3961368959
 10
20.2365693822
 20
16.3383004174
 10
20.257941848
 20
16.2802817233
 10
20.2784691986
 20
16.2220978709
 10
20.2981485222
 20
16.1637532206
 10
20.3169753015
 20
16.1052541599
 10
20.3349334778
 20
16.0466428954
 10
20.3520039052
 20
15.9879773416
 10
20.368171776
 20
15.9293078884
 10
20.3834372327
 20
15.8706330653
 10
20.3978035048
 20
15.8119327357
 10
20.4112676957
 20
15.75320312
 10
20.4238137662
 20
15.6944969169
 10
20.4354255084
 20
15.6358782132
 10
20.4460924139
 20
15.577394102
 10
20.4558129597
 20
15.5190457212
 10
20.4645853442
 20
15.4608276709
 10
20.4724044777
 20
15.4027474256
 10
20.4792607033
 20
15.3448460429
 10
20.4851453723
 20
15.2871678722
 10
20.490052791
 20
15.2297392634
 10
20.4939779757
 20
15.172581315
 10
20.4969153783
 20
15.1157292462
 10
20.4988605273
 20
15.0592162031
 10
20.4998100248
 20
15.0030552355
 10
20.4997598918
 20
14.9472506898
 10
20.4987045785
 20
14.8917922606
 10
20.4966393918
 20
14.8367372293
 10
20.4935653752
 20
14.7821887846
 10
20.4894869496
 20
14.7282146047
 10
20.4844024793
 20
14.674787399
 10
20.4783051117
 20
14.6218665409
 10
20.4711828859
 20
14.5694096972
 10
20.46304033
 20
14.5175046785
 10
20.453899696
 20
14.4663025611
 10
20.4437794717
 20
14.4158809819
 10
20.4326750233
 20
14.3661944812
 10
20.4205784531
 20
14.3172060241
 10
20.4074789375
 20
14.2688859468
 10
20.3933911603
 20
14.2213023044
 10
20.378348062
 20
14.17456218
 10
20.3623663737
 20
14.128700698
 10
20.3454486309
 20
14.0837098251
 10
20.3276139167
 20
14.0396260548
 10
20.3088779006
 20
13.996471462
 10
20.2892480834
 20
13.9542478687
 10
20.2687327948
 20
13.9129604734
 10
20.2473239329
 20
13.8725854354
 10
20.2250516307
 20
13.8331725937
 10
20.2019888211
 20
13.794831575
 10
20.1781959194
 20
13.7576292019
 10
20.1536550933
 20
13.7215053765
 10
20.1283233921
 20
13.6863793571
 10
20.1021834677
 20
13.652221648
 10
20.0752803861
 20
13.6190858666
 10
20.0476627167
 20
13.5870197289
 10
20.0193655531
 20
13.5560472763
 10
19.990393431
 20
13.5261571616
 10
19.9607521479
 20
13.4973421443
 10
19.9304641061
 20
13.4696119981
 10
19.8995468623
 20
13.4429709432
 10
19.8679976488
 20
13.4174068723
 10
19.8358283485
 20
13.3929220588
 10
19.8030668458
 20
13.3695303351
 10
19.7697338276
 20
13.3472384898
  0
LWPOLYLINE
  5
579
100
AcDbEntity
  8
RACCORDO
100
AcDbPolyline
 62
250
  6
CONTINUOUS
 90
105
 70
0
 10
18.8545570411
 20
18.1452333083
 10
18.8690997856
 20
18.1335301012
 10
18.9111548458
 20
18.0985373964
 10
18.9529624769
 20
18.0625952225
 10
18.9945044124
 20
18.025719283
 10
19.0357625084
 20
17.9879256845
 10
19.0767187548
 20
17.9492309252
 10
19.1173552722
 20
17.9096518976
 10
19.1576543172
 20
17.869205883
 10
19.197598293
 20
17.8279105426
 10
19.2371697611
 20
17.7857839047
 10
19.2763514466
 20
17.7428443591
 10
19.3151262368
 20
17.6991106593
 10
19.3534771915
 20
17.6546019121
 10
19.3913875573
 20
17.609337562
 10
19.428840789
 20
17.5633373646
 10
19.465820548
 20
17.5166213871
 10
19.5023106983
 20
17.4692100121
 10
19.5382952944
 20
17.4211239558
 10
19.573758604
 20
17.3723842416
 10
19.6086851282
 20
17.3230121727
 10
19.6430596319
 20
17.2730292877
 10
19.6768671291
 20
17.2224573769
 10
19.7100928739
 20
17.1713184961
 10
19.7427223405
 20
17.1196349991
 10
19.7747412552
 20
17.0674294954
 10
19.8061356202
 20
17.0147248109
 10
19.8368917464
 20
16.9615439301
 10
19.8669962321
 20
16.9079100261
 10
19.8964359494
 20
16.8538464835
 10
19.9251980237
 20
16.7993769415
 10
19.9532698682
 20
16.7445252373
 10
19.9806392085
 20
16.6893153587
 10
20.0072941138
 20
16.6337713774
 10
20.0332229725
 20
16.5779174898
 10
20.0584144787
 20
16.5217780454
 10
20.0828576134
 20
16.465377595
 10
20.1065416784
 20
16.4087408237
 10
20.1294563179
 20
16.3518925014
 10
20.1515915441
 20
16.2948574121
 10
20.1729377142
 20
16.2376604016
 10
20.1934855199
 20
16.1803264063
 10
20.2132259732
 20
16.1228804987
 10
20.2321504352
 20
16.065347819
 10
20.2502506324
 20
16.0077535251
 10
20.267518675
 20
15.950122729
 10
20.2839470389
 20
15.892480542
 10
20.2995285583
 20
15.8348521001
 10
20.3142564187
 20
15.7772625998
 10
20.3281241771
 20
15.7197372351
 10
20.3411257726
 20
15.6623011534
 10
20.3532555366
 20
15.6049794044
 10
20.3645081813
 20
15.5477969767
 10
20.3748787966
 20
15.4907788144
 10
20.3843628486
 20
15.433949839
 10
20.3929561903
 20
15.3773348975
 10
20.4006550678
 20
15.320958729
 10
20.4074561231
 20
15.2648459311
 10
20.4133563896
 20
15.2090209812
 10
20.4183532915
 20
15.1535082427
 10
20.4224446449
 20
15.0983319679
 10
20.4256286623
 20
15.0435162637
 10
20.4279039533
 20
14.9890850713
 10
20.4292695252
 20
14.9350621513
 10
20.4297247819
 20
14.8814710881
 10
20.4292695247
 20
14.828335282
 10
20.4279039522
 20
14.7756779345
 10
20.4256286606
 20
14.7235220335
 10
20.4224446426
 20
14.6718903469
 10
20.4183532886
 20
14.6208054258
 10
20.4133563861
 20
14.5702895895
 10
20.4074561191
 20
14.5203649065
 10
20.4006550632
 20
14.4710531644
 10
20.3929561851
 20
14.4223758739
 10
20.3843628428
 20
14.3743542745
 10
20.3748787904
 20
14.3270093515
 10
20.3645081744
 20
14.280361805
 10
20.3532555292
 20
14.2344320224
 10
20.3411257646
 20
14.1892400378
 10
20.3281241685
 20
14.1448055522
 10
20.3142564097
 20
14.1011479464
 10
20.2995285487
 20
14.0582863072
 10
20.2839470288
 20
14.0162393852
 10
20.2675186644
 20
13.9750255626
 10
20.2502506211
 20
13.9346628095
 10
20.2321504233
 20
13.8951687133
 10
20.2132259609
 20
13.8565604963
 10
20.1934855072
 20
13.8188550429
 10
20.1729377011
 20
13.7820688539
 10
20.1515915304
 20
13.7462180141
 10
20.1294563036
 20
13.7113181512
 10
20.1065416634
 20
13.677384469
 10
20.082857598
 20
13.6444317636
 10
20.0584144631
 20
13.6124744489
 10
20.0332229566
 20
13.5815265114
 10
20.0072940972
 20
13.551601483
 10
19.9806391912
 20
13.5227124074
 10
19.9532698503
 20
13.4948718698
 10
19.9251980055
 20
13.4680920109
 10
19.8964359312
 20
13.4423845442
 10
19.8669962136
 20
13.4177607198
 10
19.8368917273
 20
13.394231302
 10
19.8061356003
 20
13.3718065478
 10
19.7747412347
 20
13.350496229
 10
19.7697338281
 20
13.3472384901
  0
LWPOLYLINE
  5
57A
100
AcDbEntity
  8
RACCORDO
100
AcDbPolyline
 62
250
  6
CONTINUOUS
 90
34
 70
0
 10
18.5125895978
 20
20.1524136543
 10
18.5116324627
 20
20.1536747275
 10
18.5097597326
 20
20.1550904888
 10
18.5072466701
 20
20.1561317818
 10
18.5040951416
 20
20.1567978332
 10
18.5003074872
 20
20.1570881483
 10
18.4958865198
 20
20.1570025116
 10
18.4908355225
 20
20.1565409867
 10
18.485158246
 20
20.1557039163
 10
18.4788589063
 20
20.154491922
 10
18.4719421815
 20
20.1529059039
 10
18.4644132078
 20
20.1509470397
 10
18.4562775764
 20
20.1486167841
 10
18.4475413287
 20
20.1459168676
 10
18.4382109525
 20
20.1428492951
 10
18.4282933765
 20
20.1394163446
 10
18.4177959654
 20
20.1356205655
 10
18.4067265149
 20
20.1314647765
 10
18.395093245
 20
20.1269520638
 10
18.3829047947
 20
20.1220857784
 10
18.3701702153
 20
20.1168695342
 10
18.3568989635
 20
20.1113072047
 10
18.3431008946
 20
20.1054029206
 10
18.3287862551
 20
20.0991610664
 10
18.3139656752
 20
20.0925862773
 10
18.2986501606
 20
20.0856834359
 10
18.2828510849
 20
20.0784576681
 10
18.2665801804
 20
20.07091434
 10
18.2498495301
 20
20.0630590532
 10
18.2326715582
 20
20.054897641
 10
18.2150590211
 20
20.0464361643
 10
18.197024998
 20
20.0376809066
 10
18.1785828812
 20
20.0286383695
 10
18.1597463658
 20
20.019315268
  0
LWPOLYLINE
  5
57B
100
AcDbEntity
  8
RACCORDO
100
AcDbPolyline
 62
250
  6
CONTINUOUS
 90
34
 70
0
 10
18.3767672764
 20
20.3866725067
 10
18.3758101242
 20
20.387933609
 10
18.373937394
 20
20.3893493703
 10
18.3714243314
 20
20.3903906632
 10
18.3682728028
 20
20.3910567145
 10
18.3644851483
 20
20.3913470295
 10
18.3600641808
 20
20.3912613928
 10
18.3550131833
 20
20.3907998678
 10
18.3493359068
 20
20.3899627974
 10
18.343036567
 20
20.388750803
 10
18.3361198421
 20
20.3871647848
 10
18.3285908684
 20
20.3852059206
 10
18.3204552369
 20
20.382875665
 10
18.3117189892
 20
20.3801757484
 10
18.3023886129
 20
20.3771081759
 10
18.2924710369
 20
20.3736752253
 10
18.2819736258
 20
20.3698794462
 10
18.2709041752
 20
20.3657236572
 10
18.2592709054
 20
20.3612109444
 10
18.2470824551
 20
20.3563446591
 10
18.2343478757
 20
20.3511284148
 10
18.2210766239
 20
20.3455660853
 10
18.2072785551
 20
20.3396618012
 10
18.1929639157
 20
20.333419947
 10
18.1781433358
 20
20.326845158
 10
18.1628278214
 20
20.3199423165
 10
18.1470287457
 20
20.3127165488
 10
18.1307578414
 20
20.3051732207
 10
18.1140271912
 20
20.297317934
 10
18.0968492194
 20
20.2891565219
 10
18.0792366824
 20
20.2806950453
 10
18.0612026595
 20
20.2719397876
 10
18.0427605429
 20
20.2628972505
 10
18.0239240276
 20
20.2535741492
  0
LWPOLYLINE
  5
57C
100
AcDbEntity
  8
RACCORDO
100
AcDbPolyline
 62
7
  6
CONTINUOUS
 90
23
 70
0
 10
18.3767672764
 20
20.3866725067
 10
18.3631871828
 20
20.4093961369
 10
18.3490141658
 20
20.431746501
 10
18.3342584494
 20
20.4537084873
 10
18.3189316773
 20
20.475265821
 10
18.3030438475
 20
20.4964054158
 10
18.2866029612
 20
20.5171170668
 10
18.269618028
 20
20.5373892505
 10
18.2521030603
 20
20.5572050503
 10
18.2340741797
 20
20.5765465822
 10
18.2155477903
 20
20.5953972014
 10
18.1965337257
 20
20.6137478176
 10
18.1770386496
 20
20.6315921002
 10
18.1570734806
 20
20.6489194795
 10
18.1366543114
 20
20.6657154232
 10
18.1157956604
 20
20.6819676283
 10
18.0945101346
 20
20.6976658337
 10
18.0728142975
 20
20.7127973989
 10
18.0507295097
 20
20.7273474847
 10
18.0282761458
 20
20.7413033451
 10
18.0054657224
 20
20.7546584994
 10
17.9823067529
 20
20.7674079911
 10
17.9588735882
 20
20.7795134743
  0
LWPOLYLINE
  5
57D
100
AcDbEntity
  8
RACCORDO
100
AcDbPolyline
 62
250
  6
CONTINUOUS
 90
28
 70
0
 10
18.0239240276
 20
20.2535741492
 10
18.0093145271
 20
20.2785684683
 10
17.9942840961
 20
20.3032299694
 10
17.9788454475
 20
20.3275377931
 10
17.96301164
 20
20.3514713791
 10
17.9467960662
 20
20.3750104838
 10
17.9302124416
 20
20.398135197
 10
17.9132747932
 20
20.4208259593
 10
17.8959974473
 20
20.4430635782
 10
17.8783950176
 20
20.4648292445
 10
17.8604823926
 20
20.4861045482
 10
17.8422747235
 20
20.506871494
 10
17.8237874107
 20
20.5271125167
 10
17.8050360913
 20
20.5468104958
 10
17.7860366257
 20
20.5659487702
 10
17.7668050843
 20
20.5845111523
 10
17.7473577335
 20
20.6024819415
 10
17.7277110225
 20
20.6198459375
 10
17.7078815691
 20
20.6365884534
 10
17.6878861455
 20
20.6526953279
 10
17.6677416645
 20
20.6681529375
 10
17.6474651647
 20
20.6829482075
 10
17.6270737967
 20
20.6970686238
 10
17.606584808
 20
20.7105022428
 10
17.5860155288
 20
20.7232377022
 10
17.5653833571
 20
20.7352642298
 10
17.5447057443
 20
20.7465716533
 10
17.52400018
 20
20.7571504085
  0
LINE
  5
57E
100
AcDbEntity
  8
RACCORDO
100
AcDbLine
 62
250
  6
CONTINUOUS
 10
18.0239240276
 20
20.2535741492
 11
18.1597463658
 21
20.019315268
  0
LINE
  5
57F
100
AcDbEntity
  8
RACCORDO
100
AcDbLine
 62
7
  6
CONTINUOUS
 10
18.3767672764
 20
20.3866725067
 11
18.5125896146
 21
20.1524136254
  0
LWPOLYLINE
  5
580
100
AcDbEntity
  8
RACCORDO
100
AcDbPolyline
 62
250
  6
CONTINUOUS
 90
37
 70
0
 10
18.1597463658
 20
20.019315268
 10
18.1814271735
 20
19.9815765965
 10
18.2026159737
 20
19.9435083491
 10
18.2233026423
 20
19.9051286181
 10
18.2434772225
 20
19.8664556951
 10
18.2631301555
 20
19.8275079129
 10
18.2822522755
 20
19.7883036316
 10
18.3008345055
 20
19.7488613733
 10
18.3188679039
 20
19.7091999957
 10
18.3363438941
 20
19.6693385323
 10
18.3532541199
 20
19.6292960024
 10
18.3695905309
 20
19.5890913798
 10
18.3853454215
 20
19.5487437634
 10
18.400511286
 20
19.5082723433
 10
18.4150808836
 20
19.4676963643
 10
18.4290473263
 20
19.4270350967
 10
18.4424039749
 20
19.3863078568
 10
18.4551444463
 20
19.3455340427
 10
18.4672626748
 20
19.3047330967
 10
18.478752902
 20
19.2639244357
 10
18.4896096537
 20
19.2231274722
 10
18.4998277464
 20
19.1823616493
 10
18.5094023301
 20
19.1416464006
 10
18.51832886
 20
19.1010010691
 10
18.5266030737
 20
19.0604449299
 10
18.5342210587
 20
19.0199972921
 10
18.5411792005
 20
18.9796774056
 10
18.5474741517
 20
18.9395043809
 10
18.5531029565
 20
18.8994972899
 10
18.5580629421
 20
18.859675239
 10
18.5623516692
 20
18.8200572737
 10
18.5659671322
 20
18.7806623789
 10
18.5689076572
 20
18.7415091958
 10
18.5711717825
 20
18.7026160991
 10
18.5727584287
 20
18.664001528
 10
18.5736669124
 20
18.625683973
 10
18.5738968414
 20
18.5876816934
  0
ELLIPSE
  5
581
100
AcDbEntity
  8
RACCORDO
100
AcDbEllipse
 62
7
  6
CONTINUOUS
 10
-1.2473719865
 20
-25.0844405607
 30
0.0
 11
-0.1999840611
 21
0.4586318226
 31
0.0
 40
0.6372798266
 41
-3.1718451134
 42
-2.2231487507
  0
ELLIPSE
  5
582
100
AcDbEntity
  8
RACCORDO
100
AcDbEllipse
 62
7
  6
CONTINUOUS
 10
0.3513224607
 20
13.0756353929
 30
0.0
 11
-0.1996736685
 21
0.4584064956
 31
0.0
 40
0.6381227599
 41
-2.2220345828
 42
-0.6519234887
  0
ELLIPSE
  5
583
100
AcDbEntity
  8
RACCORDO
100
AcDbEllipse
 62
7
  6
CONTINUOUS
 10
-14.4976775533
 20
20.5001353999
 30
0.0
 11
-0.1999840611
 21
0.4586318226
 31
0.0
 40
0.6372798266
 41
-0.6516671913
 42
0.029873806
  0
ELLIPSE
  5
584
100
AcDbEntity
  8
ASSI
100
AcDbEllipse
 62
7
  6
CONTINUOUS
 10
2.8986669972
 20
-23.2667072617
 30
0.0
 11
-0.2237009107
 21
0.4473351135
 31
0.0
 40
0.6121897086
 41
-3.1230684064
 42
-2.2557347926
  0
ELLIPSE
  5
585
100
AcDbEntity
  8
ASSI
100
AcDbEllipse
 62
7
  6
CONTINUOUS
 10
2.8986669972
 20
14.6348404448
 30
0.0
 11
-0.2235807756
 21
0.4472283268
 31
0.0
 40
0.6125552124
 41
-2.255296188
 42
-0.6848044477
  0
ELLIPSE
  5
586
100
AcDbEntity
  8
ASSI
100
AcDbEllipse
 62
7
  6
CONTINUOUS
 10
-0.5276883148
 20
14.8731162535
 30
0.0
 11
0.2497264901
 21
-0.0900037588
 31
0.0
 40
0.1298948903
 41
-2.3094133153
 42
-0.756070281
  0
ELLIPSE
  5
587
100
AcDbEntity
  8
ASSI
100
AcDbEllipse
 62
7
  6
CONTINUOUS
 10
-0.7212526009
 20
14.9698983965
 30
0.0
 11
0.2497264901
 21
-0.0900037588
 31
0.0
 40
0.1298948903
 41
-3.0936186356
 42
-2.3094133153
  0
ELLIPSE
  5
588
100
AcDbEntity
  8
ASSI
100
AcDbEllipse
 62
7
  6
CONTINUOUS
 10
-13.11418902
 20
21.166366606
 30
0.0
 11
0.2497264901
 21
-0.0900037588
 31
0.0
 40
0.1298948903
 41
-2.3094133153
 42
-0.756070281
  0
ELLIPSE
  5
589
100
AcDbEntity
  8
ASSI
100
AcDbEllipse
 62
7
  6
CONTINUOUS
 10
-13.307753306
 20
21.2631487491
 30
0.0
 11
0.2497264901
 21
-0.0900037588
 31
0.0
 40
0.1298948903
 41
-3.0936186356
 42
-2.3094133153
  0
ELLIPSE
  5
58A
100
AcDbEntity
  8
ASSI
100
AcDbEllipse
 62
7
  6
CONTINUOUS
 10
8.1493064425
 20
18.4963445756
 30
0.0
 11
0.4349639225
 21
0.9005141702
 31
0.0
 40
0.6016116119
 41
-0.8943064336
 42
-0.6381625531
  0
ELLIPSE
  5
58B
100
AcDbEntity
  8
ASSI
100
AcDbEllipse
 62
7
  6
CONTINUOUS
 10
8.1493064425
 20
-18.2367152141
 30
0.0
 11
0.4349639225
 21
0.9005141702
 31
0.0
 40
0.6016116119
 41
-1.150450314
 42
-0.9656973067
  0
ELLIPSE
  5
58C
100
AcDbEntity
  8
ASSI
100
AcDbEllipse
 62
7
  6
CONTINUOUS
 10
8.3249556941
 20
-18.3245398399
 30
0.0
 11
0.9927147821
 21
0.620457446
 31
0.0
 40
0.0764819879
 41
-2.3927159682
 42
-1.0955168143
  0
ELLIPSE
  5
58D
100
AcDbEntity
  8
ASSI
100
AcDbEllipse
 62
7
  6
CONTINUOUS
 10
-3.4220676135
 20
24.2820316036
 30
0.0
 11
1.004787277
 21
0.6140102217
 31
0.0
 40
0.0864918533
 41
0.0543763766
 42
0.7212730538
  0
ELLIPSE
  5
58E
100
AcDbEntity
  8
ASSI
100
AcDbEllipse
 62
7
  6
CONTINUOUS
 10
-5.4114498034
 20
20.3552321381
 30
0.0
 11
-0.1172693628
 21
0.2208586762
 31
0.0
 40
0.5994421146
 41
-2.2699607138
 42
-0.6994689735
  0
ELLIPSE
  5
58F
100
AcDbEntity
  8
ASSI
100
AcDbEllipse
 62
7
  6
CONTINUOUS
 10
3.7360944111
 20
71.2406403825
 30
0.0
 11
3.5378457856
 21
99.5794032239
 31
0.0
 40
0.0069684374
 41
4.1704972465
 42
4.1714623644
  0
ELLIPSE
  5
590
100
AcDbEntity
  8
ASSI
100
AcDbEllipse
 62
7
  6
CONTINUOUS
 10
-3.9031009395
 20
19.6010577062
 30
0.0
 11
-0.1174113663
 21
0.2209958577
 31
0.0
 40
0.5985429242
 41
-0.6989839728
 42
-0.0337839605
  0
ELLIPSE
  5
591
100
AcDbEntity
  8
ASSI
100
AcDbEllipse
 62
7
  6
CONTINUOUS
 10
1.5452599711
 20
20.0067504976
 30
0.0
 11
1.000203771
 21
-0.0143477891
 31
0.0
 40
0.4891226537
 41
-0.7775824994
 42
-0.0140546088
  0
ELLIPSE
  5
592
100
AcDbEntity
  8
0
100
AcDbEllipse
 62
7
  6
CONTINUOUS
 10
-1.2255597001
 20
14.2833535268
 30
0.0
 11
-0.0888806443
 21
0.1794588445
 31
0.0
 40
0.6133070172
 41
-2.0679935957
 42
-0.6816034901
  0
ELLIPSE
  5
593
100
AcDbEntity
  8
ASSI
100
AcDbEllipse
 62
7
  6
CONTINUOUS
 10
-2.0740393593
 20
74.1457072677
 30
0.0
 11
0.7093717925
 21
100.9935570733
 31
0.0
 40
0.0069790045
 41
-2.1156864167
 42
-2.111971229
  0
ELLIPSE
  5
594
100
AcDbEntity
  8
ASSI
100
AcDbEllipse
 62
7
  6
CONTINUOUS
 10
-2.0740393593
 20
21.3077576189
 30
0.0
 11
1.0
 21
-0.0
 31
0.0
 40
0.5003427338
 41
0.7857407797
 42
1.3334966153
  0
ELLIPSE
  5
595
100
AcDbEntity
  8
ASSI
100
AcDbEllipse
 62
7
  6
CONTINUOUS
 10
-2.0740393593
 20
21.8164001628
 30
0.0
 11
0.9999753489
 21
-0.014348771
 31
0.0
 40
0.4893460778
 41
1.5857281126
 42
2.3628734463
  0
ELLIPSE
  5
596
100
AcDbEntity
  8
ASSI
100
AcDbEllipse
 62
7
  6
CONTINUOUS
 10
1.5239649901
 20
19.5087554442
 30
0.0
 11
1.0006854676
 21
0.0
 31
0.0
 40
0.499657501
 41
0.4959893425
 42
0.7850555471
  0
ELLIPSE
  5
597
100
AcDbEntity
  8
ASSI
100
AcDbEllipse
 62
7
  6
CONTINUOUS
 10
-0.9272133379
 20
15.3482524609
 30
0.0
 11
0.249929385
 21
0.0111824824
 31
0.0
 40
0.5313301283
 41
3.1180383302
 42
3.9032222197
  0
ELLIPSE
  5
598
100
AcDbEntity
  8
ASSI
100
AcDbEllipse
 62
7
  6
CONTINUOUS
 10
1.0924859845
 20
14.3384027997
 30
0.0
 11
0.249929385
 21
0.0111824824
 31
0.0
 40
0.5313301283
 41
-2.3799630874
 42
-0.8266200532
  0
ELLIPSE
  5
599
100
AcDbEntity
  8
ASSI
100
AcDbEllipse
 62
7
  6
CONTINUOUS
 10
-11.4940147206
 20
20.6316531523
 30
0.0
 11
0.249929385
 21
0.0111824824
 31
0.0
 40
0.5313301283
 41
-2.3799630874
 42
-0.8266200532
  0
ELLIPSE
  5
59A
100
AcDbEntity
  8
ASSI
100
AcDbEllipse
 62
7
  6
CONTINUOUS
 10
-13.513714043
 20
21.6415028135
 30
0.0
 11
0.249929385
 21
0.0111824824
 31
0.0
 40
0.5313301283
 41
3.1180383322
 42
3.9032222197
  0
ELLIPSE
  5
59B
100
AcDbEntity
  8
ASSI
100
AcDbEllipse
 62
7
  6
CONTINUOUS
 10
1.0924859845
 20
-24.9036352295
 30
0.0
 11
0.220014872
 21
0.1791173313
 31
0.0
 40
0.6627826692
 41
-2.8510033574
 42
-2.6599685648
  0
ELLIPSE
  5
59C
100
AcDbEntity
  8
ASSI
100
AcDbEllipse
 62
7
  6
CONTINUOUS
 10
-0.5276883148
 20
-25.300654861
 30
0.0
 11
0.220014872
 21
0.1791173313
 31
0.0
 40
0.6627826692
 41
-1.8038058062
 42
-1.2976603231
  0
ELLIPSE
  5
59D
100
AcDbEntity
  8
ASSI
100
AcDbEllipse
 62
7
  6
CONTINUOUS
 10
-4.8280314851
 20
18.0135301214
 30
0.0
 11
0.199943508
 21
0.008945986
 31
0.0
 40
0.5313301283
 41
3.1180383302
 42
3.9032222197
  0
ELLIPSE
  5
59E
100
AcDbEntity
  8
ASSI
100
AcDbEllipse
 62
7
  6
CONTINUOUS
 10
-2.537383088
 20
16.8682059229
 30
0.0
 11
0.199943508
 21
0.008945986
 31
0.0
 40
0.5313301283
 41
-2.3799630874
 42
-0.8266200532
  0
ELLIPSE
  5
59F
100
AcDbEntity
  8
ASSI
100
AcDbEllipse
 62
7
  6
CONTINUOUS
 10
-6.2496936892
 20
18.7243612235
 30
0.0
 11
0.199943508
 21
0.008945986
 31
0.0
 40
0.5313301283
 41
-2.3799630874
 42
-0.8266200532
  0
ELLIPSE
  5
5A0
100
AcDbEntity
  8
ASSI
100
AcDbEllipse
 62
7
  6
CONTINUOUS
 10
-8.5403420863
 20
19.869685422
 30
0.0
 11
0.199943508
 21
0.008945986
 31
0.0
 40
0.5313301283
 41
3.1180383322
 42
3.9032222197
  0
ELLIPSE
  5
5A1
100
AcDbEntity
  8
ASSI
100
AcDbEllipse
 62
7
  6
CONTINUOUS
 10
-13.8901823847
 20
21.2080067268
 30
0.0
 11
-0.2236507175
 21
0.4481039483
 31
0.0
 40
0.6114248242
 41
-0.6832297371
 42
0.8861965936
  0
ELLIPSE
  5
5A2
100
AcDbEntity
  8
ASSI
100
AcDbEllipse
 62
7
  6
CONTINUOUS
 10
1.1154009356
 20
13.7052150667
 30
0.0
 11
-0.2231080361
 21
0.4476242326
 31
0.0
 40
0.6130677323
 41
-2.2534169372
 42
-0.6839906064
  0
ELLIPSE
  5
5A3
100
AcDbEntity
  8
ASSI
100
AcDbEllipse
 62
7
  6
CONTINUOUS
 10
1.1154009356
 20
-24.0893497279
 30
0.0
 11
-0.2236507175
 21
0.4481039483
 31
0.0
 40
0.6114248242
 41
2.4583629164
 42
4.0277892472
  0
ELLIPSE
  5
5A4
100
AcDbEntity
  8
0
100
AcDbEllipse
 62
7
  6
CONTINUOUS
 10
-11.549221749
 20
19.4451845512
 30
0.0
 11
-0.0892456481
 21
0.1797773143
 31
0.0
 40
0.6105754279
 41
5.6028239993
 42
6.9892141049
  0
ELLIPSE
  5
5A5
100
AcDbEntity
  8
ASSI
100
AcDbEllipse
 62
7
  6
CONTINUOUS
 10
13.9020897372
 20
25.9349356412
 30
0.0
 11
18.2927339069
 21
9.4748417608
 31
0.0
 40
0.0170707209
 41
-2.6536573066
 42
-2.3141694431
  0
ELLIPSE
  5
5A6
100
AcDbEntity
  8
ASSI
100
AcDbEllipse
 62
7
  6
CONTINUOUS
 10
13.9020897372
 20
25.9349356412
 30
0.0
 11
18.2927339069
 21
9.4748417608
 31
0.0
 40
0.0170707209
 41
2.2964861198
 42
2.6359739833
  0
ELLIPSE
  5
5A7
100
AcDbEntity
  8
ASSI
100
AcDbEllipse
 62
7
  6
CONTINUOUS
 10
0.7181124165
 20
22.4874670112
 30
0.0
 11
0.2002571891
 21
-0.0481060446
 31
0.0
 40
0.261363135
 41
-0.7257858084
 42
0.0669778862
  0
ELLIPSE
  5
5A8
100
AcDbEntity
  8
RACCORDO
100
AcDbEllipse
 62
7
  6
CONTINUOUS
 10
-0.8013925877
 20
-19.6487446361
 30
0.0
 11
-0.2685822327
 21
0.5369844567
 31
0.0
 40
0.6119614214
 41
-3.1700942144
 42
-2.2560086979
  0
ELLIPSE
  5
5A9
100
AcDbEntity
  8
ASSI
100
AcDbEllipse
 62
7
  6
CONTINUOUS
 10
-0.5276883148
 20
-24.6748218361
 30
0.0
 11
0.220014872
 21
0.1791173313
 31
0.0
 40
0.6627826692
 41
-2.8510033574
 42
-1.2976603231
  0
ELLIPSE
  5
5AA
100
AcDbEntity
  8
ASSI
100
AcDbEllipse
 62
7
  6
CONTINUOUS
 10
8.3249556941
 20
18.4085199498
 30
0.0
 11
-0.7356038977
 21
1.2035991204
 31
0.0
 40
0.5552491559
 41
4.9268361304
 42
6.2240352843
  0
ELLIPSE
  5
5AB
100
AcDbEntity
  8
DRAFT
100
AcDbEllipse
 62
7
  6
CONTINUOUS
 10
3.6888809074
 20
22.9642062028
 30
0.0
 11
2.7499924258
 21
-0.0130015067
 31
0.0
 40
0.4964289597
 41
2.3672681657
 42
2.9293761837
  0
ELLIPSE
  5
5AC
100
AcDbEntity
  8
DRAFT
100
AcDbEllipse
 62
7
  6
CONTINUOUS
 10
11.1135021098
 20
19.2518956016
 30
0.0
 11
2.7499924258
 21
-0.0130015067
 31
0.0
 40
0.4964289597
 41
2.3672681657
 42
2.9293761949
  0
ELLIPSE
  5
5AD
100
AcDbEntity
  8
DRAFT
100
AcDbEllipse
 62
7
  6
CONTINUOUS
 10
11.7852535519
 20
19.1499721517
 30
0.0
 11
2.7583876426
 21
-0.0130411979
 31
0.0
 40
0.4964289597
 41
0.8884696282
 42
2.3585415194
  0
ELLIPSE
  5
5AE
100
AcDbEntity
  8
DRAFT
100
AcDbEllipse
 62
7
  6
CONTINUOUS
 10
11.7852535519
 20
19.1499721517
 30
0.0
 11
2.7583876426
 21
-0.0130411979
 31
0.0
 40
0.4964289597
 41
0.4412294433
 42
0.6870207571
  0
ELLIPSE
  5
5AF
100
AcDbEntity
  8
DRAFT
100
AcDbEllipse
 62
7
  6
CONTINUOUS
 10
4.3606323495
 20
22.862282753
 30
0.0
 11
2.7583876426
 21
-0.0130411979
 31
0.0
 40
0.4964289597
 41
0.4412294433
 42
0.6870207571
  0
ELLIPSE
  5
5B0
100
AcDbEntity
  8
DRAFT
100
AcDbEllipse
 62
7
  6
CONTINUOUS
 10
4.3606323495
 20
22.862282753
 30
0.0
 11
2.7583876426
 21
-0.0130411979
 31
0.0
 40
0.4964289597
 41
0.8884696282
 42
2.3585415194
  0
ELLIPSE
  5
5B1
100
AcDbEntity
  8
RACCORDO
100
AcDbEllipse
 62
7
  6
CONTINUOUS
 10
16.570952256
 20
20.3554401516
 30
0.0
 11
0.79574694
 21
0.7129684349
 31
0.0
 40
0.2882345029
 41
0.1135239366
 42
0.7807533904
  0
ELLIPSE
  5
5B2
100
AcDbEntity
  8
RACCORDO
100
AcDbEllipse
 62
7
  6
CONTINUOUS
 10
9.1463310536
 20
24.0677507529
 30
0.0
 11
0.79574694
 21
0.7129684349
 31
0.0
 40
0.2882345029
 41
0.1135239366
 42
0.7807533904
  0
ELLIPSE
  5
5B3
100
AcDbEntity
  8
RACCORDO
100
AcDbEllipse
 62
7
  6
CONTINUOUS
 10
12.6735641854
 20
22.3041341869
 30
0.0
 11
0.4410298232
 21
0.8975092442
 31
0.0
 40
0.607010042
 41
-0.8902711325
 42
-0.7587130969
  0
ELLIPSE
  5
5B4
100
AcDbEntity
  8
RACCORDO
100
AcDbEllipse
 62
7
  6
CONTINUOUS
 10
5.248942983
 20
26.0164447882
 30
0.0
 11
0.4410298232
 21
0.8975092442
 31
0.0
 40
0.607010042
 41
-0.8902711325
 42
-0.7587130969
  0
ELLIPSE
  5
5B5
100
AcDbEntity
  8
RACCORDO
100
AcDbEllipse
 62
7
  6
CONTINUOUS
 10
5.302498573
 20
25.9896669931
 30
0.0
 11
-0.3106730325
 21
1.1082908718
 31
0.0
 40
0.6760995073
 41
4.9783291412
 42
6.4001141399
  0
ELLIPSE
  5
5B6
100
AcDbEntity
  8
RACCORDO
100
AcDbEllipse
 62
7
  6
CONTINUOUS
 10
12.7271197755
 20
22.2773563919
 30
0.0
 11
-0.3106730325
 21
1.1082908718
 31
0.0
 40
0.6760995073
 41
4.9783291412
 42
6.4001141399
  0
ELLIPSE
  5
5B7
100
AcDbEntity
  8
RACCORDO
100
AcDbEllipse
 62
7
  6
CONTINUOUS
 10
2.5572946331
 20
11.8657813035
 30
0.0
 11
-0.894612936
 21
1.7887945813
 31
0.0
 40
0.6124635976
 41
4.1145380117
 42
4.2145400133
  0
ELLIPSE
  5
5B8
100
AcDbEntity
  8
RACCORDO
100
AcDbEllipse
 62
7
  6
CONTINUOUS
 10
2.5572946331
 20
11.8657813035
 30
0.0
 11
-0.894612936
 21
1.7887945813
 31
0.0
 40
0.6124635976
 41
-1.6019535362
 42
-1.470288718
  0
ELLIPSE
  5
5B9
100
AcDbEntity
  8
RACCORDO
100
AcDbEllipse
 62
7
  6
CONTINUOUS
 10
2.5572946331
 20
-18.7420621939
 30
0.0
 11
-0.894811907
 21
1.788971565
 31
0.0
 40
0.6123121697
 41
-3.0410143285
 42
-2.9093495103
  0
ELLIPSE
  5
5BA
100
AcDbEntity
  8
RACCORDO
100
AcDbEllipse
 62
7
  6
CONTINUOUS
 10
2.5572946331
 20
-18.7420621939
 30
0.0
 11
-0.894811907
 21
1.788971565
 31
0.0
 40
0.6123121697
 41
-2.4426577527
 42
-2.3910229063
  0
ELLIPSE
  5
5BB
100
AcDbEntity
  8
0
100
AcDbEllipse
 62
7
  6
CONTINUOUS
 10
11.0899690216
 20
20.4791078371
 30
0.0
 11
3.3022643479
 21
-0.04629945
 31
0.0
 40
0.4892378494
 41
2.3616770883
 42
5.5059722822
  0
ELLIPSE
  5
5BC
100
AcDbEntity
  8
DRAFT
100
AcDbEllipse
 62
7
  6
CONTINUOUS
 10
11.7852535519
 20
21.1304602644
 30
0.0
 11
2.7583515655
 21
-1.4175703156
 31
0.0
 40
0.0109499087
 41
-0.8804952881
 42
-0.85781018
  0
ELLIPSE
  5
5BD
100
AcDbEntity
  8
DRAFT
100
AcDbEllipse
 62
7
  6
CONTINUOUS
 10
4.3606323495
 20
24.8427708656
 30
0.0
 11
2.7583515655
 21
-1.4175703156
 31
0.0
 40
0.0109499087
 41
-0.7017315251
 42
-0.679046417
  0
ELLIPSE
  5
5BE
100
AcDbEntity
  8
DRAFT
100
AcDbEllipse
 62
7
  6
CONTINUOUS
 10
4.3606323495
 20
23.2952954549
 30
0.0
 11
2.7583876426
 21
-0.0130411979
 31
0.0
 40
0.4964289597
 41
0.1877225706
 42
2.3585415194
  0
ELLIPSE
  5
5BF
100
AcDbEntity
  8
DRAFT
100
AcDbEllipse
 62
7
  6
CONTINUOUS
 10
11.7852535519
 20
19.5829848536
 30
0.0
 11
2.7583876426
 21
-0.0130411979
 31
0.0
 40
0.4964289597
 41
0.1877225706
 42
2.3585415194
  0
ELLIPSE
  5
5C0
100
AcDbEntity
  8
DRAFT
100
AcDbEllipse
 62
7
  6
CONTINUOUS
 10
4.3606323495
 20
24.8427708656
 30
0.0
 11
2.7583515655
 21
-1.4175703156
 31
0.0
 40
0.0109499087
 41
-0.8804952881
 42
-0.85781018
  0
ELLIPSE
  5
5C1
100
AcDbEntity
  8
DRAFT
100
AcDbEllipse
 62
7
  6
CONTINUOUS
 10
11.7852535519
 20
21.1304602644
 30
0.0
 11
2.7583515655
 21
-1.4175703156
 31
0.0
 40
0.0109499087
 41
-0.7017315251
 42
-0.679046417
  0
ELLIPSE
  5
5C2
100
AcDbEntity
  8
0
100
AcDbEllipse
 62
7
  6
CONTINUOUS
 10
3.6653478191
 20
24.1914184383
 30
0.0
 11
3.3022643479
 21
-0.04629945
 31
0.0
 40
0.4892378494
 41
2.3616770883
 42
5.5059722822
  0
ELLIPSE
  5
5C3
100
AcDbEntity
  8
RACCORDO
100
AcDbEllipse
 62
7
  6
CONTINUOUS
 10
-3.6809548681
 20
20.0215048245
 30
0.0
 11
1.2141619185
 21
0.9541526469
 31
0.0
 40
0.2329077568
 41
0.1095198182
 42
0.114024621
  0
ENDSEC
  0
SECTION
  2
OBJECTS
  0
DICTIONARY
  5
C
100
AcDbDictionary
280
0
281
1
  3
ACAD_GROUP
350
D
  3
ACAD_MLINESTYLE
350
17
  3
ACAD_LAYOUT
350
1A
  3
ACAD_PLOTSETTINGS
350
19
  3
ACAD_PLOTSTYLENAME
350
E
  0
DICTIONARY
  5
D
102
{ACAD_REACTORS
330
C
102
}
100
AcDbDictionary
280
0
281
1
  0
ACDBDICTIONARYWDFLT
  5
E
102
{ACAD_REACTORS
330
C
102
}
100
AcDbDictionary
281
1
  3
Normal
350
F
100
AcDbDictionaryWithDefault
340
F
  0
DICTIONARY
  5
17
102
{ACAD_REACTORS
330
C
102
}
100
AcDbDictionary
280
0
281
1
  3
Standard
350
18
  0
DICTIONARY
  5
19
102
{ACAD_REACTORS
330
C
102
}
100
AcDbDictionary
281
1
  0
DICTIONARY
  5
1A
102
{ACAD_REACTORS
330
C
102
}
100
AcDbDictionary
281
1
  3
Model
350
5C4
  3
Layout1
350
5C5
  0
ACDBPLACEHOLDER
  5
F
102
{ACAD_REACTORS
330
E
102
}
  0
MLINESTYLE
  5
18
102
{ACAD_REACTORS
330
17
102
}
100
AcDbMlineStyle
  2
STANDARD
 70
0
  3

 62
256
 51
90.0
 52
90.0
 71
2
 49
0.5
 62
256
  6
BYLAYER
 49
-0.5
 62
256
  6
BYLAYER
  0
LAYOUT
  5
5C4
102
{ACAD_REACTORS
330
1A
102
}
100
AcDbPlotSettings
  1

  2
none_device
  4
ISO_A4_(297.00_x_210.00_MM)
  6

 40
0.0
 41
0.0
 42
0.0
 43
0.0
 44
297.0
 45
210.0
 46
0.0
 47
0.0
 48
0.0
 49
0.0
140
0.0
141
0.0
142
1.0
143
1.0
 70
1024
 72
1
 73
0
 74
0
  7

 75
0
147
1.0
148
0.0
149
0.0
100
AcDbLayout
  1
Model
 70
0
 71
0
 10
0.0
 20
0.0
 11
297.0
 21
210.0
 12
0.0
 22
0.0
 32
0.0
 14
0.0
 24
0.0
 34
0.0
 15
0.0
 25
0.0
 35
0.0
146
0.0
 13
0.0
 23
0.0
 33
0.0
 16
1.0
 26
0.0
 36
0.0
 17
0.0
 27
1.0
 37
0.0
 76
0
330
221
345
0
346
0
  0
LAYOUT
  5
5C5
102
{ACAD_REACTORS
330
1A
102
}
100
AcDbPlotSettings
  1

  2
none_device
  4
ISO_A4_(297.00_x_210.00_MM)
  6

 40
0.0
 41
0.0
 42
0.0
 43
0.0
 44
297.0
 45
210.0
 46
0.0
 47
0.0
 48
0.0
 49
0.0
140
0.0
141
0.0
142
1.0
143
1.0
 70
0
 72
1
 73
0
 74
0
  7

 75
0
147
1.0
148
0.0
149
0.0
100
AcDbLayout
  1
Layout1
 70
0
 71
1
 10
0.0
 20
0.0
 11
297.0
 21
210.0
 12
0.0
 22
0.0
 32
0.0
 14
0.0
 24
0.0
 34
0.0
 15
0.0
 25
0.0
 35
0.0
146
0.0
 13
0.0
 23
0.0
 33
0.0
 16
1.0
 26
0.0
 36
0.0
 17
0.0
 27
1.0
 37
0.0
 76
0
330
222
345
0
346
0
  0
ENDSEC
  0
EOF
