  0
SECTION
  2
HEADER
  9
$ACADVER
  1
AC1024
  9
$DWGCODEPAGE
  3
ANSI_1252
  9
$EXTMAX
 10
297.0
 20
210.0
 30
0.0
  9
$EXTMIN
 10
0.0
 20
0.0
 30
0.0
  9
$LIMMIN
 10
0.0
 20
0.0
  9
$LIMMAX
 10
297.0
 20
210.0
  9
$VIEWCTR
 10
148.5
 20
105.0
  9
$VIEWSIZE
 40
210.0
  9
$CLAYER
  8
0
  9
$LTSCALE
 40
16.335
  9
$CELTYPE
  6
BYLAYER
  9
$DIMSCALE
 40
1.0
  9
$DIMASZ
 40
3.0
  9
$DIMEXO
 40
0.5
  9
$DIMDLI
 40
11.286
  9
$DIMEXE
 40
1.5
  9
$DIMCEN
 40
2.673
  9
$DIMLFAC
 40
1.0
  9
$DIMBLK
  1
_FILLED
  9
$DIMALT
 70
0
  9
$DIMALTF
 40
0.0393700787
  9
$DIMTXT
 40
3.0
  9
$DIMTOL
 70
1
  9
$DIMLIM
 70
0
  9
$DIMTFAC
 40
1.0
  9
$DIMTP
 40
0.01
  9
$DIMTM
 40
0.01
  9
$DIMGAP
 40
0.625
  9
$DIMDSEP
 70
44
  9
$AUNITS
 70
0
  9
$PDMODE
 70
3
  9
$PDSIZE
 40
3.0
  9
$HANDSEED
  5
262
  9
$TILEMODE
 70
1
  9
$MEASUREMENT
 70
1
  9
$INSUNITS
 70
4
  0
ENDSEC
  0
SECTION
  2
CLASSES
  0
CLASS
  1
ACDBDICTIONARYWDFLT
  2
AcDbDictionaryWithDefault
  3
AutoCAD 2000
 90
0
 91
1
280
0
281
0
  0
CLASS
  1
ACDBPLACEHOLDER
  2
AcDbPlaceHolder
  3
AutoCAD 2000
 90
0
 91
1
280
0
281
0
  0
CLASS
  1
LAYOUT
  2
AcDbLayout
  3
AutoCAD 2000
 90
0
 91
0
280
0
281
0
  0
ENDSEC
  0
SECTION
  2
TABLES
  0
TABLE
  2
VPORT
  5
8
100
AcDbSymbolTable
 70
2
  0
VPORT
  5
1F4
100
AcDbSymbolTableRecord
100
AcDbViewportTableRecord
  2
*ACTIVE
 70
0
 10
0.0
 20
0.0
 11
1.0
 21
1.0
 12
148.5
 22
105.0
 13
0.0
 23
0.0
 14
1.0
 24
1.0
 15
0.0
 25
0.0
 16
0.0
 26
0.0
 36
1.0
 17
0.0
 27
0.0
 37
0.0
 40
210.0
 41
1.4142857143
 42
50.0
 43
0.0
 44
0.0
 50
0.0
 51
0.0
 71
0
 72
100
 73
1
 74
1
 75
0
 76
0
 77
0
 78
0
  0
ENDTAB
  0
TABLE
  2
LTYPE
  5
5
100
AcDbSymbolTable
 70
6
  0
LTYPE
  5
14
100
AcDbSymbolTableRecord
100
AcDbLinetypeTableRecord
  2
BYBLOCK
 70
0
  3

 72
65
 73
0
 40
0.0
  0
LTYPE
  5
15
100
AcDbSymbolTableRecord
100
AcDbLinetypeTableRecord
  2
BYLAYER
 70
0
  3

 72
65
 73
0
 40
0.0
  0
LTYPE
  5
16
100
AcDbSymbolTableRecord
100
AcDbLinetypeTableRecord
  2
CONTINUOUS
 70
64
  3
Solid line
 72
65
 73
0
 40
0.0
  0
LTYPE
  5
1F5
100
AcDbSymbolTableRecord
100
AcDbLinetypeTableRecord
  2
CENTER
 70
64
  3
____ _ ____ _ ____ _ ____ _ ____ _ ____ _ ____
 72
65
 73
4
 40
0.6
 49
0.375
 74
0
 49
-0.075
 74
0
 49
0.075
 74
0
 49
-0.075
 74
0
  0
LTYPE
  5
1F6
100
AcDbSymbolTableRecord
100
AcDbLinetypeTableRecord
  2
HIDDEN
 70
64
  3
- - - - - - - - - - - - - - - - - - - -
 72
65
 73
2
 40
0.2
 49
0.1
 74
0
 49
-0.1
 74
0
  0
LTYPE
  5
1F7
100
AcDbSymbolTableRecord
100
AcDbLinetypeTableRecord
  2
PHANTOM
 70
64
  3
_____ _ _ _____ _ _ _____ _ _ _____
 72
65
 73
6
 40
0.8
 49
0.45
 74
0
 49
-0.05
 74
0
 49
0.1
 74
0
 49
-0.05
 74
0
 49
0.1
 74
0
 49
-0.05
 74
0
  0
LTYPE
  5
1F8
100
AcDbSymbolTableRecord
100
AcDbLinetypeTableRecord
  2
DOT
 70
64
  3
. . . . . . . . . . . . . . . . . . . .
 72
65
 73
2
 40
0.2
 49
0.1
 74
0
 49
-0.1
 74
0
  0
LTYPE
  5
1F9
100
AcDbSymbolTableRecord
100
AcDbLinetypeTableRecord
  2
DASHED
 70
64
  3
- - - - - - - - - - - - - - - - - - - -
 72
65
 73
2
 40
0.2
 49
0.1
 74
0
 49
-0.1
 74
0
  0
ENDTAB
  0
TABLE
  2
LAYER
  5
2
100
AcDbSymbolTable
 70
36
  0
LAYER
  5
10
100
AcDbSymbolTableRecord
100
AcDbLayerTableRecord
  2
0
 70
0
 62
7
  6
CONTINUOUS
370
-3
390
F
  0
LAYER
  5
1FA
100
AcDbSymbolTableRecord
100
AcDbLayerTableRecord
  2
DEFAULT_1
 70
0
 62
7
  6
CENTER
370
-3
390
F
  0
LAYER
  5
1FB
100
AcDbSymbolTableRecord
100
AcDbLayerTableRecord
  2
DEFAULT_2
 70
0
 62
7
  6
HIDDEN
370
-3
390
F
  0
LAYER
  5
1FC
100
AcDbSymbolTableRecord
100
AcDbLayerTableRecord
  2
DEFAULT_3
 70
0
 62
7
  6
PHANTOM
370
-3
390
F
  0
LAYER
  5
1FD
100
AcDbSymbolTableRecord
100
AcDbLayerTableRecord
  2
ASSI
 70
0
 62
7
  6
CONTINUOUS
370
-3
390
F
  0
LAYER
  5
1FE
100
AcDbSymbolTableRecord
100
AcDbLayerTableRecord
  2
COORDINATE
 70
0
 62
7
  6
CONTINUOUS
370
-3
390
F
  0
LAYER
  5
1FF
100
AcDbSymbolTableRecord
100
AcDbLayerTableRecord
  2
COPY_PUBLISH
 70
0
 62
7
  6
CONTINUOUS
370
-3
390
F
  0
LAYER
  5
200
100
AcDbSymbolTableRecord
100
AcDbLayerTableRecord
  2
COSMETIC
 70
0
 62
7
  6
CONTINUOUS
370
-3
390
F
  0
LAYER
  5
201
100
AcDbSymbolTableRecord
100
AcDbLayerTableRecord
  2
COSMETICI
 70
0
 62
7
  6
CONTINUOUS
370
-3
390
F
  0
LAYER
  5
202
100
AcDbSymbolTableRecord
100
AcDbLayerTableRecord
  2
CURVE
 70
0
 62
7
  6
CONTINUOUS
370
-3
390
F
  0
LAYER
  5
203
100
AcDbSymbolTableRecord
100
AcDbLayerTableRecord
  2
DRAFT
 70
0
 62
7
  6
CONTINUOUS
370
-3
390
F
  0
LAYER
  5
204
100
AcDbSymbolTableRecord
100
AcDbLayerTableRecord
  2
IMPORT_IGES
 70
0
 62
7
  6
CONTINUOUS
370
-3
390
F
  0
LAYER
  5
205
100
AcDbSymbolTableRecord
100
AcDbLayerTableRecord
  2
INTFCLR_11
 70
0
 62
7
  6
CONTINUOUS
370
-3
390
F
  0
LAYER
  5
206
100
AcDbSymbolTableRecord
100
AcDbLayerTableRecord
  2
INTF_1
 70
0
 62
7
  6
CONTINUOUS
370
-3
390
F
  0
LAYER
  5
207
100
AcDbSymbolTableRecord
100
AcDbLayerTableRecord
  2
INTF_3
 70
0
 62
7
  6
CONTINUOUS
370
-3
390
F
  0
LAYER
  5
208
100
AcDbSymbolTableRecord
100
AcDbLayerTableRecord
  2
NOTE
 70
0
 62
7
  6
CONTINUOUS
370
-3
390
F
  0
LAYER
  5
209
100
AcDbSymbolTableRecord
100
AcDbLayerTableRecord
  2
PIANI
 70
0
 62
7
  6
CONTINUOUS
370
-3
390
F
  0
LAYER
  5
20A
100
AcDbSymbolTableRecord
100
AcDbLayerTableRecord
  2
PUNTI
 70
0
 62
7
  6
CONTINUOUS
370
-3
390
F
  0
LAYER
  5
20B
100
AcDbSymbolTableRecord
100
AcDbLayerTableRecord
  2
RACCORDO
 70
0
 62
7
  6
CONTINUOUS
370
-3
390
F
  0
LAYER
  5
20C
100
AcDbSymbolTableRecord
100
AcDbLayerTableRecord
  2
SIMBOLI
 70
0
 62
7
  6
CONTINUOUS
370
-3
390
F
  0
LAYER
  5
20D
100
AcDbSymbolTableRecord
100
AcDbLayerTableRecord
  2
SMUSSO
 70
0
 62
7
  6
CONTINUOUS
370
-3
390
F
  0
LAYER
  5
20E
100
AcDbSymbolTableRecord
100
AcDbLayerTableRecord
  2
SNAPLINE
 70
0
 62
7
  6
CONTINUOUS
370
-3
390
F
  0
LAYER
  5
20F
100
AcDbSymbolTableRecord
100
AcDbLayerTableRecord
  2
SUPERFICI
 70
0
 62
7
  6
CONTINUOUS
370
-3
390
F
  0
LAYER
  5
210
100
AcDbSymbolTableRecord
100
AcDbLayerTableRecord
  2
TRASH
 70
0
 62
7
  6
CONTINUOUS
370
-3
390
F
  0
LAYER
  5
211
100
AcDbSymbolTableRecord
100
AcDbLayerTableRecord
  2
XSEC_DATUMS
 70
0
 62
7
  6
CONTINUOUS
370
-3
390
F
  0
LAYER
  5
212
100
AcDbSymbolTableRecord
100
AcDbLayerTableRecord
  2
___SHELL
 70
0
 62
7
  6
CONTINUOUS
370
-3
390
F
  0
ENDTAB
  0
TABLE
  2
STYLE
  5
3
100
AcDbSymbolTable
 70
1
  0
STYLE
  5
11
100
AcDbSymbolTableRecord
100
AcDbTextStyleTableRecord
  2
STANDARD
 70
0
 40
0.0
 41
0.8
 50
0.0
 71
0
 42
0.2
  3
txt
  4

  0
STYLE
  5
213
100
AcDbSymbolTableRecord
100
AcDbTextStyleTableRecord
  2
TEXTSTYLE_1
 70
0
 40
0.0
 41
0.8
 50
0.0
 71
0
 42
0.2
  3
gdt
  4

  0
ENDTAB
  0
TABLE
  2
VIEW
  5
6
100
AcDbSymbolTable
 70
0
  0
ENDTAB
  0
TABLE
  2
UCS
  5
7
100
AcDbSymbolTable
 70
0
  0
ENDTAB
  0
TABLE
  2
APPID
  5
9
100
AcDbSymbolTable
 70
1
  0
APPID
  5
214
100
AcDbSymbolTableRecord
100
AcDbRegAppTableRecord
  2
ACAD
 70
0
  0
ENDTAB
  0
TABLE
  2
BLOCK_RECORD
  5
1
100
AcDbSymbolTable
 70
0
  0
BLOCK_RECORD
  5
215
100
AcDbSymbolTableRecord
100
AcDbBlockTableRecord
  2
*Model_Space
  0
BLOCK_RECORD
  5
216
100
AcDbSymbolTableRecord
100
AcDbBlockTableRecord
  2
*Paper_Space
  0
BLOCK_RECORD
  5
217
100
AcDbSymbolTableRecord
100
AcDbBlockTableRecord
  2
_FILLED
  0
ENDTAB
  0
TABLE
  2
DIMSTYLE
  5
A
100
AcDbSymbolTable
 70
1
100
AcDbDimStyleTable
 71
0
  0
DIMSTYLE
105
218
100
AcDbSymbolTableRecord
100
AcDbDimStyleTableRecord
  2
STANDARD
 70
0
  3

  4

 40
1.0
 41
3.0
 42
0.5
 43
0.38
 44
1.5
 45
0.0
 46
0.0
 47
0.01
 48
0.01
140
3.0
141
0.09
142
0.0
143
25.4
144
1.0
145
0.0
146
1.0
147
0.625
 71
1
 72
0
 73
0
 74
0
 75
0
 76
0
 77
1
 78
8
 79
2
170
0
171
1
172
0
173
0
174
0
175
0
176
0
177
0
178
0
270
2
179
2
271
2
272
2
273
2
274
2
275
0
280
0
281
0
282
0
283
1
284
8
285
0
286
0
287
3
288
0
340
11
278
44
341
217
342
217
343
217
344
217
  0
ENDTAB
  0
ENDSEC
  0
SECTION
  2
BLOCKS
  0
BLOCK
  5
20
100
AcDbEntity
  8
0
100
AcDbBlockBegin
  2
*Model_Space
 70
0
 10
0.0
 20
0.0
 30
0.0
  3
*Model_Space
  1

  0
ENDBLK
  5
21
100
AcDbEntity
  8
0
100
AcDbBlockEnd
  0
BLOCK
  5
1C
100
AcDbEntity
  8
0
100
AcDbBlockBegin
  2
*Paper_Space
 70
0
 10
0.0
 20
0.0
 30
0.0
  3
*Paper_Space
  1

  0
ENDBLK
  5
1D
100
AcDbEntity
  8
0
100
AcDbBlockEnd
  0
BLOCK
  5
219
100
AcDbEntity
  8
0
100
AcDbBlockBegin
  2
_FILLED
 70
64
 10
0.0
 20
0.0
  3
_FILLED
  1

  0
SOLID
  5
21A
100
AcDbEntity
  8
0
  6
BYBLOCK
 62
0
100
AcDbTrace
 10
0.0
 20
0.0
 11
-1.0
 21
0.3166666667
 12
-1.0
 22
-0.3166666667
 13
-1.0
 23
-0.3166666667
  0
ENDBLK
  5
21B
100
AcDbEntity
  8
0
  6
BYBLOCK
 62
0
100
AcDbBlockEnd
  0
ENDSEC
  0
SECTION
  2
ENTITIES
  0
LWPOLYLINE
  5
21C
100
AcDbEntity
  8
RACCORDO
100
AcDbPolyline
 62
7
  6
CONTINUOUS
 90
19
 70
0
 10
21.058858235
 20
59.5602679576
 10
21.0187737082
 20
59.533489076
 10
20.9496143814
 20
59.4817080398
 10
20.8836428389
 20
59.4252435144
 10
20.820830593
 20
59.3644244842
 10
20.7612017541
 20
59.299564156
 10
20.7049597306
 20
59.231100957
 10
20.6521900449
 20
59.159348996
 10
20.6030122951
 20
59.0845729224
 10
20.5577350859
 20
59.0073198856
 10
20.5164851151
 20
58.9278781363
 10
20.4794331682
 20
58.8465078712
 10
20.4468623657
 20
58.7637728508
 10
20.418936069
 20
58.6799233934
 10
20.3958540262
 20
58.5951895248
 10
20.377865223
 20
58.5099706131
 10
20.365216155
 20
58.4244600637
 10
20.3581715796
 20
58.3388292511
 10
20.3575031467
 20
58.3228579994
  0
LINE
  5
21D
100
AcDbEntity
  8
RACCORDO
100
AcDbLine
 62
7
  6
CONTINUOUS
 10
24.2551586781
 20
61.6042734798
 11
21.0587230004
 21
59.5601899206
  0
LWPOLYLINE
  5
21E
100
AcDbEntity
  8
RACCORDO
100
AcDbPolyline
 62
250
  6
CONTINUOUS
 90
22
 70
0
 10
24.5115532789
 20
61.5834098079
 10
21.2573542488
 20
59.5027392268
 10
21.1962750871
 20
59.4590442749
 10
21.1359328927
 20
59.4108390513
 10
21.0766684668
 20
59.3583547457
 10
21.0187829621
 20
59.3018603454
 10
20.9625367365
 20
59.2416599392
 10
20.9082273935
 20
59.1780500689
 10
20.8561506921
 20
59.1113501595
 10
20.8065483956
 20
59.0419244
 10
20.7596844716
 20
58.9701238296
 10
20.7158104789
 20
58.8963055166
 10
20.6751268675
 20
58.8208617724
 10
20.6378478707
 20
58.7441730737
 10
20.6041749082
 20
58.6666242939
 10
20.5742615924
 20
58.5886243725
 10
20.5482656068
 20
58.5105747308
 10
20.5263250783
 20
58.4328615083
 10
20.5085354258
 20
58.355872032
 10
20.4949866888
 20
58.2799947256
 10
20.4857598959
 20
58.2056168206
 10
20.4809058379
 20
58.1331168879
  0
LWPOLYLINE
  5
21F
100
AcDbEntity
  8
RACCORDO
100
AcDbPolyline
 62
250
  6
CONTINUOUS
 90
16
 70
0
 10
35.1810803711
 20
15.6311096532
 10
35.2196942331
 20
15.6137358975
 10
35.2611174885
 20
15.5988043928
 10
35.3049487787
 20
15.5864598134
 10
35.3507634133
 20
15.5768217685
 10
35.398117485
 20
15.5699836432
 10
35.4465521701
 20
15.5660116934
 10
35.4955981752
 20
15.5649444042
 10
35.5447802832
 20
15.5667921167
 10
35.5936219586
 20
15.5715369282
 10
35.6416499642
 20
15.5791328651
 10
35.6883989468
 20
15.5895063289
 10
35.7334159458
 20
15.6025568089
 10
35.7762647821
 20
15.6181578562
 10
35.8165302846
 20
15.6361583092
 10
35.8538223124
 20
15.6563837577
  0
LWPOLYLINE
  5
220
100
AcDbEntity
  8
RACCORDO
100
AcDbPolyline
 62
7
  6
CONTINUOUS
 90
13
 70
0
 10
35.4442991693
 20
15.1153063723
 10
35.496420329
 20
15.0914098554
 10
35.5588774616
 20
15.0687800767
 10
35.6237239353
 20
15.051545124
 10
35.6905653118
 20
15.0398855844
 10
35.7589554474
 20
15.0339408769
 10
35.8289836069
 20
15.0338187286
 10
35.9003442301
 20
15.0396946827
 10
35.9726402047
 20
15.051683396
 10
36.0459857612
 20
15.0700029437
 10
36.1202805048
 20
15.0949259322
 10
36.1950702286
 20
15.1265863583
 10
36.2358676876
 20
15.1466991691
  0
LINE
  5
221
100
AcDbEntity
  8
RACCORDO
100
AcDbLine
 62
7
  6
CONTINUOUS
 10
35.4442695373
 20
15.1153141251
 11
35.4441469684
 21
15.1153761015
  0
LWPOLYLINE
  5
222
100
AcDbEntity
  8
RACCORDO
100
AcDbPolyline
 62
250
  6
CONTINUOUS
 90
12
 70
0
 10
35.4441469684
 20
15.1153761015
 10
35.4092976321
 20
15.1353218219
 10
35.3697084522
 20
15.1644170625
 10
35.3334450821
 20
15.1986433202
 10
35.3006781808
 20
15.2378305553
 10
35.2715940836
 20
15.2817661099
 10
35.2463363065
 20
15.3302224714
 10
35.2250189766
 20
15.3829591486
 10
35.2077590788
 20
15.4397114539
 10
35.1946460584
 20
15.5001945955
 10
35.1857386227
 20
15.564102024
 10
35.181080346
 20
15.6311096535
  0
LWPOLYLINE
  5
223
100
AcDbEntity
  8
RACCORDO
100
AcDbPolyline
 62
7
  6
CONTINUOUS
 90
10
 70
0
 10
20.7113948103
 20
23.6220281571
 10
22.1815684766
 20
22.6663900138
 10
23.7623516344
 20
21.6683377909
 10
25.3690821195
 20
20.6837231877
 10
27.0013888237
 20
19.7127685674
 10
28.658900856
 20
18.75569261
 10
30.3412370737
 20
17.8127067716
 10
32.0480042192
 20
16.8840175123
 10
33.7788042492
 20
15.9698303722
 10
35.4441444097
 20
15.1153773958
  0
LWPOLYLINE
  5
224
100
AcDbEntity
  8
RACCORDO
100
AcDbPolyline
 62
250
  6
CONTINUOUS
 90
31
 70
0
 10
20.4809058641
 20
24.1188061923
 10
20.9258146179
 20
23.8257032129
 10
21.3727448969
 20
23.5338717483
 10
21.8216858632
 20
23.2433155447
 10
22.2725199223
 20
22.9541064698
 10
22.725342038
 20
22.6661795723
 10
23.1804647243
 20
22.3793357231
 10
23.6380381401
 20
22.0934835075
 10
24.0979006377
 20
21.8087271387
 10
24.5598994223
 20
21.5251621982
 10
25.0239818
 20
21.2428203753
 10
25.4901829834
 20
20.9616795894
 10
25.9584798055
 20
20.6817535511
 10
26.4289332596
 20
20.4030059754
 10
26.9014655469
 20
20.1254831205
 10
27.3758421288
 20
19.8493206964
 10
27.8517539841
 20
19.5746926181
 10
28.3294840077
 20
19.3014295015
 10
28.809691168
 20
19.029155391
 10
29.2914461029
 20
18.7583961835
 10
29.7756635495
 20
18.4886371373
 10
30.2658211312
 20
18.2179726954
 10
30.761120841
 20
17.9468939043
 10
31.2624344224
 20
17.6749751182
 10
31.7758642197
 20
17.399009457
 10
32.3017079512
 20
17.118985301
 10
32.8399063307
 20
16.8350860849
 10
33.3961769752
 20
16.5444932044
 10
33.9725906028
 20
16.2463819771
 10
34.5674903301
 20
15.9418710449
 10
35.1810803691
 20
15.6311096713
  0
LINE
  5
225
100
AcDbEntity
  8
RACCORDO
100
AcDbLine
 62
7
  6
CONTINUOUS
 10
20.7112478562
 20
23.6221250912
 11
20.7113969343
 21
23.6220267568
  0
LWPOLYLINE
  5
226
100
AcDbEntity
  8
RACCORDO
100
AcDbPolyline
 62
250
  6
CONTINUOUS
 90
8
 70
0
 10
20.4809159679
 20
24.1188117382
 10
20.4504008643
 20
24.1413519509
 10
20.4238272042
 20
24.1656806638
 10
20.4014524601
 20
24.1915621559
 10
20.3834934209
 20
24.2187456611
 10
20.3701240918
 20
24.2469677985
 10
20.3614740085
 20
24.2759551239
 10
20.3575389978
 20
24.30726651
  0
LWPOLYLINE
  5
227
100
AcDbEntity
  8
RACCORDO
100
AcDbPolyline
 62
250
  6
CONTINUOUS
 90
11
 70
0
 10
20.4809058706
 20
24.1188061982
 10
20.485759928
 20
24.0516855231
 10
20.494986721
 20
23.9875936995
 10
20.5085354584
 20
23.9268589798
 10
20.5263251111
 20
23.8698008018
 10
20.5482656396
 20
23.8167042994
 10
20.5742616249
 20
23.7678217069
 10
20.6041749407
 20
23.7234073725
 10
20.6378479033
 20
23.6836969894
 10
20.6751269001
 20
23.6488843219
 10
20.7112478562
 20
23.6221250912
  0
LWPOLYLINE
  5
228
100
AcDbEntity
  8
RACCORDO
100
AcDbPolyline
 62
7
  6
CONTINUOUS
 90
13
 70
0
 10
20.3575475578
 20
24.3072668357
 10
20.3579190935
 20
24.2982696629
 10
20.3647255537
 20
24.2162324142
 10
20.3774267778
 20
24.1376672516
 10
20.3958168629
 20
24.0628140741
 10
20.4196836025
 20
23.9917554073
 10
20.4488215966
 20
23.9246286478
 10
20.4829515137
 20
23.8617419364
 10
20.5217749344
 20
23.8033143053
 10
20.5649735128
 20
23.7495416558
 10
20.6120966963
 20
23.7007358344
 10
20.6627111229
 20
23.6571033557
 10
20.7112048607
 20
23.6221598131
  0
LWPOLYLINE
  5
229
100
AcDbEntity
  8
RACCORDO
100
AcDbPolyline
 62
7
  6
CONTINUOUS
 90
10
 70
0
 10
20.3575030781
 20
58.3230893085
 10
20.2374924846
 20
54.5241208865
 10
20.1456581672
 20
50.6752254521
 10
20.0844113209
 20
46.8440274167
 10
20.0537752241
 20
43.0309332207
 10
20.0537546431
 20
39.2362730661
 10
20.0843501356
 20
35.4603486447
 10
20.1455580616
 20
31.7034850196
 10
20.2373562682
 20
27.966061004
 10
20.357531851
 20
24.3074570169
  0
LWPOLYLINE
  5
22A
100
AcDbEntity
  8
RACCORDO
100
AcDbPolyline
 62
250
  6
CONTINUOUS
 90
10
 70
0
 10
20.4809058664
 20
58.1331169
 10
20.3570359175
 20
54.2835703677
 10
20.2641049299
 20
50.4506224389
 10
20.2021350379
 20
46.6346289763
 10
20.1711436102
 20
42.8357728212
 10
20.1711436216
 20
39.0545760784
 10
20.2021350685
 20
35.2918949097
 10
20.2641049691
 20
31.548236433
 10
20.357035948
 20
27.8237634279
 10
20.4809058641
 20
24.1188061923
  0
LINE
  5
22B
100
AcDbEntity
  8
RACCORDO
100
AcDbLine
 62
250
  6
CONTINUOUS
 10
35.9966223476
 20
51.0669415964
 11
39.3610379917
 21
53.0095034425
  0
LINE
  5
22C
100
AcDbEntity
  8
RACCORDO
100
AcDbLine
 62
250
  6
CONTINUOUS
 10
36.3500545843
 20
50.454779006
 11
39.7144702283
 21
52.3973408521
  0
LWPOLYLINE
  5
22D
100
AcDbEntity
  8
0
100
AcDbPolyline
 62
7
  6
CONTINUOUS
 90
37
 70
0
 10
26.6588089054
 20
26.3901810186
 10
26.6618348522
 20
26.336029743
 10
26.6680825658
 20
26.2803429063
 10
26.6775524611
 20
26.223120743
 10
26.6903471608
 20
26.1638890268
 10
26.7063660388
 20
26.1031231298
 10
26.7253044613
 20
26.0422475615
 10
26.7472978687
 20
25.9812954896
 10
26.7722132591
 20
25.9202351009
 10
26.7993422011
 20
25.8603927459
 10
26.8286535373
 20
25.8019950898
 10
26.8601805091
 20
25.7448165997
 10
26.893310005
 20
25.6895045783
 10
26.9279527414
 20
25.6362010653
 10
26.9641997634
 20
25.5847649791
 10
27.0017075815
 20
25.5354184391
 10
27.0405515706
 20
25.488078862
 10
27.0806582872
 20
25.4428299086
 10
27.1214600587
 20
25.4001425152
 10
27.1629432433
 20
25.360061156
 10
27.2051225078
 20
25.3225419285
 10
27.2474713402
 20
25.2879224547
 10
27.2896223122
 20
25.2563823291
 10
27.3319426898
 20
25.22774186
 10
27.3750081967
 20
25.2017998583
 10
27.4192646216
 20
25.1782078648
 10
27.4642688812
 20
25.1573159276
 10
27.5092632859
 20
25.1399705621
 10
27.5545670303
 20
25.1262846357
 10
27.5998621482
 20
25.1161460366
 10
27.6434317748
 20
25.1100618138
 10
27.6848275556
 20
25.1083317888
 10
27.7244940741
 20
25.1106539897
 10
27.7620509209
 20
25.1166310489
 10
27.7973948002
 20
25.1262160569
 10
27.8306253182
 20
25.1394538127
 10
27.8378706381
 20
25.1429426918
  0
LINE
  5
22E
100
AcDbEntity
  8
DRAFT
100
AcDbLine
 62
7
  6
CONTINUOUS
 10
26.6588088706
 20
26.3901812438
 11
26.6298977072
 21
27.4568897708
  0
LINE
  5
22F
100
AcDbEntity
  8
0
100
AcDbLine
 62
7
  6
CONTINUOUS
 10
26.6162951064
 20
28.0039324096
 11
26.6588089054
 21
26.3901810186
  0
LINE
  5
230
100
AcDbEntity
  8
DRAFT
100
AcDbLine
 62
7
  6
CONTINUOUS
 10
26.6298977072
 20
27.4568897708
 11
26.6037576582
 21
28.5404411785
  0
LINE
  5
231
100
AcDbEntity
  8
0
100
AcDbLine
 62
7
  6
CONTINUOUS
 10
26.5978803814
 20
28.8044099034
 11
26.6162951064
 21
28.0039324096
  0
LINE
  5
232
100
AcDbEntity
  8
DRAFT
100
AcDbLine
 62
7
  6
CONTINUOUS
 10
26.6037576582
 20
28.5404411785
 11
26.5978803867
 21
28.8044096604
  0
LWPOLYLINE
  5
233
100
AcDbEntity
  8
DRAFT
100
AcDbPolyline
 62
7
  6
CONTINUOUS
 90
4
 70
0
 10
26.5978803867
 20
28.8044096604
 10
26.5991363511
 20
28.872165385
 10
26.6054141916
 20
28.9354557668
 10
26.6164887654
 20
28.9931070628
  0
LWPOLYLINE
  5
234
100
AcDbEntity
  8
0
100
AcDbPolyline
 62
7
  6
CONTINUOUS
 90
28
 70
0
 10
27.9816011066
 20
28.0054669959
 10
27.9774260724
 20
28.0758629222
 10
27.9681627752
 20
28.14787203
 10
27.9538117118
 20
28.2214945964
 10
27.9341953921
 20
28.2973782555
 10
27.9094952433
 20
28.3748776567
 10
27.8802502492
 20
28.4520536472
 10
27.8463481569
 20
28.5288545665
 10
27.8079075973
 20
28.6053357468
 10
27.7658122406
 20
28.6797175343
 10
27.7199672578
 20
28.7519551818
 10
27.6704749894
 20
28.8220977435
 10
27.6185120206
 20
28.8885045873
 10
27.5640395358
 20
28.9510629642
 10
27.5071027299
 20
29.0098892549
 10
27.4490001727
 20
29.0636841619
 10
27.3897303471
 20
29.1123272908
 10
27.3292983804
 20
29.1559410628
 10
27.2690081233
 20
29.1935876794
 10
27.208832836
 20
29.2251559717
 10
27.1487994208
 20
29.2507571634
 10
27.0902871432
 20
29.2697841244
 10
27.033327887
 20
29.2820774113
 10
26.977886002
 20
29.287794294
 10
26.9252345457
 20
29.2867998798
 10
26.8754400506
 20
29.2789325188
 10
26.8284293811
 20
29.2643500989
 10
26.7856044986
 20
29.2435609469
  0
LINE
  5
235
100
AcDbEntity
  8
0
100
AcDbLine
 62
7
  6
CONTINUOUS
 10
28.0425123081
 20
25.5912672784
 11
28.0135236522
 21
26.6613076122
  0
LINE
  5
236
100
AcDbEntity
  8
DRAFT
100
AcDbLine
 62
7
  6
CONTINUOUS
 10
28.0000152877
 20
27.2048047722
 11
28.0425122941
 21
25.5912677694
  0
LINE
  5
237
100
AcDbEntity
  8
0
100
AcDbLine
 62
7
  6
CONTINUOUS
 10
28.0135236522
 20
26.6613076122
 11
27.9874718772
 21
27.7417153727
  0
LINE
  5
238
100
AcDbEntity
  8
0
100
AcDbLine
 62
7
  6
CONTINUOUS
 10
27.9874718772
 20
27.7417153727
 11
27.9816011066
 21
28.0054669959
  0
LINE
  5
239
100
AcDbEntity
  8
DRAFT
100
AcDbLine
 62
7
  6
CONTINUOUS
 10
27.981601127
 20
28.0054668237
 11
28.0000152877
 21
27.2048047722
  0
LWPOLYLINE
  5
23A
100
AcDbEntity
  8
DRAFT
100
AcDbPolyline
 62
7
  6
CONTINUOUS
 90
11
 70
0
 10
28.0425122941
 20
25.5912677694
 10
28.0416212399
 20
25.5231395224
 10
28.0355880794
 20
25.4595595231
 10
28.024413316
 20
25.4005280436
 10
28.007952361
 20
25.3457006793
 10
27.9863535352
 20
25.2954239829
 10
27.9600568942
 20
25.2507347519
 10
27.9289214051
 20
25.2117070797
 10
27.8930942808
 20
25.1782704106
 10
27.8534462772
 20
25.1512435511
 10
27.83786517
 20
25.1429520675
  0
LWPOLYLINE
  5
23B
100
AcDbEntity
  8
0
100
AcDbPolyline
 62
7
  6
CONTINUOUS
 90
3
 70
0
 10
28.0396990608
 20
25.4938402415
 10
28.042532873
 20
25.5414795459
 10
28.0425123081
 20
25.5912672784
  0
LINE
  5
23C
100
AcDbEntity
  8
DRAFT
100
AcDbLine
 62
7
  6
CONTINUOUS
 10
26.6167142713
 20
28.9942809869
 11
26.6331719806
 21
29.048990724
  0
LINE
  5
23D
100
AcDbEntity
  8
DRAFT
100
AcDbLine
 62
7
  6
CONTINUOUS
 10
26.6331719806
 20
29.048990724
 11
26.654078447
 21
29.0978876555
  0
LINE
  5
23E
100
AcDbEntity
  8
DRAFT
100
AcDbLine
 62
7
  6
CONTINUOUS
 10
26.6546555089
 20
29.0992373123
 11
26.6803413353
 21
29.1432495773
  0
LINE
  5
23F
100
AcDbEntity
  8
DRAFT
100
AcDbLine
 62
7
  6
CONTINUOUS
 10
26.6807647474
 20
29.1439750875
 11
26.7113226966
 21
29.1826994597
  0
LWPOLYLINE
  5
240
100
AcDbEntity
  8
RACCORDO
100
AcDbPolyline
 62
250
  6
CONTINUOUS
 90
10
 70
0
 10
35.8538223124
 20
15.6563837577
 10
35.7259214851
 20
19.3602474051
 10
35.629995863
 20
23.0824072896
 10
35.5660454461
 20
26.8228634113
 10
35.5340702316
 20
30.582133297
 10
35.5340702222
 20
34.3596994199
 10
35.5660454265
 20
38.154009199
 10
35.6299958473
 20
41.9645451076
 10
35.7259214818
 20
45.7918246725
 10
35.85382233
 20
49.6358478936
  0
LWPOLYLINE
  5
241
100
AcDbEntity
  8
RACCORDO
100
AcDbPolyline
 62
250
  6
CONTINUOUS
 90
10
 70
0
 10
35.1810803691
 20
15.6311096713
 10
35.0558714073
 20
19.3368400556
 10
34.9619361438
 20
23.0618929225
 10
34.8992967199
 20
26.8059379739
 10
34.8679705112
 20
30.56881243
 10
34.8679704996
 20
34.350009173
 10
34.8992966888
 20
38.1486720408
 10
34.9619361043
 20
41.9642789288
 10
35.0558713768
 20
45.7966469958
 10
35.1810803719
 20
49.6454203793
  0
LWPOLYLINE
  5
242
100
AcDbEntity
  8
RACCORDO
100
AcDbPolyline
 62
250
  6
CONTINUOUS
 90
22
 70
0
 10
35.1810803813
 20
49.6454203825
 10
35.1857386596
 20
49.7180333613
 10
35.1946460968
 20
49.7925956624
 10
35.2077591186
 20
49.8687245478
 10
35.2250190168
 20
49.9460198974
 10
35.2463363463
 20
50.0240929448
 10
35.2715941227
 20
50.1025688169
 10
35.3006782197
 20
50.181047518
 10
35.3334451207
 20
50.2591194457
 10
35.3697084905
 20
50.3363945539
 10
35.4092976698
 20
50.4124702084
 10
35.4520206221
 20
50.4869531165
 10
35.497634855
 20
50.5594752416
 10
35.5459256007
 20
50.6296582731
 10
35.5966575352
 20
50.697134633
 10
35.649537643
 20
50.7615697245
 10
35.7043099676
 20
50.8226211405
 10
35.7607124474
 20
50.8799718186
 10
35.8184293193
 20
50.9333496616
 10
35.8771683176
 20
50.9824805515
 10
35.9366615162
 20
51.0270912206
 10
35.9966223476
 20
51.0669415963
  0
LWPOLYLINE
  5
243
100
AcDbEntity
  8
RACCORDO
100
AcDbPolyline
 62
250
  6
CONTINUOUS
 90
22
 70
0
 10
35.85382233
 20
49.6358478936
 10
35.8567034575
 20
49.6782739589
 10
35.862103286
 20
49.7214051386
 10
35.8700218155
 20
49.7652414327
 10
35.8805246365
 20
49.8100324056
 10
35.8935461586
 20
49.855528493
 10
35.9088896101
 20
49.9009810017
 10
35.9265894058
 20
49.9463705675
 10
35.946611131
 20
49.9917165546
 10
35.9686547704
 20
50.0363283632
 10
35.9927536831
 20
50.0801977756
 10
36.0188745099
 20
50.1233330094
 10
36.046617158
 20
50.1650681175
 10
36.0760066346
 20
50.2053799863
 10
36.1070179325
 20
50.2442917294
 10
36.1391759366
 20
50.2812067407
 10
36.172514867
 20
50.3161036781
 10
36.2070005037
 20
50.3490038838
 10
36.2420550714
 20
50.3793747774
 10
36.2774859781
 20
50.4070388323
 10
36.3134858158
 20
50.4321735752
 10
36.3500545843
 20
50.454779006
  0
LINE
  5
244
100
AcDbEntity
  8
DRAFT
100
AcDbLine
 62
7
  6
CONTINUOUS
 10
26.7116772491
 20
29.1831487643
 11
26.7470855645
 21
29.2166880674
  0
LWPOLYLINE
  5
245
100
AcDbEntity
  8
0
100
AcDbPolyline
 62
7
  6
CONTINUOUS
 90
10
 70
0
 10
26.7709010985
 20
29.2343883897
 10
26.74601789
 20
29.2158945441
 10
26.7106095694
 20
29.1820171659
 10
26.6798439132
 20
29.1426124785
 10
26.6538505809
 20
29.0974921156
 10
26.632493457
 20
29.0468408043
 10
26.6161790056
 20
28.9920670831
 10
26.6050409483
 20
28.9336394503
 10
26.598941587
 20
28.8710871535
 10
26.5978803814
 20
28.8044099034
  0
LINE
  5
246
100
AcDbEntity
  8
DRAFT
100
AcDbLine
 62
7
  6
CONTINUOUS
 10
26.7470855645
 20
29.2166880674
 11
26.7709151207
 21
29.2343657623
  0
LINE
  5
247
100
AcDbEntity
  8
0
100
AcDbLine
 62
7
  6
CONTINUOUS
 10
26.7852621248
 20
29.243394743
 11
26.7709010985
 21
29.2343883897
  0
LWPOLYLINE
  5
248
100
AcDbEntity
  8
DRAFT
100
AcDbPolyline
 62
7
  6
CONTINUOUS
 90
29
 70
0
 10
26.7709151207
 20
29.2343657623
 10
26.7864746167
 20
29.2441056191
 10
26.829419139
 20
29.2648125324
 10
26.8760783748
 20
29.27914306
 10
26.9255830981
 20
29.2868295449
 10
26.9781201718
 20
29.2877382875
 10
27.033509756
 20
29.2820069943
 10
27.0903286954
 20
29.2697728798
 10
27.1485001278
 20
29.2509082063
 10
27.2081041741
 20
29.2255425906
 10
27.2679483283
 20
29.1941964933
 10
27.3280772209
 20
29.156747661
 10
27.3884465545
 20
29.1133185794
 10
27.4477257246
 20
29.0647940955
 10
27.5059482435
 20
29.0109823196
 10
27.5630773153
 20
28.9520733047
 10
27.6176718428
 20
28.8895218866
 10
27.6695887287
 20
28.8233370386
 10
27.7189642767
 20
28.7535059128
 10
27.7647724715
 20
28.6814482594
 10
27.8070019295
 20
28.6069666764
 10
27.8456569032
 20
28.5302544831
 10
27.8797320392
 20
28.4533158592
 10
27.909045939
 20
28.3762755099
 10
27.9337733481
 20
28.2990048947
 10
27.9534414742
 20
28.2231273271
 10
27.9678911124
 20
28.1491829734
 10
27.977277793
 20
28.0766295427
 10
27.981601127
 20
28.0054668237
  0
LWPOLYLINE
  5
249
100
AcDbEntity
  8
0
100
AcDbPolyline
 62
7
  6
CONTINUOUS
 90
12
 70
0
 10
27.8378706381
 20
25.1429426918
 10
27.8616658686
 20
25.1560841835
 10
27.8905589041
 20
25.1760856581
 10
27.9172591317
 20
25.1994781289
 10
27.941558116
 20
25.2260634394
 10
27.9634756827
 20
25.2559173725
 10
27.982989687
 20
25.2889628259
 10
27.9998283176
 20
25.3247720592
 10
28.0139583882
 20
25.3634063118
 10
28.0254111716
 20
25.404803249
 10
28.0340110943
 20
25.4483494907
 10
28.0396990608
 20
25.4938402415
  0
LINE
  5
24A
100
AcDbEntity
  8
RACCORDO
100
AcDbLine
 62
7
  6
CONTINUOUS
 10
39.7144702283
 20
17.1255451107
 11
39.7144702283
 21
52.3973408521
  0
LWPOLYLINE
  5
24B
100
AcDbEntity
  8
DRAFT
100
AcDbPolyline
 62
7
  6
CONTINUOUS
 90
28
 70
0
 10
27.83786517
 20
25.1429520675
 10
27.809953394
 20
25.130787415
 10
27.7626461794
 20
25.1167448027
 10
27.7124745562
 20
25.109455768
 10
27.6592399746
 20
25.1091092275
 10
27.6031472281
 20
25.1155197906
 10
27.5457471663
 20
25.1284636522
 10
27.4871297172
 20
25.1480882545
 10
27.4272073404
 20
25.1742474514
 10
27.3672597969
 20
25.2062742128
 10
27.3073093239
 20
25.244247959
 10
27.2473332754
 20
25.2880889942
 10
27.1885398213
 20
25.3368891499
 10
27.1308716018
 20
25.3908243929
 10
27.0743830465
 20
25.449717087
 10
27.0204456635
 20
25.5121261523
 10
26.9692007673
 20
25.5780064531
 10
26.9205010832
 20
25.6473997637
 10
26.8752816479
 20
25.7189932946
 10
26.8335145754
 20
25.7930094532
 10
26.7952215986
 20
25.8692224021
 10
26.7614094999
 20
25.9456454145
 10
26.7322511979
 20
26.0221462163
 10
26.7075675597
 20
26.0988536014
 10
26.6878354991
 20
26.1741713655
 10
26.6732123401
 20
26.2475664987
 10
26.6635369799
 20
26.3195698866
 10
26.6588088706
 20
26.3901812438
  0
LWPOLYLINE
  5
24C
100
AcDbEntity
  8
RACCORDO
100
AcDbPolyline
 62
250
  6
CONTINUOUS
 90
9
 70
0
 10
20.4809058687
 20
58.1331169212
 10
20.4503906088
 20
58.1551667082
 10
20.423816914
 20
58.1786721631
 10
20.4014422623
 20
58.2034055367
 10
20.3834834464
 20
58.2291271822
 10
20.3701144729
 20
58.2555878772
 10
20.3614648765
 20
58.2825312387
 10
20.3576184652
 20
58.3096962068
 10
20.3574950765
 20
58.3228582779
  0
LWPOLYLINE
  5
24D
100
AcDbEntity
  8
RACCORDO
100
AcDbPolyline
 62
250
  6
CONTINUOUS
 90
16
 70
0
 10
35.1810891984
 20
49.6454257641
 10
35.2197025211
 20
49.6275613616
 10
35.2611251614
 20
49.6118062638
 10
35.3049557751
 20
49.5983131219
 10
35.3507696872
 20
49.5872126711
 10
35.3981230063
 20
49.5786124637
 10
35.446556926
 20
49.5725958268
 10
35.4956021695
 20
49.5692210556
 10
35.5447835374
 20
49.5685208483
 10
35.5936245111
 20
49.5705019893
 10
35.64165187
 20
49.5751452832
 10
35.6884002768
 20
49.5824057412
 10
35.733416786
 20
49.5922130167
 10
35.7762652324
 20
49.6044720868
 10
35.816530457
 20
49.6190641734
 10
35.8538223299
 20
49.6358478937
  0
LWPOLYLINE
  5
24E
100
AcDbEntity
  8
RACCORDO
100
AcDbPolyline
 62
250
  6
CONTINUOUS
 90
11
 70
0
 10
35.1810803719
 20
49.6454203793
 10
34.673799321
 20
49.9025335235
 10
34.168697582
 20
50.1607986504
 10
33.6657816322
 20
50.4202094932
 10
33.1651768102
 20
50.6806977453
 10
32.6667697281
 20
50.9423186254
 10
32.1702128675
 20
51.2052537747
 10
31.6753468928
 20
51.4695905125
 10
31.1823533263
 20
51.7352348969
 10
30.6913981485
 20
52.0020980731
 10
30.2025365436
 20
52.2701493735
  0
LINE
  5
24F
100
AcDbEntity
  8
RACCORDO
100
AcDbLine
 62
250
  6
CONTINUOUS
 10
30.2025365436
 20
52.2701493735
 11
29.6005952458
 21
52.6036490912
  0
LWPOLYLINE
  5
250
100
AcDbEntity
  8
RACCORDO
100
AcDbPolyline
 62
250
  6
CONTINUOUS
 90
19
 70
0
 10
29.6005952458
 20
52.6036490912
 10
28.7482888739
 20
53.081550789
 10
28.2676716345
 20
53.3544225109
 10
27.7893847213
 20
53.6283446897
 10
27.3137283219
 20
53.90313952
 10
26.8404101384
 20
54.1789697447
 10
26.3687818145
 20
54.4562141595
 10
25.8997538724
 20
54.7343368268
 10
25.4324350473
 20
55.0138652026
 10
24.9635283915
 20
55.2968033641
 10
24.4938864717
 20
55.5826902501
 10
24.0227695711
 20
55.8720292595
 10
23.5446196315
 20
56.1683402991
 10
23.0594190612
 20
56.4717943118
 10
22.5674821571
 20
56.7823575353
 10
22.0639141289
 20
57.1033297034
 10
21.5472818814
 20
57.43590567
 10
21.0195264854
 20
57.7791288762
 10
20.4809058664
 20
58.1331169
  0
LWPOLYLINE
  5
251
100
AcDbEntity
  8
RACCORDO
100
AcDbPolyline
 62
250
  6
CONTINUOUS
 90
9
 70
0
 10
21.3188420139
 20
59.5417079674
 10
21.2809981676
 20
59.5602382072
 10
21.2436699584
 20
59.5741566813
 10
21.2072660124
 20
59.5833110437
 10
21.1721848241
 20
59.5876011022
 10
21.1388104286
 20
59.5869799098
 10
21.1075081918
 20
59.5814542938
 10
21.0786207629
 20
59.5710847779
 10
21.0588544463
 20
59.560273892
  0
LINE
  5
252
100
AcDbEntity
  8
RACCORDO
100
AcDbLine
 62
250
  6
CONTINUOUS
 10
35.9966223476
 20
51.0669415964
 11
35.4899656231
 21
51.3223169369
  0
LINE
  5
253
100
AcDbEntity
  8
RACCORDO
100
AcDbLine
 62
250
  6
CONTINUOUS
 10
35.4899656231
 20
51.3223169369
 11
34.7683669506
 21
51.6903834436
  0
LWPOLYLINE
  5
254
100
AcDbEntity
  8
RACCORDO
100
AcDbPolyline
 62
250
  6
CONTINUOUS
 90
9
 70
0
 10
34.7683669506
 20
51.6903834436
 10
33.9836343769
 20
52.0955664385
 10
33.4861159328
 20
52.3556670636
 10
32.9904368522
 20
52.6171801053
 10
32.4963831682
 20
52.8802169562
 10
32.0041688477
 20
53.1446662237
 10
31.5140248315
 20
53.4104070484
 10
31.0260217143
 20
53.6774029433
 10
30.5400889014
 20
53.9456903956
  0
LINE
  5
255
100
AcDbEntity
  8
RACCORDO
100
AcDbLine
 62
250
  6
CONTINUOUS
 10
30.5400889014
 20
53.9456903956
 11
30.05624555
 21
54.2152580069
  0
LWPOLYLINE
  5
256
100
AcDbEntity
  8
RACCORDO
100
AcDbPolyline
 62
250
  6
CONTINUOUS
 90
19
 70
0
 10
30.05624555
 20
54.2152580069
 10
29.5744144766
 20
54.4861513489
 10
29.0946728647
 20
54.75832485
 10
28.6172714219
 20
55.0316303978
 10
28.142493888
 20
55.3059009637
 10
27.6700565233
 20
55.5813035764
 10
27.1993588164
 20
55.8581912097
 10
26.7313031994
 20
56.1359870051
 10
26.2649872402
 20
56.415267821
 10
25.7971031308
 20
56.6981172077
 10
25.3283646919
 20
56.9839963243
 10
24.8580581028
 20
57.2734440116
 10
24.3807340939
 20
57.5701603414
 10
23.8960460068
 20
57.8742228184
 10
23.4043404998
 20
58.1855539379
 10
22.9012082788
 20
58.5076212582
 10
22.385179579
 20
58.8415806322
 10
21.8577241653
 20
59.1862762069
 10
21.3188420375
 20
59.5417079825
  0
LWPOLYLINE
  5
257
100
AcDbEntity
  8
RACCORDO
100
AcDbPolyline
 62
250
  6
CONTINUOUS
 90
16
 70
0
 10
35.9966223476
 20
51.0669415963
 10
36.0326343614
 20
51.0428284645
 10
36.0683534743
 20
51.014570506
 10
36.1033886815
 20
50.9824770511
 10
36.1373564641
 20
50.9468994159
 10
36.1698849886
 20
50.9082270569
 10
36.2006181765
 20
50.8668833073
 10
36.229219602
 20
50.8233207433
 10
36.2553761749
 20
50.7780162294
 10
36.2788015682
 20
50.7314656989
 10
36.299239352
 20
50.6841787245
 10
36.3164658009
 20
50.6366729409
 10
36.3302923426
 20
50.5894683776
 10
36.3405676228
 20
50.5430817671
 10
36.3471791615
 20
50.4980208878
 10
36.3500545843
 20
50.454779006
  0
LINE
  5
258
100
AcDbEntity
  8
RACCORDO
100
AcDbLine
 62
7
  6
CONTINUOUS
 10
24.5115532789
 20
61.5834098079
 11
39.3610379917
 21
53.0095034425
  0
LWPOLYLINE
  5
259
100
AcDbEntity
  8
RACCORDO
100
AcDbPolyline
 62
250
  6
CONTINUOUS
 90
9
 70
0
 10
36.2360139181
 20
15.1467664355
 10
36.255377716
 20
15.1585381894
 10
36.2788028946
 20
15.1783682611
 10
36.2992404043
 20
15.2027114084
 10
36.316466554
 20
15.2313011263
 10
36.3302928069
 20
15.2638244341
 10
36.3405678401
 20
15.2999252938
 10
36.3471792029
 20
15.3392085037
 10
36.3500545514
 20
15.381244035
  0
LINE
  5
25A
100
AcDbEntity
  8
RACCORDO
100
AcDbLine
 62
250
  6
CONTINUOUS
 10
39.7144702283
 20
17.1255451107
 11
36.3500545514
 21
15.381244035
  0
LINE
  5
25B
100
AcDbEntity
  8
RACCORDO
100
AcDbLine
 62
7
  6
CONTINUOUS
 10
39.604354341
 20
16.8931023187
 11
36.2360139181
 21
15.1467664355
  0
LWPOLYLINE
  5
25C
100
AcDbEntity
  8
RACCORDO
100
AcDbPolyline
 62
250
  6
CONTINUOUS
 90
22
 70
0
 10
36.3500545514
 20
15.381244035
 10
36.3134857826
 20
15.3637759284
 10
36.2774859447
 20
15.3494605913
 10
36.2420550377
 20
15.3382980238
 10
36.2070004698
 20
15.3302547025
 10
36.1725148328
 20
15.3253641508
 10
36.1391759021
 20
15.3237269381
 10
36.1070178978
 20
15.3254019062
 10
36.0760065999
 20
15.3303302134
 10
36.0466171231
 20
15.3384359037
 10
36.018874475
 20
15.3497694946
 10
35.9927536481
 20
15.3642804687
 10
35.9686547353
 20
15.3817413166
 10
35.9466110959
 20
15.4021968125
 10
35.9265893706
 20
15.4256021823
 10
35.9088895749
 20
15.4515955951
 10
35.8935461228
 20
15.480234128
 10
35.8805246003
 20
15.5114607038
 10
35.8700217807
 20
15.5447422609
 10
35.862103255
 20
15.5799011119
 10
35.8567034323
 20
15.6171149442
 10
35.8538223124
 20
15.6563837577
  0
ELLIPSE
  5
25D
100
AcDbEntity
  8
RACCORDO
100
AcDbEllipse
 62
7
  6
CONTINUOUS
 10
39.3607956423
 20
17.330032216
 30
0.0
 11
-0.2501834304
 21
0.4333025529
 31
0.0
 40
0.5769361983
 41
-3.1677535988
 42
-2.3565853618
  0
ELLIPSE
  5
25E
100
AcDbEntity
  8
RACCORDO
100
AcDbEllipse
 62
7
  6
CONTINUOUS
 10
39.3607956423
 20
52.6012682936
 30
0.0
 11
-0.2500121049
 21
0.4330057129
 31
0.0
 40
0.5777274115
 41
-2.3559002616
 42
-0.7857891675
  0
ELLIPSE
  5
25F
100
AcDbEntity
  8
RACCORDO
100
AcDbEllipse
 62
7
  6
CONTINUOUS
 10
24.5117956283
 20
61.1748948
 30
0.0
 11
-0.2501834304
 21
0.4333025529
 31
0.0
 40
0.5769361983
 41
-0.7851038024
 42
0.0261609458
  0
ENDSEC
  0
SECTION
  2
OBJECTS
  0
DICTIONARY
  5
C
100
AcDbDictionary
280
0
281
1
  3
ACAD_GROUP
350
D
  3
ACAD_MLINESTYLE
350
17
  3
ACAD_LAYOUT
350
1A
  3
ACAD_PLOTSETTINGS
350
19
  3
ACAD_PLOTSTYLENAME
350
E
  0
DICTIONARY
  5
D
102
{ACAD_REACTORS
330
C
102
}
100
AcDbDictionary
280
0
281
1
  0
ACDBDICTIONARYWDFLT
  5
E
102
{ACAD_REACTORS
330
C
102
}
100
AcDbDictionary
281
1
  3
Normal
350
F
100
AcDbDictionaryWithDefault
340
F
  0
DICTIONARY
  5
17
102
{ACAD_REACTORS
330
C
102
}
100
AcDbDictionary
280
0
281
1
  3
Standard
350
18
  0
DICTIONARY
  5
19
102
{ACAD_REACTORS
330
C
102
}
100
AcDbDictionary
281
1
  0
DICTIONARY
  5
1A
102
{ACAD_REACTORS
330
C
102
}
100
AcDbDictionary
281
1
  3
Model
350
260
  3
Layout1
350
261
  0
ACDBPLACEHOLDER
  5
F
102
{ACAD_REACTORS
330
E
102
}
  0
MLINESTYLE
  5
18
102
{ACAD_REACTORS
330
17
102
}
100
AcDbMlineStyle
  2
STANDARD
 70
0
  3

 62
256
 51
90.0
 52
90.0
 71
2
 49
0.5
 62
256
  6
BYLAYER
 49
-0.5
 62
256
  6
BYLAYER
  0
LAYOUT
  5
260
102
{ACAD_REACTORS
330
1A
102
}
100
AcDbPlotSettings
  1

  2
none_device
  4
ISO_A4_(297.00_x_210.00_MM)
  6

 40
0.0
 41
0.0
 42
0.0
 43
0.0
 44
297.0
 45
210.0
 46
0.0
 47
0.0
 48
0.0
 49
0.0
140
0.0
141
0.0
142
1.0
143
1.0
 70
1024
 72
1
 73
0
 74
0
  7

 75
0
147
1.0
148
0.0
149
0.0
100
AcDbLayout
  1
Model
 70
0
 71
0
 10
0.0
 20
0.0
 11
297.0
 21
210.0
 12
0.0
 22
0.0
 32
0.0
 14
0.0
 24
0.0
 34
0.0
 15
0.0
 25
0.0
 35
0.0
146
0.0
 13
0.0
 23
0.0
 33
0.0
 16
1.0
 26
0.0
 36
0.0
 17
0.0
 27
1.0
 37
0.0
 76
0
330
215
345
0
346
0
  0
LAYOUT
  5
261
102
{ACAD_REACTORS
330
1A
102
}
100
AcDbPlotSettings
  1

  2
none_device
  4
ISO_A4_(297.00_x_210.00_MM)
  6

 40
0.0
 41
0.0
 42
0.0
 43
0.0
 44
297.0
 45
210.0
 46
0.0
 47
0.0
 48
0.0
 49
0.0
140
0.0
141
0.0
142
1.0
143
1.0
 70
0
 72
1
 73
0
 74
0
  7

 75
0
147
1.0
148
0.0
149
0.0
100
AcDbLayout
  1
Layout1
 70
0
 71
1
 10
0.0
 20
0.0
 11
297.0
 21
210.0
 12
0.0
 22
0.0
 32
0.0
 14
0.0
 24
0.0
 34
0.0
 15
0.0
 25
0.0
 35
0.0
146
0.0
 13
0.0
 23
0.0
 33
0.0
 16
1.0
 26
0.0
 36
0.0
 17
0.0
 27
1.0
 37
0.0
 76
0
330
216
345
0
346
0
  0
ENDSEC
  0
EOF
