  0
SECTION
  2
HEADER
  9
$ACADVER
  1
AC1021
  9
$DWGCODEPAGE
  3
ANSI_1252
  9
$EXTMAX
 10
297.0
 20
210.0
 30
0.0
  9
$EXTMIN
 10
0.0
 20
0.0
 30
0.0
  9
$LIMMIN
 10
0.0
 20
0.0
  9
$LIMMAX
 10
297.0
 20
210.0
  9
$VIEWCTR
 10
148.5
 20
105.0
  9
$VIEWSIZE
 40
210.0
  9
$CLAYER
  8
0
  9
$LTSCALE
 40
16.335
  9
$CELTYPE
  6
BYLAYER
  9
$DIMSCALE
 40
1.0
  9
$DIMASZ
 40
3.0
  9
$DIMEXO
 40
0.5
  9
$DIMDLI
 40
11.286
  9
$DIMEXE
 40
1.5
  9
$DIMCEN
 40
2.673
  9
$DIMLFAC
 40
1.0
  9
$DIMBLK
  1
_FILLED
  9
$DIMALT
 70
0
  9
$DIMALTF
 40
25.4
  9
$DIMTXT
 40
3.0
  9
$DIMTOL
 70
1
  9
$DIMLIM
 70
0
  9
$DIMTFAC
 40
1.0
  9
$DIMTP
 40
0.01
  9
$DIMTM
 40
0.01
  9
$DIMGAP
 40
0.625
  9
$DIMDSEP
 70
44
  9
$AUNITS
 70
0
  9
$PDMODE
 70
3
  9
$PDSIZE
 40
3.0
  9
$HANDSEED
  5
6FE
  9
$TILEMODE
 70
1
  9
$MEASUREMENT
 70
1
  9
$INSUNITS
 70
4
  0
ENDSEC
  0
SECTION
  2
CLASSES
  0
CLASS
  1
ACDBDICTIONARYWDFLT
  2
AcDbDictionaryWithDefault
  3
AutoCAD 2000
 90
0
 91
1
280
0
281
0
  0
CLASS
  1
ACDBPLACEHOLDER
  2
AcDbPlaceHolder
  3
AutoCAD 2000
 90
0
 91
1
280
0
281
0
  0
CLASS
  1
LAYOUT
  2
AcDbLayout
  3
AutoCAD 2000
 90
0
 91
0
280
0
281
0
  0
ENDSEC
  0
SECTION
  2
TABLES
  0
TABLE
  2
VPORT
  5
8
100
AcDbSymbolTable
 70
2
  0
VPORT
  5
1F4
100
AcDbSymbolTableRecord
100
AcDbViewportTableRecord
  2
*ACTIVE
 70
0
 10
0.0
 20
0.0
 11
1.0
 21
1.0
 12
148.5
 22
105.0
 13
0.0
 23
0.0
 14
1.0
 24
1.0
 15
0.0
 25
0.0
 16
0.0
 26
0.0
 36
1.0
 17
0.0
 27
0.0
 37
0.0
 40
210.0
 41
1.4142857143
 42
50.0
 43
0.0
 44
0.0
 50
0.0
 51
0.0
 71
0
 72
100
 73
1
 74
1
 75
0
 76
0
 77
0
 78
0
  0
ENDTAB
  0
TABLE
  2
LTYPE
  5
5
100
AcDbSymbolTable
 70
6
  0
LTYPE
  5
14
100
AcDbSymbolTableRecord
100
AcDbLinetypeTableRecord
  2
BYBLOCK
 70
0
  3

 72
65
 73
0
 40
0.0
  0
LTYPE
  5
15
100
AcDbSymbolTableRecord
100
AcDbLinetypeTableRecord
  2
BYLAYER
 70
0
  3

 72
65
 73
0
 40
0.0
  0
LTYPE
  5
16
100
AcDbSymbolTableRecord
100
AcDbLinetypeTableRecord
  2
CONTINUOUS
 70
64
  3
Solid line
 72
65
 73
0
 40
0.0
  0
LTYPE
  5
1F5
100
AcDbSymbolTableRecord
100
AcDbLinetypeTableRecord
  2
CENTER
 70
64
  3
____ _ ____ _ ____ _ ____ _ ____ _ ____ _ ____
 72
65
 73
4
 40
0.6
 49
0.375
 74
0
 49
-0.075
 74
0
 49
0.075
 74
0
 49
-0.075
 74
0
  0
LTYPE
  5
1F6
100
AcDbSymbolTableRecord
100
AcDbLinetypeTableRecord
  2
HIDDEN
 70
64
  3
- - - - - - - - - - - - - - - - - - - -
 72
65
 73
2
 40
0.2
 49
0.1
 74
0
 49
-0.1
 74
0
  0
LTYPE
  5
1F7
100
AcDbSymbolTableRecord
100
AcDbLinetypeTableRecord
  2
PHANTOM
 70
64
  3
_____ _ _ _____ _ _ _____ _ _ _____
 72
65
 73
6
 40
0.8
 49
0.45
 74
0
 49
-0.05
 74
0
 49
0.1
 74
0
 49
-0.05
 74
0
 49
0.1
 74
0
 49
-0.05
 74
0
  0
LTYPE
  5
1F8
100
AcDbSymbolTableRecord
100
AcDbLinetypeTableRecord
  2
DOT
 70
64
  3
. . . . . . . . . . . . . . . . . . . .
 72
65
 73
2
 40
0.2
 49
0.1
 74
0
 49
-0.1
 74
0
  0
LTYPE
  5
1F9
100
AcDbSymbolTableRecord
100
AcDbLinetypeTableRecord
  2
DASHED
 70
64
  3
- - - - - - - - - - - - - - - - - - - -
 72
65
 73
2
 40
0.2
 49
0.1
 74
0
 49
-0.1
 74
0
  0
ENDTAB
  0
TABLE
  2
LAYER
  5
2
100
AcDbSymbolTable
 70
36
  0
LAYER
  5
10
100
AcDbSymbolTableRecord
100
AcDbLayerTableRecord
  2
0
 70
0
 62
7
  6
CONTINUOUS
370
-3
390
F
  0
LAYER
  5
1FA
100
AcDbSymbolTableRecord
100
AcDbLayerTableRecord
  2
DEFAULT_1
 70
0
 62
7
  6
CENTER
370
-3
390
F
  0
LAYER
  5
1FB
100
AcDbSymbolTableRecord
100
AcDbLayerTableRecord
  2
DEFAULT_2
 70
0
 62
7
  6
HIDDEN
370
-3
390
F
  0
LAYER
  5
1FC
100
AcDbSymbolTableRecord
100
AcDbLayerTableRecord
  2
DEFAULT_3
 70
0
 62
7
  6
PHANTOM
370
-3
390
F
  0
LAYER
  5
1FD
100
AcDbSymbolTableRecord
100
AcDbLayerTableRecord
  2
ASSI
 70
0
 62
7
  6
CONTINUOUS
370
-3
390
F
  0
LAYER
  5
1FE
100
AcDbSymbolTableRecord
100
AcDbLayerTableRecord
  2
COORDINATE
 70
0
 62
7
  6
CONTINUOUS
370
-3
390
F
  0
LAYER
  5
1FF
100
AcDbSymbolTableRecord
100
AcDbLayerTableRecord
  2
COPY_PUBLISH
 70
0
 62
7
  6
CONTINUOUS
370
-3
390
F
  0
LAYER
  5
200
100
AcDbSymbolTableRecord
100
AcDbLayerTableRecord
  2
COSMETIC
 70
0
 62
7
  6
CONTINUOUS
370
-3
390
F
  0
LAYER
  5
201
100
AcDbSymbolTableRecord
100
AcDbLayerTableRecord
  2
COSMETICI
 70
0
 62
7
  6
CONTINUOUS
370
-3
390
F
  0
LAYER
  5
202
100
AcDbSymbolTableRecord
100
AcDbLayerTableRecord
  2
CURVE
 70
0
 62
7
  6
CONTINUOUS
370
-3
390
F
  0
LAYER
  5
203
100
AcDbSymbolTableRecord
100
AcDbLayerTableRecord
  2
DRAFT
 70
0
 62
7
  6
CONTINUOUS
370
-3
390
F
  0
LAYER
  5
204
100
AcDbSymbolTableRecord
100
AcDbLayerTableRecord
  2
IMPORT_IGES
 70
0
 62
7
  6
CONTINUOUS
370
-3
390
F
  0
LAYER
  5
205
100
AcDbSymbolTableRecord
100
AcDbLayerTableRecord
  2
INTFCLR_11
 70
0
 62
7
  6
CONTINUOUS
370
-3
390
F
  0
LAYER
  5
206
100
AcDbSymbolTableRecord
100
AcDbLayerTableRecord
  2
INTF_1
 70
0
 62
7
  6
CONTINUOUS
370
-3
390
F
  0
LAYER
  5
207
100
AcDbSymbolTableRecord
100
AcDbLayerTableRecord
  2
INTF_2
 70
0
 62
7
  6
CONTINUOUS
370
-3
390
F
  0
LAYER
  5
208
100
AcDbSymbolTableRecord
100
AcDbLayerTableRecord
  2
INTF_3
 70
0
 62
7
  6
CONTINUOUS
370
-3
390
F
  0
LAYER
  5
209
100
AcDbSymbolTableRecord
100
AcDbLayerTableRecord
  2
INTF_MAGENTA
 70
0
 62
7
  6
CONTINUOUS
370
-3
390
F
  0
LAYER
  5
20A
100
AcDbSymbolTableRecord
100
AcDbLayerTableRecord
  2
NOTE
 70
0
 62
7
  6
CONTINUOUS
370
-3
390
F
  0
LAYER
  5
20B
100
AcDbSymbolTableRecord
100
AcDbLayerTableRecord
  2
PIANI
 70
0
 62
7
  6
CONTINUOUS
370
-3
390
F
  0
LAYER
  5
20C
100
AcDbSymbolTableRecord
100
AcDbLayerTableRecord
  2
PUNTI
 70
0
 62
7
  6
CONTINUOUS
370
-3
390
F
  0
LAYER
  5
20D
100
AcDbSymbolTableRecord
100
AcDbLayerTableRecord
  2
RACCORDO
 70
0
 62
7
  6
CONTINUOUS
370
-3
390
F
  0
LAYER
  5
20E
100
AcDbSymbolTableRecord
100
AcDbLayerTableRecord
  2
SIMBOLI
 70
0
 62
7
  6
CONTINUOUS
370
-3
390
F
  0
LAYER
  5
20F
100
AcDbSymbolTableRecord
100
AcDbLayerTableRecord
  2
SMUSSO
 70
0
 62
7
  6
CONTINUOUS
370
-3
390
F
  0
LAYER
  5
210
100
AcDbSymbolTableRecord
100
AcDbLayerTableRecord
  2
SNAPLINE
 70
0
 62
7
  6
CONTINUOUS
370
-3
390
F
  0
LAYER
  5
211
100
AcDbSymbolTableRecord
100
AcDbLayerTableRecord
  2
STANDARD
 70
0
 62
7
  6
CONTINUOUS
370
-3
390
F
  0
LAYER
  5
212
100
AcDbSymbolTableRecord
100
AcDbLayerTableRecord
  2
SUPERFICI
 70
0
 62
7
  6
CONTINUOUS
370
-3
390
F
  0
LAYER
  5
213
100
AcDbSymbolTableRecord
100
AcDbLayerTableRecord
  2
TRASH
 70
0
 62
7
  6
CONTINUOUS
370
-3
390
F
  0
LAYER
  5
214
100
AcDbSymbolTableRecord
100
AcDbLayerTableRecord
  2
___SHELL
 70
0
 62
7
  6
CONTINUOUS
370
-3
390
F
  0
ENDTAB
  0
TABLE
  2
STYLE
  5
3
100
AcDbSymbolTable
 70
1
  0
STYLE
  5
11
100
AcDbSymbolTableRecord
100
AcDbTextStyleTableRecord
  2
STANDARD
 70
0
 40
0.0
 41
0.8
 50
0.0
 71
0
 42
0.2
  3
txt
  4

  0
STYLE
  5
215
100
AcDbSymbolTableRecord
100
AcDbTextStyleTableRecord
  2
TEXTSTYLE_1
 70
0
 40
0.0
 41
0.8
 50
0.0
 71
0
 42
0.2
  3
gdt
  4

  0
ENDTAB
  0
TABLE
  2
VIEW
  5
6
100
AcDbSymbolTable
 70
0
  0
ENDTAB
  0
TABLE
  2
UCS
  5
7
100
AcDbSymbolTable
 70
0
  0
ENDTAB
  0
TABLE
  2
APPID
  5
9
100
AcDbSymbolTable
 70
1
  0
APPID
  5
216
100
AcDbSymbolTableRecord
100
AcDbRegAppTableRecord
  2
ACAD
 70
0
  0
ENDTAB
  0
TABLE
  2
BLOCK_RECORD
  5
1
100
AcDbSymbolTable
 70
0
  0
BLOCK_RECORD
  5
217
100
AcDbSymbolTableRecord
100
AcDbBlockTableRecord
  2
*Model_Space
  0
BLOCK_RECORD
  5
218
100
AcDbSymbolTableRecord
100
AcDbBlockTableRecord
  2
*Paper_Space
  0
BLOCK_RECORD
  5
219
100
AcDbSymbolTableRecord
100
AcDbBlockTableRecord
  2
_FILLED
  0
ENDTAB
  0
TABLE
  2
DIMSTYLE
  5
A
100
AcDbSymbolTable
 70
1
100
AcDbDimStyleTable
 71
0
  0
DIMSTYLE
105
21A
100
AcDbSymbolTableRecord
100
AcDbDimStyleTableRecord
  2
STANDARD
 70
0
  3

  4

 40
1.0
 41
3.0
 42
0.5
 43
0.38
 44
1.5
 45
0.0
 46
0.0
 47
0.01
 48
0.01
140
3.0
141
0.09
142
0.0
143
25.4
144
1.0
145
0.0
146
1.0
147
0.625
 71
1.0
 72
0.0
 73
0
 74
0
 75
0
 76
0
 77
1
 78
8
 79
2
170
0
171
1
172
0
173
0
174
0
175
0
176
0
177
0
178
0
270
2
179
2
271
2
272
2
273
2
274
2
275
0
280
0
281
0
282
0
283
1
284
8
285
0
286
0
287
3
288
0
340
11
278
44
341
219
342
219
343
219
344
219
  0
ENDTAB
  0
ENDSEC
  0
SECTION
  2
BLOCKS
  0
BLOCK
  5
20
100
AcDbEntity
  8
0
100
AcDbBlockBegin
  2
*Model_Space
 70
0
 10
0.0
 20
0.0
 30
0.0
  3
*Model_Space
  1

  0
ENDBLK
  5
21
100
AcDbEntity
  8
0
100
AcDbBlockEnd
  0
BLOCK
  5
1C
100
AcDbEntity
  8
0
100
AcDbBlockBegin
  2
*Paper_Space
 70
0
 10
0.0
 20
0.0
 30
0.0
  3
*Paper_Space
  1

  0
ENDBLK
  5
1D
100
AcDbEntity
  8
0
100
AcDbBlockEnd
  0
BLOCK
  5
21B
100
AcDbEntity
  8
0
100
AcDbBlockBegin
  2
_FILLED
 70
64
 10
0.0
 20
0.0
  3
_FILLED
  1

  0
SOLID
  5
21C
100
AcDbEntity
  8
0
  6
BYBLOCK
 62
0
100
AcDbTrace
 10
0.0
 20
0.0
 11
-1.0
 21
0.1333333333
 12
-1.0
 22
-0.1333333333
 13
-1.0
 23
-0.1333333333
  0
ENDBLK
  5
21D
100
AcDbEntity
  8
0
  6
BYBLOCK
 62
0
100
AcDbBlockEnd
  0
ENDSEC
  0
SECTION
  2
ENTITIES
  0
LINE
  5
21E
100
AcDbEntity
  8
ASSI
100
AcDbLine
 62
7
  6
CONTINUOUS
 10
-8.9072629532
 20
-15.1993139645
 11
-8.9000897483
 21
-15.2646412287
  0
LINE
  5
21F
100
AcDbEntity
  8
SIMBOLI
100
AcDbLine
 62
7
  6
CONTINUOUS
 10
-2.5168386421
 20
-9.7045480184
 11
-2.5158167364
 21
-9.7146860741
  0
LINE
  5
220
100
AcDbEntity
  8
ASSI
100
AcDbLine
 62
7
  6
CONTINUOUS
 10
-9.1099904117
 20
-14.9378146626
 11
-9.1020959904
 21
-15.0300435016
  0
LINE
  5
221
100
AcDbEntity
  8
SIMBOLI
100
AcDbLine
 62
7
  6
CONTINUOUS
 10
-2.5158167364
 20
-9.7146860741
 11
-2.5149816514
 21
-9.7246827961
  0
LINE
  5
222
100
AcDbEntity
  8
SIMBOLI
100
AcDbLine
 62
7
  6
CONTINUOUS
 10
-2.5149816514
 20
-9.7246827961
 11
-2.5143287845
 21
-9.7345437938
  0
LINE
  5
223
100
AcDbEntity
  8
ASSI
100
AcDbLine
 62
7
  6
CONTINUOUS
 10
-8.9110424273
 20
-15.1306367729
 11
-8.9072629532
 21
-15.1993139645
  0
LINE
  5
224
100
AcDbEntity
  8
ASSI
100
AcDbLine
 62
7
  6
CONTINUOUS
 10
-9.1107317862
 20
-14.9161632141
 11
-9.1110995711
 21
-14.9087874952
  0
LINE
  5
225
100
AcDbEntity
  8
SIMBOLI
100
AcDbLine
 62
7
  6
CONTINUOUS
 10
-2.5143287845
 20
-9.7345437938
 11
-2.5138556129
 21
-9.7442688592
  0
LINE
  5
226
100
AcDbEntity
  8
ASSI
100
AcDbLine
 62
7
  6
CONTINUOUS
 10
-9.1110995711
 20
-14.9087874952
 11
-9.1099904117
 21
-14.9378146626
  0
LINE
  5
227
100
AcDbEntity
  8
SIMBOLI
100
AcDbLine
 62
7
  6
CONTINUOUS
 10
-2.5138556129
 20
-9.7442688592
 11
-2.5135601338
 21
-9.7538563301
  0
LINE
  5
228
100
AcDbEntity
  8
ASSI
100
AcDbLine
 62
7
  6
CONTINUOUS
 10
-9.1107380267
 20
20.0072467942
 11
-9.1111298574
 21
20.0210675476
  0
LINE
  5
229
100
AcDbEntity
  8
ASSI
100
AcDbLine
 62
7
  6
CONTINUOUS
 10
-9.0061730856
 20
-11.3314099751
 11
-8.9110424316
 21
-15.1306367794
  0
LINE
  5
22A
100
AcDbEntity
  8
ASSI
100
AcDbLine
 62
7
  6
CONTINUOUS
 10
-9.2022990105
 20
-11.1577492764
 11
-9.1111059425
 21
-14.9087776987
  0
LINE
  5
22B
100
AcDbEntity
  8
ASSI
100
AcDbLine
 62
7
  6
CONTINUOUS
 10
-9.0775430599
 20
-7.5105206844
 11
-9.0061730856
 21
-11.3314099751
  0
LINE
  5
22C
100
AcDbEntity
  8
SIMBOLI
100
AcDbLine
 62
7
  6
CONTINUOUS
 10
-3.4775542316
 20
-10.3670686365
 11
-3.5036534317
 21
-8.9630663413
  0
LINE
  5
22D
100
AcDbEntity
  8
ASSI
100
AcDbLine
 62
7
  6
CONTINUOUS
 10
-9.2719577703
 20
-7.3243812133
 11
-9.2022990105
 21
-11.1577492764
  0
LINE
  5
22E
100
AcDbEntity
  8
ASSI
100
AcDbLine
 62
7
  6
CONTINUOUS
 10
-9.1251353008
 20
-3.6683070154
 11
-9.0775430599
 21
-7.5105206844
  0
LINE
  5
22F
100
AcDbEntity
  8
ASSI
100
AcDbLine
 62
7
  6
CONTINUOUS
 10
-9.3184032433
 20
-3.4695396605
 11
-9.2719577703
 21
-7.3243812133
  0
LINE
  5
230
100
AcDbEntity
  8
ASSI
100
AcDbLine
 62
7
  6
CONTINUOUS
 10
-9.1489364251
 20
0.1950647452
 11
-9.1251353008
 21
-3.6683070154
  0
LINE
  5
231
100
AcDbEntity
  8
ASSI
100
AcDbLine
 62
7
  6
CONTINUOUS
 10
-9.3416188295
 20
0.4063874746
 11
-9.3184032433
 21
-3.4695396605
  0
LINE
  5
232
100
AcDbEntity
  8
ASSI
100
AcDbLine
 62
7
  6
CONTINUOUS
 10
-9.3416019731
 20
4.3030664618
 11
-9.3416188295
 21
0.4063874746
  0
LINE
  5
233
100
AcDbEntity
  8
ASSI
100
AcDbLine
 62
7
  6
CONTINUOUS
 10
-9.1489364339
 20
4.0790743773
 11
-9.1489364251
 21
0.1950647452
  0
LINE
  5
234
100
AcDbEntity
  8
ASSI
100
AcDbLine
 62
7
  6
CONTINUOUS
 10
-9.318353305
 20
8.2201872201
 11
-9.3416019731
 21
4.3030664618
  0
LINE
  5
235
100
AcDbEntity
  8
ASSI
100
AcDbLine
 62
7
  6
CONTINUOUS
 10
-9.1251353242
 20
7.9828424397
 11
-9.1489364339
 21
4.0790743773
  0
LINE
  5
236
100
AcDbEntity
  8
ASSI
100
AcDbLine
 62
7
  6
CONTINUOUS
 10
-9.2718766521
 20
12.1574102846
 11
-9.318353305
 21
8.2201872201
  0
LINE
  5
237
100
AcDbEntity
  8
ASSI
100
AcDbLine
 62
7
  6
CONTINUOUS
 10
-9.0775430897
 20
11.905831945
 11
-9.1251353242
 21
7.9828424397
  0
LINE
  5
238
100
AcDbEntity
  8
ASSI
100
AcDbLine
 62
7
  6
CONTINUOUS
 10
-9.202189885
 20
16.1143171011
 11
-9.2718766521
 21
12.1574102846
  0
LINE
  5
239
100
AcDbEntity
  8
ASSI
100
AcDbLine
 62
7
  6
CONTINUOUS
 10
-9.0061731083
 20
15.8478541619
 11
-9.0775430897
 21
11.905831945
  0
LINE
  5
23A
100
AcDbEntity
  8
ASSI
100
AcDbLine
 62
7
  6
CONTINUOUS
 10
-9.1111229202
 20
20.0213443662
 11
-9.202189885
 21
16.1143171011
  0
LINE
  5
23B
100
AcDbEntity
  8
ASSI
100
AcDbLine
 62
7
  6
CONTINUOUS
 10
-8.9110424285
 20
19.8085423811
 11
-9.0061731083
 21
15.8478541619
  0
LINE
  5
23C
100
AcDbEntity
  8
ASSI
100
AcDbLine
 62
7
  6
CONTINUOUS
 10
-9.1104434212
 20
20.0417872165
 11
-9.1111241089
 21
20.0210674007
  0
LINE
  5
23D
100
AcDbEntity
  8
ASSI
100
AcDbLine
 62
7
  6
CONTINUOUS
 10
8.7898516949
 20
-21.8415562461
 11
8.846103392
 21
-21.8552675997
  0
LINE
  5
23E
100
AcDbEntity
  8
ASSI
100
AcDbLine
 62
7
  6
CONTINUOUS
 10
8.5242361293
 20
-21.2973679793
 11
8.5683506652
 21
-21.3090000427
  0
LINE
  5
23F
100
AcDbEntity
  8
ASSI
100
AcDbLine
 62
7
  6
CONTINUOUS
 10
9.352941937
 20
-21.5185321682
 11
9.3299932589
 21
-21.5118509263
  0
LINE
  5
240
100
AcDbEntity
  8
ASSI
100
AcDbLine
 62
7
  6
CONTINUOUS
 10
8.781406726
 20
-21.8390398148
 11
8.7898516949
 21
-21.8415562461
  0
LINE
  5
241
100
AcDbEntity
  8
SIMBOLI
100
AcDbLine
 62
7
  6
CONTINUOUS
 10
0.6759224471
 20
-11.6813371578
 11
0.6892736838
 21
-11.6853711941
  0
LINE
  5
242
100
AcDbEntity
  8
ASSI
100
AcDbLine
 62
7
  6
CONTINUOUS
 10
7.8121438563
 20
-21.0801723417
 11
8.5242361278
 21
-21.2973679607
  0
LINE
  5
243
100
AcDbEntity
  8
SIMBOLI
100
AcDbLine
 62
7
  6
CONTINUOUS
 10
1.8949183362
 20
-12.2868696337
 11
1.8696943792
 21
-12.2791763652
  0
LINE
  5
244
100
AcDbEntity
  8
SIMBOLI
100
AcDbLine
 62
7
  6
CONTINUOUS
 10
-2.9089312643
 20
-10.0316803627
 11
-2.9180550711
 21
-10.0288901213
  0
LINE
  5
245
100
AcDbEntity
  8
ASSI
100
AcDbLine
 62
7
  6
CONTINUOUS
 10
7.120564877
 20
-20.8666167191
 11
7.8121438563
 21
-21.0801723417
  0
LINE
  5
246
100
AcDbEntity
  8
ASSI
100
AcDbLine
 62
7
  6
CONTINUOUS
 10
6.8449137302
 20
-21.2386889063
 11
8.7816181825
 21
-21.8391064802
  0
LINE
  5
247
100
AcDbEntity
  8
ASSI
100
AcDbLine
 62
7
  6
CONTINUOUS
 10
6.4493533364
 20
-20.6568617213
 11
7.120564877
 21
-20.8666167191
  0
LINE
  5
248
100
AcDbEntity
  8
SIMBOLI
100
AcDbLine
 62
7
  6
CONTINUOUS
 10
1.821145421
 20
-10.8453224755
 11
1.8395775224
 21
-10.8510849322
  0
LINE
  5
249
100
AcDbEntity
  8
SIMBOLI
100
AcDbLine
 62
7
  6
CONTINUOUS
 10
0.6999444429
 20
-11.8797891996
 11
0.6748940022
 21
-11.8719494024
  0
LINE
  5
24A
100
AcDbEntity
  8
SIMBOLI
100
AcDbLine
 62
7
  6
CONTINUOUS
 10
1.8574040552
 20
-12.0842801019
 11
1.8708044295
 21
-12.0885046109
  0
LINE
  5
24B
100
AcDbEntity
  8
ASSI
100
AcDbLine
 62
7
  6
CONTINUOUS
 10
5.8005315165
 20
-20.4517509062
 11
6.4493533364
 21
-20.6568617213
  0
LINE
  5
24C
100
AcDbEntity
  8
SIMBOLI
100
AcDbLine
 62
7
  6
CONTINUOUS
 10
1.8454170544
 20
-11.0386310011
 11
1.8339642956
 21
-11.0349730477
  0
LINE
  5
24D
100
AcDbEntity
  8
ASSI
100
AcDbLine
 62
7
  6
CONTINUOUS
 10
5.1717784774
 20
-20.2507584026
 11
5.8005315165
 21
-20.4517509062
  0
LINE
  5
24E
100
AcDbEntity
  8
ASSI
100
AcDbLine
 62
7
  6
CONTINUOUS
 10
4.8278429138
 20
-20.5923217276
 11
6.8449137302
 21
-21.2386889063
  0
LINE
  5
24F
100
AcDbEntity
  8
SIMBOLI
100
AcDbLine
 62
7
  6
CONTINUOUS
 10
0.6262679228
 20
-10.4382111315
 11
0.6445702499
 21
-10.4440841787
  0
LINE
  5
250
100
AcDbEntity
  8
ASSI
100
AcDbLine
 62
7
  6
CONTINUOUS
 10
4.5564907641
 20
-20.0519331212
 11
5.1717784774
 21
-20.2507584026
  0
LINE
  5
251
100
AcDbEntity
  8
SIMBOLI
100
AcDbLine
 62
7
  6
CONTINUOUS
 10
0.662615472
 20
-11.6770348428
 11
0.6759224471
 21
-11.6813371578
  0
LINE
  5
252
100
AcDbEntity
  8
SIMBOLI
100
AcDbLine
 62
7
  6
CONTINUOUS
 10
-2.9180550711
 20
-10.0288901213
 11
-2.9272271473
 21
-10.0259189707
  0
LINE
  5
253
100
AcDbEntity
  8
ASSI
100
AcDbLine
 62
7
  6
CONTINUOUS
 10
3.9547831934
 20
-19.8554345118
 11
4.5564907641
 21
-20.0519331212
  0
LINE
  5
254
100
AcDbEntity
  8
SIMBOLI
100
AcDbLine
 62
7
  6
CONTINUOUS
 10
0.6503514083
 20
-10.6315927621
 11
0.6389791873
 21
-10.6278674028
  0
LINE
  5
255
100
AcDbEntity
  8
ASSI
100
AcDbLine
 62
7
  6
CONTINUOUS
 10
3.3663698701
 20
-19.6612883368
 11
3.9547831934
 21
-19.8554345118
  0
LINE
  5
256
100
AcDbEntity
  8
SIMBOLI
100
AcDbLine
 62
7
  6
CONTINUOUS
 10
1.8696943792
 20
-12.2791763652
 11
1.8445426133
 21
-12.2708799252
  0
LINE
  5
257
100
AcDbEntity
  8
ASSI
100
AcDbLine
 62
7
  6
CONTINUOUS
 10
2.8288156384
 20
-19.9299916684
 11
4.8278429138
 21
-20.5923217276
  0
LINE
  5
258
100
AcDbEntity
  8
SIMBOLI
100
AcDbLine
 62
7
  6
CONTINUOUS
 10
1.8395775224
 20
-10.8510849322
 11
1.8582007852
 21
-10.8572797293
  0
LINE
  5
259
100
AcDbEntity
  8
ASSI
100
AcDbLine
 62
7
  6
CONTINUOUS
 10
2.7841590578
 20
-19.4672378731
 11
3.3663698701
 21
-19.6612883368
  0
LINE
  5
25A
100
AcDbEntity
  8
SIMBOLI
100
AcDbLine
 62
7
  6
CONTINUOUS
 10
1.8440523082
 20
-12.0798021204
 11
1.8574040552
 21
-12.0842801019
  0
LINE
  5
25B
100
AcDbEntity
  8
ASSI
100
AcDbLine
 62
7
  6
CONTINUOUS
 10
2.2071485039
 20
-19.2729906259
 11
2.7841590578
 21
-19.4672378731
  0
LINE
  5
25C
100
AcDbEntity
  8
SIMBOLI
100
AcDbLine
 62
7
  6
CONTINUOUS
 10
0.6748940022
 20
-11.8719494024
 11
0.6499145964
 21
-11.8635067816
  0
LINE
  5
25D
100
AcDbEntity
  8
SIMBOLI
100
AcDbLine
 62
7
  6
CONTINUOUS
 10
1.8569879696
 20
-11.0425523713
 11
1.8454170544
 21
-11.0386310011
  0
LINE
  5
25E
100
AcDbEntity
  8
ASSI
100
AcDbLine
 62
7
  6
CONTINUOUS
 10
1.6362916337
 20
-19.0789079908
 11
2.2071485039
 21
-19.2729906259
  0
LINE
  5
25F
100
AcDbEntity
  8
SIMBOLI
100
AcDbLine
 62
7
  6
CONTINUOUS
 10
0.6445702499
 20
-10.4440841787
 11
0.6630622845
 21
-10.4503905256
  0
LINE
  5
260
100
AcDbEntity
  8
SIMBOLI
100
AcDbLine
 62
7
  6
CONTINUOUS
 10
-2.9272271473
 20
-10.0259189707
 11
-2.9364467781
 21
-10.0227663149
  0
LINE
  5
261
100
AcDbEntity
  8
ASSI
100
AcDbLine
 62
7
  6
CONTINUOUS
 10
0.848294663
 20
-19.2518440439
 11
2.8288156384
 21
-19.9299916684
  0
LINE
  5
262
100
AcDbEntity
  8
ASSI
100
AcDbLine
 62
7
  6
CONTINUOUS
 10
8.7814572931
 20
-21.8390573496
 11
8.7661682173
 21
-21.8338145704
  0
LINE
  5
263
100
AcDbEntity
  8
ASSI
100
AcDbLine
 62
7
  6
CONTINUOUS
 10
1.0675207839
 20
-18.8836328259
 11
1.6362916337
 21
-19.0789079908
  0
LINE
  5
264
100
AcDbEntity
  8
SIMBOLI
100
AcDbLine
 62
7
  6
CONTINUOUS
 10
0.6493566653
 20
-11.6724794052
 11
0.662615472
 21
-11.6770348428
  0
LINE
  5
265
100
AcDbEntity
  8
ASSI
100
AcDbLine
 62
7
  6
CONTINUOUS
 10
0.4997738761
 20
-18.6868004342
 11
1.0675207839
 21
-18.8836328259
  0
LINE
  5
266
100
AcDbEntity
  8
SIMBOLI
100
AcDbLine
 62
7
  6
CONTINUOUS
 10
0.6618410909
 20
-10.6355822312
 11
0.6503514083
 21
-10.6315927621
  0
LINE
  5
267
100
AcDbEntity
  8
ASSI
100
AcDbLine
 62
7
  6
CONTINUOUS
 10
-0.0658693214
 20
-18.4887846928
 11
0.4997738761
 21
-18.6868004342
  0
LINE
  5
268
100
AcDbEntity
  8
SIMBOLI
100
AcDbLine
 62
7
  6
CONTINUOUS
 10
1.8582007852
 20
-10.8572797293
 11
1.8770006141
 21
-10.8638943201
  0
LINE
  5
269
100
AcDbEntity
  8
SIMBOLI
100
AcDbLine
 62
7
  6
CONTINUOUS
 10
-0.7165960895
 20
-11.1830544947
 11
-0.0233065017
 21
-11.427229471
  0
LINE
  5
26A
100
AcDbEntity
  8
SIMBOLI
100
AcDbLine
 62
7
  6
CONTINUOUS
 10
-0.042626934
 20
-10.4083600966
 11
-0.7359297333
 21
-10.164196079
  0
LINE
  5
26B
100
AcDbEntity
  8
SIMBOLI
100
AcDbLine
 62
7
  6
CONTINUOUS
 10
-0.0194261813
 20
-11.6193841836
 11
-0.7541247114
 21
-11.3605137919
  0
LINE
  5
26C
100
AcDbEntity
  8
SIMBOLI
100
AcDbLine
 62
7
  6
CONTINUOUS
 10
-0.7807574715
 20
-9.9569589768
 11
-0.0460415555
 21
-10.2158149466
  0
LINE
  5
26D
100
AcDbEntity
  8
SIMBOLI
100
AcDbLine
 62
7
  6
CONTINUOUS
 10
-0.1335660156
 20
-10.9708851983
 11
-0.7248334351
 21
-10.762432635
  0
LINE
  5
26E
100
AcDbEntity
  8
SIMBOLI
100
AcDbLine
 62
7
  6
CONTINUOUS
 10
-0.7284367014
 20
-10.5724144278
 11
-0.13716769
 21
-10.7808656707
  0
LINE
  5
26F
100
AcDbEntity
  8
SIMBOLI
100
AcDbLine
 62
7
  6
CONTINUOUS
 10
1.8445426133
 20
-12.2708799252
 11
1.8193892328
 21
-12.2620061264
  0
LINE
  5
270
100
AcDbEntity
  8
ASSI
100
AcDbLine
 62
7
  6
CONTINUOUS
 10
-0.6302234905
 20
-18.2893013319
 11
-0.0658693214
 21
-18.4887846928
  0
LINE
  5
271
100
AcDbEntity
  8
ASSI
100
AcDbLine
 62
7
  6
CONTINUOUS
 10
-1.1132585321
 20
-18.5580266514
 11
0.848294663
 21
-19.2518440439
  0
LINE
  5
272
100
AcDbEntity
  8
SIMBOLI
100
AcDbLine
 62
7
  6
CONTINUOUS
 10
1.8307517774
 20
-12.0750849361
 11
1.8440523082
 21
-12.0798021204
  0
LINE
  5
273
100
AcDbEntity
  8
SIMBOLI
100
AcDbLine
 62
7
  6
CONTINUOUS
 10
-1.7119921148
 20
-9.623230727
 11
-1.7029260776
 21
-9.6264485163
  0
LINE
  5
274
100
AcDbEntity
  8
SIMBOLI
100
AcDbLine
 62
7
  6
CONTINUOUS
 10
-0.7541247114
 20
-11.3605137919
 11
-0.9314879339
 21
-11.2974453412
  0
LINE
  5
275
100
AcDbEntity
  8
SIMBOLI
100
AcDbLine
 62
7
  6
CONTINUOUS
 10
-0.9581147698
 20
-9.8938856118
 11
-0.7807574715
 21
-9.9569589768
  0
LINE
  5
276
100
AcDbEntity
  8
ASSI
100
AcDbLine
 62
7
  6
CONTINUOUS
 10
-1.1936360793
 20
-18.0882225784
 11
-0.6302234905
 21
-18.2893013319
  0
LINE
  5
277
100
AcDbEntity
  8
SIMBOLI
100
AcDbLine
 62
7
  6
CONTINUOUS
 10
1.8686413194
 20
-11.0467180815
 11
1.8569879696
 21
-11.0425523713
  0
LINE
  5
278
100
AcDbEntity
  8
SIMBOLI
100
AcDbLine
 62
7
  6
CONTINUOUS
 10
-1.2017165601
 20
-11.2009302659
 11
-1.4534713616
 21
-11.1105337684
  0
LINE
  5
279
100
AcDbEntity
  8
SIMBOLI
100
AcDbLine
 62
7
  6
CONTINUOUS
 10
-2.9364467781
 20
-10.0227663149
 11
-2.9457132485
 21
-10.0194315581
  0
LINE
  5
27A
100
AcDbEntity
  8
ASSI
100
AcDbLine
 62
7
  6
CONTINUOUS
 10
-1.7557323476
 20
-17.8856773364
 11
-1.1936360793
 21
-18.0882225784
  0
LINE
  5
27B
100
AcDbEntity
  8
SIMBOLI
100
AcDbLine
 62
7
  6
CONTINUOUS
 10
0.6630622845
 20
-10.4503905256
 11
0.6817295326
 21
-10.4571175529
  0
LINE
  5
27C
100
AcDbEntity
  8
SIMBOLI
100
AcDbLine
 62
7
  6
CONTINUOUS
 10
0.6499145964
 20
-11.8635067816
 11
0.6249331904
 21
-11.8544867749
  0
LINE
  5
27D
100
AcDbEntity
  8
SIMBOLI
100
AcDbLine
 62
7
  6
CONTINUOUS
 10
0.636148605
 20
-11.6676851222
 11
0.6493566653
 21
-11.6724794052
  0
LINE
  5
27E
100
AcDbEntity
  8
SIMBOLI
100
AcDbLine
 62
7
  6
CONTINUOUS
 10
-1.7165357382
 20
-10.2485544103
 11
-2.0326476333
 21
-10.1337977491
  0
LINE
  5
27F
100
AcDbEntity
  8
SIMBOLI
100
AcDbLine
 62
7
  6
CONTINUOUS
 10
-1.7624076831
 20
-10.4137162206
 11
-2.0291841385
 21
-10.3168280586
  0
LINE
  5
280
100
AcDbEntity
  8
SIMBOLI
100
AcDbLine
 62
7
  6
CONTINUOUS
 10
-2.0406712862
 20
-9.6952323948
 11
-1.7245749379
 21
-9.8100019084
  0
LINE
  5
281
100
AcDbEntity
  8
ASSI
100
AcDbLine
 62
7
  6
CONTINUOUS
 10
-2.3162390279
 20
-17.6817624011
 11
-1.7557323476
 21
-17.8856773364
  0
LINE
  5
282
100
AcDbEntity
  8
SIMBOLI
100
AcDbLine
 62
7
  6
CONTINUOUS
 10
-2.2610992488
 20
-9.4234443503
 11
-1.7119919362
 21
-9.6232409331
  0
LINE
  5
283
100
AcDbEntity
  8
SIMBOLI
100
AcDbLine
 62
7
  6
CONTINUOUS
 10
-2.017567594
 20
-10.9063498825
 11
-2.2346380217
 21
-10.827149997
  0
LINE
  5
284
100
AcDbEntity
  8
ASSI
100
AcDbLine
 62
7
  6
CONTINUOUS
 10
-3.0553895996
 20
-17.8486944139
 11
-1.1132585321
 21
-18.5580266514
  0
LINE
  5
285
100
AcDbEntity
  8
SIMBOLI
100
AcDbLine
 62
7
  6
CONTINUOUS
 10
0.6734127478
 20
-10.6398165058
 11
0.6618410909
 21
-10.6355822312
  0
LINE
  5
286
100
AcDbEntity
  8
ASSI
100
AcDbLine
 62
7
  6
CONTINUOUS
 10
-2.8750714005
 20
-17.4765085889
 11
-2.3162390279
 21
-17.6817624011
  0
LINE
  5
287
100
AcDbEntity
  8
ASSI
100
AcDbLine
 62
7
  6
CONTINUOUS
 10
-3.4322939696
 20
-17.2698922288
 11
-2.8750714005
 21
-17.4765085889
  0
LINE
  5
288
100
AcDbEntity
  8
SIMBOLI
100
AcDbLine
 62
7
  6
CONTINUOUS
 10
1.8770006141
 20
-10.8638943201
 11
1.8959551449
 21
-10.8709383583
  0
LINE
  5
289
100
AcDbEntity
  8
SIMBOLI
100
AcDbLine
 62
7
  6
CONTINUOUS
 10
-2.9550256165
 20
-10.0159260565
 11
-3.2728463821
 21
-9.8976259891
  0
LINE
  5
28A
100
AcDbEntity
  8
SIMBOLI
100
AcDbLine
 62
7
  6
CONTINUOUS
 10
-2.9708934167
 20
-9.8166954607
 11
-3.2764978819
 21
-9.7029119622
  0
LINE
  5
28B
100
AcDbEntity
  8
SIMBOLI
100
AcDbLine
 62
7
  6
CONTINUOUS
 10
-1.7029260776
 20
-9.6264485163
 11
-1.6938974967
 21
-9.6298087908
  0
LINE
  5
28C
100
AcDbEntity
  8
SIMBOLI
100
AcDbLine
 62
7
  6
CONTINUOUS
 10
-3.2849410746
 20
-9.2362751757
 11
-2.9793685924
 21
-9.3500851185
  0
LINE
  5
28D
100
AcDbEntity
  8
SIMBOLI
100
AcDbLine
 62
7
  6
CONTINUOUS
 10
1.8174997006
 20
-12.0701393288
 11
1.8307517774
 21
-12.0750849361
  0
LINE
  5
28E
100
AcDbEntity
  8
SIMBOLI
100
AcDbLine
 62
7
  6
CONTINUOUS
 10
-3.5036538074
 20
-8.9630444874
 11
-2.971724463
 21
-9.1616014209
  0
LINE
  5
28F
100
AcDbEntity
  8
SIMBOLI
100
AcDbLine
 62
7
  6
CONTINUOUS
 10
-3.2621225841
 20
-10.4476417599
 11
-3.4775544209
 21
-10.3670591622
  0
LINE
  5
290
100
AcDbEntity
  8
ASSI
100
AcDbLine
 62
7
  6
CONTINUOUS
 10
-3.987859892
 20
-17.0619305228
 11
-3.4322939696
 21
-17.2698922288
  0
LINE
  5
291
100
AcDbEntity
  8
SIMBOLI
100
AcDbLine
 62
7
  6
CONTINUOUS
 10
1.880400746
 20
-11.0511285899
 11
1.8686413194
 21
-11.0467180815
  0
LINE
  5
292
100
AcDbEntity
  8
SIMBOLI
100
AcDbLine
 62
7
  6
CONTINUOUS
 10
1.8193892328
 20
-12.2620061264
 11
1.7943531877
 21
-12.2525991041
  0
LINE
  5
293
100
AcDbEntity
  8
ASSI
100
AcDbLine
 62
7
  6
CONTINUOUS
 10
-4.9776543328
 20
-17.1240092221
 11
-3.0553895996
 21
-17.8486944139
  0
LINE
  5
294
100
AcDbEntity
  8
SIMBOLI
100
AcDbLine
 62
7
  6
CONTINUOUS
 10
-2.9457132485
 20
-10.0194315581
 11
-2.9550258438
 21
-10.0159141045
  0
LINE
  5
295
100
AcDbEntity
  8
ASSI
100
AcDbLine
 62
7
  6
CONTINUOUS
 10
-4.5417981087
 20
-16.8526123031
 11
-3.987859892
 21
-17.0619305228
  0
LINE
  5
296
100
AcDbEntity
  8
SIMBOLI
100
AcDbLine
 62
7
  6
CONTINUOUS
 10
-2.9717248086
 20
-9.1615814609
 11
-2.957547554
 21
-9.1669445264
  0
LINE
  5
297
100
AcDbEntity
  8
SIMBOLI
100
AcDbLine
 62
7
  6
CONTINUOUS
 10
0.6817295326
 20
-10.4571175529
 11
0.7005502953
 21
-10.4642747742
  0
LINE
  5
298
100
AcDbEntity
  8
ASSI
100
AcDbLine
 62
7
  6
CONTINUOUS
 10
-5.0940594081
 20
-16.6419558503
 11
-4.5417981087
 21
-16.8526123031
  0
LINE
  5
299
100
AcDbEntity
  8
SIMBOLI
100
AcDbLine
 62
7
  6
CONTINUOUS
 10
0.6229885548
 20
-11.6626627543
 11
0.636148605
 21
-11.6676851222
  0
LINE
  5
29A
100
AcDbEntity
  8
SIMBOLI
100
AcDbLine
 62
7
  6
CONTINUOUS
 10
0.6850898691
 20
-10.6442961882
 11
0.6734127478
 21
-10.6398165058
  0
LINE
  5
29B
100
AcDbEntity
  8
SIMBOLI
100
AcDbLine
 62
7
  6
CONTINUOUS
 10
0.6249331904
 20
-11.8544867749
 11
0.6000680338
 21
-11.8449342417
  0
LINE
  5
29C
100
AcDbEntity
  8
ASSI
100
AcDbLine
 62
7
  6
CONTINUOUS
 10
-5.6444814419
 20
-16.4300238978
 11
-5.0940594081
 21
-16.6419558503
  0
LINE
  5
29D
100
AcDbEntity
  8
ASSI
100
AcDbLine
 62
7
  6
CONTINUOUS
 10
-6.1928759269
 20
-16.2168913232
 11
-5.6444814419
 21
-16.4300238978
  0
LINE
  5
29E
100
AcDbEntity
  8
ASSI
100
AcDbLine
 62
7
  6
CONTINUOUS
 10
-6.8796104011
 20
-16.3841351385
 11
-4.9776543328
 21
-17.1240092221
  0
LINE
  5
29F
100
AcDbEntity
  8
SIMBOLI
100
AcDbLine
 62
7
  6
CONTINUOUS
 10
-1.6938974967
 20
-9.6298087908
 11
-1.6849070712
 21
-9.6333105247
  0
LINE
  5
2A0
100
AcDbEntity
  8
SIMBOLI
100
AcDbLine
 62
7
  6
CONTINUOUS
 10
1.8042919775
 20
-12.0649752056
 11
1.8174997006
 21
-12.0701393288
  0
LINE
  5
2A1
100
AcDbEntity
  8
SIMBOLI
100
AcDbLine
 62
7
  6
CONTINUOUS
 10
1.8922943611
 20
-11.0557892806
 11
1.880400746
 21
-11.0511285899
  0
LINE
  5
2A2
100
AcDbEntity
  8
ASSI
100
AcDbLine
 62
7
  6
CONTINUOUS
 10
-6.7394150702
 20
-16.002493575
 11
-6.1928759269
 21
-16.2168913232
  0
LINE
  5
2A3
100
AcDbEntity
  8
SIMBOLI
100
AcDbLine
 62
7
  6
CONTINUOUS
 10
1.8959551449
 20
-10.8709383583
 11
1.9150406962
 21
-10.8784270471
  0
LINE
  5
2A4
100
AcDbEntity
  8
ASSI
100
AcDbLine
 62
7
  6
CONTINUOUS
 10
-7.2844751781
 20
-15.7866826534
 11
-6.7394150702
 21
-16.002493575
  0
LINE
  5
2A5
100
AcDbEntity
  8
SIMBOLI
100
AcDbLine
 62
7
  6
CONTINUOUS
 10
0.6098724498
 20
-11.6574221829
 11
0.6229885548
 21
-11.6626627543
  0
LINE
  5
2A6
100
AcDbEntity
  8
ASSI
100
AcDbLine
 62
7
  6
CONTINUOUS
 10
-7.8281721118
 20
-15.569409457
 11
-7.2844751781
 21
-15.7866826534
  0
LINE
  5
2A7
100
AcDbEntity
  8
SIMBOLI
100
AcDbLine
 62
7
  6
CONTINUOUS
 10
1.7943531877
 20
-12.2525991041
 11
1.7695587433
 21
-12.2426903921
  0
LINE
  5
2A8
100
AcDbEntity
  8
SIMBOLI
100
AcDbLine
 62
7
  6
CONTINUOUS
 10
0.6969003859
 20
-10.649026834
 11
0.6850898691
 21
-10.6442961882
  0
LINE
  5
2A9
100
AcDbEntity
  8
ASSI
100
AcDbLine
 62
7
  6
CONTINUOUS
 10
-8.664030473
 20
-15.6686544238
 11
-6.8796104011
 21
-16.3841351385
  0
LINE
  5
2AA
100
AcDbEntity
  8
SIMBOLI
100
AcDbLine
 62
7
  6
CONTINUOUS
 10
0.7005502953
 20
-10.4642747742
 11
0.7195010728
 21
-10.4718772362
  0
LINE
  5
2AB
100
AcDbEntity
  8
ASSI
100
AcDbLine
 62
7
  6
CONTINUOUS
 10
-8.3703652094
 20
-15.3507267774
 11
-7.8281721118
 21
-15.569409457
  0
LINE
  5
2AC
100
AcDbEntity
  8
SIMBOLI
100
AcDbLine
 62
7
  6
CONTINUOUS
 10
-2.957547554
 20
-9.1669445264
 11
-2.9435245047
 21
-9.1726117342
  0
LINE
  5
2AD
100
AcDbEntity
  8
SIMBOLI
100
AcDbLine
 62
7
  6
CONTINUOUS
 10
-1.6849070712
 20
-9.6333105247
 11
-1.6759555008
 21
-9.6369526921
  0
LINE
  5
2AE
100
AcDbEntity
  8
ASSI
100
AcDbLine
 62
7
  6
CONTINUOUS
 10
-8.9110424316
 20
-15.1306367794
 11
-8.3703652094
 21
-15.3507267774
  0
LINE
  5
2AF
100
AcDbEntity
  8
SIMBOLI
100
AcDbLine
 62
7
  6
CONTINUOUS
 10
1.7911245083
 20
-12.0596024739
 11
1.8042919775
 21
-12.0649752056
  0
LINE
  5
2B0
100
AcDbEntity
  8
SIMBOLI
100
AcDbLine
 62
7
  6
CONTINUOUS
 10
0.6000680338
 20
-11.8449342417
 11
0.5754426029
 21
-11.8348814592
  0
LINE
  5
2B1
100
AcDbEntity
  8
SIMBOLI
100
AcDbLine
 62
7
  6
CONTINUOUS
 10
1.9043087902
 20
-11.0607057065
 11
1.8922943611
 21
-11.0557892806
  0
LINE
  5
2B2
100
AcDbEntity
  8
SIMBOLI
100
AcDbLine
 62
7
  6
CONTINUOUS
 10
1.9150406962
 20
-10.8784270471
 11
1.9342335865
 21
-10.88637559
  0
LINE
  5
2B3
100
AcDbEntity
  8
SIMBOLI
100
AcDbLine
 62
7
  6
CONTINUOUS
 10
0.5967962251
 20
-11.6519732892
 11
0.6098724498
 21
-11.6574221829
  0
LINE
  5
2B4
100
AcDbEntity
  8
SIMBOLI
100
AcDbLine
 62
7
  6
CONTINUOUS
 10
1.9300780337
 20
-11.6922099455
 11
1.9113850136
 21
-11.6844098378
  0
LINE
  5
2B5
100
AcDbEntity
  8
SIMBOLI
100
AcDbLine
 62
7
  6
CONTINUOUS
 10
0.7088310153
 20
-10.6540139071
 11
0.6969003859
 21
-10.649026834
  0
LINE
  5
2B6
100
AcDbEntity
  8
SIMBOLI
100
AcDbLine
 62
7
  6
CONTINUOUS
 10
0.7195010728
 20
-10.4718772362
 11
0.7385583649
 21
-10.4799399856
  0
LINE
  5
2B7
100
AcDbEntity
  8
SIMBOLI
100
AcDbLine
 62
7
  6
CONTINUOUS
 10
1.7779931929
 20
-12.0540310409
 11
1.7911245083
 21
-12.0596024739
  0
LINE
  5
2B8
100
AcDbEntity
  8
SIMBOLI
100
AcDbLine
 62
7
  6
CONTINUOUS
 10
-1.6759555008
 20
-9.6369526921
 11
-1.6670434846
 21
-9.6407342671
  0
LINE
  5
2B9
100
AcDbEntity
  8
SIMBOLI
100
AcDbLine
 62
7
  6
CONTINUOUS
 10
1.7695587433
 20
-12.2426903921
 11
1.7449586686
 21
-12.2322427962
  0
LINE
  5
2BA
100
AcDbEntity
  8
SIMBOLI
100
AcDbLine
 62
7
  6
CONTINUOUS
 10
0.7346374283
 20
-11.2855057969
 11
0.7160745997
 21
-11.277596858
  0
LINE
  5
2BB
100
AcDbEntity
  8
SIMBOLI
100
AcDbLine
 62
7
  6
CONTINUOUS
 10
1.9164202874
 20
-11.0658834621
 11
1.9043087902
 21
-11.0607057065
  0
LINE
  5
2BC
100
AcDbEntity
  8
SIMBOLI
100
AcDbLine
 62
7
  6
CONTINUOUS
 10
-2.9435245047
 20
-9.1726117342
 11
-2.929655472
 21
-9.1785747291
  0
LINE
  5
2BD
100
AcDbEntity
  8
SIMBOLI
100
AcDbLine
 62
7
  6
CONTINUOUS
 10
1.9113850136
 20
-11.6844098378
 11
1.8927416879
 21
-11.6763905879
  0
LINE
  5
2BE
100
AcDbEntity
  8
SIMBOLI
100
AcDbLine
 62
7
  6
CONTINUOUS
 10
0.583755816
 20
-11.6463259546
 11
0.5967962251
 21
-11.6519732892
  0
LINE
  5
2BF
100
AcDbEntity
  8
SIMBOLI
100
AcDbLine
 62
7
  6
CONTINUOUS
 10
0.5754426029
 20
-11.8348814592
 11
0.5510099947
 21
-11.8242909523
  0
LINE
  5
2C0
100
AcDbEntity
  8
SIMBOLI
100
AcDbLine
 62
7
  6
CONTINUOUS
 10
0.720858171
 20
-10.6592628481
 11
0.7088310153
 21
-10.6540139071
  0
LINE
  5
2C1
100
AcDbEntity
  8
SIMBOLI
100
AcDbLine
 62
7
  6
CONTINUOUS
 10
1.9342335865
 20
-10.88637559
 11
1.9535125821
 21
-10.8948008855
  0
LINE
  5
2C2
100
AcDbEntity
  8
SIMBOLI
100
AcDbLine
 62
7
  6
CONTINUOUS
 10
0.7160745997
 20
-11.277596858
 11
0.6975610281
 21
-11.2694691093
  0
LINE
  5
2C3
100
AcDbEntity
  8
SIMBOLI
100
AcDbLine
 62
7
  6
CONTINUOUS
 10
1.7648948065
 20
-12.0482648719
 11
1.7779931929
 21
-12.0540310409
  0
LINE
  5
2C4
100
AcDbEntity
  8
SIMBOLI
100
AcDbLine
 62
7
  6
CONTINUOUS
 10
-1.6670434846
 20
-9.6407342671
 11
-1.6581717223
 21
-9.644654224
  0
LINE
  5
2C5
100
AcDbEntity
  8
SIMBOLI
100
AcDbLine
 62
7
  6
CONTINUOUS
 10
1.8927416879
 20
-11.6763905879
 11
1.8741487999
 21
-11.6681529586
  0
LINE
  5
2C6
100
AcDbEntity
  8
SIMBOLI
100
AcDbLine
 62
7
  6
CONTINUOUS
 10
0.7385583649
 20
-10.4799399856
 11
0.7577011009
 21
-10.4884797794
  0
LINE
  5
2C7
100
AcDbEntity
  8
SIMBOLI
100
AcDbLine
 62
7
  6
CONTINUOUS
 10
1.9286051067
 20
-11.0713281424
 11
1.9164202874
 21
-11.0658834621
  0
LINE
  5
2C8
100
AcDbEntity
  8
ASSI
100
AcDbLine
 62
7
  6
CONTINUOUS
 10
-8.7059796517
 20
-15.6497884271
 11
-8.6634027381
 21
-15.668908789
  0
LINE
  5
2C9
100
AcDbEntity
  8
SIMBOLI
100
AcDbLine
 62
7
  6
CONTINUOUS
 10
0.5707480224
 20
-11.6404841241
 11
0.583755816
 21
-11.6463259546
  0
LINE
  5
2CA
100
AcDbEntity
  8
SIMBOLI
100
AcDbLine
 62
7
  6
CONTINUOUS
 10
1.7449586686
 20
-12.2322427962
 11
1.7204628587
 21
-12.2212019398
  0
LINE
  5
2CB
100
AcDbEntity
  8
SIMBOLI
100
AcDbLine
 62
7
  6
CONTINUOUS
 10
0.6975610281
 20
-11.2694691093
 11
0.6790974533
 21
-11.261123316
  0
LINE
  5
2CC
100
AcDbEntity
  8
SIMBOLI
100
AcDbLine
 62
7
  6
CONTINUOUS
 10
-2.929655472
 20
-9.1785747291
 11
-2.9159402674
 21
-9.1848251564
  0
LINE
  5
2CD
100
AcDbEntity
  8
SIMBOLI
100
AcDbLine
 62
7
  6
CONTINUOUS
 10
0.7329582667
 20
-10.6647790976
 11
0.720858171
 21
-10.6592628481
  0
LINE
  5
2CE
100
AcDbEntity
  8
SIMBOLI
100
AcDbLine
 62
7
  6
CONTINUOUS
 10
1.8741487999
 20
-11.6681529586
 11
1.8556070933
 21
-11.6596977132
  0
LINE
  5
2CF
100
AcDbEntity
  8
SIMBOLI
100
AcDbLine
 62
7
  6
CONTINUOUS
 10
1.7518296253
 20
-12.0422841645
 11
1.7648948065
 21
-12.0482648719
  0
LINE
  5
2D0
100
AcDbEntity
  8
ASSI
100
AcDbLine
 62
7
  6
CONTINUOUS
 10
-8.9110343838
 20
-15.130630471
 11
-8.9489108204
 21
-15.1132631089
  0
LINE
  5
2D1
100
AcDbEntity
  8
SIMBOLI
100
AcDbLine
 62
7
  6
CONTINUOUS
 10
-1.6581717223
 20
-9.644654224
 11
-1.649340913
 21
-9.648711537
  0
LINE
  5
2D2
100
AcDbEntity
  8
SIMBOLI
100
AcDbLine
 62
7
  6
CONTINUOUS
 10
0.5510099947
 20
-11.8242909523
 11
0.5266807117
 21
-11.8131078085
  0
LINE
  5
2D3
100
AcDbEntity
  8
SIMBOLI
100
AcDbLine
 62
7
  6
CONTINUOUS
 10
1.9535125821
 20
-10.8948008855
 11
1.9728662401
 21
-10.9037266118
  0
LINE
  5
2D4
100
AcDbEntity
  8
SIMBOLI
100
AcDbLine
 62
7
  6
CONTINUOUS
 10
0.6790974533
 20
-11.261123316
 11
0.6606846155
 21
-11.2525602434
  0
LINE
  5
2D5
100
AcDbEntity
  8
ASSI
100
AcDbLine
 62
7
  6
CONTINUOUS
 10
9.3299932589
 20
-21.5118509263
 11
9.3083305016
 21
-21.5017618467
  0
LINE
  5
2D6
100
AcDbEntity
  8
SIMBOLI
100
AcDbLine
 62
7
  6
CONTINUOUS
 10
0.557773105
 20
-11.6344279968
 11
0.5707480224
 21
-11.6404841241
  0
LINE
  5
2D7
100
AcDbEntity
  8
SIMBOLI
100
AcDbLine
 62
7
  6
CONTINUOUS
 10
1.9408428449
 20
-11.0770494455
 11
1.9286051067
 21
-11.0713281424
  0
LINE
  5
2D8
100
AcDbEntity
  8
SIMBOLI
100
AcDbLine
 62
7
  6
CONTINUOUS
 10
1.8556070933
 20
-11.6596977132
 11
1.8371173113
 21
-11.6510256145
  0
LINE
  5
2D9
100
AcDbEntity
  8
SIMBOLI
100
AcDbLine
 62
7
  6
CONTINUOUS
 10
0.7577011009
 20
-10.4884797794
 11
0.7769179274
 21
-10.4975202157
  0
LINE
  5
2DA
100
AcDbEntity
  8
ASSI
100
AcDbLine
 62
7
  6
CONTINUOUS
 10
8.7661682173
 20
-21.8338145704
 11
8.7312943217
 21
-21.8172462831
  0
LINE
  5
2DB
100
AcDbEntity
  8
SIMBOLI
100
AcDbLine
 62
7
  6
CONTINUOUS
 10
1.8486345622
 20
-11.456725339
 11
1.9422160829
 21
-11.5012480446
  0
LINE
  5
2DC
100
AcDbEntity
  8
SIMBOLI
100
AcDbLine
 62
7
  6
CONTINUOUS
 10
0.7451110394
 20
-10.6705722233
 11
0.7329582667
 21
-10.6647790976
  0
LINE
  5
2DD
100
AcDbEntity
  8
SIMBOLI
100
AcDbLine
 62
7
  6
CONTINUOUS
 10
-1.649340913
 20
-9.648711537
 11
-1.6405517563
 21
-9.6529051801
  0
LINE
  5
2DE
100
AcDbEntity
  8
SIMBOLI
100
AcDbLine
 62
7
  6
CONTINUOUS
 10
1.7204628587
 20
-12.2212019398
 11
1.6959812085
 21
-12.2095134467
  0
LINE
  5
2DF
100
AcDbEntity
  8
SIMBOLI
100
AcDbLine
 62
7
  6
CONTINUOUS
 10
1.7387988009
 20
-12.0360631743
 11
1.7518296253
 21
-12.0422841645
  0
LINE
  5
2E0
100
AcDbEntity
  8
SIMBOLI
100
AcDbLine
 62
7
  6
CONTINUOUS
 10
0.6606846155
 20
-11.2525602434
 11
0.6423232548
 21
-11.2437806568
  0
LINE
  5
2E1
100
AcDbEntity
  8
SIMBOLI
100
AcDbLine
 62
7
  6
CONTINUOUS
 10
-2.9159402674
 20
-9.1848251564
 11
-2.9023787024
 21
-9.191354661
  0
LINE
  5
2E2
100
AcDbEntity
  8
SIMBOLI
100
AcDbLine
 62
7
  6
CONTINUOUS
 10
1.9422160829
 20
-11.5012480446
 11
1.9663200304
 21
-11.5128643436
  0
LINE
  5
2E3
100
AcDbEntity
  8
SIMBOLI
100
AcDbLine
 62
7
  6
CONTINUOUS
 10
1.8371173113
 20
-11.6510256145
 11
1.8186801974
 21
-11.6421374258
  0
LINE
  5
2E4
100
AcDbEntity
  8
ASSI
100
AcDbLine
 62
7
  6
CONTINUOUS
 10
-8.6946874197
 20
-15.653803291
 11
-8.6640323395
 21
-15.6686536643
  0
LINE
  5
2E5
100
AcDbEntity
  8
SIMBOLI
100
AcDbLine
 62
7
  6
CONTINUOUS
 10
0.6536812578
 20
-11.0495948182
 11
0.7466058427
 21
-11.0946602052
  0
LINE
  5
2E6
100
AcDbEntity
  8
SIMBOLI
100
AcDbLine
 62
7
  6
CONTINUOUS
 10
1.8261162487
 20
-11.4457930425
 11
1.8486345622
 21
-11.456725339
  0
LINE
  5
2E7
100
AcDbEntity
  8
SIMBOLI
100
AcDbLine
 62
7
  6
CONTINUOUS
 10
0.5266807117
 20
-11.8131078085
 11
0.5023652562
 21
-11.8012771147
  0
LINE
  5
2E8
100
AcDbEntity
  8
SIMBOLI
100
AcDbLine
 62
7
  6
CONTINUOUS
 10
0.5448321891
 20
-11.6281318356
 11
0.557773105
 21
-11.6344279968
  0
LINE
  5
2E9
100
AcDbEntity
  8
SIMBOLI
100
AcDbLine
 62
7
  6
CONTINUOUS
 10
1.9728662401
 20
-10.9037266118
 11
1.9922855656
 21
-10.9131781425
  0
LINE
  5
2EA
100
AcDbEntity
  8
SIMBOLI
100
AcDbLine
 62
7
  6
CONTINUOUS
 10
1.9663200304
 20
-11.5128643436
 11
1.9825030183
 21
-11.5207833611
  0
LINE
  5
2EB
100
AcDbEntity
  8
SIMBOLI
100
AcDbLine
 62
7
  6
CONTINUOUS
 10
1.9531264696
 20
-11.0830734827
 11
1.9408428449
 21
-11.0770494455
  0
LINE
  5
2EC
100
AcDbEntity
  8
SIMBOLI
100
AcDbLine
 62
7
  6
CONTINUOUS
 10
0.7466058427
 20
-11.0946602052
 11
0.7705413022
 21
-11.1064162687
  0
LINE
  5
2ED
100
AcDbEntity
  8
SIMBOLI
100
AcDbLine
 62
7
  6
CONTINUOUS
 10
0.6423232548
 20
-11.2437806568
 11
0.624014111
 21
-11.2347853214
  0
LINE
  5
2EE
100
AcDbEntity
  8
SIMBOLI
100
AcDbLine
 62
7
  6
CONTINUOUS
 10
1.8150129158
 20
-11.4403261386
 11
1.8261162487
 21
-11.4457930425
  0
LINE
  5
2EF
100
AcDbEntity
  8
SIMBOLI
100
AcDbLine
 62
7
  6
CONTINUOUS
 10
0.6313214002
 20
-11.038532023
 11
0.6536812578
 21
-11.0495948182
  0
LINE
  5
2F0
100
AcDbEntity
  8
SIMBOLI
100
AcDbLine
 62
7
  6
CONTINUOUS
 10
-1.6405517563
 20
-9.6529051801
 11
-1.6318049516
 21
-9.6572341275
  0
LINE
  5
2F1
100
AcDbEntity
  8
SIMBOLI
100
AcDbLine
 62
7
  6
CONTINUOUS
 10
1.8186801974
 20
-11.6421374258
 11
1.800295979
 21
-11.6330335712
  0
LINE
  5
2F2
100
AcDbEntity
  8
SIMBOLI
100
AcDbLine
 62
7
  6
CONTINUOUS
 10
0.7769179274
 20
-10.4975202157
 11
0.7961999204
 21
-10.5070866026
  0
LINE
  5
2F3
100
AcDbEntity
  8
SIMBOLI
100
AcDbLine
 62
7
  6
CONTINUOUS
 10
1.9618151248
 20
-11.7079739998
 11
1.9300780337
 21
-11.6922099455
  0
LINE
  5
2F4
100
AcDbEntity
  8
SIMBOLI
100
AcDbLine
 62
7
  6
CONTINUOUS
 10
1.804040088
 20
-11.4348596725
 11
1.8150129158
 21
-11.4403261386
  0
LINE
  5
2F5
100
AcDbEntity
  8
SIMBOLI
100
AcDbLine
 62
7
  6
CONTINUOUS
 10
1.9825030183
 20
-11.5207833611
 11
1.9987510457
 21
-11.5288755727
  0
LINE
  5
2F6
100
AcDbEntity
  8
SIMBOLI
100
AcDbLine
 62
7
  6
CONTINUOUS
 10
0.7705413022
 20
-11.1064162687
 11
0.7866114167
 21
-11.1144290979
  0
LINE
  5
2F7
100
AcDbEntity
  8
SIMBOLI
100
AcDbLine
 62
7
  6
CONTINUOUS
 10
1.7258034848
 20
-12.0295761567
 11
1.7387988009
 21
-12.0360631743
  0
LINE
  5
2F8
100
AcDbEntity
  8
SIMBOLI
100
AcDbLine
 62
7
  6
CONTINUOUS
 10
0.7573095202
 20
-10.6766683012
 11
0.7451110394
 21
-10.6705722233
  0
LINE
  5
2F9
100
AcDbEntity
  8
SIMBOLI
100
AcDbLine
 62
7
  6
CONTINUOUS
 10
0.6202962109
 20
-11.033000802
 11
0.6313214002
 21
-11.038532023
  0
LINE
  5
2FA
100
AcDbEntity
  8
SIMBOLI
100
AcDbLine
 62
7
  6
CONTINUOUS
 10
0.624014111
 20
-11.2347853214
 11
0.6057574116
 21
-11.2255746605
  0
LINE
  5
2FB
100
AcDbEntity
  8
SIMBOLI
100
AcDbLine
 62
7
  6
CONTINUOUS
 10
1.6959812085
 20
-12.2095134467
 11
1.6714584444
 21
-12.1971280855
  0
LINE
  5
2FC
100
AcDbEntity
  8
SIMBOLI
100
AcDbLine
 62
7
  6
CONTINUOUS
 10
1.9679769659
 20
-11.7110895217
 11
1.9618151248
 21
-11.7079739998
  0
LINE
  5
2FD
100
AcDbEntity
  8
SIMBOLI
100
AcDbLine
 62
7
  6
CONTINUOUS
 10
0.7661541428
 20
-11.3014537051
 11
0.7346374283
 21
-11.2855057969
  0
LINE
  5
2FE
100
AcDbEntity
  8
SIMBOLI
100
AcDbLine
 62
7
  6
CONTINUOUS
 10
1.7932124365
 20
-11.429380577
 11
1.804040088
 21
-11.4348596725
  0
LINE
  5
2FF
100
AcDbEntity
  8
SIMBOLI
100
AcDbLine
 62
7
  6
CONTINUOUS
 10
0.7866114167
 20
-11.1144290979
 11
0.8027463425
 21
-11.1226154641
  0
LINE
  5
300
100
AcDbEntity
  8
SIMBOLI
100
AcDbLine
 62
7
  6
CONTINUOUS
 10
-2.9023787024
 20
-9.191354661
 11
-2.8889705884
 21
-9.198154888
  0
LINE
  5
301
100
AcDbEntity
  8
SIMBOLI
100
AcDbLine
 62
7
  6
CONTINUOUS
 10
0.6094005983
 20
-11.0274707766
 11
0.6202962109
 21
-11.033000802
  0
LINE
  5
302
100
AcDbEntity
  8
SIMBOLI
100
AcDbLine
 62
7
  6
CONTINUOUS
 10
0.5319264002
 20
-11.6215699032
 11
0.5448321891
 21
-11.6281318356
  0
LINE
  5
303
100
AcDbEntity
  8
SIMBOLI
100
AcDbLine
 62
7
  6
CONTINUOUS
 10
1.800295979
 20
-11.6330335712
 11
1.781962819
 21
-11.62371312
  0
LINE
  5
304
100
AcDbEntity
  8
SIMBOLI
100
AcDbLine
 62
7
  6
CONTINUOUS
 10
1.9987510457
 20
-11.5288755727
 11
2.0150370388
 21
-11.5371723324
  0
LINE
  5
305
100
AcDbEntity
  8
SIMBOLI
100
AcDbLine
 62
7
  6
CONTINUOUS
 10
-1.7245750396
 20
-9.8099962207
 11
-1.6259545949
 21
-9.8603141674
  0
LINE
  5
306
100
AcDbEntity
  8
SIMBOLI
100
AcDbLine
 62
7
  6
CONTINUOUS
 10
-1.6318049516
 20
-9.6572341275
 11
-1.6231007457
 21
-9.661697737
  0
LINE
  5
307
100
AcDbEntity
  8
SIMBOLI
100
AcDbLine
 62
7
  6
CONTINUOUS
 10
1.9922855656
 20
-10.9131781425
 11
2.0117615633
 21
-10.923180851
  0
LINE
  5
308
100
AcDbEntity
  8
SIMBOLI
100
AcDbLine
 62
7
  6
CONTINUOUS
 10
1.9740808324
 20
-11.7142264656
 11
1.9679769659
 21
-11.7110895217
  0
LINE
  5
309
100
AcDbEntity
  8
SIMBOLI
100
AcDbLine
 62
7
  6
CONTINUOUS
 10
0.5023652562
 20
-11.8012771147
 11
0.478008737
 21
-11.7887493157
  0
LINE
  5
30A
100
AcDbEntity
  8
SIMBOLI
100
AcDbLine
 62
7
  6
CONTINUOUS
 10
0.772273229
 20
-11.3046048949
 11
0.7661541428
 21
-11.3014537051
  0
LINE
  5
30B
100
AcDbEntity
  8
SIMBOLI
100
AcDbLine
 62
7
  6
CONTINUOUS
 10
0.5986491139
 20
-11.0219289484
 11
0.6094005983
 21
-11.0274707766
  0
LINE
  5
30C
100
AcDbEntity
  8
SIMBOLI
100
AcDbLine
 62
7
  6
CONTINUOUS
 10
1.9654522913
 20
-11.0894304688
 11
1.9531264696
 21
-11.0830734827
  0
LINE
  5
30D
100
AcDbEntity
  8
SIMBOLI
100
AcDbLine
 62
7
  6
CONTINUOUS
 10
0.6057574116
 20
-11.2255746605
 11
0.5875513323
 21
-11.2161477299
  0
LINE
  5
30E
100
AcDbEntity
  8
SIMBOLI
100
AcDbLine
 62
7
  6
CONTINUOUS
 10
0.8027463425
 20
-11.1226154641
 11
0.8189192199
 21
-11.131006549
  0
LINE
  5
30F
100
AcDbEntity
  8
SIMBOLI
100
AcDbLine
 62
7
  6
CONTINUOUS
 10
1.7825179533
 20
-11.4238236927
 11
1.7932124365
 21
-11.429380577
  0
LINE
  5
310
100
AcDbEntity
  8
SIMBOLI
100
AcDbLine
 62
7
  6
CONTINUOUS
 10
1.781962819
 20
-11.62371312
 11
1.7636783641
 21
-11.6141748028
  0
LINE
  5
311
100
AcDbEntity
  8
SIMBOLI
100
AcDbLine
 62
7
  6
CONTINUOUS
 10
1.7128448285
 20
-12.0227973675
 11
1.7258034848
 21
-12.0295761567
  0
LINE
  5
312
100
AcDbEntity
  8
SIMBOLI
100
AcDbLine
 62
7
  6
CONTINUOUS
 10
0.7961999204
 20
-10.5070866026
 11
0.8155381558
 21
-10.5172042484
  0
LINE
  5
313
100
AcDbEntity
  8
SIMBOLI
100
AcDbLine
 62
7
  6
CONTINUOUS
 10
0.778334777
 20
-11.3077771575
 11
0.772273229
 21
-11.3046048949
  0
LINE
  5
314
100
AcDbEntity
  8
SIMBOLI
100
AcDbLine
 62
7
  6
CONTINUOUS
 10
2.0150370388
 20
-11.5371723324
 11
2.0313420068
 21
-11.5457106598
  0
LINE
  5
315
100
AcDbEntity
  8
SIMBOLI
100
AcDbLine
 62
7
  6
CONTINUOUS
 10
-2.9793687925
 20
-9.3500738101
 11
-2.8780321001
 21
-9.4031586798
  0
LINE
  5
316
100
AcDbEntity
  8
SIMBOLI
100
AcDbLine
 62
7
  6
CONTINUOUS
 10
1.9801268845
 20
-11.7173965326
 11
1.9740808324
 21
-11.7142264656
  0
LINE
  5
317
100
AcDbEntity
  8
SIMBOLI
100
AcDbLine
 62
7
  6
CONTINUOUS
 10
0.7695500634
 20
-10.683097534
 11
0.7573095202
 21
-10.6766683012
  0
LINE
  5
318
100
AcDbEntity
  8
SIMBOLI
100
AcDbLine
 62
7
  6
CONTINUOUS
 10
0.5880297937
 20
-11.0163100875
 11
0.5986491139
 21
-11.0219289484
  0
LINE
  5
319
100
AcDbEntity
  8
SIMBOLI
100
AcDbLine
 62
7
  6
CONTINUOUS
 10
-1.6231007457
 20
-9.661697737
 11
-1.6144375757
 21
-9.6662969
  0
LINE
  5
31A
100
AcDbEntity
  8
SIMBOLI
100
AcDbLine
 62
7
  6
CONTINUOUS
 10
0.5875513323
 20
-11.2161477299
 11
0.5693935362
 21
-11.2065032432
  0
LINE
  5
31B
100
AcDbEntity
  8
SIMBOLI
100
AcDbLine
 62
7
  6
CONTINUOUS
 10
0.5190568639
 20
-11.6147164625
 11
0.5319264002
 21
-11.6215699032
  0
LINE
  5
31C
100
AcDbEntity
  8
SIMBOLI
100
AcDbLine
 62
7
  6
CONTINUOUS
 10
-2.8889705884
 20
-9.198154888
 11
-2.8757159919
 21
-9.2052179546
  0
LINE
  5
31D
100
AcDbEntity
  8
SIMBOLI
100
AcDbLine
 62
7
  6
CONTINUOUS
 10
0.8189192199
 20
-11.131006549
 11
0.8351112263
 21
-11.1396392551
  0
LINE
  5
31E
100
AcDbEntity
  8
SIMBOLI
100
AcDbLine
 62
7
  6
CONTINUOUS
 10
0.7843389546
 20
-11.3109821942
 11
0.778334777
 21
-11.3077771575
  0
LINE
  5
31F
100
AcDbEntity
  8
SIMBOLI
100
AcDbLine
 62
7
  6
CONTINUOUS
 10
1.7636783641
 20
-11.6141748028
 11
1.7454402612
 21
-11.6044173502
  0
LINE
  5
320
100
AcDbEntity
  8
SIMBOLI
100
AcDbLine
 62
7
  6
CONTINUOUS
 10
1.6714584444
 20
-12.1971280855
 11
1.6469786181
 21
-12.1840172056
  0
LINE
  5
321
100
AcDbEntity
  8
SIMBOLI
100
AcDbLine
 62
7
  6
CONTINUOUS
 10
1.9861152824
 20
-11.7206114236
 11
1.9801268845
 21
-11.7173965326
  0
LINE
  5
322
100
AcDbEntity
  8
SIMBOLI
100
AcDbLine
 62
7
  6
CONTINUOUS
 10
2.0117615633
 20
-10.923180851
 11
2.0273733277
 21
-10.9315974409
  0
LINE
  5
323
100
AcDbEntity
  8
SIMBOLI
100
AcDbLine
 62
7
  6
CONTINUOUS
 10
1.7719436689
 20
-11.4181137414
 11
1.7825179533
 21
-11.4238236927
  0
LINE
  5
324
100
AcDbEntity
  8
SIMBOLI
100
AcDbLine
 62
7
  6
CONTINUOUS
 10
2.0313420068
 20
-11.5457106598
 11
2.0476792911
 21
-11.5545502386
  0
LINE
  5
325
100
AcDbEntity
  8
SIMBOLI
100
AcDbLine
 62
7
  6
CONTINUOUS
 10
1.9778166207
 20
-11.0961506183
 11
1.9654522913
 21
-11.0894304688
  0
LINE
  5
326
100
AcDbEntity
  8
SIMBOLI
100
AcDbLine
 62
7
  6
CONTINUOUS
 10
0.5693935362
 20
-11.2065032432
 11
0.5512816862
 21
-11.1966399141
  0
LINE
  5
327
100
AcDbEntity
  8
SIMBOLI
100
AcDbLine
 62
7
  6
CONTINUOUS
 10
0.478008737
 20
-11.7887493157
 11
0.4536946893
 21
-11.7754962848
  0
LINE
  5
328
100
AcDbEntity
  8
SIMBOLI
100
AcDbLine
 62
7
  6
CONTINUOUS
 10
0.7902859296
 20
-11.3142317063
 11
0.7843389546
 21
-11.3109821942
  0
LINE
  5
329
100
AcDbEntity
  8
SIMBOLI
100
AcDbLine
 62
7
  6
CONTINUOUS
 10
1.7020764353
 20
-12.0169087889
 11
1.7128448285
 21
-12.0227973675
  0
LINE
  5
32A
100
AcDbEntity
  8
SIMBOLI
100
AcDbLine
 62
7
  6
CONTINUOUS
 10
1.7454402612
 20
-11.6044173502
 11
1.7272461572
 21
-11.5944394926
  0
LINE
  5
32B
100
AcDbEntity
  8
SIMBOLI
100
AcDbLine
 62
7
  6
CONTINUOUS
 10
0.8155381558
 20
-10.5172042484
 11
0.8310394766
 21
-10.5257127777
  0
LINE
  5
32C
100
AcDbEntity
  8
SIMBOLI
100
AcDbLine
 62
7
  6
CONTINUOUS
 10
-1.6144375757
 20
-9.6662969
 11
-1.605813426
 21
-9.6710328916
  0
LINE
  5
32D
100
AcDbEntity
  8
SIMBOLI
100
AcDbLine
 62
7
  6
CONTINUOUS
 10
0.5775297172
 20
-11.010538849
 11
0.5880297937
 21
-11.0163100875
  0
LINE
  5
32E
100
AcDbEntity
  8
SIMBOLI
100
AcDbLine
 62
7
  6
CONTINUOUS
 10
0.8351112263
 20
-11.1396392551
 11
0.851335687
 21
-11.1485733681
  0
LINE
  5
32F
100
AcDbEntity
  8
SIMBOLI
100
AcDbLine
 62
7
  6
CONTINUOUS
 10
1.9920461863
 20
-11.7238828397
 11
1.9861152824
 21
-11.7206114236
  0
LINE
  5
330
100
AcDbEntity
  8
SIMBOLI
100
AcDbLine
 62
7
  6
CONTINUOUS
 10
0.7818290233
 20
-10.6898901249
 11
0.7695500634
 21
-10.683097534
  0
LINE
  5
331
100
AcDbEntity
  8
SIMBOLI
100
AcDbLine
 62
7
  6
CONTINUOUS
 10
0.508362398
 20
-11.60876589
 11
0.5190568639
 21
-11.6147164625
  0
LINE
  5
332
100
AcDbEntity
  8
SIMBOLI
100
AcDbLine
 62
7
  6
CONTINUOUS
 10
0.5512816862
 20
-11.1966399141
 11
0.5332134455
 21
-11.1865564565
  0
LINE
  5
333
100
AcDbEntity
  8
SIMBOLI
100
AcDbLine
 62
7
  6
CONTINUOUS
 10
-2.8757159919
 20
-9.2052179546
 11
-2.8626159997
 21
-9.2125378659
  0
LINE
  5
334
100
AcDbEntity
  8
SIMBOLI
100
AcDbLine
 62
7
  6
CONTINUOUS
 10
0.7961758696
 20
-11.3175373948
 11
0.7902859296
 21
-11.3142317063
  0
LINE
  5
335
100
AcDbEntity
  8
SIMBOLI
100
AcDbLine
 62
7
  6
CONTINUOUS
 10
2.0476792911
 20
-11.5545502386
 11
2.0640703162
 21
-11.5637564179
  0
LINE
  5
336
100
AcDbEntity
  8
SIMBOLI
100
AcDbLine
 62
7
  6
CONTINUOUS
 10
1.7272461572
 20
-11.5944394926
 11
1.7090936987
 21
-11.5842399605
  0
LINE
  5
337
100
AcDbEntity
  8
ASSI
100
AcDbLine
 62
7
  6
CONTINUOUS
 10
-8.9489108204
 20
-15.1132631089
 11
-8.9835160333
 21
-15.0937818409
  0
LINE
  5
338
100
AcDbEntity
  8
ASSI
100
AcDbLine
 62
7
  6
CONTINUOUS
 10
-8.7663536547
 20
-15.6157872511
 11
-8.7059796517
 21
-15.6497884271
  0
LINE
  5
339
100
AcDbEntity
  8
SIMBOLI
100
AcDbLine
 62
7
  6
CONTINUOUS
 10
2.0273733277
 20
-10.9315974409
 11
2.0429882419
 21
-10.9403991599
  0
LINE
  5
33A
100
AcDbEntity
  8
SIMBOLI
100
AcDbLine
 62
7
  6
CONTINUOUS
 10
1.6469786181
 20
-12.1840172056
 11
1.630734053
 21
-12.1748577439
  0
LINE
  5
33B
100
AcDbEntity
  8
SIMBOLI
100
AcDbLine
 62
7
  6
CONTINUOUS
 10
1.996943841
 20
-11.7266599106
 11
1.9920461863
 21
-11.7238828397
  0
LINE
  5
33C
100
AcDbEntity
  8
SIMBOLI
100
AcDbLine
 62
7
  6
CONTINUOUS
 10
-1.605813426
 20
-9.6710328916
 11
-1.5972262812
 21
-9.6759069869
  0
LINE
  5
33D
100
AcDbEntity
  8
SIMBOLI
100
AcDbLine
 62
7
  6
CONTINUOUS
 10
1.761499447
 20
-11.4121870624
 11
1.7719436689
 21
-11.4181137414
  0
LINE
  5
33E
100
AcDbEntity
  8
SIMBOLI
100
AcDbLine
 62
7
  6
CONTINUOUS
 10
1.6913448798
 20
-12.0107960169
 11
1.7020764353
 21
-12.0169087889
  0
LINE
  5
33F
100
AcDbEntity
  8
SIMBOLI
100
AcDbLine
 62
7
  6
CONTINUOUS
 10
0.851335687
 20
-11.1485733681
 11
0.8676139641
 21
-11.1578743944
  0
LINE
  5
340
100
AcDbEntity
  8
SIMBOLI
100
AcDbLine
 62
7
  6
CONTINUOUS
 10
0.5332134455
 20
-11.1865564565
 11
0.5151864771
 21
-11.176251584
  0
LINE
  5
341
100
AcDbEntity
  8
SIMBOLI
100
AcDbLine
 62
7
  6
CONTINUOUS
 10
1.9902115729
 20
-11.1032579073
 11
1.9778166207
 21
-11.0961506183
  0
LINE
  5
342
100
AcDbEntity
  8
SIMBOLI
100
AcDbLine
 62
7
  6
CONTINUOUS
 10
0.4536946893
 20
-11.7754962848
 11
0.4375600579
 21
-11.7662425305
  0
LINE
  5
343
100
AcDbEntity
  8
SIMBOLI
100
AcDbLine
 62
7
  6
CONTINUOUS
 10
0.8310394766
 20
-10.5257127777
 11
0.8465439216
 21
-10.5346062619
  0
LINE
  5
344
100
AcDbEntity
  8
SIMBOLI
100
AcDbLine
 62
7
  6
CONTINUOUS
 10
1.7090936987
 20
-11.5842399605
 11
1.6909810641
 21
-11.5738177388
  0
LINE
  5
345
100
AcDbEntity
  8
SIMBOLI
100
AcDbLine
 62
7
  6
CONTINUOUS
 10
0.8010397497
 20
-11.3203427541
 11
0.7961758696
 21
-11.3175373948
  0
LINE
  5
346
100
AcDbEntity
  8
SIMBOLI
100
AcDbLine
 62
7
  6
CONTINUOUS
 10
0.5671586543
 20
-11.0045516593
 11
0.5775297172
 21
-11.010538849
  0
LINE
  5
347
100
AcDbEntity
  8
SIMBOLI
100
AcDbLine
 62
7
  6
CONTINUOUS
 10
0.4977043975
 20
-11.6025913715
 11
0.508362398
 21
-11.60876589
  0
LINE
  5
348
100
AcDbEntity
  8
SIMBOLI
100
AcDbLine
 62
7
  6
CONTINUOUS
 10
2.0640703162
 20
-11.5637564179
 11
2.0764034957
 21
-11.5709375067
  0
LINE
  5
349
100
AcDbEntity
  8
SIMBOLI
100
AcDbLine
 62
7
  6
CONTINUOUS
 10
2.001796004
 20
-11.7294867534
 11
1.996943841
 21
-11.7266599106
  0
LINE
  5
34A
100
AcDbEntity
  8
SIMBOLI
100
AcDbLine
 62
7
  6
CONTINUOUS
 10
0.7941385839
 20
-10.6970700075
 11
0.7818290233
 21
-10.6898901249
  0
LINE
  5
34B
100
AcDbEntity
  8
SIMBOLI
100
AcDbLine
 62
7
  6
CONTINUOUS
 10
-2.8626159997
 20
-9.2125378659
 11
-2.8496719533
 21
-9.2201090994
  0
LINE
  5
34C
100
AcDbEntity
  8
SIMBOLI
100
AcDbLine
 62
7
  6
CONTINUOUS
 10
0.5151864771
 20
-11.176251584
 11
0.4971989722
 21
-11.1657242679
  0
LINE
  5
34D
100
AcDbEntity
  8
SIMBOLI
100
AcDbLine
 62
7
  6
CONTINUOUS
 10
-1.5972262812
 20
-9.6759069869
 11
-1.5886741259
 21
-9.6809204608
  0
LINE
  5
34E
100
AcDbEntity
  8
SIMBOLI
100
AcDbLine
 62
7
  6
CONTINUOUS
 10
1.630734053
 20
-12.1748577439
 11
1.6145531755
 21
-12.165333209
  0
LINE
  5
34F
100
AcDbEntity
  8
SIMBOLI
100
AcDbLine
 62
7
  6
CONTINUOUS
 10
1.6909810641
 20
-11.5738177388
 11
1.6729085579
 21
-11.5631728291
  0
LINE
  5
350
100
AcDbEntity
  8
SIMBOLI
100
AcDbLine
 62
7
  6
CONTINUOUS
 10
2.0429882419
 20
-10.9403991599
 11
2.0585789421
 21
-10.9496021445
  0
LINE
  5
351
100
AcDbEntity
  8
SIMBOLI
100
AcDbLine
 62
7
  6
CONTINUOUS
 10
0.8676139641
 20
-11.1578743944
 11
0.8798626431
 21
-11.1651268662
  0
LINE
  5
352
100
AcDbEntity
  8
SIMBOLI
100
AcDbLine
 62
7
  6
CONTINUOUS
 10
0.8058585008
 20
-11.3231976087
 11
0.8010397497
 21
-11.3203427541
  0
LINE
  5
353
100
AcDbEntity
  8
SIMBOLI
100
AcDbLine
 62
7
  6
CONTINUOUS
 10
1.6806607421
 20
-12.0044553551
 11
1.6913448798
 21
-12.0107960169
  0
LINE
  5
354
100
AcDbEntity
  8
SIMBOLI
100
AcDbLine
 62
7
  6
CONTINUOUS
 10
0.4375600579
 20
-11.7662425305
 11
0.4214885963
 21
-11.756624086
  0
LINE
  5
355
100
AcDbEntity
  8
SIMBOLI
100
AcDbLine
 62
7
  6
CONTINUOUS
 10
0.4971989722
 20
-11.1657242679
 11
0.4792512346
 21
-11.1549745094
  0
LINE
  5
356
100
AcDbEntity
  8
SIMBOLI
100
AcDbLine
 62
7
  6
CONTINUOUS
 10
2.0065969986
 20
-11.732365761
 11
2.001796004
 21
-11.7294867534
  0
LINE
  5
357
100
AcDbEntity
  8
SIMBOLI
100
AcDbLine
 62
7
  6
CONTINUOUS
 10
0.8465439216
 20
-10.5346062619
 11
0.8620243313
 21
-10.5439006529
  0
LINE
  5
358
100
AcDbEntity
  8
SIMBOLI
100
AcDbLine
 62
7
  6
CONTINUOUS
 10
1.751206546
 20
-11.4060018275
 11
1.761499447
 21
-11.4121870624
  0
LINE
  5
359
100
AcDbEntity
  8
SIMBOLI
100
AcDbLine
 62
7
  6
CONTINUOUS
 10
2.0764034957
 20
-11.5709375067
 11
2.0887385241
 21
-11.5783685019
  0
LINE
  5
35A
100
AcDbEntity
  8
SIMBOLI
100
AcDbLine
 62
7
  6
CONTINUOUS
 10
1.6729085579
 20
-11.5631728291
 11
1.6548770158
 21
-11.5523054874
  0
LINE
  5
35B
100
AcDbEntity
  8
SIMBOLI
100
AcDbLine
 62
7
  6
CONTINUOUS
 10
0.4870933709
 20
-11.5961892703
 11
0.4977043975
 21
-11.6025913715
  0
LINE
  5
35C
100
AcDbEntity
  8
SIMBOLI
100
AcDbLine
 62
7
  6
CONTINUOUS
 10
2.0026124817
 20
-11.1107513572
 11
1.9902115729
 21
-11.1032579073
  0
LINE
  5
35D
100
AcDbEntity
  8
SIMBOLI
100
AcDbLine
 62
7
  6
CONTINUOUS
 10
-1.5886741259
 20
-9.6809204608
 11
-1.5801549445
 21
-9.6860745884
  0
LINE
  5
35E
100
AcDbEntity
  8
SIMBOLI
100
AcDbLine
 62
7
  6
CONTINUOUS
 10
0.8106264848
 20
-11.3261043164
 11
0.8058585008
 21
-11.3231976087
  0
LINE
  5
35F
100
AcDbEntity
  8
SIMBOLI
100
AcDbLine
 62
7
  6
CONTINUOUS
 10
0.5569377003
 20
-10.9983068473
 11
0.5671586543
 21
-11.0045516593
  0
LINE
  5
360
100
AcDbEntity
  8
SIMBOLI
100
AcDbLine
 62
7
  6
CONTINUOUS
 10
-2.8496719533
 20
-9.2201090994
 11
-2.8368851944
 21
-9.2279261323
  0
LINE
  5
361
100
AcDbEntity
  8
SIMBOLI
100
AcDbLine
 62
7
  6
CONTINUOUS
 10
0.8798626431
 20
-11.1651268662
 11
0.8921134427
 21
-11.1726292634
  0
LINE
  5
362
100
AcDbEntity
  8
SIMBOLI
100
AcDbLine
 62
7
  6
CONTINUOUS
 10
0.4792512346
 20
-11.1549745094
 11
0.4613440966
 21
-11.1440025673
  0
LINE
  5
363
100
AcDbEntity
  8
SIMBOLI
100
AcDbLine
 62
7
  6
CONTINUOUS
 10
0.8064542465
 20
-10.7046360389
 11
0.7941385839
 21
-10.6970700075
  0
LINE
  5
364
100
AcDbEntity
  8
SIMBOLI
100
AcDbLine
 62
7
  6
CONTINUOUS
 10
1.6145531755
 20
-12.165333209
 11
1.5984277532
 21
-12.1554114275
  0
LINE
  5
365
100
AcDbEntity
  8
SIMBOLI
100
AcDbLine
 62
7
  6
CONTINUOUS
 10
1.6548770158
 20
-11.5523054874
 11
1.6368872738
 21
-11.5412159696
  0
LINE
  5
366
100
AcDbEntity
  8
SIMBOLI
100
AcDbLine
 62
7
  6
CONTINUOUS
 10
2.0113411484
 20
-11.7352993259
 11
2.0065969986
 21
-11.732365761
  0
LINE
  5
367
100
AcDbEntity
  8
SIMBOLI
100
AcDbLine
 62
7
  6
CONTINUOUS
 10
1.670034602
 20
-11.9978831074
 11
1.6806607421
 21
-12.0044553551
  0
LINE
  5
368
100
AcDbEntity
  8
SIMBOLI
100
AcDbLine
 62
7
  6
CONTINUOUS
 10
2.0585789421
 20
-10.9496021445
 11
2.0741180648
 21
-10.959222531
  0
LINE
  5
369
100
AcDbEntity
  8
SIMBOLI
100
AcDbLine
 62
7
  6
CONTINUOUS
 10
-1.5801549445
 20
-9.6860745884
 11
-1.5716667215
 21
-9.6913706447
  0
LINE
  5
36A
100
AcDbEntity
  8
SIMBOLI
100
AcDbLine
 62
7
  6
CONTINUOUS
 10
0.4214885963
 20
-11.756624086
 11
0.405472091
 21
-11.746608706
  0
LINE
  5
36B
100
AcDbEntity
  8
SIMBOLI
100
AcDbLine
 62
7
  6
CONTINUOUS
 10
2.0887385241
 20
-11.5783685019
 11
2.1010349699
 21
-11.5860563381
  0
LINE
  5
36C
100
AcDbEntity
  8
SIMBOLI
100
AcDbLine
 62
7
  6
CONTINUOUS
 10
0.4613440966
 20
-11.1440025673
 11
0.4434783901
 21
-11.1328087001
  0
LINE
  5
36D
100
AcDbEntity
  8
SIMBOLI
100
AcDbLine
 62
7
  6
CONTINUOUS
 10
0.4765398266
 20
-11.5895559497
 11
0.4870933709
 21
-11.5961892703
  0
LINE
  5
36E
100
AcDbEntity
  8
SIMBOLI
100
AcDbLine
 62
7
  6
CONTINUOUS
 10
0.8153380639
 20
-11.329065235
 11
0.8106264848
 21
-11.3261043164
  0
LINE
  5
36F
100
AcDbEntity
  8
SIMBOLI
100
AcDbLine
 62
7
  6
CONTINUOUS
 10
0.8620243313
 20
-10.5439006529
 11
0.8774535462
 21
-10.5536119028
  0
LINE
  5
370
100
AcDbEntity
  8
SIMBOLI
100
AcDbLine
 62
7
  6
CONTINUOUS
 10
1.6368872738
 20
-11.5412159696
 11
1.6189401678
 21
-11.5299045317
  0
LINE
  5
371
100
AcDbEntity
  8
SIMBOLI
100
AcDbLine
 62
7
  6
CONTINUOUS
 10
1.7411089712
 20
-11.3995919236
 11
1.751206546
 21
-11.4060018275
  0
LINE
  5
372
100
AcDbEntity
  8
SIMBOLI
100
AcDbLine
 62
7
  6
CONTINUOUS
 10
0.8921134427
 20
-11.1726292634
 11
0.9043261954
 21
-11.1803882751
  0
LINE
  5
373
100
AcDbEntity
  8
SIMBOLI
100
AcDbLine
 62
7
  6
CONTINUOUS
 10
2.0149904858
 20
-11.1186237508
 11
2.0026124817
 21
-11.1107513572
  0
LINE
  5
374
100
AcDbEntity
  8
SIMBOLI
100
AcDbLine
 62
7
  6
CONTINUOUS
 10
-2.8368851944
 20
-9.2279261323
 11
-2.8242570649
 21
-9.2359834418
  0
LINE
  5
375
100
AcDbEntity
  8
SIMBOLI
100
AcDbLine
 62
7
  6
CONTINUOUS
 10
2.0160227766
 20
-11.7382898411
 11
2.0113411484
 21
-11.7352993259
  0
LINE
  5
376
100
AcDbEntity
  8
SIMBOLI
100
AcDbLine
 62
7
  6
CONTINUOUS
 10
0.4434783901
 20
-11.1328087001
 11
0.4256549474
 21
-11.1213931667
  0
LINE
  5
377
100
AcDbEntity
  8
SIMBOLI
100
AcDbLine
 62
7
  6
CONTINUOUS
 10
-1.5716667215
 20
-9.6913706447
 11
-1.5632074414
 21
-9.6968099048
  0
LINE
  5
378
100
AcDbEntity
  8
SIMBOLI
100
AcDbLine
 62
7
  6
CONTINUOUS
 10
1.5984277532
 20
-12.1554114275
 11
1.5823573114
 21
-12.1450665403
  0
LINE
  5
379
100
AcDbEntity
  8
SIMBOLI
100
AcDbLine
 62
7
  6
CONTINUOUS
 10
1.6189401678
 20
-11.5299045317
 11
1.6010365336
 21
-11.5183714296
  0
LINE
  5
37A
100
AcDbEntity
  8
SIMBOLI
100
AcDbLine
 62
7
  6
CONTINUOUS
 10
1.6594770394
 20
-11.9910755775
 11
1.670034602
 21
-11.9978831074
  0
LINE
  5
37B
100
AcDbEntity
  8
SIMBOLI
100
AcDbLine
 62
7
  6
CONTINUOUS
 10
0.546910562
 20
-10.9918385809
 11
0.5569377003
 21
-10.9983068473
  0
LINE
  5
37C
100
AcDbEntity
  8
SIMBOLI
100
AcDbLine
 62
7
  6
CONTINUOUS
 10
0.8187473418
 20
-10.7125808072
 11
0.8064542465
 21
-10.7046360389
  0
LINE
  5
37D
100
AcDbEntity
  8
SIMBOLI
100
AcDbLine
 62
7
  6
CONTINUOUS
 10
0.8199876002
 20
-11.3320827226
 11
0.8153380639
 21
-11.329065235
  0
LINE
  5
37E
100
AcDbEntity
  8
SIMBOLI
100
AcDbLine
 62
7
  6
CONTINUOUS
 10
2.0741180648
 20
-10.959222531
 11
2.0895782462
 21
-10.9692764558
  0
LINE
  5
37F
100
AcDbEntity
  8
SIMBOLI
100
AcDbLine
 62
7
  6
CONTINUOUS
 10
2.1010349699
 20
-11.5860563381
 11
2.1132524016
 21
-11.59400795
  0
LINE
  5
380
100
AcDbEntity
  8
ASSI
100
AcDbLine
 62
7
  6
CONTINUOUS
 10
-8.9835245035
 20
19.8440415385
 11
-9.0145232531
 21
19.8642685916
  0
LINE
  5
381
100
AcDbEntity
  8
SIMBOLI
100
AcDbLine
 62
7
  6
CONTINUOUS
 10
0.405472091
 20
-11.746608706
 11
0.3895100511
 21
-11.7361705183
  0
LINE
  5
382
100
AcDbEntity
  8
SIMBOLI
100
AcDbLine
 62
7
  6
CONTINUOUS
 10
0.4256549474
 20
-11.1213931667
 11
0.4078746004
 21
-11.1097562257
  0
LINE
  5
383
100
AcDbEntity
  8
SIMBOLI
100
AcDbLine
 62
7
  6
CONTINUOUS
 10
0.4660542731
 20
-11.5826877732
 11
0.4765398266
 21
-11.5895559497
  0
LINE
  5
384
100
AcDbEntity
  8
ASSI
100
AcDbLine
 62
7
  6
CONTINUOUS
 10
9.3083305016
 20
-21.5017618467
 11
9.2879341382
 21
-21.4883182205
  0
LINE
  5
385
100
AcDbEntity
  8
SIMBOLI
100
AcDbLine
 62
7
  6
CONTINUOUS
 10
0.8774535462
 20
-10.5536119028
 11
0.8928044069
 21
-10.5637559635
  0
LINE
  5
386
100
AcDbEntity
  8
SIMBOLI
100
AcDbLine
 62
7
  6
CONTINUOUS
 10
0.9043261954
 20
-11.1803882751
 11
0.9164607339
 21
-11.1884105905
  0
LINE
  5
387
100
AcDbEntity
  8
SIMBOLI
100
AcDbLine
 62
7
  6
CONTINUOUS
 10
2.0206362069
 20
-11.7413396991
 11
2.0160227766
 21
-11.7382898411
  0
LINE
  5
388
100
AcDbEntity
  8
SIMBOLI
100
AcDbLine
 62
7
  6
CONTINUOUS
 10
-1.5632074414
 20
-9.6968099048
 11
-1.5547750889
 21
-9.7023936437
  0
LINE
  5
389
100
AcDbEntity
  8
SIMBOLI
100
AcDbLine
 62
7
  6
CONTINUOUS
 10
-2.8242570649
 20
-9.2359834418
 11
-2.8117889063
 21
-9.2442755053
  0
LINE
  5
38A
100
AcDbEntity
  8
SIMBOLI
100
AcDbLine
 62
7
  6
CONTINUOUS
 10
1.7312527522
 20
-11.3930122015
 11
1.7411089712
 21
-11.3995919236
  0
LINE
  5
38B
100
AcDbEntity
  8
ASSI
100
AcDbLine
 62
7
  6
CONTINUOUS
 10
-8.728720059
 20
-15.6310445076
 11
-8.6946874197
 21
-15.653803291
  0
LINE
  5
38C
100
AcDbEntity
  8
SIMBOLI
100
AcDbLine
 62
7
  6
CONTINUOUS
 10
2.0273167236
 20
-11.1268678706
 11
2.0149904858
 21
-11.1186237508
  0
LINE
  5
38D
100
AcDbEntity
  8
SIMBOLI
100
AcDbLine
 62
7
  6
CONTINUOUS
 10
0.8245694556
 20
-11.335159137
 11
0.8199876002
 21
-11.3320827226
  0
LINE
  5
38E
100
AcDbEntity
  8
SIMBOLI
100
AcDbLine
 62
7
  6
CONTINUOUS
 10
1.6489986342
 20
-11.9840290693
 11
1.6594770394
 21
-11.9910755775
  0
LINE
  5
38F
100
AcDbEntity
  8
SIMBOLI
100
AcDbLine
 62
7
  6
CONTINUOUS
 10
1.5823573114
 20
-12.1450665403
 11
1.5663724076
 21
-12.1342979464
  0
LINE
  5
390
100
AcDbEntity
  8
SIMBOLI
100
AcDbLine
 62
7
  6
CONTINUOUS
 10
0.5371229643
 20
-10.9852019977
 11
0.546910562
 21
-10.9918385809
  0
LINE
  5
391
100
AcDbEntity
  8
SIMBOLI
100
AcDbLine
 62
7
  6
CONTINUOUS
 10
2.1132524016
 20
-11.59400795
 11
2.1253514465
 21
-11.6022277013
  0
LINE
  5
392
100
AcDbEntity
  8
SIMBOLI
100
AcDbLine
 62
7
  6
CONTINUOUS
 10
0.8309892007
 20
-10.7208969004
 11
0.8187473418
 21
-10.7125808072
  0
LINE
  5
393
100
AcDbEntity
  8
SIMBOLI
100
AcDbLine
 62
7
  6
CONTINUOUS
 10
-1.5547750889
 20
-9.7023936437
 11
-1.5463681223
 21
-9.7081228962
  0
LINE
  5
394
100
AcDbEntity
  8
ASSI
100
AcDbLine
 62
7
  6
CONTINUOUS
 10
8.7312943217
 20
-21.8172462831
 11
8.6986268838
 21
-21.7949703613
  0
LINE
  5
395
100
AcDbEntity
  8
SIMBOLI
100
AcDbLine
 62
7
  6
CONTINUOUS
 10
0.4556472187
 20
-11.575581104
 11
0.4660542731
 21
-11.5826877732
  0
LINE
  5
396
100
AcDbEntity
  8
SIMBOLI
100
AcDbLine
 62
7
  6
CONTINUOUS
 10
2.0895782462
 20
-10.9692764558
 11
2.1049332229
 21
-10.9797739523
  0
LINE
  5
397
100
AcDbEntity
  8
SIMBOLI
100
AcDbLine
 62
7
  6
CONTINUOUS
 10
0.3895100511
 20
-11.7361705183
 11
0.3736328772
 21
-11.7253091445
  0
LINE
  5
398
100
AcDbEntity
  8
SIMBOLI
100
AcDbLine
 62
7
  6
CONTINUOUS
 10
2.0251762531
 20
-11.7444505259
 11
2.0206362069
 21
-11.7413396991
  0
LINE
  5
399
100
AcDbEntity
  8
SIMBOLI
100
AcDbLine
 62
7
  6
CONTINUOUS
 10
0.9164607339
 20
-11.1884105905
 11
0.9284779429
 21
-11.196700337
  0
LINE
  5
39A
100
AcDbEntity
  8
ASSI
100
AcDbLine
 62
7
  6
CONTINUOUS
 10
-8.9835160333
 20
-15.0937818409
 11
-9.0145147325
 21
-15.0723754211
  0
LINE
  5
39B
100
AcDbEntity
  8
SIMBOLI
100
AcDbLine
 62
7
  6
CONTINUOUS
 10
-2.8117889063
 20
-9.2442755053
 11
-2.7994827953
 21
-9.2527976153
  0
LINE
  5
39C
100
AcDbEntity
  8
SIMBOLI
100
AcDbLine
 62
7
  6
CONTINUOUS
 10
0.8928044069
 20
-10.5637559635
 11
0.9080508441
 21
-10.5743426884
  0
LINE
  5
39D
100
AcDbEntity
  8
SIMBOLI
100
AcDbLine
 62
7
  6
CONTINUOUS
 10
0.8290784792
 20
-11.338296072
 11
0.8245694556
 21
-11.335159137
  0
LINE
  5
39E
100
AcDbEntity
  8
SIMBOLI
100
AcDbLine
 62
7
  6
CONTINUOUS
 10
1.7216692701
 20
-11.3863256538
 11
1.7312527522
 21
-11.3930122015
  0
LINE
  5
39F
100
AcDbEntity
  8
SIMBOLI
100
AcDbLine
 62
7
  6
CONTINUOUS
 10
2.0371206323
 20
-11.1337260788
 11
2.0273167236
 21
-11.1268678706
  0
LINE
  5
3A0
100
AcDbEntity
  8
SIMBOLI
100
AcDbLine
 62
7
  6
CONTINUOUS
 10
-1.5463681223
 20
-9.7081228962
 11
-1.5379868966
 21
-9.7139977357
  0
LINE
  5
3A1
100
AcDbEntity
  8
SIMBOLI
100
AcDbLine
 62
7
  6
CONTINUOUS
 10
1.6386094234
 20
-11.9767418733
 11
1.6489986342
 21
-11.9840290693
  0
LINE
  5
3A2
100
AcDbEntity
  8
SIMBOLI
100
AcDbLine
 62
7
  6
CONTINUOUS
 10
1.5663724076
 20
-12.1342979464
 11
1.5505113574
 21
-12.1231113591
  0
LINE
  5
3A3
100
AcDbEntity
  8
SIMBOLI
100
AcDbLine
 62
7
  6
CONTINUOUS
 10
0.5276060907
 20
-10.9784602731
 11
0.5371229643
 21
-10.9852019977
  0
LINE
  5
3A4
100
AcDbEntity
  8
SIMBOLI
100
AcDbLine
 62
7
  6
CONTINUOUS
 10
2.1253514465
 20
-11.6022277013
 11
2.1372969664
 21
-11.6107096728
  0
LINE
  5
3A5
100
AcDbEntity
  8
SIMBOLI
100
AcDbLine
 62
7
  6
CONTINUOUS
 10
2.0296396918
 20
-11.7476208792
 11
2.0251762531
 21
-11.7444505259
  0
LINE
  5
3A6
100
AcDbEntity
  8
SIMBOLI
100
AcDbLine
 62
7
  6
CONTINUOUS
 10
0.8407261179
 20
-10.7278122679
 11
0.8309892007
 21
-10.7208969004
  0
LINE
  5
3A7
100
AcDbEntity
  8
SIMBOLI
100
AcDbLine
 62
7
  6
CONTINUOUS
 10
0.4453286339
 20
-11.5682342897
 11
0.4556472187
 21
-11.575581104
  0
LINE
  5
3A8
100
AcDbEntity
  8
ASSI
100
AcDbLine
 62
7
  6
CONTINUOUS
 10
-8.8237297708
 20
-15.5747192854
 11
-8.7663536547
 21
-15.6157872511
  0
LINE
  5
3A9
100
AcDbEntity
  8
SIMBOLI
100
AcDbLine
 62
7
  6
CONTINUOUS
 10
0.3736328772
 20
-11.7253091445
 11
0.357878693
 21
-11.7140305793
  0
LINE
  5
3AA
100
AcDbEntity
  8
SIMBOLI
100
AcDbLine
 62
7
  6
CONTINUOUS
 10
2.1049332229
 20
-10.9797739523
 11
2.1201611319
 21
-10.9907006422
  0
LINE
  5
3AB
100
AcDbEntity
  8
SIMBOLI
100
AcDbLine
 62
7
  6
CONTINUOUS
 10
-1.5379868966
 20
-9.7139977357
 11
-1.5296322406
 21
-9.7200179955
  0
LINE
  5
3AC
100
AcDbEntity
  8
SIMBOLI
100
AcDbLine
 62
7
  6
CONTINUOUS
 10
0.9284779429
 20
-11.196700337
 11
0.9403429154
 21
-11.2052513936
  0
LINE
  5
3AD
100
AcDbEntity
  8
SIMBOLI
100
AcDbLine
 62
7
  6
CONTINUOUS
 10
-2.7994827953
 20
-9.2527976153
 11
-2.7873437485
 21
-9.2615483253
  0
LINE
  5
3AE
100
AcDbEntity
  8
SIMBOLI
100
AcDbLine
 62
7
  6
CONTINUOUS
 10
0.8335114674
 20
-11.3414920658
 11
0.8290784792
 21
-11.338296072
  0
LINE
  5
3AF
100
AcDbEntity
  8
SIMBOLI
100
AcDbLine
 62
7
  6
CONTINUOUS
 10
1.7123825136
 20
-11.3795885666
 11
1.7216692701
 21
-11.3863256538
  0
LINE
  5
3B0
100
AcDbEntity
  8
SIMBOLI
100
AcDbLine
 62
7
  6
CONTINUOUS
 10
2.0468556726
 20
-11.1408145933
 11
2.0371206323
 21
-11.1337260788
  0
LINE
  5
3B1
100
AcDbEntity
  8
SIMBOLI
100
AcDbLine
 62
7
  6
CONTINUOUS
 10
0.9080508441
 20
-10.5743426884
 11
0.9231711502
 21
-10.5853575377
  0
LINE
  5
3B2
100
AcDbEntity
  8
SIMBOLI
100
AcDbLine
 62
7
  6
CONTINUOUS
 10
1.6283172712
 20
-11.9692202272
 11
1.6386094234
 21
-11.9767418733
  0
LINE
  5
3B3
100
AcDbEntity
  8
SIMBOLI
100
AcDbLine
 62
7
  6
CONTINUOUS
 10
2.0340237898
 20
-11.7508485499
 11
2.0296396918
 21
-11.7476208792
  0
LINE
  5
3B4
100
AcDbEntity
  8
SIMBOLI
100
AcDbLine
 62
7
  6
CONTINUOUS
 10
0.5183837838
 20
-10.9716698261
 11
0.5276060907
 21
-10.9784602731
  0
LINE
  5
3B5
100
AcDbEntity
  8
SIMBOLI
100
AcDbLine
 62
7
  6
CONTINUOUS
 10
1.5505113574
 20
-12.1231113591
 11
1.5348077162
 21
-12.1115140216
  0
LINE
  5
3B6
100
AcDbEntity
  8
SIMBOLI
100
AcDbLine
 62
7
  6
CONTINUOUS
 10
0.8503947335
 20
-10.734957464
 11
0.8407261179
 21
-10.7278122679
  0
LINE
  5
3B7
100
AcDbEntity
  8
SIMBOLI
100
AcDbLine
 62
7
  6
CONTINUOUS
 10
-1.5296322406
 20
-9.7200179955
 11
-1.5213049831
 21
-9.7261835089
  0
LINE
  5
3B8
100
AcDbEntity
  8
SIMBOLI
100
AcDbLine
 62
7
  6
CONTINUOUS
 10
0.4351063368
 20
-11.5606536148
 11
0.4453286339
 21
-11.5682342897
  0
LINE
  5
3B9
100
AcDbEntity
  8
SIMBOLI
100
AcDbLine
 62
7
  6
CONTINUOUS
 10
2.1372969664
 20
-11.6107096728
 11
2.1490548822
 21
-11.6194453745
  0
LINE
  5
3BA
100
AcDbEntity
  8
SIMBOLI
100
AcDbLine
 62
7
  6
CONTINUOUS
 10
0.8378657035
 20
-11.3447448923
 11
0.8335114674
 21
-11.3414920658
  0
LINE
  5
3BB
100
AcDbEntity
  8
SIMBOLI
100
AcDbLine
 62
7
  6
CONTINUOUS
 10
0.357878693
 20
-11.7140305793
 11
0.3422808875
 21
-11.7023423155
  0
LINE
  5
3BC
100
AcDbEntity
  8
SIMBOLI
100
AcDbLine
 62
7
  6
CONTINUOUS
 10
-2.7873437485
 20
-9.2615483253
 11
-2.7753775175
 21
-9.2705270039
  0
LINE
  5
3BD
100
AcDbEntity
  8
SIMBOLI
100
AcDbLine
 62
7
  6
CONTINUOUS
 10
2.1201611319
 20
-10.9907006422
 11
2.1352412102
 21
-11.0020360439
  0
LINE
  5
3BE
100
AcDbEntity
  8
SIMBOLI
100
AcDbLine
 62
7
  6
CONTINUOUS
 10
1.7034015524
 20
-11.3728222573
 11
1.7123825136
 21
-11.3795885666
  0
LINE
  5
3BF
100
AcDbEntity
  8
SIMBOLI
100
AcDbLine
 62
7
  6
CONTINUOUS
 10
0.9403429154
 20
-11.2052513936
 11
0.9520217968
 21
-11.2140550777
  0
LINE
  5
3C0
100
AcDbEntity
  8
ASSI
100
AcDbLine
 62
7
  6
CONTINUOUS
 10
9.2753707516
 20
15.0758268455
 11
9.3158899887
 21
15.0452453569
  0
LINE
  5
3C1
100
AcDbEntity
  8
SIMBOLI
100
AcDbLine
 62
7
  6
CONTINUOUS
 10
2.0565045775
 20
-11.1481304344
 11
2.0468556726
 21
-11.1408145933
  0
LINE
  5
3C2
100
AcDbEntity
  8
SIMBOLI
100
AcDbLine
 62
7
  6
CONTINUOUS
 10
-1.5213049831
 20
-9.7261835089
 11
-1.5130059529
 21
-9.732494109
  0
LINE
  5
3C3
100
AcDbEntity
  8
SIMBOLI
100
AcDbLine
 62
7
  6
CONTINUOUS
 10
1.6181294991
 20
-11.9614723553
 11
1.6283172712
 21
-11.9692202272
  0
LINE
  5
3C4
100
AcDbEntity
  8
SIMBOLI
100
AcDbLine
 62
7
  6
CONTINUOUS
 10
0.9231711502
 20
-10.5853575377
 11
0.9381447077
 21
-10.5967798727
  0
LINE
  5
3C5
100
AcDbEntity
  8
SIMBOLI
100
AcDbLine
 62
7
  6
CONTINUOUS
 10
2.0383258141
 20
-11.7541313289
 11
2.0340237898
 21
-11.7508485499
  0
LINE
  5
3C6
100
AcDbEntity
  8
SIMBOLI
100
AcDbLine
 62
7
  6
CONTINUOUS
 10
0.5094650621
 20
-10.964852012
 11
0.5183837838
 21
-10.9716698261
  0
LINE
  5
3C7
100
AcDbEntity
  8
SIMBOLI
100
AcDbLine
 62
7
  6
CONTINUOUS
 10
0.8599778851
 20
-10.742329413
 11
0.8503947335
 21
-10.734957464
  0
LINE
  5
3C8
100
AcDbEntity
  8
SIMBOLI
100
AcDbLine
 62
7
  6
CONTINUOUS
 10
0.4249876074
 20
-11.5528473479
 11
0.4351063368
 21
-11.5606536148
  0
LINE
  5
3C9
100
AcDbEntity
  8
SIMBOLI
100
AcDbLine
 62
7
  6
CONTINUOUS
 10
1.5348077162
 20
-12.1115140216
 11
1.5192759985
 21
-12.0995192971
  0
LINE
  5
3CA
100
AcDbEntity
  8
SIMBOLI
100
AcDbLine
 62
7
  6
CONTINUOUS
 10
0.8421384708
 20
-11.3480523255
 11
0.8378657035
 21
-11.3447448923
  0
LINE
  5
3CB
100
AcDbEntity
  8
SIMBOLI
100
AcDbLine
 62
7
  6
CONTINUOUS
 10
2.1490548822
 20
-11.6194453745
 11
2.1605911147
 21
-11.6284263166
  0
LINE
  5
3CC
100
AcDbEntity
  8
SIMBOLI
100
AcDbLine
 62
7
  6
CONTINUOUS
 10
-1.5130059529
 20
-9.732494109
 11
-1.5047359789
 21
-9.738949629
  0
LINE
  5
3CD
100
AcDbEntity
  8
SIMBOLI
100
AcDbLine
 62
7
  6
CONTINUOUS
 10
-2.7753775175
 20
-9.2705270039
 11
-2.7635898538
 21
-9.2797330199
  0
LINE
  5
3CE
100
AcDbEntity
  8
SIMBOLI
100
AcDbLine
 62
7
  6
CONTINUOUS
 10
1.6947269362
 20
-11.3660311956
 11
1.7034015524
 21
-11.3728222573
  0
LINE
  5
3CF
100
AcDbEntity
  8
SIMBOLI
100
AcDbLine
 62
7
  6
CONTINUOUS
 10
0.3422808875
 20
-11.7023423155
 11
0.3268539117
 21
-11.6902578369
  0
LINE
  5
3D0
100
AcDbEntity
  8
SIMBOLI
100
AcDbLine
 62
7
  6
CONTINUOUS
 10
2.1352412102
 20
-11.0020360439
 11
2.150152695
 21
-11.0137596763
  0
LINE
  5
3D1
100
AcDbEntity
  8
SIMBOLI
100
AcDbLine
 62
7
  6
CONTINUOUS
 10
0.9520217968
 20
-11.2140550777
 11
0.9634807322
 21
-11.2231027065
  0
LINE
  5
3D2
100
AcDbEntity
  8
SIMBOLI
100
AcDbLine
 62
7
  6
CONTINUOUS
 10
2.0660500804
 20
-11.1556706225
 11
2.0565045775
 21
-11.1481304344
  0
LINE
  5
3D3
100
AcDbEntity
  8
SIMBOLI
100
AcDbLine
 62
7
  6
CONTINUOUS
 10
1.6080534285
 20
-11.953506482
 11
1.6181294991
 21
-11.9614723553
  0
LINE
  5
3D4
100
AcDbEntity
  8
SIMBOLI
100
AcDbLine
 62
7
  6
CONTINUOUS
 10
2.0425430318
 20
-11.7574670071
 11
2.0383258141
 21
-11.7541313289
  0
LINE
  5
3D5
100
AcDbEntity
  8
SIMBOLI
100
AcDbLine
 62
7
  6
CONTINUOUS
 10
0.5008504789
 20
-10.9580112871
 11
0.5094650621
 21
-10.964852012
  0
LINE
  5
3D6
100
AcDbEntity
  8
SIMBOLI
100
AcDbLine
 62
7
  6
CONTINUOUS
 10
0.9381447077
 20
-10.5967798727
 11
0.9529508993
 21
-10.6085890551
  0
LINE
  5
3D7
100
AcDbEntity
  8
ASSI
100
AcDbLine
 62
7
  6
CONTINUOUS
 10
-9.0145232531
 20
19.8642685916
 11
-9.041615024
 21
19.8858911295
  0
LINE
  5
3D8
100
AcDbEntity
  8
SIMBOLI
100
AcDbLine
 62
7
  6
CONTINUOUS
 10
-1.5047359789
 20
-9.738949629
 11
-1.49649589
 21
-9.7455499023
  0
LINE
  5
3D9
100
AcDbEntity
  8
SIMBOLI
100
AcDbLine
 62
7
  6
CONTINUOUS
 10
0.8694584108
 20
-10.7499250392
 11
0.8599778851
 21
-10.742329413
  0
LINE
  5
3DA
100
AcDbEntity
  8
SIMBOLI
100
AcDbLine
 62
7
  6
CONTINUOUS
 10
0.4149797257
 20
-11.5448237577
 11
0.4249876074
 21
-11.5528473479
  0
LINE
  5
3DB
100
AcDbEntity
  8
SIMBOLI
100
AcDbLine
 62
7
  6
CONTINUOUS
 10
0.8463270526
 20
-11.3514121395
 11
0.8421384708
 21
-11.3480523255
  0
LINE
  5
3DC
100
AcDbEntity
  8
SIMBOLI
100
AcDbLine
 62
7
  6
CONTINUOUS
 10
1.5192759985
 20
-12.0995192971
 11
1.5039259587
 21
-12.0871420785
  0
LINE
  5
3DD
100
AcDbEntity
  8
SIMBOLI
100
AcDbLine
 62
7
  6
CONTINUOUS
 10
-2.7635898538
 20
-9.2797330199
 11
-2.7519865089
 21
-9.289165742
  0
LINE
  5
3DE
100
AcDbEntity
  8
SIMBOLI
100
AcDbLine
 62
7
  6
CONTINUOUS
 10
1.6863400557
 20
-11.3591874294
 11
1.6947269362
 21
-11.3660311956
  0
LINE
  5
3DF
100
AcDbEntity
  8
SIMBOLI
100
AcDbLine
 62
7
  6
CONTINUOUS
 10
2.1605911147
 20
-11.6284263166
 11
2.1718767515
 21
-11.6376462669
  0
LINE
  5
3E0
100
AcDbEntity
  8
SIMBOLI
100
AcDbLine
 62
7
  6
CONTINUOUS
 10
0.3268539117
 20
-11.6902578369
 11
0.3116074822
 21
-11.6777921253
  0
LINE
  5
3E1
100
AcDbEntity
  8
SIMBOLI
100
AcDbLine
 62
7
  6
CONTINUOUS
 10
2.0466727098
 20
-11.7608533755
 11
2.0425430318
 21
-11.7574670071
  0
LINE
  5
3E2
100
AcDbEntity
  8
SIMBOLI
100
AcDbLine
 62
7
  6
CONTINUOUS
 10
1.5980963807
 20
-11.9453308318
 11
1.6080534285
 21
-11.953506482
  0
LINE
  5
3E3
100
AcDbEntity
  8
SIMBOLI
100
AcDbLine
 62
7
  6
CONTINUOUS
 10
2.150152695
 20
-11.0137596763
 11
2.1648748234
 21
-11.0258510578
  0
LINE
  5
3E4
100
AcDbEntity
  8
SIMBOLI
100
AcDbLine
 62
7
  6
CONTINUOUS
 10
-1.49649589
 20
-9.7455499023
 11
-1.4882865149
 21
-9.7522947621
  0
LINE
  5
3E5
100
AcDbEntity
  8
SIMBOLI
100
AcDbLine
 62
7
  6
CONTINUOUS
 10
2.0754749144
 20
-11.1634321782
 11
2.0660500804
 21
-11.1556706225
  0
LINE
  5
3E6
100
AcDbEntity
  8
SIMBOLI
100
AcDbLine
 62
7
  6
CONTINUOUS
 10
0.4925215508
 20
-10.9511195751
 11
0.5008504789
 21
-10.9580112871
  0
LINE
  5
3E7
100
AcDbEntity
  8
SIMBOLI
100
AcDbLine
 62
7
  6
CONTINUOUS
 10
0.9634807322
 20
-11.2231027065
 11
0.9746909986
 21
-11.2323878842
  0
LINE
  5
3E8
100
AcDbEntity
  8
SIMBOLI
100
AcDbLine
 62
7
  6
CONTINUOUS
 10
0.8504287322
 20
-11.3548221082
 11
0.8463270526
 21
-11.3514121395
  0
LINE
  5
3E9
100
AcDbEntity
  8
SIMBOLI
100
AcDbLine
 62
7
  6
CONTINUOUS
 10
0.4050899717
 20
-11.5365911128
 11
0.4149797257
 21
-11.5448237577
  0
LINE
  5
3EA
100
AcDbEntity
  8
SIMBOLI
100
AcDbLine
 62
7
  6
CONTINUOUS
 10
0.9529508993
 20
-10.6085890551
 11
0.9675691076
 21
-10.6207644463
  0
LINE
  5
3EB
100
AcDbEntity
  8
SIMBOLI
100
AcDbLine
 62
7
  6
CONTINUOUS
 10
0.8788191483
 20
-10.7577412671
 11
0.8694584108
 21
-10.7499250392
  0
LINE
  5
3EC
100
AcDbEntity
  8
SIMBOLI
100
AcDbLine
 62
7
  6
CONTINUOUS
 10
-1.4882865149
 20
-9.7522947621
 11
-1.4801086825
 21
-9.7591840415
  0
LINE
  5
3ED
100
AcDbEntity
  8
SIMBOLI
100
AcDbLine
 62
7
  6
CONTINUOUS
 10
1.5039259587
 20
-12.0871420785
 11
1.4857609911
 21
-12.0718065556
  0
LINE
  5
3EE
100
AcDbEntity
  8
SIMBOLI
100
AcDbLine
 62
7
  6
CONTINUOUS
 10
-2.7519865089
 20
-9.289165742
 11
-2.7405732343
 21
-9.2988245388
  0
LINE
  5
3EF
100
AcDbEntity
  8
SIMBOLI
100
AcDbLine
 62
7
  6
CONTINUOUS
 10
2.0507124095
 20
-11.7642880629
 11
2.0466727098
 21
-11.7608533755
  0
LINE
  5
3F0
100
AcDbEntity
  8
SIMBOLI
100
AcDbLine
 62
7
  6
CONTINUOUS
 10
1.5882656771
 20
-11.9369536291
 11
1.5980963807
 21
-11.9453308318
  0
LINE
  5
3F1
100
AcDbEntity
  8
SIMBOLI
100
AcDbLine
 62
7
  6
CONTINUOUS
 10
1.678226278
 20
-11.3522646581
 11
1.6863400557
 21
-11.3591874294
  0
LINE
  5
3F2
100
AcDbEntity
  8
ASSI
100
AcDbLine
 62
7
  6
CONTINUOUS
 10
-9.0145147325
 20
-15.0723754211
 11
-9.0416065715
 21
-15.0492512564
  0
LINE
  5
3F3
100
AcDbEntity
  8
SIMBOLI
100
AcDbLine
 62
7
  6
CONTINUOUS
 10
0.3116074822
 20
-11.6777921253
 11
0.2935652886
 21
-11.6623522155
  0
LINE
  5
3F4
100
AcDbEntity
  8
SIMBOLI
100
AcDbLine
 62
7
  6
CONTINUOUS
 10
2.1648748234
 20
-11.0258510578
 11
2.1793901768
 21
-11.0382914381
  0
LINE
  5
3F5
100
AcDbEntity
  8
SIMBOLI
100
AcDbLine
 62
7
  6
CONTINUOUS
 10
2.1718767515
 20
-11.6376462669
 11
2.182903548
 21
-11.6471080253
  0
LINE
  5
3F6
100
AcDbEntity
  8
SIMBOLI
100
AcDbLine
 62
7
  6
CONTINUOUS
 10
2.0847643375
 20
-11.1714121688
 11
2.0754749144
 21
-11.1634321782
  0
LINE
  5
3F7
100
AcDbEntity
  8
SIMBOLI
100
AcDbLine
 62
7
  6
CONTINUOUS
 10
0.8544410857
 20
-11.3582798456
 11
0.8504287322
 21
-11.3548221082
  0
LINE
  5
3F8
100
AcDbEntity
  8
SIMBOLI
100
AcDbLine
 62
7
  6
CONTINUOUS
 10
0.3953256254
 20
-11.5281576818
 11
0.4050899717
 21
-11.5365911128
  0
LINE
  5
3F9
100
AcDbEntity
  8
SIMBOLI
100
AcDbLine
 62
7
  6
CONTINUOUS
 10
0.4844637443
 20
-10.9441504777
 11
0.4925215508
 21
-10.9511195751
  0
LINE
  5
3FA
100
AcDbEntity
  8
SIMBOLI
100
AcDbLine
 62
7
  6
CONTINUOUS
 10
0.9675691076
 20
-10.6207644463
 11
0.9819820378
 21
-10.6332871641
  0
LINE
  5
3FB
100
AcDbEntity
  8
SIMBOLI
100
AcDbLine
 62
7
  6
CONTINUOUS
 10
0.9746909986
 20
-11.2323878842
 11
0.9856443988
 21
-11.2419133623
  0
LINE
  5
3FC
100
AcDbEntity
  8
SIMBOLI
100
AcDbLine
 62
7
  6
CONTINUOUS
 10
0.8880454468
 20
-10.7657750784
 11
0.8788191483
 21
-10.7577412671
  0
LINE
  5
3FD
100
AcDbEntity
  8
ASSI
100
AcDbLine
 62
7
  6
CONTINUOUS
 10
9.3158899887
 20
15.0452453569
 11
9.3546465759
 21
15.0112190215
  0
LINE
  5
3FE
100
AcDbEntity
  8
SIMBOLI
100
AcDbLine
 62
7
  6
CONTINUOUS
 10
-2.7405732343
 20
-9.2988245388
 11
-2.7293562549
 21
-9.3087083404
  0
LINE
  5
3FF
100
AcDbEntity
  8
SIMBOLI
100
AcDbLine
 62
7
  6
CONTINUOUS
 10
2.054660871
 20
-11.7677680504
 11
2.0507124095
 21
-11.7642880629
  0
LINE
  5
400
100
AcDbEntity
  8
ASSI
100
AcDbLine
 62
7
  6
CONTINUOUS
 10
9.2879341382
 20
-21.4883182205
 11
9.26911658
 21
-21.4717313507
  0
LINE
  5
401
100
AcDbEntity
  8
SIMBOLI
100
AcDbLine
 62
7
  6
CONTINUOUS
 10
1.4857609911
 20
-12.0718065556
 11
1.4678977299
 21
-12.0559737953
  0
LINE
  5
402
100
AcDbEntity
  8
SIMBOLI
100
AcDbLine
 62
7
  6
CONTINUOUS
 10
1.5766456523
 20
-11.9266469679
 11
1.5882656771
 21
-11.9369536291
  0
LINE
  5
403
100
AcDbEntity
  8
SIMBOLI
100
AcDbLine
 62
7
  6
CONTINUOUS
 10
0.8583628598
 20
-11.3617823248
 11
0.8544410857
 21
-11.3582798456
  0
LINE
  5
404
100
AcDbEntity
  8
SIMBOLI
100
AcDbLine
 62
7
  6
CONTINUOUS
 10
2.1793901768
 20
-11.0382914381
 11
2.193694714
 21
-11.0510689914
  0
LINE
  5
405
100
AcDbEntity
  8
SIMBOLI
100
AcDbLine
 62
7
  6
CONTINUOUS
 10
1.6704060337
 20
-11.3452756115
 11
1.678226278
 21
-11.3522646581
  0
LINE
  5
406
100
AcDbEntity
  8
ASSI
100
AcDbLine
 62
7
  6
CONTINUOUS
 10
-8.8772072932
 20
-15.5269141663
 11
-8.8237297708
 21
-15.5747192854
  0
LINE
  5
407
100
AcDbEntity
  8
SIMBOLI
100
AcDbLine
 62
7
  6
CONTINUOUS
 10
2.0939137066
 20
-11.1796078494
 11
2.0847643375
 21
-11.1714121688
  0
LINE
  5
408
100
AcDbEntity
  8
ASSI
100
AcDbLine
 62
7
  6
CONTINUOUS
 10
-8.7602835825
 20
-15.60272675
 11
-8.728720059
 21
-15.6310445076
  0
LINE
  5
409
100
AcDbEntity
  8
SIMBOLI
100
AcDbLine
 62
7
  6
CONTINUOUS
 10
0.2935652886
 20
-11.6623522155
 11
0.2758229836
 21
-11.6464172551
  0
LINE
  5
40A
100
AcDbEntity
  8
SIMBOLI
100
AcDbLine
 62
7
  6
CONTINUOUS
 10
0.3837839361
 20
-11.51778462
 11
0.3953256254
 21
-11.5281576818
  0
LINE
  5
40B
100
AcDbEntity
  8
SIMBOLI
100
AcDbLine
 62
7
  6
CONTINUOUS
 10
2.182903548
 20
-11.6471080253
 11
2.1936684264
 21
-11.6568166498
  0
LINE
  5
40C
100
AcDbEntity
  8
SIMBOLI
100
AcDbLine
 62
7
  6
CONTINUOUS
 10
0.9819820378
 20
-10.6332871641
 11
0.9961856852
 21
-10.646145351
  0
LINE
  5
40D
100
AcDbEntity
  8
SIMBOLI
100
AcDbLine
 62
7
  6
CONTINUOUS
 10
0.4766973617
 20
-10.9371168391
 11
0.4844637443
 21
-10.9441504777
  0
LINE
  5
40E
100
AcDbEntity
  8
SIMBOLI
100
AcDbLine
 62
7
  6
CONTINUOUS
 10
0.8971327007
 20
-10.7740236844
 11
0.8880454468
 21
-10.7657750784
  0
LINE
  5
40F
100
AcDbEntity
  8
SIMBOLI
100
AcDbLine
 62
7
  6
CONTINUOUS
 10
2.0585171286
 20
-11.771290157
 11
2.054660871
 21
-11.7677680504
  0
LINE
  5
410
100
AcDbEntity
  8
SIMBOLI
100
AcDbLine
 62
7
  6
CONTINUOUS
 10
0.9856443988
 20
-11.2419133623
 11
0.9963378673
 21
-11.2516841795
  0
LINE
  5
411
100
AcDbEntity
  8
SIMBOLI
100
AcDbLine
 62
7
  6
CONTINUOUS
 10
-2.7293562549
 20
-9.3087083404
 11
-2.7183436882
 21
-9.3188143218
  0
LINE
  5
412
100
AcDbEntity
  8
ASSI
100
AcDbLine
 62
7
  6
CONTINUOUS
 10
8.6986268838
 20
-21.7949703613
 11
8.6683614208
 21
-21.767111718
  0
LINE
  5
413
100
AcDbEntity
  8
SIMBOLI
100
AcDbLine
 62
7
  6
CONTINUOUS
 10
0.8621930942
 20
-11.3653263587
 11
0.8583628598
 21
-11.3617823248
  0
LINE
  5
414
100
AcDbEntity
  8
SIMBOLI
100
AcDbLine
 62
7
  6
CONTINUOUS
 10
1.5652291771
 20
-11.9160788351
 11
1.5766456523
 21
-11.9266469679
  0
LINE
  5
415
100
AcDbEntity
  8
SIMBOLI
100
AcDbLine
 62
7
  6
CONTINUOUS
 10
1.4678977299
 20
-12.0559737953
 11
1.4503622189
 21
-12.0396759058
  0
LINE
  5
416
100
AcDbEntity
  8
SIMBOLI
100
AcDbLine
 62
7
  6
CONTINUOUS
 10
2.193694714
 20
-11.0510689914
 11
2.207787738
 21
-11.0641736228
  0
LINE
  5
417
100
AcDbEntity
  8
SIMBOLI
100
AcDbLine
 62
7
  6
CONTINUOUS
 10
-1.6259545949
 20
-9.8603141674
 11
-1.5487805925
 21
-9.9321547973
  0
LINE
  5
418
100
AcDbEntity
  8
SIMBOLI
100
AcDbLine
 62
7
  6
CONTINUOUS
 10
2.1029209033
 20
-11.1880165224
 11
2.0939137066
 21
-11.1796078494
  0
LINE
  5
419
100
AcDbEntity
  8
SIMBOLI
100
AcDbLine
 62
7
  6
CONTINUOUS
 10
0.3724443232
 20
-11.5071513257
 11
0.3837839361
 21
-11.51778462
  0
LINE
  5
41A
100
AcDbEntity
  8
SIMBOLI
100
AcDbLine
 62
7
  6
CONTINUOUS
 10
1.6629007693
 20
-11.3382351718
 11
1.6704060337
 21
-11.3452756115
  0
LINE
  5
41B
100
AcDbEntity
  8
SIMBOLI
100
AcDbLine
 62
7
  6
CONTINUOUS
 10
0.2758229836
 20
-11.6464172551
 11
0.2584064774
 21
-11.6300195955
  0
LINE
  5
41C
100
AcDbEntity
  8
SIMBOLI
100
AcDbLine
 62
7
  6
CONTINUOUS
 10
0.9961856852
 20
-10.646145351
 11
1.0101793679
 21
-10.6593289054
  0
LINE
  5
41D
100
AcDbEntity
  8
SIMBOLI
100
AcDbLine
 62
7
  6
CONTINUOUS
 10
1.6010365336
 20
-11.5183714296
 11
1.4819390306
 21
-11.4060569471
  0
LINE
  5
41E
100
AcDbEntity
  8
SIMBOLI
100
AcDbLine
 62
7
  6
CONTINUOUS
 10
0.9060788155
 20
-10.7824843542
 11
0.8971327007
 21
-10.7740236844
  0
LINE
  5
41F
100
AcDbEntity
  8
SIMBOLI
100
AcDbLine
 62
7
  6
CONTINUOUS
 10
2.0622802166
 20
-11.7748512021
 11
2.0585171286
 21
-11.771290157
  0
LINE
  5
420
100
AcDbEntity
  8
SIMBOLI
100
AcDbLine
 62
7
  6
CONTINUOUS
 10
2.1936684264
 20
-11.6568166498
 11
2.2041683091
 21
-11.6667771983
  0
LINE
  5
421
100
AcDbEntity
  8
SIMBOLI
100
AcDbLine
 62
7
  6
CONTINUOUS
 10
0.4692437152
 20
-10.9300336644
 11
0.4766973617
 21
-10.9371168391
  0
LINE
  5
422
100
AcDbEntity
  8
SIMBOLI
100
AcDbLine
 62
7
  6
CONTINUOUS
 10
-2.8780321001
 20
-9.4031586798
 11
-2.7983906121
 21
-9.4791506208
  0
LINE
  5
423
100
AcDbEntity
  8
SIMBOLI
100
AcDbLine
 62
7
  6
CONTINUOUS
 10
0.4078746004
 20
-11.1097562257
 11
0.2895898343
 21
-10.9967601248
  0
LINE
  5
424
100
AcDbEntity
  8
SIMBOLI
100
AcDbLine
 62
7
  6
CONTINUOUS
 10
-2.7183436882
 20
-9.3188143218
 11
-2.7075441251
 21
-9.3291392195
  0
LINE
  5
425
100
AcDbEntity
  8
SIMBOLI
100
AcDbLine
 62
7
  6
CONTINUOUS
 10
0.8659308284
 20
-11.3689087604
 11
0.8621930942
 21
-11.3653263587
  0
LINE
  5
426
100
AcDbEntity
  8
SIMBOLI
100
AcDbLine
 62
7
  6
CONTINUOUS
 10
0.9963378673
 20
-11.2516841795
 11
1.0067683386
 21
-11.2617053743
  0
LINE
  5
427
100
AcDbEntity
  8
SIMBOLI
100
AcDbLine
 62
7
  6
CONTINUOUS
 10
1.5540273229
 20
-11.9052661516
 11
1.5652291771
 21
-11.9160788351
  0
LINE
  5
428
100
AcDbEntity
  8
SIMBOLI
100
AcDbLine
 62
7
  6
CONTINUOUS
 10
2.207787738
 20
-11.0641736228
 11
2.2216685519
 21
-11.0775952373
  0
LINE
  5
429
100
AcDbEntity
  8
SIMBOLI
100
AcDbLine
 62
7
  6
CONTINUOUS
 10
2.1117838094
 20
-11.1966354898
 11
2.1029209033
 21
-11.1880165224
  0
LINE
  5
42A
100
AcDbEntity
  8
SIMBOLI
100
AcDbLine
 62
7
  6
CONTINUOUS
 10
1.4503622189
 20
-12.0396759058
 11
1.4331805021
 21
-12.0229449955
  0
LINE
  5
42B
100
AcDbEntity
  8
SIMBOLI
100
AcDbLine
 62
7
  6
CONTINUOUS
 10
0.3613177927
 20
-11.4962747916
 11
0.3724443232
 21
-11.5071513257
  0
LINE
  5
42C
100
AcDbEntity
  8
SIMBOLI
100
AcDbLine
 62
7
  6
CONTINUOUS
 10
1.0101793679
 20
-10.6593289054
 11
1.0239624036
 21
-10.6728277259
  0
LINE
  5
42D
100
AcDbEntity
  8
SIMBOLI
100
AcDbLine
 62
7
  6
CONTINUOUS
 10
2.0659491697
 20
-11.7784480045
 11
2.0622802166
 21
-11.7748512021
  0
LINE
  5
42E
100
AcDbEntity
  8
SIMBOLI
100
AcDbLine
 62
7
  6
CONTINUOUS
 10
0.9148816968
 20
-10.7911543564
 11
0.9060788155
 21
-10.7824843542
  0
LINE
  5
42F
100
AcDbEntity
  8
SIMBOLI
100
AcDbLine
 62
7
  6
CONTINUOUS
 10
0.2584064774
 20
-11.6300195955
 11
0.2413416799
 21
-11.613191588
  0
LINE
  5
430
100
AcDbEntity
  8
SIMBOLI
100
AcDbLine
 62
7
  6
CONTINUOUS
 10
1.6557009302
 20
-11.3311278013
 11
1.6629007693
 21
-11.3382351718
  0
LINE
  5
431
100
AcDbEntity
  8
SIMBOLI
100
AcDbLine
 62
7
  6
CONTINUOUS
 10
0.8695751021
 20
-11.3725263428
 11
0.8659308284
 21
-11.3689087604
  0
LINE
  5
432
100
AcDbEntity
  8
SIMBOLI
100
AcDbLine
 62
7
  6
CONTINUOUS
 10
2.2041683091
 20
-11.6667771983
 11
2.2123754958
 21
-11.67493215
  0
LINE
  5
433
100
AcDbEntity
  8
ASSI
100
AcDbLine
 62
7
  6
CONTINUOUS
 10
-9.041615024
 20
19.8858911295
 11
-9.0645373185
 21
19.9086996468
  0
LINE
  5
434
100
AcDbEntity
  8
SIMBOLI
100
AcDbLine
 62
7
  6
CONTINUOUS
 10
-2.7075441251
 20
-9.3291392195
 11
-2.6969661564
 21
-9.33967977
  0
LINE
  5
435
100
AcDbEntity
  8
SIMBOLI
100
AcDbLine
 62
7
  6
CONTINUOUS
 10
0.4620933227
 20
-10.9228853589
 11
0.4692437152
 21
-10.9300336644
  0
LINE
  5
436
100
AcDbEntity
  8
SIMBOLI
100
AcDbLine
 62
7
  6
CONTINUOUS
 10
2.2216685519
 20
-11.0775952373
 11
2.2353364588
 21
-11.0913237401
  0
LINE
  5
437
100
AcDbEntity
  8
SIMBOLI
100
AcDbLine
 62
7
  6
CONTINUOUS
 10
1.5430511609
 20
-11.8942258381
 11
1.5540273229
 21
-11.9052661516
  0
LINE
  5
438
100
AcDbEntity
  8
SIMBOLI
100
AcDbLine
 62
7
  6
CONTINUOUS
 10
1.0067683386
 20
-11.2617053743
 11
1.0149214432
 21
-11.2699077176
  0
LINE
  5
439
100
AcDbEntity
  8
SIMBOLI
100
AcDbLine
 62
7
  6
CONTINUOUS
 10
2.1205003065
 20
-11.205462054
 11
2.1117838094
 21
-11.1966354898
  0
LINE
  5
43A
100
AcDbEntity
  8
ASSI
100
AcDbLine
 62
7
  6
CONTINUOUS
 10
9.3546465759
 20
15.0112190215
 11
9.3912162584
 21
14.9741203141
  0
LINE
  5
43B
100
AcDbEntity
  8
SIMBOLI
100
AcDbLine
 62
7
  6
CONTINUOUS
 10
2.0695230221
 20
-11.7820773836
 11
2.0659491697
 21
-11.7784480045
  0
LINE
  5
43C
100
AcDbEntity
  8
SIMBOLI
100
AcDbLine
 62
7
  6
CONTINUOUS
 10
1.0239624036
 20
-10.6728277259
 11
1.0375341103
 21
-10.6866317112
  0
LINE
  5
43D
100
AcDbEntity
  8
SIMBOLI
100
AcDbLine
 62
7
  6
CONTINUOUS
 10
0.3504153508
 20
-11.4851720101
 11
0.3613177927
 21
-11.4962747916
  0
LINE
  5
43E
100
AcDbEntity
  8
SIMBOLI
100
AcDbLine
 62
7
  6
CONTINUOUS
 10
1.4331805021
 20
-12.0229449955
 11
1.4163786234
 21
-12.0058131725
  0
LINE
  5
43F
100
AcDbEntity
  8
SIMBOLI
100
AcDbLine
 62
7
  6
CONTINUOUS
 10
0.9235392502
 20
-10.8000309601
 11
0.9148816968
 21
-10.7911543564
  0
LINE
  5
440
100
AcDbEntity
  8
SIMBOLI
100
AcDbLine
 62
7
  6
CONTINUOUS
 10
0.8731249547
 20
-11.3761759189
 11
0.8695751021
 21
-11.3725263428
  0
LINE
  5
441
100
AcDbEntity
  8
SIMBOLI
100
AcDbLine
 62
7
  6
CONTINUOUS
 10
0.2413416799
 20
-11.613191588
 11
0.2246545016
 21
-11.5959655837
  0
LINE
  5
442
100
AcDbEntity
  8
SIMBOLI
100
AcDbLine
 62
7
  6
CONTINUOUS
 10
2.2123754958
 20
-11.67493215
 11
2.2204104147
 21
-11.683264532
  0
LINE
  5
443
100
AcDbEntity
  8
SIMBOLI
100
AcDbLine
 62
7
  6
CONTINUOUS
 10
-2.6969661564
 20
-9.33967977
 11
-2.686618373
 21
-9.3504327095
  0
LINE
  5
444
100
AcDbEntity
  8
SIMBOLI
100
AcDbLine
 62
7
  6
CONTINUOUS
 10
1.648789212
 20
-11.3239303572
 11
1.6557009302
 21
-11.3311278013
  0
LINE
  5
445
100
AcDbEntity
  8
SIMBOLI
100
AcDbLine
 62
7
  6
CONTINUOUS
 10
2.2353364588
 20
-11.0913237401
 11
2.2487943749
 21
-11.1053558081
  0
LINE
  5
446
100
AcDbEntity
  8
SIMBOLI
100
AcDbLine
 62
7
  6
CONTINUOUS
 10
1.5323117625
 20
-11.8829748157
 11
1.5430511609
 21
-11.8942258381
  0
LINE
  5
447
100
AcDbEntity
  8
SIMBOLI
100
AcDbLine
 62
7
  6
CONTINUOUS
 10
1.0149214432
 20
-11.2699077176
 11
1.0229035716
 21
-11.2782864849
  0
LINE
  5
448
100
AcDbEntity
  8
SIMBOLI
100
AcDbLine
 62
7
  6
CONTINUOUS
 10
-1.4801086825
 20
-9.7591840415
 11
-1.3899336008
 21
-9.8539457572
  0
LINE
  5
449
100
AcDbEntity
  8
SIMBOLI
100
AcDbLine
 62
7
  6
CONTINUOUS
 10
2.0730017497
 20
-11.7857377817
 11
2.0695230221
 21
-11.7820773836
  0
LINE
  5
44A
100
AcDbEntity
  8
SIMBOLI
100
AcDbLine
 62
7
  6
CONTINUOUS
 10
0.455229003
 20
-10.915648678
 11
0.4620933227
 21
-10.9228853589
  0
LINE
  5
44B
100
AcDbEntity
  8
SIMBOLI
100
AcDbLine
 62
7
  6
CONTINUOUS
 10
2.1290693771
 20
-11.2144967436
 11
2.1205003065
 21
-11.205462054
  0
LINE
  5
44C
100
AcDbEntity
  8
SIMBOLI
100
AcDbLine
 62
7
  6
CONTINUOUS
 10
1.0375341103
 20
-10.6866317112
 11
1.0508973984
 21
-10.7007375521
  0
LINE
  5
44D
100
AcDbEntity
  8
SIMBOLI
100
AcDbLine
 62
7
  6
CONTINUOUS
 10
0.3397480034
 20
-11.473859974
 11
0.3504153508
 21
-11.4851720101
  0
LINE
  5
44E
100
AcDbEntity
  8
SIMBOLI
100
AcDbLine
 62
7
  6
CONTINUOUS
 10
0.8765803617
 20
-11.379855931
 11
0.8731249547
 21
-11.3761759189
  0
LINE
  5
44F
100
AcDbEntity
  8
SIMBOLI
100
AcDbLine
 62
7
  6
CONTINUOUS
 10
1.4163786234
 20
-12.0058131725
 11
1.3999770843
 21
-11.9883052629
  0
LINE
  5
450
100
AcDbEntity
  8
SIMBOLI
100
AcDbLine
 62
7
  6
CONTINUOUS
 10
0.9320504783
 20
-10.8091146706
 11
0.9235392502
 21
-10.8000309601
  0
LINE
  5
451
100
AcDbEntity
  8
ASSI
100
AcDbLine
 62
7
  6
CONTINUOUS
 10
-9.0416065715
 20
-15.0492512564
 11
-9.0645290572
 21
-15.024633397
  0
LINE
  5
452
100
AcDbEntity
  8
SIMBOLI
100
AcDbLine
 62
7
  6
CONTINUOUS
 10
0.2246545016
 20
-11.5959655837
 11
0.2083653281
 21
-11.5783666049
  0
LINE
  5
453
100
AcDbEntity
  8
SIMBOLI
100
AcDbLine
 62
7
  6
CONTINUOUS
 10
2.2487943749
 20
-11.1053558081
 11
2.2620596697
 21
-11.119715205
  0
LINE
  5
454
100
AcDbEntity
  8
SIMBOLI
100
AcDbLine
 62
7
  6
CONTINUOUS
 10
2.2204104147
 20
-11.683264532
 11
2.2282723652
 21
-11.6917873064
  0
LINE
  5
455
100
AcDbEntity
  8
SIMBOLI
100
AcDbLine
 62
7
  6
CONTINUOUS
 10
-2.686618373
 20
-9.3504327095
 11
-2.6765093657
 21
-9.3613947747
  0
LINE
  5
456
100
AcDbEntity
  8
SIMBOLI
100
AcDbLine
 62
7
  6
CONTINUOUS
 10
1.5218174409
 20
-11.8715264307
 11
1.5323117625
 21
-11.8829748157
  0
LINE
  5
457
100
AcDbEntity
  8
SIMBOLI
100
AcDbLine
 62
7
  6
CONTINUOUS
 10
2.0763890938
 20
-11.789434135
 11
2.0730017497
 21
-11.7857377817
  0
LINE
  5
458
100
AcDbEntity
  8
SIMBOLI
100
AcDbLine
 62
7
  6
CONTINUOUS
 10
1.0508973984
 20
-10.7007375521
 11
1.0640695473
 21
-10.7151691094
  0
LINE
  5
459
100
AcDbEntity
  8
SIMBOLI
100
AcDbLine
 62
7
  6
CONTINUOUS
 10
1.0229035716
 20
-11.2782864849
 11
1.0307140279
 21
-11.2868546338
  0
LINE
  5
45A
100
AcDbEntity
  8
SIMBOLI
100
AcDbLine
 62
7
  6
CONTINUOUS
 10
2.1374944072
 20
-11.2237529939
 11
2.1290693771
 21
-11.2144967436
  0
LINE
  5
45B
100
AcDbEntity
  8
SIMBOLI
100
AcDbLine
 62
7
  6
CONTINUOUS
 10
1.6421483099
 20
-11.3166196968
 11
1.648789212
 21
-11.3239303572
  0
LINE
  5
45C
100
AcDbEntity
  8
SIMBOLI
100
AcDbLine
 62
7
  6
CONTINUOUS
 10
0.3293240146
 20
-11.4623520836
 11
0.3397480034
 21
-11.473859974
  0
LINE
  5
45D
100
AcDbEntity
  8
SIMBOLI
100
AcDbLine
 62
7
  6
CONTINUOUS
 10
0.8799450419
 20
-11.3835713385
 11
0.8765803617
 21
-11.379855931
  0
LINE
  5
45E
100
AcDbEntity
  8
ASSI
100
AcDbLine
 62
7
  6
CONTINUOUS
 10
-8.9261996793
 20
-15.4726033177
 11
-8.8772072932
 21
-15.5269141663
  0
LINE
  5
45F
100
AcDbEntity
  8
SIMBOLI
100
AcDbLine
 62
7
  6
CONTINUOUS
 10
0.9404187722
 20
-10.8184189408
 11
0.9320504783
 21
-10.8091146706
  0
LINE
  5
460
100
AcDbEntity
  8
SIMBOLI
100
AcDbLine
 62
7
  6
CONTINUOUS
 10
0.4486335754
 20
-10.908300377
 11
0.455229003
 21
-10.915648678
  0
LINE
  5
461
100
AcDbEntity
  8
SIMBOLI
100
AcDbLine
 62
7
  6
CONTINUOUS
 10
1.3999770843
 20
-11.9883052629
 11
1.3839742166
 21
-11.9704169639
  0
LINE
  5
462
100
AcDbEntity
  8
SIMBOLI
100
AcDbLine
 62
7
  6
CONTINUOUS
 10
2.2620596697
 20
-11.119715205
 11
2.2751533261
 21
-11.1344324665
  0
LINE
  5
463
100
AcDbEntity
  8
SIMBOLI
100
AcDbLine
 62
7
  6
CONTINUOUS
 10
0.2083653281
 20
-11.5783666049
 11
0.1924724483
 21
-11.5603903583
  0
LINE
  5
464
100
AcDbEntity
  8
SIMBOLI
100
AcDbLine
 62
7
  6
CONTINUOUS
 10
-2.6765093657
 20
-9.3613947747
 11
-2.6666474543
 21
-9.3725619224
  0
LINE
  5
465
100
AcDbEntity
  8
SIMBOLI
100
AcDbLine
 62
7
  6
CONTINUOUS
 10
2.0796897371
 20
-11.7931730033
 11
2.0763890938
 21
-11.789434135
  0
LINE
  5
466
100
AcDbEntity
  8
SIMBOLI
100
AcDbLine
 62
7
  6
CONTINUOUS
 10
2.2282723652
 20
-11.6917873064
 11
2.2359606466
 21
-11.7005134352
  0
LINE
  5
467
100
AcDbEntity
  8
SIMBOLI
100
AcDbLine
 62
7
  6
CONTINUOUS
 10
1.5115654765
 20
-11.859879732
 11
1.5218174409
 21
-11.8715264307
  0
LINE
  5
468
100
AcDbEntity
  8
SIMBOLI
100
AcDbLine
 62
7
  6
CONTINUOUS
 10
1.0640695473
 20
-10.7151691094
 11
1.0770714289
 21
-10.7299570361
  0
LINE
  5
469
100
AcDbEntity
  8
SIMBOLI
100
AcDbLine
 62
7
  6
CONTINUOUS
 10
2.1457798836
 20
-11.2332474669
 11
2.1374944072
 21
-11.2237529939
  0
LINE
  5
46A
100
AcDbEntity
  8
SIMBOLI
100
AcDbLine
 62
7
  6
CONTINUOUS
 10
0.8832236499
 20
-11.3873287303
 11
0.8799450419
 21
-11.3835713385
  0
LINE
  5
46B
100
AcDbEntity
  8
SIMBOLI
100
AcDbLine
 62
7
  6
CONTINUOUS
 10
1.0307140279
 20
-11.2868546338
 11
1.0383521162
 21
-11.295625122
  0
LINE
  5
46C
100
AcDbEntity
  8
ASSI
100
AcDbLine
 62
7
  6
CONTINUOUS
 10
9.26911658
 20
-21.4717313507
 11
9.2519038753
 21
-21.4519533789
  0
LINE
  5
46D
100
AcDbEntity
  8
SIMBOLI
100
AcDbLine
 62
7
  6
CONTINUOUS
 10
0.3191406803
 20
-11.4506473717
 11
0.3293240146
 21
-11.4623520836
  0
LINE
  5
46E
100
AcDbEntity
  8
SIMBOLI
100
AcDbLine
 62
7
  6
CONTINUOUS
 10
0.9486486199
 20
-10.8279604599
 11
0.9404187722
 21
-10.8184189408
  0
LINE
  5
46F
100
AcDbEntity
  8
ASSI
100
AcDbLine
 62
7
  6
CONTINUOUS
 10
-8.7892083652
 20
-15.5690003818
 11
-8.7602835825
 21
-15.60272675
  0
LINE
  5
470
100
AcDbEntity
  8
SIMBOLI
100
AcDbLine
 62
7
  6
CONTINUOUS
 10
2.2751533261
 20
-11.1344324665
 11
2.2880963266
 21
-11.149538128
  0
LINE
  5
471
100
AcDbEntity
  8
ASSI
100
AcDbLine
 62
7
  6
CONTINUOUS
 10
9.3912162584
 20
14.9741203141
 11
9.4251987201
 21
14.9343553418
  0
LINE
  5
472
100
AcDbEntity
  8
SIMBOLI
100
AcDbLine
 62
7
  6
CONTINUOUS
 10
1.3839742166
 20
-11.9704169639
 11
1.3683628097
 21
-11.9521366904
  0
LINE
  5
473
100
AcDbEntity
  8
SIMBOLI
100
AcDbLine
 62
7
  6
CONTINUOUS
 10
2.0829083623
 20
-11.796960946
 11
2.0796897371
 21
-11.7931730033
  0
LINE
  5
474
100
AcDbEntity
  8
SIMBOLI
100
AcDbLine
 62
7
  6
CONTINUOUS
 10
1.0770714289
 20
-10.7299570361
 11
1.0899239151
 21
-10.7451319851
  0
LINE
  5
475
100
AcDbEntity
  8
SIMBOLI
100
AcDbLine
 62
7
  6
CONTINUOUS
 10
-2.6666474543
 20
-9.3725619224
 11
-2.6570398749
 21
-9.3839269926
  0
LINE
  5
476
100
AcDbEntity
  8
SIMBOLI
100
AcDbLine
 62
7
  6
CONTINUOUS
 10
1.5015503917
 20
-11.8480301941
 11
1.5115654765
 21
-11.859879732
  0
LINE
  5
477
100
AcDbEntity
  8
SIMBOLI
100
AcDbLine
 62
7
  6
CONTINUOUS
 10
0.1924724483
 20
-11.5603903583
 11
0.1769686265
 21
-11.5420252216
  0
LINE
  5
478
100
AcDbEntity
  8
SIMBOLI
100
AcDbLine
 62
7
  6
CONTINUOUS
 10
2.2359606466
 20
-11.7005134352
 11
2.2434745582
 21
-11.7094558804
  0
LINE
  5
479
100
AcDbEntity
  8
SIMBOLI
100
AcDbLine
 62
7
  6
CONTINUOUS
 10
0.8864208405
 20
-11.3911346951
 11
0.8832236499
 21
-11.3873287303
  0
LINE
  5
47A
100
AcDbEntity
  8
SIMBOLI
100
AcDbLine
 62
7
  6
CONTINUOUS
 10
2.1539302932
 20
-11.2429968243
 11
2.1457798836
 21
-11.2332474669
  0
LINE
  5
47B
100
AcDbEntity
  8
SIMBOLI
100
AcDbLine
 62
7
  6
CONTINUOUS
 10
0.3091925542
 20
-11.4387412784
 11
0.3191406803
 21
-11.4506473717
  0
LINE
  5
47C
100
AcDbEntity
  8
ASSI
100
AcDbLine
 62
7
  6
CONTINUOUS
 10
8.6683614208
 20
-21.767111718
 11
8.6406412315
 21
-21.7338114053
  0
LINE
  5
47D
100
AcDbEntity
  8
SIMBOLI
100
AcDbLine
 62
7
  6
CONTINUOUS
 10
1.0383521162
 20
-11.295625122
 11
1.0458171405
 21
-11.3046109071
  0
LINE
  5
47E
100
AcDbEntity
  8
SIMBOLI
100
AcDbLine
 62
7
  6
CONTINUOUS
 10
0.9567445096
 20
-10.8377559174
 11
0.9486486199
 21
-10.8279604599
  0
LINE
  5
47F
100
AcDbEntity
  8
SIMBOLI
100
AcDbLine
 62
7
  6
CONTINUOUS
 10
2.2880963266
 20
-11.149538128
 11
2.300909654
 21
-11.1650627252
  0
LINE
  5
480
100
AcDbEntity
  8
SIMBOLI
100
AcDbLine
 62
7
  6
CONTINUOUS
 10
2.086049652
 20
-11.8008045229
 11
2.0829083623
 21
-11.796960946
  0
LINE
  5
481
100
AcDbEntity
  8
SIMBOLI
100
AcDbLine
 62
7
  6
CONTINUOUS
 10
1.0899239151
 20
-10.7451319851
 11
1.1026478778
 21
-10.7607246096
  0
LINE
  5
482
100
AcDbEntity
  8
SIMBOLI
100
AcDbLine
 62
7
  6
CONTINUOUS
 10
1.3683628097
 20
-11.9521366904
 11
1.3531356528
 21
-11.9334528576
  0
LINE
  5
483
100
AcDbEntity
  8
SIMBOLI
100
AcDbLine
 62
7
  6
CONTINUOUS
 10
1.491766709
 20
-11.8359732914
 11
1.5015503917
 21
-11.8480301941
  0
LINE
  5
484
100
AcDbEntity
  8
SIMBOLI
100
AcDbLine
 62
7
  6
CONTINUOUS
 10
-2.6570398749
 20
-9.3839269926
 11
-2.6476935924
 21
-9.3954820456
  0
LINE
  5
485
100
AcDbEntity
  8
SIMBOLI
100
AcDbLine
 62
7
  6
CONTINUOUS
 10
0.8895412683
 20
-11.3949958217
 11
0.8864208405
 21
-11.3911346951
  0
LINE
  5
486
100
AcDbEntity
  8
SIMBOLI
100
AcDbLine
 62
7
  6
CONTINUOUS
 10
0.1769686265
 20
-11.5420252216
 11
0.161846627
 21
-11.5232595725
  0
LINE
  5
487
100
AcDbEntity
  8
SIMBOLI
100
AcDbLine
 62
7
  6
CONTINUOUS
 10
0.2994741903
 20
-11.4266292443
 11
0.3091925542
 21
-11.4387412784
  0
LINE
  5
488
100
AcDbEntity
  8
SIMBOLI
100
AcDbLine
 62
7
  6
CONTINUOUS
 10
2.1619501229
 20
-11.253017728
 11
2.1539302932
 21
-11.2429968243
  0
LINE
  5
489
100
AcDbEntity
  8
SIMBOLI
100
AcDbLine
 62
7
  6
CONTINUOUS
 10
0.9647109292
 20
-10.8478220026
 11
0.9567445096
 21
-10.8377559174
  0
LINE
  5
48A
100
AcDbEntity
  8
SIMBOLI
100
AcDbLine
 62
7
  6
CONTINUOUS
 10
2.089118289
 20
-11.8047102934
 11
2.086049652
 21
-11.8008045229
  0
LINE
  5
48B
100
AcDbEntity
  8
ASSI
100
AcDbLine
 62
7
  6
CONTINUOUS
 10
-9.0645373185
 20
19.9086996468
 11
-9.0830680377
 21
19.9324731473
  0
LINE
  5
48C
100
AcDbEntity
  8
SIMBOLI
100
AcDbLine
 62
7
  6
CONTINUOUS
 10
1.4822089507
 20
-11.8237044982
 11
1.491766709
 21
-11.8359732914
  0
LINE
  5
48D
100
AcDbEntity
  8
SIMBOLI
100
AcDbLine
 62
7
  6
CONTINUOUS
 10
1.3531356528
 20
-11.9334528576
 11
1.3382855353
 21
-11.9143538803
  0
LINE
  5
48E
100
AcDbEntity
  8
SIMBOLI
100
AcDbLine
 62
7
  6
CONTINUOUS
 10
0.8925895878
 20
-11.3989186988
 11
0.8895412683
 21
-11.3949958217
  0
LINE
  5
48F
100
AcDbEntity
  8
SIMBOLI
100
AcDbLine
 62
7
  6
CONTINUOUS
 10
-2.6476935924
 20
-9.3954820456
 11
-2.6386155718
 21
-9.4072191417
  0
LINE
  5
490
100
AcDbEntity
  8
SIMBOLI
100
AcDbLine
 62
7
  6
CONTINUOUS
 10
0.2899801425
 20
-11.4143067099
 11
0.2994741903
 21
-11.4266292443
  0
LINE
  5
491
100
AcDbEntity
  8
SIMBOLI
100
AcDbLine
 62
7
  6
CONTINUOUS
 10
0.161846627
 20
-11.5232595725
 11
0.1470992143
 21
-11.5040817887
  0
LINE
  5
492
100
AcDbEntity
  8
SIMBOLI
100
AcDbLine
 62
7
  6
CONTINUOUS
 10
-2.6386155718
 20
-9.4072191417
 11
-2.629812778
 21
-9.4191303416
  0
LINE
  5
493
100
AcDbEntity
  8
ASSI
100
AcDbLine
 62
7
  6
CONTINUOUS
 10
9.4251987201
 20
14.9343553418
 11
9.4562219666
 21
14.8923593983
  0
LINE
  5
494
100
AcDbEntity
  8
ASSI
100
AcDbLine
 62
7
  6
CONTINUOUS
 10
-8.9701049109
 20
-15.4121881014
 11
-8.9261996793
 21
-15.4726033177
  0
LINE
  5
495
100
AcDbEntity
  8
ASSI
100
AcDbLine
 62
7
  6
CONTINUOUS
 10
-9.0645290572
 20
-15.024633397
 11
-9.0830600936
 21
-14.9987603653
  0
LINE
  5
496
100
AcDbEntity
  8
SIMBOLI
100
AcDbLine
 62
7
  6
CONTINUOUS
 10
-2.629812778
 20
-9.4191303416
 11
-2.6212921762
 21
-9.4312077055
  0
LINE
  5
497
100
AcDbEntity
  8
ASSI
100
AcDbLine
 62
7
  6
CONTINUOUS
 10
9.2519038753
 20
-21.4519533789
 11
9.2362699757
 21
-21.4290321636
  0
LINE
  5
498
100
AcDbEntity
  8
SIMBOLI
100
AcDbLine
 62
7
  6
CONTINUOUS
 10
-2.6212921762
 20
-9.4312077055
 11
-2.6130608051
 21
-9.4434421651
  0
LINE
  5
499
100
AcDbEntity
  8
ASSI
100
AcDbLine
 62
7
  6
CONTINUOUS
 10
-8.815332871
 20
-15.5300458008
 11
-8.7892083652
 21
-15.5690003818
  0
LINE
  5
49A
100
AcDbEntity
  8
ASSI
100
AcDbLine
 62
7
  6
CONTINUOUS
 10
8.6406412315
 20
-21.7338114053
 11
8.6155913682
 21
-21.6952369171
  0
LINE
  5
49B
100
AcDbEntity
  8
SIMBOLI
100
AcDbLine
 62
7
  6
CONTINUOUS
 10
-2.6130608051
 20
-9.4434421651
 11
-2.6051259995
 21
-9.4558201371
  0
LINE
  5
49C
100
AcDbEntity
  8
ASSI
100
AcDbLine
 62
7
  6
CONTINUOUS
 10
9.4562219666
 20
14.8923593983
 11
9.4839463969
 21
14.8485921989
  0
LINE
  5
49D
100
AcDbEntity
  8
SIMBOLI
100
AcDbLine
 62
7
  6
CONTINUOUS
 10
-1.3899336008
 20
-9.8539457572
 11
-1.3227142536
 21
-9.9605351676
  0
LINE
  5
49E
100
AcDbEntity
  8
SIMBOLI
100
AcDbLine
 62
7
  6
CONTINUOUS
 10
-2.6051259995
 20
-9.4558201371
 11
-2.5974951678
 21
-9.4683269091
  0
LINE
  5
49F
100
AcDbEntity
  8
SIMBOLI
100
AcDbLine
 62
7
  6
CONTINUOUS
 10
2.2434745582
 20
-11.7094558804
 11
2.3346089379
 21
-11.8611680538
  0
LINE
  5
4A0
100
AcDbEntity
  8
SIMBOLI
100
AcDbLine
 62
7
  6
CONTINUOUS
 10
1.6002384649
 20
-11.2466217489
 11
1.6421483099
 21
-11.3166196968
  0
LINE
  5
4A1
100
AcDbEntity
  8
SIMBOLI
100
AcDbLine
 62
7
  6
CONTINUOUS
 10
1.0458171405
 20
-11.3046109071
 11
1.1363619816
 21
-11.4568175092
  0
LINE
  5
4A2
100
AcDbEntity
  8
SIMBOLI
100
AcDbLine
 62
7
  6
CONTINUOUS
 10
0.4070013848
 20
-10.8380695687
 11
0.4486335754
 21
-10.908300377
  0
LINE
  5
4A3
100
AcDbEntity
  8
SIMBOLI
100
AcDbLine
 62
7
  6
CONTINUOUS
 10
2.1335014034
 20
-11.8803647122
 11
2.089118289
 21
-11.8047102934
  0
LINE
  5
4A4
100
AcDbEntity
  8
SIMBOLI
100
AcDbLine
 62
7
  6
CONTINUOUS
 10
0.9366856011
 20
-11.4748139008
 11
0.8925895878
 21
-11.3989186988
  0
LINE
  5
4A5
100
AcDbEntity
  8
ASSI
100
AcDbLine
 62
7
  6
CONTINUOUS
 10
-9.0084057769
 20
-15.3462262725
 11
-8.9701049109
 21
-15.4121881014
  0
LINE
  5
4A6
100
AcDbEntity
  8
SIMBOLI
100
AcDbLine
 62
7
  6
CONTINUOUS
 10
-2.5974951678
 20
-9.4683269091
 11
-2.5901757186
 21
-9.480947769
  0
LINE
  5
4A7
100
AcDbEntity
  8
SIMBOLI
100
AcDbLine
 62
7
  6
CONTINUOUS
 10
-1.5487805925
 20
-9.9321547973
 11
-1.4984739308
 21
-10.0197766405
  0
LINE
  5
4A8
100
AcDbEntity
  8
SIMBOLI
100
AcDbLine
 62
7
  6
CONTINUOUS
 10
1.4819390306
 20
-11.4060569471
 11
1.4010320606
 21
-11.2647705378
  0
LINE
  5
4A9
100
AcDbEntity
  8
ASSI
100
AcDbLine
 62
7
  6
CONTINUOUS
 10
-9.0830680377
 20
19.9324731473
 11
-9.0970276335
 21
19.9569812845
  0
LINE
  5
4AA
100
AcDbEntity
  8
SIMBOLI
100
AcDbLine
 62
7
  6
CONTINUOUS
 10
0.2895898343
 20
-10.9967601248
 11
0.2092184208
 21
-10.8550245599
  0
LINE
  5
4AB
100
AcDbEntity
  8
SIMBOLI
100
AcDbLine
 62
7
  6
CONTINUOUS
 10
-2.7983906121
 20
-9.4791506208
 11
-2.746298814
 21
-9.5720987999
  0
LINE
  5
4AC
100
AcDbEntity
  8
SIMBOLI
100
AcDbLine
 62
7
  6
CONTINUOUS
 10
-2.5901757186
 20
-9.480947769
 11
-2.5831750606
 21
-9.4936680045
  0
LINE
  5
4AD
100
AcDbEntity
  8
ASSI
100
AcDbLine
 62
7
  6
CONTINUOUS
 10
9.2362699757
 20
-21.4290321636
 11
9.2224491474
 21
-21.403322583
  0
LINE
  5
4AE
100
AcDbEntity
  8
ASSI
100
AcDbLine
 62
7
  6
CONTINUOUS
 10
9.4839463969
 20
14.8485921989
 11
9.5080685211
 21
14.8035328483
  0
LINE
  5
4AF
100
AcDbEntity
  8
ASSI
100
AcDbLine
 62
7
  6
CONTINUOUS
 10
-8.8385455853
 20
-15.4860558908
 11
-8.815332871
 21
-15.5300458008
  0
LINE
  5
4B0
100
AcDbEntity
  8
SIMBOLI
100
AcDbLine
 62
7
  6
CONTINUOUS
 10
-2.5831750606
 20
-9.4936680045
 11
-2.5765006021
 21
-9.5064729036
  0
LINE
  5
4B1
100
AcDbEntity
  8
ASSI
100
AcDbLine
 62
7
  6
CONTINUOUS
 10
-9.0830600936
 20
-14.9987603653
 11
-9.0970201334
 21
-14.971882845
  0
LINE
  5
4B2
100
AcDbEntity
  8
ASSI
100
AcDbLine
 62
7
  6
CONTINUOUS
 10
8.6155913682
 20
-21.6952369171
 11
8.5933621564
 21
-21.6515948641
  0
LINE
  5
4B3
100
AcDbEntity
  8
SIMBOLI
100
AcDbLine
 62
7
  6
CONTINUOUS
 10
-2.5765006021
 20
-9.5064729036
 11
-2.5701588051
 21
-9.519348009
  0
LINE
  5
4B4
100
AcDbEntity
  8
SIMBOLI
100
AcDbLine
 62
7
  6
CONTINUOUS
 10
-2.5701588051
 20
-9.519348009
 11
-2.5641523441
 21
-9.5322798834
  0
LINE
  5
4B5
100
AcDbEntity
  8
SIMBOLI
100
AcDbLine
 62
7
  6
CONTINUOUS
 10
-1.5405979805
 20
-10.4640570945
 11
-1.2017166142
 21
-11.2009276094
  0
LINE
  5
4B6
100
AcDbEntity
  8
ASSI
100
AcDbLine
 62
7
  6
CONTINUOUS
 10
-9.0409175498
 20
-15.2748892595
 11
-9.0084057769
 21
-15.3462262725
  0
LINE
  5
4B7
100
AcDbEntity
  8
SIMBOLI
100
AcDbLine
 62
7
  6
CONTINUOUS
 10
-1.4534712987
 20
-11.1105368536
 11
-1.7624077795
 21
-10.4137111838
  0
LINE
  5
4B8
100
AcDbEntity
  8
ASSI
100
AcDbLine
 62
7
  6
CONTINUOUS
 10
9.5080685211
 20
14.8035328483
 11
9.5283242824
 21
14.757674596
  0
LINE
  5
4B9
100
AcDbEntity
  8
SIMBOLI
100
AcDbLine
 62
7
  6
CONTINUOUS
 10
-2.5641523441
 20
-9.5322798834
 11
-2.558482947
 21
-9.5452553446
  0
LINE
  5
4BA
100
AcDbEntity
  8
ASSI
100
AcDbLine
 62
7
  6
CONTINUOUS
 10
9.2224491474
 20
-21.403322583
 11
9.2104682624
 21
-21.3747640821
  0
LINE
  5
4BB
100
AcDbEntity
  8
ASSI
100
AcDbLine
 62
7
  6
CONTINUOUS
 10
-8.8587221091
 20
-15.437263559
 11
-8.8385455853
 21
-15.4860558908
  0
LINE
  5
4BC
100
AcDbEntity
  8
SIMBOLI
100
AcDbLine
 62
7
  6
CONTINUOUS
 10
-2.558482947
 20
-9.5452553446
 11
-2.5531523417
 21
-9.5582612101
  0
LINE
  5
4BD
100
AcDbEntity
  8
ASSI
100
AcDbLine
 62
7
  6
CONTINUOUS
 10
8.5933621564
 20
-21.6515948641
 11
8.5740611916
 21
-21.6031122097
  0
LINE
  5
4BE
100
AcDbEntity
  8
SIMBOLI
100
AcDbLine
 62
7
  6
CONTINUOUS
 10
-2.5531523417
 20
-9.5582612101
 11
-2.548162256
 21
-9.5712842979
  0
LINE
  5
4BF
100
AcDbEntity
  8
SIMBOLI
100
AcDbLine
 62
7
  6
CONTINUOUS
 10
-1.3227142536
 20
-9.9605351676
 11
-1.2803631837
 21
-10.0748108186
  0
LINE
  5
4C0
100
AcDbEntity
  8
ASSI
100
AcDbLine
 62
7
  6
CONTINUOUS
 10
-9.0970276335
 20
19.9569812845
 11
-9.1062808486
 21
19.981986594
  0
LINE
  5
4C1
100
AcDbEntity
  8
SIMBOLI
100
AcDbLine
 62
7
  6
CONTINUOUS
 10
-2.548162256
 20
-9.5712842979
 11
-2.5435144179
 21
-9.5843114256
  0
LINE
  5
4C2
100
AcDbEntity
  8
ASSI
100
AcDbLine
 62
7
  6
CONTINUOUS
 10
9.5283242824
 20
14.757674596
 11
9.5444919479
 21
14.7115194367
  0
LINE
  5
4C3
100
AcDbEntity
  8
ASSI
100
AcDbLine
 62
7
  6
CONTINUOUS
 10
-9.0674511818
 20
-15.1983492629
 11
-9.0409175498
 21
-15.2748892595
  0
LINE
  5
4C4
100
AcDbEntity
  8
ASSI
100
AcDbLine
 62
7
  6
CONTINUOUS
 10
-9.0970201334
 20
-14.971882845
 11
-9.1062739176
 21
-14.9442612527
  0
LINE
  5
4C5
100
AcDbEntity
  8
SIMBOLI
100
AcDbLine
 62
7
  6
CONTINUOUS
 10
-2.5435144179
 20
-9.5843114256
 11
-2.5392104884
 21
-9.5973322829
  0
LINE
  5
4C6
100
AcDbEntity
  8
ASSI
100
AcDbLine
 62
7
  6
CONTINUOUS
 10
9.2104682624
 20
-21.3747640821
 11
9.2003004486
 21
-21.3434172159
  0
LINE
  5
4C7
100
AcDbEntity
  8
ASSI
100
AcDbLine
 62
7
  6
CONTINUOUS
 10
-8.8757510624
 20
-15.383921316
 11
-8.8587221091
 21
-15.437263559
  0
LINE
  5
4C8
100
AcDbEntity
  8
ASSI
100
AcDbLine
 62
7
  6
CONTINUOUS
 10
8.5740611916
 20
-21.6031122097
 11
8.5577713889
 21
-21.5500313969
  0
LINE
  5
4C9
100
AcDbEntity
  8
SIMBOLI
100
AcDbLine
 62
7
  6
CONTINUOUS
 10
-2.5392104884
 20
-9.5973322829
 11
-2.5352518614
 21
-9.6103480478
  0
LINE
  5
4CA
100
AcDbEntity
  8
SIMBOLI
100
AcDbLine
 62
7
  6
CONTINUOUS
 10
-2.5352518614
 20
-9.6103480478
 11
-2.5316398642
 21
-9.6233627703
  0
LINE
  5
4CB
100
AcDbEntity
  8
ASSI
100
AcDbLine
 62
7
  6
CONTINUOUS
 10
9.5444919479
 20
14.7115194367
 11
9.5563945356
 21
14.6655726153
  0
LINE
  5
4CC
100
AcDbEntity
  8
SIMBOLI
100
AcDbLine
 62
7
  6
CONTINUOUS
 10
-2.5316398642
 20
-9.6233627703
 11
-2.5283758238
 21
-9.6363805002
  0
LINE
  5
4CD
100
AcDbEntity
  8
ASSI
100
AcDbLine
 62
7
  6
CONTINUOUS
 10
-9.0878680374
 20
-15.1167968436
 11
-9.0674511818
 21
-15.1983492629
  0
LINE
  5
4CE
100
AcDbEntity
  8
ASSI
100
AcDbLine
 62
7
  6
CONTINUOUS
 10
9.2003004486
 20
-21.3434172159
 11
9.1920993556
 21
-21.3098185278
  0
LINE
  5
4CF
100
AcDbEntity
  8
ASSI
100
AcDbLine
 62
7
  6
CONTINUOUS
 10
-8.8895634339
 20
-15.3262845095
 11
-8.8757510624
 21
-15.383921316
  0
LINE
  5
4D0
100
AcDbEntity
  8
ASSI
100
AcDbLine
 62
7
  6
CONTINUOUS
 10
8.5577713889
 20
-21.5500313969
 11
8.544587338
 21
-21.4926168219
  0
LINE
  5
4D1
100
AcDbEntity
  8
SIMBOLI
100
AcDbLine
 62
7
  6
CONTINUOUS
 10
-2.5283758238
 20
-9.6363805002
 11
-2.5254610675
 21
-9.6494052877
  0
LINE
  5
4D2
100
AcDbEntity
  8
SIMBOLI
100
AcDbLine
 62
7
  6
CONTINUOUS
 10
-2.5254610675
 20
-9.6494052877
 11
-2.5228969224
 21
-9.6624411826
  0
LINE
  5
4D3
100
AcDbEntity
  8
SIMBOLI
100
AcDbLine
 62
7
  6
CONTINUOUS
 10
1.5852584741
 20
-11.1675866469
 11
1.6002384649
 21
-11.2466217489
  0
LINE
  5
4D4
100
AcDbEntity
  8
SIMBOLI
100
AcDbLine
 62
7
  6
CONTINUOUS
 10
0.3921050926
 20
-10.7589642709
 11
0.4070013848
 21
-10.8380695687
  0
LINE
  5
4D5
100
AcDbEntity
  8
SIMBOLI
100
AcDbLine
 62
7
  6
CONTINUOUS
 10
2.3346089379
 20
-11.8611680538
 11
2.3673886388
 21
-12.0368886326
  0
LINE
  5
4D6
100
AcDbEntity
  8
SIMBOLI
100
AcDbLine
 62
7
  6
CONTINUOUS
 10
1.1363619816
 20
-11.4568175092
 11
1.1689773206
 21
-11.6326759335
  0
LINE
  5
4D7
100
AcDbEntity
  8
SIMBOLI
100
AcDbLine
 62
7
  6
CONTINUOUS
 10
-1.4984739308
 20
-10.0197766405
 11
-1.4804480055
 21
-10.1174336116
  0
LINE
  5
4D8
100
AcDbEntity
  8
SIMBOLI
100
AcDbLine
 62
7
  6
CONTINUOUS
 10
2.1495143299
 20
-11.968906659
 11
2.1335014034
 21
-11.8803647122
  0
LINE
  5
4D9
100
AcDbEntity
  8
SIMBOLI
100
AcDbLine
 62
7
  6
CONTINUOUS
 10
-2.746298814
 20
-9.5720987999
 11
-2.7276050675
 21
-9.6760454089
  0
LINE
  5
4DA
100
AcDbEntity
  8
SIMBOLI
100
AcDbLine
 62
7
  6
CONTINUOUS
 10
0.9526175338
 20
-11.5634237748
 11
0.9366856011
 21
-11.4748139008
  0
LINE
  5
4DB
100
AcDbEntity
  8
SIMBOLI
100
AcDbLine
 62
7
  6
CONTINUOUS
 10
1.4010320606
 20
-11.2647705378
 11
1.371971951
 21
-11.1027515812
  0
LINE
  5
4DC
100
AcDbEntity
  8
SIMBOLI
100
AcDbLine
 62
7
  6
CONTINUOUS
 10
0.2092184208
 20
-10.8550245599
 11
0.1803211961
 21
-10.6928689966
  0
LINE
  5
4DD
100
AcDbEntity
  8
ASSI
100
AcDbLine
 62
7
  6
CONTINUOUS
 10
-9.1062808486
 20
19.981986594
 11
-9.1107380267
 21
20.0072467942
  0
LINE
  5
4DE
100
AcDbEntity
  8
ASSI
100
AcDbLine
 62
7
  6
CONTINUOUS
 10
9.1920993556
 20
-21.3098185278
 11
9.1859162
 21
-21.2741468656
  0
LINE
  5
4DF
100
AcDbEntity
  8
ASSI
100
AcDbLine
 62
7
  6
CONTINUOUS
 10
-8.9000897483
 20
-15.2646412287
 11
-8.8895634339
 21
-15.3262845095
  0
LINE
  5
4E0
100
AcDbEntity
  8
SIMBOLI
100
AcDbLine
 62
7
  6
CONTINUOUS
 10
-2.5228969224
 20
-9.6624411826
 11
-2.5210765088
 21
-9.673215211
  0
LINE
  5
4E1
100
AcDbEntity
  8
ASSI
100
AcDbLine
 62
7
  6
CONTINUOUS
 10
-9.1020959904
 20
-15.0300435016
 11
-9.0878680374
 21
-15.1167968436
  0
LINE
  5
4E2
100
AcDbEntity
  8
ASSI
100
AcDbLine
 62
7
  6
CONTINUOUS
 10
8.544587338
 20
-21.4926168219
 11
8.5345778092
 21
-21.4311563252
  0
LINE
  5
4E3
100
AcDbEntity
  8
ASSI
100
AcDbLine
 62
7
  6
CONTINUOUS
 10
-9.1062739176
 20
-14.9442612527
 11
-9.1107317862
 21
-14.9161632141
  0
LINE
  5
4E4
100
AcDbEntity
  8
SIMBOLI
100
AcDbLine
 62
7
  6
CONTINUOUS
 10
-2.5210765088
 20
-9.673215211
 11
-2.5194634058
 21
-9.6838196506
  0
LINE
  5
4E5
100
AcDbEntity
  8
SIMBOLI
100
AcDbLine
 62
7
  6
CONTINUOUS
 10
-2.5194634058
 20
-9.6838196506
 11
-2.5180524911
 21
-9.6942615651
  0
LINE
  5
4E6
100
AcDbEntity
  8
SIMBOLI
100
AcDbLine
 62
7
  6
CONTINUOUS
 10
-1.2803631837
 20
-10.0748108186
 11
-1.2647813271
 21
-10.1926255223
  0
LINE
  5
4E7
100
AcDbEntity
  8
SIMBOLI
100
AcDbLine
 62
7
  6
CONTINUOUS
 10
-2.5180524911
 20
-9.6942615651
 11
-2.5168386421
 21
-9.7045480184
  0
LINE
  5
4E8
100
AcDbEntity
  8
ASSI
100
AcDbLine
 62
7
  6
CONTINUOUS
 10
8.5345778092
 20
-21.4311563252
 11
8.5277833805
 21
-21.3659630338
  0
LINE
  5
4E9
100
AcDbEntity
  8
ASSI
100
AcDbLine
 62
7
  6
CONTINUOUS
 10
9.563901752
 20
14.6203370961
 11
9.5669314181
 21
14.576308057
  0
LINE
  5
4EA
100
AcDbEntity
  8
ASSI
100
AcDbLine
 62
7
  6
CONTINUOUS
 10
9.1816997653
 20
-21.2362233815
 11
9.1794500514
 21
-21.1960480755
  0
LINE
  5
4EB
100
AcDbEntity
  8
ASSI
100
AcDbLine
 62
7
  6
CONTINUOUS
 10
8.5277833805
 20
-21.3659630338
 11
8.5242361138
 21
-21.2973679767
  0
LINE
  5
4EC
100
AcDbEntity
  8
SIMBOLI
100
AcDbLine
 62
7
  6
CONTINUOUS
 10
-0.0233064259
 20
-11.4272332638
 11
-0.0194260963
 21
-11.6193883493
  0
LINE
  5
4ED
100
AcDbEntity
  8
SIMBOLI
100
AcDbLine
 62
7
  6
CONTINUOUS
 10
-2.0291840331
 20
-10.316833576
 11
-2.0175676952
 21
-10.9063448988
  0
LINE
  5
4EE
100
AcDbEntity
  8
SIMBOLI
100
AcDbLine
 62
7
  6
CONTINUOUS
 10
-0.7248334398
 20
-10.7624323889
 11
-0.7165961012
 21
-11.1830539095
  0
LINE
  5
4EF
100
AcDbEntity
  8
SIMBOLI
100
AcDbLine
 62
7
  6
CONTINUOUS
 10
-3.2728461425
 20
-9.8976386349
 11
-3.2621227675
 21
-10.4476326082
  0
LINE
  5
4F0
100
AcDbEntity
  8
SIMBOLI
100
AcDbLine
 62
7
  6
CONTINUOUS
 10
-2.2346379142
 20
-10.8271553027
 11
-2.2610990363
 21
-9.4234565408
  0
LINE
  5
4F1
100
AcDbEntity
  8
SIMBOLI
100
AcDbLine
 62
7
  6
CONTINUOUS
 10
-0.9314879053
 20
-11.2974467446
 11
-0.958114746
 21
-9.893886966
  0
LINE
  5
4F2
100
AcDbEntity
  8
SIMBOLI
100
AcDbLine
 62
7
  6
CONTINUOUS
 10
-0.1371676421
 20
-10.7808682213
 11
-0.1335659665
 21
-10.9708877613
  0
LINE
  5
4F3
100
AcDbEntity
  8
SIMBOLI
100
AcDbLine
 62
7
  6
CONTINUOUS
 10
-2.0326475126
 20
-10.1338041907
 11
-2.0406711728
 21
-9.6952387443
  0
LINE
  5
4F4
100
AcDbEntity
  8
SIMBOLI
100
AcDbLine
 62
7
  6
CONTINUOUS
 10
-0.7359297435
 20
-10.1641955088
 11
-0.728436706
 21
-10.5724141829
  0
LINE
  5
4F5
100
AcDbEntity
  8
SIMBOLI
100
AcDbLine
 62
7
  6
CONTINUOUS
 10
-3.276497657
 20
-9.7029240819
 11
-3.2849408641
 21
-9.236287113
  0
LINE
  5
4F6
100
AcDbEntity
  8
SIMBOLI
100
AcDbLine
 62
7
  6
CONTINUOUS
 10
-0.046041485
 20
-10.2158189662
 11
-0.0426268677
 21
-10.4083637922
  0
LINE
  5
4F7
100
AcDbEntity
  8
SIMBOLI
100
AcDbLine
 62
7
  6
CONTINUOUS
 10
-2.5135601338
 20
-9.7538563301
 11
-2.513440344
 21
-9.7633045443
  0
LINE
  5
4F8
100
AcDbEntity
  8
SIMBOLI
100
AcDbLine
 62
7
  6
CONTINUOUS
 10
1.1689773206
 20
-11.6326759335
 11
1.1690865878
 21
-11.6502532243
  0
LINE
  5
4F9
100
AcDbEntity
  8
SIMBOLI
100
AcDbLine
 62
7
  6
CONTINUOUS
 10
2.3673886388
 20
-12.0368886326
 11
2.3674917921
 21
-12.0544704389
  0
LINE
  5
4FA
100
AcDbEntity
  8
SIMBOLI
100
AcDbLine
 62
7
  6
CONTINUOUS
 10
-2.513440344
 20
-9.7633045443
 11
-2.5134942409
 21
-9.7726118394
  0
LINE
  5
4FB
100
AcDbEntity
  8
SIMBOLI
100
AcDbLine
 62
7
  6
CONTINUOUS
 10
-2.5134942409
 20
-9.7726118394
 11
-2.5137198213
 21
-9.7817765533
  0
LINE
  5
4FC
100
AcDbEntity
  8
SIMBOLI
100
AcDbLine
 62
7
  6
CONTINUOUS
 10
-2.5137198213
 20
-9.7817765533
 11
-2.5141151063
 21
-9.7907968946
  0
LINE
  5
4FD
100
AcDbEntity
  8
ASSI
100
AcDbLine
 62
7
  6
CONTINUOUS
 10
-8.9072629728
 20
19.8832821492
 11
-8.9110424478
 21
19.8085423691
  0
LINE
  5
4FE
100
AcDbEntity
  8
ASSI
100
AcDbLine
 62
7
  6
CONTINUOUS
 10
-9.10489663
 20
20.1257127333
 11
-9.1104434212
 21
20.0417872165
  0
LINE
  5
4FF
100
AcDbEntity
  8
ASSI
100
AcDbLine
 62
7
  6
CONTINUOUS
 10
-8.9000897675
 20
19.9601896844
 11
-8.9072629728
 21
19.8832821492
  0
LINE
  5
500
100
AcDbEntity
  8
ASSI
100
AcDbLine
 62
7
  6
CONTINUOUS
 10
-9.0950988772
 20
20.209653443
 11
-9.10489663
 21
20.1257127333
  0
LINE
  5
501
100
AcDbEntity
  8
ASSI
100
AcDbLine
 62
7
  6
CONTINUOUS
 10
-8.8895634531
 20
20.0388729883
 11
-8.9000897675
 21
19.9601896844
  0
LINE
  5
502
100
AcDbEntity
  8
ASSI
100
AcDbLine
 62
7
  6
CONTINUOUS
 10
8.614393705
 20
-21.318043194
 11
8.6619191283
 21
-21.3244098123
  0
LINE
  5
503
100
AcDbEntity
  8
ASSI
100
AcDbLine
 62
7
  6
CONTINUOUS
 10
9.3771570089
 20
-21.5218588635
 11
9.352941937
 21
-21.5185321682
  0
LINE
  5
504
100
AcDbEntity
  8
ASSI
100
AcDbLine
 62
7
  6
CONTINUOUS
 10
8.846103392
 20
-21.8552675997
 11
8.9040205654
 21
-21.864103496
  0
LINE
  5
505
100
AcDbEntity
  8
ASSI
100
AcDbLine
 62
7
  6
CONTINUOUS
 10
8.5683506652
 20
-21.3090000427
 11
8.614393705
 21
-21.318043194
  0
LINE
  5
506
100
AcDbEntity
  8
SIMBOLI
100
AcDbLine
 62
7
  6
CONTINUOUS
 10
0.783009064
 20
-11.9004621213
 11
0.7667314885
 21
-11.8971418389
  0
LINE
  5
507
100
AcDbEntity
  8
SIMBOLI
100
AcDbLine
 62
7
  6
CONTINUOUS
 10
1.9225521814
 20
-12.1020771218
 11
1.9338663199
 21
-12.1044182727
  0
LINE
  5
508
100
AcDbEntity
  8
SIMBOLI
100
AcDbLine
 62
7
  6
CONTINUOUS
 10
-1.6190596041
 20
-10.2692536195
 11
-1.7165358466
 21
-10.2485486402
  0
LINE
  5
509
100
AcDbEntity
  8
SIMBOLI
100
AcDbLine
 62
7
  6
CONTINUOUS
 10
-2.8640608167
 20
-10.0429387181
 11
-2.8729330272
 21
-10.0410441521
  0
LINE
  5
50A
100
AcDbEntity
  8
SIMBOLI
100
AcDbLine
 62
7
  6
CONTINUOUS
 10
0.7273082761
 20
-11.6952109144
 11
0.7385429915
 21
-11.6976181278
  0
LINE
  5
50B
100
AcDbEntity
  8
SIMBOLI
100
AcDbLine
 62
7
  6
CONTINUOUS
 10
-2.8695193757
 20
-9.8388968505
 11
-2.9708936306
 21
-9.8166839796
  0
LINE
  5
50C
100
AcDbEntity
  8
SIMBOLI
100
AcDbLine
 62
7
  6
CONTINUOUS
 10
1.7495773621
 20
-10.8269591221
 11
1.7671230123
 21
-10.8308102542
  0
LINE
  5
50D
100
AcDbEntity
  8
SIMBOLI
100
AcDbLine
 62
7
  6
CONTINUOUS
 10
1.9621719836
 20
-12.3038317667
 11
1.9455262277
 21
-12.3001722909
  0
LINE
  5
50E
100
AcDbEntity
  8
SIMBOLI
100
AcDbLine
 62
7
  6
CONTINUOUS
 10
1.8005474962
 20
-11.0257938629
 11
1.7896987572
 21
-11.0233943326
  0
LINE
  5
50F
100
AcDbEntity
  8
SIMBOLI
100
AcDbLine
 62
7
  6
CONTINUOUS
 10
0.7667314885
 20
-11.8971418389
 11
0.7502016788
 21
-11.8933856567
  0
LINE
  5
510
100
AcDbEntity
  8
SIMBOLI
100
AcDbLine
 62
7
  6
CONTINUOUS
 10
0.5552027824
 20
-10.4194161591
 11
0.5726252672
 21
-10.4233734575
  0
LINE
  5
511
100
AcDbEntity
  8
SIMBOLI
100
AcDbLine
 62
7
  6
CONTINUOUS
 10
1.9112580501
 20
-12.0995058806
 11
1.9225521814
 21
-12.1020771218
  0
LINE
  5
512
100
AcDbEntity
  8
SIMBOLI
100
AcDbLine
 62
7
  6
CONTINUOUS
 10
0.6057984061
 20
-10.618491582
 11
0.5950266989
 21
-10.6160281825
  0
LINE
  5
513
100
AcDbEntity
  8
SIMBOLI
100
AcDbLine
 62
7
  6
CONTINUOUS
 10
-2.8729330272
 20
-10.0410441521
 11
-2.8818566083
 21
-10.0389715895
  0
LINE
  5
514
100
AcDbEntity
  8
SIMBOLI
100
AcDbLine
 62
7
  6
CONTINUOUS
 10
0.7160933157
 20
-11.6925738053
 11
0.7273082761
 21
-11.6952109144
  0
LINE
  5
515
100
AcDbEntity
  8
SIMBOLI
100
AcDbLine
 62
7
  6
CONTINUOUS
 10
1.9455262277
 20
-12.3001722909
 11
1.9287120759
 21
-12.2960962316
  0
LINE
  5
516
100
AcDbEntity
  8
SIMBOLI
100
AcDbLine
 62
7
  6
CONTINUOUS
 10
1.7671230123
 20
-10.8308102542
 11
1.7849058147
 21
-10.8351669686
  0
LINE
  5
517
100
AcDbEntity
  8
SIMBOLI
100
AcDbLine
 62
7
  6
CONTINUOUS
 10
1.8977353536
 20
-12.0961326424
 11
1.9112580501
 21
-12.0995058806
  0
LINE
  5
518
100
AcDbEntity
  8
SIMBOLI
100
AcDbLine
 62
7
  6
CONTINUOUS
 10
1.8115345831
 20
-11.0285356984
 11
1.8005474962
 21
-11.0257938629
  0
LINE
  5
519
100
AcDbEntity
  8
SIMBOLI
100
AcDbLine
 62
7
  6
CONTINUOUS
 10
0.7502016788
 20
-11.8933856567
 11
0.7335043648
 21
-11.8892119735
  0
LINE
  5
51A
100
AcDbEntity
  8
SIMBOLI
100
AcDbLine
 62
7
  6
CONTINUOUS
 10
-2.8818566083
 20
-10.0389715895
 11
-2.8908313181
 21
-10.0367205009
  0
LINE
  5
51B
100
AcDbEntity
  8
SIMBOLI
100
AcDbLine
 62
7
  6
CONTINUOUS
 10
0.5726252672
 20
-10.4233734575
 11
0.5902831612
 21
-10.4278375452
  0
LINE
  5
51C
100
AcDbEntity
  8
SIMBOLI
100
AcDbLine
 62
7
  6
CONTINUOUS
 10
0.7026652755
 20
-11.6891217954
 11
0.7160933157
 21
-11.6925738053
  0
LINE
  5
51D
100
AcDbEntity
  8
SIMBOLI
100
AcDbLine
 62
7
  6
CONTINUOUS
 10
0.6167076995
 20
-10.6212980747
 11
0.6057984061
 21
-10.618491582
  0
LINE
  5
51E
100
AcDbEntity
  8
SIMBOLI
100
AcDbLine
 62
7
  6
CONTINUOUS
 10
1.9287120759
 20
-12.2960962316
 11
1.9118144887
 21
-12.2916458831
  0
LINE
  5
51F
100
AcDbEntity
  8
SIMBOLI
100
AcDbLine
 62
7
  6
CONTINUOUS
 10
1.7849058147
 20
-10.8351669686
 11
1.8029172591
 21
-10.8400104555
  0
LINE
  5
520
100
AcDbEntity
  8
SIMBOLI
100
AcDbLine
 62
7
  6
CONTINUOUS
 10
-2.8908313181
 20
-10.0367205009
 11
-2.8998564417
 21
-10.0342902906
  0
LINE
  5
521
100
AcDbEntity
  8
SIMBOLI
100
AcDbLine
 62
7
  6
CONTINUOUS
 10
0.7335043648
 20
-11.8892119735
 11
0.7167238762
 21
-11.8846635412
  0
LINE
  5
522
100
AcDbEntity
  8
SIMBOLI
100
AcDbLine
 62
7
  6
CONTINUOUS
 10
1.8842495045
 20
-12.0924605051
 11
1.8977353536
 21
-12.0961326424
  0
LINE
  5
523
100
AcDbEntity
  8
SIMBOLI
100
AcDbLine
 62
7
  6
CONTINUOUS
 10
1.8226701416
 20
-11.0316015298
 11
1.8115345831
 21
-11.0285356984
  0
LINE
  5
524
100
AcDbEntity
  8
SIMBOLI
100
AcDbLine
 62
7
  6
CONTINUOUS
 10
0.5902831612
 20
-10.4278375452
 11
0.6081679957
 21
-10.4327895362
  0
LINE
  5
525
100
AcDbEntity
  8
SIMBOLI
100
AcDbLine
 62
7
  6
CONTINUOUS
 10
0.6892736838
 20
-11.6853711941
 11
0.7026652755
 21
-11.6891217954
  0
LINE
  5
526
100
AcDbEntity
  8
SIMBOLI
100
AcDbLine
 62
7
  6
CONTINUOUS
 10
1.9118144887
 20
-12.2916458831
 11
1.8949183362
 21
-12.2868696337
  0
LINE
  5
527
100
AcDbEntity
  8
SIMBOLI
100
AcDbLine
 62
7
  6
CONTINUOUS
 10
0.6277646147
 20
-10.6244294263
 11
0.6167076995
 21
-10.6212980747
  0
LINE
  5
528
100
AcDbEntity
  8
SIMBOLI
100
AcDbLine
 62
7
  6
CONTINUOUS
 10
-2.8998564417
 20
-10.0342902906
 11
-2.9089312643
 21
-10.0316803627
  0
LINE
  5
529
100
AcDbEntity
  8
SIMBOLI
100
AcDbLine
 62
7
  6
CONTINUOUS
 10
0.7167238762
 20
-11.8846635412
 11
0.6999444429
 21
-11.8797891996
  0
LINE
  5
52A
100
AcDbEntity
  8
SIMBOLI
100
AcDbLine
 62
7
  6
CONTINUOUS
 10
1.8029172591
 20
-10.8400104555
 11
1.821145421
 21
-10.8453224755
  0
LINE
  5
52B
100
AcDbEntity
  8
SIMBOLI
100
AcDbLine
 62
7
  6
CONTINUOUS
 10
1.8708044295
 20
-12.0885046109
 11
1.8842495045
 21
-12.0924605051
  0
LINE
  5
52C
100
AcDbEntity
  8
SIMBOLI
100
AcDbLine
 62
7
  6
CONTINUOUS
 10
1.8339642956
 20
-11.0349730477
 11
1.8226701416
 21
-11.0316015298
  0
LINE
  5
52D
100
AcDbEntity
  8
SIMBOLI
100
AcDbLine
 62
7
  6
CONTINUOUS
 10
0.6081679957
 20
-10.4327895362
 11
0.6262679228
 21
-10.4382111315
  0
LINE
  5
52E
100
AcDbEntity
  8
SIMBOLI
100
AcDbLine
 62
7
  6
CONTINUOUS
 10
0.6389791873
 20
-10.6278674028
 11
0.6277646147
 21
-10.6244294263
  0
LINE
  5
52F
100
AcDbEntity
  8
ASSI
100
AcDbLine
 62
7
  6
CONTINUOUS
 10
9.1908329689
 20
15.1253575954
 11
9.2335324149
 21
15.102628722
  0
LINE
  5
530
100
AcDbEntity
  8
ASSI
100
AcDbLine
 62
7
  6
CONTINUOUS
 10
-8.9489191285
 20
19.8254059543
 11
-8.9835245035
 21
19.8440415385
  0
LINE
  5
531
100
AcDbEntity
  8
ASSI
100
AcDbLine
 62
7
  6
CONTINUOUS
 10
9.2335324149
 20
15.102628722
 11
9.2753707516
 21
15.0758268455
  0
LINE
  5
532
100
AcDbEntity
  8
ASSI
100
AcDbLine
 62
7
  6
CONTINUOUS
 10
9.5563945356
 20
14.6655726153
 11
9.563901752
 21
14.6203370961
  0
LINE
  5
533
100
AcDbEntity
  8
ASSI
100
AcDbLine
 62
7
  6
CONTINUOUS
 10
9.1859162
 20
-21.2741468656
 11
9.1816997653
 21
-21.2362233815
  0
LINE
  5
534
100
AcDbEntity
  8
ASSI
100
AcDbLine
 62
7
  6
CONTINUOUS
 10
9.1794500514
 20
-21.1960480755
 11
9.0795791024
 21
-17.3986325203
  0
LINE
  5
535
100
AcDbEntity
  8
ASSI
100
AcDbLine
 62
7
  6
CONTINUOUS
 10
8.5242361278
 20
-21.2973679607
 11
8.4275172861
 21
-17.4975794255
  0
LINE
  5
536
100
AcDbEntity
  8
ASSI
100
AcDbLine
 62
7
  6
CONTINUOUS
 10
9.0795791024
 20
-17.3986325203
 11
9.0046758893
 21
-13.5806336802
  0
LINE
  5
537
100
AcDbEntity
  8
ASSI
100
AcDbLine
 62
7
  6
CONTINUOUS
 10
8.4275172861
 20
-17.4975794255
 11
8.3549561706
 21
-13.6762688364
  0
LINE
  5
538
100
AcDbEntity
  8
ASSI
100
AcDbLine
 62
7
  6
CONTINUOUS
 10
9.0046758893
 20
-13.5806336802
 11
8.9547404123
 21
-9.7420515551
  0
LINE
  5
539
100
AcDbEntity
  8
ASSI
100
AcDbLine
 62
7
  6
CONTINUOUS
 10
8.3549561706
 20
-13.6762688364
 11
8.3065698353
 21
-9.8337743017
  0
LINE
  5
53A
100
AcDbEntity
  8
ASSI
100
AcDbLine
 62
7
  6
CONTINUOUS
 10
8.9547404123
 20
-9.7420515551
 11
8.929772669
 21
-5.8823545464
  0
LINE
  5
53B
100
AcDbEntity
  8
ASSI
100
AcDbLine
 62
7
  6
CONTINUOUS
 10
8.3065698353
 20
-9.8337743017
 11
8.2823716636
 21
-5.9702621082
  0
LINE
  5
53C
100
AcDbEntity
  8
ASSI
100
AcDbLine
 62
7
  6
CONTINUOUS
 10
8.2823716636
 20
-5.9702621082
 11
8.2823716545
 21
-2.086252476
  0
LINE
  5
53D
100
AcDbEntity
  8
ASSI
100
AcDbLine
 62
7
  6
CONTINUOUS
 10
8.929772669
 20
-5.8823545464
 11
8.9297726618
 21
-2.0020742528
  0
LINE
  5
53E
100
AcDbEntity
  8
ASSI
100
AcDbLine
 62
7
  6
CONTINUOUS
 10
12.1940245171
 20
-19.4708697556
 11
12.1940245171
 21
16.7599861711
  0
LINE
  5
53F
100
AcDbEntity
  8
ASSI
100
AcDbLine
 62
7
  6
CONTINUOUS
 10
8.2823716545
 20
-2.086252476
 11
8.3065698113
 21
1.8173751536
  0
LINE
  5
540
100
AcDbEntity
  8
ASSI
100
AcDbLine
 62
7
  6
CONTINUOUS
 10
8.9297726618
 20
-2.0020742528
 11
8.954740397
 21
1.8971945297
  0
LINE
  5
541
100
AcDbEntity
  8
ASSI
100
AcDbLine
 62
7
  6
CONTINUOUS
 10
8.3065698113
 20
1.8173751536
 11
8.3549561403
 21
5.7400837933
  0
LINE
  5
542
100
AcDbEntity
  8
ASSI
100
AcDbLine
 62
7
  6
CONTINUOUS
 10
8.954740397
 20
1.8971945297
 11
9.0046758767
 21
5.8149202024
  0
LINE
  5
543
100
AcDbEntity
  8
ASSI
100
AcDbLine
 62
7
  6
CONTINUOUS
 10
8.3549561403
 20
5.7400837933
 11
8.4275172632
 21
9.6816847119
  0
LINE
  5
544
100
AcDbEntity
  8
ASSI
100
AcDbLine
 62
7
  6
CONTINUOUS
 10
9.0046758767
 20
5.8149202024
 11
9.0795790989
 21
9.751634364
  0
LINE
  5
545
100
AcDbEntity
  8
ASSI
100
AcDbLine
 62
7
  6
CONTINUOUS
 10
8.4275172632
 20
9.6816847119
 11
8.5242361312
 21
13.6418112001
  0
LINE
  5
546
100
AcDbEntity
  8
ASSI
100
AcDbLine
 62
7
  6
CONTINUOUS
 10
9.0795790989
 20
9.751634364
 11
9.1794500635
 21
13.7073370144
  0
LINE
  5
547
100
AcDbEntity
  8
SIMBOLI
100
AcDbLine
 62
7
  6
CONTINUOUS
 10
1.1690865878
 20
-11.6502532243
 11
1.168418617
 21
-11.6674946018
  0
LINE
  5
548
100
AcDbEntity
  8
SIMBOLI
100
AcDbLine
 62
7
  6
CONTINUOUS
 10
2.3674917921
 20
-12.0544704389
 11
2.366812343
 21
-12.0717210183
  0
LINE
  5
549
100
AcDbEntity
  8
ASSI
100
AcDbLine
 62
7
  6
CONTINUOUS
 10
8.5242361394
 20
13.6418112041
 11
8.527783408
 21
13.7166331193
  0
LINE
  5
54A
100
AcDbEntity
  8
ASSI
100
AcDbLine
 62
7
  6
CONTINUOUS
 10
9.1794500635
 20
13.7073370144
 11
9.1816997826
 21
13.7510779172
  0
LINE
  5
54B
100
AcDbEntity
  8
SIMBOLI
100
AcDbLine
 62
7
  6
CONTINUOUS
 10
-2.5141151063
 20
-9.7907968946
 11
-2.5146782116
 21
-9.7996705563
  0
LINE
  5
54C
100
AcDbEntity
  8
SIMBOLI
100
AcDbLine
 62
7
  6
CONTINUOUS
 10
-2.5146782116
 20
-9.7996705563
 11
-2.5154072769
 21
-9.8083951022
  0
LINE
  5
54D
100
AcDbEntity
  8
SIMBOLI
100
AcDbLine
 62
7
  6
CONTINUOUS
 10
1.168418617
 20
-11.6674946018
 11
1.1669622656
 21
-11.6844207808
  0
LINE
  5
54E
100
AcDbEntity
  8
SIMBOLI
100
AcDbLine
 62
7
  6
CONTINUOUS
 10
2.366812343
 20
-12.0717210183
 11
2.3653390471
 21
-12.0886611597
  0
LINE
  5
54F
100
AcDbEntity
  8
SIMBOLI
100
AcDbLine
 62
7
  6
CONTINUOUS
 10
-2.5154072769
 20
-9.8083951022
 11
-2.516300442
 21
-9.8169680961
  0
LINE
  5
550
100
AcDbEntity
  8
SIMBOLI
100
AcDbLine
 62
7
  6
CONTINUOUS
 10
0.1803211961
 20
-10.6928689966
 11
0.1927276832
 21
-10.5828425216
  0
LINE
  5
551
100
AcDbEntity
  8
SIMBOLI
100
AcDbLine
 62
7
  6
CONTINUOUS
 10
0.3987606163
 20
-10.7017578309
 11
0.3921050926
 21
-10.7589642709
  0
LINE
  5
552
100
AcDbEntity
  8
SIMBOLI
100
AcDbLine
 62
7
  6
CONTINUOUS
 10
-2.516300442
 20
-9.8169680961
 11
-2.5173558466
 21
-9.8253871018
  0
LINE
  5
553
100
AcDbEntity
  8
ASSI
100
AcDbLine
 62
7
  6
CONTINUOUS
 10
-9.0813292234
 20
20.2933387381
 11
-9.0950988772
 21
20.209653443
  0
LINE
  5
554
100
AcDbEntity
  8
ASSI
100
AcDbLine
 62
7
  6
CONTINUOUS
 10
-8.8757510818
 20
20.1189286682
 11
-8.8895634531
 21
20.0388729883
  0
LINE
  5
555
100
AcDbEntity
  8
ASSI
100
AcDbLine
 62
7
  6
CONTINUOUS
 10
-8.8587221286
 20
20.1999529409
 11
-8.8757510818
 21
20.1189286682
  0
LINE
  5
556
100
AcDbEntity
  8
ASSI
100
AcDbLine
 62
7
  6
CONTINUOUS
 10
-9.0638113152
 20
20.3766310447
 11
-9.0813292234
 21
20.2933387381
  0
LINE
  5
557
100
AcDbEntity
  8
ASSI
100
AcDbLine
 62
7
  6
CONTINUOUS
 10
8.9040205654
 20
-21.864103496
 11
8.9634825346
 21
-21.8678804418
  0
LINE
  5
558
100
AcDbEntity
  8
ASSI
100
AcDbLine
 62
7
  6
CONTINUOUS
 10
8.6619191283
 20
-21.3244098123
 11
8.7104664513
 21
-21.3280382102
  0
LINE
  5
559
100
AcDbEntity
  8
SIMBOLI
100
AcDbLine
 62
7
  6
CONTINUOUS
 10
0.7723372341
 20
-11.703340239
 11
0.7836225357
 21
-11.7047077148
  0
LINE
  5
55A
100
AcDbEntity
  8
SIMBOLI
100
AcDbLine
 62
7
  6
CONTINUOUS
 10
2.0255293481
 20
-12.3140431389
 11
2.0102660042
 21
-12.3121604719
  0
LINE
  5
55B
100
AcDbEntity
  8
SIMBOLI
100
AcDbLine
 62
7
  6
CONTINUOUS
 10
0.829644642
 20
-11.9077221754
 11
0.8144887622
 21
-11.9057504577
  0
LINE
  5
55C
100
AcDbEntity
  8
SIMBOLI
100
AcDbLine
 62
7
  6
CONTINUOUS
 10
1.6984437817
 20
-10.8186256792
 11
1.7152281446
 21
-10.8208494168
  0
LINE
  5
55D
100
AcDbEntity
  8
SIMBOLI
100
AcDbLine
 62
7
  6
CONTINUOUS
 10
-2.8290479544
 20
-10.0487416165
 11
-2.8377340186
 21
-10.0475568033
  0
LINE
  5
55E
100
AcDbEntity
  8
SIMBOLI
100
AcDbLine
 62
7
  6
CONTINUOUS
 10
1.9565432003
 20
-12.1083622795
 11
1.9679002333
 21
-12.1099411234
  0
LINE
  5
55F
100
AcDbEntity
  8
SIMBOLI
100
AcDbLine
 62
7
  6
CONTINUOUS
 10
0.5044278798
 20
-10.4107722771
 11
0.5210945357
 21
-10.4130980605
  0
LINE
  5
560
100
AcDbEntity
  8
SIMBOLI
100
AcDbLine
 62
7
  6
CONTINUOUS
 10
1.7726333574
 20
-11.0203082286
 11
1.764267209
 21
-11.0191262709
  0
LINE
  5
561
100
AcDbEntity
  8
SIMBOLI
100
AcDbLine
 62
7
  6
CONTINUOUS
 10
0.7610603139
 20
-11.7016948055
 11
0.7723372341
 21
-11.703340239
  0
LINE
  5
562
100
AcDbEntity
  8
SIMBOLI
100
AcDbLine
 62
7
  6
CONTINUOUS
 10
0.5780829579
 20
-10.6128415143
 11
0.569776678
 21
-10.6116101907
  0
LINE
  5
563
100
AcDbEntity
  8
SIMBOLI
100
AcDbLine
 62
7
  6
CONTINUOUS
 10
2.0102660042
 20
-12.3121604719
 11
1.9946169316
 21
-12.3098353857
  0
LINE
  5
564
100
AcDbEntity
  8
SIMBOLI
100
AcDbLine
 62
7
  6
CONTINUOUS
 10
0.8144887622
 20
-11.9057504577
 11
0.7989495754
 21
-11.9033341931
  0
LINE
  5
565
100
AcDbEntity
  8
SIMBOLI
100
AcDbLine
 62
7
  6
CONTINUOUS
 10
-2.8377340186
 20
-10.0475568033
 11
-2.8464634351
 21
-10.046194847
  0
LINE
  5
566
100
AcDbEntity
  8
SIMBOLI
100
AcDbLine
 62
7
  6
CONTINUOUS
 10
1.945197611
 20
-12.1065173273
 11
1.9565432003
 21
-12.1083622795
  0
LINE
  5
567
100
AcDbEntity
  8
SIMBOLI
100
AcDbLine
 62
7
  6
CONTINUOUS
 10
1.7152281446
 20
-10.8208494168
 11
1.7322765207
 21
-10.8236325254
  0
LINE
  5
568
100
AcDbEntity
  8
SIMBOLI
100
AcDbLine
 62
7
  6
CONTINUOUS
 10
1.7811163343
 20
-11.0217329031
 11
1.7726333574
 21
-11.0203082286
  0
LINE
  5
569
100
AcDbEntity
  8
SIMBOLI
100
AcDbLine
 62
7
  6
CONTINUOUS
 10
0.7497946186
 20
-11.69978343
 11
0.7610603139
 21
-11.7016948055
  0
LINE
  5
56A
100
AcDbEntity
  8
SIMBOLI
100
AcDbLine
 62
7
  6
CONTINUOUS
 10
0.5210945357
 20
-10.4130980605
 11
0.5380233306
 21
-10.4159846826
  0
LINE
  5
56B
100
AcDbEntity
  8
SIMBOLI
100
AcDbLine
 62
7
  6
CONTINUOUS
 10
1.9946169316
 20
-12.3098353857
 11
1.9785640221
 21
-12.30705674
  0
LINE
  5
56C
100
AcDbEntity
  8
SIMBOLI
100
AcDbLine
 62
7
  6
CONTINUOUS
 10
0.5865053838
 20
-10.6143161964
 11
0.5780829579
 21
-10.6128415143
  0
LINE
  5
56D
100
AcDbEntity
  8
SIMBOLI
100
AcDbLine
 62
7
  6
CONTINUOUS
 10
-2.8464634351
 20
-10.046194847
 11
-2.8552383269
 21
-10.0446555508
  0
LINE
  5
56E
100
AcDbEntity
  8
SIMBOLI
100
AcDbLine
 62
7
  6
CONTINUOUS
 10
0.7989495754
 20
-11.9033341931
 11
0.783009064
 21
-11.9004621213
  0
LINE
  5
56F
100
AcDbEntity
  8
SIMBOLI
100
AcDbLine
 62
7
  6
CONTINUOUS
 10
1.9338663199
 20
-12.1044182727
 11
1.945197611
 21
-12.1065173273
  0
LINE
  5
570
100
AcDbEntity
  8
SIMBOLI
100
AcDbLine
 62
7
  6
CONTINUOUS
 10
1.7322765207
 20
-10.8236325254
 11
1.7495773621
 21
-10.8269591221
  0
LINE
  5
571
100
AcDbEntity
  8
SIMBOLI
100
AcDbLine
 62
7
  6
CONTINUOUS
 10
0.7385429915
 20
-11.6976181278
 11
0.7497946186
 21
-11.69978343
  0
LINE
  5
572
100
AcDbEntity
  8
SIMBOLI
100
AcDbLine
 62
7
  6
CONTINUOUS
 10
1.7896987572
 20
-11.0233943326
 11
1.7811163343
 21
-11.0217329031
  0
LINE
  5
573
100
AcDbEntity
  8
SIMBOLI
100
AcDbLine
 62
7
  6
CONTINUOUS
 10
-2.8552383269
 20
-10.0446555508
 11
-2.8640608167
 21
-10.0429387181
  0
LINE
  5
574
100
AcDbEntity
  8
SIMBOLI
100
AcDbLine
 62
7
  6
CONTINUOUS
 10
1.9785640221
 20
-12.30705674
 11
1.9621719836
 21
-12.3038317667
  0
LINE
  5
575
100
AcDbEntity
  8
SIMBOLI
100
AcDbLine
 62
7
  6
CONTINUOUS
 10
0.5380233306
 20
-10.4159846826
 11
0.5552027824
 21
-10.4194161591
  0
LINE
  5
576
100
AcDbEntity
  8
SIMBOLI
100
AcDbLine
 62
7
  6
CONTINUOUS
 10
0.5950266989
 20
-10.6160281825
 11
0.5865053838
 21
-10.6143161964
  0
LINE
  5
577
100
AcDbEntity
  8
ASSI
100
AcDbLine
 62
7
  6
CONTINUOUS
 10
-0.7034639609
 20
16.6794886323
 11
-1.2657180554
 21
16.8803708723
  0
LINE
  5
578
100
AcDbEntity
  8
ASSI
100
AcDbLine
 62
7
  6
CONTINUOUS
 10
-1.2657180554
 20
16.8803708723
 11
-1.8268654058
 21
17.0827588653
  0
LINE
  5
579
100
AcDbEntity
  8
ASSI
100
AcDbLine
 62
7
  6
CONTINUOUS
 10
-1.8268654058
 20
17.0827588653
 11
-2.3858401407
 21
17.2862680995
  0
LINE
  5
57A
100
AcDbEntity
  8
ASSI
100
AcDbLine
 62
7
  6
CONTINUOUS
 10
-2.3858401407
 20
17.2862680995
 11
-2.94368559
 21
17.4912779744
  0
LINE
  5
57B
100
AcDbEntity
  8
ASSI
100
AcDbLine
 62
7
  6
CONTINUOUS
 10
-2.94368559
 20
17.4912779744
 11
-3.5043283032
 21
17.6992569071
  0
LINE
  5
57C
100
AcDbEntity
  8
ASSI
100
AcDbLine
 62
7
  6
CONTINUOUS
 10
-3.5043283032
 20
17.6992569071
 11
-4.0667719552
 21
17.9098776503
  0
LINE
  5
57D
100
AcDbEntity
  8
ASSI
100
AcDbLine
 62
7
  6
CONTINUOUS
 10
-2.858811312
 20
19.183755921
 11
-3.4202263044
 21
19.3945338019
  0
LINE
  5
57E
100
AcDbEntity
  8
ASSI
100
AcDbLine
 62
7
  6
CONTINUOUS
 10
-4.0667719552
 20
17.9098776503
 11
-4.631917533
 21
18.1235194648
  0
LINE
  5
57F
100
AcDbEntity
  8
ASSI
100
AcDbLine
 62
7
  6
CONTINUOUS
 10
-3.4202263044
 20
19.3945338019
 11
-3.9844557316
 21
19.6084419544
  0
LINE
  5
580
100
AcDbEntity
  8
ASSI
100
AcDbLine
 62
7
  6
CONTINUOUS
 10
-4.631917533
 20
18.1235194648
 11
-5.2064384288
 21
18.3427883592
  0
LINE
  5
581
100
AcDbEntity
  8
ASSI
100
AcDbLine
 62
7
  6
CONTINUOUS
 10
-3.9844557316
 20
19.6084419544
 11
-4.5581030038
 21
19.8282580369
  0
LINE
  5
582
100
AcDbEntity
  8
ASSI
100
AcDbLine
 62
7
  6
CONTINUOUS
 10
-5.2064384288
 20
18.3427883592
 11
-5.7904046817
 21
18.5678365626
  0
LINE
  5
583
100
AcDbEntity
  8
ASSI
100
AcDbLine
 62
7
  6
CONTINUOUS
 10
-4.5581030038
 20
19.8282580369
 11
-5.1415170474
 21
20.0540070064
  0
LINE
  5
584
100
AcDbEntity
  8
ASSI
100
AcDbLine
 62
7
  6
CONTINUOUS
 10
-5.7904046817
 20
18.5678365626
 11
-6.3835059781
 21
18.798671641
  0
LINE
  5
585
100
AcDbEntity
  8
ASSI
100
AcDbLine
 62
7
  6
CONTINUOUS
 10
-5.1415170474
 20
20.0540070064
 11
-5.734348936
 21
20.2856639059
  0
LINE
  5
586
100
AcDbEntity
  8
ASSI
100
AcDbLine
 62
7
  6
CONTINUOUS
 10
-6.3835059781
 20
18.798671641
 11
-6.9917150696
 21
19.0377812178
  0
LINE
  5
587
100
AcDbEntity
  8
ASSI
100
AcDbLine
 62
7
  6
CONTINUOUS
 10
-5.734348936
 20
20.2856639059
 11
-6.3421553005
 21
20.5259315223
  0
LINE
  5
588
100
AcDbEntity
  8
ASSI
100
AcDbLine
 62
7
  6
CONTINUOUS
 10
-6.9917150696
 20
19.0377812178
 11
-7.6168631897
 21
19.2861043974
  0
LINE
  5
589
100
AcDbEntity
  8
ASSI
100
AcDbLine
 62
7
  6
CONTINUOUS
 10
-6.3421553005
 20
20.5259315223
 11
-6.9667883512
 21
20.7757107847
  0
LINE
  5
58A
100
AcDbEntity
  8
ASSI
100
AcDbLine
 62
7
  6
CONTINUOUS
 10
-7.6168631897
 20
19.2861043974
 11
-8.256708821
 21
19.5429789732
  0
LINE
  5
58B
100
AcDbEntity
  8
ASSI
100
AcDbLine
 62
7
  6
CONTINUOUS
 10
-6.9667883512
 20
20.7757107847
 11
-7.6063958778
 21
21.034100764
  0
LINE
  5
58C
100
AcDbEntity
  8
ASSI
100
AcDbLine
 62
7
  6
CONTINUOUS
 10
-8.256708821
 20
19.5429789732
 11
-8.9110424285
 21
19.8085423811
  0
LINE
  5
58D
100
AcDbEntity
  8
ASSI
100
AcDbLine
 62
7
  6
CONTINUOUS
 10
-7.6063958778
 20
21.034100764
 11
-8.2609778803
 21
21.3011014604
  0
LINE
  5
58E
100
AcDbEntity
  8
ASSI
100
AcDbLine
 62
7
  6
CONTINUOUS
 10
9.1477398299
 20
15.1437646603
 11
9.1908329689
 21
15.1253575954
  0
LINE
  5
58F
100
AcDbEntity
  8
ASSI
100
AcDbLine
 62
7
  6
CONTINUOUS
 10
-8.9110424267
 20
19.8085424031
 11
-8.9489191285
 21
19.8254059543
  0
LINE
  5
590
100
AcDbEntity
  8
ASSI
100
AcDbLine
 62
7
  6
CONTINUOUS
 10
9.563901813
 20
-21.4944633795
 11
9.5669313955
 21
-21.4508962758
  0
LINE
  5
591
100
AcDbEntity
  8
ASSI
100
AcDbLine
 62
7
  6
CONTINUOUS
 10
8.527783408
 20
13.7166331193
 11
8.5345778383
 21
13.7936746284
  0
LINE
  5
592
100
AcDbEntity
  8
ASSI
100
AcDbLine
 62
7
  6
CONTINUOUS
 10
9.1816997826
 20
13.7510779172
 11
9.1859162213
 21
13.7956840715
  0
LINE
  5
593
100
AcDbEntity
  8
SIMBOLI
100
AcDbLine
 62
7
  6
CONTINUOUS
 10
1.371971951
 20
-11.1027515812
 11
1.3844981765
 21
-10.9926256851
  0
LINE
  5
594
100
AcDbEntity
  8
SIMBOLI
100
AcDbLine
 62
7
  6
CONTINUOUS
 10
1.5919784913
 20
-11.110326118
 11
1.5852584741
 21
-11.1675866469
  0
LINE
  5
595
100
AcDbEntity
  8
ASSI
100
AcDbLine
 62
7
  6
CONTINUOUS
 10
8.5345778383
 20
13.7936746284
 11
8.5445873682
 21
13.8725407176
  0
LINE
  5
596
100
AcDbEntity
  8
SIMBOLI
100
AcDbLine
 62
7
  6
CONTINUOUS
 10
1.1669622656
 20
-11.6844207808
 11
1.1647063912
 21
-11.7010524759
  0
LINE
  5
597
100
AcDbEntity
  8
ASSI
100
AcDbLine
 62
7
  6
CONTINUOUS
 10
9.1859162213
 20
13.7956840715
 11
9.1920993796
 21
13.8411554773
  0
LINE
  5
598
100
AcDbEntity
  8
SIMBOLI
100
AcDbLine
 62
7
  6
CONTINUOUS
 10
-1.2647813271
 20
-10.1926255223
 11
-1.2819668081
 21
-10.3182953237
  0
LINE
  5
599
100
AcDbEntity
  8
SIMBOLI
100
AcDbLine
 62
7
  6
CONTINUOUS
 10
2.3653390471
 20
-12.0886611597
 11
2.3630606597
 21
-12.1053116518
  0
LINE
  5
59A
100
AcDbEntity
  8
SIMBOLI
100
AcDbLine
 62
7
  6
CONTINUOUS
 10
-2.5173558466
 20
-9.8253871018
 11
-2.5185716301
 21
-9.8336496833
  0
LINE
  5
59B
100
AcDbEntity
  8
ASSI
100
AcDbLine
 62
7
  6
CONTINUOUS
 10
8.5445873682
 20
13.8725407176
 11
8.5577714195
 21
13.9528186293
  0
LINE
  5
59C
100
AcDbEntity
  8
SIMBOLI
100
AcDbLine
 62
7
  6
CONTINUOUS
 10
-2.7276050675
 20
-9.6760454089
 11
-2.7426378156
 21
-9.766673315
  0
LINE
  5
59D
100
AcDbEntity
  8
SIMBOLI
100
AcDbLine
 62
7
  6
CONTINUOUS
 10
-2.5185716301
 20
-9.8336496833
 11
-2.5199456968
 21
-9.8417534305
  0
LINE
  5
59E
100
AcDbEntity
  8
SIMBOLI
100
AcDbLine
 62
7
  6
CONTINUOUS
 10
-1.4804480055
 20
-10.1174336116
 11
-1.4952561654
 21
-10.2016986695
  0
LINE
  5
59F
100
AcDbEntity
  8
SIMBOLI
100
AcDbLine
 62
7
  6
CONTINUOUS
 10
1.1647063912
 20
-11.7010524759
 11
1.1623185147
 21
-11.7141513695
  0
LINE
  5
5A0
100
AcDbEntity
  8
SIMBOLI
100
AcDbLine
 62
7
  6
CONTINUOUS
 10
-2.5199456968
 20
-9.8417534305
 11
-2.5214750076
 21
-9.8496960378
  0
LINE
  5
5A1
100
AcDbEntity
  8
SIMBOLI
100
AcDbLine
 62
7
  6
CONTINUOUS
 10
-2.5214750076
 20
-9.8496960378
 11
-2.5231562882
 21
-9.8574752258
  0
LINE
  5
5A2
100
AcDbEntity
  8
ASSI
100
AcDbLine
 62
7
  6
CONTINUOUS
 10
-8.8385456048
 20
20.281544203
 11
-8.8587221286
 21
20.1999529409
  0
LINE
  5
5A3
100
AcDbEntity
  8
ASSI
100
AcDbLine
 62
7
  6
CONTINUOUS
 10
-9.0427181684
 20
20.4593082117
 11
-9.0638113152
 21
20.3766310447
  0
LINE
  5
5A4
100
AcDbEntity
  8
ASSI
100
AcDbLine
 62
7
  6
CONTINUOUS
 10
-8.8153328906
 20
20.363297062
 11
-8.8385456048
 21
20.281544203
  0
LINE
  5
5A5
100
AcDbEntity
  8
ASSI
100
AcDbLine
 62
7
  6
CONTINUOUS
 10
-9.0182321316
 20
20.5410600238
 11
-9.0427181684
 21
20.4593082117
  0
LINE
  5
5A6
100
AcDbEntity
  8
ASSI
100
AcDbLine
 62
7
  6
CONTINUOUS
 10
-8.789208385
 20
20.4447899872
 11
-8.8153328906
 21
20.363297062
  0
LINE
  5
5A7
100
AcDbEntity
  8
ASSI
100
AcDbLine
 62
7
  6
CONTINUOUS
 10
8.9634825346
 20
-21.8678804418
 11
9.024200003
 21
-21.8663784447
  0
LINE
  5
5A8
100
AcDbEntity
  8
ASSI
100
AcDbLine
 62
7
  6
CONTINUOUS
 10
9.4022674827
 20
-21.5217795817
 11
9.3771570089
 21
-21.5218588635
  0
LINE
  5
5A9
100
AcDbEntity
  8
ASSI
100
AcDbLine
 62
7
  6
CONTINUOUS
 10
8.7104664513
 20
-21.3280382102
 11
8.7595652889
 21
-21.3288932312
  0
LINE
  5
5AA
100
AcDbEntity
  8
SIMBOLI
100
AcDbLine
 62
7
  6
CONTINUOUS
 10
2.0692928293
 20
-12.3171841133
 11
2.0550415609
 21
-12.3165429191
  0
LINE
  5
5AB
100
AcDbEntity
  8
SIMBOLI
100
AcDbLine
 62
7
  6
CONTINUOUS
 10
0.8730987121
 20
-11.9111193353
 11
0.8589483783
 21
-11.9103945613
  0
LINE
  5
5AC
100
AcDbEntity
  8
SIMBOLI
100
AcDbLine
 62
7
  6
CONTINUOUS
 10
1.7479549283
 20
-11.0175143534
 11
1.7400432468
 21
-11.017094035
  0
LINE
  5
5AD
100
AcDbEntity
  8
SIMBOLI
100
AcDbLine
 62
7
  6
CONTINUOUS
 10
-2.7946947675
 20
-10.0517133734
 11
-2.8032286494
 21
-10.0512351651
  0
LINE
  5
5AE
100
AcDbEntity
  8
SIMBOLI
100
AcDbLine
 62
7
  6
CONTINUOUS
 10
0.553581584
 20
-10.6099018372
 11
0.5457269702
 21
-10.6094346339
  0
LINE
  5
5AF
100
AcDbEntity
  8
SIMBOLI
100
AcDbLine
 62
7
  6
CONTINUOUS
 10
1.6657794356
 20
-10.815867658
 11
1.6819505442
 21
-10.8169649154
  0
LINE
  5
5B0
100
AcDbEntity
  8
SIMBOLI
100
AcDbLine
 62
7
  6
CONTINUOUS
 10
2.0550415609
 20
-12.3165429191
 11
2.0404457754
 21
-12.3154991205
  0
LINE
  5
5B1
100
AcDbEntity
  8
SIMBOLI
100
AcDbLine
 62
7
  6
CONTINUOUS
 10
0.4719925029
 20
-10.4078153438
 11
0.4880502778
 21
-10.4090111239
  0
LINE
  5
5B2
100
AcDbEntity
  8
SIMBOLI
100
AcDbLine
 62
7
  6
CONTINUOUS
 10
-2.8032286494
 20
-10.0512351651
 11
-2.8117973926
 21
-10.0505806006
  0
LINE
  5
5B3
100
AcDbEntity
  8
SIMBOLI
100
AcDbLine
 62
7
  6
CONTINUOUS
 10
0.8589483783
 20
-11.9103945613
 11
0.8444558015
 21
-11.9092653208
  0
LINE
  5
5B4
100
AcDbEntity
  8
SIMBOLI
100
AcDbLine
 62
7
  6
CONTINUOUS
 10
1.7560352718
 20
-11.0181929919
 11
1.7479549283
 21
-11.0175143534
  0
LINE
  5
5B5
100
AcDbEntity
  8
SIMBOLI
100
AcDbLine
 62
7
  6
CONTINUOUS
 10
0.5616038011
 20
-10.6106282802
 11
0.553581584
 21
-10.6099018372
  0
LINE
  5
5B6
100
AcDbEntity
  8
SIMBOLI
100
AcDbLine
 62
7
  6
CONTINUOUS
 10
-2.8117973926
 20
-10.0505806006
 11
-2.82040312
 21
-10.0497494833
  0
LINE
  5
5B7
100
AcDbEntity
  8
SIMBOLI
100
AcDbLine
 62
7
  6
CONTINUOUS
 10
2.0404457754
 20
-12.3154991205
 11
2.0255293481
 21
-12.3140431389
  0
LINE
  5
5B8
100
AcDbEntity
  8
SIMBOLI
100
AcDbLine
 62
7
  6
CONTINUOUS
 10
1.6819505442
 20
-10.8169649154
 11
1.6984437817
 21
-10.8186256792
  0
LINE
  5
5B9
100
AcDbEntity
  8
SIMBOLI
100
AcDbLine
 62
7
  6
CONTINUOUS
 10
0.8444558015
 20
-11.9092653208
 11
0.829644642
 21
-11.9077221754
  0
LINE
  5
5BA
100
AcDbEntity
  8
SIMBOLI
100
AcDbLine
 62
7
  6
CONTINUOUS
 10
0.4880502778
 20
-10.4090111239
 11
0.5044278798
 21
-10.4107722771
  0
LINE
  5
5BB
100
AcDbEntity
  8
SIMBOLI
100
AcDbLine
 62
7
  6
CONTINUOUS
 10
1.764267209
 20
-11.0191262709
 11
1.7560352718
 21
-11.0181929919
  0
LINE
  5
5BC
100
AcDbEntity
  8
SIMBOLI
100
AcDbLine
 62
7
  6
CONTINUOUS
 10
1.9679002333
 20
-12.1099411234
 11
1.9792658555
 21
-12.1112418528
  0
LINE
  5
5BD
100
AcDbEntity
  8
SIMBOLI
100
AcDbLine
 62
7
  6
CONTINUOUS
 10
-2.82040312
 20
-10.0497494833
 11
-2.8290479544
 21
-10.0487416165
  0
LINE
  5
5BE
100
AcDbEntity
  8
SIMBOLI
100
AcDbLine
 62
7
  6
CONTINUOUS
 10
0.569776678
 20
-10.6116101907
 11
0.5616038011
 21
-10.6106282802
  0
LINE
  5
5BF
100
AcDbEntity
  8
ASSI
100
AcDbLine
 62
7
  6
CONTINUOUS
 10
8.5242426645
 20
13.641817121
 11
8.5683566402
 21
13.6296809995
  0
LINE
  5
5C0
100
AcDbEntity
  8
ASSI
100
AcDbLine
 62
7
  6
CONTINUOUS
 10
-8.2609778982
 20
21.3011014437
 11
-8.3054821821
 21
21.3136768755
  0
LINE
  5
5C1
100
AcDbEntity
  8
ASSI
100
AcDbLine
 62
7
  6
CONTINUOUS
 10
9.1477398299
 20
15.1437646603
 11
8.5598267592
 21
15.3219290031
  0
LINE
  5
5C2
100
AcDbEntity
  8
ASSI
100
AcDbLine
 62
7
  6
CONTINUOUS
 10
8.5242361312
 20
13.6418112001
 11
7.935507009
 21
13.8216298231
  0
LINE
  5
5C3
100
AcDbEntity
  8
ASSI
100
AcDbLine
 62
7
  6
CONTINUOUS
 10
8.5598267592
 20
15.3219290031
 11
7.9737160651
 21
15.5014580905
  0
LINE
  5
5C4
100
AcDbEntity
  8
ASSI
100
AcDbLine
 62
7
  6
CONTINUOUS
 10
7.935507009
 20
13.8216298231
 11
7.3484993832
 21
14.0027537553
  0
LINE
  5
5C5
100
AcDbEntity
  8
ASSI
100
AcDbLine
 62
7
  6
CONTINUOUS
 10
7.9737160651
 20
15.5014580905
 11
7.3894077476
 21
15.6823519225
  0
LINE
  5
5C6
100
AcDbEntity
  8
ASSI
100
AcDbLine
 62
7
  6
CONTINUOUS
 10
7.3484993832
 20
14.0027537553
 11
6.7111892442
 21
14.2015595894
  0
LINE
  5
5C7
100
AcDbEntity
  8
ASSI
100
AcDbLine
 62
7
  6
CONTINUOUS
 10
7.3894077476
 20
15.6823519225
 11
6.8070612099
 21
15.8645606151
  0
LINE
  5
5C8
100
AcDbEntity
  8
ASSI
100
AcDbLine
 62
7
  6
CONTINUOUS
 10
6.8070612099
 20
15.8645606151
 11
6.2265170487
 21
16.0481340522
  0
LINE
  5
5C9
100
AcDbEntity
  8
ASSI
100
AcDbLine
 62
7
  6
CONTINUOUS
 10
6.7111892442
 20
14.2015595894
 11
5.5981664067
 21
14.5538182876
  0
LINE
  5
5CA
100
AcDbEntity
  8
ASSI
100
AcDbLine
 62
7
  6
CONTINUOUS
 10
6.2265170487
 20
16.0481340522
 11
5.6472970548
 21
16.2332218857
  0
LINE
  5
5CB
100
AcDbEntity
  8
ASSI
100
AcDbLine
 62
7
  6
CONTINUOUS
 10
5.5981664067
 20
14.5538182876
 11
5.0178538233
 21
14.7402002996
  0
LINE
  5
5CC
100
AcDbEntity
  8
ASSI
100
AcDbLine
 62
7
  6
CONTINUOUS
 10
5.6472970548
 20
16.2332218857
 11
5.0691599404
 21
16.4198998354
  0
LINE
  5
5CD
100
AcDbEntity
  8
ASSI
100
AcDbLine
 62
7
  6
CONTINUOUS
 10
5.0178538233
 20
14.7402002996
 11
4.4387037081
 21
14.9280593373
  0
LINE
  5
5CE
100
AcDbEntity
  8
ASSI
100
AcDbLine
 62
7
  6
CONTINUOUS
 10
5.0691599404
 20
16.4198998354
 11
4.4923469931
 21
16.6080921815
  0
LINE
  5
5CF
100
AcDbEntity
  8
ASSI
100
AcDbLine
 62
7
  6
CONTINUOUS
 10
4.4387037081
 20
14.9280593373
 11
3.8609194274
 21
15.1173317282
  0
LINE
  5
5D0
100
AcDbEntity
  8
ASSI
100
AcDbLine
 62
7
  6
CONTINUOUS
 10
4.4923469931
 20
16.6080921815
 11
3.9171038662
 21
16.7977214165
  0
LINE
  5
5D1
100
AcDbEntity
  8
ASSI
100
AcDbLine
 62
7
  6
CONTINUOUS
 10
3.8609194274
 20
15.1173317282
 11
3.2846727774
 21
15.3079616316
  0
LINE
  5
5D2
100
AcDbEntity
  8
ASSI
100
AcDbLine
 62
7
  6
CONTINUOUS
 10
3.9171038662
 20
16.7977214165
 11
3.3434976352
 21
16.9887668877
  0
LINE
  5
5D3
100
AcDbEntity
  8
ASSI
100
AcDbLine
 62
7
  6
CONTINUOUS
 10
3.2846727774
 20
15.3079616316
 11
2.7100147869
 21
15.4999318055
  0
LINE
  5
5D4
100
AcDbEntity
  8
ASSI
100
AcDbLine
 62
7
  6
CONTINUOUS
 10
3.3434976352
 20
16.9887668877
 11
2.7714612245
 21
17.1812492478
  0
LINE
  5
5D5
100
AcDbEntity
  8
ASSI
100
AcDbLine
 62
7
  6
CONTINUOUS
 10
2.7100147869
 20
15.4999318055
 11
1.7173663264
 21
15.8361528682
  0
LINE
  5
5D6
100
AcDbEntity
  8
ASSI
100
AcDbLine
 62
7
  6
CONTINUOUS
 10
2.7714612245
 20
17.1812492478
 11
2.0484374701
 21
17.4275558751
  0
LINE
  5
5D7
100
AcDbEntity
  8
ASSI
100
AcDbLine
 62
7
  6
CONTINUOUS
 10
1.7173663264
 20
15.8361528682
 11
0.99546386
 21
16.0839177262
  0
LINE
  5
5D8
100
AcDbEntity
  8
ASSI
100
AcDbLine
 62
7
  6
CONTINUOUS
 10
2.0484374701
 20
17.4275558751
 11
1.0648703219
 21
17.7672855473
  0
LINE
  5
5D9
100
AcDbEntity
  8
ASSI
100
AcDbLine
 62
7
  6
CONTINUOUS
 10
0.99546386
 20
16.0839177262
 11
0.4271335147
 21
16.2812555143
  0
LINE
  5
5DA
100
AcDbEntity
  8
ASSI
100
AcDbLine
 62
7
  6
CONTINUOUS
 10
1.0648703219
 20
17.7672855473
 11
0.4995024736
 21
17.9653765318
  0
LINE
  5
5DB
100
AcDbEntity
  8
ASSI
100
AcDbLine
 62
7
  6
CONTINUOUS
 10
0.4271335147
 20
16.2812555143
 11
-0.139298237
 21
16.4798236718
  0
LINE
  5
5DC
100
AcDbEntity
  8
ASSI
100
AcDbLine
 62
7
  6
CONTINUOUS
 10
-5.8375363895
 20
23.5568096704
 11
11.7748329288
 21
17.3274427744
  0
LINE
  5
5DD
100
AcDbEntity
  8
ASSI
100
AcDbLine
 62
7
  6
CONTINUOUS
 10
-0.139298237
 20
16.4798236718
 11
-0.7034639609
 21
16.6794886323
  0
LINE
  5
5DE
100
AcDbEntity
  8
ASSI
100
AcDbLine
 62
7
  6
CONTINUOUS
 10
0.4995024736
 20
17.9653765318
 11
-0.0636059506
 21
18.1646548742
  0
LINE
  5
5DF
100
AcDbEntity
  8
ASSI
100
AcDbLine
 62
7
  6
CONTINUOUS
 10
-0.0636059506
 20
18.1646548742
 11
-0.6248049772
 21
18.3652472314
  0
LINE
  5
5E0
100
AcDbEntity
  8
ASSI
100
AcDbLine
 62
7
  6
CONTINUOUS
 10
-0.6248049772
 20
18.3652472314
 11
-1.1848495338
 21
18.56742625
  0
LINE
  5
5E1
100
AcDbEntity
  8
ASSI
100
AcDbLine
 62
7
  6
CONTINUOUS
 10
-1.1848495338
 20
18.56742625
 11
-1.7426682949
 21
18.7707682755
  0
LINE
  5
5E2
100
AcDbEntity
  8
ASSI
100
AcDbLine
 62
7
  6
CONTINUOUS
 10
-1.7426682949
 20
18.7707682755
 11
-2.299332586
 21
18.9756969624
  0
LINE
  5
5E3
100
AcDbEntity
  8
ASSI
100
AcDbLine
 62
7
  6
CONTINUOUS
 10
-2.299332586
 20
18.9756969624
 11
-2.858811312
 21
19.183755921
  0
LINE
  5
5E4
100
AcDbEntity
  8
ASSI
100
AcDbLine
 62
7
  6
CONTINUOUS
 10
9.1920993796
 20
13.8411554773
 11
9.2003004735
 21
13.8877521556
  0
LINE
  5
5E5
100
AcDbEntity
  8
ASSI
100
AcDbLine
 62
7
  6
CONTINUOUS
 10
9.5563948028
 20
-21.5358652834
 11
9.563901813
 21
-21.4944633795
  0
LINE
  5
5E6
100
AcDbEntity
  8
SIMBOLI
100
AcDbLine
 62
7
  6
CONTINUOUS
 10
2.3630606597
 20
-12.1053116518
 11
2.360650698
 21
-12.1184291088
  0
LINE
  5
5E7
100
AcDbEntity
  8
ASSI
100
AcDbLine
 62
7
  6
CONTINUOUS
 10
8.5577714195
 20
13.9528186293
 11
8.5740612217
 21
14.034104332
  0
LINE
  5
5E8
100
AcDbEntity
  8
ASSI
100
AcDbLine
 62
7
  6
CONTINUOUS
 10
9.2003004735
 20
13.8877521556
 11
9.2104682869
 21
13.9352140855
  0
LINE
  5
5E9
100
AcDbEntity
  8
SIMBOLI
100
AcDbLine
 62
7
  6
CONTINUOUS
 10
0.9346416855
 20
-11.6470580465
 11
0.9526175338
 21
-11.5634237748
  0
LINE
  5
5EA
100
AcDbEntity
  8
SIMBOLI
100
AcDbLine
 62
7
  6
CONTINUOUS
 10
2.1313804271
 20
-12.0526744864
 11
2.1495143299
 21
-11.968906659
  0
LINE
  5
5EB
100
AcDbEntity
  8
SIMBOLI
100
AcDbLine
 62
7
  6
CONTINUOUS
 10
1.1623185147
 20
-11.7141513695
 11
1.1594059127
 21
-11.7270355308
  0
LINE
  5
5EC
100
AcDbEntity
  8
SIMBOLI
100
AcDbLine
 62
7
  6
CONTINUOUS
 10
2.360650698
 20
-12.1184291088
 11
2.3577123478
 21
-12.1313349829
  0
LINE
  5
5ED
100
AcDbEntity
  8
ASSI
100
AcDbLine
 62
7
  6
CONTINUOUS
 10
8.5740612217
 20
14.034104332
 11
8.5933621859
 21
14.1160052709
  0
LINE
  5
5EE
100
AcDbEntity
  8
SIMBOLI
100
AcDbLine
 62
7
  6
CONTINUOUS
 10
-2.5231562882
 20
-9.8574752258
 11
-2.524986264
 21
-9.865088715
  0
LINE
  5
5EF
100
AcDbEntity
  8
ASSI
100
AcDbLine
 62
7
  6
CONTINUOUS
 10
9.2104682869
 20
13.9352140855
 11
9.2224491716
 21
13.9827612038
  0
LINE
  5
5F0
100
AcDbEntity
  8
SIMBOLI
100
AcDbLine
 62
7
  6
CONTINUOUS
 10
-2.524986264
 20
-9.865088715
 11
-2.5269616604
 21
-9.872534226
  0
LINE
  5
5F1
100
AcDbEntity
  8
SIMBOLI
100
AcDbLine
 62
7
  6
CONTINUOUS
 10
-2.5269616604
 20
-9.872534226
 11
-2.529079203
 21
-9.8798094794
  0
LINE
  5
5F2
100
AcDbEntity
  8
ASSI
100
AcDbLine
 62
7
  6
CONTINUOUS
 10
-8.9904831986
 20
20.6216142001
 11
-9.0182321316
 21
20.5410600238
  0
LINE
  5
5F3
100
AcDbEntity
  8
ASSI
100
AcDbLine
 62
7
  6
CONTINUOUS
 10
-8.7602836024
 20
20.5255967707
 11
-8.789208385
 21
20.4447899872
  0
LINE
  5
5F4
100
AcDbEntity
  8
ASSI
100
AcDbLine
 62
7
  6
CONTINUOUS
 10
-8.9595912296
 20
20.7006725174
 11
-8.9904831986
 21
20.6216142001
  0
LINE
  5
5F5
100
AcDbEntity
  8
ASSI
100
AcDbLine
 62
7
  6
CONTINUOUS
 10
-8.7287200789
 20
20.6053095651
 11
-8.7602836024
 21
20.5255967707
  0
LINE
  5
5F6
100
AcDbEntity
  8
ASSI
100
AcDbLine
 62
7
  6
CONTINUOUS
 10
8.7595652889
 20
-21.3288932312
 11
8.8087399124
 21
-21.326966591
  0
LINE
  5
5F7
100
AcDbEntity
  8
SIMBOLI
100
AcDbLine
 62
7
  6
CONTINUOUS
 10
2.0992678967
 20
-12.3172191816
 11
2.0831631682
 21
-12.3174310507
  0
LINE
  5
5F8
100
AcDbEntity
  8
SIMBOLI
100
AcDbLine
 62
7
  6
CONTINUOUS
 10
1.7323160376
 20
-11.0169265883
 11
1.7247887968
 21
-11.0170042826
  0
LINE
  5
5F9
100
AcDbEntity
  8
SIMBOLI
100
AcDbLine
 62
7
  6
CONTINUOUS
 10
0.9028611053
 20
-11.9113307418
 11
0.8868706934
 21
-11.911447774
  0
LINE
  5
5FA
100
AcDbEntity
  8
SIMBOLI
100
AcDbLine
 62
7
  6
CONTINUOUS
 10
-2.7692946535
 20
-10.0520888153
 11
-2.777727124
 21
-10.0521406157
  0
LINE
  5
5FB
100
AcDbEntity
  8
SIMBOLI
100
AcDbLine
 62
7
  6
CONTINUOUS
 10
0.5380556509
 20
-10.6092213131
 11
0.5305830036
 21
-10.6092542351
  0
LINE
  5
5FC
100
AcDbEntity
  8
SIMBOLI
100
AcDbLine
 62
7
  6
CONTINUOUS
 10
1.6345284569
 20
-10.8153628783
 11
1.6499614592
 21
-10.81533444
  0
LINE
  5
5FD
100
AcDbEntity
  8
SIMBOLI
100
AcDbLine
 62
7
  6
CONTINUOUS
 10
0.4409603582
 20
-10.4071199668
 11
0.4562853285
 21
-10.4071856798
  0
LINE
  5
5FE
100
AcDbEntity
  8
SIMBOLI
100
AcDbLine
 62
7
  6
CONTINUOUS
 10
-2.777727124
 20
-10.0521406157
 11
-2.7861941278
 21
-10.0520153108
  0
LINE
  5
5FF
100
AcDbEntity
  8
SIMBOLI
100
AcDbLine
 62
7
  6
CONTINUOUS
 10
2.0831631682
 20
-12.3174310507
 11
2.0692928293
 21
-12.3171841133
  0
LINE
  5
600
100
AcDbEntity
  8
SIMBOLI
100
AcDbLine
 62
7
  6
CONTINUOUS
 10
1.7400432468
 20
-11.017094035
 11
1.7323160376
 21
-11.0169265883
  0
LINE
  5
601
100
AcDbEntity
  8
SIMBOLI
100
AcDbLine
 62
7
  6
CONTINUOUS
 10
0.8868706934
 20
-11.911447774
 11
0.8730987121
 21
-11.9111193353
  0
LINE
  5
602
100
AcDbEntity
  8
SIMBOLI
100
AcDbLine
 62
7
  6
CONTINUOUS
 10
0.5457269702
 20
-10.6094346339
 11
0.5380556509
 21
-10.6092213131
  0
LINE
  5
603
100
AcDbEntity
  8
SIMBOLI
100
AcDbLine
 62
7
  6
CONTINUOUS
 10
1.6499614592
 20
-10.81533444
 11
1.6657794356
 21
-10.815867658
  0
LINE
  5
604
100
AcDbEntity
  8
SIMBOLI
100
AcDbLine
 62
7
  6
CONTINUOUS
 10
-2.7861941278
 20
-10.0520153108
 11
-2.7946947675
 21
-10.0517133734
  0
LINE
  5
605
100
AcDbEntity
  8
SIMBOLI
100
AcDbLine
 62
7
  6
CONTINUOUS
 10
0.4562853285
 20
-10.4071856798
 11
0.4719925029
 21
-10.4078153438
  0
LINE
  5
606
100
AcDbEntity
  8
ASSI
100
AcDbLine
 62
7
  6
CONTINUOUS
 10
8.5683566402
 20
13.6296809995
 11
8.614399071
 21
13.6197917894
  0
LINE
  5
607
100
AcDbEntity
  8
ASSI
100
AcDbLine
 62
7
  6
CONTINUOUS
 10
8.5933621859
 20
14.1160052709
 11
8.6155913974
 21
14.1981059867
  0
LINE
  5
608
100
AcDbEntity
  8
SIMBOLI
100
AcDbLine
 62
7
  6
CONTINUOUS
 10
1.1594059127
 20
-11.7270355308
 11
1.1559626856
 21
-11.7396654397
  0
LINE
  5
609
100
AcDbEntity
  8
SIMBOLI
100
AcDbLine
 62
7
  6
CONTINUOUS
 10
2.3577123478
 20
-12.1313349829
 11
2.3542396754
 21
-12.1439897623
  0
LINE
  5
60A
100
AcDbEntity
  8
ASSI
100
AcDbLine
 62
7
  6
CONTINUOUS
 10
9.2224491716
 20
13.9827612038
 11
9.2362699999
 21
14.0303755456
  0
LINE
  5
60B
100
AcDbEntity
  8
ASSI
100
AcDbLine
 62
7
  6
CONTINUOUS
 10
8.6155913974
 20
14.1981059867
 11
8.6406412604
 21
14.2799790046
  0
LINE
  5
60C
100
AcDbEntity
  8
SIMBOLI
100
AcDbLine
 62
7
  6
CONTINUOUS
 10
-2.529079203
 20
-9.8798094794
 11
-2.5313354689
 21
-9.8869125349
  0
LINE
  5
60D
100
AcDbEntity
  8
SIMBOLI
100
AcDbLine
 62
7
  6
CONTINUOUS
 10
1.1559626856
 20
-11.7396654397
 11
1.1519829342
 21
-11.7520015762
  0
LINE
  5
60E
100
AcDbEntity
  8
SIMBOLI
100
AcDbLine
 62
7
  6
CONTINUOUS
 10
2.3542396754
 20
-12.1439897623
 11
2.3502267475
 21
-12.1563539347
  0
LINE
  5
60F
100
AcDbEntity
  8
ASSI
100
AcDbLine
 62
7
  6
CONTINUOUS
 10
9.2362699999
 20
14.0303755456
 11
9.2519038995
 21
14.0780750757
  0
LINE
  5
610
100
AcDbEntity
  8
ASSI
100
AcDbLine
 62
7
  6
CONTINUOUS
 10
8.6406412604
 20
14.2799790046
 11
8.6683614493
 21
14.3612118434
  0
LINE
  5
611
100
AcDbEntity
  8
SIMBOLI
100
AcDbLine
 62
7
  6
CONTINUOUS
 10
-2.5313354689
 20
-9.8869125349
 11
-2.5337264422
 21
-9.8938428101
  0
LINE
  5
612
100
AcDbEntity
  8
ASSI
100
AcDbLine
 62
7
  6
CONTINUOUS
 10
-8.6946874396
 20
20.6835248787
 11
-8.7287200789
 21
20.6053095651
  0
LINE
  5
613
100
AcDbEntity
  8
ASSI
100
AcDbLine
 62
7
  6
CONTINUOUS
 10
-8.9256532711
 20
20.7779612945
 11
-8.9595912296
 21
20.7006725174
  0
LINE
  5
614
100
AcDbEntity
  8
ASSI
100
AcDbLine
 62
7
  6
CONTINUOUS
 10
-8.6583313373
 20
20.7598316687
 11
-8.6946874396
 21
20.6835248787
  0
LINE
  5
615
100
AcDbEntity
  8
ASSI
100
AcDbLine
 62
7
  6
CONTINUOUS
 10
-8.888737052
 20
20.85317364
 11
-8.9256532711
 21
20.7779612945
  0
LINE
  5
616
100
AcDbEntity
  8
ASSI
100
AcDbLine
 62
7
  6
CONTINUOUS
 10
8.8575138586
 20
-21.3222769572
 11
8.9054145467
 21
-21.3148697686
  0
LINE
  5
617
100
AcDbEntity
  8
ASSI
100
AcDbLine
 62
7
  6
CONTINUOUS
 10
9.4283000792
 20
-21.5182319658
 11
9.4022674827
 21
-21.5217795817
  0
LINE
  5
618
100
AcDbEntity
  8
ASSI
100
AcDbLine
 62
7
  6
CONTINUOUS
 10
9.024200003
 20
-21.8663784447
 11
9.08566911
 21
-21.8594196538
  0
LINE
  5
619
100
AcDbEntity
  8
ASSI
100
AcDbLine
 62
7
  6
CONTINUOUS
 10
8.8087399124
 20
-21.326966591
 11
8.8575138586
 21
-21.3222769572
  0
LINE
  5
61A
100
AcDbEntity
  8
SIMBOLI
100
AcDbLine
 62
7
  6
CONTINUOUS
 10
2.1297687828
 20
-12.3151973279
 11
2.1147952393
 21
-12.3164688563
  0
LINE
  5
61B
100
AcDbEntity
  8
SIMBOLI
100
AcDbLine
 62
7
  6
CONTINUOUS
 10
-1.427632389
 20
-10.4548458484
 11
-1.5405979805
 21
-10.4640570945
  0
LINE
  5
61C
100
AcDbEntity
  8
SIMBOLI
100
AcDbLine
 62
7
  6
CONTINUOUS
 10
0.9331451045
 20
-11.909489156
 11
0.9182781047
 21
-11.9106720758
  0
LINE
  5
61D
100
AcDbEntity
  8
SIMBOLI
100
AcDbLine
 62
7
  6
CONTINUOUS
 10
1.7174770205
 20
-11.0173193874
 11
1.7103962045
 21
-11.017864172
  0
LINE
  5
61E
100
AcDbEntity
  8
SIMBOLI
100
AcDbLine
 62
7
  6
CONTINUOUS
 10
1.6049589948
 20
-10.8170456261
 11
1.6195156242
 21
-10.8159389275
  0
LINE
  5
61F
100
AcDbEntity
  8
SIMBOLI
100
AcDbLine
 62
7
  6
CONTINUOUS
 10
0.5233244061
 20
-10.6095257604
 11
0.5162952362
 21
-10.6100282494
  0
LINE
  5
620
100
AcDbEntity
  8
SIMBOLI
100
AcDbLine
 62
7
  6
CONTINUOUS
 10
0.411597567
 20
-10.4086222951
 11
0.4260525187
 21
-10.4076044072
  0
LINE
  5
621
100
AcDbEntity
  8
SIMBOLI
100
AcDbLine
 62
7
  6
CONTINUOUS
 10
-2.7442134153
 20
-10.0508660514
 11
-2.7525369018
 21
-10.0514520062
  0
LINE
  5
622
100
AcDbEntity
  8
SIMBOLI
100
AcDbLine
 62
7
  6
CONTINUOUS
 10
-2.7525369018
 20
-10.0514520062
 11
-2.7608976137
 21
-10.0518594365
  0
LINE
  5
623
100
AcDbEntity
  8
SIMBOLI
100
AcDbLine
 62
7
  6
CONTINUOUS
 10
2.1147952393
 20
-12.3164688563
 11
2.0992678967
 21
-12.3172191816
  0
LINE
  5
624
100
AcDbEntity
  8
SIMBOLI
100
AcDbLine
 62
7
  6
CONTINUOUS
 10
1.7247887968
 20
-11.0170042826
 11
1.7174770205
 21
-11.0173193874
  0
LINE
  5
625
100
AcDbEntity
  8
SIMBOLI
100
AcDbLine
 62
7
  6
CONTINUOUS
 10
0.9182781047
 20
-11.9106720758
 11
0.9028611053
 21
-11.9113307418
  0
LINE
  5
626
100
AcDbEntity
  8
SIMBOLI
100
AcDbLine
 62
7
  6
CONTINUOUS
 10
1.6195156242
 20
-10.8159389275
 11
1.6345284569
 21
-10.8153628783
  0
LINE
  5
627
100
AcDbEntity
  8
SIMBOLI
100
AcDbLine
 62
7
  6
CONTINUOUS
 10
0.5305830036
 20
-10.6092542351
 11
0.5233244061
 21
-10.6095257604
  0
LINE
  5
628
100
AcDbEntity
  8
SIMBOLI
100
AcDbLine
 62
7
  6
CONTINUOUS
 10
0.4260525187
 20
-10.4076044072
 11
0.4409603582
 21
-10.4071199668
  0
LINE
  5
629
100
AcDbEntity
  8
SIMBOLI
100
AcDbLine
 62
7
  6
CONTINUOUS
 10
-2.7608976137
 20
-10.0518594365
 11
-2.7692946535
 21
-10.0520888153
  0
LINE
  5
62A
100
AcDbEntity
  8
ASSI
100
AcDbLine
 62
7
  6
CONTINUOUS
 10
8.6619238516
 20
13.6122453076
 11
8.7104705139
 21
13.6071146718
  0
LINE
  5
62B
100
AcDbEntity
  8
ASSI
100
AcDbLine
 62
7
  6
CONTINUOUS
 10
8.614399071
 20
13.6197917894
 11
8.6619238516
 21
13.6122453076
  0
LINE
  5
62C
100
AcDbEntity
  8
ASSI
100
AcDbLine
 62
7
  6
CONTINUOUS
 10
-8.3054821821
 20
21.3136768755
 11
-8.349421187
 21
21.3215912142
  0
LINE
  5
62D
100
AcDbEntity
  8
ASSI
100
AcDbLine
 62
7
  6
CONTINUOUS
 10
9.5444925076
 20
-21.5746487707
 11
9.5563948028
 21
-21.5358652834
  0
LINE
  5
62E
100
AcDbEntity
  8
ASSI
100
AcDbLine
 62
7
  6
CONTINUOUS
 10
9.2519038995
 20
14.0780750757
 11
9.2691166041
 21
14.1251336254
  0
LINE
  5
62F
100
AcDbEntity
  8
SIMBOLI
100
AcDbLine
 62
7
  6
CONTINUOUS
 10
-2.5337264422
 20
-9.8938428101
 11
-2.5362479586
 21
-9.9006000614
  0
LINE
  5
630
100
AcDbEntity
  8
SIMBOLI
100
AcDbLine
 62
7
  6
CONTINUOUS
 10
1.1519829342
 20
-11.7520015762
 11
1.1474607587
 21
-11.7640044203
  0
LINE
  5
631
100
AcDbEntity
  8
ASSI
100
AcDbLine
 62
7
  6
CONTINUOUS
 10
8.6683614493
 20
14.3612118434
 11
8.6986269117
 21
14.4413837516
  0
LINE
  5
632
100
AcDbEntity
  8
SIMBOLI
100
AcDbLine
 62
7
  6
CONTINUOUS
 10
2.3502267475
 20
-12.1563539347
 11
2.3456676307
 21
-12.1683879882
  0
LINE
  5
633
100
AcDbEntity
  8
SIMBOLI
100
AcDbLine
 62
7
  6
CONTINUOUS
 10
-2.5362479586
 20
-9.9006000614
 11
-2.5388958541
 21
-9.9071840455
  0
LINE
  5
634
100
AcDbEntity
  8
ASSI
100
AcDbLine
 62
7
  6
CONTINUOUS
 10
9.2691166041
 20
14.1251336254
 11
9.2879341623
 21
14.1715446206
  0
LINE
  5
635
100
AcDbEntity
  8
ASSI
100
AcDbLine
 62
7
  6
CONTINUOUS
 10
8.6986269117
 20
14.4413837516
 11
8.7312943489
 21
14.520081926
  0
LINE
  5
636
100
AcDbEntity
  8
SIMBOLI
100
AcDbLine
 62
7
  6
CONTINUOUS
 10
-2.5388958541
 20
-9.9071840455
 11
-2.5416659642
 21
-9.913594519
  0
LINE
  5
637
100
AcDbEntity
  8
ASSI
100
AcDbLine
 62
7
  6
CONTINUOUS
 10
-8.6198531808
 20
20.8338476336
 11
-8.6583313373
 21
20.7598316687
  0
LINE
  5
638
100
AcDbEntity
  8
ASSI
100
AcDbLine
 62
7
  6
CONTINUOUS
 10
-8.8488613596
 20
20.9260861384
 11
-8.888737052
 21
20.85317364
  0
LINE
  5
639
100
AcDbEntity
  8
ASSI
100
AcDbLine
 62
7
  6
CONTINUOUS
 10
-8.5794622427
 20
20.9051964998
 11
-8.6198531808
 21
20.8338476336
  0
LINE
  5
63A
100
AcDbEntity
  8
ASSI
100
AcDbLine
 62
7
  6
CONTINUOUS
 10
8.9054145467
 20
-21.3148697686
 11
8.9519778571
 21
-21.3048167949
  0
LINE
  5
63B
100
AcDbEntity
  8
ASSI
100
AcDbLine
 62
7
  6
CONTINUOUS
 10
9.08566911
 20
-21.8594196538
 11
9.147533834
 21
-21.8468854074
  0
LINE
  5
63C
100
AcDbEntity
  8
SIMBOLI
100
AcDbLine
 62
7
  6
CONTINUOUS
 10
2.1581488199
 20
-12.3111596741
 11
2.1442121141
 21
-12.3134218495
  0
LINE
  5
63D
100
AcDbEntity
  8
SIMBOLI
100
AcDbLine
 62
7
  6
CONTINUOUS
 10
0.961322756
 20
-11.9056200748
 11
0.9474855173
 21
-11.9077993623
  0
LINE
  5
63E
100
AcDbEntity
  8
SIMBOLI
100
AcDbLine
 62
7
  6
CONTINUOUS
 10
0.384181745
 20
-10.4121905537
 11
0.3976312602
 21
-10.4101569247
  0
LINE
  5
63F
100
AcDbEntity
  8
SIMBOLI
100
AcDbLine
 62
7
  6
CONTINUOUS
 10
1.7035583227
 20
-11.0186305226
 11
1.696961259
 21
-11.0196087928
  0
LINE
  5
640
100
AcDbEntity
  8
SIMBOLI
100
AcDbLine
 62
7
  6
CONTINUOUS
 10
0.509507374
 20
-10.6107536583
 11
0.5029587103
 21
-10.6116923267
  0
LINE
  5
641
100
AcDbEntity
  8
SIMBOLI
100
AcDbLine
 62
7
  6
CONTINUOUS
 10
-2.7194752805
 20
-10.0480323098
 11
-2.7276817073
 21
-10.0491566762
  0
LINE
  5
642
100
AcDbEntity
  8
SIMBOLI
100
AcDbLine
 62
7
  6
CONTINUOUS
 10
2.1442121141
 20
-12.3134218495
 11
2.1297687828
 21
-12.3151973279
  0
LINE
  5
643
100
AcDbEntity
  8
SIMBOLI
100
AcDbLine
 62
7
  6
CONTINUOUS
 10
0.9474855173
 20
-11.9077993623
 11
0.9331451045
 21
-11.909489156
  0
LINE
  5
644
100
AcDbEntity
  8
SIMBOLI
100
AcDbLine
 62
7
  6
CONTINUOUS
 10
1.5908946026
 20
-10.818666013
 11
1.6049589948
 21
-10.8170456261
  0
LINE
  5
645
100
AcDbEntity
  8
SIMBOLI
100
AcDbLine
 62
7
  6
CONTINUOUS
 10
-2.7276817073
 20
-10.0491566762
 11
-2.7359280513
 21
-10.050101099
  0
LINE
  5
646
100
AcDbEntity
  8
SIMBOLI
100
AcDbLine
 62
7
  6
CONTINUOUS
 10
1.9792658555
 20
-12.1112418528
 11
2.0730669596
 21
-12.1005594135
  0
LINE
  5
647
100
AcDbEntity
  8
SIMBOLI
100
AcDbLine
 62
7
  6
CONTINUOUS
 10
1.7103962045
 20
-11.017864172
 11
1.7035583227
 21
-11.0186305226
  0
LINE
  5
648
100
AcDbEntity
  8
SIMBOLI
100
AcDbLine
 62
7
  6
CONTINUOUS
 10
0.3976312602
 20
-10.4101569247
 11
0.411597567
 21
-10.4086222951
  0
LINE
  5
649
100
AcDbEntity
  8
SIMBOLI
100
AcDbLine
 62
7
  6
CONTINUOUS
 10
0.7836225357
 20
-11.7047077148
 11
0.8767581828
 21
-11.6945833748
  0
LINE
  5
64A
100
AcDbEntity
  8
SIMBOLI
100
AcDbLine
 62
7
  6
CONTINUOUS
 10
0.5162952362
 20
-10.6100282494
 11
0.509507374
 21
-10.6107536583
  0
LINE
  5
64B
100
AcDbEntity
  8
SIMBOLI
100
AcDbLine
 62
7
  6
CONTINUOUS
 10
-2.7359280513
 20
-10.050101099
 11
-2.7442134153
 21
-10.0508660514
  0
LINE
  5
64C
100
AcDbEntity
  8
ASSI
100
AcDbLine
 62
7
  6
CONTINUOUS
 10
8.7595686892
 20
13.6044495928
 11
8.8087426648
 21
13.6042758924
  0
LINE
  5
64D
100
AcDbEntity
  8
ASSI
100
AcDbLine
 62
7
  6
CONTINUOUS
 10
8.7104705139
 20
13.6071146718
 11
8.7595686892
 21
13.6044495928
  0
LINE
  5
64E
100
AcDbEntity
  8
ASSI
100
AcDbLine
 62
7
  6
CONTINUOUS
 10
-8.349421187
 20
21.3215912142
 11
-8.3923139193
 21
21.3247578407
  0
LINE
  5
64F
100
AcDbEntity
  8
SIMBOLI
100
AcDbLine
 62
7
  6
CONTINUOUS
 10
1.1474607587
 20
-11.7640044203
 11
1.1423943765
 21
-11.7756356669
  0
LINE
  5
650
100
AcDbEntity
  8
SIMBOLI
100
AcDbLine
 62
7
  6
CONTINUOUS
 10
2.3456676307
 20
-12.1683879882
 11
2.34056054
 21
-12.1800536
  0
LINE
  5
651
100
AcDbEntity
  8
ASSI
100
AcDbLine
 62
7
  6
CONTINUOUS
 10
9.2879341623
 20
14.1715446206
 11
9.3083305257
 21
14.2173146353
  0
LINE
  5
652
100
AcDbEntity
  8
ASSI
100
AcDbLine
 62
7
  6
CONTINUOUS
 10
8.7312943489
 20
14.520081926
 11
8.7661682438
 21
14.5969129609
  0
LINE
  5
653
100
AcDbEntity
  8
SIMBOLI
100
AcDbLine
 62
7
  6
CONTINUOUS
 10
-2.5416659642
 20
-9.913594519
 11
-2.5445541249
 21
-9.9198312387
  0
LINE
  5
654
100
AcDbEntity
  8
ASSI
100
AcDbLine
 62
7
  6
CONTINUOUS
 10
9.3083305257
 20
14.2173146353
 11
9.3299932829
 21
14.261737223
  0
LINE
  5
655
100
AcDbEntity
  8
SIMBOLI
100
AcDbLine
 62
7
  6
CONTINUOUS
 10
0.1927276832
 20
-10.5828425216
 11
0.234436097
 21
-10.4973333765
  0
LINE
  5
656
100
AcDbEntity
  8
ASSI
100
AcDbLine
 62
7
  6
CONTINUOUS
 10
8.7661682438
 20
14.5969129609
 11
8.8030908235
 21
14.6714791211
  0
LINE
  5
657
100
AcDbEntity
  8
SIMBOLI
100
AcDbLine
 62
7
  6
CONTINUOUS
 10
-2.5445541249
 20
-9.9198312387
 11
-2.5481721772
 21
-9.9270879648
  0
LINE
  5
658
100
AcDbEntity
  8
ASSI
100
AcDbLine
 62
7
  6
CONTINUOUS
 10
-8.8059825747
 20
20.9964676817
 11
-8.8488613596
 21
20.9260861384
  0
LINE
  5
659
100
AcDbEntity
  8
ASSI
100
AcDbLine
 62
7
  6
CONTINUOUS
 10
-8.5373340821
 20
20.973494483
 11
-8.5794622427
 21
20.9051964998
  0
LINE
  5
65A
100
AcDbEntity
  8
ASSI
100
AcDbLine
 62
7
  6
CONTINUOUS
 10
-8.4937047785
 20
21.0383954286
 11
-8.5373340821
 21
20.973494483
  0
LINE
  5
65B
100
AcDbEntity
  8
ASSI
100
AcDbLine
 62
7
  6
CONTINUOUS
 10
-8.7600639822
 20
21.0639834738
 11
-8.8059825747
 21
20.9964676817
  0
LINE
  5
65C
100
AcDbEntity
  8
ASSI
100
AcDbLine
 62
7
  6
CONTINUOUS
 10
8.9519778571
 20
-21.3048167949
 11
8.9967526281
 21
-21.2922154416
  0
LINE
  5
65D
100
AcDbEntity
  8
ASSI
100
AcDbLine
 62
7
  6
CONTINUOUS
 10
9.4552280775
 20
-21.5112783729
 11
9.4283000792
 21
-21.5182319658
  0
LINE
  5
65E
100
AcDbEntity
  8
SIMBOLI
100
AcDbLine
 62
7
  6
CONTINUOUS
 10
2.1716005131
 20
-12.3084269287
 11
2.1581488199
 21
-12.3111596741
  0
LINE
  5
65F
100
AcDbEntity
  8
SIMBOLI
100
AcDbLine
 62
7
  6
CONTINUOUS
 10
1.5643252838
 20
-10.8233720917
 11
1.5773508086
 21
-10.8207821376
  0
LINE
  5
660
100
AcDbEntity
  8
SIMBOLI
100
AcDbLine
 62
7
  6
CONTINUOUS
 10
0.9746782745
 20
-11.9029675362
 11
0.961322756
 21
-11.9056200748
  0
LINE
  5
661
100
AcDbEntity
  8
SIMBOLI
100
AcDbLine
 62
7
  6
CONTINUOUS
 10
0.3712467263
 20
-10.4147012943
 11
0.384181745
 21
-10.4121905537
  0
LINE
  5
662
100
AcDbEntity
  8
SIMBOLI
100
AcDbLine
 62
7
  6
CONTINUOUS
 10
1.696961259
 20
-11.0196087928
 11
1.6905993753
 21
-11.020788953
  0
LINE
  5
663
100
AcDbEntity
  8
SIMBOLI
100
AcDbLine
 62
7
  6
CONTINUOUS
 10
0.5029587103
 20
-10.6116923267
 11
0.4966436382
 21
-10.6128341902
  0
LINE
  5
664
100
AcDbEntity
  8
SIMBOLI
100
AcDbLine
 62
7
  6
CONTINUOUS
 10
1.5773508086
 20
-10.8207821376
 11
1.5908946026
 21
-10.818666013
  0
LINE
  5
665
100
AcDbEntity
  8
ASSI
100
AcDbLine
 62
7
  6
CONTINUOUS
 10
8.8087426648
 20
13.6042758924
 11
8.857515994
 21
13.6065952533
  0
LINE
  5
666
100
AcDbEntity
  8
ASSI
100
AcDbLine
 62
7
  6
CONTINUOUS
 10
9.5283251859
 20
-21.6103892782
 11
9.5444925076
 21
-21.5746487707
  0
LINE
  5
667
100
AcDbEntity
  8
SIMBOLI
100
AcDbLine
 62
7
  6
CONTINUOUS
 10
1.3844981765
 20
-10.9926256851
 11
1.4265290284
 21
-10.9068451207
  0
LINE
  5
668
100
AcDbEntity
  8
SIMBOLI
100
AcDbLine
 62
7
  6
CONTINUOUS
 10
0.4210487932
 20
-10.6568747056
 11
0.3987606163
 21
-10.7017578309
  0
LINE
  5
669
100
AcDbEntity
  8
SIMBOLI
100
AcDbLine
 62
7
  6
CONTINUOUS
 10
1.1423943765
 20
-11.7756356669
 11
1.1367984707
 21
-11.786861871
  0
LINE
  5
66A
100
AcDbEntity
  8
SIMBOLI
100
AcDbLine
 62
7
  6
CONTINUOUS
 10
1.6144399924
 20
-11.0652976308
 11
1.5919784913
 21
-11.110326118
  0
LINE
  5
66B
100
AcDbEntity
  8
SIMBOLI
100
AcDbLine
 62
7
  6
CONTINUOUS
 10
2.34056054
 20
-12.1800536
 11
2.3349202853
 21
-12.1913172049
  0
LINE
  5
66C
100
AcDbEntity
  8
ASSI
100
AcDbLine
 62
7
  6
CONTINUOUS
 10
9.3299932829
 20
14.261737223
 11
9.3529419609
 21
14.304790041
  0
LINE
  5
66D
100
AcDbEntity
  8
ASSI
100
AcDbLine
 62
7
  6
CONTINUOUS
 10
8.8030908235
 20
14.6714791211
 11
8.8418867885
 21
14.7433921168
  0
LINE
  5
66E
100
AcDbEntity
  8
SIMBOLI
100
AcDbLine
 62
7
  6
CONTINUOUS
 10
-2.5481721772
 20
-9.9270879648
 11
-2.5519608055
 21
-9.9341078769
  0
LINE
  5
66F
100
AcDbEntity
  8
ASSI
100
AcDbLine
 62
7
  6
CONTINUOUS
 10
9.3529419609
 20
14.304790041
 11
9.3771570327
 21
14.3464954318
  0
LINE
  5
670
100
AcDbEntity
  8
SIMBOLI
100
AcDbLine
 62
7
  6
CONTINUOUS
 10
-2.5519608055
 20
-9.9341078769
 11
-2.5559265898
 21
-9.940904717
  0
LINE
  5
671
100
AcDbEntity
  8
ASSI
100
AcDbLine
 62
7
  6
CONTINUOUS
 10
8.8418867885
 20
14.7433921168
 11
8.8823197919
 21
14.8122896637
  0
LINE
  5
672
100
AcDbEntity
  8
ASSI
100
AcDbLine
 62
7
  6
CONTINUOUS
 10
-8.4488109463
 20
21.0995768475
 11
-8.4937047785
 21
21.0383954286
  0
LINE
  5
673
100
AcDbEntity
  8
ASSI
100
AcDbLine
 62
7
  6
CONTINUOUS
 10
-8.7108533584
 20
21.1285187503
 11
-8.7600639822
 21
21.0639834738
  0
LINE
  5
674
100
AcDbEntity
  8
SIMBOLI
100
AcDbLine
 62
7
  6
CONTINUOUS
 10
1.6844670333
 20
-11.0221609737
 11
1.6785585948
 21
-11.023714825
  0
LINE
  5
675
100
AcDbEntity
  8
SIMBOLI
100
AcDbLine
 62
7
  6
CONTINUOUS
 10
0.4905565508
 20
-10.6141691841
 11
0.4846918412
 21
-10.6156872439
  0
LINE
  5
676
100
AcDbEntity
  8
SIMBOLI
100
AcDbLine
 62
7
  6
CONTINUOUS
 10
2.1845809103
 20
-12.3052352358
 11
2.1716005131
 21
-12.3084269287
  0
LINE
  5
677
100
AcDbEntity
  8
SIMBOLI
100
AcDbLine
 62
7
  6
CONTINUOUS
 10
1.5518080262
 20
-10.8264129782
 11
1.5643252838
 21
-10.8233720917
  0
LINE
  5
678
100
AcDbEntity
  8
SIMBOLI
100
AcDbLine
 62
7
  6
CONTINUOUS
 10
0.9875656914
 20
-11.8998534401
 11
0.9746782745
 21
-11.9029675362
  0
LINE
  5
679
100
AcDbEntity
  8
SIMBOLI
100
AcDbLine
 62
7
  6
CONTINUOUS
 10
0.3588162986
 20
-10.4176662225
 11
0.3712467263
 21
-10.4147012943
  0
LINE
  5
67A
100
AcDbEntity
  8
SIMBOLI
100
AcDbLine
 62
7
  6
CONTINUOUS
 10
1.6905993753
 20
-11.020788953
 11
1.6844670333
 21
-11.0221609737
  0
LINE
  5
67B
100
AcDbEntity
  8
SIMBOLI
100
AcDbLine
 62
7
  6
CONTINUOUS
 10
-2.7916870243
 20
-9.8215895728
 11
-2.8695193757
 21
-9.8388968505
  0
LINE
  5
67C
100
AcDbEntity
  8
SIMBOLI
100
AcDbLine
 62
7
  6
CONTINUOUS
 10
0.4966436382
 20
-10.6128341902
 11
0.4905565508
 21
-10.6141691841
  0
LINE
  5
67D
100
AcDbEntity
  8
SIMBOLI
100
AcDbLine
 62
7
  6
CONTINUOUS
 10
-1.5433789383
 20
-10.2529704545
 11
-1.6190596041
 21
-10.2692536195
  0
LINE
  5
67E
100
AcDbEntity
  8
ASSI
100
AcDbLine
 62
7
  6
CONTINUOUS
 10
8.857515994
 20
13.6065952533
 11
8.9054161116
 21
13.6113852034
  0
LINE
  5
67F
100
AcDbEntity
  8
ASSI
100
AcDbLine
 62
7
  6
CONTINUOUS
 10
-8.3923139193
 20
21.3247578407
 11
-8.4336908549
 21
21.3231421077
  0
LINE
  5
680
100
AcDbEntity
  8
SIMBOLI
100
AcDbLine
 62
7
  6
CONTINUOUS
 10
1.1367984707
 20
-11.786861871
 11
1.1306918415
 21
-11.7976508025
  0
LINE
  5
681
100
AcDbEntity
  8
SIMBOLI
100
AcDbLine
 62
7
  6
CONTINUOUS
 10
2.3349202853
 20
-12.1913172049
 11
2.328765825
 21
-12.202146427
  0
LINE
  5
682
100
AcDbEntity
  8
SIMBOLI
100
AcDbLine
 62
7
  6
CONTINUOUS
 10
-2.5559265898
 20
-9.940904717
 11
-2.56007611
 21
-9.9474922272
  0
LINE
  5
683
100
AcDbEntity
  8
ASSI
100
AcDbLine
 62
7
  6
CONTINUOUS
 10
9.3771570327
 20
14.3464954318
 11
9.4022675065
 21
14.3862139766
  0
LINE
  5
684
100
AcDbEntity
  8
ASSI
100
AcDbLine
 62
7
  6
CONTINUOUS
 10
8.8823197919
 20
14.8122896637
 11
8.9242009621
 21
14.8778089096
  0
LINE
  5
685
100
AcDbEntity
  8
SIMBOLI
100
AcDbLine
 62
7
  6
CONTINUOUS
 10
1.1306918415
 20
-11.7976508025
 11
1.1240932885
 21
-11.8079702315
  0
LINE
  5
686
100
AcDbEntity
  8
SIMBOLI
100
AcDbLine
 62
7
  6
CONTINUOUS
 10
-1.2819668081
 20
-10.3182953237
 11
-1.3388354326
 21
-10.4059794688
  0
LINE
  5
687
100
AcDbEntity
  8
ASSI
100
AcDbLine
 62
7
  6
CONTINUOUS
 10
9.4022675065
 20
14.3862139766
 11
9.4283001027
 21
14.423925668
  0
LINE
  5
688
100
AcDbEntity
  8
ASSI
100
AcDbLine
 62
7
  6
CONTINUOUS
 10
8.9242009621
 20
14.8778089096
 11
8.9673358396
 21
14.9396124561
  0
LINE
  5
689
100
AcDbEntity
  8
ASSI
100
AcDbLine
 62
7
  6
CONTINUOUS
 10
-8.402841603
 20
21.1567159565
 11
-8.4488109463
 21
21.0995768475
  0
LINE
  5
68A
100
AcDbEntity
  8
ASSI
100
AcDbLine
 62
7
  6
CONTINUOUS
 10
-8.6579733651
 20
21.1898884608
 11
-8.7108533584
 21
21.1285187503
  0
LINE
  5
68B
100
AcDbEntity
  8
ASSI
100
AcDbLine
 62
7
  6
CONTINUOUS
 10
-8.3560305548
 20
21.2095199912
 11
-8.402841603
 21
21.1567159565
  0
LINE
  5
68C
100
AcDbEntity
  8
ASSI
100
AcDbLine
 62
7
  6
CONTINUOUS
 10
8.9054161116
 20
13.6113852034
 11
8.9519789131
 21
13.6185993328
  0
LINE
  5
68D
100
AcDbEntity
  8
ASSI
100
AcDbLine
 62
7
  6
CONTINUOUS
 10
9.5080697819
 20
-21.6426955547
 11
9.5283251859
 21
-21.6103892782
  0
LINE
  5
68E
100
AcDbEntity
  8
SIMBOLI
100
AcDbLine
 62
7
  6
CONTINUOUS
 10
2.328765825
 20
-12.202146427
 11
2.3221161173
 21
-12.2125088905
  0
LINE
  5
68F
100
AcDbEntity
  8
SIMBOLI
100
AcDbLine
 62
7
  6
CONTINUOUS
 10
-2.56007611
 20
-9.9474922272
 11
-2.5644159457
 21
-9.9538841494
  0
LINE
  5
690
100
AcDbEntity
  8
SIMBOLI
100
AcDbLine
 62
7
  6
CONTINUOUS
 10
1.1240932885
 20
-11.8079702315
 11
1.1170216119
 21
-11.8177879277
  0
LINE
  5
691
100
AcDbEntity
  8
ASSI
100
AcDbLine
 62
7
  6
CONTINUOUS
 10
9.4283001027
 20
14.423925668
 11
9.4552281009
 21
14.4596505133
  0
LINE
  5
692
100
AcDbEntity
  8
ASSI
100
AcDbLine
 62
7
  6
CONTINUOUS
 10
8.9673358396
 20
14.9396124561
 11
9.0114696925
 21
14.9974007641
  0
LINE
  5
693
100
AcDbEntity
  8
ASSI
100
AcDbLine
 62
7
  6
CONTINUOUS
 10
-8.3086554506
 20
21.2577290536
 11
-8.3560305548
 21
21.2095199912
  0
LINE
  5
694
100
AcDbEntity
  8
ASSI
100
AcDbLine
 62
7
  6
CONTINUOUS
 10
-8.6011980094
 20
21.2475914259
 11
-8.6579733651
 21
21.1898884608
  0
LINE
  5
695
100
AcDbEntity
  8
ASSI
100
AcDbLine
 62
7
  6
CONTINUOUS
 10
8.9967532513
 20
13.6281677438
 11
9.0393053074
 21
13.6399977279
  0
LINE
  5
696
100
AcDbEntity
  8
ASSI
100
AcDbLine
 62
7
  6
CONTINUOUS
 10
8.9519789131
 20
13.6185993328
 11
8.9967532513
 21
13.6281677438
  0
LINE
  5
697
100
AcDbEntity
  8
ASSI
100
AcDbLine
 62
7
  6
CONTINUOUS
 10
-8.4336908549
 20
21.3231421077
 11
-8.473099039
 21
21.3167617197
  0
LINE
  5
698
100
AcDbEntity
  8
SIMBOLI
100
AcDbLine
 62
7
  6
CONTINUOUS
 10
2.3221161173
 20
-12.2125088905
 11
2.3149901206
 21
-12.2223722193
  0
LINE
  5
699
100
AcDbEntity
  8
SIMBOLI
100
AcDbLine
 62
7
  6
CONTINUOUS
 10
1.1170216119
 20
-11.8177879277
 11
1.1094952958
 21
-11.8270779917
  0
LINE
  5
69A
100
AcDbEntity
  8
ASSI
100
AcDbLine
 62
7
  6
CONTINUOUS
 10
9.4552281009
 20
14.4596505133
 11
9.4826003469
 21
14.4928091146
  0
LINE
  5
69B
100
AcDbEntity
  8
ASSI
100
AcDbLine
 62
7
  6
CONTINUOUS
 10
9.0114696925
 20
14.9974007641
 11
9.0563792548
 21
15.0508773414
  0
LINE
  5
69C
100
AcDbEntity
  8
ASSI
100
AcDbLine
 62
7
  6
CONTINUOUS
 10
9.4826003469
 20
14.4928091146
 11
9.5102664561
 21
14.5232083394
  0
LINE
  5
69D
100
AcDbEntity
  8
ASSI
100
AcDbLine
 62
7
  6
CONTINUOUS
 10
9.0563792548
 20
15.0508773414
 11
9.1018733122
 21
15.099751718
  0
LINE
  5
69E
100
AcDbEntity
  8
ASSI
100
AcDbLine
 62
7
  6
CONTINUOUS
 10
-6.1683572586
 20
23.5121124137
 11
-8.6011980094
 21
21.2475914259
  0
LINE
  5
69F
100
AcDbEntity
  8
ASSI
100
AcDbLine
 62
7
  6
CONTINUOUS
 10
-5.8375363895
 20
23.5568096704
 11
-8.2609778803
 21
21.3011014604
  0
LINE
  5
6A0
100
AcDbEntity
  8
ASSI
100
AcDbLine
 62
7
  6
CONTINUOUS
 10
-8.5939579805
 20
21.2543928396
 11
-8.5945102153
 21
21.253880406
  0
LINE
  5
6A1
100
AcDbEntity
  8
ASSI
100
AcDbLine
 62
7
  6
CONTINUOUS
 10
-8.2609778982
 20
21.3011014437
 11
-8.3086554506
 21
21.2577290536
  0
LINE
  5
6A2
100
AcDbEntity
  8
SIMBOLI
100
AcDbLine
 62
7
  6
CONTINUOUS
 10
2.3149901206
 20
-12.2223722193
 11
2.3074064722
 21
-12.2317103773
  0
LINE
  5
6A3
100
AcDbEntity
  8
SIMBOLI
100
AcDbLine
 62
7
  6
CONTINUOUS
 10
-2.7426378156
 20
-9.766673315
 11
-2.7916870243
 21
-9.8215895728
  0
LINE
  5
6A4
100
AcDbEntity
  8
SIMBOLI
100
AcDbLine
 62
7
  6
CONTINUOUS
 10
1.1094952958
 20
-11.8270779917
 11
1.1015315624
 21
-11.8358398456
  0
LINE
  5
6A5
100
AcDbEntity
  8
SIMBOLI
100
AcDbLine
 62
7
  6
CONTINUOUS
 10
-1.4952561654
 20
-10.2016986695
 11
-1.5433789383
 21
-10.2529704545
  0
LINE
  5
6A6
100
AcDbEntity
  8
ASSI
100
AcDbLine
 62
7
  6
CONTINUOUS
 10
9.5102664561
 20
14.5232083394
 11
9.5383768132
 21
14.5510413202
  0
LINE
  5
6A7
100
AcDbEntity
  8
ASSI
100
AcDbLine
 62
7
  6
CONTINUOUS
 10
9.1018733122
 20
15.099751718
 11
9.1477398299
 21
15.1437646603
  0
LINE
  5
6A8
100
AcDbEntity
  8
ASSI
100
AcDbLine
 62
7
  6
CONTINUOUS
 10
-8.5753328528
 20
21.2699870358
 11
-8.5939579805
 21
21.2543928396
  0
LINE
  5
6A9
100
AcDbEntity
  8
ASSI
100
AcDbLine
 62
7
  6
CONTINUOUS
 10
9.4839479864
 20
-21.6712139409
 11
9.5080697819
 21
-21.6426955547
  0
LINE
  5
6AA
100
AcDbEntity
  8
SIMBOLI
100
AcDbLine
 62
7
  6
CONTINUOUS
 10
2.3074064722
 20
-12.2317103773
 11
2.2993825241
 21
-12.2405226868
  0
LINE
  5
6AB
100
AcDbEntity
  8
SIMBOLI
100
AcDbLine
 62
7
  6
CONTINUOUS
 10
1.1015315624
 20
-11.8358398456
 11
1.0931473181
 21
-11.8440792422
  0
LINE
  5
6AC
100
AcDbEntity
  8
SIMBOLI
100
AcDbLine
 62
7
  6
CONTINUOUS
 10
-2.5644159457
 20
-9.9538841494
 11
-2.6297370824
 21
-10.0157803838
  0
LINE
  5
6AD
100
AcDbEntity
  8
ASSI
100
AcDbLine
 62
7
  6
CONTINUOUS
 10
9.5383768132
 20
14.5510413202
 11
9.5669314181
 21
14.576308057
  0
LINE
  5
6AE
100
AcDbEntity
  8
ASSI
100
AcDbLine
 62
7
  6
CONTINUOUS
 10
9.1477398299
 20
15.1437646603
 11
11.7748329288
 21
17.3274427744
  0
LINE
  5
6AF
100
AcDbEntity
  8
SIMBOLI
100
AcDbLine
 62
7
  6
CONTINUOUS
 10
2.2993825241
 20
-12.2405226868
 11
2.290935307
 21
-12.2488148101
  0
LINE
  5
6B0
100
AcDbEntity
  8
SIMBOLI
100
AcDbLine
 62
7
  6
CONTINUOUS
 10
1.0931473181
 20
-11.8440792422
 11
1.0843594693
 21
-11.8518019341
  0
LINE
  5
6B1
100
AcDbEntity
  8
ASSI
100
AcDbLine
 62
7
  6
CONTINUOUS
 10
9.5669314181
 20
14.576308057
 11
12.1940245171
 21
16.7599861711
  0
LINE
  5
6B2
100
AcDbEntity
  8
ASSI
100
AcDbLine
 62
7
  6
CONTINUOUS
 10
-8.5443097819
 20
21.290037882
 11
-8.5753328528
 21
21.2699870358
  0
LINE
  5
6B3
100
AcDbEntity
  8
SIMBOLI
100
AcDbLine
 62
7
  6
CONTINUOUS
 10
2.290935307
 20
-12.2488148101
 11
2.282081852
 21
-12.256592409
  0
LINE
  5
6B4
100
AcDbEntity
  8
SIMBOLI
100
AcDbLine
 62
7
  6
CONTINUOUS
 10
0.234436097
 20
-10.4973333765
 11
0.3035495334
 21
-10.4388976079
  0
LINE
  5
6B5
100
AcDbEntity
  8
SIMBOLI
100
AcDbLine
 62
7
  6
CONTINUOUS
 10
1.4265290284
 20
-10.9068451207
 11
1.4961564066
 21
-10.8479783242
  0
LINE
  5
6B6
100
AcDbEntity
  8
SIMBOLI
100
AcDbLine
 62
7
  6
CONTINUOUS
 10
1.6519381014
 20
-11.0341680917
 11
1.6144399924
 21
-11.0652976308
  0
LINE
  5
6B7
100
AcDbEntity
  8
SIMBOLI
100
AcDbLine
 62
7
  6
CONTINUOUS
 10
0.4582700851
 20
-10.6259773249
 11
0.4210487932
 21
-10.6568747056
  0
LINE
  5
6B8
100
AcDbEntity
  8
SIMBOLI
100
AcDbLine
 62
7
  6
CONTINUOUS
 10
0.8767581828
 20
-11.6945833748
 11
0.9346416855
 21
-11.6470580465
  0
LINE
  5
6B9
100
AcDbEntity
  8
SIMBOLI
100
AcDbLine
 62
7
  6
CONTINUOUS
 10
2.0730669596
 20
-12.1005594135
 11
2.1313804271
 21
-12.0526744864
  0
LINE
  5
6BA
100
AcDbEntity
  8
SIMBOLI
100
AcDbLine
 62
7
  6
CONTINUOUS
 10
1.0843594693
 20
-11.8518019341
 11
1.0751849225
 21
-11.8590136739
  0
LINE
  5
6BB
100
AcDbEntity
  8
ASSI
100
AcDbLine
 62
7
  6
CONTINUOUS
 10
9.1496362905
 20
13.6878082144
 11
9.1794500634
 21
13.7073370144
  0
LINE
  5
6BC
100
AcDbEntity
  8
ASSI
100
AcDbLine
 62
7
  6
CONTINUOUS
 10
9.4558117309
 20
-21.6959434888
 11
9.4839479864
 21
-21.6712139409
  0
LINE
  5
6BD
100
AcDbEntity
  8
SIMBOLI
100
AcDbLine
 62
7
  6
CONTINUOUS
 10
2.282081852
 20
-12.256592409
 11
2.2728391897
 21
-12.2638611458
  0
LINE
  5
6BE
100
AcDbEntity
  8
ASSI
100
AcDbLine
 62
7
  6
CONTINUOUS
 10
-8.5101070506
 20
21.3056865536
 11
-8.5443097819
 21
21.290037882
  0
LINE
  5
6BF
100
AcDbEntity
  8
ASSI
100
AcDbLine
 62
7
  6
CONTINUOUS
 10
9.1496363949
 20
-21.2191121263
 11
9.1794500514
 21
-21.1960480755
  0
LINE
  5
6C0
100
AcDbEntity
  8
ASSI
100
AcDbLine
 62
7
  6
CONTINUOUS
 10
12.1940245171
 20
-19.4708697556
 11
9.5669313955
 21
-21.4508962758
  0
LINE
  5
6C1
100
AcDbEntity
  8
ASSI
100
AcDbLine
 62
7
  6
CONTINUOUS
 10
12.085844048
 20
-19.7137017122
 11
9.4558116566
 21
-21.6959435449
  0
LINE
  5
6C2
100
AcDbEntity
  8
SIMBOLI
100
AcDbLine
 62
7
  6
CONTINUOUS
 10
2.2728391897
 20
-12.2638611458
 11
2.2607555456
 21
-12.2722438766
  0
LINE
  5
6C3
100
AcDbEntity
  8
SIMBOLI
100
AcDbLine
 62
7
  6
CONTINUOUS
 10
1.0751849225
 20
-11.8590136739
 11
1.0631898334
 21
-11.8673223041
  0
LINE
  5
6C4
100
AcDbEntity
  8
SIMBOLI
100
AcDbLine
 62
7
  6
CONTINUOUS
 10
2.300909654
 20
-11.1650627252
 11
2.1619501229
 21
-11.253017728
  0
LINE
  5
6C5
100
AcDbEntity
  8
SIMBOLI
100
AcDbLine
 62
7
  6
CONTINUOUS
 10
1.1026478778
 20
-10.7607246096
 11
0.9647109292
 21
-10.8478220026
  0
LINE
  5
6C6
100
AcDbEntity
  8
SIMBOLI
100
AcDbLine
 62
7
  6
CONTINUOUS
 10
1.3382855353
 20
-11.9143538803
 11
1.4822089507
 21
-11.8237044982
  0
LINE
  5
6C7
100
AcDbEntity
  8
SIMBOLI
100
AcDbLine
 62
7
  6
CONTINUOUS
 10
0.1470992143
 20
-11.5040817887
 11
0.2899801425
 21
-11.4143067099
  0
LINE
  5
6C8
100
AcDbEntity
  8
ASSI
100
AcDbLine
 62
7
  6
CONTINUOUS
 10
9.1161189509
 20
13.6699631307
 11
9.1496362905
 21
13.6878082144
  0
LINE
  5
6C9
100
AcDbEntity
  8
ASSI
100
AcDbLine
 62
7
  6
CONTINUOUS
 10
9.5669313955
 20
-21.4508962758
 11
9.5383767903
 21
-21.4708860015
  0
LINE
  5
6CA
100
AcDbEntity
  8
ASSI
100
AcDbLine
 62
7
  6
CONTINUOUS
 10
9.3933025203
 20
-21.7394118779
 11
9.4555366582
 21
-21.6961419827
  0
LINE
  5
6CB
100
AcDbEntity
  8
ASSI
100
AcDbLine
 62
7
  6
CONTINUOUS
 10
9.1161190445
 20
-21.2404582077
 11
9.1496363949
 21
-21.2191121263
  0
LINE
  5
6CC
100
AcDbEntity
  8
SIMBOLI
100
AcDbLine
 62
7
  6
CONTINUOUS
 10
2.2607555456
 20
-12.2722438766
 11
2.2480700051
 21
-12.2798740439
  0
LINE
  5
6CD
100
AcDbEntity
  8
SIMBOLI
100
AcDbLine
 62
7
  6
CONTINUOUS
 10
1.0631898334
 20
-11.8673223041
 11
1.0505967609
 21
-11.8748751024
  0
LINE
  5
6CE
100
AcDbEntity
  8
SIMBOLI
100
AcDbLine
 62
7
  6
CONTINUOUS
 10
-1.3388354326
 20
-10.4059794688
 11
-1.427632389
 21
-10.4548458484
  0
LINE
  5
6CF
100
AcDbEntity
  8
ASSI
100
AcDbLine
 62
7
  6
CONTINUOUS
 10
9.0792227941
 20
13.6539746644
 11
9.1161189509
 21
13.6699631307
  0
LINE
  5
6D0
100
AcDbEntity
  8
ASSI
100
AcDbLine
 62
7
  6
CONTINUOUS
 10
9.5383767903
 20
-21.4708860015
 11
9.5102664331
 21
-21.4876053907
  0
LINE
  5
6D1
100
AcDbEntity
  8
ASSI
100
AcDbLine
 62
7
  6
CONTINUOUS
 10
9.3325173834
 20
-21.7750605883
 11
9.3933025203
 21
-21.7394118779
  0
LINE
  5
6D2
100
AcDbEntity
  8
SIMBOLI
100
AcDbLine
 62
7
  6
CONTINUOUS
 10
2.2480700051
 20
-12.2798740439
 11
2.2347621972
 21
-12.2867853346
  0
LINE
  5
6D3
100
AcDbEntity
  8
SIMBOLI
100
AcDbLine
 62
7
  6
CONTINUOUS
 10
1.0505967609
 20
-11.8748751024
 11
1.0373855211
 21
-11.881705611
  0
LINE
  5
6D4
100
AcDbEntity
  8
SIMBOLI
100
AcDbLine
 62
7
  6
CONTINUOUS
 10
1.4961564066
 20
-10.8479783242
 11
1.5064784993
 21
-10.8427959484
  0
LINE
  5
6D5
100
AcDbEntity
  8
SIMBOLI
100
AcDbLine
 62
7
  6
CONTINUOUS
 10
0.3035495334
 20
-10.4388976079
 11
0.3138003012
 21
-10.4337765072
  0
LINE
  5
6D6
100
AcDbEntity
  8
SIMBOLI
100
AcDbLine
 62
7
  6
CONTINUOUS
 10
1.658198799
 20
-11.0311197517
 11
1.6519381014
 21
-11.0341680917
  0
LINE
  5
6D7
100
AcDbEntity
  8
SIMBOLI
100
AcDbLine
 62
7
  6
CONTINUOUS
 10
0.4644837696
 20
-10.62296771
 11
0.4582700851
 21
-10.6259773249
  0
LINE
  5
6D8
100
AcDbEntity
  8
ASSI
100
AcDbLine
 62
7
  6
CONTINUOUS
 10
9.0393053074
 20
13.6399977279
 11
9.0792227941
 21
13.6539746644
  0
LINE
  5
6D9
100
AcDbEntity
  8
ASSI
100
AcDbLine
 62
7
  6
CONTINUOUS
 10
-8.473099039
 20
21.3167617197
 11
-8.5101070506
 21
21.3056865536
  0
LINE
  5
6DA
100
AcDbEntity
  8
ASSI
100
AcDbLine
 62
7
  6
CONTINUOUS
 10
9.0792227568
 20
-21.2598794931
 11
9.1161190445
 21
-21.2404582077
  0
LINE
  5
6DB
100
AcDbEntity
  8
ASSI
100
AcDbLine
 62
7
  6
CONTINUOUS
 10
9.5102664331
 20
-21.4876053907
 11
9.4826003237
 21
-21.5010544433
  0
LINE
  5
6DC
100
AcDbEntity
  8
SIMBOLI
100
AcDbLine
 62
7
  6
CONTINUOUS
 10
2.2347621972
 20
-12.2867853346
 11
2.2208117512
 21
-12.2930114354
  0
LINE
  5
6DD
100
AcDbEntity
  8
SIMBOLI
100
AcDbLine
 62
7
  6
CONTINUOUS
 10
1.0373855211
 20
-11.881705611
 11
1.0235359299
 21
-11.8878473722
  0
LINE
  5
6DE
100
AcDbEntity
  8
SIMBOLI
100
AcDbLine
 62
7
  6
CONTINUOUS
 10
1.5064784993
 20
-10.8427959484
 11
1.5171634288
 21
-10.8380620501
  0
LINE
  5
6DF
100
AcDbEntity
  8
SIMBOLI
100
AcDbLine
 62
7
  6
CONTINUOUS
 10
0.3138003012
 20
-10.4337765072
 11
0.3244114072
 21
-10.4291064258
  0
LINE
  5
6E0
100
AcDbEntity
  8
SIMBOLI
100
AcDbLine
 62
7
  6
CONTINUOUS
 10
1.664700136
 20
-11.0283675919
 11
1.658198799
 21
-11.0311197517
  0
LINE
  5
6E1
100
AcDbEntity
  8
SIMBOLI
100
AcDbLine
 62
7
  6
CONTINUOUS
 10
0.470936471
 20
-10.6202555149
 11
0.4644837696
 21
-10.62296771
  0
LINE
  5
6E2
100
AcDbEntity
  8
ASSI
100
AcDbLine
 62
7
  6
CONTINUOUS
 10
9.2712109503
 20
-21.8047779226
 11
9.3325173834
 21
-21.7750605883
  0
LINE
  5
6E3
100
AcDbEntity
  8
ASSI
100
AcDbLine
 62
7
  6
CONTINUOUS
 10
9.0393050276
 20
-21.2771878057
 11
9.0792227568
 21
-21.2598794931
  0
LINE
  5
6E4
100
AcDbEntity
  8
SIMBOLI
100
AcDbLine
 62
7
  6
CONTINUOUS
 10
1.5171634288
 20
-10.8380620501
 11
1.528253004
 21
-10.8337621828
  0
LINE
  5
6E5
100
AcDbEntity
  8
SIMBOLI
100
AcDbLine
 62
7
  6
CONTINUOUS
 10
2.2208117512
 20
-12.2930114354
 11
2.2091747868
 21
-12.2975169927
  0
LINE
  5
6E6
100
AcDbEntity
  8
SIMBOLI
100
AcDbLine
 62
7
  6
CONTINUOUS
 10
0.3244114072
 20
-10.4291064258
 11
0.3354243321
 21
-10.424873137
  0
LINE
  5
6E7
100
AcDbEntity
  8
SIMBOLI
100
AcDbLine
 62
7
  6
CONTINUOUS
 10
1.0235359299
 20
-11.8878473722
 11
1.0119828594
 21
-11.8922828016
  0
LINE
  5
6E8
100
AcDbEntity
  8
SIMBOLI
100
AcDbLine
 62
7
  6
CONTINUOUS
 10
1.671475579
 20
-11.0259023653
 11
1.664700136
 21
-11.0283675919
  0
LINE
  5
6E9
100
AcDbEntity
  8
SIMBOLI
100
AcDbLine
 62
7
  6
CONTINUOUS
 10
0.4776614184
 20
-10.6178317045
 11
0.470936471
 21
-10.6202555149
  0
LINE
  5
6EA
100
AcDbEntity
  8
SIMBOLI
100
AcDbLine
 62
7
  6
CONTINUOUS
 10
-2.6297370824
 20
-10.0157803838
 11
-2.7194752805
 21
-10.0480323098
  0
LINE
  5
6EB
100
AcDbEntity
  8
SIMBOLI
100
AcDbLine
 62
7
  6
CONTINUOUS
 10
1.528253004
 20
-10.8337621828
 11
1.5397890339
 21
-10.8298818997
  0
LINE
  5
6EC
100
AcDbEntity
  8
SIMBOLI
100
AcDbLine
 62
7
  6
CONTINUOUS
 10
0.3354243321
 20
-10.424873137
 11
0.3468805566
 21
-10.4210624142
  0
LINE
  5
6ED
100
AcDbEntity
  8
ASSI
100
AcDbLine
 62
7
  6
CONTINUOUS
 10
9.2094905376
 20
-21.8286887621
 11
9.2712109503
 21
-21.8047779226
  0
LINE
  5
6EE
100
AcDbEntity
  8
ASSI
100
AcDbLine
 62
7
  6
CONTINUOUS
 10
9.4826003237
 20
-21.5010544433
 11
9.4552280775
 21
-21.5112783729
  0
LINE
  5
6EF
100
AcDbEntity
  8
ASSI
100
AcDbLine
 62
7
  6
CONTINUOUS
 10
8.9967526281
 20
-21.2922154416
 11
9.0393050276
 21
-21.2771878057
  0
LINE
  5
6F0
100
AcDbEntity
  8
SIMBOLI
100
AcDbLine
 62
7
  6
CONTINUOUS
 10
2.2091747868
 20
-12.2975169927
 11
2.197101754
 21
-12.3015950916
  0
LINE
  5
6F1
100
AcDbEntity
  8
SIMBOLI
100
AcDbLine
 62
7
  6
CONTINUOUS
 10
1.0119828594
 20
-11.8922828016
 11
0.9999966665
 21
-11.896288343
  0
LINE
  5
6F2
100
AcDbEntity
  8
SIMBOLI
100
AcDbLine
 62
7
  6
CONTINUOUS
 10
1.6785585948
 20
-11.023714825
 11
1.671475579
 21
-11.0259023653
  0
LINE
  5
6F3
100
AcDbEntity
  8
SIMBOLI
100
AcDbLine
 62
7
  6
CONTINUOUS
 10
0.4846918412
 20
-10.6156872439
 11
0.4776614184
 21
-10.6178317045
  0
LINE
  5
6F4
100
AcDbEntity
  8
SIMBOLI
100
AcDbLine
 62
7
  6
CONTINUOUS
 10
2.197101754
 20
-12.3015950916
 11
2.1845809103
 21
-12.3052352358
  0
LINE
  5
6F5
100
AcDbEntity
  8
SIMBOLI
100
AcDbLine
 62
7
  6
CONTINUOUS
 10
1.5397890339
 20
-10.8298818997
 11
1.5518080262
 21
-10.8264129782
  0
LINE
  5
6F6
100
AcDbEntity
  8
SIMBOLI
100
AcDbLine
 62
7
  6
CONTINUOUS
 10
0.9999966665
 20
-11.896288343
 11
0.9875656914
 21
-11.8998534401
  0
LINE
  5
6F7
100
AcDbEntity
  8
SIMBOLI
100
AcDbLine
 62
7
  6
CONTINUOUS
 10
0.3468805566
 20
-10.4210624142
 11
0.3588162986
 21
-10.4176662225
  0
LINE
  5
6F8
100
AcDbEntity
  8
ASSI
100
AcDbLine
 62
7
  6
CONTINUOUS
 10
9.147533834
 20
-21.8468854074
 11
9.2094905376
 21
-21.8286887621
  0
ELLIPSE
  5
6F9
100
AcDbEntity
  8
ASSI
100
AcDbEllipse
 62
7
  6
CONTINUOUS
 10
-5.8372489488
 20
23.1372289757
 30
0.0
 11
-0.321452335
 21
0.3834170467
 31
0.0
 40
0.7028938603
 41
-0.8723976758
 42
0.0368472726
  0
ELLIPSE
  5
6FA
100
AcDbEntity
  8
ASSI
100
AcDbEllipse
 62
7
  6
CONTINUOUS
 10
11.7745454881
 20
-19.3222156341
 30
0.0
 11
-0.321452335
 21
0.3834170467
 31
0.0
 40
0.7028938603
 41
-3.1776795455
 42
-2.4438792352
  0
ELLIPSE
  5
6FB
100
AcDbEntity
  8
ASSI
100
AcDbEllipse
 62
7
  6
CONTINUOUS
 10
11.7745454881
 20
16.9080654111
 30
0.0
 11
-0.3213627822
 21
0.3830516742
 31
0.0
 40
0.7038430734
 41
-2.4435470104
 42
-0.8734359163
  0
ENDSEC
  0
SECTION
  2
OBJECTS
  0
DICTIONARY
  5
C
100
AcDbDictionary
280
0
281
1
  3
ACAD_GROUP
350
D
  3
ACAD_MLINESTYLE
350
17
  3
ACAD_LAYOUT
350
1A
  3
ACAD_PLOTSETTINGS
350
19
  3
ACAD_PLOTSTYLENAME
350
E
  0
DICTIONARY
  5
D
102
{ACAD_REACTORS
330
C
102
}
100
AcDbDictionary
280
0
281
1
  0
ACDBDICTIONARYWDFLT
  5
E
102
{ACAD_REACTORS
330
C
102
}
100
AcDbDictionary
281
1
  3
Normal
350
F
100
AcDbDictionaryWithDefault
340
F
  0
DICTIONARY
  5
17
102
{ACAD_REACTORS
330
C
102
}
100
AcDbDictionary
280
0
281
1
  3
Standard
350
18
  0
DICTIONARY
  5
19
102
{ACAD_REACTORS
330
C
102
}
100
AcDbDictionary
281
1
  0
DICTIONARY
  5
1A
102
{ACAD_REACTORS
330
C
102
}
100
AcDbDictionary
281
1
  3
Model
350
6FC
  3
Layout1
350
6FD
  0
ACDBPLACEHOLDER
  5
F
102
{ACAD_REACTORS
330
E
102
}
  0
MLINESTYLE
  5
18
102
{ACAD_REACTORS
330
17
102
}
100
AcDbMlineStyle
  2
STANDARD
 70
0
  3

 62
256
 51
90.0
 52
90.0
 71
2
 49
0.5
 62
256
  6
BYLAYER
 49
-0.5
 62
256
  6
BYLAYER
  0
LAYOUT
  5
6FC
102
{ACAD_REACTORS
330
1A
102
}
100
AcDbPlotSettings
  1

  2
none_device
  4
ISO_A4_(297.00_x_210.00_MM)
  6

 40
0.0
 41
0.0
 42
0.0
 43
0.0
 44
297.0
 45
210.0
 46
0.0
 47
0.0
 48
0.0
 49
0.0
140
0.0
141
0.0
142
1.0
143
1.0
 70
1024
 72
1
 73
0
 74
0
  7

 75
0
147
1.0
148
0.0
149
0.0
100
AcDbLayout
  1
Model
 70
0
 71
0
 10
0.0
 20
0.0
 11
297.0
 21
210.0
 12
0.0
 22
0.0
 32
0.0
 14
0.0
 24
0.0
 34
0.0
 15
0.0
 25
0.0
 35
0.0
146
0.0
 13
0.0
 23
0.0
 33
0.0
 16
1.0
 26
0.0
 36
0.0
 17
0.0
 27
1.0
 37
0.0
 76
0
330
217
345
0
346
0
  0
LAYOUT
  5
6FD
102
{ACAD_REACTORS
330
1A
102
}
100
AcDbPlotSettings
  1

  2
none_device
  4
ISO_A4_(297.00_x_210.00_MM)
  6

 40
0.0
 41
0.0
 42
0.0
 43
0.0
 44
297.0
 45
210.0
 46
0.0
 47
0.0
 48
0.0
 49
0.0
140
0.0
141
0.0
142
1.0
143
1.0
 70
0
 72
1
 73
0
 74
0
  7

 75
0
147
1.0
148
0.0
149
0.0
100
AcDbLayout
  1
Layout1
 70
0
 71
1
 10
0.0
 20
0.0
 11
297.0
 21
210.0
 12
0.0
 22
0.0
 32
0.0
 14
0.0
 24
0.0
 34
0.0
 15
0.0
 25
0.0
 35
0.0
146
0.0
 13
0.0
 23
0.0
 33
0.0
 16
1.0
 26
0.0
 36
0.0
 17
0.0
 27
1.0
 37
0.0
 76
0
330
218
345
0
346
0
  0
ENDSEC
  0
EOF
