  0
SECTION
  2
HEADER
  9
$ACADVER
  1
AC1024
  9
$DWGCODEPAGE
  3
ANSI_1252
  9
$EXTMAX
 10
297.0
 20
210.0
 30
0.0
  9
$EXTMIN
 10
0.0
 20
0.0
 30
0.0
  9
$LIMMIN
 10
0.0
 20
0.0
  9
$LIMMAX
 10
297.0
 20
210.0
  9
$VIEWCTR
 10
148.5
 20
105.0
  9
$VIEWSIZE
 40
210.0
  9
$CLAYER
  8
0
  9
$LTSCALE
 40
16.335
  9
$CELTYPE
  6
BYLAYER
  9
$DIMSCALE
 40
1.0
  9
$DIMASZ
 40
3.0
  9
$DIMEXO
 40
0.5
  9
$DIMDLI
 40
11.286
  9
$DIMEXE
 40
1.5
  9
$DIMCEN
 40
2.673
  9
$DIMLFAC
 40
1.0
  9
$DIMBLK
  1
_FILLED
  9
$DIMALT
 70
0
  9
$DIMALTF
 40
0.0393700787
  9
$DIMTXT
 40
3.0
  9
$DIMTOL
 70
1
  9
$DIMLIM
 70
0
  9
$DIMTFAC
 40
1.0
  9
$DIMTP
 40
0.01
  9
$DIMTM
 40
0.01
  9
$DIMGAP
 40
0.625
  9
$DIMDSEP
 70
44
  9
$AUNITS
 70
0
  9
$PDMODE
 70
3
  9
$PDSIZE
 40
3.0
  9
$HANDSEED
  5
40C
  9
$TILEMODE
 70
1
  9
$MEASUREMENT
 70
1
  9
$INSUNITS
 70
4
  0
ENDSEC
  0
SECTION
  2
CLASSES
  0
CLASS
  1
ACDBDICTIONARYWDFLT
  2
AcDbDictionaryWithDefault
  3
AutoCAD 2000
 90
0
 91
1
280
0
281
0
  0
CLASS
  1
ACDBPLACEHOLDER
  2
AcDbPlaceHolder
  3
AutoCAD 2000
 90
0
 91
1
280
0
281
0
  0
CLASS
  1
LAYOUT
  2
AcDbLayout
  3
AutoCAD 2000
 90
0
 91
0
280
0
281
0
  0
ENDSEC
  0
SECTION
  2
TABLES
  0
TABLE
  2
VPORT
  5
8
100
AcDbSymbolTable
 70
2
  0
VPORT
  5
1F4
100
AcDbSymbolTableRecord
100
AcDbViewportTableRecord
  2
*ACTIVE
 70
0
 10
0.0
 20
0.0
 11
1.0
 21
1.0
 12
148.5
 22
105.0
 13
0.0
 23
0.0
 14
1.0
 24
1.0
 15
0.0
 25
0.0
 16
0.0
 26
0.0
 36
1.0
 17
0.0
 27
0.0
 37
0.0
 40
210.0
 41
1.4142857143
 42
50.0
 43
0.0
 44
0.0
 50
0.0
 51
0.0
 71
0
 72
100
 73
1
 74
1
 75
0
 76
0
 77
0
 78
0
  0
ENDTAB
  0
TABLE
  2
LTYPE
  5
5
100
AcDbSymbolTable
 70
6
  0
LTYPE
  5
14
100
AcDbSymbolTableRecord
100
AcDbLinetypeTableRecord
  2
BYBLOCK
 70
0
  3

 72
65
 73
0
 40
0.0
  0
LTYPE
  5
15
100
AcDbSymbolTableRecord
100
AcDbLinetypeTableRecord
  2
BYLAYER
 70
0
  3

 72
65
 73
0
 40
0.0
  0
LTYPE
  5
16
100
AcDbSymbolTableRecord
100
AcDbLinetypeTableRecord
  2
CONTINUOUS
 70
64
  3
Solid line
 72
65
 73
0
 40
0.0
  0
LTYPE
  5
1F5
100
AcDbSymbolTableRecord
100
AcDbLinetypeTableRecord
  2
CENTER
 70
64
  3
____ _ ____ _ ____ _ ____ _ ____ _ ____ _ ____
 72
65
 73
4
 40
0.6
 49
0.375
 74
0
 49
-0.075
 74
0
 49
0.075
 74
0
 49
-0.075
 74
0
  0
LTYPE
  5
1F6
100
AcDbSymbolTableRecord
100
AcDbLinetypeTableRecord
  2
HIDDEN
 70
64
  3
- - - - - - - - - - - - - - - - - - - -
 72
65
 73
2
 40
0.2
 49
0.1
 74
0
 49
-0.1
 74
0
  0
LTYPE
  5
1F7
100
AcDbSymbolTableRecord
100
AcDbLinetypeTableRecord
  2
PHANTOM
 70
64
  3
_____ _ _ _____ _ _ _____ _ _ _____
 72
65
 73
6
 40
0.8
 49
0.45
 74
0
 49
-0.05
 74
0
 49
0.1
 74
0
 49
-0.05
 74
0
 49
0.1
 74
0
 49
-0.05
 74
0
  0
LTYPE
  5
1F8
100
AcDbSymbolTableRecord
100
AcDbLinetypeTableRecord
  2
DOT
 70
64
  3
. . . . . . . . . . . . . . . . . . . .
 72
65
 73
2
 40
0.2
 49
0.1
 74
0
 49
-0.1
 74
0
  0
LTYPE
  5
1F9
100
AcDbSymbolTableRecord
100
AcDbLinetypeTableRecord
  2
DASHED
 70
64
  3
- - - - - - - - - - - - - - - - - - - -
 72
65
 73
2
 40
0.2
 49
0.1
 74
0
 49
-0.1
 74
0
  0
ENDTAB
  0
TABLE
  2
LAYER
  5
2
100
AcDbSymbolTable
 70
36
  0
LAYER
  5
10
100
AcDbSymbolTableRecord
100
AcDbLayerTableRecord
  2
0
 70
0
 62
7
  6
CONTINUOUS
370
-3
390
F
  0
LAYER
  5
1FA
100
AcDbSymbolTableRecord
100
AcDbLayerTableRecord
  2
DEFAULT_1
 70
0
 62
7
  6
CENTER
370
-3
390
F
  0
LAYER
  5
1FB
100
AcDbSymbolTableRecord
100
AcDbLayerTableRecord
  2
DEFAULT_2
 70
0
 62
7
  6
HIDDEN
370
-3
390
F
  0
LAYER
  5
1FC
100
AcDbSymbolTableRecord
100
AcDbLayerTableRecord
  2
DEFAULT_3
 70
0
 62
7
  6
PHANTOM
370
-3
390
F
  0
LAYER
  5
1FD
100
AcDbSymbolTableRecord
100
AcDbLayerTableRecord
  2
ASSI
 70
0
 62
7
  6
CONTINUOUS
370
-3
390
F
  0
LAYER
  5
1FE
100
AcDbSymbolTableRecord
100
AcDbLayerTableRecord
  2
COORDINATE
 70
0
 62
7
  6
CONTINUOUS
370
-3
390
F
  0
LAYER
  5
1FF
100
AcDbSymbolTableRecord
100
AcDbLayerTableRecord
  2
COORD_ORIGINE
 70
0
 62
7
  6
CONTINUOUS
370
-3
390
F
  0
LAYER
  5
200
100
AcDbSymbolTableRecord
100
AcDbLayerTableRecord
  2
COPY_PUBLISH
 70
0
 62
7
  6
CONTINUOUS
370
-3
390
F
  0
LAYER
  5
201
100
AcDbSymbolTableRecord
100
AcDbLayerTableRecord
  2
COSMETIC
 70
0
 62
7
  6
CONTINUOUS
370
-3
390
F
  0
LAYER
  5
202
100
AcDbSymbolTableRecord
100
AcDbLayerTableRecord
  2
COSMETICI
 70
0
 62
7
  6
CONTINUOUS
370
-3
390
F
  0
LAYER
  5
203
100
AcDbSymbolTableRecord
100
AcDbLayerTableRecord
  2
CURVE
 70
0
 62
7
  6
CONTINUOUS
370
-3
390
F
  0
LAYER
  5
204
100
AcDbSymbolTableRecord
100
AcDbLayerTableRecord
  2
DRAFT
 70
0
 62
7
  6
CONTINUOUS
370
-3
390
F
  0
LAYER
  5
205
100
AcDbSymbolTableRecord
100
AcDbLayerTableRecord
  2
IMPORT
 70
0
 62
7
  6
CONTINUOUS
370
-3
390
F
  0
LAYER
  5
206
100
AcDbSymbolTableRecord
100
AcDbLayerTableRecord
  2
IMPORT_IGES
 70
0
 62
7
  6
CONTINUOUS
370
-3
390
F
  0
LAYER
  5
207
100
AcDbSymbolTableRecord
100
AcDbLayerTableRecord
  2
INTFCLR_11
 70
0
 62
7
  6
CONTINUOUS
370
-3
390
F
  0
LAYER
  5
208
100
AcDbSymbolTableRecord
100
AcDbLayerTableRecord
  2
INTF_1
 70
0
 62
7
  6
CONTINUOUS
370
-3
390
F
  0
LAYER
  5
209
100
AcDbSymbolTableRecord
100
AcDbLayerTableRecord
  2
INTF_3
 70
0
 62
7
  6
CONTINUOUS
370
-3
390
F
  0
LAYER
  5
20A
100
AcDbSymbolTableRecord
100
AcDbLayerTableRecord
  2
NOTE
 70
0
 62
7
  6
CONTINUOUS
370
-3
390
F
  0
LAYER
  5
20B
100
AcDbSymbolTableRecord
100
AcDbLayerTableRecord
  2
PIANI
 70
0
 62
7
  6
CONTINUOUS
370
-3
390
F
  0
LAYER
  5
20C
100
AcDbSymbolTableRecord
100
AcDbLayerTableRecord
  2
PIANI_ORIGINE
 70
0
 62
7
  6
CONTINUOUS
370
-3
390
F
  0
LAYER
  5
20D
100
AcDbSymbolTableRecord
100
AcDbLayerTableRecord
  2
PIANI_RIFERIMENTO
 70
0
 62
7
  6
CONTINUOUS
370
-3
390
F
  0
LAYER
  5
20E
100
AcDbSymbolTableRecord
100
AcDbLayerTableRecord
  2
PUNTI
 70
0
 62
7
  6
CONTINUOUS
370
-3
390
F
  0
LAYER
  5
20F
100
AcDbSymbolTableRecord
100
AcDbLayerTableRecord
  2
RACCORDO
 70
0
 62
7
  6
CONTINUOUS
370
-3
390
F
  0
LAYER
  5
210
100
AcDbSymbolTableRecord
100
AcDbLayerTableRecord
  2
SIMBOLI
 70
0
 62
7
  6
CONTINUOUS
370
-3
390
F
  0
LAYER
  5
211
100
AcDbSymbolTableRecord
100
AcDbLayerTableRecord
  2
SMUSSO
 70
0
 62
7
  6
CONTINUOUS
370
-3
390
F
  0
LAYER
  5
212
100
AcDbSymbolTableRecord
100
AcDbLayerTableRecord
  2
SNAPLINE
 70
0
 62
7
  6
CONTINUOUS
370
-3
390
F
  0
LAYER
  5
213
100
AcDbSymbolTableRecord
100
AcDbLayerTableRecord
  2
SUPERFICI
 70
0
 62
7
  6
CONTINUOUS
370
-3
390
F
  0
LAYER
  5
214
100
AcDbSymbolTableRecord
100
AcDbLayerTableRecord
  2
TRASH
 70
0
 62
7
  6
CONTINUOUS
370
-3
390
F
  0
LAYER
  5
215
100
AcDbSymbolTableRecord
100
AcDbLayerTableRecord
  2
XSEC_DATUMS
 70
0
 62
7
  6
CONTINUOUS
370
-3
390
F
  0
LAYER
  5
216
100
AcDbSymbolTableRecord
100
AcDbLayerTableRecord
  2
___SHELL
 70
0
 62
7
  6
CONTINUOUS
370
-3
390
F
  0
ENDTAB
  0
TABLE
  2
STYLE
  5
3
100
AcDbSymbolTable
 70
1
  0
STYLE
  5
11
100
AcDbSymbolTableRecord
100
AcDbTextStyleTableRecord
  2
STANDARD
 70
0
 40
0.0
 41
0.8
 50
0.0
 71
0
 42
0.2
  3
txt
  4

  0
STYLE
  5
217
100
AcDbSymbolTableRecord
100
AcDbTextStyleTableRecord
  2
TEXTSTYLE_1
 70
0
 40
0.0
 41
0.8
 50
0.0
 71
0
 42
0.2
  3
gdt
  4

  0
ENDTAB
  0
TABLE
  2
VIEW
  5
6
100
AcDbSymbolTable
 70
0
  0
ENDTAB
  0
TABLE
  2
UCS
  5
7
100
AcDbSymbolTable
 70
0
  0
ENDTAB
  0
TABLE
  2
APPID
  5
9
100
AcDbSymbolTable
 70
1
  0
APPID
  5
218
100
AcDbSymbolTableRecord
100
AcDbRegAppTableRecord
  2
ACAD
 70
0
  0
ENDTAB
  0
TABLE
  2
BLOCK_RECORD
  5
1
100
AcDbSymbolTable
 70
0
  0
BLOCK_RECORD
  5
219
100
AcDbSymbolTableRecord
100
AcDbBlockTableRecord
  2
*Model_Space
  0
BLOCK_RECORD
  5
21A
100
AcDbSymbolTableRecord
100
AcDbBlockTableRecord
  2
*Paper_Space
  0
BLOCK_RECORD
  5
21B
100
AcDbSymbolTableRecord
100
AcDbBlockTableRecord
  2
_FILLED
  0
ENDTAB
  0
TABLE
  2
DIMSTYLE
  5
A
100
AcDbSymbolTable
 70
1
100
AcDbDimStyleTable
 71
0
  0
DIMSTYLE
105
21C
100
AcDbSymbolTableRecord
100
AcDbDimStyleTableRecord
  2
STANDARD
 70
0
  3

  4

 40
1.0
 41
3.0
 42
0.5
 43
0.38
 44
1.5
 45
0.0
 46
0.0
 47
0.01
 48
0.01
140
3.0
141
0.0
142
0.0
143
25.4
144
1.0
145
0.0
146
1.0
147
0.625
 71
1
 72
0
 73
0
 74
0
 75
0
 76
0
 77
1
 78
8
 79
2
170
0
171
1
172
0
173
0
174
0
175
0
176
0
177
0
178
0
270
2
179
2
271
2
272
2
273
2
274
2
275
0
280
0
281
0
282
0
283
1
284
8
285
0
286
0
287
3
288
0
340
11
278
44
341
21B
342
21B
343
21B
344
21B
  0
ENDTAB
  0
ENDSEC
  0
SECTION
  2
BLOCKS
  0
BLOCK
  5
20
100
AcDbEntity
  8
0
100
AcDbBlockBegin
  2
*Model_Space
 70
0
 10
0.0
 20
0.0
 30
0.0
  3
*Model_Space
  1

  0
ENDBLK
  5
21
100
AcDbEntity
  8
0
100
AcDbBlockEnd
  0
BLOCK
  5
1C
100
AcDbEntity
  8
0
100
AcDbBlockBegin
  2
*Paper_Space
 70
0
 10
0.0
 20
0.0
 30
0.0
  3
*Paper_Space
  1

  0
ENDBLK
  5
1D
100
AcDbEntity
  8
0
100
AcDbBlockEnd
  0
BLOCK
  5
21D
100
AcDbEntity
  8
0
100
AcDbBlockBegin
  2
_FILLED
 70
64
 10
0.0
 20
0.0
 30
0.0
  3
_FILLED
  1

  0
SOLID
  5
21E
100
AcDbEntity
  8
0
  6
BYBLOCK
 62
0
100
AcDbTrace
 10
0.0
 20
0.0
 30
0.0
 11
-1.0
 21
0.3166666667
 31
0.0
 12
-1.0
 22
-0.3166666667
 32
0.0
 13
-1.0
 23
-0.3166666667
 33
0.0
  0
ENDBLK
  5
21F
100
AcDbEntity
  8
0
  6
BYBLOCK
 62
0
100
AcDbBlockEnd
  0
ENDSEC
  0
SECTION
  2
ENTITIES
  0
LWPOLYLINE
  5
220
100
AcDbEntity
  8
RACCORDO
100
AcDbPolyline
 62
7
  6
CONTINUOUS
 90
19
 70
0
 10
6.6152799752
 20
101.6919345067
 10
6.5753712964
 20
101.6652745722
 10
6.5063341452
 20
101.6135858636
 10
6.4404746096
 20
101.5572077081
 10
6.3777650668
 20
101.4964673682
 10
6.3182301691
 20
101.431677087
 10
6.2620741827
 20
101.3632743423
 10
6.2093823775
 20
101.2915720091
 10
6.16027488
 20
101.216834501
 10
6.1150611725
 20
101.1396092652
 10
6.0738677484
 20
101.0601837544
 10
6.0368659519
 20
100.9788183331
 10
6.0043397287
 20
100.8960774725
 10
5.9764526429
 20
100.8122111413
 10
5.9534051488
 20
100.7274491903
 10
5.935447611
 20
100.6421920895
 10
5.9228273801
 20
100.5566335644
 10
5.9158108835
 20
100.4709439189
 10
5.9151433372
 20
100.454832236
  0
LINE
  5
221
100
AcDbEntity
  8
RACCORDO
100
AcDbLine
 62
7
  6
CONTINUOUS
 10
9.798169309
 20
103.727363905
 30
0.0
 11
6.6151454158
 21
101.6918570265
 31
0.0
  0
LINE
  5
222
100
AcDbEntity
  8
RACCORDO
100
AcDbLine
 62
250
  6
CONTINUOUS
 10
10.0545639098
 20
103.706500233
 30
0.0
 11
6.8752644269
 21
101.6733750717
 31
0.0
  0
LINE
  5
223
100
AcDbEntity
  8
0
100
AcDbLine
 62
250
  6
CONTINUOUS
 10
43.3319650283
 20
50.1836802238
 30
0.0
 11
42.8080634858
 21
50.2404347606
 31
0.0
  0
LINE
  5
224
100
AcDbEntity
  8
0
100
AcDbLine
 62
250
  6
CONTINUOUS
 10
43.2446949804
 20
50.5127607831
 30
0.0
 11
42.8307966987
 21
50.5575986073
 31
0.0
  0
LWPOLYLINE
  5
225
100
AcDbEntity
  8
RACCORDO
100
AcDbPolyline
 62
7
  6
CONTINUOUS
 90
14
 70
0
 10
5.9151861975
 20
66.4393075465
 10
5.9155634392
 20
66.4300784633
 10
5.9223529524
 20
66.3479179958
 10
5.9350438506
 20
66.2692474025
 10
5.9534278747
 20
66.1943045947
 10
5.9772914957
 20
66.1231704327
 10
6.0064287028
 20
66.0559798891
 10
6.0405590092
 20
65.9930400076
 10
6.0793830608
 20
65.9345683869
 10
6.1225834685
 20
65.8807584656
 10
6.169709496
 20
65.8319219093
 10
6.2203269342
 20
65.7882652027
 10
6.2740620084
 20
65.7498796357
 10
6.2871756679
 20
65.7415858722
  0
LWPOLYLINE
  5
226
100
AcDbEntity
  8
RACCORDO
100
AcDbPolyline
 62
7
  6
CONTINUOUS
 90
10
 70
0
 10
5.915143273
 20
100.4550649529
 10
5.7967569261
 20
96.657057056
 10
5.7061719768
 20
92.808925393
 10
5.6457615827
 20
88.9782613046
 10
5.6155441477
 20
85.1654575062
 10
5.6155235363
 20
81.3708346779
 10
5.645700366
 20
77.5946865873
 10
5.706072016
 20
73.8373299279
 10
5.7966213261
 20
70.0991357804
 10
5.915170896
 20
66.4394959367
  0
LINE
  5
227
100
AcDbEntity
  8
0
100
AcDbLine
 62
7
  6
CONTINUOUS
 10
27.2550409852
 20
95.7436809444
 30
0.0
 11
27.662973747
 21
96.0059489962
 31
0.0
  0
LINE
  5
228
100
AcDbEntity
  8
0
100
AcDbLine
 62
250
  6
CONTINUOUS
 10
27.5131890025
 20
95.724051217
 30
0.0
 11
27.8150651134
 21
95.9181333474
 31
0.0
  0
LINE
  5
229
100
AcDbEntity
  8
0
100
AcDbLine
 62
7
  6
CONTINUOUS
 10
27.3981334571
 20
96.9173935334
 30
0.0
 11
28.9812864112
 21
97.8270297483
 31
0.0
  0
LINE
  5
22A
100
AcDbEntity
  8
0
100
AcDbLine
 62
250
  6
CONTINUOUS
 10
27.5241385727
 20
96.9055788046
 30
0.0
 11
29.1068680443
 21
97.8149716982
 31
0.0
  0
LINE
  5
22B
100
AcDbEntity
  8
0
100
AcDbLine
 62
7
  6
CONTINUOUS
 10
28.9812864254
 20
97.8270297561
 30
0.0
 11
28.9828026881
 21
97.8278806109
 31
0.0
  0
LINE
  5
22C
100
AcDbEntity
  8
0
100
AcDbLine
 62
250
  6
CONTINUOUS
 10
29.2026766431
 20
95.9364119598
 30
0.0
 11
31.3321014941
 21
97.1314433988
 31
0.0
  0
LINE
  5
22D
100
AcDbEntity
  8
0
100
AcDbLine
 62
250
  6
CONTINUOUS
 10
29.3769650325
 20
95.6288161086
 30
0.0
 11
31.5063898835
 21
96.8238475476
 31
0.0
  0
LINE
  5
22E
100
AcDbEntity
  8
0
100
AcDbLine
 62
7
  6
CONTINUOUS
 10
28.9828026743
 20
97.8278806034
 30
0.0
 11
29.5175848192
 21
98.1208795948
 31
0.0
  0
LINE
  5
22F
100
AcDbEntity
  8
0
100
AcDbLine
 62
250
  6
CONTINUOUS
 10
29.1068680443
 20
97.8149716982
 30
0.0
 11
29.6412219429
 21
98.10773606
 31
0.0
  0
LINE
  5
230
100
AcDbEntity
  8
RACCORDO
100
AcDbLine
 62
250
  6
CONTINUOUS
 10
47.2808832498
 20
60.7970873024
 30
0.0
 11
45.035415503
 21
60.407823758
 31
0.0
  0
LINE
  5
231
100
AcDbEntity
  8
0
100
AcDbLine
 62
250
  6
CONTINUOUS
 10
47.2808832498
 20
60.7970873024
 30
0.0
 11
45.035415503
 21
60.407823758
 31
0.0
  0
LINE
  5
232
100
AcDbEntity
  8
RACCORDO
100
AcDbLine
 62
7
  6
CONTINUOUS
 10
46.8349118713
 20
61.4325554788
 30
0.0
 11
46.8348772556
 21
61.4325507942
 31
0.0
  0
LINE
  5
233
100
AcDbEntity
  8
0
100
AcDbLine
 62
250
  6
CONTINUOUS
 10
46.8349118713
 20
61.4325554788
 30
0.0
 11
46.8348772556
 21
61.4325507942
 31
0.0
  0
LINE
  5
234
100
AcDbEntity
  8
RACCORDO
100
AcDbLine
 62
7
  6
CONTINUOUS
 10
46.8349136161
 20
61.4325563048
 30
0.0
 11
45.0448786824
 21
61.1904037094
 31
0.0
  0
LINE
  5
235
100
AcDbEntity
  8
0
100
AcDbLine
 62
7
  6
CONTINUOUS
 10
46.8349136161
 20
61.4325563048
 30
0.0
 11
45.0448786824
 21
61.1904037094
 31
0.0
  0
LWPOLYLINE
  5
236
100
AcDbEntity
  8
RACCORDO
100
AcDbPolyline
 62
7
  6
CONTINUOUS
 90
14
 70
0
 10
36.7534548773
 20
48.1507258302
 10
36.7632357606
 20
48.1455385585
 10
36.8232922557
 20
48.1175607823
 10
36.8856831467
 20
48.0949476699
 10
36.9504544479
 20
48.0777241111
 10
37.0172116499
 20
48.0660695784
 10
37.0855081658
 20
48.0601228573
 10
37.1554350072
 20
48.059991083
 10
37.2266863267
 20
48.0658492657
 10
37.2988639877
 20
48.0778110353
 10
37.3720835693
 20
48.0960942707
 10
37.446244692
 20
48.1209716963
 10
37.5208907718
 20
48.1525754988
 10
37.5614905241
 20
48.1725925887
  0
LWPOLYLINE
  5
237
100
AcDbEntity
  8
RACCORDO
100
AcDbPolyline
 62
7
  6
CONTINUOUS
 90
10
 70
0
 10
6.2871159197
 20
65.7416149544
 10
9.5077716965
 20
63.7668045517
 10
12.8306960346
 20
61.7594538454
 10
16.1803574011
 20
59.7662305607
 10
19.556560434
 20
57.7872547983
 10
22.959106412
 20
55.822645227
 10
26.3877914875
 20
53.8725180082
 10
29.8424093655
 20
51.9369873369
 10
33.3227507527
 20
50.0161653
 10
36.7534961449
 20
48.1506954752
  0
LINE
  5
238
100
AcDbEntity
  8
DRAFT
100
AcDbLine
 62
7
  6
CONTINUOUS
 10
12.2244002152
 20
68.6118581264
 30
0.0
 11
12.2104084667
 21
69.1464949554
 31
0.0
  0
LINE
  5
239
100
AcDbEntity
  8
DRAFT
100
AcDbLine
 62
7
  6
CONTINUOUS
 10
12.21383477
 20
69.0127957449
 30
0.0
 11
12.1907793885
 21
69.9500517234
 31
0.0
  0
LINE
  5
23A
100
AcDbEntity
  8
DRAFT
100
AcDbLine
 62
7
  6
CONTINUOUS
 10
12.193943465
 20
69.8154198743
 30
0.0
 11
12.1727236451
 21
70.7584550256
 31
0.0
  0
LINE
  5
23B
100
AcDbEntity
  8
DRAFT
100
AcDbLine
 62
7
  6
CONTINUOUS
 10
12.1756193648
 20
70.6236502319
 30
0.0
 11
12.1670837134
 21
71.0281402796
 31
0.0
  0
LINE
  5
23C
100
AcDbEntity
  8
0
100
AcDbLine
 62
7
  6
CONTINUOUS
 10
30.9598270128
 20
95.0065700674
 30
0.0
 11
30.0692022741
 21
94.4591013555
 31
0.0
  0
LINE
  5
23D
100
AcDbEntity
  8
0
100
AcDbLine
 62
7
  6
CONTINUOUS
 10
32.9556322807
 20
95.1788086203
 30
0.0
 11
31.9011609253
 21
94.5729383346
 31
0.0
  0
LINE
  5
23E
100
AcDbEntity
  8
0
100
AcDbLine
 62
7
  6
CONTINUOUS
 10
32.566741627
 20
94.1886403791
 30
0.0
 11
33.4144325662
 21
94.6700190728
 31
0.0
  0
LINE
  5
23F
100
AcDbEntity
  8
0
100
AcDbLine
 62
7
  6
CONTINUOUS
 10
38.6954336081
 20
99.3466868099
 30
0.0
 11
31.6626922413
 21
95.4009175705
 31
0.0
  0
LINE
  5
240
100
AcDbEntity
  8
0
100
AcDbLine
 62
7
  6
CONTINUOUS
 10
37.5178250351
 20
96.947935222
 30
0.0
 11
34.3343627783
 21
95.1829199876
 31
0.0
  0
LINE
  5
241
100
AcDbEntity
  8
0
100
AcDbLine
 62
7
  6
CONTINUOUS
 10
36.8687116075
 20
97.3227251797
 30
0.0
 11
32.9556322807
 21
95.1788086203
 31
0.0
  0
LINE
  5
242
100
AcDbEntity
  8
0
100
AcDbLine
 62
7
  6
CONTINUOUS
 10
39.6722682529
 20
49.2669290232
 30
0.0
 11
40.8979728413
 21
48.5592225556
 31
0.0
  0
LINE
  5
243
100
AcDbEntity
  8
0
100
AcDbLine
 62
250
  6
CONTINUOUS
 10
39.7520537574
 20
49.3082942868
 30
0.0
 11
40.8462196581
 21
48.6765366089
 31
0.0
  0
LINE
  5
244
100
AcDbEntity
  8
0
100
AcDbLine
 62
250
  6
CONTINUOUS
 10
40.8501223444
 20
48.9992784647
 30
0.0
 11
40.0486246314
 21
49.462053199
 31
0.0
  0
LINE
  5
245
100
AcDbEntity
  8
0
100
AcDbLine
 62
250
  6
CONTINUOUS
 10
40.9406543377
 20
49.2268691569
 30
0.0
 11
40.3040103418
 21
49.5944594211
 31
0.0
  0
LINE
  5
246
100
AcDbEntity
  8
0
100
AcDbLine
 62
7
  6
CONTINUOUS
 10
41.5684476701
 20
49.9869793907
 30
0.0
 11
41.0259620797
 21
50.3002037716
 31
0.0
  0
LINE
  5
247
100
AcDbEntity
  8
0
100
AcDbLine
 62
7
  6
CONTINUOUS
 10
13.5563346466
 20
68.8564490946
 30
0.0
 11
13.5839477465
 21
67.7930154857
 31
0.0
  0
LINE
  5
248
100
AcDbEntity
  8
0
100
AcDbLine
 62
7
  6
CONTINUOUS
 10
13.53723621
 20
69.6695401553
 30
0.0
 11
13.5631359593
 21
68.5835545124
 31
0.0
  0
LINE
  5
249
100
AcDbEntity
  8
0
100
AcDbLine
 62
7
  6
CONTINUOUS
 10
13.5255429583
 20
70.2086783924
 30
0.0
 11
13.5433675715
 21
69.4001402577
 31
0.0
  0
LINE
  5
24A
100
AcDbEntity
  8
0
100
AcDbLine
 62
7
  6
CONTINUOUS
 10
33.2576984917
 20
93.2556197275
 30
0.0
 11
32.5501405907
 21
92.8157784978
 31
0.0
  0
LINE
  5
24B
100
AcDbEntity
  8
0
100
AcDbLine
 62
250
  6
CONTINUOUS
 10
35.040778163
 20
93.7309875081
 30
0.0
 11
35.2537293196
 21
93.8519161919
 31
0.0
  0
LINE
  5
24C
100
AcDbEntity
  8
0
100
AcDbLine
 62
250
  6
CONTINUOUS
 10
35.1810339379
 20
93.4853710884
 30
0.0
 11
35.3931623571
 21
93.6058325638
 31
0.0
  0
LINE
  5
24D
100
AcDbEntity
  8
0
100
AcDbLine
 62
7
  6
CONTINUOUS
 10
40.6942034426
 20
96.4759067382
 30
0.0
 11
36.0989255585
 21
93.897256877
 31
0.0
  0
LINE
  5
24E
100
AcDbEntity
  8
0
100
AcDbLine
 62
7
  6
CONTINUOUS
 10
35.3792443952
 20
92.4548538591
 30
0.0
 11
36.0862292345
 21
92.8473044004
 31
0.0
  0
LINE
  5
24F
100
AcDbEntity
  8
0
100
AcDbLine
 62
7
  6
CONTINUOUS
 10
35.4887763637
 20
94.5163760516
 30
0.0
 11
37.5289350196
 21
95.6475065057
 31
0.0
  0
LINE
  5
250
100
AcDbEntity
  8
0
100
AcDbLine
 62
7
  6
CONTINUOUS
 10
35.8423297543
 20
94.312238755
 30
0.0
 11
41.7459134573
 21
97.5853779765
 31
0.0
  0
LINE
  5
251
100
AcDbEntity
  8
0
100
AcDbLine
 62
250
  6
CONTINUOUS
 10
35.2537293196
 20
93.8519161919
 30
0.0
 11
35.960708375
 21
94.243888423
 31
0.0
  0
LINE
  5
252
100
AcDbEntity
  8
0
100
AcDbLine
 62
250
  6
CONTINUOUS
 10
35.3931623571
 20
93.6058325638
 30
0.0
 11
36.1001414125
 21
93.9978047949
 31
0.0
  0
LINE
  5
253
100
AcDbEntity
  8
0
100
AcDbLine
 62
250
  6
CONTINUOUS
 10
43.279169027
 20
50.5016729545
 30
0.0
 11
43.2791202953
 21
50.5017010697
 31
0.0
  0
LINE
  5
254
100
AcDbEntity
  8
0
100
AcDbLine
 62
7
  6
CONTINUOUS
 10
41.5764133505
 20
50.6457201319
 30
0.0
 11
42.0930268144
 21
50.3474339925
 31
0.0
  0
LINE
  5
255
100
AcDbEntity
  8
0
100
AcDbLine
 62
250
  6
CONTINUOUS
 10
43.0140425368
 20
50.6459366133
 30
0.0
 11
43.2446949804
 21
50.5127607831
 31
0.0
  0
LINE
  5
256
100
AcDbEntity
  8
0
100
AcDbLine
 62
7
  6
CONTINUOUS
 10
43.0223647424
 20
50.64994853
 30
0.0
 11
43.279169027
 21
50.5016729545
 31
0.0
  0
LINE
  5
257
100
AcDbEntity
  8
0
100
AcDbLine
 62
250
  6
CONTINUOUS
 10
30.9698726755
 20
95.8373198523
 30
0.0
 11
31.5024004409
 21
96.4939311764
 31
0.0
  0
LINE
  5
258
100
AcDbEntity
  8
0
100
AcDbLine
 62
7
  6
CONTINUOUS
 10
30.9689377167
 20
95.7600012306
 30
0.0
 11
31.5187670525
 21
96.43794554
 31
0.0
  0
LINE
  5
259
100
AcDbEntity
  8
0
100
AcDbLine
 62
7
  6
CONTINUOUS
 10
35.1669770249
 20
92.3229014901
 30
0.0
 11
35.3792443952
 21
92.4548538591
 31
0.0
  0
LINE
  5
25A
100
AcDbEntity
  8
0
100
AcDbLine
 62
7
  6
CONTINUOUS
 10
36.8506204711
 20
92.8818747392
 30
0.0
 11
36.6379079047
 21
92.7610815437
 31
0.0
  0
LINE
  5
25B
100
AcDbEntity
  8
0
100
AcDbLine
 62
250
  6
CONTINUOUS
 10
36.9507855944
 20
92.8720571679
 30
0.0
 11
36.7378344378
 21
92.7511284841
 31
0.0
  0
LINE
  5
25C
100
AcDbEntity
  8
0
100
AcDbLine
 62
7
  6
CONTINUOUS
 10
38.3641800345
 20
91.8120969195
 30
0.0
 11
37.5164890954
 21
91.3307182258
 31
0.0
  0
LINE
  5
25D
100
AcDbEntity
  8
0
100
AcDbLine
 62
7
  6
CONTINUOUS
 10
36.8512313018
 20
92.8822174959
 30
0.0
 11
36.8506204649
 21
92.8818747356
 31
0.0
  0
LINE
  5
25E
100
AcDbEntity
  8
0
100
AcDbLine
 62
7
  6
CONTINUOUS
 10
38.1820697971
 20
90.9464202703
 30
0.0
 11
43.1166859309
 21
93.7152231109
 31
0.0
  0
LINE
  5
25F
100
AcDbEntity
  8
0
100
AcDbLine
 62
7
  6
CONTINUOUS
 10
37.5582103705
 20
93.2741897345
 30
0.0
 11
36.851231315
 21
92.8822175034
 31
0.0
  0
LINE
  5
260
100
AcDbEntity
  8
0
100
AcDbLine
 62
250
  6
CONTINUOUS
 10
37.6577646499
 20
93.264029399
 30
0.0
 11
36.9507855944
 21
92.8720571679
 31
0.0
  0
LINE
  5
261
100
AcDbEntity
  8
0
100
AcDbLine
 62
7
  6
CONTINUOUS
 10
42.4675725034
 20
94.0900130687
 30
0.0
 11
39.2841102466
 21
92.3249978344
 31
0.0
  0
LINE
  5
262
100
AcDbEntity
  8
0
100
AcDbLine
 62
7
  6
CONTINUOUS
 10
45.9885541444
 20
95.1357304165
 30
0.0
 11
43.2745086673
 21
93.6309751446
 31
0.0
  0
LINE
  5
263
100
AcDbEntity
  8
RACCORDO
100
AcDbLine
 62
7
  6
CONTINUOUS
 10
42.5031898355
 20
54.847174979
 30
0.0
 11
41.0259620797
 21
55.7001077712
 31
0.0
  0
LINE
  5
264
100
AcDbEntity
  8
0
100
AcDbLine
 62
7
  6
CONTINUOUS
 10
42.5031898355
 20
54.847174979
 30
0.0
 11
41.0259620797
 21
55.7001077712
 31
0.0
  0
LINE
  5
265
100
AcDbEntity
  8
0
100
AcDbLine
 62
7
  6
CONTINUOUS
 10
39.2329763527
 20
90.2297573254
 30
0.0
 11
38.1654687607
 21
89.573558389
 31
0.0
  0
LINE
  5
266
100
AcDbEntity
  8
0
100
AcDbLine
 62
7
  6
CONTINUOUS
 10
39.7017914497
 20
89.8134156095
 30
0.0
 11
41.2849444038
 21
90.7230518244
 31
0.0
  0
LINE
  5
267
100
AcDbEntity
  8
0
100
AcDbLine
 62
250
  6
CONTINUOUS
 10
39.8277965653
 20
89.8016008807
 30
0.0
 11
41.4105260369
 21
90.7109937742
 31
0.0
  0
LINE
  5
268
100
AcDbEntity
  8
0
100
AcDbLine
 62
7
  6
CONTINUOUS
 10
41.2849444181
 20
90.7230518322
 30
0.0
 11
41.2864606807
 21
90.723902687
 31
0.0
  0
LINE
  5
269
100
AcDbEntity
  8
0
100
AcDbLine
 62
7
  6
CONTINUOUS
 10
39.2329763527
 20
90.2297573254
 30
0.0
 11
43.1295150982
 21
92.4159379228
 31
0.0
  0
LINE
  5
26A
100
AcDbEntity
  8
0
100
AcDbLine
 62
7
  6
CONTINUOUS
 10
41.286460667
 20
90.7239026795
 30
0.0
 11
41.8212428118
 21
91.0169016709
 31
0.0
  0
LINE
  5
26B
100
AcDbEntity
  8
0
100
AcDbLine
 62
250
  6
CONTINUOUS
 10
41.4105260369
 20
90.7109937742
 30
0.0
 11
41.9448799356
 21
91.0037581361
 31
0.0
  0
LINE
  5
26C
100
AcDbEntity
  8
0
100
AcDbLine
 62
7
  6
CONTINUOUS
 10
49.0390339936
 20
93.374421583
 30
0.0
 11
43.3637904141
 21
90.2650420707
 31
0.0
  0
LINE
  5
26D
100
AcDbEntity
  8
0
100
AcDbLine
 62
7
  6
CONTINUOUS
 10
49.9192533243
 20
92.6480253396
 30
0.0
 11
43.3150094022
 21
88.6730156797
 31
0.0
  0
LINE
  5
26E
100
AcDbEntity
  8
0
100
AcDbLine
 62
7
  6
CONTINUOUS
 10
49.9124590511
 20
92.0861568744
 30
0.0
 11
43.6796097668
 21
88.4624999987
 31
0.0
  0
LINE
  5
26F
100
AcDbEntity
  8
RACCORDO
100
AcDbLine
 62
7
  6
CONTINUOUS
 10
49.499939591
 20
91.6448135812
 30
0.0
 11
43.8533212139
 21
88.3622011862
 31
0.0
  0
LINE
  5
270
100
AcDbEntity
  8
0
100
AcDbLine
 62
7
  6
CONTINUOUS
 10
49.499939591
 20
91.6448135812
 30
0.0
 11
43.8533212139
 21
88.3622011862
 31
0.0
  0
LINE
  5
271
100
AcDbEntity
  8
0
100
AcDbLine
 62
250
  6
CONTINUOUS
 10
44.3181596528
 20
88.0938092974
 30
0.0
 11
43.6173514247
 21
87.6982741079
 31
0.0
  0
LINE
  5
272
100
AcDbEntity
  8
0
100
AcDbLine
 62
250
  6
CONTINUOUS
 10
41.5063346357
 20
88.8324340359
 30
0.0
 11
43.6357594867
 21
90.0274654749
 31
0.0
  0
LINE
  5
273
100
AcDbEntity
  8
0
100
AcDbLine
 62
250
  6
CONTINUOUS
 10
41.6806230251
 20
88.5248381847
 30
0.0
 11
43.8100478761
 21
89.7198696237
 31
0.0
  0
LINE
  5
274
100
AcDbEntity
  8
RACCORDO
100
AcDbLine
 62
7
  6
CONTINUOUS
 10
49.15329177
 20
58.3150078162
 30
0.0
 11
49.4907566265
 21
58.1201598375
 31
0.0
  0
LINE
  5
275
100
AcDbEntity
  8
0
100
AcDbLine
 62
7
  6
CONTINUOUS
 10
49.15329177
 20
58.3150078162
 30
0.0
 11
49.4907566265
 21
58.1201598375
 31
0.0
  0
LINE
  5
276
100
AcDbEntity
  8
0
100
AcDbLine
 62
7
  6
CONTINUOUS
 10
43.2634850054
 20
87.9025921435
 30
0.0
 11
42.3728602668
 21
87.3551234315
 31
0.0
  0
LINE
  5
277
100
AcDbEntity
  8
0
100
AcDbLine
 62
250
  6
CONTINUOUS
 10
43.6166903909
 20
87.6986557806
 30
0.0
 11
42.5368396472
 21
87.0495836253
 31
0.0
  0
LINE
  5
278
100
AcDbEntity
  8
0
100
AcDbLine
 62
250
  6
CONTINUOUS
 10
43.9650016691
 20
87.0834209101
 30
0.0
 11
42.8851509254
 21
86.4343487548
 31
0.0
  0
LINE
  5
279
100
AcDbEntity
  8
RACCORDO
100
AcDbLine
 62
250
  6
CONTINUOUS
 10
37.3222471178
 20
84.0936687203
 30
0.0
 11
40.672529843
 21
86.0280704364
 31
0.0
  0
LINE
  5
27A
100
AcDbEntity
  8
RACCORDO
100
AcDbLine
 62
250
  6
CONTINUOUS
 10
37.6756793432
 20
83.4815061234
 30
0.0
 11
41.0259620797
 21
85.4159078461
 31
0.0
  0
LINE
  5
27B
100
AcDbEntity
  8
0
100
AcDbLine
 62
250
  6
CONTINUOUS
 10
44.6667380116
 20
87.4786236876
 30
0.0
 11
43.9659297835
 21
87.0830884982
 31
0.0
  0
LINE
  5
27C
100
AcDbEntity
  8
RACCORDO
100
AcDbLine
 62
250
  6
CONTINUOUS
 10
45.0449291255
 20
61.1945752242
 30
0.0
 11
45.0507729475
 21
61.1912010746
 31
0.0
  0
LINE
  5
27D
100
AcDbEntity
  8
0
100
AcDbLine
 62
250
  6
CONTINUOUS
 10
45.0449291255
 20
61.1945752242
 30
0.0
 11
45.0507729475
 21
61.1912010746
 31
0.0
  0
LINE
  5
27E
100
AcDbEntity
  8
RACCORDO
100
AcDbLine
 62
250
  6
CONTINUOUS
 10
47.2689579263
 20
59.9104488682
 30
0.0
 11
48.4519896399
 21
59.2273811837
 31
0.0
  0
LINE
  5
27F
100
AcDbEntity
  8
0
100
AcDbLine
 62
250
  6
CONTINUOUS
 10
47.2689579263
 20
59.9104488682
 30
0.0
 11
48.4519896399
 21
59.2273811837
 31
0.0
  0
LINE
  5
280
100
AcDbEntity
  8
RACCORDO
100
AcDbLine
 62
7
  6
CONTINUOUS
 10
45.0456973205
 20
61.2581029186
 30
0.0
 11
45.1405362811
 21
61.2033440914
 31
0.0
  0
LINE
  5
281
100
AcDbEntity
  8
0
100
AcDbLine
 62
7
  6
CONTINUOUS
 10
45.0456973205
 20
61.2581029186
 30
0.0
 11
45.1405362811
 21
61.2033440914
 31
0.0
  0
LINE
  5
282
100
AcDbEntity
  8
RACCORDO
100
AcDbLine
 62
7
  6
CONTINUOUS
 10
47.3257104777
 20
59.9416518969
 30
0.0
 11
48.5091734543
 21
59.2583352065
 31
0.0
  0
LINE
  5
283
100
AcDbEntity
  8
0
100
AcDbLine
 62
7
  6
CONTINUOUS
 10
47.3257104777
 20
59.9416518969
 30
0.0
 11
48.5091734543
 21
59.2583352065
 31
0.0
  0
LINE
  5
284
100
AcDbEntity
  8
RACCORDO
100
AcDbLine
 62
250
  6
CONTINUOUS
 10
48.673999153
 20
59.3475565797
 30
0.0
 11
49.1063731663
 21
59.0979092434
 31
0.0
  0
LINE
  5
285
100
AcDbEntity
  8
0
100
AcDbLine
 62
250
  6
CONTINUOUS
 10
48.673999153
 20
59.3475565797
 30
0.0
 11
49.1063731663
 21
59.0979092434
 31
0.0
  0
LINE
  5
286
100
AcDbEntity
  8
RACCORDO
100
AcDbLine
 62
7
  6
CONTINUOUS
 10
48.8108064682
 20
59.3325369911
 30
0.0
 11
49.1631311034
 21
59.1291091624
 31
0.0
  0
LINE
  5
287
100
AcDbEntity
  8
0
100
AcDbLine
 62
7
  6
CONTINUOUS
 10
48.8108064682
 20
59.3325369911
 30
0.0
 11
49.1631311034
 21
59.1291091624
 31
0.0
  0
LINE
  5
288
100
AcDbEntity
  8
DRAFT
100
AcDbLine
 62
7
  6
CONTINUOUS
 10
27.1347117174
 20
93.8446369535
 30
0.0
 11
27.1549317487
 21
95.5167801614
 31
0.0
  0
LINE
  5
289
100
AcDbEntity
  8
0
100
AcDbLine
 62
7
  6
CONTINUOUS
 10
27.1347117174
 20
93.8446369535
 30
0.0
 11
27.1549317487
 21
95.5167801614
 31
0.0
  0
LINE
  5
28A
100
AcDbEntity
  8
0
100
AcDbLine
 62
7
  6
CONTINUOUS
 10
27.272699872
 20
96.7036497784
 30
0.0
 11
27.2687971857
 21
96.3809079226
 31
0.0
  0
LINE
  5
28B
100
AcDbEntity
  8
0
100
AcDbLine
 62
250
  6
CONTINUOUS
 10
27.3459223728
 20
96.6014381179
 30
0.0
 11
27.3420196865
 21
96.2786962621
 31
0.0
  0
LINE
  5
28C
100
AcDbEntity
  8
0
100
AcDbLine
 62
7
  6
CONTINUOUS
 10
27.9602839421
 20
95.8342858157
 30
0.0
 11
27.9566187562
 21
95.5311846204
 31
0.0
  0
LINE
  5
28D
100
AcDbEntity
  8
0
100
AcDbLine
 62
250
  6
CONTINUOUS
 10
28.0342261557
 20
95.7915925083
 30
0.0
 11
28.0298024664
 21
95.4257650776
 31
0.0
  0
LINE
  5
28E
100
AcDbEntity
  8
0
100
AcDbLine
 62
250
  6
CONTINUOUS
 10
29.0205577569
 20
95.3095294173
 30
0.0
 11
29.0244604432
 21
95.6322712731
 31
0.0
  0
LINE
  5
28F
100
AcDbEntity
  8
0
100
AcDbLine
 62
250
  6
CONTINUOUS
 10
29.3730623462
 20
95.3060742528
 30
0.0
 11
29.3769650325
 21
95.6288161086
 31
0.0
  0
LINE
  5
290
100
AcDbEntity
  8
RACCORDO
100
AcDbLine
 62
250
  6
CONTINUOUS
 10
43.8833116916
 20
88.3448850602
 30
0.0
 11
43.9693180607
 21
88.4296349424
 31
0.0
  0
LINE
  5
291
100
AcDbEntity
  8
0
100
AcDbLine
 62
250
  6
CONTINUOUS
 10
43.8833116916
 20
88.3448850602
 30
0.0
 11
43.9693180607
 21
88.4296349424
 31
0.0
  0
LINE
  5
292
100
AcDbEntity
  8
0
100
AcDbLine
 62
7
  6
CONTINUOUS
 10
44.6330772542
 20
84.6949679156
 30
0.0
 11
45.3340300774
 21
85.102460732
 31
0.0
  0
LINE
  5
293
100
AcDbEntity
  8
DRAFT
100
AcDbLine
 62
7
  6
CONTINUOUS
 10
41.0259620797
 20
68.1560508576
 30
0.0
 11
41.5183626183
 21
67.8717449579
 31
0.0
  0
LINE
  5
294
100
AcDbEntity
  8
0
100
AcDbLine
 62
7
  6
CONTINUOUS
 10
41.0259620797
 20
68.1560508576
 30
0.0
 11
41.5183626183
 21
67.8717449579
 31
0.0
  0
LINE
  5
295
100
AcDbEntity
  8
0
100
AcDbLine
 62
250
  6
CONTINUOUS
 10
29.7165681906
 20
94.4518476886
 30
0.0
 11
29.7243710683
 21
95.0971250715
 31
0.0
  0
LINE
  5
296
100
AcDbEntity
  8
0
100
AcDbLine
 62
250
  6
CONTINUOUS
 10
30.0692022741
 20
94.4591013555
 30
0.0
 11
30.0784733815
 21
95.2257974566
 31
0.0
  0
LINE
  5
297
100
AcDbEntity
  8
0
100
AcDbLine
 62
7
  6
CONTINUOUS
 10
30.9598270128
 20
95.0065700674
 30
0.0
 11
30.9782186918
 21
96.5275133683
 31
0.0
  0
LINE
  5
298
100
AcDbEntity
  8
0
100
AcDbLine
 62
250
  6
CONTINUOUS
 10
31.5063898835
 20
96.8238475476
 30
0.0
 11
31.5024004409
 21
96.4939311764
 31
0.0
  0
LINE
  5
299
100
AcDbEntity
  8
0
100
AcDbLine
 62
7
  6
CONTINUOUS
 10
31.5785695662
 20
96.9223145647
 30
0.0
 11
31.5745801236
 21
96.5923981934
 31
0.0
  0
LINE
  5
29A
100
AcDbEntity
  8
0
100
AcDbLine
 62
7
  6
CONTINUOUS
 10
31.9011609253
 20
94.5729383346
 30
0.0
 11
31.8845598889
 21
93.2000764533
 31
0.0
  0
LINE
  5
29B
100
AcDbEntity
  8
0
100
AcDbLine
 62
250
  6
CONTINUOUS
 10
43.2735306681
 20
88.7333419284
 30
0.0
 11
43.8060584335
 21
89.3899532525
 31
0.0
  0
LINE
  5
29C
100
AcDbEntity
  8
0
100
AcDbLine
 62
7
  6
CONTINUOUS
 10
43.2725957093
 20
88.6560233067
 30
0.0
 11
43.8224250451
 21
89.3339676161
 31
0.0
  0
LINE
  5
29D
100
AcDbEntity
  8
RACCORDO
100
AcDbLine
 62
7
  6
CONTINUOUS
 10
43.9872926192
 20
88.2848477758
 30
0.0
 11
44.3646357685
 21
88.6594494474
 31
0.0
  0
LINE
  5
29E
100
AcDbEntity
  8
0
100
AcDbLine
 62
7
  6
CONTINUOUS
 10
43.9872926192
 20
88.2848477758
 30
0.0
 11
44.3646357685
 21
88.6594494474
 31
0.0
  0
LINE
  5
29F
100
AcDbEntity
  8
0
100
AcDbLine
 62
7
  6
CONTINUOUS
 10
32.5501405907
 20
92.8157784978
 30
0.0
 11
32.566741627
 21
94.1886403791
 31
0.0
  0
LINE
  5
2A0
100
AcDbEntity
  8
0
100
AcDbLine
 62
7
  6
CONTINUOUS
 10
33.2718596063
 20
94.4267065234
 30
0.0
 11
33.2576984917
 21
93.2556197275
 31
0.0
  0
LINE
  5
2A1
100
AcDbEntity
  8
0
100
AcDbLine
 62
250
  6
CONTINUOUS
 10
34.8840440884
 20
92.3165881629
 30
0.0
 11
34.8982052031
 21
93.4876749587
 31
0.0
  0
LINE
  5
2A2
100
AcDbEntity
  8
0
100
AcDbLine
 62
250
  6
CONTINUOUS
 10
35.1669770249
 20
92.3229014901
 30
0.0
 11
35.1810339379
 21
93.4853710884
 31
0.0
  0
LINE
  5
2A3
100
AcDbEntity
  8
0
100
AcDbLine
 62
7
  6
CONTINUOUS
 10
36.0862292345
 20
92.8473044004
 30
0.0
 11
36.1001414125
 21
93.9978047949
 31
0.0
  0
LINE
  5
2A4
100
AcDbEntity
  8
0
100
AcDbLine
 62
7
  6
CONTINUOUS
 10
36.5366834773
 20
92.5895852631
 30
0.0
 11
36.5225533951
 21
91.4210647731
 31
0.0
  0
LINE
  5
2A5
100
AcDbEntity
  8
0
100
AcDbLine
 62
250
  6
CONTINUOUS
 10
36.5952614779
 20
92.5078159348
 30
0.0
 11
36.5811003633
 21
91.3367291389
 31
0.0
  0
LINE
  5
2A6
100
AcDbEntity
  8
0
100
AcDbLine
 62
250
  6
CONTINUOUS
 10
37.5289350196
 20
95.6475065057
 30
0.0
 11
37.5448267544
 21
96.9617110207
 31
0.0
  0
LINE
  5
2A7
100
AcDbEntity
  8
0
100
AcDbLine
 62
7
  6
CONTINUOUS
 10
37.5164890954
 20
91.3307182258
 30
0.0
 11
37.499888059
 21
89.9578563445
 31
0.0
  0
LINE
  5
2A8
100
AcDbEntity
  8
RACCORDO
100
AcDbLine
 62
250
  6
CONTINUOUS
 10
36.2691462932
 20
74.5105617336
 30
0.0
 11
36.2692295382
 21
74.5156451082
 31
0.0
  0
LINE
  5
2A9
100
AcDbEntity
  8
RACCORDO
100
AcDbLine
 62
250
  6
CONTINUOUS
 10
36.2674028382
 20
74.5096289478
 30
0.0
 11
36.2675015811
 21
74.5147206309
 31
0.0
  0
LINE
  5
2AA
100
AcDbEntity
  8
RACCORDO
100
AcDbLine
 62
250
  6
CONTINUOUS
 10
36.3028622495
 20
76.185610878
 30
0.0
 11
36.3050008227
 21
76.2785057427
 31
0.0
  0
LINE
  5
2AB
100
AcDbEntity
  8
RACCORDO
100
AcDbLine
 62
250
  6
CONTINUOUS
 10
36.3061973316
 20
76.1873791784
 30
0.0
 11
36.3084706116
 21
76.2803445356
 31
0.0
  0
LINE
  5
2AC
100
AcDbEntity
  8
0
100
AcDbLine
 62
7
  6
CONTINUOUS
 10
37.6632849349
 20
95.8277648713
 30
0.0
 11
37.6776561866
 21
97.0162294493
 31
0.0
  0
LINE
  5
2AD
100
AcDbEntity
  8
0
100
AcDbLine
 62
7
  6
CONTINUOUS
 10
38.1654687607
 20
89.573558389
 30
0.0
 11
38.1820697971
 21
90.9464202703
 31
0.0
  0
LINE
  5
2AE
100
AcDbEntity
  8
0
100
AcDbLine
 62
7
  6
CONTINUOUS
 10
39.2329763527
 20
90.2297573254
 30
0.0
 11
39.2488826333
 21
91.5451647396
 31
0.0
  0
LINE
  5
2AF
100
AcDbEntity
  8
0
100
AcDbLine
 62
7
  6
CONTINUOUS
 10
39.5763578646
 20
89.5996718545
 30
0.0
 11
39.5724551783
 21
89.2769299987
 31
0.0
  0
LINE
  5
2B0
100
AcDbEntity
  8
0
100
AcDbLine
 62
250
  6
CONTINUOUS
 10
39.6495803655
 20
89.497460194
 30
0.0
 11
39.6456776791
 21
89.1747183382
 31
0.0
  0
LINE
  5
2B1
100
AcDbEntity
  8
0
100
AcDbLine
 62
7
  6
CONTINUOUS
 10
40.2639419347
 20
88.7303078918
 30
0.0
 11
40.2602767488
 21
88.4272066965
 31
0.0
  0
LINE
  5
2B2
100
AcDbEntity
  8
RACCORDO
100
AcDbLine
 62
250
  6
CONTINUOUS
 10
34.0968858767
 20
85.8407799967
 30
0.0
 11
34.0564194488
 21
85.8627817935
 31
0.0
  0
LINE
  5
2B3
100
AcDbEntity
  8
DRAFT
100
AcDbLine
 62
7
  6
CONTINUOUS
 10
41.5183626183
 20
67.8717449579
 30
0.0
 11
42.5031898355
 21
54.847174979
 31
0.0
  0
LINE
  5
2B4
100
AcDbEntity
  8
0
100
AcDbLine
 62
7
  6
CONTINUOUS
 10
41.5183626183
 20
67.8717449579
 30
0.0
 11
42.5031898355
 21
54.847174979
 31
0.0
  0
LINE
  5
2B5
100
AcDbEntity
  8
RACCORDO
100
AcDbLine
 62
7
  6
CONTINUOUS
 10
41.0259620797
 20
50.1441121047
 30
0.0
 11
41.0259620797
 21
85.4159078461
 31
0.0
  0
LINE
  5
2B6
100
AcDbEntity
  8
0
100
AcDbLine
 62
250
  6
CONTINUOUS
 10
40.3378841484
 20
88.6876145844
 30
0.0
 11
40.333460459
 21
88.3217871537
 31
0.0
  0
LINE
  5
2B7
100
AcDbEntity
  8
0
100
AcDbLine
 62
250
  6
CONTINUOUS
 10
40.8462196581
 20
48.6765366089
 30
0.0
 11
40.8501223444
 21
48.9992784647
 31
0.0
  0
LINE
  5
2B8
100
AcDbEntity
  8
0
100
AcDbLine
 62
250
  6
CONTINUOUS
 10
41.3242157496
 20
88.2055514934
 30
0.0
 11
41.3281184359
 21
88.5282933492
 31
0.0
  0
LINE
  5
2B9
100
AcDbEntity
  8
0
100
AcDbLine
 62
250
  6
CONTINUOUS
 10
41.1987242473
 20
48.6730814444
 30
0.0
 11
41.2026269336
 21
48.9958233002
 31
0.0
  0
LINE
  5
2BA
100
AcDbEntity
  8
0
100
AcDbLine
 62
250
  6
CONTINUOUS
 10
41.6767203388
 20
88.2020963289
 30
0.0
 11
41.6806230251
 21
88.5248381847
 31
0.0
  0
LINE
  5
2BB
100
AcDbEntity
  8
0
100
AcDbLine
 62
250
  6
CONTINUOUS
 10
41.5684476701
 20
49.9869793907
 30
0.0
 11
41.5764133505
 21
50.6457201319
 31
0.0
  0
LINE
  5
2BC
100
AcDbEntity
  8
0
100
AcDbLine
 62
250
  6
CONTINUOUS
 10
42.0202261833
 20
87.3478697647
 30
0.0
 11
42.0280290609
 21
87.9931471476
 31
0.0
  0
LINE
  5
2BD
100
AcDbEntity
  8
0
100
AcDbLine
 62
7
  6
CONTINUOUS
 10
42.4388957425
 20
97.1577092815
 30
0.0
 11
42.4335672682
 21
96.7170585277
 31
0.0
  0
LINE
  5
2BE
100
AcDbEntity
  8
0
100
AcDbLine
 62
250
  6
CONTINUOUS
 10
41.9195173382
 20
49.8648600348
 30
0.0
 11
41.9265153318
 21
50.4435756357
 31
0.0
  0
LINE
  5
2BF
100
AcDbEntity
  8
0
100
AcDbLine
 62
250
  6
CONTINUOUS
 10
42.3728602668
 20
87.3551234315
 30
0.0
 11
42.3821313741
 21
88.1218195327
 31
0.0
  0
LINE
  5
2C0
100
AcDbEntity
  8
DRAFT
100
AcDbLine
 62
7
  6
CONTINUOUS
 10
42.4512840682
 20
50.5547050481
 30
0.0
 11
42.5031898355
 21
54.847174979
 31
0.0
  0
LINE
  5
2C1
100
AcDbEntity
  8
0
100
AcDbLine
 62
7
  6
CONTINUOUS
 10
42.4512840682
 20
50.5547050481
 30
0.0
 11
42.5031898355
 21
54.847174979
 31
0.0
  0
LINE
  5
2C2
100
AcDbEntity
  8
DRAFT
100
AcDbLine
 62
7
  6
CONTINUOUS
 10
42.833245158
 20
82.1418788239
 30
0.0
 11
42.8851509254
 21
86.4343487548
 31
0.0
  0
LINE
  5
2C3
100
AcDbEntity
  8
0
100
AcDbLine
 62
7
  6
CONTINUOUS
 10
42.833245158
 20
82.1418788239
 30
0.0
 11
42.8851509254
 21
86.4343487548
 31
0.0
  0
LINE
  5
2C4
100
AcDbEntity
  8
DRAFT
100
AcDbLine
 62
7
  6
CONTINUOUS
 10
42.833245158
 20
82.1418788239
 30
0.0
 11
41.5183626183
 21
67.8717449579
 31
0.0
  0
LINE
  5
2C5
100
AcDbEntity
  8
0
100
AcDbLine
 62
7
  6
CONTINUOUS
 10
42.833245158
 20
82.1418788239
 30
0.0
 11
41.5183626183
 21
67.8717449579
 31
0.0
  0
LINE
  5
2C6
100
AcDbEntity
  8
0
100
AcDbLine
 62
7
  6
CONTINUOUS
 10
41.4727070679
 20
88.0563435937
 30
0.0
 11
42.0948341523
 21
87.9855446316
 31
0.0
  0
LINE
  5
2C7
100
AcDbEntity
  8
0
100
AcDbLine
 62
250
  6
CONTINUOUS
 10
41.6767203388
 20
88.2020963289
 30
0.0
 11
42.3821313741
 21
88.1218195327
 31
0.0
  0
LINE
  5
2C8
100
AcDbEntity
  8
RACCORDO
100
AcDbLine
 62
7
  6
CONTINUOUS
 10
41.0259620797
 20
83.1853814227
 30
0.0
 11
42.833245158
 21
82.1418788239
 31
0.0
  0
LINE
  5
2C9
100
AcDbEntity
  8
0
100
AcDbLine
 62
7
  6
CONTINUOUS
 10
41.0259620797
 20
83.1853814227
 30
0.0
 11
42.833245158
 21
82.1418788239
 31
0.0
  0
LINE
  5
2CA
100
AcDbEntity
  8
0
100
AcDbLine
 62
250
  6
CONTINUOUS
 10
43.1295150982
 20
92.4159379228
 30
0.0
 11
43.1349447552
 21
92.8649562278
 31
0.0
  0
LINE
  5
2CB
100
AcDbEntity
  8
0
100
AcDbLine
 62
250
  6
CONTINUOUS
 10
43.1387922088
 20
93.1831304823
 30
0.0
 11
43.1454047256
 21
93.7299681615
 31
0.0
  0
LINE
  5
2CC
100
AcDbEntity
  8
0
100
AcDbLine
 62
7
  6
CONTINUOUS
 10
43.2619831351
 20
92.5951466986
 30
0.0
 11
43.2763543868
 21
93.7836112767
 31
0.0
  0
LINE
  5
2CD
100
AcDbEntity
  8
0
100
AcDbLine
 62
7
  6
CONTINUOUS
 10
42.7997174695
 20
49.5502412446
 30
0.0
 11
42.811787912
 21
50.5484349705
 31
0.0
  0
LINE
  5
2CE
100
AcDbEntity
  8
0
100
AcDbLine
 62
7
  6
CONTINUOUS
 10
43.2634850054
 20
87.9025921435
 30
0.0
 11
43.2818766844
 21
89.4235354444
 31
0.0
  0
LINE
  5
2CF
100
AcDbEntity
  8
0
100
AcDbLine
 62
250
  6
CONTINUOUS
 10
43.8100478761
 20
89.7198696237
 30
0.0
 11
43.8060584335
 21
89.3899532525
 31
0.0
  0
LINE
  5
2D0
100
AcDbEntity
  8
0
100
AcDbLine
 62
250
  6
CONTINUOUS
 10
43.3319650283
 20
50.1836802238
 30
0.0
 11
43.3279755857
 21
49.8537638525
 31
0.0
  0
LINE
  5
2D1
100
AcDbEntity
  8
0
100
AcDbLine
 62
7
  6
CONTINUOUS
 10
43.8822275589
 20
89.8183366408
 30
0.0
 11
43.8782381163
 21
89.4884202695
 31
0.0
  0
LINE
  5
2D2
100
AcDbEntity
  8
0
100
AcDbLine
 62
7
  6
CONTINUOUS
 10
43.4041447111
 20
50.2821472408
 30
0.0
 11
43.4001552685
 21
49.9522308696
 31
0.0
  0
LINE
  5
2D3
100
AcDbEntity
  8
0
100
AcDbLine
 62
7
  6
CONTINUOUS
 10
43.5295717878
 20
51.0745192382
 30
0.0
 11
43.9650016691
 21
87.0834209101
 31
0.0
  0
LINE
  5
2D4
100
AcDbEntity
  8
0
100
AcDbLine
 62
7
  6
CONTINUOUS
 10
43.5304950155
 20
51.0737827083
 30
0.0
 11
43.9659297835
 21
87.0830884982
 31
0.0
  0
LINE
  5
2D5
100
AcDbEntity
  8
0
100
AcDbLine
 62
7
  6
CONTINUOUS
 10
44.2314189187
 20
51.4788839183
 30
0.0
 11
44.265079676
 21
54.2625396904
 31
0.0
  0
LINE
  5
2D6
100
AcDbEntity
  8
0
100
AcDbLine
 62
7
  6
CONTINUOUS
 10
44.6330772542
 20
84.6949679156
 30
0.0
 11
44.6667380116
 21
87.4786236876
 31
0.0
  0
LINE
  5
2D7
100
AcDbEntity
  8
0
100
AcDbLine
 62
7
  6
CONTINUOUS
 10
45.3340300774
 20
85.102460732
 30
0.0
 11
44.9658589841
 21
54.6556832735
 31
0.0
  0
LINE
  5
2D8
100
AcDbEntity
  8
0
100
AcDbLine
 62
7
  6
CONTINUOUS
 10
40.6942034426
 20
96.4759067382
 30
0.0
 11
42.4335672682
 21
96.7170585277
 31
0.0
  0
LINE
  5
2D9
100
AcDbEntity
  8
0
100
AcDbLine
 62
250
  6
CONTINUOUS
 10
39.6974308624
 20
89.057404285
 30
0.0
 11
39.6974795941
 21
89.0573761698
 31
0.0
  0
LINE
  5
2DA
100
AcDbEntity
  8
0
100
AcDbLine
 62
250
  6
CONTINUOUS
 10
27.3937728697
 20
96.1613822089
 30
0.0
 11
27.3938216015
 21
96.1613540937
 31
0.0
  0
LINE
  5
2DB
100
AcDbEntity
  8
RACCORDO
100
AcDbLine
 62
7
  6
CONTINUOUS
 10
10.0545639098
 20
103.706500233
 30
0.0
 11
40.672529843
 21
86.0280704364
 31
0.0
  0
LINE
  5
2DC
100
AcDbEntity
  8
0
100
AcDbLine
 62
7
  6
CONTINUOUS
 10
27.5131890025
 20
95.724051217
 30
0.0
 11
28.0298024664
 21
95.4257650776
 31
0.0
  0
LINE
  5
2DD
100
AcDbEntity
  8
0
100
AcDbLine
 62
7
  6
CONTINUOUS
 10
29.7165681906
 20
94.4518476886
 30
0.0
 11
31.8845598889
 21
93.2000764533
 31
0.0
  0
LINE
  5
2DE
100
AcDbEntity
  8
0
100
AcDbLine
 62
7
  6
CONTINUOUS
 10
32.5501405907
 20
92.8157784978
 30
0.0
 11
37.499888059
 21
89.9578563445
 31
0.0
  0
LINE
  5
2DF
100
AcDbEntity
  8
0
100
AcDbLine
 62
7
  6
CONTINUOUS
 10
38.1654687607
 20
89.573558389
 30
0.0
 11
40.333460459
 21
88.3217871537
 31
0.0
  0
LINE
  5
2E0
100
AcDbEntity
  8
0
100
AcDbLine
 62
7
  6
CONTINUOUS
 10
42.0202261833
 20
87.3478697647
 30
0.0
 11
42.5368396472
 21
87.0495836253
 31
0.0
  0
LINE
  5
2E1
100
AcDbEntity
  8
0
100
AcDbLine
 62
7
  6
CONTINUOUS
 10
27.3937728697
 20
96.1613822089
 30
0.0
 11
29.0723109401
 21
95.192215364
 31
0.0
  0
LINE
  5
2E2
100
AcDbEntity
  8
0
100
AcDbLine
 62
7
  6
CONTINUOUS
 10
39.6974308624
 20
89.057404285
 30
0.0
 11
41.3759689328
 21
88.0882374401
 31
0.0
  0
LINE
  5
2E3
100
AcDbEntity
  8
0
100
AcDbLine
 62
250
  6
CONTINUOUS
 10
27.3420196865
 20
96.2786962621
 30
0.0
 11
29.0205577569
 21
95.3095294173
 31
0.0
  0
LINE
  5
2E4
100
AcDbEntity
  8
0
100
AcDbLine
 62
250
  6
CONTINUOUS
 10
39.6456776791
 20
89.1747183382
 30
0.0
 11
41.3242157496
 21
88.2055514934
 31
0.0
  0
LINE
  5
2E5
100
AcDbEntity
  8
0
100
AcDbLine
 62
250
  6
CONTINUOUS
 10
41.3281184359
 20
88.5282933492
 30
0.0
 11
39.6495803655
 21
89.497460194
 31
0.0
  0
LINE
  5
2E6
100
AcDbEntity
  8
0
100
AcDbLine
 62
250
  6
CONTINUOUS
 10
29.0244604432
 20
95.6322712731
 30
0.0
 11
27.3459223728
 21
96.6014381179
 31
0.0
  0
LINE
  5
2E7
100
AcDbEntity
  8
0
100
AcDbLine
 62
7
  6
CONTINUOUS
 10
33.2576984917
 20
93.2556197275
 30
0.0
 11
34.8840440884
 21
92.3165881629
 31
0.0
  0
LINE
  5
2E8
100
AcDbEntity
  8
0
100
AcDbLine
 62
7
  6
CONTINUOUS
 10
36.5811003633
 20
91.3367291389
 30
0.0
 11
37.5100757368
 21
90.800350401
 31
0.0
  0
LINE
  5
2E9
100
AcDbEntity
  8
0
100
AcDbLine
 62
250
  6
CONTINUOUS
 10
41.3759162154
 20
88.0882679042
 30
0.0
 11
41.3759689328
 21
88.0882374401
 31
0.0
  0
LWPOLYLINE
  5
2EA
100
AcDbEntity
  8
RACCORDO
100
AcDbPolyline
 62
7
  6
CONTINUOUS
 90
41
 70
0
 10
47.3370003588
 20
60.8748993062
 10
47.337031985
 20
60.8826076969
 10
47.3364279486
 20
60.9051730095
 10
47.334819255
 20
60.9277134819
 10
47.3322436224
 20
60.9502133167
 10
47.328735734
 20
60.9726474607
 10
47.3243316809
 20
60.9949643918
 10
47.3190613716
 20
61.0171419609
 10
47.3129494534
 20
61.0391601914
 10
47.3060317241
 20
61.0609545383
 10
47.2983348492
 20
61.0824952964
 10
47.2898768893
 20
61.1037657107
 10
47.2806907456
 20
61.1247103019
 10
47.2707981745
 20
61.1452982056
 10
47.260214159
 20
61.165508394
 10
47.2489632968
 20
61.1852984981
 10
47.2370596843
 20
61.2046405094
 10
47.2245177805
 20
61.2235050439
 10
47.2113550235
 20
61.2418526283
 10
47.1975777072
 20
61.2596578118
 10
47.1831993811
 20
61.2768822999
 10
47.1682404311
 20
61.293476002
 10
47.1526737718
 20
61.3094400172
 10
47.1365356232
 20
61.324700292
 10
47.1199468384
 20
61.33912011
 10
47.1029062787
 20
61.3526860907
 10
47.0854362738
 20
61.3653588202
 10
47.0677105146
 20
61.3770088602
 10
47.0497803067
 20
61.3876123007
 10
47.0316368454
 20
61.3971811016
 10
47.0133808947
 20
61.405673787
 10
46.9950467
 20
61.4130889915
 10
46.9766564041
 20
61.4194318456
 10
46.9583105696
 20
61.42468826
 10
46.9400707399
 20
61.4288664994
 10
46.9219509299
 20
61.4319891284
 10
46.9039973982
 20
61.4340749374
 10
46.8862816407
 20
61.4351447039
 10
46.8688172476
 20
61.4352262446
 10
46.8515755033
 20
61.4343421939
 10
46.8348720299
 20
61.432550087
  0
LWPOLYLINE
  5
2EB
100
AcDbEntity
  8
0
100
AcDbPolyline
 62
7
  6
CONTINUOUS
 90
41
 70
0
 10
47.3370003588
 20
60.8748993062
 10
47.337031985
 20
60.8826076969
 10
47.3364279486
 20
60.9051730095
 10
47.334819255
 20
60.9277134819
 10
47.3322436224
 20
60.9502133167
 10
47.328735734
 20
60.9726474607
 10
47.3243316809
 20
60.9949643918
 10
47.3190613716
 20
61.0171419609
 10
47.3129494534
 20
61.0391601914
 10
47.3060317241
 20
61.0609545383
 10
47.2983348492
 20
61.0824952964
 10
47.2898768893
 20
61.1037657107
 10
47.2806907456
 20
61.1247103019
 10
47.2707981745
 20
61.1452982056
 10
47.260214159
 20
61.165508394
 10
47.2489632968
 20
61.1852984981
 10
47.2370596843
 20
61.2046405094
 10
47.2245177805
 20
61.2235050439
 10
47.2113550235
 20
61.2418526283
 10
47.1975777072
 20
61.2596578118
 10
47.1831993811
 20
61.2768822999
 10
47.1682404311
 20
61.293476002
 10
47.1526737718
 20
61.3094400172
 10
47.1365356232
 20
61.324700292
 10
47.1199468384
 20
61.33912011
 10
47.1029062787
 20
61.3526860907
 10
47.0854362738
 20
61.3653588202
 10
47.0677105146
 20
61.3770088602
 10
47.0497803067
 20
61.3876123007
 10
47.0316368454
 20
61.3971811016
 10
47.0133808947
 20
61.405673787
 10
46.9950467
 20
61.4130889915
 10
46.9766564041
 20
61.4194318456
 10
46.9583105696
 20
61.42468826
 10
46.9400707399
 20
61.4288664994
 10
46.9219509299
 20
61.4319891284
 10
46.9039973982
 20
61.4340749374
 10
46.8862816407
 20
61.4351447039
 10
46.8688172476
 20
61.4352262446
 10
46.8515755033
 20
61.4343421939
 10
46.8348720299
 20
61.432550087
  0
LINE
  5
2EC
100
AcDbEntity
  8
RACCORDO
100
AcDbLine
 62
250
  6
CONTINUOUS
 10
47.2701700618
 20
59.9111349301
 30
0.0
 11
47.2808832498
 21
60.7970873024
 31
0.0
  0
LINE
  5
2ED
100
AcDbEntity
  8
0
100
AcDbLine
 62
250
  6
CONTINUOUS
 10
47.2701700618
 20
59.9111349301
 30
0.0
 11
47.2808832498
 21
60.7970873024
 31
0.0
  0
LINE
  5
2EE
100
AcDbEntity
  8
RACCORDO
100
AcDbLine
 62
7
  6
CONTINUOUS
 10
47.3257153851
 20
59.9416432768
 30
0.0
 11
47.337000913
 21
60.8749266395
 31
0.0
  0
LINE
  5
2EF
100
AcDbEntity
  8
0
100
AcDbLine
 62
7
  6
CONTINUOUS
 10
47.3257153851
 20
59.9416432768
 30
0.0
 11
47.337000913
 21
60.8749266395
 31
0.0
  0
LINE
  5
2F0
100
AcDbEntity
  8
0
100
AcDbLine
 62
7
  6
CONTINUOUS
 10
29.1690490753
 20
95.1603215176
 30
0.0
 11
29.7911761596
 21
95.0895225555
 31
0.0
  0
LINE
  5
2F1
100
AcDbEntity
  8
0
100
AcDbLine
 62
250
  6
CONTINUOUS
 10
29.3730623462
 20
95.3060742528
 30
0.0
 11
30.0784733815
 21
95.2257974566
 31
0.0
  0
LINE
  5
2F2
100
AcDbEntity
  8
0
100
AcDbLine
 62
250
  6
CONTINUOUS
 10
41.5063346357
 20
88.8324340359
 30
0.0
 11
39.8277965653
 21
89.8016008807
 31
0.0
  0
LINE
  5
2F3
100
AcDbEntity
  8
0
100
AcDbLine
 62
250
  6
CONTINUOUS
 10
29.2026766431
 20
95.9364119598
 30
0.0
 11
27.5241385727
 21
96.9055788046
 31
0.0
  0
LINE
  5
2F4
100
AcDbEntity
  8
0
100
AcDbLine
 62
7
  6
CONTINUOUS
 10
30.9598270128
 20
95.0065700674
 30
0.0
 11
31.8998414056
 21
94.4638175381
 31
0.0
  0
LINE
  5
2F5
100
AcDbEntity
  8
0
100
AcDbLine
 62
7
  6
CONTINUOUS
 10
39.2329763527
 20
90.2297573254
 30
0.0
 11
39.82823139
 21
89.8860645272
 31
0.0
  0
LINE
  5
2F6
100
AcDbEntity
  8
0
100
AcDbLine
 62
7
  6
CONTINUOUS
 10
43.2634850054
 20
87.9025921435
 30
0.0
 11
43.6166903909
 21
87.6986557806
 31
0.0
  0
LINE
  5
2F7
100
AcDbEntity
  8
0
100
AcDbLine
 62
7
  6
CONTINUOUS
 10
36.5270404312
 20
91.7921308131
 30
0.0
 11
35.3792443952
 21
92.4548538591
 31
0.0
  0
LINE
  5
2F8
100
AcDbEntity
  8
0
100
AcDbLine
 62
7
  6
CONTINUOUS
 10
31.9011609253
 20
94.5729383346
 30
0.0
 11
32.566741627
 21
94.1886403791
 31
0.0
  0
LINE
  5
2F9
100
AcDbEntity
  8
0
100
AcDbLine
 62
7
  6
CONTINUOUS
 10
37.5164890954
 20
91.3307182258
 30
0.0
 11
38.1820697971
 21
90.9464202703
 31
0.0
  0
LINE
  5
2FA
100
AcDbEntity
  8
0
100
AcDbLine
 62
250
  6
CONTINUOUS
 10
38.0798489987
 20
91.6506337065
 30
0.0
 11
36.5952614779
 21
92.5078159348
 31
0.0
  0
LINE
  5
2FB
100
AcDbEntity
  8
0
100
AcDbLine
 62
250
  6
CONTINUOUS
 10
34.8982052031
 20
93.4876749587
 30
0.0
 11
33.2718596063
 21
94.4267065234
 31
0.0
  0
LINE
  5
2FC
100
AcDbEntity
  8
0
100
AcDbLine
 62
7
  6
CONTINUOUS
 10
30.9918506627
 20
95.7882530904
 30
0.0
 11
31.6626922413
 21
95.4009175705
 31
0.0
  0
LINE
  5
2FD
100
AcDbEntity
  8
0
100
AcDbLine
 62
7
  6
CONTINUOUS
 10
43.2955086553
 20
88.6842751665
 30
0.0
 11
44.3181596528
 21
88.0938092974
 31
0.0
  0
LINE
  5
2FE
100
AcDbEntity
  8
0
100
AcDbLine
 62
7
  6
CONTINUOUS
 10
36.0862292345
 20
92.8473044004
 30
0.0
 11
36.535658288
 21
92.5878096976
 31
0.0
  0
LINE
  5
2FF
100
AcDbEntity
  8
0
100
AcDbLine
 62
250
  6
CONTINUOUS
 10
38.3641800345
 20
91.8120969195
 30
0.0
 11
36.7378344378
 21
92.7511284841
 31
0.0
  0
LINE
  5
300
100
AcDbEntity
  8
0
100
AcDbLine
 62
250
  6
CONTINUOUS
 10
35.040778163
 20
93.7309875081
 30
0.0
 11
33.4144325662
 21
94.6700190728
 31
0.0
  0
LINE
  5
301
100
AcDbEntity
  8
0
100
AcDbLine
 62
7
  6
CONTINUOUS
 10
32.9556322807
 20
95.1788086203
 30
0.0
 11
35.2537293196
 21
93.8519161919
 31
0.0
  0
LINE
  5
302
100
AcDbEntity
  8
0
100
AcDbLine
 62
7
  6
CONTINUOUS
 10
36.9507855944
 20
92.8720571679
 30
0.0
 11
39.2488826333
 21
91.5451647396
 31
0.0
  0
LINE
  5
303
100
AcDbEntity
  8
0
100
AcDbLine
 62
7
  6
CONTINUOUS
 10
43.107588295
 20
89.7311312956
 30
0.0
 11
41.4105260369
 21
90.7109937742
 31
0.0
  0
LINE
  5
304
100
AcDbEntity
  8
0
100
AcDbLine
 62
7
  6
CONTINUOUS
 10
30.8039303024
 20
96.8351092195
 30
0.0
 11
29.1068680443
 21
97.8149716982
 31
0.0
  0
LINE
  5
305
100
AcDbEntity
  8
0
100
AcDbLine
 62
7
  6
CONTINUOUS
 10
34.3343627783
 20
95.1829199876
 30
0.0
 11
35.960708375
 21
94.243888423
 31
0.0
  0
LINE
  5
306
100
AcDbEntity
  8
0
100
AcDbLine
 62
7
  6
CONTINUOUS
 10
37.6577646499
 20
93.264029399
 30
0.0
 11
39.2841102466
 21
92.3249978344
 31
0.0
  0
LINE
  5
307
100
AcDbEntity
  8
0
100
AcDbLine
 62
250
  6
CONTINUOUS
 10
29.6412219429
 20
98.10773606
 30
0.0
 11
31.3321014941
 21
97.1314433988
 31
0.0
  0
LINE
  5
308
100
AcDbEntity
  8
0
100
AcDbLine
 62
250
  6
CONTINUOUS
 10
41.9448799356
 20
91.0037581361
 30
0.0
 11
43.6357594867
 21
90.0274654749
 31
0.0
  0
LINE
  5
309
100
AcDbEntity
  8
0
100
AcDbLine
 62
7
  6
CONTINUOUS
 10
29.762714331
 20
98.1181329395
 30
0.0
 11
31.4535938822
 21
97.1418402784
 31
0.0
  0
LINE
  5
30A
100
AcDbEntity
  8
0
100
AcDbLine
 62
7
  6
CONTINUOUS
 10
42.0663723237
 20
91.0141550156
 30
0.0
 11
43.7572518748
 21
90.0378623545
 31
0.0
  0
LINE
  5
30B
100
AcDbEntity
  8
0
100
AcDbLine
 62
7
  6
CONTINUOUS
 10
44.6525484602
 20
86.3051852442
 30
0.0
 11
45.3340300774
 21
85.102460732
 31
0.0
  0
LINE
  5
30C
100
AcDbEntity
  8
RACCORDO
100
AcDbLine
 62
250
  6
CONTINUOUS
 10
49.5023935901
 20
91.847752822
 30
0.0
 11
49.499939591
 21
91.6448135812
 31
0.0
  0
LINE
  5
30D
100
AcDbEntity
  8
0
100
AcDbLine
 62
250
  6
CONTINUOUS
 10
49.5023935901
 20
91.847752822
 30
0.0
 11
49.499939591
 21
91.6448135812
 31
0.0
  0
LINE
  5
30E
100
AcDbEntity
  8
RACCORDO
100
AcDbLine
 62
250
  6
CONTINUOUS
 10
49.1063731663
 20
59.0979092434
 30
0.0
 11
49.0953805883
 21
58.1888520641
 31
0.0
  0
LINE
  5
30F
100
AcDbEntity
  8
0
100
AcDbLine
 62
250
  6
CONTINUOUS
 10
49.1063731663
 20
59.0979092434
 30
0.0
 11
49.0953805883
 21
58.1888520641
 31
0.0
  0
LINE
  5
310
100
AcDbEntity
  8
RACCORDO
100
AcDbLine
 62
7
  6
CONTINUOUS
 10
49.5591784706
 20
91.8807664428
 30
0.0
 11
49.5578475694
 21
91.7707044215
 31
0.0
  0
LINE
  5
311
100
AcDbEntity
  8
0
100
AcDbLine
 62
7
  6
CONTINUOUS
 10
49.5591784706
 20
91.8807664428
 30
0.0
 11
49.5578475694
 21
91.7707044215
 31
0.0
  0
LINE
  5
312
100
AcDbEntity
  8
RACCORDO
100
AcDbLine
 62
7
  6
CONTINUOUS
 10
49.1631360108
 20
59.1291005423
 30
0.0
 11
49.1527159997
 21
58.2673931338
 31
0.0
  0
LINE
  5
313
100
AcDbEntity
  8
0
100
AcDbLine
 62
7
  6
CONTINUOUS
 10
49.1631360108
 20
59.1291005423
 30
0.0
 11
49.1527159997
 21
58.2673931338
 31
0.0
  0
LINE
  5
314
100
AcDbEntity
  8
0
100
AcDbLine
 62
250
  6
CONTINUOUS
 10
49.490113197
 20
57.1592697128
 30
0.0
 11
49.4969074703
 21
57.7211381781
 31
0.0
  0
LINE
  5
315
100
AcDbEntity
  8
0
100
AcDbLine
 62
250
  6
CONTINUOUS
 10
49.9124590511
 20
92.0861568744
 30
0.0
 11
49.9192533243
 21
92.6480253396
 31
0.0
  0
LINE
  5
316
100
AcDbEntity
  8
0
100
AcDbLine
 62
7
  6
CONTINUOUS
 10
49.6289765054
 20
57.2355405796
 30
0.0
 11
49.6372016282
 21
57.9157365166
 31
0.0
  0
LINE
  5
317
100
AcDbEntity
  8
0
100
AcDbLine
 62
7
  6
CONTINUOUS
 10
50.0527532089
 20
92.2807552128
 30
0.0
 11
50.0609783317
 21
92.9609511498
 31
0.0
  0
LINE
  5
318
100
AcDbEntity
  8
RACCORDO
100
AcDbLine
 62
7
  6
CONTINUOUS
 10
47.2689579263
 20
59.9104488682
 30
0.0
 11
45.0138267293
 21
58.6224891653
 31
0.0
  0
LINE
  5
319
100
AcDbEntity
  8
0
100
AcDbLine
 62
7
  6
CONTINUOUS
 10
47.2689579263
 20
59.9104488682
 30
0.0
 11
45.0138267293
 21
58.6224891653
 31
0.0
  0
LINE
  5
31A
100
AcDbEntity
  8
RACCORDO
100
AcDbLine
 62
7
  6
CONTINUOUS
 10
49.1063731663
 20
59.0979092434
 30
0.0
 11
44.9916619292
 21
56.7895187122
 31
0.0
  0
LINE
  5
31B
100
AcDbEntity
  8
0
100
AcDbLine
 62
7
  6
CONTINUOUS
 10
49.1063731663
 20
59.0979092434
 30
0.0
 11
44.9916619292
 21
56.7895187122
 31
0.0
  0
LINE
  5
31C
100
AcDbEntity
  8
RACCORDO
100
AcDbLine
 62
7
  6
CONTINUOUS
 10
48.673999153
 20
59.3475565797
 30
0.0
 11
44.9985361813
 21
57.3580012128
 31
0.0
  0
LINE
  5
31D
100
AcDbEntity
  8
0
100
AcDbLine
 62
7
  6
CONTINUOUS
 10
48.673999153
 20
59.3475565797
 30
0.0
 11
44.9985361813
 21
57.3580012128
 31
0.0
  0
LINE
  5
31E
100
AcDbEntity
  8
0
100
AcDbLine
 62
250
  6
CONTINUOUS
 10
36.8687116075
 20
97.3227251797
 30
0.0
 11
37.5178250351
 21
96.947935222
 31
0.0
  0
LINE
  5
31F
100
AcDbEntity
  8
0
100
AcDbLine
 62
250
  6
CONTINUOUS
 10
42.4675725034
 20
94.0900130687
 30
0.0
 11
43.1166859309
 21
93.7152231109
 31
0.0
  0
LINE
  5
320
100
AcDbEntity
  8
0
100
AcDbLine
 62
7
  6
CONTINUOUS
 10
37.1954531223
 20
97.2951588477
 30
0.0
 11
37.6772157683
 21
97.0169951338
 31
0.0
  0
LINE
  5
321
100
AcDbEntity
  8
0
100
AcDbLine
 62
7
  6
CONTINUOUS
 10
42.7941513225
 20
94.062540675
 30
0.0
 11
43.2759139685
 21
93.7843769612
 31
0.0
  0
LINE
  5
322
100
AcDbEntity
  8
0
100
AcDbLine
 62
7
  6
CONTINUOUS
 10
49.4969074703
 20
57.7211381781
 30
0.0
 11
44.9711099936
 21
55.0899278926
 31
0.0
  0
LINE
  5
323
100
AcDbEntity
  8
0
100
AcDbLine
 62
7
  6
CONTINUOUS
 10
44.9658589841
 20
54.6556832735
 30
0.0
 11
44.2649418096
 21
54.2511384981
 31
0.0
  0
LINE
  5
324
100
AcDbEntity
  8
RACCORDO
100
AcDbLine
 62
7
  6
CONTINUOUS
 10
49.0953805883
 20
58.1888520641
 30
0.0
 11
44.9801599439
 21
55.8383348958
 31
0.0
  0
LINE
  5
325
100
AcDbEntity
  8
0
100
AcDbLine
 62
7
  6
CONTINUOUS
 10
49.0953805883
 20
58.1888520641
 30
0.0
 11
44.9801599439
 21
55.8383348958
 31
0.0
  0
LINE
  5
326
100
AcDbEntity
  8
0
100
AcDbLine
 62
7
  6
CONTINUOUS
 10
48.5949312352
 20
56.6482958641
 30
0.0
 11
44.2645396477
 21
54.2178807762
 31
0.0
  0
LINE
  5
327
100
AcDbEntity
  8
0
100
AcDbLine
 62
7
  6
CONTINUOUS
 10
44.265079676
 20
54.2625396904
 30
0.0
 11
44.9658589841
 21
54.6556832735
 31
0.0
  0
LINE
  5
328
100
AcDbEntity
  8
0
100
AcDbLine
 62
7
  6
CONTINUOUS
 10
49.490113197
 20
57.1592697128
 30
0.0
 11
44.2646681567
 21
54.2285081315
 31
0.0
  0
LINE
  5
329
100
AcDbEntity
  8
0
100
AcDbLine
 62
7
  6
CONTINUOUS
 10
40.6942034426
 20
96.4759067382
 30
0.0
 11
44.4717799857
 21
94.2947813864
 31
0.0
  0
LINE
  5
32A
100
AcDbEntity
  8
0
100
AcDbLine
 62
7
  6
CONTINUOUS
 10
42.4335672682
 20
96.7170585277
 30
0.0
 11
45.5721657332
 21
94.9048711099
 31
0.0
  0
LINE
  5
32B
100
AcDbEntity
  8
0
100
AcDbLine
 62
250
  6
CONTINUOUS
 10
38.6954336081
 20
99.3466868099
 30
0.0
 11
41.7459134573
 21
97.5853779765
 31
0.0
  0
LINE
  5
32C
100
AcDbEntity
  8
0
100
AcDbLine
 62
250
  6
CONTINUOUS
 10
45.9885541444
 20
95.1357304165
 30
0.0
 11
49.0390339936
 21
93.374421583
 31
0.0
  0
LINE
  5
32D
100
AcDbEntity
  8
0
100
AcDbLine
 62
7
  6
CONTINUOUS
 10
38.9812647573
 20
99.5038317337
 30
0.0
 11
42.2318830096
 21
97.6269654947
 31
0.0
  0
LINE
  5
32E
100
AcDbEntity
  8
0
100
AcDbLine
 62
7
  6
CONTINUOUS
 10
46.4745236967
 20
95.1773179347
 30
0.0
 11
49.725141949
 21
93.3004516956
 31
0.0
  0
LINE
  5
32F
100
AcDbEntity
  8
0
100
AcDbLine
 62
250
  6
CONTINUOUS
 10
41.5679334417
 20
49.9872762997
 30
0.0
 11
40.9406543377
 21
49.2268691569
 31
0.0
  0
LINE
  5
330
100
AcDbEntity
  8
0
100
AcDbLine
 62
250
  6
CONTINUOUS
 10
41.9195173382
 20
49.8648600348
 30
0.0
 11
41.2026269336
 21
48.9958233002
 31
0.0
  0
LINE
  5
331
100
AcDbEntity
  8
0
100
AcDbLine
 62
250
  6
CONTINUOUS
 10
43.5304950155
 20
51.0737827083
 30
0.0
 11
44.2314189187
 21
51.4788839183
 31
0.0
  0
LINE
  5
332
100
AcDbEntity
  8
0
100
AcDbLine
 62
7
  6
CONTINUOUS
 10
43.4235197055
 20
50.8429658125
 30
0.0
 11
44.1244436086
 21
51.2480670226
 31
0.0
  0
LINE
  5
333
100
AcDbEntity
  8
0
100
AcDbLine
 62
250
  6
CONTINUOUS
 10
42.7997174695
 20
49.5502412446
 30
0.0
 11
43.3279755857
 21
49.8537638525
 31
0.0
  0
LINE
  5
334
100
AcDbEntity
  8
0
100
AcDbLine
 62
7
  6
CONTINUOUS
 10
42.7460400847
 20
49.4347211853
 30
0.0
 11
43.2747216834
 21
49.7384871146
 31
0.0
  0
LINE
  5
335
100
AcDbEntity
  8
0
100
AcDbLine
 62
7
  6
CONTINUOUS
 10
42.7460400987
 20
49.4347211934
 30
0.0
 11
42.7445238351
 21
49.433870338
 31
0.0
  0
LINE
  5
336
100
AcDbEntity
  8
0
100
AcDbLine
 62
250
  6
CONTINUOUS
 10
41.1987242473
 20
48.6730814444
 30
0.0
 11
42.7997174695
 21
49.5502412446
 31
0.0
  0
LINE
  5
337
100
AcDbEntity
  8
0
100
AcDbLine
 62
7
  6
CONTINUOUS
 10
41.1431023531
 20
48.5564759003
 30
0.0
 11
42.7445238215
 21
49.4338703302
 31
0.0
  0
LINE
  5
338
100
AcDbEntity
  8
RACCORDO
100
AcDbLine
 62
250
  6
CONTINUOUS
 10
41.0259620797
 20
50.1441121047
 30
0.0
 11
37.6756794707
 21
48.4071384011
 31
0.0
  0
LINE
  5
339
100
AcDbEntity
  8
RACCORDO
100
AcDbLine
 62
7
  6
CONTINUOUS
 10
40.9158461924
 20
49.9116693127
 30
0.0
 11
37.56163884
 21
48.1726608029
 31
0.0
  0
LINE
  5
33A
100
AcDbEntity
  8
0
100
AcDbLine
 62
250
  6
CONTINUOUS
 10
42.4512840682
 20
50.5547050481
 30
0.0
 11
43.5295717878
 21
51.0745192382
 31
0.0
  0
LINE
  5
33B
100
AcDbEntity
  8
0
100
AcDbLine
 62
7
  6
CONTINUOUS
 10
42.332908186
 20
50.3175796317
 30
0.0
 11
43.4111959056
 21
50.8373938218
 31
0.0
  0
ARC
  5
33C
100
AcDbEntity
  8
DRAFT
100
AcDbCircle
 62
7
  6
CONTINUOUS
 10
13.2244088942
 20
68.6397779357
 30
0.0
 40
1.0003983576
100
AcDbArc
 50
181.5992579006
 51
185.1486793548
  0
ARC
  5
33D
100
AcDbEntity
  8
DRAFT
100
AcDbCircle
 62
7
  6
CONTINUOUS
 10
13.052549854
 20
71.0466570323
 30
0.0
 40
0.8856668959
100
AcDbArc
 50
177.3365835435
 51
181.197692809
  0
ARC
  5
33E
100
AcDbEntity
  8
RACCORDO
100
AcDbCircle
 62
250
  6
CONTINUOUS
 10
6.4977241609
 20
66.082614186
 30
0.0
 40
0.40079065
100
AcDbArc
 50
237.2285111428
 51
238.299610345
  0
ARC
  5
33F
100
AcDbEntity
  8
DRAFT
100
AcDbCircle
 62
7
  6
CONTINUOUS
 10
12.5046232551
 20
71.20877177
 30
0.0
 40
0.300064552
100
AcDbArc
 50
123.6827918851
 51
127.2003260147
  0
ARC
  5
340
100
AcDbEntity
  8
DRAFT
100
AcDbCircle
 62
7
  6
CONTINUOUS
 10
13.250820725
 20
67.6140688223
 30
0.0
 40
0.2993631279
100
AcDbArc
 50
291.079081446
 51
296.2930150015
  0
ARC
  5
341
100
AcDbEntity
  8
0
100
AcDbCircle
 62
7
  6
CONTINUOUS
 10
43.154162987
 20
50.2851700909
 30
0.0
 40
0.25
100
AcDbArc
 50
359.3048641773
 51
60.0112955277
  0
ARC
  5
342
100
AcDbEntity
  8
0
100
AcDbCircle
 62
7
  6
CONTINUOUS
 10
41.0229788813
 20
48.7757254192
 30
0.0
 40
0.25
100
AcDbArc
 50
239.9993240755
 51
298.7176635316
  0
ARC
  5
343
100
AcDbEntity
  8
0
100
AcDbCircle
 62
7
  6
CONTINUOUS
 10
43.1501735444
 20
49.9552537197
 30
0.0
 40
0.25
100
AcDbArc
 50
299.8804602744
 51
359.3071936001
  0
ARC
  5
344
100
AcDbEntity
  8
RACCORDO
100
AcDbCircle
 62
250
  6
CONTINUOUS
 10
46.8631452794
 20
61.2237789273
 30
0.0
 40
0.2106771176
100
AcDbArc
 50
96.3762715027
 51
97.7011604383
  0
ARC
  5
345
100
AcDbEntity
  8
0
100
AcDbCircle
 62
250
  6
CONTINUOUS
 10
46.8631452794
 20
61.2237789273
 30
0.0
 40
0.2106771176
100
AcDbArc
 50
96.3762715027
 51
97.7011604383
  0
ARC
  5
346
100
AcDbEntity
  8
0
100
AcDbCircle
 62
7
  6
CONTINUOUS
 10
43.3370787192
 20
50.9926941969
 30
0.0
 40
0.1728890777
100
AcDbArc
 50
290.4758286605
 51
299.9986405623
  0
ARC
  5
347
100
AcDbEntity
  8
0
100
AcDbCircle
 62
7
  6
CONTINUOUS
 10
43.3362116341
 20
50.9927267996
 30
0.0
 40
0.1724855207
100
AcDbArc
 50
296.3986330831
 51
307.2975174844
  0
ARC
  5
348
100
AcDbEntity
  8
0
100
AcDbCircle
 62
7
  6
CONTINUOUS
 10
43.336581442
 20
50.9921764252
 30
0.0
 40
0.1718281381
100
AcDbArc
 50
295.736842332
 51
296.3697760982
  0
ARC
  5
349
100
AcDbEntity
  8
0
100
AcDbCircle
 62
250
  6
CONTINUOUS
 10
43.2319735608
 20
49.8128853661
 30
0.0
 40
0.0858047593
100
AcDbArc
 50
299.8810309016
 51
302.3401491355
  0
ARC
  5
34A
100
AcDbEntity
  8
0
100
AcDbCircle
 62
250
  6
CONTINUOUS
 10
43.3190726058
 20
49.9532104571
 30
0.0
 40
0.081088331
100
AcDbArc
 50
357.3824433828
 51
359.3078134367
  0
ARC
  5
34B
100
AcDbEntity
  8
0
100
AcDbCircle
 62
7
  6
CONTINUOUS
 10
29.1973169802
 20
95.4087182276
 30
0.0
 40
0.25
100
AcDbArc
 50
239.998408369
 51
263.5076226835
  0
ARC
  5
34C
100
AcDbEntity
  8
0
100
AcDbCircle
 62
7
  6
CONTINUOUS
 10
27.5187789097
 20
96.3778850725
 30
0.0
 40
0.25
100
AcDbArc
 50
179.3048641773
 51
240.0112955277
  0
ARC
  5
34D
100
AcDbEntity
  8
0
100
AcDbCircle
 62
7
  6
CONTINUOUS
 10
31.3245983995
 20
96.5954210435
 30
0.0
 40
0.25
100
AcDbArc
 50
320.9566559402
 51
359.3071969038
  0
ARC
  5
34E
100
AcDbEntity
  8
0
100
AcDbCircle
 62
7
  6
CONTINUOUS
 10
29.637708291
 20
97.9016300759
 30
0.0
 40
0.25
100
AcDbArc
 50
59.9984015652
 51
118.716749627
  0
ARC
  5
34F
100
AcDbEntity
  8
0
100
AcDbCircle
 62
7
  6
CONTINUOUS
 10
31.3285878421
 20
96.9253374148
 30
0.0
 40
0.25
100
AcDbArc
 50
359.3071785035
 51
59.9983989766
  0
ARC
  5
350
100
AcDbEntity
  8
0
100
AcDbCircle
 62
7
  6
CONTINUOUS
 10
27.5226815961
 20
96.7006269283
 30
0.0
 40
0.25
100
AcDbArc
 50
119.8804602744
 51
179.3071936001
  0
ARC
  5
351
100
AcDbEntity
  8
0
100
AcDbCircle
 62
7
  6
CONTINUOUS
 10
29.0241558476
 20
97.752386693
 30
0.0
 40
0.0860777161
100
AcDbArc
 50
113.0174190212
 51
118.7125310497
  0
ARC
  5
352
100
AcDbEntity
  8
0
100
AcDbCircle
 62
250
  6
CONTINUOUS
 10
29.5587766229
 20
98.0456992641
 30
0.0
 40
0.0857251695
100
AcDbArc
 50
117.3187823506
 51
118.7159629325
  0
ARC
  5
353
100
AcDbEntity
  8
0
100
AcDbCircle
 62
250
  6
CONTINUOUS
 10
29.7210154741
 20
98.0459167736
 30
0.0
 40
0.083390233
100
AcDbArc
 50
59.9971235763
 51
61.2736073954
  0
ARC
  5
354
100
AcDbEntity
  8
0
100
AcDbCircle
 62
250
  6
CONTINUOUS
 10
31.4934996354
 20
96.5933777326
 30
0.0
 40
0.0810861561
100
AcDbArc
 50
357.464733613
 51
359.3078392567
  0
ARC
  5
355
100
AcDbEntity
  8
0
100
AcDbCircle
 62
7
  6
CONTINUOUS
 10
41.5009749728
 20
88.3047403037
 30
0.0
 40
0.25
100
AcDbArc
 50
239.9844473831
 51
263.5075885128
  0
ARC
  5
356
100
AcDbEntity
  8
0
100
AcDbCircle
 62
7
  6
CONTINUOUS
 10
39.8224369024
 20
89.2739071486
 30
0.0
 40
0.25
100
AcDbArc
 50
179.3048641773
 51
240.0112955277
  0
ARC
  5
357
100
AcDbEntity
  8
0
100
AcDbCircle
 62
7
  6
CONTINUOUS
 10
43.6282563922
 20
89.4914431196
 30
0.0
 40
0.25
100
AcDbArc
 50
320.956916806
 51
359.3060434529
  0
ARC
  5
358
100
AcDbEntity
  8
0
100
AcDbCircle
 62
7
  6
CONTINUOUS
 10
39.8263395887
 20
89.5966490044
 30
0.0
 40
0.25
100
AcDbArc
 50
119.8804923342
 51
179.3066056978
  0
ARC
  5
359
100
AcDbEntity
  8
0
100
AcDbCircle
 62
7
  6
CONTINUOUS
 10
41.9413662836
 20
90.797652152
 30
0.0
 40
0.25
100
AcDbArc
 50
59.9993240755
 51
118.7176635316
  0
ARC
  5
35A
100
AcDbEntity
  8
0
100
AcDbCircle
 62
7
  6
CONTINUOUS
 10
43.6322458348
 20
89.8213594909
 30
0.0
 40
0.25
100
AcDbArc
 50
359.3066126503
 51
59.9984015652
  0
ARC
  5
35B
100
AcDbEntity
  8
0
100
AcDbCircle
 62
7
  6
CONTINUOUS
 10
36.7366688565
 20
92.587166983
 30
0.0
 40
0.2
100
AcDbArc
 50
119.5911150978
 51
179.3071969038
  0
ARC
  5
35C
100
AcDbEntity
  8
0
100
AcDbCircle
 62
7
  6
CONTINUOUS
 10
41.3278138403
 20
90.6484087691
 30
0.0
 40
0.0860777161
100
AcDbArc
 50
113.0174190206
 51
118.7125310499
  0
ARC
  5
35D
100
AcDbEntity
  8
0
100
AcDbCircle
 62
250
  6
CONTINUOUS
 10
41.8624374334
 20
90.941716056
 30
0.0
 40
0.0857311582
100
AcDbArc
 50
117.0258002927
 51
118.71858278
  0
ARC
  5
35E
100
AcDbEntity
  8
0
100
AcDbCircle
 62
250
  6
CONTINUOUS
 10
42.0246749254
 20
90.9419414201
 30
0.0
 40
0.083387277
100
AcDbArc
 50
59.9998741401
 51
61.0231764106
  0
ARC
  5
35F
100
AcDbEntity
  8
0
100
AcDbCircle
 62
250
  6
CONTINUOUS
 10
43.7971657258
 20
89.4893995998
 30
0.0
 40
0.0810780564
100
AcDbArc
 50
357.7921431676
 51
359.3043611269
  0
ARC
  5
360
100
AcDbEntity
  8
0
100
AcDbCircle
 62
7
  6
CONTINUOUS
 10
42.6748312548
 20
93.7171192725
 30
0.0
 40
0.4266215808
100
AcDbArc
 50
114.9939188192
 51
119.0658195189
  0
ARC
  5
361
100
AcDbEntity
  8
0
100
AcDbCircle
 62
7
  6
CONTINUOUS
 10
37.7250837865
 20
96.5750414259
 30
0.0
 40
0.4266215808
100
AcDbArc
 50
114.9939188191
 51
119.065819519
  0
ARC
  5
362
100
AcDbEntity
  8
RACCORDO
100
AcDbCircle
 62
250
  6
CONTINUOUS
 10
516.6081245859
 20
65.1682278788
 30
0.0
 40
480.431606965
100
AcDbArc
 50
177.9112392055
 51
178.6748815556
  0
ARC
  5
363
100
AcDbEntity
  8
RACCORDO
100
AcDbCircle
 62
250
  6
CONTINUOUS
 10
514.5051913938
 20
65.0713862394
 30
0.0
 40
477.6485113154
100
AcDbArc
 50
177.8893313019
 51
178.2708550573
  0
ARC
  5
364
100
AcDbEntity
  8
RACCORDO
100
AcDbCircle
 62
250
  6
CONTINUOUS
 10
510.2206710117
 20
65.3203773134
 30
0.0
 40
474.0423427948
100
AcDbArc
 50
178.6866435957
 51
178.8886433662
  0
ARC
  5
365
100
AcDbEntity
  8
RACCORDO
100
AcDbCircle
 62
250
  6
CONTINUOUS
 10
504.3858334634
 20
65.424320098
 30
0.0
 40
468.2065868053
100
AcDbArc
 50
178.8881349807
 51
179.4472533912
  0
ARC
  5
366
100
AcDbEntity
  8
0
100
AcDbCircle
 62
7
  6
CONTINUOUS
 10
398.3855476137
 20
78.9755829246
 30
0.0
 40
386.3002248279
100
AcDbArc
 50
181.1788423107
 51
181.3587563402
  0
ARC
  5
367
100
AcDbEntity
  8
0
100
AcDbCircle
 62
7
  6
CONTINUOUS
 10
396.3130732716
 20
78.925879518
 30
0.0
 40
384.2271389369
100
AcDbArc
 50
181.3586764485
 51
181.5382062628
  0
ARC
  5
368
100
AcDbEntity
  8
DRAFT
100
AcDbCircle
 62
7
  6
CONTINUOUS
 10
392.5337343812
 20
78.1597852203
 30
0.0
 40
379.0915842715
100
AcDbArc
 50
181.2018158427
 51
181.3851080765
  0
ARC
  5
369
100
AcDbEntity
  8
DRAFT
100
AcDbCircle
 62
7
  6
CONTINUOUS
 10
390.4602879577
 20
78.1101975519
 30
0.0
 40
377.0175328528
100
AcDbArc
 50
181.3851923618
 51
181.568109544
  0
ARC
  5
36A
100
AcDbEntity
  8
RACCORDO
100
AcDbCircle
 62
250
  6
CONTINUOUS
 10
321.1397463639
 20
611.9438495835
 30
0.0
 40
599.3147639727
100
AcDbArc
 50
241.5882976574
 51
241.7337156558
  0
ARC
  5
36B
100
AcDbEntity
  8
RACCORDO
100
AcDbCircle
 62
250
  6
CONTINUOUS
 10
319.7169060837
 20
609.313090559
 30
0.0
 40
596.3238832599
100
AcDbArc
 50
241.3819715826
 51
241.5882722795
  0
ARC
  5
36C
100
AcDbEntity
  8
RACCORDO
100
AcDbCircle
 62
250
  6
CONTINUOUS
 10
305.2462708235
 20
583.9488311964
 30
0.0
 40
568.7480109011
100
AcDbArc
 50
238.2602474723
 51
239.320217189
  0
ARC
  5
36D
100
AcDbEntity
  8
RACCORDO
100
AcDbCircle
 62
250
  6
CONTINUOUS
 10
303.813698326
 20
581.1359618901
 30
0.0
 40
563.9671738908
100
AcDbArc
 50
239.2585173426
 51
239.8029833959
  0
ARC
  5
36E
100
AcDbEntity
  8
RACCORDO
100
AcDbCircle
 62
250
  6
CONTINUOUS
 10
297.720572454
 20
570.8953256518
 30
0.0
 40
552.0509325302
100
AcDbArc
 50
238.2074648009
 51
239.2587535986
  0
SPLINE
  5
36F
100
AcDbEntity
  8
0
100
AcDbSpline
 62
7
  6
CONTINUOUS
 70
0
 71
3
 72
11
 73
7
 74
0
 42
0.0000001
 43
0.0000001
 44
0.0000000001
 40
0.0
 40
0.0
 40
0.0
 40
0.0
 40
0.2924311425
 40
0.5530487654
 40
0.7856349622
 40
1.0
 40
1.0
 40
1.0
 40
1.0
 10
12.1670764533
 20
71.0281446806
 30
0.0
 10
12.1661100335
 20
71.0750788057
 30
0.0
 10
12.170851568
 20
71.1642486979
 30
0.0
 10
12.2020668201
 20
71.2874615011
 30
0.0
 10
12.256641013
 20
71.3886691252
 30
0.0
 10
12.3095682534
 20
71.4393862862
 30
0.0
 10
12.3382053368
 20
71.4584679452
 30
0.0
  0
SPLINE
  5
370
100
AcDbEntity
  8
0
100
AcDbSpline
 62
7
  6
CONTINUOUS
 70
0
 71
3
 72
17
 73
13
 74
0
 42
0.0000001
 43
0.0000001
 44
0.0000000001
 40
0.0
 40
0.0
 40
0.0
 40
0.0
 40
0.0411967863
 40
0.0847732838
 40
0.1321212104
 40
0.1840497165
 40
0.3021170515
 40
0.4370382774
 40
0.5825267983
 40
0.7303916086
 40
0.8720485268
 40
1.0
 40
1.0
 40
1.0
 40
1.0
 10
13.3834318551
 20
67.3456693537
 30
0.0
 10
13.3598234686
 20
67.3340029601
 30
0.0
 10
13.3077672429
 20
67.3165387195
 30
0.0
 10
13.2228408597
 20
67.3101640438
 30
0.0
 10
13.1318126469
 20
67.3228053474
 30
0.0
 10
12.9991850653
 20
67.3660584648
 30
0.0
 10
12.8300641719
 20
67.4675361418
 30
0.0
 10
12.6424118493
 20
67.641639472
 30
0.0
 10
12.4753055045
 20
67.860021541
 30
0.0
 10
12.34211822
 20
68.1054344499
 30
0.0
 10
12.253326034
 20
68.3582612988
 30
0.0
 10
12.2265969699
 20
68.5300990161
 30
0.0
 10
12.2244002152
 20
68.6118581264
 30
0.0
  0
SPLINE
  5
371
100
AcDbEntity
  8
0
100
AcDbSpline
 62
7
  6
CONTINUOUS
 70
0
 71
3
 72
17
 73
13
 74
0
 42
0.0000001
 43
0.0000001
 44
0.0000000001
 40
0.0
 40
0.0
 40
0.0
 40
0.0
 40
0.0413711037
 40
0.084309518
 40
0.1305355671
 40
0.1811866924
 40
0.2970809673
 40
0.431120089
 40
0.5771396551
 40
0.7265668247
 40
0.8702231815
 40
1.0
 40
1.0
 40
1.0
 40
1.0
 10
12.3382053368
 20
71.4584679452
 30
0.0
 10
12.3606635179
 20
71.4734324354
 30
0.0
 10
12.4108998494
 20
71.497726831
 30
0.0
 10
12.4954925613
 20
71.5133265648
 30
0.0
 10
12.5872926467
 20
71.5084277616
 30
0.0
 10
12.7224228992
 20
71.4737385566
 30
0.0
 10
12.8968452646
 20
71.3781532783
 30
0.0
 10
13.0911271149
 20
71.2057813604
 30
0.0
 10
13.2650849344
 20
70.9844157603
 30
0.0
 10
13.4040361072
 20
70.7324873249
 30
0.0
 10
13.4964475332
 20
70.4713110661
 30
0.0
 10
13.5237610375
 20
70.2933189259
 30
0.0
 10
13.5255374157
 20
70.2086817261
 30
0.0
  0
SPLINE
  5
372
100
AcDbEntity
  8
0
100
AcDbSpline
 62
7
  6
CONTINUOUS
 70
0
 71
3
 72
11
 73
7
 74
0
 42
0.0000001
 43
0.0000001
 44
0.0000000001
 40
0.0
 40
0.0
 40
0.0
 40
0.0
 40
0.2956820036
 40
0.5556370899
 40
0.7857592375
 40
1.0
 40
1.0
 40
1.0
 40
1.0
 10
13.5839543939
 20
67.7930114922
 30
0.0
 10
13.5853471533
 20
67.7421605105
 30
0.0
 10
13.5803243562
 20
67.6460203423
 30
0.0
 10
13.5438086849
 20
67.5144596862
 30
0.0
 10
13.4789649305
 20
67.4096649927
 30
0.0
 10
13.4164760201
 20
67.3619985611
 30
0.0
 10
13.3834318551
 20
67.3456693537
 30
0.0
  0
SPLINE
  5
373
100
AcDbEntity
  8
RACCORDO
100
AcDbSpline
 62
7
  6
CONTINUOUS
 70
0
 71
3
 72
11
 73
7
 74
0
 42
0.0000001
 43
0.0000001
 44
0.0000000001
 40
0.0
 40
0.0
 40
0.0
 40
0.0
 40
0.2661148148
 40
0.5216850929
 40
0.765371401
 40
1.0
 40
1.0
 40
1.0
 40
1.0
 10
48.8108065099
 20
59.3325371157
 30
0.0
 10
48.799793254
 20
59.3388961487
 30
0.0
 10
48.7772520115
 20
59.3498419869
 30
0.0
 10
48.7416809254
 20
59.3594742789
 30
0.0
 10
48.7061548945
 20
59.3600584287
 30
0.0
 10
48.6838597775
 20
59.3528942089
 30
0.0
 10
48.673999153
 20
59.3475565797
 30
0.0
  0
SPLINE
  5
374
100
AcDbEntity
  8
RACCORDO
100
AcDbSpline
 62
7
  6
CONTINUOUS
 70
0
 71
3
 72
11
 73
7
 74
0
 42
0.0000001
 43
0.0000001
 44
0.0000000001
 40
0.0
 40
0.0
 40
0.0
 40
0.0
 40
0.266086874
 40
0.521534439
 40
0.7651339542
 40
1.0
 40
1.0
 40
1.0
 40
1.0
 10
49.5578476822
 20
91.7707043954
 30
0.0
 10
49.5576928587
 20
91.7578887818
 30
0.0
 10
49.5555689645
 20
91.7327267287
 30
0.0
 10
49.5455317171
 20
91.696970521
 30
0.0
 10
49.5275789633
 20
91.6659658384
 30
0.0
 10
49.5097197674
 20
91.6504992015
 30
0.0
 10
49.499939591
 20
91.6448135812
 30
0.0
  0
SPLINE
  5
375
100
AcDbEntity
  8
0
100
AcDbSpline
 62
7
  6
CONTINUOUS
 70
0
 71
3
 72
13
 73
9
 74
0
 42
0.0000001
 43
0.0000001
 44
0.0000000001
 40
0.0
 40
0.0
 40
0.0
 40
0.0
 40
0.2882734259
 40
0.5467625516
 40
0.6663368739
 40
0.780694411
 40
0.8913216455
 40
1.0
 40
1.0
 40
1.0
 40
1.0
 10
45.9885541444
 20
95.1357304165
 30
0.0
 10
46.0313586209
 20
95.1594626134
 30
0.0
 10
46.1163498471
 20
95.1981844484
 30
0.0
 10
46.2278379873
 20
95.2232168349
 30
0.0
 10
46.3116668384
 20
95.2250851912
 30
0.0
 10
46.3699606534
 20
95.2180011735
 30
0.0
 10
46.4246846543
 20
95.2024920255
 30
0.0
 10
46.4585515764
 20
95.1865405078
 30
0.0
 10
46.4745304355
 20
95.1773137505
 30
0.0
  0
SPLINE
  5
376
100
AcDbEntity
  8
0
100
AcDbSpline
 62
7
  6
CONTINUOUS
 70
0
 71
3
 72
14
 73
10
 74
0
 42
0.0000001
 43
0.0000001
 44
0.0000000001
 40
0.0
 40
0.0
 40
0.0
 40
0.0
 40
0.2900549867
 40
0.4235420553
 40
0.5495754651
 40
0.6688866329
 40
0.7826285517
 40
0.892364732
 40
1.0
 40
1.0
 40
1.0
 40
1.0
 10
42.4388957425
 20
97.1577092815
 30
0.0
 10
42.4395236258
 20
97.2096335732
 30
0.0
 10
42.4343679396
 20
97.285904748
 30
0.0
 10
42.4120040606
 20
97.3818938852
 30
0.0
 10
42.3888597622
 20
97.4458396186
 30
0.0
 10
42.3590768027
 20
97.503045642
 30
0.0
 10
42.3228895272
 20
97.552917703
 30
0.0
 10
42.2806438121
 20
97.5948734252
 30
0.0
 10
42.2485772465
 20
97.61732536
 30
0.0
 10
42.2318897484
 20
97.6269613105
 30
0.0
  0
SPLINE
  5
377
100
AcDbEntity
  8
0
100
AcDbSpline
 62
7
  6
CONTINUOUS
 70
0
 71
3
 72
8
 73
4
 74
0
 42
0.0000001
 43
0.0000001
 44
0.0000000001
 40
0.0
 40
0.0
 40
0.0
 40
0.0
 40
1.0
 40
1.0
 40
1.0
 40
1.0
 10
43.276354442
 20
93.783611305
 30
0.0
 10
43.2763578718
 20
93.783905703
 30
0.0
 10
43.2761691075
 20
93.784229705
 30
0.0
 10
43.2759141957
 20
93.7843770207
 30
0.0
  0
SPLINE
  5
378
100
AcDbEntity
  8
0
100
AcDbSpline
 62
7
  6
CONTINUOUS
 70
0
 71
3
 72
8
 73
4
 74
0
 42
0.0000001
 43
0.0000001
 44
0.0000000001
 40
0.0
 40
0.0
 40
0.0
 40
0.0
 40
1.0
 40
1.0
 40
1.0
 40
1.0
 10
37.6776562738
 20
97.0162294927
 30
0.0
 10
37.6776596819
 20
97.0165238936
 30
0.0
 10
37.677470877
 20
97.0168478649
 30
0.0
 10
37.6772159618
 20
97.01699518
 30
0.0
  0
SPLINE
  5
379
100
AcDbEntity
  8
0
100
AcDbSpline
 62
7
  6
CONTINUOUS
 70
0
 71
3
 72
13
 73
9
 74
0
 42
0.0000001
 43
0.0000001
 44
0.0000000001
 40
0.0
 40
0.0
 40
0.0
 40
0.0
 40
0.0966350164
 40
0.2006154069
 40
0.313365431
 40
0.4353451603
 40
0.7046693924
 40
1.0
 40
1.0
 40
1.0
 40
1.0
 10
43.1037817381
 20
92.8160114323
 30
0.0
 10
43.1136530887
 20
92.8275505146
 30
0.0
 10
43.1313451042
 20
92.8539970393
 30
0.0
 10
43.1500689284
 20
92.8998239147
 30
0.0
 10
43.1615938423
 20
92.9520177039
 30
0.0
 10
43.1673020852
 20
93.031244508
 30
0.0
 10
43.1544366621
 20
93.1393460908
 30
0.0
 10
43.1270851819
 20
93.2242942097
 30
0.0
 10
43.1092368322
 20
93.2671333173
 30
0.0
  0
SPLINE
  5
37A
100
AcDbEntity
  8
0
100
AcDbSpline
 62
7
  6
CONTINUOUS
 70
0
 71
3
 72
12
 73
8
 74
0
 42
0.0000001
 43
0.0000001
 44
0.0000000001
 40
0.0
 40
0.0
 40
0.0
 40
0.0
 40
0.1073931669
 40
0.2169340311
 40
0.449258413
 40
0.7087917498
 40
1.0
 40
1.0
 40
1.0
 40
1.0
 10
49.637201454
 20
57.9157414588
 30
0.0
 10
49.6373148733
 20
57.9251566587
 30
0.0
 10
49.6358675703
 20
57.9442365829
 30
0.0
 10
49.6261868566
 20
57.9825878934
 30
0.0
 10
49.6006947784
 20
58.0297396574
 30
0.0
 10
49.552918525
 20
58.0798431463
 30
0.0
 10
49.5128677962
 20
58.1073931252
 30
0.0
 10
49.4907566265
 20
58.1201598375
 30
0.0
  0
SPLINE
  5
37B
100
AcDbEntity
  8
0
100
AcDbSpline
 62
7
  6
CONTINUOUS
 70
0
 71
3
 72
11
 73
7
 74
0
 42
0.0000001
 43
0.0000001
 44
0.0000000001
 40
0.0
 40
0.0
 40
0.0
 40
0.0
 40
0.2895922118
 40
0.5486480048
 40
0.7819022752
 40
1.0
 40
1.0
 40
1.0
 40
1.0
 10
49.9124590511
 20
92.0861568744
 30
0.0
 10
49.9333407288
 20
92.0982970741
 30
0.0
 10
49.9712277474
 20
92.1244849876
 30
0.0
 10
50.0165808295
 20
92.1721343886
 30
0.0
 10
50.0454896528
 20
92.2247589253
 30
0.0
 10
50.0525339137
 20
92.2625704054
 30
0.0
 10
50.0527530348
 20
92.2807601551
 30
0.0
  0
SPLINE
  5
37C
100
AcDbEntity
  8
0
100
AcDbSpline
 62
7
  6
CONTINUOUS
 70
0
 71
3
 72
12
 73
8
 74
0
 42
0.0000001
 43
0.0000001
 44
0.0000000001
 40
0.0
 40
0.0
 40
0.0
 40
0.0
 40
0.1149801303
 40
0.2322467676
 40
0.4754685515
 40
0.731979994
 40
1.0
 40
1.0
 40
1.0
 40
1.0
 10
36.8977667758
 20
97.3372760124
 30
0.0
 10
36.9086415334
 20
97.3422075016
 30
0.0
 10
36.931524904
 20
97.3502571745
 30
0.0
 10
36.9803329627
 20
97.3588466285
 30
0.0
 10
37.0451752688
 20
97.3554840649
 30
0.0
 10
37.1222129106
 20
97.3331750773
 30
0.0
 10
37.1713489394
 20
97.309077046
 30
0.0
 10
37.1954531505
 20
97.29515902
 30
0.0
  0
SPLINE
  5
37D
100
AcDbEntity
  8
0
100
AcDbSpline
 62
7
  6
CONTINUOUS
 70
0
 71
3
 72
12
 73
8
 74
0
 42
0.0000001
 43
0.0000001
 44
0.0000000001
 40
0.0
 40
0.0
 40
0.0
 40
0.0
 40
0.1149595427
 40
0.232176917
 40
0.4753085958
 40
0.731844361
 40
1.0
 40
1.0
 40
1.0
 40
1.0
 10
42.4945742227
 20
94.1037888674
 30
0.0
 10
42.5054683637
 20
94.1088626432
 30
0.0
 10
42.5284228199
 20
94.1171783773
 30
0.0
 10
42.5774768436
 20
94.1261881668
 30
0.0
 10
42.6427727196
 20
94.1231065073
 30
0.0
 10
42.7203829525
 20
94.1008017309
 30
0.0
 10
42.769875002
 20
94.076558223
 30
0.0
 10
42.7941513438
 20
94.0625408185
 30
0.0
  0
SPLINE
  5
37E
100
AcDbEntity
  8
RACCORDO
100
AcDbSpline
 62
7
  6
CONTINUOUS
 70
0
 71
3
 72
11
 73
7
 74
0
 42
0.0000001
 43
0.0000001
 44
0.0000000001
 40
0.0
 40
0.0
 40
0.0
 40
0.0
 40
0.217602063
 40
0.4506474664
 40
0.7098847559
 40
1.0
 40
1.0
 40
1.0
 40
1.0
 10
49.1527159238
 20
58.267388864
 30
0.0
 10
49.1526261834
 20
58.2600286181
 30
0.0
 10
49.1497394523
 20
58.2447167892
 30
0.0
 10
49.1379061808
 20
58.2234492452
 30
0.0
 10
49.1193676951
 20
58.2042377312
 30
0.0
 10
49.1039021789
 20
58.1937193961
 30
0.0
 10
49.0953805883
 20
58.1888520641
 30
0.0
  0
SPLINE
  5
37F
100
AcDbEntity
  8
0
100
AcDbSpline
 62
7
  6
CONTINUOUS
 70
0
 71
3
 72
10
 73
6
 74
0
 42
0.0000001
 43
0.0000001
 44
0.0000000001
 40
0.0
 40
0.0
 40
0.0
 40
0.0
 40
0.1308701177
 40
0.3348420788
 40
1.0
 40
1.0
 40
1.0
 40
1.0
 10
43.2759141957
 20
93.7843770207
 30
0.0
 10
43.2756111524
 20
93.784552152
 30
0.0
 10
43.2746889379
 20
93.7846950162
 30
0.0
 10
43.2720339562
 20
93.7844798301
 30
0.0
 10
43.2697651341
 20
93.7838678089
 30
0.0
 10
43.2680563299
 20
93.7833731924
 30
0.0
  0
SPLINE
  5
380
100
AcDbEntity
  8
0
100
AcDbSpline
 62
7
  6
CONTINUOUS
 70
0
 71
3
 72
11
 73
7
 74
0
 42
0.0000001
 43
0.0000001
 44
0.0000000001
 40
0.0
 40
0.0
 40
0.0
 40
0.0
 40
0.1273022466
 40
0.3343227175
 40
0.6258923274
 40
1.0
 40
1.0
 40
1.0
 40
1.0
 10
43.2680563299
 20
93.7833731924
 30
0.0
 10
43.2626012591
 20
93.7817942119
 30
0.0
 10
43.2486458191
 20
93.776452708
 30
0.0
 10
43.2229579474
 20
93.7655390862
 30
0.0
 10
43.1874759499
 20
93.7494978712
 30
0.0
 10
43.1605344749
 20
93.7370119921
 30
0.0
 10
43.1454047256
 20
93.7299681615
 30
0.0
  0
SPLINE
  5
381
100
AcDbEntity
  8
RACCORDO
100
AcDbSpline
 62
7
  6
CONTINUOUS
 70
0
 71
3
 72
18
 73
14
 74
0
 42
0.0000001
 43
0.0000001
 44
0.0000000001
 40
0.0
 40
0.0
 40
0.0
 40
0.0
 40
0.003902144
 40
0.0144345469
 40
0.0319370232
 40
0.0567172369
 40
0.0890771841
 40
0.1293059677
 40
0.2344771291
 40
0.3740107827
 40
0.5488162076
 40
0.7584473661
 40
1.0
 40
1.0
 40
1.0
 40
1.0
 10
49.1631312333
 20
59.129109236
 30
0.0
 10
49.1630583117
 20
59.1291514497
 30
0.0
 10
49.1627366016
 20
59.1289259346
 30
0.0
 10
49.1621416757
 20
59.1287325411
 30
0.0
 10
49.1611071182
 20
59.1281619484
 30
0.0
 10
49.1596851215
 20
59.1274425011
 30
0.0
 10
49.1578257025
 20
59.1264456032
 30
0.0
 10
49.1544475609
 20
59.1246307783
 30
0.0
 10
49.1490470233
 20
59.1216779874
 30
0.0
 10
49.1411156833
 20
59.1173042431
 30
0.0
 10
49.1312245926
 20
59.1118102139
 30
0.0
 10
49.1194215975
 20
59.1052228254
 30
0.0
 10
49.1109220576
 20
59.1004612129
 30
0.0
 10
49.1063731663
 20
59.0979092434
 30
0.0
  0
SPLINE
  5
382
100
AcDbEntity
  8
0
100
AcDbSpline
 62
7
  6
CONTINUOUS
 70
0
 71
3
 72
10
 73
6
 74
0
 42
0.0000001
 43
0.0000001
 44
0.0000000001
 40
0.0
 40
0.0
 40
0.0
 40
0.0
 40
0.1296052318
 40
0.3331179728
 40
1.0
 40
1.0
 40
1.0
 40
1.0
 10
37.6772159618
 20
97.01699518
 30
0.0
 10
37.6769046792
 20
97.0171750697
 30
0.0
 10
37.6759509298
 20
97.0173156354
 30
0.0
 10
37.6731999062
 20
97.0170756418
 30
0.0
 10
37.6708458361
 20
97.0164290337
 30
0.0
 10
37.6690709201
 20
97.0159076038
 30
0.0
  0
SPLINE
  5
383
100
AcDbEntity
  8
0
100
AcDbSpline
 62
7
  6
CONTINUOUS
 70
0
 71
3
 72
11
 73
7
 74
0
 42
0.0000001
 43
0.0000001
 44
0.0000000001
 40
0.0
 40
0.0
 40
0.0
 40
0.0
 40
0.1280106845
 40
0.3353995011
 40
0.6268257042
 40
1.0
 40
1.0
 40
1.0
 40
1.0
 10
37.6690709201
 20
97.0159076038
 30
0.0
 10
37.6635192107
 20
97.0142766382
 30
0.0
 10
37.649342551
 20
97.0088268709
 30
0.0
 10
37.6232850128
 20
96.9977269794
 30
0.0
 10
37.587369497
 20
96.981470253
 30
0.0
 10
37.5601178696
 20
96.9688326184
 30
0.0
 10
37.5448267544
 20
96.9617110207
 30
0.0
  0
SPLINE
  5
384
100
AcDbEntity
  8
0
100
AcDbSpline
 62
7
  6
CONTINUOUS
 70
0
 71
3
 72
11
 73
7
 74
0
 42
0.0000001
 43
0.0000001
 44
0.0000000001
 40
0.0
 40
0.0
 40
0.0
 40
0.0
 40
0.2383300715
 40
0.5013983878
 40
0.7637060438
 40
1.0
 40
1.0
 40
1.0
 40
1.0
 10
33.2718596063
 20
94.4267065234
 30
0.0
 10
33.2721403065
 20
94.4499196872
 30
0.0
 10
33.2812605131
 20
94.4986891052
 30
0.0
 10
33.3119577316
 20
94.5670504456
 30
0.0
 10
33.3564503776
 20
94.6271018507
 30
0.0
 10
33.3944180174
 20
94.6586534005
 30
0.0
 10
33.4144325662
 20
94.6700190728
 30
0.0
  0
SPLINE
  5
385
100
AcDbEntity
  8
0
100
AcDbSpline
 62
7
  6
CONTINUOUS
 70
0
 71
3
 72
11
 73
7
 74
0
 42
0.0000001
 43
0.0000001
 44
0.0000000001
 40
0.0
 40
0.0
 40
0.0
 40
0.0
 40
0.2183981224
 40
0.452105724
 40
0.7112366623
 40
1.0
 40
1.0
 40
1.0
 40
1.0
 10
43.4235197055
 20
50.8429658126
 30
0.0
 10
43.440246467
 20
50.8526331083
 30
0.0
 10
43.4715840073
 20
50.8788539405
 30
0.0
 10
43.5052522677
 20
50.9329888985
 30
0.0
 10
43.5257286547
 20
50.9996589617
 30
0.0
 10
43.5301861535
 20
51.0482406338
 30
0.0
 10
43.5304950155
 20
51.0737827083
 30
0.0
  0
SPLINE
  5
386
100
AcDbEntity
  8
0
100
AcDbSpline
 62
7
  6
CONTINUOUS
 70
0
 71
3
 72
11
 73
7
 74
0
 42
0.0000001
 43
0.0000001
 44
0.0000000001
 40
0.0
 40
0.0
 40
0.0
 40
0.0
 40
0.2888178392
 40
0.5479299009
 40
0.7815996535
 40
1.0
 40
1.0
 40
1.0
 40
1.0
 10
42.7997174695
 20
49.5502412446
 30
0.0
 10
42.7995627552
 20
49.5374467748
 30
0.0
 10
42.797326859
 20
49.5131139917
 30
0.0
 10
42.7870508226
 20
49.4797291597
 30
0.0
 10
42.7701537734
 20
49.4526389443
 30
0.0
 10
42.7544294405
 20
49.4395417999
 30
0.0
 10
42.7460399553
 20
49.4347214139
 30
0.0
  0
SPLINE
  5
387
100
AcDbEntity
  8
0
100
AcDbSpline
 62
7
  6
CONTINUOUS
 70
0
 71
3
 72
12
 73
8
 74
0
 42
0.0000001
 43
0.0000001
 44
0.0000000001
 40
0.0
 40
0.0
 40
0.0
 40
0.0
 40
0.0948962742
 40
0.2047306475
 40
0.460129733
 40
0.7402363167
 40
1.0
 40
1.0
 40
1.0
 40
1.0
 10
41.9195173382
 20
49.8648600348
 30
0.0
 10
41.9077577211
 20
49.8661984974
 30
0.0
 10
41.8825142944
 20
49.8702128797
 30
0.0
 10
41.8264541922
 20
49.8825801887
 30
0.0
 10
41.7492443047
 20
49.9057272149
 30
0.0
 10
41.6566147429
 20
49.9414018674
 30
0.0
 10
41.5959904326
 20
49.9710765448
 30
0.0
 10
41.5679334417
 20
49.9872762997
 30
0.0
  0
SPLINE
  5
388
100
AcDbEntity
  8
0
100
AcDbSpline
 62
7
  6
CONTINUOUS
 70
0
 71
3
 72
11
 73
7
 74
0
 42
0.0000001
 43
0.0000001
 44
0.0000000001
 40
0.0
 40
0.0
 40
0.0
 40
0.0
 40
0.2367823474
 40
0.4991205495
 40
0.7619376931
 40
1.0
 40
1.0
 40
1.0
 40
1.0
 10
35.2537293196
 20
93.8519161919
 30
0.0
 10
35.2737871867
 20
93.8403350308
 30
0.0
 10
35.3116902193
 20
93.8082720044
 30
0.0
 10
35.3556356916
 20
93.7473721431
 30
0.0
 10
35.3853241727
 20
93.6782528038
 30
0.0
 10
35.3934439223
 20
93.6291172656
 30
0.0
 10
35.3931623571
 20
93.6058325638
 30
0.0
  0
SPLINE
  5
389
100
AcDbEntity
  8
0
100
AcDbSpline
 62
7
  6
CONTINUOUS
 70
0
 71
3
 72
11
 73
7
 74
0
 42
0.0000001
 43
0.0000001
 44
0.0000000001
 40
0.0
 40
0.0
 40
0.0
 40
0.0
 40
0.2375637681
 40
0.4891649797
 40
0.7458469687
 40
1.0
 40
1.0
 40
1.0
 40
1.0
 10
42.0948342007
 20
87.985544503
 30
0.0
 10
42.1207592055
 20
87.9825955488
 30
0.0
 10
42.1754397317
 20
87.9866952058
 30
0.0
 10
42.2530850025
 20
88.0149952095
 30
0.0
 10
42.3240070352
 20
88.0606564105
 30
0.0
 10
42.3643683387
 20
88.1002863373
 30
0.0
 10
42.3821313741
 20
88.1218195327
 30
0.0
  0
SPLINE
  5
38A
100
AcDbEntity
  8
0
100
AcDbSpline
 62
7
  6
CONTINUOUS
 70
0
 71
3
 72
11
 73
7
 74
0
 42
0.0000001
 43
0.0000001
 44
0.0000000001
 40
0.0
 40
0.0
 40
0.0
 40
0.0
 40
0.2881168671
 40
0.5469157659
 40
0.7808291163
 40
1.0
 40
1.0
 40
1.0
 40
1.0
 10
36.9507855944
 20
92.8720571679
 30
0.0
 10
36.9421058524
 20
92.8770687422
 30
0.0
 10
36.9248121849
 20
92.8852964544
 30
0.0
 10
36.8981805288
 20
92.8917384791
 30
0.0
 10
36.8730958501
 20
92.8912200605
 30
0.0
 10
36.8578993653
 20
92.8859143068
 30
0.0
 10
36.8512313211
 20
92.8822174926
 30
0.0
  0
SPLINE
  5
38B
100
AcDbEntity
  8
0
100
AcDbSpline
 62
7
  6
CONTINUOUS
 70
0
 71
3
 72
11
 73
7
 74
0
 42
0.0000001
 43
0.0000001
 44
0.0000000001
 40
0.0
 40
0.0
 40
0.0
 40
0.0
 40
0.2541527341
 40
0.5108348563
 40
0.762436429
 40
1.0
 40
1.0
 40
1.0
 40
1.0
 10
30.0784733815
 20
95.2257974566
 30
0.0
 10
30.0607103698
 20
95.20426429
 30
0.0
 10
30.0203491021
 20
95.1646344508
 30
0.0
 10
29.9494270304
 20
95.1189728991
 30
0.0
 10
29.8717818949
 20
95.0906740455
 30
0.0
 10
29.817101004
 20
95.0865716209
 30
0.0
 10
29.7911762544
 20
95.0895225888
 30
0.0
  0
SPLINE
  5
38C
100
AcDbEntity
  8
0
100
AcDbSpline
 62
7
  6
CONTINUOUS
 70
0
 71
3
 72
11
 73
7
 74
0
 42
0.0000001
 43
0.0000001
 44
0.0000000001
 40
0.0
 40
0.0
 40
0.0
 40
0.0
 40
0.445454914
 40
0.5753688214
 40
0.7116715768
 40
1.0
 40
1.0
 40
1.0
 40
1.0
 10
39.2382657383
 20
90.6671755512
 30
0.0
 10
39.2649943721
 20
90.7145329797
 30
0.0
 10
39.2780594962
 20
90.7877289024
 30
0.0
 10
39.2747461379
 20
90.8742823215
 30
0.0
 10
39.2662688273
 20
90.9415860706
 30
0.0
 10
39.2535101062
 20
90.9920692233
 30
0.0
 10
39.2425991051
 20
91.0255335505
 30
0.0
  0
SPLINE
  5
38D
100
AcDbEntity
  8
0
100
AcDbSpline
 62
7
  6
CONTINUOUS
 70
0
 71
3
 72
13
 73
9
 74
0
 42
0.0000001
 43
0.0000001
 44
0.0000000001
 40
0.0
 40
0.0
 40
0.0
 40
0.0
 40
0.1086783545
 40
0.219305589
 40
0.3336631261
 40
0.4532374484
 40
0.7117265741
 40
1.0
 40
1.0
 40
1.0
 40
1.0
 10
42.2318897484
 20
97.6269613105
 30
0.0
 10
42.2159108893
 20
97.6361880678
 30
0.0
 10
42.1820439672
 20
97.6521395854
 30
0.0
 10
42.1273199663
 20
97.6676487334
 30
0.0
 10
42.0690261513
 20
97.6747327511
 30
0.0
 10
41.9851973002
 20
97.6728643948
 30
0.0
 10
41.87370916
 20
97.6478320083
 30
0.0
 10
41.7887179337
 20
97.6091101733
 30
0.0
 10
41.7459134573
 20
97.5853779765
 30
0.0
  0
SPLINE
  5
38E
100
AcDbEntity
  8
0
100
AcDbSpline
 62
7
  6
CONTINUOUS
 70
0
 71
3
 72
15
 73
11
 74
0
 42
0.0000001
 43
0.0000001
 44
0.0000000001
 40
0.0
 40
0.0
 40
0.0
 40
0.0
 40
0.1140222651
 40
0.2369772406
 40
0.3663983972
 40
0.4992392068
 40
0.6321784124
 40
0.761893802
 40
0.8853320128
 40
1.0
 40
1.0
 40
1.0
 40
1.0
 10
43.6170209081
 20
87.6984649441
 30
0.0
 10
43.6412042259
 20
87.6845017995
 30
0.0
 10
43.6888779013
 20
87.6508961242
 30
0.0
 10
43.7543264176
 20
87.5891583561
 30
0.0
 10
43.8144093685
 20
87.5161145452
 30
0.0
 10
43.8668788343
 20
87.4345325792
 30
0.0
 10
43.9097835264
 20
87.3474587259
 30
0.0
 10
43.9415256899
 20
87.2581412474
 30
0.0
 10
43.9609310206
 20
87.1699296744
 30
0.0
 10
43.9653412329
 20
87.1115019393
 30
0.0
 10
43.9650016691
 20
87.0834209101
 30
0.0
  0
SPLINE
  5
38F
100
AcDbEntity
  8
0
100
AcDbSpline
 62
7
  6
CONTINUOUS
 70
0
 71
3
 72
11
 73
7
 74
0
 42
0.0000001
 43
0.0000001
 44
0.0000000001
 40
0.0
 40
0.0
 40
0.0
 40
0.0
 40
0.2860330851
 40
0.5455144193
 40
0.7811632261
 40
1.0
 40
1.0
 40
1.0
 40
1.0
 10
43.5295717878
 20
51.0745192382
 30
0.0
 10
43.5292904524
 20
51.0512535475
 30
0.0
 10
43.5255274334
 20
51.0068022502
 30
0.0
 10
43.5086078488
 20
50.9451086828
 30
0.0
 10
43.4809176064
 20
50.8934160683
 30
0.0
 10
43.4548916014
 20
50.8663003866
 30
0.0
 10
43.4407299138
 20
50.8555146133
 30
0.0
  0
SPLINE
  5
390
100
AcDbEntity
  8
0
100
AcDbSpline
 62
7
  6
CONTINUOUS
 70
0
 71
3
 72
15
 73
11
 74
0
 42
0.0000001
 43
0.0000001
 44
0.0000000001
 40
0.0
 40
0.0
 40
0.0
 40
0.0
 40
0.1146999407
 40
0.2381922029
 40
0.3679599766
 40
0.5009304927
 40
0.6337712436
 40
0.7631601637
 40
0.8860570732
 40
1.0
 40
1.0
 40
1.0
 40
1.0
 10
43.9659297835
 20
87.0830884982
 30
0.0
 10
43.9662698314
 20
87.111209559
 30
0.0
 10
43.9618327768
 20
87.1697257676
 30
0.0
 10
43.9423350532
 20
87.2580587533
 30
0.0
 10
43.9104627424
 20
87.3474820434
 30
0.0
 10
43.8674081825
 20
87.43462894
 30
0.0
 10
43.8147880224
 20
87.5162475602
 30
0.0
 10
43.7545579867
 20
87.5892782253
 30
0.0
 10
43.6890017044
 20
87.651002024
 30
0.0
 10
43.6412151079
 20
87.6844955163
 30
0.0
 10
43.6170209081
 20
87.6984649441
 30
0.0
  0
SPLINE
  5
391
100
AcDbEntity
  8
0
100
AcDbSpline
 62
7
  6
CONTINUOUS
 70
0
 71
3
 72
11
 73
7
 74
0
 42
0.0000001
 43
0.0000001
 44
0.0000000001
 40
0.0
 40
0.0
 40
0.0
 40
0.0
 40
0.2367816522
 40
0.4991198195
 40
0.7619376539
 40
1.0
 40
1.0
 40
1.0
 40
1.0
 10
30.8039303024
 20
96.8351092195
 30
0.0
 10
30.8290019334
 20
96.820633174
 30
0.0
 10
30.8763796669
 20
96.7805557959
 30
0.0
 10
30.9313109306
 20
96.7044334312
 30
0.0
 10
30.9684210169
 20
96.6180364801
 30
0.0
 10
30.9785706396
 20
96.5566185198
 30
0.0
 10
30.9782186918
 20
96.5275133683
 30
0.0
  0
SPLINE
  5
392
100
AcDbEntity
  8
0
100
AcDbSpline
 62
7
  6
CONTINUOUS
 70
0
 71
3
 72
11
 73
7
 74
0
 42
0.0000001
 43
0.0000001
 44
0.0000000001
 40
0.0
 40
0.0
 40
0.0
 40
0.0
 40
0.2193854525
 40
0.4548720965
 40
0.7140179193
 40
1.0
 40
1.0
 40
1.0
 40
1.0
 10
41.2941565097
 20
90.7276334957
 30
0.0
 10
41.3023376652
 20
90.7311095718
 30
0.0
 10
41.3205201639
 20
90.7356693895
 30
0.0
 10
41.3497296335
 20
90.7347074035
 30
0.0
 10
41.3804913665
 20
90.7264457215
 30
0.0
 10
41.4004912587
 20
90.7167877295
 30
0.0
 10
41.4105260369
 20
90.7109937742
 30
0.0
  0
SPLINE
  5
393
100
AcDbEntity
  8
0
100
AcDbSpline
 62
7
  6
CONTINUOUS
 70
0
 71
3
 72
11
 73
7
 74
0
 42
0.0000001
 43
0.0000001
 44
0.0000000001
 40
0.0
 40
0.0
 40
0.0
 40
0.0
 40
0.2193854525
 40
0.4548720965
 40
0.7140179193
 40
1.0
 40
1.0
 40
1.0
 40
1.0
 10
28.9904985171
 20
97.8316114196
 30
0.0
 10
28.9986796725
 20
97.8350874957
 30
0.0
 10
29.0168621712
 20
97.8396473134
 30
0.0
 10
29.0460716408
 20
97.8386853274
 30
0.0
 10
29.0768333739
 20
97.8304236454
 30
0.0
 10
29.096833266
 20
97.8207656534
 30
0.0
 10
29.1068680443
 20
97.8149716982
 30
0.0
  0
SPLINE
  5
394
100
AcDbEntity
  8
0
100
AcDbSpline
 62
7
  6
CONTINUOUS
 70
0
 71
3
 72
11
 73
7
 74
0
 42
0.0000001
 43
0.0000001
 44
0.0000000001
 40
0.0
 40
0.0
 40
0.0
 40
0.0
 40
0.2367816522
 40
0.4991198195
 40
0.7619376539
 40
1.0
 40
1.0
 40
1.0
 40
1.0
 10
43.107588295
 20
89.7311312956
 30
0.0
 10
43.1326599261
 20
89.7166552501
 30
0.0
 10
43.1800376595
 20
89.676577872
 30
0.0
 10
43.2349689232
 20
89.6004555073
 30
0.0
 10
43.2720790095
 20
89.5140585562
 30
0.0
 10
43.2822286322
 20
89.4526405959
 30
0.0
 10
43.2818766844
 20
89.4235354444
 30
0.0
  0
SPLINE
  5
395
100
AcDbEntity
  8
RACCORDO
100
AcDbSpline
 62
7
  6
CONTINUOUS
 70
0
 71
3
 72
18
 73
14
 74
0
 42
0.0000001
 43
0.0000001
 44
0.0000000001
 40
0.0
 40
0.0
 40
0.0
 40
0.0
 40
0.2418362338
 40
0.4514764515
 40
0.6261750774
 40
0.7655940281
 40
0.8706929889
 40
0.9109035563
 40
0.9432562471
 40
0.9680377301
 40
0.9855466673
 40
0.9960879017
 40
1.0
 40
1.0
 40
1.0
 40
1.0
 10
47.2701700618
 20
59.9111349301
 30
0.0
 10
47.2746264291
 20
59.9136343441
 30
0.0
 10
47.2829487376
 20
59.9182954122
 30
0.0
 10
47.2945016354
 20
59.924741286
 30
0.0
 10
47.3041764376
 20
59.9301133275
 30
0.0
 10
47.3119321636
 20
59.9343884997
 30
0.0
 10
47.3172131309
 20
59.9372744377
 30
0.0
 10
47.3205171367
 20
59.9390483223
 30
0.0
 10
47.3223363542
 20
59.9400228315
 30
0.0
 10
47.3237279931
 20
59.9407263991
 30
0.0
 10
47.3247408874
 20
59.9412839309
 30
0.0
 10
47.3253236044
 20
59.9414735198
 30
0.0
 10
47.3256390655
 20
59.9416933583
 30
0.0
 10
47.3257106114
 20
59.9416519726
 30
0.0
  0
SPLINE
  5
396
100
AcDbEntity
  8
RACCORDO
100
AcDbSpline
 62
250
  6
CONTINUOUS
 70
0
 71
3
 72
11
 73
7
 74
0
 42
0.0000001
 43
0.0000001
 44
0.0000000001
 40
0.0
 40
0.0
 40
0.0
 40
0.0
 40
0.2895771227
 40
0.5486429062
 40
0.7819025394
 40
1.0
 40
1.0
 40
1.0
 40
1.0
 10
47.2808832498
 20
60.7970873024
 30
0.0
 10
47.289233067
 20
60.8019417233
 30
0.0
 10
47.3043834677
 20
60.8124134193
 30
0.0
 10
47.3225215385
 20
60.8314653386
 30
0.0
 10
47.3340868891
 20
60.8525066075
 30
0.0
 10
47.3369090255
 20
60.8676255677
 30
0.0
 10
47.3370005133
 20
60.8748993043
 30
0.0
  0
SPLINE
  5
397
100
AcDbEntity
  8
RACCORDO
100
AcDbSpline
 62
250
  6
CONTINUOUS
 70
0
 71
3
 72
17
 73
13
 74
0
 42
0.0000001
 43
0.0000001
 44
0.0000000001
 40
0.0
 40
0.0
 40
0.0
 40
0.0
 40
0.1277265068
 40
0.2635406051
 40
0.4030515157
 40
0.5411331742
 40
0.67267798
 40
0.793568883
 40
0.8494352305
 40
0.9022002666
 40
0.9521910931
 40
1.0
 40
1.0
 40
1.0
 40
1.0
 10
47.2808830255
 20
60.7970874275
 30
0.0
 10
47.2853328559
 20
60.8335194711
 30
0.0
 10
47.2861447953
 20
60.9098411608
 30
0.0
 10
47.26618347
 20
61.024475383
 30
0.0
 10
47.2262458577
 20
61.1369547921
 30
0.0
 10
47.1685979811
 20
61.2401029286
 30
0.0
 10
47.0967534728
 20
61.3271458525
 30
0.0
 10
47.0267198093
 20
61.3828764844
 30
0.0
 10
46.9678741802
 20
61.4130848322
 30
0.0
 10
46.9245600433
 20
61.427863989
 30
0.0
 10
46.8816958742
 20
61.4350614805
 30
0.0
 10
46.8534011284
 20
61.4346787619
 30
0.0
 10
46.8397480343
 20
61.4331527958
 30
0.0
  0
SPLINE
  5
398
100
AcDbEntity
  8
0
100
AcDbSpline
 62
7
  6
CONTINUOUS
 70
0
 71
3
 72
11
 73
7
 74
0
 42
0.0000001
 43
0.0000001
 44
0.0000000001
 40
0.0
 40
0.0
 40
0.0
 40
0.0
 40
0.2895922118
 40
0.5486480048
 40
0.7819022752
 40
1.0
 40
1.0
 40
1.0
 40
1.0
 10
49.4969074703
 20
57.7211381781
 30
0.0
 10
49.517789148
 20
57.7332783778
 30
0.0
 10
49.5556761667
 20
57.7594662914
 30
0.0
 10
49.6010292488
 20
57.8071156924
 30
0.0
 10
49.629938072
 20
57.8597402291
 30
0.0
 10
49.636982333
 20
57.8975517091
 30
0.0
 10
49.637201454
 20
57.9157414588
 30
0.0
  0
SPLINE
  5
399
100
AcDbEntity
  8
DRAFT
100
AcDbSpline
 62
7
  6
CONTINUOUS
 70
0
 71
3
 72
11
 73
7
 74
0
 42
0.0000001
 43
0.0000001
 44
0.0000000001
 40
0.0
 40
0.0
 40
0.0
 40
0.0
 40
0.2956414147
 40
0.5556825663
 40
0.7857467228
 40
1.0
 40
1.0
 40
1.0
 40
1.0
 10
13.5839543939
 20
67.7930114922
 30
0.0
 10
13.585346941
 20
67.7421682586
 30
0.0
 10
13.5802846673
 20
67.6460341575
 30
0.0
 10
13.5438769846
 20
67.5144323881
 30
0.0
 10
13.4789086205
 20
67.4097125342
 30
0.0
 10
13.4164706405
 20
67.3620119156
 30
0.0
 10
13.3834271837
 20
67.3456776721
 30
0.0
  0
SPLINE
  5
39A
100
AcDbEntity
  8
DRAFT
100
AcDbSpline
 62
7
  6
CONTINUOUS
 70
0
 71
3
 72
17
 73
13
 74
0
 42
0.0000001
 43
0.0000001
 44
0.0000000001
 40
0.0
 40
0.0
 40
0.0
 40
0.0
 40
0.0413709965
 40
0.0843094745
 40
0.1305368017
 40
0.1811897133
 40
0.2970857845
 40
0.4311214327
 40
0.5771407312
 40
0.7265724759
 40
0.870224862
 40
1.0
 40
1.0
 40
1.0
 40
1.0
 10
12.3382090945
 20
71.4584617028
 30
0.0
 10
12.3606664485
 20
71.4734273199
 30
0.0
 10
12.4108954044
 20
71.4977388681
 30
0.0
 10
12.4954934193
 20
71.5133227105
 30
0.0
 10
12.5872949226
 20
71.5084316573
 30
0.0
 10
12.7224247189
 20
71.473722594
 30
0.0
 10
12.8968475751
 20
71.3781458191
 30
0.0
 10
13.0911342416
 20
71.2057785081
 30
0.0
 10
13.2650910586
 20
70.9844106754
 30
0.0
 10
13.404034508
 20
70.7324793084
 30
0.0
 10
13.4964661435
 20
70.4713094759
 30
0.0
 10
13.52376106
 20
70.2933178505
 30
0.0
 10
13.5255374157
 20
70.2086817261
 30
0.0
  0
SPLINE
  5
39B
100
AcDbEntity
  8
DRAFT
100
AcDbSpline
 62
7
  6
CONTINUOUS
 70
0
 71
3
 72
11
 73
7
 74
0
 42
0.0000001
 43
0.0000001
 44
0.0000000001
 40
0.0
 40
0.0
 40
0.0
 40
0.0
 40
0.2864233381
 40
0.5454749121
 40
0.7808053445
 40
1.0
 40
1.0
 40
1.0
 40
1.0
 10
12.1678397007
 20
71.0878127743
 30
0.0
 10
12.1696705233
 20
71.1263360512
 30
0.0
 10
12.1782294787
 20
71.1996461713
 30
0.0
 10
12.2088654906
 20
71.3009163156
 30
0.0
 10
12.2562791824
 20
71.3854844319
 30
0.0
 10
12.2996933416
 20
71.429937576
 30
0.0
 10
12.3232031326
 20
71.4477811308
 30
0.0
  0
SPLINE
  5
39C
100
AcDbEntity
  8
RACCORDO
100
AcDbSpline
 62
250
  6
CONTINUOUS
 70
0
 71
3
 72
11
 73
7
 74
0
 42
0.0000001
 43
0.0000001
 44
0.0000000001
 40
0.0
 40
0.0
 40
0.0
 40
0.0
 40
0.2162880172
 40
0.4488082499
 40
0.7089282868
 40
1.0
 40
1.0
 40
1.0
 40
1.0
 10
37.561628635
 20
48.1726804819
 30
0.0
 10
37.579083118
 20
48.1817358042
 30
0.0
 10
37.6121147274
 20
48.2073095296
 30
0.0
 10
37.6478463722
 20
48.262068827
 30
0.0
 10
37.6698697158
 20
48.3305074917
 30
0.0
 10
37.6750719522
 20
48.3806828705
 30
0.0
 10
37.6756794707
 20
48.4071384011
 30
0.0
  0
SPLINE
  5
39D
100
AcDbEntity
  8
RACCORDO
100
AcDbSpline
 62
250
  6
CONTINUOUS
 70
0
 71
3
 72
11
 73
7
 74
0
 42
0.0000001
 43
0.0000001
 44
0.0000000001
 40
0.0
 40
0.0
 40
0.0
 40
0.0
 40
0.2203102135
 40
0.4540774447
 40
0.7122702599
 40
1.0
 40
1.0
 40
1.0
 40
1.0
 10
36.753439537
 20
48.1507311317
 30
0.0
 10
36.7146673977
 20
48.1716681792
 30
0.0
 10
36.6416043159
 20
48.2287964883
 30
0.0
 10
36.5613108294
 20
48.3488021851
 30
0.0
 10
36.510741196
 20
48.4978106106
 30
0.0
 10
36.4978733276
 20
48.6069820833
 30
0.0
 10
36.4957344199
 20
48.6644908645
 30
0.0
  0
SPLINE
  5
39E
100
AcDbEntity
  8
DRAFT
100
AcDbSpline
 62
7
  6
CONTINUOUS
 70
0
 71
3
 72
17
 73
13
 74
0
 42
0.0000001
 43
0.0000001
 44
0.0000000001
 40
0.0
 40
0.0
 40
0.0
 40
0.0
 40
0.0413935873
 40
0.0854552017
 40
0.1332751451
 40
0.1854683062
 40
0.3031722772
 40
0.4366480084
 40
0.5803701253
 40
0.7271408148
 40
0.8693034795
 40
1.0
 40
1.0
 40
1.0
 40
1.0
 10
13.3584885196
 20
67.334737606
 30
0.0
 10
13.3349425289
 20
67.3256577456
 30
0.0
 10
13.2837901903
 20
67.3130466375
 30
0.0
 10
13.2019904448
 20
67.3117776308
 30
0.0
 10
13.115066093
 20
67.3273249455
 30
0.0
 10
12.9894496731
 20
67.3716091835
 30
0.0
 10
12.8298432661
 20
67.4688050206
 30
0.0
 10
12.6518110202
 20
67.6325077664
 30
0.0
 10
12.4915924401
 20
67.8366726347
 30
0.0
 10
12.3607421975
 20
68.0668243181
 30
0.0
 10
12.2684550138
 20
68.3064320078
 30
0.0
 10
12.2351714993
 20
68.4706403153
 30
0.0
 10
12.2280469639
 20
68.5500016708
 30
0.0
  0
SPLINE
  5
39F
100
AcDbEntity
  8
RACCORDO
100
AcDbSpline
 62
250
  6
CONTINUOUS
 70
0
 71
3
 72
9
 73
5
 74
0
 42
0.0000001
 43
0.0000001
 44
0.0000000001
 40
0.0
 40
0.0
 40
0.0
 40
0.0
 40
0.2540277292
 40
1.0
 40
1.0
 40
1.0
 40
1.0
 10
6.0496110761
 20
100.2580546802
 30
0.0
 10
5.9479583226
 20
97.3793051701
 30
0.0
 10
5.6451700851
 20
86.0437446523
 30
0.0
 10
5.7380148897
 20
74.6969014304
 30
0.0
 10
6.0496110744
 20
66.2437008028
 30
0.0
  0
SPLINE
  5
3A0
100
AcDbEntity
  8
RACCORDO
100
AcDbSpline
 62
250
  6
CONTINUOUS
 70
0
 71
3
 72
9
 73
5
 74
0
 42
0.0000001
 43
0.0000001
 44
0.0000000001
 40
0.0
 40
0.0
 40
0.0
 40
0.0
 40
0.2522417658
 40
1.0
 40
1.0
 40
1.0
 40
1.0
 10
36.4957731365
 20
82.6799665452
 30
0.0
 10
34.6720101492
 20
83.6627166853
 30
0.0
 10
27.461402341
 20
87.5950392489
 30
0.0
 10
20.3303314234
 20
91.6734033744
 30
0.0
 10
15.0485805466
 20
94.8071334626
 30
0.0
  0
SPLINE
  5
3A1
100
AcDbEntity
  8
RACCORDO
100
AcDbSpline
 62
250
  6
CONTINUOUS
 70
0
 71
3
 72
9
 73
5
 74
0
 42
0.0000001
 43
0.0000001
 44
0.0000000001
 40
0.0
 40
0.0
 40
0.0
 40
0.0
 40
0.2475061061
 40
1.0
 40
1.0
 40
1.0
 40
1.0
 10
36.4957343363
 20
48.664490804
 30
0.0
 10
36.4290961936
 20
50.4188559879
 30
0.0
 10
36.2032987889
 20
57.5086233563
 30
0.0
 10
36.1495777035
 20
64.6037527083
 30
0.0
 10
36.2010343418
 20
69.9411552109
 30
0.0
  0
SPLINE
  5
3A2
100
AcDbEntity
  8
RACCORDO
100
AcDbSpline
 62
250
  6
CONTINUOUS
 70
0
 71
3
 72
9
 73
5
 74
0
 42
0.0000001
 43
0.0000001
 44
0.0000000001
 40
0.0
 40
0.0
 40
0.0
 40
0.0
 40
0.2467734629
 40
1.0
 40
1.0
 40
1.0
 40
1.0
 10
6.0496525767
 20
66.2426253159
 30
0.0
 10
8.5090677306
 20
64.7208275129
 30
0.0
 10
18.5232750078
 20
58.6317348158
 30
0.0
 10
28.7242201243
 20
52.8505344809
 30
0.0
 10
36.4957731347
 20
48.6634168852
 30
0.0
  0
SPLINE
  5
3A3
100
AcDbEntity
  8
RACCORDO
100
AcDbSpline
 62
250
  6
CONTINUOUS
 70
0
 71
3
 72
9
 73
5
 74
0
 42
0.0000001
 43
0.0000001
 44
0.0000000001
 40
0.0
 40
0.0
 40
0.0
 40
0.0
 40
0.2514132313
 40
1.0
 40
1.0
 40
1.0
 40
1.0
 10
34.0563919091
 20
85.862764138
 30
0.0
 10
32.8823035652
 20
86.5034993979
 30
0.0
 10
28.2209703494
 20
89.0677952344
 30
0.0
 10
23.5944586654
 20
91.695424836
 30
0.0
 10
20.1523411341
 20
93.6985734365
 30
0.0
  0
SPLINE
  5
3A4
100
AcDbEntity
  8
RACCORDO
100
AcDbSpline
 62
250
  6
CONTINUOUS
 70
0
 71
3
 72
15
 73
11
 74
0
 42
0.0000001
 43
0.0000001
 44
0.0000000001
 40
0.0
 40
0.0
 40
0.0
 40
0.0
 40
0.1444441875
 40
0.2749941256
 40
0.3935845581
 40
0.5047811251
 40
0.6151191533
 40
0.7314141649
 40
0.8588526749
 40
1.0
 40
1.0
 40
1.0
 40
1.0
 10
37.6756794707
 20
48.4071384011
 30
0.0
 10
37.6453896526
 20
48.3914412943
 30
0.0
 10
37.5851981335
 20
48.3659733029
 30
0.0
 10
37.4933726139
 20
48.347328902
 30
0.0
 10
37.4073007851
 20
48.351374562
 30
0.0
 10
37.3304262459
 20
48.3789577369
 30
0.0
 10
37.2668232505
 20
48.429392618
 30
0.0
 10
37.2195116935
 20
48.4997347854
 30
0.0
 10
37.1896779614
 20
48.5864597565
 30
0.0
 10
37.1820241543
 20
48.6498777242
 30
0.0
 10
37.1807392227
 20
48.6831898538
 30
0.0
  0
SPLINE
  5
3A5
100
AcDbEntity
  8
RACCORDO
100
AcDbSpline
 62
250
  6
CONTINUOUS
 70
0
 71
3
 72
9
 73
5
 74
0
 42
0.0000001
 43
0.0000001
 44
0.0000000001
 40
0.0
 40
0.0
 40
0.0
 40
0.0
 40
0.2477847508
 40
1.0
 40
1.0
 40
1.0
 40
1.0
 10
37.1807392227
 20
48.6831898538
 30
0.0
 10
37.1204585359
 20
50.2531679372
 30
0.0
 10
36.9123205843
 20
56.5905340466
 30
0.0
 10
36.8435568294
 20
62.9324005466
 30
0.0
 10
36.8667177508
 20
67.7019342197
 30
0.0
  0
SPLINE
  5
3A6
100
AcDbEntity
  8
RACCORDO
100
AcDbSpline
 62
250
  6
CONTINUOUS
 70
0
 71
3
 72
9
 73
5
 74
0
 42
0.0000001
 43
0.0000001
 44
0.0000000001
 40
0.0
 40
0.0
 40
0.0
 40
0.0
 40
0.2486987776
 40
1.0
 40
1.0
 40
1.0
 40
1.0
 10
36.8667177508
 20
67.7019342197
 30
0.0
 10
36.8714616223
 20
68.6788407312
 30
0.0
 10
36.9031691737
 20
72.6068417145
 30
0.0
 10
36.985139528
 20
76.5344268116
 30
0.0
 10
37.0741819522
 20
79.4842827362
 30
0.0
  0
SPLINE
  5
3A7
100
AcDbEntity
  8
RACCORDO
100
AcDbSpline
 62
250
  6
CONTINUOUS
 70
0
 71
3
 72
11
 73
7
 74
0
 42
0.0000001
 43
0.0000001
 44
0.0000000001
 40
0.0
 40
0.0
 40
0.0
 40
0.0
 40
0.238215476
 40
0.499432672
 40
0.760926042
 40
1.0
 40
1.0
 40
1.0
 40
1.0
 10
37.1807391573
 20
82.6630791351
 30
0.0
 10
37.1836453428
 20
82.7416073332
 30
0.0
 10
37.2173273556
 20
82.9054152196
 30
0.0
 10
37.324482765
 20
83.134426465
 30
0.0
 10
37.4778322597
 20
83.3358098398
 30
0.0
 10
37.6073878023
 20
83.4420602449
 30
0.0
 10
37.6756793432
 20
83.4815061234
 30
0.0
  0
SPLINE
  5
3A8
100
AcDbEntity
  8
RACCORDO
100
AcDbSpline
 62
250
  6
CONTINUOUS
 70
0
 71
3
 72
11
 73
7
 74
0
 42
0.0000001
 43
0.0000001
 44
0.0000000001
 40
0.0
 40
0.0
 40
0.0
 40
0.0
 40
0.2375443505
 40
0.4989748638
 40
0.760970307
 40
1.0
 40
1.0
 40
1.0
 40
1.0
 10
6.8752644269
 20
101.6733750717
 30
0.0
 10
6.7607904411
 20
101.6036879158
 30
0.0
 10
6.5442766865
 20
101.4174595921
 30
0.0
 10
6.2889915132
 20
101.0686251254
 30
0.0
 10
6.1106756444
 20
100.6739289199
 30
0.0
 10
6.0544902331
 20
100.3928215677
 30
0.0
 10
6.0496111751
 20
100.2580547247
 30
0.0
  0
SPLINE
  5
3A9
100
AcDbEntity
  8
RACCORDO
100
AcDbSpline
 62
250
  6
CONTINUOUS
 70
0
 71
3
 72
11
 73
7
 74
0
 42
0.0000001
 43
0.0000001
 44
0.0000000001
 40
0.0
 40
0.0
 40
0.0
 40
0.0
 40
0.2390155184
 40
0.5009606887
 40
0.7623768287
 40
1.0
 40
1.0
 40
1.0
 40
1.0
 10
36.4957343043
 20
82.6788446605
 30
0.0
 10
36.5005377272
 20
82.8136272861
 30
0.0
 10
36.5566487178
 20
83.0947760402
 30
0.0
 10
36.7351258977
 20
83.4894442093
 30
0.0
 10
36.9907799669
 20
83.8381197757
 30
0.0
 10
37.207612814
 20
84.0241194078
 30
0.0
 10
37.3222471066
 20
84.0936687138
 30
0.0
  0
SPLINE
  5
3AA
100
AcDbEntity
  8
RACCORDO
100
AcDbSpline
 62
250
  6
CONTINUOUS
 70
0
 71
3
 72
11
 73
7
 74
0
 42
0.0000001
 43
0.0000001
 44
0.0000000001
 40
0.0
 40
0.0
 40
0.0
 40
0.0
 40
0.2864299137
 40
0.54510219
 40
0.779963967
 40
1.0
 40
1.0
 40
1.0
 40
1.0
 10
6.0496110359
 20
66.2437007822
 30
0.0
 10
6.0516625534
 20
66.18936761
 30
0.0
 10
6.0634529249
 20
66.0859513303
 30
0.0
 10
6.1087320979
 20
65.9437884522
 30
0.0
 10
6.1802178659
 20
65.8269480914
 30
0.0
 10
6.2456596678
 20
65.7682238158
 30
0.0
 10
6.2807802437
 20
65.7456149547
 30
0.0
  0
SPLINE
  5
3AB
100
AcDbEntity
  8
RACCORDO
100
AcDbSpline
 62
250
  6
CONTINUOUS
 70
0
 71
3
 72
11
 73
7
 74
0
 42
0.0000001
 43
0.0000001
 44
0.0000000001
 40
0.0
 40
0.0
 40
0.0
 40
0.0
 40
0.2828401047
 40
0.5403753426
 40
0.7763093499
 40
1.0
 40
1.0
 40
1.0
 40
1.0
 10
6.0496206232
 20
66.2437063874
 30
0.0
 10
6.0298798765
 20
66.2559782993
 30
0.0
 10
5.9939472806
 20
66.2825606312
 30
0.0
 10
5.9509582594
 20
66.3304103074
 30
0.0
 10
5.9232184856
 20
66.3831954137
 30
0.0
 10
5.9158906592
 20
66.4209377401
 30
0.0
 10
5.9152051291
 20
66.4393082369
 30
0.0
  0
SPLINE
  5
3AC
100
AcDbEntity
  8
RACCORDO
100
AcDbSpline
 62
250
  6
CONTINUOUS
 70
0
 71
3
 72
11
 73
7
 74
0
 42
0.0000001
 43
0.0000001
 44
0.0000000001
 40
0.0
 40
0.0
 40
0.0
 40
0.0
 40
0.2925803174
 40
0.5528849933
 40
0.7847817707
 40
1.0
 40
1.0
 40
1.0
 40
1.0
 10
6.049611078
 20
100.2580546997
 30
0.0
 10
6.0289353379
 20
100.2707810368
 30
0.0
 10
5.9916087883
 20
100.2979474256
 30
0.0
 10
5.947380263
 20
100.3465129918
 30
0.0
 10
5.9200853468
 20
100.399416055
 30
0.0
 10
5.9145614524
 20
100.4369827481
 30
0.0
 10
5.9151549212
 20
100.4548318345
 30
0.0
  0
SPLINE
  5
3AD
100
AcDbEntity
  8
RACCORDO
100
AcDbSpline
 62
250
  6
CONTINUOUS
 70
0
 71
3
 72
11
 73
7
 74
0
 42
0.0000001
 43
0.0000001
 44
0.0000000001
 40
0.0
 40
0.0
 40
0.0
 40
0.0
 40
0.2910588536
 40
0.5511861104
 40
0.7837191222
 40
1.0
 40
1.0
 40
1.0
 40
1.0
 10
6.8752644269
 20
101.6733750717
 30
0.0
 10
6.8520606255
 20
101.6860714686
 30
0.0
 10
6.8060280851
 20
101.7066482455
 30
0.0
 10
6.7357802651
 20
101.721804927
 30
0.0
 10
6.6705178609
 20
101.718272907
 30
0.0
 10
6.631859187
 20
101.7024909504
 30
0.0
 10
6.6152880836
 20
101.6919218209
 30
0.0
  0
SPLINE
  5
3AE
100
AcDbEntity
  8
RACCORDO
100
AcDbSpline
 62
250
  6
CONTINUOUS
 70
0
 71
3
 72
11
 73
7
 74
0
 42
0.0000001
 43
0.0000001
 44
0.0000000001
 40
0.0
 40
0.0
 40
0.0
 40
0.0
 40
0.236507593
 40
0.5000063134
 40
0.7635016159
 40
1.0
 40
1.0
 40
1.0
 40
1.0
 10
37.3222471066
 20
84.0936687138
 30
0.0
 10
37.37139857
 20
84.0637241666
 30
0.0
 10
37.4644085227
 20
83.9824545447
 30
0.0
 10
37.5739301451
 20
83.8308649755
 30
0.0
 10
37.6504490816
 20
83.660223861
 30
0.0
 10
37.674323986
 20
83.5390426102
 30
0.0
 10
37.6756793432
 20
83.4815061234
 30
0.0
  0
SPLINE
  5
3AF
100
AcDbEntity
  8
RACCORDO
100
AcDbSpline
 62
250
  6
CONTINUOUS
 70
0
 71
3
 72
11
 73
7
 74
0
 42
0.0000001
 43
0.0000001
 44
0.0000000001
 40
0.0
 40
0.0
 40
0.0
 40
0.0
 40
0.2399897484
 40
0.5031880378
 40
0.7646700586
 40
1.0
 40
1.0
 40
1.0
 40
1.0
 10
36.4957432513
 20
82.6788497573
 30
0.0
 10
36.5454185964
 20
82.6519358209
 30
0.0
 10
36.6585366615
 20
82.6118416853
 30
0.0
 10
36.8383150065
 20
82.5895889913
 30
0.0
 10
37.0178376346
 20
82.6033271141
 30
0.0
 10
37.1311923149
 20
82.638292898
 30
0.0
 10
37.1807391572
 20
82.6630791351
 30
0.0
  0
SPLINE
  5
3B0
100
AcDbEntity
  8
RACCORDO
100
AcDbSpline
 62
250
  6
CONTINUOUS
 70
0
 71
3
 72
11
 73
7
 74
0
 42
0.0000001
 43
0.0000001
 44
0.0000000001
 40
0.0
 40
0.0
 40
0.0
 40
0.0
 40
0.2371893824
 40
0.4978565577
 40
0.7596851579
 40
1.0
 40
1.0
 40
1.0
 40
1.0
 10
36.495734338
 20
48.6644907871
 30
0.0
 10
36.5452081824
 20
48.637969499
 30
0.0
 10
36.6587645058
 20
48.6001248831
 30
0.0
 10
36.8393239549
 20
48.5854743124
 30
0.0
 10
37.0195342754
 20
48.6101525596
 30
0.0
 10
37.1318749525
 20
48.6540880815
 30
0.0
 10
37.1807392227
 20
48.6831898538
 30
0.0
  0
SPLINE
  5
3B1
100
AcDbEntity
  8
0
100
AcDbSpline
 62
7
  6
CONTINUOUS
 70
0
 71
3
 72
11
 73
7
 74
0
 42
0.0000001
 43
0.0000001
 44
0.0000000001
 40
0.0
 40
0.0
 40
0.0
 40
0.0
 40
0.266086874
 40
0.521534439
 40
0.7651339542
 40
1.0
 40
1.0
 40
1.0
 40
1.0
 10
49.5578476822
 20
91.7707043954
 30
0.0
 10
49.5576928587
 20
91.7578887818
 30
0.0
 10
49.5555689645
 20
91.7327267287
 30
0.0
 10
49.5455317171
 20
91.696970521
 30
0.0
 10
49.5275789633
 20
91.6659658384
 30
0.0
 10
49.5097197674
 20
91.6504992015
 30
0.0
 10
49.499939591
 20
91.6448135812
 30
0.0
  0
SPLINE
  5
3B2
100
AcDbEntity
  8
0
100
AcDbSpline
 62
7
  6
CONTINUOUS
 70
0
 71
3
 72
11
 73
7
 74
0
 42
0.0000001
 43
0.0000001
 44
0.0000000001
 40
0.0
 40
0.0
 40
0.0
 40
0.0
 40
0.2661148148
 40
0.5216850929
 40
0.765371401
 40
1.0
 40
1.0
 40
1.0
 40
1.0
 10
48.8108065099
 20
59.3325371157
 30
0.0
 10
48.799793254
 20
59.3388961487
 30
0.0
 10
48.7772520115
 20
59.3498419869
 30
0.0
 10
48.7416809254
 20
59.3594742789
 30
0.0
 10
48.7061548945
 20
59.3600584287
 30
0.0
 10
48.6838597775
 20
59.3528942089
 30
0.0
 10
48.673999153
 20
59.3475565797
 30
0.0
  0
SPLINE
  5
3B3
100
AcDbEntity
  8
0
100
AcDbSpline
 62
250
  6
CONTINUOUS
 70
0
 71
3
 72
11
 73
7
 74
0
 42
0.0000001
 43
0.0000001
 44
0.0000000001
 40
0.0
 40
0.0
 40
0.0
 40
0.0
 40
0.2878428752
 40
0.546970314
 40
0.7812750229
 40
1.0
 40
1.0
 40
1.0
 40
1.0
 10
43.3279755857
 20
49.8537638525
 30
0.0
 10
43.327887293
 20
49.8413950724
 30
0.0
 10
43.325884579
 20
49.8178289365
 30
0.0
 10
43.3163605442
 20
49.7853496231
 30
0.0
 10
43.3005898111
 20
49.7586886437
 30
0.0
 10
43.2858154414
 20
49.7454179348
 30
0.0
 10
43.2778743468
 20
49.7403900244
 30
0.0
  0
SPLINE
  5
3B4
100
AcDbEntity
  8
0
100
AcDbSpline
 62
250
  6
CONTINUOUS
 70
0
 71
3
 72
11
 73
7
 74
0
 42
0.0000001
 43
0.0000001
 44
0.0000000001
 40
0.0
 40
0.0
 40
0.0
 40
0.0
 40
0.2893476132
 40
0.5485354905
 40
0.7819119483
 40
1.0
 40
1.0
 40
1.0
 40
1.0
 10
41.1987242473
 20
48.6730814444
 30
0.0
 10
41.1985019736
 20
48.6600654319
 30
0.0
 10
41.1960891529
 20
48.6353375397
 30
0.0
 10
41.1853774229
 20
48.6014973787
 30
0.0
 10
41.1678980229
 20
48.5741995512
 30
0.0
 10
41.1517071702
 20
48.56119083
 30
0.0
 10
41.1431022353
 20
48.5564761154
 30
0.0
  0
SPLINE
  5
3B5
100
AcDbEntity
  8
0
100
AcDbSpline
 62
250
  6
CONTINUOUS
 70
0
 71
3
 72
11
 73
7
 74
0
 42
0.0000001
 43
0.0000001
 44
0.0000000001
 40
0.0
 40
0.0
 40
0.0
 40
0.0
 40
0.2288194319
 40
0.4787336881
 40
0.7396855292
 40
1.0
 40
1.0
 40
1.0
 40
1.0
 10
40.8501223444
 20
48.9992784647
 30
0.0
 10
40.8503519474
 20
49.0182660287
 30
0.0
 10
40.8554581666
 20
49.0579804431
 30
0.0
 10
40.873867003
 20
49.1167961164
 30
0.0
 10
40.9022310352
 20
49.1744258874
 30
0.0
 10
40.9269770061
 20
49.2101478007
 30
0.0
 10
40.9406543377
 20
49.2268691569
 30
0.0
  0
SPLINE
  5
3B6
100
AcDbEntity
  8
0
100
AcDbSpline
 62
250
  6
CONTINUOUS
 70
0
 71
3
 72
12
 73
8
 74
0
 42
0.0000001
 43
0.0000001
 44
0.0000000001
 40
0.0
 40
0.0
 40
0.0
 40
0.0
 40
0.0961358467
 40
0.2093505694
 40
0.4709374226
 40
0.7477816354
 40
1.0
 40
1.0
 40
1.0
 40
1.0
 10
41.2026269336
 20
48.9958233002
 30
0.0
 10
41.1963346798
 20
49.0051595975
 30
0.0
 10
41.1814403962
 20
49.0246864265
 30
0.0
 10
41.144899746
 20
49.0660315538
 30
0.0
 10
41.0895853907
 20
49.1188168828
 30
0.0
 10
41.0175446577
 20
49.1770974481
 30
0.0
 10
40.9661463257
 20
49.2119476956
 30
0.0
 10
40.9406543377
 20
49.2268691569
 30
0.0
  0
SPLINE
  5
3B7
100
AcDbEntity
  8
0
100
AcDbSpline
 62
250
  6
CONTINUOUS
 70
0
 71
3
 72
13
 73
9
 74
0
 42
0.0000001
 43
0.0000001
 44
0.0000000001
 40
0.0
 40
0.0
 40
0.0
 40
0.0
 40
0.2639027133
 40
0.5255988305
 40
0.6517924542
 40
0.7730444293
 40
0.8889678632
 40
1.0
 40
1.0
 40
1.0
 40
1.0
 10
43.3319650283
 20
50.1836802238
 30
0.0
 10
43.3438473097
 20
50.2137619969
 30
0.0
 10
43.3578425422
 20
50.2778662189
 30
0.0
 10
43.350432987
 20
50.358824284
 30
0.0
 10
43.3294641672
 20
50.4178898061
 30
0.0
 10
43.3071942758
 20
50.4567663102
 30
0.0
 10
43.2790172991
 20
50.4891895083
 30
0.0
 10
43.256489845
 20
50.5059742749
 30
0.0
 10
43.2446949804
 20
50.5127607831
 30
0.0
  0
SPLINE
  5
3B8
100
AcDbEntity
  8
0
100
AcDbSpline
 62
250
  6
CONTINUOUS
 70
0
 71
3
 72
13
 73
9
 74
0
 42
0.0000001
 43
0.0000001
 44
0.0000000001
 40
0.0
 40
0.0
 40
0.0
 40
0.0
 40
0.3582900149
 40
0.6386032262
 40
0.7504325684
 40
0.8452758667
 40
0.9265484282
 40
1.0
 40
1.0
 40
1.0
 40
1.0
 10
43.8060584335
 20
89.3899532525
 30
0.0
 10
43.8101241361
 20
89.3838764422
 30
0.0
 10
43.8169352241
 20
89.3727490348
 30
0.0
 10
43.8231960192
 20
89.3586585438
 30
0.0
 10
43.8254631253
 20
89.3489492523
 30
0.0
 10
43.8258161449
 20
89.3430452006
 30
0.0
 10
43.8249137411
 20
89.3379696147
 30
0.0
 10
43.823369039
 20
89.335131901
 30
0.0
 10
43.8224248332
 20
89.333967788
 30
0.0
  0
SPLINE
  5
3B9
100
AcDbEntity
  8
0
100
AcDbSpline
 62
250
  6
CONTINUOUS
 70
0
 71
3
 72
13
 73
9
 74
0
 42
0.0000001
 43
0.0000001
 44
0.0000000001
 40
0.0
 40
0.0
 40
0.0
 40
0.0
 40
0.3582897643
 40
0.638603086
 40
0.7504324894
 40
0.8452758017
 40
0.9265484033
 40
1.0
 40
1.0
 40
1.0
 40
1.0
 10
31.5024004409
 20
96.4939311764
 30
0.0
 10
31.5064661406
 20
96.4878543703
 30
0.0
 10
31.5132772279
 20
96.4767269656
 30
0.0
 10
31.5195380217
 20
96.4626364767
 30
0.0
 10
31.5218051336
 20
96.4529271821
 30
0.0
 10
31.522158151
 20
96.4470231282
 30
0.0
 10
31.5212557503
 20
96.4419475399
 30
0.0
 10
31.5197110462
 20
96.4391098257
 30
0.0
 10
31.5187668405
 20
96.437945712
 30
0.0
  0
SPLINE
  5
3BA
100
AcDbEntity
  8
0
100
AcDbSpline
 62
250
  6
CONTINUOUS
 70
0
 71
3
 72
11
 73
7
 74
0
 42
0.0000001
 43
0.0000001
 44
0.0000000001
 40
0.0
 40
0.0
 40
0.0
 40
0.0
 40
0.2914423523
 40
0.5511740659
 40
0.7836813973
 40
1.0
 40
1.0
 40
1.0
 40
1.0
 10
27.3420196865
 20
96.2786962621
 30
0.0
 10
27.3309637062
 20
96.2850798466
 30
0.0
 10
27.3109373041
 20
96.2988477015
 30
0.0
 10
27.2870517598
 20
96.3239294431
 30
0.0
 10
27.2720381867
 20
96.3515934007
 30
0.0
 10
27.2686829924
 20
96.3714328338
 30
0.0
 10
27.2687974347
 20
96.3809079196
 30
0.0
  0
SPLINE
  5
3BB
100
AcDbEntity
  8
0
100
AcDbSpline
 62
250
  6
CONTINUOUS
 70
0
 71
3
 72
11
 73
7
 74
0
 42
0.0000001
 43
0.0000001
 44
0.0000000001
 40
0.0
 40
0.0
 40
0.0
 40
0.0
 40
0.2914419715
 40
0.5511738787
 40
0.7836813053
 40
1.0
 40
1.0
 40
1.0
 40
1.0
 10
27.3459223728
 20
96.6014381179
 30
0.0
 10
27.334866407
 20
96.6078216941
 30
0.0
 10
27.3148400139
 20
96.6215895455
 30
0.0
 10
27.2909544593
 20
96.646671272
 30
0.0
 10
27.2759408774
 20
96.6743352451
 30
0.0
 10
27.2725856806
 20
96.6941746856
 30
0.0
 10
27.2727001208
 20
96.7036497754
 30
0.0
  0
SPLINE
  5
3BC
100
AcDbEntity
  8
0
100
AcDbSpline
 62
250
  6
CONTINUOUS
 70
0
 71
3
 72
11
 73
7
 74
0
 42
0.0000001
 43
0.0000001
 44
0.0000000001
 40
0.0
 40
0.0
 40
0.0
 40
0.0
 40
0.2906028811
 40
0.5501473819
 40
0.7830029908
 40
1.0
 40
1.0
 40
1.0
 40
1.0
 10
29.0205577569
 20
95.3095294173
 30
0.0
 10
29.020400781
 20
95.2965479246
 30
0.0
 10
29.0220672826
 20
95.2718629015
 30
0.0
 10
29.0316892383
 20
95.2379050423
 30
0.0
 10
29.048217457
 20
95.210344206
 30
0.0
 10
29.0639156831
 20
95.1970626737
 30
0.0
 10
29.072310929
 20
95.1922153448
 30
0.0
  0
SPLINE
  5
3BD
100
AcDbEntity
  8
0
100
AcDbSpline
 62
250
  6
CONTINUOUS
 70
0
 71
3
 72
11
 73
7
 74
0
 42
0.0000001
 43
0.0000001
 44
0.0000000001
 40
0.0
 40
0.0
 40
0.0
 40
0.0
 40
0.2906031171
 40
0.5501475037
 40
0.7830030437
 40
1.0
 40
1.0
 40
1.0
 40
1.0
 10
27.3420196865
 20
96.2786962621
 30
0.0
 10
27.3418627105
 20
96.2657147589
 30
0.0
 10
27.3435292123
 20
96.2410297299
 30
0.0
 10
27.3531511757
 20
96.2070718702
 30
0.0
 10
27.369679393
 20
96.1795110461
 30
0.0
 10
27.3853776147
 20
96.1662295173
 30
0.0
 10
27.3937728588
 20
96.16138219
 30
0.0
  0
SPLINE
  5
3BE
100
AcDbEntity
  8
0
100
AcDbSpline
 62
250
  6
CONTINUOUS
 70
0
 71
3
 72
12
 73
8
 74
0
 42
0.0000001
 43
0.0000001
 44
0.0000000001
 40
0.0
 40
0.0
 40
0.0
 40
0.0
 40
0.237344333
 40
0.5002190071
 40
0.7628140534
 40
0.8859863922
 40
1.0
 40
1.0
 40
1.0
 40
1.0
 10
29.0244604432
 20
95.6322712731
 30
0.0
 10
29.0494787756
 20
95.6178260015
 30
0.0
 10
29.1075707254
 20
95.5965752096
 30
0.0
 10
29.2003799759
 20
95.5857359772
 30
0.0
 10
29.2797461106
 20
95.5934086777
 30
0.0
 10
29.3383344065
 20
95.6102726929
 30
0.0
 10
29.3648287831
 20
95.622085758
 30
0.0
 10
29.3769650325
 20
95.6288161086
 30
0.0
  0
SPLINE
  5
3BF
100
AcDbEntity
  8
0
100
AcDbSpline
 62
250
  6
CONTINUOUS
 70
0
 71
3
 72
12
 73
8
 74
0
 42
0.0000001
 43
0.0000001
 44
0.0000000001
 40
0.0
 40
0.0
 40
0.0
 40
0.0
 40
0.2373444935
 40
0.5002191276
 40
0.7628141112
 40
0.8859864204
 40
1.0
 40
1.0
 40
1.0
 40
1.0
 10
29.0205577569
 20
95.3095294173
 30
0.0
 10
29.0455761062
 20
95.295084136
 30
0.0
 10
29.1036680739
 20
95.2738333464
 30
0.0
 10
29.1964773314
 20
95.2629941218
 30
0.0
 10
29.2758434493
 20
95.2706668267
 30
0.0
 10
29.3344317299
 20
95.2875308413
 30
0.0
 10
29.3609260998
 20
95.2993439039
 30
0.0
 10
29.3730623462
 20
95.3060742528
 30
0.0
  0
SPLINE
  5
3C0
100
AcDbEntity
  8
0
100
AcDbSpline
 62
250
  6
CONTINUOUS
 70
0
 71
3
 72
12
 73
8
 74
0
 42
0.0000001
 43
0.0000001
 44
0.0000000001
 40
0.0
 40
0.0
 40
0.0
 40
0.0
 40
0.2744364772
 40
0.531818212
 40
0.7712369313
 40
0.8864170006
 40
1.0
 40
1.0
 40
1.0
 40
1.0
 10
29.3730623462
 20
95.3060742528
 30
0.0
 10
29.3639314423
 20
95.2832786773
 30
0.0
 10
29.3406485248
 20
95.2410314423
 30
0.0
 10
29.29133911
 20
95.1913771785
 30
0.0
 10
29.2412120796
 20
95.1663688317
 30
0.0
 10
29.1997723135
 20
95.158870058
 30
0.0
 10
29.1791474054
 20
95.1591729355
 30
0.0
 10
29.1690492604
 20
95.1603218261
 30
0.0
  0
SPLINE
  5
3C1
100
AcDbEntity
  8
0
100
AcDbSpline
 62
250
  6
CONTINUOUS
 70
0
 71
3
 72
11
 73
7
 74
0
 42
0.0000001
 43
0.0000001
 44
0.0000000001
 40
0.0
 40
0.0
 40
0.0
 40
0.0
 40
0.2914423523
 40
0.5511740659
 40
0.7836813973
 40
1.0
 40
1.0
 40
1.0
 40
1.0
 10
39.6456776791
 20
89.1747183382
 30
0.0
 10
39.6346216988
 20
89.1811019227
 30
0.0
 10
39.6145952967
 20
89.1948697776
 30
0.0
 10
39.5907097524
 20
89.2199515192
 30
0.0
 10
39.5756961794
 20
89.2476154768
 30
0.0
 10
39.572340985
 20
89.2674549099
 30
0.0
 10
39.5724554274
 20
89.2769299957
 30
0.0
  0
SPLINE
  5
3C2
100
AcDbEntity
  8
0
100
AcDbSpline
 62
250
  6
CONTINUOUS
 70
0
 71
3
 72
11
 73
7
 74
0
 42
0.0000001
 43
0.0000001
 44
0.0000000001
 40
0.0
 40
0.0
 40
0.0
 40
0.0
 40
0.2914423577
 40
0.5511740695
 40
0.7836814011
 40
1.0
 40
1.0
 40
1.0
 40
1.0
 10
39.6495803655
 20
89.497460194
 30
0.0
 10
39.6385243849
 20
89.5038437786
 30
0.0
 10
39.6184979826
 20
89.5176116336
 30
0.0
 10
39.5946124388
 20
89.5426933757
 30
0.0
 10
39.5795988654
 20
89.5703573328
 30
0.0
 10
39.5762436709
 20
89.5901967659
 30
0.0
 10
39.5763581139
 20
89.5996718515
 30
0.0
  0
SPLINE
  5
3C3
100
AcDbEntity
  8
0
100
AcDbSpline
 62
250
  6
CONTINUOUS
 70
0
 71
3
 72
11
 73
7
 74
0
 42
0.0000001
 43
0.0000001
 44
0.0000000001
 40
0.0
 40
0.0
 40
0.0
 40
0.0
 40
0.2905889805
 40
0.5501370208
 40
0.7830041207
 40
1.0
 40
1.0
 40
1.0
 40
1.0
 10
41.3242157496
 20
88.2055514934
 30
0.0
 10
41.3240588516
 20
88.1925764492
 30
0.0
 10
41.3257236223
 20
88.1679030929
 30
0.0
 10
41.3353353801
 20
88.1339592169
 30
0.0
 10
41.3518457754
 20
88.1064046667
 30
0.0
 10
41.3675283155
 20
88.0931191463
 30
0.0
 10
41.3759162046
 20
88.0882678854
 30
0.0
  0
SPLINE
  5
3C4
100
AcDbEntity
  8
0
100
AcDbSpline
 62
250
  6
CONTINUOUS
 70
0
 71
3
 72
11
 73
7
 74
0
 42
0.0000001
 43
0.0000001
 44
0.0000000001
 40
0.0
 40
0.0
 40
0.0
 40
0.0
 40
0.2906031171
 40
0.5501475037
 40
0.7830030437
 40
1.0
 40
1.0
 40
1.0
 40
1.0
 10
39.6456776791
 20
89.1747183382
 30
0.0
 10
39.6455207031
 20
89.161736835
 30
0.0
 10
39.6471872049
 20
89.137051806
 30
0.0
 10
39.6568091684
 20
89.1030939463
 30
0.0
 10
39.6733373857
 20
89.0755331222
 30
0.0
 10
39.6890356073
 20
89.0622515934
 30
0.0
 10
39.6974308515
 20
89.0574042661
 30
0.0
  0
SPLINE
  5
3C5
100
AcDbEntity
  8
0
100
AcDbSpline
 62
250
  6
CONTINUOUS
 70
0
 71
3
 72
12
 73
8
 74
0
 42
0.0000001
 43
0.0000001
 44
0.0000000001
 40
0.0
 40
0.0
 40
0.0
 40
0.0
 40
0.2744366109
 40
0.5318183055
 40
0.7712369704
 40
0.8864170173
 40
1.0
 40
1.0
 40
1.0
 40
1.0
 10
41.6767203388
 20
88.2020963289
 30
0.0
 10
41.6675894255
 20
88.1793007297
 30
0.0
 10
41.6443064855
 20
88.1370534654
 30
0.0
 10
41.5949970211
 20
88.0873991899
 30
0.0
 10
41.5448699556
 20
88.0623908644
 30
0.0
 10
41.5034301687
 20
88.0548921219
 30
0.0
 10
41.4828052528
 20
88.055195018
 30
0.0
 10
41.4727071049
 20
88.0563439191
 30
0.0
  0
SPLINE
  5
3C6
100
AcDbEntity
  8
0
100
AcDbSpline
 62
250
  6
CONTINUOUS
 70
0
 71
3
 72
12
 73
8
 74
0
 42
0.0000001
 43
0.0000001
 44
0.0000000001
 40
0.0
 40
0.0
 40
0.0
 40
0.0
 40
0.2373445536
 40
0.5002192533
 40
0.7628142787
 40
0.8859866145
 40
1.0
 40
1.0
 40
1.0
 40
1.0
 10
41.3281184359
 20
88.5282933492
 30
0.0
 10
41.3531367915
 20
88.5138480642
 30
0.0
 10
41.4112287751
 20
88.4925972718
 30
0.0
 10
41.5040380534
 20
88.4817580533
 30
0.0
 10
41.5834041884
 20
88.4894307642
 30
0.0
 10
41.6419924491
 20
88.5062947924
 30
0.0
 10
41.6684867995
 20
88.5181078473
 30
0.0
 10
41.6806230251
 20
88.5248381847
 30
0.0
  0
SPLINE
  5
3C7
100
AcDbEntity
  8
0
100
AcDbSpline
 62
250
  6
CONTINUOUS
 70
0
 71
3
 72
12
 73
8
 74
0
 42
0.0000001
 43
0.0000001
 44
0.0000000001
 40
0.0
 40
0.0
 40
0.0
 40
0.0
 40
0.237344525
 40
0.5002191982
 40
0.7628142073
 40
0.8859865252
 40
1.0
 40
1.0
 40
1.0
 40
1.0
 10
41.3242157496
 20
88.2055514934
 30
0.0
 10
41.3492341022
 20
88.1911062102
 30
0.0
 10
41.4073260787
 20
88.1698554189
 30
0.0
 10
41.5001353482
 20
88.1590161976
 30
0.0
 10
41.5795014754
 20
88.1666889059
 30
0.0
 10
41.6380897449
 20
88.183552928
 30
0.0
 10
41.6645841036
 20
88.1953659862
 30
0.0
 10
41.6767203388
 20
88.2020963289
 30
0.0
  0
SPLINE
  5
3C8
100
AcDbEntity
  8
0
100
AcDbSpline
 62
7
  6
CONTINUOUS
 70
0
 71
3
 72
18
 73
14
 74
0
 42
0.0000001
 43
0.0000001
 44
0.0000000001
 40
0.0
 40
0.0
 40
0.0
 40
0.0
 40
0.2418362338
 40
0.4514764515
 40
0.6261750774
 40
0.7655940281
 40
0.8706929889
 40
0.9109035563
 40
0.9432562471
 40
0.9680377301
 40
0.9855466673
 40
0.9960879017
 40
1.0
 40
1.0
 40
1.0
 40
1.0
 10
47.2701700618
 20
59.9111349301
 30
0.0
 10
47.2746264291
 20
59.9136343441
 30
0.0
 10
47.2829487376
 20
59.9182954122
 30
0.0
 10
47.2945016354
 20
59.924741286
 30
0.0
 10
47.3041764376
 20
59.9301133275
 30
0.0
 10
47.3119321636
 20
59.9343884997
 30
0.0
 10
47.3172131309
 20
59.9372744377
 30
0.0
 10
47.3205171367
 20
59.9390483223
 30
0.0
 10
47.3223363542
 20
59.9400228315
 30
0.0
 10
47.3237279931
 20
59.9407263991
 30
0.0
 10
47.3247408874
 20
59.9412839309
 30
0.0
 10
47.3253236044
 20
59.9414735198
 30
0.0
 10
47.3256390655
 20
59.9416933583
 30
0.0
 10
47.3257106114
 20
59.9416519726
 30
0.0
  0
SPLINE
  5
3C9
100
AcDbEntity
  8
0
100
AcDbSpline
 62
250
  6
CONTINUOUS
 70
0
 71
3
 72
17
 73
13
 74
0
 42
0.0000001
 43
0.0000001
 44
0.0000000001
 40
0.0
 40
0.0
 40
0.0
 40
0.0
 40
0.1277265068
 40
0.2635406051
 40
0.4030515157
 40
0.5411331742
 40
0.67267798
 40
0.793568883
 40
0.8494352305
 40
0.9022002666
 40
0.9521910931
 40
1.0
 40
1.0
 40
1.0
 40
1.0
 10
47.2808830255
 20
60.7970874275
 30
0.0
 10
47.2853328559
 20
60.8335194711
 30
0.0
 10
47.2861447953
 20
60.9098411608
 30
0.0
 10
47.26618347
 20
61.024475383
 30
0.0
 10
47.2262458577
 20
61.1369547921
 30
0.0
 10
47.1685979811
 20
61.2401029286
 30
0.0
 10
47.0967534728
 20
61.3271458525
 30
0.0
 10
47.0267198093
 20
61.3828764844
 30
0.0
 10
46.9678741802
 20
61.4130848322
 30
0.0
 10
46.9245600433
 20
61.427863989
 30
0.0
 10
46.8816958742
 20
61.4350614805
 30
0.0
 10
46.8534011284
 20
61.4346787619
 30
0.0
 10
46.8397480343
 20
61.4331527958
 30
0.0
  0
SPLINE
  5
3CA
100
AcDbEntity
  8
0
100
AcDbSpline
 62
250
  6
CONTINUOUS
 70
0
 71
3
 72
11
 73
7
 74
0
 42
0.0000001
 43
0.0000001
 44
0.0000000001
 40
0.0
 40
0.0
 40
0.0
 40
0.0
 40
0.2895771227
 40
0.5486429062
 40
0.7819025394
 40
1.0
 40
1.0
 40
1.0
 40
1.0
 10
47.2808832498
 20
60.7970873024
 30
0.0
 10
47.289233067
 20
60.8019417233
 30
0.0
 10
47.3043834677
 20
60.8124134193
 30
0.0
 10
47.3225215385
 20
60.8314653386
 30
0.0
 10
47.3340868891
 20
60.8525066075
 30
0.0
 10
47.3369090255
 20
60.8676255677
 30
0.0
 10
47.3370005133
 20
60.8748993043
 30
0.0
  0
SPLINE
  5
3CB
100
AcDbEntity
  8
0
100
AcDbSpline
 62
250
  6
CONTINUOUS
 70
0
 71
3
 72
11
 73
7
 74
0
 42
0.0000001
 43
0.0000001
 44
0.0000000001
 40
0.0
 40
0.0
 40
0.0
 40
0.0
 40
0.2188427448
 40
0.4528291414
 40
0.7117612732
 40
1.0
 40
1.0
 40
1.0
 40
1.0
 10
29.7610951127
 20
98.1190437421
 30
0.0
 10
29.7530779638
 20
98.1234378041
 30
0.0
 10
29.7348380959
 20
98.1297581127
 30
0.0
 10
29.7047409618
 20
98.1305221052
 30
0.0
 10
29.6726758923
 20
98.1231331598
 30
0.0
 10
29.6517530554
 20
98.113574852
 30
0.0
 10
29.6412219429
 20
98.10773606
 30
0.0
  0
SPLINE
  5
3CC
100
AcDbEntity
  8
0
100
AcDbSpline
 62
250
  6
CONTINUOUS
 70
0
 71
3
 72
11
 73
7
 74
0
 42
0.0000001
 43
0.0000001
 44
0.0000000001
 40
0.0
 40
0.0
 40
0.0
 40
0.0
 40
0.218870365
 40
0.4525172161
 40
0.7113397425
 40
1.0
 40
1.0
 40
1.0
 40
1.0
 10
31.4535937669
 20
97.1418400788
 30
0.0
 10
31.4455593831
 20
97.1464792765
 30
0.0
 10
31.4271770932
 20
97.1532535384
 30
0.0
 10
31.3966470645
 20
97.1543826551
 30
0.0
 10
31.3640610841
 20
97.1470569687
 30
0.0
 10
31.342802663
 20
97.1373764757
 30
0.0
 10
31.3321014941
 20
97.1314433988
 30
0.0
  0
SPLINE
  5
3CD
100
AcDbEntity
  8
0
100
AcDbSpline
 62
250
  6
CONTINUOUS
 70
0
 71
3
 72
11
 73
7
 74
0
 42
0.0000001
 43
0.0000001
 44
0.0000000001
 40
0.0
 40
0.0
 40
0.0
 40
0.0
 40
0.2188702645
 40
0.4525170132
 40
0.7113393423
 40
1.0
 40
1.0
 40
1.0
 40
1.0
 10
43.7572517598
 20
90.0378621554
 30
0.0
 10
43.7492173802
 20
90.042501352
 30
0.0
 10
43.7308350985
 20
90.0492756113
 30
0.0
 10
43.7003050878
 20
90.0504047294
 30
0.0
 10
43.6677190997
 20
90.0430790589
 30
0.0
 10
43.6464606705
 20
90.03339856
 30
0.0
 10
43.6357594867
 20
90.0274654749
 30
0.0
  0
SPLINE
  5
3CE
100
AcDbEntity
  8
0
100
AcDbSpline
 62
250
  6
CONTINUOUS
 70
0
 71
3
 72
11
 73
7
 74
0
 42
0.0000001
 43
0.0000001
 44
0.0000000001
 40
0.0
 40
0.0
 40
0.0
 40
0.0
 40
0.2194639158
 40
0.4538788192
 40
0.7126689292
 40
1.0
 40
1.0
 40
1.0
 40
1.0
 10
41.8234819089
 20
91.0180855433
 30
0.0
 10
41.8317686648
 20
91.0223125617
 30
0.0
 10
41.8504812633
 20
91.0282196625
 30
0.0
 10
41.8810604624
 20
91.0282577534
 30
0.0
 10
41.9133917702
 20
91.0200434397
 30
0.0
 10
41.9343627945
 20
91.0099002443
 30
0.0
 10
41.9448799356
 20
91.0037581361
 30
0.0
  0
SPLINE
  5
3CF
100
AcDbEntity
  8
0
100
AcDbSpline
 62
250
  6
CONTINUOUS
 70
0
 71
3
 72
11
 73
7
 74
0
 42
0.0000001
 43
0.0000001
 44
0.0000000001
 40
0.0
 40
0.0
 40
0.0
 40
0.0
 40
0.2188628905
 40
0.4525662066
 40
0.7114563738
 40
1.0
 40
1.0
 40
1.0
 40
1.0
 10
39.7017915805
 20
89.8134153818
 30
0.0
 10
39.7101473183
 20
89.8182163774
 30
0.0
 10
39.7292792615
 20
89.8251828539
 30
0.0
 10
39.7610131653
 20
89.8261337125
 30
0.0
 10
39.794794924
 20
89.8182058892
 30
0.0
 10
39.8167624388
 20
89.8078987566
 30
0.0
 10
39.8277965653
 20
89.8016008807
 30
0.0
  0
SPLINE
  5
3D0
100
AcDbEntity
  8
0
100
AcDbSpline
 62
250
  6
CONTINUOUS
 70
0
 71
3
 72
11
 73
7
 74
0
 42
0.0000001
 43
0.0000001
 44
0.0000000001
 40
0.0
 40
0.0
 40
0.0
 40
0.0
 40
0.2188629862
 40
0.4525664294
 40
0.7114567995
 40
1.0
 40
1.0
 40
1.0
 40
1.0
 10
27.3981337093
 20
96.9173933752
 30
0.0
 10
27.4064894505
 20
96.9221943529
 30
0.0
 10
27.4256213917
 20
96.9291607965
 30
0.0
 10
27.4573552814
 20
96.9301116262
 30
0.0
 10
27.4911369927
 20
96.9221837816
 30
0.0
 10
27.513104474
 20
96.9118766646
 30
0.0
 10
27.5241385727
 20
96.9055788046
 30
0.0
  0
SPLINE
  5
3D1
100
AcDbEntity
  8
0
100
AcDbSpline
 62
250
  6
CONTINUOUS
 70
0
 71
3
 72
11
 73
7
 74
0
 42
0.0000001
 43
0.0000001
 44
0.0000000001
 40
0.0
 40
0.0
 40
0.0
 40
0.0
 40
0.2174341901
 40
0.4504085279
 40
0.7097102746
 40
1.0
 40
1.0
 40
1.0
 40
1.0
 10
31.578569316
 20
96.9223144874
 30
0.0
 10
31.5784577525
 20
96.9130785597
 30
0.0
 10
31.5748214762
 20
96.893859228
 30
0.0
 10
31.5599177108
 20
96.8671815954
 30
0.0
 10
31.5365763349
 20
96.8431030554
 30
0.0
 10
31.5171132776
 20
96.8299364555
 30
0.0
 10
31.5063898835
 20
96.8238475476
 30
0.0
  0
SPLINE
  5
3D2
100
AcDbEntity
  8
0
100
AcDbSpline
 62
250
  6
CONTINUOUS
 70
0
 71
3
 72
11
 73
7
 74
0
 42
0.0000001
 43
0.0000001
 44
0.0000000001
 40
0.0
 40
0.0
 40
0.0
 40
0.0
 40
0.217434034
 40
0.450408754
 40
0.7097104568
 40
1.0
 40
1.0
 40
1.0
 40
1.0
 10
43.8822272792
 20
89.8183340947
 30
0.0
 10
43.8821154394
 20
89.8090983538
 30
0.0
 10
43.8784787201
 20
89.7898795014
 30
0.0
 10
43.8635748324
 20
89.763202634
 30
0.0
 10
43.8402337521
 20
89.7391247171
 30
0.0
 10
43.8207710582
 20
89.7259584112
 30
0.0
 10
43.8100478761
 20
89.7198696237
 30
0.0
  0
SPLINE
  5
3D3
100
AcDbEntity
  8
0
100
AcDbSpline
 62
250
  6
CONTINUOUS
 70
0
 71
3
 72
11
 73
7
 74
0
 42
0.0000001
 43
0.0000001
 44
0.0000000001
 40
0.0
 40
0.0
 40
0.0
 40
0.0
 40
0.2188453842
 40
0.4527652904
 40
0.7116773842
 40
1.0
 40
1.0
 40
1.0
 40
1.0
 10
42.0650723748
 20
91.0148899228
 30
0.0
 10
42.0570513961
 20
91.019331783
 30
0.0
 10
42.0387827821
 20
91.0257402713
 30
0.0
 10
42.008600463
 20
91.0265748359
 30
0.0
 10
41.9764331497
 20
91.0191978001
 30
0.0
 10
41.9554444268
 20
91.0096154343
 30
0.0
 10
41.9448799356
 20
91.0037581361
 30
0.0
  0
SPLINE
  5
3D4
100
AcDbEntity
  8
0
100
AcDbSpline
 62
250
  6
CONTINUOUS
 70
0
 71
3
 72
11
 73
7
 74
0
 42
0.0000001
 43
0.0000001
 44
0.0000000001
 40
0.0
 40
0.0
 40
0.0
 40
0.0
 40
0.217415579
 40
0.4509193188
 40
0.7103777929
 40
1.0
 40
1.0
 40
1.0
 40
1.0
 10
43.4000763311
 20
49.9495072267
 30
0.0
 10
43.3996634672
 20
49.9404761325
 30
0.0
 10
43.3955540499
 20
49.9217804227
 30
0.0
 10
43.3805187419
 20
49.8959248225
 30
0.0
 10
43.3574982323
 20
49.8725485196
 30
0.0
 10
43.3384481048
 20
49.8597103097
 30
0.0
 10
43.3279755857
 20
49.8537638525
 30
0.0
  0
SPLINE
  5
3D5
100
AcDbEntity
  8
0
100
AcDbSpline
 62
250
  6
CONTINUOUS
 70
0
 71
3
 72
11
 73
7
 74
0
 42
0.0000001
 43
0.0000001
 44
0.0000000001
 40
0.0
 40
0.0
 40
0.0
 40
0.0
 40
0.2174146774
 40
0.4508958174
 40
0.7103483604
 40
1.0
 40
1.0
 40
1.0
 40
1.0
 10
31.574506423
 20
96.5897909426
 30
0.0
 10
31.5741061613
 20
96.5807509577
 30
0.0
 10
31.5700162949
 20
96.5620327324
 30
0.0
 10
31.5549860228
 20
96.5361421898
 30
0.0
 10
31.5319515429
 20
96.5127359822
 30
0.0
 10
31.5128837009
 20
96.4998837324
 30
0.0
 10
31.5024004409
 20
96.4939311764
 30
0.0
  0
SPLINE
  5
3D6
100
AcDbEntity
  8
0
100
AcDbSpline
 62
250
  6
CONTINUOUS
 70
0
 71
3
 72
11
 73
7
 74
0
 42
0.0000001
 43
0.0000001
 44
0.0000000001
 40
0.0
 40
0.0
 40
0.0
 40
0.0
 40
0.2383297775
 40
0.5013981605
 40
0.7637059331
 40
1.0
 40
1.0
 40
1.0
 40
1.0
 10
36.5952614779
 20
92.5078159348
 30
0.0
 10
36.5955421778
 20
92.53102907
 30
0.0
 10
36.6046623686
 20
92.5797984663
 30
0.0
 10
36.6353595703
 20
92.6481598038
 30
0.0
 10
36.6798522245
 20
92.7082112387
 30
0.0
 10
36.7178198796
 20
92.7397628066
 30
0.0
 10
36.7378344378
 20
92.7511284841
 30
0.0
  0
SPLINE
  5
3D7
100
AcDbEntity
  8
0
100
AcDbSpline
 62
250
  6
CONTINUOUS
 70
0
 71
3
 72
11
 73
7
 74
0
 42
0.0000001
 43
0.0000001
 44
0.0000000001
 40
0.0
 40
0.0
 40
0.0
 40
0.0
 40
0.2194647565
 40
0.4538031962
 40
0.7125712176
 40
1.0
 40
1.0
 40
1.0
 40
1.0
 10
29.5194338424
 20
98.121863234
 30
0.0
 10
29.5277271094
 20
98.1261471534
 30
0.0
 10
29.5464775799
 20
98.1321582506
 30
0.0
 10
29.5771613137
 20
98.1322779305
 30
0.0
 10
29.6096158216
 20
98.1240750094
 30
0.0
 10
29.6306653271
 20
98.1139012219
 30
0.0
 10
29.6412219429
 20
98.10773606
 30
0.0
  0
SPLINE
  5
3D8
100
AcDbEntity
  8
0
100
AcDbSpline
 62
250
  6
CONTINUOUS
 70
0
 71
3
 72
11
 73
7
 74
0
 42
0.0000001
 43
0.0000001
 44
0.0000000001
 40
0.0
 40
0.0
 40
0.0
 40
0.0
 40
0.2383301829
 40
0.5013986151
 40
0.7637063361
 40
1.0
 40
1.0
 40
1.0
 40
1.0
 10
34.8982052031
 20
93.4876749587
 30
0.0
 10
34.8984859034
 20
93.5108881334
 30
0.0
 10
34.9076061182
 20
93.5596575735
 30
0.0
 10
34.9383033585
 20
93.6280189356
 30
0.0
 10
34.9827960102
 20
93.6880703246
 30
0.0
 10
35.0207636389
 20
93.7196218499
 30
0.0
 10
35.040778163
 20
93.7309875081
 30
0.0
  0
SPLINE
  5
3D9
100
AcDbEntity
  8
0
100
AcDbSpline
 62
250
  6
CONTINUOUS
 70
0
 71
3
 72
9
 73
5
 74
0
 42
0.0000001
 43
0.0000001
 44
0.0000000001
 40
0.0
 40
0.0
 40
0.0
 40
0.0
 40
0.4927065853
 40
1.0
 40
1.0
 40
1.0
 40
1.0
 10
43.2791203062
 20
50.5017010886
 30
0.0
 10
43.2739477286
 20
50.5046830241
 30
0.0
 10
43.262760189
 20
50.5096072143
 30
0.0
 10
43.2508047151
 20
50.5120821013
 30
0.0
 10
43.2446949804
 20
50.5127607831
 30
0.0
  0
SPLINE
  5
3DA
100
AcDbEntity
  8
0
100
AcDbSpline
 62
250
  6
CONTINUOUS
 70
0
 71
3
 72
11
 73
7
 74
0
 42
0.0000001
 43
0.0000001
 44
0.0000000001
 40
0.0
 40
0.0
 40
0.0
 40
0.0
 40
0.2174339271
 40
0.4504101859
 40
0.7097124835
 40
1.0
 40
1.0
 40
1.0
 40
1.0
 10
43.4041443384
 20
50.2821370661
 30
0.0
 10
43.404031634
 20
50.272901887
 30
0.0
 10
43.4003935439
 20
50.2536844869
 30
0.0
 10
43.3854892422
 20
50.2270099261
 30
0.0
 10
43.3621490373
 20
50.2029339928
 30
0.0
 10
43.3426875009
 20
50.1897686084
 30
0.0
 10
43.3319650283
 20
50.1836802238
 30
0.0
  0
SPLINE
  5
3DB
100
AcDbEntity
  8
0
100
AcDbSpline
 62
250
  6
CONTINUOUS
 70
0
 71
3
 72
11
 73
7
 74
0
 42
0.0000001
 43
0.0000001
 44
0.0000000001
 40
0.0
 40
0.0
 40
0.0
 40
0.0
 40
0.2174125729
 40
0.4508037827
 40
0.7102320346
 40
1.0
 40
1.0
 40
1.0
 40
1.0
 10
43.8781835933
 20
89.4862760811
 30
0.0
 10
43.8778337153
 20
89.4772008457
 30
0.0
 10
43.8738222177
 20
89.4583931613
 30
0.0
 10
43.8588124962
 20
89.4323634404
 30
0.0
 10
43.8357226674
 20
89.4088381634
 30
0.0
 10
43.8165844091
 20
89.3959300631
 30
0.0
 10
43.8060584335
 20
89.3899532525
 30
0.0
  0
SPLINE
  5
3DC
100
AcDbEntity
  8
0
100
AcDbSpline
 62
250
  6
CONTINUOUS
 70
0
 71
3
 72
11
 73
7
 74
0
 42
0.0000001
 43
0.0000001
 44
0.0000000001
 40
0.0
 40
0.0
 40
0.0
 40
0.0
 40
0.2369634861
 40
0.4994860227
 40
0.7622885182
 40
1.0
 40
1.0
 40
1.0
 40
1.0
 10
35.040778163
 20
93.7309875081
 30
0.0
 10
35.0608434261
 20
93.7194020767
 30
0.0
 10
35.0987843121
 20
93.6873743779
 30
0.0
 10
35.142895977
 20
93.6265980075
 30
0.0
 10
35.1728412785
 20
93.5576493158
 30
0.0
 10
35.1811991644
 20
93.5086133817
 30
0.0
 10
35.1810339379
 20
93.4853710884
 30
0.0
  0
SPLINE
  5
3DD
100
AcDbEntity
  8
0
100
AcDbSpline
 62
250
  6
CONTINUOUS
 70
0
 71
3
 72
11
 73
7
 74
0
 42
0.0000001
 43
0.0000001
 44
0.0000000001
 40
0.0
 40
0.0
 40
0.0
 40
0.0
 40
0.2376634234
 40
0.5008905336
 40
0.763633537
 40
1.0
 40
1.0
 40
1.0
 40
1.0
 10
34.8982052031
 20
93.4876749587
 30
0.0
 10
34.9182990389
 20
93.4760730298
 30
0.0
 10
34.9649598753
 20
93.4590316746
 30
0.0
 10
35.0395524337
 20
93.4504271407
 30
0.0
 10
35.1141501462
 20
93.457786111
 30
0.0
 10
35.1609097793
 20
93.4740783744
 30
0.0
 10
35.1810339379
 20
93.4853710884
 30
0.0
  0
SPLINE
  5
3DE
100
AcDbEntity
  8
0
100
AcDbSpline
 62
250
  6
CONTINUOUS
 70
0
 71
3
 72
11
 73
7
 74
0
 42
0.0000001
 43
0.0000001
 44
0.0000000001
 40
0.0
 40
0.0
 40
0.0
 40
0.0
 40
0.2914424484
 40
0.5511739847
 40
0.7836814219
 40
1.0
 40
1.0
 40
1.0
 40
1.0
 10
36.5952614779
 20
92.5078159348
 30
0.0
 10
36.5864166908
 20
92.512922804
 30
0.0
 10
36.5703955657
 20
92.5239370808
 30
0.0
 10
36.5512871512
 20
92.5440024935
 30
0.0
 10
36.5392762704
 20
92.5661336361
 30
0.0
 10
36.5365920998
 20
92.5820051933
 30
0.0
 10
36.5366836834
 20
92.5895852606
 30
0.0
  0
SPLINE
  5
3DF
100
AcDbEntity
  8
0
100
AcDbSpline
 62
250
  6
CONTINUOUS
 70
0
 71
3
 72
11
 73
7
 74
0
 42
0.0000001
 43
0.0000001
 44
0.0000000001
 40
0.0
 40
0.0
 40
0.0
 40
0.0
 40
0.2888700037
 40
0.5478326065
 40
0.7813992876
 40
1.0
 40
1.0
 40
1.0
 40
1.0
 10
36.7378344378
 20
92.7511284841
 30
0.0
 10
36.7290943988
 20
92.7561748731
 30
0.0
 10
36.71169582
 20
92.7644515134
 30
0.0
 10
36.6849197644
 20
92.7708988695
 30
0.0
 10
36.6597473161
 20
92.7702932304
 30
0.0
 10
36.6445491582
 20
92.7648527288
 30
0.0
 10
36.6379080078
 20
92.761081362
 30
0.0
  0
SPLINE
  5
3E0
100
AcDbEntity
  8
0
100
AcDbSpline
 62
250
  6
CONTINUOUS
 70
0
 71
3
 72
11
 73
7
 74
0
 42
0.0000001
 43
0.0000001
 44
0.0000000001
 40
0.0
 40
0.0
 40
0.0
 40
0.0
 40
0.2369572837
 40
0.4991268
 40
0.7617726451
 40
1.0
 40
1.0
 40
1.0
 40
1.0
 10
31.3321014941
 20
97.1314433988
 30
0.0
 10
31.3572827907
 20
97.1170688517
 30
0.0
 10
31.4048711425
 20
97.0771376837
 30
0.0
 10
31.4599421132
 20
97.0010262626
 30
0.0
 10
31.4969701311
 20
96.9145162008
 30
0.0
 10
31.5068859069
 20
96.8529940028
 30
0.0
 10
31.5063898835
 20
96.8238475476
 30
0.0
  0
SPLINE
  5
3E1
100
AcDbEntity
  8
0
100
AcDbSpline
 62
250
  6
CONTINUOUS
 70
0
 71
3
 72
11
 73
7
 74
0
 42
0.0000001
 43
0.0000001
 44
0.0000000001
 40
0.0
 40
0.0
 40
0.0
 40
0.0
 40
0.2366075397
 40
0.499112804
 40
0.7621010312
 40
1.0
 40
1.0
 40
1.0
 40
1.0
 10
29.2026766431
 20
95.9364119598
 30
0.0
 10
29.2276370794
 20
95.9218328428
 30
0.0
 10
29.2748014478
 20
95.8816080073
 30
0.0
 10
29.3295918359
 20
95.8054744418
 30
0.0
 10
29.3667848463
 20
95.719191477
 30
0.0
 10
29.3771707931
 20
95.6578794513
 30
0.0
 10
29.3769650325
 20
95.6288161086
 30
0.0
  0
SPLINE
  5
3E2
100
AcDbEntity
  8
0
100
AcDbSpline
 62
250
  6
CONTINUOUS
 70
0
 71
3
 72
11
 73
7
 74
0
 42
0.0000001
 43
0.0000001
 44
0.0000000001
 40
0.0
 40
0.0
 40
0.0
 40
0.0
 40
0.2383305572
 40
0.5013983811
 40
0.7637055719
 40
1.0
 40
1.0
 40
1.0
 40
1.0
 10
27.3459223728
 20
96.6014381179
 30
0.0
 10
27.3462732488
 20
96.6304546375
 30
0.0
 10
27.3576730696
 20
96.6914165511
 30
0.0
 10
27.39604545
 20
96.7768677752
 30
0.0
 10
27.4516604443
 20
96.8519325597
 30
0.0
 10
27.4991203318
 20
96.8913716832
 30
0.0
 10
27.5241385727
 20
96.9055788046
 30
0.0
  0
SPLINE
  5
3E3
100
AcDbEntity
  8
0
100
AcDbSpline
 62
250
  6
CONTINUOUS
 70
0
 71
3
 72
11
 73
7
 74
0
 42
0.0000001
 43
0.0000001
 44
0.0000000001
 40
0.0
 40
0.0
 40
0.0
 40
0.0
 40
0.2383305572
 40
0.5013983811
 40
0.7637055719
 40
1.0
 40
1.0
 40
1.0
 40
1.0
 10
29.0244604432
 20
95.6322712731
 30
0.0
 10
29.0248113192
 20
95.6612877926
 30
0.0
 10
29.03621114
 20
95.7222497062
 30
0.0
 10
29.0745835205
 20
95.8077009304
 30
0.0
 10
29.1301985147
 20
95.8827657149
 30
0.0
 10
29.1776584022
 20
95.9222048384
 30
0.0
 10
29.2026766431
 20
95.9364119598
 30
0.0
  0
SPLINE
  5
3E4
100
AcDbEntity
  8
0
100
AcDbSpline
 62
7
  6
CONTINUOUS
 70
0
 71
3
 72
18
 73
14
 74
0
 42
0.0000001
 43
0.0000001
 44
0.0000000001
 40
0.0
 40
0.0
 40
0.0
 40
0.0
 40
0.003902144
 40
0.0144345469
 40
0.0319370232
 40
0.0567172369
 40
0.0890771841
 40
0.1293059677
 40
0.2344771291
 40
0.3740107827
 40
0.5488162076
 40
0.7584473661
 40
1.0
 40
1.0
 40
1.0
 40
1.0
 10
49.1631312333
 20
59.129109236
 30
0.0
 10
49.1630583117
 20
59.1291514497
 30
0.0
 10
49.1627366016
 20
59.1289259346
 30
0.0
 10
49.1621416757
 20
59.1287325411
 30
0.0
 10
49.1611071182
 20
59.1281619484
 30
0.0
 10
49.1596851215
 20
59.1274425011
 30
0.0
 10
49.1578257025
 20
59.1264456032
 30
0.0
 10
49.1544475609
 20
59.1246307783
 30
0.0
 10
49.1490470233
 20
59.1216779874
 30
0.0
 10
49.1411156833
 20
59.1173042431
 30
0.0
 10
49.1312245926
 20
59.1118102139
 30
0.0
 10
49.1194215975
 20
59.1052228254
 30
0.0
 10
49.1109220576
 20
59.1004612129
 30
0.0
 10
49.1063731663
 20
59.0979092434
 30
0.0
  0
SPLINE
  5
3E5
100
AcDbEntity
  8
0
100
AcDbSpline
 62
250
  6
CONTINUOUS
 70
0
 71
3
 72
11
 73
7
 74
0
 42
0.0000001
 43
0.0000001
 44
0.0000000001
 40
0.0
 40
0.0
 40
0.0
 40
0.0
 40
0.2383306169
 40
0.5013985058
 40
0.7637057377
 40
1.0
 40
1.0
 40
1.0
 40
1.0
 10
39.6495803655
 20
89.497460194
 30
0.0
 10
39.6499312416
 20
89.5264767209
 30
0.0
 10
39.6613310682
 20
89.5874386496
 30
0.0
 10
39.6997034638
 20
89.6728898891
 30
0.0
 10
39.7553184615
 20
89.7479546633
 30
0.0
 10
39.802778342
 20
89.7873937693
 30
0.0
 10
39.8277965653
 20
89.8016008807
 30
0.0
  0
SPLINE
  5
3E6
100
AcDbEntity
  8
0
100
AcDbSpline
 62
7
  6
CONTINUOUS
 70
0
 71
3
 72
11
 73
7
 74
0
 42
0.0000001
 43
0.0000001
 44
0.0000000001
 40
0.0
 40
0.0
 40
0.0
 40
0.0
 40
0.217602063
 40
0.4506474664
 40
0.7098847559
 40
1.0
 40
1.0
 40
1.0
 40
1.0
 10
49.1527159238
 20
58.267388864
 30
0.0
 10
49.1526261834
 20
58.2600286181
 30
0.0
 10
49.1497394523
 20
58.2447167892
 30
0.0
 10
49.1379061808
 20
58.2234492452
 30
0.0
 10
49.1193676951
 20
58.2042377312
 30
0.0
 10
49.1039021789
 20
58.1937193961
 30
0.0
 10
49.0953805883
 20
58.1888520641
 30
0.0
  0
SPLINE
  5
3E7
100
AcDbEntity
  8
0
100
AcDbSpline
 62
250
  6
CONTINUOUS
 70
0
 71
3
 72
11
 73
7
 74
0
 42
0.0000001
 43
0.0000001
 44
0.0000000001
 40
0.0
 40
0.0
 40
0.0
 40
0.0
 40
0.2383306169
 40
0.5013985058
 40
0.7637057377
 40
1.0
 40
1.0
 40
1.0
 40
1.0
 10
41.3281184359
 20
88.5282933492
 30
0.0
 10
41.328469312
 20
88.557309876
 30
0.0
 10
41.3398691386
 20
88.6182718047
 30
0.0
 10
41.3782415343
 20
88.7037230442
 30
0.0
 10
41.4338565319
 20
88.7787878185
 30
0.0
 10
41.4813164124
 20
88.8182269244
 30
0.0
 10
41.5063346357
 20
88.8324340359
 30
0.0
  0
SPLINE
  5
3E8
100
AcDbEntity
  8
0
100
AcDbSpline
 62
250
  6
CONTINUOUS
 70
0
 71
3
 72
12
 73
8
 74
0
 42
0.0000001
 43
0.0000001
 44
0.0000000001
 40
0.0
 40
0.0
 40
0.0
 40
0.0
 40
0.2373444681
 40
0.5002191097
 40
0.7628141033
 40
0.8859864169
 40
1.0
 40
1.0
 40
1.0
 40
1.0
 10
40.8501223444
 20
48.9992784647
 30
0.0
 10
40.875140691
 20
48.9848331849
 30
0.0
 10
40.933232656
 20
48.9635823949
 30
0.0
 10
41.0260419125
 20
48.9527431691
 30
0.0
 10
41.1054080332
 20
48.9604158734
 30
0.0
 10
41.1639963161
 20
48.9772798881
 30
0.0
 10
41.1904906869
 20
48.9890929511
 30
0.0
 10
41.2026269336
 20
48.9958233002
 30
0.0
  0
SPLINE
  5
3E9
100
AcDbEntity
  8
0
100
AcDbSpline
 62
250
  6
CONTINUOUS
 70
0
 71
3
 72
12
 73
8
 74
0
 42
0.0000001
 43
0.0000001
 44
0.0000000001
 40
0.0
 40
0.0
 40
0.0
 40
0.0
 40
0.2373445536
 40
0.5002192533
 40
0.7628142787
 40
0.8859866145
 40
1.0
 40
1.0
 40
1.0
 40
1.0
 10
40.8462196581
 20
48.6765366089
 30
0.0
 10
40.8712380137
 20
48.6620913239
 30
0.0
 10
40.9293299973
 20
48.6408405314
 30
0.0
 10
41.0221392756
 20
48.6300013129
 30
0.0
 10
41.1015054106
 20
48.6376740238
 30
0.0
 10
41.1600936713
 20
48.6545380521
 30
0.0
 10
41.1865880217
 20
48.6663511069
 30
0.0
 10
41.1987242473
 20
48.6730814444
 30
0.0
  0
SPLINE
  5
3EA
100
AcDbEntity
  8
0
100
AcDbSpline
 62
250
  6
CONTINUOUS
 70
0
 71
3
 72
11
 73
7
 74
0
 42
0.0000001
 43
0.0000001
 44
0.0000000001
 40
0.0
 40
0.0
 40
0.0
 40
0.0
 40
0.2369571179
 40
0.4991266755
 40
0.7617725853
 40
1.0
 40
1.0
 40
1.0
 40
1.0
 10
43.6357594867
 20
90.0274654749
 30
0.0
 10
43.6609407657
 20
90.0130909379
 30
0.0
 10
43.7085291106
 20
89.9731597877
 30
0.0
 10
43.7636000851
 20
89.897048377
 30
0.0
 10
43.8006281183
 20
89.8105382996
 30
0.0
 10
43.8105438997
 20
89.7490160863
 30
0.0
 10
43.8100478761
 20
89.7198696237
 30
0.0
  0
SPLINE
  5
3EB
100
AcDbEntity
  8
0
100
AcDbSpline
 62
250
  6
CONTINUOUS
 70
0
 71
3
 72
11
 73
7
 74
0
 42
0.0000001
 43
0.0000001
 44
0.0000000001
 40
0.0
 40
0.0
 40
0.0
 40
0.0
 40
0.2366077057
 40
0.4991129288
 40
0.762101091
 40
1.0
 40
1.0
 40
1.0
 40
1.0
 10
41.5063346357
 20
88.8324340359
 30
0.0
 10
41.5312950895
 20
88.8178549087
 30
0.0
 10
41.5784594648
 20
88.7776300555
 30
0.0
 10
41.6332498492
 20
88.7014964797
 30
0.0
 10
41.6704428445
 20
88.6152135305
 30
0.0
 10
41.6808287857
 20
88.5539015201
 30
0.0
 10
41.6806230251
 20
88.5248381847
 30
0.0
  0
SPLINE
  5
3EC
100
AcDbEntity
  8
0
100
AcDbSpline
 62
250
  6
CONTINUOUS
 70
0
 71
3
 72
11
 73
7
 74
0
 42
0.0000001
 43
0.0000001
 44
0.0000000001
 40
0.0
 40
0.0
 40
0.0
 40
0.0
 40
0.2906051792
 40
0.5501461155
 40
0.7830027852
 40
1.0
 40
1.0
 40
1.0
 40
1.0
 10
40.8462196581
 20
48.6765366089
 30
0.0
 10
40.846062681
 20
48.6635550201
 30
0.0
 10
40.8477290662
 20
48.638870008
 30
0.0
 10
40.8573514341
 20
48.6049123975
 30
0.0
 10
40.8738790751
 20
48.5773512205
 30
0.0
 10
40.8895778095
 20
48.564070264
 30
0.0
 10
40.8979729565
 20
48.5592227552
 30
0.0
  0
ELLIPSE
  5
3ED
100
AcDbEntity
  8
0
100
AcDbEllipse
 62
7
  6
CONTINUOUS
 10
36.861672337
 20
96.9105201209
 30
0.0
 11
0.2521746352
 21
0.4317546643
 31
0.0
 40
0.5807277726
 41
0.6865917699
 42
0.768470696
  0
ELLIPSE
  5
3EE
100
AcDbEntity
  8
0
100
AcDbEllipse
 62
7
  6
CONTINUOUS
 10
35.9587200563
 20
94.0794597136
 30
0.0
 11
-0.0978718205
 21
0.1744184431
 31
0.0
 40
0.5853921301
 41
-2.3490967957
 42
-0.7783004689
  0
ELLIPSE
  5
3EF
100
AcDbEntity
  8
0
100
AcDbEllipse
 62
7
  6
CONTINUOUS
 10
49.3078539563
 20
57.0598356855
 30
0.0
 11
1.0069991482
 21
0.573283217
 31
0.0
 40
0.0060461325
 41
-2.3608486482
 42
-1.2546661452
  0
ELLIPSE
  5
3F0
100
AcDbEntity
  8
0
100
AcDbEllipse
 62
7
  6
CONTINUOUS
 10
37.9742841855
 20
98.9305305577
 30
0.0
 11
1.0069991482
 21
0.573283217
 31
0.0
 40
0.0060461325
 41
0.0035395131
 42
0.7691084771
  0
ELLIPSE
  5
3F1
100
AcDbEntity
  8
0
100
AcDbEllipse
 62
7
  6
CONTINUOUS
 10
43.8778523177
 20
51.6830498578
 30
0.0
 11
-0.2447054183
 21
0.4360569065
 31
0.0
 40
0.5853627298
 41
-3.1341779393
 42
-2.3491617983
  0
ELLIPSE
  5
3F2
100
AcDbEntity
  8
0
100
AcDbEllipse
 62
7
  6
CONTINUOUS
 10
44.3131709059
 20
87.682747888
 30
0.0
 11
-0.2446924399
 21
0.4360350836
 31
0.0
 40
0.585422163
 41
-2.3491095656
 42
-0.7783640075
  0
ELLIPSE
  5
3F3
100
AcDbEntity
  8
0
100
AcDbEllipse
 62
7
  6
CONTINUOUS
 10
37.6557763312
 20
93.0996006896
 30
0.0
 11
-0.0978718205
 21
0.1744184431
 31
0.0
 40
0.5853921301
 41
-0.7783004689
 42
-0.0029913113
  0
ELLIPSE
  5
3F4
100
AcDbEntity
  8
0
100
AcDbEllipse
 62
7
  6
CONTINUOUS
 10
42.8031578538
 20
92.6022363427
 30
0.0
 11
0.4588147134
 21
-0.0078153153
 31
0.0
 40
0.5657984202
 41
-0.7698527293
 42
0.0027952652
  0
ELLIPSE
  5
3F5
100
AcDbEntity
  8
0
100
AcDbEllipse
 62
7
  6
CONTINUOUS
 10
37.2044596537
 20
95.8348545153
 30
0.0
 11
0.4588147134
 21
-0.0078153153
 31
0.0
 40
0.5657984202
 41
-0.7756704935
 42
0.0027952656
  0
ELLIPSE
  5
3F6
100
AcDbEntity
  8
0
100
AcDbEllipse
 62
7
  6
CONTINUOUS
 10
27.508534449
 20
95.3122357918
 30
0.0
 11
-0.2445164384
 21
0.4368366998
 31
0.0
 40
0.5848469142
 41
-0.7766316263
 42
0.7932513111
  0
ELLIPSE
  5
3F7
100
AcDbEntity
  8
0
100
AcDbEllipse
 62
7
  6
CONTINUOUS
 10
43.1096705936
 20
93.3030042334
 30
0.0
 11
0.2478728419
 21
0.4342385779
 31
0.0
 40
0.5739165715
 41
0.6808559602
 42
0.7627348863
  0
ELLIPSE
  5
3F8
100
AcDbEntity
  8
0
100
AcDbEllipse
 62
7
  6
CONTINUOUS
 10
93.6104277667
 20
121.7184730018
 30
0.0
 11
60.4108518184
 21
34.3034277232
 31
0.0
 40
0.0051101058
 41
-2.6935498147
 42
-2.5637400113
  0
ELLIPSE
  5
3F9
100
AcDbEntity
  8
0
100
AcDbEllipse
 62
7
  6
CONTINUOUS
 10
93.6104277667
 20
121.7184730018
 30
0.0
 11
60.4108518184
 21
34.3034277232
 31
0.0
 40
0.0051101058
 41
2.5577720655
 42
2.6875818689
  0
ELLIPSE
  5
3FA
100
AcDbEntity
  8
0
100
AcDbEllipse
 62
7
  6
CONTINUOUS
 10
35.0255556686
 20
92.4045564088
 30
0.0
 11
0.2000195576
 21
0.0070239481
 31
0.0
 40
0.5990366182
 41
-2.3775462299
 42
-0.8067499031
  0
ELLIPSE
  5
3FB
100
AcDbEntity
  8
0
100
AcDbEllipse
 62
7
  6
CONTINUOUS
 10
36.7226119435
 20
91.4246973848
 30
0.0
 11
0.2000195576
 21
0.0070239481
 31
0.0
 40
0.5990366182
 41
3.11330851
 42
3.9056390773
  0
ELLIPSE
  5
3FC
100
AcDbEntity
  8
0
100
AcDbEllipse
 62
7
  6
CONTINUOUS
 10
28.2066919417
 20
95.535725385
 30
0.0
 11
0.250024447
 21
0.0087799352
 31
0.0
 40
0.5990366182
 41
3.1133085067
 42
3.9056390773
  0
ELLIPSE
  5
3FD
100
AcDbEntity
  8
0
100
AcDbEllipse
 62
7
  6
CONTINUOUS
 10
29.8934576659
 20
94.561807996
 30
0.0
 11
0.250024447
 21
0.0087799352
 31
0.0
 40
0.5990366182
 41
-2.3775462299
 42
-0.8125676673
  0
ELLIPSE
  5
3FE
100
AcDbEntity
  8
0
100
AcDbEllipse
 62
7
  6
CONTINUOUS
 10
40.5103499343
 20
88.4317474611
 30
0.0
 11
0.250024447
 21
0.0087799352
 31
0.0
 40
0.5990366182
 41
3.1133085067
 42
3.9056390773
  0
ELLIPSE
  5
3FF
100
AcDbEntity
  8
0
100
AcDbEllipse
 62
7
  6
CONTINUOUS
 10
42.1971156585
 20
87.4578300721
 30
0.0
 11
0.250024447
 21
0.0087799352
 31
0.0
 40
0.5990366182
 41
-2.3775462299
 42
-0.8125676673
  0
ELLIPSE
  5
400
100
AcDbEntity
  8
0
100
AcDbEllipse
 62
7
  6
CONTINUOUS
 10
49.7320742005
 20
92.1417299627
 30
0.0
 11
-0.6996635534
 21
1.2289922004
 31
0.0
 40
0.5732866649
 41
5.1676455219
 42
6.2738280248
  0
ELLIPSE
  5
401
100
AcDbEntity
  8
0
100
AcDbEllipse
 62
7
  6
CONTINUOUS
 10
49.5645539897
 20
93.2596715881
 30
0.0
 11
-0.3498317767
 21
0.6144961002
 31
0.0
 40
0.5732866649
 41
3.1555064279
 42
4.0540542667
  0
ELLIPSE
  5
402
100
AcDbEntity
  8
0
100
AcDbEllipse
 62
7
  6
CONTINUOUS
 10
42.5315391322
 20
86.6381411702
 30
0.0
 11
-0.244281411
 21
0.4364445525
 31
0.0
 40
0.5859161274
 41
-2.3473968901
 42
-0.7775139527
  0
ELLIPSE
  5
403
100
AcDbEntity
  8
0
100
AcDbEllipse
 62
7
  6
CONTINUOUS
 10
42.0976813679
 20
50.7592494177
 30
0.0
 11
-0.2445164384
 21
0.4368366998
 31
0.0
 40
0.5848469142
 41
2.3649610273
 42
3.9348439647
  0
ELLIPSE
  5
404
100
AcDbEntity
  8
RACCORDO
100
AcDbEllipse
 62
7
  6
CONTINUOUS
 10
47.2657572621
 20
59.7453243047
 30
0.0
 11
0.0974649068
 21
0.1746608493
 31
0.0
 40
0.5670311013
 41
0.7456293949
 42
0.7543560411
  0
ELLIPSE
  5
405
100
AcDbEntity
  8
0
100
AcDbEllipse
 62
7
  6
CONTINUOUS
 10
49.1254739511
 20
56.9489115418
 30
0.0
 11
0.5034995741
 21
0.2866416085
 31
0.0
 40
0.0060461325
 41
-0.0035395255
 42
0.7574729487
  0
ELLIPSE
  5
406
100
AcDbEntity
  8
RACCORDO
100
AcDbEllipse
 62
7
  6
CONTINUOUS
 10
40.6722874937
 20
50.34859921
 30
0.0
 11
-0.2501834304
 21
0.4333025529
 31
0.0
 40
0.5769361983
 41
-3.16775339
 42
-2.3565853618
  0
ELLIPSE
  5
407
100
AcDbEntity
  8
RACCORDO
100
AcDbEllipse
 62
7
  6
CONTINUOUS
 10
40.6722874937
 20
85.6198352876
 30
0.0
 11
-0.2500121049
 21
0.4330057129
 31
0.0
 40
0.5777274115
 41
-2.3559002616
 42
-0.7857891675
  0
ELLIPSE
  5
408
100
AcDbEntity
  8
RACCORDO
100
AcDbEllipse
 62
7
  6
CONTINUOUS
 10
10.0548062592
 20
103.2979852252
 30
0.0
 11
-0.2501834304
 21
0.4333025529
 31
0.0
 40
0.5769361983
 41
-0.7851038024
 42
0.0261607363
  0
ELLIPSE
  5
409
100
AcDbEntity
  8
0
100
AcDbEllipse
 62
7
  6
CONTINUOUS
 10
47.2657572621
 20
59.7453243047
 30
0.0
 11
0.0974649068
 21
0.1746608493
 31
0.0
 40
0.5670311013
 41
0.7456293949
 42
0.7543560411
  0
ENDSEC
  0
SECTION
  2
OBJECTS
  0
DICTIONARY
  5
C
100
AcDbDictionary
280
0
281
1
  3
ACAD_GROUP
350
D
  3
ACAD_MLINESTYLE
350
17
  3
ACAD_LAYOUT
350
1A
  3
ACAD_PLOTSETTINGS
350
19
  3
ACAD_PLOTSTYLENAME
350
E
  0
DICTIONARY
  5
D
102
{ACAD_REACTORS
330
C
102
}
100
AcDbDictionary
280
0
281
1
  0
ACDBDICTIONARYWDFLT
  5
E
102
{ACAD_REACTORS
330
C
102
}
100
AcDbDictionary
281
1
  3
Normal
350
F
100
AcDbDictionaryWithDefault
340
F
  0
DICTIONARY
  5
17
102
{ACAD_REACTORS
330
C
102
}
100
AcDbDictionary
280
0
281
1
  3
Standard
350
18
  0
DICTIONARY
  5
19
102
{ACAD_REACTORS
330
C
102
}
100
AcDbDictionary
281
1
  0
DICTIONARY
  5
1A
102
{ACAD_REACTORS
330
C
102
}
100
AcDbDictionary
281
1
  3
Model
350
40A
  3
Layout1
350
40B
  0
ACDBPLACEHOLDER
  5
F
102
{ACAD_REACTORS
330
E
102
}
  0
MLINESTYLE
  5
18
102
{ACAD_REACTORS
330
17
102
}
100
AcDbMlineStyle
  2
STANDARD
 70
0
  3

 62
256
 51
90.0
 52
90.0
 71
2
 49
0.5
 62
256
  6
BYLAYER
 49
-0.5
 62
256
  6
BYLAYER
  0
LAYOUT
  5
40A
102
{ACAD_REACTORS
330
1A
102
}
100
AcDbPlotSettings
  1

  2
none_device
  4
ISO_A4_(297.00_x_210.00_MM)
  6

 40
0.0
 41
0.0
 42
0.0
 43
0.0
 44
297.0
 45
210.0
 46
0.0
 47
0.0
 48
0.0
 49
0.0
140
0.0
141
0.0
142
1.0
143
1.0
 70
1024
 72
1
 73
0
 74
0
  7

 75
0
147
1.0
148
0.0
149
0.0
100
AcDbLayout
  1
Model
 70
0
 71
0
 10
0.0
 20
0.0
 11
297.0
 21
210.0
 12
0.0
 22
0.0
 32
0.0
 14
0.0
 24
0.0
 34
0.0
 15
0.0
 25
0.0
 35
0.0
146
0.0
 13
0.0
 23
0.0
 33
0.0
 16
1.0
 26
0.0
 36
0.0
 17
0.0
 27
1.0
 37
0.0
 76
0
330
219
345
0
346
0
  0
LAYOUT
  5
40B
102
{ACAD_REACTORS
330
1A
102
}
100
AcDbPlotSettings
  1

  2
none_device
  4
ISO_A4_(297.00_x_210.00_MM)
  6

 40
0.0
 41
0.0
 42
0.0
 43
0.0
 44
297.0
 45
210.0
 46
0.0
 47
0.0
 48
0.0
 49
0.0
140
0.0
141
0.0
142
1.0
143
1.0
 70
0
 72
1
 73
0
 74
0
  7

 75
0
147
1.0
148
0.0
149
0.0
100
AcDbLayout
  1
Layout1
 70
0
 71
1
 10
0.0
 20
0.0
 11
297.0
 21
210.0
 12
0.0
 22
0.0
 32
0.0
 14
0.0
 24
0.0
 34
0.0
 15
0.0
 25
0.0
 35
0.0
146
0.0
 13
0.0
 23
0.0
 33
0.0
 16
1.0
 26
0.0
 36
0.0
 17
0.0
 27
1.0
 37
0.0
 76
0
330
21A
345
0
346
0
  0
ENDSEC
  0
EOF
