  0
SECTION
  2
HEADER
  9
$ACADVER
  1
AC1024
  9
$DWGCODEPAGE
  3
ANSI_1252
  9
$EXTMAX
 10
297.0
 20
210.0
 30
0.0
  9
$EXTMIN
 10
0.0
 20
0.0
 30
0.0
  9
$LIMMIN
 10
0.0
 20
0.0
  9
$LIMMAX
 10
297.0
 20
210.0
  9
$VIEWCTR
 10
148.5
 20
105.0
  9
$VIEWSIZE
 40
210.0
  9
$CLAYER
  8
0
  9
$LTSCALE
 40
16.335
  9
$CELTYPE
  6
BYLAYER
  9
$DIMSCALE
 40
1.0
  9
$DIMASZ
 40
3.0
  9
$DIMEXO
 40
0.5
  9
$DIMDLI
 40
11.286
  9
$DIMEXE
 40
1.5
  9
$DIMCEN
 40
2.673
  9
$DIMLFAC
 40
1.0
  9
$DIMBLK
  1
_FILLED
  9
$DIMALT
 70
0
  9
$DIMALTF
 40
0.0393700787
  9
$DIMTXT
 40
3.0
  9
$DIMTOL
 70
1
  9
$DIMLIM
 70
0
  9
$DIMTFAC
 40
1.0
  9
$DIMTP
 40
0.01
  9
$DIMTM
 40
0.01
  9
$DIMGAP
 40
0.625
  9
$DIMDSEP
 70
44
  9
$AUNITS
 70
0
  9
$PDMODE
 70
3
  9
$PDSIZE
 40
3.0
  9
$HANDSEED
  5
524
  9
$TILEMODE
 70
1
  9
$MEASUREMENT
 70
1
  9
$INSUNITS
 70
4
  0
ENDSEC
  0
SECTION
  2
CLASSES
  0
CLASS
  1
ACDBDICTIONARYWDFLT
  2
AcDbDictionaryWithDefault
  3
AutoCAD 2000
 90
0
 91
1
280
0
281
0
  0
CLASS
  1
ACDBPLACEHOLDER
  2
AcDbPlaceHolder
  3
AutoCAD 2000
 90
0
 91
1
280
0
281
0
  0
CLASS
  1
LAYOUT
  2
AcDbLayout
  3
AutoCAD 2000
 90
0
 91
0
280
0
281
0
  0
ENDSEC
  0
SECTION
  2
TABLES
  0
TABLE
  2
VPORT
  5
8
100
AcDbSymbolTable
 70
2
  0
VPORT
  5
1F4
100
AcDbSymbolTableRecord
100
AcDbViewportTableRecord
  2
*ACTIVE
 70
0
 10
0.0
 20
0.0
 11
1.0
 21
1.0
 12
148.5
 22
105.0
 13
0.0
 23
0.0
 14
1.0
 24
1.0
 15
0.0
 25
0.0
 16
0.0
 26
0.0
 36
1.0
 17
0.0
 27
0.0
 37
0.0
 40
210.0
 41
1.4142857143
 42
50.0
 43
0.0
 44
0.0
 50
0.0
 51
0.0
 71
0
 72
100
 73
1
 74
1
 75
0
 76
0
 77
0
 78
0
  0
ENDTAB
  0
TABLE
  2
LTYPE
  5
5
100
AcDbSymbolTable
 70
6
  0
LTYPE
  5
14
100
AcDbSymbolTableRecord
100
AcDbLinetypeTableRecord
  2
BYBLOCK
 70
0
  3

 72
65
 73
0
 40
0.0
  0
LTYPE
  5
15
100
AcDbSymbolTableRecord
100
AcDbLinetypeTableRecord
  2
BYLAYER
 70
0
  3

 72
65
 73
0
 40
0.0
  0
LTYPE
  5
16
100
AcDbSymbolTableRecord
100
AcDbLinetypeTableRecord
  2
CONTINUOUS
 70
64
  3
Solid line
 72
65
 73
0
 40
0.0
  0
LTYPE
  5
1F5
100
AcDbSymbolTableRecord
100
AcDbLinetypeTableRecord
  2
CENTER
 70
64
  3
____ _ ____ _ ____ _ ____ _ ____ _ ____ _ ____
 72
65
 73
4
 40
0.6
 49
0.375
 74
0
 49
-0.075
 74
0
 49
0.075
 74
0
 49
-0.075
 74
0
  0
LTYPE
  5
1F6
100
AcDbSymbolTableRecord
100
AcDbLinetypeTableRecord
  2
HIDDEN
 70
64
  3
- - - - - - - - - - - - - - - - - - - -
 72
65
 73
2
 40
0.2
 49
0.1
 74
0
 49
-0.1
 74
0
  0
LTYPE
  5
1F7
100
AcDbSymbolTableRecord
100
AcDbLinetypeTableRecord
  2
PHANTOM
 70
64
  3
_____ _ _ _____ _ _ _____ _ _ _____
 72
65
 73
6
 40
0.8
 49
0.45
 74
0
 49
-0.05
 74
0
 49
0.1
 74
0
 49
-0.05
 74
0
 49
0.1
 74
0
 49
-0.05
 74
0
  0
LTYPE
  5
1F8
100
AcDbSymbolTableRecord
100
AcDbLinetypeTableRecord
  2
DOT
 70
64
  3
. . . . . . . . . . . . . . . . . . . .
 72
65
 73
2
 40
0.2
 49
0.1
 74
0
 49
-0.1
 74
0
  0
LTYPE
  5
1F9
100
AcDbSymbolTableRecord
100
AcDbLinetypeTableRecord
  2
DASHED
 70
64
  3
- - - - - - - - - - - - - - - - - - - -
 72
65
 73
2
 40
0.2
 49
0.1
 74
0
 49
-0.1
 74
0
  0
ENDTAB
  0
TABLE
  2
LAYER
  5
2
100
AcDbSymbolTable
 70
36
  0
LAYER
  5
10
100
AcDbSymbolTableRecord
100
AcDbLayerTableRecord
  2
0
 70
0
 62
7
  6
CONTINUOUS
370
-3
390
F
  0
LAYER
  5
1FA
100
AcDbSymbolTableRecord
100
AcDbLayerTableRecord
  2
DEFAULT_1
 70
0
 62
7
  6
CENTER
370
-3
390
F
  0
LAYER
  5
1FB
100
AcDbSymbolTableRecord
100
AcDbLayerTableRecord
  2
DEFAULT_2
 70
0
 62
7
  6
HIDDEN
370
-3
390
F
  0
LAYER
  5
1FC
100
AcDbSymbolTableRecord
100
AcDbLayerTableRecord
  2
DEFAULT_3
 70
0
 62
7
  6
PHANTOM
370
-3
390
F
  0
LAYER
  5
1FD
100
AcDbSymbolTableRecord
100
AcDbLayerTableRecord
  2
ASSI
 70
0
 62
7
  6
CONTINUOUS
370
-3
390
F
  0
LAYER
  5
1FE
100
AcDbSymbolTableRecord
100
AcDbLayerTableRecord
  2
COORDINATE
 70
0
 62
7
  6
CONTINUOUS
370
-3
390
F
  0
LAYER
  5
1FF
100
AcDbSymbolTableRecord
100
AcDbLayerTableRecord
  2
COORD_ORIGINE
 70
0
 62
7
  6
CONTINUOUS
370
-3
390
F
  0
LAYER
  5
200
100
AcDbSymbolTableRecord
100
AcDbLayerTableRecord
  2
COPY_PUBLISH
 70
0
 62
7
  6
CONTINUOUS
370
-3
390
F
  0
LAYER
  5
201
100
AcDbSymbolTableRecord
100
AcDbLayerTableRecord
  2
COSMETIC
 70
0
 62
7
  6
CONTINUOUS
370
-3
390
F
  0
LAYER
  5
202
100
AcDbSymbolTableRecord
100
AcDbLayerTableRecord
  2
COSMETICI
 70
0
 62
7
  6
CONTINUOUS
370
-3
390
F
  0
LAYER
  5
203
100
AcDbSymbolTableRecord
100
AcDbLayerTableRecord
  2
CURVE
 70
0
 62
7
  6
CONTINUOUS
370
-3
390
F
  0
LAYER
  5
204
100
AcDbSymbolTableRecord
100
AcDbLayerTableRecord
  2
DRAFT
 70
0
 62
7
  6
CONTINUOUS
370
-3
390
F
  0
LAYER
  5
205
100
AcDbSymbolTableRecord
100
AcDbLayerTableRecord
  2
IMPORT
 70
0
 62
7
  6
CONTINUOUS
370
-3
390
F
  0
LAYER
  5
206
100
AcDbSymbolTableRecord
100
AcDbLayerTableRecord
  2
IMPORT_IGES
 70
0
 62
7
  6
CONTINUOUS
370
-3
390
F
  0
LAYER
  5
207
100
AcDbSymbolTableRecord
100
AcDbLayerTableRecord
  2
INTFCLR_11
 70
0
 62
7
  6
CONTINUOUS
370
-3
390
F
  0
LAYER
  5
208
100
AcDbSymbolTableRecord
100
AcDbLayerTableRecord
  2
INTF_1
 70
0
 62
7
  6
CONTINUOUS
370
-3
390
F
  0
LAYER
  5
209
100
AcDbSymbolTableRecord
100
AcDbLayerTableRecord
  2
INTF_3
 70
0
 62
7
  6
CONTINUOUS
370
-3
390
F
  0
LAYER
  5
20A
100
AcDbSymbolTableRecord
100
AcDbLayerTableRecord
  2
NOTE
 70
0
 62
7
  6
CONTINUOUS
370
-3
390
F
  0
LAYER
  5
20B
100
AcDbSymbolTableRecord
100
AcDbLayerTableRecord
  2
PIANI
 70
0
 62
7
  6
CONTINUOUS
370
-3
390
F
  0
LAYER
  5
20C
100
AcDbSymbolTableRecord
100
AcDbLayerTableRecord
  2
PIANI_ORIGINE
 70
0
 62
7
  6
CONTINUOUS
370
-3
390
F
  0
LAYER
  5
20D
100
AcDbSymbolTableRecord
100
AcDbLayerTableRecord
  2
PIANI_RIFERIMENTO
 70
0
 62
7
  6
CONTINUOUS
370
-3
390
F
  0
LAYER
  5
20E
100
AcDbSymbolTableRecord
100
AcDbLayerTableRecord
  2
PUNTI
 70
0
 62
7
  6
CONTINUOUS
370
-3
390
F
  0
LAYER
  5
20F
100
AcDbSymbolTableRecord
100
AcDbLayerTableRecord
  2
RACCORDO
 70
0
 62
7
  6
CONTINUOUS
370
-3
390
F
  0
LAYER
  5
210
100
AcDbSymbolTableRecord
100
AcDbLayerTableRecord
  2
SIMBOLI
 70
0
 62
7
  6
CONTINUOUS
370
-3
390
F
  0
LAYER
  5
211
100
AcDbSymbolTableRecord
100
AcDbLayerTableRecord
  2
SMUSSO
 70
0
 62
7
  6
CONTINUOUS
370
-3
390
F
  0
LAYER
  5
212
100
AcDbSymbolTableRecord
100
AcDbLayerTableRecord
  2
SNAPLINE
 70
0
 62
7
  6
CONTINUOUS
370
-3
390
F
  0
LAYER
  5
213
100
AcDbSymbolTableRecord
100
AcDbLayerTableRecord
  2
SUPERFICI
 70
0
 62
7
  6
CONTINUOUS
370
-3
390
F
  0
LAYER
  5
214
100
AcDbSymbolTableRecord
100
AcDbLayerTableRecord
  2
TRASH
 70
0
 62
7
  6
CONTINUOUS
370
-3
390
F
  0
LAYER
  5
215
100
AcDbSymbolTableRecord
100
AcDbLayerTableRecord
  2
XSEC_DATUMS
 70
0
 62
7
  6
CONTINUOUS
370
-3
390
F
  0
LAYER
  5
216
100
AcDbSymbolTableRecord
100
AcDbLayerTableRecord
  2
___SHELL
 70
0
 62
7
  6
CONTINUOUS
370
-3
390
F
  0
ENDTAB
  0
TABLE
  2
STYLE
  5
3
100
AcDbSymbolTable
 70
1
  0
STYLE
  5
11
100
AcDbSymbolTableRecord
100
AcDbTextStyleTableRecord
  2
STANDARD
 70
0
 40
0.0
 41
0.8
 50
0.0
 71
0
 42
0.2
  3
txt
  4

  0
STYLE
  5
217
100
AcDbSymbolTableRecord
100
AcDbTextStyleTableRecord
  2
TEXTSTYLE_1
 70
0
 40
0.0
 41
0.8
 50
0.0
 71
0
 42
0.2
  3
gdt
  4

  0
ENDTAB
  0
TABLE
  2
VIEW
  5
6
100
AcDbSymbolTable
 70
0
  0
ENDTAB
  0
TABLE
  2
UCS
  5
7
100
AcDbSymbolTable
 70
0
  0
ENDTAB
  0
TABLE
  2
APPID
  5
9
100
AcDbSymbolTable
 70
1
  0
APPID
  5
218
100
AcDbSymbolTableRecord
100
AcDbRegAppTableRecord
  2
ACAD
 70
0
  0
ENDTAB
  0
TABLE
  2
BLOCK_RECORD
  5
1
100
AcDbSymbolTable
 70
0
  0
BLOCK_RECORD
  5
219
100
AcDbSymbolTableRecord
100
AcDbBlockTableRecord
  2
*Model_Space
  0
BLOCK_RECORD
  5
21A
100
AcDbSymbolTableRecord
100
AcDbBlockTableRecord
  2
*Paper_Space
  0
BLOCK_RECORD
  5
21B
100
AcDbSymbolTableRecord
100
AcDbBlockTableRecord
  2
_FILLED
  0
ENDTAB
  0
TABLE
  2
DIMSTYLE
  5
A
100
AcDbSymbolTable
 70
1
100
AcDbDimStyleTable
 71
0
  0
DIMSTYLE
105
21C
100
AcDbSymbolTableRecord
100
AcDbDimStyleTableRecord
  2
STANDARD
 70
0
  3

  4

 40
1.0
 41
3.0
 42
0.5
 43
0.38
 44
1.5
 45
0.0
 46
0.0
 47
0.01
 48
0.01
140
3.0
141
0.0
142
0.0
143
25.4
144
1.0
145
0.0
146
1.0
147
0.625
 71
1
 72
0
 73
0
 74
0
 75
0
 76
0
 77
1
 78
8
 79
2
170
0
171
1
172
0
173
0
174
0
175
0
176
0
177
0
178
0
270
2
179
2
271
2
272
2
273
2
274
2
275
0
280
0
281
0
282
0
283
1
284
8
285
0
286
0
287
3
288
0
340
11
278
44
341
21B
342
21B
343
21B
344
21B
  0
ENDTAB
  0
ENDSEC
  0
SECTION
  2
BLOCKS
  0
BLOCK
  5
20
100
AcDbEntity
  8
0
100
AcDbBlockBegin
  2
*Model_Space
 70
0
 10
0.0
 20
0.0
 30
0.0
  3
*Model_Space
  1

  0
ENDBLK
  5
21
100
AcDbEntity
  8
0
100
AcDbBlockEnd
  0
BLOCK
  5
1C
100
AcDbEntity
  8
0
100
AcDbBlockBegin
  2
*Paper_Space
 70
0
 10
0.0
 20
0.0
 30
0.0
  3
*Paper_Space
  1

  0
ENDBLK
  5
1D
100
AcDbEntity
  8
0
100
AcDbBlockEnd
  0
BLOCK
  5
21D
100
AcDbEntity
  8
0
100
AcDbBlockBegin
  2
_FILLED
 70
64
 10
0.0
 20
0.0
 30
0.0
  3
_FILLED
  1

  0
SOLID
  5
21E
100
AcDbEntity
  8
0
  6
BYBLOCK
 62
0
100
AcDbTrace
 10
0.0
 20
0.0
 30
0.0
 11
-1.0
 21
0.3166666667
 31
0.0
 12
-1.0
 22
-0.3166666667
 32
0.0
 13
-1.0
 23
-0.3166666667
 33
0.0
  0
ENDBLK
  5
21F
100
AcDbEntity
  8
0
  6
BYBLOCK
 62
0
100
AcDbBlockEnd
  0
ENDSEC
  0
SECTION
  2
ENTITIES
  0
LWPOLYLINE
  5
220
100
AcDbEntity
  8
RACCORDO
100
AcDbPolyline
 62
7
  6
CONTINUOUS
 90
19
 70
0
 10
25.5515069794
 20
59.3767717389
 10
25.5129831408
 20
59.3498546368
 10
25.4458327215
 20
59.2975601881
 10
25.3818150101
 20
59.2408531568
 10
25.3209072184
 20
59.1800471334
 10
25.2631328983
 20
59.1154396433
 10
25.208678316
 20
59.0474436224
 10
25.1576257358
 20
58.9763600639
 10
25.110088925
 20
58.9024429683
 10
25.0663469143
 20
58.8261983997
 10
25.0265195197
 20
58.7478977661
 10
24.9907686457
 20
58.6677883701
 10
24.9593520485
 20
58.5863820177
 10
24.9324275848
 20
58.5039122796
 10
24.9101879948
 20
58.4205955729
 10
24.8928689717
 20
58.3367859543
 10
24.8807118878
 20
58.252658014
 10
24.8739797435
 20
58.168382031
 10
24.8733831999
 20
58.1536538613
  0
LINE
  5
221
100
AcDbEntity
  8
RACCORDO
100
AcDbLine
 62
7
  6
CONTINUOUS
 10
28.7518786913
 20
61.5228851557
 30
0.0
 11
25.5513836417
 21
59.3766972292
 31
0.0
  0
LINE
  5
222
100
AcDbEntity
  8
RACCORDO
100
AcDbLine
 62
250
  6
CONTINUOUS
 10
29.0110248177
 20
61.5040506473
 30
0.0
 11
25.8113542476
 21
59.3584156002
 31
0.0
  0
LINE
  5
223
100
AcDbEntity
  8
0
100
AcDbLine
 62
7
  6
CONTINUOUS
 10
30.1509942091
 20
62.6118487684
 30
0.0
 11
30.5324863284
 21
62.8634392333
 31
0.0
  0
LINE
  5
224
100
AcDbEntity
  8
0
100
AcDbLine
 62
250
  6
CONTINUOUS
 10
30.4091082755
 20
62.5923250648
 30
0.0
 11
30.6858947433
 21
62.7748631373
 31
0.0
  0
LINE
  5
225
100
AcDbEntity
  8
0
100
AcDbLine
 62
7
  6
CONTINUOUS
 10
30.2723242818
 20
63.764652965
 30
0.0
 11
31.8555043508
 21
64.7001572519
 31
0.0
  0
LINE
  5
226
100
AcDbEntity
  8
0
100
AcDbLine
 62
250
  6
CONTINUOUS
 10
30.3984770411
 20
63.7529409725
 30
0.0
 11
31.9812336443
 21
64.6881950326
 31
0.0
  0
LINE
  5
227
100
AcDbEntity
  8
0
100
AcDbLine
 62
7
  6
CONTINUOUS
 10
31.8555043649
 20
64.7001572599
 30
0.0
 11
31.856958608
 21
64.7009969216
 31
0.0
  0
LINE
  5
228
100
AcDbEntity
  8
0
100
AcDbLine
 62
250
  6
CONTINUOUS
 10
32.0770151115
 20
62.7837741277
 30
0.0
 11
34.2065630741
 21
64.0133477431
 31
0.0
  0
LINE
  5
229
100
AcDbEntity
  8
0
100
AcDbLine
 62
250
  6
CONTINUOUS
 10
32.2537888152
 20
62.4775930918
 30
0.0
 11
34.3833367778
 21
63.7071667072
 31
0.0
  0
LINE
  5
22A
100
AcDbEntity
  8
0
100
AcDbLine
 62
7
  6
CONTINUOUS
 10
31.8569585939
 20
64.7009969136
 30
0.0
 11
32.3918368953
 21
65.0026839283
 31
0.0
  0
LINE
  5
22B
100
AcDbEntity
  8
0
100
AcDbLine
 62
250
  6
CONTINUOUS
 10
31.9812336443
 20
64.6881950326
 30
0.0
 11
32.5156835229
 21
64.9896404043
 31
0.0
  0
LINE
  5
22C
100
AcDbEntity
  8
0
100
AcDbLine
 62
250
  6
CONTINUOUS
 10
33.855069606
 20
62.7167091403
 30
0.0
 11
34.3833367778
 21
63.3795214067
 31
0.0
  0
LINE
  5
22D
100
AcDbEntity
  8
0
100
AcDbLine
 62
7
  6
CONTINUOUS
 10
33.855069606
 20
62.6401572975
 30
0.0
 11
34.4010367783
 21
63.325177602
 31
0.0
  0
LINE
  5
22E
100
AcDbEntity
  8
0
100
AcDbLine
 62
7
  6
CONTINUOUS
 10
33.855069606
 20
61.8916780517
 30
0.0
 11
32.9650094233
 21
61.33016457
 31
0.0
  0
LINE
  5
22F
100
AcDbEntity
  8
0
100
AcDbLine
 62
7
  6
CONTINUOUS
 10
35.8349685934
 20
62.0548616332
 30
0.0
 11
34.7804791619
 21
61.4317617074
 31
0.0
  0
LINE
  5
230
100
AcDbEntity
  8
0
100
AcDbLine
 62
7
  6
CONTINUOUS
 10
35.4460598637
 20
61.0474637519
 30
0.0
 11
36.2937652497
 21
61.5426127927
 31
0.0
  0
LINE
  5
231
100
AcDbEntity
  8
0
100
AcDbLine
 62
7
  6
CONTINUOUS
 10
34.5580625603
 20
62.297577832
 30
0.0
 11
41.8808801916
 21
66.5257086626
 31
0.0
  0
LINE
  5
232
100
AcDbEntity
  8
0
100
AcDbLine
 62
7
  6
CONTINUOUS
 10
40.3978642107
 20
63.8875593633
 30
0.0
 11
37.2138268167
 21
62.0705252778
 31
0.0
  0
LINE
  5
233
100
AcDbEntity
  8
0
100
AcDbLine
 62
7
  6
CONTINUOUS
 10
39.7487507831
 20
64.2623493211
 30
0.0
 11
35.8349685934
 21
62.0548616332
 31
0.0
  0
LINE
  5
234
100
AcDbEntity
  8
0
100
AcDbLine
 62
7
  6
CONTINUOUS
 10
35.4460598637
 20
59.6840523456
 30
0.0
 11
36.1531666449
 21
60.135116333
 31
0.0
  0
LINE
  5
235
100
AcDbEntity
  8
0
100
AcDbLine
 62
7
  6
CONTINUOUS
 10
38.2744869884
 20
59.3399618434
 30
0.0
 11
38.0623549541
 21
59.2046426471
 31
0.0
  0
LINE
  5
236
100
AcDbEntity
  8
0
100
AcDbLine
 62
250
  6
CONTINUOUS
 10
37.9201108464
 20
60.603581228
 30
0.0
 11
38.1330656322
 21
60.7279692049
 31
0.0
  0
LINE
  5
237
100
AcDbEntity
  8
0
100
AcDbLine
 62
250
  6
CONTINUOUS
 10
38.0623549541
 20
60.3591100638
 30
0.0
 11
38.2744869884
 21
60.4830174674
 31
0.0
  0
LINE
  5
238
100
AcDbEntity
  8
0
100
AcDbLine
 62
7
  6
CONTINUOUS
 10
39.7298283348
 20
59.7578499207
 30
0.0
 11
39.5171162402
 21
59.633603701
 31
0.0
  0
LINE
  5
239
100
AcDbEntity
  8
0
100
AcDbLine
 62
250
  6
CONTINUOUS
 10
39.8301219071
 20
59.7481101809
 30
0.0
 11
39.6171671212
 21
59.6237222041
 31
0.0
  0
LINE
  5
23A
100
AcDbEntity
  8
0
100
AcDbLine
 62
7
  6
CONTINUOUS
 10
43.5970708773
 20
63.4747242527
 30
0.0
 11
38.9815937696
 21
60.8098056162
 31
0.0
  0
LINE
  5
23B
100
AcDbEntity
  8
0
100
AcDbLine
 62
7
  6
CONTINUOUS
 10
39.7304100412
 20
59.7581857793
 30
0.0
 11
39.7298283393
 21
59.7578499233
 31
0.0
  0
LINE
  5
23C
100
AcDbEntity
  8
0
100
AcDbLine
 62
7
  6
CONTINUOUS
 10
38.9815937696
 20
59.7439613692
 30
0.0
 11
38.2744869884
 21
59.3399618434
 31
0.0
  0
LINE
  5
23D
100
AcDbEntity
  8
0
100
AcDbLine
 62
7
  6
CONTINUOUS
 10
38.3517076904
 20
61.4135271223
 30
0.0
 11
40.4248853567
 21
62.5966270733
 31
0.0
  0
LINE
  5
23E
100
AcDbEntity
  8
0
100
AcDbLine
 62
7
  6
CONTINUOUS
 10
38.705261081
 20
61.2093898256
 30
0.0
 11
44.6425617764
 21
64.5976282175
 31
0.0
  0
LINE
  5
23F
100
AcDbEntity
  8
0
100
AcDbLine
 62
250
  6
CONTINUOUS
 10
38.1330656322
 20
60.7279692049
 30
0.0
 11
38.8401724134
 21
61.1314937131
 31
0.0
  0
LINE
  5
240
100
AcDbEntity
  8
0
100
AcDbLine
 62
250
  6
CONTINUOUS
 10
38.2744869884
 20
60.4830174674
 30
0.0
 11
38.9815937696
 21
60.8865419756
 31
0.0
  0
LINE
  5
241
100
AcDbEntity
  8
0
100
AcDbLine
 62
7
  6
CONTINUOUS
 10
40.4375168269
 20
60.1617102901
 30
0.0
 11
39.7304100457
 21
59.7581857819
 31
0.0
  0
LINE
  5
242
100
AcDbEntity
  8
0
100
AcDbLine
 62
250
  6
CONTINUOUS
 10
40.5372286882
 20
60.1516346891
 30
0.0
 11
39.8301219071
 21
59.7481101809
 31
0.0
  0
LINE
  5
243
100
AcDbEntity
  8
0
100
AcDbLine
 62
7
  6
CONTINUOUS
 10
42.1282189459
 20
57.1148653097
 30
0.0
 11
41.0613880338
 21
56.4418322368
 31
0.0
  0
LINE
  5
244
100
AcDbEntity
  8
0
100
AcDbLine
 62
7
  6
CONTINUOUS
 10
42.5759822745
 20
56.6606750411
 30
0.0
 11
44.1591623434
 21
57.596179328
 31
0.0
  0
LINE
  5
245
100
AcDbEntity
  8
0
100
AcDbLine
 62
250
  6
CONTINUOUS
 10
42.7021350338
 20
56.6489630486
 30
0.0
 11
44.2848916369
 21
57.5842171087
 31
0.0
  0
LINE
  5
246
100
AcDbEntity
  8
0
100
AcDbLine
 62
7
  6
CONTINUOUS
 10
41.243512718
 20
58.6846906394
 30
0.0
 11
40.395807332
 21
58.1895415986
 31
0.0
  0
LINE
  5
247
100
AcDbEntity
  8
0
100
AcDbLine
 62
7
  6
CONTINUOUS
 10
45.9967251065
 20
60.6548472522
 30
0.0
 11
41.0613880338
 21
57.8052436431
 31
0.0
  0
LINE
  5
248
100
AcDbEntity
  8
0
100
AcDbLine
 62
7
  6
CONTINUOUS
 10
42.1282189459
 20
57.1148653097
 30
0.0
 11
46.0254657762
 21
59.3650893306
 31
0.0
  0
LINE
  5
249
100
AcDbEntity
  8
0
100
AcDbLine
 62
7
  6
CONTINUOUS
 10
44.1591623576
 20
57.596179336
 30
0.0
 11
44.1606166006
 21
57.5970189977
 31
0.0
  0
LINE
  5
24A
100
AcDbEntity
  8
0
100
AcDbLine
 62
7
  6
CONTINUOUS
 10
45.347611679
 20
61.02963721
 30
0.0
 11
42.163574285
 21
59.2126031245
 31
0.0
  0
LINE
  5
24B
100
AcDbEntity
  8
0
100
AcDbLine
 62
7
  6
CONTINUOUS
 10
48.8852024635
 20
62.1479806576
 30
0.0
 11
46.1579856541
 21
60.5916402984
 31
0.0
  0
LINE
  5
24C
100
AcDbEntity
  8
0
100
AcDbLine
 62
7
  6
CONTINUOUS
 10
44.1606165865
 20
57.5970189897
 30
0.0
 11
44.695494888
 21
57.8987060044
 31
0.0
  0
LINE
  5
24D
100
AcDbEntity
  8
0
100
AcDbLine
 62
250
  6
CONTINUOUS
 10
44.2848916369
 20
57.5842171087
 30
0.0
 11
44.8193415156
 21
57.8856624804
 31
0.0
  0
LWPOLYLINE
  5
24E
100
AcDbEntity
  8
RACCORDO
100
AcDbPolyline
 62
7
  6
CONTINUOUS
 90
14
 70
0
 10
24.8734249347
 20
24.3372070028
 10
24.8737976174
 20
24.3279955527
 10
24.8805461686
 20
24.2458629897
 10
24.8931893163
 20
24.1672168196
 10
24.9115183534
 20
24.092291069
 10
24.9353206372
 20
24.0211651829
 10
24.9643925945
 20
23.9539749114
 10
24.9984536129
 20
23.8910291052
 10
25.0372050406
 20
23.8325407854
 10
25.0803383855
 20
23.778697987
 10
25.1274105612
 20
23.7298130905
 10
25.1779880962
 20
23.6860977678
 10
25.2316955108
 20
23.6476441012
 10
25.2520269715
 20
23.6349209333
  0
LWPOLYLINE
  5
24F
100
AcDbEntity
  8
RACCORDO
100
AcDbPolyline
 62
7
  6
CONTINUOUS
 90
10
 70
0
 10
24.8733833574
 20
58.1538811148
 10
24.7569518331
 20
54.3791448896
 10
24.6678559773
 20
50.5540326727
 10
24.6084404637
 20
46.7461091272
 10
24.5787207637
 20
42.9557549454
 10
24.5787001927
 20
39.1832818303
 10
24.6083793961
 20
35.4289756323
 10
24.6677563563
 20
31.6931447604
 10
24.7568169001
 20
27.9761518671
 10
24.8734101088
 20
24.3373952943
  0
LINE
  5
250
100
AcDbEntity
  8
0
100
AcDbLine
 62
7
  6
CONTINUOUS
 10
52.8234181064
 20
59.6703276503
 30
0.0
 11
46.217095682
 21
55.5848787662
 31
0.0
  0
LINE
  5
251
100
AcDbEntity
  8
0
100
AcDbLine
 62
7
  6
CONTINUOUS
 10
52.8234181064
 20
59.1123269623
 30
0.0
 11
46.5603354349
 21
55.367615898
 31
0.0
  0
LINE
  5
252
100
AcDbEntity
  8
RACCORDO
100
AcDbLine
 62
7
  6
CONTINUOUS
 10
52.4219117029
 20
58.6806168062
 30
0.0
 11
46.7225121808
 21
55.2739770775
 31
0.0
  0
LINE
  5
253
100
AcDbEntity
  8
0
100
AcDbLine
 62
7
  6
CONTINUOUS
 10
52.4219117029
 20
58.6806168062
 30
0.0
 11
46.7225121808
 21
55.2739770775
 31
0.0
  0
LINE
  5
254
100
AcDbEntity
  8
0
100
AcDbLine
 62
250
  6
CONTINUOUS
 10
44.3806731042
 20
55.6797962038
 30
0.0
 11
46.5102210667
 21
56.9093698192
 31
0.0
  0
LINE
  5
255
100
AcDbEntity
  8
0
100
AcDbLine
 62
250
  6
CONTINUOUS
 10
44.5574468078
 20
55.3736151679
 30
0.0
 11
46.6869947704
 21
56.6031887833
 31
0.0
  0
LINE
  5
256
100
AcDbEntity
  8
0
100
AcDbLine
 62
7
  6
CONTINUOUS
 10
51.9356823127
 20
60.3866718241
 30
0.0
 11
46.2177730687
 21
57.1616036817
 31
0.0
  0
LINE
  5
257
100
AcDbEntity
  8
0
100
AcDbLine
 62
250
  6
CONTINUOUS
 10
78.5067999238
 20
-1.0331990039
 30
0.0
 11
77.9785327521
 21
-0.987556061
 31
0.0
  0
LINE
  5
258
100
AcDbEntity
  8
0
100
AcDbLine
 62
250
  6
CONTINUOUS
 10
78.4173861285
 20
-0.7039205665
 30
0.0
 11
78.0227424805
 21
-0.6698228627
 31
0.0
  0
LINE
  5
259
100
AcDbEntity
  8
RACCORDO
100
AcDbLine
 62
7
  6
CONTINUOUS
 10
46.8570738335
 20
55.1962828656
 30
0.0
 11
47.2393958277
 21
55.5829282854
 31
0.0
  0
LINE
  5
25A
100
AcDbEntity
  8
0
100
AcDbLine
 62
7
  6
CONTINUOUS
 10
46.8570738335
 20
55.1962828656
 30
0.0
 11
47.2393958277
 21
55.5829282854
 31
0.0
  0
LINE
  5
25B
100
AcDbEntity
  8
RACCORDO
100
AcDbLine
 62
250
  6
CONTINUOUS
 10
46.8449133114
 20
55.3471385663
 30
0.0
 11
46.753954695
 21
55.2558225638
 31
0.0
  0
LINE
  5
25C
100
AcDbEntity
  8
0
100
AcDbLine
 62
250
  6
CONTINUOUS
 10
46.8449133114
 20
55.3471385663
 30
0.0
 11
46.753954695
 21
55.2558225638
 31
0.0
  0
LINE
  5
25D
100
AcDbEntity
  8
0
100
AcDbLine
 62
7
  6
CONTINUOUS
 10
46.1587275987
 20
54.7877001278
 30
0.0
 11
45.2686674159
 21
54.226186646
 31
0.0
  0
LINE
  5
25E
100
AcDbEntity
  8
0
100
AcDbLine
 62
250
  6
CONTINUOUS
 10
46.5119329842
 20
54.5837637649
 30
0.0
 11
45.4327589202
 21
53.9178574731
 31
0.0
  0
LINE
  5
25F
100
AcDbEntity
  8
0
100
AcDbLine
 62
250
  6
CONTINUOUS
 10
46.8652172501
 20
53.9713598681
 30
0.0
 11
45.7860431862
 21
53.3054535763
 31
0.0
  0
LINE
  5
260
100
AcDbEntity
  8
0
100
AcDbLine
 62
250
  6
CONTINUOUS
 10
47.2135299718
 20
54.9904695588
 30
0.0
 11
46.512594018
 21
54.5833820922
 31
0.0
  0
LINE
  5
261
100
AcDbEntity
  8
0
100
AcDbLine
 62
250
  6
CONTINUOUS
 10
47.567078875
 20
54.3781135319
 30
0.0
 11
46.8661429212
 21
53.9710260653
 31
0.0
  0
LINE
  5
262
100
AcDbEntity
  8
RACCORDO
100
AcDbLine
 62
250
  6
CONTINUOUS
 10
80.0878199822
 20
9.2349181907
 30
0.0
 11
82.4084965285
 21
9.6801988013
 31
0.0
  0
LINE
  5
263
100
AcDbEntity
  8
0
100
AcDbLine
 62
250
  6
CONTINUOUS
 10
80.0878199822
 20
9.2349181907
 30
0.0
 11
82.4084965285
 21
9.6801988013
 31
0.0
  0
LINE
  5
264
100
AcDbEntity
  8
DRAFT
100
AcDbLine
 62
7
  6
CONTINUOUS
 10
30.0558240095
 20
62.387884983
 30
0.0
 11
30.0558240095
 21
60.9007966884
 31
0.0
  0
LINE
  5
265
100
AcDbEntity
  8
0
100
AcDbLine
 62
7
  6
CONTINUOUS
 10
30.0558240095
 20
62.387884983
 30
0.0
 11
30.0558240095
 21
60.9007966884
 31
0.0
  0
LINE
  5
266
100
AcDbEntity
  8
0
100
AcDbLine
 62
7
  6
CONTINUOUS
 10
30.1495054804
 20
63.5494206656
 30
0.0
 11
30.1495054804
 21
63.2289004928
 31
0.0
  0
LINE
  5
267
100
AcDbEntity
  8
0
100
AcDbLine
 62
250
  6
CONTINUOUS
 10
30.2227287851
 20
63.4473520173
 30
0.0
 11
30.2227287851
 21
63.1268318444
 31
0.0
  0
LINE
  5
268
100
AcDbEntity
  8
0
100
AcDbLine
 62
7
  6
CONTINUOUS
 10
30.8524984347
 20
62.6786682539
 30
0.0
 11
30.8524984347
 21
62.3992407546
 31
0.0
  0
LINE
  5
269
100
AcDbEntity
  8
0
100
AcDbLine
 62
250
  6
CONTINUOUS
 10
30.9257217394
 20
62.6363900354
 30
0.0
 11
30.9257217394
 21
62.2940389254
 31
0.0
  0
LINE
  5
26A
100
AcDbEntity
  8
0
100
AcDbLine
 62
250
  6
CONTINUOUS
 10
31.9012668555
 20
62.1576649996
 30
0.0
 11
31.9012668555
 21
62.4781851724
 31
0.0
  0
LINE
  5
26B
100
AcDbEntity
  8
0
100
AcDbLine
 62
250
  6
CONTINUOUS
 10
32.2537888152
 20
62.1570729189
 30
0.0
 11
32.2537888152
 21
62.4775930918
 31
0.0
  0
LINE
  5
26C
100
AcDbEntity
  8
0
100
AcDbLine
 62
250
  6
CONTINUOUS
 10
32.6124874636
 20
61.3201215364
 30
0.0
 11
32.6124874636
 21
61.9594638067
 31
0.0
  0
LINE
  5
26D
100
AcDbEntity
  8
0
100
AcDbLine
 62
250
  6
CONTINUOUS
 10
32.9650094233
 20
61.33016457
 30
0.0
 11
32.9650094233
 21
62.0915829061
 31
0.0
  0
LINE
  5
26E
100
AcDbEntity
  8
0
100
AcDbLine
 62
250
  6
CONTINUOUS
 10
46.1587275987
 20
55.6127312164
 30
0.0
 11
46.6869947704
 21
56.2755434828
 31
0.0
  0
LINE
  5
26F
100
AcDbEntity
  8
0
100
AcDbLine
 62
7
  6
CONTINUOUS
 10
46.1587275987
 20
55.5361793736
 30
0.0
 11
46.704694771
 21
56.2211996781
 31
0.0
  0
LINE
  5
270
100
AcDbEntity
  8
0
100
AcDbLine
 62
7
  6
CONTINUOUS
 10
47.567078875
 20
51.6136198255
 30
0.0
 11
48.2680148288
 21
52.0325826054
 31
0.0
  0
LINE
  5
271
100
AcDbEntity
  8
RACCORDO
100
AcDbLine
 62
7
  6
CONTINUOUS
 10
81.9544607765
 20
10.3134562712
 30
0.0
 11
80.0878199822
 21
10.0267431523
 31
0.0
  0
LINE
  5
272
100
AcDbEntity
  8
0
100
AcDbLine
 62
7
  6
CONTINUOUS
 10
81.9544607765
 20
10.3134562712
 30
0.0
 11
80.0878199822
 21
10.0267431523
 31
0.0
  0
LINE
  5
273
100
AcDbEntity
  8
0
100
AcDbLine
 62
7
  6
CONTINUOUS
 10
33.855069606
 20
61.8916780517
 30
0.0
 11
33.855069606
 21
63.402151518
 31
0.0
  0
LINE
  5
274
100
AcDbEntity
  8
0
100
AcDbLine
 62
250
  6
CONTINUOUS
 10
34.3833367778
 20
63.7071667072
 30
0.0
 11
34.3833367778
 21
63.3795214067
 31
0.0
  0
LINE
  5
275
100
AcDbEntity
  8
0
100
AcDbLine
 62
7
  6
CONTINUOUS
 10
34.4555346348
 20
63.8086398203
 30
0.0
 11
34.4555346348
 21
63.4809945198
 31
0.0
  0
LINE
  5
276
100
AcDbEntity
  8
0
100
AcDbLine
 62
7
  6
CONTINUOUS
 10
34.7804791619
 20
61.4317617074
 30
0.0
 11
34.7804791619
 21
60.0683503011
 31
0.0
  0
LINE
  5
277
100
AcDbEntity
  8
0
100
AcDbLine
 62
7
  6
CONTINUOUS
 10
35.4460598637
 20
59.6840523456
 30
0.0
 11
35.4460598637
 21
61.0474637519
 31
0.0
  0
LINE
  5
278
100
AcDbEntity
  8
0
100
AcDbLine
 62
7
  6
CONTINUOUS
 10
36.1531666449
 20
61.2981416285
 30
0.0
 11
36.1531666449
 21
60.135116333
 31
0.0
  0
LWPOLYLINE
  5
279
100
AcDbEntity
  8
RACCORDO
100
AcDbPolyline
 62
7
  6
CONTINUOUS
 90
13
 70
0
 10
71.7566104703
 20
-3.2162430124
 10
71.7750037281
 20
-3.2260786624
 10
71.835825158
 20
-3.2541443141
 10
71.8990784697
 20
-3.2767353976
 10
71.9647462661
 20
-3.2938012013
 10
72.0324231966
 20
-3.3051580213
 10
72.1016452814
 20
-3.3106600285
 10
72.1724306092
 20
-3.3101948392
 10
72.2444549617
 20
-3.3036124329
 10
72.3173232711
 20
-3.2908147674
 10
72.3911153551
 20
-3.2715962019
 10
72.4657111218
 20
-3.2457154589
 10
72.5469938541
 20
-3.2100035665
  0
LWPOLYLINE
  5
27A
100
AcDbEntity
  8
RACCORDO
100
AcDbPolyline
 62
7
  6
CONTINUOUS
 90
10
 70
0
 10
25.2518246277
 20
23.6350350169
 10
30.2553090911
 20
20.6306302697
 10
35.3577184274
 20
17.596541561
 10
40.4872523344
 20
14.5761151313
 10
45.6437854404
 20
11.5694372811
 10
50.8271869156
 20
8.5765923769
 10
56.0373158284
 20
5.597660297
 10
61.2740273359
 20
2.6327181088
 10
66.5371685293
 20
-0.3181619886
 10
71.7567118804
 20
-3.2163063862
  0
LINE
  5
27B
100
AcDbEntity
  8
0
100
AcDbLine
 62
250
  6
CONTINUOUS
 10
37.7795122416
 20
59.1960847683
 30
0.0
 11
37.7795122416
 21
60.3591100638
 31
0.0
  0
LINE
  5
27C
100
AcDbEntity
  8
0
100
AcDbLine
 62
250
  6
CONTINUOUS
 10
38.0623549541
 20
59.2046426471
 30
0.0
 11
38.0623549541
 21
60.3591100638
 31
0.0
  0
LINE
  5
27D
100
AcDbEntity
  8
0
100
AcDbLine
 62
7
  6
CONTINUOUS
 10
38.9815937696
 20
60.8865419756
 30
0.0
 11
38.9815937696
 21
59.7439613692
 31
0.0
  0
LINE
  5
27E
100
AcDbEntity
  8
0
100
AcDbLine
 62
7
  6
CONTINUOUS
 10
39.4179898727
 20
59.4609059585
 30
0.0
 11
39.4179898727
 21
58.3003872077
 31
0.0
  0
LINE
  5
27F
100
AcDbEntity
  8
0
100
AcDbLine
 62
250
  6
CONTINUOUS
 10
39.4765685165
 20
59.3792510399
 30
0.0
 11
39.4765685165
 21
58.2162257443
 31
0.0
  0
LINE
  5
280
100
AcDbEntity
  8
0
100
AcDbLine
 62
7
  6
CONTINUOUS
 10
74.9457584916
 20
-2.0371334445
 30
0.0
 11
76.0765006569
 21
-2.6900097992
 31
0.0
  0
LINE
  5
281
100
AcDbEntity
  8
0
100
AcDbLine
 62
250
  6
CONTINUOUS
 10
75.0250414632
 20
-1.9983679509
 30
0.0
 11
76.0247300016
 21
-2.5755755839
 31
0.0
  0
LINE
  5
282
100
AcDbEntity
  8
0
100
AcDbLine
 62
250
  6
CONTINUOUS
 10
76.0247300016
 20
-2.2550554111
 30
0.0
 11
75.3256215906
 21
-1.8513989764
 31
0.0
  0
LINE
  5
283
100
AcDbEntity
  8
0
100
AcDbLine
 62
250
  6
CONTINUOUS
 10
76.1131183492
 20
-2.0272500866
 30
0.0
 11
75.5871142023
 21
-1.7235418846
 31
0.0
  0
LINE
  5
284
100
AcDbEntity
  8
0
100
AcDbLine
 62
7
  6
CONTINUOUS
 10
76.7359506097
 20
-1.2599194222
 30
0.0
 11
76.0339891038
 21
-0.8546156464
 31
0.0
  0
LINE
  5
285
100
AcDbEntity
  8
0
100
AcDbLine
 62
7
  6
CONTINUOUS
 10
77.2525640736
 20
-0.9039994448
 30
0.0
 11
76.7359506097
 21
-0.6057133054
 31
0.0
  0
LINE
  5
286
100
AcDbEntity
  8
0
100
AcDbLine
 62
7
  6
CONTINUOUS
 10
40.395807332
 20
58.1895415986
 30
0.0
 11
40.395807332
 21
56.8261301923
 31
0.0
  0
LINE
  5
287
100
AcDbEntity
  8
0
100
AcDbLine
 62
250
  6
CONTINUOUS
 10
40.4248853567
 20
63.9017848975
 30
0.0
 11
40.4248853567
 21
62.5966270733
 31
0.0
  0
LINE
  5
288
100
AcDbEntity
  8
0
100
AcDbLine
 62
7
  6
CONTINUOUS
 10
40.5592874539
 20
63.9607656166
 30
0.0
 11
40.5592874539
 21
62.7824337974
 31
0.0
  0
LINE
  5
289
100
AcDbEntity
  8
0
100
AcDbLine
 62
7
  6
CONTINUOUS
 10
41.0613880338
 20
56.4418322368
 30
0.0
 11
41.0613880338
 21
57.8052436431
 31
0.0
  0
LINE
  5
28A
100
AcDbEntity
  8
0
100
AcDbLine
 62
7
  6
CONTINUOUS
 10
42.1282189459
 20
57.1148653097
 30
0.0
 11
42.1282189459
 21
58.4212177526
 31
0.0
  0
LINE
  5
28B
100
AcDbEntity
  8
0
100
AcDbLine
 62
7
  6
CONTINUOUS
 10
42.4531634731
 20
56.4454427417
 30
0.0
 11
42.4531634731
 21
56.1249225689
 31
0.0
  0
LINE
  5
28C
100
AcDbEntity
  8
0
100
AcDbLine
 62
250
  6
CONTINUOUS
 10
42.5263867778
 20
56.3433740934
 30
0.0
 11
42.5263867778
 21
56.0228539205
 31
0.0
  0
LINE
  5
28D
100
AcDbEntity
  8
0
100
AcDbLine
 62
7
  6
CONTINUOUS
 10
43.1561564274
 20
55.57469033
 30
0.0
 11
43.1561564274
 21
55.2952628307
 31
0.0
  0
LINE
  5
28E
100
AcDbEntity
  8
0
100
AcDbLine
 62
250
  6
CONTINUOUS
 10
43.2293797321
 20
55.5324121115
 30
0.0
 11
43.2293797321
 21
55.1900610015
 31
0.0
  0
LINE
  5
28F
100
AcDbEntity
  8
0
100
AcDbLine
 62
7
  6
CONTINUOUS
 10
62.0921294352
 20
45.3922962653
 30
0.0
 11
63.6753095042
 21
46.3278005521
 31
0.0
  0
LINE
  5
290
100
AcDbEntity
  8
0
100
AcDbLine
 62
250
  6
CONTINUOUS
 10
62.2182821945
 20
45.3805842728
 30
0.0
 11
63.8010387977
 21
46.3158383328
 31
0.0
  0
LINE
  5
291
100
AcDbEntity
  8
0
100
AcDbLine
 62
7
  6
CONTINUOUS
 10
63.6753095183
 20
46.3278005601
 30
0.0
 11
63.6767637614
 21
46.3286402218
 31
0.0
  0
LINE
  5
292
100
AcDbEntity
  8
0
100
AcDbLine
 62
7
  6
CONTINUOUS
 10
63.6767637472
 20
46.3286402139
 30
0.0
 11
64.2116420487
 21
46.6303272285
 31
0.0
  0
LINE
  5
293
100
AcDbEntity
  8
0
100
AcDbLine
 62
250
  6
CONTINUOUS
 10
63.8010387977
 20
46.3158383328
 30
0.0
 11
64.3354886763
 21
46.6172837045
 31
0.0
  0
LINE
  5
294
100
AcDbEntity
  8
0
100
AcDbLine
 62
250
  6
CONTINUOUS
 10
78.202906682
 20
-0.5800828221
 30
0.0
 11
78.4173861285
 21
-0.7039205665
 31
0.0
  0
LINE
  5
295
100
AcDbEntity
  8
0
100
AcDbLine
 62
7
  6
CONTINUOUS
 10
78.2120561359
 20
-0.5755254663
 30
0.0
 11
78.4540038208
 21
-0.7152230273
 31
0.0
  0
LINE
  5
296
100
AcDbEntity
  8
0
100
AcDbLine
 62
250
  6
CONTINUOUS
 10
44.2049248482
 20
55.0536870757
 30
0.0
 11
44.2049248482
 21
55.3742072485
 31
0.0
  0
LINE
  5
297
100
AcDbEntity
  8
0
100
AcDbLine
 62
250
  6
CONTINUOUS
 10
44.5574468078
 20
55.053094995
 30
0.0
 11
44.5574468078
 21
55.3736151679
 31
0.0
  0
LINE
  5
298
100
AcDbEntity
  8
0
100
AcDbLine
 62
250
  6
CONTINUOUS
 10
44.9161454563
 20
54.2161436125
 30
0.0
 11
44.9161454563
 21
54.8554858827
 31
0.0
  0
LINE
  5
299
100
AcDbEntity
  8
0
100
AcDbLine
 62
250
  6
CONTINUOUS
 10
45.2686674159
 20
54.226186646
 30
0.0
 11
45.2686674159
 21
54.9876049822
 31
0.0
  0
LINE
  5
29A
100
AcDbEntity
  8
0
100
AcDbLine
 62
7
  6
CONTINUOUS
 10
45.3455548003
 20
64.1870711194
 30
0.0
 11
45.3455548003
 21
63.7494537071
 31
0.0
  0
LINE
  5
29B
100
AcDbEntity
  8
DRAFT
100
AcDbLine
 62
7
  6
CONTINUOUS
 10
45.7860431862
 20
53.3054535763
 30
0.0
 11
45.7860431862
 21
51.8183652817
 31
0.0
  0
LINE
  5
29C
100
AcDbEntity
  8
0
100
AcDbLine
 62
7
  6
CONTINUOUS
 10
45.7860431862
 20
53.3054535763
 30
0.0
 11
45.7860431862
 21
51.8183652817
 31
0.0
  0
LINE
  5
29D
100
AcDbEntity
  8
0
100
AcDbLine
 62
250
  6
CONTINUOUS
 10
46.0254657762
 20
60.6700740782
 30
0.0
 11
46.0254657762
 21
60.1248020556
 31
0.0
  0
LINE
  5
29E
100
AcDbEntity
  8
0
100
AcDbLine
 62
250
  6
CONTINUOUS
 10
46.0254657762
 20
59.8112320806
 30
0.0
 11
46.0254657762
 21
59.3650893306
 31
0.0
  0
LINE
  5
29F
100
AcDbEntity
  8
0
100
AcDbLine
 62
7
  6
CONTINUOUS
 10
46.1579856541
 20
60.728147444
 30
0.0
 11
46.1579856541
 21
59.5498156247
 31
0.0
  0
LINE
  5
2A0
100
AcDbEntity
  8
0
100
AcDbLine
 62
7
  6
CONTINUOUS
 10
46.1587275987
 20
54.7877001278
 30
0.0
 11
46.1587275987
 21
56.2981735941
 31
0.0
  0
LINE
  5
2A1
100
AcDbEntity
  8
0
100
AcDbLine
 62
7
  6
CONTINUOUS
 10
61.9707993625
 20
44.2394920687
 30
0.0
 11
62.3522914818
 21
44.4910825336
 31
0.0
  0
LINE
  5
2A2
100
AcDbEntity
  8
0
100
AcDbLine
 62
250
  6
CONTINUOUS
 10
62.2289134289
 20
44.2199683651
 30
0.0
 11
62.5056998967
 21
44.4025064375
 31
0.0
  0
LINE
  5
2A3
100
AcDbEntity
  8
0
100
AcDbLine
 62
250
  6
CONTINUOUS
 10
63.8968202649
 20
44.4114174279
 30
0.0
 11
66.0263682275
 21
45.6409910434
 31
0.0
  0
LINE
  5
2A4
100
AcDbEntity
  8
0
100
AcDbLine
 62
250
  6
CONTINUOUS
 10
64.0735939686
 20
44.105236392
 30
0.0
 11
66.2031419312
 21
45.3348100075
 31
0.0
  0
LINE
  5
2A5
100
AcDbEntity
  8
0
100
AcDbLine
 62
7
  6
CONTINUOUS
 10
73.4118870806
 20
47.9865803512
 30
0.0
 11
66.3778677137
 21
43.9252211322
 31
0.0
  0
LINE
  5
2A6
100
AcDbEntity
  8
0
100
AcDbLine
 62
7
  6
CONTINUOUS
 10
73.4118870806
 20
47.9865803512
 30
0.0
 11
73.700685345
 21
48.1533519629
 31
0.0
  0
LINE
  5
2A7
100
AcDbEntity
  8
RACCORDO
100
AcDbLine
 62
7
  6
CONTINUOUS
 10
77.6058483396
 20
3.563362162
 30
0.0
 11
76.0339891038
 21
4.4709339848
 31
0.0
  0
LINE
  5
2A8
100
AcDbEntity
  8
0
100
AcDbLine
 62
7
  6
CONTINUOUS
 10
77.6058483396
 20
3.563362162
 30
0.0
 11
76.0339891038
 21
4.4709339848
 31
0.0
  0
LINE
  5
2A9
100
AcDbEntity
  8
DRAFT
100
AcDbLine
 62
7
  6
CONTINUOUS
 10
47.0656079512
 20
17.1235263031
 30
0.0
 11
47.0507038131
 21
17.6581090667
 31
0.0
  0
LINE
  5
2AA
100
AcDbEntity
  8
DRAFT
100
AcDbLine
 62
7
  6
CONTINUOUS
 10
47.0543561416
 20
17.5244189407
 30
0.0
 11
47.0331753828
 21
18.3270047815
 31
0.0
  0
LINE
  5
2AB
100
AcDbEntity
  8
0
100
AcDbLine
 62
7
  6
CONTINUOUS
 10
48.4214653612
 20
17.3886607136
 30
0.0
 11
48.4503596968
 21
16.323955471
 31
0.0
  0
LINE
  5
2AC
100
AcDbEntity
  8
0
100
AcDbLine
 62
7
  6
CONTINUOUS
 10
48.4015619389
 20
18.1997494516
 30
0.0
 11
48.4285471538
 21
17.1165789011
 31
0.0
  0
LINE
  5
2AD
100
AcDbEntity
  8
0
100
AcDbLine
 62
7
  6
CONTINUOUS
 10
48.3893558588
 20
18.7381093732
 30
0.0
 11
48.4079607516
 21
17.9307469298
 31
0.0
  0
LINE
  5
2AE
100
AcDbEntity
  8
0
100
AcDbLine
 62
250
  6
CONTINUOUS
 10
46.6869947704
 20
56.6031887833
 30
0.0
 11
46.6869947704
 21
56.2755434828
 31
0.0
  0
LINE
  5
2AF
100
AcDbEntity
  8
0
100
AcDbLine
 62
7
  6
CONTINUOUS
 10
46.7591926274
 20
56.7046618964
 30
0.0
 11
46.7591926274
 21
56.3770165959
 31
0.0
  0
LINE
  5
2B0
100
AcDbEntity
  8
0
100
AcDbLine
 62
7
  6
CONTINUOUS
 10
46.8652172501
 20
53.9713598681
 30
0.0
 11
46.8652172501
 21
51.1952637024
 31
0.0
  0
LINE
  5
2B1
100
AcDbEntity
  8
0
100
AcDbLine
 62
7
  6
CONTINUOUS
 10
46.8661429212
 20
53.9710260653
 30
0.0
 11
46.8661429212
 21
51.1947292315
 31
0.0
  0
LINE
  5
2B2
100
AcDbEntity
  8
0
100
AcDbLine
 62
7
  6
CONTINUOUS
 10
47.567078875
 20
54.3781135319
 30
0.0
 11
47.567078875
 21
51.6136198255
 31
0.0
  0
LINE
  5
2B3
100
AcDbEntity
  8
0
100
AcDbLine
 62
7
  6
CONTINUOUS
 10
48.2680148288
 20
52.0325826054
 30
0.0
 11
48.2680148288
 21
50.3853059617
 31
0.0
  0
LINE
  5
2B4
100
AcDbEntity
  8
0
100
AcDbLine
 62
7
  6
CONTINUOUS
 10
67.2658650171
 20
41.3116956459
 30
0.0
 11
67.9729717983
 21
41.7627596332
 31
0.0
  0
LINE
  5
2B5
100
AcDbEntity
  8
0
100
AcDbLine
 62
7
  6
CONTINUOUS
 10
65.6748747594
 20
43.5193213519
 30
0.0
 11
64.7848145767
 21
42.9578078702
 31
0.0
  0
LINE
  5
2B6
100
AcDbEntity
  8
0
100
AcDbLine
 62
7
  6
CONTINUOUS
 10
67.6547737467
 20
43.6825049335
 30
0.0
 11
66.6002843153
 21
43.0594050076
 31
0.0
  0
LINE
  5
2B7
100
AcDbEntity
  8
0
100
AcDbLine
 62
7
  6
CONTINUOUS
 10
67.2658650171
 20
42.6751070521
 30
0.0
 11
68.1135704031
 21
43.1702560929
 31
0.0
  0
LINE
  5
2B8
100
AcDbEntity
  8
0
100
AcDbLine
 62
250
  6
CONTINUOUS
 10
69.7399159998
 20
42.2312245283
 30
0.0
 11
69.9528707856
 21
42.3556125051
 31
0.0
  0
LINE
  5
2B9
100
AcDbEntity
  8
0
100
AcDbLine
 62
250
  6
CONTINUOUS
 10
69.8821601075
 20
41.9867533641
 30
0.0
 11
70.0942921418
 21
42.1106607676
 31
0.0
  0
LINE
  5
2BA
100
AcDbEntity
  8
0
100
AcDbLine
 62
7
  6
CONTINUOUS
 10
75.4168760307
 20
45.102367553
 30
0.0
 11
70.801398923
 21
42.4374489165
 31
0.0
  0
LINE
  5
2BB
100
AcDbEntity
  8
0
100
AcDbLine
 62
7
  6
CONTINUOUS
 10
72.217669364
 20
45.5152026636
 30
0.0
 11
69.0336319701
 21
43.698168578
 31
0.0
  0
LINE
  5
2BC
100
AcDbEntity
  8
0
100
AcDbLine
 62
7
  6
CONTINUOUS
 10
70.1715128438
 20
43.0411704225
 30
0.0
 11
72.2446905101
 21
44.2242703735
 31
0.0
  0
LINE
  5
2BD
100
AcDbEntity
  8
0
100
AcDbLine
 62
7
  6
CONTINUOUS
 10
70.5250662344
 20
42.8370331258
 30
0.0
 11
76.4623669298
 21
46.2252715178
 31
0.0
  0
LINE
  5
2BE
100
AcDbEntity
  8
0
100
AcDbLine
 62
250
  6
CONTINUOUS
 10
69.9528707856
 20
42.3556125051
 30
0.0
 11
70.6599775668
 21
42.7591370134
 31
0.0
  0
LINE
  5
2BF
100
AcDbEntity
  8
0
100
AcDbLine
 62
250
  6
CONTINUOUS
 10
70.0942921418
 20
42.1106607676
 30
0.0
 11
70.801398923
 21
42.5141852758
 31
0.0
  0
LINE
  5
2C0
100
AcDbEntity
  8
0
100
AcDbLine
 62
7
  6
CONTINUOUS
 10
71.5685559365
 20
45.8899926213
 30
0.0
 11
67.6547737467
 21
43.6825049335
 31
0.0
  0
LINE
  5
2C1
100
AcDbEntity
  8
RACCORDO
100
AcDbLine
 62
250
  6
CONTINUOUS
 10
52.4219117029
 20
58.8722653903
 30
0.0
 11
52.4219117029
 21
58.6806168062
 31
0.0
  0
LINE
  5
2C2
100
AcDbEntity
  8
0
100
AcDbLine
 62
250
  6
CONTINUOUS
 10
52.4219117029
 20
58.8722653903
 30
0.0
 11
52.4219117029
 21
58.6806168062
 31
0.0
  0
LINE
  5
2C3
100
AcDbEntity
  8
RACCORDO
100
AcDbLine
 62
7
  6
CONTINUOUS
 10
52.4792616131
 20
58.9065550292
 30
0.0
 11
52.4792616131
 21
58.8093775549
 31
0.0
  0
LINE
  5
2C4
100
AcDbEntity
  8
0
100
AcDbLine
 62
7
  6
CONTINUOUS
 10
52.4792616131
 20
58.9065550292
 30
0.0
 11
52.4792616131
 21
58.8093775549
 31
0.0
  0
LINE
  5
2C5
100
AcDbEntity
  8
0
100
AcDbLine
 62
250
  6
CONTINUOUS
 10
52.8234181064
 20
59.6703276503
 30
0.0
 11
52.8234181064
 21
59.1123269623
 31
0.0
  0
LINE
  5
2C6
100
AcDbEntity
  8
0
100
AcDbLine
 62
7
  6
CONTINUOUS
 10
52.9637482062
 20
59.9903782963
 30
0.0
 11
52.9637482062
 21
59.3128704808
 31
0.0
  0
LINE
  5
2C7
100
AcDbEntity
  8
0
100
AcDbLine
 62
250
  6
CONTINUOUS
 10
65.6748747594
 20
44.3443524406
 30
0.0
 11
66.2031419312
 21
45.007164707
 31
0.0
  0
LINE
  5
2C8
100
AcDbEntity
  8
0
100
AcDbLine
 62
7
  6
CONTINUOUS
 10
65.6748747594
 20
44.2678005977
 30
0.0
 11
66.2208419317
 21
44.9528209022
 31
0.0
  0
LINE
  5
2C9
100
AcDbEntity
  8
0
100
AcDbLine
 62
7
  6
CONTINUOUS
 10
70.0942921418
 20
40.9676051436
 30
0.0
 11
69.8821601075
 21
40.8322859474
 31
0.0
  0
LINE
  5
2CA
100
AcDbEntity
  8
0
100
AcDbLine
 62
7
  6
CONTINUOUS
 10
71.5496334882
 20
41.3854932209
 30
0.0
 11
71.3369213936
 21
41.2612470013
 31
0.0
  0
LINE
  5
2CB
100
AcDbEntity
  8
0
100
AcDbLine
 62
250
  6
CONTINUOUS
 10
71.6499270605
 20
41.3757534812
 30
0.0
 11
71.4369722746
 21
41.2513655043
 31
0.0
  0
LINE
  5
2CC
100
AcDbEntity
  8
0
100
AcDbLine
 62
7
  6
CONTINUOUS
 10
73.0633178714
 20
40.3123339396
 30
0.0
 11
72.2156124854
 21
39.8171848988
 31
0.0
  0
LINE
  5
2CD
100
AcDbEntity
  8
0
100
AcDbLine
 62
7
  6
CONTINUOUS
 10
71.5502151946
 20
41.3858290796
 30
0.0
 11
71.5496334927
 21
41.3854932236
 31
0.0
  0
LINE
  5
2CE
100
AcDbEntity
  8
0
100
AcDbLine
 62
7
  6
CONTINUOUS
 10
77.8165302599
 20
42.2824905525
 30
0.0
 11
72.8811931872
 21
39.4328869433
 31
0.0
  0
LINE
  5
2CF
100
AcDbEntity
  8
0
100
AcDbLine
 62
7
  6
CONTINUOUS
 10
70.801398923
 20
41.3716046695
 30
0.0
 11
70.0942921418
 21
40.9676051436
 31
0.0
  0
LINE
  5
2D0
100
AcDbEntity
  8
0
100
AcDbLine
 62
7
  6
CONTINUOUS
 10
72.2573219803
 20
41.7893535904
 30
0.0
 11
71.5502151991
 21
41.3858290822
 31
0.0
  0
LINE
  5
2D1
100
AcDbEntity
  8
0
100
AcDbLine
 62
250
  6
CONTINUOUS
 10
72.3570338416
 20
41.7792779894
 30
0.0
 11
71.6499270605
 21
41.3757534812
 31
0.0
  0
LINE
  5
2D2
100
AcDbEntity
  8
0
100
AcDbLine
 62
7
  6
CONTINUOUS
 10
77.1674168324
 20
42.6572805103
 30
0.0
 11
73.9833794384
 21
40.8402464247
 31
0.0
  0
LINE
  5
2D3
100
AcDbEntity
  8
0
100
AcDbLine
 62
7
  6
CONTINUOUS
 10
80.7050076169
 20
43.7756239578
 30
0.0
 11
77.9777908075
 21
42.2192835986
 31
0.0
  0
LINE
  5
2D4
100
AcDbEntity
  8
RACCORDO
100
AcDbLine
 62
7
  6
CONTINUOUS
 10
84.2990667665
 20
7.2113735577
 30
0.0
 11
84.6371067502
 21
7.0161935078
 31
0.0
  0
LINE
  5
2D5
100
AcDbEntity
  8
0
100
AcDbLine
 62
7
  6
CONTINUOUS
 10
84.2990667665
 20
7.2113735577
 30
0.0
 11
84.6371067502
 21
7.0161935078
 31
0.0
  0
LINE
  5
2D6
100
AcDbEntity
  8
RACCORDO
100
AcDbLine
 62
250
  6
CONTINUOUS
 10
80.0878199822
 20
10.1388683127
 30
0.0
 11
80.2412089312
 21
10.0503034559
 31
0.0
  0
LINE
  5
2D7
100
AcDbEntity
  8
0
100
AcDbLine
 62
250
  6
CONTINUOUS
 10
80.0878199822
 20
10.1388683127
 30
0.0
 11
80.2412089312
 21
10.0503034559
 31
0.0
  0
LINE
  5
2D8
100
AcDbEntity
  8
RACCORDO
100
AcDbLine
 62
250
  6
CONTINUOUS
 10
82.407284044
 20
8.7996388331
 30
0.0
 11
83.5934967613
 21
8.1147344769
 31
0.0
  0
LINE
  5
2D9
100
AcDbEntity
  8
0
100
AcDbLine
 62
250
  6
CONTINUOUS
 10
82.407284044
 20
8.7996388331
 30
0.0
 11
83.5934967613
 21
8.1147344769
 31
0.0
  0
LINE
  5
2DA
100
AcDbEntity
  8
RACCORDO
100
AcDbLine
 62
7
  6
CONTINUOUS
 10
80.0878199822
 20
10.2050991735
 30
0.0
 11
80.3318137705
 21
10.0642202181
 31
0.0
  0
LINE
  5
2DB
100
AcDbEntity
  8
0
100
AcDbLine
 62
7
  6
CONTINUOUS
 10
80.0878199822
 20
10.2050991735
 30
0.0
 11
80.3318137705
 21
10.0642202181
 31
0.0
  0
LINE
  5
2DC
100
AcDbEntity
  8
RACCORDO
100
AcDbLine
 62
7
  6
CONTINUOUS
 10
82.4646285682
 20
8.8327596843
 30
0.0
 11
83.6518604773
 21
8.1472668596
 31
0.0
  0
LINE
  5
2DD
100
AcDbEntity
  8
0
100
AcDbLine
 62
7
  6
CONTINUOUS
 10
82.4646285682
 20
8.8327596843
 30
0.0
 11
83.6518604773
 21
8.1472668596
 31
0.0
  0
LINE
  5
2DE
100
AcDbEntity
  8
RACCORDO
100
AcDbLine
 62
250
  6
CONTINUOUS
 10
83.8093428431
 20
8.2350487375
 30
0.0
 11
84.2417168563
 21
7.9854014011
 31
0.0
  0
LINE
  5
2DF
100
AcDbEntity
  8
0
100
AcDbLine
 62
250
  6
CONTINUOUS
 10
83.8093428431
 20
8.2350487375
 30
0.0
 11
84.2417168563
 21
7.9854014011
 31
0.0
  0
LINE
  5
2E0
100
AcDbEntity
  8
RACCORDO
100
AcDbLine
 62
7
  6
CONTINUOUS
 10
83.9495343602
 20
8.2203347733
 30
0.0
 11
84.2990667663
 21
8.0185191427
 31
0.0
  0
LINE
  5
2E1
100
AcDbEntity
  8
0
100
AcDbLine
 62
7
  6
CONTINUOUS
 10
83.9495343602
 20
8.2203347733
 30
0.0
 11
84.2990667663
 21
8.0185191427
 31
0.0
  0
LINE
  5
2E2
100
AcDbEntity
  8
0
100
AcDbLine
 62
7
  6
CONTINUOUS
 10
73.9480240993
 20
38.74250861
 30
0.0
 11
72.8811931872
 21
38.069475537
 31
0.0
  0
LINE
  5
2E3
100
AcDbEntity
  8
0
100
AcDbLine
 62
7
  6
CONTINUOUS
 10
74.3957874279
 20
38.2883183414
 30
0.0
 11
75.9789674968
 21
39.2238226282
 31
0.0
  0
LINE
  5
2E4
100
AcDbEntity
  8
0
100
AcDbLine
 62
250
  6
CONTINUOUS
 10
74.5219401872
 20
38.2766063489
 30
0.0
 11
76.1046967903
 21
39.2118604089
 31
0.0
  0
LINE
  5
2E5
100
AcDbEntity
  8
0
100
AcDbLine
 62
7
  6
CONTINUOUS
 10
73.9480240993
 20
38.74250861
 30
0.0
 11
77.8452709296
 21
40.9927326309
 31
0.0
  0
LINE
  5
2E6
100
AcDbEntity
  8
0
100
AcDbLine
 62
7
  6
CONTINUOUS
 10
75.978967511
 20
39.2238226362
 30
0.0
 11
75.980421754
 21
39.2246622979
 31
0.0
  0
LINE
  5
2E7
100
AcDbEntity
  8
0
100
AcDbLine
 62
7
  6
CONTINUOUS
 10
75.9804217399
 20
39.2246622899
 30
0.0
 11
76.5153000414
 21
39.5263493046
 31
0.0
  0
LINE
  5
2E8
100
AcDbEntity
  8
0
100
AcDbLine
 62
250
  6
CONTINUOUS
 10
76.1046967903
 20
39.2118604089
 30
0.0
 11
76.639146669
 21
39.5133057806
 31
0.0
  0
LINE
  5
2E9
100
AcDbEntity
  8
0
100
AcDbLine
 62
7
  6
CONTINUOUS
 10
83.7554874661
 20
42.0143151244
 30
0.0
 11
78.0375782221
 21
38.7892469819
 31
0.0
  0
LINE
  5
2EA
100
AcDbEntity
  8
DRAFT
100
AcDbLine
 62
7
  6
CONTINUOUS
 10
76.455881752
 20
16.4755743018
 30
0.0
 11
76.0339891038
 21
16.7191698293
 31
0.0
  0
LINE
  5
2EB
100
AcDbEntity
  8
0
100
AcDbLine
 62
7
  6
CONTINUOUS
 10
76.455881752
 20
16.4755743018
 30
0.0
 11
76.0339891038
 21
16.7191698293
 31
0.0
  0
LINE
  5
2EC
100
AcDbEntity
  8
0
100
AcDbLine
 62
7
  6
CONTINUOUS
 10
77.9785327521
 20
36.415343428
 30
0.0
 11
77.0884725693
 21
35.8538299463
 31
0.0
  0
LINE
  5
2ED
100
AcDbEntity
  8
0
100
AcDbLine
 62
7
  6
CONTINUOUS
 10
84.6432232598
 20
41.2979709506
 30
0.0
 11
78.0369008354
 21
37.2125220664
 31
0.0
  0
LINE
  5
2EE
100
AcDbEntity
  8
0
100
AcDbLine
 62
250
  6
CONTINUOUS
 10
78.3317381376
 20
36.2114070651
 30
0.0
 11
77.2525640736
 21
35.5455007733
 31
0.0
  0
LINE
  5
2EF
100
AcDbEntity
  8
RACCORDO
100
AcDbLine
 62
250
  6
CONTINUOUS
 10
72.3090497944
 20
32.5112289424
 30
0.0
 11
75.6807990504
 21
34.557507915
 31
0.0
  0
LINE
  5
2F0
100
AcDbEntity
  8
0
100
AcDbLine
 62
7
  6
CONTINUOUS
 10
84.6432232598
 20
40.7399702625
 30
0.0
 11
78.3801405883
 21
36.9952591983
 31
0.0
  0
LINE
  5
2F1
100
AcDbEntity
  8
RACCORDO
100
AcDbLine
 62
7
  6
CONTINUOUS
 10
84.2417168563
 20
40.3082601065
 30
0.0
 11
78.5423173342
 21
36.9016203777
 31
0.0
  0
LINE
  5
2F2
100
AcDbEntity
  8
0
100
AcDbLine
 62
7
  6
CONTINUOUS
 10
84.2417168563
 20
40.3082601065
 30
0.0
 11
78.5423173342
 21
36.9016203777
 31
0.0
  0
LINE
  5
2F3
100
AcDbEntity
  8
0
100
AcDbLine
 62
250
  6
CONTINUOUS
 10
79.0333351252
 20
36.6181128591
 30
0.0
 11
78.3323991714
 21
36.2110253925
 31
0.0
  0
LINE
  5
2F4
100
AcDbEntity
  8
0
100
AcDbLine
 62
250
  6
CONTINUOUS
 10
79.3868840284
 20
36.0057568321
 30
0.0
 11
78.6859480746
 21
35.5986693655
 31
0.0
  0
LINE
  5
2F5
100
AcDbEntity
  8
0
100
AcDbLine
 62
250
  6
CONTINUOUS
 10
76.2004782576
 20
37.307439504
 30
0.0
 11
78.3300262201
 21
38.5370131195
 31
0.0
  0
LINE
  5
2F6
100
AcDbEntity
  8
0
100
AcDbLine
 62
250
  6
CONTINUOUS
 10
76.3772519612
 20
37.0012584681
 30
0.0
 11
78.5067999238
 21
38.2308320836
 31
0.0
  0
LINE
  5
2F7
100
AcDbEntity
  8
DRAFT
100
AcDbLine
 62
7
  6
CONTINUOUS
 10
61.8756291629
 20
44.0155282832
 30
0.0
 11
61.8756291629
 21
42.5284399886
 31
0.0
  0
LINE
  5
2F8
100
AcDbEntity
  8
0
100
AcDbLine
 62
7
  6
CONTINUOUS
 10
61.8756291629
 20
44.0155282832
 30
0.0
 11
61.8756291629
 21
42.5284399886
 31
0.0
  0
LINE
  5
2F9
100
AcDbEntity
  8
0
100
AcDbLine
 62
7
  6
CONTINUOUS
 10
61.9693106338
 20
45.1770639659
 30
0.0
 11
61.9693106338
 21
44.856543793
 31
0.0
  0
LINE
  5
2FA
100
AcDbEntity
  8
0
100
AcDbLine
 62
250
  6
CONTINUOUS
 10
62.0425339385
 20
45.0749953175
 30
0.0
 11
62.0425339385
 21
44.7544751447
 31
0.0
  0
LINE
  5
2FB
100
AcDbEntity
  8
0
100
AcDbLine
 62
7
  6
CONTINUOUS
 10
62.6723035881
 20
44.3063115541
 30
0.0
 11
62.6723035881
 21
44.0268840548
 31
0.0
  0
LINE
  5
2FC
100
AcDbEntity
  8
0
100
AcDbLine
 62
250
  6
CONTINUOUS
 10
62.7455268928
 20
44.2640333357
 30
0.0
 11
62.7455268928
 21
43.9216822257
 31
0.0
  0
LINE
  5
2FD
100
AcDbEntity
  8
0
100
AcDbLine
 62
250
  6
CONTINUOUS
 10
78.6850224035
 20
35.5990031684
 30
0.0
 11
77.6058483396
 21
34.9330968766
 31
0.0
  0
LINE
  5
2FE
100
AcDbEntity
  8
RACCORDO
100
AcDbLine
 62
250
  6
CONTINUOUS
 10
72.6717306302
 20
31.9048259571
 30
0.0
 11
76.0339891038
 21
33.9453450743
 31
0.0
  0
LINE
  5
2FF
100
AcDbEntity
  8
0
100
AcDbLine
 62
7
  6
CONTINUOUS
 10
79.3868840284
 20
33.2412631257
 30
0.0
 11
80.0878199822
 21
33.6602259056
 31
0.0
  0
LINE
  5
300
100
AcDbEntity
  8
0
100
AcDbLine
 62
7
  6
CONTINUOUS
 10
76.1785833864
 20
36.534452199
 30
0.0
 11
76.8063423378
 21
36.4766474316
 31
0.0
  0
LINE
  5
301
100
AcDbEntity
  8
0
100
AcDbLine
 62
7
  6
CONTINUOUS
 10
46.217095682
 20
55.5848787662
 30
0.0
 11
46.2336204439
 21
55.5562570391
 31
0.0
  0
LINE
  5
302
100
AcDbEntity
  8
0
100
AcDbLine
 62
7
  6
CONTINUOUS
 10
47.567078875
 20
53.2466392889
 30
0.0
 11
48.2680148288
 21
52.0325826054
 31
0.0
  0
LINE
  5
303
100
AcDbEntity
  8
0
100
AcDbLine
 62
250
  6
CONTINUOUS
 10
63.7210720089
 20
43.7853082999
 30
0.0
 11
63.7210720089
 21
44.1058284727
 31
0.0
  0
LINE
  5
304
100
AcDbEntity
  8
0
100
AcDbLine
 62
250
  6
CONTINUOUS
 10
64.0735939686
 20
43.7847162192
 30
0.0
 11
64.0735939686
 21
44.105236392
 31
0.0
  0
LINE
  5
305
100
AcDbEntity
  8
0
100
AcDbLine
 62
250
  6
CONTINUOUS
 10
64.432292617
 20
42.9477648366
 30
0.0
 11
64.432292617
 21
43.5871071069
 31
0.0
  0
LINE
  5
306
100
AcDbEntity
  8
0
100
AcDbLine
 62
250
  6
CONTINUOUS
 10
64.7848145767
 20
42.9578078702
 30
0.0
 11
64.7848145767
 21
43.7192262063
 31
0.0
  0
LINE
  5
307
100
AcDbEntity
  8
0
100
AcDbLine
 62
7
  6
CONTINUOUS
 10
65.6748747594
 20
43.5193213519
 30
0.0
 11
65.6748747594
 21
45.0297948183
 31
0.0
  0
LINE
  5
308
100
AcDbEntity
  8
0
100
AcDbLine
 62
250
  6
CONTINUOUS
 10
66.2031419312
 20
45.3348100075
 30
0.0
 11
66.2031419312
 21
45.007164707
 31
0.0
  0
LINE
  5
309
100
AcDbEntity
  8
0
100
AcDbLine
 62
7
  6
CONTINUOUS
 10
66.2753397882
 20
45.4362831205
 30
0.0
 11
66.2753397882
 21
45.10863782
 31
0.0
  0
LINE
  5
30A
100
AcDbEntity
  8
RACCORDO
100
AcDbLine
 62
7
  6
CONTINUOUS
 10
78.6768789869
 20
36.8239261659
 30
0.0
 11
79.0592009811
 21
37.2105715856
 31
0.0
  0
LINE
  5
30B
100
AcDbEntity
  8
0
100
AcDbLine
 62
7
  6
CONTINUOUS
 10
78.6768789869
 20
36.8239261659
 30
0.0
 11
79.0592009811
 21
37.2105715856
 31
0.0
  0
LINE
  5
30C
100
AcDbEntity
  8
RACCORDO
100
AcDbLine
 62
250
  6
CONTINUOUS
 10
78.6647184648
 20
36.9747818665
 30
0.0
 11
78.5737598484
 21
36.8834658641
 31
0.0
  0
LINE
  5
30D
100
AcDbEntity
  8
0
100
AcDbLine
 62
250
  6
CONTINUOUS
 10
78.6647184648
 20
36.9747818665
 30
0.0
 11
78.5737598484
 21
36.8834658641
 31
0.0
  0
LINE
  5
30E
100
AcDbEntity
  8
0
100
AcDbLine
 62
7
  6
CONTINUOUS
 10
77.1653599537
 20
45.3770970073
 30
0.0
 11
75.4168760307
 21
45.102367553
 31
0.0
  0
LINE
  5
30F
100
AcDbEntity
  8
0
100
AcDbLine
 62
250
  6
CONTINUOUS
 10
76.3772519612
 20
36.6807382953
 30
0.0
 11
77.0884725693
 21
36.6152482824
 31
0.0
  0
LINE
  5
310
100
AcDbEntity
  8
RACCORDO
100
AcDbLine
 62
250
  6
CONTINUOUS
 10
72.3090497944
 20
32.5112289424
 30
0.0
 11
70.7726400842
 21
33.357307802
 31
0.0
  0
LINE
  5
311
100
AcDbEntity
  8
RACCORDO
100
AcDbLine
 62
250
  6
CONTINUOUS
 10
72.3090497944
 20
32.5112289424
 30
0.0
 11
69.4263962627
 21
34.1007503933
 31
0.0
  0
LINE
  5
312
100
AcDbEntity
  8
RACCORDO
100
AcDbLine
 62
250
  6
CONTINUOUS
 10
70.7726400842
 20
33.357307802
 30
0.0
 11
68.8593624074
 21
34.4146755961
 31
0.0
  0
LINE
  5
313
100
AcDbEntity
  8
RACCORDO
100
AcDbLine
 62
250
  6
CONTINUOUS
 10
69.4263962627
 20
34.1007503933
 30
0.0
 11
68.8598849535
 21
34.4150218225
 31
0.0
  0
LINE
  5
314
100
AcDbEntity
  8
RACCORDO
100
AcDbLine
 62
250
  6
CONTINUOUS
 10
68.2303468032
 20
32.9192012827
 30
0.0
 11
67.4309755997
 21
33.3626476806
 31
0.0
  0
LINE
  5
315
100
AcDbEntity
  8
RACCORDO
100
AcDbLine
 62
250
  6
CONTINUOUS
 10
68.2308018707
 20
32.9194829054
 30
0.0
 11
66.8317707432
 21
33.6965999489
 31
0.0
  0
LINE
  5
316
100
AcDbEntity
  8
RACCORDO
100
AcDbLine
 62
250
  6
CONTINUOUS
 10
67.4309755997
 20
33.3626476806
 30
0.0
 11
66.8308511014
 21
33.6960289112
 31
0.0
  0
LINE
  5
317
100
AcDbEntity
  8
RACCORDO
100
AcDbLine
 62
250
  6
CONTINUOUS
 10
49.8991164753
 20
43.2695671859
 30
0.0
 11
49.8853771584
 21
43.2774694276
 31
0.0
  0
LINE
  5
318
100
AcDbEntity
  8
RACCORDO
100
AcDbLine
 62
250
  6
CONTINUOUS
 10
49.900204072
 20
43.2702165823
 30
0.0
 11
49.8864659733
 21
43.2781194944
 31
0.0
  0
LINE
  5
319
100
AcDbEntity
  8
0
100
AcDbLine
 62
7
  6
CONTINUOUS
 10
66.6002843153
 20
43.0594050076
 30
0.0
 11
66.6002843153
 21
41.6959936014
 31
0.0
  0
LINE
  5
31A
100
AcDbEntity
  8
0
100
AcDbLine
 62
7
  6
CONTINUOUS
 10
67.2658650171
 20
41.3116956459
 30
0.0
 11
67.2658650171
 21
42.6751070521
 31
0.0
  0
LINE
  5
31B
100
AcDbEntity
  8
0
100
AcDbLine
 62
7
  6
CONTINUOUS
 10
67.9729717983
 20
42.9257849287
 30
0.0
 11
67.9729717983
 21
41.7627596332
 31
0.0
  0
LINE
  5
31C
100
AcDbEntity
  8
0
100
AcDbLine
 62
250
  6
CONTINUOUS
 10
69.599317395
 20
40.8237280686
 30
0.0
 11
69.599317395
 21
41.9867533641
 31
0.0
  0
LINE
  5
31D
100
AcDbEntity
  8
0
100
AcDbLine
 62
250
  6
CONTINUOUS
 10
69.8821601075
 20
40.8322859474
 30
0.0
 11
69.8821601075
 21
41.9867533641
 31
0.0
  0
LINE
  5
31E
100
AcDbEntity
  8
0
100
AcDbLine
 62
250
  6
CONTINUOUS
 10
77.9785327521
 20
37.2403745167
 30
0.0
 11
78.5067999238
 21
37.9031867831
 31
0.0
  0
LINE
  5
31F
100
AcDbEntity
  8
0
100
AcDbLine
 62
7
  6
CONTINUOUS
 10
77.9785327521
 20
37.1638226738
 30
0.0
 11
78.5244999243
 21
37.8488429783
 31
0.0
  0
LINE
  5
320
100
AcDbEntity
  8
0
100
AcDbLine
 62
7
  6
CONTINUOUS
 10
63.8749253938
 20
43.6384301229
 30
0.0
 11
64.5026843452
 21
43.5806253555
 31
0.0
  0
LINE
  5
321
100
AcDbEntity
  8
0
100
AcDbLine
 62
250
  6
CONTINUOUS
 10
64.0735939686
 20
43.7847162192
 30
0.0
 11
64.7848145767
 21
43.7192262063
 31
0.0
  0
LINE
  5
322
100
AcDbEntity
  8
RACCORDO
100
AcDbLine
 62
7
  6
CONTINUOUS
 10
76.0339891038
 20
31.5777471743
 30
0.0
 11
77.6058483396
 21
30.6701753516
 31
0.0
  0
LINE
  5
323
100
AcDbEntity
  8
0
100
AcDbLine
 62
7
  6
CONTINUOUS
 10
76.0339891038
 20
31.5777471743
 30
0.0
 11
77.6058483396
 21
30.6701753516
 31
0.0
  0
LINE
  5
324
100
AcDbEntity
  8
RACCORDO
100
AcDbLine
 62
7
  6
CONTINUOUS
 10
29.0110248177
 20
61.5040506473
 30
0.0
 11
75.6807990504
 21
34.557507915
 31
0.0
  0
LINE
  5
325
100
AcDbEntity
  8
0
100
AcDbLine
 62
7
  6
CONTINUOUS
 10
70.801398923
 20
42.5141852758
 30
0.0
 11
70.801398923
 21
41.3716046695
 31
0.0
  0
LINE
  5
326
100
AcDbEntity
  8
0
100
AcDbLine
 62
7
  6
CONTINUOUS
 10
71.2377950261
 20
41.0885492588
 30
0.0
 11
71.2377950261
 21
39.9280305079
 31
0.0
  0
LINE
  5
327
100
AcDbEntity
  8
0
100
AcDbLine
 62
250
  6
CONTINUOUS
 10
71.2963736699
 20
41.0068943401
 30
0.0
 11
71.2963736699
 21
39.8438690446
 31
0.0
  0
LINE
  5
328
100
AcDbEntity
  8
0
100
AcDbLine
 62
7
  6
CONTINUOUS
 10
72.2156124854
 20
39.8171848988
 30
0.0
 11
72.2156124854
 21
38.4537734926
 31
0.0
  0
LINE
  5
329
100
AcDbEntity
  8
0
100
AcDbLine
 62
250
  6
CONTINUOUS
 10
72.2446905101
 20
45.5294281977
 30
0.0
 11
72.2446905101
 21
44.2242703735
 31
0.0
  0
LINE
  5
32A
100
AcDbEntity
  8
0
100
AcDbLine
 62
7
  6
CONTINUOUS
 10
72.3790926073
 20
45.5884089169
 30
0.0
 11
72.3790926073
 21
44.4100770976
 31
0.0
  0
LINE
  5
32B
100
AcDbEntity
  8
0
100
AcDbLine
 62
7
  6
CONTINUOUS
 10
72.8811931872
 20
38.069475537
 30
0.0
 11
72.8811931872
 21
39.4328869433
 31
0.0
  0
LINE
  5
32C
100
AcDbEntity
  8
0
100
AcDbLine
 62
250
  6
CONTINUOUS
 10
74.3979625864
 20
37.5360630055
 30
0.0
 11
74.3980124896
 21
37.536034215
 31
0.0
  0
LINE
  5
32D
100
AcDbEntity
  8
0
100
AcDbLine
 62
250
  6
CONTINUOUS
 10
42.578157433
 20
55.9084197052
 30
0.0
 11
42.5782073362
 21
55.9083909148
 31
0.0
  0
LINE
  5
32E
100
AcDbEntity
  8
0
100
AcDbLine
 62
7
  6
CONTINUOUS
 10
77.2525640736
 20
35.5455007733
 30
0.0
 11
76.7359506097
 21
35.8437869127
 31
0.0
  0
LINE
  5
32F
100
AcDbEntity
  8
0
100
AcDbLine
 62
7
  6
CONTINUOUS
 10
75.0491848855
 20
36.8177043018
 30
0.0
 11
72.8811931872
 21
38.069475537
 31
0.0
  0
LINE
  5
330
100
AcDbEntity
  8
0
100
AcDbLine
 62
7
  6
CONTINUOUS
 10
72.2156124854
 20
38.4537734926
 30
0.0
 11
67.2658650171
 21
41.3116956459
 31
0.0
  0
LINE
  5
331
100
AcDbEntity
  8
0
100
AcDbLine
 62
7
  6
CONTINUOUS
 10
66.6002843153
 20
41.6959936014
 30
0.0
 11
64.432292617
 21
42.9477648366
 31
0.0
  0
LINE
  5
332
100
AcDbEntity
  8
0
100
AcDbLine
 62
7
  6
CONTINUOUS
 10
62.7455268928
 20
43.9216822257
 30
0.0
 11
62.2289134289
 21
44.2199683651
 31
0.0
  0
LINE
  5
333
100
AcDbEntity
  8
0
100
AcDbLine
 62
7
  6
CONTINUOUS
 10
45.4327589202
 20
53.9178574731
 30
0.0
 11
44.9161454563
 21
54.2161436125
 31
0.0
  0
LINE
  5
334
100
AcDbEntity
  8
0
100
AcDbLine
 62
7
  6
CONTINUOUS
 10
43.2293797321
 20
55.1900610015
 30
0.0
 11
41.0613880338
 21
56.4418322368
 31
0.0
  0
LINE
  5
335
100
AcDbEntity
  8
0
100
AcDbLine
 62
7
  6
CONTINUOUS
 10
40.395807332
 20
56.8261301923
 30
0.0
 11
35.4460598637
 21
59.6840523456
 31
0.0
  0
LINE
  5
336
100
AcDbEntity
  8
0
100
AcDbLine
 62
7
  6
CONTINUOUS
 10
34.7804791619
 20
60.0683503011
 30
0.0
 11
32.6124874636
 21
61.3201215364
 31
0.0
  0
LINE
  5
337
100
AcDbEntity
  8
0
100
AcDbLine
 62
7
  6
CONTINUOUS
 10
30.9257217394
 20
62.2940389254
 30
0.0
 11
30.4091082755
 21
62.5923250648
 31
0.0
  0
LINE
  5
338
100
AcDbEntity
  8
0
100
AcDbLine
 62
7
  6
CONTINUOUS
 10
30.2744994404
 20
63.0123976291
 30
0.0
 11
31.9530375108
 21
62.0432307843
 31
0.0
  0
LINE
  5
339
100
AcDbEntity
  8
0
100
AcDbLine
 62
7
  6
CONTINUOUS
 10
42.578157433
 20
55.9084197052
 30
0.0
 11
44.2566955035
 21
54.9392528604
 31
0.0
  0
LINE
  5
33A
100
AcDbEntity
  8
0
100
AcDbLine
 62
7
  6
CONTINUOUS
 10
62.0943045938
 20
44.6400409294
 30
0.0
 11
63.7728426642
 21
43.6708740846
 31
0.0
  0
LINE
  5
33B
100
AcDbEntity
  8
0
100
AcDbLine
 62
7
  6
CONTINUOUS
 10
74.3979625864
 20
37.5360630055
 30
0.0
 11
76.0765006569
 21
36.5668961607
 31
0.0
  0
LINE
  5
33C
100
AcDbEntity
  8
0
100
AcDbLine
 62
250
  6
CONTINUOUS
 10
30.2227287851
 20
63.1268318444
 30
0.0
 11
31.9012668555
 21
62.1576649996
 31
0.0
  0
LINE
  5
33D
100
AcDbEntity
  8
0
100
AcDbLine
 62
250
  6
CONTINUOUS
 10
42.5263867778
 20
56.0228539205
 30
0.0
 11
44.2049248482
 21
55.0536870757
 31
0.0
  0
LINE
  5
33E
100
AcDbEntity
  8
0
100
AcDbLine
 62
250
  6
CONTINUOUS
 10
62.0425339385
 20
44.7544751447
 30
0.0
 11
63.7210720089
 21
43.7853082999
 31
0.0
  0
LINE
  5
33F
100
AcDbEntity
  8
0
100
AcDbLine
 62
250
  6
CONTINUOUS
 10
74.3461919312
 20
37.6504972208
 30
0.0
 11
76.0247300016
 21
36.681330376
 31
0.0
  0
LINE
  5
340
100
AcDbEntity
  8
0
100
AcDbLine
 62
250
  6
CONTINUOUS
 10
76.0247300016
 20
37.0018505488
 30
0.0
 11
74.3461919312
 21
37.9710173936
 31
0.0
  0
LINE
  5
341
100
AcDbEntity
  8
0
100
AcDbLine
 62
250
  6
CONTINUOUS
 10
63.7210720089
 20
44.1058284727
 30
0.0
 11
62.0425339385
 21
45.0749953175
 31
0.0
  0
LINE
  5
342
100
AcDbEntity
  8
0
100
AcDbLine
 62
250
  6
CONTINUOUS
 10
44.2049248482
 20
55.3742072485
 30
0.0
 11
42.5263867778
 21
56.3433740934
 31
0.0
  0
LINE
  5
343
100
AcDbEntity
  8
0
100
AcDbLine
 62
250
  6
CONTINUOUS
 10
31.9012668555
 20
62.4781851724
 30
0.0
 11
30.2227287851
 21
63.4473520173
 31
0.0
  0
LINE
  5
344
100
AcDbEntity
  8
0
100
AcDbLine
 62
7
  6
CONTINUOUS
 10
72.2156124854
 20
39.3131120733
 30
0.0
 11
71.2963736699
 21
39.8438690446
 31
0.0
  0
LINE
  5
345
100
AcDbEntity
  8
0
100
AcDbLine
 62
7
  6
CONTINUOUS
 10
69.599317395
 20
40.8237280686
 30
0.0
 11
67.9729717983
 21
41.7627596332
 31
0.0
  0
LINE
  5
346
100
AcDbEntity
  8
0
100
AcDbLine
 62
7
  6
CONTINUOUS
 10
40.395807332
 20
57.685468773
 30
0.0
 11
39.4765685165
 21
58.2162257443
 31
0.0
  0
LINE
  5
347
100
AcDbEntity
  8
0
100
AcDbLine
 62
7
  6
CONTINUOUS
 10
37.7795122416
 20
59.1960847683
 30
0.0
 11
36.1531666449
 21
60.135116333
 31
0.0
  0
LINE
  5
348
100
AcDbEntity
  8
0
100
AcDbLine
 62
250
  6
CONTINUOUS
 10
76.2004782576
 20
37.307439504
 30
0.0
 11
74.5219401872
 21
38.2766063489
 31
0.0
  0
LINE
  5
349
100
AcDbEntity
  8
0
100
AcDbLine
 62
250
  6
CONTINUOUS
 10
63.8968202649
 20
44.4114174279
 30
0.0
 11
62.2182821945
 21
45.3805842728
 31
0.0
  0
LINE
  5
34A
100
AcDbEntity
  8
0
100
AcDbLine
 62
250
  6
CONTINUOUS
 10
44.3806731042
 20
55.6797962038
 30
0.0
 11
42.7021350338
 21
56.6489630486
 31
0.0
  0
LINE
  5
34B
100
AcDbEntity
  8
0
100
AcDbLine
 62
250
  6
CONTINUOUS
 10
32.0770151115
 20
62.7837741277
 30
0.0
 11
30.3984770411
 21
63.7529409725
 31
0.0
  0
LINE
  5
34C
100
AcDbEntity
  8
0
100
AcDbLine
 62
7
  6
CONTINUOUS
 10
78.3323991714
 20
36.2110253925
 30
0.0
 11
77.9785327521
 21
36.415343428
 31
0.0
  0
LINE
  5
34D
100
AcDbEntity
  8
0
100
AcDbLine
 62
7
  6
CONTINUOUS
 10
74.5632607623
 20
38.3872786715
 30
0.0
 11
73.9480240993
 21
38.74250861
 31
0.0
  0
LINE
  5
34E
100
AcDbEntity
  8
0
100
AcDbLine
 62
7
  6
CONTINUOUS
 10
66.6002843153
 20
42.9850014724
 30
0.0
 11
65.6748747594
 21
43.5193213519
 31
0.0
  0
LINE
  5
34F
100
AcDbEntity
  8
0
100
AcDbLine
 62
7
  6
CONTINUOUS
 10
38.2744869884
 20
59.3399618434
 30
0.0
 11
39.4179898727
 21
58.6797176094
 31
0.0
  0
LINE
  5
350
100
AcDbEntity
  8
0
100
AcDbLine
 62
7
  6
CONTINUOUS
 10
46.512594018
 20
54.5833820922
 30
0.0
 11
46.1587275987
 21
54.7877001278
 31
0.0
  0
LINE
  5
351
100
AcDbEntity
  8
0
100
AcDbLine
 62
7
  6
CONTINUOUS
 10
42.7434556089
 20
56.7596353713
 30
0.0
 11
42.1282189459
 21
57.1148653097
 31
0.0
  0
LINE
  5
352
100
AcDbEntity
  8
0
100
AcDbLine
 62
7
  6
CONTINUOUS
 10
34.7804791619
 20
61.3573581722
 30
0.0
 11
33.855069606
 21
61.8916780517
 31
0.0
  0
LINE
  5
353
100
AcDbEntity
  8
0
100
AcDbLine
 62
7
  6
CONTINUOUS
 10
70.0942921418
 20
40.9676051436
 30
0.0
 11
71.2377950261
 21
40.3073609097
 31
0.0
  0
LINE
  5
354
100
AcDbEntity
  8
0
100
AcDbLine
 62
7
  6
CONTINUOUS
 10
34.7804791619
 20
61.4317617074
 30
0.0
 11
35.4460598637
 21
61.0474637519
 31
0.0
  0
LINE
  5
355
100
AcDbEntity
  8
0
100
AcDbLine
 62
7
  6
CONTINUOUS
 10
40.395807332
 20
58.1895415986
 30
0.0
 11
41.0613880338
 21
57.8052436431
 31
0.0
  0
LINE
  5
356
100
AcDbEntity
  8
0
100
AcDbLine
 62
7
  6
CONTINUOUS
 10
66.6002843153
 20
43.0594050076
 30
0.0
 11
67.2658650171
 21
42.6751070521
 31
0.0
  0
LINE
  5
357
100
AcDbEntity
  8
0
100
AcDbLine
 62
7
  6
CONTINUOUS
 10
72.2156124854
 20
39.8171848988
 30
0.0
 11
72.8811931872
 21
39.4328869433
 31
0.0
  0
LINE
  5
358
100
AcDbEntity
  8
0
100
AcDbLine
 62
250
  6
CONTINUOUS
 10
72.7829449743
 20
40.1485667
 30
0.0
 11
71.2963736699
 21
41.0068943401
 31
0.0
  0
LINE
  5
359
100
AcDbEntity
  8
0
100
AcDbLine
 62
250
  6
CONTINUOUS
 10
69.599317395
 20
41.9867533641
 30
0.0
 11
67.9729717983
 21
42.9257849287
 31
0.0
  0
LINE
  5
35A
100
AcDbEntity
  8
0
100
AcDbLine
 62
250
  6
CONTINUOUS
 10
40.9631398209
 20
58.5209233998
 30
0.0
 11
39.4765685165
 21
59.3792510399
 31
0.0
  0
LINE
  5
35B
100
AcDbEntity
  8
0
100
AcDbLine
 62
250
  6
CONTINUOUS
 10
37.7795122416
 20
60.3591100638
 30
0.0
 11
36.1531666449
 21
61.2981416285
 31
0.0
  0
LINE
  5
35C
100
AcDbEntity
  8
0
100
AcDbLine
 62
7
  6
CONTINUOUS
 10
79.0333351252
 20
36.6181128591
 30
0.0
 11
78.0130945046
 21
37.2071870068
 31
0.0
  0
LINE
  5
35D
100
AcDbEntity
  8
0
100
AcDbLine
 62
7
  6
CONTINUOUS
 10
66.3778677137
 20
43.9252211322
 30
0.0
 11
65.709436512
 21
44.3111649307
 31
0.0
  0
LINE
  5
35E
100
AcDbEntity
  8
0
100
AcDbLine
 62
7
  6
CONTINUOUS
 10
47.2135299718
 20
54.9904695588
 30
0.0
 11
46.1932893512
 21
55.5795437065
 31
0.0
  0
LINE
  5
35F
100
AcDbEntity
  8
0
100
AcDbLine
 62
7
  6
CONTINUOUS
 10
34.5580625603
 20
62.297577832
 30
0.0
 11
33.8896313586
 21
62.6835216304
 31
0.0
  0
LINE
  5
360
100
AcDbEntity
  8
0
100
AcDbLine
 62
7
  6
CONTINUOUS
 10
71.2400981127
 20
41.1183052556
 30
0.0
 11
70.801398923
 21
41.3716046695
 31
0.0
  0
LINE
  5
361
100
AcDbEntity
  8
0
100
AcDbLine
 62
7
  6
CONTINUOUS
 10
39.4202929593
 20
59.4906619553
 30
0.0
 11
38.9815937696
 21
59.7439613692
 31
0.0
  0
LINE
  5
362
100
AcDbEntity
  8
0
100
AcDbLine
 62
250
  6
CONTINUOUS
 10
31.9529742648
 20
62.0432673388
 30
0.0
 11
31.9530375108
 21
62.0432307843
 31
0.0
  0
LINE
  5
363
100
AcDbEntity
  8
0
100
AcDbLine
 62
250
  6
CONTINUOUS
 10
63.7727794182
 20
43.670910639
 30
0.0
 11
63.7728426642
 21
43.6708740846
 31
0.0
  0
LINE
  5
364
100
AcDbEntity
  8
DRAFT
100
AcDbLine
 62
7
  6
CONTINUOUS
 10
77.6058483396
 20
3.563362162
 30
0.0
 11
76.455881752
 21
16.4755743018
 31
0.0
  0
LINE
  5
365
100
AcDbEntity
  8
0
100
AcDbLine
 62
7
  6
CONTINUOUS
 10
77.6058483396
 20
3.563362162
 30
0.0
 11
76.455881752
 21
16.4755743018
 31
0.0
  0
LINE
  5
366
100
AcDbEntity
  8
0
100
AcDbLine
 62
7
  6
CONTINUOUS
 10
73.9480240993
 20
38.74250861
 30
0.0
 11
73.9480240993
 21
40.0488610528
 31
0.0
  0
LINE
  5
367
100
AcDbEntity
  8
0
100
AcDbLine
 62
7
  6
CONTINUOUS
 10
74.2729686265
 20
38.0730860419
 30
0.0
 11
74.2729686265
 21
37.7525658691
 31
0.0
  0
LINE
  5
368
100
AcDbEntity
  8
0
100
AcDbLine
 62
250
  6
CONTINUOUS
 10
74.3461919312
 20
37.9710173936
 30
0.0
 11
74.3461919312
 21
37.6504972208
 31
0.0
  0
LINE
  5
369
100
AcDbEntity
  8
0
100
AcDbLine
 62
7
  6
CONTINUOUS
 10
74.9759615807
 20
37.2023336302
 30
0.0
 11
74.9759615807
 21
36.9229061309
 31
0.0
  0
LINE
  5
36A
100
AcDbEntity
  8
0
100
AcDbLine
 62
250
  6
CONTINUOUS
 10
75.0491848855
 20
37.1600554118
 30
0.0
 11
75.0491848855
 21
36.8177043018
 31
0.0
  0
LINE
  5
36B
100
AcDbEntity
  8
0
100
AcDbLine
 62
250
  6
CONTINUOUS
 10
76.0247300016
 20
-2.5755755839
 30
0.0
 11
76.0247300016
 21
-2.2550554111
 31
0.0
  0
LINE
  5
36C
100
AcDbEntity
  8
0
100
AcDbLine
 62
250
  6
CONTINUOUS
 10
76.0247300016
 20
36.681330376
 30
0.0
 11
76.0247300016
 21
37.0018505488
 31
0.0
  0
LINE
  5
36D
100
AcDbEntity
  8
RACCORDO
100
AcDbLine
 62
7
  6
CONTINUOUS
 10
76.0339891038
 20
-1.3261704992
 30
0.0
 11
76.0339891038
 21
33.9453450743
 31
0.0
  0
LINE
  5
36E
100
AcDbEntity
  8
0
100
AcDbLine
 62
250
  6
CONTINUOUS
 10
76.3772519612
 20
-2.5761676646
 30
0.0
 11
76.3772519612
 21
-2.2556474917
 31
0.0
  0
LINE
  5
36F
100
AcDbEntity
  8
0
100
AcDbLine
 62
250
  6
CONTINUOUS
 10
76.3772519612
 20
36.6807382953
 30
0.0
 11
76.3772519612
 21
37.0012584681
 31
0.0
  0
LINE
  5
370
100
AcDbEntity
  8
0
100
AcDbLine
 62
250
  6
CONTINUOUS
 10
73.0633178714
 20
40.3123339396
 30
0.0
 11
71.4369722746
 21
41.2513655043
 31
0.0
  0
LINE
  5
371
100
AcDbEntity
  8
0
100
AcDbLine
 62
250
  6
CONTINUOUS
 10
69.7399159998
 20
42.2312245283
 30
0.0
 11
68.1135704031
 21
43.1702560929
 31
0.0
  0
LINE
  5
372
100
AcDbEntity
  8
0
100
AcDbLine
 62
250
  6
CONTINUOUS
 10
41.243512718
 20
58.6846906394
 30
0.0
 11
39.6171671212
 21
59.6237222041
 31
0.0
  0
LINE
  5
373
100
AcDbEntity
  8
0
100
AcDbLine
 62
250
  6
CONTINUOUS
 10
37.9201108464
 20
60.603581228
 30
0.0
 11
36.2937652497
 21
61.5426127927
 31
0.0
  0
LINE
  5
374
100
AcDbEntity
  8
0
100
AcDbLine
 62
7
  6
CONTINUOUS
 10
35.8349685934
 20
62.0548616332
 30
0.0
 11
38.1330656322
 21
60.7279692049
 31
0.0
  0
LINE
  5
375
100
AcDbEntity
  8
0
100
AcDbLine
 62
7
  6
CONTINUOUS
 10
39.8301219071
 20
59.7481101809
 30
0.0
 11
42.1282189459
 21
58.4212177526
 31
0.0
  0
LINE
  5
376
100
AcDbEntity
  8
0
100
AcDbLine
 62
7
  6
CONTINUOUS
 10
67.6547737467
 20
43.6825049335
 30
0.0
 11
69.9528707856
 21
42.3556125051
 31
0.0
  0
LINE
  5
377
100
AcDbEntity
  8
0
100
AcDbLine
 62
7
  6
CONTINUOUS
 10
71.6499270605
 20
41.3757534812
 30
0.0
 11
73.9480240993
 21
40.0488610528
 31
0.0
  0
LINE
  5
378
100
AcDbEntity
  8
0
100
AcDbLine
 62
7
  6
CONTINUOUS
 10
77.8017590484
 20
38.2319979303
 30
0.0
 11
76.1046967903
 21
39.2118604089
 31
0.0
  0
LINE
  5
379
100
AcDbEntity
  8
0
100
AcDbLine
 62
7
  6
CONTINUOUS
 10
65.4981010557
 20
45.3359758542
 30
0.0
 11
63.8010387977
 21
46.3158383328
 31
0.0
  0
LINE
  5
37A
100
AcDbEntity
  8
0
100
AcDbLine
 62
7
  6
CONTINUOUS
 10
45.981953895
 20
56.60435463
 30
0.0
 11
44.2848916369
 21
57.5842171087
 31
0.0
  0
LINE
  5
37B
100
AcDbEntity
  8
0
100
AcDbLine
 62
7
  6
CONTINUOUS
 10
33.6782959024
 20
63.7083325539
 30
0.0
 11
31.9812336443
 21
64.6881950326
 31
0.0
  0
LINE
  5
37C
100
AcDbEntity
  8
0
100
AcDbLine
 62
7
  6
CONTINUOUS
 10
73.9833794384
 20
40.8402464247
 30
0.0
 11
72.3570338416
 21
41.7792779894
 31
0.0
  0
LINE
  5
37D
100
AcDbEntity
  8
0
100
AcDbLine
 62
7
  6
CONTINUOUS
 10
70.6599775668
 20
42.7591370134
 30
0.0
 11
69.0336319701
 21
43.698168578
 31
0.0
  0
LINE
  5
37E
100
AcDbEntity
  8
0
100
AcDbLine
 62
7
  6
CONTINUOUS
 10
42.163574285
 20
59.2126031245
 30
0.0
 11
40.5372286882
 21
60.1516346891
 31
0.0
  0
LINE
  5
37F
100
AcDbEntity
  8
0
100
AcDbLine
 62
7
  6
CONTINUOUS
 10
38.8401724134
 20
61.1314937131
 30
0.0
 11
37.2138268167
 21
62.0705252778
 31
0.0
  0
LINE
  5
380
100
AcDbEntity
  8
0
100
AcDbLine
 62
250
  6
CONTINUOUS
 10
32.5156835229
 20
64.9896404043
 30
0.0
 11
34.2065630741
 21
64.0133477431
 31
0.0
  0
LINE
  5
381
100
AcDbEntity
  8
0
100
AcDbLine
 62
250
  6
CONTINUOUS
 10
44.8193415156
 20
57.8856624804
 30
0.0
 11
46.5102210667
 21
56.9093698192
 31
0.0
  0
LINE
  5
382
100
AcDbEntity
  8
0
100
AcDbLine
 62
250
  6
CONTINUOUS
 10
64.3354886763
 20
46.6172837045
 30
0.0
 11
66.0263682275
 21
45.6409910434
 31
0.0
  0
LINE
  5
383
100
AcDbEntity
  8
0
100
AcDbLine
 62
250
  6
CONTINUOUS
 10
76.639146669
 20
39.5133057806
 30
0.0
 11
78.3300262201
 21
38.5370131195
 31
0.0
  0
LINE
  5
384
100
AcDbEntity
  8
0
100
AcDbLine
 62
7
  6
CONTINUOUS
 10
32.6396611237
 20
65.001435345
 30
0.0
 11
34.3305406748
 21
64.0251426839
 31
0.0
  0
LINE
  5
385
100
AcDbEntity
  8
0
100
AcDbLine
 62
7
  6
CONTINUOUS
 10
44.9433191163
 20
57.8974574211
 30
0.0
 11
46.6341986675
 21
56.92116476
 31
0.0
  0
LINE
  5
386
100
AcDbEntity
  8
0
100
AcDbLine
 62
7
  6
CONTINUOUS
 10
64.4594662771
 20
46.6290786453
 30
0.0
 11
66.1503458282
 21
45.6527859841
 31
0.0
  0
LINE
  5
387
100
AcDbEntity
  8
0
100
AcDbLine
 62
7
  6
CONTINUOUS
 10
76.7631242697
 20
39.5251007214
 30
0.0
 11
78.4540038208
 21
38.5488080602
 31
0.0
  0
LINE
  5
388
100
AcDbEntity
  8
0
100
AcDbLine
 62
250
  6
CONTINUOUS
 10
76.7359506097
 20
-1.2599194222
 30
0.0
 11
76.7359506097
 21
-0.6057133054
 31
0.0
  0
LINE
  5
389
100
AcDbEntity
  8
0
100
AcDbLine
 62
250
  6
CONTINUOUS
 10
76.7359506097
 20
35.8437869127
 30
0.0
 11
76.7359506097
 21
36.483129183
 31
0.0
  0
LINE
  5
38A
100
AcDbEntity
  8
0
100
AcDbLine
 62
250
  6
CONTINUOUS
 10
77.0884725693
 20
-1.3783588364
 30
0.0
 11
77.0884725693
 21
-0.8092550668
 31
0.0
  0
LINE
  5
38B
100
AcDbEntity
  8
0
100
AcDbLine
 62
250
  6
CONTINUOUS
 10
77.0884725693
 20
35.8538299463
 30
0.0
 11
77.0884725693
 21
36.6152482824
 31
0.0
  0
LINE
  5
38C
100
AcDbEntity
  8
0
100
AcDbLine
 62
7
  6
CONTINUOUS
 10
77.1653599537
 20
45.8147144197
 30
0.0
 11
77.1653599537
 21
45.3770970073
 31
0.0
  0
LINE
  5
38D
100
AcDbEntity
  8
DRAFT
100
AcDbLine
 62
7
  6
CONTINUOUS
 10
77.6058483396
 20
34.9330968766
 30
0.0
 11
77.6058483396
 21
30.6701753516
 31
0.0
  0
LINE
  5
38E
100
AcDbEntity
  8
0
100
AcDbLine
 62
7
  6
CONTINUOUS
 10
77.6058483396
 20
34.9330968766
 30
0.0
 11
77.6058483396
 21
30.6701753516
 31
0.0
  0
LINE
  5
38F
100
AcDbEntity
  8
DRAFT
100
AcDbLine
 62
7
  6
CONTINUOUS
 10
77.6058483396
 20
3.563362162
 30
0.0
 11
77.6058483396
 21
-0.699559363
 31
0.0
  0
LINE
  5
390
100
AcDbEntity
  8
0
100
AcDbLine
 62
7
  6
CONTINUOUS
 10
77.6058483396
 20
3.563362162
 30
0.0
 11
77.6058483396
 21
-0.699559363
 31
0.0
  0
LINE
  5
391
100
AcDbEntity
  8
0
100
AcDbLine
 62
250
  6
CONTINUOUS
 10
77.8452709296
 20
42.2977173784
 30
0.0
 11
77.8452709296
 21
41.7524453558
 31
0.0
  0
LINE
  5
392
100
AcDbEntity
  8
0
100
AcDbLine
 62
250
  6
CONTINUOUS
 10
77.8452709296
 20
41.4388753809
 30
0.0
 11
77.8452709296
 21
40.9927326309
 31
0.0
  0
LINE
  5
393
100
AcDbEntity
  8
0
100
AcDbLine
 62
7
  6
CONTINUOUS
 10
77.9777908075
 20
42.3557907443
 30
0.0
 11
77.9777908075
 21
41.177458925
 31
0.0
  0
LINE
  5
394
100
AcDbEntity
  8
0
100
AcDbLine
 62
7
  6
CONTINUOUS
 10
77.9785327521
 20
-1.6729984387
 30
0.0
 11
77.9785327521
 21
-0.6918437902
 31
0.0
  0
LINE
  5
395
100
AcDbEntity
  8
0
100
AcDbLine
 62
7
  6
CONTINUOUS
 10
77.9785327521
 20
36.415343428
 30
0.0
 11
77.9785327521
 21
37.9258168944
 31
0.0
  0
LINE
  5
396
100
AcDbEntity
  8
0
100
AcDbLine
 62
250
  6
CONTINUOUS
 10
78.5067999238
 20
38.2308320836
 30
0.0
 11
78.5067999238
 21
37.9031867831
 31
0.0
  0
LINE
  5
397
100
AcDbEntity
  8
0
100
AcDbLine
 62
250
  6
CONTINUOUS
 10
78.5067999238
 20
-1.0331990039
 30
0.0
 11
78.5067999238
 21
-1.3608443045
 31
0.0
  0
LINE
  5
398
100
AcDbEntity
  8
0
100
AcDbLine
 62
7
  6
CONTINUOUS
 10
78.5789977808
 20
38.3323051966
 30
0.0
 11
78.5789977808
 21
38.0046598961
 31
0.0
  0
LINE
  5
399
100
AcDbEntity
  8
0
100
AcDbLine
 62
7
  6
CONTINUOUS
 10
78.5789977808
 20
-0.9317258909
 30
0.0
 11
78.5789977808
 21
-1.2593711914
 31
0.0
  0
LINE
  5
39A
100
AcDbEntity
  8
0
100
AcDbLine
 62
7
  6
CONTINUOUS
 10
78.6850224035
 20
35.5990031684
 30
0.0
 11
78.6850224035
 21
-0.1620212534
 31
0.0
  0
LINE
  5
39B
100
AcDbEntity
  8
0
100
AcDbLine
 62
7
  6
CONTINUOUS
 10
78.6859480746
 20
35.5986693655
 30
0.0
 11
78.6859480746
 21
-0.1627563923
 31
0.0
  0
LINE
  5
39C
100
AcDbEntity
  8
0
100
AcDbLine
 62
7
  6
CONTINUOUS
 10
79.3868840284
 20
36.0057568321
 30
0.0
 11
79.3868840284
 21
33.2412631257
 31
0.0
  0
LINE
  5
39D
100
AcDbEntity
  8
0
100
AcDbLine
 62
7
  6
CONTINUOUS
 10
79.3868840284
 20
3.0183249509
 30
0.0
 11
79.3868840284
 21
0.2538312445
 31
0.0
  0
LINE
  5
39E
100
AcDbEntity
  8
DRAFT
100
AcDbLine
 62
7
  6
CONTINUOUS
 10
76.455881752
 20
16.4755743018
 30
0.0
 11
77.6058483396
 21
30.6701753516
 31
0.0
  0
LINE
  5
39F
100
AcDbEntity
  8
0
100
AcDbLine
 62
7
  6
CONTINUOUS
 10
76.455881752
 20
16.4755743018
 30
0.0
 11
77.6058483396
 21
30.6701753516
 31
0.0
  0
LINE
  5
3A0
100
AcDbEntity
  8
0
100
AcDbLine
 62
7
  6
CONTINUOUS
 10
44.358778233
 20
54.9068088987
 30
0.0
 11
44.9865371844
 21
54.8490041313
 31
0.0
  0
LINE
  5
3A1
100
AcDbEntity
  8
0
100
AcDbLine
 62
250
  6
CONTINUOUS
 10
44.5574468078
 20
55.053094995
 30
0.0
 11
45.2686674159
 21
54.9876049822
 31
0.0
  0
LINE
  5
3A2
100
AcDbEntity
  8
0
100
AcDbLine
 62
250
  6
CONTINUOUS
 10
77.8165302599
 20
42.2824905525
 30
0.0
 11
77.1674168324
 21
42.6572805103
 31
0.0
  0
LINE
  5
3A3
100
AcDbEntity
  8
0
100
AcDbLine
 62
250
  6
CONTINUOUS
 10
72.217669364
 20
45.5152026636
 30
0.0
 11
71.5685559365
 21
45.8899926213
 31
0.0
  0
LINE
  5
3A4
100
AcDbEntity
  8
0
100
AcDbLine
 62
250
  6
CONTINUOUS
 10
45.9967251065
 20
60.6548472522
 30
0.0
 11
45.347611679
 21
61.02963721
 31
0.0
  0
LINE
  5
3A5
100
AcDbEntity
  8
0
100
AcDbLine
 62
250
  6
CONTINUOUS
 10
40.3978642107
 20
63.8875593633
 30
0.0
 11
39.7487507831
 21
64.2623493211
 31
0.0
  0
LINE
  5
3A6
100
AcDbEntity
  8
0
100
AcDbLine
 62
7
  6
CONTINUOUS
 10
77.9774866352
 20
42.3563124658
 30
0.0
 11
77.5022081642
 21
42.6307322984
 31
0.0
  0
LINE
  5
3A7
100
AcDbEntity
  8
0
100
AcDbLine
 62
7
  6
CONTINUOUS
 10
72.3787884351
 20
45.5889306385
 30
0.0
 11
71.903509964
 21
45.863350471
 31
0.0
  0
LINE
  5
3A8
100
AcDbEntity
  8
0
100
AcDbLine
 62
7
  6
CONTINUOUS
 10
46.1576814818
 20
60.7286691656
 30
0.0
 11
45.6824030108
 21
61.0030889981
 31
0.0
  0
LINE
  5
3A9
100
AcDbEntity
  8
0
100
AcDbLine
 62
7
  6
CONTINUOUS
 10
40.5589832817
 20
63.9612873382
 30
0.0
 11
40.0837048106
 21
64.2357071707
 31
0.0
  0
LINE
  5
3AA
100
AcDbEntity
  8
0
100
AcDbLine
 62
7
  6
CONTINUOUS
 10
43.5970708773
 20
63.4747242527
 30
0.0
 11
47.3813077469
 21
61.2897533118
 31
0.0
  0
LINE
  5
3AB
100
AcDbEntity
  8
0
100
AcDbLine
 62
7
  6
CONTINUOUS
 10
75.4168760307
 20
45.102367553
 30
0.0
 11
79.2011129002
 21
42.9173966121
 31
0.0
  0
LINE
  5
3AC
100
AcDbEntity
  8
0
100
AcDbLine
 62
7
  6
CONTINUOUS
 10
80.3197697466
 20
43.555780327
 30
0.0
 11
77.1653599537
 21
45.3770970073
 31
0.0
  0
LINE
  5
3AD
100
AcDbEntity
  8
0
100
AcDbLine
 62
7
  6
CONTINUOUS
 10
48.4999645932
 20
61.9281370267
 30
0.0
 11
45.3455548003
 21
63.7494537071
 31
0.0
  0
LINE
  5
3AE
100
AcDbEntity
  8
0
100
AcDbLine
 62
7
  6
CONTINUOUS
 10
78.0369008354
 20
37.2125220664
 30
0.0
 11
78.0534255972
 21
37.1839003394
 31
0.0
  0
LINE
  5
3AF
100
AcDbEntity
  8
0
100
AcDbLine
 62
7
  6
CONTINUOUS
 10
79.3868840284
 20
34.8742825892
 30
0.0
 11
80.0878199822
 21
33.6602259056
 31
0.0
  0
LWPOLYLINE
  5
3B0
100
AcDbEntity
  8
RACCORDO
100
AcDbPolyline
 62
7
  6
CONTINUOUS
 90
42
 70
0
 10
82.4646283684
 20
9.7603864724
 10
82.4645692085
 20
9.7679287799
 10
82.463711775
 20
9.7902428639
 10
82.4618702931
 20
9.812504789
 10
82.4590860637
 20
9.8346919909
 10
82.4553957141
 20
9.8567889545
 10
82.4508324657
 20
9.878769953
 10
82.4454253954
 20
9.9006151183
 10
82.4391988478
 20
9.9223053819
 10
82.4321806467
 20
9.9438000641
 10
82.4243925597
 20
9.9650758613
 10
82.4158516507
 20
9.9861109079
 10
82.406585767
 20
10.0068556792
 10
82.3966107903
 20
10.0272852229
 10
82.3859411953
 20
10.047371761
 10
82.3746067601
 20
10.0670593305
 10
82.362619969
 20
10.0863199493
 10
82.3499941768
 20
10.1051231188
 10
82.336755896
 20
10.123415372
 10
82.3229121907
 20
10.1411702166
 10
82.3084762762
 20
10.1583507138
 10
82.293476841
 20
10.1748982352
 10
82.2778950216
 20
10.1908076598
 10
82.2617613079
 20
10.2060145104
 10
82.2451817622
 20
10.2203962111
 10
82.228152718
 20
10.2339401148
 10
82.2106964651
 20
10.246604929
 10
82.1929715829
 20
10.2582684901
 10
82.175010627
 20
10.2689128647
 10
82.1568165334
 20
10.2785359092
 10
82.1385202525
 20
10.2870775161
 10
82.1201585575
 20
10.2945358595
 10
82.1017480126
 20
10.3009185624
 10
82.0834094225
 20
10.3062062148
 10
82.0652132967
 20
10.3104089062
 10
82.0471628092
 20
10.3135559391
 10
82.0292957144
 20
10.3156702548
 10
82.0116991564
 20
10.3167741841
 10
81.9943682362
 20
10.3169001461
 10
81.9772152771
 20
10.3160683622
 10
81.9602878408
 20
10.3142921463
 10
81.9544300269
 20
10.3134510858
  0
LWPOLYLINE
  5
3B1
100
AcDbEntity
  8
0
100
AcDbPolyline
 62
7
  6
CONTINUOUS
 90
42
 70
0
 10
82.4646283684
 20
9.7603864724
 10
82.4645692085
 20
9.7679287799
 10
82.463711775
 20
9.7902428639
 10
82.4618702931
 20
9.812504789
 10
82.4590860637
 20
9.8346919909
 10
82.4553957141
 20
9.8567889545
 10
82.4508324657
 20
9.878769953
 10
82.4454253954
 20
9.9006151183
 10
82.4391988478
 20
9.9223053819
 10
82.4321806467
 20
9.9438000641
 10
82.4243925597
 20
9.9650758613
 10
82.4158516507
 20
9.9861109079
 10
82.406585767
 20
10.0068556792
 10
82.3966107903
 20
10.0272852229
 10
82.3859411953
 20
10.047371761
 10
82.3746067601
 20
10.0670593305
 10
82.362619969
 20
10.0863199493
 10
82.3499941768
 20
10.1051231188
 10
82.336755896
 20
10.123415372
 10
82.3229121907
 20
10.1411702166
 10
82.3084762762
 20
10.1583507138
 10
82.293476841
 20
10.1748982352
 10
82.2778950216
 20
10.1908076598
 10
82.2617613079
 20
10.2060145104
 10
82.2451817622
 20
10.2203962111
 10
82.228152718
 20
10.2339401148
 10
82.2106964651
 20
10.246604929
 10
82.1929715829
 20
10.2582684901
 10
82.175010627
 20
10.2689128647
 10
82.1568165334
 20
10.2785359092
 10
82.1385202525
 20
10.2870775161
 10
82.1201585575
 20
10.2945358595
 10
82.1017480126
 20
10.3009185624
 10
82.0834094225
 20
10.3062062148
 10
82.0652132967
 20
10.3104089062
 10
82.0471628092
 20
10.3135559391
 10
82.0292957144
 20
10.3156702548
 10
82.0116991564
 20
10.3167741841
 10
81.9943682362
 20
10.3169001461
 10
81.9772152771
 20
10.3160683622
 10
81.9602878408
 20
10.3142921463
 10
81.9544300269
 20
10.3134510858
  0
LINE
  5
3B2
100
AcDbEntity
  8
0
100
AcDbLine
 62
7
  6
CONTINUOUS
 10
80.0878199822
 20
33.6602259056
 30
0.0
 11
80.0878199822
 21
3.4230372745
 31
0.0
  0
LINE
  5
3B3
100
AcDbEntity
  8
RACCORDO
100
AcDbLine
 62
250
  6
CONTINUOUS
 10
82.4084965285
 20
8.8003451276
 30
0.0
 11
82.4084965285
 21
9.6801988013
 31
0.0
  0
LINE
  5
3B4
100
AcDbEntity
  8
0
100
AcDbLine
 62
250
  6
CONTINUOUS
 10
82.4084965285
 20
8.8003451276
 30
0.0
 11
82.4084965285
 21
9.6801988013
 31
0.0
  0
LINE
  5
3B5
100
AcDbEntity
  8
RACCORDO
100
AcDbLine
 62
7
  6
CONTINUOUS
 10
82.4646285685
 20
8.8327596839
 30
0.0
 11
82.4646285685
 21
9.7604162104
 31
0.0
  0
LINE
  5
3B6
100
AcDbEntity
  8
0
100
AcDbLine
 62
7
  6
CONTINUOUS
 10
82.4646285685
 20
8.8327596839
 30
0.0
 11
82.4646285685
 21
9.7604162104
 31
0.0
  0
LINE
  5
3B7
100
AcDbEntity
  8
0
100
AcDbLine
 62
250
  6
CONTINUOUS
 10
82.4646285618
 20
9.7603864724
 30
0.0
 11
82.4646285685
 21
9.7604162104
 31
0.0
  0
LINE
  5
3B8
100
AcDbEntity
  8
0
100
AcDbLine
 62
250
  6
CONTINUOUS
 10
41.5920819272
 20
66.358937051
 30
0.0
 11
44.6425617764
 21
64.5976282175
 31
0.0
  0
LINE
  5
3B9
100
AcDbEntity
  8
0
100
AcDbLine
 62
250
  6
CONTINUOUS
 10
48.8852024635
 20
62.1479806576
 30
0.0
 11
51.9356823127
 21
60.3866718241
 31
0.0
  0
LINE
  5
3BA
100
AcDbEntity
  8
0
100
AcDbLine
 62
250
  6
CONTINUOUS
 10
73.4118870806
 20
47.9865803512
 30
0.0
 11
76.4623669298
 21
46.2252715178
 31
0.0
  0
LINE
  5
3BB
100
AcDbEntity
  8
0
100
AcDbLine
 62
250
  6
CONTINUOUS
 10
80.7050076169
 20
43.7756239578
 30
0.0
 11
83.7554874661
 21
42.0143151244
 31
0.0
  0
LINE
  5
3BC
100
AcDbEntity
  8
0
100
AcDbLine
 62
7
  6
CONTINUOUS
 10
41.880873354
 20
66.5257047149
 30
0.0
 11
45.1384721793
 21
64.6448079805
 31
0.0
  0
LINE
  5
3BD
100
AcDbEntity
  8
0
100
AcDbLine
 62
7
  6
CONTINUOUS
 10
49.3811128664
 20
62.1951604206
 30
0.0
 11
52.6387116916
 21
60.3142636862
 31
0.0
  0
LINE
  5
3BE
100
AcDbEntity
  8
0
100
AcDbLine
 62
7
  6
CONTINUOUS
 10
73.7006785074
 20
48.1533480152
 30
0.0
 11
76.9582773327
 21
46.2724512808
 31
0.0
  0
LINE
  5
3BF
100
AcDbEntity
  8
0
100
AcDbLine
 62
7
  6
CONTINUOUS
 10
81.2009180198
 20
43.8228037208
 30
0.0
 11
84.458516845
 21
41.9419069864
 31
0.0
  0
LINE
  5
3C0
100
AcDbEntity
  8
RACCORDO
100
AcDbLine
 62
250
  6
CONTINUOUS
 10
84.2417168563
 20
40.4999086906
 30
0.0
 11
84.2417168563
 21
40.3082601065
 31
0.0
  0
LINE
  5
3C1
100
AcDbEntity
  8
0
100
AcDbLine
 62
250
  6
CONTINUOUS
 10
84.2417168563
 20
40.4999086906
 30
0.0
 11
84.2417168563
 21
40.3082601065
 31
0.0
  0
LINE
  5
3C2
100
AcDbEntity
  8
RACCORDO
100
AcDbLine
 62
250
  6
CONTINUOUS
 10
84.2417168563
 20
7.9854014011
 30
0.0
 11
84.2417168563
 21
7.0826019688
 31
0.0
  0
LINE
  5
3C3
100
AcDbEntity
  8
0
100
AcDbLine
 62
250
  6
CONTINUOUS
 10
84.2417168563
 20
7.9854014011
 30
0.0
 11
84.2417168563
 21
7.0826019688
 31
0.0
  0
LINE
  5
3C4
100
AcDbEntity
  8
RACCORDO
100
AcDbLine
 62
7
  6
CONTINUOUS
 10
84.2990667665
 20
40.5341983295
 30
0.0
 11
84.2990667665
 21
40.4370208552
 31
0.0
  0
LINE
  5
3C5
100
AcDbEntity
  8
0
100
AcDbLine
 62
7
  6
CONTINUOUS
 10
84.2990667665
 20
40.5341983295
 30
0.0
 11
84.2990667665
 21
40.4370208552
 31
0.0
  0
LINE
  5
3C6
100
AcDbEntity
  8
RACCORDO
100
AcDbLine
 62
7
  6
CONTINUOUS
 10
84.2990667665
 20
8.0185191423
 30
0.0
 11
84.2990667665
 21
7.1635412138
 31
0.0
  0
LINE
  5
3C7
100
AcDbEntity
  8
0
100
AcDbLine
 62
7
  6
CONTINUOUS
 10
84.2990667665
 20
8.0185191423
 30
0.0
 11
84.2990667665
 21
7.1635412138
 31
0.0
  0
LINE
  5
3C8
100
AcDbEntity
  8
0
100
AcDbLine
 62
250
  6
CONTINUOUS
 10
84.6432232598
 20
41.2979709506
 30
0.0
 11
84.6432232598
 21
40.7399702625
 31
0.0
  0
LINE
  5
3C9
100
AcDbEntity
  8
0
100
AcDbLine
 62
250
  6
CONTINUOUS
 10
84.6432232598
 20
6.6115126926
 30
0.0
 11
84.6432232598
 21
6.0535120046
 31
0.0
  0
LINE
  5
3CA
100
AcDbEntity
  8
0
100
AcDbLine
 62
7
  6
CONTINUOUS
 10
84.7835533596
 20
41.6180215966
 30
0.0
 11
84.7835533596
 21
40.940513781
 31
0.0
  0
LINE
  5
3CB
100
AcDbEntity
  8
0
100
AcDbLine
 62
7
  6
CONTINUOUS
 10
84.7835533596
 20
6.8120562111
 30
0.0
 11
84.7835533596
 21
6.1345483955
 31
0.0
  0
LWPOLYLINE
  5
3CC
100
AcDbEntity
  8
RACCORDO
100
AcDbPolyline
 62
7
  6
CONTINUOUS
 90
3
 70
0
 10
82.4640155623
 20
8.832404903
 10
82.4644829324
 20
8.8326814697
 10
82.4646285685
 20
8.8327568127
  0
LWPOLYLINE
  5
3CD
100
AcDbEntity
  8
0
100
AcDbPolyline
 62
7
  6
CONTINUOUS
 90
3
 70
0
 10
82.4640155623
 20
8.832404903
 10
82.4644829324
 20
8.8326814697
 10
82.4646285685
 20
8.8327568127
  0
LINE
  5
3CE
100
AcDbEntity
  8
RACCORDO
100
AcDbLine
 62
7
  6
CONTINUOUS
 10
82.407284044
 20
8.7996388331
 30
0.0
 11
80.0878199822
 21
7.4366136208
 31
0.0
  0
LINE
  5
3CF
100
AcDbEntity
  8
0
100
AcDbLine
 62
7
  6
CONTINUOUS
 10
82.407284044
 20
8.7996388331
 30
0.0
 11
80.0878199822
 21
7.4366136208
 31
0.0
  0
LINE
  5
3D0
100
AcDbEntity
  8
RACCORDO
100
AcDbLine
 62
7
  6
CONTINUOUS
 10
82.4084965285
 20
8.8003451276
 30
0.0
 11
82.4646286714
 21
8.8327597435
 31
0.0
  0
LINE
  5
3D1
100
AcDbEntity
  8
0
100
AcDbLine
 62
7
  6
CONTINUOUS
 10
82.4084965285
 20
8.8003451276
 30
0.0
 11
82.4646286714
 21
8.8327597435
 31
0.0
  0
LINE
  5
3D2
100
AcDbEntity
  8
RACCORDO
100
AcDbLine
 62
7
  6
CONTINUOUS
 10
84.2417168563
 20
7.9854014011
 30
0.0
 11
80.0878199822
 21
5.5869893256
 31
0.0
  0
LINE
  5
3D3
100
AcDbEntity
  8
0
100
AcDbLine
 62
7
  6
CONTINUOUS
 10
84.2417168563
 20
7.9854014011
 30
0.0
 11
80.0878199822
 21
5.5869893256
 31
0.0
  0
LINE
  5
3D4
100
AcDbEntity
  8
RACCORDO
100
AcDbLine
 62
7
  6
CONTINUOUS
 10
84.2990668597
 20
8.0185191961
 30
0.0
 11
84.2417168563
 21
7.9854014011
 31
0.0
  0
LINE
  5
3D5
100
AcDbEntity
  8
0
100
AcDbLine
 62
7
  6
CONTINUOUS
 10
84.2990668597
 20
8.0185191961
 30
0.0
 11
84.2417168563
 21
7.9854014011
 31
0.0
  0
LINE
  5
3D6
100
AcDbEntity
  8
RACCORDO
100
AcDbLine
 62
7
  6
CONTINUOUS
 10
82.4563874455
 20
8.8280076364
 30
0.0
 11
82.4586658733
 21
8.8293100867
 31
0.0
  0
LINE
  5
3D7
100
AcDbEntity
  8
0
100
AcDbLine
 62
7
  6
CONTINUOUS
 10
82.4563874455
 20
8.8280076364
 30
0.0
 11
82.4586658733
 21
8.8293100867
 31
0.0
  0
LINE
  5
3D8
100
AcDbEntity
  8
RACCORDO
100
AcDbLine
 62
7
  6
CONTINUOUS
 10
82.4084965285
 20
8.8003451276
 30
0.0
 11
82.4155397724
 21
8.80436901
 31
0.0
  0
LINE
  5
3D9
100
AcDbEntity
  8
0
100
AcDbLine
 62
7
  6
CONTINUOUS
 10
82.4084965285
 20
8.8003451276
 30
0.0
 11
82.4155397724
 21
8.80436901
 31
0.0
  0
LINE
  5
3DA
100
AcDbEntity
  8
RACCORDO
100
AcDbLine
 62
7
  6
CONTINUOUS
 10
84.2488732483
 20
7.9894902699
 30
0.0
 11
84.2417168563
 21
7.9854014011
 31
0.0
  0
LINE
  5
3DB
100
AcDbEntity
  8
0
100
AcDbLine
 62
7
  6
CONTINUOUS
 10
84.2488732483
 20
7.9894902699
 30
0.0
 11
84.2417168563
 21
7.9854014011
 31
0.0
  0
LINE
  5
3DC
100
AcDbEntity
  8
RACCORDO
100
AcDbLine
 62
7
  6
CONTINUOUS
 10
84.2975439798
 20
8.0176349131
 30
0.0
 11
84.2963509436
 21
8.0169571548
 31
0.0
  0
LINE
  5
3DD
100
AcDbEntity
  8
0
100
AcDbLine
 62
7
  6
CONTINUOUS
 10
84.2975439798
 20
8.0176349131
 30
0.0
 11
84.2963509436
 21
8.0169571548
 31
0.0
  0
LINE
  5
3DE
100
AcDbEntity
  8
RACCORDO
100
AcDbLine
 62
7
  6
CONTINUOUS
 10
82.4620654132
 20
8.831285749
 30
0.0
 11
82.4632137944
 21
8.8319379267
 31
0.0
  0
LINE
  5
3DF
100
AcDbEntity
  8
0
100
AcDbLine
 62
7
  6
CONTINUOUS
 10
82.4620654132
 20
8.831285749
 30
0.0
 11
82.4632137944
 21
8.8319379267
 31
0.0
  0
LINE
  5
3E0
100
AcDbEntity
  8
RACCORDO
100
AcDbLine
 62
7
  6
CONTINUOUS
 10
83.8093428431
 20
8.2350487375
 30
0.0
 11
80.0878199822
 21
6.1606433669
 31
0.0
  0
LINE
  5
3E1
100
AcDbEntity
  8
0
100
AcDbLine
 62
7
  6
CONTINUOUS
 10
83.8093428431
 20
8.2350487375
 30
0.0
 11
80.0878199822
 21
6.1606433669
 31
0.0
  0
LWPOLYLINE
  5
3E2
100
AcDbEntity
  8
RACCORDO
100
AcDbPolyline
 62
7
  6
CONTINUOUS
 90
3
 70
0
 10
84.2990667665
 20
8.0185154579
 10
84.2988891138
 20
8.0184225149
 10
84.2983859088
 20
8.0181251416
  0
LWPOLYLINE
  5
3E3
100
AcDbEntity
  8
0
100
AcDbPolyline
 62
7
  6
CONTINUOUS
 90
3
 70
0
 10
84.2990667665
 20
8.0185154579
 10
84.2988891138
 20
8.0184225149
 10
84.2983859088
 20
8.0181251416
  0
LINE
  5
3E4
100
AcDbEntity
  8
0
100
AcDbLine
 62
7
  6
CONTINUOUS
 10
32.0551202404
 20
62.0107868226
 30
0.0
 11
32.6828791918
 21
61.9529820552
 31
0.0
  0
LINE
  5
3E5
100
AcDbEntity
  8
0
100
AcDbLine
 62
250
  6
CONTINUOUS
 10
32.2537888152
 20
62.1570729189
 30
0.0
 11
32.9650094233
 21
62.0915829061
 31
0.0
  0
LINE
  5
3E6
100
AcDbEntity
  8
0
100
AcDbLine
 62
7
  6
CONTINUOUS
 10
84.6432232598
 20
6.6115126926
 30
0.0
 11
80.0878199822
 21
3.8878269374
 31
0.0
  0
LINE
  5
3E7
100
AcDbEntity
  8
RACCORDO
100
AcDbLine
 62
7
  6
CONTINUOUS
 10
84.2417168563
 20
7.0826019688
 30
0.0
 11
80.0878199822
 21
4.6419642622
 31
0.0
  0
LINE
  5
3E8
100
AcDbEntity
  8
0
100
AcDbLine
 62
7
  6
CONTINUOUS
 10
84.2417168563
 20
7.0826019688
 30
0.0
 11
80.0878199822
 21
4.6419642622
 31
0.0
  0
LINE
  5
3E9
100
AcDbEntity
  8
0
100
AcDbLine
 62
7
  6
CONTINUOUS
 10
84.7835654485
 20
6.134555375
 30
0.0
 11
79.3868840284
 21
3.0183249509
 31
0.0
  0
LINE
  5
3EA
100
AcDbEntity
  8
0
100
AcDbLine
 62
250
  6
CONTINUOUS
 10
77.6058483396
 20
-0.699559363
 30
0.0
 11
78.6850224035
 21
-0.1620212534
 31
0.0
  0
LINE
  5
3EB
100
AcDbEntity
  8
RACCORDO
100
AcDbLine
 62
250
  6
CONTINUOUS
 10
76.0339891038
 20
-1.3261704992
 30
0.0
 11
72.6717306384
 21
-2.9701503681
 31
0.0
  0
LINE
  5
3EC
100
AcDbEntity
  8
RACCORDO
100
AcDbLine
 62
7
  6
CONTINUOUS
 10
75.9203242119
 20
-1.5606184944
 30
0.0
 11
72.5471809493
 21
-3.2099204965
 31
0.0
  0
LINE
  5
3ED
100
AcDbEntity
  8
0
100
AcDbLine
 62
7
  6
CONTINUOUS
 10
45.3455548003
 20
63.7494537071
 30
0.0
 11
43.5970708773
 21
63.4747242527
 31
0.0
  0
LINE
  5
3EE
100
AcDbEntity
  8
0
100
AcDbLine
 62
250
  6
CONTINUOUS
 10
76.7354363813
 20
-1.2596225132
 30
0.0
 11
76.1131183492
 21
-2.0272500866
 31
0.0
  0
LINE
  5
3EF
100
AcDbEntity
  8
0
100
AcDbLine
 62
250
  6
CONTINUOUS
 10
77.0884725693
 20
-1.3783588364
 30
0.0
 11
76.3772519612
 21
-2.2556474917
 31
0.0
  0
LINE
  5
3F0
100
AcDbEntity
  8
0
100
AcDbLine
 62
250
  6
CONTINUOUS
 10
78.6859480746
 20
-0.1627563923
 30
0.0
 11
79.3868840284
 21
0.2538312445
 31
0.0
  0
LINE
  5
3F1
100
AcDbEntity
  8
0
100
AcDbLine
 62
7
  6
CONTINUOUS
 10
78.5842256205
 20
-0.3905535909
 30
0.0
 11
79.2851615743
 21
0.0260340459
 31
0.0
  0
LINE
  5
3F2
100
AcDbEntity
  8
0
100
AcDbLine
 62
250
  6
CONTINUOUS
 10
77.9785327521
 20
-1.6729984387
 30
0.0
 11
78.5067999238
 21
-1.3608443045
 31
0.0
  0
LINE
  5
3F3
100
AcDbEntity
  8
0
100
AcDbLine
 62
7
  6
CONTINUOUS
 10
77.9274883419
 20
-1.7870078519
 30
0.0
 11
78.4561789794
 21
-1.4746034909
 31
0.0
  0
LINE
  5
3F4
100
AcDbEntity
  8
0
100
AcDbLine
 62
7
  6
CONTINUOUS
 10
77.9274883558
 20
-1.7870078436
 30
0.0
 11
77.9260341128
 21
-1.7878475053
 31
0.0
  0
LINE
  5
3F5
100
AcDbEntity
  8
0
100
AcDbLine
 62
250
  6
CONTINUOUS
 10
76.3772519612
 20
-2.5761676646
 30
0.0
 11
77.9785327521
 21
-1.6729984387
 31
0.0
  0
LINE
  5
3F6
100
AcDbEntity
  8
0
100
AcDbLine
 62
7
  6
CONTINUOUS
 10
76.3243248852
 20
-2.6912583825
 30
0.0
 11
77.9260340988
 21
-1.7878475136
 31
0.0
  0
LINE
  5
3F7
100
AcDbEntity
  8
0
100
AcDbLine
 62
7
  6
CONTINUOUS
 10
77.4932199041
 20
-0.9335787981
 30
0.0
 11
78.5723939681
 21
-0.3960406885
 31
0.0
  0
ARC
  5
3F8
100
AcDbEntity
  8
DRAFT
100
AcDbCircle
 62
7
  6
CONTINUOUS
 10
48.038508022
 20
17.1525000661
 30
0.0
 40
0.9733314064
100
AcDbArc
 50
181.7058111881
 51
185.465480792
  0
ARC
  5
3F9
100
AcDbEntity
  8
0
100
AcDbCircle
 62
7
  6
CONTINUOUS
 10
47.5865130334
 20
16.298938526
 30
0.0
 40
0.8642078984
100
AcDbArc
 50
357.6976152913
 51
1.658856638
  0
ARC
  5
3FA
100
AcDbEntity
  8
DRAFT
100
AcDbCircle
 62
7
  6
CONTINUOUS
 10
47.8671911766
 20
19.556835839
 30
0.0
 40
0.8628049922
100
AcDbArc
 50
177.3435599198
 51
181.2743780828
  0
ARC
  5
3FB
100
AcDbEntity
  8
DRAFT
100
AcDbCircle
 62
7
  6
CONTINUOUS
 10
48.1083253364
 20
16.1550853724
 30
0.0
 40
0.3116368563
100
AcDbArc
 50
290.9966544261
 51
296.3231075843
  0
ARC
  5
3FC
100
AcDbEntity
  8
0
100
AcDbCircle
 62
7
  6
CONTINUOUS
 10
47.3507787443
 20
19.7105330799
 30
0.0
 40
0.310217968
100
AcDbArc
 50
119.8793591935
 51
123.6744652873
  0
ARC
  5
3FD
100
AcDbEntity
  8
0
100
AcDbCircle
 62
7
  6
CONTINUOUS
 10
48.110690527
 20
16.1502189631
 30
0.0
 40
0.306233247
100
AcDbArc
 50
296.330297939
 51
297.8258210063
  0
ARC
  5
3FE
100
AcDbEntity
  8
0
100
AcDbCircle
 62
7
  6
CONTINUOUS
 10
34.2055346348
 20
63.4809945198
 30
0.0
 40
0.25
100
AcDbArc
 50
321.4448482191
 51
0.0001365736
  0
ARC
  5
3FF
100
AcDbEntity
  8
0
100
AcDbCircle
 62
7
  6
CONTINUOUS
 10
32.0780435508
 20
62.2597336479
 30
0.0
 40
0.25
100
AcDbArc
 50
239.9816597576
 51
264.7389744545
  0
ARC
  5
400
100
AcDbEntity
  8
0
100
AcDbCircle
 62
7
  6
CONTINUOUS
 10
30.3995054804
 20
63.2289004928
 30
0.0
 40
0.25
100
AcDbArc
 50
179.9981425437
 51
239.9984015652
  0
ARC
  5
401
100
AcDbEntity
  8
0
100
AcDbCircle
 62
7
  6
CONTINUOUS
 10
30.3995054804
 20
63.5494206656
 30
0.0
 40
0.25
100
AcDbArc
 50
120.5789262155
 51
179.999597455
  0
ARC
  5
402
100
AcDbEntity
  8
0
100
AcDbCircle
 62
7
  6
CONTINUOUS
 10
32.5146550836
 20
64.7849324814
 30
0.0
 40
0.25
100
AcDbArc
 50
59.9984015652
 51
119.4236535446
  0
ARC
  5
403
100
AcDbEntity
  8
0
100
AcDbCircle
 62
7
  6
CONTINUOUS
 10
34.2055346348
 20
63.8086398203
 30
0.0
 40
0.25
100
AcDbArc
 50
0.0000377371
 51
59.9984015652
  0
ARC
  5
404
100
AcDbEntity
  8
0
100
AcDbCircle
 62
7
  6
CONTINUOUS
 10
31.8981389179
 20
64.6279593454
 30
0.0
 40
0.0838466575
100
AcDbArc
 50
112.9304356087
 51
119.4153401562
  0
ARC
  5
405
100
AcDbEntity
  8
0
100
AcDbCircle
 62
250
  6
CONTINUOUS
 10
32.5979353766
 20
64.9291682316
 30
0.0
 40
0.0834477716
100
AcDbArc
 50
59.9986266194
 51
62.4940868868
  0
ARC
  5
406
100
AcDbEntity
  8
0
100
AcDbCircle
 62
250
  6
CONTINUOUS
 10
32.4328221527
 20
64.9300193465
 30
0.0
 40
0.083425952
100
AcDbArc
 50
117.2690729377
 51
119.422605583
  0
ARC
  5
407
100
AcDbEntity
  8
0
100
AcDbCircle
 62
250
  6
CONTINUOUS
 10
34.3920488549
 20
63.3323415483
 30
0.0
 40
0.0114934211
100
AcDbArc
 50
321.4429271944
 51
324.2950091193
  0
ARC
  5
408
100
AcDbEntity
  8
0
100
AcDbCircle
 62
7
  6
CONTINUOUS
 10
46.5091926274
 20
56.3770165959
 30
0.0
 40
0.25
100
AcDbArc
 50
321.4448482191
 51
0.0001365736
  0
ARC
  5
409
100
AcDbEntity
  8
0
100
AcDbCircle
 62
7
  6
CONTINUOUS
 10
44.3817015435
 20
55.155755724
 30
0.0
 40
0.25
100
AcDbArc
 50
239.9983955154
 51
264.7389705476
  0
ARC
  5
40A
100
AcDbEntity
  8
0
100
AcDbCircle
 62
7
  6
CONTINUOUS
 10
42.7031634731
 20
56.1249225689
 30
0.0
 40
0.25
100
AcDbArc
 50
179.9977509007
 51
240.0116054101
  0
ARC
  5
40B
100
AcDbEntity
  8
0
100
AcDbCircle
 62
7
  6
CONTINUOUS
 10
44.8183130763
 20
57.6809545575
 30
0.0
 40
0.25
100
AcDbArc
 50
59.9988007778
 51
119.4242703296
  0
ARC
  5
40C
100
AcDbEntity
  8
0
100
AcDbCircle
 62
7
  6
CONTINUOUS
 10
42.7031634731
 20
56.4454427417
 30
0.0
 40
0.25
100
AcDbArc
 50
120.5789262155
 51
179.999597455
  0
ARC
  5
40D
100
AcDbEntity
  8
0
100
AcDbCircle
 62
7
  6
CONTINUOUS
 10
46.5091926274
 20
56.7046618964
 30
0.0
 40
0.25
100
AcDbArc
 50
0.0000377371
 51
59.9984015652
  0
ARC
  5
40E
100
AcDbEntity
  8
0
100
AcDbCircle
 62
7
  6
CONTINUOUS
 10
39.6179898727
 20
59.4609059585
 30
0.0
 40
0.2
100
AcDbArc
 50
120.2897779771
 51
180.0
  0
ARC
  5
40F
100
AcDbEntity
  8
0
100
AcDbCircle
 62
7
  6
CONTINUOUS
 10
44.2017969105
 20
57.5239814214
 30
0.0
 40
0.0838466575
100
AcDbArc
 50
112.9304356089
 51
119.415340156
  0
ARC
  5
410
100
AcDbEntity
  8
0
100
AcDbCircle
 62
250
  6
CONTINUOUS
 10
44.9015946283
 20
57.8251925654
 30
0.0
 40
0.0834451866
100
AcDbArc
 50
59.9997961715
 51
62.4272643603
  0
ARC
  5
411
100
AcDbEntity
  8
0
100
AcDbCircle
 62
250
  6
CONTINUOUS
 10
44.7364823987
 20
57.8260372813
 30
0.0
 40
0.0834306663
100
AcDbArc
 50
117.1326551741
 51
119.4244045167
  0
ARC
  5
412
100
AcDbEntity
  8
0
100
AcDbCircle
 62
250
  6
CONTINUOUS
 10
46.6957068475
 20
56.2283636244
 30
0.0
 40
0.0114934211
100
AcDbArc
 50
321.4429271986
 51
324.2950091171
  0
ARC
  5
413
100
AcDbEntity
  8
0
100
AcDbCircle
 62
7
  6
CONTINUOUS
 10
45.5682943996
 20
60.6432302134
 30
0.0
 40
0.444984528
100
AcDbArc
 50
115.7986369704
 51
119.7313231886
  0
ARC
  5
414
100
AcDbEntity
  8
0
100
AcDbCircle
 62
7
  6
CONTINUOUS
 10
40.6185469313
 20
63.5011523667
 30
0.0
 40
0.444984528
100
AcDbArc
 50
115.7986369704
 51
119.7313231886
  0
ARC
  5
415
100
AcDbEntity
  8
0
100
AcDbCircle
 62
7
  6
CONTINUOUS
 10
78.3289977808
 20
-0.9317258909
 30
0.0
 40
0.25
100
AcDbArc
 50
359.9981425437
 51
59.9984015652
  0
ARC
  5
416
100
AcDbEntity
  8
0
100
AcDbCircle
 62
7
  6
CONTINUOUS
 10
78.3289977808
 20
-1.2593711914
 30
0.0
 40
0.25
100
AcDbArc
 50
300.5789298759
 51
0.0000061749
  0
ARC
  5
417
100
AcDbEntity
  8
0
100
AcDbCircle
 62
7
  6
CONTINUOUS
 10
76.2015066969
 20
-2.4735069356
 30
0.0
 40
0.25
100
AcDbArc
 50
239.9984015652
 51
299.4236535446
  0
ARC
  5
418
100
AcDbEntity
  8
0
100
AcDbCircle
 62
7
  6
CONTINUOUS
 10
78.4983650417
 20
-0.2459271365
 30
0.0
 40
0.1681928841
100
AcDbArc
 50
291.1146216225
 51
300.6963896568
  0
ARC
  5
419
100
AcDbEntity
  8
0
100
AcDbCircle
 62
7
  6
CONTINUOUS
 10
78.4975309997
 20
-0.245975767
 30
0.0
 40
0.1677066949
100
AcDbArc
 50
300.0411702943
 51
307.4148069795
  0
ARC
  5
41A
100
AcDbEntity
  8
0
100
AcDbCircle
 62
7
  6
CONTINUOUS
 10
78.4980529449
 20
-0.2467791047
 30
0.0
 40
0.1667499828
100
AcDbArc
 50
296.4759950589
 51
300.0241064481
  0
ARC
  5
41B
100
AcDbEntity
  8
0
100
AcDbCircle
 62
250
  6
CONTINUOUS
 10
78.4955431909
 20
-1.259371058
 30
0.0
 40
0.0834543319
100
AcDbArc
 50
357.7401358844
 51
359.9999084343
  0
ARC
  5
41C
100
AcDbEntity
  8
0
100
AcDbCircle
 62
250
  6
CONTINUOUS
 10
78.4137384389
 20
-1.4027795824
 30
0.0
 40
0.083425596
100
AcDbArc
 50
300.5787294044
 51
302.7424245707
  0
ARC
  5
41D
100
AcDbEntity
  8
0
100
AcDbCircle
 62
250
  6
CONTINUOUS
 10
82.3981193816
 20
9.7604188492
 30
0.0
 40
0.0665091662
100
AcDbArc
 50
359.9977267646
 51
0.8757320272
  0
ARC
  5
41E
100
AcDbEntity
  8
0
100
AcDbCircle
 62
7
  6
CONTINUOUS
 10
66.0253397882
 20
45.10863782
 30
0.0
 40
0.25
100
AcDbArc
 50
321.4448482191
 51
0.0001365736
  0
ARC
  5
41F
100
AcDbEntity
  8
0
100
AcDbCircle
 62
7
  6
CONTINUOUS
 10
63.8978487042
 20
43.8873769482
 30
0.0
 40
0.25
100
AcDbArc
 50
239.9816597576
 51
264.7389744545
  0
ARC
  5
420
100
AcDbEntity
  8
0
100
AcDbCircle
 62
7
  6
CONTINUOUS
 10
62.2193106338
 20
44.856543793
 30
0.0
 40
0.25
100
AcDbArc
 50
179.9981425437
 51
239.9984015652
  0
ARC
  5
421
100
AcDbEntity
  8
0
100
AcDbCircle
 62
7
  6
CONTINUOUS
 10
62.2193106338
 20
45.1770639659
 30
0.0
 40
0.25
100
AcDbArc
 50
120.5789262155
 51
179.999597455
  0
ARC
  5
422
100
AcDbEntity
  8
0
100
AcDbCircle
 62
7
  6
CONTINUOUS
 10
64.334460237
 20
46.4125757817
 30
0.0
 40
0.25
100
AcDbArc
 50
59.9984015652
 51
119.4236535446
  0
ARC
  5
423
100
AcDbEntity
  8
0
100
AcDbCircle
 62
7
  6
CONTINUOUS
 10
66.0253397882
 20
45.4362831205
 30
0.0
 40
0.25
100
AcDbArc
 50
0.0000377371
 51
59.9984015652
  0
ARC
  5
424
100
AcDbEntity
  8
0
100
AcDbCircle
 62
7
  6
CONTINUOUS
 10
63.7179440713
 20
46.2556026456
 30
0.0
 40
0.0838466575
100
AcDbArc
 50
112.9304356091
 51
119.4153401558
  0
ARC
  5
425
100
AcDbEntity
  8
0
100
AcDbCircle
 62
250
  6
CONTINUOUS
 10
64.41774053
 20
46.5568115319
 30
0.0
 40
0.0834477716
100
AcDbArc
 50
59.9986266199
 51
62.4940868869
  0
ARC
  5
426
100
AcDbEntity
  8
0
100
AcDbCircle
 62
250
  6
CONTINUOUS
 10
64.2526273062
 20
46.5576626467
 30
0.0
 40
0.083425952
100
AcDbArc
 50
117.2690729377
 51
119.422605582
  0
ARC
  5
427
100
AcDbEntity
  8
0
100
AcDbCircle
 62
250
  6
CONTINUOUS
 10
66.2118540083
 20
44.9599848485
 30
0.0
 40
0.0114934211
100
AcDbArc
 50
321.4429271965
 51
324.2950091185
  0
ARC
  5
428
100
AcDbEntity
  8
0
100
AcDbCircle
 62
7
  6
CONTINUOUS
 10
78.3289977808
 20
38.0046598961
 30
0.0
 40
0.25
100
AcDbArc
 50
321.4448482191
 51
0.0001365736
  0
ARC
  5
429
100
AcDbEntity
  8
0
100
AcDbCircle
 62
7
  6
CONTINUOUS
 10
76.2015066969
 20
36.7833990243
 30
0.0
 40
0.25
100
AcDbArc
 50
239.9983955154
 51
264.7389705476
  0
ARC
  5
42A
100
AcDbEntity
  8
0
100
AcDbCircle
 62
7
  6
CONTINUOUS
 10
74.5229686265
 20
37.7525658691
 30
0.0
 40
0.25
100
AcDbArc
 50
179.9977509007
 51
240.0116054101
  0
ARC
  5
42B
100
AcDbEntity
  8
0
100
AcDbCircle
 62
7
  6
CONTINUOUS
 10
76.6381182297
 20
39.3085978578
 30
0.0
 40
0.25
100
AcDbArc
 50
59.9988007778
 51
119.4242703296
  0
ARC
  5
42C
100
AcDbEntity
  8
0
100
AcDbCircle
 62
7
  6
CONTINUOUS
 10
74.5229686265
 20
38.0730860419
 30
0.0
 40
0.25
100
AcDbArc
 50
120.5789262155
 51
179.999597455
  0
ARC
  5
42D
100
AcDbEntity
  8
0
100
AcDbCircle
 62
7
  6
CONTINUOUS
 10
78.3289977808
 20
38.3323051966
 30
0.0
 40
0.25
100
AcDbArc
 50
0.0000377371
 51
59.9984015652
  0
ARC
  5
42E
100
AcDbEntity
  8
0
100
AcDbCircle
 62
7
  6
CONTINUOUS
 10
71.4377950261
 20
41.0885492588
 30
0.0
 40
0.2
100
AcDbArc
 50
120.2897779771
 51
180.0
  0
ARC
  5
42F
100
AcDbEntity
  8
0
100
AcDbCircle
 62
7
  6
CONTINUOUS
 10
76.0216020639
 20
39.1516247217
 30
0.0
 40
0.0838466575
100
AcDbArc
 50
112.9304356091
 51
119.4153401558
  0
ARC
  5
430
100
AcDbEntity
  8
0
100
AcDbCircle
 62
250
  6
CONTINUOUS
 10
76.7213997817
 20
39.4528358657
 30
0.0
 40
0.0834451866
100
AcDbArc
 50
59.9997961715
 51
62.4272643601
  0
ARC
  5
431
100
AcDbEntity
  8
0
100
AcDbCircle
 62
250
  6
CONTINUOUS
 10
76.5562875521
 20
39.4536805816
 30
0.0
 40
0.0834306664
100
AcDbArc
 50
117.1326551745
 51
119.4244045159
  0
ARC
  5
432
100
AcDbEntity
  8
0
100
AcDbCircle
 62
250
  6
CONTINUOUS
 10
78.5155120009
 20
37.8560069246
 30
0.0
 40
0.0114934211
100
AcDbArc
 50
321.4429271965
 51
324.2950091189
  0
ARC
  5
433
100
AcDbEntity
  8
0
100
AcDbCircle
 62
7
  6
CONTINUOUS
 10
77.3880995529
 20
42.2708735137
 30
0.0
 40
0.4449845279
100
AcDbArc
 50
115.7986369701
 51
119.7313231889
  0
ARC
  5
434
100
AcDbEntity
  8
0
100
AcDbCircle
 62
7
  6
CONTINUOUS
 10
72.4383520846
 20
45.128795667
 30
0.0
 40
0.444984528
100
AcDbArc
 50
115.7986369703
 51
119.7313231888
  0
ARC
  5
435
100
AcDbEntity
  8
RACCORDO
100
AcDbCircle
 62
250
  6
CONTINUOUS
 10
532.3923645285
 20
14.0074162335
 30
0.0
 40
460.5161481931
100
AcDbArc
 50
179.2588857463
 51
179.709497711
  0
ARC
  5
436
100
AcDbEntity
  8
DRAFT
100
AcDbCircle
 62
7
  6
CONTINUOUS
 10
410.53646274
 20
26.6797069888
 30
0.0
 40
362.2341728704
100
AcDbArc
 50
181.2562494637
 51
181.4477944497
  0
ARC
  5
437
100
AcDbEntity
  8
DRAFT
100
AcDbCircle
 62
7
  6
CONTINUOUS
 10
408.8060098686
 20
27.4710884372
 30
0.0
 40
361.8883797074
100
AcDbArc
 50
181.2561585043
 51
181.4478859624
  0
ARC
  5
438
100
AcDbEntity
  8
0
100
AcDbCircle
 62
7
  6
CONTINUOUS
 10
408.8060098606
 20
27.471088437
 30
0.0
 40
361.8883796993
100
AcDbArc
 50
181.2561585043
 51
181.4478859624
  0
ARC
  5
439
100
AcDbEntity
  8
DRAFT
100
AcDbCircle
 62
7
  6
CONTINUOUS
 10
408.4656097781
 20
26.6279449992
 30
0.0
 40
360.1626750353
100
AcDbArc
 50
181.4478860438
 51
181.6394138507
  0
ARC
  5
43A
100
AcDbEntity
  8
0
100
AcDbCircle
 62
7
  6
CONTINUOUS
 10
406.7365291225
 20
27.418204219
 30
0.0
 40
359.8182216047
100
AcDbArc
 50
181.4477943678
 51
181.6395002549
  0
ARC
  5
43B
100
AcDbEntity
  8
RACCORDO
100
AcDbCircle
 62
250
  6
CONTINUOUS
 10
724.8455805942
 20
1217.5056741595
 30
0.0
 40
1354.3960561701
100
AcDbArc
 50
241.0004354975
 51
241.1585204125
  0
SPLINE
  5
43C
100
AcDbEntity
  8
0
100
AcDbSpline
 62
7
  6
CONTINUOUS
 70
0
 71
3
 72
11
 73
7
 74
0
 42
0.0000001
 43
0.0000001
 44
0.0000000001
 40
0.0
 40
0.0
 40
0.0
 40
0.0
 40
0.2902975417
 40
0.5500870367
 40
0.783307125
 40
1.0
 40
1.0
 40
1.0
 40
1.0
 10
47.0045995793
 20
19.5376468411
 30
0.0
 10
47.003573291
 20
19.5844423674
 30
0.0
 10
47.0083907176
 20
19.6735375813
 30
0.0
 10
47.0401236413
 20
19.7968505961
 30
0.0
 10
47.0959696689
 20
19.8983582895
 30
0.0
 10
47.1496943803
 20
19.9493248053
 30
0.0
 10
47.1787710709
 20
19.9686968806
 30
0.0
  0
SPLINE
  5
43D
100
AcDbEntity
  8
0
100
AcDbSpline
 62
7
  6
CONTINUOUS
 70
0
 71
3
 72
17
 73
13
 74
0
 42
0.0000001
 43
0.0000001
 44
0.0000000001
 40
0.0
 40
0.0
 40
0.0
 40
0.0
 40
0.0418634154
 40
0.0861447997
 40
0.1341499333
 40
0.1866280504
 40
0.3053625691
 40
0.4403706086
 40
0.5853886313
 40
0.7323774347
 40
0.8729878352
 40
1.0
 40
1.0
 40
1.0
 40
1.0
 10
48.2465188107
 20
15.8757568
 30
0.0
 10
48.2224818396
 20
15.8638608432
 30
0.0
 10
48.1695598527
 20
15.8458915184
 30
0.0
 10
48.0832294409
 20
15.838638835
 30
0.0
 10
47.990632078
 20
15.8501957659
 30
0.0
 10
47.8558701075
 20
15.8916939435
 30
0.0
 10
47.6838095858
 20
15.9906707989
 30
0.0
 10
47.4925208341
 20
16.1619488209
 30
0.0
 10
47.3220761037
 20
16.377526847
 30
0.0
 10
47.1861238234
 20
16.6204267841
 30
0.0
 10
47.0953539587
 20
16.8712885268
 30
0.0
 10
47.0679362058
 20
17.0421899404
 30
0.0
 10
47.0656079512
 20
17.1235263031
 30
0.0
  0
SPLINE
  5
43E
100
AcDbEntity
  8
0
100
AcDbSpline
 62
7
  6
CONTINUOUS
 70
0
 71
3
 72
17
 73
13
 74
0
 42
0.0000001
 43
0.0000001
 44
0.0000000001
 40
0.0
 40
0.0
 40
0.0
 40
0.0
 40
0.0420853322
 40
0.0862021724
 40
0.1337713941
 40
0.1856935333
 40
0.3033568453
 40
0.4378069535
 40
0.58289604
 40
0.7304997035
 40
0.8720318612
 40
1.0
 40
1.0
 40
1.0
 40
1.0
 10
47.1962357815
 20
19.9795157194
 30
0.0
 10
47.2198700821
 20
19.9930934351
 30
0.0
 10
47.2722742341
 20
20.0144289602
 30
0.0
 10
47.3588763531
 20
20.0261595793
 30
0.0
 10
47.4521992332
 20
20.0184416823
 30
0.0
 10
47.5884828839
 20
19.981215593
 30
0.0
 10
47.7633235517
 20
19.8851528223
 30
0.0
 10
47.9576411677
 20
19.7144331709
 30
0.0
 10
48.1309560994
 20
19.4970920392
 30
0.0
 10
48.2688803891
 20
19.2505454218
 30
0.0
 10
48.3605175107
 20
18.9951354176
 30
0.0
 10
48.3875397265
 20
18.82096831
 30
0.0
 10
48.3893567241
 20
18.7381088744
 30
0.0
  0
SPLINE
  5
43F
100
AcDbEntity
  8
0
100
AcDbSpline
 62
7
  6
CONTINUOUS
 70
0
 71
3
 72
11
 73
7
 74
0
 42
0.0000001
 43
0.0000001
 44
0.0000000001
 40
0.0
 40
0.0
 40
0.0
 40
0.0
 40
0.2881449177
 40
0.5456670965
 40
0.7790155333
 40
1.0
 40
1.0
 40
1.0
 40
1.0
 10
48.4500232774
 20
16.2642203737
 30
0.0
 10
48.4482349887
 20
16.2209051688
 30
0.0
 10
48.438272094
 20
16.138847848
 30
0.0
 10
48.3996044445
 20
16.0270667155
 30
0.0
 10
48.3385192569
 20
15.9372921923
 30
0.0
 10
48.2830387487
 20
15.8949151171
 30
0.0
 10
48.2536356866
 20
15.8793952512
 30
0.0
  0
SPLINE
  5
440
100
AcDbEntity
  8
RACCORDO
100
AcDbSpline
 62
7
  6
CONTINUOUS
 70
0
 71
3
 72
11
 73
7
 74
0
 42
0.0000001
 43
0.0000001
 44
0.0000000001
 40
0.0
 40
0.0
 40
0.0
 40
0.0
 40
0.2657077226
 40
0.5211364397
 40
0.7649553594
 40
1.0
 40
1.0
 40
1.0
 40
1.0
 10
52.4792617063
 20
58.8093775344
 30
0.0
 10
52.4792618853
 20
58.7963597819
 30
0.0
 10
52.4774097753
 20
58.7707617587
 30
0.0
 10
52.4676458114
 20
58.7342803222
 30
0.0
 10
52.4497754764
 20
58.7025014996
 30
0.0
 10
52.4317960815
 20
58.6865248877
 30
0.0
 10
52.4219117029
 20
58.6806168062
 30
0.0
  0
SPLINE
  5
441
100
AcDbEntity
  8
0
100
AcDbSpline
 62
7
  6
CONTINUOUS
 70
0
 71
3
 72
13
 73
9
 74
0
 42
0.0000001
 43
0.0000001
 44
0.0000000001
 40
0.0
 40
0.0
 40
0.0
 40
0.0
 40
0.2890784079
 40
0.5478536929
 40
0.6673388375
 40
0.7814598431
 40
0.8917359054
 40
1.0
 40
1.0
 40
1.0
 40
1.0
 10
48.8852024635
 20
62.1479806576
 30
0.0
 10
48.9287811121
 20
62.1728496776
 30
0.0
 10
49.0153594822
 20
62.2135668997
 30
0.0
 10
49.1292377974
 20
62.2404551852
 30
0.0
 10
49.2149168212
 20
62.2431267485
 30
0.0
 10
49.2744502405
 20
62.2363133371
 30
0.0
 10
49.3303062809
 20
62.2207555317
 30
0.0
 10
49.364840492
 20
62.2045556691
 30
0.0
 10
49.381114002
 20
62.1951594018
 30
0.0
  0
SPLINE
  5
442
100
AcDbEntity
  8
0
100
AcDbSpline
 62
7
  6
CONTINUOUS
 70
0
 71
3
 72
13
 73
9
 74
0
 42
0.0000001
 43
0.0000001
 44
0.0000000001
 40
0.0
 40
0.0
 40
0.0
 40
0.0
 40
0.2894020154
 40
0.5482945226
 40
0.6677443876
 40
0.7817700891
 40
0.891903965
 40
1.0
 40
1.0
 40
1.0
 40
1.0
 10
45.3455548003
 20
64.1870711194
 30
0.0
 10
45.3455548003
 20
64.2377510902
 30
0.0
 10
45.3379243315
 20
64.334057445
 30
0.0
 10
45.3044572748
 20
64.4473516772
 30
0.0
 10
45.2638484832
 20
64.5237112638
 30
0.0
 10
45.2280301295
 20
64.5723592428
 30
0.0
 10
45.186385124
 20
64.6133468434
 30
0.0
 10
45.1548666196
 20
64.6353415255
 30
0.0
 10
45.1384733149
 20
64.6448069618
 30
0.0
  0
SPLINE
  5
443
100
AcDbEntity
  8
0
100
AcDbSpline
 62
7
  6
CONTINUOUS
 70
0
 71
3
 72
13
 73
9
 74
0
 42
0.0000001
 43
0.0000001
 44
0.0000000001
 40
0.0
 40
0.0
 40
0.0
 40
0.0
 40
0.0959122497
 40
0.1993013647
 40
0.3116655442
 40
0.4335022555
 40
0.7032967728
 40
1.0
 40
1.0
 40
1.0
 40
1.0
 10
45.9946801944
 20
59.7617840459
 30
0.0
 10
46.0043493156
 20
59.773210933
 30
0.0
 10
46.0216175155
 20
59.7994400918
 30
0.0
 10
46.039656543
 20
59.8448968809
 30
0.0
 10
46.050466285
 20
59.8966941915
 30
0.0
 10
46.0551756521
 20
59.9754351859
 30
0.0
 10
46.0410532808
 20
60.0828944709
 30
0.0
 10
46.01289963
 20
60.1672295832
 30
0.0
 10
45.9946801944
 20
60.2098005084
 30
0.0
  0
SPLINE
  5
444
100
AcDbEntity
  8
0
100
AcDbSpline
 62
7
  6
CONTINUOUS
 70
0
 71
3
 72
11
 73
7
 74
0
 42
0.0000001
 43
0.0000001
 44
0.0000000001
 40
0.0
 40
0.0
 40
0.0
 40
0.0
 40
0.2187450938
 40
0.4523364779
 40
0.7112123903
 40
1.0
 40
1.0
 40
1.0
 40
1.0
 10
52.9637479482
 20
59.312873415
 30
0.0
 10
52.9637484411
 20
59.2942578461
 30
0.0
 10
52.957054199
 20
59.2555112348
 30
0.0
 10
52.9282985919
 20
59.2013421376
 30
0.0
 10
52.8827509092
 20
59.1521146078
 30
0.0
 10
52.8445116088
 20
59.1249388143
 30
0.0
 10
52.8234181064
 20
59.1123269623
 30
0.0
  0
SPLINE
  5
445
100
AcDbEntity
  8
0
100
AcDbSpline
 62
7
  6
CONTINUOUS
 70
0
 71
3
 72
12
 73
8
 74
0
 42
0.0000001
 43
0.0000001
 44
0.0000000001
 40
0.0
 40
0.0
 40
0.0
 40
0.0
 40
0.1152207377
 40
0.2326137681
 40
0.4758702517
 40
0.7322627461
 40
1.0
 40
1.0
 40
1.0
 40
1.0
 10
45.374632825
 20
61.0438627442
 30
0.0
 10
45.3857834333
 20
61.0492384444
 30
0.0
 10
45.4093183122
 20
61.0580855718
 30
0.0
 10
45.4597099153
 20
61.067822949
 30
0.0
 10
45.5268757946
 20
61.0650333308
 30
0.0
 10
45.6066610983
 20
61.0423266818
 30
0.0
 10
45.6574928377
 20
61.0174722409
 30
0.0
 10
45.6824030106
 20
61.0030890315
 30
0.0
  0
SPLINE
  5
446
100
AcDbEntity
  8
0
100
AcDbSpline
 62
7
  6
CONTINUOUS
 70
0
 71
3
 72
12
 73
8
 74
0
 42
0.0000001
 43
0.0000001
 44
0.0000000001
 40
0.0
 40
0.0
 40
0.0
 40
0.0
 40
0.115237784
 40
0.2326772605
 40
0.4760213086
 40
0.7323914754
 40
1.0
 40
1.0
 40
1.0
 40
1.0
 10
39.7778278264
 20
64.2773819291
 30
0.0
 10
39.7889611845
 20
64.2826120992
 30
0.0
 10
39.812428085
 20
64.291186544
 30
0.0
 10
39.8625757145
 20
64.3004923087
 30
0.0
 10
39.9292850592
 20
64.2974132733
 30
0.0
 10
40.0084936937
 20
64.2746994144
 30
0.0
 10
40.0589674243
 20
64.2499907264
 30
0.0
 10
40.083704815
 20
64.2357072254
 30
0.0
  0
SPLINE
  5
447
100
AcDbEntity
  8
0
100
AcDbSpline
 62
7
  6
CONTINUOUS
 70
0
 71
3
 72
11
 73
7
 74
0
 42
0.0000001
 43
0.0000001
 44
0.0000000001
 40
0.0
 40
0.0
 40
0.0
 40
0.0
 40
0.2370395907
 40
0.4996275295
 40
0.7624180741
 40
1.0
 40
1.0
 40
1.0
 40
1.0
 10
36.1531666449
 20
61.2981416285
 30
0.0
 10
36.1531666449
 20
61.3212315364
 30
0.0
 10
36.1617959697
 20
61.3699318797
 30
0.0
 10
36.1919035045
 20
61.4384198783
 30
0.0
 10
36.2359962571
 20
61.498924783
 30
0.0
 10
36.2737817579
 20
61.5309403332
 30
0.0
 10
36.2937652497
 20
61.5426127927
 30
0.0
  0
SPLINE
  5
448
100
AcDbEntity
  8
0
100
AcDbSpline
 62
7
  6
CONTINUOUS
 70
0
 71
3
 72
11
 73
7
 74
0
 42
0.0000001
 43
0.0000001
 44
0.0000000001
 40
0.0
 40
0.0
 40
0.0
 40
0.0
 40
0.2372220479
 40
0.5000061069
 40
0.7627868417
 40
1.0
 40
1.0
 40
1.0
 40
1.0
 10
45.981953895
 20
56.60435463
 30
0.0
 10
46.0070484303
 20
56.5898653599
 30
0.0
 10
46.0545416434
 20
56.5498942938
 30
0.0
 10
46.1099744221
 20
56.4741443746
 30
0.0
 10
46.1478590815
 20
56.3882642784
 30
0.0
 10
46.1587275987
 20
56.3271496484
 30
0.0
 10
46.1587275987
 20
56.2981735941
 30
0.0
  0
SPLINE
  5
449
100
AcDbEntity
  8
0
100
AcDbSpline
 62
7
  6
CONTINUOUS
 70
0
 71
3
 72
11
 73
7
 74
0
 42
0.0000001
 43
0.0000001
 44
0.0000000001
 40
0.0
 40
0.0
 40
0.0
 40
0.0
 40
0.2372220479
 40
0.5000061069
 40
0.7627868417
 40
1.0
 40
1.0
 40
1.0
 40
1.0
 10
33.6782959024
 20
63.7083325539
 30
0.0
 10
33.7033904377
 20
63.6938432838
 30
0.0
 10
33.7508836508
 20
63.6538722177
 30
0.0
 10
33.8063164294
 20
63.5781222985
 30
0.0
 10
33.8442010889
 20
63.4922422023
 30
0.0
 10
33.855069606
 20
63.4311275723
 30
0.0
 10
33.855069606
 20
63.402151518
 30
0.0
  0
SPLINE
  5
44A
100
AcDbEntity
  8
0
100
AcDbSpline
 62
7
  6
CONTINUOUS
 70
0
 71
3
 72
11
 73
7
 74
0
 42
0.0000001
 43
0.0000001
 44
0.0000000001
 40
0.0
 40
0.0
 40
0.0
 40
0.0
 40
0.2897140976
 40
0.548985444
 40
0.7822403842
 40
1.0
 40
1.0
 40
1.0
 40
1.0
 10
39.8301219071
 20
59.7481101809
 30
0.0
 10
39.8213732102
 20
59.7531615688
 30
0.0
 10
39.8039779725
 20
59.7614493615
 30
0.0
 10
39.7772361511
 20
59.7679328768
 30
0.0
 10
39.7521395061
 20
59.7673700176
 30
0.0
 10
39.7370050091
 20
59.7619492692
 30
0.0
 10
39.7304100463
 20
59.7581857809
 30
0.0
  0
SPLINE
  5
44B
100
AcDbEntity
  8
0
100
AcDbSpline
 62
7
  6
CONTINUOUS
 70
0
 71
3
 72
11
 73
7
 74
0
 42
0.0000001
 43
0.0000001
 44
0.0000000001
 40
0.0
 40
0.0
 40
0.0
 40
0.0
 40
0.2372227548
 40
0.5000068451
 40
0.762786882
 40
1.0
 40
1.0
 40
1.0
 40
1.0
 10
38.1330656322
 20
60.7279692049
 30
0.0
 10
38.1531418236
 20
60.7163774636
 30
0.0
 10
38.1911372445
 20
60.6843994937
 30
0.0
 10
38.235483951
 20
60.6237976005
 30
0.0
 10
38.2657921093
 20
60.5550917558
 30
0.0
 10
38.2744869884
 20
60.506198888
 30
0.0
 10
38.2744869884
 20
60.4830174674
 30
0.0
  0
SPLINE
  5
44C
100
AcDbEntity
  8
0
100
AcDbSpline
 62
7
  6
CONTINUOUS
 70
0
 71
3
 72
11
 73
7
 74
0
 42
0.0000001
 43
0.0000001
 44
0.0000000001
 40
0.0
 40
0.0
 40
0.0
 40
0.0
 40
0.2544090172
 40
0.5109520931
 40
0.7623204071
 40
1.0
 40
1.0
 40
1.0
 40
1.0
 10
45.2686674159
 20
54.9876049822
 30
0.0
 10
45.2512868721
 20
54.9661658369
 30
0.0
 10
45.2118144339
 20
54.9266230932
 30
0.0
 10
45.1423367917
 20
54.8806877705
 30
0.0
 10
45.0660932436
 20
54.8516539298
 30
0.0
 10
45.0122129297
 20
54.8466399377
 30
0.0
 10
44.9865371388
 20
54.8490041297
 30
0.0
  0
SPLINE
  5
44D
100
AcDbEntity
  8
0
100
AcDbSpline
 62
7
  6
CONTINUOUS
 70
0
 71
3
 72
11
 73
7
 74
0
 42
0.0000001
 43
0.0000001
 44
0.0000000001
 40
0.0
 40
0.0
 40
0.0
 40
0.0
 40
0.4864503926
 40
0.6153218492
 40
0.7444787001
 40
1.0
 40
1.0
 40
1.0
 40
1.0
 10
32.6828791725
 20
61.9529821323
 30
0.0
 10
32.7352004757
 20
61.9481670238
 30
0.0
 10
32.8040398105
 20
61.96700707
 30
0.0
 10
32.873239553
 20
62.0075352262
 30
0.0
 10
32.9180277493
 20
62.0404812773
 30
0.0
 10
32.9476288505
 20
62.0701437251
 30
0.0
 10
32.9650094233
 20
62.0915829061
 30
0.0
  0
SPLINE
  5
44E
100
AcDbEntity
  8
0
100
AcDbSpline
 62
7
  6
CONTINUOUS
 70
0
 71
3
 72
11
 73
7
 74
0
 42
0.0000001
 43
0.0000001
 44
0.0000000001
 40
0.0
 40
0.0
 40
0.0
 40
0.0
 40
0.21809377
 40
0.4531871632
 40
0.7128168828
 40
1.0
 40
1.0
 40
1.0
 40
1.0
 10
31.8654711508
 20
64.7051803203
 30
0.0
 10
31.8735691676
 20
64.708606828
 30
0.0
 10
31.8916160872
 20
64.713063264
 30
0.0
 10
31.9206266044
 20
64.7119769864
 30
0.0
 10
31.951257184
 20
64.7036455432
 30
0.0
 10
31.9712063925
 20
64.6939846421
 30
0.0
 10
31.9812336443
 20
64.6881950326
 30
0.0
  0
SPLINE
  5
44F
100
AcDbEntity
  8
0
100
AcDbSpline
 62
7
  6
CONTINUOUS
 70
0
 71
3
 72
11
 73
7
 74
0
 42
0.0000001
 43
0.0000001
 44
0.0000000001
 40
0.0
 40
0.0
 40
0.0
 40
0.0
 40
0.21809377
 40
0.4531871632
 40
0.7128168828
 40
1.0
 40
1.0
 40
1.0
 40
1.0
 10
44.1691291434
 20
57.6012023964
 30
0.0
 10
44.1772271602
 20
57.6046289041
 30
0.0
 10
44.1952740799
 20
57.6090853401
 30
0.0
 10
44.224284597
 20
57.6079990625
 30
0.0
 10
44.2549151766
 20
57.5996676193
 30
0.0
 10
44.2748643851
 20
57.5900067182
 30
0.0
 10
44.2848916369
 20
57.5842171087
 30
0.0
  0
SPLINE
  5
450
100
AcDbEntity
  8
0
100
AcDbSpline
 62
7
  6
CONTINUOUS
 70
0
 71
3
 72
13
 73
9
 74
0
 42
0.0000001
 43
0.0000001
 44
0.0000000001
 40
0.0
 40
0.0
 40
0.0
 40
0.0
 40
0.1082640946
 40
0.2185401569
 40
0.3326611625
 40
0.4521463071
 40
0.7109215921
 40
1.0
 40
1.0
 40
1.0
 40
1.0
 10
45.1384733149
 20
64.6448069618
 30
0.0
 10
45.1221998048
 20
64.6542032291
 30
0.0
 10
45.0876655938
 20
64.6704030917
 30
0.0
 10
45.0318095534
 20
64.6859608971
 30
0.0
 10
44.972276134
 20
64.6927743085
 30
0.0
 10
44.8865971103
 20
64.6901027452
 30
0.0
 10
44.772718795
 20
64.6632144596
 30
0.0
 10
44.686140425
 20
64.6224972376
 30
0.0
 10
44.6425617764
 20
64.5976282175
 30
0.0
  0
SPLINE
  5
451
100
AcDbEntity
  8
0
100
AcDbSpline
 62
7
  6
CONTINUOUS
 70
0
 71
3
 72
11
 73
7
 74
0
 42
0.0000001
 43
0.0000001
 44
0.0000000001
 40
0.0
 40
0.0
 40
0.0
 40
0.0
 40
0.2086860782
 40
0.4459813575
 40
0.7114744533
 40
1.0
 40
1.0
 40
1.0
 40
1.0
 10
42.1282189459
 20
57.549272446
 30
0.0
 10
42.140509784
 20
57.571478229
 30
0.0
 10
42.1587055393
 20
57.6235093734
 30
0.0
 10
42.1664859075
 20
57.7102843326
 30
0.0
 10
42.1567454567
 20
57.8065079282
 30
0.0
 10
42.1394451846
 20
57.8719174319
 30
0.0
 10
42.1282189459
 20
57.9051635887
 30
0.0
  0
SPLINE
  5
452
100
AcDbEntity
  8
0
100
AcDbSpline
 62
7
  6
CONTINUOUS
 70
0
 71
3
 72
15
 73
11
 74
0
 42
0.0000001
 43
0.0000001
 44
0.0000000001
 40
0.0
 40
0.0
 40
0.0
 40
0.0
 40
0.1142015256
 40
0.2374120021
 40
0.3670886967
 40
0.5001188725
 40
0.6331248329
 40
0.7627377421
 40
0.8858682116
 40
1.0
 40
1.0
 40
1.0
 40
1.0
 10
46.5122635014
 20
54.5835729284
 30
0.0
 10
46.536460667
 20
54.5696017882
 30
0.0
 10
46.5842085745
 20
54.5360318319
 30
0.0
 10
46.6499255885
 20
54.4744750709
 30
0.0
 10
46.7104568207
 20
54.401711216
 30
0.0
 10
46.763535568
 20
54.3204974634
 30
0.0
 10
46.807186057
 20
54.2338675015
 30
0.0
 10
46.8397827167
 20
54.1450538034
 30
0.0
 10
46.8601199753
 20
54.0573873
 30
0.0
 10
46.8652172501
 20
53.9992837362
 30
0.0
 10
46.8652172501
 20
53.9713598681
 30
0.0
  0
SPLINE
  5
453
100
AcDbEntity
  8
0
100
AcDbSpline
 62
7
  6
CONTINUOUS
 70
0
 71
3
 72
15
 73
11
 74
0
 42
0.0000001
 43
0.0000001
 44
0.0000000001
 40
0.0
 40
0.0
 40
0.0
 40
0.0
 40
0.1141636437
 40
0.2373487354
 40
0.3670149004
 40
0.5000529654
 40
0.6330834976
 40
0.7627278003
 40
0.8858793909
 40
1.0
 40
1.0
 40
1.0
 40
1.0
 10
46.8661429212
 20
53.9710260653
 30
0.0
 10
46.8661429212
 20
53.9989898675
 30
0.0
 10
46.8610178057
 20
54.0571815829
 30
0.0
 10
46.8405873392
 20
54.1449688304
 30
0.0
 10
46.8078602126
 20
54.2338879811
 30
0.0
 10
46.7640600799
 20
54.3205909865
 30
0.0
 10
46.7108313331
 20
54.4018416746
 30
0.0
 10
46.6501542076
 20
54.4745930583
 30
0.0
 10
46.58433068
 20
54.5361362642
 30
0.0
 10
46.5364713457
 20
54.5695956224
 30
0.0
 10
46.5122635014
 20
54.5835729284
 30
0.0
  0
SPLINE
  5
454
100
AcDbEntity
  8
0
100
AcDbSpline
 62
7
  6
CONTINUOUS
 70
0
 71
3
 72
17
 73
13
 74
0
 42
0.0000001
 43
0.0000001
 44
0.0000000001
 40
0.0
 40
0.0
 40
0.0
 40
0.0
 40
0.007567251
 40
0.0208362316
 40
0.0405400936
 40
0.0670817695
 40
0.1419482799
 40
0.247702475
 40
0.3861084574
 40
0.5580741572
 40
0.7633664723
 40
1.0
 40
1.0
 40
1.0
 40
1.0
 10
40.5589833343
 20
63.9612873392
 30
0.0
 10
40.558662146
 20
63.961472925
 30
0.0
 10
40.5575746441
 20
63.9615003854
 30
0.0
 10
40.555647078
 20
63.9611648764
 30
0.0
 10
40.5528183242
 20
63.9603750586
 30
0.0
 10
40.5472060294
 20
63.9584633649
 30
0.0
 10
40.5377712506
 20
63.9546740921
 30
0.0
 10
40.5234373583
 20
63.9484289285
 30
0.0
 10
40.5048839806
 20
63.9399446981
 30
0.0
 10
40.4820067212
 20
63.9291934532
 30
0.0
 10
40.4548519955
 20
63.9162224756
 30
0.0
 10
40.4353343489
 20
63.906822349
 30
0.0
 10
40.4248853567
 20
63.9017848975
 30
0.0
  0
SPLINE
  5
455
100
AcDbEntity
  8
0
100
AcDbSpline
 62
7
  6
CONTINUOUS
 70
0
 71
3
 72
17
 73
13
 74
0
 42
0.0000001
 43
0.0000001
 44
0.0000000001
 40
0.0
 40
0.0
 40
0.0
 40
0.0
 40
0.007603999
 40
0.0209028912
 40
0.0406301294
 40
0.0671880732
 40
0.1420620904
 40
0.2477828013
 40
0.3861181178
 40
0.5580018953
 40
0.7632599537
 40
1.0
 40
1.0
 40
1.0
 40
1.0
 10
46.1576815605
 20
60.7286691755
 30
0.0
 10
46.1573634064
 20
60.7288530283
 30
0.0
 10
46.1562885513
 20
60.7288832261
 30
0.0
 10
46.1543830457
 20
60.7285548999
 30
0.0
 10
46.1515903156
 20
60.7277795224
 30
0.0
 10
46.1460533115
 20
60.7259004489
 30
0.0
 10
46.1367499805
 20
60.7221728732
 30
0.0
 10
46.1226201979
 20
60.7160268895
 30
0.0
 10
46.1043347839
 20
60.707675254
 30
0.0
 10
46.0817871652
 20
60.6970880975
 30
0.0
 10
46.0550157904
 20
60.6843075591
 30
0.0
 10
46.0357712365
 20
60.6750416237
 30
0.0
 10
46.0254657762
 20
60.6700740782
 30
0.0
  0
SPLINE
  5
456
100
AcDbEntity
  8
RACCORDO
100
AcDbSpline
 62
7
  6
CONTINUOUS
 70
0
 71
3
 72
11
 73
7
 74
0
 42
0.0000001
 43
0.0000001
 44
0.0000000001
 40
0.0
 40
0.0
 40
0.0
 40
0.0
 40
0.2657077226
 40
0.5211364397
 40
0.7649553594
 40
1.0
 40
1.0
 40
1.0
 40
1.0
 10
84.2990668597
 20
40.4370208346
 30
0.0
 10
84.2990670387
 20
40.4240030822
 30
0.0
 10
84.2972149287
 20
40.3984050589
 30
0.0
 10
84.2874509648
 20
40.3619236225
 30
0.0
 10
84.2695806298
 20
40.3301447999
 30
0.0
 10
84.2516012348
 20
40.3141681879
 30
0.0
 10
84.2417168563
 20
40.3082601065
 30
0.0
  0
SPLINE
  5
457
100
AcDbEntity
  8
RACCORDO
100
AcDbSpline
 62
7
  6
CONTINUOUS
 70
0
 71
3
 72
11
 73
7
 74
0
 42
0.0000001
 43
0.0000001
 44
0.0000000001
 40
0.0
 40
0.0
 40
0.0
 40
0.0
 40
0.2657075367
 40
0.5211354173
 40
0.7649537446
 40
1.0
 40
1.0
 40
1.0
 40
1.0
 10
83.949534389
 20
8.2203348641
 30
0.0
 10
83.9382603657
 20
8.2268445508
 30
0.0
 10
83.9151648497
 20
8.238040726
 30
0.0
 10
83.8786872333
 20
8.2478265393
 30
0.0
 10
83.8422287543
 20
8.2482394515
 30
0.0
 10
83.8194018709
 20
8.2406557167
 30
0.0
 10
83.8093428431
 20
8.2350487375
 30
0.0
  0
SPLINE
  5
458
100
AcDbEntity
  8
0
100
AcDbSpline
 62
7
  6
CONTINUOUS
 70
0
 71
3
 72
13
 73
9
 74
0
 42
0.0000001
 43
0.0000001
 44
0.0000000001
 40
0.0
 40
0.0
 40
0.0
 40
0.0
 40
0.2890784079
 40
0.5478536929
 40
0.6673388375
 40
0.7814598431
 40
0.8917359054
 40
1.0
 40
1.0
 40
1.0
 40
1.0
 10
80.7050076169
 20
43.7756239578
 30
0.0
 10
80.7485862655
 20
43.8004929779
 30
0.0
 10
80.8351646355
 20
43.8412101999
 30
0.0
 10
80.9490429508
 20
43.8680984855
 30
0.0
 10
81.0347219745
 20
43.8707700488
 30
0.0
 10
81.0942553939
 20
43.8639566374
 30
0.0
 10
81.1501114343
 20
43.8483988319
 30
0.0
 10
81.1846456454
 20
43.8321989693
 30
0.0
 10
81.2009191554
 20
43.8228027021
 30
0.0
  0
SPLINE
  5
459
100
AcDbEntity
  8
0
100
AcDbSpline
 62
7
  6
CONTINUOUS
 70
0
 71
3
 72
13
 73
9
 74
0
 42
0.0000001
 43
0.0000001
 44
0.0000000001
 40
0.0
 40
0.0
 40
0.0
 40
0.0
 40
0.2894020154
 40
0.5482945226
 40
0.6677443876
 40
0.7817700891
 40
0.891903965
 40
1.0
 40
1.0
 40
1.0
 40
1.0
 10
77.1653599537
 20
45.8147144197
 30
0.0
 10
77.1653599537
 20
45.8653943905
 30
0.0
 10
77.1577294849
 20
45.9617007453
 30
0.0
 10
77.1242624282
 20
46.0749949774
 30
0.0
 10
77.0836536366
 20
46.1513545641
 30
0.0
 10
77.0478352829
 20
46.200002543
 30
0.0
 10
77.0061902773
 20
46.2409901437
 30
0.0
 10
76.974671773
 20
46.2629848257
 30
0.0
 10
76.9582784683
 20
46.272450262
 30
0.0
  0
SPLINE
  5
45A
100
AcDbEntity
  8
0
100
AcDbSpline
 62
7
  6
CONTINUOUS
 70
0
 71
3
 72
13
 73
9
 74
0
 42
0.0000001
 43
0.0000001
 44
0.0000000001
 40
0.0
 40
0.0
 40
0.0
 40
0.0
 40
0.0959122497
 40
0.1993013647
 40
0.3116655442
 40
0.4335022555
 40
0.7032967728
 40
1.0
 40
1.0
 40
1.0
 40
1.0
 10
77.8144853478
 20
41.3894273462
 30
0.0
 10
77.824154469
 20
41.4008542333
 30
0.0
 10
77.8414226689
 20
41.4270833921
 30
0.0
 10
77.8594616964
 20
41.4725401812
 30
0.0
 10
77.8702714384
 20
41.5243374917
 30
0.0
 10
77.8749808055
 20
41.6030784862
 30
0.0
 10
77.8608584342
 20
41.7105377712
 30
0.0
 10
77.8327047834
 20
41.7948728834
 30
0.0
 10
77.8144853478
 20
41.8374438087
 30
0.0
  0
SPLINE
  5
45B
100
AcDbEntity
  8
0
100
AcDbSpline
 62
7
  6
CONTINUOUS
 70
0
 71
3
 72
11
 73
7
 74
0
 42
0.0000001
 43
0.0000001
 44
0.0000000001
 40
0.0
 40
0.0
 40
0.0
 40
0.0
 40
0.2187450938
 40
0.4523364779
 40
0.7112123903
 40
1.0
 40
1.0
 40
1.0
 40
1.0
 10
84.7835531016
 20
40.9405167152
 30
0.0
 10
84.7835535945
 20
40.9219011464
 30
0.0
 10
84.7768593524
 20
40.8831545351
 30
0.0
 10
84.7481037453
 20
40.8289854378
 30
0.0
 10
84.7025560626
 20
40.7797579081
 30
0.0
 10
84.6643167622
 20
40.7525821145
 30
0.0
 10
84.6432232598
 20
40.7399702625
 30
0.0
  0
SPLINE
  5
45C
100
AcDbEntity
  8
0
100
AcDbSpline
 62
7
  6
CONTINUOUS
 70
0
 71
3
 72
11
 73
7
 74
0
 42
0.0000001
 43
0.0000001
 44
0.0000000001
 40
0.0
 40
0.0
 40
0.0
 40
0.0
 40
0.2897966402
 40
0.549041524
 40
0.7822231295
 40
1.0
 40
1.0
 40
1.0
 40
1.0
 10
84.6371067502
 20
7.0161935078
 30
0.0
 10
84.6590540064
 20
7.0035214371
 30
0.0
 10
84.6988646881
 20
6.9761158266
 30
0.0
 10
84.746419775
 20
6.9261021195
 30
0.0
 10
84.7765238318
 20
6.8708069375
 30
0.0
 10
84.7835525973
 20
6.8311038833
 30
0.0
 10
84.7835531016
 20
6.8120591453
 30
0.0
  0
SPLINE
  5
45D
100
AcDbEntity
  8
0
100
AcDbSpline
 62
7
  6
CONTINUOUS
 70
0
 71
3
 72
12
 73
8
 74
0
 42
0.0000001
 43
0.0000001
 44
0.0000000001
 40
0.0
 40
0.0
 40
0.0
 40
0.0
 40
0.1152207377
 40
0.2326137681
 40
0.4758702517
 40
0.7322627461
 40
1.0
 40
1.0
 40
1.0
 40
1.0
 10
77.1944379784
 20
42.6715060444
 30
0.0
 10
77.2055885867
 20
42.6768817446
 30
0.0
 10
77.2291234656
 20
42.6857288721
 30
0.0
 10
77.2795150687
 20
42.6954662492
 30
0.0
 10
77.346680948
 20
42.6926766311
 30
0.0
 10
77.4264662517
 20
42.6699699821
 30
0.0
 10
77.4772979911
 20
42.6451155412
 30
0.0
 10
77.502208164
 20
42.6307323317
 30
0.0
  0
SPLINE
  5
45E
100
AcDbEntity
  8
0
100
AcDbSpline
 62
7
  6
CONTINUOUS
 70
0
 71
3
 72
12
 73
8
 74
0
 42
0.0000001
 43
0.0000001
 44
0.0000000001
 40
0.0
 40
0.0
 40
0.0
 40
0.0
 40
0.115237784
 40
0.2326772605
 40
0.4760213086
 40
0.7323914754
 40
1.0
 40
1.0
 40
1.0
 40
1.0
 10
71.5976329798
 20
45.9050252293
 30
0.0
 10
71.6087663379
 20
45.9102553994
 30
0.0
 10
71.6322332384
 20
45.9188298443
 30
0.0
 10
71.6823808679
 20
45.928135609
 30
0.0
 10
71.7490902125
 20
45.9250565735
 30
0.0
 10
71.8282988471
 20
45.9023427147
 30
0.0
 10
71.8787725777
 20
45.8776340266
 30
0.0
 10
71.9035099684
 20
45.8633505257
 30
0.0
  0
SPLINE
  5
45F
100
AcDbEntity
  8
0
100
AcDbSpline
 62
7
  6
CONTINUOUS
 70
0
 71
3
 72
11
 73
7
 74
0
 42
0.0000001
 43
0.0000001
 44
0.0000000001
 40
0.0
 40
0.0
 40
0.0
 40
0.0
 40
0.2370395907
 40
0.4996275295
 40
0.7624180741
 40
1.0
 40
1.0
 40
1.0
 40
1.0
 10
67.9729717983
 20
42.9257849287
 30
0.0
 10
67.9729717983
 20
42.9488748366
 30
0.0
 10
67.981601123
 20
42.99757518
 30
0.0
 10
68.0117086579
 20
43.0660631785
 30
0.0
 10
68.0558014105
 20
43.1265680833
 30
0.0
 10
68.0935869113
 20
43.1585836335
 30
0.0
 10
68.1135704031
 20
43.1702560929
 30
0.0
  0
SPLINE
  5
460
100
AcDbEntity
  8
0
100
AcDbSpline
 62
7
  6
CONTINUOUS
 70
0
 71
3
 72
11
 73
7
 74
0
 42
0.0000001
 43
0.0000001
 44
0.0000000001
 40
0.0
 40
0.0
 40
0.0
 40
0.0
 40
0.2177561432
 40
0.4511317864
 40
0.7104415648
 40
1.0
 40
1.0
 40
1.0
 40
1.0
 10
78.5842256145
 20
-0.3905535806
 30
0.0
 10
78.6004631238
 20
-0.3809028991
 30
0.0
 10
78.6307919201
 20
-0.3548397496
 30
0.0
 10
78.6630100577
 20
-0.3013468564
 30
0.0
 10
78.6821857646
 20
-0.2356453462
 30
0.0
 10
78.6859480746
 20
-0.1878737285
 30
0.0
 10
78.6859480746
 20
-0.1627563923
 30
0.0
  0
SPLINE
  5
461
100
AcDbEntity
  8
0
100
AcDbSpline
 62
7
  6
CONTINUOUS
 70
0
 71
3
 72
11
 73
7
 74
0
 42
0.0000001
 43
0.0000001
 44
0.0000000001
 40
0.0
 40
0.0
 40
0.0
 40
0.0
 40
0.2372220479
 40
0.5000061069
 40
0.7627868417
 40
1.0
 40
1.0
 40
1.0
 40
1.0
 10
77.8017590484
 20
38.2319979303
 30
0.0
 10
77.8268535837
 20
38.2175086601
 30
0.0
 10
77.8743467968
 20
38.177537594
 30
0.0
 10
77.9297795755
 20
38.1017876749
 30
0.0
 10
77.9676642349
 20
38.0159075787
 30
0.0
 10
77.9785327521
 20
37.9547929487
 30
0.0
 10
77.9785327521
 20
37.9258168944
 30
0.0
  0
SPLINE
  5
462
100
AcDbEntity
  8
0
100
AcDbSpline
 62
7
  6
CONTINUOUS
 70
0
 71
3
 72
11
 73
7
 74
0
 42
0.0000001
 43
0.0000001
 44
0.0000000001
 40
0.0
 40
0.0
 40
0.0
 40
0.0
 40
0.2372220479
 40
0.5000061069
 40
0.7627868417
 40
1.0
 40
1.0
 40
1.0
 40
1.0
 10
65.4981010557
 20
45.3359758542
 30
0.0
 10
65.523195591
 20
45.321486584
 30
0.0
 10
65.5706888042
 20
45.2815155179
 30
0.0
 10
65.6261215828
 20
45.2057655988
 30
0.0
 10
65.6640062423
 20
45.1198855026
 30
0.0
 10
65.6748747594
 20
45.0587708726
 30
0.0
 10
65.6748747594
 20
45.0297948183
 30
0.0
  0
SPLINE
  5
463
100
AcDbEntity
  8
0
100
AcDbSpline
 62
7
  6
CONTINUOUS
 70
0
 71
3
 72
11
 73
7
 74
0
 42
0.0000001
 43
0.0000001
 44
0.0000000001
 40
0.0
 40
0.0
 40
0.0
 40
0.0
 40
0.2897140976
 40
0.548985444
 40
0.7822403842
 40
1.0
 40
1.0
 40
1.0
 40
1.0
 10
71.6499270605
 20
41.3757534812
 30
0.0
 10
71.6411783636
 20
41.3808048691
 30
0.0
 10
71.6237831259
 20
41.3890926617
 30
0.0
 10
71.5970413045
 20
41.3955761771
 30
0.0
 10
71.5719446595
 20
41.3950133178
 30
0.0
 10
71.5568101625
 20
41.3895925695
 30
0.0
 10
71.5502151997
 20
41.3858290812
 30
0.0
  0
SPLINE
  5
464
100
AcDbEntity
  8
0
100
AcDbSpline
 62
7
  6
CONTINUOUS
 70
0
 71
3
 72
11
 73
7
 74
0
 42
0.0000001
 43
0.0000001
 44
0.0000000001
 40
0.0
 40
0.0
 40
0.0
 40
0.0
 40
0.2372227548
 40
0.5000068451
 40
0.762786882
 40
1.0
 40
1.0
 40
1.0
 40
1.0
 10
69.9528707856
 20
42.3556125051
 30
0.0
 10
69.972946977
 20
42.3440207639
 30
0.0
 10
70.0109423979
 20
42.3120427939
 30
0.0
 10
70.0552891044
 20
42.2514409008
 30
0.0
 10
70.0855972627
 20
42.1827350561
 30
0.0
 10
70.0942921418
 20
42.1338421883
 30
0.0
 10
70.0942921418
 20
42.1106607676
 30
0.0
  0
SPLINE
  5
465
100
AcDbEntity
  8
RACCORDO
100
AcDbSpline
 62
7
  6
CONTINUOUS
 70
0
 71
3
 72
11
 73
7
 74
0
 42
0.0000001
 43
0.0000001
 44
0.0000000001
 40
0.0
 40
0.0
 40
0.0
 40
0.0
 40
0.2182628095
 40
0.4516498907
 40
0.7107022848
 40
1.0
 40
1.0
 40
1.0
 40
1.0
 10
84.2990667625
 20
7.1635392737
 30
0.0
 10
84.2990664286
 20
7.1560072914
 30
0.0
 10
84.2963218756
 20
7.1403178049
 30
0.0
 10
84.2845508916
 20
7.1184255265
 30
0.0
 10
84.2659330529
 20
7.0985761902
 30
0.0
 10
84.2503243753
 20
7.0876593489
 30
0.0
 10
84.2417168563
 20
7.0826019688
 30
0.0
  0
SPLINE
  5
466
100
AcDbEntity
  8
0
100
AcDbSpline
 62
7
  6
CONTINUOUS
 70
0
 71
3
 72
11
 73
7
 74
0
 42
0.0000001
 43
0.0000001
 44
0.0000000001
 40
0.0
 40
0.0
 40
0.0
 40
0.0
 40
0.2544090172
 40
0.5109520931
 40
0.7623204071
 40
1.0
 40
1.0
 40
1.0
 40
1.0
 10
77.0884725693
 20
36.6152482824
 30
0.0
 10
77.0710920255
 20
36.5938091372
 30
0.0
 10
77.0316195873
 20
36.5542663935
 30
0.0
 10
76.9621419451
 20
36.5083310708
 30
0.0
 10
76.885898397
 20
36.4792972301
 30
0.0
 10
76.8320180831
 20
36.474283238
 30
0.0
 10
76.8063422922
 20
36.4766474299
 30
0.0
  0
SPLINE
  5
467
100
AcDbEntity
  8
0
100
AcDbSpline
 62
7
  6
CONTINUOUS
 70
0
 71
3
 72
11
 73
7
 74
0
 42
0.0000001
 43
0.0000001
 44
0.0000000001
 40
0.0
 40
0.0
 40
0.0
 40
0.0
 40
0.4864503926
 40
0.6153218492
 40
0.7444787001
 40
1.0
 40
1.0
 40
1.0
 40
1.0
 10
64.5026843259
 20
43.5806254325
 30
0.0
 10
64.5550056291
 20
43.575810324
 30
0.0
 10
64.6238449639
 20
43.5946503703
 30
0.0
 10
64.6930447064
 20
43.6351785265
 30
0.0
 10
64.7378329027
 20
43.6681245776
 30
0.0
 10
64.7674340039
 20
43.6977870254
 30
0.0
 10
64.7848145767
 20
43.7192262063
 30
0.0
  0
SPLINE
  5
468
100
AcDbEntity
  8
0
100
AcDbSpline
 62
7
  6
CONTINUOUS
 70
0
 71
3
 72
11
 73
7
 74
0
 42
0.0000001
 43
0.0000001
 44
0.0000000001
 40
0.0
 40
0.0
 40
0.0
 40
0.0
 40
0.21809377
 40
0.4531871632
 40
0.7128168828
 40
1.0
 40
1.0
 40
1.0
 40
1.0
 10
63.6852763042
 20
46.3328236205
 30
0.0
 10
63.693374321
 20
46.3362501282
 30
0.0
 10
63.7114212406
 20
46.3407065643
 30
0.0
 10
63.7404317578
 20
46.3396202867
 30
0.0
 10
63.7710623373
 20
46.3312888435
 30
0.0
 10
63.7910115459
 20
46.3216279423
 30
0.0
 10
63.8010387977
 20
46.3158383328
 30
0.0
  0
SPLINE
  5
469
100
AcDbEntity
  8
0
100
AcDbSpline
 62
7
  6
CONTINUOUS
 70
0
 71
3
 72
11
 73
7
 74
0
 42
0.0000001
 43
0.0000001
 44
0.0000000001
 40
0.0
 40
0.0
 40
0.0
 40
0.0
 40
0.21809377
 40
0.4531871632
 40
0.7128168828
 40
1.0
 40
1.0
 40
1.0
 40
1.0
 10
75.9889342968
 20
39.2288456966
 30
0.0
 10
75.9970323136
 20
39.2322722043
 30
0.0
 10
76.0150792333
 20
39.2367286404
 30
0.0
 10
76.0440897504
 20
39.2356423628
 30
0.0
 10
76.07472033
 20
39.2273109195
 30
0.0
 10
76.0946695385
 20
39.2176500184
 30
0.0
 10
76.1046967903
 20
39.2118604089
 30
0.0
  0
SPLINE
  5
46A
100
AcDbEntity
  8
0
100
AcDbSpline
 62
7
  6
CONTINUOUS
 70
0
 71
3
 72
12
 73
8
 74
0
 42
0.0000001
 43
0.0000001
 44
0.0000000001
 40
0.0
 40
0.0
 40
0.0
 40
0.0
 40
0.0952424771
 40
0.2052796023
 40
0.4607371511
 40
0.7405801676
 40
1.0
 40
1.0
 40
1.0
 40
1.0
 10
77.0884725693
 20
-1.3783588364
 30
0.0
 10
77.076631587
 20
-1.3772683059
 30
0.0
 10
77.0512175096
 20
-1.3737365073
 30
0.0
 10
76.9948230226
 20
-1.3622829591
 30
0.0
 10
76.917225397
 20
-1.3401176045
 30
0.0
 10
76.8242440642
 20
-1.3052477243
 30
0.0
 10
76.7634854176
 20
-1.2758176752
 30
0.0
 10
76.7354363813
 20
-1.2596225132
 30
0.0
  0
SPLINE
  5
46B
100
AcDbEntity
  8
0
100
AcDbSpline
 62
7
  6
CONTINUOUS
 70
0
 71
3
 72
13
 73
9
 74
0
 42
0.0000001
 43
0.0000001
 44
0.0000000001
 40
0.0
 40
0.0
 40
0.0
 40
0.0
 40
0.1082640946
 40
0.2185401569
 40
0.3326611625
 40
0.4521463071
 40
0.7109215921
 40
1.0
 40
1.0
 40
1.0
 40
1.0
 10
76.9582784683
 20
46.272450262
 30
0.0
 10
76.9420049582
 20
46.2818465293
 30
0.0
 10
76.9074707472
 20
46.2980463919
 30
0.0
 10
76.8516147068
 20
46.3136041973
 30
0.0
 10
76.7920812874
 20
46.3204176087
 30
0.0
 10
76.7064022637
 20
46.3177460455
 30
0.0
 10
76.5925239484
 20
46.2908577599
 30
0.0
 10
76.5059455784
 20
46.2501405379
 30
0.0
 10
76.4623669298
 20
46.2252715178
 30
0.0
  0
SPLINE
  5
46C
100
AcDbEntity
  8
0
100
AcDbSpline
 62
7
  6
CONTINUOUS
 70
0
 71
3
 72
11
 73
7
 74
0
 42
0.0000001
 43
0.0000001
 44
0.0000000001
 40
0.0
 40
0.0
 40
0.0
 40
0.0
 40
0.2086860782
 40
0.4459813575
 40
0.7114744533
 40
1.0
 40
1.0
 40
1.0
 40
1.0
 10
73.9480240993
 20
39.1769157462
 30
0.0
 10
73.9603149374
 20
39.1991215293
 30
0.0
 10
73.9785106927
 20
39.2511526737
 30
0.0
 10
73.9862910609
 20
39.3379276329
 30
0.0
 10
73.9765506101
 20
39.4341512285
 30
0.0
 10
73.959250338
 20
39.4995607322
 30
0.0
 10
73.9480240993
 20
39.5328068889
 30
0.0
  0
SPLINE
  5
46D
100
AcDbEntity
  8
0
100
AcDbSpline
 62
7
  6
CONTINUOUS
 70
0
 71
3
 72
11
 73
7
 74
0
 42
0.0000001
 43
0.0000001
 44
0.0000000001
 40
0.0
 40
0.0
 40
0.0
 40
0.0
 40
0.2896138258
 40
0.5489044299
 40
0.7822418427
 40
1.0
 40
1.0
 40
1.0
 40
1.0
 10
77.9785327521
 20
-1.6729984387
 30
0.0
 10
77.9785327521
 20
-1.6855800125
 30
0.0
 10
77.9766452097
 20
-1.7095068032
 30
0.0
 10
77.9670211894
 20
-1.7424065637
 30
0.0
 10
77.95085122
 20
-1.7691758129
 30
0.0
 10
77.9356326233
 20
-1.7821951716
 30
0.0
 10
77.9274882115
 20
-1.7870076278
 30
0.0
  0
SPLINE
  5
46E
100
AcDbEntity
  8
0
100
AcDbSpline
 62
7
  6
CONTINUOUS
 70
0
 71
3
 72
11
 73
7
 74
0
 42
0.0000001
 43
0.0000001
 44
0.0000000001
 40
0.0
 40
0.0
 40
0.0
 40
0.0
 40
0.287023422
 40
0.5466784145
 40
0.7818707894
 40
1.0
 40
1.0
 40
1.0
 40
1.0
 10
78.6850224035
 20
-0.1620212534
 30
0.0
 10
78.6850224035
 20
-0.1850971123
 30
0.0
 10
78.6818337785
 20
-0.2291672461
 30
0.0
 10
78.6657871541
 20
-0.2903890664
 30
0.0
 10
78.6389065087
 20
-0.3416639087
 30
0.0
 10
78.6133566826
 20
-0.368524786
 30
0.0
 10
78.5994264212
 20
-0.3791780889
 30
0.0
  0
SPLINE
  5
46F
100
AcDbEntity
  8
0
100
AcDbSpline
 62
7
  6
CONTINUOUS
 70
0
 71
3
 72
15
 73
11
 74
0
 42
0.0000001
 43
0.0000001
 44
0.0000000001
 40
0.0
 40
0.0
 40
0.0
 40
0.0
 40
0.1142015256
 40
0.2374120021
 40
0.3670886967
 40
0.5001188725
 40
0.6331248329
 40
0.7627377421
 40
0.8858682116
 40
1.0
 40
1.0
 40
1.0
 40
1.0
 10
78.3320686548
 20
36.2112162286
 30
0.0
 10
78.3562658204
 20
36.1972450884
 30
0.0
 10
78.4040137279
 20
36.1636751322
 30
0.0
 10
78.4697307419
 20
36.1021183711
 30
0.0
 10
78.530261974
 20
36.0293545163
 30
0.0
 10
78.5833407214
 20
35.9481407637
 30
0.0
 10
78.6269912104
 20
35.8615108018
 30
0.0
 10
78.6595878701
 20
35.7726971036
 30
0.0
 10
78.6799251287
 20
35.6850306003
 30
0.0
 10
78.6850224035
 20
35.6269270364
 30
0.0
 10
78.6850224035
 20
35.5990031684
 30
0.0
  0
SPLINE
  5
470
100
AcDbEntity
  8
0
100
AcDbSpline
 62
7
  6
CONTINUOUS
 70
0
 71
3
 72
15
 73
11
 74
0
 42
0.0000001
 43
0.0000001
 44
0.0000000001
 40
0.0
 40
0.0
 40
0.0
 40
0.0
 40
0.1141636437
 40
0.2373487354
 40
0.3670149004
 40
0.5000529654
 40
0.6330834976
 40
0.7627278003
 40
0.8858793909
 40
1.0
 40
1.0
 40
1.0
 40
1.0
 10
78.6859480746
 20
35.5986693655
 30
0.0
 10
78.6859480746
 20
35.6266331677
 30
0.0
 10
78.6808229591
 20
35.6848248832
 30
0.0
 10
78.6603924926
 20
35.7726121307
 30
0.0
 10
78.627665366
 20
35.8615312814
 30
0.0
 10
78.5838652333
 20
35.9482342867
 30
0.0
 10
78.5306364865
 20
36.0294849748
 30
0.0
 10
78.469959361
 20
36.1022363585
 30
0.0
 10
78.4041358334
 20
36.1637795644
 30
0.0
 10
78.3562764991
 20
36.1972389227
 30
0.0
 10
78.3320686548
 20
36.2112162286
 30
0.0
  0
SPLINE
  5
471
100
AcDbEntity
  8
0
100
AcDbSpline
 62
7
  6
CONTINUOUS
 70
0
 71
3
 72
11
 73
7
 74
0
 42
0.0000001
 43
0.0000001
 44
0.0000000001
 40
0.0
 40
0.0
 40
0.0
 40
0.0
 40
0.2187450938
 40
0.4523364779
 40
0.7112123903
 40
1.0
 40
1.0
 40
1.0
 40
1.0
 10
84.7835531016
 20
6.8120591453
 30
0.0
 10
84.7835535945
 20
6.7934435765
 30
0.0
 10
84.7768593524
 20
6.7546969652
 30
0.0
 10
84.7481037453
 20
6.7005278679
 30
0.0
 10
84.7025560626
 20
6.6513003381
 30
0.0
 10
84.6643167622
 20
6.6241245446
 30
0.0
 10
84.6432232598
 20
6.6115126926
 30
0.0
  0
SPLINE
  5
472
100
AcDbEntity
  8
RACCORDO
100
AcDbSpline
 62
250
  6
CONTINUOUS
 70
0
 71
3
 72
17
 73
13
 74
0
 42
0.0000001
 43
0.0000001
 44
0.0000000001
 40
0.0
 40
0.0
 40
0.0
 40
0.0
 40
0.1278170924
 40
0.2641024671
 40
0.4042579972
 40
0.5429013697
 40
0.674673577
 40
0.7952862877
 40
0.8508224374
 40
0.9031567717
 40
0.9526633253
 40
1.0
 40
1.0
 40
1.0
 40
1.0
 10
82.4084963284
 20
9.6801989129
 30
0.0
 10
82.4125984504
 20
9.7170368794
 30
0.0
 10
82.4124590553
 20
9.7942410739
 30
0.0
 10
82.390656147
 20
9.90998766
 30
0.0
 10
82.348547843
 20
10.0233675735
 30
0.0
 10
82.2886031989
 20
10.1269437132
 30
0.0
 10
82.2145912284
 20
10.213725545
 30
0.0
 10
82.1429393292
 20
10.2685907978
 30
0.0
 10
82.0831258235
 20
10.2975639692
 30
0.0
 10
82.039361854
 20
10.3111828606
 30
0.0
 10
81.9962807524
 20
10.3169996849
 30
0.0
 10
81.968028342
 20
10.3155394338
 30
0.0
 10
81.9544602296
 20
10.3134558969
 30
0.0
  0
SPLINE
  5
473
100
AcDbEntity
  8
RACCORDO
100
AcDbSpline
 62
250
  6
CONTINUOUS
 70
0
 71
3
 72
11
 73
7
 74
0
 42
0.0000001
 43
0.0000001
 44
0.0000000001
 40
0.0
 40
0.0
 40
0.0
 40
0.0
 40
0.2887738521
 40
0.5476578243
 40
0.7812554424
 40
1.0
 40
1.0
 40
1.0
 40
1.0
 10
82.4084965285
 20
9.6801988013
 30
0.0
 10
82.4169310038
 20
9.6852417931
 30
0.0
 10
82.4322221505
 20
9.6961083489
 30
0.0
 10
82.4504379778
 20
9.7157911359
 30
0.0
 10
82.461942142
 20
9.7374496988
 30
0.0
 10
82.4646249217
 20
9.7529424912
 30
0.0
 10
82.46462854
 20
9.7603864724
 30
0.0
  0
SPLINE
  5
474
100
AcDbEntity
  8
0
100
AcDbSpline
 62
7
  6
CONTINUOUS
 70
0
 71
3
 72
17
 73
13
 74
0
 42
0.0000001
 43
0.0000001
 44
0.0000000001
 40
0.0
 40
0.0
 40
0.0
 40
0.0
 40
0.007567251
 40
0.0208362316
 40
0.0405400936
 40
0.0670817695
 40
0.1419482799
 40
0.247702475
 40
0.3861084574
 40
0.5580741572
 40
0.7633664723
 40
1.0
 40
1.0
 40
1.0
 40
1.0
 10
72.3787884877
 20
45.5889306395
 30
0.0
 10
72.3784672994
 20
45.5891162252
 30
0.0
 10
72.3773797975
 20
45.5891436856
 30
0.0
 10
72.3754522314
 20
45.5888081767
 30
0.0
 10
72.3726234776
 20
45.5880183589
 30
0.0
 10
72.3670111828
 20
45.5861066651
 30
0.0
 10
72.357576404
 20
45.5823173924
 30
0.0
 10
72.3432425117
 20
45.5760722287
 30
0.0
 10
72.324689134
 20
45.5675879983
 30
0.0
 10
72.3018118746
 20
45.5568367534
 30
0.0
 10
72.2746571488
 20
45.5438657759
 30
0.0
 10
72.2551395023
 20
45.5344656493
 30
0.0
 10
72.2446905101
 20
45.5294281977
 30
0.0
  0
SPLINE
  5
475
100
AcDbEntity
  8
0
100
AcDbSpline
 62
7
  6
CONTINUOUS
 70
0
 71
3
 72
17
 73
13
 74
0
 42
0.0000001
 43
0.0000001
 44
0.0000000001
 40
0.0
 40
0.0
 40
0.0
 40
0.0
 40
0.007603999
 40
0.0209028912
 40
0.0406301294
 40
0.0671880732
 40
0.1420620904
 40
0.2477828013
 40
0.3861181178
 40
0.5580018953
 40
0.7632599537
 40
1.0
 40
1.0
 40
1.0
 40
1.0
 10
77.9774867139
 20
42.3563124757
 30
0.0
 10
77.9771685598
 20
42.3564963286
 30
0.0
 10
77.9760937047
 20
42.3565265264
 30
0.0
 10
77.9741881991
 20
42.3561982002
 30
0.0
 10
77.971395469
 20
42.3554228226
 30
0.0
 10
77.9658584649
 20
42.3535437492
 30
0.0
 10
77.9565551339
 20
42.3498161735
 30
0.0
 10
77.9424253513
 20
42.3436701897
 30
0.0
 10
77.9241399373
 20
42.3353185543
 30
0.0
 10
77.9015923186
 20
42.3247313977
 30
0.0
 10
77.8748209438
 20
42.3119508594
 30
0.0
 10
77.8555763899
 20
42.3026849239
 30
0.0
 10
77.8452709296
 20
42.2977173784
 30
0.0
  0
SPLINE
  5
476
100
AcDbEntity
  8
DRAFT
100
AcDbSpline
 62
7
  6
CONTINUOUS
 70
0
 71
3
 72
17
 73
13
 74
0
 42
0.0000001
 43
0.0000001
 44
0.0000000001
 40
0.0
 40
0.0
 40
0.0
 40
0.0
 40
0.042089175
 40
0.0858221811
 40
0.1327923155
 40
0.1840707906
 40
0.3007360978
 40
0.4348438704
 40
0.5802973289
 40
0.7287417688
 40
0.8712388546
 40
1.0
 40
1.0
 40
1.0
 40
1.0
 10
47.1787532746
 20
19.9687253709
 30
0.0
 10
47.2017043972
 20
19.9839544135
 30
0.0
 10
47.2529752364
 20
20.0087479728
 30
0.0
 10
47.3391267475
 20
20.0253214079
 30
0.0
 10
47.4326795091
 20
20.0217191831
 30
0.0
 10
47.5702018978
 20
19.9890311789
 30
0.0
 10
47.747946056
 20
19.896262062
 30
0.0
 10
47.9461658128
 20
19.7267825959
 30
0.0
 10
48.1236540838
 20
19.5082708986
 30
0.0
 10
48.2653696279
 20
19.2587938603
 30
0.0
 10
48.3596451683
 20
18.9994752868
 30
0.0
 10
48.3875093659
 20
18.8223528209
 30
0.0
 10
48.3893567241
 20
18.7381088744
 30
0.0
  0
SPLINE
  5
477
100
AcDbEntity
  8
DRAFT
100
AcDbSpline
 62
7
  6
CONTINUOUS
 70
0
 71
3
 72
11
 73
7
 74
0
 42
0.0000001
 43
0.0000001
 44
0.0000000001
 40
0.0
 40
0.0
 40
0.0
 40
0.0
 40
0.2935282993
 40
0.5527230288
 40
0.7834915868
 40
1.0
 40
1.0
 40
1.0
 40
1.0
 10
48.4503586942
 20
16.323956049
 30
0.0
 10
48.4518104658
 20
16.2732332204
 30
0.0
 10
48.4466732321
 20
16.177125412
 30
0.0
 10
48.4096126398
 20
16.0453845568
 30
0.0
 10
48.3433754831
 20
15.9403028151
 30
0.0
 10
48.280059278
 20
15.8923676445
 30
0.0
 10
48.2465153124
 20
15.8757628693
 30
0.0
  0
SPLINE
  5
478
100
AcDbEntity
  8
DRAFT
100
AcDbSpline
 62
7
  6
CONTINUOUS
 70
0
 71
3
 72
11
 73
7
 74
0
 42
0.0000001
 43
0.0000001
 44
0.0000000001
 40
0.0
 40
0.0
 40
0.0
 40
0.0
 40
0.2857237534
 40
0.5437781603
 40
0.7789221302
 40
1.0
 40
1.0
 40
1.0
 40
1.0
 10
47.005313355
 20
19.5968242767
 30
0.0
 10
47.0072290119
 20
19.6372410239
 30
0.0
 10
47.0165926117
 20
19.7141212952
 30
0.0
 10
47.05089466
 20
19.8198214815
 30
0.0
 10
47.1041842341
 20
19.9070465369
 30
0.0
 10
47.1526663538
 20
19.9514155934
 30
0.0
 10
47.1787532746
 20
19.9687253709
 30
0.0
  0
SPLINE
  5
479
100
AcDbEntity
  8
RACCORDO
100
AcDbSpline
 62
250
  6
CONTINUOUS
 70
0
 71
3
 72
9
 73
5
 74
0
 42
0.0000001
 43
0.0000001
 44
0.0000000001
 40
0.0
 40
0.0
 40
0.0
 40
0.0
 40
0.2539991387
 40
1.0
 40
1.0
 40
1.0
 40
1.0
 10
25.0117630096
 20
57.9544836459
 30
0.0
 10
24.9121162984
 20
55.0928628789
 30
0.0
 10
24.6152974065
 20
43.8235658105
 30
0.0
 10
24.7063607629
 20
32.543365828
 30
0.0
 10
25.0117630128
 20
24.139178114
 30
0.0
  0
SPLINE
  5
47A
100
AcDbEntity
  8
RACCORDO
100
AcDbSpline
 62
250
  6
CONTINUOUS
 70
0
 71
3
 72
9
 73
5
 74
0
 42
0.0000001
 43
0.0000001
 44
0.0000000001
 40
0.0
 40
0.0
 40
0.0
 40
0.0
 40
0.2507591857
 40
1.0
 40
1.0
 40
1.0
 40
1.0
 10
66.8308511014
 20
33.6960289112
 30
0.0
 10
65.4097943636
 20
34.4859280877
 30
0.0
 10
59.7484820235
 20
37.6462112866
 30
0.0
 10
54.1101223118
 20
40.8476184355
 30
0.0
 10
49.8991164753
 20
43.2695671859
 30
0.0
  0
SPLINE
  5
47B
100
AcDbEntity
  8
RACCORDO
100
AcDbSpline
 62
250
  6
CONTINUOUS
 70
0
 71
3
 72
9
 73
5
 74
0
 42
0.0000001
 43
0.0000001
 44
0.0000000001
 40
0.0
 40
0.0
 40
0.0
 40
0.0
 40
0.2511614275
 40
1.0
 40
1.0
 40
1.0
 40
1.0
 10
49.8853771584
 20
43.2774694276
 30
0.0
 10
47.7893818566
 20
44.4830091689
 30
0.0
 10
39.4574364838
 20
49.305894058
 30
0.0
 10
31.178976133
 20
54.2212104936
 30
0.0
 10
25.0117630096
 20
57.9544836459
 30
0.0
  0
SPLINE
  5
47C
100
AcDbEntity
  8
RACCORDO
100
AcDbSpline
 62
250
  6
CONTINUOUS
 70
0
 71
3
 72
9
 73
5
 74
0
 42
0.0000001
 43
0.0000001
 44
0.0000000001
 40
0.0
 40
0.0
 40
0.0
 40
0.0
 40
0.2461612843
 40
1.0
 40
1.0
 40
1.0
 40
1.0
 10
71.5012371667
 20
-2.703261613
 30
0.0
 10
71.3966701343
 20
0.0697988648
 30
0.0
 10
71.0807924563
 20
11.3389470983
 30
0.0
 10
71.1938828486
 20
22.6194110935
 30
0.0
 10
71.5012371633
 20
31.1120439187
 30
0.0
  0
SPLINE
  5
47D
100
AcDbEntity
  8
RACCORDO
100
AcDbSpline
 62
250
  6
CONTINUOUS
 70
0
 71
3
 72
9
 73
5
 74
0
 42
0.0000001
 43
0.0000001
 44
0.0000000001
 40
0.0
 40
0.0
 40
0.0
 40
0.0
 40
0.2477846016
 40
1.0
 40
1.0
 40
1.0
 40
1.0
 10
25.0117630128
 20
24.139178114
 30
0.0
 10
28.8068870234
 20
21.846196095
 30
0.0
 10
44.1696533115
 20
12.6694740926
 30
0.0
 10
59.715707965
 20
3.7999559234
 30
0.0
 10
71.5012371667
 20
-2.703261613
 30
0.0
  0
SPLINE
  5
47E
100
AcDbEntity
  8
RACCORDO
100
AcDbSpline
 62
250
  6
CONTINUOUS
 70
0
 71
3
 72
9
 73
5
 74
0
 42
0.0000001
 43
0.0000001
 44
0.0000000001
 40
0.0
 40
0.0
 40
0.0
 40
0.0
 40
0.2507741649
 40
1.0
 40
1.0
 40
1.0
 40
1.0
 10
68.8593624074
 20
34.4146755961
 30
0.0
 10
67.364440032
 20
35.2424724173
 30
0.0
 10
61.4096932204
 20
38.5551304039
 30
0.0
 10
55.4810417712
 20
41.9147054869
 30
0.0
 10
51.0545195623
 20
44.4583964694
 30
0.0
  0
SPLINE
  5
47F
100
AcDbEntity
  8
RACCORDO
100
AcDbSpline
 62
250
  6
CONTINUOUS
 70
0
 71
3
 72
9
 73
5
 74
0
 42
0.0000001
 43
0.0000001
 44
0.0000000001
 40
0.0
 40
0.0
 40
0.0
 40
0.0
 40
0.251142408
 40
1.0
 40
1.0
 40
1.0
 40
1.0
 10
51.0545195623
 20
44.4583964694
 30
0.0
 10
48.9268859506
 20
45.6810363154
 30
0.0
 10
40.4691681071
 20
50.5738468901
 30
0.0
 10
32.0683222844
 20
55.5650000464
 30
0.0
 10
25.8113542476
 20
59.3584156002
 30
0.0
  0
SPLINE
  5
480
100
AcDbEntity
  8
RACCORDO
100
AcDbSpline
 62
250
  6
CONTINUOUS
 70
0
 71
3
 72
15
 73
11
 74
0
 42
0.0000001
 43
0.0000001
 44
0.0000000001
 40
0.0
 40
0.0
 40
0.0
 40
0.0
 40
0.1430874618
 40
0.272570397
 40
0.3906052028
 40
0.5018608048
 40
0.6127800031
 40
0.7299171321
 40
0.8581880987
 40
1.0
 40
1.0
 40
1.0
 40
1.0
 10
72.6717306384
 20
-2.9701503681
 30
0.0
 10
72.6420021559
 20
-2.984679786
 30
0.0
 10
72.5829967597
 20
-3.0079724307
 30
0.0
 10
72.4933123992
 20
-3.0237391919
 30
0.0
 10
72.4095424616
 20
-3.0174742231
 30
0.0
 10
72.335020853
 20
-2.9884940418
 30
0.0
 10
72.2735643098
 20
-2.9376428055
 30
0.0
 10
72.2278885086
 20
-2.867776698
 30
0.0
 10
72.1990632874
 20
-2.78219598
 30
0.0
 10
72.1916425195
 20
-2.7197602142
 30
0.0
 10
72.1903925069
 20
-2.6869899489
 30
0.0
  0
SPLINE
  5
481
100
AcDbEntity
  8
RACCORDO
100
AcDbSpline
 62
250
  6
CONTINUOUS
 70
0
 71
3
 72
9
 73
5
 74
0
 42
0.0000001
 43
0.0000001
 44
0.0000000001
 40
0.0
 40
0.0
 40
0.0
 40
0.0
 40
0.2477952366
 40
1.0
 40
1.0
 40
1.0
 40
1.0
 10
72.1903925069
 20
-2.6869899489
 30
0.0
 10
72.1307303443
 20
-1.116056485
 30
0.0
 10
71.9249543411
 20
5.224877229
 30
0.0
 10
71.8579600301
 20
11.5702383325
 30
0.0
 10
71.8821356006
 20
16.342325072
 30
0.0
  0
SPLINE
  5
482
100
AcDbEntity
  8
RACCORDO
100
AcDbSpline
 62
250
  6
CONTINUOUS
 70
0
 71
3
 72
9
 73
5
 74
0
 42
0.0000001
 43
0.0000001
 44
0.0000000001
 40
0.0
 40
0.0
 40
0.0
 40
0.0
 40
0.2487950964
 40
1.0
 40
1.0
 40
1.0
 40
1.0
 10
71.9147405577
 20
19.9639730235
 30
0.0
 10
71.9266719042
 20
20.8872392583
 30
0.0
 10
71.9857055525
 20
24.5980390728
 30
0.0
 10
72.0888088692
 20
28.3081302244
 30
0.0
 10
72.1903925031
 20
31.0941957239
 30
0.0
  0
SPLINE
  5
483
100
AcDbEntity
  8
RACCORDO
100
AcDbSpline
 62
250
  6
CONTINUOUS
 70
0
 71
3
 72
11
 73
7
 74
0
 42
0.0000001
 43
0.0000001
 44
0.0000000001
 40
0.0
 40
0.0
 40
0.0
 40
0.0
 40
0.2374665688
 40
0.4978748465
 40
0.7594103005
 40
1.0
 40
1.0
 40
1.0
 40
1.0
 10
72.1903925031
 20
31.0941957239
 30
0.0
 10
72.1932142143
 20
31.1712616989
 30
0.0
 10
72.2257297294
 20
31.3320560646
 30
0.0
 10
72.3295624759
 20
31.5576760679
 30
0.0
 10
72.4787308795
 20
31.7575230643
 30
0.0
 10
72.6049433203
 20
31.8642791669
 30
0.0
 10
72.6717306302
 20
31.9048259571
 30
0.0
  0
SPLINE
  5
484
100
AcDbEntity
  8
RACCORDO
100
AcDbSpline
 62
250
  6
CONTINUOUS
 70
0
 71
3
 72
11
 73
7
 74
0
 42
0.0000001
 43
0.0000001
 44
0.0000000001
 40
0.0
 40
0.0
 40
0.0
 40
0.0
 40
0.2388554248
 40
0.5003188142
 40
0.7616177592
 40
1.0
 40
1.0
 40
1.0
 40
1.0
 10
25.8113542476
 20
59.3584156002
 30
0.0
 10
25.6998521474
 20
59.2865134974
 30
0.0
 10
25.4898308824
 20
59.0988583469
 30
0.0
 10
25.2426175824
 20
58.7521301817
 30
0.0
 10
25.0705580208
 20
58.3628934563
 30
0.0
 10
25.0164981238
 20
58.0868110327
 30
0.0
 10
25.0117630129
 20
57.9544836536
 30
0.0
  0
SPLINE
  5
485
100
AcDbEntity
  8
RACCORDO
100
AcDbSpline
 62
250
  6
CONTINUOUS
 70
0
 71
3
 72
11
 73
7
 74
0
 42
0.0000001
 43
0.0000001
 44
0.0000000001
 40
0.0
 40
0.0
 40
0.0
 40
0.0
 40
0.2380979276
 40
0.499078852
 40
0.7605494717
 40
1.0
 40
1.0
 40
1.0
 40
1.0
 10
71.5012371667
 20
31.1120439178
 30
0.0
 10
71.5059103543
 20
31.2443106113
 30
0.0
 10
71.5603530016
 20
31.520280345
 30
0.0
 10
71.7342502615
 20
31.9087564559
 30
0.0
 10
71.9842868849
 20
32.2541193999
 30
0.0
 10
72.1964968238
 20
32.4401815739
 30
0.0
 10
72.3090497876
 20
32.5112289382
 30
0.0
  0
SPLINE
  5
486
100
AcDbEntity
  8
RACCORDO
100
AcDbSpline
 62
250
  6
CONTINUOUS
 70
0
 71
3
 72
11
 73
7
 74
0
 42
0.0000001
 43
0.0000001
 44
0.0000000001
 40
0.0
 40
0.0
 40
0.0
 40
0.0
 40
0.2874759976
 40
0.5461883432
 40
0.7804609752
 40
1.0
 40
1.0
 40
1.0
 40
1.0
 10
25.0117630114
 20
24.1391781161
 30
0.0
 10
25.0138366196
 20
24.0835940002
 30
0.0
 10
25.0259625663
 20
23.9779557982
 30
0.0
 10
25.0729839127
 20
23.8331602953
 30
0.0
 10
25.1473865899
 20
23.7151251012
 30
0.0
 10
25.215456455
 20
23.6569827875
 30
0.0
 10
25.2518270179
 20
23.6350384827
 30
0.0
  0
SPLINE
  5
487
100
AcDbEntity
  8
RACCORDO
100
AcDbSpline
 62
250
  6
CONTINUOUS
 70
0
 71
3
 72
11
 73
7
 74
0
 42
0.0000001
 43
0.0000001
 44
0.0000000001
 40
0.0
 40
0.0
 40
0.0
 40
0.0
 40
0.217468894
 40
0.4505942242
 40
0.710373167
 40
1.0
 40
1.0
 40
1.0
 40
1.0
 10
72.5471718254
 20
-3.2099018427
 30
0.0
 10
72.5655768022
 20
-3.2008937979
 30
0.0
 10
72.6005955424
 20
-3.1751671164
 30
0.0
 10
72.6392280776
 20
-3.1193244333
 30
0.0
 10
72.6638777973
 20
-3.0491142216
 30
0.0
 10
72.6704932843
 20
-2.9974126085
 30
0.0
 10
72.6717306384
 20
-2.9701503681
 30
0.0
  0
SPLINE
  5
488
100
AcDbEntity
  8
RACCORDO
100
AcDbSpline
 62
250
  6
CONTINUOUS
 70
0
 71
3
 72
11
 73
7
 74
0
 42
0.0000001
 43
0.0000001
 44
0.0000000001
 40
0.0
 40
0.0
 40
0.0
 40
0.0
 40
0.2835347247
 40
0.5412965844
 40
0.7769405099
 40
1.0
 40
1.0
 40
1.0
 40
1.0
 10
25.0117720116
 20
24.1391834928
 30
0.0
 10
24.9914828059
 20
24.1515005018
 30
0.0
 10
24.9545385482
 20
24.17824575
 30
0.0
 10
24.9102664834
 20
24.2266316675
 30
0.0
 10
24.8816726853
 20
24.2801746454
 30
0.0
 10
24.8741346605
 20
24.3185477441
 30
0.0
 10
24.8734448346
 20
24.3372077216
 30
0.0
  0
SPLINE
  5
489
100
AcDbEntity
  8
RACCORDO
100
AcDbSpline
 62
250
  6
CONTINUOUS
 70
0
 71
3
 72
11
 73
7
 74
0
 42
0.0000001
 43
0.0000001
 44
0.0000000001
 40
0.0
 40
0.0
 40
0.0
 40
0.0
 40
0.2207163881
 40
0.4547839558
 40
0.7128709046
 40
1.0
 40
1.0
 40
1.0
 40
1.0
 10
71.7565869723
 20
-3.2162327598
 30
0.0
 10
71.7181063581
 20
-3.1949492664
 30
0.0
 10
71.6457146472
 20
-3.1373926863
 30
0.0
 10
71.5661870378
 20
-3.01745526
 30
0.0
 10
71.516091276
 20
-2.8690378826
 30
0.0
 10
71.5033440249
 20
-2.7604288821
 30
0.0
 10
71.5012371805
 20
-2.7032616108
 30
0.0
  0
SPLINE
  5
48A
100
AcDbEntity
  8
RACCORDO
100
AcDbSpline
 62
250
  6
CONTINUOUS
 70
0
 71
3
 72
11
 73
7
 74
0
 42
0.0000001
 43
0.0000001
 44
0.0000000001
 40
0.0
 40
0.0
 40
0.0
 40
0.0
 40
0.2932230376
 40
0.5537738168
 40
0.7854096226
 40
1.0
 40
1.0
 40
1.0
 40
1.0
 10
25.0117630108
 20
57.9544836587
 30
0.0
 10
24.9905374116
 20
57.9672657469
 30
0.0
 10
24.952201989
 20
57.994609371
 30
0.0
 10
24.9066884471
 20
58.0437065238
 30
0.0
 10
24.8785316644
 20
58.0973457411
 30
0.0
 10
24.8727999713
 20
58.1355304689
 30
0.0
 10
24.8733955898
 20
58.1536534369
 30
0.0
  0
SPLINE
  5
48B
100
AcDbEntity
  8
RACCORDO
100
AcDbSpline
 62
250
  6
CONTINUOUS
 70
0
 71
3
 72
11
 73
7
 74
0
 42
0.0000001
 43
0.0000001
 44
0.0000000001
 40
0.0
 40
0.0
 40
0.0
 40
0.0
 40
0.2941836708
 40
0.5552669063
 40
0.7865210728
 40
1.0
 40
1.0
 40
1.0
 40
1.0
 10
25.8113542476
 20
59.3584156002
 30
0.0
 10
25.7878723013
 20
59.3712475167
 30
0.0
 10
25.7414784508
 20
59.3920313625
 30
0.0
 10
25.6709358862
 20
59.407371194
 30
0.0
 10
25.6058610865
 20
59.403746601
 30
0.0
 10
25.5676568273
 20
59.3875538263
 30
0.0
 10
25.551514941
 20
59.3767598589
 30
0.0
  0
SPLINE
  5
48C
100
AcDbEntity
  8
RACCORDO
100
AcDbSpline
 62
250
  6
CONTINUOUS
 70
0
 71
3
 72
11
 73
7
 74
0
 42
0.0000001
 43
0.0000001
 44
0.0000000001
 40
0.0
 40
0.0
 40
0.0
 40
0.0
 40
0.237364791
 40
0.5016752657
 40
0.7650806903
 40
1.0
 40
1.0
 40
1.0
 40
1.0
 10
72.3090497876
 20
32.5112289382
 30
0.0
 10
72.3582562352
 20
32.4812142501
 30
0.0
 10
72.4516630498
 20
32.4003622719
 30
0.0
 10
72.5630291215
 20
32.2502415958
 30
0.0
 10
72.6424140413
 20
32.0816809849
 30
0.0
 10
72.6690091466
 20
31.9618053242
 30
0.0
 10
72.6717306302
 20
31.9048259571
 30
0.0
  0
SPLINE
  5
48D
100
AcDbEntity
  8
RACCORDO
100
AcDbSpline
 62
250
  6
CONTINUOUS
 70
0
 71
3
 72
11
 73
7
 74
0
 42
0.0000001
 43
0.0000001
 44
0.0000000001
 40
0.0
 40
0.0
 40
0.0
 40
0.0
 40
0.2392662332
 40
0.5024492821
 40
0.764312149
 40
1.0
 40
1.0
 40
1.0
 40
1.0
 10
71.5012457599
 20
31.1120486997
 30
0.0
 10
71.550851898
 20
31.0845821051
 30
0.0
 10
71.6643608306
 20
31.0435827169
 30
0.0
 10
71.8451874019
 20
31.0205555681
 30
0.0
 10
72.026120943
 20
31.034021749
 30
0.0
 10
72.1404499903
 20
31.0691861852
 30
0.0
 10
72.190392503
 20
31.094195724
 30
0.0
  0
SPLINE
  5
48E
100
AcDbEntity
  8
RACCORDO
100
AcDbSpline
 62
250
  6
CONTINUOUS
 70
0
 71
3
 72
11
 73
7
 74
0
 42
0.0000001
 43
0.0000001
 44
0.0000000001
 40
0.0
 40
0.0
 40
0.0
 40
0.0
 40
0.2365429819
 40
0.4972034729
 40
0.7593812586
 40
1.0
 40
1.0
 40
1.0
 40
1.0
 10
71.5012371679
 20
-2.7032616241
 30
0.0
 10
71.5506297533
 20
-2.7303800694
 30
0.0
 10
71.6645687292
 20
-2.7692231741
 30
0.0
 10
71.8461896456
 20
-2.7847470198
 30
0.0
 10
72.0278201839
 20
-2.7604087256
 30
0.0
 10
72.1411353058
 20
-2.716300757
 30
0.0
 10
72.1903925069
 20
-2.6869899489
 30
0.0
  0
SPLINE
  5
48F
100
AcDbEntity
  8
DRAFT
100
AcDbSpline
 62
7
  6
CONTINUOUS
 70
0
 71
3
 72
17
 73
13
 74
0
 42
0.0000001
 43
0.0000001
 44
0.0000000001
 40
0.0
 40
0.0
 40
0.0
 40
0.0
 40
0.0420946797
 40
0.0868775623
 40
0.1353589941
 40
0.1880999125
 40
0.3064770154
 40
0.4399971208
 40
0.5832107986
 40
0.729094258
 40
0.8702123865
 40
1.0
 40
1.0
 40
1.0
 40
1.0
 10
48.2199890092
 20
15.8641407825
 30
0.0
 10
48.1960221765
 20
15.8549375235
 30
0.0
 10
48.1440498448
 20
15.8420322153
 30
0.0
 10
48.0609823442
 20
15.8400952817
 30
0.0
 10
47.9726892895
 20
15.8547466022
 30
0.0
 10
47.8452727321
 20
15.8974508694
 30
0.0
 10
47.6832596099
 20
15.992227832
 30
0.0
 10
47.502187493
 20
16.1529174154
 30
0.0
 10
47.3391171508
 20
16.3539023263
 30
0.0
 10
47.2057338023
 20
16.5810207752
 30
0.0
 10
47.1113964565
 20
16.8181063924
 30
0.0
 10
47.0771125259
 20
16.980995108
 30
0.0
 10
47.0696016116
 20
17.0597941089
 30
0.0
  0
SPLINE
  5
490
100
AcDbEntity
  8
0
100
AcDbSpline
 62
7
  6
CONTINUOUS
 70
0
 71
3
 72
11
 73
7
 74
0
 42
0.0000001
 43
0.0000001
 44
0.0000000001
 40
0.0
 40
0.0
 40
0.0
 40
0.0
 40
0.2657077226
 40
0.5211364397
 40
0.7649553594
 40
1.0
 40
1.0
 40
1.0
 40
1.0
 10
52.4792617063
 20
58.8093775344
 30
0.0
 10
52.4792618853
 20
58.7963597819
 30
0.0
 10
52.4774097753
 20
58.7707617587
 30
0.0
 10
52.4676458114
 20
58.7342803222
 30
0.0
 10
52.4497754764
 20
58.7025014996
 30
0.0
 10
52.4317960815
 20
58.6865248877
 30
0.0
 10
52.4219117029
 20
58.6806168062
 30
0.0
  0
SPLINE
  5
491
100
AcDbEntity
  8
0
100
AcDbSpline
 62
250
  6
CONTINUOUS
 70
0
 71
3
 72
11
 73
7
 74
0
 42
0.0000001
 43
0.0000001
 44
0.0000000001
 40
0.0
 40
0.0
 40
0.0
 40
0.0
 40
0.2373917181
 40
0.5000059345
 40
0.7626168731
 40
1.0
 40
1.0
 40
1.0
 40
1.0
 10
46.5102210667
 20
56.9093698192
 30
0.0
 10
46.5354256527
 20
56.8949843744
 30
0.0
 10
46.5831295036
 20
56.855162013
 30
0.0
 10
46.6387017783
 20
56.7794253152
 30
0.0
 10
46.6765052719
 20
56.6934309977
 30
0.0
 10
46.6871397069
 20
56.6322082632
 30
0.0
 10
46.6869947704
 20
56.6031887833
 30
0.0
  0
SPLINE
  5
492
100
AcDbEntity
  8
0
100
AcDbSpline
 62
250
  6
CONTINUOUS
 70
0
 71
3
 72
13
 73
9
 74
0
 42
0.0000001
 43
0.0000001
 44
0.0000000001
 40
0.0
 40
0.0
 40
0.0
 40
0.0
 40
0.1141114743
 40
0.2373673913
 40
0.5000059866
 40
0.7626412635
 40
0.8858932789
 40
1.0
 40
1.0
 40
1.0
 40
1.0
 10
44.3806731042
 20
55.6797962038
 30
0.0
 10
44.3927136008
 20
55.6727623365
 30
0.0
 10
44.4165034998
 20
55.6559241207
 30
0.0
 10
44.4610763086
 20
55.6139222285
 30
0.0
 10
44.5082395033
 20
55.5493238081
 30
0.0
 10
44.5406017311
 20
55.4761805178
 30
0.0
 10
44.5546892132
 20
55.4165796809
 30
0.0
 10
44.5573759403
 20
55.3875588987
 30
0.0
 10
44.5574468078
 20
55.3736151679
 30
0.0
  0
SPLINE
  5
493
100
AcDbEntity
  8
0
100
AcDbSpline
 62
250
  6
CONTINUOUS
 70
0
 71
3
 72
11
 73
7
 74
0
 42
0.0000001
 43
0.0000001
 44
0.0000000001
 40
0.0
 40
0.0
 40
0.0
 40
0.0
 40
0.2373917181
 40
0.5000059345
 40
0.7626168731
 40
1.0
 40
1.0
 40
1.0
 40
1.0
 10
34.2065630741
 20
64.0133477431
 30
0.0
 10
34.23176766
 20
63.9989622983
 30
0.0
 10
34.279471511
 20
63.9591399369
 30
0.0
 10
34.3350437857
 20
63.8834032391
 30
0.0
 10
34.3728472793
 20
63.7974089216
 30
0.0
 10
34.3834817142
 20
63.7361861871
 30
0.0
 10
34.3833367778
 20
63.7071667072
 30
0.0
  0
SPLINE
  5
494
100
AcDbEntity
  8
0
100
AcDbSpline
 62
250
  6
CONTINUOUS
 70
0
 71
3
 72
13
 73
9
 74
0
 42
0.0000001
 43
0.0000001
 44
0.0000000001
 40
0.0
 40
0.0
 40
0.0
 40
0.0
 40
0.1141116687
 40
0.237367559
 40
0.5000061126
 40
0.7626413239
 40
0.8858933085
 40
1.0
 40
1.0
 40
1.0
 40
1.0
 10
32.0770151115
 20
62.7837741277
 30
0.0
 10
32.0890556287
 20
62.7767402484
 30
0.0
 10
32.1128455445
 20
62.7599020196
 30
0.0
 10
32.1574183516
 20
62.7179001033
 30
0.0
 10
32.2045815322
 20
62.6533016944
 30
0.0
 10
32.2369437468
 20
62.5801584165
 30
0.0
 10
32.2510312217
 20
62.5205575938
 30
0.0
 10
32.2537179477
 20
62.491536819
 30
0.0
 10
32.2537888152
 20
62.4775930918
 30
0.0
  0
SPLINE
  5
495
100
AcDbEntity
  8
0
100
AcDbSpline
 62
250
  6
CONTINUOUS
 70
0
 71
3
 72
11
 73
7
 74
0
 42
0.0000001
 43
0.0000001
 44
0.0000000001
 40
0.0
 40
0.0
 40
0.0
 40
0.0
 40
0.2897881813
 40
0.5490365234
 40
0.7822285016
 40
1.0
 40
1.0
 40
1.0
 40
1.0
 10
31.9012668555
 20
62.1576649996
 30
0.0
 10
31.9012668555
 20
62.145002466
 30
0.0
 10
31.9031780027
 20
62.1209291211
 30
0.0
 10
31.9129308638
 20
62.0878538743
 30
0.0
 10
31.9293243488
 20
62.0610054495
 30
0.0
 10
31.9447378439
 20
62.0480328415
 30
0.0
 10
31.9529742659
 20
62.0432673407
 30
0.0
  0
SPLINE
  5
496
100
AcDbEntity
  8
0
100
AcDbSpline
 62
250
  6
CONTINUOUS
 70
0
 71
3
 72
11
 73
7
 74
0
 42
0.0000001
 43
0.0000001
 44
0.0000000001
 40
0.0
 40
0.0
 40
0.0
 40
0.0
 40
0.2898048416
 40
0.5490486974
 40
0.7822270146
 40
1.0
 40
1.0
 40
1.0
 40
1.0
 10
30.2227287851
 20
63.1268318444
 30
0.0
 10
30.2227287851
 20
63.114161607
 30
0.0
 10
30.2246421633
 20
63.0900743379
 30
0.0
 10
30.2344073712
 20
63.0569824563
 30
0.0
 10
30.2508221401
 20
63.0301265709
 30
0.0
 10
30.266254243
 20
63.0171585526
 30
0.0
 10
30.2744994405
 20
63.0123976293
 30
0.0
  0
SPLINE
  5
497
100
AcDbEntity
  8
0
100
AcDbSpline
 62
250
  6
CONTINUOUS
 70
0
 71
3
 72
12
 73
8
 74
0
 42
0.0000001
 43
0.0000001
 44
0.0000000001
 40
0.0
 40
0.0
 40
0.0
 40
0.0
 40
0.2745935751
 40
0.5319099724
 40
0.7712591341
 40
0.8864219451
 40
1.0
 40
1.0
 40
1.0
 40
1.0
 10
32.2537888152
 20
62.1570729189
 30
0.0
 10
32.2450010593
 20
62.1345837956
 30
0.0
 10
32.2225443197
 20
62.0928442269
 30
0.0
 10
32.1747289018
 20
62.0434433663
 30
0.0
 10
32.1258964661
 20
62.0181098083
 30
0.0
 10
32.0853299081
 20
62.0099894071
 30
0.0
 10
32.06506516
 20
62.0098715414
 30
0.0
 10
32.0551202759
 20
62.0107872078
 30
0.0
  0
SPLINE
  5
498
100
AcDbEntity
  8
0
100
AcDbSpline
 62
250
  6
CONTINUOUS
 70
0
 71
3
 72
11
 73
7
 74
0
 42
0.0000001
 43
0.0000001
 44
0.0000000001
 40
0.0
 40
0.0
 40
0.0
 40
0.0
 40
0.3641666914
 40
0.5167280164
 40
0.6494247289
 40
1.0
 40
1.0
 40
1.0
 40
1.0
 10
34.3833367778
 20
63.3795214067
 30
0.0
 10
34.3874239101
 20
63.3736867721
 30
0.0
 10
34.3929204777
 20
63.3652145894
 30
0.0
 10
34.3987181145
 20
63.3537996305
 30
0.0
 10
34.403308747
 20
63.3425728053
 30
0.0
 10
34.4053842757
 20
63.33120262
 30
0.0
 10
34.4013818886
 20
63.3256338504
 30
0.0
  0
SPLINE
  5
499
100
AcDbEntity
  8
0
100
AcDbSpline
 62
250
  6
CONTINUOUS
 70
0
 71
3
 72
11
 73
7
 74
0
 42
0.0000001
 43
0.0000001
 44
0.0000000001
 40
0.0
 40
0.0
 40
0.0
 40
0.0
 40
0.2898045926
 40
0.5490485653
 40
0.782226957
 40
1.0
 40
1.0
 40
1.0
 40
1.0
 10
44.2049248482
 20
55.0536870757
 30
0.0
 10
44.2049248482
 20
55.0410168517
 30
0.0
 10
44.2068382255
 20
55.0169295939
 30
0.0
 10
44.2166034199
 20
54.9838377182
 30
0.0
 10
44.2330181844
 20
54.9569818248
 30
0.0
 10
44.2484502839
 20
54.9440137994
 30
0.0
 10
44.2566954806
 20
54.9392528737
 30
0.0
  0
SPLINE
  5
49A
100
AcDbEntity
  8
0
100
AcDbSpline
 62
250
  6
CONTINUOUS
 70
0
 71
3
 72
11
 73
7
 74
0
 42
0.0000001
 43
0.0000001
 44
0.0000000001
 40
0.0
 40
0.0
 40
0.0
 40
0.0
 40
0.2898048405
 40
0.549048695
 40
0.7822270155
 40
1.0
 40
1.0
 40
1.0
 40
1.0
 10
42.5263867778
 20
56.0228539205
 30
0.0
 10
42.5263867778
 20
56.0101836832
 30
0.0
 10
42.5283001559
 20
55.9860964142
 30
0.0
 10
42.5380653638
 20
55.9530045327
 30
0.0
 10
42.5544801328
 20
55.9261486471
 30
0.0
 10
42.5699122362
 20
55.9131806296
 30
0.0
 10
42.5781574333
 20
55.9084197057
 30
0.0
  0
SPLINE
  5
49B
100
AcDbEntity
  8
0
100
AcDbSpline
 62
250
  6
CONTINUOUS
 70
0
 71
3
 72
12
 73
8
 74
0
 42
0.0000001
 43
0.0000001
 44
0.0000000001
 40
0.0
 40
0.0
 40
0.0
 40
0.0
 40
0.2745934508
 40
0.5319098872
 40
0.7712590933
 40
0.8864219246
 40
1.0
 40
1.0
 40
1.0
 40
1.0
 10
44.5574468078
 20
55.053094995
 30
0.0
 10
44.5486590559
 20
55.0306058819
 30
0.0
 10
44.5262023221
 20
54.9888663196
 30
0.0
 10
44.478386913
 20
54.9394654554
 30
0.0
 10
44.4295544712
 20
54.9141318886
 30
0.0
 10
44.3889879062
 20
54.9060114833
 30
0.0
 10
44.3687231545
 20
54.9058936178
 30
0.0
 10
44.3587782685
 20
54.906809284
 30
0.0
  0
SPLINE
  5
49C
100
AcDbEntity
  8
0
100
AcDbSpline
 62
250
  6
CONTINUOUS
 70
0
 71
3
 72
11
 73
7
 74
0
 42
0.0000001
 43
0.0000001
 44
0.0000000001
 40
0.0
 40
0.0
 40
0.0
 40
0.0
 40
0.3641666914
 40
0.5167280164
 40
0.6494247289
 40
1.0
 40
1.0
 40
1.0
 40
1.0
 10
46.6869947704
 20
56.2755434828
 30
0.0
 10
46.6910819027
 20
56.2697088482
 30
0.0
 10
46.6965784704
 20
56.2612366655
 30
0.0
 10
46.7023761071
 20
56.2498217066
 30
0.0
 10
46.7069667396
 20
56.2385948814
 30
0.0
 10
46.7090422684
 20
56.2272246961
 30
0.0
 10
46.7050398812
 20
56.2216559265
 30
0.0
  0
SPLINE
  5
49D
100
AcDbEntity
  8
0
100
AcDbSpline
 62
250
  6
CONTINUOUS
 70
0
 71
3
 72
11
 73
7
 74
0
 42
0.0000001
 43
0.0000001
 44
0.0000000001
 40
0.0
 40
0.0
 40
0.0
 40
0.0
 40
0.2180989648
 40
0.4514172019
 40
0.710532835
 40
1.0
 40
1.0
 40
1.0
 40
1.0
 10
46.7591923693
 20
56.7046618964
 30
0.0
 10
46.7591924104
 20
56.6952110473
 30
0.0
 10
46.7557345045
 20
56.6755189754
 30
0.0
 10
46.7409087391
 20
56.6480587434
 30
0.0
 10
46.7174680294
 20
56.6231812632
 30
0.0
 10
46.6978256977
 20
56.609515616
 30
0.0
 10
46.6869947704
 20
56.6031887833
 30
0.0
  0
SPLINE
  5
49E
100
AcDbEntity
  8
0
100
AcDbSpline
 62
250
  6
CONTINUOUS
 70
0
 71
3
 72
11
 73
7
 74
0
 42
0.0000001
 43
0.0000001
 44
0.0000000001
 40
0.0
 40
0.0
 40
0.0
 40
0.0
 40
0.2180990259
 40
0.451417317
 40
0.7105330511
 40
1.0
 40
1.0
 40
1.0
 40
1.0
 10
46.7591923693
 20
56.3770165959
 30
0.0
 10
46.7591924081
 20
56.3675657441
 30
0.0
 10
46.7557345019
 20
56.3478736679
 30
0.0
 10
46.7409087317
 20
56.3204134267
 30
0.0
 10
46.7174680157
 20
56.2955359559
 30
0.0
 10
46.6978256896
 20
56.2818703108
 30
0.0
 10
46.6869947704
 20
56.2755434828
 30
0.0
  0
SPLINE
  5
49F
100
AcDbEntity
  8
0
100
AcDbSpline
 62
250
  6
CONTINUOUS
 70
0
 71
3
 72
11
 73
7
 74
0
 42
0.0000001
 43
0.0000001
 44
0.0000000001
 40
0.0
 40
0.0
 40
0.0
 40
0.0
 40
0.2180989648
 40
0.4514172019
 40
0.710532835
 40
1.0
 40
1.0
 40
1.0
 40
1.0
 10
34.4555343767
 20
63.8086398203
 30
0.0
 10
34.4555344178
 20
63.7991889712
 30
0.0
 10
34.4520765119
 20
63.7794968993
 30
0.0
 10
34.4372507464
 20
63.7520366673
 30
0.0
 10
34.4138100367
 20
63.7271591871
 30
0.0
 10
34.394167705
 20
63.7134935399
 30
0.0
 10
34.3833367778
 20
63.7071667072
 30
0.0
  0
SPLINE
  5
4A0
100
AcDbEntity
  8
0
100
AcDbSpline
 62
250
  6
CONTINUOUS
 70
0
 71
3
 72
11
 73
7
 74
0
 42
0.0000001
 43
0.0000001
 44
0.0000000001
 40
0.0
 40
0.0
 40
0.0
 40
0.0
 40
0.2180990259
 40
0.451417317
 40
0.7105330511
 40
1.0
 40
1.0
 40
1.0
 40
1.0
 10
34.4555343766
 20
63.4809945198
 30
0.0
 10
34.4555344154
 20
63.471543668
 30
0.0
 10
34.4520765093
 20
63.4518515918
 30
0.0
 10
34.437250739
 20
63.4243913506
 30
0.0
 10
34.4138100231
 20
63.3995138798
 30
0.0
 10
34.3941676969
 20
63.3858482347
 30
0.0
 10
34.3833367778
 20
63.3795214067
 30
0.0
  0
SPLINE
  5
4A1
100
AcDbEntity
  8
0
100
AcDbSpline
 62
250
  6
CONTINUOUS
 70
0
 71
3
 72
11
 73
7
 74
0
 42
0.0000001
 43
0.0000001
 44
0.0000000001
 40
0.0
 40
0.0
 40
0.0
 40
0.0
 40
0.2180891481
 40
0.4514027978
 40
0.7105217258
 40
1.0
 40
1.0
 40
1.0
 40
1.0
 10
46.6341985384
 20
56.9211645366
 30
0.0
 10
46.6260142681
 20
56.9258900767
 30
0.0
 10
46.6072316818
 20
56.9327413668
 30
0.0
 10
46.5760374691
 20
56.9336305841
 30
0.0
 10
46.542772164
 20
56.9257668458
 30
0.0
 10
46.521115949
 20
56.9155871999
 30
0.0
 10
46.5102210667
 20
56.9093698192
 30
0.0
  0
SPLINE
  5
4A2
100
AcDbEntity
  8
0
100
AcDbSpline
 62
250
  6
CONTINUOUS
 70
0
 71
3
 72
11
 73
7
 74
0
 42
0.0000001
 43
0.0000001
 44
0.0000000001
 40
0.0
 40
0.0
 40
0.0
 40
0.0
 40
0.2180779548
 40
0.4520662549
 40
0.7113795753
 40
1.0
 40
1.0
 40
1.0
 40
1.0
 10
32.6364749082
 20
65.003183332
 30
0.0
 10
32.6283248326
 20
65.0074270919
 30
0.0
 10
32.6098270631
 20
65.0133880339
 30
0.0
 10
32.5794872679
 20
65.0135724511
 30
0.0
 10
32.547245173
 20
65.0055987996
 30
0.0
 10
32.5262457441
 20
64.9956679452
 30
0.0
 10
32.5156835229
 20
64.9896404043
 30
0.0
  0
SPLINE
  5
4A3
100
AcDbEntity
  8
0
100
AcDbSpline
 62
250
  6
CONTINUOUS
 70
0
 71
3
 72
11
 73
7
 74
0
 42
0.0000001
 43
0.0000001
 44
0.0000000001
 40
0.0
 40
0.0
 40
0.0
 40
0.0
 40
0.2180891481
 40
0.4514027978
 40
0.7105217258
 40
1.0
 40
1.0
 40
1.0
 40
1.0
 10
34.3305405458
 20
64.0251424605
 30
0.0
 10
34.3223562754
 20
64.0298680006
 30
0.0
 10
34.3035736891
 20
64.0367192907
 30
0.0
 10
34.2723794764
 20
64.037608508
 30
0.0
 10
34.2391141714
 20
64.0297447697
 30
0.0
 10
34.2174579564
 20
64.0195651238
 30
0.0
 10
34.2065630741
 20
64.0133477431
 30
0.0
  0
SPLINE
  5
4A4
100
AcDbEntity
  8
0
100
AcDbSpline
 62
250
  6
CONTINUOUS
 70
0
 71
3
 72
11
 73
7
 74
0
 42
0.0000001
 43
0.0000001
 44
0.0000000001
 40
0.0
 40
0.0
 40
0.0
 40
0.0
 40
0.2180699683
 40
0.451965846
 40
0.7112568111
 40
1.0
 40
1.0
 40
1.0
 40
1.0
 10
32.3945988984
 20
65.004173728
 30
0.0
 10
32.4027974775
 20
65.0083997445
 30
0.0
 10
32.4213957812
 20
65.014292081
 30
0.0
 10
32.4518525475
 20
65.0142625624
 30
0.0
 10
32.4841510405
 20
65.0059768678
 30
0.0
 10
32.5051378139
 20
64.9958002112
 30
0.0
 10
32.5156835229
 20
64.9896404043
 30
0.0
  0
SPLINE
  5
4A5
100
AcDbEntity
  8
0
100
AcDbSpline
 62
250
  6
CONTINUOUS
 70
0
 71
3
 72
11
 73
7
 74
0
 42
0.0000001
 43
0.0000001
 44
0.0000000001
 40
0.0
 40
0.0
 40
0.0
 40
0.0
 40
0.2180721889
 40
0.4520047804
 40
0.7113048375
 40
1.0
 40
1.0
 40
1.0
 40
1.0
 10
44.6984336596
 20
57.9002866554
 30
0.0
 10
44.7066296384
 20
57.9044866663
 30
0.0
 10
44.7252110602
 20
57.9103314207
 30
0.0
 10
44.7556204853
 20
57.9102649437
 30
0.0
 10
44.7878629421
 20
57.9019743226
 30
0.0
 10
44.8088139007
 20
57.8918117184
 30
0.0
 10
44.8193415156
 20
57.8856624804
 30
0.0
  0
SPLINE
  5
4A6
100
AcDbEntity
  8
0
100
AcDbSpline
 62
250
  6
CONTINUOUS
 70
0
 71
3
 72
11
 73
7
 74
0
 42
0.0000001
 43
0.0000001
 44
0.0000000001
 40
0.0
 40
0.0
 40
0.0
 40
0.0
 40
0.2174441626
 40
0.4504865842
 40
0.7098533773
 40
1.0
 40
1.0
 40
1.0
 40
1.0
 10
42.5759824063
 20
56.660674818
 30
0.0
 10
42.584241584
 20
56.6655550884
 30
0.0
 10
42.6032860037
 20
56.6726603714
 30
0.0
 10
42.6350214814
 20
56.6736629783
 30
0.0
 10
42.6689289577
 20
56.6656851987
 30
0.0
 10
42.6910171967
 20
56.6553076582
 30
0.0
 10
42.7021350338
 20
56.6489630486
 30
0.0
  0
SPLINE
  5
4A7
100
AcDbEntity
  8
0
100
AcDbSpline
 62
250
  6
CONTINUOUS
 70
0
 71
3
 72
11
 73
7
 74
0
 42
0.0000001
 43
0.0000001
 44
0.0000000001
 40
0.0
 40
0.0
 40
0.0
 40
0.0
 40
0.2174441626
 40
0.4504865842
 40
0.7098533773
 40
1.0
 40
1.0
 40
1.0
 40
1.0
 10
30.2723244136
 20
63.764652742
 30
0.0
 10
30.2805835914
 20
63.7695330123
 30
0.0
 10
30.2996280111
 20
63.7766382953
 30
0.0
 10
30.3313634887
 20
63.7776409022
 30
0.0
 10
30.365270965
 20
63.7696631227
 30
0.0
 10
30.387359204
 20
63.7592855821
 30
0.0
 10
30.3984770411
 20
63.7529409725
 30
0.0
  0
SPLINE
  5
4A8
100
AcDbEntity
  8
0
100
AcDbSpline
 62
250
  6
CONTINUOUS
 70
0
 71
3
 72
11
 73
7
 74
0
 42
0.0000001
 43
0.0000001
 44
0.0000000001
 40
0.0
 40
0.0
 40
0.0
 40
0.0
 40
0.2370397016
 40
0.4996277568
 40
0.7624183675
 40
1.0
 40
1.0
 40
1.0
 40
1.0
 10
37.7795122416
 20
60.3591100638
 30
0.0
 10
37.7795122416
 20
60.3821999826
 30
0.0
 10
37.7881415744
 20
60.4309003481
 30
0.0
 10
37.8182491311
 20
60.4993883685
 30
0.0
 10
37.8623418894
 20
60.5598932572
 30
0.0
 10
37.9001273793
 20
60.591908783
 30
0.0
 10
37.9201108464
 20
60.603581228
 30
0.0
  0
SPLINE
  5
4A9
100
AcDbEntity
  8
0
100
AcDbSpline
 62
250
  6
CONTINUOUS
 70
0
 71
3
 72
11
 73
7
 74
0
 42
0.0000001
 43
0.0000001
 44
0.0000000001
 40
0.0
 40
0.0
 40
0.0
 40
0.0
 40
0.2370392977
 40
0.4996273021
 40
0.762417963
 40
1.0
 40
1.0
 40
1.0
 40
1.0
 10
39.4765685165
 20
59.3792510399
 30
0.0
 10
39.4765685165
 20
59.4023409192
 30
0.0
 10
39.4851978255
 20
59.4510412408
 30
0.0
 10
39.5153053437
 20
59.5195292363
 30
0.0
 10
39.5593981042
 20
59.5800341708
 30
0.0
 10
39.5971836201
 20
59.6120497391
 30
0.0
 10
39.6171671212
 20
59.6237222041
 30
0.0
  0
SPLINE
  5
4AA
100
AcDbEntity
  8
0
100
AcDbSpline
 62
250
  6
CONTINUOUS
 70
0
 71
3
 72
11
 73
7
 74
0
 42
0.0000001
 43
0.0000001
 44
0.0000000001
 40
0.0
 40
0.0
 40
0.0
 40
0.0
 40
0.2898015478
 40
0.5490405396
 40
0.7822230423
 40
1.0
 40
1.0
 40
1.0
 40
1.0
 10
39.4765685165
 20
59.3792510399
 30
0.0
 10
39.4677893729
 20
59.3843200073
 30
0.0
 10
39.4518649095
 20
59.3952823221
 30
0.0
 10
39.4328430034
 20
59.4152883028
 30
0.0
 10
39.4208013563
 20
59.4374064655
 30
0.0
 10
39.4179900829
 20
59.45328798
 30
0.0
 10
39.4179900829
 20
59.4609059585
 30
0.0
  0
SPLINE
  5
4AB
100
AcDbEntity
  8
0
100
AcDbSpline
 62
250
  6
CONTINUOUS
 70
0
 71
3
 72
11
 73
7
 74
0
 42
0.0000001
 43
0.0000001
 44
0.0000000001
 40
0.0
 40
0.0
 40
0.0
 40
0.0
 40
0.2904867108
 40
0.5499304788
 40
0.7828308526
 40
1.0
 40
1.0
 40
1.0
 40
1.0
 10
39.6171671212
 20
59.6237222041
 30
0.0
 10
39.6083600801
 20
59.6288072792
 30
0.0
 10
39.5908646809
 20
59.6371425619
 30
0.0
 10
39.5639871418
 20
59.6436331137
 30
0.0
 10
39.5388116311
 20
59.6429886733
 30
0.0
 10
39.5236813645
 20
59.6374381445
 30
0.0
 10
39.517116346
 20
59.63360352
 30
0.0
  0
SPLINE
  5
4AC
100
AcDbEntity
  8
0
100
AcDbSpline
 62
250
  6
CONTINUOUS
 70
0
 71
3
 72
11
 73
7
 74
0
 42
0.0000001
 43
0.0000001
 44
0.0000000001
 40
0.0
 40
0.0
 40
0.0
 40
0.0
 40
0.2180765723
 40
0.4520469469
 40
0.7113560728
 40
1.0
 40
1.0
 40
1.0
 40
1.0
 10
44.940219259
 20
57.8991603765
 30
0.0
 10
44.9320679793
 20
57.9034168525
 30
0.0
 10
44.9135620725
 20
57.9094010795
 30
0.0
 10
44.8831992271
 20
57.909603708
 30
0.0
 10
44.8509296986
 20
57.9016326789
 30
0.0
 10
44.82991265
 20
57.8916951079
 30
0.0
 10
44.8193415156
 20
57.8856624804
 30
0.0
  0
SPLINE
  5
4AD
100
AcDbEntity
  8
0
100
AcDbSpline
 62
250
  6
CONTINUOUS
 70
0
 71
3
 72
11
 73
7
 74
0
 42
0.0000001
 43
0.0000001
 44
0.0000000001
 40
0.0
 40
0.0
 40
0.0
 40
0.0
 40
0.2374055308
 40
0.5003740822
 40
0.7631391171
 40
1.0
 40
1.0
 40
1.0
 40
1.0
 10
37.9201108464
 20
60.603581228
 30
0.0
 10
37.9401942948
 20
60.5919852966
 30
0.0
 10
37.9782275987
 20
60.5600435734
 30
0.0
 10
38.0227402415
 20
60.4995676018
 30
0.0
 10
38.053304491
 20
60.4310364819
 30
0.0
 10
38.0622380358
 20
60.3822473072
 30
0.0
 10
38.0623549541
 20
60.3591100638
 30
0.0
  0
SPLINE
  5
4AE
100
AcDbEntity
  8
0
100
AcDbSpline
 62
250
  6
CONTINUOUS
 70
0
 71
3
 72
11
 73
7
 74
0
 42
0.0000001
 43
0.0000001
 44
0.0000000001
 40
0.0
 40
0.0
 40
0.0
 40
0.0
 40
0.2372191665
 40
0.5000001327
 40
0.7627810737
 40
1.0
 40
1.0
 40
1.0
 40
1.0
 10
37.7795122416
 20
60.3591100638
 30
0.0
 10
37.7995880864
 20
60.3475185227
 30
0.0
 10
37.8462782644
 20
60.3306008637
 30
0.0
 10
37.9209336348
 20
60.322495164
 30
0.0
 10
37.9955889812
 20
60.3306008753
 30
0.0
 10
38.0422791297
 20
60.3475185344
 30
0.0
 10
38.0623549541
 20
60.3591100638
 30
0.0
  0
SPLINE
  5
4AF
100
AcDbEntity
  8
0
100
AcDbSpline
 62
250
  6
CONTINUOUS
 70
0
 71
3
 72
11
 73
7
 74
0
 42
0.0000001
 43
0.0000001
 44
0.0000000001
 40
0.0
 40
0.0
 40
0.0
 40
0.0
 40
0.2898014567
 40
0.5490406229
 40
0.7822230202
 40
1.0
 40
1.0
 40
1.0
 40
1.0
 10
42.5263867778
 20
56.0228539205
 30
0.0
 10
42.5154128517
 20
56.0291901279
 30
0.0
 10
42.4955072765
 20
56.0428930305
 30
0.0
 10
42.4717298691
 20
56.0679004821
 30
0.0
 10
42.4566778334
 20
56.0955482135
 30
0.0
 10
42.4531637703
 20
56.1154000947
 30
0.0
 10
42.4531637312
 20
56.1249225689
 30
0.0
  0
SPLINE
  5
4B0
100
AcDbEntity
  8
0
100
AcDbSpline
 62
250
  6
CONTINUOUS
 70
0
 71
3
 72
11
 73
7
 74
0
 42
0.0000001
 43
0.0000001
 44
0.0000000001
 40
0.0
 40
0.0
 40
0.0
 40
0.0
 40
0.2898014619
 40
0.5490406265
 40
0.782223024
 40
1.0
 40
1.0
 40
1.0
 40
1.0
 10
42.5263867778
 20
56.3433740934
 30
0.0
 10
42.5154128515
 20
56.3497103009
 30
0.0
 10
42.4955072761
 20
56.3634132034
 30
0.0
 10
42.4717298691
 20
56.3884206556
 30
0.0
 10
42.4566778332
 20
56.4160683865
 30
0.0
 10
42.4531637697
 20
56.4359202677
 30
0.0
 10
42.4531637313
 20
56.4454427417
 30
0.0
  0
SPLINE
  5
4B1
100
AcDbEntity
  8
0
100
AcDbSpline
 62
250
  6
CONTINUOUS
 70
0
 71
3
 72
11
 73
7
 74
0
 42
0.0000001
 43
0.0000001
 44
0.0000000001
 40
0.0
 40
0.0
 40
0.0
 40
0.0
 40
0.2370457585
 40
0.4996335384
 40
0.7624206084
 40
1.0
 40
1.0
 40
1.0
 40
1.0
 10
44.2049248482
 20
55.3742072485
 30
0.0
 10
44.2299208251
 20
55.3597748848
 30
0.0
 10
44.2880342519
 20
55.3386761513
 30
0.0
 10
44.3809929528
 20
55.3284632731
 30
0.0
 10
44.474049423
 20
55.3383794479
 30
0.0
 10
44.532322207
 20
55.3592763561
 30
0.0
 10
44.5574468078
 20
55.3736151679
 30
0.0
  0
SPLINE
  5
4B2
100
AcDbEntity
  8
0
100
AcDbSpline
 62
250
  6
CONTINUOUS
 70
0
 71
3
 72
11
 73
7
 74
0
 42
0.0000001
 43
0.0000001
 44
0.0000000001
 40
0.0
 40
0.0
 40
0.0
 40
0.0
 40
0.2370459187
 40
0.4996336587
 40
0.762420666
 40
1.0
 40
1.0
 40
1.0
 40
1.0
 10
44.2049248482
 20
55.0536870757
 30
0.0
 10
44.2299208419
 20
55.0392547022
 30
0.0
 10
44.2880342867
 20
55.0181559714
 30
0.0
 10
44.3809929946
 20
55.007943101
 30
0.0
 10
44.4740494445
 20
55.0178592811
 30
0.0
 10
44.5323222131
 20
55.0387561868
 30
0.0
 10
44.5574468078
 20
55.053094995
 30
0.0
  0
SPLINE
  5
4B3
100
AcDbEntity
  8
0
100
AcDbSpline
 62
250
  6
CONTINUOUS
 70
0
 71
3
 72
11
 73
7
 74
0
 42
0.0000001
 43
0.0000001
 44
0.0000000001
 40
0.0
 40
0.0
 40
0.0
 40
0.0
 40
0.2370459782
 40
0.4996337834
 40
0.7624208323
 40
1.0
 40
1.0
 40
1.0
 40
1.0
 10
31.9012668555
 20
62.4781851724
 30
0.0
 10
31.9262628556
 20
62.4637527953
 30
0.0
 10
31.9843763164
 20
62.4426540618
 30
0.0
 10
32.0773350453
 20
62.4324411969
 30
0.0
 10
32.1703914881
 20
62.4423573851
 30
0.0
 10
32.2286642381
 20
62.4632542935
 30
0.0
 10
32.2537888152
 20
62.4775930918
 30
0.0
  0
SPLINE
  5
4B4
100
AcDbEntity
  8
0
100
AcDbSpline
 62
250
  6
CONTINUOUS
 70
0
 71
3
 72
11
 73
7
 74
0
 42
0.0000001
 43
0.0000001
 44
0.0000000001
 40
0.0
 40
0.0
 40
0.0
 40
0.0
 40
0.2370459499
 40
0.4996337287
 40
0.7624207615
 40
1.0
 40
1.0
 40
1.0
 40
1.0
 10
31.9012668555
 20
62.1576649996
 30
0.0
 10
31.9262628526
 20
62.1432326242
 30
0.0
 10
31.9843763063
 20
62.1221338918
 30
0.0
 10
32.0773350263
 20
62.1119210244
 30
0.0
 10
32.1703914725
 20
62.1218372091
 30
0.0
 10
32.2286642306
 20
62.1427341164
 30
0.0
 10
32.2537888152
 20
62.1570729189
 30
0.0
  0
SPLINE
  5
4B5
100
AcDbEntity
  8
0
100
AcDbSpline
 62
250
  6
CONTINUOUS
 70
0
 71
3
 72
11
 73
7
 74
0
 42
0.0000001
 43
0.0000001
 44
0.0000000001
 40
0.0
 40
0.0
 40
0.0
 40
0.0
 40
0.2898013942
 40
0.5490405964
 40
0.7822230062
 40
1.0
 40
1.0
 40
1.0
 40
1.0
 10
30.2227287851
 20
63.1268318444
 30
0.0
 10
30.2117548614
 20
63.1331680505
 30
0.0
 10
30.1918492877
 20
63.1468709527
 30
0.0
 10
30.1680718782
 20
63.1718784015
 30
0.0
 10
30.1530198415
 20
63.1995261359
 30
0.0
 10
30.1495057785
 20
63.219378018
 30
0.0
 10
30.1495057384
 20
63.2289004928
 30
0.0
  0
SPLINE
  5
4B6
100
AcDbEntity
  8
0
100
AcDbSpline
 62
250
  6
CONTINUOUS
 70
0
 71
3
 72
11
 73
7
 74
0
 42
0.0000001
 43
0.0000001
 44
0.0000000001
 40
0.0
 40
0.0
 40
0.0
 40
0.0
 40
0.2898014619
 40
0.5490406265
 40
0.782223024
 40
1.0
 40
1.0
 40
1.0
 40
1.0
 10
30.2227287851
 20
63.4473520173
 30
0.0
 10
30.2117548589
 20
63.4536882248
 30
0.0
 10
30.1918492834
 20
63.4673911273
 30
0.0
 10
30.1680718764
 20
63.4923985795
 30
0.0
 10
30.1530198405
 20
63.5200463104
 30
0.0
 10
30.1495057771
 20
63.5398981917
 30
0.0
 10
30.1495057387
 20
63.5494206656
 30
0.0
  0
SPLINE
  5
4B7
100
AcDbEntity
  8
0
100
AcDbSpline
 62
250
  6
CONTINUOUS
 70
0
 71
3
 72
11
 73
7
 74
0
 42
0.0000001
 43
0.0000001
 44
0.0000000001
 40
0.0
 40
0.0
 40
0.0
 40
0.0
 40
0.2370401271
 40
0.4996276559
 40
0.7624177599
 40
1.0
 40
1.0
 40
1.0
 40
1.0
 10
42.5263867778
 20
56.3433740934
 30
0.0
 10
42.5263867778
 20
56.3722365492
 30
0.0
 10
42.537173
 20
56.4331121312
 30
0.0
 10
42.5748082953
 20
56.5187217005
 30
0.0
 10
42.6299234223
 20
56.5943533422
 30
0.0
 10
42.6771556312
 20
56.6343724521
 30
0.0
 10
42.7021350338
 20
56.6489630486
 30
0.0
  0
SPLINE
  5
4B8
100
AcDbEntity
  8
0
100
AcDbSpline
 62
250
  6
CONTINUOUS
 70
0
 71
3
 72
11
 73
7
 74
0
 42
0.0000001
 43
0.0000001
 44
0.0000000001
 40
0.0
 40
0.0
 40
0.0
 40
0.0
 40
0.2370400675
 40
0.4996275312
 40
0.7624175935
 40
1.0
 40
1.0
 40
1.0
 40
1.0
 10
44.2049248482
 20
55.3742072485
 30
0.0
 10
44.2049248482
 20
55.4030696971
 30
0.0
 10
44.2157110647
 20
55.4639452639
 30
0.0
 10
44.2533463448
 20
55.5495548177
 30
0.0
 10
44.3084614683
 20
55.6251864696
 30
0.0
 10
44.3556936841
 20
55.6652055971
 30
0.0
 10
44.3806731042
 20
55.6797962038
 30
0.0
  0
SPLINE
  5
4B9
100
AcDbEntity
  8
0
100
AcDbSpline
 62
250
  6
CONTINUOUS
 70
0
 71
3
 72
11
 73
7
 74
0
 42
0.0000001
 43
0.0000001
 44
0.0000000001
 40
0.0
 40
0.0
 40
0.0
 40
0.0
 40
0.2370401271
 40
0.4996276559
 40
0.7624177599
 40
1.0
 40
1.0
 40
1.0
 40
1.0
 10
30.2227287851
 20
63.4473520173
 30
0.0
 10
30.2227287851
 20
63.4762144731
 30
0.0
 10
30.2335150074
 20
63.5370900551
 30
0.0
 10
30.2711503027
 20
63.6226996244
 30
0.0
 10
30.3262654296
 20
63.6983312661
 30
0.0
 10
30.3734976385
 20
63.738350376
 30
0.0
 10
30.3984770411
 20
63.7529409725
 30
0.0
  0
SPLINE
  5
4BA
100
AcDbEntity
  8
0
100
AcDbSpline
 62
250
  6
CONTINUOUS
 70
0
 71
3
 72
11
 73
7
 74
0
 42
0.0000001
 43
0.0000001
 44
0.0000000001
 40
0.0
 40
0.0
 40
0.0
 40
0.0
 40
0.2370401271
 40
0.4996276559
 40
0.7624177599
 40
1.0
 40
1.0
 40
1.0
 40
1.0
 10
31.9012668555
 20
62.4781851724
 30
0.0
 10
31.9012668555
 20
62.5070476282
 30
0.0
 10
31.9120530778
 20
62.5679232103
 30
0.0
 10
31.9496883731
 20
62.6535327796
 30
0.0
 10
32.0048035
 20
62.7291644212
 30
0.0
 10
32.0520357089
 20
62.7691835312
 30
0.0
 10
32.0770151115
 20
62.7837741277
 30
0.0
  0
SPLINE
  5
4BB
100
AcDbEntity
  8
0
100
AcDbSpline
 62
7
  6
CONTINUOUS
 70
0
 71
3
 72
11
 73
7
 74
0
 42
0.0000001
 43
0.0000001
 44
0.0000000001
 40
0.0
 40
0.0
 40
0.0
 40
0.0
 40
0.2657075367
 40
0.5211354173
 40
0.7649537446
 40
1.0
 40
1.0
 40
1.0
 40
1.0
 10
83.949534389
 20
8.2203348641
 30
0.0
 10
83.9382603657
 20
8.2268445508
 30
0.0
 10
83.9151648497
 20
8.238040726
 30
0.0
 10
83.8786872333
 20
8.2478265393
 30
0.0
 10
83.8422287543
 20
8.2482394515
 30
0.0
 10
83.8194018709
 20
8.2406557167
 30
0.0
 10
83.8093428431
 20
8.2350487375
 30
0.0
  0
SPLINE
  5
4BC
100
AcDbEntity
  8
0
100
AcDbSpline
 62
7
  6
CONTINUOUS
 70
0
 71
3
 72
11
 73
7
 74
0
 42
0.0000001
 43
0.0000001
 44
0.0000000001
 40
0.0
 40
0.0
 40
0.0
 40
0.0
 40
0.2657077226
 40
0.5211364397
 40
0.7649553594
 40
1.0
 40
1.0
 40
1.0
 40
1.0
 10
84.2990668597
 20
40.4370208346
 30
0.0
 10
84.2990670387
 20
40.4240030822
 30
0.0
 10
84.2972149287
 20
40.3984050589
 30
0.0
 10
84.2874509648
 20
40.3619236225
 30
0.0
 10
84.2695806298
 20
40.3301447999
 30
0.0
 10
84.2516012348
 20
40.3141681879
 30
0.0
 10
84.2417168563
 20
40.3082601065
 30
0.0
  0
SPLINE
  5
4BD
100
AcDbEntity
  8
0
100
AcDbSpline
 62
250
  6
CONTINUOUS
 70
0
 71
3
 72
11
 73
7
 74
0
 42
0.0000001
 43
0.0000001
 44
0.0000000001
 40
0.0
 40
0.0
 40
0.0
 40
0.0
 40
0.2373917181
 40
0.5000059345
 40
0.7626168731
 40
1.0
 40
1.0
 40
1.0
 40
1.0
 10
78.3300262201
 20
38.5370131195
 30
0.0
 10
78.3552308061
 20
38.5226276746
 30
0.0
 10
78.402934657
 20
38.4828053132
 30
0.0
 10
78.4585069317
 20
38.4070686155
 30
0.0
 10
78.4963104253
 20
38.3210742979
 30
0.0
 10
78.5069448603
 20
38.2598515634
 30
0.0
 10
78.5067999238
 20
38.2308320836
 30
0.0
  0
SPLINE
  5
4BE
100
AcDbEntity
  8
0
100
AcDbSpline
 62
250
  6
CONTINUOUS
 70
0
 71
3
 72
13
 73
9
 74
0
 42
0.0000001
 43
0.0000001
 44
0.0000000001
 40
0.0
 40
0.0
 40
0.0
 40
0.0
 40
0.1141114743
 40
0.2373673913
 40
0.5000059866
 40
0.7626412635
 40
0.8858932789
 40
1.0
 40
1.0
 40
1.0
 40
1.0
 10
76.2004782576
 20
37.307439504
 30
0.0
 10
76.2125187542
 20
37.3004056368
 30
0.0
 10
76.2363086532
 20
37.2835674209
 30
0.0
 10
76.280881462
 20
37.2415655288
 30
0.0
 10
76.3280446566
 20
37.1769671083
 30
0.0
 10
76.3604068844
 20
37.103823818
 30
0.0
 10
76.3744943666
 20
37.0442229811
 30
0.0
 10
76.3771810937
 20
37.0152021989
 30
0.0
 10
76.3772519612
 20
37.0012584681
 30
0.0
  0
SPLINE
  5
4BF
100
AcDbEntity
  8
0
100
AcDbSpline
 62
250
  6
CONTINUOUS
 70
0
 71
3
 72
11
 73
7
 74
0
 42
0.0000001
 43
0.0000001
 44
0.0000000001
 40
0.0
 40
0.0
 40
0.0
 40
0.0
 40
0.2373917181
 40
0.5000059345
 40
0.7626168731
 40
1.0
 40
1.0
 40
1.0
 40
1.0
 10
66.0263682275
 20
45.6409910434
 30
0.0
 10
66.0515728134
 20
45.6266055985
 30
0.0
 10
66.0992766644
 20
45.5867832371
 30
0.0
 10
66.1548489391
 20
45.5110465394
 30
0.0
 10
66.1926524327
 20
45.4250522218
 30
0.0
 10
66.2032868676
 20
45.3638294873
 30
0.0
 10
66.2031419312
 20
45.3348100075
 30
0.0
  0
SPLINE
  5
4C0
100
AcDbEntity
  8
0
100
AcDbSpline
 62
250
  6
CONTINUOUS
 70
0
 71
3
 72
13
 73
9
 74
0
 42
0.0000001
 43
0.0000001
 44
0.0000000001
 40
0.0
 40
0.0
 40
0.0
 40
0.0
 40
0.1141116687
 40
0.237367559
 40
0.5000061126
 40
0.7626413239
 40
0.8858933085
 40
1.0
 40
1.0
 40
1.0
 40
1.0
 10
63.8968202649
 20
44.4114174279
 30
0.0
 10
63.9088607821
 20
44.4043835487
 30
0.0
 10
63.9326506978
 20
44.3875453199
 30
0.0
 10
63.977223505
 20
44.3455434035
 30
0.0
 10
64.0243866856
 20
44.2809449947
 30
0.0
 10
64.0567489002
 20
44.2078017167
 30
0.0
 10
64.0708363751
 20
44.1482008941
 30
0.0
 10
64.0735231011
 20
44.1191801192
 30
0.0
 10
64.0735939686
 20
44.105236392
 30
0.0
  0
SPLINE
  5
4C1
100
AcDbEntity
  8
0
100
AcDbSpline
 62
250
  6
CONTINUOUS
 70
0
 71
3
 72
11
 73
7
 74
0
 42
0.0000001
 43
0.0000001
 44
0.0000000001
 40
0.0
 40
0.0
 40
0.0
 40
0.0
 40
0.2897881813
 40
0.5490365234
 40
0.7822285016
 40
1.0
 40
1.0
 40
1.0
 40
1.0
 10
63.7210720089
 20
43.7853082999
 30
0.0
 10
63.7210720089
 20
43.7726457663
 30
0.0
 10
63.7229831561
 20
43.7485724213
 30
0.0
 10
63.7327360172
 20
43.7154971746
 30
0.0
 10
63.7491295022
 20
43.6886487497
 30
0.0
 10
63.7645429973
 20
43.6756761418
 30
0.0
 10
63.7727794193
 20
43.6709106409
 30
0.0
  0
SPLINE
  5
4C2
100
AcDbEntity
  8
0
100
AcDbSpline
 62
250
  6
CONTINUOUS
 70
0
 71
3
 72
11
 73
7
 74
0
 42
0.0000001
 43
0.0000001
 44
0.0000000001
 40
0.0
 40
0.0
 40
0.0
 40
0.0
 40
0.2898048416
 40
0.5490486974
 40
0.7822270146
 40
1.0
 40
1.0
 40
1.0
 40
1.0
 10
62.0425339385
 20
44.7544751447
 30
0.0
 10
62.0425339385
 20
44.7418049073
 30
0.0
 10
62.0444473167
 20
44.7177176381
 30
0.0
 10
62.0542125246
 20
44.6846257566
 30
0.0
 10
62.0706272935
 20
44.6577698712
 30
0.0
 10
62.0860593964
 20
44.6448018528
 30
0.0
 10
62.0943045939
 20
44.6400409295
 30
0.0
  0
SPLINE
  5
4C3
100
AcDbEntity
  8
0
100
AcDbSpline
 62
250
  6
CONTINUOUS
 70
0
 71
3
 72
12
 73
8
 74
0
 42
0.0000001
 43
0.0000001
 44
0.0000000001
 40
0.0
 40
0.0
 40
0.0
 40
0.0
 40
0.2745935751
 40
0.5319099724
 40
0.7712591341
 40
0.8864219451
 40
1.0
 40
1.0
 40
1.0
 40
1.0
 10
64.0735939686
 20
43.7847162192
 30
0.0
 10
64.0648062127
 20
43.7622270958
 30
0.0
 10
64.0423494731
 20
43.7204875271
 30
0.0
 10
63.9945340552
 20
43.6710866665
 30
0.0
 10
63.9457016195
 20
43.6457531086
 30
0.0
 10
63.9051350615
 20
43.6376327074
 30
0.0
 10
63.8848703134
 20
43.6375148416
 30
0.0
 10
63.8749254293
 20
43.6384305081
 30
0.0
  0
SPLINE
  5
4C4
100
AcDbEntity
  8
0
100
AcDbSpline
 62
250
  6
CONTINUOUS
 70
0
 71
3
 72
11
 73
7
 74
0
 42
0.0000001
 43
0.0000001
 44
0.0000000001
 40
0.0
 40
0.0
 40
0.0
 40
0.0
 40
0.3641666914
 40
0.5167280164
 40
0.6494247289
 40
1.0
 40
1.0
 40
1.0
 40
1.0
 10
66.2031419312
 20
45.007164707
 30
0.0
 10
66.2072290635
 20
45.0013300723
 30
0.0
 10
66.2127256311
 20
44.9928578897
 30
0.0
 10
66.2185232679
 20
44.9814429307
 30
0.0
 10
66.2231139004
 20
44.9702161055
 30
0.0
 10
66.2251894291
 20
44.9588459203
 30
0.0
 10
66.221187042
 20
44.9532771507
 30
0.0
  0
SPLINE
  5
4C5
100
AcDbEntity
  8
0
100
AcDbSpline
 62
250
  6
CONTINUOUS
 70
0
 71
3
 72
11
 73
7
 74
0
 42
0.0000001
 43
0.0000001
 44
0.0000000001
 40
0.0
 40
0.0
 40
0.0
 40
0.0
 40
0.2898045926
 40
0.5490485653
 40
0.782226957
 40
1.0
 40
1.0
 40
1.0
 40
1.0
 10
76.0247300016
 20
36.681330376
 30
0.0
 10
76.0247300016
 20
36.668660152
 30
0.0
 10
76.0266433789
 20
36.6445728941
 30
0.0
 10
76.0364085733
 20
36.6114810185
 30
0.0
 10
76.0528233378
 20
36.584625125
 30
0.0
 10
76.0682554372
 20
36.5716570997
 30
0.0
 10
76.076500634
 20
36.5668961739
 30
0.0
  0
SPLINE
  5
4C6
100
AcDbEntity
  8
0
100
AcDbSpline
 62
250
  6
CONTINUOUS
 70
0
 71
3
 72
11
 73
7
 74
0
 42
0.0000001
 43
0.0000001
 44
0.0000000001
 40
0.0
 40
0.0
 40
0.0
 40
0.0
 40
0.2898048405
 40
0.549048695
 40
0.7822270155
 40
1.0
 40
1.0
 40
1.0
 40
1.0
 10
74.3461919312
 20
37.6504972208
 30
0.0
 10
74.3461919312
 20
37.6378269835
 30
0.0
 10
74.3481053093
 20
37.6137397144
 30
0.0
 10
74.3578705172
 20
37.5806478329
 30
0.0
 10
74.3742852862
 20
37.5537919474
 30
0.0
 10
74.3897173896
 20
37.5408239298
 30
0.0
 10
74.3979625867
 20
37.5360630059
 30
0.0
  0
SPLINE
  5
4C7
100
AcDbEntity
  8
0
100
AcDbSpline
 62
250
  6
CONTINUOUS
 70
0
 71
3
 72
12
 73
8
 74
0
 42
0.0000001
 43
0.0000001
 44
0.0000000001
 40
0.0
 40
0.0
 40
0.0
 40
0.0
 40
0.2745934508
 40
0.5319098872
 40
0.7712590933
 40
0.8864219246
 40
1.0
 40
1.0
 40
1.0
 40
1.0
 10
76.3772519612
 20
36.6807382953
 30
0.0
 10
76.3684642093
 20
36.6582491821
 30
0.0
 10
76.3460074755
 20
36.6165096199
 30
0.0
 10
76.2981920664
 20
36.5671087557
 30
0.0
 10
76.2493596246
 20
36.5417751888
 30
0.0
 10
76.2087930595
 20
36.5336547836
 30
0.0
 10
76.1885283079
 20
36.533536918
 30
0.0
 10
76.1785834219
 20
36.5344525843
 30
0.0
  0
SPLINE
  5
4C8
100
AcDbEntity
  8
0
100
AcDbSpline
 62
250
  6
CONTINUOUS
 70
0
 71
3
 72
11
 73
7
 74
0
 42
0.0000001
 43
0.0000001
 44
0.0000000001
 40
0.0
 40
0.0
 40
0.0
 40
0.0
 40
0.3641666914
 40
0.5167280164
 40
0.6494247289
 40
1.0
 40
1.0
 40
1.0
 40
1.0
 10
78.5067999238
 20
37.9031867831
 30
0.0
 10
78.5108870561
 20
37.8973521484
 30
0.0
 10
78.5163836238
 20
37.8888799658
 30
0.0
 10
78.5221812605
 20
37.8774650068
 30
0.0
 10
78.526771893
 20
37.8662381816
 30
0.0
 10
78.5288474218
 20
37.8548679964
 30
0.0
 10
78.5248450346
 20
37.8492992268
 30
0.0
  0
SPLINE
  5
4C9
100
AcDbEntity
  8
0
100
AcDbSpline
 62
250
  6
CONTINUOUS
 70
0
 71
3
 72
13
 73
9
 74
0
 42
0.0000001
 43
0.0000001
 44
0.0000000001
 40
0.0
 40
0.0
 40
0.0
 40
0.0
 40
0.2633666864
 40
0.5251510371
 40
0.6515187031
 40
0.7729526128
 40
0.8889918216
 40
1.0
 40
1.0
 40
1.0
 40
1.0
 10
78.5067999238
 20
-1.0331990039
 30
0.0
 10
78.5184154373
 20
-1.003046849
 30
0.0
 10
78.531844545
 20
-0.9388103295
 30
0.0
 10
78.5238300719
 20
-0.8578785452
 30
0.0
 10
78.5025105061
 20
-0.7988152482
 30
0.0
 10
78.4800471318
 20
-0.7599333235
 30
0.0
 10
78.4517572056
 20
-0.7275094548
 30
0.0
 10
78.4291915518
 20
-0.7107118349
 30
0.0
 10
78.4173861285
 20
-0.7039205665
 30
0.0
  0
SPLINE
  5
4CA
100
AcDbEntity
  8
0
100
AcDbSpline
 62
250
  6
CONTINUOUS
 70
0
 71
3
 72
11
 73
7
 74
0
 42
0.0000001
 43
0.0000001
 44
0.0000000001
 40
0.0
 40
0.0
 40
0.0
 40
0.0
 40
0.2370459499
 40
0.4996337287
 40
0.7624207615
 40
1.0
 40
1.0
 40
1.0
 40
1.0
 10
76.0247300016
 20
-2.2550554111
 30
0.0
 10
76.0497259986
 20
-2.2694877865
 30
0.0
 10
76.1078394524
 20
-2.2905865189
 30
0.0
 10
76.2007981723
 20
-2.3007993863
 30
0.0
 10
76.2938546185
 20
-2.2908832016
 30
0.0
 10
76.3521273766
 20
-2.2699862942
 30
0.0
 10
76.3772519612
 20
-2.2556474917
 30
0.0
  0
SPLINE
  5
4CB
100
AcDbEntity
  8
0
100
AcDbSpline
 62
250
  6
CONTINUOUS
 70
0
 71
3
 72
11
 73
7
 74
0
 42
0.0000001
 43
0.0000001
 44
0.0000000001
 40
0.0
 40
0.0
 40
0.0
 40
0.0
 40
0.2370457585
 40
0.4996335384
 40
0.7624206084
 40
1.0
 40
1.0
 40
1.0
 40
1.0
 10
76.0247300016
 20
-2.5755755839
 30
0.0
 10
76.0497259785
 20
-2.5900079477
 30
0.0
 10
76.1078394053
 20
-2.6111066811
 30
0.0
 10
76.2007981062
 20
-2.6213195593
 30
0.0
 10
76.2938545764
 20
-2.6114033845
 30
0.0
 10
76.3521273604
 20
-2.5905064763
 30
0.0
 10
76.3772519612
 20
-2.5761676646
 30
0.0
  0
SPLINE
  5
4CC
100
AcDbEntity
  8
0
100
AcDbSpline
 62
250
  6
CONTINUOUS
 70
0
 71
3
 72
12
 73
8
 74
0
 42
0.0000001
 43
0.0000001
 44
0.0000000001
 40
0.0
 40
0.0
 40
0.0
 40
0.0
 40
0.0957753422
 40
0.2087967934
 40
0.4703655278
 40
0.7474764448
 40
1.0
 40
1.0
 40
1.0
 40
1.0
 10
76.3772519612
 20
-2.2556474917
 30
0.0
 10
76.3707925405
 20
-2.2464897976
 30
0.0
 10
76.3555852745
 20
-2.2273204122
 30
0.0
 10
76.3184762417
 20
-2.1866445428
 30
0.0
 10
76.2625977623
 20
-2.1345659899
 30
0.0
 10
76.1901312363
 20
-2.076854539
 30
0.0
 10
76.1386182609
 20
-2.0421769656
 30
0.0
 10
76.1131183492
 20
-2.0272500866
 30
0.0
  0
SPLINE
  5
4CD
100
AcDbEntity
  8
0
100
AcDbSpline
 62
250
  6
CONTINUOUS
 70
0
 71
3
 72
11
 73
7
 74
0
 42
0.0000001
 43
0.0000001
 44
0.0000000001
 40
0.0
 40
0.0
 40
0.0
 40
0.0
 40
0.2279682986
 40
0.4775377778
 40
0.7387678946
 40
1.0
 40
1.0
 40
1.0
 40
1.0
 10
76.0247300016
 20
-2.2550554111
 30
0.0
 10
76.0247300016
 20
-2.2361791781
 30
0.0
 10
76.0294025788
 20
-2.1965938783
 30
0.0
 10
76.0472367688
 20
-2.1378214674
 30
0.0
 10
76.0751072418
 20
-2.0800298708
 30
0.0
 10
76.0995664448
 20
-2.0441090983
 30
0.0
 10
76.1131183492
 20
-2.0272500866
 30
0.0
  0
SPLINE
  5
4CE
100
AcDbEntity
  8
0
100
AcDbSpline
 62
250
  6
CONTINUOUS
 70
0
 71
3
 72
11
 73
7
 74
0
 42
0.0000001
 43
0.0000001
 44
0.0000000001
 40
0.0
 40
0.0
 40
0.0
 40
0.0
 40
0.2887738521
 40
0.5476578243
 40
0.7812554424
 40
1.0
 40
1.0
 40
1.0
 40
1.0
 10
82.4084965285
 20
9.6801988013
 30
0.0
 10
82.4169310038
 20
9.6852417931
 30
0.0
 10
82.4322221505
 20
9.6961083489
 30
0.0
 10
82.4504379778
 20
9.7157911359
 30
0.0
 10
82.461942142
 20
9.7374496988
 30
0.0
 10
82.4646249217
 20
9.7529424912
 30
0.0
 10
82.46462854
 20
9.7603864724
 30
0.0
  0
SPLINE
  5
4CF
100
AcDbEntity
  8
0
100
AcDbSpline
 62
250
  6
CONTINUOUS
 70
0
 71
3
 72
17
 73
13
 74
0
 42
0.0000001
 43
0.0000001
 44
0.0000000001
 40
0.0
 40
0.0
 40
0.0
 40
0.0
 40
0.1278170924
 40
0.2641024671
 40
0.4042579972
 40
0.5429013697
 40
0.674673577
 40
0.7952862877
 40
0.8508224374
 40
0.9031567717
 40
0.9526633253
 40
1.0
 40
1.0
 40
1.0
 40
1.0
 10
82.4084963284
 20
9.6801989129
 30
0.0
 10
82.4125984504
 20
9.7170368794
 30
0.0
 10
82.4124590553
 20
9.7942410739
 30
0.0
 10
82.390656147
 20
9.90998766
 30
0.0
 10
82.348547843
 20
10.0233675735
 30
0.0
 10
82.2886031989
 20
10.1269437132
 30
0.0
 10
82.2145912284
 20
10.213725545
 30
0.0
 10
82.1429393292
 20
10.2685907978
 30
0.0
 10
82.0831258235
 20
10.2975639692
 30
0.0
 10
82.039361854
 20
10.3111828606
 30
0.0
 10
81.9962807524
 20
10.3169996849
 30
0.0
 10
81.968028342
 20
10.3155394338
 30
0.0
 10
81.9544602296
 20
10.3134558969
 30
0.0
  0
SPLINE
  5
4D0
100
AcDbEntity
  8
0
100
AcDbSpline
 62
250
  6
CONTINUOUS
 70
0
 71
3
 72
11
 73
7
 74
0
 42
0.0000001
 43
0.0000001
 44
0.0000000001
 40
0.0
 40
0.0
 40
0.0
 40
0.0
 40
0.2180989648
 40
0.4514172019
 40
0.710532835
 40
1.0
 40
1.0
 40
1.0
 40
1.0
 10
78.5789975227
 20
38.3323051966
 30
0.0
 10
78.5789975638
 20
38.3228543475
 30
0.0
 10
78.5755396579
 20
38.3031622757
 30
0.0
 10
78.5607138924
 20
38.2757020437
 30
0.0
 10
78.5372731828
 20
38.2508245635
 30
0.0
 10
78.5176308511
 20
38.2371589163
 30
0.0
 10
78.5067999238
 20
38.2308320836
 30
0.0
  0
SPLINE
  5
4D1
100
AcDbEntity
  8
0
100
AcDbSpline
 62
250
  6
CONTINUOUS
 70
0
 71
3
 72
11
 73
7
 74
0
 42
0.0000001
 43
0.0000001
 44
0.0000000001
 40
0.0
 40
0.0
 40
0.0
 40
0.0
 40
0.2180990259
 40
0.451417317
 40
0.7105330511
 40
1.0
 40
1.0
 40
1.0
 40
1.0
 10
78.5789975227
 20
38.0046598961
 30
0.0
 10
78.5789975614
 20
37.9952090444
 30
0.0
 10
78.5755396553
 20
37.9755169681
 30
0.0
 10
78.560713885
 20
37.9480567269
 30
0.0
 10
78.5372731691
 20
37.9231792562
 30
0.0
 10
78.517630843
 20
37.9095136111
 30
0.0
 10
78.5067999238
 20
37.9031867831
 30
0.0
  0
SPLINE
  5
4D2
100
AcDbEntity
  8
0
100
AcDbSpline
 62
250
  6
CONTINUOUS
 70
0
 71
3
 72
11
 73
7
 74
0
 42
0.0000001
 43
0.0000001
 44
0.0000000001
 40
0.0
 40
0.0
 40
0.0
 40
0.0
 40
0.2180989648
 40
0.4514172019
 40
0.710532835
 40
1.0
 40
1.0
 40
1.0
 40
1.0
 10
66.2753395301
 20
45.4362831205
 30
0.0
 10
66.2753395711
 20
45.4268322714
 30
0.0
 10
66.2718816653
 20
45.4071401996
 30
0.0
 10
66.2570558998
 20
45.3796799676
 30
0.0
 10
66.2336151901
 20
45.3548024874
 30
0.0
 10
66.2139728584
 20
45.3411368402
 30
0.0
 10
66.2031419312
 20
45.3348100075
 30
0.0
  0
SPLINE
  5
4D3
100
AcDbEntity
  8
0
100
AcDbSpline
 62
250
  6
CONTINUOUS
 70
0
 71
3
 72
11
 73
7
 74
0
 42
0.0000001
 43
0.0000001
 44
0.0000000001
 40
0.0
 40
0.0
 40
0.0
 40
0.0
 40
0.2180990259
 40
0.451417317
 40
0.7105330511
 40
1.0
 40
1.0
 40
1.0
 40
1.0
 10
66.27533953
 20
45.10863782
 30
0.0
 10
66.2753395688
 20
45.0991869683
 30
0.0
 10
66.2718816627
 20
45.079494892
 30
0.0
 10
66.2570558924
 20
45.0520346508
 30
0.0
 10
66.2336151765
 20
45.0271571801
 30
0.0
 10
66.2139728503
 20
45.013491535
 30
0.0
 10
66.2031419312
 20
45.007164707
 30
0.0
  0
SPLINE
  5
4D4
100
AcDbEntity
  8
0
100
AcDbSpline
 62
250
  6
CONTINUOUS
 70
0
 71
3
 72
11
 73
7
 74
0
 42
0.0000001
 43
0.0000001
 44
0.0000000001
 40
0.0
 40
0.0
 40
0.0
 40
0.0
 40
0.2180891481
 40
0.4514027978
 40
0.7105217258
 40
1.0
 40
1.0
 40
1.0
 40
1.0
 10
78.4540036918
 20
38.5488078368
 30
0.0
 10
78.4458194215
 20
38.5535333769
 30
0.0
 10
78.4270368352
 20
38.560384667
 30
0.0
 10
78.3958426225
 20
38.5612738843
 30
0.0
 10
78.3625773174
 20
38.5534101461
 30
0.0
 10
78.3409211024
 20
38.5432305001
 30
0.0
 10
78.3300262201
 20
38.5370131195
 30
0.0
  0
SPLINE
  5
4D5
100
AcDbEntity
  8
0
100
AcDbSpline
 62
250
  6
CONTINUOUS
 70
0
 71
3
 72
11
 73
7
 74
0
 42
0.0000001
 43
0.0000001
 44
0.0000000001
 40
0.0
 40
0.0
 40
0.0
 40
0.0
 40
0.2180779548
 40
0.4520662549
 40
0.7113795753
 40
1.0
 40
1.0
 40
1.0
 40
1.0
 10
64.4562800616
 20
46.6308266323
 30
0.0
 10
64.448129986
 20
46.6350703921
 30
0.0
 10
64.4296322165
 20
46.6410313342
 30
0.0
 10
64.3992924213
 20
46.6412157513
 30
0.0
 10
64.3670503263
 20
46.6332420999
 30
0.0
 10
64.3460508975
 20
46.6233112455
 30
0.0
 10
64.3354886763
 20
46.6172837045
 30
0.0
  0
SPLINE
  5
4D6
100
AcDbEntity
  8
0
100
AcDbSpline
 62
250
  6
CONTINUOUS
 70
0
 71
3
 72
11
 73
7
 74
0
 42
0.0000001
 43
0.0000001
 44
0.0000000001
 40
0.0
 40
0.0
 40
0.0
 40
0.0
 40
0.2180891481
 40
0.4514027978
 40
0.7105217258
 40
1.0
 40
1.0
 40
1.0
 40
1.0
 10
66.1503456992
 20
45.6527857607
 30
0.0
 10
66.1421614288
 20
45.6575113008
 30
0.0
 10
66.1233788425
 20
45.6643625909
 30
0.0
 10
66.0921846298
 20
45.6652518082
 30
0.0
 10
66.0589193248
 20
45.65738807
 30
0.0
 10
66.0372631098
 20
45.647208424
 30
0.0
 10
66.0263682275
 20
45.6409910434
 30
0.0
  0
SPLINE
  5
4D7
100
AcDbEntity
  8
0
100
AcDbSpline
 62
250
  6
CONTINUOUS
 70
0
 71
3
 72
11
 73
7
 74
0
 42
0.0000001
 43
0.0000001
 44
0.0000000001
 40
0.0
 40
0.0
 40
0.0
 40
0.0
 40
0.2180699683
 40
0.451965846
 40
0.7112568111
 40
1.0
 40
1.0
 40
1.0
 40
1.0
 10
64.2144040518
 20
46.6318170283
 30
0.0
 10
64.2226026309
 20
46.6360430447
 30
0.0
 10
64.2412009346
 20
46.6419353813
 30
0.0
 10
64.2716577009
 20
46.6419058627
 30
0.0
 10
64.3039561939
 20
46.6336201681
 30
0.0
 10
64.3249429673
 20
46.6234435115
 30
0.0
 10
64.3354886763
 20
46.6172837045
 30
0.0
  0
SPLINE
  5
4D8
100
AcDbEntity
  8
0
100
AcDbSpline
 62
250
  6
CONTINUOUS
 70
0
 71
3
 72
11
 73
7
 74
0
 42
0.0000001
 43
0.0000001
 44
0.0000000001
 40
0.0
 40
0.0
 40
0.0
 40
0.0
 40
0.2180721889
 40
0.4520047804
 40
0.7113048375
 40
1.0
 40
1.0
 40
1.0
 40
1.0
 10
76.518238813
 20
39.5279299556
 30
0.0
 10
76.5264347918
 20
39.5321299666
 30
0.0
 10
76.5450162136
 20
39.5379747209
 30
0.0
 10
76.5754256387
 20
39.5379082439
 30
0.0
 10
76.6076680955
 20
39.5296176228
 30
0.0
 10
76.6286190541
 20
39.5194550187
 30
0.0
 10
76.639146669
 20
39.5133057806
 30
0.0
  0
SPLINE
  5
4D9
100
AcDbEntity
  8
0
100
AcDbSpline
 62
250
  6
CONTINUOUS
 70
0
 71
3
 72
11
 73
7
 74
0
 42
0.0000001
 43
0.0000001
 44
0.0000000001
 40
0.0
 40
0.0
 40
0.0
 40
0.0
 40
0.2174441626
 40
0.4504865842
 40
0.7098533773
 40
1.0
 40
1.0
 40
1.0
 40
1.0
 10
74.3957875597
 20
38.2883181183
 30
0.0
 10
74.4040467374
 20
38.2931983887
 30
0.0
 10
74.4230911571
 20
38.3003036717
 30
0.0
 10
74.4548266348
 20
38.3013062785
 30
0.0
 10
74.4887341111
 20
38.293328499
 30
0.0
 10
74.5108223501
 20
38.2829509584
 30
0.0
 10
74.5219401872
 20
38.2766063489
 30
0.0
  0
SPLINE
  5
4DA
100
AcDbEntity
  8
0
100
AcDbSpline
 62
250
  6
CONTINUOUS
 70
0
 71
3
 72
11
 73
7
 74
0
 42
0.0000001
 43
0.0000001
 44
0.0000000001
 40
0.0
 40
0.0
 40
0.0
 40
0.0
 40
0.2174441626
 40
0.4504865842
 40
0.7098533773
 40
1.0
 40
1.0
 40
1.0
 40
1.0
 10
62.092129567
 20
45.3922960422
 30
0.0
 10
62.1003887448
 20
45.3971763126
 30
0.0
 10
62.1194331645
 20
45.4042815956
 30
0.0
 10
62.1511686421
 20
45.4052842024
 30
0.0
 10
62.1850761184
 20
45.3973064229
 30
0.0
 10
62.2071643574
 20
45.3869288823
 30
0.0
 10
62.2182821945
 20
45.3805842728
 30
0.0
  0
SPLINE
  5
4DB
100
AcDbEntity
  8
0
100
AcDbSpline
 62
250
  6
CONTINUOUS
 70
0
 71
3
 72
11
 73
7
 74
0
 42
0.0000001
 43
0.0000001
 44
0.0000000001
 40
0.0
 40
0.0
 40
0.0
 40
0.0
 40
0.2370397016
 40
0.4996277568
 40
0.7624183675
 40
1.0
 40
1.0
 40
1.0
 40
1.0
 10
69.599317395
 20
41.9867533641
 30
0.0
 10
69.599317395
 20
42.0098432828
 30
0.0
 10
69.6079467278
 20
42.0585436483
 30
0.0
 10
69.6380542845
 20
42.1270316687
 30
0.0
 10
69.6821470428
 20
42.1875365575
 30
0.0
 10
69.7199325327
 20
42.2195520832
 30
0.0
 10
69.7399159998
 20
42.2312245283
 30
0.0
  0
SPLINE
  5
4DC
100
AcDbEntity
  8
0
100
AcDbSpline
 62
250
  6
CONTINUOUS
 70
0
 71
3
 72
9
 73
5
 74
0
 42
0.0000001
 43
0.0000001
 44
0.0000000001
 40
0.0
 40
0.0
 40
0.0
 40
0.0
 40
0.4918916467
 40
1.0
 40
1.0
 40
1.0
 40
1.0
 10
78.4540038208
 20
-0.7152230274
 30
0.0
 10
78.4485296127
 20
-0.7120621226
 30
0.0
 10
78.4366227716
 20
-0.7069036713
 30
0.0
 10
78.4238899273
 20
-0.7045010807
 30
0.0
 10
78.4173861285
 20
-0.7039205665
 30
0.0
  0
SPLINE
  5
4DD
100
AcDbEntity
  8
0
100
AcDbSpline
 62
250
  6
CONTINUOUS
 70
0
 71
3
 72
11
 73
7
 74
0
 42
0.0000001
 43
0.0000001
 44
0.0000000001
 40
0.0
 40
0.0
 40
0.0
 40
0.0
 40
0.2370392977
 40
0.4996273021
 40
0.762417963
 40
1.0
 40
1.0
 40
1.0
 40
1.0
 10
71.2963736699
 20
41.0068943401
 30
0.0
 10
71.2963736699
 20
41.0299842195
 30
0.0
 10
71.3050029789
 20
41.078684541
 30
0.0
 10
71.335110497
 20
41.1471725365
 30
0.0
 10
71.3792032576
 20
41.2076774711
 30
0.0
 10
71.4169887735
 20
41.2396930394
 30
0.0
 10
71.4369722746
 20
41.2513655043
 30
0.0
  0
SPLINE
  5
4DE
100
AcDbEntity
  8
0
100
AcDbSpline
 62
250
  6
CONTINUOUS
 70
0
 71
3
 72
11
 73
7
 74
0
 42
0.0000001
 43
0.0000001
 44
0.0000000001
 40
0.0
 40
0.0
 40
0.0
 40
0.0
 40
0.2180828946
 40
0.452012015
 40
0.7113063636
 40
1.0
 40
1.0
 40
1.0
 40
1.0
 10
78.5789326172
 20
-1.2626618162
 30
0.0
 10
78.5785693312
 20
-1.2718681538
 30
0.0
 10
78.5745397686
 20
-1.2909341628
 30
0.0
 10
78.5595460144
 20
-1.3174044535
 30
0.0
 10
78.5364814621
 20
-1.3414292268
 30
0.0
 10
78.5173314053
 20
-1.3546923915
 30
0.0
 10
78.5067999238
 20
-1.3608443045
 30
0.0
  0
SPLINE
  5
4DF
100
AcDbEntity
  8
0
100
AcDbSpline
 62
250
  6
CONTINUOUS
 70
0
 71
3
 72
11
 73
7
 74
0
 42
0.0000001
 43
0.0000001
 44
0.0000000001
 40
0.0
 40
0.0
 40
0.0
 40
0.0
 40
0.2898015478
 40
0.5490405396
 40
0.7822230423
 40
1.0
 40
1.0
 40
1.0
 40
1.0
 10
71.2963736699
 20
41.0068943401
 30
0.0
 10
71.2875945263
 20
41.0119633076
 30
0.0
 10
71.2716700628
 20
41.0229256224
 30
0.0
 10
71.2526481568
 20
41.0429316031
 30
0.0
 10
71.2406065097
 20
41.0650497657
 30
0.0
 10
71.2377952363
 20
41.0809312803
 30
0.0
 10
71.2377952363
 20
41.0885492588
 30
0.0
  0
SPLINE
  5
4E0
100
AcDbEntity
  8
0
100
AcDbSpline
 62
250
  6
CONTINUOUS
 70
0
 71
3
 72
11
 73
7
 74
0
 42
0.0000001
 43
0.0000001
 44
0.0000000001
 40
0.0
 40
0.0
 40
0.0
 40
0.0
 40
0.2904867108
 40
0.5499304788
 40
0.7828308526
 40
1.0
 40
1.0
 40
1.0
 40
1.0
 10
71.4369722746
 20
41.2513655043
 30
0.0
 10
71.4281652335
 20
41.2564505795
 30
0.0
 10
71.4106698343
 20
41.2647858622
 30
0.0
 10
71.3837922952
 20
41.271276414
 30
0.0
 10
71.3586167845
 20
41.2706319736
 30
0.0
 10
71.3434865179
 20
41.2650814447
 30
0.0
 10
71.3369214994
 20
41.2612468202
 30
0.0
  0
SPLINE
  5
4E1
100
AcDbEntity
  8
0
100
AcDbSpline
 62
250
  6
CONTINUOUS
 70
0
 71
3
 72
11
 73
7
 74
0
 42
0.0000001
 43
0.0000001
 44
0.0000000001
 40
0.0
 40
0.0
 40
0.0
 40
0.0
 40
0.2180765723
 40
0.4520469469
 40
0.7113560728
 40
1.0
 40
1.0
 40
1.0
 40
1.0
 10
76.7600244124
 20
39.5268036768
 30
0.0
 10
76.7518731327
 20
39.5310601527
 30
0.0
 10
76.7333672259
 20
39.5370443797
 30
0.0
 10
76.7030043805
 20
39.5372470082
 30
0.0
 10
76.670734852
 20
39.5292759791
 30
0.0
 10
76.6497178034
 20
39.5193384081
 30
0.0
 10
76.639146669
 20
39.5133057806
 30
0.0
  0
SPLINE
  5
4E2
100
AcDbEntity
  8
0
100
AcDbSpline
 62
250
  6
CONTINUOUS
 70
0
 71
3
 72
11
 73
7
 74
0
 42
0.0000001
 43
0.0000001
 44
0.0000000001
 40
0.0
 40
0.0
 40
0.0
 40
0.0
 40
0.2374055308
 40
0.5003740822
 40
0.7631391171
 40
1.0
 40
1.0
 40
1.0
 40
1.0
 10
69.7399159998
 20
42.2312245283
 30
0.0
 10
69.7599994482
 20
42.2196285969
 30
0.0
 10
69.7980327521
 20
42.1876868736
 30
0.0
 10
69.8425453949
 20
42.127210902
 30
0.0
 10
69.8731096444
 20
42.0586797821
 30
0.0
 10
69.8820431892
 20
42.0098906074
 30
0.0
 10
69.8821601075
 20
41.9867533641
 30
0.0
  0
SPLINE
  5
4E3
100
AcDbEntity
  8
0
100
AcDbSpline
 62
250
  6
CONTINUOUS
 70
0
 71
3
 72
11
 73
7
 74
0
 42
0.0000001
 43
0.0000001
 44
0.0000000001
 40
0.0
 40
0.0
 40
0.0
 40
0.0
 40
0.2372191665
 40
0.5000001327
 40
0.7627810737
 40
1.0
 40
1.0
 40
1.0
 40
1.0
 10
69.599317395
 20
41.9867533641
 30
0.0
 10
69.6193932397
 20
41.975161823
 30
0.0
 10
69.6660834178
 20
41.9582441639
 30
0.0
 10
69.7407387882
 20
41.9501384643
 30
0.0
 10
69.8153941346
 20
41.9582441756
 30
0.0
 10
69.8620842831
 20
41.9751618347
 30
0.0
 10
69.8821601075
 20
41.9867533641
 30
0.0
  0
SPLINE
  5
4E4
100
AcDbEntity
  8
0
100
AcDbSpline
 62
250
  6
CONTINUOUS
 70
0
 71
3
 72
11
 73
7
 74
0
 42
0.0000001
 43
0.0000001
 44
0.0000000001
 40
0.0
 40
0.0
 40
0.0
 40
0.0
 40
0.2180987885
 40
0.4514185298
 40
0.7105346713
 40
1.0
 40
1.0
 40
1.0
 40
1.0
 10
78.5789975225
 20
-0.9317339956
 30
0.0
 10
78.5789966441
 20
-0.9411842545
 30
0.0
 10
78.5755372742
 20
-0.9608747967
 30
0.0
 10
78.5607110449
 20
-0.9883325755
 30
0.0
 10
78.5372712391
 20
-1.0132079451
 30
0.0
 10
78.5176301148
 20
-1.0268726013
 30
0.0
 10
78.5067999238
 20
-1.0331990039
 30
0.0
  0
SPLINE
  5
4E5
100
AcDbEntity
  8
0
100
AcDbSpline
 62
250
  6
CONTINUOUS
 70
0
 71
3
 72
11
 73
7
 74
0
 42
0.0000001
 43
0.0000001
 44
0.0000000001
 40
0.0
 40
0.0
 40
0.0
 40
0.0
 40
0.2887352587
 40
0.5480246007
 40
0.7819247861
 40
1.0
 40
1.0
 40
1.0
 40
1.0
 10
78.5067999238
 20
-1.3608443045
 30
0.0
 10
78.5068612609
 20
-1.3730536817
 30
0.0
 10
78.5051811476
 20
-1.3963108116
 30
0.0
 10
78.4962103532
 20
-1.4284167923
 30
0.0
 10
78.4810131851
 20
-1.4548025399
 30
0.0
 10
78.4666166581
 20
-1.4679621269
 30
0.0
 10
78.4588602793
 20
-1.4729497297
 30
0.0
  0
SPLINE
  5
4E6
100
AcDbEntity
  8
0
100
AcDbSpline
 62
250
  6
CONTINUOUS
 70
0
 71
3
 72
11
 73
7
 74
0
 42
0.0000001
 43
0.0000001
 44
0.0000000001
 40
0.0
 40
0.0
 40
0.0
 40
0.0
 40
0.2901410345
 40
0.5495057312
 40
0.7825504244
 40
1.0
 40
1.0
 40
1.0
 40
1.0
 10
76.3772519612
 20
-2.5761676646
 30
0.0
 10
76.3771872895
 20
-2.5889661575
 30
0.0
 10
76.375130077
 20
-2.6132799054
 30
0.0
 10
76.3650862137
 20
-2.646628147
 30
0.0
 10
76.3483525043
 20
-2.6736066875
 30
0.0
 10
76.3326794955
 20
-2.6865457497
 30
0.0
 10
76.3243247577
 20
-2.6912581564
 30
0.0
  0
SPLINE
  5
4E7
100
AcDbEntity
  8
0
100
AcDbSpline
 62
250
  6
CONTINUOUS
 70
0
 71
3
 72
11
 73
7
 74
0
 42
0.0000001
 43
0.0000001
 44
0.0000000001
 40
0.0
 40
0.0
 40
0.0
 40
0.0
 40
0.2898070604
 40
0.5490474921
 40
0.7822275437
 40
1.0
 40
1.0
 40
1.0
 40
1.0
 10
76.0247300016
 20
-2.5755755839
 30
0.0
 10
76.0247300016
 20
-2.5882459128
 30
0.0
 10
76.0266432302
 20
-2.6123331794
 30
0.0
 10
76.0364089735
 20
-2.645424837
 30
0.0
 10
76.0528230817
 20
-2.6722810089
 30
0.0
 10
76.0682555235
 20
-2.6852488193
 30
0.0
 10
76.0765007859
 20
-2.6900095758
 30
0.0
  0
SPLINE
  5
4E8
100
AcDbEntity
  8
0
100
AcDbSpline
 62
250
  6
CONTINUOUS
 70
0
 71
3
 72
11
 73
7
 74
0
 42
0.0000001
 43
0.0000001
 44
0.0000000001
 40
0.0
 40
0.0
 40
0.0
 40
0.0
 40
0.2898014567
 40
0.5490406229
 40
0.7822230202
 40
1.0
 40
1.0
 40
1.0
 40
1.0
 10
74.3461919312
 20
37.6504972208
 30
0.0
 10
74.3352180051
 20
37.6568334282
 30
0.0
 10
74.3153124299
 20
37.6705363307
 30
0.0
 10
74.2915350225
 20
37.6955437823
 30
0.0
 10
74.2764829868
 20
37.7231915137
 30
0.0
 10
74.2729689237
 20
37.743043395
 30
0.0
 10
74.2729688846
 20
37.7525658691
 30
0.0
  0
SPLINE
  5
4E9
100
AcDbEntity
  8
0
100
AcDbSpline
 62
250
  6
CONTINUOUS
 70
0
 71
3
 72
11
 73
7
 74
0
 42
0.0000001
 43
0.0000001
 44
0.0000000001
 40
0.0
 40
0.0
 40
0.0
 40
0.0
 40
0.2898014619
 40
0.5490406265
 40
0.782223024
 40
1.0
 40
1.0
 40
1.0
 40
1.0
 10
74.3461919312
 20
37.9710173936
 30
0.0
 10
74.3352180049
 20
37.9773536011
 30
0.0
 10
74.3153124295
 20
37.9910565037
 30
0.0
 10
74.2915350225
 20
38.0160639559
 30
0.0
 10
74.2764829866
 20
38.0437116867
 30
0.0
 10
74.2729689231
 20
38.063563568
 30
0.0
 10
74.2729688847
 20
38.0730860419
 30
0.0
  0
SPLINE
  5
4EA
100
AcDbEntity
  8
0
100
AcDbSpline
 62
250
  6
CONTINUOUS
 70
0
 71
3
 72
11
 73
7
 74
0
 42
0.0000001
 43
0.0000001
 44
0.0000000001
 40
0.0
 40
0.0
 40
0.0
 40
0.0
 40
0.2370457585
 40
0.4996335384
 40
0.7624206084
 40
1.0
 40
1.0
 40
1.0
 40
1.0
 10
76.0247300016
 20
37.0018505488
 30
0.0
 10
76.0497259785
 20
36.987418185
 30
0.0
 10
76.1078394053
 20
36.9663194516
 30
0.0
 10
76.2007981062
 20
36.9561065734
 30
0.0
 10
76.2938545764
 20
36.9660227482
 30
0.0
 10
76.3521273604
 20
36.9869196564
 30
0.0
 10
76.3772519612
 20
37.0012584681
 30
0.0
  0
SPLINE
  5
4EB
100
AcDbEntity
  8
0
100
AcDbSpline
 62
250
  6
CONTINUOUS
 70
0
 71
3
 72
11
 73
7
 74
0
 42
0.0000001
 43
0.0000001
 44
0.0000000001
 40
0.0
 40
0.0
 40
0.0
 40
0.0
 40
0.2370459187
 40
0.4996336587
 40
0.762420666
 40
1.0
 40
1.0
 40
1.0
 40
1.0
 10
76.0247300016
 20
36.681330376
 30
0.0
 10
76.0497259953
 20
36.6668980024
 30
0.0
 10
76.1078394401
 20
36.6457992716
 30
0.0
 10
76.200798148
 20
36.6355864013
 30
0.0
 10
76.2938545979
 20
36.6455025813
 30
0.0
 10
76.3521273665
 20
36.666399487
 30
0.0
 10
76.3772519612
 20
36.6807382953
 30
0.0
  0
SPLINE
  5
4EC
100
AcDbEntity
  8
0
100
AcDbSpline
 62
250
  6
CONTINUOUS
 70
0
 71
3
 72
11
 73
7
 74
0
 42
0.0000001
 43
0.0000001
 44
0.0000000001
 40
0.0
 40
0.0
 40
0.0
 40
0.0
 40
0.2370459782
 40
0.4996337834
 40
0.7624208323
 40
1.0
 40
1.0
 40
1.0
 40
1.0
 10
63.7210720089
 20
44.1058284727
 30
0.0
 10
63.746068009
 20
44.0913960955
 30
0.0
 10
63.8041814698
 20
44.0702973621
 30
0.0
 10
63.8971401987
 20
44.0600844971
 30
0.0
 10
63.9901966415
 20
44.0700006853
 30
0.0
 10
64.0484693915
 20
44.0908975938
 30
0.0
 10
64.0735939686
 20
44.105236392
 30
0.0
  0
SPLINE
  5
4ED
100
AcDbEntity
  8
0
100
AcDbSpline
 62
250
  6
CONTINUOUS
 70
0
 71
3
 72
11
 73
7
 74
0
 42
0.0000001
 43
0.0000001
 44
0.0000000001
 40
0.0
 40
0.0
 40
0.0
 40
0.0
 40
0.2370459499
 40
0.4996337287
 40
0.7624207615
 40
1.0
 40
1.0
 40
1.0
 40
1.0
 10
63.7210720089
 20
43.7853082999
 30
0.0
 10
63.746068006
 20
43.7708759244
 30
0.0
 10
63.8041814597
 20
43.749777192
 30
0.0
 10
63.8971401797
 20
43.7395643247
 30
0.0
 10
63.9901966259
 20
43.7494805093
 30
0.0
 10
64.048469384
 20
43.7703774167
 30
0.0
 10
64.0735939686
 20
43.7847162192
 30
0.0
  0
SPLINE
  5
4EE
100
AcDbEntity
  8
0
100
AcDbSpline
 62
250
  6
CONTINUOUS
 70
0
 71
3
 72
11
 73
7
 74
0
 42
0.0000001
 43
0.0000001
 44
0.0000000001
 40
0.0
 40
0.0
 40
0.0
 40
0.0
 40
0.2898013942
 40
0.5490405964
 40
0.7822230062
 40
1.0
 40
1.0
 40
1.0
 40
1.0
 10
62.0425339385
 20
44.7544751447
 30
0.0
 10
62.0315600148
 20
44.7608113507
 30
0.0
 10
62.0116544411
 20
44.7745142529
 30
0.0
 10
61.9878770316
 20
44.7995217017
 30
0.0
 10
61.9728249949
 20
44.8271694361
 30
0.0
 10
61.9693109319
 20
44.8470213183
 30
0.0
 10
61.9693108918
 20
44.856543793
 30
0.0
  0
SPLINE
  5
4EF
100
AcDbEntity
  8
0
100
AcDbSpline
 62
250
  6
CONTINUOUS
 70
0
 71
3
 72
11
 73
7
 74
0
 42
0.0000001
 43
0.0000001
 44
0.0000000001
 40
0.0
 40
0.0
 40
0.0
 40
0.0
 40
0.2898014619
 40
0.5490406265
 40
0.782223024
 40
1.0
 40
1.0
 40
1.0
 40
1.0
 10
62.0425339385
 20
45.0749953175
 30
0.0
 10
62.0315600122
 20
45.081331525
 30
0.0
 10
62.0116544368
 20
45.0950344276
 30
0.0
 10
61.9878770298
 20
45.1200418798
 30
0.0
 10
61.9728249939
 20
45.1476896106
 30
0.0
 10
61.9693109305
 20
45.1675414919
 30
0.0
 10
61.9693108921
 20
45.1770639659
 30
0.0
  0
SPLINE
  5
4F0
100
AcDbEntity
  8
0
100
AcDbSpline
 62
7
  6
CONTINUOUS
 70
0
 71
3
 72
11
 73
7
 74
0
 42
0.0000001
 43
0.0000001
 44
0.0000000001
 40
0.0
 40
0.0
 40
0.0
 40
0.0
 40
0.2182628095
 40
0.4516498907
 40
0.7107022848
 40
1.0
 40
1.0
 40
1.0
 40
1.0
 10
84.2990667625
 20
7.1635392737
 30
0.0
 10
84.2990664286
 20
7.1560072914
 30
0.0
 10
84.2963218756
 20
7.1403178049
 30
0.0
 10
84.2845508916
 20
7.1184255265
 30
0.0
 10
84.2659330529
 20
7.0985761902
 30
0.0
 10
84.2503243753
 20
7.0876593489
 30
0.0
 10
84.2417168563
 20
7.0826019688
 30
0.0
  0
SPLINE
  5
4F1
100
AcDbEntity
  8
0
100
AcDbSpline
 62
250
  6
CONTINUOUS
 70
0
 71
3
 72
11
 73
7
 74
0
 42
0.0000001
 43
0.0000001
 44
0.0000000001
 40
0.0
 40
0.0
 40
0.0
 40
0.0
 40
0.2370401271
 40
0.4996276559
 40
0.7624177599
 40
1.0
 40
1.0
 40
1.0
 40
1.0
 10
74.3461919312
 20
37.9710173936
 30
0.0
 10
74.3461919312
 20
37.9998798494
 30
0.0
 10
74.3569781534
 20
38.0607554315
 30
0.0
 10
74.3946134487
 20
38.1463650008
 30
0.0
 10
74.4497285757
 20
38.2219966424
 30
0.0
 10
74.4969607846
 20
38.2620157524
 30
0.0
 10
74.5219401872
 20
38.2766063489
 30
0.0
  0
SPLINE
  5
4F2
100
AcDbEntity
  8
0
100
AcDbSpline
 62
250
  6
CONTINUOUS
 70
0
 71
3
 72
11
 73
7
 74
0
 42
0.0000001
 43
0.0000001
 44
0.0000000001
 40
0.0
 40
0.0
 40
0.0
 40
0.0
 40
0.2370400675
 40
0.4996275312
 40
0.7624175935
 40
1.0
 40
1.0
 40
1.0
 40
1.0
 10
76.0247300016
 20
37.0018505488
 30
0.0
 10
76.0247300016
 20
37.0307129973
 30
0.0
 10
76.0355162181
 20
37.0915885642
 30
0.0
 10
76.0731514982
 20
37.177198118
 30
0.0
 10
76.1282666217
 20
37.2528297699
 30
0.0
 10
76.1754988375
 20
37.2928488973
 30
0.0
 10
76.2004782576
 20
37.307439504
 30
0.0
  0
SPLINE
  5
4F3
100
AcDbEntity
  8
0
100
AcDbSpline
 62
250
  6
CONTINUOUS
 70
0
 71
3
 72
11
 73
7
 74
0
 42
0.0000001
 43
0.0000001
 44
0.0000000001
 40
0.0
 40
0.0
 40
0.0
 40
0.0
 40
0.2370401271
 40
0.4996276559
 40
0.7624177599
 40
1.0
 40
1.0
 40
1.0
 40
1.0
 10
62.0425339385
 20
45.0749953175
 30
0.0
 10
62.0425339385
 20
45.1038577733
 30
0.0
 10
62.0533201608
 20
45.1647333554
 30
0.0
 10
62.090955456
 20
45.2503429247
 30
0.0
 10
62.146070583
 20
45.3259745663
 30
0.0
 10
62.1933027919
 20
45.3659936763
 30
0.0
 10
62.2182821945
 20
45.3805842728
 30
0.0
  0
SPLINE
  5
4F4
100
AcDbEntity
  8
0
100
AcDbSpline
 62
250
  6
CONTINUOUS
 70
0
 71
3
 72
11
 73
7
 74
0
 42
0.0000001
 43
0.0000001
 44
0.0000000001
 40
0.0
 40
0.0
 40
0.0
 40
0.0
 40
0.2370401271
 40
0.4996276559
 40
0.7624177599
 40
1.0
 40
1.0
 40
1.0
 40
1.0
 10
63.7210720089
 20
44.1058284727
 30
0.0
 10
63.7210720089
 20
44.1346909285
 30
0.0
 10
63.7318582312
 20
44.1955665105
 30
0.0
 10
63.7694935265
 20
44.2811760798
 30
0.0
 10
63.8246086534
 20
44.3568077215
 30
0.0
 10
63.8718408623
 20
44.3968268314
 30
0.0
 10
63.8968202649
 20
44.4114174279
 30
0.0
  0
ELLIPSE
  5
4F5
100
AcDbEntity
  8
0
100
AcDbEllipse
 62
7
  6
CONTINUOUS
 10
39.7466819379
 20
63.8529403847
 30
0.0
 11
0.2522054935
 21
0.4317367776
 31
0.0
 40
0.580680601
 41
0.7006927189
 42
0.7825716451
  0
ELLIPSE
  5
4F6
100
AcDbEntity
  8
0
100
AcDbEllipse
 62
7
  6
CONTINUOUS
 10
38.8401724134
 20
60.9681968943
 30
0.0
 11
-0.1000031398
 21
0.1732052219
 31
0.0
 40
0.5773316701
 41
-2.3562258892
 42
-0.7854295624
  0
ELLIPSE
  5
4F7
100
AcDbEntity
  8
0
100
AcDbEllipse
 62
7
  6
CONTINUOUS
 10
47.2135120217
 20
54.5822378759
 30
0.0
 11
-0.2500205442
 21
0.4330020622
 31
0.0
 40
0.577360979
 41
-2.3562385877
 42
-0.7854930296
  0
ELLIPSE
  5
4F8
100
AcDbEntity
  8
0
100
AcDbEllipse
 62
7
  6
CONTINUOUS
 10
40.5372286882
 20
59.9883378703
 30
0.0
 11
-0.1000031398
 21
0.1732052219
 31
0.0
 40
0.5773316701
 41
-0.7854295624
 42
-0.0029086502
  0
ELLIPSE
  5
4F9
100
AcDbEntity
  8
0
100
AcDbEllipse
 62
7
  6
CONTINUOUS
 10
30.4094312562
 20
62.1833432015
 30
0.0
 11
-0.2498600223
 21
0.43379745
 31
0.0
 40
0.5768037941
 41
-0.7837728968
 42
0.7861100406
  0
ELLIPSE
  5
4FA
100
AcDbEntity
  8
0
100
AcDbEllipse
 62
7
  6
CONTINUOUS
 10
39.6179898727
 20
58.3064385418
 30
0.0
 11
0.1999154856
 21
0.0095814127
 31
0.0
 40
0.6067642562
 41
3.1125202648
 42
3.8979184282
  0
ELLIPSE
  5
4FB
100
AcDbEntity
  8
0
100
AcDbEllipse
 62
7
  6
CONTINUOUS
 10
37.9209335979
 20
59.2862975658
 30
0.0
 11
0.1999154856
 21
0.0095814127
 31
0.0
 40
0.6067642562
 41
-2.385266879
 42
-0.8144705522
  0
ELLIPSE
  5
4FC
100
AcDbEntity
  8
0
100
AcDbEllipse
 62
7
  6
CONTINUOUS
 10
52.6386633702
 20
59.1595724486
 30
0.0
 11
-0.7070896968
 21
1.224754734
 31
0.0
 40
0.5773595689
 41
5.1712092008
 42
6.2773917037
  0
ELLIPSE
  5
4FD
100
AcDbEntity
  8
0
100
AcDbEllipse
 62
7
  6
CONTINUOUS
 10
45.0929221516
 20
54.3289096093
 30
0.0
 11
0.249894357
 21
0.0119767658
 31
0.0
 40
0.6067642562
 41
-2.385266879
 42
-0.8202883164
  0
ELLIPSE
  5
4FE
100
AcDbEntity
  8
0
100
AcDbEllipse
 62
7
  6
CONTINUOUS
 10
45.4324359395
 20
53.5092485799
 30
0.0
 11
-0.2496303025
 21
0.4334023309
 31
0.0
 40
0.5778584463
 41
-2.3545649475
 42
-0.7846820101
  0
ELLIPSE
  5
4FF
100
AcDbEntity
  8
0
100
AcDbEllipse
 62
7
  6
CONTINUOUS
 10
52.4637482062
 20
60.279044131
 30
0.0
 11
-0.3535448484
 21
0.612377367
 31
0.0
 40
0.5773595689
 41
-3.1241152003
 42
-2.2255673615
  0
ELLIPSE
  5
500
100
AcDbEntity
  8
0
100
AcDbEllipse
 62
7
  6
CONTINUOUS
 10
43.4061564274
 20
55.3028269984
 30
0.0
 11
0.249894357
 21
0.0119767658
 31
0.0
 40
0.6067642562
 41
3.1125202636
 42
3.8979184282
  0
ELLIPSE
  5
501
100
AcDbEntity
  8
0
100
AcDbEllipse
 62
7
  6
CONTINUOUS
 10
31.1024984347
 20
62.4068049223
 30
0.0
 11
0.249894357
 21
0.0119767658
 31
0.0
 40
0.6067642562
 41
3.1125202636
 42
3.8979184282
  0
ELLIPSE
  5
502
100
AcDbEntity
  8
0
100
AcDbEllipse
 62
7
  6
CONTINUOUS
 10
45.9946801944
 20
60.2454244972
 30
0.0
 11
0.247841934
 21
0.4342563559
 31
0.0
 40
0.5739631936
 41
0.6948745611
 42
0.7767534872
  0
ELLIPSE
  5
503
100
AcDbEntity
  8
0
100
AcDbEllipse
 62
7
  6
CONTINUOUS
 10
32.7892641589
 20
61.4328875332
 30
0.0
 11
0.249894357
 21
0.0119767658
 31
0.0
 40
0.6067642562
 41
-2.385266879
 42
-0.8202883164
  0
ELLIPSE
  5
504
100
AcDbEntity
  8
0
100
AcDbEllipse
 62
7
  6
CONTINUOUS
 10
96.5036200325
 20
89.4903402549
 30
0.0
 11
60.4168506882
 21
35.2934066151
 31
0.0
 40
0.0050378458
 41
-2.6935087662
 42
-2.5636989628
  0
ELLIPSE
  5
505
100
AcDbEntity
  8
0
100
AcDbEllipse
 62
7
  6
CONTINUOUS
 10
40.1004099907
 20
62.783975083
 30
0.0
 11
0.458875566
 21
-0.0022987128
 31
0.0
 40
0.5740189913
 41
-0.7825226537
 42
0.0028755098
  0
ELLIPSE
  5
506
100
AcDbEntity
  8
0
100
AcDbEllipse
 62
7
  6
CONTINUOUS
 10
96.5036200325
 20
89.4903402549
 30
0.0
 11
60.4168506882
 21
35.2934066151
 31
0.0
 40
0.0050378458
 41
2.5578131139
 42
2.6876229173
  0
ELLIPSE
  5
507
100
AcDbEntity
  8
0
100
AcDbEllipse
 62
7
  6
CONTINUOUS
 10
45.6991081909
 20
59.5513569103
 30
0.0
 11
0.458875566
 21
-0.0022987128
 31
0.0
 40
0.5740189913
 41
-0.7767048895
 42
0.0028755094
  0
ELLIPSE
  5
508
100
AcDbEntity
  8
0
100
AcDbEllipse
 62
7
  6
CONTINUOUS
 10
71.5664870913
 20
45.4805836849
 30
0.0
 11
0.2522054935
 21
0.4317367776
 31
0.0
 40
0.580680601
 41
0.7006927189
 42
0.7825716451
  0
ELLIPSE
  5
509
100
AcDbEntity
  8
0
100
AcDbEllipse
 62
7
  6
CONTINUOUS
 10
70.6599775668
 20
42.5958401945
 30
0.0
 11
-0.1000031398
 21
0.1732052219
 31
0.0
 40
0.5773316701
 41
-2.3562258892
 42
-0.7854295624
  0
ELLIPSE
  5
50A
100
AcDbEntity
  8
0
100
AcDbEllipse
 62
7
  6
CONTINUOUS
 10
79.0333171751
 20
36.2098811761
 30
0.0
 11
-0.2500205442
 21
0.4330020622
 31
0.0
 40
0.577360979
 41
-2.3562385877
 42
-0.7854930296
  0
ELLIPSE
  5
50B
100
AcDbEntity
  8
0
100
AcDbEllipse
 62
7
  6
CONTINUOUS
 10
79.0333171751
 20
0.4579970403
 30
0.0
 11
-0.2500332324
 21
0.4330240487
 31
0.0
 40
0.5773023583
 41
-3.1343210679
 42
-2.3562893423
  0
ELLIPSE
  5
50C
100
AcDbEntity
  8
0
100
AcDbEllipse
 62
7
  6
CONTINUOUS
 10
72.3570338416
 20
41.6159811705
 30
0.0
 11
-0.1000031398
 21
0.1732052219
 31
0.0
 40
0.5773316701
 41
-0.7854295624
 42
-0.0029086502
  0
ELLIPSE
  5
50D
100
AcDbEntity
  8
0
100
AcDbEllipse
 62
7
  6
CONTINUOUS
 10
62.2292364096
 20
43.8109865018
 30
0.0
 11
-0.2498600223
 21
0.43379745
 31
0.0
 40
0.5768037941
 41
-0.7837728968
 42
0.7861100406
  0
ELLIPSE
  5
50E
100
AcDbEntity
  8
0
100
AcDbEllipse
 62
7
  6
CONTINUOUS
 10
71.4377950261
 20
39.9340818421
 30
0.0
 11
0.1999154856
 21
0.0095814127
 31
0.0
 40
0.6067642562
 41
3.1125202648
 42
3.8979184282
  0
ELLIPSE
  5
50F
100
AcDbEntity
  8
0
100
AcDbEllipse
 62
7
  6
CONTINUOUS
 10
69.7407387512
 20
40.9139408661
 30
0.0
 11
0.1999154856
 21
0.0095814127
 31
0.0
 40
0.6067642562
 41
-2.385266879
 42
-0.8144705522
  0
ELLIPSE
  5
510
100
AcDbEntity
  8
0
100
AcDbEllipse
 62
7
  6
CONTINUOUS
 10
84.4584685236
 20
40.7872157489
 30
0.0
 11
-0.7070896968
 21
1.224754734
 31
0.0
 40
0.5773595689
 41
5.1712092008
 42
6.2773917037
  0
ELLIPSE
  5
511
100
AcDbEntity
  8
0
100
AcDbEllipse
 62
7
  6
CONTINUOUS
 10
76.912727305
 20
35.9565529096
 30
0.0
 11
0.249894357
 21
0.0119767658
 31
0.0
 40
0.6067642562
 41
-2.385266879
 42
-0.8202883164
  0
ELLIPSE
  5
512
100
AcDbEntity
  8
0
100
AcDbEllipse
 62
7
  6
CONTINUOUS
 10
77.2522410929
 20
-0.4950175815
 30
0.0
 11
-0.2498600223
 21
0.43379745
 31
0.0
 40
0.5768037941
 41
2.3578197568
 42
3.9277026942
  0
ELLIPSE
  5
513
100
AcDbEntity
  8
0
100
AcDbEllipse
 62
7
  6
CONTINUOUS
 10
77.2522410929
 20
35.1368918801
 30
0.0
 11
-0.2496303025
 21
0.4334023309
 31
0.0
 40
0.5778584463
 41
-2.3545649475
 42
-0.7846820101
  0
ELLIPSE
  5
514
100
AcDbEntity
  8
0
100
AcDbEllipse
 62
7
  6
CONTINUOUS
 10
84.2835533596
 20
41.9066874313
 30
0.0
 11
-0.3535448484
 21
0.612377367
 31
0.0
 40
0.5773595689
 41
-3.1241152003
 42
-2.2255673615
  0
ELLIPSE
  5
515
100
AcDbEntity
  8
0
100
AcDbEllipse
 62
7
  6
CONTINUOUS
 10
75.2259615807
 20
36.9304702986
 30
0.0
 11
0.249894357
 21
0.0119767658
 31
0.0
 40
0.6067642562
 41
3.1125202636
 42
3.8979184282
  0
ELLIPSE
  5
516
100
AcDbEntity
  8
0
100
AcDbEllipse
 62
7
  6
CONTINUOUS
 10
62.9223035881
 20
44.0344482225
 30
0.0
 11
0.249894357
 21
0.0119767658
 31
0.0
 40
0.6067642562
 41
3.1125202636
 42
3.8979184282
  0
ELLIPSE
  5
517
100
AcDbEntity
  8
0
100
AcDbEllipse
 62
7
  6
CONTINUOUS
 10
77.8144853478
 20
41.8730677974
 30
0.0
 11
0.247841934
 21
0.4342563559
 31
0.0
 40
0.5739631936
 41
0.6948745611
 42
0.7767534872
  0
ELLIPSE
  5
518
100
AcDbEntity
  8
0
100
AcDbEllipse
 62
7
  6
CONTINUOUS
 10
64.6090693123
 20
43.0605308335
 30
0.0
 11
0.249894357
 21
0.0119767658
 31
0.0
 40
0.6067642562
 41
-2.385266879
 42
-0.8202883164
  0
ELLIPSE
  5
519
100
AcDbEntity
  8
RACCORDO
100
AcDbEllipse
 62
7
  6
CONTINUOUS
 10
82.4060714671
 20
8.6356259931
 30
0.0
 11
0.0974277822
 21
0.1746820465
 31
0.0
 40
0.5671693725
 41
0.7595658966
 42
0.7682925429
  0
ELLIPSE
  5
51A
100
AcDbEntity
  8
0
100
AcDbEllipse
 62
7
  6
CONTINUOUS
 10
128.3234251859
 20
71.1179835551
 30
0.0
 11
60.4168506882
 21
35.2934066151
 31
0.0
 40
0.0050378458
 41
-2.6935087662
 42
-2.5636989628
  0
ELLIPSE
  5
51B
100
AcDbEntity
  8
0
100
AcDbEllipse
 62
7
  6
CONTINUOUS
 10
71.9202151441
 20
44.4116183832
 30
0.0
 11
0.458875566
 21
-0.0022987128
 31
0.0
 40
0.5740189913
 41
-0.7825226537
 42
0.0028755098
  0
ELLIPSE
  5
51C
100
AcDbEntity
  8
0
100
AcDbEllipse
 62
7
  6
CONTINUOUS
 10
128.3234251859
 20
71.1179835551
 30
0.0
 11
60.4168506882
 21
35.2934066151
 31
0.0
 40
0.0050378458
 41
2.5578131139
 42
2.6876229173
  0
ELLIPSE
  5
51D
100
AcDbEntity
  8
0
100
AcDbEllipse
 62
7
  6
CONTINUOUS
 10
77.5189133443
 20
41.1790002106
 30
0.0
 11
0.458875566
 21
-0.0022987128
 31
0.0
 40
0.5740189913
 41
-0.7767048895
 42
0.0028755094
  0
ELLIPSE
  5
51E
100
AcDbEntity
  8
RACCORDO
100
AcDbEllipse
 62
7
  6
CONTINUOUS
 10
75.6803145178
 20
-1.1214031779
 30
0.0
 11
-0.2500125069
 21
0.433896272
 31
0.0
 40
0.5765407173
 41
-3.1808196884
 42
-2.3559018685
  0
ELLIPSE
  5
51F
100
AcDbEntity
  8
RACCORDO
100
AcDbEllipse
 62
7
  6
CONTINUOUS
 10
75.6803145178
 20
34.1489922998
 30
0.0
 11
-0.2496682101
 21
0.4333034053
 31
0.0
 40
0.578122598
 41
-2.3545265006
 42
-0.7851001699
  0
ELLIPSE
  5
520
100
AcDbEntity
  8
RACCORDO
100
AcDbEllipse
 62
7
  6
CONTINUOUS
 10
29.0115093503
 20
61.094975506
 30
0.0
 11
-0.2500125069
 21
0.433896272
 31
0.0
 40
0.5765407173
 41
-0.7837355456
 42
0.039227034
  0
ELLIPSE
  5
521
100
AcDbEntity
  8
0
100
AcDbEllipse
 62
7
  6
CONTINUOUS
 10
82.4060714671
 20
8.6356259931
 30
0.0
 11
0.0974277822
 21
0.1746820465
 31
0.0
 40
0.5671693725
 41
0.7595658966
 42
0.7682925429
  0
ENDSEC
  0
SECTION
  2
OBJECTS
  0
DICTIONARY
  5
C
100
AcDbDictionary
280
0
281
1
  3
ACAD_GROUP
350
D
  3
ACAD_MLINESTYLE
350
17
  3
ACAD_LAYOUT
350
1A
  3
ACAD_PLOTSETTINGS
350
19
  3
ACAD_PLOTSTYLENAME
350
E
  0
DICTIONARY
  5
D
102
{ACAD_REACTORS
330
C
102
}
100
AcDbDictionary
280
0
281
1
  0
ACDBDICTIONARYWDFLT
  5
E
102
{ACAD_REACTORS
330
C
102
}
100
AcDbDictionary
281
1
  3
Normal
350
F
100
AcDbDictionaryWithDefault
340
F
  0
DICTIONARY
  5
17
102
{ACAD_REACTORS
330
C
102
}
100
AcDbDictionary
280
0
281
1
  3
Standard
350
18
  0
DICTIONARY
  5
19
102
{ACAD_REACTORS
330
C
102
}
100
AcDbDictionary
281
1
  0
DICTIONARY
  5
1A
102
{ACAD_REACTORS
330
C
102
}
100
AcDbDictionary
281
1
  3
Model
350
522
  3
Layout1
350
523
  0
ACDBPLACEHOLDER
  5
F
102
{ACAD_REACTORS
330
E
102
}
  0
MLINESTYLE
  5
18
102
{ACAD_REACTORS
330
17
102
}
100
AcDbMlineStyle
  2
STANDARD
 70
0
  3

 62
256
 51
90.0
 52
90.0
 71
2
 49
0.5
 62
256
  6
BYLAYER
 49
-0.5
 62
256
  6
BYLAYER
  0
LAYOUT
  5
522
102
{ACAD_REACTORS
330
1A
102
}
100
AcDbPlotSettings
  1

  2
none_device
  4
ISO_A4_(297.00_x_210.00_MM)
  6

 40
0.0
 41
0.0
 42
0.0
 43
0.0
 44
297.0
 45
210.0
 46
0.0
 47
0.0
 48
0.0
 49
0.0
140
0.0
141
0.0
142
1.0
143
1.0
 70
1024
 72
1
 73
0
 74
0
  7

 75
0
147
1.0
148
0.0
149
0.0
100
AcDbLayout
  1
Model
 70
0
 71
0
 10
0.0
 20
0.0
 11
297.0
 21
210.0
 12
0.0
 22
0.0
 32
0.0
 14
0.0
 24
0.0
 34
0.0
 15
0.0
 25
0.0
 35
0.0
146
0.0
 13
0.0
 23
0.0
 33
0.0
 16
1.0
 26
0.0
 36
0.0
 17
0.0
 27
1.0
 37
0.0
 76
0
330
219
345
0
346
0
  0
LAYOUT
  5
523
102
{ACAD_REACTORS
330
1A
102
}
100
AcDbPlotSettings
  1

  2
none_device
  4
ISO_A4_(297.00_x_210.00_MM)
  6

 40
0.0
 41
0.0
 42
0.0
 43
0.0
 44
297.0
 45
210.0
 46
0.0
 47
0.0
 48
0.0
 49
0.0
140
0.0
141
0.0
142
1.0
143
1.0
 70
0
 72
1
 73
0
 74
0
  7

 75
0
147
1.0
148
0.0
149
0.0
100
AcDbLayout
  1
Layout1
 70
0
 71
1
 10
0.0
 20
0.0
 11
297.0
 21
210.0
 12
0.0
 22
0.0
 32
0.0
 14
0.0
 24
0.0
 34
0.0
 15
0.0
 25
0.0
 35
0.0
146
0.0
 13
0.0
 23
0.0
 33
0.0
 16
1.0
 26
0.0
 36
0.0
 17
0.0
 27
1.0
 37
0.0
 76
0
330
21A
345
0
346
0
  0
ENDSEC
  0
EOF
