  0
SECTION
  2
HEADER
  9
$ACADVER
  1
AC1015
  9
$DWGCODEPAGE
  3
ANSI_1252
  9
$EXTMAX
 10
297.0
 20
210.0
 30
0.0
  9
$EXTMIN
 10
0.0
 20
0.0
 30
0.0
  9
$LIMMIN
 10
0.0
 20
0.0
  9
$LIMMAX
 10
297.0
 20
210.0
  9
$VIEWCTR
 10
148.5
 20
105.0
  9
$VIEWSIZE
 40
210.0
  9
$CLAYER
  8
0
  9
$LTSCALE
 40
16.335
  9
$CELTYPE
  6
BYLAYER
  9
$DIMSCALE
 40
1.0
  9
$DIMASZ
 40
3.0
  9
$DIMEXO
 40
1.85625
  9
$DIMDLI
 40
11.286
  9
$DIMEXE
 40
5.346
  9
$DIMCEN
 40
2.673
  9
$DIMLFAC
 40
1.0
  9
$DIMBLK
  1
_FILLED
  9
$DIMTXT
 40
3.0
  9
$DIMTOL
 70
1
  9
$DIMLIM
 70
0
  9
$DIMTFAC
 40
1.0
  9
$DIMTP
 40
0.01
  9
$DIMTM
 40
0.01
  9
$PDMODE
 70
3
  9
$PDSIZE
 40
3.0
  9
$HANDSEED
  5
26F
  9
$TILEMODE
 70
1
  9
$MEASUREMENT
 70
1
  9
$INSUNITS
 70
4
  0
ENDSEC
  0
SECTION
  2
CLASSES
  0
CLASS
  1
ACDBDICTIONARYWDFLT
  2
AcDbDictionaryWithDefault
  3
AutoCAD 2000
 90
0
280
0
281
0
  0
CLASS
  1
ACDBPLACEHOLDER
  2
AcDbPlaceHolder
  3
AutoCAD 2000
 90
0
280
0
281
0
  0
CLASS
  1
LAYOUT
  2
AcDbLayout
  3
AutoCAD 2000
 90
0
280
0
281
0
  0
ENDSEC
  0
SECTION
  2
TABLES
  0
TABLE
  2
VPORT
  5
8
100
AcDbSymbolTable
 70
2
  0
VPORT
  5
1F4
100
AcDbSymbolTableRecord
100
AcDbViewportTableRecord
  2
*ACTIVE
 70
0
 10
0.0
 20
0.0
 11
1.0
 21
1.0
 12
148.5
 22
105.0
 13
0.0
 23
0.0
 14
1.0
 24
1.0
 15
0.0
 25
0.0
 16
0.0
 26
0.0
 36
1.0
 17
0.0
 27
0.0
 37
0.0
 40
210.0
 41
1.4142857143
 42
50.0
 43
0.0
 44
0.0
 50
0.0
 51
0.0
 71
0
 72
100
 73
1
 74
1
 75
0
 76
0
 77
0
 78
0
  0
ENDTAB
  0
TABLE
  2
LTYPE
  5
5
100
AcDbSymbolTable
 70
6
  0
LTYPE
  5
14
100
AcDbSymbolTableRecord
100
AcDbLinetypeTableRecord
  2
BYBLOCK
 70
0
  3

 72
65
 73
0
 40
0.0
  0
LTYPE
  5
15
100
AcDbSymbolTableRecord
100
AcDbLinetypeTableRecord
  2
BYLAYER
 70
0
  3

 72
65
 73
0
 40
0.0
  0
LTYPE
  5
16
100
AcDbSymbolTableRecord
100
AcDbLinetypeTableRecord
  2
CONTINUOUS
 70
64
  3
Solid line
 72
65
 73
0
 40
0.0
  0
LTYPE
  5
1F5
100
AcDbSymbolTableRecord
100
AcDbLinetypeTableRecord
  2
CENTER
 70
64
  3
____ _ ____ _ ____ _ ____ _ ____ _ ____ _ ____
 72
65
 73
4
 40
0.6
 49
0.375
 74
0
 49
-0.075
 74
0
 49
0.075
 74
0
 49
-0.075
 74
0
  0
LTYPE
  5
1F6
100
AcDbSymbolTableRecord
100
AcDbLinetypeTableRecord
  2
HIDDEN
 70
64
  3
- - - - - - - - - - - - - - - - - - - -
 72
65
 73
2
 40
0.2
 49
0.1
 74
0
 49
-0.1
 74
0
  0
LTYPE
  5
1F7
100
AcDbSymbolTableRecord
100
AcDbLinetypeTableRecord
  2
PHANTOM
 70
64
  3
_____ _ _ _____ _ _ _____ _ _ _____
 72
65
 73
6
 40
0.8
 49
0.45
 74
0
 49
-0.05
 74
0
 49
0.1
 74
0
 49
-0.05
 74
0
 49
0.1
 74
0
 49
-0.05
 74
0
  0
LTYPE
  5
1F8
100
AcDbSymbolTableRecord
100
AcDbLinetypeTableRecord
  2
DOT
 70
64
  3
. . . . . . . . . . . . . . . . . . . .
 72
65
 73
2
 40
0.2
 49
0.1
 74
0
 49
-0.1
 74
0
  0
LTYPE
  5
1F9
100
AcDbSymbolTableRecord
100
AcDbLinetypeTableRecord
  2
DASHED
 70
64
  3
- - - - - - - - - - - - - - - - - - - -
 72
65
 73
2
 40
0.2
 49
0.1
 74
0
 49
-0.1
 74
0
  0
ENDTAB
  0
TABLE
  2
LAYER
  5
2
100
AcDbSymbolTable
 70
36
  0
LAYER
  5
10
100
AcDbSymbolTableRecord
100
AcDbLayerTableRecord
  2
0
 70
0
 62
7
  6
CONTINUOUS
370
-3
390
F
  0
LAYER
  5
1FA
100
AcDbSymbolTableRecord
100
AcDbLayerTableRecord
  2
DEFAULT_1
 70
0
 62
7
  6
CENTER
370
-3
390
F
  0
LAYER
  5
1FB
100
AcDbSymbolTableRecord
100
AcDbLayerTableRecord
  2
DEFAULT_2
 70
0
 62
7
  6
HIDDEN
370
-3
390
F
  0
LAYER
  5
1FC
100
AcDbSymbolTableRecord
100
AcDbLayerTableRecord
  2
DEFAULT_3
 70
0
 62
7
  6
PHANTOM
370
-3
390
F
  0
LAYER
  5
1FD
100
AcDbSymbolTableRecord
100
AcDbLayerTableRecord
  2
ASSI
 70
0
 62
7
  6
CONTINUOUS
370
-3
390
F
  0
LAYER
  5
1FE
100
AcDbSymbolTableRecord
100
AcDbLayerTableRecord
  2
COORDINATE
 70
0
 62
7
  6
CONTINUOUS
370
-3
390
F
  0
LAYER
  5
1FF
100
AcDbSymbolTableRecord
100
AcDbLayerTableRecord
  2
COPY_PUBLISH
 70
0
 62
7
  6
CONTINUOUS
370
-3
390
F
  0
LAYER
  5
200
100
AcDbSymbolTableRecord
100
AcDbLayerTableRecord
  2
COSMETIC
 70
0
 62
7
  6
CONTINUOUS
370
-3
390
F
  0
LAYER
  5
201
100
AcDbSymbolTableRecord
100
AcDbLayerTableRecord
  2
COSMETICI
 70
0
 62
7
  6
CONTINUOUS
370
-3
390
F
  0
LAYER
  5
202
100
AcDbSymbolTableRecord
100
AcDbLayerTableRecord
  2
CURVE
 70
0
 62
7
  6
CONTINUOUS
370
-3
390
F
  0
LAYER
  5
203
100
AcDbSymbolTableRecord
100
AcDbLayerTableRecord
  2
DRAFT
 70
0
 62
7
  6
CONTINUOUS
370
-3
390
F
  0
LAYER
  5
204
100
AcDbSymbolTableRecord
100
AcDbLayerTableRecord
  2
IMPORT_IGES
 70
0
 62
7
  6
CONTINUOUS
370
-3
390
F
  0
LAYER
  5
205
100
AcDbSymbolTableRecord
100
AcDbLayerTableRecord
  2
INTFCLR_11
 70
0
 62
7
  6
CONTINUOUS
370
-3
390
F
  0
LAYER
  5
206
100
AcDbSymbolTableRecord
100
AcDbLayerTableRecord
  2
INTF_1
 70
0
 62
7
  6
CONTINUOUS
370
-3
390
F
  0
LAYER
  5
207
100
AcDbSymbolTableRecord
100
AcDbLayerTableRecord
  2
INTF_3
 70
0
 62
7
  6
CONTINUOUS
370
-3
390
F
  0
LAYER
  5
208
100
AcDbSymbolTableRecord
100
AcDbLayerTableRecord
  2
INTF_6
 70
0
 62
7
  6
CONTINUOUS
370
-3
390
F
  0
LAYER
  5
209
100
AcDbSymbolTableRecord
100
AcDbLayerTableRecord
  2
NOTE
 70
0
 62
7
  6
CONTINUOUS
370
-3
390
F
  0
LAYER
  5
20A
100
AcDbSymbolTableRecord
100
AcDbLayerTableRecord
  2
PIANI
 70
0
 62
7
  6
CONTINUOUS
370
-3
390
F
  0
LAYER
  5
20B
100
AcDbSymbolTableRecord
100
AcDbLayerTableRecord
  2
PUNTI
 70
0
 62
7
  6
CONTINUOUS
370
-3
390
F
  0
LAYER
  5
20C
100
AcDbSymbolTableRecord
100
AcDbLayerTableRecord
  2
RACCORDO
 70
0
 62
7
  6
CONTINUOUS
370
-3
390
F
  0
LAYER
  5
20D
100
AcDbSymbolTableRecord
100
AcDbLayerTableRecord
  2
SIMBOLI
 70
0
 62
7
  6
CONTINUOUS
370
-3
390
F
  0
LAYER
  5
20E
100
AcDbSymbolTableRecord
100
AcDbLayerTableRecord
  2
SMUSSO
 70
0
 62
7
  6
CONTINUOUS
370
-3
390
F
  0
LAYER
  5
20F
100
AcDbSymbolTableRecord
100
AcDbLayerTableRecord
  2
SNAPLINE
 70
0
 62
7
  6
CONTINUOUS
370
-3
390
F
  0
LAYER
  5
210
100
AcDbSymbolTableRecord
100
AcDbLayerTableRecord
  2
SUPERFICI
 70
0
 62
7
  6
CONTINUOUS
370
-3
390
F
  0
LAYER
  5
211
100
AcDbSymbolTableRecord
100
AcDbLayerTableRecord
  2
TRASH
 70
0
 62
7
  6
CONTINUOUS
370
-3
390
F
  0
LAYER
  5
212
100
AcDbSymbolTableRecord
100
AcDbLayerTableRecord
  2
XSEC_DATUMS
 70
0
 62
7
  6
CONTINUOUS
370
-3
390
F
  0
LAYER
  5
213
100
AcDbSymbolTableRecord
100
AcDbLayerTableRecord
  2
___SHELL
 70
0
 62
7
  6
CONTINUOUS
370
-3
390
F
  0
ENDTAB
  0
TABLE
  2
STYLE
  5
3
100
AcDbSymbolTable
 70
1
  0
STYLE
  5
11
100
AcDbSymbolTableRecord
100
AcDbTextStyleTableRecord
  2
STANDARD
 70
0
 40
0.0
 41
0.8
 50
0.0
 71
0
 42
0.2
  3
txt
  4

  0
STYLE
  5
214
100
AcDbSymbolTableRecord
100
AcDbTextStyleTableRecord
  2
TEXTSTYLE_1
 70
0
 40
0.0
 41
0.8
 50
0.0
 71
0
 42
0.2
  3
gdt
  4

  0
ENDTAB
  0
TABLE
  2
VIEW
  5
6
100
AcDbSymbolTable
 70
0
  0
ENDTAB
  0
TABLE
  2
UCS
  5
7
100
AcDbSymbolTable
 70
0
  0
ENDTAB
  0
TABLE
  2
APPID
  5
9
100
AcDbSymbolTable
 70
1
  0
APPID
  5
215
100
AcDbSymbolTableRecord
100
AcDbRegAppTableRecord
  2
ACAD
 70
0
  0
ENDTAB
  0
TABLE
  2
BLOCK_RECORD
  5
1
100
AcDbSymbolTable
 70
0
  0
BLOCK_RECORD
  5
216
100
AcDbSymbolTableRecord
100
AcDbBlockTableRecord
  2
*Model_Space
  0
BLOCK_RECORD
  5
217
100
AcDbSymbolTableRecord
100
AcDbBlockTableRecord
  2
*Paper_Space
  0
ENDTAB
  0
TABLE
  2
DIMSTYLE
  5
A
100
AcDbSymbolTable
 70
1
100
AcDbDimStyleTable
 71
0
  0
DIMSTYLE
105
218
100
AcDbSymbolTableRecord
100
AcDbDimStyleTableRecord
  2
STANDARD
 70
0
  3

  4

 40
1.0
 41
3.0
 42
0.0625
 43
0.38
 44
0.18
 45
0.0
 46
0.0
 47
0.01
 48
0.01
140
3.0
141
0.09
142
0.0
143
25.4
144
1.0
145
0.0
146
1.0
147
0.09
 71
1.0
 72
0.0
 73
0
 74
0
 75
0
 76
0
 77
1
 78
8
170
0
171
2
172
0
173
0
174
0
175
0
176
0
177
0
178
0
270
2
271
2
272
2
273
2
274
2
275
0
280
0
281
0
282
0
283
1
284
8
285
0
286
0
287
3
288
0
340
11
  0
ENDTAB
  0
ENDSEC
  0
SECTION
  2
BLOCKS
  0
BLOCK
  5
20
100
AcDbEntity
  8
0
100
AcDbBlockBegin
  2
*Model_Space
 70
0
 10
0.0
 20
0.0
 30
0.0
  3
*Model_Space
  1

  0
ENDBLK
  5
21
100
AcDbEntity
  8
0
100
AcDbBlockEnd
  0
BLOCK
  5
1C
100
AcDbEntity
  8
0
100
AcDbBlockBegin
  2
*Paper_Space
 70
0
 10
0.0
 20
0.0
 30
0.0
  3
*Paper_Space
  1

  0
ENDBLK
  5
1D
100
AcDbEntity
  8
0
100
AcDbBlockEnd
  0
ENDSEC
  0
SECTION
  2
ENTITIES
  0
LWPOLYLINE
  5
219
100
AcDbEntity
  8
RACCORDO
100
AcDbPolyline
 62
7
  6
CONTINUOUS
 90
18
 70
0
 10
-8.9802859982
 20
21.3953250959
 10
-9.0370613539
 20
21.3376221308
 10
-9.0899413472
 20
21.2762524203
 10
-9.139151971
 20
21.2117171438
 10
-9.1850705635
 20
21.1442013517
 10
-9.2279493484
 20
21.0738198084
 10
-9.2678250408
 20
21.00090731
 10
-9.3047412599
 20
20.9256949645
 10
-9.3386792184
 20
20.8484061874
 10
-9.3695711874
 20
20.7693478701
 10
-9.3973201204
 20
20.6887936938
 10
-9.4218061572
 20
20.6070418817
 10
-9.442899304
 20
20.5243647147
 10
-9.4604172122
 20
20.4410724081
 10
-9.474186866
 20
20.357387113
 10
-9.4839846188
 20
20.2734464033
 10
-9.48953141
 20
20.1895208865
 10
-9.4902120977
 20
20.1688010707
  0
LINE
  5
21A
100
AcDbEntity
  8
RACCORDO
100
AcDbLine
 62
7
  6
CONTINUOUS
 10
-6.5474452474
 20
23.6598460837
 11
-8.9802859982
 21
21.3953250959
  0
LINE
  5
21B
100
AcDbEntity
  8
RACCORDO
100
AcDbLine
 62
253
  6
CONTINUOUS
 10
-6.2166243783
 20
23.7045433404
 11
-8.6400658691
 21
21.4488351304
  0
LINE
  5
21C
100
AcDbEntity
  8
RACCORDO
100
AcDbLine
 62
7
  6
CONTINUOUS
 10
-8.9730459693
 20
21.4021265096
 11
-8.9735982041
 21
21.401614076
  0
LWPOLYLINE
  5
21D
100
AcDbEntity
  8
RACCORDO
100
AcDbPolyline
 62
7
  6
CONTINUOUS
 90
13
 70
0
 10
8.4023187372
 20
-21.6913061448
 10
8.4107637061
 20
-21.6938225761
 10
8.4670154032
 20
-21.7075339297
 10
8.5249325766
 20
-21.716369826
 10
8.5843945458
 20
-21.7201467718
 10
8.6451120142
 20
-21.7186447747
 10
8.7065811212
 20
-21.7116859838
 10
8.7684458452
 20
-21.6991517374
 10
8.8304025488
 20
-21.6809550921
 10
8.8921229615
 20
-21.6570442526
 10
8.9534293946
 20
-21.6273269183
 10
9.0142145315
 20
-21.5916782079
 10
9.0764486694
 20
-21.5484083127
  0
LWPOLYLINE
  5
21E
100
AcDbEntity
  8
RACCORDO
100
AcDbPolyline
 62
7
  6
CONTINUOUS
 90
10
 70
0
 10
-9.0431184618
 20
-15.5209207538
 10
-7.2586983899
 20
-16.2364014685
 10
-5.3567423216
 20
-16.9762755521
 10
-3.4344775884
 20
-17.7009607439
 10
-1.4923465209
 20
-18.4102929814
 10
0.4692066742
 20
-19.1041103739
 10
2.4497276496
 20
-19.7822579984
 10
4.448754925
 20
-20.4445880576
 10
6.4658257414
 20
-21.0909552363
 10
8.4025301937
 20
-21.6913728102
  0
LWPOLYLINE
  5
21F
100
AcDbEntity
  8
RACCORDO
100
AcDbPolyline
 62
7
  6
CONTINUOUS
 90
14
 70
0
 10
-9.4901875599
 20
-14.7610538252
 10
-9.4890784005
 20
-14.7900809926
 10
-9.4811839792
 20
-14.8823098316
 10
-9.4669560262
 20
-14.9690631736
 10
-9.4465391706
 20
-15.0506155929
 10
-9.4200055386
 20
-15.1271555895
 10
-9.3874937657
 20
-15.1984926025
 10
-9.3491928997
 20
-15.2644544314
 10
-9.3052876681
 20
-15.3248696477
 10
-9.256295282
 20
-15.3791804963
 10
-9.2028177596
 20
-15.4269856154
 10
-9.1454416435
 20
-15.4680535811
 10
-9.0850676405
 20
-15.5020547571
 10
-9.0424907269
 20
-15.521175119
  0
LWPOLYLINE
  5
220
100
AcDbEntity
  8
RACCORDO
100
AcDbPolyline
 62
7
  6
CONTINUOUS
 90
10
 70
0
 10
-9.490210909
 20
20.1690780362
 10
-9.5812778738
 20
16.2620507711
 10
-9.6509646409
 20
12.3051439546
 10
-9.6974412938
 20
8.3679208901
 10
-9.7206899619
 20
4.4508001318
 10
-9.7207068183
 20
0.5541211446
 10
-9.6974912321
 20
-3.3218059905
 10
-9.6510457591
 20
-7.1766475433
 10
-9.5813869993
 20
-11.0100156064
 10
-9.4901939313
 20
-14.7610440287
  0
LINE
  5
221
100
AcDbEntity
  8
RACCORDO
100
AcDbLine
 62
253
  6
CONTINUOUS
 10
8.7686518411
 20
15.2914983303
 11
11.39574494
 21
17.4751764444
  0
LINE
  5
222
100
AcDbEntity
  8
RACCORDO
100
AcDbLine
 62
253
  6
CONTINUOUS
 10
9.1878434293
 20
14.724041727
 11
11.8149365283
 21
16.9077198411
  0
LINE
  5
223
100
AcDbEntity
  8
RACCORDO
100
AcDbLine
 62
7
  6
CONTINUOUS
 10
11.8149365283
 20
-19.3231360856
 11
11.8149365283
 21
16.9077198411
  0
LINE
  5
224
100
AcDbEntity
  8
RACCORDO
100
AcDbLine
 62
7
  6
CONTINUOUS
 10
-6.2166243783
 20
23.7045433404
 11
11.39574494
 21
17.4751764444
  0
LINE
  5
225
100
AcDbEntity
  8
RACCORDO
100
AcDbLine
 62
253
  6
CONTINUOUS
 10
11.8149365283
 20
-19.3231360856
 11
9.1878434067
 21
-21.3031626058
  0
LINE
  5
226
100
AcDbEntity
  8
RACCORDO
100
AcDbLine
 62
7
  6
CONTINUOUS
 10
11.7067560592
 20
-19.5659680422
 11
9.0767236678
 21
-21.5482098749
  0
ARC
  5
227
100
AcDbEntity
  8
RACCORDO
100
AcDbCircle
 62
253
  6
CONTINUOUS
 10
624.0159664247
 20
2.486686415
 40
633.5469981456
100
AcDbArc
 50
178.4199110027
 51
181.5800889872
  0
ARC
  5
228
100
AcDbEntity
  8
RACCORDO
100
AcDbCircle
 62
253
  6
CONTINUOUS
 10
623.8161667577
 20
-3.6800447712
 40
615.9188174793
100
AcDbArc
 50
178.3746753912
 51
181.6253245975
  0
ARC
  5
229
100
AcDbEntity
  8
RACCORDO
100
AcDbCircle
 62
253
  6
CONTINUOUS
 10
604.0411360739
 20
-3.5966220665
 40
595.4965496215
100
AcDbArc
 50
178.3206426229
 51
181.6793573375
  0
ARC
  5
22A
100
AcDbEntity
  8
RACCORDO
100
AcDbCircle
 62
253
  6
CONTINUOUS
 10
65.723012949
 20
204.312076578
 40
199.0316956746
100
AcDbArc
 50
247.8588085005
 51
253.1845583781
  0
ARC
  5
22B
100
AcDbEntity
  8
RACCORDO
100
AcDbCircle
 62
253
  6
CONTINUOUS
 10
65.5375676315
 20
168.8463993355
 40
198.476156739
100
AcDbArc
 50
247.8513496628
 51
253.1920172137
  0
ARC
  5
22C
100
AcDbEntity
  8
RACCORDO
100
AcDbCircle
 62
253
  6
CONTINUOUS
 10
63.5161296003
 20
197.7683623601
 40
190.5127088337
100
AcDbArc
 50
247.7438839482
 51
253.2994829512
  0
ARC
  5
22D
100
AcDbEntity
  8
DRAFT
100
AcDbCircle
 62
7
  6
CONTINUOUS
 10
58.0341763923
 20
152.7368041601
 40
176.71921317
100
AcDbArc
 50
250.0705418661
 51
250.972826279
  0
ARC
  5
22E
100
AcDbEntity
  8
0
100
AcDbCircle
 62
7
  6
CONTINUOUS
 10
57.7485626898
 20
151.9268482637
 40
175.8604052314
100
AcDbArc
 50
250.0143111209
 51
251.0290571612
  0
ARC
  5
22F
100
AcDbEntity
  8
0
100
AcDbCircle
 62
7
  6
CONTINUOUS
 10
52.4449981476
 20
143.8920556909
 40
160.332468296
100
AcDbArc
 50
250.0246742824
 51
251.0186914341
  0
ARC
  5
230
100
AcDbEntity
  8
DRAFT
100
AcDbCircle
 62
7
  6
CONTINUOUS
 10
52.1080342907
 20
142.9325794046
 40
159.3155937396
100
AcDbArc
 50
249.881951897
 51
251.1614150128
  0
ARC
  5
231
100
AcDbEntity
  8
0
100
AcDbCircle
 62
253
  6
CONTINUOUS
 10
30.2228704905
 20
-9.7547125448
 40
32.8444012729
100
AcDbArc
 50
174.7302043829
 51
178.6171600434
  0
ARC
  5
232
100
AcDbEntity
  8
DRAFT
100
AcDbCircle
 62
7
  6
CONTINUOUS
 10
-1.1599080891
 20
-9.4196327746
 40
4.0963633088
100
AcDbArc
 50
247.0466334826
 51
249.9291395562
  0
ARC
  5
233
100
AcDbEntity
  8
DRAFT
100
AcDbCircle
 62
7
  6
CONTINUOUS
 10
2.0679693743
 20
-10.7249592416
 40
3.9420482952
100
AcDbArc
 50
251.0808075151
 51
254.0449346454
  0
ARC
  5
234
100
AcDbEntity
  8
DRAFT
100
AcDbCircle
 62
7
  6
CONTINUOUS
 10
-2.757506105
 20
-8.6727412238
 40
3.1687123158
100
AcDbArc
 50
175.6853495932
 51
180.9221628358
  0
ARC
  5
235
100
AcDbEntity
  8
0
100
AcDbCircle
 62
7
  6
CONTINUOUS
 10
2.0265846499
 20
-12.5756662315
 40
2.0757586459
100
AcDbArc
 50
324.3384692829
 51
329.1872648645
  0
ARC
  5
236
100
AcDbEntity
  8
0
100
AcDbCircle
 62
7
  6
CONTINUOUS
 10
2.0563748791
 20
-12.5970512791
 40
2.0390874315
100
AcDbArc
 50
319.4243068686
 51
324.3386727202
  0
ARC
  5
237
100
AcDbEntity
  8
0
100
AcDbCircle
 62
7
  6
CONTINUOUS
 10
2.0917277459
 20
-12.627309517
 40
1.9925537234
100
AcDbArc
 50
314.5168391598
 51
319.4239393472
  0
ARC
  5
238
100
AcDbEntity
  8
DRAFT
100
AcDbCircle
 62
7
  6
CONTINUOUS
 10
-3.903925835
 20
-8.3910743119
 40
1.9773214225
100
AcDbArc
 50
144.8510431437
 51
149.7884540802
  0
ARC
  5
239
100
AcDbEntity
  8
DRAFT
100
AcDbCircle
 62
7
  6
CONTINUOUS
 10
2.1065667979
 20
-12.6383929153
 40
1.9744204241
100
AcDbArc
 50
304.7653228329
 51
305.7627478572
  0
ARC
  5
23A
100
AcDbEntity
  8
0
100
AcDbCircle
 62
7
  6
CONTINUOUS
 10
2.1139526196
 20
-12.6485522997
 40
1.9618601562
100
AcDbArc
 50
305.7611209773
 51
309.3918054662
  0
ARC
  5
23B
100
AcDbEntity
  8
0
100
AcDbCircle
 62
7
  6
CONTINUOUS
 10
2.1164685661
 20
-12.6519488128
 40
1.9576385897
100
AcDbArc
 50
309.3979842037
 51
314.5061204456
  0
ARC
  5
23C
100
AcDbEntity
  8
DRAFT
100
AcDbCircle
 62
7
  6
CONTINUOUS
 10
-3.951958736
 20
-8.3577087052
 40
1.9188382506
100
AcDbArc
 50
139.804681312
 51
144.8399628302
  0
ARC
  5
23D
100
AcDbEntity
  8
DRAFT
100
AcDbCircle
 62
7
  6
CONTINUOUS
 10
-4.0022925261
 20
-8.3156827527
 40
1.8532675357
100
AcDbArc
 50
134.2345584857
 51
139.792818229
  0
ARC
  5
23E
100
AcDbEntity
  8
0
100
AcDbCircle
 62
7
  6
CONTINUOUS
 10
-4.0382466001
 20
-8.2798308455
 40
1.8024986917
100
AcDbArc
 50
129.375435319
 51
134.2107475002
  0
SPLINE
  5
23F
100
AcDbEntity
  8
0
100
AcDbSpline
 62
7
  6
CONTINUOUS
 70
0
 71
3
 72
11
 73
7
 74
5
 42
0.0000001
 43
0.0000001
 44
0.0000000001
 12
2.4322233334
 22
-0.8330158444
 32
0.0
 13
2.0861483114
 23
1.5025348459
 33
0.0
 40
0.0
 40
0.0
 40
0.0
 40
0.0
 40
0.2760335084
 40
0.532986998
 40
0.7723962441
 40
1.0
 40
1.0
 40
1.0
 40
1.0
 10
0.7893949107
 20
-14.4538992157
 30
0.0
 10
1.0131866241
 20
-14.5305459777
 30
0.0
 10
1.4596273534
 20
-14.6413438437
 30
0.0
 10
2.1264741001
 20
-14.6664009946
 30
0.0
 10
2.740577924
 20
-14.5404206189
 30
0.0
 10
3.1022060492
 20
-14.3545186424
 30
0.0
 10
3.2604777796
 20
-14.2405244509
 30
0.0
 11
0.7893949107
 21
-14.4538992157
 31
0.0
 11
1.4792871315
 21
-14.6202297225
 31
0.0
 11
2.139612447
 21
-14.6395079608
 31
0.0
 11
2.7415213631
 21
-14.5108682778
 31
0.0
 11
3.2604777796
 21
-14.2405244509
 31
0.0
  0
LINE
  5
240
100
AcDbEntity
  8
0
100
AcDbLine
 62
7
  6
CONTINUOUS
 10
0.5783489202
 20
-14.381438799
 11
0.7893934324
 21
-14.453874038
  0
LINE
  5
241
100
AcDbEntity
  8
0
100
AcDbLine
 62
7
  6
CONTINUOUS
 10
-2.5652887962
 20
-13.2673473409
 11
-2.3579607308
 21
-13.3428874794
  0
SPLINE
  5
242
100
AcDbEntity
  8
0
100
AcDbSpline
 62
7
  6
CONTINUOUS
 70
0
 71
3
 72
14
 73
10
 74
8
 42
0.0000001
 43
0.0000001
 44
0.0000000001
 12
-5.5845150967
 22
2.0389534815
 32
0.0
 13
-0.1059694516
 23
5.9441492781
 33
0.0
 40
0.0
 40
0.0
 40
0.0
 40
0.0
 40
0.246000349
 40
0.3762989757
 40
0.5083234117
 40
0.6389240174
 40
0.7659788565
 40
0.8867868759
 40
1.0
 40
1.0
 40
1.0
 40
1.0
 10
-2.565287428
 20
-13.2673724781
 30
0.0
 10
-3.0232183155
 20
-13.1001780555
 30
0.0
 10
-3.6809173823
 20
-12.7164141923
 30
0.0
 10
-4.429863656
 20
-12.0407648369
 30
0.0
 10
-4.9350776044
 20
-11.4446819289
 30
0.0
 10
-5.3517769278
 20
-10.7919046256
 30
0.0
 10
-5.6668467737
 20
-10.1083738417
 30
0.0
 10
-5.8665231014
 20
-9.4184998358
 30
0.0
 10
-5.9216915244
 20
-8.9550607247
 30
0.0
 10
-5.9256905686
 20
-8.7307421547
 30
0.0
 11
-2.565287428
 21
-13.2673724781
 31
0.0
 11
-3.8390060484
 21
-12.5486702236
 31
0.0
 11
-4.415180322
 21
-12.0308994731
 31
0.0
 11
-4.9225429361
 21
-11.432027612
 31
0.0
 11
-5.3398899817
 21
-10.7772991078
 31
0.0
 11
-5.6538442298
 21
-10.090283252
 31
0.0
 11
-5.850937239
 21
-9.3996406959
 31
0.0
 11
-5.9256905686
 21
-8.7307421547
 31
0.0
  0
SPLINE
  5
243
100
AcDbEntity
  8
0
100
AcDbSpline
 62
7
  6
CONTINUOUS
 70
0
 71
3
 72
11
 73
7
 74
5
 42
0.0000001
 43
0.0000001
 44
0.0000000001
 12
-1.3643400095
 22
-1.3271305799
 32
0.0
 13
0.0339264264
 23
-1.9030365827
 33
0.0
 40
0.0
 40
0.0
 40
0.0
 40
0.0
 40
0.2322746286
 40
0.4724328503
 40
0.7279316841
 40
1.0
 40
1.0
 40
1.0
 40
1.0
 10
-5.2951281595
 20
-6.9878361553
 30
0.0
 10
-5.4007620158
 20
-7.0905890761
 30
0.0
 10
-5.5908115123
 20
-7.3266035895
 30
0.0
 10
-5.7924868062
 20
-7.7460516333
 30
0.0
 10
-5.9083509498
 20
-8.222244885
 30
0.0
 10
-5.9287673372
 20
-8.5581568353
 30
0.0
 10
-5.9256905686
 20
-8.7307421547
 30
0.0
 11
-5.2951281595
 21
-6.9878361553
 31
0.0
 11
-5.5733394115
 21
-7.3314181227
 31
0.0
 11
-5.7735593915
 21
-7.7423374062
 31
0.0
 11
-5.8919645699
 21
-8.2140033544
 31
0.0
 11
-5.9256905686
 21
-8.7307421547
 31
0.0
  0
LINE
  5
244
100
AcDbEntity
  8
0
100
AcDbLine
 62
7
  6
CONTINUOUS
 10
4.13869869
 20
-12.2904434124
 11
4.1385559767
 21
-12.2829418622
  0
SPLINE
  5
245
100
AcDbEntity
  8
0
100
AcDbSpline
 62
7
  6
CONTINUOUS
 70
0
 71
3
 72
15
 73
11
 74
9
 42
0.0000001
 43
0.0000001
 44
0.0000000001
 12
-0.1201818628
 22
5.9462049447
 32
0.0
 13
-5.6285560027
 23
1.9212376869
 33
0.0
 40
0.0
 40
0.0
 40
0.0
 40
0.0
 40
0.1127254868
 40
0.2325950473
 40
0.3587129715
 40
0.4886770238
 40
0.6205705104
 40
0.7512715362
 40
0.8785909981
 40
1.0
 40
1.0
 40
1.0
 40
1.0
 10
4.1385559767
 20
-12.2829418622
 30
0.0
 10
4.1340401237
 20
-12.0595122465
 30
0.0
 10
4.0759253902
 20
-11.5987909267
 30
0.0
 10
3.8658929456
 20
-10.9162732404
 30
0.0
 10
3.5358704558
 20
-10.2448136877
 30
0.0
 10
3.1011243216
 20
-9.6073629224
 30
0.0
 10
2.5771232276
 20
-9.0287537354
 30
0.0
 10
1.9846247477
 20
-8.5285689994
 30
0.0
 10
1.346285894
 20
-8.1261521467
 30
0.0
 10
0.8926767383
 20
-7.9267042516
 30
0.0
 10
0.6648909496
 20
-7.8489524016
 30
0.0
 11
4.1385559767
 21
-12.2829418622
 31
0.0
 11
4.0593725614
 21
-11.6172086863
 31
0.0
 11
3.8524766086
 21
-10.9349761664
 31
0.0
 11
3.5241710393
 21
-10.2605655099
 31
0.0
 11
3.0894642857
 21
-9.6214388772
 31
0.0
 11
2.5632940518
 21
-9.0396581305
 31
0.0
 11
1.9687075666
 21
-8.5389438769
 31
0.0
 11
1.3271303865
 21
-8.1367446352
 31
0.0
 11
0.6648909496
 21
-7.8489524016
 31
0.0
  0
SPLINE
  5
246
100
AcDbEntity
  8
0
100
AcDbSpline
 62
253
  6
CONTINUOUS
 70
0
 71
3
 72
9
 73
5
 74
3
 42
0.0000001
 43
0.0000001
 44
0.0000000001
 12
-0.4730209051
 22
-6.5971592964
 32
0.0
 13
0.8287196178
 23
-6.56197252
 33
0.0
 40
0.0
 40
0.0
 40
0.0
 40
0.0
 40
0.5203980394
 40
1.0
 40
1.0
 40
1.0
 40
1.0
 10
0.6648896871
 20
-7.8489531125
 30
0.0
 10
0.5828366366
 20
-8.9933360336
 30
0.0
 10
0.5118655421
 20
-11.2000079386
 30
0.0
 10
0.6569111823
 20
-13.4048521473
 30
0.0
 10
0.7893963669
 20
-14.4538971094
 30
0.0
 11
0.6648896871
 21
-7.8489531125
 31
0.0
 11
0.5674705815
 21
-11.2895365334
 31
0.0
 11
0.7893963669
 21
-14.4538971094
 31
0.0
  0
SPLINE
  5
247
100
AcDbEntity
  8
0
100
AcDbSpline
 62
253
  6
CONTINUOUS
 70
0
 71
3
 72
9
 73
5
 74
3
 42
0.0000001
 43
0.0000001
 44
0.0000000001
 12
-0.3409642717
 22
-6.6020439186
 32
0.0
 13
0.6828491932
 23
-6.5754815426
 33
0.0
 40
0.0
 40
0.0
 40
0.0
 40
0.0
 40
0.5223499226
 40
1.0
 40
1.0
 40
1.0
 40
1.0
 10
0.4536976505
 20
-7.7766813175
 30
0.0
 10
0.3943300969
 20
-8.9262070274
 30
0.0
 10
0.3478974024
 20
-11.1311830971
 30
0.0
 10
0.4696288886
 20
-13.3345201015
 30
0.0
 10
0.5783498786
 20
-14.3814465242
 30
0.0
 11
0.4536976505
 21
-7.7766813175
 31
0.0
 11
0.391705371
 21
-11.2292979679
 31
0.0
 11
0.5783498786
 21
-14.3814465242
 31
0.0
  0
LINE
  5
248
100
AcDbEntity
  8
0
100
AcDbLine
 62
7
  6
CONTINUOUS
 10
0.6648913637
 20
-7.8489299353
 11
0.4536981864
 21
-7.7766736733
  0
SPLINE
  5
249
100
AcDbEntity
  8
0
100
AcDbSpline
 62
7
  6
CONTINUOUS
 70
0
 71
3
 72
10
 73
6
 74
4
 42
0.0000001
 43
0.0000001
 44
0.0000000001
 12
0.7148416975
 22
1.1983160874
 32
0.0
 13
-0.0212726736
 23
1.3951729538
 33
0.0
 40
0.0
 40
0.0
 40
0.0
 40
0.0
 40
0.2367930724
 40
0.4817240408
 40
1.0
 40
1.0
 40
1.0
 40
1.0
 10
3.8093417926
 20
-13.6389399151
 30
0.0
 10
3.8657649798
 20
-13.544355599
 30
0.0
 10
3.9654005065
 20
-13.3424334058
 30
0.0
 10
4.1066407906
 20
-12.898037494
 30
0.0
 10
4.1425086911
 20
-12.5396301519
 30
0.0
 10
4.1388336526
 20
-12.2986019517
 30
0.0
 11
3.8093417926
 21
-13.6389399151
 31
0.0
 11
3.9560827962
 21
-13.3429078257
 31
0.0
 11
4.0606255045
 21
-13.0175291933
 31
0.0
 11
4.1388336526
 21
-12.2986019517
 31
0.0
  0
LINE
  5
24A
100
AcDbEntity
  8
0
100
AcDbLine
 62
7
  6
CONTINUOUS
 10
4.1388336526
 20
-12.2986019517
 11
4.13869869
 21
-12.2904434124
  0
SPLINE
  5
24B
100
AcDbEntity
  8
0
100
AcDbSpline
 62
253
  6
CONTINUOUS
 70
0
 71
3
 72
9
 73
5
 74
3
 42
0.0000001
 43
0.0000001
 44
0.0000000001
 12
-0.1002416667
 22
-4.3899128029
 32
0.0
 13
0.6436995431
 23
-4.3436198852
 33
0.0
 40
0.0
 40
0.0
 40
0.0
 40
0.0
 40
0.2593934643
 40
1.0
 40
1.0
 40
1.0
 40
1.0
 10
-2.6119652566
 20
-8.9620862548
 30
0.0
 10
-2.620632601
 20
-9.3416578182
 30
0.0
 10
-2.6263549105
 20
-10.805310355
 30
0.0
 10
-2.5168690977
 20
-12.2705907912
 30
0.0
 10
-2.3579597349
 20
-13.3428952164
 30
0.0
 11
-2.6119652566
 21
-8.9620862548
 31
0.0
 11
-2.6158494854
 21
-10.1010911555
 31
0.0
 11
-2.3579597349
 21
-13.3428952164
 31
0.0
  0
LINE
  5
24C
100
AcDbEntity
  8
0
100
AcDbLine
 62
7
  6
CONTINUOUS
 10
0.4536976454
 20
-7.7766813904
 11
0.2953102729
 21
-7.7222920618
  0
LINE
  5
24D
100
AcDbEntity
  8
0
100
AcDbLine
 62
7
  6
CONTINUOUS
 10
-2.3270478141
 20
-6.7947830544
 11
-2.4827058609
 21
-6.7380968232
  0
SPLINE
  5
24E
100
AcDbEntity
  8
0
100
AcDbSpline
 62
253
  6
CONTINUOUS
 70
0
 71
3
 72
9
 73
5
 74
3
 42
0.0000001
 43
0.0000001
 44
0.0000000001
 12
-0.4730265684
 22
-6.5971591825
 32
0.0
 13
0.8287106802
 23
-6.5619739425
 33
0.0
 40
0.0
 40
0.0
 40
0.0
 40
0.0
 40
0.5203980307
 40
1.0
 40
1.0
 40
1.0
 40
1.0
 10
-2.6897903518
 20
-6.6623952564
 30
0.0
 10
-2.7718443833
 20
-7.8067781386
 30
0.0
 10
-2.8428171482
 20
-10.0134500994
 30
0.0
 10
-2.69777354
 20
-12.2182944878
 30
0.0
 10
-2.565289782
 20
-13.2673396963
 30
0.0
 11
-2.6897903518
 21
-6.6623952564
 31
0.0
 11
-2.7872122756
 21
-10.1029786918
 31
0.0
 11
-2.565289782
 21
-13.2673396963
 31
0.0
  0
LINE
  5
24F
100
AcDbEntity
  8
0
100
AcDbLine
 62
7
  6
CONTINUOUS
 10
-2.4827052952
 20
-6.7380891143
 11
-2.6897909366
 21
-6.6624032107
  0
SPLINE
  5
250
100
AcDbEntity
  8
0
100
AcDbSpline
 62
7
  6
CONTINUOUS
 70
0
 71
3
 72
14
 73
10
 74
8
 42
0.0000001
 43
0.0000001
 44
0.0000000001
 12
-2.4562010835
 22
0.8997293811
 32
0.0
 13
-2.0221758513
 23
-1.6592894708
 33
0.0
 40
0.0
 40
0.0
 40
0.0
 40
0.0
 40
0.2804228583
 40
0.4121845056
 40
0.5380228987
 40
0.658614568
 40
0.7752535144
 40
0.8886851846
 40
1.0
 40
1.0
 40
1.0
 40
1.0
 10
-2.6897912579
 20
-6.6624257105
 30
0.0
 10
-2.9193829007
 20
-6.5783241489
 30
0.0
 10
-3.2695530842
 20
-6.4839380414
 30
0.0
 10
-3.7372986362
 20
-6.4385955514
 30
0.0
 10
-4.0678653111
 20
-6.4458551482
 30
0.0
 10
-4.3817046167
 20
-6.4943282148
 30
0.0
 10
-4.6752078009
 20
-6.5838989575
 30
0.0
 10
-4.944763021
 20
-6.7128059539
 30
0.0
 10
-5.1067175407
 20
-6.8249213689
 30
0.0
 10
-5.1817502512
 20
-6.8864892026
 30
0.0
 11
-2.6897912579
 21
-6.6624257105
 31
0.0
 11
-3.3996312404
 21
-6.477504767
 31
0.0
 11
-3.742764487
 21
-6.4450699075
 31
0.0
 11
-4.0718302658
 21
-6.453301523
 31
0.0
 11
-4.3834411286
 21
-6.5023299291
 31
0.0
 11
-4.6750891247
 21
-6.5919422098
 31
0.0
 11
-4.942485237
 21
-6.7205470285
 31
0.0
 11
-5.1817502512
 21
-6.8864892026
 31
0.0
  0
SPLINE
  5
251
100
AcDbEntity
  8
DRAFT
100
AcDbSpline
 62
7
  6
CONTINUOUS
 70
0
 71
3
 72
21
 73
17
 74
15
 42
0.0000001
 43
0.0000001
 44
0.0000000001
 12
7.7393796238
 22
-2.6409594248
 32
0.0
 13
-6.6356131784
 23
-4.7792574101
 33
0.0
 40
0.0
 40
0.0
 40
0.0
 40
0.0
 40
0.1321338279
 40
0.2717300183
 40
0.3428207803
 40
0.4132750345
 40
0.4828428432
 40
0.5506037092
 40
0.6157878352
 40
0.6785507217
 40
0.7379996858
 40
0.7945653443
 40
0.8484960504
 40
0.8999613874
 40
0.950286877
 40
1.0
 40
1.0
 40
1.0
 40
1.0
 10
0.6645309439
 20
-7.8488295363
 30
0.0
 10
1.0054088957
 20
-7.9651495624
 30
0.0
 10
1.6772928256
 20
-8.2942525291
 30
0.0
 10
2.4179819751
 20
-8.8744028603
 30
0.0
 10
2.9457867483
 20
-9.4314926879
 30
0.0
 10
3.2986469135
 20
-9.8873967582
 30
0.0
 10
3.5972543397
 20
-10.3698805269
 30
0.0
 10
3.8370293896
 20
-10.8683635222
 30
0.0
 10
4.0111829203
 20
-11.3739846474
 30
0.0
 10
4.1165180303
 20
-11.8752622536
 30
0.0
 10
4.1514520194
 20
-12.363065387
 30
0.0
 10
4.1126038615
 20
-12.8266546251
 30
0.0
 10
4.0032927056
 20
-13.2567459676
 30
0.0
 10
3.8226117078
 20
-13.6438589551
 30
0.0
 10
3.5755754982
 20
-13.9781742773
 30
0.0
 10
3.3704367786
 20
-14.1613271941
 30
0.0
 10
3.2604777607
 20
-14.2405244645
 30
0.0
 11
0.6645309439
 21
-7.8488295363
 31
0.0
 11
1.638791692
 21
-8.3161293687
 31
0.0
 11
2.5397982076
 21
-9.0170867853
 31
0.0
 11
2.9396287123
 21
-9.4391093964
 31
0.0
 11
3.291821977
 21
-9.8950727298
 31
0.0
 11
3.5909310187
 21
-10.3789901548
 31
0.0
 11
3.8299216848
 21
-10.8789217847
 31
0.0
 11
4.0024527849
 21
-11.3832758074
 31
0.0
 11
4.1065613507
 21
-11.8858540203
 31
0.0
 11
4.1390991184
 21
-12.3709120377
 31
0.0
 11
4.0990770982
 21
-12.8317470867
 31
0.0
 11
3.98823465
 21
-13.2586129932
 31
0.0
 11
3.8090521726
 21
-13.6394252667
 31
0.0
 11
3.5639430449
 21
-13.9700109513
 31
0.0
 11
3.2604777607
 21
-14.2405244645
 31
0.0
  0
SPLINE
  5
252
100
AcDbEntity
  8
DRAFT
100
AcDbSpline
 62
7
  6
CONTINUOUS
 70
0
 71
3
 72
14
 73
10
 74
8
 42
0.0000001
 43
0.0000001
 44
0.0000000001
 12
1.9838955247
 22
1.9297859586
 32
0.0
 13
2.5986994313
 23
-0.9521956546
 33
0.0
 40
0.0
 40
0.0
 40
0.0
 40
0.0
 40
0.1118798824
 40
0.2249681248
 40
0.341188042
 40
0.4613232994
 40
0.5867264444
 40
0.7184278148
 40
1.0
 40
1.0
 40
1.0
 40
1.0
 10
-5.2951271171
 20
-6.9878351413
 30
0.0
 10
-5.2211411178
 20
-6.915867066
 30
0.0
 10
-5.0595426316
 20
-6.7836780932
 30
0.0
 10
-4.7839502355
 20
-6.6286829765
 30
0.0
 10
-4.4796945422
 20
-6.5180026983
 30
0.0
 10
-4.1509948245
 20
-6.4534619051
 30
0.0
 10
-3.8022986725
 20
-6.4359047858
 30
0.0
 10
-3.3058544137
 20
-6.4749170798
 30
0.0
 10
-2.9333457867
 20
-6.5731842967
 30
0.0
 10
-2.6894386275
 20
-6.6625549004
 30
0.0
 11
-5.2951271171
 21
-6.9878351413
 31
0.0
 11
-5.0554349928
 21
-6.791805365
 31
0.0
 11
-4.782969366
 21
-6.6377769247
 31
0.0
 11
-4.4809359602
 21
-6.5271476902
 31
0.0
 11
-4.1548573871
 21
-6.4621527747
 31
0.0
 11
-3.8082876925
 21
-6.4434743823
 31
0.0
 11
-3.4448247321
 21
-6.4710030874
 31
0.0
 11
-2.6894386275
 21
-6.6625549004
 31
0.0
  0
SPLINE
  5
253
100
AcDbEntity
  8
RACCORDO
100
AcDbSpline
 62
253
  6
CONTINUOUS
 70
0
 71
3
 72
13
 73
9
 74
7
 42
0.0000001
 43
0.0000001
 44
0.0000000001
 12
-0.6082338211
 22
0.1858119869
 32
0.0
 13
-0.0172921825
 23
0.6357479501
 33
0.0
 40
0.0
 40
0.0
 40
0.0
 40
0.0
 40
0.0939735466
 40
0.1917787114
 40
0.2972545135
 40
0.41312147
 40
0.6812308672
 40
1.0
 40
1.0
 40
1.0
 40
1.0
 10
8.4023762515
 20
-21.6913229483
 30
0.0
 10
8.3833236217
 20
-21.6855024778
 30
0.0
 10
8.3457955811
 20
-21.6686172948
 30
0.0
 10
8.2958357237
 20
-21.6293511104
 30
0.0
 10
8.2524501572
 20
-21.5768626988
 30
0.0
 10
8.2013645291
 20
-21.4860463995
 30
0.0
 10
8.158680537
 20
-21.3415777285
 30
0.0
 10
8.1469855297
 20
-21.2171865809
 30
0.0
 10
8.145148125
 20
-21.1496343067
 30
0.0
 11
8.4023762515
 21
-21.6913229483
 31
0.0
 11
8.347816896
 21
-21.6669261876
 31
0.0
 11
8.2986368438
 21
-21.6288412204
 31
0.0
 11
8.2554494631
 21
-21.5775120155
 31
0.0
 11
8.218780144
 21
-21.5135941605
 31
0.0
 11
8.1667562608
 21
-21.3512112418
 31
0.0
 11
8.145148125
 21
-21.1496343067
 31
0.0
  0
SPLINE
  5
254
100
AcDbEntity
  8
RACCORDO
100
AcDbSpline
 62
253
  6
CONTINUOUS
 70
0
 71
3
 72
15
 73
11
 74
9
 42
0.0000001
 43
0.0000001
 44
0.0000000001
 12
-0.4976878937
 22
-0.3749585446
 32
0.0
 13
-0.0185573412
 23
0.6228505236
 33
0.0
 40
0.0
 40
0.0
 40
0.0
 40
0.0
 40
0.139332486
 40
0.2592094533
 40
0.3645285608
 40
0.4648295969
 40
0.5717105359
 40
0.6942094586
 40
0.8368046885
 40
1.0
 40
1.0
 40
1.0
 40
1.0
 10
9.1878434067
 20
-21.3031626058
 30
0.0
 10
9.1647287095
 20
-21.3205772412
 30
0.0
 10
9.1189535903
 20
-21.34967781
 30
0.0
 10
9.0466068237
 20
-21.3748780656
 30
0.0
 10
8.9774843478
 20
-21.3760126237
 30
0.0
 10
8.9156716633
 20
-21.3508536392
 30
0.0
 10
8.8661230008
 20
-21.3015031486
 30
0.0
 10
8.8300094195
 20
-21.2322310991
 30
0.0
 10
8.8071875303
 20
-21.1457089851
 30
0.0
 10
8.801371553
 20
-21.0821965005
 30
0.0
 10
8.8003620626
 20
-21.0483144055
 30
0.0
 11
9.1878434067
 21
-21.3031626058
 31
0.0
 11
9.1138797662
 21
-21.3486313714
 31
0.0
 11
9.042831013
 21
-21.3716954172
 31
0.0
 11
8.9772041363
 21
-21.37149908
 31
0.0
 11
8.9192800077
 21
-21.3480239933
 31
0.0
 11
8.8711200654
 21
-21.3020214732
 31
0.0
 11
8.8344398374
 21
-21.235079764
 31
0.0
 11
8.810563774
 21
-21.1494927827
 31
0.0
 11
8.8003620626
 21
-21.0483144055
 31
0.0
  0
SPLINE
  5
255
100
AcDbEntity
  8
RACCORDO
100
AcDbSpline
 62
253
  6
CONTINUOUS
 70
0
 71
3
 72
11
 73
7
 74
5
 42
0.0000001
 43
0.0000001
 44
0.0000000001
 12
0.0276855789
 22
0.9731056799
 32
0.0
 13
0.748534343
 23
0.6224126387
 33
0.0
 40
0.0
 40
0.0
 40
0.0
 40
0.0
 40
0.249794872
 40
0.5184653183
 40
0.7771949545
 40
1.0
 40
1.0
 40
1.0
 40
1.0
 10
8.8003620747
 20
13.8550706844
 30
0.0
 10
8.8026673132
 20
13.9360962873
 30
0.0
 10
8.828618756
 20
14.103784139
 30
0.0
 10
8.9112134412
 20
14.3433164315
 30
0.0
 10
9.0293643085
 20
14.557397391
 30
0.0
 10
9.1322510199
 20
14.6778161682
 30
0.0
 10
9.1878434293
 20
14.724041727
 30
0.0
 11
8.8003620747
 21
13.8550706844
 31
0.0
 11
8.8344398617
 21
14.0958462365
 31
0.0
 11
8.9192800307
 21
14.3432544511
 31
0.0
 11
9.0428310357
 21
14.5627430284
 31
0.0
 11
9.1878434293
 21
14.724041727
 31
0.0
  0
SPLINE
  5
256
100
AcDbEntity
  8
RACCORDO
100
AcDbSpline
 62
253
  6
CONTINUOUS
 70
0
 71
3
 72
11
 73
7
 74
5
 42
0.0000001
 43
0.0000001
 44
0.0000000001
 12
0.6563858775
 22
-0.1967506094
 32
0.0
 13
0.5205699449
 23
0.445600892
 33
0.0
 40
0.0
 40
0.0
 40
0.0
 40
0.0
 40
0.2577384937
 40
0.5255533089
 40
0.7795870758
 40
1.0
 40
1.0
 40
1.0
 40
1.0
 10
8.1451481405
 20
-21.1496343093
 30
0.0
 10
8.2015401096
 20
-21.1665377112
 30
0.0
 10
8.321236446
 20
-21.1860694907
 30
0.0
 10
8.5003211718
 20
-21.177815961
 30
0.0
 10
8.66555823
 20
-21.1348293121
 30
0.0
 10
8.7621152813
 20
-21.0810531373
 30
0.0
 10
8.8003620626
 20
-21.0483144055
 30
0.0
 11
8.1451481405
 21
-21.1496343093
 31
0.0
 11
8.3191898339
 21
-21.1796593243
 31
0.0
 11
8.5025104617
 21
-21.1711653985
 31
0.0
 11
8.6704450101
 21
-21.1253424981
 31
0.0
 11
8.8003620626
 21
-21.0483144055
 31
0.0
  0
SPLINE
  5
257
100
AcDbEntity
  8
RACCORDO
100
AcDbSpline
 62
253
  6
CONTINUOUS
 70
0
 71
3
 72
11
 73
7
 74
5
 42
0.0000001
 43
0.0000001
 44
0.0000000001
 12
0.6469990953
 22
-0.1989213636
 32
0.0
 13
0.5470016921
 23
0.3987062667
 33
0.0
 40
0.0
 40
0.0
 40
0.0
 40
0.0
 40
0.2618783508
 40
0.5327041163
 40
0.7860102097
 40
1.0
 40
1.0
 40
1.0
 40
1.0
 10
8.1451546757
 20
13.789550791
 30
0.0
 10
8.2016330277
 20
13.7721863915
 30
0.0
 10
8.3207794011
 20
13.7501514677
 30
0.0
 10
8.4991155091
 20
13.7504655212
 30
0.0
 10
8.6635311614
 20
13.7821654724
 30
0.0
 10
8.7613444822
 20
13.8266309943
 30
0.0
 10
8.8003620746
 20
13.8550706844
 30
0.0
 11
8.1451546757
 21
13.789550791
 31
0.0
 11
8.3191933081
 21
13.755898243
 31
0.0
 11
8.5025112924
 21
13.7564265468
 31
0.0
 11
8.6704446226
 21
13.791022639
 31
0.0
 11
8.8003620746
 21
13.8550706844
 31
0.0
  0
SPLINE
  5
258
100
AcDbEntity
  8
RACCORDO
100
AcDbSpline
 62
253
  6
CONTINUOUS
 70
0
 71
3
 72
11
 73
7
 74
5
 42
0.0000001
 43
0.0000001
 44
0.0000000001
 12
0.6926258312
 22
-0.2597365661
 32
0.0
 13
0.0132612276
 23
-0.7396064938
 33
0.0
 40
0.0
 40
0.0
 40
0.0
 40
0.0
 40
0.2464013404
 40
0.4432556159
 40
0.6405699216
 40
1.0
 40
1.0
 40
1.0
 40
1.0
 10
8.7686518411
 20
15.2914983303
 30
0.0
 10
8.8255398188
 20
15.2701651843
 30
0.0
 10
8.9213793858
 20
15.2134553723
 30
0.0
 10
9.0353125342
 20
15.1026630664
 30
0.0
 10
9.1413511675
 20
14.9496523787
 30
0.0
 10
9.1862546013
 20
14.8126540003
 30
0.0
 10
9.1878434293
 20
14.724041727
 30
0.0
 11
8.7686518411
 21
15.2914983303
 31
0.0
 11
8.92683873
 21
15.2009499215
 31
0.0
 11
9.0315781689
 21
15.0997852953
 31
0.0
 11
9.114340206
 21
14.9795592614
 31
0.0
 11
9.1878434293
 21
14.724041727
 31
0.0
  0
SPLINE
  5
259
100
AcDbEntity
  8
RACCORDO
100
AcDbSpline
 62
253
  6
CONTINUOUS
 70
0
 71
3
 72
11
 73
7
 74
5
 42
0.0000001
 43
0.0000001
 44
0.0000000001
 12
-0.3338271033
 22
0.1111960818
 32
0.0
 13
-0.2584271818
 23
-0.2387896463
 33
0.0
 40
0.0
 40
0.0
 40
0.0
 40
0.0
 40
0.2783054598
 40
0.5353558991
 40
0.7732583208
 40
1.0
 40
1.0
 40
1.0
 40
1.0
 10
-8.640065887
 20
21.4488351137
 30
0.0
 10
-8.6710345222
 20
21.4591506059
 30
0.0
 10
-8.7327247085
 20
21.4734288929
 30
0.0
 10
-8.8243278649
 20
21.4735181768
 30
0.0
 10
-8.9070482145
 20
21.4507179053
 30
0.0
 10
-8.95350989
 20
21.4201700429
 30
0.0
 10
-8.9730419611
 20
21.4021221878
 30
0.0
 11
-8.640065887
 21
21.4488351137
 31
0.0
 11
-8.7356415299
 21
21.4701538421
 31
0.0
 11
-8.8260830174
 21
21.4692874311
 31
0.0
 11
-8.9065459456
 21
21.4462053115
 31
0.0
 11
-8.9730419611
 21
21.4021221878
 31
0.0
  0
SPLINE
  5
25A
100
AcDbEntity
  8
RACCORDO
100
AcDbSpline
 62
253
  6
CONTINUOUS
 70
0
 71
3
 72
11
 73
7
 74
5
 42
0.0000001
 43
0.0000001
 44
0.0000000001
 12
-0.2858098768
 22
0.1155178796
 32
0.0
 13
0.0074097637
 23
0.3081830002
 33
0.0
 40
0.0
 40
0.0
 40
0.0
 40
0.0
 40
0.3088506603
 40
0.5753802566
 40
0.8009383139
 40
1.0
 40
1.0
 40
1.0
 40
1.0
 10
-9.2901304155
 20
19.9562760731
 30
0.0
 10
-9.3195546052
 20
19.9681686642
 30
0.0
 10
-9.3728970163
 20
19.9944920556
 30
0.0
 10
-9.4384061776
 20
20.0455276285
 30
0.0
 10
-9.480842004
 20
20.1041134174
 30
0.0
 10
-9.4907113221
 20
20.1483521213
 30
0.0
 10
-9.4902196554
 20
20.1688012639
 30
0.0
 11
-9.2901304155
 21
19.9562760731
 31
0.0
 11
-9.3750105636
 21
19.9994073893
 31
0.0
 11
-9.43881352
 21
20.0511765375
 31
0.0
 11
-9.4778971111
 21
20.1086860628
 31
0.0
 11
-9.4902196554
 21
20.1688012639
 31
0.0
  0
SPLINE
  5
25B
100
AcDbEntity
  8
RACCORDO
100
AcDbSpline
 62
253
  6
CONTINUOUS
 70
0
 71
3
 72
11
 73
7
 74
5
 42
0.0000001
 43
0.0000001
 44
0.0000000001
 12
-0.2907118352
 22
0.1199426085
 32
0.0
 13
-0.008672975
 23
0.314363452
 33
0.0
 40
0.0
 40
0.0
 40
0.0
 40
0.0
 40
0.296744831
 40
0.5590658399
 40
0.7893863567
 40
1.0
 40
1.0
 40
1.0
 40
1.0
 10
-9.2901223726
 20
-14.982896801
 30
0.0
 10
-9.3188781174
 20
-14.9710326847
 30
0.0
 10
-9.3714191013
 20
-14.9441651663
 30
0.0
 10
-9.4360332348
 20
-14.8911860789
 30
0.0
 10
-9.4785122
 20
-14.8294284852
 30
0.0
 10
-9.4895802581
 20
-14.7831236125
 30
0.0
 10
-9.4901891404
 20
-14.7610538685
 30
0.0
 11
-9.2901223726
 21
-14.982896801
 31
0.0
 11
-9.3727442527
 21
-14.9395092915
 31
0.0
 11
-9.43565641
 21
-14.8861466585
 31
0.0
 11
-9.4754554821
 21
-14.8256287735
 31
0.0
 11
-9.4901891404
 21
-14.7610538685
 31
0.0
  0
SPLINE
  5
25C
100
AcDbEntity
  8
RACCORDO
100
AcDbSpline
 62
253
  6
CONTINUOUS
 70
0
 71
3
 72
11
 73
7
 74
5
 42
0.0000001
 43
0.0000001
 44
0.0000000001
 12
0.0184851296
 22
-0.6213878943
 32
0.0
 13
0.5758209894
 23
-0.2342964005
 33
0.0
 40
0.0
 40
0.0
 40
0.0
 40
0.0
 40
0.3129984768
 40
0.5803622865
 40
0.8046394686
 40
1.0
 40
1.0
 40
1.0
 40
1.0
 10
-9.2901304161
 20
-14.9829031029
 30
0.0
 10
-9.2882018103
 20
-15.0477342577
 30
0.0
 10
-9.2765638739
 20
-15.1680564696
 30
0.0
 10
-9.2292069419
 20
-15.3292759071
 30
0.0
 10
-9.1535815423
 20
-15.4526752575
 30
0.0
 10
-9.0806148744
 20
-15.5056639491
 30
0.0
 10
-9.0431173096
 20
-15.5209213722
 30
0.0
 11
-9.2901304161
 21
-14.9829031029
 31
0.0
 11
-9.2690988024
 21
-15.1763426402
 31
0.0
 11
-9.2192230145
 21
-15.3348929889
 31
0.0
 11
-9.1427509709
 21
-15.4514746985
 31
0.0
 11
-9.0431173096
 21
-15.5209213722
 31
0.0
  0
SPLINE
  5
25D
100
AcDbEntity
  8
RACCORDO
100
AcDbSpline
 62
253
  6
CONTINUOUS
 70
0
 71
3
 72
12
 73
8
 74
6
 42
0.0000001
 43
0.0000001
 44
0.0000000001
 12
0.0430610886
 22
1.6602326815
 32
0.0
 13
1.2318122764
 23
1.1139413493
 33
0.0
 40
0.0
 40
0.0
 40
0.0
 40
0.0
 40
0.2510339964
 40
0.5207139796
 40
0.7792287398
 40
0.8957377795
 40
1.0
 40
1.0
 40
1.0
 40
1.0
 10
8.1451481506
 20
13.7895448741
 30
0.0
 10
8.1487514164
 20
13.9284698225
 30
0.0
 10
8.1902428165
 20
14.21599201
 30
0.0
 10
8.3224884083
 20
14.6281360118
 30
0.0
 10
8.4860016345
 20
14.9479835598
 30
0.0
 10
8.6420847
 20
15.1630901955
 30
0.0
 10
8.7258413467
 20
15.2527843308
 30
0.0
 10
8.7686518411
 20
15.2914983303
 30
0.0
 11
8.1451481506
 21
13.7895448741
 31
0.0
 11
8.1996529255
 21
14.2028817255
 31
0.0
 11
8.3359371533
 21
14.6295255814
 31
0.0
 11
8.5348541289
 21
15.0100042369
 31
0.0
 11
8.6493762802
 21
15.1659716388
 31
0.0
 11
8.7686518411
 21
15.2914983303
 31
0.0
  0
SPLINE
  5
25E
100
AcDbEntity
  8
RACCORDO
100
AcDbSpline
 62
253
  6
CONTINUOUS
 70
0
 71
3
 72
12
 73
8
 74
6
 42
0.0000001
 43
0.0000001
 44
0.0000000001
 12
-1.2655944755
 22
-1.0820166898
 32
0.0
 13
-0.0472980594
 23
-1.6644075183
 33
0.0
 40
0.0
 40
0.0
 40
0.0
 40
0.0
 40
0.1053029741
 40
0.222419129
 40
0.4810696204
 40
0.7499655935
 40
1.0
 40
1.0
 40
1.0
 40
1.0
 10
-8.640065887
 20
21.4488351137
 30
0.0
 10
-8.6844895078
 20
21.4108552552
 30
0.0
 10
-8.771541923
 20
21.3225929324
 30
0.0
 10
-8.9339321585
 20
21.1100606997
 30
0.0
 10
-9.1044321198
 20
20.7926847384
 30
0.0
 10
-9.2426215267
 20
20.3821475665
 30
0.0
 10
-9.2861883892
 20
20.0949957544
 30
0.0
 10
-9.2901304366
 20
19.9562760391
 30
0.0
 11
-8.640065887
 21
21.4488351137
 31
0.0
 11
-8.7642347613
 21
21.3250391516
 31
0.0
 11
-8.8834881079
 21
21.1707451388
 31
0.0
 11
-9.0907197625
 21
20.7932073247
 31
0.0
 11
-9.2329092476
 21
20.3686521149
 31
0.0
 11
-9.2901304366
 21
19.9562760391
 31
0.0
  0
SPLINE
  5
25F
100
AcDbEntity
  8
RACCORDO
100
AcDbSpline
 62
253
  6
CONTINUOUS
 70
0
 71
3
 72
10
 73
6
 74
4
 42
0.0000001
 43
0.0000001
 44
0.0000000001
 12
0.2215337463
 22
0.1668294173
 32
0.0
 13
0.0048343526
 23
0.27728304
 33
0.0
 40
0.0
 40
0.0
 40
0.0
 40
0.0
 40
0.233971841
 40
0.475536371
 40
1.0
 40
1.0
 40
1.0
 40
1.0
 10
9.0767120513
 20
-21.5481943011
 30
0.0
 10
9.0939896041
 20
-21.5351831725
 30
0.0
 10
9.1257450799
 20
-21.5039220906
 30
0.0
 10
9.1735605174
 20
-21.4239177229
 30
0.0
 10
9.1869982593
 20
-21.3516375622
 30
0.0
 10
9.1878434067
 20
-21.3031626058
 30
0.0
 11
9.0767120513
 21
-21.5481943011
 31
0.0
 11
9.1230550941
 21
-21.5027789725
 31
0.0
 11
9.1577274532
 21
-21.4454575476
 31
0.0
 11
9.1878434067
 21
-21.3031626058
 31
0.0
  0
SPLINE
  5
260
100
AcDbEntity
  8
DRAFT
100
AcDbSpline
 62
7
  6
CONTINUOUS
 70
0
 71
3
 72
15
 73
11
 74
9
 42
0.0000001
 43
0.0000001
 44
0.0000000001
 12
-5.2826578107
 22
2.2351090261
 32
0.0
 13
-0.1153365391
 23
5.7348830317
 33
0.0
 40
0.0
 40
0.0
 40
0.0
 40
0.0
 40
0.1218122094
 40
0.2489443999
 40
0.3794378194
 40
0.5109412275
 40
0.6408984648
 40
0.7670601134
 40
0.8872077011
 40
1.0
 40
1.0
 40
1.0
 40
1.0
 10
-2.7574151973
 20
-13.1916565546
 30
0.0
 10
-2.9719126037
 20
-13.1009020317
 30
0.0
 10
-3.3954570986
 20
-12.8789530417
 30
0.0
 10
-3.9850503814
 20
-12.4524829795
 30
0.0
 10
-4.5253285807
 20
-11.9378145
 30
0.0
 10
-4.9989206929
 20
-11.3543246937
 30
0.0
 10
-5.3882502035
 20
-10.7212435547
 30
0.0
 10
-5.6824839282
 20
-10.0621570857
 30
0.0
 10
-5.8690296727
 20
-9.3988927081
 30
0.0
 10
-5.9212104598
 20
-8.9539368611
 30
0.0
 10
-5.9255468176
 20
-8.7383199807
 30
0.0
 11
-2.7574151973
 21
-13.1916565546
 31
0.0
 11
-3.3776141146
 21
-12.8698445132
 31
0.0
 11
-3.9694489229
 21
-12.4437973
 31
0.0
 11
-4.5122177413
 21
-11.9283577279
 31
0.0
 11
-4.9873041492
 21
-11.3424607901
 31
0.0
 11
-5.37739565
 21
-10.7072365726
 31
0.0
 11
-5.6702235849
 21
-10.0454601384
 31
0.0
 11
-5.8545401501
 21
-9.3813931033
 31
0.0
 11
-5.9255468176
 21
-8.7383199807
 31
0.0
  0
LINE
  5
261
100
AcDbEntity
  8
DRAFT
100
AcDbLine
 62
7
  6
CONTINUOUS
 10
-5.9255468176
 20
-8.7383199807
 11
-5.925674691
 21
-8.7316261657
  0
LINE
  5
262
100
AcDbEntity
  8
DRAFT
100
AcDbLine
 62
7
  6
CONTINUOUS
 10
-5.925674691
 20
-8.7316261657
 11
-5.9258080151
 21
-8.7237387423
  0
SPLINE
  5
263
100
AcDbEntity
  8
DRAFT
100
AcDbSpline
 62
7
  6
CONTINUOUS
 70
0
 71
3
 72
9
 73
5
 74
3
 42
0.0000001
 43
0.0000001
 44
0.0000000001
 12
0.0432025746
 22
0.5641999457
 32
0.0
 13
0.1591005785
 23
0.5430239839
 33
0.0
 40
0.0
 40
0.0
 40
0.0
 40
0.0
 40
0.2568436975
 40
1.0
 40
1.0
 40
1.0
 40
1.0
 10
-5.9172380652
 20
-8.4343472642
 30
0.0
 10
-5.9135392956
 20
-8.3860435308
 30
0.0
 10
-5.8945855711
 20
-8.1983758502
 30
0.0
 10
-5.8571837085
 20
-8.01239533
 30
0.0
 10
-5.8177715093
 20
-7.877878098
 30
0.0
 11
-5.9172380652
 21
-8.4343472642
 31
0.0
 11
-5.9025860068
 21
-8.2897523086
 31
0.0
 11
-5.8177715093
 21
-7.877878098
 31
0.0
  0
SPLINE
  5
264
100
AcDbEntity
  8
DRAFT
100
AcDbSpline
 62
7
  6
CONTINUOUS
 70
0
 71
3
 72
9
 73
5
 74
3
 42
0.0000001
 43
0.0000001
 44
0.0000000001
 12
0.1474268874
 22
0.5031806704
 32
0.0
 13
0.263886467
 23
0.4530887405
 33
0.0
 40
0.0
 40
0.0
 40
0.0
 40
0.0
 40
0.2565015038
 40
1.0
 40
1.0
 40
1.0
 40
1.0
 10
-5.8177715093
 20
-7.877878098
 30
0.0
 10
-5.8051664365
 20
-7.8348558984
 30
0.0
 10
-5.7513759834
 20
-7.6685464331
 30
0.0
 10
-5.678074179
 20
-7.5083881037
 30
0.0
 10
-5.6126744485
 20
-7.396097838
 30
0.0
 11
-5.8177715093
 21
-7.877878098
 31
0.0
 11
-5.7762880615
 21
-7.7499433443
 31
0.0
 11
-5.6126744485
 21
-7.396097838
 31
0.0
  0
SPLINE
  5
265
100
AcDbEntity
  8
DRAFT
100
AcDbSpline
 62
7
  6
CONTINUOUS
 70
0
 71
3
 72
11
 73
7
 74
5
 42
0.0000001
 43
0.0000001
 44
0.0000000001
 12
-1.9169450334
 22
-1.3306069022
 32
0.0
 13
-2.2436776957
 23
0.6411734454
 33
0.0
 40
0.0
 40
0.0
 40
0.0
 40
0.0
 40
0.2296653201
 40
0.4700843306
 40
0.7261747344
 40
1.0
 40
1.0
 40
1.0
 40
1.0
 10
3.2324138591
 20
-14.2603683793
 30
0.0
 10
3.0856619276
 20
-14.3622331326
 30
0.0
 10
2.7554604109
 20
-14.5302837472
 30
0.0
 10
2.1995209747
 20
-14.6555016747
 30
0.0
 10
1.5960507944
 20
-14.6542545999
 30
0.0
 10
1.1891576383
 20
-14.5736734241
 30
0.0
 10
0.9843657579
 20
-14.5151502611
 30
0.0
 11
3.2324138591
 21
-14.2603683793
 31
0.0
 11
2.7559292175
 21
-14.5056751318
 31
0.0
 11
2.2094446861
 21
-14.6325368435
 31
0.0
 11
1.611867518
 21
-14.6356642225
 31
0.0
 11
0.9843657579
 21
-14.5151502611
 31
0.0
  0
LINE
  5
266
100
AcDbEntity
  8
DRAFT
100
AcDbLine
 62
7
  6
CONTINUOUS
 10
0.7898211825
 20
-14.4540106626
 11
0.5782903667
 21
-14.3814260618
  0
LINE
  5
267
100
AcDbEntity
  8
DRAFT
100
AcDbLine
 62
7
  6
CONTINUOUS
 10
0.5782903667
 20
-14.3814260618
 11
0.4207882363
 21
-14.327188994
  0
LINE
  5
268
100
AcDbEntity
  8
DRAFT
100
AcDbLine
 62
7
  6
CONTINUOUS
 10
-2.2028552739
 20
-13.3992254044
 11
-2.3580208394
 21
-13.3428729918
  0
LINE
  5
269
100
AcDbEntity
  8
DRAFT
100
AcDbLine
 62
7
  6
CONTINUOUS
 10
-2.3580208394
 20
-13.3428729918
 11
-2.5657073297
 21
-13.2671846411
  0
ELLIPSE
  5
26A
100
AcDbEntity
  8
RACCORDO
100
AcDbEllipse
 62
7
  6
CONTINUOUS
 10
11.3954574993
 20
-19.1744819641
 30
0.0
 11
-0.321452335
 21
0.3834170467
 31
0.0
 40
0.7028938603
 41
-3.1776795455
 42
-2.4438792352
  0
ELLIPSE
  5
26B
100
AcDbEntity
  8
RACCORDO
100
AcDbEllipse
 62
7
  6
CONTINUOUS
 10
11.3954574993
 20
17.0557990811
 30
0.0
 11
-0.3213627822
 21
0.3830516742
 31
0.0
 40
0.7038430734
 41
-2.4435470104
 42
-0.8734359163
  0
ELLIPSE
  5
26C
100
AcDbEntity
  8
RACCORDO
100
AcDbEllipse
 62
7
  6
CONTINUOUS
 10
-6.2163369376
 20
23.2849626457
 30
0.0
 11
-0.321452335
 21
0.3834170467
 31
0.0
 40
0.7028938603
 41
-0.8723976758
 42
0.0368472726
  0
ENDSEC
  0
SECTION
  2
OBJECTS
  0
DICTIONARY
  5
C
100
AcDbDictionary
280
0
281
1
  3
ACAD_GROUP
350
D
  3
ACAD_MLINESTYLE
350
17
  3
ACAD_LAYOUT
350
1A
  3
ACAD_PLOTSETTINGS
350
19
  3
ACAD_PLOTSTYLENAME
350
E
  0
DICTIONARY
  5
D
102
{ACAD_REACTORS
330
C
102
}
100
AcDbDictionary
280
0
281
1
  0
ACDBDICTIONARYWDFLT
  5
E
102
{ACAD_REACTORS
330
C
102
}
100
AcDbDictionary
281
1
  3
Normal
350
F
100
AcDbDictionaryWithDefault
340
F
  0
DICTIONARY
  5
17
102
{ACAD_REACTORS
330
C
102
}
100
AcDbDictionary
280
0
281
1
  3
Standard
350
18
  0
DICTIONARY
  5
19
102
{ACAD_REACTORS
330
C
102
}
100
AcDbDictionary
281
1
  0
DICTIONARY
  5
1A
102
{ACAD_REACTORS
330
C
102
}
100
AcDbDictionary
281
1
  3
Model
350
26D
  3
Layout1
350
26E
  0
ACDBPLACEHOLDER
  5
F
102
{ACAD_REACTORS
330
E
102
}
  0
MLINESTYLE
  5
18
102
{ACAD_REACTORS
330
17
102
}
100
AcDbMlineStyle
  2
STANDARD
 70
0
  3

 62
256
 51
90.0
 52
90.0
 71
2
 49
0.5
 62
256
  6
BYLAYER
 49
-0.5
 62
256
  6
BYLAYER
  0
LAYOUT
  5
26D
102
{ACAD_REACTORS
330
1A
102
}
100
AcDbPlotSettings
  1

  2
none_device
  4
ISO_A4_(297.00_x_210.00_MM)
  6

 40
0.0
 41
0.0
 42
0.0
 43
0.0
 44
297.0
 45
210.0
 46
0.0
 47
0.0
 48
0.0
 49
0.0
140
0.0
141
0.0
142
1.0
143
1.0
 70
1024
 72
1
 73
0
 74
0
  7

 75
0
147
1.0
148
0.0
149
0.0
100
AcDbLayout
  1
Model
 70
0
 71
0
 10
0.0
 20
0.0
 11
297.0
 21
210.0
 12
0.0
 22
0.0
 32
0.0
 14
0.0
 24
0.0
 34
0.0
 15
0.0
 25
0.0
 35
0.0
146
0.0
 13
0.0
 23
0.0
 33
0.0
 16
1.0
 26
0.0
 36
0.0
 17
0.0
 27
1.0
 37
0.0
 76
0
330
216
345
0
346
0
  0
LAYOUT
  5
26E
102
{ACAD_REACTORS
330
1A
102
}
100
AcDbPlotSettings
  1

  2
none_device
  4
ISO_A4_(297.00_x_210.00_MM)
  6

 40
0.0
 41
0.0
 42
0.0
 43
0.0
 44
297.0
 45
210.0
 46
0.0
 47
0.0
 48
0.0
 49
0.0
140
0.0
141
0.0
142
1.0
143
1.0
 70
0
 72
1
 73
0
 74
0
  7

 75
0
147
1.0
148
0.0
149
0.0
100
AcDbLayout
  1
Layout1
 70
0
 71
1
 10
0.0
 20
0.0
 11
297.0
 21
210.0
 12
0.0
 22
0.0
 32
0.0
 14
0.0
 24
0.0
 34
0.0
 15
0.0
 25
0.0
 35
0.0
146
0.0
 13
0.0
 23
0.0
 33
0.0
 16
1.0
 26
0.0
 36
0.0
 17
0.0
 27
1.0
 37
0.0
 76
0
330
217
345
0
346
0
  0
ENDSEC
  0
EOF
