  0
SECTION
  2
HEADER
  9
$ACADVER
  1
AC1015
  9
$DWGCODEPAGE
  3
ANSI_1252
  9
$EXTMAX
 10
297.0
 20
210.0
 30
0.0
  9
$EXTMIN
 10
0.0
 20
0.0
 30
0.0
  9
$LIMMIN
 10
0.0
 20
0.0
  9
$LIMMAX
 10
297.0
 20
210.0
  9
$VIEWCTR
 10
148.5
 20
105.0
  9
$VIEWSIZE
 40
210.0
  9
$CLAYER
  8
0
  9
$LTSCALE
 40
16.335
  9
$CELTYPE
  6
BYLAYER
  9
$DIMSCALE
 40
1.0
  9
$DIMASZ
 40
3.0
  9
$DIMEXO
 40
1.85625
  9
$DIMDLI
 40
11.286
  9
$DIMEXE
 40
5.346
  9
$DIMCEN
 40
2.673
  9
$DIMLFAC
 40
1.0
  9
$DIMBLK
  1
_FILLED
  9
$DIMTXT
 40
3.0
  9
$DIMTOL
 70
1
  9
$DIMLIM
 70
0
  9
$DIMTFAC
 40
1.0
  9
$DIMTP
 40
0.01
  9
$DIMTM
 40
0.01
  9
$PDMODE
 70
3
  9
$PDSIZE
 40
3.0
  9
$HANDSEED
  5
3F8
  9
$TILEMODE
 70
1
  9
$MEASUREMENT
 70
1
  9
$INSUNITS
 70
4
  0
ENDSEC
  0
SECTION
  2
CLASSES
  0
CLASS
  1
ACDBDICTIONARYWDFLT
  2
AcDbDictionaryWithDefault
  3
AutoCAD 2000
 90
0
280
0
281
0
  0
CLASS
  1
ACDBPLACEHOLDER
  2
AcDbPlaceHolder
  3
AutoCAD 2000
 90
0
280
0
281
0
  0
CLASS
  1
LAYOUT
  2
AcDbLayout
  3
AutoCAD 2000
 90
0
280
0
281
0
  0
ENDSEC
  0
SECTION
  2
TABLES
  0
TABLE
  2
VPORT
  5
8
100
AcDbSymbolTable
 70
2
  0
VPORT
  5
1F4
100
AcDbSymbolTableRecord
100
AcDbViewportTableRecord
  2
*ACTIVE
 70
0
 10
0.0
 20
0.0
 11
1.0
 21
1.0
 12
148.5
 22
105.0
 13
0.0
 23
0.0
 14
1.0
 24
1.0
 15
0.0
 25
0.0
 16
0.0
 26
0.0
 36
1.0
 17
0.0
 27
0.0
 37
0.0
 40
210.0
 41
1.4142857143
 42
50.0
 43
0.0
 44
0.0
 50
0.0
 51
0.0
 71
0
 72
100
 73
1
 74
1
 75
0
 76
0
 77
0
 78
0
  0
ENDTAB
  0
TABLE
  2
LTYPE
  5
5
100
AcDbSymbolTable
 70
6
  0
LTYPE
  5
14
100
AcDbSymbolTableRecord
100
AcDbLinetypeTableRecord
  2
BYBLOCK
 70
0
  3

 72
65
 73
0
 40
0.0
  0
LTYPE
  5
15
100
AcDbSymbolTableRecord
100
AcDbLinetypeTableRecord
  2
BYLAYER
 70
0
  3

 72
65
 73
0
 40
0.0
  0
LTYPE
  5
16
100
AcDbSymbolTableRecord
100
AcDbLinetypeTableRecord
  2
CONTINUOUS
 70
64
  3
Solid line
 72
65
 73
0
 40
0.0
  0
LTYPE
  5
1F5
100
AcDbSymbolTableRecord
100
AcDbLinetypeTableRecord
  2
CENTER
 70
64
  3
____ _ ____ _ ____ _ ____ _ ____ _ ____ _ ____
 72
65
 73
4
 40
0.6
 49
0.375
 74
0
 49
-0.075
 74
0
 49
0.075
 74
0
 49
-0.075
 74
0
  0
LTYPE
  5
1F6
100
AcDbSymbolTableRecord
100
AcDbLinetypeTableRecord
  2
HIDDEN
 70
64
  3
- - - - - - - - - - - - - - - - - - - -
 72
65
 73
2
 40
0.2
 49
0.1
 74
0
 49
-0.1
 74
0
  0
LTYPE
  5
1F7
100
AcDbSymbolTableRecord
100
AcDbLinetypeTableRecord
  2
PHANTOM
 70
64
  3
_____ _ _ _____ _ _ _____ _ _ _____
 72
65
 73
6
 40
0.8
 49
0.45
 74
0
 49
-0.05
 74
0
 49
0.1
 74
0
 49
-0.05
 74
0
 49
0.1
 74
0
 49
-0.05
 74
0
  0
LTYPE
  5
1F8
100
AcDbSymbolTableRecord
100
AcDbLinetypeTableRecord
  2
DOT
 70
64
  3
. . . . . . . . . . . . . . . . . . . .
 72
65
 73
2
 40
0.2
 49
0.1
 74
0
 49
-0.1
 74
0
  0
LTYPE
  5
1F9
100
AcDbSymbolTableRecord
100
AcDbLinetypeTableRecord
  2
DASHED
 70
64
  3
- - - - - - - - - - - - - - - - - - - -
 72
65
 73
2
 40
0.2
 49
0.1
 74
0
 49
-0.1
 74
0
  0
ENDTAB
  0
TABLE
  2
LAYER
  5
2
100
AcDbSymbolTable
 70
36
  0
LAYER
  5
10
100
AcDbSymbolTableRecord
100
AcDbLayerTableRecord
  2
0
 70
0
 62
7
  6
CONTINUOUS
370
-3
390
F
  0
LAYER
  5
1FA
100
AcDbSymbolTableRecord
100
AcDbLayerTableRecord
  2
DEFAULT_1
 70
0
 62
7
  6
CENTER
370
-3
390
F
  0
LAYER
  5
1FB
100
AcDbSymbolTableRecord
100
AcDbLayerTableRecord
  2
DEFAULT_2
 70
0
 62
7
  6
HIDDEN
370
-3
390
F
  0
LAYER
  5
1FC
100
AcDbSymbolTableRecord
100
AcDbLayerTableRecord
  2
DEFAULT_3
 70
0
 62
7
  6
PHANTOM
370
-3
390
F
  0
LAYER
  5
1FD
100
AcDbSymbolTableRecord
100
AcDbLayerTableRecord
  2
ASSI
 70
0
 62
7
  6
CONTINUOUS
370
-3
390
F
  0
LAYER
  5
1FE
100
AcDbSymbolTableRecord
100
AcDbLayerTableRecord
  2
COORDINATE
 70
0
 62
7
  6
CONTINUOUS
370
-3
390
F
  0
LAYER
  5
1FF
100
AcDbSymbolTableRecord
100
AcDbLayerTableRecord
  2
COORD_ORIGINE
 70
0
 62
7
  6
CONTINUOUS
370
-3
390
F
  0
LAYER
  5
200
100
AcDbSymbolTableRecord
100
AcDbLayerTableRecord
  2
COPY_PUBLISH
 70
0
 62
7
  6
CONTINUOUS
370
-3
390
F
  0
LAYER
  5
201
100
AcDbSymbolTableRecord
100
AcDbLayerTableRecord
  2
COSMETIC
 70
0
 62
7
  6
CONTINUOUS
370
-3
390
F
  0
LAYER
  5
202
100
AcDbSymbolTableRecord
100
AcDbLayerTableRecord
  2
COSMETICI
 70
0
 62
7
  6
CONTINUOUS
370
-3
390
F
  0
LAYER
  5
203
100
AcDbSymbolTableRecord
100
AcDbLayerTableRecord
  2
CURVE
 70
0
 62
7
  6
CONTINUOUS
370
-3
390
F
  0
LAYER
  5
204
100
AcDbSymbolTableRecord
100
AcDbLayerTableRecord
  2
DRAFT
 70
0
 62
7
  6
CONTINUOUS
370
-3
390
F
  0
LAYER
  5
205
100
AcDbSymbolTableRecord
100
AcDbLayerTableRecord
  2
IMPORT
 70
0
 62
7
  6
CONTINUOUS
370
-3
390
F
  0
LAYER
  5
206
100
AcDbSymbolTableRecord
100
AcDbLayerTableRecord
  2
IMPORT_IGES
 70
0
 62
7
  6
CONTINUOUS
370
-3
390
F
  0
LAYER
  5
207
100
AcDbSymbolTableRecord
100
AcDbLayerTableRecord
  2
INTFCLR_11
 70
0
 62
7
  6
CONTINUOUS
370
-3
390
F
  0
LAYER
  5
208
100
AcDbSymbolTableRecord
100
AcDbLayerTableRecord
  2
INTF_1
 70
0
 62
7
  6
CONTINUOUS
370
-3
390
F
  0
LAYER
  5
209
100
AcDbSymbolTableRecord
100
AcDbLayerTableRecord
  2
INTF_3
 70
0
 62
7
  6
CONTINUOUS
370
-3
390
F
  0
LAYER
  5
20A
100
AcDbSymbolTableRecord
100
AcDbLayerTableRecord
  2
NOTE
 70
0
 62
7
  6
CONTINUOUS
370
-3
390
F
  0
LAYER
  5
20B
100
AcDbSymbolTableRecord
100
AcDbLayerTableRecord
  2
PIANI
 70
0
 62
7
  6
CONTINUOUS
370
-3
390
F
  0
LAYER
  5
20C
100
AcDbSymbolTableRecord
100
AcDbLayerTableRecord
  2
PIANI_ORIGINE
 70
0
 62
7
  6
CONTINUOUS
370
-3
390
F
  0
LAYER
  5
20D
100
AcDbSymbolTableRecord
100
AcDbLayerTableRecord
  2
PIANI_RIFERIMENTO
 70
0
 62
7
  6
CONTINUOUS
370
-3
390
F
  0
LAYER
  5
20E
100
AcDbSymbolTableRecord
100
AcDbLayerTableRecord
  2
PUNTI
 70
0
 62
7
  6
CONTINUOUS
370
-3
390
F
  0
LAYER
  5
20F
100
AcDbSymbolTableRecord
100
AcDbLayerTableRecord
  2
RACCORDO
 70
0
 62
7
  6
CONTINUOUS
370
-3
390
F
  0
LAYER
  5
210
100
AcDbSymbolTableRecord
100
AcDbLayerTableRecord
  2
SIMBOLI
 70
0
 62
7
  6
CONTINUOUS
370
-3
390
F
  0
LAYER
  5
211
100
AcDbSymbolTableRecord
100
AcDbLayerTableRecord
  2
SMUSSO
 70
0
 62
7
  6
CONTINUOUS
370
-3
390
F
  0
LAYER
  5
212
100
AcDbSymbolTableRecord
100
AcDbLayerTableRecord
  2
SNAPLINE
 70
0
 62
7
  6
CONTINUOUS
370
-3
390
F
  0
LAYER
  5
213
100
AcDbSymbolTableRecord
100
AcDbLayerTableRecord
  2
SUPERFICI
 70
0
 62
7
  6
CONTINUOUS
370
-3
390
F
  0
LAYER
  5
214
100
AcDbSymbolTableRecord
100
AcDbLayerTableRecord
  2
TRASH
 70
0
 62
7
  6
CONTINUOUS
370
-3
390
F
  0
LAYER
  5
215
100
AcDbSymbolTableRecord
100
AcDbLayerTableRecord
  2
XSEC_DATUMS
 70
0
 62
7
  6
CONTINUOUS
370
-3
390
F
  0
LAYER
  5
216
100
AcDbSymbolTableRecord
100
AcDbLayerTableRecord
  2
___SHELL
 70
0
 62
7
  6
CONTINUOUS
370
-3
390
F
  0
ENDTAB
  0
TABLE
  2
STYLE
  5
3
100
AcDbSymbolTable
 70
1
  0
STYLE
  5
11
100
AcDbSymbolTableRecord
100
AcDbTextStyleTableRecord
  2
STANDARD
 70
0
 40
0.0
 41
0.8
 50
0.0
 71
0
 42
0.2
  3
txt
  4

  0
STYLE
  5
217
100
AcDbSymbolTableRecord
100
AcDbTextStyleTableRecord
  2
TEXTSTYLE_1
 70
0
 40
0.0
 41
0.8
 50
0.0
 71
0
 42
0.2
  3
gdt
  4

  0
ENDTAB
  0
TABLE
  2
VIEW
  5
6
100
AcDbSymbolTable
 70
0
  0
ENDTAB
  0
TABLE
  2
UCS
  5
7
100
AcDbSymbolTable
 70
0
  0
ENDTAB
  0
TABLE
  2
APPID
  5
9
100
AcDbSymbolTable
 70
1
  0
APPID
  5
218
100
AcDbSymbolTableRecord
100
AcDbRegAppTableRecord
  2
ACAD
 70
0
  0
ENDTAB
  0
TABLE
  2
BLOCK_RECORD
  5
1
100
AcDbSymbolTable
 70
0
  0
BLOCK_RECORD
  5
219
100
AcDbSymbolTableRecord
100
AcDbBlockTableRecord
  2
*Model_Space
  0
BLOCK_RECORD
  5
21A
100
AcDbSymbolTableRecord
100
AcDbBlockTableRecord
  2
*Paper_Space
  0
ENDTAB
  0
TABLE
  2
DIMSTYLE
  5
A
100
AcDbSymbolTable
 70
1
100
AcDbDimStyleTable
 71
0
  0
DIMSTYLE
105
21B
100
AcDbSymbolTableRecord
100
AcDbDimStyleTableRecord
  2
STANDARD
 70
0
  3

  4

 40
1.0
 41
3.0
 42
0.0625
 43
0.38
 44
0.18
 45
0.0
 46
0.0
 47
0.01
 48
0.01
140
3.0
141
0.09
142
0.0
143
25.4
144
1.0
145
0.0
146
1.0
147
0.09
 71
1.0
 72
0.0
 73
0
 74
0
 75
0
 76
0
 77
1
 78
8
170
0
171
2
172
0
173
0
174
0
175
0
176
0
177
0
178
0
270
2
271
2
272
2
273
2
274
2
275
0
280
0
281
0
282
0
283
1
284
8
285
0
286
0
287
3
288
0
340
11
  0
ENDTAB
  0
ENDSEC
  0
SECTION
  2
BLOCKS
  0
BLOCK
  5
20
100
AcDbEntity
  8
0
100
AcDbBlockBegin
  2
*Model_Space
 70
0
 10
0.0
 20
0.0
 30
0.0
  3
*Model_Space
  1

  0
ENDBLK
  5
21
100
AcDbEntity
  8
0
100
AcDbBlockEnd
  0
BLOCK
  5
1C
100
AcDbEntity
  8
0
100
AcDbBlockBegin
  2
*Paper_Space
 70
0
 10
0.0
 20
0.0
 30
0.0
  3
*Paper_Space
  1

  0
ENDBLK
  5
1D
100
AcDbEntity
  8
0
100
AcDbBlockEnd
  0
ENDSEC
  0
SECTION
  2
ENTITIES
  0
LWPOLYLINE
  5
21C
100
AcDbEntity
  8
RACCORDO
100
AcDbPolyline
 62
7
  6
CONTINUOUS
 90
18
 70
0
 10
-20.1605831283
 20
24.7954398161
 10
-20.2172612163
 20
24.7378567414
 10
-20.2700542217
 20
24.676599378
 10
-20.3191883404
 20
24.6121643659
 10
-20.3650400438
 20
24.5447350564
 10
-20.4078590685
 20
24.4744273345
 10
-20.4476821428
 20
24.4015739816
 10
-20.4845532147
 20
24.3264040894
 10
-20.5184512577
 20
24.2491436016
 10
-20.5493084772
 20
24.1700984074
 10
-20.5770275248
 20
24.0895417437
 10
-20.6014867187
 20
24.0077753529
 10
-20.6225558001
 20
23.9250716124
 10
-20.6400521255
 20
23.8417405722
 10
-20.6538014036
 20
23.7580070148
 10
-20.6635794158
 20
23.6740097354
 10
-20.66910636
 20
23.5900186243
 10
-20.669784793
 20
23.5691700584
  0
LINE
  5
21D
100
AcDbEntity
  8
RACCORDO
100
AcDbLine
 62
7
  6
CONTINUOUS
 10
-17.7381612119
 20
27.0502601794
 11
-20.1605831283
 21
24.7954398161
  0
LINE
  5
21E
100
AcDbEntity
  8
RACCORDO
100
AcDbLine
 62
253
  6
CONTINUOUS
 10
-17.4073035225
 20
27.0949917078
 11
-19.8205647621
 21
24.8487591449
  0
LINE
  5
21F
100
AcDbEntity
  8
RACCORDO
100
AcDbLine
 62
7
  6
CONTINUOUS
 10
-20.1535459785
 20
24.8020494917
 11
-20.1540970783
 21
24.8015381081
  0
LWPOLYLINE
  5
220
100
AcDbEntity
  8
RACCORDO
100
AcDbPolyline
 62
7
  6
CONTINUOUS
 90
17
 70
0
 10
-20.6697621879
 20
-11.3607210804
 10
-20.6693339531
 20
-11.3741082297
 10
-20.6641091783
 20
-11.452238951
 10
-20.6544430191
 20
-11.5264922399
 10
-20.640440614
 20
-11.5969878069
 10
-20.6221777805
 20
-11.66389578
 10
-20.5997093676
 20
-11.7272572115
 10
-20.5730700541
 20
-11.7870809801
 10
-20.5423194563
 20
-11.8433157271
 10
-20.5076593421
 20
-11.895676031
 10
-20.4693123364
 20
-11.9439363163
 10
-20.4274876285
 20
-11.9879380877
 10
-20.3826018412
 20
-12.0273866496
 10
-20.3350838779
 20
-12.0620902293
 10
-20.2853279588
 20
-12.0919472193
 10
-20.23385576
 20
-12.1168388271
 10
-20.2087947132
 20
-12.1269711843
  0
LWPOLYLINE
  5
221
100
AcDbEntity
  8
RACCORDO
100
AcDbPolyline
 62
7
  6
CONTINUOUS
 90
10
 70
0
 10
-20.6697836501
 20
23.5694476248
 10
-20.7596185178
 20
19.6634684027
 10
-20.8283575048
 20
15.7073895727
 10
-20.8741995704
 20
11.7707388548
 10
-20.8971305614
 20
7.8539205003
 10
-20.8971473546
 20
3.9572641612
 10
-20.8742492932
 20
0.0810717746
 10
-20.8284381787
 20
-3.7743314576
 10
-20.7597268432
 20
-7.6085652855
 10
-20.6697673514
 20
-11.3607498313
  0
LINE
  5
222
100
AcDbEntity
  8
0
100
AcDbLine
 62
253
  6
CONTINUOUS
 10
21.063913538
 20
-22.2182940154
 11
20.6583086493
 21
-22.1989754771
  0
LINE
  5
223
100
AcDbEntity
  8
0
100
AcDbLine
 62
253
  6
CONTINUOUS
 10
20.9215371827
 20
-21.9061276007
 11
20.7997452343
 21
-21.900326777
  0
LWPOLYLINE
  5
224
100
AcDbEntity
  8
RACCORDO
100
AcDbPolyline
 62
7
  6
CONTINUOUS
 90
13
 70
0
 10
15.9125821583
 20
-24.9028432708
 10
15.9342798471
 20
-24.909565287
 10
15.9904597882
 20
-24.9232760036
 10
16.0483126412
 20
-24.9321210378
 10
16.10771613
 20
-24.9359142145
 10
16.1683820924
 20
-24.9344332175
 10
16.2298054662
 20
-24.9274977138
 10
16.2916243718
 20
-24.9149884018
 10
16.3535335286
 20
-24.8968181016
 10
16.4152032549
 20
-24.8729347776
 10
16.4764509688
 20
-24.8432478064
 10
16.5371672851
 20
-24.80763435
 10
16.5991563997
 20
-24.7645305694
  0
LWPOLYLINE
  5
225
100
AcDbEntity
  8
RACCORDO
100
AcDbPolyline
 62
7
  6
CONTINUOUS
 90
10
 70
0
 10
-20.2090346655
 20
-12.1268799998
 10
-16.3452417118
 20
-13.5844518563
 10
-12.373487849
 20
-15.0592111033
 10
-8.3809463996
 20
-16.5180069019
 10
-4.367851697
 20
-17.9607505017
 10
-0.3344411962
 20
-19.3873547082
 10
3.7190432641
 20
-20.7977351011
 10
7.792358544
 20
-22.1918094772
 10
11.8852596956
 20
-23.5694980229
 10
15.912886157
 20
-24.902944309
  0
LINE
  5
226
100
AcDbEntity
  8
0
100
AcDbLine
 62
7
  6
CONTINUOUS
 10
2.4656628073
 20
22.8670190844
 11
3.6812258897
 21
23.9105663484
  0
LINE
  5
227
100
AcDbEntity
  8
0
100
AcDbLine
 62
7
  6
CONTINUOUS
 10
3.6812274675
 20
23.9105677031
 11
3.6834127302
 21
23.9124003881
  0
LINE
  5
228
100
AcDbEntity
  8
0
100
AcDbLine
 62
7
  6
CONTINUOUS
 10
3.6834133369
 20
23.9124008851
 11
4.0966781528
 21
24.2509491975
  0
LINE
  5
229
100
AcDbEntity
  8
0
100
AcDbLine
 62
253
  6
CONTINUOUS
 10
3.8429602138
 20
23.9296047209
 11
4.2558981594
 21
24.2678852598
  0
LINE
  5
22A
100
AcDbEntity
  8
0
100
AcDbLine
 62
7
  6
CONTINUOUS
 10
18.0275798651
 20
-23.6879441391
 11
19.1288588105
 21
-24.0774584902
  0
LINE
  5
22B
100
AcDbEntity
  8
0
100
AcDbLine
 62
253
  6
CONTINUOUS
 10
18.1204333172
 20
-23.6179609717
 11
19.0760615756
 21
-23.9559597344
  0
LINE
  5
22C
100
AcDbEntity
  8
0
100
AcDbLine
 62
253
  6
CONTINUOUS
 10
19.0760615756
 20
-23.6267244358
 11
18.4177414234
 21
-23.3938813873
  0
LINE
  5
22D
100
AcDbEntity
  8
0
100
AcDbLine
 62
253
  6
CONTINUOUS
 10
19.1441414549
 20
-23.3880503404
 11
18.6550146805
 21
-23.2150497587
  0
LINE
  5
22E
100
AcDbEntity
  8
0
100
AcDbLine
 62
7
  6
CONTINUOUS
 10
2.0865959733
 20
21.5850276613
 11
2.6136922839
 21
22.0881593189
  0
LINE
  5
22F
100
AcDbEntity
  8
0
100
AcDbLine
 62
253
  6
CONTINUOUS
 10
2.419373612
 20
21.6318680697
 11
2.8206955736
 21
22.0149437614
  0
LINE
  5
230
100
AcDbEntity
  8
0
100
AcDbLine
 62
253
  6
CONTINUOUS
 10
2.6277156365
 20
22.8863308899
 11
3.8429602138
 21
23.9296047209
  0
LINE
  5
231
100
AcDbEntity
  8
0
100
AcDbLine
 62
253
  6
CONTINUOUS
 10
5.8557766733
 20
23.2176861826
 11
6.261381562
 21
23.5585603704
  0
LINE
  5
232
100
AcDbEntity
  8
0
100
AcDbLine
 62
253
  6
CONTINUOUS
 10
6.065440767
 20
22.9338654242
 11
6.4710456557
 21
23.2747396121
  0
LINE
  5
233
100
AcDbEntity
  8
0
100
AcDbLine
 62
253
  6
CONTINUOUS
 10
4.6185613112
 20
22.1821832584
 11
5.8557766733
 21
23.2176861826
  0
LINE
  5
234
100
AcDbEntity
  8
0
100
AcDbLine
 62
253
  6
CONTINUOUS
 10
4.8282254049
 20
21.8983625001
 11
6.065440767
 21
22.9338654242
  0
LINE
  5
235
100
AcDbEntity
  8
0
100
AcDbLine
 62
7
  6
CONTINUOUS
 10
19.6255798532
 20
-22.5664191119
 11
19.3266110492
 21
-22.460676021
  0
LINE
  5
236
100
AcDbEntity
  8
0
100
AcDbLine
 62
7
  6
CONTINUOUS
 10
20.2383140523
 20
-22.1111443872
 11
19.6255798532
 21
-21.8944247587
  0
LINE
  5
237
100
AcDbEntity
  8
0
100
AcDbLine
 62
253
  6
CONTINUOUS
 10
20.8341783737
 20
-21.8752294255
 11
20.9215371827
 21
-21.9061276007
  0
LINE
  5
238
100
AcDbEntity
  8
0
100
AcDbLine
 62
7
  6
CONTINUOUS
 10
20.8364167643
 20
-21.8735979252
 11
20.9368198271
 21
-21.9091097581
  0
LINE
  5
239
100
AcDbEntity
  8
0
100
AcDbLine
 62
7
  6
CONTINUOUS
 10
6.065440767
 20
21.3823213253
 11
5.3777436826
 21
20.7578457658
  0
LINE
  5
23A
100
AcDbEntity
  8
0
100
AcDbLine
 62
7
  6
CONTINUOUS
 10
8.4137183573
 20
21.8936255343
 11
7.6040786687
 21
21.1985589482
  0
LINE
  5
23B
100
AcDbEntity
  8
0
100
AcDbLine
 62
7
  6
CONTINUOUS
 10
8.3934968443
 20
20.9193474826
 11
9.0464299736
 21
21.4727926949
  0
LINE
  5
23C
100
AcDbEntity
  8
0
100
AcDbLine
 62
7
  6
CONTINUOUS
 10
12.0059386607
 20
26.3747719871
 11
6.6052005594
 21
21.8359405641
  0
LINE
  5
23D
100
AcDbEntity
  8
0
100
AcDbLine
 62
7
  6
CONTINUOUS
 10
11.6487094928
 20
26.1965811725
 11
6.473650892
 21
21.8824687244
  0
LINE
  5
23E
100
AcDbEntity
  8
0
100
AcDbLine
 62
7
  6
CONTINUOUS
 10
12.2075543712
 20
24.0985541113
 11
9.7550944319
 21
22.063718926
  0
LINE
  5
23F
100
AcDbEntity
  8
0
100
AcDbLine
 62
7
  6
CONTINUOUS
 10
11.4376673592
 20
24.3708575464
 11
8.4137183573
 21
21.8936255343
  0
LINE
  5
240
100
AcDbEntity
  8
0
100
AcDbLine
 62
7
  6
CONTINUOUS
 10
8.3934968443
 20
19.5188641448
 11
8.9381358793
 21
20.0195897356
  0
LINE
  5
241
100
AcDbEntity
  8
0
100
AcDbLine
 62
253
  6
CONTINUOUS
 10
10.9753722799
 20
20.7905398344
 11
11.1393977031
 21
20.9295725793
  0
LINE
  5
242
100
AcDbEntity
  8
0
100
AcDbLine
 62
253
  6
CONTINUOUS
 10
11.1437401062
 20
20.5640137
 11
11.3071318167
 21
20.7025092914
  0
LINE
  5
243
100
AcDbEntity
  8
0
100
AcDbLine
 62
7
  6
CONTINUOUS
 10
14.8187139956
 20
23.8863645577
 11
11.7687835514
 21
21.3284776599
  0
LINE
  5
244
100
AcDbEntity
  8
0
100
AcDbLine
 62
7
  6
CONTINUOUS
 10
11.8517708517
 20
19.9807547548
 11
11.3071318167
 21
19.5283733349
  0
LINE
  5
245
100
AcDbEntity
  8
0
100
AcDbLine
 62
7
  6
CONTINUOUS
 10
10.8890032281
 20
21.6626636341
 11
12.2283670282
 21
22.7739497116
  0
LINE
  5
246
100
AcDbEntity
  8
0
100
AcDbLine
 62
7
  6
CONTINUOUS
 10
11.308338512
 20
21.5143477948
 11
15.6239886296
 21
25.0950940348
  0
LINE
  5
247
100
AcDbEntity
  8
0
100
AcDbLine
 62
253
  6
CONTINUOUS
 10
11.1393977031
 20
20.9295725793
 11
11.6840367381
 21
21.3814660655
  0
LINE
  5
248
100
AcDbEntity
  8
0
100
AcDbLine
 62
253
  6
CONTINUOUS
 10
11.3071318167
 20
20.7025092914
 11
11.8517708517
 21
21.1544027776
  0
LINE
  5
249
100
AcDbEntity
  8
RACCORDO
100
AcDbLine
 62
7
  6
CONTINUOUS
 10
20.6573301384
 20
-17.4609873274
 11
19.3266110492
 21
-16.9903216667
  0
LINE
  5
24A
100
AcDbEntity
  8
0
100
AcDbLine
 62
253
  6
CONTINUOUS
 10
6.065440767
 20
22.2297854784
 11
6.4710456557
 21
22.9381854495
  0
LINE
  5
24B
100
AcDbEntity
  8
0
100
AcDbLine
 62
7
  6
CONTINUOUS
 10
6.065440767
 20
22.1677078511
 11
6.477543938
 21
22.887457249
  0
LINE
  5
24C
100
AcDbEntity
  8
0
100
AcDbLine
 62
7
  6
CONTINUOUS
 10
11.3071318167
 20
19.5283733349
 11
11.1437401062
 21
19.3781556577
  0
LINE
  5
24D
100
AcDbEntity
  8
0
100
AcDbLine
 62
7
  6
CONTINUOUS
 10
13.0232921739
 20
20.2028288267
 11
12.8594957789
 21
20.0639902128
  0
LINE
  5
24E
100
AcDbEntity
  8
0
100
AcDbLine
 62
253
  6
CONTINUOUS
 10
13.1522070662
 20
20.217656551
 11
12.988181643
 21
20.0786238061
  0
LINE
  5
24F
100
AcDbEntity
  8
0
100
AcDbLine
 62
7
  6
CONTINUOUS
 10
14.9171239492
 20
19.3963709457
 11
14.2641908199
 21
18.8429257334
  0
LINE
  5
250
100
AcDbEntity
  8
0
100
AcDbLine
 62
7
  6
CONTINUOUS
 10
13.0240903965
 20
20.2034982476
 11
13.0232929025
 21
20.2028294443
  0
LINE
  5
251
100
AcDbEntity
  8
0
100
AcDbLine
 62
7
  6
CONTINUOUS
 10
13.5687307095
 20
20.6553927944
 11
13.0240912326
 21
20.2034989416
  0
LINE
  5
252
100
AcDbEntity
  8
0
100
AcDbLine
 62
253
  6
CONTINUOUS
 10
13.6968461012
 20
20.6695500372
 11
13.1522070662
 21
20.217656551
  0
LINE
  5
253
100
AcDbEntity
  8
0
100
AcDbLine
 62
7
  6
CONTINUOUS
 10
18.0782483468
 20
22.022132362
 11
15.6257884075
 21
19.9872971767
  0
LINE
  5
254
100
AcDbEntity
  8
0
100
AcDbLine
 62
7
  6
CONTINUOUS
 10
15.877886412
 20
17.9117306873
 11
15.0536089955
 21
17.16323093
  0
LINE
  5
255
100
AcDbEntity
  8
0
100
AcDbLine
 62
7
  6
CONTINUOUS
 10
17.0585306895
 20
17.7056278791
 11
18.2740937719
 21
18.7491751432
  0
LINE
  5
256
100
AcDbEntity
  8
0
100
AcDbLine
 62
7
  6
CONTINUOUS
 10
18.8481353589
 20
21.7498289269
 11
15.877886412
 21
19.253603596
  0
LINE
  5
257
100
AcDbEntity
  8
0
100
AcDbLine
 62
7
  6
CONTINUOUS
 10
15.877886412
 20
17.9117306873
 11
18.8702025187
 21
20.4265014682
  0
LINE
  5
258
100
AcDbEntity
  8
0
100
AcDbLine
 62
7
  6
CONTINUOUS
 10
18.2740953497
 20
18.7491764978
 11
18.2762806125
 21
18.7510091828
  0
LINE
  5
259
100
AcDbEntity
  8
0
100
AcDbLine
 62
7
  6
CONTINUOUS
 10
15.877886412
 20
19.253603596
 11
15.0536089955
 21
18.5637142678
  0
LINE
  5
25A
100
AcDbEntity
  8
0
100
AcDbLine
 62
7
  6
CONTINUOUS
 10
20.6560120372
 20
23.315303964
 11
18.8850439812
 21
21.8459107011
  0
LINE
  5
25B
100
AcDbEntity
  8
0
100
AcDbLine
 62
7
  6
CONTINUOUS
 10
18.2762812191
 20
18.7510096798
 11
18.689546035
 21
19.0895579922
  0
LINE
  5
25C
100
AcDbEntity
  8
0
100
AcDbLine
 62
253
  6
CONTINUOUS
 10
18.435828096
 20
18.7682135157
 11
18.8487660417
 21
19.1064940546
  0
LINE
  5
25D
100
AcDbEntity
  8
RACCORDO
100
AcDbLine
 62
7
  6
CONTINUOUS
 10
24.6480527978
 20
-13.7117578331
 11
25.0273938131
 21
-13.8459279905
  0
LINE
  5
25E
100
AcDbEntity
  8
RACCORDO
100
AcDbLine
 62
253
  6
CONTINUOUS
 10
22.5719853013
 20
-12.4304700743
 11
23.8876262091
 21
-12.8958026919
  0
LINE
  5
25F
100
AcDbEntity
  8
RACCORDO
100
AcDbLine
 62
7
  6
CONTINUOUS
 10
22.5719853013
 20
-12.3871898918
 11
23.924831109
 21
-12.8656816119
  0
LINE
  5
260
100
AcDbEntity
  8
RACCORDO
100
AcDbLine
 62
253
  6
CONTINUOUS
 10
24.1039098711
 20
-12.7206994793
 11
24.616731087
 21
-12.9020806125
  0
LINE
  5
261
100
AcDbEntity
  8
RACCORDO
100
AcDbLine
 62
7
  6
CONTINUOUS
 10
24.2049917791
 20
-12.7131712323
 11
24.6471280922
 21
-12.8695516297
  0
LINE
  5
262
100
AcDbEntity
  8
0
100
AcDbLine
 62
253
  6
CONTINUOUS
 10
17.2205835188
 20
17.7249396847
 11
18.435828096
 21
18.7682135157
  0
LINE
  5
263
100
AcDbEntity
  8
0
100
AcDbLine
 62
253
  6
CONTINUOUS
 10
20.4486445555
 20
18.0562949774
 11
20.8542494442
 21
18.3971691652
  0
LINE
  5
264
100
AcDbEntity
  8
0
100
AcDbLine
 62
253
  6
CONTINUOUS
 10
20.6583086493
 20
17.772474219
 11
21.063913538
 21
18.1133484068
  0
LINE
  5
265
100
AcDbEntity
  8
0
100
AcDbLine
 62
253
  6
CONTINUOUS
 10
19.2114291934
 20
17.0207920532
 11
20.4486445555
 21
18.0562949774
  0
LINE
  5
266
100
AcDbEntity
  8
0
100
AcDbLine
 62
253
  6
CONTINUOUS
 10
19.4210932872
 20
16.7369712948
 11
20.6583086493
 21
17.772474219
  0
LINE
  5
267
100
AcDbEntity
  8
0
100
AcDbLine
 62
7
  6
CONTINUOUS
 10
24.2740620061
 20
22.0356260118
 11
20.1872141893
 21
18.6876627248
  0
LINE
  5
268
100
AcDbEntity
  8
DRAFT
100
AcDbLine
 62
7
  6
CONTINUOUS
 10
2.0003575258
 20
21.3605437955
 11
2.0003575258
 21
20.2306431879
  0
LINE
  5
269
100
AcDbEntity
  8
0
100
AcDbLine
 62
7
  6
CONTINUOUS
 10
2.3785077774
 20
22.6773311414
 11
2.3785077774
 21
22.3480958428
  0
LINE
  5
26A
100
AcDbEntity
  8
0
100
AcDbLine
 62
253
  6
CONTINUOUS
 10
2.4923480187
 20
22.5631379592
 11
2.4923480187
 21
22.2339026606
  0
LINE
  5
26B
100
AcDbEntity
  8
0
100
AcDbLine
 62
7
  6
CONTINUOUS
 10
2.9182675698
 20
21.9804332561
 11
2.9182675698
 21
21.5343454921
  0
LINE
  5
26C
100
AcDbEntity
  8
0
100
AcDbLine
 62
7
  6
CONTINUOUS
 10
20.6583086493
 20
16.2209301201
 11
19.9706115648
 21
15.5964545605
  0
LINE
  5
26D
100
AcDbEntity
  8
0
100
AcDbLine
 62
7
  6
CONTINUOUS
 10
25.1790983437
 20
21.4109810709
 11
21.0589393141
 21
17.7060289996
  0
LINE
  5
26E
100
AcDbEntity
  8
0
100
AcDbLine
 62
253
  6
CONTINUOUS
 10
21.0772311786
 20
16.0727602691
 11
20.2383140523
 21
15.3294384707
  0
LINE
  5
26F
100
AcDbEntity
  8
0
100
AcDbLine
 62
253
  6
CONTINUOUS
 10
21.4962472648
 20
15.5050301124
 11
20.6573301384
 21
14.7617083139
  0
LINE
  5
270
100
AcDbEntity
  8
0
100
AcDbLine
 62
7
  6
CONTINUOUS
 10
25.1790983437
 20
20.8378080269
 11
20.6583086493
 21
16.8974666913
  0
LINE
  5
271
100
AcDbEntity
  8
RACCORDO
100
AcDbLine
 62
7
  6
CONTINUOUS
 10
24.616731087
 20
20.299655003
 11
20.6614382625
 21
16.8643515492
  0
LINE
  5
272
100
AcDbEntity
  8
0
100
AcDbLine
 62
253
  6
CONTINUOUS
 10
21.6153352718
 20
16.5269651167
 11
21.0780152039
 21
16.0724829651
  0
LINE
  5
273
100
AcDbEntity
  8
0
100
AcDbLine
 62
253
  6
CONTINUOUS
 10
22.0346652335
 20
15.9593300688
 11
21.4973451656
 21
15.5048479172
  0
LINE
  5
274
100
AcDbEntity
  8
RACCORDO
100
AcDbLine
 62
253
  6
CONTINUOUS
 10
16.2913620059
 20
12.0762332563
 11
18.907419461
 21
14.2507383822
  0
LINE
  5
275
100
AcDbEntity
  8
RACCORDO
100
AcDbLine
 62
253
  6
CONTINUOUS
 10
16.7105535853
 20
11.5087766456
 11
19.3266110492
 21
13.6832817788
  0
LINE
  5
276
100
AcDbEntity
  8
DRAFT
100
AcDbLine
 62
7
  6
CONTINUOUS
 10
19.7633810553
 20
-4.2608845405
 11
19.3266110492
 21
-4.1064021669
  0
LINE
  5
277
100
AcDbEntity
  8
0
100
AcDbLine
 62
253
  6
CONTINUOUS
 10
3.0321078111
 20
21.940168791
 11
3.0321078111
 21
21.4151484412
  0
LINE
  5
278
100
AcDbEntity
  8
0
100
AcDbLine
 62
253
  6
CONTINUOUS
 10
4.4831936933
 20
21.5297550291
 11
4.4831936933
 21
21.8589903277
  0
LINE
  5
279
100
AcDbEntity
  8
0
100
AcDbLine
 62
253
  6
CONTINUOUS
 10
4.8282254049
 20
21.5691272015
 11
4.8282254049
 21
21.8983625001
  0
LINE
  5
27A
100
AcDbEntity
  8
0
100
AcDbLine
 62
253
  6
CONTINUOUS
 10
5.032711971
 20
20.7075493044
 11
5.032711971
 21
21.3716619791
  0
LINE
  5
27B
100
AcDbEntity
  8
0
100
AcDbLine
 62
253
  6
CONTINUOUS
 10
5.3777436826
 20
20.7578457658
 11
5.3777436826
 21
21.5399674995
  0
LINE
  5
27C
100
AcDbEntity
  8
0
100
AcDbLine
 62
7
  6
CONTINUOUS
 10
22.0346652335
 20
13.1196682064
 11
22.5719853013
 21
13.5863485678
  0
LINE
  5
27D
100
AcDbEntity
  8
0
100
AcDbLine
 62
7
  6
CONTINUOUS
 10
6.065440767
 20
21.3823213253
 11
6.065440767
 21
22.9338654242
  0
LINE
  5
27E
100
AcDbEntity
  8
0
100
AcDbLine
 62
253
  6
CONTINUOUS
 10
6.4710456557
 20
23.2747396121
 11
6.4710456557
 21
22.9381854495
  0
LINE
  5
27F
100
AcDbEntity
  8
0
100
AcDbLine
 62
7
  6
CONTINUOUS
 10
6.5105894211
 20
23.3482319314
 11
6.5105894211
 21
23.0116777689
  0
LINE
  5
280
100
AcDbEntity
  8
0
100
AcDbLine
 62
7
  6
CONTINUOUS
 10
7.6040786687
 20
21.1985589482
 11
7.6040786687
 21
19.7980756104
  0
LINE
  5
281
100
AcDbEntity
  8
0
100
AcDbLine
 62
7
  6
CONTINUOUS
 10
8.3934968443
 20
19.5188641448
 11
8.3934968443
 21
20.9193474826
  0
LINE
  5
282
100
AcDbEntity
  8
0
100
AcDbLine
 62
7
  6
CONTINUOUS
 10
8.9381358793
 20
21.2142383504
 11
8.9381358793
 21
20.0195897356
  0
LINE
  5
283
100
AcDbEntity
  8
0
100
AcDbLine
 62
253
  6
CONTINUOUS
 10
10.8670781856
 20
19.3373368752
 11
10.8670781856
 21
20.5319854899
  0
LINE
  5
284
100
AcDbEntity
  8
0
100
AcDbLine
 62
253
  6
CONTINUOUS
 10
20.6583086493
 20
17.0683942732
 11
21.063913538
 21
17.7767942443
  0
LINE
  5
285
100
AcDbEntity
  8
0
100
AcDbLine
 62
7
  6
CONTINUOUS
 10
20.6583086493
 20
17.0063166458
 11
21.0704118203
 21
17.7260660437
  0
LINE
  5
286
100
AcDbEntity
  8
0
100
AcDbLine
 62
253
  6
CONTINUOUS
 10
11.1437401062
 20
19.3781556577
 11
11.1437401062
 21
20.5640137
  0
LINE
  5
287
100
AcDbEntity
  8
0
100
AcDbLine
 62
7
  6
CONTINUOUS
 10
11.8517708517
 20
21.1544027776
 11
11.8517708517
 21
19.9807547548
  0
LINE
  5
288
100
AcDbEntity
  8
0
100
AcDbLine
 62
253
  6
CONTINUOUS
 10
12.2283670282
 20
24.1145955193
 11
12.2283670282
 21
22.7739497116
  0
LINE
  5
289
100
AcDbEntity
  8
0
100
AcDbLine
 62
7
  6
CONTINUOUS
 10
12.3023974687
 20
24.173104241
 11
12.3023974687
 21
22.9088483872
  0
LINE
  5
28A
100
AcDbEntity
  8
0
100
AcDbLine
 62
7
  6
CONTINUOUS
 10
12.7888153557
 20
19.9114240073
 11
12.7888153557
 21
18.7207910955
  0
LINE
  5
28B
100
AcDbEntity
  8
0
100
AcDbLine
 62
253
  6
CONTINUOUS
 10
12.8798875487
 20
19.8200694616
 11
12.8798875487
 21
18.6254208469
  0
LINE
  5
28C
100
AcDbEntity
  8
0
100
AcDbLine
 62
7
  6
CONTINUOUS
 10
14.2641908199
 20
18.8429257334
 11
14.2641908199
 21
17.4424423956
  0
LINE
  5
28D
100
AcDbEntity
  8
0
100
AcDbLine
 62
7
  6
CONTINUOUS
 10
15.0536089955
 20
17.16323093
 11
15.0536089955
 21
18.5637142678
  0
LINE
  5
28E
100
AcDbEntity
  8
0
100
AcDbLine
 62
7
  6
CONTINUOUS
 10
15.877886412
 20
17.9117306873
 11
15.877886412
 21
19.253603596
  0
LINE
  5
28F
100
AcDbEntity
  8
0
100
AcDbLine
 62
7
  6
CONTINUOUS
 10
16.165459101
 20
24.7105530076
 11
16.165459101
 21
24.261036529
  0
LINE
  5
290
100
AcDbEntity
  8
0
100
AcDbLine
 62
7
  6
CONTINUOUS
 10
16.9713756597
 20
17.5159399362
 11
16.9713756597
 21
17.1867046376
  0
LINE
  5
291
100
AcDbEntity
  8
0
100
AcDbLine
 62
253
  6
CONTINUOUS
 10
17.0852159009
 20
17.401746754
 11
17.0852159009
 21
17.0725114554
  0
LINE
  5
292
100
AcDbEntity
  8
0
100
AcDbLine
 62
7
  6
CONTINUOUS
 10
17.5111354521
 20
16.8190420509
 11
17.5111354521
 21
16.3729542868
  0
LINE
  5
293
100
AcDbEntity
  8
0
100
AcDbLine
 62
253
  6
CONTINUOUS
 10
17.6249756933
 20
16.7787775858
 11
17.6249756933
 21
16.2537572359
  0
LINE
  5
294
100
AcDbEntity
  8
0
100
AcDbLine
 62
253
  6
CONTINUOUS
 10
18.8702025187
 20
21.7669694932
 11
18.8702025187
 21
21.2431603647
  0
LINE
  5
295
100
AcDbEntity
  8
0
100
AcDbLine
 62
253
  6
CONTINUOUS
 10
18.8702025187
 20
20.8650695119
 11
18.8702025187
 21
20.4265014682
  0
LINE
  5
296
100
AcDbEntity
  8
0
100
AcDbLine
 62
7
  6
CONTINUOUS
 10
18.9427854896
 20
21.8244414693
 11
18.9427854896
 21
20.5601909378
  0
LINE
  5
297
100
AcDbEntity
  8
0
100
AcDbLine
 62
7
  6
CONTINUOUS
 10
19.1989739431
 20
16.2329082396
 11
19.6821364186
 21
16.2072696496
  0
LINE
  5
298
100
AcDbEntity
  8
0
100
AcDbLine
 62
253
  6
CONTINUOUS
 10
19.4210932872
 20
16.4077359962
 11
19.9706115648
 21
16.3785762942
  0
LINE
  5
299
100
AcDbEntity
  8
RACCORDO
100
AcDbLine
 62
7
  6
CONTINUOUS
 10
19.3266110492
 20
10.8535411891
 11
20.6573301384
 21
10.3828755283
  0
LINE
  5
29A
100
AcDbEntity
  8
DRAFT
100
AcDbLine
 62
7
  6
CONTINUOUS
 10
20.6573301384
 20
-17.4609873274
 11
19.7633810553
 21
-4.2608845405
  0
LINE
  5
29B
100
AcDbEntity
  8
0
100
AcDbLine
 62
253
  6
CONTINUOUS
 10
19.0760615756
 20
-23.9559597344
 11
19.0760615756
 21
-23.6267244358
  0
LINE
  5
29C
100
AcDbEntity
  8
0
100
AcDbLine
 62
253
  6
CONTINUOUS
 10
19.0760615756
 20
16.3683638239
 11
19.0760615756
 21
16.6975991225
  0
LINE
  5
29D
100
AcDbEntity
  8
RACCORDO
100
AcDbLine
 62
7
  6
CONTINUOUS
 10
19.3266110492
 20
-22.5475741479
 11
19.3266110492
 21
13.6832817788
  0
LINE
  5
29E
100
AcDbEntity
  8
0
100
AcDbLine
 62
253
  6
CONTINUOUS
 10
19.4210932872
 20
-23.9165875621
 11
19.4210932872
 21
-23.5873522635
  0
LINE
  5
29F
100
AcDbEntity
  8
0
100
AcDbLine
 62
253
  6
CONTINUOUS
 10
19.4210932872
 20
16.4077359962
 11
19.4210932872
 21
16.7369712948
  0
LINE
  5
2A0
100
AcDbEntity
  8
0
100
AcDbLine
 62
253
  6
CONTINUOUS
 10
19.6255798532
 20
-22.5664191119
 11
19.6255798532
 21
-21.8944247587
  0
LINE
  5
2A1
100
AcDbEntity
  8
0
100
AcDbLine
 62
253
  6
CONTINUOUS
 10
19.6255798532
 20
15.5461580992
 11
19.6255798532
 21
16.2102707738
  0
LINE
  5
2A2
100
AcDbEntity
  8
0
100
AcDbLine
 62
253
  6
CONTINUOUS
 10
19.9706115648
 20
-22.6480986091
 11
19.9706115648
 21
-22.016459965
  0
LINE
  5
2A3
100
AcDbEntity
  8
0
100
AcDbLine
 62
253
  6
CONTINUOUS
 10
19.9706115648
 20
15.5964545605
 11
19.9706115648
 21
16.3785762942
  0
LINE
  5
2A4
100
AcDbEntity
  8
DRAFT
100
AcDbLine
 62
7
  6
CONTINUOUS
 10
20.6573301384
 20
14.7617083139
 11
20.6573301384
 21
10.3828755283
  0
LINE
  5
2A5
100
AcDbEntity
  8
DRAFT
100
AcDbLine
 62
7
  6
CONTINUOUS
 10
20.6573301384
 20
-17.4609873274
 11
20.6573301384
 21
-21.839820113
  0
LINE
  5
2A6
100
AcDbEntity
  8
0
100
AcDbLine
 62
7
  6
CONTINUOUS
 10
20.6583086493
 20
-22.0034159451
 11
20.6583086493
 21
-22.9030554228
  0
LINE
  5
2A7
100
AcDbEntity
  8
0
100
AcDbLine
 62
7
  6
CONTINUOUS
 10
20.6583086493
 20
16.2209301201
 11
20.6583086493
 21
17.772474219
  0
LINE
  5
2A8
100
AcDbEntity
  8
0
100
AcDbLine
 62
253
  6
CONTINUOUS
 10
21.063913538
 20
18.1133484068
 11
21.063913538
 21
17.7767942443
  0
LINE
  5
2A9
100
AcDbEntity
  8
0
100
AcDbLine
 62
253
  6
CONTINUOUS
 10
21.063913538
 20
-22.2182940154
 11
21.063913538
 21
-22.554848178
  0
LINE
  5
2AA
100
AcDbEntity
  8
0
100
AcDbLine
 62
7
  6
CONTINUOUS
 10
21.1034573033
 20
18.1868407262
 11
21.1034573033
 21
17.8502865636
  0
LINE
  5
2AB
100
AcDbEntity
  8
0
100
AcDbLine
 62
7
  6
CONTINUOUS
 10
21.1034573033
 20
-22.1448016961
 11
21.1034573033
 21
-22.4813558586
  0
LINE
  5
2AC
100
AcDbEntity
  8
0
100
AcDbLine
 62
7
  6
CONTINUOUS
 10
21.4962472648
 20
15.5050301124
 11
21.4962472648
 21
-21.2283569006
  0
LINE
  5
2AD
100
AcDbEntity
  8
0
100
AcDbLine
 62
7
  6
CONTINUOUS
 10
21.4973451656
 20
15.5048479172
 11
21.4973451656
 21
-21.2289513445
  0
LINE
  5
2AE
100
AcDbEntity
  8
DRAFT
100
AcDbLine
 62
7
  6
CONTINUOUS
 10
19.7633810553
 20
-4.2608845405
 11
20.6573301384
 21
10.3828755283
  0
LINE
  5
2AF
100
AcDbEntity
  8
0
100
AcDbLine
 62
7
  6
CONTINUOUS
 10
16.165459101
 20
24.261036529
 11
14.8187139956
 21
23.8863645577
  0
LINE
  5
2B0
100
AcDbEntity
  8
0
100
AcDbLine
 62
7
  6
CONTINUOUS
 10
4.6061060608
 20
21.3942994448
 11
5.0892675094
 21
21.3686609094
  0
LINE
  5
2B1
100
AcDbEntity
  8
RACCORDO
100
AcDbLine
 62
7
  6
CONTINUOUS
 10
-17.4073035225
 20
27.0949917078
 11
18.907419461
 21
14.2507383822
  0
LINE
  5
2B2
100
AcDbEntity
  8
0
100
AcDbLine
 62
7
  6
CONTINUOUS
 10
20.2383140523
 20
15.3294384707
 11
19.6255798532
 21
15.5461580992
  0
LINE
  5
2B3
100
AcDbEntity
  8
0
100
AcDbLine
 62
7
  6
CONTINUOUS
 10
17.6249756933
 20
16.2537572359
 11
15.0536089955
 21
17.16323093
  0
LINE
  5
2B4
100
AcDbEntity
  8
0
100
AcDbLine
 62
7
  6
CONTINUOUS
 10
14.2641908199
 20
17.4424423956
 11
8.3934968443
 21
19.5188641448
  0
LINE
  5
2B5
100
AcDbEntity
  8
0
100
AcDbLine
 62
7
  6
CONTINUOUS
 10
7.6040786687
 20
19.7980756104
 11
5.032711971
 21
20.7075493044
  0
LINE
  5
2B6
100
AcDbEntity
  8
0
100
AcDbLine
 62
7
  6
CONTINUOUS
 10
3.0321078111
 20
21.4151484412
 11
2.419373612
 21
21.6318680697
  0
LINE
  5
2B7
100
AcDbEntity
  8
0
100
AcDbLine
 62
7
  6
CONTINUOUS
 10
2.5451452536
 20
22.1124039049
 11
4.5359909283
 21
21.4082562734
  0
LINE
  5
2B8
100
AcDbEntity
  8
0
100
AcDbLine
 62
7
  6
CONTINUOUS
 10
17.1380131359
 20
16.9510126996
 11
19.1288588105
 21
16.2468650681
  0
LINE
  5
2B9
100
AcDbEntity
  8
0
100
AcDbLine
 62
7
  6
CONTINUOUS
 10
22.0346652335
 20
15.9593300688
 11
22.0346652335
 21
13.1196682064
  0
LINE
  5
2BA
100
AcDbEntity
  8
0
100
AcDbLine
 62
7
  6
CONTINUOUS
 10
22.0346652335
 20
-17.9250488452
 11
22.0346652335
 21
-20.7647107076
  0
LINE
  5
2BB
100
AcDbEntity
  8
0
100
AcDbLine
 62
7
  6
CONTINUOUS
 10
22.5719853013
 20
13.5863485678
 11
22.5719853013
 21
-17.4730064181
  0
LINE
  5
2BC
100
AcDbEntity
  8
0
100
AcDbLine
 62
253
  6
CONTINUOUS
 10
4.8282254049
 20
21.5691272015
 11
5.3777436826
 21
21.5399674995
  0
LINE
  5
2BD
100
AcDbEntity
  8
0
100
AcDbLine
 62
253
  6
CONTINUOUS
 10
2.4923480187
 20
22.2339026606
 11
4.4831936933
 21
21.5297550291
  0
LINE
  5
2BE
100
AcDbEntity
  8
0
100
AcDbLine
 62
253
  6
CONTINUOUS
 10
17.0852159009
 20
17.0725114554
 11
19.0760615756
 21
16.3683638239
  0
LINE
  5
2BF
100
AcDbEntity
  8
0
100
AcDbLine
 62
7
  6
CONTINUOUS
 10
14.2641908199
 20
18.1358028508
 11
12.8798875487
 21
18.6254208469
  0
LINE
  5
2C0
100
AcDbEntity
  8
0
100
AcDbLine
 62
7
  6
CONTINUOUS
 10
10.8670781856
 20
19.3373368752
 11
8.9381358793
 21
20.0195897356
  0
LINE
  5
2C1
100
AcDbEntity
  8
0
100
AcDbLine
 62
253
  6
CONTINUOUS
 10
19.0760615756
 20
16.6975991225
 11
17.0852159009
 21
17.401746754
  0
LINE
  5
2C2
100
AcDbEntity
  8
0
100
AcDbLine
 62
253
  6
CONTINUOUS
 10
4.4831936933
 20
21.8589903277
 11
2.4923480187
 21
22.5631379592
  0
LINE
  5
2C3
100
AcDbEntity
  8
0
100
AcDbLine
 62
7
  6
CONTINUOUS
 10
21.0780152039
 20
16.0724829651
 11
20.6583086493
 21
16.2209301201
  0
LINE
  5
2C4
100
AcDbEntity
  8
0
100
AcDbLine
 62
7
  6
CONTINUOUS
 10
11.3071318167
 20
19.5283733349
 11
12.7888153557
 21
19.0043126466
  0
LINE
  5
2C5
100
AcDbEntity
  8
0
100
AcDbLine
 62
7
  6
CONTINUOUS
 10
16.9715981863
 20
17.5248927896
 11
15.877886412
 21
17.9117306873
  0
LINE
  5
2C6
100
AcDbEntity
  8
0
100
AcDbLine
 62
7
  6
CONTINUOUS
 10
7.6040786687
 20
20.8381162932
 11
6.065440767
 21
21.3823213253
  0
LINE
  5
2C7
100
AcDbEntity
  8
0
100
AcDbLine
 62
253
  6
CONTINUOUS
 10
19.2114291934
 20
17.0207920532
 11
17.2205835188
 21
17.7249396847
  0
LINE
  5
2C8
100
AcDbEntity
  8
0
100
AcDbLine
 62
253
  6
CONTINUOUS
 10
4.6185613112
 20
22.1821832584
 11
2.6277156365
 21
22.8863308899
  0
LINE
  5
2C9
100
AcDbEntity
  8
0
100
AcDbLine
 62
7
  6
CONTINUOUS
 10
7.6040786687
 20
21.1985589482
 11
8.3934968443
 21
20.9193474826
  0
LINE
  5
2CA
100
AcDbEntity
  8
0
100
AcDbLine
 62
7
  6
CONTINUOUS
 10
14.2641908199
 20
18.8429257334
 11
15.0536089955
 21
18.5637142678
  0
LINE
  5
2CB
100
AcDbEntity
  8
0
100
AcDbLine
 62
7
  6
CONTINUOUS
 10
21.6153352718
 20
16.5269651167
 11
20.6583086493
 21
16.8654584706
  0
LINE
  5
2CC
100
AcDbEntity
  8
0
100
AcDbLine
 62
7
  6
CONTINUOUS
 10
6.6052005594
 20
21.8359405641
 11
6.065440767
 21
22.0268496759
  0
LINE
  5
2CD
100
AcDbEntity
  8
0
100
AcDbLine
 62
7
  6
CONTINUOUS
 10
12.7888153557
 20
19.6493289308
 11
11.8517708517
 21
19.9807547548
  0
LINE
  5
2CE
100
AcDbEntity
  8
0
100
AcDbLine
 62
253
  6
CONTINUOUS
 10
14.670015192
 20
19.1869143375
 11
12.8798875487
 21
19.8200694616
  0
LINE
  5
2CF
100
AcDbEntity
  8
0
100
AcDbLine
 62
253
  6
CONTINUOUS
 10
10.8670781856
 20
20.5319854899
 11
8.9381358793
 21
21.2142383504
  0
LINE
  5
2D0
100
AcDbEntity
  8
0
100
AcDbLine
 62
253
  6
CONTINUOUS
 10
14.9171239492
 20
19.3963709457
 11
12.988181643
 21
20.0786238061
  0
LINE
  5
2D1
100
AcDbEntity
  8
0
100
AcDbLine
 62
253
  6
CONTINUOUS
 10
10.9753722799
 20
20.7905398344
 11
9.0464299736
 21
21.4727926949
  0
LINE
  5
2D2
100
AcDbEntity
  8
0
100
AcDbLine
 62
7
  6
CONTINUOUS
 10
8.4137183573
 20
21.8936255343
 11
11.1393977031
 21
20.9295725793
  0
LINE
  5
2D3
100
AcDbEntity
  8
0
100
AcDbLine
 62
7
  6
CONTINUOUS
 10
13.1522070662
 20
20.217656551
 11
15.877886412
 21
19.253603596
  0
LINE
  5
2D4
100
AcDbEntity
  8
0
100
AcDbLine
 62
7
  6
CONTINUOUS
 10
20.4486445555
 20
18.0562949774
 11
18.435828096
 21
18.7682135157
  0
LINE
  5
2D5
100
AcDbEntity
  8
0
100
AcDbLine
 62
7
  6
CONTINUOUS
 10
5.8557766733
 20
23.2176861826
 11
3.8429602138
 21
23.9296047209
  0
LINE
  5
2D6
100
AcDbEntity
  8
0
100
AcDbLine
 62
7
  6
CONTINUOUS
 10
15.6257884075
 20
19.9872971767
 11
13.6968461012
 21
20.6695500372
  0
LINE
  5
2D7
100
AcDbEntity
  8
0
100
AcDbLine
 62
7
  6
CONTINUOUS
 10
11.6840367381
 20
21.3814660655
 11
9.7550944319
 21
22.063718926
  0
LINE
  5
2D8
100
AcDbEntity
  8
0
100
AcDbLine
 62
253
  6
CONTINUOUS
 10
4.2558981594
 20
24.2678852598
 11
6.261381562
 21
23.5585603704
  0
LINE
  5
2D9
100
AcDbEntity
  8
0
100
AcDbLine
 62
253
  6
CONTINUOUS
 10
18.8487660417
 20
19.1064940546
 11
20.8542494442
 21
18.3971691652
  0
LINE
  5
2DA
100
AcDbEntity
  8
0
100
AcDbLine
 62
7
  6
CONTINUOUS
 10
4.3384685423
 20
24.2932487588
 11
6.3439519448
 21
23.5839238694
  0
LINE
  5
2DB
100
AcDbEntity
  8
0
100
AcDbLine
 62
7
  6
CONTINUOUS
 10
18.9313364246
 20
19.1318575535
 11
20.9368198271
 21
18.4225326642
  0
LINE
  5
2DC
100
AcDbEntity
  8
RACCORDO
100
AcDbLine
 62
253
  6
CONTINUOUS
 10
24.616731087
 20
20.3476461089
 11
24.616731087
 21
20.299655003
  0
LINE
  5
2DD
100
AcDbEntity
  8
RACCORDO
100
AcDbLine
 62
253
  6
CONTINUOUS
 10
24.616731087
 20
-12.9020806125
 11
24.616731087
 21
-13.8294276748
  0
LINE
  5
2DE
100
AcDbEntity
  8
RACCORDO
100
AcDbLine
 62
7
  6
CONTINUOUS
 10
24.6480527978
 20
-12.8706288461
 11
24.6480527978
 21
-13.7709008068
  0
LINE
  5
2DF
100
AcDbEntity
  8
0
100
AcDbLine
 62
253
  6
CONTINUOUS
 10
25.1790983437
 20
21.4109810709
 11
25.1790983437
 21
20.8378080269
  0
LINE
  5
2E0
100
AcDbEntity
  8
0
100
AcDbLine
 62
253
  6
CONTINUOUS
 10
25.1790983437
 20
-14.2186217132
 11
25.1790983437
 21
-14.7917947573
  0
LINE
  5
2E1
100
AcDbEntity
  8
0
100
AcDbLine
 62
7
  6
CONTINUOUS
 10
25.2550742956
 20
21.6229646629
 11
25.2550742956
 21
20.9821153852
  0
LINE
  5
2E2
100
AcDbEntity
  8
0
100
AcDbLine
 62
7
  6
CONTINUOUS
 10
25.2550742956
 20
-14.0743143549
 11
25.2550742956
 21
-14.7151636326
  0
LINE
  5
2E3
100
AcDbEntity
  8
RACCORDO
100
AcDbLine
 62
7
  6
CONTINUOUS
 10
24.616731087
 20
-13.8294276748
 11
22.5719853013
 21
-15.5775054616
  0
LINE
  5
2E4
100
AcDbEntity
  8
RACCORDO
100
AcDbLine
 62
7
  6
CONTINUOUS
 10
24.616731087
 20
-12.9020806125
 11
22.5719853013
 21
-14.6223064203
  0
LINE
  5
2E5
100
AcDbEntity
  8
RACCORDO
100
AcDbLine
 62
7
  6
CONTINUOUS
 10
24.1039098711
 20
-12.7206994793
 11
22.5719853013
 21
-13.9609453269
  0
LINE
  5
2E6
100
AcDbEntity
  8
0
100
AcDbLine
 62
253
  6
CONTINUOUS
 10
18.8481353589
 20
21.7498289269
 11
18.0782483468
 21
22.022132362
  0
LINE
  5
2E7
100
AcDbEntity
  8
0
100
AcDbLine
 62
253
  6
CONTINUOUS
 10
12.2075543712
 20
24.0985541113
 11
11.4376673592
 21
24.3708575464
  0
LINE
  5
2E8
100
AcDbEntity
  8
0
100
AcDbLine
 62
7
  6
CONTINUOUS
 10
18.9421022403
 20
21.8257296099
 11
18.3143268354
 21
22.0477692035
  0
LINE
  5
2E9
100
AcDbEntity
  8
0
100
AcDbLine
 62
7
  6
CONTINUOUS
 10
12.3017619485
 20
24.174369662
 11
11.6739860655
 21
24.3964094246
  0
LINE
  5
2EA
100
AcDbEntity
  8
0
100
AcDbLine
 62
7
  6
CONTINUOUS
 10
22.0346652335
 20
14.3137148346
 11
22.5719853013
 21
13.5863485678
  0
LINE
  5
2EB
100
AcDbEntity
  8
0
100
AcDbLine
 62
253
  6
CONTINUOUS
 10
19.6249699479
 20
-22.5662033928
 11
19.1441414549
 21
-23.3880503404
  0
LINE
  5
2EC
100
AcDbEntity
  8
0
100
AcDbLine
 62
253
  6
CONTINUOUS
 10
19.9706115648
 20
-22.6480986091
 11
19.4210932872
 21
-23.5873522635
  0
LINE
  5
2ED
100
AcDbEntity
  8
0
100
AcDbLine
 62
7
  6
CONTINUOUS
 10
25.1790983437
 20
-14.2186217132
 11
22.5719853013
 21
-16.4909935734
  0
LINE
  5
2EE
100
AcDbEntity
  8
0
100
AcDbLine
 62
7
  6
CONTINUOUS
 10
25.1790983437
 20
-14.7917947573
 11
22.5719853013
 21
-16.9921559436
  0
LINE
  5
2EF
100
AcDbEntity
  8
0
100
AcDbLine
 62
7
  6
CONTINUOUS
 10
22.0346652335
 20
-17.9250488452
 11
22.5719853013
 21
-17.4730064181
  0
LINE
  5
2F0
100
AcDbEntity
  8
RACCORDO
100
AcDbLine
 62
253
  6
CONTINUOUS
 10
19.3266110492
 20
-22.5475741479
 11
16.7105536848
 21
-24.5192830748
  0
LINE
  5
2F1
100
AcDbEntity
  8
0
100
AcDbLine
 62
7
  6
CONTINUOUS
 10
14.8187139956
 20
23.8863645577
 11
19.3939337668
 21
22.2681426098
  0
LINE
  5
2F2
100
AcDbEntity
  8
0
100
AcDbLine
 62
7
  6
CONTINUOUS
 10
20.1130503754
 20
22.8648022144
 11
16.165459101
 21
24.261036529
  0
LINE
  5
2F3
100
AcDbEntity
  8
0
100
AcDbLine
 62
253
  6
CONTINUOUS
 10
12.0059386607
 20
26.3747719871
 11
15.6239886296
 21
25.0950940348
  0
LINE
  5
2F4
100
AcDbEntity
  8
0
100
AcDbLine
 62
253
  6
CONTINUOUS
 10
20.6560120372
 20
23.315303964
 11
24.2740620061
 21
22.0356260118
  0
LINE
  5
2F5
100
AcDbEntity
  8
0
100
AcDbLine
 62
7
  6
CONTINUOUS
 10
12.1600123494
 20
26.5385494151
 11
15.9542701611
 21
25.1965480307
  0
LINE
  5
2F6
100
AcDbEntity
  8
0
100
AcDbLine
 62
7
  6
CONTINUOUS
 10
20.9862935688
 20
23.4167579599
 11
24.7805513804
 21
22.0747565756
  0
LINE
  5
2F7
100
AcDbEntity
  8
0
100
AcDbLine
 62
253
  6
CONTINUOUS
 10
21.4973451656
 20
-21.2289513445
 11
22.0346652335
 21
-20.7647107076
  0
LINE
  5
2F8
100
AcDbEntity
  8
0
100
AcDbLine
 62
7
  6
CONTINUOUS
 10
21.4020793182
 20
-21.4613740608
 11
21.939399386
 21
-20.997133424
  0
LINE
  5
2F9
100
AcDbEntity
  8
0
100
AcDbLine
 62
253
  6
CONTINUOUS
 10
20.6583086493
 20
-22.9030554228
 11
21.063913538
 21
-22.554848178
  0
LINE
  5
2FA
100
AcDbEntity
  8
0
100
AcDbLine
 62
7
  6
CONTINUOUS
 10
20.6103788796
 20
-23.0195244795
 11
21.0163022735
 21
-22.6710438016
  0
LINE
  5
2FB
100
AcDbEntity
  8
0
100
AcDbLine
 62
7
  6
CONTINUOUS
 10
20.610377299
 20
-23.0195258364
 11
20.608192036
 21
-23.0213585217
  0
LINE
  5
2FC
100
AcDbEntity
  8
0
100
AcDbLine
 62
253
  6
CONTINUOUS
 10
19.4210932872
 20
-23.9165875621
 11
20.6583086493
 21
-22.9030554228
  0
LINE
  5
2FD
100
AcDbEntity
  8
0
100
AcDbLine
 62
7
  6
CONTINUOUS
 10
19.3706492
 20
-24.0351589289
 11
20.6081914324
 21
-23.0213590161
  0
LINE
  5
2FE
100
AcDbEntity
  8
RACCORDO
100
AcDbLine
 62
7
  6
CONTINUOUS
 10
16.5991605578
 20
-24.7645361003
 11
19.2184901218
 21
-22.7903612282
  0
LINE
  5
2FF
100
AcDbEntity
  8
0
100
AcDbLine
 62
253
  6
CONTINUOUS
 10
20.6573301384
 20
-21.839820113
 11
21.4962472648
 21
-21.2283569006
  0
LINE
  5
300
100
AcDbEntity
  8
0
100
AcDbLine
 62
7
  6
CONTINUOUS
 10
20.5459388313
 20
-22.0853191603
 11
21.3848511452
 21
-21.4738594555
  0
ARC
  5
301
100
AcDbEntity
  8
0
100
AcDbCircle
 62
7
  6
CONTINUOUS
 10
-12.9266678129
 20
-9.743959255
 40
5.8816561092
100
AcDbArc
 50
41.1918831701
 51
41.6715964377
  0
ARC
  5
302
100
AcDbEntity
  8
0
100
AcDbCircle
 62
7
  6
CONTINUOUS
 10
-12.9198855124
 20
-9.7379166302
 40
5.8725724483
100
AcDbArc
 50
41.6715537505
 51
42.2460511021
  0
ARC
  5
303
100
AcDbEntity
  8
0
100
AcDbCircle
 62
7
  6
CONTINUOUS
 10
-11.9899916056
 20
-8.248274073
 40
4.1036997608
100
AcDbArc
 50
68.2796774871
 51
69.786296703
  0
ARC
  5
304
100
AcDbEntity
  8
DRAFT
100
AcDbCircle
 62
7
  6
CONTINUOUS
 10
-12.3478124552
 20
-5.9860374068
 40
4.0503865769
100
AcDbArc
 50
249.235600924
 51
249.5468218157
  0
ARC
  5
305
100
AcDbEntity
  8
DRAFT
100
AcDbCircle
 62
7
  6
CONTINUOUS
 10
-9.0952591837
 20
-7.3116646308
 40
3.934568915
100
AcDbArc
 50
249.8219427591
 51
252.5501744818
  0
ARC
  5
306
100
AcDbEntity
  8
0
100
AcDbCircle
 62
7
  6
CONTINUOUS
 10
-15.2557220532
 20
-6.8478309918
 40
3.9275257752
100
AcDbArc
 50
69.4642266143
 51
72.2833786209
  0
ARC
  5
307
100
AcDbEntity
  8
DRAFT
100
AcDbCircle
 62
7
  6
CONTINUOUS
 10
-13.8054426121
 20
-5.1892419848
 40
3.3160701491
100
AcDbArc
 50
180.4888168137
 51
180.9697943353
  0
ARC
  5
308
100
AcDbEntity
  8
0
100
AcDbCircle
 62
7
  6
CONTINUOUS
 10
-10.3996754615
 20
-8.9832585811
 40
3.2026214651
100
AcDbArc
 50
358.0730667164
 51
1.0965925404
  0
ARC
  5
309
100
AcDbEntity
  8
DRAFT
100
AcDbCircle
 62
7
  6
CONTINUOUS
 10
-9.2030492687
 20
-9.1788009089
 40
2.0323530591
100
AcDbArc
 50
289.8311136582
 51
291.0140248064
  0
ARC
  5
30A
100
AcDbEntity
  8
DRAFT
100
AcDbCircle
 62
7
  6
CONTINUOUS
 10
-9.1927364123
 20
-9.2054451835
 40
2.0037826715
100
AcDbArc
 50
291.0119536615
 51
293.1667015627
  0
ARC
  5
30B
100
AcDbEntity
  8
DRAFT
100
AcDbCircle
 62
7
  6
CONTINUOUS
 10
-9.1832770384
 20
-9.227801693
 40
1.9795075107
100
AcDbArc
 50
293.1695558691
 51
294.0056171785
  0
ARC
  5
30C
100
AcDbEntity
  8
DRAFT
100
AcDbCircle
 62
7
  6
CONTINUOUS
 10
-9.17776274
 20
-9.2401751051
 40
1.9659609687
100
AcDbArc
 50
294.0055147669
 51
294.9597985174
  0
ARC
  5
30D
100
AcDbEntity
  8
DRAFT
100
AcDbCircle
 62
7
  6
CONTINUOUS
 10
-9.1675143917
 20
-9.2619614384
 40
1.9418847711
100
AcDbArc
 50
294.9569144209
 51
297.449333816
  0
ARC
  5
30E
100
AcDbEntity
  8
DRAFT
100
AcDbCircle
 62
7
  6
CONTINUOUS
 10
-9.1550027003
 20
-9.2862087668
 40
1.9145997973
100
AcDbArc
 50
297.4515494132
 51
299.1984331255
  0
ARC
  5
30F
100
AcDbEntity
  8
DRAFT
100
AcDbCircle
 62
7
  6
CONTINUOUS
 10
-9.1435728517
 20
-9.3065953261
 40
1.8912277587
100
AcDbArc
 50
299.1974568064
 51
301.6395049016
  0
ARC
  5
310
100
AcDbEntity
  8
DRAFT
100
AcDbCircle
 62
7
  6
CONTINUOUS
 10
-9.1321883902
 20
-9.3251581251
 40
1.8694520521
100
AcDbArc
 50
301.6408904178
 51
304.0007891039
  0
ARC
  5
311
100
AcDbEntity
  8
DRAFT
100
AcDbCircle
 62
7
  6
CONTINUOUS
 10
-9.1264551096
 20
-9.3337317369
 40
1.8591381969
100
AcDbArc
 50
304.0020631352
 51
305.7626519504
  0
ARC
  5
312
100
AcDbEntity
  8
DRAFT
100
AcDbCircle
 62
7
  6
CONTINUOUS
 10
-15.196394488
 20
-4.8230189446
 40
1.8490661228
100
AcDbArc
 50
134.2084439041
 51
135.9752811666
  0
ARC
  5
313
100
AcDbEntity
  8
0
100
AcDbCircle
 62
7
  6
CONTINUOUS
 10
-15.20056812
 20
-4.8187303537
 40
1.8430818757
100
AcDbArc
 50
131.2822247118
 51
134.2084566154
  0
ARC
  5
314
100
AcDbEntity
  8
0
100
AcDbCircle
 62
7
  6
CONTINUOUS
 10
4.619608313
 20
21.6452279562
 40
0.2512915212
100
AcDbArc
 50
250.5620316665
 51
266.919932686
  0
ARC
  5
315
100
AcDbEntity
  8
0
100
AcDbCircle
 62
7
  6
CONTINUOUS
 10
2.6285126225
 20
22.6773290652
 40
0.2500048719
100
AcDbArc
 50
130.6462524908
 51
180.0021645012
  0
ARC
  5
316
100
AcDbEntity
  8
0
100
AcDbCircle
 62
7
  6
CONTINUOUS
 10
2.6285075649
 20
22.3480955635
 40
0.2499996658
100
AcDbArc
 50
180.0015494136
 51
250.5217080162
  0
ARC
  5
317
100
AcDbEntity
  8
0
100
AcDbCircle
 62
7
  6
CONTINUOUS
 10
4.2551060557
 20
24.0575572784
 40
0.2499995561
100
AcDbArc
 50
70.5216565073
 51
129.3250916072
  0
ARC
  5
318
100
AcDbEntity
  8
0
100
AcDbCircle
 62
7
  6
CONTINUOUS
 10
6.2605900394
 20
23.3482330687
 40
0.2499987216
100
AcDbArc
 50
359.9997570084
 51
70.5217301402
  0
ARC
  5
319
100
AcDbEntity
  8
0
100
AcDbCircle
 62
7
  6
CONTINUOUS
 10
6.2605909957
 20
23.0116770115
 40
0.2499982572
100
AcDbArc
 50
330.2060377584
 51
0.0008024747
  0
ARC
  5
31A
100
AcDbEntity
  8
0
100
AcDbCircle
 62
7
  6
CONTINUOUS
 10
3.7619570689
 20
23.8165110681
 40
0.1239514877
100
AcDbArc
 50
124.798543805
 51
129.3214038408
  0
ARC
  5
31B
100
AcDbEntity
  8
0
100
AcDbCircle
 62
253
  6
CONTINUOUS
 10
4.1750569875
 20
24.1552759949
 40
0.1236794236
100
AcDbArc
 50
128.6197261337
 51
129.3255319906
  0
ARC
  5
31C
100
AcDbEntity
  8
0
100
AcDbCircle
 62
253
  6
CONTINUOUS
 10
37.0879484716
 20
-7.2453794658
 40
47.7450368528
100
AcDbArc
 50
176.5803006622
 51
177.4805135268
  0
ARC
  5
31D
100
AcDbEntity
  8
0
100
AcDbCircle
 62
253
  6
CONTINUOUS
 10
34.8249760826
 20
-7.1494464297
 40
45.4800317105
100
AcDbArc
 50
177.517279104
 51
178.4313778907
  0
ARC
  5
31E
100
AcDbEntity
  8
0
100
AcDbCircle
 62
253
  6
CONTINUOUS
 10
32.7137660794
 20
-7.0952803499
 40
43.3681257899
100
AcDbArc
 50
178.4853557304
 51
179.4005747483
  0
ARC
  5
31F
100
AcDbEntity
  8
0
100
AcDbCircle
 62
253
  6
CONTINUOUS
 10
31.0747224327
 20
-7.0796212034
 40
41.7290046414
100
AcDbArc
 50
179.4930631511
 51
180.0857190894
  0
ARC
  5
320
100
AcDbEntity
  8
0
100
AcDbCircle
 62
253
  6
CONTINUOUS
 10
30.322499318
 20
-7.0805111164
 40
40.9767810378
100
AcDbArc
 50
180.0860483406
 51
180.388625769
  0
ARC
  5
321
100
AcDbEntity
  8
0
100
AcDbCircle
 62
253
  6
CONTINUOUS
 10
24.3475244119
 20
-6.3720885154
 40
38.3593981817
100
AcDbArc
 50
175.211442801
 51
176.3243239596
  0
ARC
  5
322
100
AcDbEntity
  8
0
100
AcDbCircle
 62
253
  6
CONTINUOUS
 10
21.9517983607
 20
-6.223556018
 40
35.9590690805
100
AcDbArc
 50
176.4036795644
 51
177.5301600328
  0
ARC
  5
323
100
AcDbEntity
  8
0
100
AcDbCircle
 62
253
  6
CONTINUOUS
 10
19.754670357
 20
-6.1343655956
 40
33.7601259581
100
AcDbArc
 50
177.6490276563
 51
178.775005871
  0
ARC
  5
324
100
AcDbEntity
  8
0
100
AcDbCircle
 62
253
  6
CONTINUOUS
 10
18.8066785937
 20
-6.1127745112
 40
32.8118892085
100
AcDbArc
 50
178.8307786091
 51
178.9556433346
  0
ARC
  5
325
100
AcDbEntity
  8
0
100
AcDbCircle
 62
253
  6
CONTINUOUS
 10
18.0549215202
 20
-6.1008212349
 40
32.0600391956
100
AcDbArc
 50
178.9525148131
 51
179.6938127384
  0
ARC
  5
326
100
AcDbEntity
  8
0
100
AcDbCircle
 62
253
  6
CONTINUOUS
 10
15.4539065409
 20
-6.5989579401
 40
29.1015951775
100
AcDbArc
 50
173.5406168767
 51
175.0342354817
  0
ARC
  5
327
100
AcDbEntity
  8
0
100
AcDbCircle
 62
253
  6
CONTINUOUS
 10
12.5563734857
 20
-6.3802836054
 40
26.1959876705
100
AcDbArc
 50
175.0350549178
 51
179.1795660829
  0
ARC
  5
328
100
AcDbEntity
  8
0
100
AcDbCircle
 62
253
  6
CONTINUOUS
 10
11.0610653007
 20
-6.3487507989
 40
24.7003833443
100
AcDbArc
 50
179.2030374551
 51
179.3620622579
  0
ARC
  5
329
100
AcDbEntity
  8
0
100
AcDbCircle
 62
7
  6
CONTINUOUS
 10
19.2122212971
 20
-23.8417670099
 40
0.2499995561
100
AcDbArc
 50
250.5216565073
 51
309.3250916072
  0
ARC
  5
32A
100
AcDbEntity
  8
0
100
AcDbCircle
 62
7
  6
CONTINUOUS
 10
20.8534577047
 20
-22.1448009556
 40
0.2499991681
100
AcDbArc
 50
0.0003457886
 51
70.5217135726
  0
ARC
  5
32B
100
AcDbEntity
  8
0
100
AcDbCircle
 62
7
  6
CONTINUOUS
 10
20.8534595906
 20
-22.481357573
 40
0.249997098
100
AcDbArc
 50
310.6466774769
 51
0.0012445189
  0
ARC
  5
32C
100
AcDbEntity
  8
0
100
AcDbCircle
 62
7
  6
CONTINUOUS
 10
21.2396319435
 20
-21.2732741449
 40
0.248537138
100
AcDbArc
 50
302.8737923756
 51
310.8133658922
  0
ARC
  5
32D
100
AcDbEntity
  8
0
100
AcDbCircle
 62
7
  6
CONTINUOUS
 10
21.2387136352
 20
-21.2733868938
 40
0.2480833234
100
AcDbArc
 50
306.0929785797
 51
315.0478347621
  0
ARC
  5
32E
100
AcDbEntity
  8
0
100
AcDbCircle
 62
7
  6
CONTINUOUS
 10
19.2124854571
 20
16.4838812991
 40
0.2513364613
100
AcDbArc
 50
250.5643930763
 51
266.9164945134
  0
ARC
  5
32F
100
AcDbEntity
  8
0
100
AcDbCircle
 62
7
  6
CONTINUOUS
 10
17.2213805047
 20
17.51593786
 40
0.2500048719
100
AcDbArc
 50
130.6462524908
 51
180.0021645012
  0
ARC
  5
330
100
AcDbEntity
  8
0
100
AcDbCircle
 62
7
  6
CONTINUOUS
 10
18.8479735683
 20
18.8961652951
 40
0.2500000372
100
AcDbArc
 50
70.5188818344
 51
129.3243759758
  0
ARC
  5
331
100
AcDbEntity
  8
0
100
AcDbCircle
 62
7
  6
CONTINUOUS
 10
20.8534579217
 20
18.1868418635
 40
0.2499987216
100
AcDbArc
 50
359.9997570084
 51
70.5217301402
  0
ARC
  5
332
100
AcDbEntity
  8
0
100
AcDbCircle
 62
7
  6
CONTINUOUS
 10
17.2213745987
 20
17.1867033204
 40
0.2499983537
100
AcDbArc
 50
179.9968242045
 51
250.525133008
  0
ARC
  5
333
100
AcDbEntity
  8
0
100
AcDbCircle
 62
7
  6
CONTINUOUS
 10
20.853458878
 20
17.8502858063
 40
0.2499982572
100
AcDbArc
 50
330.2060377584
 51
0.0008024747
  0
ARC
  5
334
100
AcDbEntity
  8
0
100
AcDbCircle
 62
7
  6
CONTINUOUS
 10
12.9888215183
 20
19.9114207657
 40
0.2000061626
100
AcDbArc
 50
130.2860461847
 51
179.9990713751
  0
ARC
  5
335
100
AcDbEntity
  8
0
100
AcDbCircle
 62
7
  6
CONTINUOUS
 10
18.3548249512
 20
18.6551198628
 40
0.1239514877
100
AcDbArc
 50
124.7985438049
 51
129.3214038409
  0
ARC
  5
336
100
AcDbEntity
  8
0
100
AcDbCircle
 62
253
  6
CONTINUOUS
 10
18.7679359884
 20
18.9938708543
 40
0.1236972498
100
AcDbArc
 50
127.9853320025
 51
129.3254270226
  0
ARC
  5
337
100
AcDbEntity
  8
RACCORDO
100
AcDbCircle
 62
253
  6
CONTINUOUS
 10
268.4069671323
 20
782.6248417666
 40
812.3647494779
100
AcDbArc
 50
249.1708075572
 51
251.8725593205
  0
ARC
  5
338
100
AcDbEntity
  8
RACCORDO
100
AcDbCircle
 62
253
  6
CONTINUOUS
 10
263.8876005169
 20
734.9056992921
 40
798.8152279605
100
AcDbArc
 50
249.1478896151
 51
251.8954772623
  0
ARC
  5
339
100
AcDbEntity
  8
RACCORDO
100
AcDbCircle
 62
253
  6
CONTINUOUS
 10
258.948409057
 20
755.5797447687
 40
782.0996829784
100
AcDbArc
 50
249.1184822892
 51
251.9248842809
  0
ARC
  5
33A
100
AcDbEntity
  8
DRAFT
100
AcDbCircle
 62
7
  6
CONTINUOUS
 10
229.8477043383
 20
644.1251453
 40
697.8104842288
100
AcDbArc
 50
249.6309761901
 51
249.8551850765
  0
ARC
  5
33B
100
AcDbEntity
  8
0
100
AcDbCircle
 62
7
  6
CONTINUOUS
 10
227.2797583335
 20
637.200777395
 40
690.4252866915
100
AcDbArc
 50
249.6033007132
 51
249.8593872708
  0
ARC
  5
33C
100
AcDbEntity
  8
DRAFT
100
AcDbCircle
 62
7
  6
CONTINUOUS
 10
206.9060581728
 20
586.3241694668
 40
629.4828944606
100
AcDbArc
 50
249.4676216509
 51
249.7885848577
  0
ARC
  5
33D
100
AcDbEntity
  8
RACCORDO
100
AcDbCircle
 62
253
  6
CONTINUOUS
 10
638.4966550229
 20
5.8817289543
 40
659.184518145
100
AcDbArc
 50
178.4813778202
 51
181.5186221732
  0
ARC
  5
33E
100
AcDbEntity
  8
RACCORDO
100
AcDbCircle
 62
253
  6
CONTINUOUS
 10
629.8681377864
 20
-6.8904362723
 40
614.4619515649
100
AcDbArc
 50
178.3708187058
 51
181.6291812895
  0
ARC
  5
33F
100
AcDbEntity
  8
RACCORDO
100
AcDbCircle
 62
253
  6
CONTINUOUS
 10
619.8618906492
 20
-6.8115142646
 40
603.7900766594
100
AcDbArc
 50
178.3436957516
 51
181.6563044161
  0
SPLINE
  5
340
100
AcDbEntity
  8
0
100
AcDbSpline
 62
7
  6
CONTINUOUS
 70
0
 71
3
 72
14
 73
10
 74
8
 42
0.0000001
 43
0.0000001
 44
0.0000000001
 12
0.0988671793
 22
-5.9404454905
 32
0.0
 13
5.5675860452
 23
-2.0738015755
 33
0.0
 40
0.0
 40
0.0
 40
0.0
 40
0.0
 40
0.2334111166
 40
0.3603814372
 40
0.4911603985
 40
0.6231426094
 40
0.7536045715
 40
0.8799550454
 40
1.0
 40
1.0
 40
1.0
 40
1.0
 10
-17.1210533037
 20
-5.2444410781
 30
0.0
 10
-17.1133610708
 20
-5.7066297499
 30
0.0
 10
-16.9547821824
 20
-6.4208376289
 30
0.0
 10
-16.545614755
 20
-7.3044693952
 30
0.0
 10
-16.1267789744
 20
-7.9561302794
 30
0.0
 10
-15.6211680427
 20
-8.5512319385
 30
0.0
 10
-15.0474161096
 20
-9.0683643739
 30
0.0
 10
-14.4272972383
 20
-9.4879319073
 30
0.0
 10
-13.9844056671
 20
-9.6986810941
 30
0.0
 10
-13.7616187957
 20
-9.7816642328
 30
0.0
 11
-17.1210533037
 21
-5.2444410781
 31
0.0
 11
-16.8485282514
 21
-6.6041572047
 31
0.0
 11
-16.5336752782
 21
-7.2896743379
 31
0.0
 11
-16.1143293603
 21
-7.9437897215
 31
0.0
 11
-15.606608457
 21
-8.5413662451
 31
0.0
 11
-15.0300964596
 21
-9.0594672545
 31
0.0
 11
-14.4070742418
 21
-9.4782355104
 31
0.0
 11
-13.7616187957
 21
-9.7816642328
 31
0.0
  0
LINE
  5
341
100
AcDbEntity
  8
0
100
AcDbLine
 62
7
  6
CONTINUOUS
 10
-13.7616235642
 20
-9.7815789822
 11
-13.3459217467
 21
-9.9362411202
  0
SPLINE
  5
342
100
AcDbEntity
  8
0
100
AcDbSpline
 62
7
  6
CONTINUOUS
 70
0
 71
3
 72
11
 73
7
 74
5
 42
0.0000001
 43
0.0000001
 44
0.0000000001
 12
1.9330213555
 22
-0.7089225429
 32
0.0
 13
1.9065294163
 23
0.7773598376
 33
0.0
 40
0.0
 40
0.0
 40
0.0
 40
0.0
 40
0.273989824
 40
0.5311697886
 40
0.7722543141
 40
1.0
 40
1.0
 40
1.0
 40
1.0
 10
-10.4511112371
 20
-11.0052393682
 30
0.0
 10
-10.2745685101
 20
-11.0699852224
 30
0.0
 10
-9.9229345051
 20
-11.1720561289
 30
0.0
 10
-9.3943388593
 20
-11.2368565668
 30
0.0
 10
-8.8940041133
 20
-11.2064113623
 30
0.0
 10
-8.5808774517
 20
-11.1199132057
 30
0.0
 10
-8.4361428351
 20
-11.0608997559
 30
0.0
 11
-10.4511112371
 21
-11.0052393682
 31
0.0
 11
-9.9086286274
 21
-11.1599870952
 31
0.0
 11
-9.3827015109
 21
-11.221501907
 31
0.0
 11
-8.8874481221
 21
-11.1881782155
 31
0.0
 11
-8.4361428351
 21
-11.0608997559
 31
0.0
  0
SPLINE
  5
343
100
AcDbEntity
  8
0
100
AcDbSpline
 62
7
  6
CONTINUOUS
 70
0
 71
3
 72
9
 73
5
 74
3
 42
0.0000001
 43
0.0000001
 44
0.0000000001
 12
0.4195700653
 22
0.1710736335
 32
0.0
 13
0.3676682648
 23
0.2648117724
 33
0.0
 40
0.0
 40
0.0
 40
0.0
 40
0.0
 40
0.2528310419
 40
1.0
 40
1.0
 40
1.0
 40
1.0
 10
-8.4361428417
 20
-11.0608997586
 30
0.0
 10
-8.4007827294
 20
-11.0464821836
 30
0.0
 10
-8.2625840198
 20
-10.9854882314
 30
0.0
 10
-8.1314927304
 20
-10.9082741885
 30
0.0
 10
-8.0399226256
 20
-10.8423211431
 30
0.0
 11
-8.4361428417
 21
-11.0608997586
 31
0.0
 11
-8.3313552133
 21
-11.0146030091
 31
0.0
 11
-8.0399226256
 21
-10.8423211431
 31
0.0
  0
SPLINE
  5
344
100
AcDbEntity
  8
0
100
AcDbSpline
 62
7
  6
CONTINUOUS
 70
0
 71
3
 72
11
 73
7
 74
5
 42
0.0000001
 43
0.0000001
 44
0.0000000001
 12
-1.3681223999
 22
-1.3308104561
 32
0.0
 13
0.0317608103
 23
-1.9083518077
 33
0.0
 40
0.0
 40
0.0
 40
0.0
 40
0.0
 40
0.2322666736
 40
0.4733897507
 40
0.7283354263
 40
1.0
 40
1.0
 40
1.0
 40
1.0
 10
-16.4856954934
 20
-3.4975950712
 30
0.0
 10
-16.5916185731
 20
-3.6006293772
 30
0.0
 10
-16.7826408861
 20
-3.8377138998
 30
0.0
 10
-16.9853502592
 20
-4.2582989855
 30
0.0
 10
-17.1035175382
 20
-4.7353341352
 30
0.0
 10
-17.1239293994
 20
-5.0716305513
 30
0.0
 10
-17.1210533037
 20
-5.2444410781
 30
0.0
 11
-16.4856954934
 21
-3.4975950712
 31
0.0
 11
-16.7647991072
 21
-3.8420120798
 31
0.0
 11
-16.9669230311
 21
-4.2554615174
 31
0.0
 11
-17.0867309618
 21
-4.7270749334
 31
0.0
 11
-17.1210533037
 21
-5.2444410781
 31
0.0
  0
SPLINE
  5
345
100
AcDbEntity
  8
0
100
AcDbSpline
 62
7
  6
CONTINUOUS
 70
0
 71
3
 72
13
 73
9
 74
7
 42
0.0000001
 43
0.0000001
 44
0.0000000001
 12
-2.3673627438
 22
0.755365888
 32
0.0
 13
-1.8673917168
 23
-1.6394609363
 33
0.0
 40
0.0
 40
0.0
 40
0.0
 40
0.0
 40
0.2777074475
 40
0.5334357872
 40
0.6543673367
 40
0.771636192
 40
0.8863993768
 40
1.0
 40
1.0
 40
1.0
 40
1.0
 10
-14.0605389896
 20
-3.1065750317
 30
0.0
 10
-14.2796837445
 20
-3.0366514541
 30
0.0
 10
-14.7142536814
 20
-2.9398683169
 30
0.0
 10
-15.2620515076
 20
-2.9413723854
 30
0.0
 10
-15.6639845052
 20
-3.0237875345
 30
0.0
 10
-15.9403661238
 20
-3.1222884318
 30
0.0
 10
-16.1938393708
 20
-3.25759492
 30
0.0
 10
-16.3458633186
 20
-3.3716304665
 30
0.0
 10
-16.4165756062
 20
-3.4337117279
 30
0.0
 11
-14.0605389896
 21
-3.1065750317
 31
0.0
 11
-14.7354091301
 21
-2.9624436109
 31
0.0
 11
-15.370833662
 21
-2.9702533153
 31
0.0
 11
-15.6650792232
 21
-3.0312879811
 31
0.0
 11
-15.9393842433
 21
-3.1296497597
 31
0.0
 11
-16.1907902767
 21
-3.2642721202
 31
0.0
 11
-16.4165756062
 21
-3.4337117279
 31
0.0
  0
SPLINE
  5
346
100
AcDbEntity
  8
0
100
AcDbSpline
 62
253
  6
CONTINUOUS
 70
0
 71
3
 72
9
 73
5
 74
3
 42
0.0000001
 43
0.0000001
 44
0.0000000001
 12
-0.5367127416
 22
3.8242906288
 32
0.0
 13
0.0205652393
 23
3.8617141857
 33
0.0
 40
0.0
 40
0.0
 40
0.0
 40
0.0
 40
0.2398920825
 40
1.0
 40
1.0
 40
1.0
 40
1.0
 10
-13.7616123841
 20
-9.7816595829
 30
0.0
 10
-13.8045300965
 20
-9.4758539018
 30
0.0
 10
-13.9572769761
 20
-8.1974548982
 30
0.0
 10
-14.0098704903
 20
-6.9079338179
 30
0.0
 10
-14.0046598899
 20
-5.9294939754
 30
0.0
 11
-13.7616123841
 21
-9.7816595829
 31
0.0
 11
-13.8720519836
 21
-8.8618582476
 31
0.0
 11
-14.0046598899
 21
-5.9294939754
 31
0.0
  0
LINE
  5
347
100
AcDbEntity
  8
0
100
AcDbLine
 62
253
  6
CONTINUOUS
 10
-13.9983788263
 20
-5.4432365382
 11
-13.9977398135
 21
-5.4126229856
  0
LINE
  5
348
100
AcDbEntity
  8
0
100
AcDbLine
 62
253
  6
CONTINUOUS
 10
-13.9770396038
 20
-4.7495017633
 11
-13.9748562124
 21
-4.6971070722
  0
LINE
  5
349
100
AcDbEntity
  8
0
100
AcDbLine
 62
253
  6
CONTINUOUS
 10
-13.9748562124
 20
-4.6971070722
 11
-13.9738663289
 21
-4.6739542169
  0
LINE
  5
34A
100
AcDbEntity
  8
0
100
AcDbLine
 62
253
  6
CONTINUOUS
 10
-13.9364586397
 20
-3.9679721463
 11
-13.9361587592
 21
-3.9631947338
  0
LINE
  5
34B
100
AcDbEntity
  8
0
100
AcDbLine
 62
253
  6
CONTINUOUS
 10
-13.9361587592
 20
-3.9631947338
 11
-13.9340486083
 21
-3.9298511461
  0
LINE
  5
34C
100
AcDbEntity
  8
0
100
AcDbLine
 62
253
  6
CONTINUOUS
 10
-13.9340486083
 20
-3.9298511461
 11
-13.9329655898
 21
-3.9129191237
  0
LINE
  5
34D
100
AcDbEntity
  8
0
100
AcDbLine
 62
7
  6
CONTINUOUS
 10
-13.4629452033
 20
-3.3250354069
 11
-13.5056709022
 21
-3.309067278
  0
LINE
  5
34E
100
AcDbEntity
  8
0
100
AcDbLine
 62
7
  6
CONTINUOUS
 10
-13.5056709022
 20
-3.309067278
 11
-13.5165738169
 21
-3.3049923252
  0
LINE
  5
34F
100
AcDbEntity
  8
0
100
AcDbLine
 62
7
  6
CONTINUOUS
 10
-13.5165738169
 20
-3.3049923252
 11
-13.8574071665
 21
-3.1775115224
  0
LINE
  5
350
100
AcDbEntity
  8
0
100
AcDbLine
 62
7
  6
CONTINUOUS
 10
-13.8574071665
 20
-3.1775115224
 11
-13.8779755209
 21
-3.1698093097
  0
SPLINE
  5
351
100
AcDbEntity
  8
0
100
AcDbSpline
 62
253
  6
CONTINUOUS
 70
0
 71
3
 72
9
 73
5
 74
3
 42
0.0000001
 43
0.0000001
 44
0.0000000001
 12
-0.6580075062
 22
3.8203516102
 32
0.0
 13
0.0431572356
 23
3.8763639867
 33
0.0
 40
0.0
 40
0.0
 40
0.0
 40
0.0
 40
0.2415529167
 40
1.0
 40
1.0
 40
1.0
 40
1.0
 10
-13.3459179228
 20
-9.9362676776
 30
0.0
 10
-13.3988991336
 20
-9.6286619861
 30
0.0
 10
-13.5860716635
 20
-8.3497413331
 30
0.0
 10
-13.6486978512
 20
-7.0537452498
 30
0.0
 10
-13.6377870247
 20
-6.0737395966
 30
0.0
 11
-13.3459179228
 21
-9.9362676776
 31
0.0
 11
-13.4820562681
 21
-9.0098116442
 31
0.0
 11
-13.6377870247
 21
-6.0737395966
 31
0.0
  0
LINE
  5
352
100
AcDbEntity
  8
0
100
AcDbLine
 62
253
  6
CONTINUOUS
 10
-13.5413225322
 20
-4.1131196074
 11
-13.5393598096
 21
-4.0903109231
  0
LINE
  5
353
100
AcDbEntity
  8
0
100
AcDbLine
 62
253
  6
CONTINUOUS
 10
-13.5393598096
 20
-4.0903109231
 11
-13.5384586427
 21
-4.079909919
  0
SPLINE
  5
354
100
AcDbEntity
  8
0
100
AcDbSpline
 62
7
  6
CONTINUOUS
 70
0
 71
3
 72
9
 73
5
 74
3
 42
0.0000001
 43
0.0000001
 44
0.0000000001
 12
-1.1057226438
 22
0.4070625549
 32
0.0
 13
-1.1049509626
 23
0.4091526107
 33
0.0
 40
0.0
 40
0.0
 40
0.0
 40
0.0
 40
0.2596242764
 40
1.0
 40
1.0
 40
1.0
 40
1.0
 10
-10.5720699944
 20
-4.3973665732
 30
0.0
 10
-10.6677608082
 20
-4.3621387994
 30
0.0
 10
-11.0363066036
 20
-4.2263741022
 30
0.0
 10
-11.4047258881
 20
-4.0902659419
 30
0.0
 10
-11.6774188443
 20
-3.9892903885
 30
0.0
 11
-10.5720699944
 21
-4.3973665732
 31
0.0
 11
-10.8591191516
 21
-4.2916200258
 31
0.0
 11
-11.6774188443
 21
-3.9892903885
 31
0.0
  0
LINE
  5
355
100
AcDbEntity
  8
0
100
AcDbLine
 62
7
  6
CONTINUOUS
 10
-11.6774188443
 20
-3.9892903885
 11
-12.0419034971
 21
-3.8541986248
  0
LINE
  5
356
100
AcDbEntity
  8
0
100
AcDbLine
 62
7
  6
CONTINUOUS
 10
-12.0419034971
 20
-3.8541986248
 11
-12.0466884138
 21
-3.8524234851
  0
LINE
  5
357
100
AcDbEntity
  8
0
100
AcDbLine
 62
7
  6
CONTINUOUS
 10
-12.0466884138
 20
-3.8524234851
 11
-12.4070927709
 21
-3.7185912973
  0
LINE
  5
358
100
AcDbEntity
  8
0
100
AcDbLine
 62
7
  6
CONTINUOUS
 10
-12.4070927709
 20
-3.7185912973
 11
-12.4172166147
 21
-3.7148282903
  0
LINE
  5
359
100
AcDbEntity
  8
0
100
AcDbLine
 62
7
  6
CONTINUOUS
 10
-12.4172166147
 20
-3.7148282903
 11
-12.7721964256
 21
-3.5827582554
  0
LINE
  5
35A
100
AcDbEntity
  8
0
100
AcDbLine
 62
7
  6
CONTINUOUS
 10
-12.7721964256
 20
-3.5827582554
 11
-12.7860352641
 21
-3.5776045934
  0
LINE
  5
35B
100
AcDbEntity
  8
0
100
AcDbLine
 62
7
  6
CONTINUOUS
 10
-12.7860352641
 20
-3.5776045934
 11
-13.1383951395
 21
-3.4462597307
  0
LINE
  5
35C
100
AcDbEntity
  8
0
100
AcDbLine
 62
7
  6
CONTINUOUS
 10
-13.1383951395
 20
-3.4462597307
 11
-13.1522595879
 21
-3.4410867144
  0
LINE
  5
35D
100
AcDbEntity
  8
0
100
AcDbLine
 62
7
  6
CONTINUOUS
 10
-13.1522595879
 20
-3.4410867144
 11
-13.4629478856
 21
-3.3250665089
  0
SPLINE
  5
35E
100
AcDbEntity
  8
0
100
AcDbSpline
 62
253
  6
CONTINUOUS
 70
0
 71
3
 72
9
 73
5
 74
3
 42
0.0000001
 43
0.0000001
 44
0.0000000001
 12
-0.3914847959
 22
3.6091798248
 32
0.0
 13
-0.0267030883
 23
3.6302515475
 33
0.0
 40
0.0
 40
0.0
 40
0.0
 40
0.0
 40
0.2427505422
 40
1.0
 40
1.0
 40
1.0
 40
1.0
 10
-10.4511049682
 20
-11.0053367218
 30
0.0
 10
-10.4827826837
 20
-10.7132932687
 30
0.0
 10
-10.5967179022
 20
-9.5084616461
 30
0.0
 10
-10.6464358218
 20
-8.2978302115
 30
0.0
 10
-10.6531761216
 20
-7.3814948729
 30
0.0
 11
-10.4511049682
 21
-11.0053367218
 31
0.0
 11
-10.5343141701
 21
-10.1280044391
 31
0.0
 11
-10.6531761216
 21
-7.3814948729
 31
0.0
  0
LINE
  5
35F
100
AcDbEntity
  8
0
100
AcDbLine
 62
253
  6
CONTINUOUS
 10
-10.6531761216
 20
-7.3814948729
 11
-10.6533391271
 21
-7.3584462639
  0
LINE
  5
360
100
AcDbEntity
  8
0
100
AcDbLine
 62
253
  6
CONTINUOUS
 10
-10.6526489023
 20
-6.7104195919
 11
-10.6521514632
 21
-6.6576908423
  0
LINE
  5
361
100
AcDbEntity
  8
0
100
AcDbLine
 62
253
  6
CONTINUOUS
 10
-10.6521514632
 20
-6.6576908423
 11
-10.6519863621
 21
-6.6415737118
  0
LINE
  5
362
100
AcDbEntity
  8
0
100
AcDbLine
 62
253
  6
CONTINUOUS
 10
-10.6392069628
 20
-5.9489545079
 11
-10.6389148348
 21
-5.9379218616
  0
LINE
  5
363
100
AcDbEntity
  8
0
100
AcDbLine
 62
253
  6
CONTINUOUS
 10
-10.6389148348
 20
-5.9379218616
 11
-10.6382650712
 21
-5.9137438976
  0
LINE
  5
364
100
AcDbEntity
  8
0
100
AcDbLine
 62
253
  6
CONTINUOUS
 10
-10.6382650712
 20
-5.9137438976
 11
-10.638012275
 21
-5.9044669194
  0
LINE
  5
365
100
AcDbEntity
  8
0
100
AcDbLine
 62
253
  6
CONTINUOUS
 10
-10.6123649214
 20
-5.179338088
 11
-10.6113057551
 21
-5.155005387
  0
LINE
  5
366
100
AcDbEntity
  8
0
100
AcDbLine
 62
253
  6
CONTINUOUS
 10
-10.6113057551
 20
-5.155005387
 11
-10.6109346249
 21
-5.1465475486
  0
SPLINE
  5
367
100
AcDbEntity
  8
0
100
AcDbSpline
 62
7
  6
CONTINUOUS
 70
0
 71
3
 72
9
 73
5
 74
3
 42
0.0000001
 43
0.0000001
 44
0.0000000001
 12
-1.5776553945
 22
1.737097912
 32
0.0
 13
-2.1800505855
 23
0.8682655954
 33
0.0
 40
0.0
 40
0.0
 40
0.0
 40
0.0
 40
0.5144243382
 40
1.0
 40
1.0
 40
1.0
 40
1.0
 10
-8.5726288043
 20
-5.7896934508
 30
0.0
 10
-8.8431569151
 20
-5.4918249695
 30
0.0
 10
-9.429508341
 20
-4.9647289313
 30
0.0
 10
-10.1184497775
 20
-4.5764676039
 30
0.0
 10
-10.4713096128
 20
-4.4359313902
 30
0.0
 11
-8.5726288043
 21
-5.7896934508
 31
0.0
 11
-9.4735724443
 21
-4.9862630709
 31
0.0
 11
-10.4713096128
 21
-4.4359313902
 31
0.0
  0
SPLINE
  5
368
100
AcDbEntity
  8
0
100
AcDbSpline
 62
253
  6
CONTINUOUS
 70
0
 71
3
 72
15
 73
11
 74
9
 42
0.0000001
 43
0.0000001
 44
0.0000000001
 12
-2.275641111
 22
4.9247906659
 32
0.0
 13
2.4402311538
 23
4.8453459613
 33
0.0
 40
0.0
 40
0.0
 40
0.0
 40
0.0
 40
0.1411842443
 40
0.2739706091
 40
0.3999972965
 40
0.5211390611
 40
0.6394760156
 40
0.7572438682
 40
0.8767009823
 40
1.0
 40
1.0
 40
1.0
 40
1.0
 10
-8.4361465406
 20
-11.0609023703
 30
0.0
 10
-8.5432414308
 20
-10.8291347542
 30
0.0
 10
-8.733692665
 20
-10.3709835011
 30
0.0
 10
-8.9487212023
 20
-9.6791502195
 30
0.0
 10
-9.0832192923
 20
-9.0039103915
 30
0.0
 10
-9.1368480105
 20
-8.3435294859
 30
0.0
 10
-9.1093568971
 20
-7.6963718475
 30
0.0
 10
-9.0005049746
 20
-7.0608931309
 30
0.0
 10
-8.8104661824
 20
-6.4355989552
 30
0.0
 10
-8.6335559775
 20
-6.0326257562
 30
0.0
 10
-8.5332632761
 20
-5.8334836236
 30
0.0
 11
-8.4361465406
 21
-11.0609023703
 31
0.0
 11
-8.7280657982
 21
-10.3527688819
 31
0.0
 11
-8.9398475188
 21
-9.6642183575
 31
0.0
 11
-9.0716302442
 21
-8.9933268761
 31
0.0
 11
-9.123552516
 21
-8.3381705168
 31
0.0
 11
-9.0957197247
 21
-7.6967800012
 31
0.0
 11
-8.988102746
 21
-7.0670020092
 31
0.0
 11
-8.8006383422
 21
-6.4466365477
 31
0.0
 11
-8.5332632761
 21
-5.8334836236
 31
0.0
  0
SPLINE
  5
369
100
AcDbEntity
  8
0
100
AcDbSpline
 62
7
  6
CONTINUOUS
 70
0
 71
3
 72
11
 73
7
 74
5
 42
0.0000001
 43
0.0000001
 44
0.0000000001
 12
-0.0633882778
 22
3.378664147
 32
0.0
 13
-2.2255239354
 23
2.5429181476
 33
0.0
 40
0.0
 40
0.0
 40
0.0
 40
0.0
 40
0.2291729247
 40
0.4755677489
 40
0.7346068288
 40
1.0
 40
1.0
 40
1.0
 40
1.0
 10
-7.19764055
 20
-8.9219668693
 30
0.0
 10
-7.2024828424
 20
-8.6638674213
 30
0.0
 10
-7.2748428518
 20
-8.128515356
 30
0.0
 10
-7.5385517422
 20
-7.3400229112
 30
0.0
 10
-7.9478487125
 20
-6.5701848875
 30
0.0
 10
-8.3037936555
 20
-6.095359043
 30
0.0
 10
-8.5006732738
 20
-5.8704013393
 30
0.0
 11
-7.19764055
 21
-8.9219668693
 31
0.0
 11
-7.2950635261
 21
-8.1536845517
 31
0.0
 11
-7.5546731096
 21
-7.3625596088
 31
0.0
 11
-7.9633781874
 21
-6.5884695556
 31
0.0
 11
-8.5006732738
 21
-5.8704013393
 31
0.0
  0
SPLINE
  5
36A
100
AcDbEntity
  8
0
100
AcDbSpline
 62
7
  6
CONTINUOUS
 70
0
 71
3
 72
11
 73
7
 74
5
 42
0.0000001
 43
0.0000001
 44
0.0000000001
 12
1.6305292041
 22
1.1743829149
 32
0.0
 13
0.0678276016
 23
2.0082828817
 33
0.0
 40
0.0
 40
0.0
 40
0.0
 40
0.0
 40
0.2352389889
 40
0.4760494097
 40
0.7294228572
 40
1.0
 40
1.0
 40
1.0
 40
1.0
 10
-8.0399226256
 20
-10.8423211431
 30
0.0
 10
-7.9120679452
 20
-10.7502342599
 30
0.0
 10
-7.6763296723
 20
-10.5293777907
 30
0.0
 10
-7.4134374763
 20
-10.1119127435
 30
0.0
 10
-7.2473944959
 20
-9.6229933714
 30
0.0
 10
-7.2049825474
 20
-9.2720785129
 30
0.0
 10
-7.1988650145
 20
-9.0909466982
 30
0.0
 11
-8.0399226256
 21
-10.8423211431
 31
0.0
 11
-7.69475653
 21
-10.5193634266
 31
0.0
 11
-7.4347800383
 21
-10.1112422318
 31
0.0
 11
-7.2678143468
 21
-9.6302623907
 31
0.0
 11
-7.1988650145
 21
-9.0909466982
 31
0.0
  0
SPLINE
  5
36B
100
AcDbEntity
  8
RACCORDO
100
AcDbSpline
 62
7
  6
CONTINUOUS
 70
0
 71
3
 72
11
 73
7
 74
5
 42
0.0000001
 43
0.0000001
 44
0.0000000001
 12
-0.0046565888
 22
-0.083089663
 32
0.0
 13
-0.0628303992
 23
-0.0545702928
 33
0.0
 40
0.0
 40
0.0
 40
0.0
 40
0.0
 40
0.2701799306
 40
0.5262531927
 40
0.7684747231
 40
1.0
 40
1.0
 40
1.0
 40
1.0
 10
24.6477617948
 20
20.3746393033
 30
0.0
 10
24.6473424225
 20
20.3671562502
 30
0.0
 10
24.6456118414
 20
20.3526042242
 30
0.0
 10
24.6397326865
 20
20.3319967504
 30
0.0
 10
24.6303582732
 20
20.313876383
 30
0.0
 10
24.6215800288
 20
20.3038664704
 30
0.0
 10
24.616731087
 20
20.299655003
 30
0.0
 11
24.6477617948
 21
20.3746393033
 31
0.0
 11
24.6449604039
 21
20.3523301163
 31
0.0
 11
24.6389431526
 21
20.3318868522
 31
0.0
 11
24.6295168746
 21
20.3140689506
 31
0.0
 11
24.616731087
 21
20.299655003
 31
0.0
  0
SPLINE
  5
36C
100
AcDbEntity
  8
RACCORDO
100
AcDbSpline
 62
7
  6
CONTINUOUS
 70
0
 71
3
 72
9
 73
5
 74
3
 42
0.0000001
 43
0.0000001
 44
0.0000000001
 12
0.0012028161
 22
-0.0004156493
 32
0.0
 13
0.0000007004
 23
-0.0012726078
 33
0.0
 40
0.0
 40
0.0
 40
0.0
 40
0.0
 40
0.4976282487
 40
1.0
 40
1.0
 40
1.0
 40
1.0
 10
24.6473549852
 20
-12.8696318744
 30
0.0
 10
24.6475545036
 20
-12.8697008207
 30
0.0
 10
24.6479497938
 20
-12.8699411674
 30
0.0
 10
24.6480526766
 20
-12.8703937189
 30
0.0
 10
24.6480527939
 20
-12.8706068263
 30
0.0
 11
24.6473549852
 21
-12.8696318744
 31
0.0
 11
24.6478755088
 21
-12.8699925764
 31
0.0
 11
24.6480527939
 21
-12.8706068263
 31
0.0
  0
SPLINE
  5
36D
100
AcDbEntity
  8
RACCORDO
100
AcDbSpline
 62
7
  6
CONTINUOUS
 70
0
 71
3
 72
11
 73
7
 74
5
 42
0.0000001
 43
0.0000001
 44
0.0000000001
 12
-0.0994997055
 22
0.0352638235
 32
0.0
 13
-0.0820459194
 23
-0.0664243611
 33
0.0
 40
0.0
 40
0.0
 40
0.0
 40
0.0
 40
0.272038494
 40
0.5276759818
 40
0.7679594803
 40
1.0
 40
1.0
 40
1.0
 40
1.0
 10
24.2048733428
 20
-12.7131293366
 30
0.0
 10
24.1958507595
 20
-12.7099316308
 30
0.0
 10
24.1778641043
 20
-12.7049488001
 30
0.0
 10
24.1507116336
 20
-12.7027942015
 30
0.0
 10
24.125144342
 20
-12.7073369441
 30
0.0
 10
24.1102558637
 20
-12.7155617649
 30
0.0
 10
24.1039098711
 20
-12.7206994793
 30
0.0
 11
24.2048733428
 21
-12.7131293366
 31
0.0
 11
24.177126924
 21
-12.7057247952
 31
0.0
 11
24.1501997198
 21
-12.7039431674
 31
0.0
 11
24.1252948944
 21
-12.7087541722
 31
0.0
 11
24.1039098711
 21
-12.7206994793
 31
0.0
  0
SPLINE
  5
36E
100
AcDbEntity
  8
0
100
AcDbSpline
 62
7
  6
CONTINUOUS
 70
0
 71
3
 72
9
 73
5
 74
3
 42
0.0000001
 43
0.0000001
 44
0.0000000001
 12
0.0202252696
 22
0.0167811468
 32
0.0
 13
0.0214126095
 23
0.0152370789
 33
0.0
 40
0.0
 40
0.0
 40
0.0
 40
0.0
 40
0.2556788454
 40
1.0
 40
1.0
 40
1.0
 40
1.0
 10
18.0782483468
 20
22.022132362
 30
0.0
 10
18.0799720714
 20
22.0235625568
 30
0.0
 10
18.0867620791
 20
22.0290976949
 30
0.0
 10
18.0937483844
 20
22.0343933434
 30
0.0
 10
18.0990610038
 20
22.0381737701
 30
0.0
 11
18.0782483468
 21
22.022132362
 31
0.0
 11
18.0834570263
 21
22.0263773364
 31
0.0
 11
18.0990610038
 21
22.0381737701
 31
0.0
  0
LINE
  5
36F
100
AcDbEntity
  8
0
100
AcDbLine
 62
7
  6
CONTINUOUS
 10
12.3020417951
 20
24.1742705773
 11
12.3023974545
 21
24.1737582403
  0
SPLINE
  5
370
100
AcDbEntity
  8
0
100
AcDbSpline
 62
7
  6
CONTINUOUS
 70
0
 71
3
 72
12
 73
8
 74
6
 42
0.0000001
 43
0.0000001
 44
0.0000000001
 12
0.2773926715
 22
0.2301559993
 32
0.0
 13
0.3398134999
 23
-0.12018845
 33
0.0
 40
0.0
 40
0.0
 40
0.0
 40
0.0
 40
0.3001713997
 40
0.5613915215
 40
0.7899450951
 40
0.8962525941
 40
1.0
 40
1.0
 40
1.0
 40
1.0
 10
20.6560120372
 20
23.315303964
 30
0.0
 10
20.6837671527
 20
23.3383327135
 30
0.0
 10
20.7387909906
 20
23.3779706413
 30
0.0
 10
20.8255040103
 20
23.4182217577
 30
0.0
 10
20.8971411348
 20
23.4310956814
 30
0.0
 10
20.9499272821
 20
23.427189063
 30
0.0
 10
20.9745376222
 20
23.4209157246
 30
0.0
 10
20.9862892119
 20
23.4167593113
 30
0.0
 11
20.6560120372
 21
23.315303964
 31
0.0
 11
20.7444958256
 21
23.3775666885
 31
0.0
 11
20.8305400724
 21
23.4157962404
 31
0.0
 11
20.9118590461
 21
23.4289773545
 31
0.0
 11
20.9500638858
 21
23.4260386666
 31
0.0
 11
20.9862892119
 21
23.4167593113
 31
0.0
  0
LINE
  5
371
100
AcDbEntity
  8
0
100
AcDbLine
 62
7
  6
CONTINUOUS
 10
18.9424308214
 20
21.8256132743
 11
18.9427854933
 21
21.8251011338
  0
SPLINE
  5
372
100
AcDbEntity
  8
0
100
AcDbSpline
 62
7
  6
CONTINUOUS
 70
0
 71
3
 72
15
 73
11
 74
9
 42
0.0000001
 43
0.0000001
 44
0.0000000001
 12
0.0
 22
0.5612057944
 32
0.0
 13
-0.5290872698
 23
0.1871325856
 33
0.0
 40
0.0
 40
0.0
 40
0.0
 40
0.0
 40
0.1648177359
 40
0.3179694356
 40
0.4587635307
 40
0.5870302228
 40
0.703303523
 40
0.8090187641
 40
0.9067041261
 40
1.0
 40
1.0
 40
1.0
 40
1.0
 10
16.165459101
 20
24.7105530076
 30
0.0
 10
16.165459101
 20
24.7413852304
 30
0.0
 10
16.1633424303
 20
24.8009007613
 30
0.0
 10
16.1530914247
 20
24.8862203405
 30
0.0
 10
16.1359918781
 20
24.9634842416
 30
0.0
 10
16.1122161256
 20
25.0317448291
 30
0.0
 10
16.0819754309
 20
25.0901714213
 30
0.0
 10
16.0454716751
 20
25.1380058953
 30
0.0
 10
16.003007566
 20
25.1744445403
 30
0.0
 10
15.9707196907
 20
25.190729816
 30
0.0
 10
15.9542658043
 20
25.1965493821
 30
0.0
 11
16.165459101
 21
24.7105530076
 31
0.0
 11
16.1619245065
 21
24.8029821173
 31
0.0
 11
16.151366615
 21
24.8882808179
 31
0.0
 11
16.1339224835
 21
24.9653456444
 31
0.0
 11
16.1098185425
 21
25.0331740886
 31
0.0
 11
16.0793676497
 21
25.0908865633
 31
0.0
 11
16.0429650633
 21
25.1377338042
 31
0.0
 11
16.0010832292
 21
25.1731077894
 31
0.0
 11
15.9542658043
 21
25.1965493821
 31
0.0
  0
SPLINE
  5
373
100
AcDbEntity
  8
0
100
AcDbSpline
 62
7
  6
CONTINUOUS
 70
0
 71
3
 72
13
 73
9
 74
7
 42
0.0000001
 43
0.0000001
 44
0.0000000001
 12
0.3162963709
 22
0.3700193736
 32
0.0
 13
-0.228861893
 23
0.4296277051
 33
0.0
 40
0.0
 40
0.0
 40
0.0
 40
0.0
 40
0.1067033661
 40
0.2171471748
 40
0.3328191553
 40
0.4546004252
 40
0.716532559
 40
1.0
 40
1.0
 40
1.0
 40
1.0
 10
18.8465652701
 20
20.8323761188
 30
0.0
 10
18.8578152326
 20
20.8455368897
 30
0.0
 10
18.8779830926
 20
20.8747682932
 30
0.0
 10
18.8995999656
 20
20.924579054
 30
0.0
 10
18.9126117058
 20
20.9797947216
 30
0.0
 10
18.9183322505
 20
21.0609189867
 30
0.0
 10
18.9019376112
 20
21.1693087242
 30
0.0
 10
18.8681902352
 20
21.2519792482
 30
0.0
 10
18.8465652701
 20
21.2925744036
 30
0.0
 11
18.8465652701
 21
20.8323761188
 31
0.0
 11
18.876171477
 21
20.8750537527
 31
0.0
 11
18.8977742215
 21
20.9242847663
 31
0.0
 11
18.91092121
 21
20.979035591
 31
0.0
 11
18.9153342949
 21
21.0381521574
 31
0.0
 11
18.8977742215
 21
21.1644412889
 31
0.0
 11
18.8465652701
 21
21.2925744036
 31
0.0
  0
SPLINE
  5
374
100
AcDbEntity
  8
0
100
AcDbSpline
 62
7
  6
CONTINUOUS
 70
0
 71
3
 72
11
 73
7
 74
5
 42
0.0000001
 43
0.0000001
 44
0.0000000001
 12
0.0000031874
 22
-0.1679272902
 32
0.0
 13
-0.1265909387
 23
-0.1103372513
 33
0.0
 40
0.0
 40
0.0
 40
0.0
 40
0.0
 40
0.2275505249
 40
0.4651135994
 40
0.7208158825
 40
1.0
 40
1.0
 40
1.0
 40
1.0
 10
25.2550740791
 20
20.9821213165
 30
0.0
 10
25.2550743208
 20
20.9693840022
 30
0.0
 10
25.2516442797
 20
20.9432378167
 30
0.0
 10
25.2365589461
 20
20.9054345416
 30
0.0
 10
25.2120729198
 20
20.8694520408
 30
0.0
 10
25.1908790702
 20
20.8480761629
 30
0.0
 10
25.1790983437
 20
20.8378080269
 30
0.0
 11
25.2550740791
 21
20.9821213165
 31
0.0
 11
25.2502092608
 21
20.9442203121
 31
0.0
 11
25.2357062116
 21
20.9070566361
 31
0.0
 11
25.2118486713
 21
20.8713549679
 31
0.0
 11
25.1790983437
 21
20.8378080269
 31
0.0
  0
SPLINE
  5
375
100
AcDbEntity
  8
0
100
AcDbSpline
 62
7
  6
CONTINUOUS
 70
0
 71
3
 72
13
 73
9
 74
7
 42
0.0000001
 43
0.0000001
 44
0.0000000001
 12
0.3224716839
 22
-0.1140558886
 32
0.0
 13
0.0000064923
 23
-0.3420478514
 33
0.0
 40
0.0
 40
0.0
 40
0.0
 40
0.0
 40
0.3050869545
 40
0.5703858203
 40
0.6883488631
 40
0.7977152201
 40
0.9006094742
 40
1.0
 40
1.0
 40
1.0
 40
1.0
 10
25.0273938131
 20
-13.8459279905
 30
0.0
 10
25.0601877811
 20
-13.8575269784
 30
0.0
 10
25.1199564932
 20
-13.8841107599
 30
0.0
 10
25.1841043338
 20
-13.9309451399
 30
0.0
 10
25.2210141785
 20
-13.973590056
 30
0.0
 10
25.2404739534
 20
-14.0060833932
 30
0.0
 10
25.2523809025
 20
-14.0398323817
 30
0.0
 10
25.255073864
 20
-14.0629763184
 30
0.0
 10
25.2550740791
 20
-14.0743084236
 30
0.0
 11
25.0273938131
 21
-13.8459279905
 31
0.0
 11
25.1222335296
 21
-13.8894625273
 31
0.0
 11
25.1944801595
 21
-13.9443721131
 31
0.0
 11
25.2206791783
 21
-13.9750584887
 31
0.0
 11
25.2396875929
 21
-14.0072777081
 31
0.0
 11
25.251211895
 21
-14.0405322039
 31
0.0
 11
25.2550740791
 21
-14.0743084236
 31
0.0
  0
SPLINE
  5
376
100
AcDbEntity
  8
0
100
AcDbSpline
 62
7
  6
CONTINUOUS
 70
0
 71
3
 72
11
 73
7
 74
5
 42
0.0000001
 43
0.0000001
 44
0.0000000001
 12
0.1816644876
 22
0.1292713124
 32
0.0
 13
0.2102280731
 23
-0.0742779613
 33
0.0
 40
0.0
 40
0.0
 40
0.0
 40
0.0
 40
0.2281032016
 40
0.4679479572
 40
0.7251230971
 40
1.0
 40
1.0
 40
1.0
 40
1.0
 10
18.0990610038
 20
22.0381737701
 30
0.0
 10
18.1128737542
 20
22.0480028368
 30
0.0
 10
18.144916305
 20
22.0633177639
 30
0.0
 10
18.1988971231
 20
22.0709312764
 30
0.0
 10
18.2563977203
 20
22.065446378
 30
0.0
 10
18.2946465953
 20
22.0547226921
 30
0.0
 10
18.3139088759
 20
22.0479169268
 30
0.0
 11
18.0990610038
 21
22.0381737701
 31
0.0
 11
18.1447760055
 21
22.0604619344
 31
0.0
 11
18.1976126497
 21
22.0687116553
 31
0.0
 11
18.2547554619
 21
22.0639499756
 31
0.0
 11
18.3139088759
 21
22.0479169268
 31
0.0
  0
SPLINE
  5
377
100
AcDbEntity
  8
0
100
AcDbSpline
 62
7
  6
CONTINUOUS
 70
0
 71
3
 72
11
 73
7
 74
5
 42
0.0000001
 43
0.0000001
 44
0.0000000001
 12
0.1817110357
 22
0.1260887855
 32
0.0
 13
0.2085425333
 23
-0.0736701713
 33
0.0
 40
0.0
 40
0.0
 40
0.0
 40
0.0
 40
0.2281238393
 40
0.4681047552
 40
0.7252931756
 40
1.0
 40
1.0
 40
1.0
 40
1.0
 10
11.4601334781
 20
24.3878570038
 30
0.0
 10
11.4739510178
 20
24.3974449564
 30
0.0
 10
11.5058826226
 20
24.4123111179
 30
0.0
 10
11.5594654299
 20
24.4195595193
 30
0.0
 10
11.616479642
 20
24.4139800945
 30
0.0
 10
11.654401436
 20
24.4033280226
 30
0.0
 10
11.6734974551
 20
24.396582123
 30
0.0
 11
11.4601334781
 21
24.3878570038
 31
0.0
 11
11.505703344
 21
24.4095149463
 31
0.0
 11
11.5581926786
 21
24.4173925817
 31
0.0
 11
11.6148661955
 21
24.4125151498
 31
0.0
 11
11.6734974551
 21
24.396582123
 31
0.0
  0
SPLINE
  5
378
100
AcDbEntity
  8
0
100
AcDbSpline
 62
7
  6
CONTINUOUS
 70
0
 71
3
 72
16
 73
12
 74
10
 42
0.0000001
 43
0.0000001
 44
0.0000000001
 12
-0.0014064349
 22
-0.0950759525
 32
0.0
 13
-0.0774734676
 23
-0.0551296347
 33
0.0
 40
0.0
 40
0.0
 40
0.0
 40
0.0
 40
0.0088708106
 40
0.0235312201
 40
0.0725810675
 40
0.1499452297
 40
0.2573147142
 40
0.3957863322
 40
0.5659844649
 40
0.7678033638
 40
1.0
 40
1.0
 40
1.0
 40
1.0
 10
12.3023974545
 20
24.1737582403
 30
0.0
 10
12.3023932957
 20
24.1734771068
 30
0.0
 10
12.3020735356
 20
24.172765443
 30
0.0
 10
12.3007439778
 20
24.1709094348
 30
0.0
 10
12.2975742081
 20
24.1677034614
 30
0.0
 10
12.2920766576
 20
24.1627583629
 30
0.0
 10
12.2841806521
 20
24.1562167059
 30
0.0
 10
12.2738296585
 20
24.148050884
 30
0.0
 10
12.2609441556
 20
24.1382619895
 30
0.0
 10
12.2455317618
 20
24.1268946894
 30
0.0
 10
12.2343633877
 20
24.1188624912
 30
0.0
 10
12.2283670282
 20
24.1145955193
 30
0.0
 11
12.3023974545
 21
24.1737582403
 31
0.0
 11
12.3021363931
 21
24.1729561634
 31
0.0
 11
12.3013599301
 21
24.1717984264
 31
0.0
 11
12.2981904739
 21
24.1683768515
 31
0.0
 11
12.2927526126
 21
24.1634226147
 31
0.0
 11
12.2849194068
 21
24.1568749294
 31
0.0
 11
12.2745965435
 21
24.1487016745
 31
0.0
 11
12.2617215463
 21
24.1388965346
 31
0.0
 11
12.2462855765
 21
24.1274949773
 31
0.0
 11
12.2283670282
 21
24.1145955193
 31
0.0
  0
SPLINE
  5
379
100
AcDbEntity
  8
0
100
AcDbSpline
 62
7
  6
CONTINUOUS
 70
0
 71
3
 72
12
 73
8
 74
6
 42
0.0000001
 43
0.0000001
 44
0.0000000001
 12
0.0
 22
0.287066235
 32
0.0
 13
0.2189830309
 23
0.1856164201
 33
0.0
 40
0.0
 40
0.0
 40
0.0
 40
0.0
 40
0.2485244097
 40
0.5188158414
 40
0.7788936853
 40
0.8958116477
 40
1.0
 40
1.0
 40
1.0
 40
1.0
 10
8.9381358793
 20
21.2142383504
 30
0.0
 10
8.9381358793
 20
21.2380193392
 30
0.0
 10
8.9446614331
 20
21.2876953579
 30
0.0
 10
8.9674093469
 20
21.3589609208
 30
0.0
 10
8.9962226852
 20
21.4142981619
 30
0.0
 10
9.0239313356
 20
21.4511778219
 30
0.0
 10
9.0388248132
 20
21.4663463386
 30
0.0
 10
9.0464299736
 20
21.4727926949
 30
0.0
 11
8.9381358793
 21
21.2142383504
 31
0.0
 11
8.9463671511
 21
21.2851048802
 31
0.0
 11
8.969816369
 21
21.3590682618
 31
0.0
 11
9.0049403732
 21
21.424949635
 31
0.0
 11
9.0252686722
 21
21.4516563497
 31
0.0
 11
9.0464299736
 21
21.4727926949
 31
0.0
  0
SPLINE
  5
37A
100
AcDbEntity
  8
0
100
AcDbSpline
 62
7
  6
CONTINUOUS
 70
0
 71
3
 72
16
 73
12
 74
10
 42
0.0000001
 43
0.0000001
 44
0.0000000001
 12
-0.0014029302
 22
-0.0932987989
 32
0.0
 13
-0.0759809676
 23
-0.0541620406
 33
0.0
 40
0.0
 40
0.0
 40
0.0
 40
0.0
 40
0.0089304453
 40
0.0236403336
 40
0.0727578176
 40
0.1501471623
 40
0.2574925784
 40
0.3958996493
 40
0.5660130674
 40
0.7677731045
 40
1.0
 40
1.0
 40
1.0
 40
1.0
 10
18.9427854933
 20
21.8251011338
 30
0.0
 10
18.9427813171
 20
21.8248234005
 30
0.0
 10
18.9424684965
 20
21.8241211793
 30
0.0
 10
18.9411645146
 20
21.822291955
 30
0.0
 10
18.9380566618
 20
21.8191374341
 30
0.0
 10
18.9326663066
 20
21.8142762286
 30
0.0
 10
18.9249263301
 20
21.8078498419
 30
0.0
 10
18.9147803996
 20
21.7998305292
 30
0.0
 10
18.9021490656
 20
21.7902177159
 30
0.0
 10
18.8870366497
 20
21.7790525929
 30
0.0
 10
18.8760841268
 20
21.7711621207
 30
0.0
 10
18.8702025187
 20
21.7669694932
 30
0.0
 11
18.9427854933
 21
21.8251011338
 31
0.0
 11
18.9425291517
 21
21.824308248
 31
0.0
 11
18.9417673251
 21
21.8231665086
 31
0.0
 11
18.9386589776
 21
21.8197985466
 31
0.0
 11
18.9333275591
 21
21.8149281287
 31
0.0
 11
18.9256494678
 21
21.8084958823
 31
0.0
 11
18.9155318022
 21
21.8004695737
 31
0.0
 11
18.9029119943
 21
21.7908415921
 31
0.0
 11
18.8877781301
 21
21.7796439098
 31
0.0
 11
18.8702025187
 21
21.7669694932
 31
0.0
  0
SPLINE
  5
37B
100
AcDbEntity
  8
0
100
AcDbSpline
 62
253
  6
CONTINUOUS
 70
0
 71
3
 72
12
 73
8
 74
6
 42
0.0000001
 43
0.0000001
 44
0.0000000001
 12
0.0
 22
0.2870662345
 32
0.0
 13
0.2189830306
 23
0.1856164199
 33
0.0
 40
0.0
 40
0.0
 40
0.0
 40
0.0
 40
0.2485245263
 40
0.5188160734
 40
0.7788939709
 40
0.895811959
 40
1.0
 40
1.0
 40
1.0
 40
1.0
 10
10.8670781856
 20
20.5319854899
 30
0.0
 10
10.8670781856
 20
20.5557664899
 30
0.0
 10
10.8736037451
 20
20.6054425309
 30
0.0
 10
10.8963516763
 20
20.6767081164
 30
0.0
 10
10.9251650289
 20
20.7320453725
 30
0.0
 10
10.952873683
 20
20.768925002
 30
0.0
 10
10.9677671422
 20
20.7840934974
 30
0.0
 10
10.9753722799
 20
20.7905398344
 30
0.0
 11
10.8670781856
 21
20.5319854899
 31
0.0
 11
10.8753094647
 21
20.6028520524
 31
0.0
 11
10.898758701
 21
20.6768154629
 31
0.0
 11
10.9338827247
 21
20.7426968431
 31
0.0
 11
10.9542110385
 21
20.7694035556
 31
0.0
 11
10.9753722799
 21
20.7905398344
 31
0.0
  0
SPLINE
  5
37C
100
AcDbEntity
  8
0
100
AcDbSpline
 62
253
  6
CONTINUOUS
 70
0
 71
3
 72
12
 73
8
 74
6
 42
0.0000001
 43
0.0000001
 44
0.0000000001
 12
0.0
 22
0.2870662352
 32
0.0
 13
0.2189830311
 23
0.1856164203
 33
0.0
 40
0.0
 40
0.0
 40
0.0
 40
0.0
 40
0.2485241033
 40
0.5188156102
 40
0.7788935774
 40
0.8958115983
 40
1.0
 40
1.0
 40
1.0
 40
1.0
 10
12.8798875487
 20
19.8200694616
 30
0.0
 10
12.8798875487
 20
19.8438504211
 30
0.0
 10
12.8864130908
 20
19.8935264179
 30
0.0
 10
12.9091609913
 20
19.9647919749
 30
0.0
 10
12.9379743343
 20
20.0201292416
 30
0.0
 10
12.9656829945
 20
20.057008922
 30
0.0
 10
12.980576479
 20
20.0721774468
 30
0.0
 10
12.988181643
 20
20.0786238061
 30
0.0
 11
12.8798875487
 21
19.8200694616
 31
0.0
 11
12.8881188008
 21
19.8909359052
 31
0.0
 11
12.9115680126
 21
19.9648993115
 31
0.0
 11
12.9466920254
 21
20.0307807203
 31
0.0
 11
12.9670203321
 21
20.0574874502
 31
0.0
 11
12.988181643
 21
20.0786238061
 31
0.0
  0
SPLINE
  5
37D
100
AcDbEntity
  8
0
100
AcDbSpline
 62
7
  6
CONTINUOUS
 70
0
 71
3
 72
11
 73
7
 74
5
 42
0.0000001
 43
0.0000001
 44
0.0000000001
 12
0.1957612064
 22
0.1691275125
 32
0.0
 13
0.0
 23
0.2587016919
 33
0.0
 40
0.0
 40
0.0
 40
0.0
 40
0.0
 40
0.2344733864
 40
0.476068214
 40
0.7301461473
 40
1.0
 40
1.0
 40
1.0
 40
1.0
 10
21.4020751153
 20
-21.4613776401
 30
0.0
 10
21.4173753796
 20
-21.4481590066
 30
0.0
 10
21.4452143771
 20
-21.4173369074
 30
0.0
 10
21.4753962244
 20
-21.3614753105
 30
0.0
 10
21.4935830387
 20
-21.2975371544
 30
0.0
 10
21.4973451656
 20
-21.2522218939
 30
0.0
 10
21.4973451656
 20
-21.2289513445
 30
0.0
 11
21.4020751153
 21
-21.4613776401
 31
0.0
 11
21.4428185375
 21
-21.4164393847
 31
0.0
 11
21.4728101402
 21
-21.3616043813
 31
0.0
 11
21.4911657697
 21
-21.2984889696
 31
0.0
 11
21.4973451656
 21
-21.2289513445
 31
0.0
  0
SPLINE
  5
37E
100
AcDbEntity
  8
0
100
AcDbSpline
 62
253
  6
CONTINUOUS
 70
0
 71
3
 72
11
 73
7
 74
5
 42
0.0000001
 43
0.0000001
 44
0.0000000001
 12
0.3513532511
 22
-0.1227061288
 32
0.0
 13
-0.0013890167
 23
-0.3721612174
 33
0.0
 40
0.0
 40
0.0
 40
0.0
 40
0.0
 40
0.2466235215
 40
0.5079614633
 40
0.7648727889
 40
1.0
 40
1.0
 40
1.0
 40
1.0
 10
20.8542494442
 20
18.3971691652
 30
0.0
 10
20.8831334362
 20
18.3870817593
 30
0.0
 10
20.9390418316
 20
18.3554196306
 30
0.0
 10
21.0059994976
 20
18.2866402976
 30
0.0
 10
21.0516149707
 20
18.2037713548
 30
0.0
 10
21.0640224032
 20
18.1425168165
 30
0.0
 10
21.063913538
 20
18.1133484068
 30
0.0
 11
20.8542494442
 21
18.3971691652
 31
0.0
 11
20.9347253631
 21
18.3530330888
 31
0.0
 11
21.0028297498
 21
18.2835967723
 31
0.0
 11
21.0481944681
 21
18.1994308245
 31
0.0
 11
21.063913538
 21
18.1133484068
 31
0.0
  0
SPLINE
  5
37F
100
AcDbEntity
  8
0
100
AcDbSpline
 62
7
  6
CONTINUOUS
 70
0
 71
3
 72
11
 73
7
 74
5
 42
0.0000001
 43
0.0000001
 44
0.0000000001
 12
0.3505818234
 22
-0.1239982404
 32
0.0
 13
-0.0
 23
-0.3718644626
 33
0.0
 40
0.0
 40
0.0
 40
0.0
 40
0.0
 40
0.2465164487
 40
0.5080432526
 40
0.7651022993
 40
1.0
 40
1.0
 40
1.0
 40
1.0
 10
20.4486445555
 20
18.0562949774
 30
0.0
 10
20.4774526176
 20
18.0461057754
 30
0.0
 10
20.5332051319
 20
18.0142811168
 30
0.0
 10
20.6000356017
 20
17.9454730867
 30
0.0
 10
20.6457065676
 20
17.8627305323
 30
0.0
 10
20.6583086493
 20
17.8015909214
 30
0.0
 10
20.6583086493
 20
17.772474219
 30
0.0
 11
20.4486445555
 21
18.0562949774
 31
0.0
 11
20.5288795321
 21
18.0119568786
 31
0.0
 11
20.5968997326
 21
17.9424492831
 31
0.0
 11
20.642349078
 21
17.8583539798
 31
0.0
 11
20.6583086493
 21
17.772474219
 31
0.0
  0
SPLINE
  5
380
100
AcDbEntity
  8
0
100
AcDbSpline
 62
253
  6
CONTINUOUS
 70
0
 71
3
 72
11
 73
7
 74
5
 42
0.0000001
 43
0.0000001
 44
0.0000000001
 12
0.3497930873
 22
-0.1253128661
 32
0.0
 13
0.0014208182
 23
-0.3715595506
 33
0.0
 40
0.0
 40
0.0
 40
0.0
 40
0.0
 40
0.2464090259
 40
0.5081241653
 40
0.7653310092
 40
1.0
 40
1.0
 40
1.0
 40
1.0
 10
19.2114291934
 20
17.0207920532
 30
0.0
 10
19.240159918
 20
17.0104993128
 30
0.0
 10
19.2957535221
 20
16.9785100025
 30
0.0
 10
19.3624548796
 20
16.9096729781
 30
0.0
 10
19.4081821133
 20
16.827058373
 30
0.0
 10
19.4209821465
 20
16.7660357964
 30
0.0
 10
19.4210932872
 20
16.7369712948
 30
0.0
 11
19.2114291934
 21
17.0207920532
 31
0.0
 11
19.2914194606
 21
16.9762486749
 31
0.0
 11
19.3593533083
 21
16.9066693325
 31
0.0
 11
19.4048885653
 21
16.8226464104
 31
0.0
 11
19.4210932872
 21
16.7369712948
 31
0.0
  0
SPLINE
  5
381
100
AcDbEntity
  8
0
100
AcDbSpline
 62
253
  6
CONTINUOUS
 70
0
 71
3
 72
11
 73
7
 74
5
 42
0.0000001
 43
0.0000001
 44
0.0000000001
 12
0.3513532511
 22
-0.1227061288
 32
0.0
 13
-0.0013890167
 23
-0.3721612174
 33
0.0
 40
0.0
 40
0.0
 40
0.0
 40
0.0
 40
0.2466235215
 40
0.5079614633
 40
0.7648727889
 40
1.0
 40
1.0
 40
1.0
 40
1.0
 10
6.261381562
 20
23.5585603704
 30
0.0
 10
6.290265554
 20
23.5484729646
 30
0.0
 10
6.3461739494
 20
23.5168108359
 30
0.0
 10
6.4131316153
 20
23.4480315029
 30
0.0
 10
6.4587470885
 20
23.3651625601
 30
0.0
 10
6.4711545209
 20
23.3039080218
 30
0.0
 10
6.4710456557
 20
23.2747396121
 30
0.0
 11
6.261381562
 21
23.5585603704
 31
0.0
 11
6.3418574809
 21
23.514424294
 31
0.0
 11
6.4099618676
 21
23.4449879776
 31
0.0
 11
6.4553265858
 21
23.3608220297
 31
0.0
 11
6.4710456557
 21
23.2747396121
 31
0.0
  0
SPLINE
  5
382
100
AcDbEntity
  8
0
100
AcDbSpline
 62
7
  6
CONTINUOUS
 70
0
 71
3
 72
11
 73
7
 74
5
 42
0.0000001
 43
0.0000001
 44
0.0000000001
 12
0.3505818234
 22
-0.1239982404
 32
0.0
 13
-0.0
 23
-0.3718644626
 33
0.0
 40
0.0
 40
0.0
 40
0.0
 40
0.0
 40
0.2465164487
 40
0.5080432526
 40
0.7651022993
 40
1.0
 40
1.0
 40
1.0
 40
1.0
 10
5.8557766733
 20
23.2176861826
 30
0.0
 10
5.8845847353
 20
23.2074969807
 30
0.0
 10
5.9403372496
 20
23.175672322
 30
0.0
 10
6.0071677194
 20
23.1068642919
 30
0.0
 10
6.0528386853
 20
23.0241217375
 30
0.0
 10
6.065440767
 20
22.9629821266
 30
0.0
 10
6.065440767
 20
22.9338654242
 30
0.0
 11
5.8557766733
 21
23.2176861826
 31
0.0
 11
5.9360116499
 21
23.1733480838
 31
0.0
 11
6.0040318504
 21
23.1038404884
 31
0.0
 11
6.0494811957
 21
23.0197451851
 31
0.0
 11
6.065440767
 21
22.9338654242
 31
0.0
  0
SPLINE
  5
383
100
AcDbEntity
  8
0
100
AcDbSpline
 62
253
  6
CONTINUOUS
 70
0
 71
3
 72
11
 73
7
 74
5
 42
0.0000001
 43
0.0000001
 44
0.0000000001
 12
0.3497930871
 22
-0.125312866
 32
0.0
 13
0.0014208182
 23
-0.3715595504
 33
0.0
 40
0.0
 40
0.0
 40
0.0
 40
0.0
 40
0.2464091935
 40
0.5081242877
 40
0.7653310673
 40
1.0
 40
1.0
 40
1.0
 40
1.0
 10
4.6185613112
 20
22.1821832584
 30
0.0
 10
4.6472920553
 20
22.171890511
 30
0.0
 10
4.7028856692
 20
22.1399011839
 30
0.0
 10
4.7695870227
 20
22.0710641473
 30
0.0
 10
4.8153142379
 20
21.9884495559
 30
0.0
 10
4.8281142643
 20
21.9274269944
 30
0.0
 10
4.8282254049
 20
21.8983625001
 30
0.0
 11
4.6185613112
 21
22.1821832584
 31
0.0
 11
4.6985516276
 21
22.1376398407
 31
0.0
 11
4.7664854536
 21
22.0680605006
 31
0.0
 11
4.8120206909
 21
21.9840375951
 31
0.0
 11
4.8282254049
 21
21.8983625001
 31
0.0
  0
SPLINE
  5
384
100
AcDbEntity
  8
0
100
AcDbSpline
 62
253
  6
CONTINUOUS
 70
0
 71
3
 72
12
 73
8
 74
6
 42
0.0000001
 43
0.0000001
 44
0.0000000001
 12
-0.1288805443
 22
0.0455841109
 32
0.0
 13
-0.0000023917
 23
0.1367044471
 33
0.0
 40
0.0
 40
0.0
 40
0.0
 40
0.0
 40
0.3053529265
 40
0.5708748867
 40
0.7975418925
 40
0.9005241536
 40
1.0
 40
1.0
 40
1.0
 40
1.0
 10
12.8798875487
 20
19.8200694616
 30
0.0
 10
12.8667695316
 20
19.8247092088
 30
0.0
 10
12.8428433817
 20
19.8353707631
 30
0.0
 10
12.8132087654
 20
19.8569519079
 30
0.0
 10
12.7964414323
 20
19.8790606585
 30
0.0
 10
12.7898926038
 20
19.8976332745
 30
0.0
 10
12.7888154408
 20
19.9068910771
 30
0.0
 10
12.7888153615
 20
19.9114240073
 30
0.0
 11
12.8798875487
 21
19.8200694616
 31
0.0
 11
12.8419504659
 21
19.8374839497
 31
0.0
 11
12.8130520626
 21
19.8594482268
 31
0.0
 11
12.7949692743
 21
19.8846110762
 31
0.0
 11
12.7903598031
 21
19.8979132041
 31
0.0
 11
12.7888153615
 21
19.9114240073
 31
0.0
  0
SPLINE
  5
385
100
AcDbEntity
  8
0
100
AcDbSpline
 62
253
  6
CONTINUOUS
 70
0
 71
3
 72
11
 73
7
 74
5
 42
0.0000001
 43
0.0000001
 44
0.0000000001
 12
-0.127519008
 22
0.0451025454
 32
0.0
 13
-0.1031788515
 23
-0.0874612006
 33
0.0
 40
0.0
 40
0.0
 40
0.0
 40
0.0
 40
0.2773975106
 40
0.533779314
 40
0.7721641755
 40
1.0
 40
1.0
 40
1.0
 40
1.0
 10
12.988181643
 20
20.0786238061
 30
0.0
 10
12.9763904912
 20
20.0827942507
 30
0.0
 10
12.952864757
 20
20.0887408346
 30
0.0
 10
12.9177223813
 20
20.0895626878
 30
0.0
 10
12.885667467
 20
20.0817140398
 30
0.0
 10
12.8673325194
 20
20.0706330812
 30
0.0
 10
12.8594965732
 20
20.0639908163
 30
0.0
 11
12.988181643
 21
20.0786238061
 31
0.0
 11
12.9517312638
 21
20.0875223834
 31
0.0
 11
12.9170562492
 21
20.0879974298
 31
0.0
 11
12.8858130518
 21
20.0800263576
 31
0.0
 11
12.8594965732
 21
20.0639908163
 31
0.0
  0
SPLINE
  5
386
100
AcDbEntity
  8
0
100
AcDbSpline
 62
253
  6
CONTINUOUS
 70
0
 71
3
 72
13
 73
9
 74
7
 42
0.0000001
 43
0.0000001
 44
0.0000000001
 12
0.0
 22
-0.1401842663
 32
0.0
 13
0.1321544742
 23
-0.0467634845
 33
0.0
 40
0.0
 40
0.0
 40
0.0
 40
0.0
 40
0.3179226499
 40
0.5867110372
 40
0.703074386
 40
0.8088732692
 40
0.9066338773
 40
1.0
 40
1.0
 40
1.0
 40
1.0
 10
4.4831936933
 20
21.5297550291
 30
0.0
 10
4.4831936933
 20
21.5148991113
 30
0.0
 10
4.4850307062
 20
21.4874294307
 30
0.0
 10
4.4934827617
 20
21.4553185643
 30
0.0
 10
4.5040591641
 20
21.4348565912
 30
0.0
 10
4.5131850438
 20
21.4228984504
 30
0.0
 10
4.5237984827
 20
21.4137876025
 30
0.0
 10
4.5318690496
 20
21.4097147935
 30
0.0
 10
4.5359819666
 20
21.4082594184
 30
0.0
 11
4.4831936933
 21
21.5297550291
 31
0.0
 11
4.486716151
 21
21.4853266943
 31
0.0
 11
4.4971011346
 21
21.4491061587
 31
0.0
 11
4.5047123264
 21
21.4346783648
 31
0.0
 11
4.5138113088
 21
21.4229661007
 31
0.0
 11
4.5242796794
 21
21.4141215252
 31
0.0
 11
4.5359819666
 21
21.4082594184
 31
0.0
  0
SPLINE
  5
387
100
AcDbEntity
  8
0
100
AcDbSpline
 62
253
  6
CONTINUOUS
 70
0
 71
3
 72
13
 73
9
 74
7
 42
0.0000001
 43
0.0000001
 44
0.0000000001
 12
0.0
 22
-0.1401936786
 32
0.0
 13
0.132171907
 23
-0.0467424275
 33
0.0
 40
0.0
 40
0.0
 40
0.0
 40
0.0
 40
0.3179280347
 40
0.5867159148
 40
0.703077347
 40
0.8088740033
 40
0.9066331559
 40
1.0
 40
1.0
 40
1.0
 40
1.0
 10
2.4923480187
 20
22.2339026606
 30
0.0
 10
2.4923480187
 20
22.2190454937
 30
0.0
 10
2.4941853113
 20
22.1915737327
 30
0.0
 10
2.502638862
 20
22.1594607038
 30
0.0
 10
2.5132171759
 20
22.1389981867
 30
0.0
 10
2.5223446621
 20
22.1270402892
 30
0.0
 10
2.5329599531
 20
22.1179303095
 30
0.0
 10
2.5410317546
 20
22.1138586138
 30
0.0
 10
2.5451452459
 20
22.1124038828
 30
0.0
 11
2.4923480187
 21
22.2339026606
 31
0.0
 11
2.4958711158
 21
22.1894706174
 31
0.0
 11
2.506257952
 21
22.1532480552
 31
0.0
 11
2.5138704689
 21
22.1388200257
 31
0.0
 11
2.5229709989
 21
22.1271080984
 31
0.0
 11
2.5334410939
 21
22.1182644546
 31
0.0
 11
2.5451452459
 21
22.1124038828
 31
0.0
  0
SPLINE
  5
388
100
AcDbEntity
  8
RACCORDO
100
AcDbSpline
 62
7
  6
CONTINUOUS
 70
0
 71
3
 72
10
 73
6
 74
4
 42
0.0000001
 43
0.0000001
 44
0.0000000001
 12
0.0000048229
 22
-0.0087626752
 32
0.0
 13
-0.0059030646
 23
-0.006475981
 33
0.0
 40
0.0
 40
0.0
 40
0.0
 40
0.0
 40
0.1338972962
 40
0.3389431229
 40
1.0
 40
1.0
 40
1.0
 40
1.0
 10
24.6480527939
 20
-12.8706068263
 30
0.0
 10
24.6480530091
 20
-12.8709979258
 30
0.0
 10
24.6477288172
 20
-12.8719678344
 30
0.0
 10
24.646231424
 20
-12.8744676061
 30
0.0
 10
24.6445485583
 20
-12.8763892487
 30
0.0
 10
24.6432478045
 20
-12.877816246
 30
0.0
 11
24.6480527939
 21
-12.8706068263
 31
0.0
 11
24.6477682575
 21
-12.8717451008
 31
0.0
 11
24.6468926189
 21
-12.8733140395
 31
0.0
 11
24.6432478045
 21
-12.877816246
 31
0.0
  0
SPLINE
  5
389
100
AcDbEntity
  8
RACCORDO
100
AcDbSpline
 62
7
  6
CONTINUOUS
 70
0
 71
3
 72
9
 73
5
 74
3
 42
0.0000001
 43
0.0000001
 44
0.0000000001
 12
-0.0242234555
 22
-0.0265744403
 32
0.0
 13
-0.027515704
 23
-0.0231487085
 33
0.0
 40
0.0
 40
0.0
 40
0.0
 40
0.0
 40
0.4005572905
 40
1.0
 40
1.0
 40
1.0
 40
1.0
 10
24.6432478045
 20
-12.877816246
 30
0.0
 10
24.6400135106
 20
-12.8813644413
 30
0.0
 10
24.6312933437
 20
-12.8896172676
 30
0.0
 10
24.6222291164
 20
-12.897455171
 30
0.0
 10
24.616731087
 20
-12.9020806125
 30
0.0
 11
24.6432478045
 21
-12.877816246
 31
0.0
 11
24.6329724546
 21
-12.887909328
 31
0.0
 11
24.616731087
 21
-12.9020806125
 31
0.0
  0
SPLINE
  5
38A
100
AcDbEntity
  8
0
100
AcDbSpline
 62
7
  6
CONTINUOUS
 70
0
 71
3
 72
11
 73
7
 74
5
 42
0.0000001
 43
0.0000001
 44
0.0000000001
 12
-0.1267991397
 22
0.0448479333
 32
0.0
 13
-0.1035088095
 23
-0.0858794813
 33
0.0
 40
0.0
 40
0.0
 40
0.0
 40
0.0
 40
0.2768016412
 40
0.5330544852
 40
0.7717166303
 40
1.0
 40
1.0
 40
1.0
 40
1.0
 10
13.1522070662
 20
20.217656551
 30
0.0
 10
13.1405076629
 20
20.2217945448
 30
0.0
 10
13.117149832
 20
20.2277053589
 30
0.0
 10
13.0822330514
 20
20.2285802185
 30
0.0
 10
13.0503087171
 20
20.2209105822
 30
0.0
 10
13.0319669393
 20
20.2100331135
 30
0.0
 10
13.0240904927
 20
20.203498161
 30
0.0
 11
13.1522070662
 21
20.217656551
 31
0.0
 11
13.1160443314
 21
20.2265023348
 31
0.0
 11
13.0815834082
 21
20.2270426493
 31
0.0
 11
13.0504437602
 21
20.2192525707
 31
0.0
 11
13.0240904927
 21
20.203498161
 31
0.0
  0
SPLINE
  5
38B
100
AcDbEntity
  8
0
100
AcDbSpline
 62
253
  6
CONTINUOUS
 70
0
 71
3
 72
12
 73
8
 74
6
 42
0.0000001
 43
0.0000001
 44
0.0000000001
 12
-0.0841545537
 22
-0.2921522541
 32
0.0
 13
-0.3036039006
 23
0.0161121094
 33
0.0
 40
0.0
 40
0.0
 40
0.0
 40
0.0
 40
0.2636184136
 40
0.5178250927
 40
0.761759726
 40
0.881337502
 40
1.0
 40
1.0
 40
1.0
 40
1.0
 10
4.8282254049
 20
21.5691272015
 30
0.0
 10
4.8208305083
 20
21.5434549635
 30
0.0
 10
4.7988605323
 20
21.4947787233
 30
0.0
 10
4.7464230695
 20
21.43642091
 30
0.0
 10
4.6902555316
 20
21.4056567377
 30
0.0
 10
4.6424094803
 20
21.3946539126
 30
0.0
 10
4.6181148587
 20
21.3936621211
 30
0.0
 10
4.6061060596
 20
21.3942994221
 30
0.0
 11
4.8282254049
 21
21.5691272015
 31
0.0
 11
4.7949168831
 21
21.4962281134
 31
0.0
 11
4.7428503546
 21
21.4391114133
 31
0.0
 11
4.6775890686
 21
21.4038804289
 31
0.0
 11
4.6421538685
 21
21.3957527436
 31
0.0
 11
4.6061060596
 21
21.3942994221
 31
0.0
  0
SPLINE
  5
38C
100
AcDbEntity
  8
0
100
AcDbSpline
 62
7
  6
CONTINUOUS
 70
0
 71
3
 72
11
 73
7
 74
5
 42
0.0000001
 43
0.0000001
 44
0.0000000001
 12
0.2804723632
 22
-0.0992010344
 32
0.0
 13
0.0
 23
-0.2974988937
 33
0.0
 40
0.0
 40
0.0
 40
0.0
 40
0.0
 40
0.2465170553
 40
0.5080437213
 40
0.7651021789
 40
1.0
 40
1.0
 40
1.0
 40
1.0
 10
11.1393977031
 20
20.9295725793
 30
0.0
 10
11.1624447768
 20
20.921420997
 30
0.0
 10
11.2070478248
 20
20.8959603017
 30
0.0
 10
11.2605128132
 20
20.8409118838
 30
0.0
 10
11.2970500778
 20
20.7747160972
 30
0.0
 10
11.3071318167
 20
20.7258032387
 30
0.0
 10
11.3071318167
 20
20.7025092914
 30
0.0
 11
11.1393977031
 21
20.9295725793
 31
0.0
 11
11.2035872351
 21
20.8941008007
 31
0.0
 11
11.2580041363
 21
20.8384928269
 31
0.0
 11
11.2943640105
 21
20.7712148585
 31
0.0
 11
11.3071318167
 21
20.7025092914
 31
0.0
  0
SPLINE
  5
38D
100
AcDbEntity
  8
0
100
AcDbSpline
 62
253
  6
CONTINUOUS
 70
0
 71
3
 72
11
 73
7
 74
5
 42
0.0000001
 43
0.0000001
 44
0.0000000001
 12
0.0253905942
 22
-0.0467663313
 32
0.0
 13
-0.0264410968
 23
-0.0461805199
 33
0.0
 40
0.0
 40
0.0
 40
0.0
 40
0.0
 40
0.3090036599
 40
0.5720626037
 40
0.7971863254
 40
1.0
 40
1.0
 40
1.0
 40
1.0
 10
6.4710456557
 20
22.9381854495
 30
0.0
 10
6.4736609179
 20
22.9333684603
 30
0.0
 10
6.477979933
 20
22.924137989
 30
0.0
 10
6.4816506053
 20
22.9103796169
 30
0.0
 10
6.4818242482
 20
22.897957638
 30
0.0
 10
6.4793312808
 20
22.8905793748
 30
0.0
 10
6.4775437422
 20
22.8874573611
 30
0.0
 11
6.4710456557
 21
22.9381854495
 31
0.0
 11
6.4778351987
 21
22.9232091704
 31
0.0
 11
6.4812082064
 21
22.9096230943
 31
0.0
 11
6.481110174
 21
22.8976436724
 31
0.0
 11
6.4775437422
 21
22.8874573611
 31
0.0
  0
SPLINE
  5
38E
100
AcDbEntity
  8
0
100
AcDbSpline
 62
253
  6
CONTINUOUS
 70
0
 71
3
 72
11
 73
7
 74
5
 42
0.0000001
 43
0.0000001
 44
0.0000000001
 12
0.2803055539
 22
-0.0991420352
 32
0.0
 13
0.0011268874
 23
-0.2973198224
 33
0.0
 40
0.0
 40
0.0
 40
0.0
 40
0.0
 40
0.2467369871
 40
0.5084625193
 40
0.7654897131
 40
1.0
 40
1.0
 40
1.0
 40
1.0
 10
10.9753722799
 20
20.7905398344
 30
0.0
 10
10.9984261958
 20
20.7823858321
 30
0.0
 10
11.0430516307
 20
20.756961124
 30
0.0
 10
11.0966382351
 20
20.7020529357
 30
0.0
 10
11.1333768217
 20
20.63605429
 30
0.0
 10
11.1436520173
 20
20.5872552189
 30
0.0
 10
11.1437401062
 20
20.5640137
 30
0.0
 11
10.9753722799
 21
20.7905398344
 31
0.0
 11
11.0396094301
 21
20.7551092589
 31
0.0
 11
11.094163695
 21
20.6996180128
 31
0.0
 11
11.1307294983
 21
20.6325141215
 31
0.0
 11
11.1437401062
 21
20.5640137
 31
0.0
  0
SPLINE
  5
38F
100
AcDbEntity
  8
0
100
AcDbSpline
 62
253
  6
CONTINUOUS
 70
0
 71
3
 72
13
 73
9
 74
7
 42
0.0000001
 43
0.0000001
 44
0.0000000001
 12
0.0
 22
-0.1401885038
 32
0.0
 13
0.1321623452
 23
-0.046753942
 33
0.0
 40
0.0
 40
0.0
 40
0.0
 40
0.0
 40
0.3179248536
 40
0.5867131134
 40
0.7030756355
 40
0.8088735456
 40
0.9066335175
 40
1.0
 40
1.0
 40
1.0
 40
1.0
 10
19.0760615756
 20
16.3683638239
 30
0.0
 10
19.0760615756
 20
16.353507354
 30
0.0
 10
19.0778987134
 20
16.3260367427
 30
0.0
 10
19.0863514363
 20
16.2939249054
 30
0.0
 10
19.0969286991
 20
16.2734626784
 30
0.0
 10
19.1060553042
 20
16.2615046436
 30
0.0
 10
19.1166695779
 20
16.2523941823
 30
0.0
 10
19.1247407024
 20
16.248321871
 30
0.0
 10
19.1288538802
 20
16.2468667873
 30
0.0
 11
19.0760615756
 21
16.3683638239
 31
0.0
 11
19.0795843163
 21
16.3239338502
 31
0.0
 11
19.0899701323
 21
16.287712387
 31
0.0
 11
19.0975819209
 21
16.2732844814
 31
0.0
 11
19.1066816017
 21
16.2615723649
 31
0.0
 11
19.1171507491
 21
16.2527282054
 31
0.0
 11
19.1288538802
 21
16.2468667873
 31
0.0
  0
SPLINE
  5
390
100
AcDbEntity
  8
0
100
AcDbSpline
 62
253
  6
CONTINUOUS
 70
0
 71
3
 72
12
 73
8
 74
6
 42
0.0000001
 43
0.0000001
 44
0.0000000001
 12
0.271936185
 22
-0.0961818503
 32
0.0
 13
0.2210080022
 23
0.1853529067
 33
0.0
 40
0.0
 40
0.0
 40
0.0
 40
0.0
 40
0.2571445862
 40
0.5276697293
 40
0.7829552362
 40
0.8973130377
 40
1.0
 40
1.0
 40
1.0
 40
1.0
 10
10.8670781856
 20
20.5319854899
 30
0.0
 10
10.8903871582
 20
20.5237412759
 30
0.0
 10
10.9406552068
 20
20.5134468786
 30
0.0
 10
11.0163568417
 20
20.5139697574
 30
0.0
 10
11.0771398082
 20
20.5273344294
 30
0.0
 10
11.1186825593
 20
20.5460181687
 30
0.0
 10
11.1361752261
 20
20.5576692576
 30
0.0
 10
11.1437401062
 20
20.5640137
 30
0.0
 11
10.8670781856
 21
20.5319854899
 31
0.0
 11
10.9395588157
 21
20.5162363413
 31
0.0
 11
11.0175883255
 21
20.5167926791
 31
0.0
 11
11.0892872886
 21
20.5335699125
 31
0.0
 11
11.1192656954
 21
20.5473308508
 31
0.0
 11
11.1437401062
 21
20.5640137
 31
0.0
  0
SPLINE
  5
391
100
AcDbEntity
  8
0
100
AcDbSpline
 62
253
  6
CONTINUOUS
 70
0
 71
3
 72
13
 73
9
 74
7
 42
0.0000001
 43
0.0000001
 44
0.0000000001
 12
0.0
 22
-0.1401939272
 32
0.0
 13
0.1321723323
 23
-0.0467419704
 33
0.0
 40
0.0
 40
0.0
 40
0.0
 40
0.0
 40
0.3179281836
 40
0.5867160553
 40
0.7030774407
 40
0.8088740376
 40
0.9066331597
 40
1.0
 40
1.0
 40
1.0
 40
1.0
 10
17.0852159009
 20
17.0725114554
 30
0.0
 10
17.0852159009
 20
17.0576542552
 30
0.0
 10
17.0870532012
 20
17.0301824388
 30
0.0
 10
17.0955067913
 20
16.9980693518
 30
0.0
 10
17.1060851569
 20
16.9776068206
 30
0.0
 10
17.1152126848
 20
16.9656489285
 30
0.0
 10
17.1258280257
 20
16.9565389727
 30
0.0
 10
17.13389986
 20
16.9524673104
 30
0.0
 10
17.1380133643
 20
16.9510125937
 30
0.0
 11
17.0852159009
 21
17.0725114554
 31
0.0
 11
17.0887390151
 21
17.0280793133
 31
0.0
 11
17.0991259007
 21
16.991856697
 31
0.0
 11
17.1067384531
 21
16.9774286611
 31
0.0
 11
17.1158390237
 21
16.9657167424
 31
0.0
 11
17.1263091661
 21
16.9568731238
 31
0.0
 11
17.1380133643
 21
16.9510125937
 31
0.0
  0
SPLINE
  5
392
100
AcDbEntity
  8
0
100
AcDbSpline
 62
7
  6
CONTINUOUS
 70
0
 71
3
 72
11
 73
7
 74
5
 42
0.0000001
 43
0.0000001
 44
0.0000000001
 12
-0.1770137616
 22
-0.3025613616
 32
0.0
 13
-0.3500494753
 23
0.0185098404
 33
0.0
 40
0.0
 40
0.0
 40
0.0
 40
0.0
 40
0.2457858112
 40
0.4990557589
 40
0.7535270728
 40
1.0
 40
1.0
 40
1.0
 40
1.0
 10
19.9706115648
 20
16.3785762942
 30
0.0
 10
19.9561090745
 20
16.3537878644
 30
0.0
 10
19.9201893866
 20
16.3070154408
 30
0.0
 10
19.8510730996
 20
16.2511593547
 30
0.0
 10
19.770140132
 20
16.2139174378
 30
0.0
 10
19.7108610589
 20
16.205750905
 30
0.0
 10
19.6821018192
 20
16.2072716299
 30
0.0
 11
19.9706115648
 21
16.3785762942
 31
0.0
 11
19.9183375178
 21
16.3100889206
 31
0.0
 11
19.8492144864
 21
16.2543749226
 31
0.0
 11
19.7678564142
 21
16.2177981515
 31
0.0
 11
19.6821018192
 21
16.2072716299
 31
0.0
  0
SPLINE
  5
393
100
AcDbEntity
  8
0
100
AcDbSpline
 62
253
  6
CONTINUOUS
 70
0
 71
3
 72
12
 73
8
 74
6
 42
0.0000001
 43
0.0000001
 44
0.0000000001
 12
-0.0841545597
 22
-0.2921522751
 32
0.0
 13
-0.3036039205
 23
0.0161121461
 33
0.0
 40
0.0
 40
0.0
 40
0.0
 40
0.0
 40
0.2636183038
 40
0.5178250151
 40
0.7617596885
 40
0.8813374845
 40
1.0
 40
1.0
 40
1.0
 40
1.0
 10
19.4210932872
 20
16.4077359962
 30
0.0
 10
19.4136983931
 20
16.3820637671
 30
0.0
 10
19.3917284214
 20
16.3333875304
 30
0.0
 10
19.3392909625
 20
16.2750297107
 30
0.0
 10
19.2831234122
 20
16.2442655299
 30
0.0
 10
19.235277349
 20
16.2332627053
 30
0.0
 10
19.2109827216
 20
16.2322709155
 30
0.0
 10
19.1989739199
 20
16.2329082181
 30
0.0
 11
19.4210932872
 21
16.4077359962
 31
0.0
 11
19.3877847806
 21
16.3348369315
 31
0.0
 11
19.3357182468
 21
16.2777202156
 31
0.0
 11
19.2704569459
 21
16.2424892218
 31
0.0
 11
19.2350217369
 21
16.2343615367
 31
0.0
 11
19.1989739199
 21
16.2329082181
 31
0.0
  0
SPLINE
  5
394
100
AcDbEntity
  8
0
100
AcDbSpline
 62
253
  6
CONTINUOUS
 70
0
 71
3
 72
11
 73
7
 74
5
 42
0.0000001
 43
0.0000001
 44
0.0000000001
 12
0.0253905942
 22
-0.0467663313
 32
0.0
 13
-0.0264410968
 23
-0.0461805199
 33
0.0
 40
0.0
 40
0.0
 40
0.0
 40
0.0
 40
0.3090036599
 40
0.5720626037
 40
0.7971863254
 40
1.0
 40
1.0
 40
1.0
 40
1.0
 10
21.063913538
 20
17.7767942443
 30
0.0
 10
21.0665288001
 20
17.7719772551
 30
0.0
 10
21.0708478152
 20
17.7627467838
 30
0.0
 10
21.0745184876
 20
17.7489884117
 30
0.0
 10
21.0746921304
 20
17.7365664328
 30
0.0
 10
21.0721991631
 20
17.7291881695
 30
0.0
 10
21.0704116244
 20
17.7260661559
 30
0.0
 11
21.063913538
 21
17.7767942443
 31
0.0
 11
21.0707030809
 21
17.7618179652
 31
0.0
 11
21.0740760886
 21
17.748231889
 31
0.0
 11
21.0739780563
 21
17.7362524671
 31
0.0
 11
21.0704116244
 21
17.7260661559
 31
0.0
  0
SPLINE
  5
395
100
AcDbEntity
  8
0
100
AcDbSpline
 62
253
  6
CONTINUOUS
 70
0
 71
3
 72
11
 73
7
 74
5
 42
0.0000001
 43
0.0000001
 44
0.0000000001
 12
0.0000006294
 22
-0.086004396
 32
0.0
 13
-0.0655479461
 23
-0.0556796452
 33
0.0
 40
0.0
 40
0.0
 40
0.0
 40
0.0
 40
0.2268181367
 40
0.4640141428
 40
0.7199516412
 40
1.0
 40
1.0
 40
1.0
 40
1.0
 10
21.1034573025
 20
-22.4813558583
 30
0.0
 10
21.1034573501
 20
-22.4878583106
 30
0.0
 10
21.1016653906
 20
-22.5012194599
 30
0.0
 10
21.0937980049
 20
-22.5205030963
 30
0.0
 10
21.0810452978
 20
-22.5388153887
 30
0.0
 10
21.0700324029
 20
-22.5496505136
 30
0.0
 10
21.063913538
 20
-22.554848178
 30
0.0
 11
21.1034573025
 21
-22.4813558583
 31
0.0
 11
21.1009220653
 21
-22.5006977699
 31
0.0
 11
21.0933677606
 21
-22.519647397
 31
0.0
 11
21.0809476285
 21
-22.5378203841
 31
0.0
 11
21.063913538
 21
-22.554848178
 31
0.0
  0
SPLINE
  5
396
100
AcDbEntity
  8
0
100
AcDbSpline
 62
253
  6
CONTINUOUS
 70
0
 71
3
 72
11
 73
7
 74
5
 42
0.0000001
 43
0.0000001
 44
0.0000000001
 12
0.0000006456
 22
-0.0860043957
 32
0.0
 13
-0.0655479459
 23
-0.0556796451
 33
0.0
 40
0.0
 40
0.0
 40
0.0
 40
0.0
 40
0.2268181362
 40
0.4640141485
 40
0.7199516338
 40
1.0
 40
1.0
 40
1.0
 40
1.0
 10
21.1034573025
 20
-22.144801696
 30
0.0
 10
21.1034573513
 20
-22.1513041483
 30
0.0
 10
21.1016653902
 20
-22.1646652978
 30
0.0
 10
21.0937980047
 20
-22.1839489336
 30
0.0
 10
21.0810452979
 20
-22.2022612264
 30
0.0
 10
21.070032403
 20
-22.2130963509
 30
0.0
 10
21.063913538
 20
-22.2182940154
 30
0.0
 11
21.1034573025
 21
-22.144801696
 31
0.0
 11
21.1009220654
 21
-22.1641436075
 31
0.0
 11
21.0933677601
 21
-22.183093235
 31
0.0
 11
21.080947629
 21
-22.2012662211
 31
0.0
 11
21.063913538
 21
-22.2182940154
 31
0.0
  0
SPLINE
  5
397
100
AcDbEntity
  8
0
100
AcDbSpline
 62
253
  6
CONTINUOUS
 70
0
 71
3
 72
9
 73
5
 74
3
 42
0.0000001
 43
0.0000001
 44
0.0000000001
 12
-0.0147092749
 22
0.0052019164
 32
0.0
 13
-0.0155822542
 23
0.0007848919
 33
0.0
 40
0.0
 40
0.0
 40
0.0
 40
0.0
 40
0.2477339557
 40
1.0
 40
1.0
 40
1.0
 40
1.0
 10
20.9368198349
 20
-21.9091097361
 30
0.0
 10
20.9356051726
 20
-21.9086801723
 30
0.0
 10
20.9306390682
 20
-21.9071276415
 30
0.0
 10
20.9254445163
 20
-21.9063244165
 30
0.0
 10
20.9215371827
 20
-21.9061276007
 30
0.0
 11
20.9368198349
 21
-21.9091097361
 31
0.0
 11
20.9331306069
 21
-21.9079569296
 31
0.0
 11
20.9215371827
 21
-21.9061276007
 31
0.0
  0
SPLINE
  5
398
100
AcDbEntity
  8
0
100
AcDbSpline
 62
253
  6
CONTINUOUS
 70
0
 71
3
 72
13
 73
9
 74
7
 42
0.0000001
 43
0.0000001
 44
0.0000000001
 12
0.1020310567
 22
0.361268959
 32
0.0
 13
-0.3540108424
 23
0.1249076487
 33
0.0
 40
0.0
 40
0.0
 40
0.0
 40
0.0
 40
0.259263841
 40
0.5156046412
 40
0.6409261709
 40
0.7633472414
 40
0.8828786954
 40
1.0
 40
1.0
 40
1.0
 40
1.0
 10
21.063913538
 20
-22.2182940154
 30
0.0
 10
21.0727311925
 20
-22.1870726895
 30
0.0
 10
21.0794066347
 20
-22.1214107489
 30
0.0
 10
21.059587645
 20
-22.0418715373
 30
0.0
 10
21.0281600778
 20
-21.9868044869
 30
0.0
 10
20.9980114426
 20
-21.9517115941
 30
0.0
 10
20.9622795181
 20
-21.9239762368
 30
0.0
 10
20.9353579199
 20
-21.9110040496
 30
0.0
 10
20.9215371827
 20
-21.9061276007
 30
0.0
 11
21.063913538
 21
-22.2182940154
 31
0.0
 11
21.0737253846
 21
-22.1214620594
 31
0.0
 11
21.0501260363
 21
-22.0281701673
 31
0.0
 11
21.0267277393
 21
-21.9873556519
 31
0.0
 11
20.9966949844
 21
-21.952569533
 31
0.0
 11
20.9611794327
 21
-21.9251440358
 31
0.0
 11
20.9215371827
 21
-21.9061276007
 31
0.0
  0
SPLINE
  5
399
100
AcDbEntity
  8
0
100
AcDbSpline
 62
7
  6
CONTINUOUS
 70
0
 71
3
 72
11
 73
7
 74
5
 42
0.0000001
 43
0.0000001
 44
0.0000000001
 12
0.3500467227
 22
-0.0185348165
 32
0.0
 13
0.17701304
 23
0.3025601282
 33
0.0
 40
0.0
 40
0.0
 40
0.0
 40
0.0
 40
0.2464742921
 40
0.5009448857
 40
0.7542142843
 40
1.0
 40
1.0
 40
1.0
 40
1.0
 10
5.0892354815
 20
21.3686619003
 30
0.0
 10
5.1179946542
 20
21.3671391151
 30
0.0
 10
5.1772735228
 20
21.3753105763
 30
0.0
 10
5.2582060188
 20
21.4125507069
 30
0.0
 10
5.3273217908
 20
21.4684071062
 30
0.0
 10
5.363241257
 20
21.5151791803
 30
0.0
 10
5.3777436826
 20
21.5399674995
 30
0.0
 11
5.0892354815
 21
21.3686619003
 31
0.0
 11
5.1749900336
 21
21.3791898062
 31
0.0
 11
5.2563474082
 21
21.4157666265
 31
0.0
 11
5.3254699056
 21
21.4714804037
 31
0.0
 11
5.3777436826
 21
21.5399674995
 31
0.0
  0
SPLINE
  5
39A
100
AcDbEntity
  8
0
100
AcDbSpline
 62
253
  6
CONTINUOUS
 70
0
 71
3
 72
11
 73
7
 74
5
 42
0.0000001
 43
0.0000001
 44
0.0000000001
 12
0.1293421882
 22
0.1110464219
 32
0.0
 13
0.160942988
 23
-0.0561966554
 33
0.0
 40
0.0
 40
0.0
 40
0.0
 40
0.0
 40
0.2279541275
 40
0.4664095138
 40
0.7227676247
 40
1.0
 40
1.0
 40
1.0
 40
1.0
 10
2.4656628677
 20
22.8670190139
 30
0.0
 10
2.4754908963
 20
22.875456844
 30
0.0
 10
2.4985235416
 20
22.8895698884
 30
0.0
 10
2.538877446
 20
22.8996937182
 30
0.0
 10
2.5831684057
 20
22.8988849167
 30
0.0
 10
2.6128427676
 20
22.8915240674
 30
0.0
 10
2.6277156365
 20
22.8863308899
 30
0.0
 11
2.4656628677
 21
22.8670190139
 31
0.0
 11
2.4987235139
 21
22.8874414959
 31
0.0
 11
2.5380543805
 21
22.897712966
 31
0.0
 11
2.5817546461
 21
22.8973367641
 31
0.0
 11
2.6277156365
 21
22.8863308899
 31
0.0
  0
SPLINE
  5
39B
100
AcDbEntity
  8
0
100
AcDbSpline
 62
253
  6
CONTINUOUS
 70
0
 71
3
 72
13
 73
9
 74
7
 42
0.0000001
 43
0.0000001
 44
0.0000000001
 12
0.3391078435
 22
-0.1199399772
 32
0.0
 13
0.2770384948
 23
0.229410985
 33
0.0
 40
0.0
 40
0.0
 40
0.0
 40
0.0
 40
0.2567680607
 40
0.5269547613
 40
0.6583456288
 40
0.7826385605
 40
0.8971109351
 40
1.0
 40
1.0
 40
1.0
 40
1.0
 10
19.0760615756
 20
-23.6267244358
 30
0.0
 10
19.1050855967
 20
-23.6369900209
 30
0.0
 10
19.1676408591
 20
-23.6498354163
 30
0.0
 10
19.2471457434
 20
-23.6493945035
 30
0.0
 10
19.3094382199
 20
-23.6389050021
 30
0.0
 10
19.3521476078
 20
-23.6263944685
 30
0.0
 10
19.3896773784
 20
-23.6096555843
 30
0.0
 10
19.4115918766
 20
-23.5952202241
 30
0.0
 10
19.4210932872
 20
-23.5873522635
 30
0.0
 11
19.0760615756
 21
-23.6267244358
 31
0.0
 11
19.1663048788
 21
-23.6463746414
 31
0.0
 11
19.2634876813
 21
-23.6457972386
 31
0.0
 11
19.3100714687
 21
-23.637828208
 31
0.0
 11
19.3529226022
 21
-23.6250793567
 31
0.0
 11
19.3904055892
 21
-23.6080379989
 31
0.0
 11
19.4210932872
 21
-23.5873522635
 31
0.0
  0
SPLINE
  5
39C
100
AcDbEntity
  8
0
100
AcDbSpline
 62
253
  6
CONTINUOUS
 70
0
 71
3
 72
13
 73
9
 74
7
 42
0.0000001
 43
0.0000001
 44
0.0000000001
 12
0.339107844
 22
-0.1199399774
 32
0.0
 13
0.2770384953
 23
0.2294109854
 33
0.0
 40
0.0
 40
0.0
 40
0.0
 40
0.0
 40
0.2567678582
 40
0.5269545697
 40
0.6583454567
 40
0.7826384147
 40
0.8971108139
 40
1.0
 40
1.0
 40
1.0
 40
1.0
 10
19.0760615756
 20
-23.9559597344
 30
0.0
 10
19.1050855738
 20
-23.9662253115
 30
0.0
 10
19.1676408111
 20
-23.9790707106
 30
0.0
 10
19.2471456748
 20
-23.9786298063
 30
0.0
 10
19.3094381604
 20
-23.968140316
 30
0.0
 10
19.3521475572
 20
-23.9556297832
 30
0.0
 10
19.3896773515
 20
-23.9388909013
 30
0.0
 10
19.4115918654
 20
-23.924455532
 30
0.0
 10
19.4210932872
 20
-23.9165875621
 30
0.0
 11
19.0760615756
 21
-23.9559597344
 31
0.0
 11
19.1663048058
 21
-23.9756099336
 31
0.0
 11
19.2634876125
 21
-23.975032545
 31
0.0
 11
19.3100714082
 21
-23.9670635211
 31
0.0
 11
19.3529225525
 21
-23.9543146728
 31
0.0
 11
19.3904055514
 21
-23.9372733195
 31
0.0
 11
19.4210932872
 21
-23.9165875621
 31
0.0
  0
SPLINE
  5
39D
100
AcDbEntity
  8
0
100
AcDbSpline
 62
253
  6
CONTINUOUS
 70
0
 71
3
 72
13
 73
9
 74
7
 42
0.0000001
 43
0.0000001
 44
0.0000000001
 12
-0.167139153
 22
0.3034325527
 32
0.0
 13
-0.32598298
 23
0.1172258814
 33
0.0
 40
0.0
 40
0.0
 40
0.0
 40
0.0
 40
0.0895897338
 40
0.1965078948
 40
0.3181046273
 40
0.4506876993
 40
0.7309577389
 40
1.0
 40
1.0
 40
1.0
 40
1.0
 10
19.4210932872
 20
-23.5873522635
 30
0.0
 10
19.4161019698
 20
-23.5782907829
 30
0.0
 10
19.4030277961
 20
-23.5595939612
 30
0.0
 10
19.3782622454
 20
-23.5323914819
 30
0.0
 10
19.3473151898
 20
-23.5043603677
 30
0.0
 10
19.2984168467
 20
-23.4666283307
 30
0.0
 10
19.2312658019
 20
-23.4250914128
 30
0.0
 10
19.1733758543
 20
-23.3985632458
 30
0.0
 10
19.1441414549
 20
-23.3880503404
 30
0.0
 11
19.4210932872
 21
-23.5873522635
 31
0.0
 11
19.4037183006
 21
-23.5616360632
 31
0.0
 11
19.3790123666
 21
-23.5340412475
 31
0.0
 11
19.3479199296
 21
-23.5056220128
 31
0.0
 11
19.3116317795
 21
-23.4774673968
 31
0.0
 11
19.2291721165
 21
-23.4262122082
 31
0.0
 11
19.1441414549
 21
-23.3880503404
 31
0.0
  0
SPLINE
  5
39E
100
AcDbEntity
  8
0
100
AcDbSpline
 62
7
  6
CONTINUOUS
 70
0
 71
3
 72
13
 73
9
 74
7
 42
0.0000001
 43
0.0000001
 44
0.0000000001
 12
-0.3555303416
 22
0.018873856
 32
0.0
 13
-0.3356545101
 23
0.1187185583
 33
0.0
 40
0.0
 40
0.0
 40
0.0
 40
0.0
 40
0.0805079003
 40
0.179560854
 40
0.4254516287
 40
0.7139691972
 40
0.861090427
 40
1.0
 40
1.0
 40
1.0
 40
1.0
 10
19.9706115648
 20
-22.6480986091
 30
0.0
 10
19.9610705644
 20
-22.6475921109
 30
0.0
 10
19.9398435099
 20
-22.6455119825
 30
0.0
 10
19.8898910146
 20
-22.6380869483
 30
0.0
 10
19.8162303113
 20
-22.6227782814
 30
0.0
 10
19.7379427191
 20
-22.6023384785
 30
0.0
 10
19.6726670893
 20
-22.5825977129
 30
0.0
 10
19.6405118228
 20
-22.5717004409
 30
0.0
 10
19.6249699479
 20
-22.5662033928
 30
0.0
 11
19.9706115648
 21
-22.6480986091
 31
0.0
 11
19.9420649341
 21
-22.6455150186
 31
0.0
 11
19.9071633932
 21
-22.6404585925
 31
0.0
 11
19.8213468807
 21
-22.6231494678
 31
0.0
 11
19.7219409096
 21
-22.597263269
 31
0.0
 11
19.6718244365
 21
-22.5820325939
 31
0.0
 11
19.6249699479
 21
-22.5662033928
 31
0.0
  0
SPLINE
  5
39F
100
AcDbEntity
  8
0
100
AcDbSpline
 62
253
  6
CONTINUOUS
 70
0
 71
3
 72
11
 73
7
 74
5
 42
0.0000001
 43
0.0000001
 44
0.0000000001
 12
0.1293387549
 22
0.1033225855
 32
0.0
 13
0.1558463096
 23
-0.0558211248
 33
0.0
 40
0.0
 40
0.0
 40
0.0
 40
0.0
 40
0.2286070412
 40
0.4674924012
 40
0.7236441591
 40
1.0
 40
1.0
 40
1.0
 40
1.0
 10
4.0978626452
 20
24.2519074252
 30
0.0
 10
4.1077185618
 20
24.2597808488
 30
0.0
 10
4.1305195037
 20
24.2728115199
 30
0.0
 10
4.1699225681
 20
24.2818216674
 30
0.0
 10
4.2128618538
 20
24.2804315462
 30
0.0
 10
4.2415418134
 20
24.2730274244
 30
0.0
 10
4.2558981594
 20
24.2678852598
 30
0.0
 11
4.0978626452
 21
24.2519074252
 31
0.0
 11
4.1306529494
 21
24.2708009419
 31
0.0
 11
4.1691223113
 21
24.279963625
 31
0.0
 11
4.211514636
 21
24.2789767696
 31
0.0
 11
4.2558981594
 21
24.2678852598
 31
0.0
  0
SPLINE
  5
3A0
100
AcDbEntity
  8
0
100
AcDbSpline
 62
253
  6
CONTINUOUS
 70
0
 71
3
 72
11
 73
7
 74
5
 42
0.0000001
 43
0.0000001
 44
0.0000000001
 12
0.0
 22
0.2506228671
 32
0.0
 13
0.1255472315
 23
0.2169094608
 33
0.0
 40
0.0
 40
0.0
 40
0.0
 40
0.0
 40
0.2327872057
 40
0.4859603256
 40
0.7463619876
 40
1.0
 40
1.0
 40
1.0
 40
1.0
 10
19.0760615756
 20
-23.6267244358
 30
0.0
 10
19.0760615756
 20
-23.6072771702
 30
0.0
 10
19.0796392642
 20
-23.5666550822
 30
0.0
 10
19.0932456976
 20
-23.5056594387
 30
0.0
 10
19.1145451522
 20
-23.4450586012
 30
0.0
 10
19.1335269382
 20
-23.4063891686
 30
0.0
 10
19.1441414549
 20
-23.3880503404
 30
0.0
 11
19.0760615756
 21
-23.6267244358
 31
0.0
 11
19.0807011085
 21
-23.568567407
 31
0.0
 11
19.0943035313
 21
-23.5065916045
 31
0.0
 11
19.1159418609
 21
-23.4450205796
 31
0.0
 11
19.1441414549
 21
-23.3880503404
 31
0.0
  0
SPLINE
  5
3A1
100
AcDbEntity
  8
0
100
AcDbSpline
 62
7
  6
CONTINUOUS
 70
0
 71
3
 72
11
 73
7
 74
5
 42
0.0000001
 43
0.0000001
 44
0.0000000001
 12
0.1294607914
 22
0.0899805379
 32
0.0
 13
0.1486365189
 23
-0.0525716554
 33
0.0
 40
0.0
 40
0.0
 40
0.0
 40
0.0
 40
0.2283192359
 40
0.4679255841
 40
0.7244288398
 40
1.0
 40
1.0
 40
1.0
 40
1.0
 10
3.69121886
 20
23.918295532
 30
0.0
 10
3.7010716564
 20
23.9251436279
 30
0.0
 10
3.7234383743
 20
23.9362594339
 30
0.0
 10
3.7612192286
 20
23.9434896984
 30
0.0
 10
3.8020498902
 20
23.9415057103
 30
0.0
 10
3.8293069011
 20
23.9344337982
 30
0.0
 10
3.8429602138
 20
23.9296047209
 30
0.0
 11
3.69121886
 21
23.918295532
 31
0.0
 11
3.7233837895
 21
23.9344567024
 31
0.0
 11
3.760425813
 21
23.9418685456
 31
0.0
 11
3.8008328053
 21
23.9402291207
 31
0.0
 11
3.8429602138
 21
23.9296047209
 31
0.0
  0
SPLINE
  5
3A2
100
AcDbEntity
  8
0
100
AcDbSpline
 62
253
  6
CONTINUOUS
 70
0
 71
3
 72
11
 73
7
 74
5
 42
0.0000001
 43
0.0000001
 44
0.0000000001
 12
0.1293421882
 22
0.1110464219
 32
0.0
 13
0.160942988
 23
-0.0561966554
 33
0.0
 40
0.0
 40
0.0
 40
0.0
 40
0.0
 40
0.2279541275
 40
0.4664095138
 40
0.7227676247
 40
1.0
 40
1.0
 40
1.0
 40
1.0
 10
17.05853075
 20
17.7056278087
 30
0.0
 10
17.0683587785
 20
17.7140656388
 30
0.0
 10
17.0913914239
 20
17.7281786831
 30
0.0
 10
17.1317453282
 20
17.7383025129
 30
0.0
 10
17.176036288
 20
17.7374937115
 30
0.0
 10
17.2057106498
 20
17.7301328621
 30
0.0
 10
17.2205835188
 20
17.7249396847
 30
0.0
 11
17.05853075
 21
17.7056278087
 31
0.0
 11
17.0915913962
 21
17.7260502907
 31
0.0
 11
17.1309222628
 21
17.7363217607
 31
0.0
 11
17.1746225284
 21
17.7359455588
 31
0.0
 11
17.2205835188
 21
17.7249396847
 31
0.0
  0
SPLINE
  5
3A3
100
AcDbEntity
  8
0
100
AcDbSpline
 62
253
  6
CONTINUOUS
 70
0
 71
3
 72
11
 73
7
 74
5
 42
0.0000001
 43
0.0000001
 44
0.0000000001
 12
0.12940573
 22
0.1010495969
 32
0.0
 13
0.1545694533
 23
-0.0553637796
 33
0.0
 40
0.0
 40
0.0
 40
0.0
 40
0.0
 40
0.2285922585
 40
0.4675987071
 40
0.7237920181
 40
1.0
 40
1.0
 40
1.0
 40
1.0
 10
18.6918053136
 20
19.0913651104
 30
0.0
 10
18.7016656962
 20
19.0990648289
 30
0.0
 10
18.724400079
 20
19.1117677484
 30
0.0
 10
18.7635305955
 20
19.120463746
 30
0.0
 10
18.8061057011
 20
19.1189544456
 30
0.0
 10
18.8345349361
 20
19.1115913605
 30
0.0
 10
18.8487660417
 20
19.1064940546
 30
0.0
 11
18.6918053136
 21
19.0913651104
 31
0.0
 11
18.724502092
 21
19.1097916128
 31
0.0
 11
18.7627315671
 21
19.118645615
 31
0.0
 11
18.8047799814
 21
19.1175298396
 31
0.0
 11
18.8487660417
 21
19.1064940546
 31
0.0
  0
SPLINE
  5
3A4
100
AcDbEntity
  8
0
100
AcDbSpline
 62
7
  6
CONTINUOUS
 70
0
 71
3
 72
11
 73
7
 74
5
 42
0.0000001
 43
0.0000001
 44
0.0000000001
 12
0.1294607914
 22
0.0899805379
 32
0.0
 13
0.1486365189
 23
-0.0525716554
 33
0.0
 40
0.0
 40
0.0
 40
0.0
 40
0.0
 40
0.2283192359
 40
0.4679255841
 40
0.7244288398
 40
1.0
 40
1.0
 40
1.0
 40
1.0
 10
18.2840867423
 20
18.7569043268
 30
0.0
 10
18.2939395386
 20
18.7637524227
 30
0.0
 10
18.3163062565
 20
18.7748682287
 30
0.0
 10
18.3540871109
 20
18.7820984932
 30
0.0
 10
18.3949177725
 20
18.780114505
 30
0.0
 10
18.4221747834
 20
18.773042593
 30
0.0
 10
18.435828096
 20
18.7682135157
 30
0.0
 11
18.2840867423
 21
18.7569043268
 31
0.0
 11
18.3162516717
 21
18.7730654971
 31
0.0
 11
18.3532936953
 21
18.7804773403
 31
0.0
 11
18.3937006876
 21
18.7788379154
 31
0.0
 11
18.435828096
 21
18.7682135157
 31
0.0
  0
SPLINE
  5
3A5
100
AcDbEntity
  8
0
100
AcDbSpline
 62
7
  6
CONTINUOUS
 70
0
 71
3
 72
12
 73
8
 74
6
 42
0.0000001
 43
0.0000001
 44
0.0000000001
 12
-0.3398134999
 22
0.12018845
 32
0.0
 13
-0.2773926715
 23
-0.2301559993
 33
0.0
 40
0.0
 40
0.0
 40
0.0
 40
0.0
 40
0.1037474059
 40
0.2100549049
 40
0.4386084785
 40
0.6998286003
 40
1.0
 40
1.0
 40
1.0
 40
1.0
 10
15.9542658043
 20
25.1965493821
 30
0.0
 10
15.9425142146
 20
25.2007057954
 30
0.0
 10
15.9179038744
 20
25.2069791338
 30
0.0
 10
15.8651177271
 20
25.2108857521
 30
0.0
 10
15.7934806026
 20
25.1980118285
 30
0.0
 10
15.7067675829
 20
25.1577607121
 30
0.0
 10
15.6517437451
 20
25.1181227843
 30
0.0
 10
15.6239886296
 20
25.0950940348
 30
0.0
 11
15.9542658043
 21
25.1965493821
 31
0.0
 11
15.9180404781
 21
25.2058287373
 31
0.0
 11
15.8798356384
 21
25.2087674253
 31
0.0
 11
15.7985166647
 21
25.1955863112
 31
0.0
 11
15.7124724179
 21
25.1573567592
 31
0.0
 11
15.6239886296
 21
25.0950940348
 31
0.0
  0
SPLINE
  5
3A6
100
AcDbEntity
  8
0
100
AcDbSpline
 62
7
  6
CONTINUOUS
 70
0
 71
3
 72
11
 73
7
 74
5
 42
0.0000001
 43
0.0000001
 44
0.0000000001
 12
0.1905344216
 22
0.3260137087
 32
0.0
 13
-0.1442892346
 23
0.3489540384
 33
0.0
 40
0.0
 40
0.0
 40
0.0
 40
0.0
 40
0.2224458446
 40
0.4624690827
 40
0.7222564573
 40
1.0
 40
1.0
 40
1.0
 40
1.0
 10
15.877886412
 20
18.3579496006
 30
0.0
 10
15.8920142755
 20
18.3821230656
 30
0.0
 10
15.9135542242
 20
18.4372168119
 30
0.0
 10
15.923342349
 20
18.5284461
 30
0.0
 10
15.9119254492
 20
18.6263388019
 30
0.0
 10
15.8912448797
 20
18.6912110489
 30
0.0
 10
15.877886412
 20
18.7235176259
 30
0.0
 11
15.877886412
 21
18.3579496006
 31
0.0
 11
15.9092021357
 21
18.4358912573
 31
0.0
 11
15.9198199404
 21
18.5259020293
 31
0.0
 11
15.9092021357
 21
18.6234236819
 31
0.0
 11
15.877886412
 21
18.7235176259
 31
0.0
  0
SPLINE
  5
3A7
100
AcDbEntity
  8
0
100
AcDbSpline
 62
253
  6
CONTINUOUS
 70
0
 71
3
 72
10
 73
6
 74
4
 42
0.0000001
 43
0.0000001
 44
0.0000000001
 12
0.0004847668
 22
-0.1290606881
 32
0.0
 13
-0.0979195992
 23
-0.0840752538
 33
0.0
 40
0.0
 40
0.0
 40
0.0
 40
0.0
 40
0.5224466962
 40
0.764645486
 40
1.0
 40
1.0
 40
1.0
 40
1.0
 10
21.063913538
 20
-22.554848178
 30
0.0
 10
21.0639979596
 20
-22.5773239547
 30
0.0
 10
21.0586222391
 20
-22.6109519402
 30
0.0
 10
21.0379634226
 20
-22.6490468628
 30
0.0
 10
21.0239877933
 20
-22.6644447746
 30
0.0
 10
21.0163058534
 20
-22.6710406047
 30
0.0
 11
21.063913538
 21
-22.554848178
 31
0.0
 11
21.0517871323
 21
-22.6211765978
 31
0.0
 11
21.0367648793
 21
-22.6485888154
 31
0.0
 11
21.0163058534
 21
-22.6710406047
 31
0.0
  0
SPLINE
  5
3A8
100
AcDbEntity
  8
0
100
AcDbSpline
 62
7
  6
CONTINUOUS
 70
0
 71
3
 72
10
 73
6
 74
4
 42
0.0000001
 43
0.0000001
 44
0.0000000001
 12
0.0
 22
-0.1294181452
 32
0.0
 13
-0.0981933937
 23
-0.0843036995
 33
0.0
 40
0.0
 40
0.0
 40
0.0
 40
0.0
 40
0.522761047
 40
0.7649342256
 40
1.0
 40
1.0
 40
1.0
 40
1.0
 10
20.6583086493
 20
-22.9030554228
 30
0.0
 10
20.6583086493
 20
-22.9256070112
 30
0.0
 10
20.6528252716
 20
-22.9593127956
 30
0.0
 10
20.6320765229
 20
-22.9974915322
 30
0.0
 10
20.618071209
 20
-23.0129201263
 30
0.0
 10
20.6103772403
 20
-23.0195257645
 30
0.0
 11
20.6583086493
 21
-22.9030554228
 31
0.0
 11
20.6459622153
 21
-22.969574088
 31
0.0
 11
20.6308724709
 21
-22.9970439939
 31
0.0
 11
20.6103772403
 21
-23.0195257645
 31
0.0
  0
SPLINE
  5
3A9
100
AcDbEntity
  8
0
100
AcDbSpline
 62
253
  6
CONTINUOUS
 70
0
 71
3
 72
10
 73
6
 74
4
 42
0.0000001
 43
0.0000001
 44
0.0000000001
 12
-0.0005037554
 22
-0.1325718611
 32
0.0
 13
-0.1025511901
 23
-0.084016698
 33
0.0
 40
0.0
 40
0.0
 40
0.0
 40
0.0
 40
0.5231459547
 40
0.7651225118
 40
1.0
 40
1.0
 40
1.0
 40
1.0
 10
19.4210932872
 20
-23.9165875621
 30
0.0
 10
19.4210054413
 20
-23.9397057064
 30
0.0
 10
19.4151586655
 20
-23.9742543536
 30
0.0
 10
19.3933396098
 20
-24.0130715149
 30
0.0
 10
19.3786799923
 20
-24.0285795555
 30
0.0
 10
19.3706510036
 20
-24.0351574325
 30
0.0
 11
19.4210932872
 21
-23.9165875621
 31
0.0
 11
19.4079388559
 21
-23.9846835807
 31
0.0
 11
19.3920890273
 21
-24.0125740479
 31
0.0
 11
19.3706510036
 21
-24.0351574325
 31
0.0
  0
SPLINE
  5
3AA
100
AcDbEntity
  8
RACCORDO
100
AcDbSpline
 62
7
  6
CONTINUOUS
 70
0
 71
3
 72
11
 73
7
 74
5
 42
0.0000001
 43
0.0000001
 44
0.0000000001
 12
-0.0000112515
 22
-0.0683856408
 32
0.0
 13
-0.0519795033
 23
-0.0444379031
 33
0.0
 40
0.0
 40
0.0
 40
0.0
 40
0.0
 40
0.227001347
 40
0.4642850746
 40
0.7201814492
 40
1.0
 40
1.0
 40
1.0
 40
1.0
 10
24.6480525892
 20
-13.7709087741
 30
0.0
 10
24.6480517379
 20
-13.7760833183
 30
0.0
 10
24.6466325445
 20
-13.7867128376
 30
0.0
 10
24.6404041368
 20
-13.8020615179
 30
0.0
 10
24.6303048221
 20
-13.8166448333
 30
0.0
 10
24.6215793634
 20
-13.8252828249
 30
0.0
 10
24.616731087
 20
-13.8294276748
 30
0.0
 11
24.6480525892
 21
-13.7709087741
 31
0.0
 11
24.6460433735
 21
-13.7863018318
 31
0.0
 11
24.6400608737
 21
-13.8013855559
 31
0.0
 11
24.6302234801
 21
-13.8158583929
 31
0.0
 11
24.616731087
 21
-13.8294276748
 31
0.0
  0
SPLINE
  5
3AB
100
AcDbEntity
  8
0
100
AcDbSpline
 62
7
  6
CONTINUOUS
 70
0
 71
3
 72
11
 73
7
 74
5
 42
0.0000001
 43
0.0000001
 44
0.0000000001
 12
0.0
 22
-0.2408738563
 32
0.0
 13
-0.1701652074
 23
-0.17048172
 33
0.0
 40
0.0
 40
0.0
 40
0.0
 40
0.0
 40
0.2689848574
 40
0.5233167107
 40
0.7655708663
 40
1.0
 40
1.0
 40
1.0
 40
1.0
 10
21.4962472648
 20
-21.2283569006
 30
0.0
 10
21.4962472648
 20
-21.2499540406
 30
0.0
 10
21.4930089576
 20
-21.2920760124
 30
0.0
 10
21.4774428494
 20
-21.3519086313
 30
0.0
 10
21.4515865907
 20
-21.4050528585
 30
0.0
 10
21.4275786565
 20
-21.4353398176
 30
0.0
 10
21.4142814291
 20
-21.4486617782
 30
0.0
 11
21.4962472648
 21
-21.2283569006
 31
0.0
 11
21.4909626715
 21
-21.2929324468
 31
0.0
 11
21.4752384894
 21
-21.3521419882
 31
0.0
 11
21.4494638002
 21
-21.4044937039
 31
0.0
 11
21.4142814291
 21
-21.4486617782
 31
0.0
  0
SPLINE
  5
3AC
100
AcDbEntity
  8
0
100
AcDbSpline
 62
7
  6
CONTINUOUS
 70
0
 71
3
 72
13
 73
9
 74
7
 42
0.0000001
 43
0.0000001
 44
0.0000000001
 12
0.7016806662
 22
-0.2481793468
 32
0.0
 13
0.0
 23
-0.7442773311
 33
0.0
 40
0.0
 40
0.0
 40
0.0
 40
0.0
 40
0.1205801789
 40
0.2469823667
 40
0.5081534796
 40
0.6386005712
 40
0.7654694587
 40
1.0
 40
1.0
 40
1.0
 40
1.0
 10
21.0776231916
 20
16.072621617
 30
0.0
 10
21.1058261184
 20
16.062646447
 30
0.0
 10
21.1618240937
 20
16.036925822
 30
0.0
 10
21.2672102663
 20
15.9671249337
 30
0.0
 10
21.3581376287
 20
15.8735031918
 30
0.0
 10
21.4273827854
 20
15.7646624893
 30
0.0
 10
21.4777407832
 20
15.6533077205
 30
0.0
 10
21.4962472648
 20
15.5632153675
 30
0.0
 10
21.4962472648
 20
15.5050301124
 30
0.0
 11
21.0776231916
 21
16.072621617
 31
0.0
 11
21.1593656591
 21
16.0355763628
 31
0.0
 11
21.2379469892
 21
15.9838492144
 31
0.0
 11
21.3737721914
 21
15.8447932818
 31
0.0
 11
21.4257995902
 21
15.7628214121
 31
0.0
 11
21.4644384673
 21
15.6766631967
 31
0.0
 11
21.4962472648
 21
15.5050301124
 31
0.0
  0
SPLINE
  5
3AD
100
AcDbEntity
  8
0
100
AcDbSpline
 62
253
  6
CONTINUOUS
 70
0
 71
3
 72
11
 73
7
 74
5
 42
0.0000001
 43
0.0000001
 44
0.0000000001
 12
-0.0848874758
 22
0.0300217387
 32
0.0
 13
-0.0692938437
 23
-0.0574939264
 33
0.0
 40
0.0
 40
0.0
 40
0.0
 40
0.0
 40
0.2094265291
 40
0.4381646635
 40
0.6995855617
 40
1.0
 40
1.0
 40
1.0
 40
1.0
 10
6.3439518564
 20
23.5839236194
 30
0.0
 10
6.3380259599
 20
23.5860194022
 30
0.0
 10
6.3247125178
 20
23.5880859309
 30
0.0
 10
6.3037698913
 20
23.5842826414
 30
0.0
 10
6.2820713695
 20
23.574229901
 30
0.0
 10
6.268320519
 20
23.5643177056
 30
0.0
 10
6.261381562
 20
23.5585603704
 30
0.0
 11
6.3439518564
 21
23.5839236194
 31
0.0
 11
6.3253442168
 21
23.5869785727
 31
0.0
 11
6.3050139801
 21
23.5836833087
 31
0.0
 11
6.2835030795
 21
23.5741264478
 31
0.0
 11
6.261381562
 21
23.5585603704
 31
0.0
  0
SPLINE
  5
3AE
100
AcDbEntity
  8
0
100
AcDbSpline
 62
253
  6
CONTINUOUS
 70
0
 71
3
 72
11
 73
7
 74
5
 42
0.0000001
 43
0.0000001
 44
0.0000000001
 12
-0.0848874758
 22
0.0300217387
 32
0.0
 13
-0.0692938437
 23
-0.0574939264
 33
0.0
 40
0.0
 40
0.0
 40
0.0
 40
0.0
 40
0.2094265291
 40
0.4381646635
 40
0.6995855617
 40
1.0
 40
1.0
 40
1.0
 40
1.0
 10
4.3384684539
 20
24.2932485088
 30
0.0
 10
4.3325425574
 20
24.2953442916
 30
0.0
 10
4.3192291152
 20
24.2974108202
 30
0.0
 10
4.2982864888
 20
24.2936075308
 30
0.0
 10
4.2765879669
 20
24.2835547903
 30
0.0
 10
4.2628371165
 20
24.273642595
 30
0.0
 10
4.2558981594
 20
24.2678852598
 30
0.0
 11
4.3384684539
 21
24.2932485088
 31
0.0
 11
4.3198608142
 21
24.2963034621
 31
0.0
 11
4.2995305775
 21
24.2930081981
 31
0.0
 11
4.278019677
 21
24.2834513371
 31
0.0
 11
4.2558981594
 21
24.2678852598
 31
0.0
  0
SPLINE
  5
3AF
100
AcDbEntity
  8
0
100
AcDbSpline
 62
253
  6
CONTINUOUS
 70
0
 71
3
 72
11
 73
7
 74
5
 42
0.0000001
 43
0.0000001
 44
0.0000000001
 12
-0.0848874758
 22
0.0300217387
 32
0.0
 13
-0.0692938437
 23
-0.0574939264
 33
0.0
 40
0.0
 40
0.0
 40
0.0
 40
0.0
 40
0.2094265291
 40
0.4381646635
 40
0.6995855617
 40
1.0
 40
1.0
 40
1.0
 40
1.0
 10
20.9368197387
 20
18.4225324142
 30
0.0
 10
20.9308938422
 20
18.424628197
 30
0.0
 10
20.9175804
 20
18.4266947256
 30
0.0
 10
20.8966377736
 20
18.4228914362
 30
0.0
 10
20.8749392517
 20
18.4128386957
 30
0.0
 10
20.8611884012
 20
18.4029265004
 30
0.0
 10
20.8542494442
 20
18.3971691652
 30
0.0
 11
20.9368197387
 21
18.4225324142
 31
0.0
 11
20.918212099
 21
18.4255873675
 31
0.0
 11
20.8978818623
 21
18.4222921035
 31
0.0
 11
20.8763709617
 21
18.4127352425
 31
0.0
 11
20.8542494442
 21
18.3971691652
 31
0.0
  0
SPLINE
  5
3B0
100
AcDbEntity
  8
0
100
AcDbSpline
 62
253
  6
CONTINUOUS
 70
0
 71
3
 72
11
 73
7
 74
5
 42
0.0000001
 43
0.0000001
 44
0.0000000001
 12
-0.0848874795
 22
0.0300217092
 32
0.0
 13
-0.0692938388
 23
-0.0574939224
 33
0.0
 40
0.0
 40
0.0
 40
0.0
 40
0.0
 40
0.2094266507
 40
0.4381649014
 40
0.6995859862
 40
1.0
 40
1.0
 40
1.0
 40
1.0
 10
18.9313363307
 20
19.1318573058
 30
0.0
 10
18.9254104305
 20
19.1339530878
 30
0.0
 10
18.9120969818
 20
19.1360196146
 30
0.0
 10
18.8911543447
 20
19.1322163181
 30
0.0
 10
18.8694558317
 20
19.1221635714
 30
0.0
 10
18.8557049884
 20
19.1122513812
 30
0.0
 10
18.8487660417
 20
19.1064940546
 30
0.0
 11
18.9313363307
 21
19.1318573058
 31
0.0
 11
18.9127286808
 21
19.134912256
 31
0.0
 11
18.892398436
 21
19.1316169854
 31
0.0
 11
18.8708875248
 21
19.1220601111
 31
0.0
 11
18.8487660417
 21
19.1064940546
 31
0.0
  0
SPLINE
  5
3B1
100
AcDbEntity
  8
0
100
AcDbSpline
 62
7
  6
CONTINUOUS
 70
0
 71
3
 72
13
 73
9
 74
7
 42
0.0000001
 43
0.0000001
 44
0.0000000001
 12
0.0
 22
0.7451057347
 32
0.0
 13
-0.7024616584
 23
0.2484555781
 33
0.0
 40
0.0
 40
0.0
 40
0.0
 40
0.0
 40
0.2346088404
 40
0.3615330761
 40
0.4920229596
 40
0.6236420176
 40
0.753844025
 40
1.0
 40
1.0
 40
1.0
 40
1.0
 10
21.4973451656
 20
15.5048479172
 30
0.0
 10
21.4973451656
 20
15.5631173813
 30
0.0
 10
21.4787343352
 20
15.6533503176
 30
0.0
 10
21.4281892336
 20
15.7647876573
 30
0.0
 10
21.3760293089
 20
15.8465529612
 30
0.0
 10
21.3126009328
 20
15.9209607672
 30
0.0
 10
21.2182363609
 20
16.004997999
 30
0.0
 10
21.1352615698
 20
16.052235342
 30
0.0
 10
21.0776231916
 20
16.072621617
 30
0.0
 11
21.4973451656
 21
15.5048479172
 31
0.0
 11
21.4653882364
 21
15.6767104458
 31
0.0
 11
21.4265937623
 21
15.7629591988
 31
0.0
 11
21.3743875026
 21
15.8449832094
 31
0.0
 11
21.3107781191
 21
15.9196263188
 31
0.0
 11
21.2382134784
 21
15.9840168462
 31
0.0
 11
21.0776231916
 21
16.072621617
 31
0.0
  0
SPLINE
  5
3B2
100
AcDbEntity
  8
0
100
AcDbSpline
 62
253
  6
CONTINUOUS
 70
0
 71
3
 72
11
 73
7
 74
5
 42
0.0000001
 43
0.0000001
 44
0.0000000001
 12
0.0000006656
 22
-0.0860043957
 32
0.0
 13
-0.0655479459
 23
-0.055679645
 33
0.0
 40
0.0
 40
0.0
 40
0.0
 40
0.0
 40
0.2268182149
 40
0.4640143068
 40
0.7199518219
 40
1.0
 40
1.0
 40
1.0
 40
1.0
 10
6.5105894201
 20
23.0116777689
 30
0.0
 10
6.5105894704
 20
23.0051753144
 30
0.0
 10
6.5087975064
 20
22.9918141601
 30
0.0
 10
6.5009301161
 20
22.9725305207
 30
0.0
 10
6.4881774097
 20
22.9542182304
 30
0.0
 10
6.4771645166
 20
22.9433831105
 30
0.0
 10
6.4710456557
 20
22.9381854495
 30
0.0
 11
6.5105894201
 21
23.0116777689
 31
0.0
 11
6.5080541815
 21
22.9923358508
 31
0.0
 11
6.500499871
 21
22.973386218
 31
0.0
 11
6.4880797368
 21
22.9552132309
 31
0.0
 11
6.4710456557
 21
22.9381854495
 31
0.0
  0
SPLINE
  5
3B3
100
AcDbEntity
  8
0
100
AcDbSpline
 62
253
  6
CONTINUOUS
 70
0
 71
3
 72
11
 73
7
 74
5
 42
0.0000001
 43
0.0000001
 44
0.0000000001
 12
0.0000006294
 22
-0.086004396
 32
0.0
 13
-0.0655479461
 23
-0.0556796452
 33
0.0
 40
0.0
 40
0.0
 40
0.0
 40
0.0
 40
0.2268181367
 40
0.4640141428
 40
0.7199516412
 40
1.0
 40
1.0
 40
1.0
 40
1.0
 10
6.5105894203
 20
23.3482319317
 30
0.0
 10
6.5105894679
 20
23.3417294795
 30
0.0
 10
6.5087975084
 20
23.3283683301
 30
0.0
 10
6.5009301227
 20
23.3090846938
 30
0.0
 10
6.4881774155
 20
23.2907724013
 30
0.0
 10
6.4771645206
 20
23.2799372765
 30
0.0
 10
6.4710456557
 20
23.2747396121
 30
0.0
 11
6.5105894203
 21
23.3482319317
 31
0.0
 11
6.5080541831
 21
23.3288900202
 31
0.0
 11
6.5004998783
 21
23.309940393
 31
0.0
 11
6.4880797463
 21
23.291767406
 31
0.0
 11
6.4710456557
 21
23.2747396121
 31
0.0
  0
SPLINE
  5
3B4
100
AcDbEntity
  8
0
100
AcDbSpline
 62
253
  6
CONTINUOUS
 70
0
 71
3
 72
13
 73
9
 74
7
 42
0.0000001
 43
0.0000001
 44
0.0000000001
 12
0.0
 22
-0.1401936228
 32
0.0
 13
0.1321711739
 23
-0.0467443332
 33
0.0
 40
0.0
 40
0.0
 40
0.0
 40
0.0
 40
0.3179304692
 40
0.586716024
 40
0.7030780481
 40
0.8088737212
 40
0.9066332759
 40
1.0
 40
1.0
 40
1.0
 40
1.0
 10
19.0760615756
 20
-23.9559597344
 30
0.0
 10
19.0760615756
 20
-23.9708170092
 30
0.0
 10
19.0778989073
 20
-23.9982887676
 30
0.0
 10
19.0863524446
 20
-24.0304017991
 30
0.0
 10
19.0969305879
 20
-24.0508642517
 30
0.0
 10
19.1060581298
 20
-24.062822124
 30
0.0
 10
19.1166736273
 20
-24.0719318161
 30
0.0
 10
19.1247454358
 20
-24.0760034518
 30
0.0
 10
19.128858899
 20
-24.0774582402
 30
0.0
 11
19.0760615756
 21
-23.9559597344
 31
0.0
 11
19.0795847364
 21
-24.0003920972
 31
0.0
 11
19.0899714349
 21
-24.0366143442
 31
0.0
 11
19.0975839419
 21
-24.0510424653
 31
0.0
 11
19.1066844557
 21
-24.0627542233
 31
0.0
 11
19.1171547521
 21
-24.0715977074
 31
0.0
 11
19.128858899
 21
-24.0774582402
 31
0.0
  0
SPLINE
  5
3B5
100
AcDbEntity
  8
0
100
AcDbSpline
 62
253
  6
CONTINUOUS
 70
0
 71
3
 72
12
 73
8
 74
6
 42
0.0000001
 43
0.0000001
 44
0.0000000001
 12
-0.1611006753
 22
0.0569801368
 32
0.0
 13
-0.0000013224
 23
0.1708805535
 33
0.0
 40
0.0
 40
0.0
 40
0.0
 40
0.0
 40
0.3053528247
 40
0.5708749167
 40
0.7975418989
 40
0.900524156
 40
1.0
 40
1.0
 40
1.0
 40
1.0
 10
17.0852159009
 20
17.0725114554
 30
0.0
 10
17.0688183855
 20
17.0783111373
 30
0.0
 10
17.0389106959
 20
17.0916380803
 30
0.0
 10
17.0018674295
 20
17.1186145028
 30
0.0
 10
16.9809082444
 20
17.1462504568
 30
0.0
 10
16.9727222694
 20
17.1694662259
 30
0.0
 10
16.9713757045
 20
17.1810384752
 30
0.0
 10
16.9713756606
 20
17.1867046376
 30
0.0
 11
17.0852159009
 21
17.0725114554
 31
0.0
 11
17.0377945636
 21
17.0942795552
 31
0.0
 11
17.0016715408
 21
17.1217349118
 31
0.0
 11
16.9790680699
 21
17.1531884775
 31
0.0
 11
16.9733062329
 21
17.1698161368
 31
0.0
 11
16.9713756606
 21
17.1867046376
 31
0.0
  0
SPLINE
  5
3B6
100
AcDbEntity
  8
0
100
AcDbSpline
 62
253
  6
CONTINUOUS
 70
0
 71
3
 72
12
 73
8
 74
6
 42
0.0000001
 43
0.0000001
 44
0.0000000001
 12
-0.1610899557
 22
0.0569763454
 32
0.0
 13
-0.0000279344
 23
0.1708691809
 33
0.0
 40
0.0
 40
0.0
 40
0.0
 40
0.0
 40
0.3053488971
 40
0.5708714279
 40
0.7975416489
 40
0.9005248381
 40
1.0
 40
1.0
 40
1.0
 40
1.0
 10
17.0852159009
 20
17.401746754
 30
0.0
 10
17.0688196875
 20
17.4075459754
 30
0.0
 10
17.038914124
 20
17.4208717513
 30
0.0
 10
17.0018726803
 20
17.4478453046
 30
0.0
 10
16.9809129549
 20
17.4754779954
 30
0.0
 10
16.9727247521
 20
17.4986913976
 30
0.0
 10
16.9713765879
 20
17.510262669
 30
0.0
 10
16.9713756617
 20
17.5159284155
 30
0.0
 11
17.0852159009
 21
17.401746754
 31
0.0
 11
17.0377981519
 21
17.4235127397
 31
0.0
 11
17.0016765869
 21
17.450965149
 31
0.0
 11
16.9790719747
 21
17.4824154021
 31
0.0
 11
16.9733085286
 21
17.4990414329
 31
0.0
 11
16.9713756617
 21
17.5159284155
 31
0.0
  0
SPLINE
  5
3B7
100
AcDbEntity
  8
0
100
AcDbSpline
 62
253
  6
CONTINUOUS
 70
0
 71
3
 72
13
 73
9
 74
7
 42
0.0000001
 43
0.0000001
 44
0.0000000001
 12
0.339107844
 22
-0.1199399774
 32
0.0
 13
0.2770384953
 23
0.2294109854
 33
0.0
 40
0.0
 40
0.0
 40
0.0
 40
0.0
 40
0.2567678582
 40
0.5269545697
 40
0.6583454567
 40
0.7826384147
 40
0.8971108139
 40
1.0
 40
1.0
 40
1.0
 40
1.0
 10
19.0760615756
 20
16.6975991225
 30
0.0
 10
19.1050855738
 20
16.6873335455
 30
0.0
 10
19.1676408111
 20
16.6744881463
 30
0.0
 10
19.2471456748
 20
16.6749290506
 30
0.0
 10
19.3094381604
 20
16.6854185409
 30
0.0
 10
19.3521475572
 20
16.6979290737
 30
0.0
 10
19.3896773515
 20
16.7146679556
 30
0.0
 10
19.4115918654
 20
16.729103325
 30
0.0
 10
19.4210932872
 20
16.7369712948
 30
0.0
 11
19.0760615756
 21
16.6975991225
 31
0.0
 11
19.1663048058
 21
16.6779489233
 31
0.0
 11
19.2634876125
 21
16.6785263119
 31
0.0
 11
19.3100714082
 21
16.6864953358
 31
0.0
 11
19.3529225525
 21
16.6992441842
 31
0.0
 11
19.3904055514
 21
16.7162855374
 31
0.0
 11
19.4210932872
 21
16.7369712948
 31
0.0
  0
SPLINE
  5
3B8
100
AcDbEntity
  8
0
100
AcDbSpline
 62
253
  6
CONTINUOUS
 70
0
 71
3
 72
11
 73
7
 74
5
 42
0.0000001
 43
0.0000001
 44
0.0000000001
 12
0.0000006656
 22
-0.0860043957
 32
0.0
 13
-0.0655479459
 23
-0.055679645
 33
0.0
 40
0.0
 40
0.0
 40
0.0
 40
0.0
 40
0.2268182149
 40
0.4640143068
 40
0.7199518219
 40
1.0
 40
1.0
 40
1.0
 40
1.0
 10
21.1034573024
 20
17.8502865636
 30
0.0
 10
21.1034573527
 20
17.8437841091
 30
0.0
 10
21.1016653886
 20
17.8304229549
 30
0.0
 10
21.0937979983
 20
17.8111393155
 30
0.0
 10
21.0810452919
 20
17.7928270251
 30
0.0
 10
21.0700323989
 20
17.7819919053
 30
0.0
 10
21.063913538
 20
17.7767942443
 30
0.0
 11
21.1034573024
 21
17.8502865636
 31
0.0
 11
21.1009220637
 21
17.8309446455
 31
0.0
 11
21.0933677533
 21
17.8119950128
 31
0.0
 11
21.080947619
 21
17.7938220257
 31
0.0
 11
21.063913538
 21
17.7767942443
 31
0.0
  0
SPLINE
  5
3B9
100
AcDbEntity
  8
0
100
AcDbSpline
 62
253
  6
CONTINUOUS
 70
0
 71
3
 72
13
 73
9
 74
7
 42
0.0000001
 43
0.0000001
 44
0.0000000001
 12
0.3391078437
 22
-0.1199399773
 32
0.0
 13
0.277038495
 23
0.2294109851
 33
0.0
 40
0.0
 40
0.0
 40
0.0
 40
0.0
 40
0.2567680275
 40
0.5269546908
 40
0.6583455447
 40
0.7826384694
 40
0.8971108397
 40
1.0
 40
1.0
 40
1.0
 40
1.0
 10
19.0760615756
 20
16.3683638239
 30
0.0
 10
19.1050855929
 20
16.3580982401
 30
0.0
 10
19.1676408467
 20
16.345252845
 30
0.0
 10
19.2471457206
 20
16.3456937554
 30
0.0
 10
19.3094381912
 20
16.3561832504
 30
0.0
 10
19.3521475765
 20
16.3686937818
 30
0.0
 10
19.3896773597
 20
16.3854326623
 30
0.0
 10
19.4115918678
 20
16.3998680283
 30
0.0
 10
19.4210932872
 20
16.4077359962
 30
0.0
 11
19.0760615756
 21
16.3683638239
 31
0.0
 11
19.1663048668
 21
16.3487136194
 31
0.0
 11
19.263487656
 21
16.3492910182
 31
0.0
 11
19.3100714392
 21
16.3572600446
 31
0.0
 11
19.3529225712
 21
16.3700088921
 31
0.0
 11
19.3904055596
 21
16.3870502433
 31
0.0
 11
19.4210932872
 21
16.4077359962
 31
0.0
  0
SPLINE
  5
3BA
100
AcDbEntity
  8
0
100
AcDbSpline
 62
253
  6
CONTINUOUS
 70
0
 71
3
 72
11
 73
7
 74
5
 42
0.0000001
 43
0.0000001
 44
0.0000000001
 12
0.0000006294
 22
-0.086004396
 32
0.0
 13
-0.0655479461
 23
-0.0556796452
 33
0.0
 40
0.0
 40
0.0
 40
0.0
 40
0.0
 40
0.2268181367
 40
0.4640141428
 40
0.7199516412
 40
1.0
 40
1.0
 40
1.0
 40
1.0
 10
21.1034573025
 20
18.1868407265
 30
0.0
 10
21.1034573501
 20
18.1803382742
 30
0.0
 10
21.1016653906
 20
18.1669771249
 30
0.0
 10
21.0937980049
 20
18.1476934885
 30
0.0
 10
21.0810452978
 20
18.1293811961
 30
0.0
 10
21.0700324029
 20
18.1185460712
 30
0.0
 10
21.063913538
 20
18.1133484068
 30
0.0
 11
21.1034573025
 21
18.1868407265
 31
0.0
 11
21.1009220653
 21
18.1674988149
 31
0.0
 11
21.0933677606
 21
18.1485491878
 31
0.0
 11
21.0809476285
 21
18.1303762008
 31
0.0
 11
21.063913538
 21
18.1133484068
 31
0.0
  0
SPLINE
  5
3BB
100
AcDbEntity
  8
0
100
AcDbSpline
 62
253
  6
CONTINUOUS
 70
0
 71
3
 72
13
 73
9
 74
7
 42
0.0000001
 43
0.0000001
 44
0.0000000001
 12
0.3391078433
 22
-0.1199399771
 32
0.0
 13
0.2770384947
 23
0.2294109849
 33
0.0
 40
0.0
 40
0.0
 40
0.0
 40
0.0
 40
0.2567680909
 40
0.5269548165
 40
0.6583456912
 40
0.7826386281
 40
0.8971110165
 40
1.0
 40
1.0
 40
1.0
 40
1.0
 10
4.4831936933
 20
21.8589903277
 30
0.0
 10
4.5122177178
 20
21.8487247414
 30
0.0
 10
4.5747729871
 20
21.8358793459
 30
0.0
 10
4.6542778791
 20
21.8363202607
 30
0.0
 10
4.7165703593
 20
21.8468097668
 30
0.0
 10
4.75927975
 20
21.8593203024
 30
0.0
 10
4.7968095111
 20
21.8760591898
 30
0.0
 10
4.8187240019
 20
21.8904945457
 30
0.0
 10
4.8282254049
 20
21.8983625001
 30
0.0
 11
4.4831936933
 21
21.8589903277
 31
0.0
 11
4.5734370074
 21
21.8393401212
 31
0.0
 11
4.6706198188
 21
21.8399175273
 31
0.0
 11
4.7172036084
 21
21.8478865608
 31
0.0
 11
4.7600547429
 21
21.8606354149
 31
0.0
 11
4.7975377322
 21
21.8776767796
 31
0.0
 11
4.8282254049
 21
21.8983625001
 31
0.0
  0
SPLINE
  5
3BC
100
AcDbEntity
  8
0
100
AcDbSpline
 62
253
  6
CONTINUOUS
 70
0
 71
3
 72
13
 73
9
 74
7
 42
0.0000001
 43
0.0000001
 44
0.0000000001
 12
0.3391078435
 22
-0.1199399772
 32
0.0
 13
0.2770384948
 23
0.229410985
 33
0.0
 40
0.0
 40
0.0
 40
0.0
 40
0.0
 40
0.2567680607
 40
0.5269547613
 40
0.6583456288
 40
0.7826385605
 40
0.8971109351
 40
1.0
 40
1.0
 40
1.0
 40
1.0
 10
4.4831936933
 20
21.5297550291
 30
0.0
 10
4.5122177144
 20
21.519489444
 30
0.0
 10
4.5747729769
 20
21.5066440486
 30
0.0
 10
4.6542778612
 20
21.5070849614
 30
0.0
 10
4.7165703377
 20
21.5175744628
 30
0.0
 10
4.7592797255
 20
21.5300849965
 30
0.0
 10
4.7968094962
 20
21.5468238806
 30
0.0
 10
4.8187239944
 20
21.5612592409
 30
0.0
 10
4.8282254049
 20
21.5691272015
 30
0.0
 11
4.4831936933
 21
21.5297550291
 31
0.0
 11
4.5734369965
 21
21.5101048236
 31
0.0
 11
4.6706197991
 21
21.5106822264
 31
0.0
 11
4.7172035865
 21
21.5186512569
 31
0.0
 11
4.76005472
 21
21.5314001082
 31
0.0
 11
4.797537707
 21
21.548441466
 31
0.0
 11
4.8282254049
 21
21.5691272015
 31
0.0
  0
SPLINE
  5
3BD
100
AcDbEntity
  8
0
100
AcDbSpline
 62
253
  6
CONTINUOUS
 70
0
 71
3
 72
12
 73
8
 74
6
 42
0.0000001
 43
0.0000001
 44
0.0000000001
 12
-0.1610941251
 22
0.0569778201
 32
0.0
 13
-0.0000175283
 23
0.1708736048
 33
0.0
 40
0.0
 40
0.0
 40
0.0
 40
0.0
 40
0.3053503703
 40
0.5708727567
 40
0.7975417324
 40
0.9005245657
 40
1.0
 40
1.0
 40
1.0
 40
1.0
 10
2.4923480187
 20
22.2339026606
 30
0.0
 10
2.4759513018
 20
22.2397020601
 30
0.0
 10
2.4460449127
 20
22.2530282891
 30
0.0
 10
2.4090027597
 20
22.280002956
 30
0.0
 10
2.3880432413
 20
22.307636918
 30
0.0
 10
2.3798559059
 20
22.3308512423
 30
0.0
 10
2.3785083599
 20
22.3424228947
 30
0.0
 10
2.3785077787
 20
22.3480888034
 30
0.0
 11
2.4923480187
 21
22.2339026606
 31
0.0
 11
2.4449288821
 21
22.255669464
 31
0.0
 11
2.4088067453
 21
22.2831230208
 31
0.0
 11
2.3862025749
 21
22.3145745639
 31
0.0
 11
2.380439754
 21
22.3312012291
 31
0.0
 11
2.3785077787
 21
22.3480888034
 31
0.0
  0
SPLINE
  5
3BE
100
AcDbEntity
  8
0
100
AcDbSpline
 62
253
  6
CONTINUOUS
 70
0
 71
3
 72
12
 73
8
 74
6
 42
0.0000001
 43
0.0000001
 44
0.0000000001
 12
-0.1610899557
 22
0.0569763454
 32
0.0
 13
-0.0000279344
 23
0.1708691809
 33
0.0
 40
0.0
 40
0.0
 40
0.0
 40
0.0
 40
0.3053488971
 40
0.5708714279
 40
0.7975416489
 40
0.9005248381
 40
1.0
 40
1.0
 40
1.0
 40
1.0
 10
2.4923480187
 20
22.5631379592
 30
0.0
 10
2.4759518052
 20
22.5689371807
 30
0.0
 10
2.4460462417
 20
22.5822629566
 30
0.0
 10
2.409004798
 20
22.6092365098
 30
0.0
 10
2.3880450727
 20
22.6368692007
 30
0.0
 10
2.3798568699
 20
22.6600826029
 30
0.0
 10
2.3785087057
 20
22.6716538743
 30
0.0
 10
2.3785077794
 20
22.6773196207
 30
0.0
 11
2.4923480187
 21
22.5631379592
 31
0.0
 11
2.4449302697
 21
22.584903945
 31
0.0
 11
2.4088087046
 21
22.6123563542
 31
0.0
 11
2.3862040924
 21
22.6438066073
 31
0.0
 11
2.3804406463
 21
22.6604326381
 31
0.0
 11
2.3785077794
 21
22.6773196207
 31
0.0
  0
SPLINE
  5
3BF
100
AcDbEntity
  8
0
100
AcDbSpline
 62
7
  6
CONTINUOUS
 70
0
 71
3
 72
11
 73
7
 74
5
 42
0.0000001
 43
0.0000001
 44
0.0000000001
 12
0.0000031874
 22
-0.1679272902
 32
0.0
 13
-0.1265909387
 23
-0.1103372513
 33
0.0
 40
0.0
 40
0.0
 40
0.0
 40
0.0
 40
0.2275505249
 40
0.4651135994
 40
0.7208158825
 40
1.0
 40
1.0
 40
1.0
 40
1.0
 10
25.2550740791
 20
-14.0743084236
 30
0.0
 10
25.2550743208
 20
-14.087045738
 30
0.0
 10
25.2516442797
 20
-14.1131919235
 30
0.0
 10
25.2365589461
 20
-14.1509951985
 30
0.0
 10
25.2120729198
 20
-14.1869776993
 30
0.0
 10
25.1908790702
 20
-14.2083535772
 30
0.0
 10
25.1790983437
 20
-14.2186217132
 30
0.0
 11
25.2550740791
 21
-14.0743084236
 31
0.0
 11
25.2502092608
 21
-14.112209428
 31
0.0
 11
25.2357062116
 21
-14.149373104
 31
0.0
 11
25.2118486713
 21
-14.1850747722
 31
0.0
 11
25.1790983437
 21
-14.2186217132
 31
0.0
  0
SPLINE
  5
3C0
100
AcDbEntity
  8
0
100
AcDbSpline
 62
7
  6
CONTINUOUS
 70
0
 71
3
 72
9
 73
5
 74
3
 42
0.0000001
 43
0.0000001
 44
0.0000000001
 12
0.0202252696
 22
0.0167811468
 32
0.0
 13
0.0214126095
 23
0.0152370789
 33
0.0
 40
0.0
 40
0.0
 40
0.0
 40
0.0
 40
0.2556788454
 40
1.0
 40
1.0
 40
1.0
 40
1.0
 10
12.2075543712
 20
24.0985541113
 30
0.0
 10
12.2092780958
 20
24.099984306
 30
0.0
 10
12.2160681035
 20
24.1055194442
 30
0.0
 10
12.2230544088
 20
24.1108150926
 30
0.0
 10
12.2283670282
 20
24.1145955193
 30
0.0
 11
12.2075543712
 21
24.0985541113
 31
0.0
 11
12.2127630507
 21
24.1027990856
 31
0.0
 11
12.2283670282
 21
24.1145955193
 31
0.0
  0
SPLINE
  5
3C1
100
AcDbEntity
  8
0
100
AcDbSpline
 62
253
  6
CONTINUOUS
 70
0
 71
3
 72
13
 73
9
 74
7
 42
0.0000001
 43
0.0000001
 44
0.0000000001
 12
0.0
 22
0.3589592699
 32
0.0
 13
0.2738252686
 23
0.2321023044
 33
0.0
 40
0.0
 40
0.0
 40
0.0
 40
0.0
 40
0.1198249703
 40
0.2487897153
 40
0.5189854055
 40
0.7789714406
 40
0.895849029
 40
1.0
 40
1.0
 40
1.0
 40
1.0
 10
17.0852159009
 20
17.401746754
 30
0.0
 10
17.0852159009
 20
17.416084182
 30
0.0
 10
17.0871680318
 20
17.4458690705
 30
0.0
 10
17.0976853666
 20
17.5071534787
 30
0.0
 10
17.1218252338
 20
17.5826781701
 30
0.0
 10
17.1578222034
 20
17.651818714
 30
0.0
 10
17.192460674
 20
17.6979215713
 30
0.0
 10
17.2110771296
 20
17.7168817912
 30
0.0
 10
17.2205835188
 20
17.7249396847
 30
0.0
 11
17.0852159009
 21
17.401746754
 31
0.0
 11
17.0878130166
 21
17.4446805583
 31
0.0
 11
17.0955048768
 21
17.4903301534
 31
0.0
 11
17.1248166307
 21
17.5827841163
 31
0.0
 11
17.1687213449
 21
17.6651359178
 31
0.0
 11
17.194132078
 21
17.698519408
 31
0.0
 11
17.2205835188
 21
17.7249396847
 31
0.0
  0
SPLINE
  5
3C2
100
AcDbEntity
  8
0
100
AcDbSpline
 62
253
  6
CONTINUOUS
 70
0
 71
3
 72
13
 73
9
 74
7
 42
0.0000001
 43
0.0000001
 44
0.0000000001
 12
0.0
 22
0.3589592701
 32
0.0
 13
0.2738252688
 23
0.2321023045
 33
0.0
 40
0.0
 40
0.0
 40
0.0
 40
0.0
 40
0.1198249393
 40
0.2487896525
 40
0.5189852781
 40
0.7789712783
 40
0.8958488491
 40
1.0
 40
1.0
 40
1.0
 40
1.0
 10
19.0760615756
 20
16.6975991225
 30
0.0
 10
19.0760615756
 20
16.7119365468
 30
0.0
 10
19.0780137055
 20
16.7417214278
 30
0.0
 10
19.088531035
 20
16.8030058214
 30
0.0
 10
19.1126708922
 20
16.8785304998
 30
0.0
 10
19.1486678522
 20
16.9476710317
 30
0.0
 10
19.183306319
 20
16.9937739108
 30
0.0
 10
19.2019227878
 20
17.0127341458
 30
0.0
 10
19.2114291934
 20
17.0207920532
 30
0.0
 11
19.0760615756
 21
16.6975991225
 31
0.0
 11
19.07865869
 21
16.7405329158
 31
0.0
 11
19.0863505463
 21
16.7861825
 31
0.0
 11
19.1156622876
 21
16.8786364426
 31
0.0
 11
19.1595669877
 21
16.9609882375
 31
0.0
 11
19.1849777092
 21
16.9943717285
 31
0.0
 11
19.2114291934
 21
17.0207920532
 31
0.0
  0
SPLINE
  5
3C3
100
AcDbEntity
  8
0
100
AcDbSpline
 62
253
  6
CONTINUOUS
 70
0
 71
3
 72
13
 73
9
 74
7
 42
0.0000001
 43
0.0000001
 44
0.0000000001
 12
0.0
 22
0.3589592699
 32
0.0
 13
0.2738252686
 23
0.2321023044
 33
0.0
 40
0.0
 40
0.0
 40
0.0
 40
0.0
 40
0.1198249703
 40
0.2487897153
 40
0.5189854055
 40
0.7789714406
 40
0.895849029
 40
1.0
 40
1.0
 40
1.0
 40
1.0
 10
2.4923480187
 20
22.5631379592
 30
0.0
 10
2.4923480187
 20
22.5774753872
 30
0.0
 10
2.4943001495
 20
22.6072602757
 30
0.0
 10
2.5048174843
 20
22.668544684
 30
0.0
 10
2.5289573516
 20
22.7440693753
 30
0.0
 10
2.5649543212
 20
22.8132099192
 30
0.0
 10
2.5995927917
 20
22.8593127765
 30
0.0
 10
2.6182092473
 20
22.8782729965
 30
0.0
 10
2.6277156365
 20
22.8863308899
 30
0.0
 11
2.4923480187
 21
22.5631379592
 31
0.0
 11
2.4949451343
 21
22.6060717635
 31
0.0
 11
2.5026369945
 21
22.6517213587
 31
0.0
 11
2.5319487485
 21
22.7441753215
 31
0.0
 11
2.5758534627
 21
22.826527123
 31
0.0
 11
2.6012641957
 21
22.8599106132
 31
0.0
 11
2.6277156365
 21
22.8863308899
 31
0.0
  0
SPLINE
  5
3C4
100
AcDbEntity
  8
0
100
AcDbSpline
 62
253
  6
CONTINUOUS
 70
0
 71
3
 72
13
 73
9
 74
7
 42
0.0000001
 43
0.0000001
 44
0.0000000001
 12
0.0
 22
0.3589592699
 32
0.0
 13
0.2738252686
 23
0.2321023044
 33
0.0
 40
0.0
 40
0.0
 40
0.0
 40
0.0
 40
0.1198249703
 40
0.2487897153
 40
0.5189854055
 40
0.7789714406
 40
0.895849029
 40
1.0
 40
1.0
 40
1.0
 40
1.0
 10
4.4831936933
 20
21.8589903277
 30
0.0
 10
4.4831936933
 20
21.8733277557
 30
0.0
 10
4.4851458242
 20
21.9031126442
 30
0.0
 10
4.4956631589
 20
21.9643970525
 30
0.0
 10
4.5198030262
 20
22.0399217438
 30
0.0
 10
4.5557999958
 20
22.1090622877
 30
0.0
 10
4.5904384664
 20
22.155165145
 30
0.0
 10
4.609054922
 20
22.174125365
 30
0.0
 10
4.6185613112
 20
22.1821832584
 30
0.0
 11
4.4831936933
 21
21.8589903277
 31
0.0
 11
4.485790809
 21
21.901924132
 31
0.0
 11
4.4934826691
 21
21.9475737272
 31
0.0
 11
4.5227944231
 21
22.04002769
 31
0.0
 11
4.5666991373
 21
22.1223794915
 31
0.0
 11
4.5921098703
 21
22.1557629817
 31
0.0
 11
4.6185613112
 21
22.1821832584
 31
0.0
  0
SPLINE
  5
3C5
100
AcDbEntity
  8
DRAFT
100
AcDbSpline
 62
7
  6
CONTINUOUS
 70
0
 71
3
 72
18
 73
14
 74
12
 42
0.0000001
 43
0.0000001
 44
0.0000000001
 12
7.6178994118
 22
-2.8068552923
 32
0.0
 13
-6.5877059596
 23
-4.7447822154
 33
0.0
 40
0.0
 40
0.0
 40
0.0
 40
0.0
 40
0.1314241348
 40
0.2711598054
 40
0.4134127098
 40
0.5518488343
 40
0.6809635161
 40
0.7409983879
 40
0.7977275571
 40
0.8513378148
 40
0.9023328662
 40
0.9515314922
 40
1.0
 40
1.0
 40
1.0
 40
1.0
 10
-10.570947528
 20
-4.3977330316
 30
0.0
 10
-10.2372222482
 20
-4.5206958744
 30
0.0
 10
-9.5803922567
 20
-4.8650599408
 30
0.0
 10
-8.7151371983
 20
-5.5850639525
 30
0.0
 10
-7.9930212483
 20
-6.4738513461
 30
0.0
 10
-7.4715278399
 20
-7.4607437026
 30
0.0
 10
-7.2325380111
 20
-8.324238047
 30
0.0
 10
-7.18546666
 20
-8.989926895
 30
0.0
 10
-7.2205473405
 20
-9.4515382534
 30
0.0
 10
-7.324989966
 20
-9.8777193326
 30
0.0
 10
-7.4974925689
 20
-10.2594019806
 30
0.0
 10
-7.7349105738
 20
-10.5876335595
 30
0.0
 10
-7.933488997
 20
-10.7656625321
 30
0.0
 10
-8.0399210894
 20
-10.8423200367
 30
0.0
 11
-10.570947528
 21
-4.3977330316
 31
0.0
 11
-9.621503626
 21
-4.8845472514
 31
0.0
 11
-8.7463978489
 21
-5.6064672649
 31
0.0
 11
-8.0185503234
 21
-6.5031289454
 31
0.0
 11
-7.4985604335
 21
-7.4995036595
 31
0.0
 11
-7.2295667554
 21
-8.512625331
 31
0.0
 11
-7.1970987605
 21
-8.9989387092
 31
0.0
 11
-7.2340654145
 21
-9.4580112564
 31
0.0
 11
-7.3397119505
 21
-9.8802321301
 31
0.0
 11
-7.5118476924
 21
-10.2567558118
 31
0.0
 11
-7.7468866881
 21
-10.5797018548
 31
0.0
 11
-8.0399210894
 21
-10.8423200367
 31
0.0
  0
SPLINE
  5
3C6
100
AcDbEntity
  8
DRAFT
100
AcDbSpline
 62
7
  6
CONTINUOUS
 70
0
 71
3
 72
13
 73
9
 74
7
 42
0.0000001
 43
0.0000001
 44
0.0000000001
 12
1.9873638561
 22
1.9331599739
 32
0.0
 13
2.5960804058
 23
-0.9731850325
 33
0.0
 40
0.0
 40
0.0
 40
0.0
 40
0.0
 40
0.1128025672
 40
0.2265337805
 40
0.3428607058
 40
0.4632113948
 40
0.7194083325
 40
1.0
 40
1.0
 40
1.0
 40
1.0
 10
-16.4856942089
 20
-3.4975938217
 30
0.0
 10
-16.4109676272
 20
-3.4249053524
 30
0.0
 10
-16.248123472
 20
-3.2914259597
 30
0.0
 10
-15.9712575062
 20
-3.1344193743
 30
0.0
 10
-15.665805164
 20
-3.0226327755
 30
0.0
 10
-15.2173973128
 20
-2.9339224668
 30
0.0
 10
-14.6025637793
 20
-2.9489859983
 30
0.0
 10
-14.1194732709
 20
-3.0793570227
 30
0.0
 10
-13.8766604276
 20
-3.1703795598
 30
0.0
 11
-16.4856942089
 21
-3.4975938217
 31
0.0
 11
-16.2438106657
 21
-3.299347935
 31
0.0
 11
-15.9697448277
 21
-3.1434183027
 31
0.0
 11
-15.6671355869
 21
-3.0318655335
 31
0.0
 11
-15.3399936564
 21
-2.9661779126
 31
0.0
 11
-14.6297480565
 21
-2.9753215293
 31
0.0
 11
-13.8766604276
 21
-3.1703795598
 31
0.0
  0
LINE
  5
3C7
100
AcDbEntity
  8
DRAFT
100
AcDbLine
 62
7
  6
CONTINUOUS
 10
-10.4524419736
 20
-11.0048506703
 11
-10.4741224886
 21
-10.9968978723
  0
LINE
  5
3C8
100
AcDbEntity
  8
DRAFT
100
AcDbLine
 62
7
  6
CONTINUOUS
 10
-13.0358885496
 20
-10.0514609811
 11
-13.3459251578
 21
-9.9362649874
  0
LINE
  5
3C9
100
AcDbEntity
  8
DRAFT
100
AcDbLine
 62
7
  6
CONTINUOUS
 10
-13.3459251578
 20
-9.9362649874
 11
-13.3954793025
 21
-9.9178372671
  0
LINE
  5
3CA
100
AcDbEntity
  8
DRAFT
100
AcDbLine
 62
7
  6
CONTINUOUS
 10
-13.3954793025
 20
-9.9178372671
 11
-13.7631897599
 21
-9.7809623692
  0
SPLINE
  5
3CB
100
AcDbEntity
  8
RACCORDO
100
AcDbSpline
 62
253
  6
CONTINUOUS
 70
0
 71
3
 72
10
 73
6
 74
4
 42
0.0000001
 43
0.0000001
 44
0.0000000001
 12
0.2215337409
 22
0.166829417
 32
0.0
 13
0.0048343494
 23
0.2772830355
 33
0.0
 40
0.0
 40
0.0
 40
0.0
 40
0.0
 40
0.2339718422
 40
0.4755363723
 40
1.0
 40
1.0
 40
1.0
 40
1.0
 10
16.5994223334
 20
-24.7643147671
 30
0.0
 10
16.6166998859
 20
-24.7513036385
 30
0.0
 10
16.648455361
 20
-24.7200425568
 30
0.0
 10
16.696270797
 20
-24.6400381899
 30
0.0
 10
16.709708538
 20
-24.5677580304
 30
0.0
 10
16.7105536848
 20
-24.5192830748
 30
0.0
 11
16.5994223334
 21
-24.7643147671
 31
0.0
 11
16.6457653753
 21
-24.7188994385
 31
0.0
 11
16.6804377333
 21
-24.6615780142
 31
0.0
 11
16.7105536848
 21
-24.5192830748
 31
0.0
  0
SPLINE
  5
3CC
100
AcDbEntity
  8
RACCORDO
100
AcDbSpline
 62
253
  6
CONTINUOUS
 70
0
 71
3
 72
12
 73
8
 74
6
 42
0.0000001
 43
0.0000001
 44
0.0000000001
 12
-0.6039088199
 22
0.1988950459
 32
0.0
 13
-0.0176842958
 23
0.6355724724
 33
0.0
 40
0.0
 40
0.0
 40
0.0
 40
0.0
 40
0.0951647683
 40
0.1941278662
 40
0.4159808422
 40
0.6835816932
 40
1.0
 40
1.0
 40
1.0
 40
1.0
 10
15.9126277395
 20
-24.9028575626
 30
0.0
 10
15.8934707918
 20
-24.8965482956
 30
0.0
 10
15.855833133
 20
-24.8787996133
 30
0.0
 10
15.7865107111
 20
-24.8232072952
 30
0.0
 10
15.7173185981
 20
-24.7159232332
 30
0.0
 10
15.6683525964
 20
-24.5509857496
 30
0.0
 10
15.6564387458
 20
-24.4270835213
 30
0.0
 10
15.6545735342
 20
-24.3600479328
 30
0.0
 11
15.9126277395
 21
-24.9028575626
 31
0.0
 11
15.8578399968
 21
-24.8771775568
 31
0.0
 11
15.8084876873
 21
-24.8381442562
 31
0.0
 11
15.7284127207
 21
-24.7220175158
 31
0.0
 11
15.6762678222
 21
-24.5600594328
 31
0.0
 11
15.6545735342
 21
-24.3600479328
 31
0.0
  0
SPLINE
  5
3CD
100
AcDbEntity
  8
DRAFT
100
AcDbSpline
 62
7
  6
CONTINUOUS
 70
0
 71
3
 72
11
 73
7
 74
5
 42
0.0000001
 43
0.0000001
 44
0.0000000001
 12
-1.6847665671
 22
-0.6076205639
 32
0.0
 13
-1.7086250482
 23
0.5368813463
 33
0.0
 40
0.0
 40
0.0
 40
0.0
 40
0.0
 40
0.2303303719
 40
0.4725831522
 40
0.7288902496
 40
1.0
 40
1.0
 40
1.0
 40
1.0
 10
-8.5135759277
 20
-11.0906286912
 30
0.0
 10
-8.6429268977
 20
-11.137279848
 30
0.0
 10
-8.9185839807
 20
-11.2062366904
 30
0.0
 10
-9.3548411077
 20
-11.2341875115
 30
0.0
 10
-9.8138942134
 20
-11.1892956114
 30
0.0
 10
-10.1207120474
 20
-11.1136822767
 30
0.0
 10
-10.2751203509
 20
-11.0651643541
 30
0.0
 11
-8.5135759277
 21
-11.0906286912
 31
0.0
 11
-8.9133386769
 21
-11.1924215163
 31
0.0
 11
-9.346182841
 21
-11.2222689772
 31
0.0
 11
-9.8032355125
 21
-11.179566785
 31
0.0
 11
-10.2751203509
 21
-11.0651643541
 31
0.0
  0
SPLINE
  5
3CE
100
AcDbEntity
  8
RACCORDO
100
AcDbSpline
 62
253
  6
CONTINUOUS
 70
0
 71
3
 72
15
 73
11
 74
9
 42
0.0000001
 43
0.0000001
 44
0.0000000001
 12
-0.4973341073
 22
-0.3746906832
 32
0.0
 13
-0.0182888255
 23
0.6224145253
 33
0.0
 40
0.0
 40
0.0
 40
0.0
 40
0.0
 40
0.1392407968
 40
0.2589708491
 40
0.3641601616
 40
0.4644350775
 40
0.5714105414
 40
0.694055153
 40
0.8367661847
 40
1.0
 40
1.0
 40
1.0
 40
1.0
 10
16.7105536848
 20
-24.5192830748
 30
0.0
 10
16.687470619
 20
-24.5366738179
 30
0.0
 10
16.6417589072
 20
-24.5657155563
 30
0.0
 10
16.5694901772
 20
-24.5907703924
 30
0.0
 10
16.5004631126
 20
-24.591679001
 30
0.0
 10
16.4388192717
 20
-24.5662577549
 30
0.0
 10
16.3894808526
 20
-24.5167169535
 30
0.0
 10
16.353543793
 20
-24.4473423671
 30
0.0
 10
16.330849777
 20
-24.3607930121
 30
0.0
 10
16.3250763075
 20
-24.2972924094
 30
0.0
 10
16.3240811893
 20
-24.2634260436
 30
0.0
 11
16.7105536848
 21
-24.5192830748
 31
0.0
 11
16.6366724435
 21
-24.5646587846
 31
0.0
 11
16.5657242788
 21
-24.587563808
 31
0.0
 11
16.5002259059
 21
-24.5871606155
 31
0.0
 11
16.4424574757
 21
-24.5634646271
 31
0.0
 11
16.3944676362
 21
-24.5172681997
 31
0.0
 11
16.3579502751
 21
-24.4501961042
 31
0.0
 11
16.3342051078
 21
-24.3645635503
 31
0.0
 11
16.3240811893
 21
-24.2634260436
 31
0.0
  0
SPLINE
  5
3CF
100
AcDbEntity
  8
RACCORDO
100
AcDbSpline
 62
253
  6
CONTINUOUS
 70
0
 71
3
 72
11
 73
7
 74
5
 42
0.0000001
 43
0.0000001
 44
0.0000000001
 12
0.0272943585
 22
0.9721543719
 32
0.0
 13
0.7477936926
 23
0.6217987601
 33
0.0
 40
0.0
 40
0.0
 40
0.0
 40
0.0
 40
0.2496799414
 40
0.518307342
 40
0.777129346
 40
1.0
 40
1.0
 40
1.0
 40
1.0
 10
16.3240811382
 20
10.640395748
 30
0.0
 10
16.3263527561
 20
10.7213048969
 30
0.0
 10
16.3521452462
 20
10.8887880579
 30
0.0
 10
16.4344164232
 20
11.1281445385
 30
0.0
 10
16.552255917
 20
11.342162028
 30
0.0
 10
16.6549998289
 20
11.4625830802
 30
0.0
 10
16.7105535853
 20
11.5087766456
 30
0.0
 11
16.3240811382
 21
10.640395748
 31
0.0
 11
16.3579501719
 21
10.8808452107
 31
0.0
 11
16.4424573764
 21
11.1280499924
 31
0.0
 11
16.56572418
 21
11.3475158895
 31
0.0
 11
16.7105535853
 21
11.5087766456
 31
0.0
  0
SPLINE
  5
3D0
100
AcDbEntity
  8
DRAFT
100
AcDbSpline
 62
7
  6
CONTINUOUS
 70
0
 71
3
 72
14
 73
10
 74
8
 42
0.0000001
 43
0.0000001
 44
0.0000000001
 12
-5.5324961456
 22
2.0976457996
 32
0.0
 13
-0.1001057512
 23
5.9159623342
 33
0.0
 40
0.0
 40
0.0
 40
0.0
 40
0.0
 40
0.1202356478
 40
0.2466903879
 40
0.3771757243
 40
0.5091181156
 40
0.6398188335
 40
0.7666998176
 40
1.0
 40
1.0
 40
1.0
 40
1.0
 10
-13.783779956
 20
-9.7733357525
 30
0.0
 10
-14.0055143754
 20
-9.689265152
 30
0.0
 10
-14.4460132799
 20
-9.4769372326
 30
0.0
 10
-15.0624333352
 20
-9.0563430463
 30
0.0
 10
-15.6323354364
 20
-8.5394738151
 30
0.0
 10
-16.1342743511
 20
-7.9457439615
 30
0.0
 10
-16.5499099722
 20
-7.2963334227
 30
0.0
 10
-16.9559187972
 20
-6.4162670987
 30
0.0
 10
-17.1132528604
 20
-5.7054324843
 30
0.0
 10
-17.1210377571
 20
-5.2453674537
 30
0.0
 11
-13.783779956
 21
-9.7733357525
 31
0.0
 11
-14.4260399776
 21
-9.4673811283
 31
0.0
 11
-15.0453396385
 21
-9.0475192469
 31
0.0
 11
-15.6179568301
 21
-8.5296569856
 31
0.0
 11
-16.12195705
 21
-7.9334675407
 31
0.0
 11
-16.5380734957
 21
-7.2816329981
 31
0.0
 11
-16.8504552232
 21
-6.5989807757
 31
0.0
 11
-17.1210377571
 21
-5.2453674537
 31
0.0
  0
SPLINE
  5
3D1
100
AcDbEntity
  8
DRAFT
100
AcDbSpline
 62
7
  6
CONTINUOUS
 70
0
 71
3
 72
11
 73
7
 74
5
 42
0.0000001
 43
0.0000001
 44
0.0000000001
 12
-0.0155590354
 22
1.82506191
 32
0.0
 13
1.2684170016
 23
1.3123305106
 33
0.0
 40
0.0
 40
0.0
 40
0.0
 40
0.0
 40
0.2708609434
 40
0.5257757024
 40
0.7673487128
 40
1.0
 40
1.0
 40
1.0
 40
1.0
 10
-17.1213920804
 20
-5.2175325709
 30
0.0
 10
-17.1227968588
 20
-5.0527532406
 30
0.0
 10
-17.1016371387
 20
-4.7319276641
 30
0.0
 10
-16.9900315014
 20
-4.2759321474
 30
0.0
 10
-16.8013785551
 20
-3.8711162412
 30
0.0
 10
-16.6243133504
 20
-3.6397477572
 30
0.0
 10
-16.5259470677
 20
-3.537975963
 30
0.0
 11
-17.1213920804
 21
-5.2175325709
 31
0.0
 11
-17.0863162197
 21
-4.724422549
 31
0.0
 11
-16.9732632765
 21
-4.2731149265
 31
0.0
 11
-16.7849621452
 21
-3.8744458763
 31
0.0
 11
-16.5259470677
 21
-3.537975963
 31
0.0
  0
SPLINE
  5
3D2
100
AcDbEntity
  8
RACCORDO
100
AcDbSpline
 62
253
  6
CONTINUOUS
 70
0
 71
3
 72
12
 73
8
 74
6
 42
0.0000001
 43
0.0000001
 44
0.0000000001
 12
-1.247585675
 22
-1.0988551245
 32
0.0
 13
-0.0452165677
 23
-1.6618989329
 33
0.0
 40
0.0
 40
0.0
 40
0.0
 40
0.0
 40
0.1047583946
 40
0.2215773856
 40
0.4802064462
 40
0.7495079225
 40
1.0
 40
1.0
 40
1.0
 40
1.0
 10
-19.8205647621
 20
24.8487591449
 30
0.0
 10
-19.8641297863
 20
24.8103877119
 30
0.0
 10
-19.9494274325
 20
24.7213482322
 30
0.0
 10
-20.108439328
 20
24.5074016129
 30
0.0
 10
-20.2751518154
 20
24.1886813528
 30
0.0
 10
-20.4101013761
 20
23.7773539944
 30
0.0
 10
-20.4525583687
 20
23.4901049679
 30
0.0
 10
-20.4563338327
 20
23.3513407958
 30
0.0
 11
-19.8205647621
 21
24.8487591449
 31
0.0
 11
-19.9421188192
 21
24.7240309806
 31
0.0
 11
-20.0588439263
 21
24.5688085054
 31
0.0
 11
-20.2615965564
 21
24.1896391875
 31
0.0
 11
-20.4005704068
 21
23.764037036
 31
0.0
 11
-20.4563338327
 21
23.3513407958
 31
0.0
  0
SPLINE
  5
3D3
100
AcDbEntity
  8
RACCORDO
100
AcDbSpline
 62
253
  6
CONTINUOUS
 70
0
 71
3
 72
12
 73
8
 74
6
 42
0.0000001
 43
0.0000001
 44
0.0000000001
 12
0.0441545141
 22
1.6622377346
 32
0.0
 13
1.2498557748
 23
1.0967426543
 33
0.0
 40
0.0
 40
0.0
 40
0.0
 40
0.0
 40
0.2504609136
 40
0.5197097507
 40
0.7783294227
 40
0.8951785683
 40
1.0
 40
1.0
 40
1.0
 40
1.0
 10
15.6545734497
 20
10.5791754821
 30
0.0
 10
15.6582597764
 20
10.717950676
 30
0.0
 10
15.7006371023
 20
11.0052347563
 30
0.0
 10
15.8357584322
 20
11.4165505685
 30
0.0
 10
16.0028171023
 20
11.7351613444
 30
0.0
 10
16.1621890091
 20
11.9489627606
 30
0.0
 10
16.2476914398
 20
12.0379125372
 30
0.0
 10
16.2913619971
 20
12.0762332489
 30
0.0
 11
15.6545734497
 21
10.5791754821
 31
0.0
 11
15.7102175451
 21
10.9919139291
 31
0.0
 11
15.8493478978
 21
11.4174607268
 31
0.0
 11
16.0525038675
 21
11.7964873858
 31
0.0
 11
16.1694996953
 21
11.9516141088
 31
0.0
 11
16.2913619971
 21
12.0762332489
 31
0.0
  0
SPLINE
  5
3D4
100
AcDbEntity
  8
RACCORDO
100
AcDbSpline
 62
253
  6
CONTINUOUS
 70
0
 71
3
 72
12
 73
8
 74
6
 42
0.0000001
 43
0.0000001
 44
0.0000000001
 12
0.0177826828
 22
-0.624258208
 32
0.0
 13
0.5837617673
 23
-0.2218935174
 33
0.0
 40
0.0
 40
0.0
 40
0.0
 40
0.0
 40
0.3152669456
 40
0.5831029018
 40
0.8059612808
 40
0.9051588631
 40
1.0
 40
1.0
 40
1.0
 40
1.0
 10
-20.4563339447
 20
-11.5878827832
 30
0.0
 10
-20.4544651807
 20
-11.6534854427
 30
0.0
 10
-20.4428930276
 20
-11.7749693416
 30
0.0
 10
-20.3959151686
 20
-11.9372253388
 30
0.0
 10
-20.3299440744
 20
-12.0439321047
 30
0.0
 10
-20.2636404273
 20
-12.1008926154
 30
0.0
 10
-20.2274895643
 20
-12.1198650972
 30
0.0
 10
-20.2090346877
 20
-12.126879975
 30
0.0
 11
-20.4563339447
 21
-11.5878827832
 31
0.0
 11
-20.4353990319
 21
-11.7836544368
 31
0.0
 11
-20.3854651833
 21
-11.9432938184
 31
0.0
 11
-20.3088346551
 21
-12.0594754359
 31
0.0
 11
-20.2615648176
 21
-12.099517514
 31
0.0
 11
-20.2090346877
 21
-12.126879975
 31
0.0
  0
SPLINE
  5
3D5
100
AcDbEntity
  8
RACCORDO
100
AcDbSpline
 62
253
  6
CONTINUOUS
 70
0
 71
3
 72
11
 73
7
 74
5
 42
0.0000001
 43
0.0000001
 44
0.0000000001
 12
-0.3069462283
 22
0.1177449218
 32
0.0
 13
-0.0088974154
 23
0.3286345838
 33
0.0
 40
0.0
 40
0.0
 40
0.0
 40
0.0
 40
0.2983460275
 40
0.5614498343
 40
0.7911583818
 40
1.0
 40
1.0
 40
1.0
 40
1.0
 10
-20.456326427
 20
-11.5878764799
 30
0.0
 10
-20.486851823
 20
-11.5761669034
 30
0.0
 10
-20.5426906861
 20
-11.5493174129
 30
0.0
 10
-20.6116625199
 20
-11.4953783646
 30
0.0
 10
-20.6572258808
 20
-11.4317779953
 30
0.0
 10
-20.6691440038
 20
-11.3836272496
 30
0.0
 10
-20.6697633874
 20
-11.3607497235
 30
0.0
 11
-20.456326427
 21
-11.5878764799
 31
0.0
 11
-20.5442494216
 21
-11.5444049621
 31
0.0
 11
-20.6114497174
 21
-11.4899458194
 31
0.0
 11
-20.6540375572
 21
-11.427582214
 31
0.0
 11
-20.6697633874
 21
-11.3607497235
 31
0.0
  0
SPLINE
  5
3D6
100
AcDbEntity
  8
RACCORDO
100
AcDbSpline
 62
253
  6
CONTINUOUS
 70
0
 71
3
 72
11
 73
7
 74
5
 42
0.0000001
 43
0.0000001
 44
0.0000000001
 12
-0.3017060595
 22
0.1141517516
 32
0.0
 13
0.0076534048
 23
0.3224881302
 33
0.0
 40
0.0
 40
0.0
 40
0.0
 40
0.0
 40
0.3102930147
 40
0.5776874999
 40
0.8027412111
 40
1.0
 40
1.0
 40
1.0
 40
1.0
 10
-20.4563339104
 20
23.3513407641
 30
0.0
 10
-20.4875396713
 20
23.3631475945
 30
0.0
 10
-20.5441806362
 20
23.3895629031
 30
0.0
 10
-20.6140222161
 20
23.4415940808
 30
0.0
 10
-20.6595592506
 20
23.5019193146
 30
0.0
 10
-20.670295525
 20
23.5479657077
 30
0.0
 10
-20.6697922912
 20
23.569170247
 30
0.0
 11
-20.4563339104
 21
23.3513407641
 31
0.0
 11
-20.5465460805
 21
23.3947063171
 31
0.0
 11
-20.6146598702
 21
23.447626819
 31
0.0
 11
-20.6565249598
 21
23.5069372211
 31
0.0
 11
-20.6697922912
 21
23.569170247
 31
0.0
  0
SPLINE
  5
3D7
100
AcDbEntity
  8
RACCORDO
100
AcDbSpline
 62
253
  6
CONTINUOUS
 70
0
 71
3
 72
11
 73
7
 74
5
 42
0.0000001
 43
0.0000001
 44
0.0000000001
 12
-0.3338285522
 22
0.1111965691
 32
0.0
 13
-0.2584267958
 23
-0.2387923165
 33
0.0
 40
0.0
 40
0.0
 40
0.0
 40
0.0
 40
0.2783055497
 40
0.5353559606
 40
0.7732583088
 40
1.0
 40
1.0
 40
1.0
 40
1.0
 10
-19.8205647621
 20
24.8487591449
 30
0.0
 10
-19.8515335417
 20
24.8590746856
 30
0.0
 10
-19.9132240144
 20
24.8733530122
 30
0.0
 10
-20.0048275789
 20
24.8734421407
 30
0.0
 10
-20.0875482133
 20
24.8506414813
 30
0.0
 10
-20.1340099279
 20
24.8200932284
 30
0.0
 10
-20.1535419708
 20
24.8020451705
 30
0.0
 11
-19.8205647621
 21
24.8487591449
 31
0.0
 11
-19.9161408618
 21
24.8700779247
 31
0.0
 11
-20.0065827308
 21
24.8692113457
 31
0.0
 11
-20.087045902
 21
24.8461288488
 31
0.0
 11
-20.1535419708
 21
24.8020451705
 31
0.0
  0
SPLINE
  5
3D8
100
AcDbEntity
  8
RACCORDO
100
AcDbSpline
 62
253
  6
CONTINUOUS
 70
0
 71
3
 72
11
 73
7
 74
5
 42
0.0000001
 43
0.0000001
 44
0.0000000001
 12
0.6926258314
 22
-0.2597365656
 32
0.0
 13
0.0132612276
 23
-0.7396064938
 33
0.0
 40
0.0
 40
0.0
 40
0.0
 40
0.0
 40
0.2464013404
 40
0.4432556159
 40
0.6405699216
 40
1.0
 40
1.0
 40
1.0
 40
1.0
 10
16.2913619971
 20
12.0762332489
 30
0.0
 10
16.3482499748
 20
12.054900103
 30
0.0
 10
16.4440895419
 20
11.9981902911
 30
0.0
 10
16.5580226902
 20
11.8873979851
 30
0.0
 10
16.6640613235
 20
11.7343872974
 30
0.0
 10
16.7089647573
 20
11.597388919
 30
0.0
 10
16.7105535853
 20
11.5087766456
 30
0.0
 11
16.2913619971
 21
12.0762332489
 31
0.0
 11
16.4495488861
 21
11.9856848402
 31
0.0
 11
16.554288325
 21
11.884520214
 31
0.0
 11
16.637050362
 21
11.7642941801
 31
0.0
 11
16.7105535853
 21
11.5087766456
 31
0.0
  0
SPLINE
  5
3D9
100
AcDbEntity
  8
RACCORDO
100
AcDbSpline
 62
253
  6
CONTINUOUS
 70
0
 71
3
 72
11
 73
7
 74
5
 42
0.0000001
 43
0.0000001
 44
0.0000000001
 12
0.6569681891
 22
-0.2168731027
 32
0.0
 13
0.558855109
 23
0.4078260798
 33
0.0
 40
0.0
 40
0.0
 40
0.0
 40
0.0
 40
0.2600711972
 40
0.5311053195
 40
0.7854256866
 40
1.0
 40
1.0
 40
1.0
 40
1.0
 10
15.6545802079
 20
10.579181152
 30
0.0
 10
15.7115330424
 20
10.5603803362
 30
0.0
 10
15.8326818684
 20
10.5361381416
 30
0.0
 10
16.014850362
 20
10.5346645241
 30
0.0
 10
16.1835488817
 20
10.5659807031
 30
0.0
 10
16.2841091544
 20
10.611226081
 30
0.0
 10
16.3240811381
 20
10.640395748
 30
0.0
 11
15.6545802079
 21
10.579181152
 31
0.0
 11
15.8306687813
 21
10.5422125357
 31
0.0
 11
16.0181755269
 21
10.5408135035
 31
0.0
 11
16.190744314
 21
10.5751351016
 31
0.0
 11
16.3240811381
 21
10.640395748
 31
0.0
  0
SPLINE
  5
3DA
100
AcDbEntity
  8
RACCORDO
100
AcDbSpline
 62
253
  6
CONTINUOUS
 70
0
 71
3
 72
11
 73
7
 74
5
 42
0.0000001
 43
0.0000001
 44
0.0000000001
 12
0.6657353916
 22
-0.2164249292
 32
0.0
 13
0.5320323161
 23
0.4549560158
 33
0.0
 40
0.0
 40
0.0
 40
0.0
 40
0.0
 40
0.2561087188
 40
0.5241241442
 40
0.7790862901
 40
1.0
 40
1.0
 40
1.0
 40
1.0
 10
15.6545734739
 20
-24.3600480158
 30
0.0
 10
15.71140702
 20
-24.3785241196
 30
0.0
 10
15.8330964032
 20
-24.4004871189
 30
0.0
 10
16.0160561035
 20
-24.3941766547
 30
0.0
 10
16.1856222117
 20
-24.3515801936
 30
0.0
 10
16.284903445
 20
-24.2969280507
 30
0.0
 10
16.3240811893
 20
-24.2634260436
 30
0.0
 11
15.6545734739
 21
-24.3600480158
 31
0.0
 11
15.8306651026
 21
-24.3937304097
 31
0.0
 11
16.0181746027
 21
-24.3873184235
 31
0.0
 11
16.1907447225
 21
-24.3417644617
 31
0.0
 11
16.3240811893
 21
-24.2634260436
 31
0.0
  0
ELLIPSE
  5
3DB
100
AcDbEntity
  8
0
100
AcDbEllipse
 62
7
  6
CONTINUOUS
 10
12.063228279
 20
26.463573448
 30
0.0
 11
0.4995701986
 21
0.3532030743
 31
0.0
 40
0.0586835128
 41
1.6081665926
 42
2.5067144314
  0
ELLIPSE
  5
3DC
100
AcDbEntity
  8
0
100
AcDbEllipse
 62
7
  6
CONTINUOUS
 10
11.4360688844
 20
23.9502056884
 30
0.0
 11
0.1686211811
 21
0.4707123158
 31
0.0
 40
0.4608589311
 41
0.5730485941
 42
0.6549275203
  0
ELLIPSE
  5
3DD
100
AcDbEntity
  8
0
100
AcDbEllipse
 62
7
  6
CONTINUOUS
 10
11.6840367381
 20
21.2137291133
 30
0.0
 11
-0.1285162772
 21
0.1532453117
 31
0.0
 40
0.7033703941
 41
-2.4436881412
 42
-0.8728918144
  0
ELLIPSE
  5
3DE
100
AcDbEntity
  8
0
100
AcDbEllipse
 62
7
  6
CONTINUOUS
 10
21.6153139819
 20
16.1076302662
 30
0.0
 11
0.3213145577
 21
-0.38309154
 31
0.0
 40
0.7034008937
 41
0.6978613523
 42
2.2686069105
  0
ELLIPSE
  5
3DF
100
AcDbEntity
  8
0
100
AcDbEllipse
 62
7
  6
CONTINUOUS
 10
21.6153139819
 20
-20.6163679313
 30
0.0
 11
-0.321321188
 21
0.3831186041
 31
0.0
 40
0.7033305678
 41
-3.13128625
 42
-2.4437559069
  0
ELLIPSE
  5
3E0
100
AcDbEntity
  8
0
100
AcDbEllipse
 62
7
  6
CONTINUOUS
 10
13.6968461012
 20
20.501813085
 30
0.0
 11
-0.1285162772
 21
0.1532453117
 31
0.0
 40
0.7033703941
 41
-0.8728918144
 42
-0.0036880894
  0
ELLIPSE
  5
3E1
100
AcDbEntity
  8
0
100
AcDbEllipse
 62
7
  6
CONTINUOUS
 10
24.7550742956
 20
-15.0667588161
 30
0.0
 11
0.4995701986
 21
0.3532030743
 31
0.0
 40
0.0586835128
 41
-0.5999716371
 42
-0.0415735663
  0
ELLIPSE
  5
3E2
100
AcDbEntity
  8
0
100
AcDbEllipse
 62
7
  6
CONTINUOUS
 10
11.8435200055
 20
22.9100673037
 30
0.0
 11
0.4588765182
 21
-0.001722817
 31
0.0
 40
0.5405415648
 41
-0.5739292337
 42
0.0020120957
  0
ELLIPSE
  5
3E3
100
AcDbEntity
  8
0
100
AcDbEllipse
 62
7
  6
CONTINUOUS
 10
18.4839080265
 20
20.5614103703
 30
0.0
 11
0.4588765182
 21
-0.001722817
 31
0.0
 40
0.5405415648
 41
-0.5681114695
 42
0.0020294354
  0
ELLIPSE
  5
3E4
100
AcDbEntity
  8
0
100
AcDbEllipse
 62
7
  6
CONTINUOUS
 10
57.6274587551
 20
54.0048711617
 30
0.0
 11
46.3879522597
 21
39.4060756966
 31
0.0
 40
0.0052507352
 41
2.5562956238
 42
2.6861054272
  0
ELLIPSE
  5
3E5
100
AcDbEntity
  8
0
100
AcDbEllipse
 62
7
  6
CONTINUOUS
 10
12.9888153557
 20
18.725565965
 30
0.0
 11
0.1999558952
 21
0.0072289368
 31
0.0
 40
0.5809981886
 41
3.1206415434
 42
4.1154287874
  0
ELLIPSE
  5
3E6
100
AcDbEntity
  8
0
100
AcDbEllipse
 62
7
  6
CONTINUOUS
 10
2.4197566863
 20
21.211821822
 30
0.0
 11
-0.3209281399
 21
0.384134135
 31
0.0
 40
0.7028832609
 41
-0.8704529953
 42
0.6994299421
  0
ELLIPSE
  5
3E7
100
AcDbEntity
  8
0
100
AcDbEllipse
 62
7
  6
CONTINUOUS
 10
10.9760059926
 20
19.4374819933
 30
0.0
 11
0.1999558952
 21
0.0072289368
 31
0.0
 40
0.5809981886
 41
-2.1677565198
 42
-0.596960193
  0
ELLIPSE
  5
3E8
100
AcDbEntity
  8
0
100
AcDbEllipse
 62
7
  6
CONTINUOUS
 10
25.1095498175
 20
20.8976855972
 30
0.0
 11
-0.815371963
 21
1.1532615742
 31
0.0
 40
0.5020001144
 41
5.2126513165
 42
6.3188338195
  0
ELLIPSE
  5
3E9
100
AcDbEntity
  8
0
100
AcDbEllipse
 62
7
  6
CONTINUOUS
 10
19.761739612
 20
15.6713394969
 30
0.0
 11
0.2499448689
 21
0.009036171
 31
0.0
 40
0.5809981886
 41
-2.1677565198
 42
-0.6027779572
  0
ELLIPSE
  5
3EA
100
AcDbEntity
  8
0
100
AcDbEllipse
 62
7
  6
CONTINUOUS
 10
20.2379309779
 20
-21.6910981395
 30
0.0
 11
-0.3209281399
 21
0.384134135
 31
0.0
 40
0.7028832609
 41
2.2711396583
 42
3.8410225957
  0
ELLIPSE
  5
3EB
100
AcDbEntity
  8
0
100
AcDbEllipse
 62
7
  6
CONTINUOUS
 10
20.2379309779
 20
14.9096632042
 30
0.0
 11
-0.3208060543
 21
0.3836493099
 31
0.0
 40
0.7041495784
 41
-2.4417106665
 42
-0.8718277292
  0
ELLIPSE
  5
3EC
100
AcDbEntity
  8
0
100
AcDbEllipse
 62
7
  6
CONTINUOUS
 10
24.7550742956
 20
21.9745598465
 30
0.0
 11
-0.4076859815
 21
0.5766307871
 31
0.0
 40
0.5020001144
 41
-3.0826730846
 42
-2.1841252458
  0
ELLIPSE
  5
3ED
100
AcDbEntity
  8
0
100
AcDbEllipse
 62
7
  6
CONTINUOUS
 10
17.7611354521
 20
16.3789386337
 30
0.0
 11
0.2499448689
 21
0.009036171
 31
0.0
 40
0.5809981886
 41
3.1205901087
 42
4.1154287874
  0
ELLIPSE
  5
3EE
100
AcDbEntity
  8
0
100
AcDbEllipse
 62
7
  6
CONTINUOUS
 10
3.1682675698
 20
21.5403298389
 30
0.0
 11
0.2499448689
 21
0.009036171
 31
0.0
 40
0.5809981886
 41
3.1205901087
 42
4.1154287874
  0
ELLIPSE
  5
3EF
100
AcDbEntity
  8
0
100
AcDbEllipse
 62
7
  6
CONTINUOUS
 10
5.1688717297
 20
20.8327307021
 30
0.0
 11
0.2499448689
 21
0.009036171
 31
0.0
 40
0.5809981886
 41
-2.1677565198
 42
-0.6027779572
  0
ELLIPSE
  5
3F0
100
AcDbEntity
  8
0
100
AcDbEllipse
 62
7
  6
CONTINUOUS
 10
18.8465652701
 20
21.3291670289
 30
0.0
 11
0.1648461888
 21
0.4720475516
 31
0.0
 40
0.4526749354
 41
0.5693904873
 42
0.6512694135
  0
ELLIPSE
  5
3F1
100
AcDbEntity
  8
0
100
AcDbEllipse
 62
7
  6
CONTINUOUS
 10
57.6274587551
 20
54.0048711617
 30
0.0
 11
46.3879522597
 21
39.4060756966
 31
0.0
 40
0.0052507352
 41
-2.6950262564
 42
-2.565216453
  0
ELLIPSE
  5
3F2
100
AcDbEntity
  8
0
100
AcDbEllipse
 62
7
  6
CONTINUOUS
 10
11.1641137221
 20
25.8300848896
 30
0.0
 11
0.9991403971
 21
0.7064061486
 31
0.0
 40
0.0586835128
 41
-0.6116071655
 42
0.4945753375
  0
ELLIPSE
  5
3F3
100
AcDbEntity
  8
RACCORDO
100
AcDbEllipse
 62
7
  6
CONTINUOUS
 10
18.9071320202
 20
-22.3989200264
 30
0.0
 11
-0.321452335
 21
0.3834170467
 31
0.0
 40
0.7028938603
 41
-3.1783429643
 42
-2.4438792352
  0
ELLIPSE
  5
3F4
100
AcDbEntity
  8
RACCORDO
100
AcDbEllipse
 62
7
  6
CONTINUOUS
 10
18.9071320202
 20
13.8313610189
 30
0.0
 11
-0.3213627822
 21
0.3830516742
 31
0.0
 40
0.7038430734
 41
-2.4435470104
 42
-0.8734359163
  0
ELLIPSE
  5
3F5
100
AcDbEntity
  8
RACCORDO
100
AcDbEllipse
 62
7
  6
CONTINUOUS
 10
-17.4070160818
 20
26.6754110132
 30
0.0
 11
-0.321452335
 21
0.3834170467
 31
0.0
 40
0.7028938603
 41
-0.8723976758
 42
0.036421645
  0
ENDSEC
  0
SECTION
  2
OBJECTS
  0
DICTIONARY
  5
C
100
AcDbDictionary
280
0
281
1
  3
ACAD_GROUP
350
D
  3
ACAD_MLINESTYLE
350
17
  3
ACAD_LAYOUT
350
1A
  3
ACAD_PLOTSETTINGS
350
19
  3
ACAD_PLOTSTYLENAME
350
E
  0
DICTIONARY
  5
D
102
{ACAD_REACTORS
330
C
102
}
100
AcDbDictionary
280
0
281
1
  0
ACDBDICTIONARYWDFLT
  5
E
102
{ACAD_REACTORS
330
C
102
}
100
AcDbDictionary
281
1
  3
Normal
350
F
100
AcDbDictionaryWithDefault
340
F
  0
DICTIONARY
  5
17
102
{ACAD_REACTORS
330
C
102
}
100
AcDbDictionary
280
0
281
1
  3
Standard
350
18
  0
DICTIONARY
  5
19
102
{ACAD_REACTORS
330
C
102
}
100
AcDbDictionary
281
1
  0
DICTIONARY
  5
1A
102
{ACAD_REACTORS
330
C
102
}
100
AcDbDictionary
281
1
  3
Model
350
3F6
  3
Layout1
350
3F7
  0
ACDBPLACEHOLDER
  5
F
102
{ACAD_REACTORS
330
E
102
}
  0
MLINESTYLE
  5
18
102
{ACAD_REACTORS
330
17
102
}
100
AcDbMlineStyle
  2
STANDARD
 70
0
  3

 62
256
 51
90.0
 52
90.0
 71
2
 49
0.5
 62
256
  6
BYLAYER
 49
-0.5
 62
256
  6
BYLAYER
  0
LAYOUT
  5
3F6
102
{ACAD_REACTORS
330
1A
102
}
100
AcDbPlotSettings
  1

  2
none_device
  4
ISO_A4_(297.00_x_210.00_MM)
  6

 40
0.0
 41
0.0
 42
0.0
 43
0.0
 44
297.0
 45
210.0
 46
0.0
 47
0.0
 48
0.0
 49
0.0
140
0.0
141
0.0
142
1.0
143
1.0
 70
1024
 72
1
 73
0
 74
0
  7

 75
0
147
1.0
148
0.0
149
0.0
100
AcDbLayout
  1
Model
 70
0
 71
0
 10
0.0
 20
0.0
 11
297.0
 21
210.0
 12
0.0
 22
0.0
 32
0.0
 14
0.0
 24
0.0
 34
0.0
 15
0.0
 25
0.0
 35
0.0
146
0.0
 13
0.0
 23
0.0
 33
0.0
 16
1.0
 26
0.0
 36
0.0
 17
0.0
 27
1.0
 37
0.0
 76
0
330
219
345
0
346
0
  0
LAYOUT
  5
3F7
102
{ACAD_REACTORS
330
1A
102
}
100
AcDbPlotSettings
  1

  2
none_device
  4
ISO_A4_(297.00_x_210.00_MM)
  6

 40
0.0
 41
0.0
 42
0.0
 43
0.0
 44
297.0
 45
210.0
 46
0.0
 47
0.0
 48
0.0
 49
0.0
140
0.0
141
0.0
142
1.0
143
1.0
 70
0
 72
1
 73
0
 74
0
  7

 75
0
147
1.0
148
0.0
149
0.0
100
AcDbLayout
  1
Layout1
 70
0
 71
1
 10
0.0
 20
0.0
 11
297.0
 21
210.0
 12
0.0
 22
0.0
 32
0.0
 14
0.0
 24
0.0
 34
0.0
 15
0.0
 25
0.0
 35
0.0
146
0.0
 13
0.0
 23
0.0
 33
0.0
 16
1.0
 26
0.0
 36
0.0
 17
0.0
 27
1.0
 37
0.0
 76
0
330
21A
345
0
346
0
  0
ENDSEC
  0
EOF
