  0
SECTION
  2
HEADER
  9
$ACADVER
  1
AC1024
  9
$DWGCODEPAGE
  3
ANSI_1252
  9
$EXTMAX
 10
210.0
 20
297.0
 30
0.0
  9
$EXTMIN
 10
0.0
 20
0.0
 30
0.0
  9
$LIMMIN
 10
0.0
 20
0.0
  9
$LIMMAX
 10
210.0
 20
297.0
  9
$VIEWCTR
 10
105.0
 20
148.5
  9
$VIEWSIZE
 40
297.0
  9
$CLAYER
  8
0
  9
$LTSCALE
 40
19.36
  9
$CELTYPE
  6
BYLAYER
  9
$DIMSCALE
 40
1.0
  9
$DIMASZ
 40
3.0
  9
$DIMEXO
 40
0.5
  9
$DIMDLI
 40
13.376
  9
$DIMEXE
 40
1.5
  9
$DIMCEN
 40
3.168
  9
$DIMLFAC
 40
1.0
  9
$DIMBLK
  1
_FILLED
  9
$DIMALT
 70
0
  9
$DIMALTF
 40
0.0393700787
  9
$DIMTXT
 40
3.0
  9
$DIMTOL
 70
1
  9
$DIMLIM
 70
0
  9
$DIMTFAC
 40
1.0
  9
$DIMTP
 40
0.01
  9
$DIMTM
 40
0.01
  9
$DIMGAP
 40
0.625
  9
$DIMDSEP
 70
44
  9
$AUNITS
 70
0
  9
$PDMODE
 70
3
  9
$PDSIZE
 40
3.0
  9
$HANDSEED
  5
247
  9
$TILEMODE
 70
1
  9
$MEASUREMENT
 70
1
  9
$INSUNITS
 70
4
  0
ENDSEC
  0
SECTION
  2
CLASSES
  0
CLASS
  1
ACDBDICTIONARYWDFLT
  2
AcDbDictionaryWithDefault
  3
AutoCAD 2000
 90
0
 91
1
280
0
281
0
  0
CLASS
  1
ACDBPLACEHOLDER
  2
AcDbPlaceHolder
  3
AutoCAD 2000
 90
0
 91
1
280
0
281
0
  0
CLASS
  1
LAYOUT
  2
AcDbLayout
  3
AutoCAD 2000
 90
0
 91
0
280
0
281
0
  0
ENDSEC
  0
SECTION
  2
TABLES
  0
TABLE
  2
VPORT
  5
8
100
AcDbSymbolTable
 70
2
  0
VPORT
  5
1F4
100
AcDbSymbolTableRecord
100
AcDbViewportTableRecord
  2
*ACTIVE
 70
0
 10
0.0
 20
0.0
 11
1.0
 21
1.0
 12
105.0
 22
148.5
 13
0.0
 23
0.0
 14
1.0
 24
1.0
 15
0.0
 25
0.0
 16
0.0
 26
0.0
 36
1.0
 17
0.0
 27
0.0
 37
0.0
 40
297.0
 41
0.7070707071
 42
50.0
 43
0.0
 44
0.0
 50
0.0
 51
0.0
 71
0
 72
100
 73
1
 74
1
 75
0
 76
0
 77
0
 78
0
  0
ENDTAB
  0
TABLE
  2
LTYPE
  5
5
100
AcDbSymbolTable
 70
6
  0
LTYPE
  5
14
100
AcDbSymbolTableRecord
100
AcDbLinetypeTableRecord
  2
BYBLOCK
 70
0
  3

 72
65
 73
0
 40
0.0
  0
LTYPE
  5
15
100
AcDbSymbolTableRecord
100
AcDbLinetypeTableRecord
  2
BYLAYER
 70
0
  3

 72
65
 73
0
 40
0.0
  0
LTYPE
  5
16
100
AcDbSymbolTableRecord
100
AcDbLinetypeTableRecord
  2
CONTINUOUS
 70
64
  3
Solid line
 72
65
 73
0
 40
0.0
  0
LTYPE
  5
1F5
100
AcDbSymbolTableRecord
100
AcDbLinetypeTableRecord
  2
CENTER
 70
64
  3
____ _ ____ _ ____ _ ____ _ ____ _ ____ _ ____
 72
65
 73
4
 40
0.6
 49
0.375
 74
0
 49
-0.075
 74
0
 49
0.075
 74
0
 49
-0.075
 74
0
  0
LTYPE
  5
1F6
100
AcDbSymbolTableRecord
100
AcDbLinetypeTableRecord
  2
HIDDEN
 70
64
  3
- - - - - - - - - - - - - - - - - - - -
 72
65
 73
2
 40
0.2
 49
0.1
 74
0
 49
-0.1
 74
0
  0
LTYPE
  5
1F7
100
AcDbSymbolTableRecord
100
AcDbLinetypeTableRecord
  2
PHANTOM
 70
64
  3
_____ _ _ _____ _ _ _____ _ _ _____
 72
65
 73
6
 40
0.8
 49
0.45
 74
0
 49
-0.05
 74
0
 49
0.1
 74
0
 49
-0.05
 74
0
 49
0.1
 74
0
 49
-0.05
 74
0
  0
LTYPE
  5
1F8
100
AcDbSymbolTableRecord
100
AcDbLinetypeTableRecord
  2
DOT
 70
64
  3
. . . . . . . . . . . . . . . . . . . .
 72
65
 73
2
 40
0.2
 49
0.1
 74
0
 49
-0.1
 74
0
  0
LTYPE
  5
1F9
100
AcDbSymbolTableRecord
100
AcDbLinetypeTableRecord
  2
DASHED
 70
64
  3
- - - - - - - - - - - - - - - - - - - -
 72
65
 73
2
 40
0.2
 49
0.1
 74
0
 49
-0.1
 74
0
  0
ENDTAB
  0
TABLE
  2
LAYER
  5
2
100
AcDbSymbolTable
 70
36
  0
LAYER
  5
10
100
AcDbSymbolTableRecord
100
AcDbLayerTableRecord
  2
0
 70
0
 62
7
  6
CONTINUOUS
370
-3
390
F
  0
LAYER
  5
1FA
100
AcDbSymbolTableRecord
100
AcDbLayerTableRecord
  2
DEFAULT_1
 70
0
 62
7
  6
CENTER
370
-3
390
F
  0
LAYER
  5
1FB
100
AcDbSymbolTableRecord
100
AcDbLayerTableRecord
  2
DEFAULT_2
 70
0
 62
7
  6
HIDDEN
370
-3
390
F
  0
LAYER
  5
1FC
100
AcDbSymbolTableRecord
100
AcDbLayerTableRecord
  2
DEFAULT_3
 70
0
 62
7
  6
PHANTOM
370
-3
390
F
  0
LAYER
  5
1FD
100
AcDbSymbolTableRecord
100
AcDbLayerTableRecord
  2
ASSI
 70
0
 62
7
  6
CONTINUOUS
370
-3
390
F
  0
LAYER
  5
1FE
100
AcDbSymbolTableRecord
100
AcDbLayerTableRecord
  2
COORDINATE
 70
0
 62
7
  6
CONTINUOUS
370
-3
390
F
  0
LAYER
  5
1FF
100
AcDbSymbolTableRecord
100
AcDbLayerTableRecord
  2
COPY_PUBLISH
 70
0
 62
7
  6
CONTINUOUS
370
-3
390
F
  0
LAYER
  5
200
100
AcDbSymbolTableRecord
100
AcDbLayerTableRecord
  2
COSMETIC
 70
0
 62
7
  6
CONTINUOUS
370
-3
390
F
  0
LAYER
  5
201
100
AcDbSymbolTableRecord
100
AcDbLayerTableRecord
  2
COSMETICI
 70
0
 62
7
  6
CONTINUOUS
370
-3
390
F
  0
LAYER
  5
202
100
AcDbSymbolTableRecord
100
AcDbLayerTableRecord
  2
CURVE
 70
0
 62
7
  6
CONTINUOUS
370
-3
390
F
  0
LAYER
  5
203
100
AcDbSymbolTableRecord
100
AcDbLayerTableRecord
  2
DRAFT
 70
0
 62
7
  6
CONTINUOUS
370
-3
390
F
  0
LAYER
  5
204
100
AcDbSymbolTableRecord
100
AcDbLayerTableRecord
  2
IMPORT_IGES
 70
0
 62
7
  6
CONTINUOUS
370
-3
390
F
  0
LAYER
  5
205
100
AcDbSymbolTableRecord
100
AcDbLayerTableRecord
  2
INTFCLR_11
 70
0
 62
7
  6
CONTINUOUS
370
-3
390
F
  0
LAYER
  5
206
100
AcDbSymbolTableRecord
100
AcDbLayerTableRecord
  2
INTF_1
 70
0
 62
7
  6
CONTINUOUS
370
-3
390
F
  0
LAYER
  5
207
100
AcDbSymbolTableRecord
100
AcDbLayerTableRecord
  2
INTF_3
 70
0
 62
7
  6
CONTINUOUS
370
-3
390
F
  0
LAYER
  5
208
100
AcDbSymbolTableRecord
100
AcDbLayerTableRecord
  2
NOTE
 70
0
 62
7
  6
CONTINUOUS
370
-3
390
F
  0
LAYER
  5
209
100
AcDbSymbolTableRecord
100
AcDbLayerTableRecord
  2
PIANI
 70
0
 62
7
  6
CONTINUOUS
370
-3
390
F
  0
LAYER
  5
20A
100
AcDbSymbolTableRecord
100
AcDbLayerTableRecord
  2
PUNTI
 70
0
 62
7
  6
CONTINUOUS
370
-3
390
F
  0
LAYER
  5
20B
100
AcDbSymbolTableRecord
100
AcDbLayerTableRecord
  2
RACCORDO
 70
0
 62
7
  6
CONTINUOUS
370
-3
390
F
  0
LAYER
  5
20C
100
AcDbSymbolTableRecord
100
AcDbLayerTableRecord
  2
SIMBOLI
 70
0
 62
7
  6
CONTINUOUS
370
-3
390
F
  0
LAYER
  5
20D
100
AcDbSymbolTableRecord
100
AcDbLayerTableRecord
  2
SMUSSO
 70
0
 62
7
  6
CONTINUOUS
370
-3
390
F
  0
LAYER
  5
20E
100
AcDbSymbolTableRecord
100
AcDbLayerTableRecord
  2
SNAPLINE
 70
0
 62
7
  6
CONTINUOUS
370
-3
390
F
  0
LAYER
  5
20F
100
AcDbSymbolTableRecord
100
AcDbLayerTableRecord
  2
SUPERFICI
 70
0
 62
7
  6
CONTINUOUS
370
-3
390
F
  0
LAYER
  5
210
100
AcDbSymbolTableRecord
100
AcDbLayerTableRecord
  2
TRASH
 70
0
 62
7
  6
CONTINUOUS
370
-3
390
F
  0
LAYER
  5
211
100
AcDbSymbolTableRecord
100
AcDbLayerTableRecord
  2
___SHELL
 70
0
 62
7
  6
CONTINUOUS
370
-3
390
F
  0
ENDTAB
  0
TABLE
  2
STYLE
  5
3
100
AcDbSymbolTable
 70
1
  0
STYLE
  5
11
100
AcDbSymbolTableRecord
100
AcDbTextStyleTableRecord
  2
STANDARD
 70
0
 40
0.0
 41
0.8
 50
0.0
 71
0
 42
0.2
  3
txt
  4

  0
STYLE
  5
212
100
AcDbSymbolTableRecord
100
AcDbTextStyleTableRecord
  2
TEXTSTYLE_1
 70
0
 40
0.0
 41
0.8
 50
0.0
 71
0
 42
0.2
  3
gdt
  4

  0
ENDTAB
  0
TABLE
  2
VIEW
  5
6
100
AcDbSymbolTable
 70
0
  0
ENDTAB
  0
TABLE
  2
UCS
  5
7
100
AcDbSymbolTable
 70
0
  0
ENDTAB
  0
TABLE
  2
APPID
  5
9
100
AcDbSymbolTable
 70
1
  0
APPID
  5
213
100
AcDbSymbolTableRecord
100
AcDbRegAppTableRecord
  2
ACAD
 70
0
  0
ENDTAB
  0
TABLE
  2
BLOCK_RECORD
  5
1
100
AcDbSymbolTable
 70
0
  0
BLOCK_RECORD
  5
214
100
AcDbSymbolTableRecord
100
AcDbBlockTableRecord
  2
*Model_Space
  0
BLOCK_RECORD
  5
215
100
AcDbSymbolTableRecord
100
AcDbBlockTableRecord
  2
*Paper_Space
  0
BLOCK_RECORD
  5
216
100
AcDbSymbolTableRecord
100
AcDbBlockTableRecord
  2
_FILLED
  0
ENDTAB
  0
TABLE
  2
DIMSTYLE
  5
A
100
AcDbSymbolTable
 70
1
100
AcDbDimStyleTable
 71
0
  0
DIMSTYLE
105
217
100
AcDbSymbolTableRecord
100
AcDbDimStyleTableRecord
  2
STANDARD
 70
0
  3

  4

 40
1.0
 41
3.0
 42
0.5
 43
0.38
 44
1.5
 45
0.0
 46
0.0
 47
0.01
 48
0.01
140
3.0
141
0.09
142
0.0
143
25.4
144
1.0
145
0.0
146
1.0
147
0.625
 71
1
 72
0
 73
0
 74
0
 75
0
 76
0
 77
1
 78
8
 79
2
170
0
171
1
172
0
173
0
174
0
175
0
176
0
177
0
178
0
270
2
179
2
271
2
272
2
273
2
274
2
275
0
280
0
281
0
282
0
283
1
284
8
285
0
286
0
287
3
288
0
340
11
278
44
341
216
342
216
343
216
344
216
  0
ENDTAB
  0
ENDSEC
  0
SECTION
  2
BLOCKS
  0
BLOCK
  5
20
100
AcDbEntity
  8
0
100
AcDbBlockBegin
  2
*Model_Space
 70
0
 10
0.0
 20
0.0
 30
0.0
  3
*Model_Space
  1

  0
ENDBLK
  5
21
100
AcDbEntity
  8
0
100
AcDbBlockEnd
  0
BLOCK
  5
1C
100
AcDbEntity
  8
0
100
AcDbBlockBegin
  2
*Paper_Space
 70
0
 10
0.0
 20
0.0
 30
0.0
  3
*Paper_Space
  1

  0
ENDBLK
  5
1D
100
AcDbEntity
  8
0
100
AcDbBlockEnd
  0
BLOCK
  5
218
100
AcDbEntity
  8
0
100
AcDbBlockBegin
  2
_FILLED
 70
64
 10
0.0
 20
0.0
  3
_FILLED
  1

  0
SOLID
  5
219
100
AcDbEntity
  8
0
  6
BYBLOCK
 62
0
100
AcDbTrace
 10
0.0
 20
0.0
 11
-1.0
 21
0.3166666667
 12
-1.0
 22
-0.3166666667
 13
-1.0
 23
-0.3166666667
  0
ENDBLK
  5
21A
100
AcDbEntity
  8
0
  6
BYBLOCK
 62
0
100
AcDbBlockEnd
  0
ENDSEC
  0
SECTION
  2
ENTITIES
  0
LINE
  5
21B
100
AcDbEntity
  8
ASSI
100
AcDbLine
 62
7
  6
CONTINUOUS
 10
-4.3383551153
 20
24.1990798292
 11
-7.534790789
 21
22.1549962725
  0
LWPOLYLINE
  5
21C
100
AcDbEntity
  8
ASSI
100
AcDbPolyline
 62
7
  6
CONTINUOUS
 90
19
 70
0
 10
-7.5346555544
 20
22.1550743095
 10
-7.5747400815
 20
22.1282954276
 10
-7.6438994085
 20
22.0765143913
 10
-7.7098709511
 20
22.0200498657
 10
-7.7726831968
 20
21.9592308357
 10
-7.8323120353
 20
21.8943705078
 10
-7.8885540586
 20
21.8259073091
 10
-7.9413237442
 20
21.7541553481
 10
-7.990501494
 20
21.6793792746
 10
-8.0357787033
 20
21.6021262377
 10
-8.0770286741
 20
21.5226844884
 10
-8.1140806211
 20
21.4413142231
 10
-8.1466514234
 20
21.358579203
 10
-8.17457772
 20
21.2747297462
 10
-8.1976597625
 20
21.1899958786
 10
-8.2156485658
 20
21.1047769674
 10
-8.2282976339
 20
21.0192664177
 10
-8.2353422095
 20
20.9336356043
 10
-8.2360106425
 20
20.9176643514
  0
LWPOLYLINE
  5
21D
100
AcDbEntity
  8
ASSI
100
AcDbPolyline
 62
250
  6
CONTINUOUS
 90
22
 70
0
 10
-4.0819605144
 20
24.1782161572
 10
-7.3361595405
 20
22.0975455787
 10
-7.3972387022
 20
22.0538506268
 10
-7.4575808965
 20
22.0056454032
 10
-7.5168453223
 20
21.9531610976
 10
-7.574730827
 20
21.8966666972
 10
-7.6309770525
 20
21.836466291
 10
-7.6852863955
 20
21.7728564207
 10
-7.7373630968
 20
21.7061565114
 10
-7.7869653933
 20
21.6367307518
 10
-7.8338293172
 20
21.5649301814
 10
-7.8777033099
 20
21.4911118684
 10
-7.9183869212
 20
21.4156681242
 10
-7.955665918
 20
21.3389794254
 10
-7.9893388805
 20
21.2614306457
 10
-8.0192521962
 20
21.1834307242
 10
-8.0452481818
 20
21.1053810825
 10
-8.0671887103
 20
21.02766786
 10
-8.0849783627
 20
20.9506783837
 10
-8.0985270998
 20
20.8748010773
 10
-8.1077538927
 20
20.8004231722
 10
-8.1126079507
 20
20.7279232395
  0
LWPOLYLINE
  5
21E
100
AcDbEntity
  8
ASSI
100
AcDbPolyline
 62
250
  6
CONTINUOUS
 90
16
 70
0
 10
6.5875665778
 20
-21.7740839978
 10
6.6261804399
 20
-21.7914577535
 10
6.6676036955
 20
-21.8063892583
 10
6.7114349859
 20
-21.8187338377
 10
6.7572496208
 20
-21.8283718826
 10
6.8046036926
 20
-21.8352100079
 10
6.853038378
 20
-21.8391819577
 10
6.9020843832
 20
-21.8402492468
 10
6.9512664915
 20
-21.8384015342
 10
7.000108167
 20
-21.8336567226
 10
7.0481361728
 20
-21.8260607855
 10
7.0948851555
 20
-21.8156873216
 10
7.1399021546
 20
-21.8026368414
 10
7.182750991
 20
-21.7870357939
 10
7.2230164935
 20
-21.7690353407
 10
7.2603085213
 20
-21.748809892
  0
LWPOLYLINE
  5
21F
100
AcDbEntity
  8
ASSI
100
AcDbPolyline
 62
7
  6
CONTINUOUS
 90
13
 70
0
 10
6.8507853795
 20
-22.2898872756
 10
6.9029065401
 20
-22.313783793
 10
6.9653636729
 20
-22.3364135718
 10
7.0302101466
 20
-22.3536485245
 10
7.0970515229
 20
-22.365308064
 10
7.1654416582
 20
-22.3712527715
 10
7.2354698179
 20
-22.3713749199
 10
7.3068304427
 20
-22.3654989655
 10
7.3791264195
 20
-22.3535102516
 10
7.452471977
 20
-22.3351907033
 10
7.52676672
 20
-22.3102677146
 10
7.6015564421
 20
-22.2786072889
 10
7.6423538985
 20
-22.2584944793
  0
LINE
  5
220
100
AcDbEntity
  8
ASSI
100
AcDbLine
 62
7
  6
CONTINUOUS
 10
6.8507557475
 20
-22.2898795229
 11
6.8506331786
 21
-22.2898175465
  0
LWPOLYLINE
  5
221
100
AcDbEntity
  8
ASSI
100
AcDbPolyline
 62
250
  6
CONTINUOUS
 90
12
 70
0
 10
6.8506331786
 20
-22.2898175465
 10
6.8157838427
 20
-22.2698718263
 10
6.7761946627
 20
-22.2407765857
 10
6.7399312926
 20
-22.2065503279
 10
6.7071643913
 20
-22.1673630928
 10
6.678080294
 20
-22.1234275382
 10
6.652822517
 20
-22.0749711767
 10
6.631505187
 20
-22.0222344995
 10
6.6142452892
 20
-21.9654821942
 10
6.6011322687
 20
-21.9049990526
 10
6.5922248331
 20
-21.841091624
 10
6.5875665564
 20
-21.7740839944
  0
LWPOLYLINE
  5
222
100
AcDbEntity
  8
ASSI
100
AcDbPolyline
 62
7
  6
CONTINUOUS
 90
10
 70
0
 10
-7.8821189836
 20
-13.7831654928
 10
-6.4119454841
 20
-14.738803532
 10
-4.8311624499
 20
-15.7368556765
 10
-3.224432056
 20
-16.721470233
 10
-1.5921253881
 20
-17.6924248363
 10
0.0653866385
 20
-18.6495007996
 10
1.7477228897
 20
-19.5924866635
 10
3.4544901138
 20
-20.5211759672
 10
5.1852902537
 20
-21.4353631809
 10
6.8506306199
 20
-22.2898162522
  0
LWPOLYLINE
  5
223
100
AcDbEntity
  8
ASSI
100
AcDbPolyline
 62
250
  6
CONTINUOUS
 90
31
 70
0
 10
-8.1126079294
 20
-13.2863874582
 10
-7.6676781233
 20
-13.5795042443
 10
-7.2207339721
 20
-13.871344605
 10
-6.7717864237
 20
-14.1619048501
 10
-6.3209528989
 20
-14.4511133485
 10
-5.8681388219
 20
-14.7390349266
 10
-5.4130326434
 20
-15.0258682345
 10
-4.955490548
 20
-15.3117008803
 10
-4.4956681351
 20
-15.5964326185
 10
-4.0337003365
 20
-15.8799789209
 10
-3.5696283241
 20
-16.1623149258
 10
-3.1034280373
 20
-16.4434556857
 10
-2.6351387633
 20
-16.7233777451
 10
-2.1647064536
 20
-17.0021133949
 10
-1.6922022021
 20
-17.2796205078
 10
-1.2178563559
 20
-17.5557659066
 10
-0.7419862533
 20
-17.8303709358
 10
-0.2643008152
 20
-18.1036098009
 10
0.2158883076
 20
-18.3758750802
 10
0.6976677682
 20
-18.6466494387
 10
1.1819371124
 20
-18.9164385686
 10
1.6721566926
 20
-19.1871381374
 10
2.1675320871
 20
-19.4582589019
 10
2.6689317331
 20
-19.7302245271
 10
3.1824298065
 20
-20.0062266646
 10
3.7083159366
 20
-20.286272896
 10
4.2465384044
 20
-20.5701841411
 10
4.8028097292
 20
-20.8607766243
 10
5.3791986882
 20
-21.1588743888
 10
5.9740496807
 20
-21.4633598529
 10
6.5875665758
 20
-21.7740839796
  0
LINE
  5
224
100
AcDbEntity
  8
ASSI
100
AcDbLine
 62
7
  6
CONTINUOUS
 10
-7.8822659378
 20
-13.7830685587
 11
-7.8821168596
 21
-13.7831668932
  0
LWPOLYLINE
  5
225
100
AcDbEntity
  8
ASSI
100
AcDbPolyline
 62
250
  6
CONTINUOUS
 90
8
 70
0
 10
-8.1125978256
 20
-13.2863819121
 10
-8.1431129291
 20
-13.2638416994
 10
-8.1696865891
 20
-13.2395129865
 10
-8.1920613332
 20
-13.2136314945
 10
-8.2100203724
 20
-13.1864479892
 10
-8.2233897014
 20
-13.1582258518
 10
-8.2320397847
 20
-13.1292385265
 10
-8.2359662354
 20
-13.0979268146
  0
LWPOLYLINE
  5
226
100
AcDbEntity
  8
ASSI
100
AcDbPolyline
 62
250
  6
CONTINUOUS
 90
11
 70
0
 10
-8.1126079228
 20
-13.2863874521
 10
-8.1077538655
 20
-13.3535081271
 10
-8.0985270726
 20
-13.4175999507
 10
-8.0849783352
 20
-13.4783346704
 10
-8.0671886825
 20
-13.5353928484
 10
-8.045248154
 20
-13.5884893509
 10
-8.0192521686
 20
-13.6373719433
 10
-7.9893388528
 20
-13.6817862777
 10
-7.9556658902
 20
-13.7214966608
 10
-7.9183868934
 20
-13.7563093284
 10
-7.8822659378
 20
-13.7830685587
  0
LWPOLYLINE
  5
227
100
AcDbEntity
  8
ASSI
100
AcDbPolyline
 62
7
  6
CONTINUOUS
 90
13
 70
0
 10
-8.2359662354
 20
-13.0979268146
 10
-8.2355946999
 20
-13.1069239815
 10
-8.2287882407
 20
-13.1889612257
 10
-8.2160870181
 20
-13.2675263855
 10
-8.1976969345
 20
-13.3423795618
 10
-8.1738301962
 20
-13.4134382287
 10
-8.1446922027
 20
-13.48056499
 10
-8.1105622846
 20
-13.5434517055
 10
-8.0717388614
 20
-13.6018793415
 10
-8.0285402807
 20
-13.6556519943
 10
-7.9814170964
 20
-13.7044578165
 10
-7.9308026701
 20
-13.7480902949
 10
-7.8823089333
 20
-13.7830338368
  0
LWPOLYLINE
  5
228
100
AcDbEntity
  8
ASSI
100
AcDbPolyline
 62
7
  6
CONTINUOUS
 90
10
 70
0
 10
-8.2360107152
 20
20.9178956582
 10
-8.3560213088
 20
17.1189272362
 10
-8.4478556261
 20
13.2700318017
 10
-8.5091024724
 20
9.4388337663
 10
-8.5397385692
 20
5.6257395702
 10
-8.5397591502
 20
1.8310794156
 10
-8.5091636578
 20
-1.9448450058
 10
-8.4479557318
 20
-5.701708631
 10
-8.3561575251
 20
-9.4391326466
 10
-8.2359819423
 20
-13.0977366337
  0
LWPOLYLINE
  5
229
100
AcDbEntity
  8
ASSI
100
AcDbPolyline
 62
250
  6
CONTINUOUS
 90
10
 70
0
 10
-8.1126079269
 20
20.7279232496
 10
-8.2364778759
 20
16.8783767173
 10
-8.3294088634
 20
13.0454287885
 10
-8.3913787555
 20
9.2294353259
 10
-8.4223701831
 20
5.4305791708
 10
-8.4223701717
 20
1.6493824279
 10
-8.3913787249
 20
-2.1132987408
 10
-8.3294088243
 20
-5.8569572176
 10
-8.2364778455
 20
-9.5814302227
 10
-8.1126079294
 20
-13.2863874582
  0
LINE
  5
22A
100
AcDbEntity
  8
ASSI
100
AcDbLine
 62
250
  6
CONTINUOUS
 10
7.4031085546
 20
13.6617479459
 11
10.7675241983
 21
15.6043097918
  0
LINE
  5
22B
100
AcDbEntity
  8
ASSI
100
AcDbLine
 62
250
  6
CONTINUOUS
 10
7.7565407912
 20
13.0495853555
 11
11.120956435
 21
14.9921472015
  0
LWPOLYLINE
  5
22C
100
AcDbEntity
  8
ASSI
100
AcDbPolyline
 62
250
  6
CONTINUOUS
 90
10
 70
0
 10
7.2603085213
 20
-21.748809892
 10
7.132407693
 20
-18.0449462452
 10
7.0364820702
 20
-14.322786361
 10
6.9725316528
 20
-10.5823302396
 10
6.9405564381
 20
-6.8230603539
 10
6.9405564288
 20
-3.045494231
 10
6.9725316332
 20
0.7488155483
 10
7.036482054
 20
4.5593514569
 10
7.1324076886
 20
8.3866310218
 10
7.2603085367
 20
12.230654243
  0
LWPOLYLINE
  5
22D
100
AcDbEntity
  8
ASSI
100
AcDbPolyline
 62
250
  6
CONTINUOUS
 90
10
 70
0
 10
6.5875665758
 20
-21.7740839796
 10
6.4623576139
 20
-18.0683535953
 10
6.3684223505
 20
-14.3433007284
 10
6.3057829265
 20
-10.599255677
 10
6.2744567179
 20
-6.8363812208
 10
6.2744567062
 20
-3.0551844778
 10
6.3057828955
 20
0.7434783901
 10
6.368422311
 20
4.5590852781
 10
6.4623575835
 20
8.3914533451
 10
6.5875665788
 20
12.2402267286
  0
LWPOLYLINE
  5
22E
100
AcDbEntity
  8
ASSI
100
AcDbPolyline
 62
250
  6
CONTINUOUS
 90
22
 70
0
 10
6.5875665886
 20
12.2402267318
 10
6.5922248669
 20
12.3128397106
 10
6.6011323042
 20
12.3874020117
 10
6.614245326
 20
12.463530897
 10
6.6315052243
 20
12.5408262466
 10
6.6528225537
 20
12.618899294
 10
6.6780803301
 20
12.6973751662
 10
6.707164427
 20
12.7758538672
 10
6.739931328
 20
12.8539257949
 10
6.7761946978
 20
12.9312009032
 10
6.8157838771
 20
13.0072765577
 10
6.8585068293
 20
13.0817594658
 10
6.9041210622
 20
13.1542815909
 10
6.9524118079
 20
13.2244646224
 10
7.0031437423
 20
13.2919409823
 10
7.0560238501
 20
13.3563760739
 10
7.1107961747
 20
13.4174274899
 10
7.1671986545
 20
13.474778168
 10
7.2249155264
 20
13.528156011
 10
7.2836545246
 20
13.5772869009
 10
7.3431477232
 20
13.6218975701
 10
7.4031085545
 20
13.6617479458
  0
LWPOLYLINE
  5
22F
100
AcDbEntity
  8
ASSI
100
AcDbPolyline
 62
250
  6
CONTINUOUS
 90
22
 70
0
 10
7.2603085367
 20
12.230654243
 10
7.2631896643
 20
12.2730803083
 10
7.2685894928
 20
12.3162114881
 10
7.2765080224
 20
12.3600477822
 10
7.2870108434
 20
12.4048387551
 10
7.3000323655
 20
12.4503348425
 10
7.315375817
 20
12.4957873512
 10
7.3330756127
 20
12.541176917
 10
7.3530973379
 20
12.5865229041
 10
7.3751409773
 20
12.6311347127
 10
7.39923989
 20
12.6750041251
 10
7.4253607168
 20
12.7181393589
 10
7.4531033649
 20
12.759874467
 10
7.4824928415
 20
12.8001863358
 10
7.5135041394
 20
12.8390980789
 10
7.5456621434
 20
12.8760130902
 10
7.5790010739
 20
12.9109100276
 10
7.6134867106
 20
12.9438102333
 10
7.6485412783
 20
12.9741811269
 10
7.683972185
 20
13.0018451818
 10
7.7199720227
 20
13.0269799247
 10
7.7565407912
 20
13.0495853555
  0
LINE
  5
230
100
AcDbEntity
  8
ASSI
100
AcDbLine
 62
7
  6
CONTINUOUS
 10
11.120956435
 20
-20.2796485399
 11
11.120956435
 21
14.9921472015
  0
LWPOLYLINE
  5
231
100
AcDbEntity
  8
ASSI
100
AcDbPolyline
 62
250
  6
CONTINUOUS
 90
9
 70
0
 10
-8.1126079246
 20
20.7279232709
 10
-8.1431231846
 20
20.749973058
 10
-8.1696968795
 20
20.773478513
 10
-8.1920715313
 20
20.7982118867
 10
-8.2100303472
 20
20.8239335323
 10
-8.2233993207
 20
20.8503942275
 10
-8.2320489169
 20
20.8773375891
 10
-8.2358953282
 20
20.9045025573
 10
-8.2360187167
 20
20.91766463
  0
LWPOLYLINE
  5
232
100
AcDbEntity
  8
ASSI
100
AcDbPolyline
 62
250
  6
CONTINUOUS
 90
16
 70
0
 10
6.5875754056
 20
12.2402321134
 10
6.6261887283
 20
12.2223677109
 10
6.6676113687
 20
12.2066126132
 10
6.7114419824
 20
12.1931194713
 10
6.7572558944
 20
12.1820190206
 10
6.8046092135
 20
12.1734188131
 10
6.8530431331
 20
12.1674021762
 10
6.9020883766
 20
12.164027405
 10
6.9512697444
 20
12.1633271978
 10
7.000110718
 20
12.1653083388
 10
7.0481380769
 20
12.1699516327
 10
7.0948864837
 20
12.1772120907
 10
7.1399029929
 20
12.1870193662
 10
7.1827514392
 20
12.1992784363
 10
7.2230166638
 20
12.2138705228
 10
7.2603085367
 20
12.2306542431
  0
LWPOLYLINE
  5
233
100
AcDbEntity
  8
ASSI
100
AcDbPolyline
 62
250
  6
CONTINUOUS
 90
11
 70
0
 10
6.5875665788
 20
12.2402267286
 10
6.0802616361
 20
12.4973520344
 10
5.575144501
 20
12.7556251754
 10
5.0722215539
 20
13.0150398216
 10
4.5716177149
 20
13.2755277707
 10
4.0732198218
 20
13.5371440138
 10
3.5766812136
 20
13.8000696232
 10
3.0818491671
 20
14.0643882429
 10
2.5888983129
 20
14.330009436
 10
2.0979754555
 20
14.5968546877
 10
1.609123941
 20
14.8648999951
  0
LINE
  5
234
100
AcDbEntity
  8
ASSI
100
AcDbLine
 62
250
  6
CONTINUOUS
 10
1.609123941
 20
14.8648999951
 11
1.0070814414
 21
15.1984555707
  0
LWPOLYLINE
  5
235
100
AcDbEntity
  8
ASSI
100
AcDbPolyline
 62
250
  6
CONTINUOUS
 90
19
 70
0
 10
1.0070814414
 20
15.1984555707
 10
0.1549038364
 20
15.6762843548
 10
-0.3256861651
 20
15.9491399081
 10
-0.8039435962
 20
16.223044351
 10
-1.2795600445
 20
16.4978150706
 10
-1.7528361729
 20
16.7736195405
 10
-2.2244491437
 20
17.0508535217
 10
-2.6935032624
 20
17.3289903202
 10
-3.1608741241
 20
17.608548623
 10
-3.629841573
 20
17.8915225457
 10
-4.0995561892
 20
18.1774531058
 10
-4.5707542354
 20
18.4668417846
 10
-5.0489673486
 20
18.7631922095
 10
-5.5342060725
 20
19.0666706196
 10
-6.0261637065
 20
19.3772476553
 10
-6.5297310309
 20
19.6982201936
 10
-7.0463400693
 20
20.030781998
 10
-7.5740515469
 20
20.3739772229
 10
-8.1126079269
 20
20.7279232496
  0
LWPOLYLINE
  5
236
100
AcDbEntity
  8
ASSI
100
AcDbPolyline
 62
250
  6
CONTINUOUS
 90
9
 70
0
 10
-7.2746717755
 20
22.1365143193
 10
-7.3125156217
 20
22.1550445591
 10
-7.3498438309
 20
22.1689630332
 10
-7.3862477769
 20
22.1781173956
 10
-7.4213289653
 20
22.1824074541
 10
-7.4547033608
 20
22.1817862617
 10
-7.4860055976
 20
22.1762606457
 10
-7.5148930264
 20
22.1658911298
 10
-7.534659343
 20
22.1550802439
  0
LINE
  5
237
100
AcDbEntity
  8
ASSI
100
AcDbLine
 62
250
  6
CONTINUOUS
 10
7.4031085546
 20
13.6617479459
 11
6.8964274635
 21
13.917135824
  0
LINE
  5
238
100
AcDbEntity
  8
ASSI
100
AcDbLine
 62
250
  6
CONTINUOUS
 10
6.8964274635
 20
13.917135824
 11
6.1748531991
 21
14.285189856
  0
LWPOLYLINE
  5
239
100
AcDbEntity
  8
ASSI
100
AcDbPolyline
 62
250
  6
CONTINUOUS
 90
9
 70
0
 10
6.1748531991
 20
14.285189856
 10
5.390074797
 20
14.6903965818
 10
4.8925663757
 20
14.9504922499
 10
4.3969065352
 20
15.2119952154
 10
3.9028882862
 20
15.4750129824
 10
3.410718618
 20
15.7394380468
 10
2.9206081106
 20
16.0051605272
 10
2.4326144516
 20
16.2721509491
 10
1.9466799534
 20
16.5404387869
  0
LINE
  5
23A
100
AcDbEntity
  8
ASSI
100
AcDbLine
 62
250
  6
CONTINUOUS
 10
1.9466799534
 20
16.5404387869
 11
1.4628421335
 21
16.810002583
  0
LWPOLYLINE
  5
23B
100
AcDbEntity
  8
ASSI
100
AcDbPolyline
 62
250
  6
CONTINUOUS
 90
19
 70
0
 10
1.4628421335
 20
16.810002583
 10
0.9810309086
 20
17.0808840903
 10
0.501316362
 20
17.3530415558
 10
0.0239462614
 20
17.6263282625
 10
-0.4507853305
 20
17.9005708586
 10
-0.9231724764
 20
18.175942696
 10
-1.3938495967
 20
18.4528171129
 10
-1.861929945
 20
18.7306262804
 10
-2.3283002678
 20
19.0099380274
 10
-2.7962552247
 20
19.2928291791
 10
-3.2650916088
 20
19.5787679703
 10
-3.735512627
 20
19.8682861663
 10
-4.2129225603
 20
20.1650558868
 10
-4.6976519534
 20
20.469145103
 10
-5.1893702616
 20
20.7804858439
 10
-5.692490131
 20
21.1025463168
 10
-6.2084824435
 20
21.4364825907
 10
-6.7358763171
 20
21.7811385965
 10
-7.2746717519
 20
22.1365143344
  0
LWPOLYLINE
  5
23C
100
AcDbEntity
  8
ASSI
100
AcDbPolyline
 62
250
  6
CONTINUOUS
 90
16
 70
0
 10
7.4031085545
 20
13.6617479458
 10
7.4391205683
 20
13.637634814
 10
7.4748396813
 20
13.6093768555
 10
7.5098748884
 20
13.5772834006
 10
7.543842671
 20
13.5417057654
 10
7.5763711955
 20
13.5030334064
 10
7.6071043834
 20
13.4616896568
 10
7.6357058089
 20
13.4181270928
 10
7.6618623818
 20
13.3728225789
 10
7.6852877751
 20
13.3262720484
 10
7.705725559
 20
13.278985074
 10
7.7229520078
 20
13.2314792904
 10
7.7367785495
 20
13.1842747271
 10
7.7470538297
 20
13.1378881166
 10
7.7536653684
 20
13.0928272373
 10
7.7565407912
 20
13.0495853555
  0
LINE
  5
23D
100
AcDbEntity
  8
ASSI
100
AcDbLine
 62
7
  6
CONTINUOUS
 10
-4.0819605144
 20
24.1782161572
 11
10.7675241983
 21
15.6043097918
  0
LWPOLYLINE
  5
23E
100
AcDbEntity
  8
ASSI
100
AcDbPolyline
 62
250
  6
CONTINUOUS
 90
9
 70
0
 10
7.642500129
 20
-22.258427213
 10
7.6618639268
 20
-22.2466554591
 10
7.6852891055
 20
-22.2268253873
 10
7.7057266151
 20
-22.2024822401
 10
7.7229527648
 20
-22.1738925222
 10
7.7367790178
 20
-22.1413692143
 10
7.7470540509
 20
-22.1052683547
 10
7.7536654137
 20
-22.0659851447
 10
7.7565407622
 20
-22.0239496135
  0
LINE
  5
23F
100
AcDbEntity
  8
ASSI
100
AcDbLine
 62
250
  6
CONTINUOUS
 10
11.120956435
 20
-20.2796485399
 11
7.7565407622
 21
-22.0239496135
  0
LINE
  5
240
100
AcDbEntity
  8
ASSI
100
AcDbLine
 62
7
  6
CONTINUOUS
 10
11.0108405476
 20
-20.5120913319
 11
7.642500129
 21
-22.258427213
  0
LWPOLYLINE
  5
241
100
AcDbEntity
  8
ASSI
100
AcDbPolyline
 62
250
  6
CONTINUOUS
 90
22
 70
0
 10
7.7565407622
 20
-22.0239496135
 10
7.7199719934
 20
-22.04141772
 10
7.6839721555
 20
-22.0557330571
 10
7.6485412486
 20
-22.0668956247
 10
7.6134866807
 20
-22.0749389459
 10
7.5790010437
 20
-22.0798294976
 10
7.5456621131
 20
-22.0814667103
 10
7.5135041088
 20
-22.0797917422
 10
7.4824928109
 20
-22.074863435
 10
7.4531033341
 20
-22.0667577448
 10
7.425360686
 20
-22.0554241538
 10
7.3992398591
 20
-22.0409131798
 10
7.3751409464
 20
-22.0234523318
 10
7.353097307
 20
-22.0029968359
 10
7.3330755817
 20
-21.9795914661
 10
7.315375786
 20
-21.9535980533
 10
7.300032334
 20
-21.9249595204
 10
7.2870108115
 20
-21.8937329445
 10
7.2765079917
 20
-21.8604513875
 10
7.2685894656
 20
-21.8252925367
 10
7.2631896421
 20
-21.7880787049
 10
7.2603085213
 20
-21.748809892
  0
ELLIPSE
  5
242
100
AcDbEntity
  8
ASSI
100
AcDbEllipse
 62
7
  6
CONTINUOUS
 10
-4.0817181651
 20
23.7697011494
 30
0.0
 11
-0.2501834304
 21
0.4333025529
 31
0.0
 40
0.5769361983
 41
-0.7851038024
 42
0.0261609458
  0
ELLIPSE
  5
243
100
AcDbEntity
  8
ASSI
100
AcDbEllipse
 62
7
  6
CONTINUOUS
 10
10.767281849
 20
-20.0751614346
 30
0.0
 11
-0.2501834304
 21
0.4333025529
 31
0.0
 40
0.5769361983
 41
-3.1677535988
 42
-2.3565853618
  0
ELLIPSE
  5
244
100
AcDbEntity
  8
ASSI
100
AcDbEllipse
 62
7
  6
CONTINUOUS
 10
10.767281849
 20
15.196074643
 30
0.0
 11
-0.2500121049
 21
0.4330057129
 31
0.0
 40
0.5777274115
 41
-2.3559002616
 42
-0.7857891675
  0
ENDSEC
  0
SECTION
  2
OBJECTS
  0
DICTIONARY
  5
C
100
AcDbDictionary
280
0
281
1
  3
ACAD_GROUP
350
D
  3
ACAD_MLINESTYLE
350
17
  3
ACAD_LAYOUT
350
1A
  3
ACAD_PLOTSETTINGS
350
19
  3
ACAD_PLOTSTYLENAME
350
E
  0
DICTIONARY
  5
D
102
{ACAD_REACTORS
330
C
102
}
100
AcDbDictionary
280
0
281
1
  0
ACDBDICTIONARYWDFLT
  5
E
102
{ACAD_REACTORS
330
C
102
}
100
AcDbDictionary
281
1
  3
Normal
350
F
100
AcDbDictionaryWithDefault
340
F
  0
DICTIONARY
  5
17
102
{ACAD_REACTORS
330
C
102
}
100
AcDbDictionary
280
0
281
1
  3
Standard
350
18
  0
DICTIONARY
  5
19
102
{ACAD_REACTORS
330
C
102
}
100
AcDbDictionary
281
1
  0
DICTIONARY
  5
1A
102
{ACAD_REACTORS
330
C
102
}
100
AcDbDictionary
281
1
  3
Model
350
245
  3
Layout1
350
246
  0
ACDBPLACEHOLDER
  5
F
102
{ACAD_REACTORS
330
E
102
}
  0
MLINESTYLE
  5
18
102
{ACAD_REACTORS
330
17
102
}
100
AcDbMlineStyle
  2
STANDARD
 70
0
  3

 62
256
 51
90.0
 52
90.0
 71
2
 49
0.5
 62
256
  6
BYLAYER
 49
-0.5
 62
256
  6
BYLAYER
  0
LAYOUT
  5
245
102
{ACAD_REACTORS
330
1A
102
}
100
AcDbPlotSettings
  1

  2
none_device
  4

  6

 40
0.0
 41
0.0
 42
0.0
 43
0.0
 44
210.0
 45
297.0
 46
0.0
 47
0.0
 48
0.0
 49
0.0
140
0.0
141
0.0
142
1.0
143
1.0
 70
1024
 72
1
 73
0
 74
0
  7

 75
0
147
1.0
148
0.0
149
0.0
100
AcDbLayout
  1
Model
 70
0
 71
0
 10
0.0
 20
0.0
 11
210.0
 21
297.0
 12
0.0
 22
0.0
 32
0.0
 14
0.0
 24
0.0
 34
0.0
 15
0.0
 25
0.0
 35
0.0
146
0.0
 13
0.0
 23
0.0
 33
0.0
 16
1.0
 26
0.0
 36
0.0
 17
0.0
 27
1.0
 37
0.0
 76
0
330
214
345
0
346
0
  0
LAYOUT
  5
246
102
{ACAD_REACTORS
330
1A
102
}
100
AcDbPlotSettings
  1

  2
none_device
  4

  6

 40
0.0
 41
0.0
 42
0.0
 43
0.0
 44
210.0
 45
297.0
 46
0.0
 47
0.0
 48
0.0
 49
0.0
140
0.0
141
0.0
142
1.0
143
1.0
 70
0
 72
1
 73
0
 74
0
  7

 75
0
147
1.0
148
0.0
149
0.0
100
AcDbLayout
  1
Layout1
 70
0
 71
1
 10
0.0
 20
0.0
 11
210.0
 21
297.0
 12
0.0
 22
0.0
 32
0.0
 14
0.0
 24
0.0
 34
0.0
 15
0.0
 25
0.0
 35
0.0
146
0.0
 13
0.0
 23
0.0
 33
0.0
 16
1.0
 26
0.0
 36
0.0
 17
0.0
 27
1.0
 37
0.0
 76
0
330
215
345
0
346
0
  0
ENDSEC
  0
EOF
