  0
SECTION
  2
HEADER
  9
$ACADVER
  1
AC1024
  9
$DWGCODEPAGE
  3
ANSI_1252
  9
$EXTMAX
 10
297.0
 20
210.0
 30
0.0
  9
$EXTMIN
 10
0.0
 20
0.0
 30
0.0
  9
$LIMMIN
 10
0.0
 20
0.0
  9
$LIMMAX
 10
297.0
 20
210.0
  9
$VIEWCTR
 10
148.5
 20
105.0
  9
$VIEWSIZE
 40
210.0
  9
$CLAYER
  8
0
  9
$LTSCALE
 40
16.335
  9
$CELTYPE
  6
BYLAYER
  9
$DIMSCALE
 40
1.0
  9
$DIMASZ
 40
3.0
  9
$DIMEXO
 40
0.5
  9
$DIMDLI
 40
11.286
  9
$DIMEXE
 40
1.5
  9
$DIMCEN
 40
2.673
  9
$DIMLFAC
 40
1.0
  9
$DIMBLK
  1
_FILLED
  9
$DIMALT
 70
0
  9
$DIMALTF
 40
0.0393700787
  9
$DIMTXT
 40
3.0
  9
$DIMTOL
 70
1
  9
$DIMLIM
 70
0
  9
$DIMTFAC
 40
1.0
  9
$DIMTP
 40
0.01
  9
$DIMTM
 40
0.01
  9
$DIMGAP
 40
0.625
  9
$DIMDSEP
 70
44
  9
$AUNITS
 70
0
  9
$PDMODE
 70
3
  9
$PDSIZE
 40
3.0
  9
$HANDSEED
  5
40A
  9
$TILEMODE
 70
1
  9
$MEASUREMENT
 70
1
  9
$INSUNITS
 70
4
  0
ENDSEC
  0
SECTION
  2
CLASSES
  0
CLASS
  1
ACDBDICTIONARYWDFLT
  2
AcDbDictionaryWithDefault
  3
AutoCAD 2000
 90
0
 91
1
280
0
281
0
  0
CLASS
  1
ACDBPLACEHOLDER
  2
AcDbPlaceHolder
  3
AutoCAD 2000
 90
0
 91
1
280
0
281
0
  0
CLASS
  1
LAYOUT
  2
AcDbLayout
  3
AutoCAD 2000
 90
0
 91
0
280
0
281
0
  0
ENDSEC
  0
SECTION
  2
TABLES
  0
TABLE
  2
VPORT
  5
8
100
AcDbSymbolTable
 70
2
  0
VPORT
  5
1F4
100
AcDbSymbolTableRecord
100
AcDbViewportTableRecord
  2
*ACTIVE
 70
0
 10
0.0
 20
0.0
 11
1.0
 21
1.0
 12
148.5
 22
105.0
 13
0.0
 23
0.0
 14
1.0
 24
1.0
 15
0.0
 25
0.0
 16
0.0
 26
0.0
 36
1.0
 17
0.0
 27
0.0
 37
0.0
 40
210.0
 41
1.4142857143
 42
50.0
 43
0.0
 44
0.0
 50
0.0
 51
0.0
 71
0
 72
100
 73
1
 74
1
 75
0
 76
0
 77
0
 78
0
  0
ENDTAB
  0
TABLE
  2
LTYPE
  5
5
100
AcDbSymbolTable
 70
6
  0
LTYPE
  5
14
100
AcDbSymbolTableRecord
100
AcDbLinetypeTableRecord
  2
BYBLOCK
 70
0
  3

 72
65
 73
0
 40
0.0
  0
LTYPE
  5
15
100
AcDbSymbolTableRecord
100
AcDbLinetypeTableRecord
  2
BYLAYER
 70
0
  3

 72
65
 73
0
 40
0.0
  0
LTYPE
  5
16
100
AcDbSymbolTableRecord
100
AcDbLinetypeTableRecord
  2
CONTINUOUS
 70
64
  3
Solid line
 72
65
 73
0
 40
0.0
  0
LTYPE
  5
1F5
100
AcDbSymbolTableRecord
100
AcDbLinetypeTableRecord
  2
CENTER
 70
64
  3
____ _ ____ _ ____ _ ____ _ ____ _ ____ _ ____
 72
65
 73
4
 40
0.6
 49
0.375
 74
0
 49
-0.075
 74
0
 49
0.075
 74
0
 49
-0.075
 74
0
  0
LTYPE
  5
1F6
100
AcDbSymbolTableRecord
100
AcDbLinetypeTableRecord
  2
HIDDEN
 70
64
  3
- - - - - - - - - - - - - - - - - - - -
 72
65
 73
2
 40
0.2
 49
0.1
 74
0
 49
-0.1
 74
0
  0
LTYPE
  5
1F7
100
AcDbSymbolTableRecord
100
AcDbLinetypeTableRecord
  2
PHANTOM
 70
64
  3
_____ _ _ _____ _ _ _____ _ _ _____
 72
65
 73
6
 40
0.8
 49
0.45
 74
0
 49
-0.05
 74
0
 49
0.1
 74
0
 49
-0.05
 74
0
 49
0.1
 74
0
 49
-0.05
 74
0
  0
LTYPE
  5
1F8
100
AcDbSymbolTableRecord
100
AcDbLinetypeTableRecord
  2
DOT
 70
64
  3
. . . . . . . . . . . . . . . . . . . .
 72
65
 73
2
 40
0.2
 49
0.1
 74
0
 49
-0.1
 74
0
  0
LTYPE
  5
1F9
100
AcDbSymbolTableRecord
100
AcDbLinetypeTableRecord
  2
DASHED
 70
64
  3
- - - - - - - - - - - - - - - - - - - -
 72
65
 73
2
 40
0.2
 49
0.1
 74
0
 49
-0.1
 74
0
  0
ENDTAB
  0
TABLE
  2
LAYER
  5
2
100
AcDbSymbolTable
 70
36
  0
LAYER
  5
10
100
AcDbSymbolTableRecord
100
AcDbLayerTableRecord
  2
0
 70
0
 62
7
  6
CONTINUOUS
370
-3
390
F
  0
LAYER
  5
1FA
100
AcDbSymbolTableRecord
100
AcDbLayerTableRecord
  2
DEFAULT_1
 70
0
 62
7
  6
CENTER
370
-3
390
F
  0
LAYER
  5
1FB
100
AcDbSymbolTableRecord
100
AcDbLayerTableRecord
  2
DEFAULT_2
 70
0
 62
7
  6
HIDDEN
370
-3
390
F
  0
LAYER
  5
1FC
100
AcDbSymbolTableRecord
100
AcDbLayerTableRecord
  2
DEFAULT_3
 70
0
 62
7
  6
PHANTOM
370
-3
390
F
  0
LAYER
  5
1FD
100
AcDbSymbolTableRecord
100
AcDbLayerTableRecord
  2
ASSI
 70
0
 62
7
  6
CONTINUOUS
370
-3
390
F
  0
LAYER
  5
1FE
100
AcDbSymbolTableRecord
100
AcDbLayerTableRecord
  2
COORDINATE
 70
0
 62
7
  6
CONTINUOUS
370
-3
390
F
  0
LAYER
  5
1FF
100
AcDbSymbolTableRecord
100
AcDbLayerTableRecord
  2
COORD_ORIGINE
 70
0
 62
7
  6
CONTINUOUS
370
-3
390
F
  0
LAYER
  5
200
100
AcDbSymbolTableRecord
100
AcDbLayerTableRecord
  2
COPY_PUBLISH
 70
0
 62
7
  6
CONTINUOUS
370
-3
390
F
  0
LAYER
  5
201
100
AcDbSymbolTableRecord
100
AcDbLayerTableRecord
  2
COSMETIC
 70
0
 62
7
  6
CONTINUOUS
370
-3
390
F
  0
LAYER
  5
202
100
AcDbSymbolTableRecord
100
AcDbLayerTableRecord
  2
COSMETICI
 70
0
 62
7
  6
CONTINUOUS
370
-3
390
F
  0
LAYER
  5
203
100
AcDbSymbolTableRecord
100
AcDbLayerTableRecord
  2
CURVE
 70
0
 62
7
  6
CONTINUOUS
370
-3
390
F
  0
LAYER
  5
204
100
AcDbSymbolTableRecord
100
AcDbLayerTableRecord
  2
DRAFT
 70
0
 62
7
  6
CONTINUOUS
370
-3
390
F
  0
LAYER
  5
205
100
AcDbSymbolTableRecord
100
AcDbLayerTableRecord
  2
IMPORT
 70
0
 62
7
  6
CONTINUOUS
370
-3
390
F
  0
LAYER
  5
206
100
AcDbSymbolTableRecord
100
AcDbLayerTableRecord
  2
IMPORT_IGES
 70
0
 62
7
  6
CONTINUOUS
370
-3
390
F
  0
LAYER
  5
207
100
AcDbSymbolTableRecord
100
AcDbLayerTableRecord
  2
INTFCLR_11
 70
0
 62
7
  6
CONTINUOUS
370
-3
390
F
  0
LAYER
  5
208
100
AcDbSymbolTableRecord
100
AcDbLayerTableRecord
  2
INTF_1
 70
0
 62
7
  6
CONTINUOUS
370
-3
390
F
  0
LAYER
  5
209
100
AcDbSymbolTableRecord
100
AcDbLayerTableRecord
  2
INTF_3
 70
0
 62
7
  6
CONTINUOUS
370
-3
390
F
  0
LAYER
  5
20A
100
AcDbSymbolTableRecord
100
AcDbLayerTableRecord
  2
NOTE
 70
0
 62
7
  6
CONTINUOUS
370
-3
390
F
  0
LAYER
  5
20B
100
AcDbSymbolTableRecord
100
AcDbLayerTableRecord
  2
PIANI
 70
0
 62
7
  6
CONTINUOUS
370
-3
390
F
  0
LAYER
  5
20C
100
AcDbSymbolTableRecord
100
AcDbLayerTableRecord
  2
PIANI_ORIGINE
 70
0
 62
7
  6
CONTINUOUS
370
-3
390
F
  0
LAYER
  5
20D
100
AcDbSymbolTableRecord
100
AcDbLayerTableRecord
  2
PIANI_RIFERIMENTO
 70
0
 62
7
  6
CONTINUOUS
370
-3
390
F
  0
LAYER
  5
20E
100
AcDbSymbolTableRecord
100
AcDbLayerTableRecord
  2
PUNTI
 70
0
 62
7
  6
CONTINUOUS
370
-3
390
F
  0
LAYER
  5
20F
100
AcDbSymbolTableRecord
100
AcDbLayerTableRecord
  2
RACCORDO
 70
0
 62
7
  6
CONTINUOUS
370
-3
390
F
  0
LAYER
  5
210
100
AcDbSymbolTableRecord
100
AcDbLayerTableRecord
  2
SIMBOLI
 70
0
 62
7
  6
CONTINUOUS
370
-3
390
F
  0
LAYER
  5
211
100
AcDbSymbolTableRecord
100
AcDbLayerTableRecord
  2
SMUSSO
 70
0
 62
7
  6
CONTINUOUS
370
-3
390
F
  0
LAYER
  5
212
100
AcDbSymbolTableRecord
100
AcDbLayerTableRecord
  2
SNAPLINE
 70
0
 62
7
  6
CONTINUOUS
370
-3
390
F
  0
LAYER
  5
213
100
AcDbSymbolTableRecord
100
AcDbLayerTableRecord
  2
SUPERFICI
 70
0
 62
7
  6
CONTINUOUS
370
-3
390
F
  0
LAYER
  5
214
100
AcDbSymbolTableRecord
100
AcDbLayerTableRecord
  2
TRASH
 70
0
 62
7
  6
CONTINUOUS
370
-3
390
F
  0
LAYER
  5
215
100
AcDbSymbolTableRecord
100
AcDbLayerTableRecord
  2
XSEC_DATUMS
 70
0
 62
7
  6
CONTINUOUS
370
-3
390
F
  0
LAYER
  5
216
100
AcDbSymbolTableRecord
100
AcDbLayerTableRecord
  2
___SHELL
 70
0
 62
7
  6
CONTINUOUS
370
-3
390
F
  0
ENDTAB
  0
TABLE
  2
STYLE
  5
3
100
AcDbSymbolTable
 70
1
  0
STYLE
  5
11
100
AcDbSymbolTableRecord
100
AcDbTextStyleTableRecord
  2
STANDARD
 70
0
 40
0.0
 41
0.8
 50
0.0
 71
0
 42
0.2
  3
txt
  4

  0
STYLE
  5
217
100
AcDbSymbolTableRecord
100
AcDbTextStyleTableRecord
  2
TEXTSTYLE_1
 70
0
 40
0.0
 41
0.8
 50
0.0
 71
0
 42
0.2
  3
gdt
  4

  0
ENDTAB
  0
TABLE
  2
VIEW
  5
6
100
AcDbSymbolTable
 70
0
  0
ENDTAB
  0
TABLE
  2
UCS
  5
7
100
AcDbSymbolTable
 70
0
  0
ENDTAB
  0
TABLE
  2
APPID
  5
9
100
AcDbSymbolTable
 70
1
  0
APPID
  5
218
100
AcDbSymbolTableRecord
100
AcDbRegAppTableRecord
  2
ACAD
 70
0
  0
ENDTAB
  0
TABLE
  2
BLOCK_RECORD
  5
1
100
AcDbSymbolTable
 70
0
  0
BLOCK_RECORD
  5
219
100
AcDbSymbolTableRecord
100
AcDbBlockTableRecord
  2
*Model_Space
  0
BLOCK_RECORD
  5
21A
100
AcDbSymbolTableRecord
100
AcDbBlockTableRecord
  2
*Paper_Space
  0
BLOCK_RECORD
  5
21B
100
AcDbSymbolTableRecord
100
AcDbBlockTableRecord
  2
_FILLED
  0
ENDTAB
  0
TABLE
  2
DIMSTYLE
  5
A
100
AcDbSymbolTable
 70
1
100
AcDbDimStyleTable
 71
0
  0
DIMSTYLE
105
21C
100
AcDbSymbolTableRecord
100
AcDbDimStyleTableRecord
  2
STANDARD
 70
0
  3

  4

 40
1.0
 41
3.0
 42
0.5
 43
0.38
 44
1.5
 45
0.0
 46
0.0
 47
0.01
 48
0.01
140
3.0
141
0.09
142
0.0
143
25.4
144
1.0
145
0.0
146
1.0
147
0.625
 71
1
 72
0
 73
0
 74
0
 75
0
 76
0
 77
1
 78
8
 79
2
170
0
171
1
172
0
173
0
174
0
175
0
176
0
177
0
178
0
270
2
179
2
271
2
272
2
273
2
274
2
275
0
280
0
281
0
282
0
283
1
284
8
285
0
286
0
287
3
288
0
340
11
278
44
341
21B
342
21B
343
21B
344
21B
  0
ENDTAB
  0
ENDSEC
  0
SECTION
  2
BLOCKS
  0
BLOCK
  5
20
100
AcDbEntity
  8
0
100
AcDbBlockBegin
  2
*Model_Space
 70
0
 10
0.0
 20
0.0
 30
0.0
  3
*Model_Space
  1

  0
ENDBLK
  5
21
100
AcDbEntity
  8
0
100
AcDbBlockEnd
  0
BLOCK
  5
1C
100
AcDbEntity
  8
0
100
AcDbBlockBegin
  2
*Paper_Space
 70
0
 10
0.0
 20
0.0
 30
0.0
  3
*Paper_Space
  1

  0
ENDBLK
  5
1D
100
AcDbEntity
  8
0
100
AcDbBlockEnd
  0
BLOCK
  5
21D
100
AcDbEntity
  8
0
100
AcDbBlockBegin
  2
_FILLED
 70
64
 10
0.0
 20
0.0
  3
_FILLED
  1

  0
SOLID
  5
21E
100
AcDbEntity
  8
0
  6
BYBLOCK
 62
0
100
AcDbTrace
 10
0.0
 20
0.0
 11
-1.0
 21
0.3166666667
 12
-1.0
 22
-0.3166666667
 13
-1.0
 23
-0.3166666667
  0
ENDBLK
  5
21F
100
AcDbEntity
  8
0
  6
BYBLOCK
 62
0
100
AcDbBlockEnd
  0
ENDSEC
  0
SECTION
  2
ENTITIES
  0
LWPOLYLINE
  5
220
100
AcDbEntity
  8
ASSI
100
AcDbPolyline
 62
7
  6
CONTINUOUS
 90
18
 70
0
 10
-19.8358906867
 20
26.2840097437
 10
-19.9043762678
 20
26.2315278387
 10
-19.9697266922
 20
26.174394912
 10
-20.0319336244
 20
26.1129242658
 10
-20.0909587422
 20
26.0474321549
 10
-20.1465925405
 20
25.9783541906
 10
-20.1987478118
 20
25.9059762891
 10
-20.2472995857
 20
25.8305761681
 10
-20.2919140844
 20
25.7527097124
 10
-20.332461615
 20
25.6726631593
 10
-20.3687681265
 20
25.5907003109
 10
-20.4005310249
 20
25.5073861128
 10
-20.427594367
 20
25.4229647824
 10
-20.449737421
 20
25.3376802708
 10
-20.4666978709
 20
25.2519520604
 10
-20.4782280487
 20
25.1659714642
 10
-20.4840320372
 20
25.0798863166
 10
-20.4846328982
 20
25.028857224
  0
LWPOLYLINE
  5
221
100
AcDbEntity
  8
ASSI
100
AcDbPolyline
 62
250
  6
CONTINUOUS
 90
22
 70
0
 10
-19.5681899431
 20
26.2715261254
 10
-19.6285020335
 20
26.2286180349
 10
-19.6881771741
 20
26.1811435016
 10
-19.7468995144
 20
26.1293412002
 10
-19.8043459508
 20
26.073468441
 10
-19.8602255193
 20
26.0138105004
 10
-19.9142801408
 20
25.9506774495
 10
-19.966227503
 20
25.8843827254
 10
-20.0157882574
 20
25.8152631686
 10
-20.0627250742
 20
25.7436872195
 10
-20.1067904356
 20
25.6700185196
 10
-20.1477506723
 20
25.5946269851
 10
-20.1854122523
 20
25.5179070872
 10
-20.2195780535
 20
25.4402470877
 10
-20.2500651877
 20
25.362040164
 10
-20.2767293661
 20
25.2836957382
 10
-20.2994303846
 20
25.2056180915
 10
-20.3180486718
 20
25.1281964581
 10
-20.3325001025
 20
25.0518165825
 10
-20.3427104542
 20
24.9768650156
 10
-20.3486185641
 20
24.9037266282
 10
-20.3501909115
 20
24.8327751599
  0
LINE
  5
222
100
AcDbEntity
  8
ASSI
100
AcDbLine
 62
7
  6
CONTINUOUS
 10
-16.6536360276
 20
28.5175402463
 11
-19.8358906867
 21
26.2840097437
  0
LINE
  5
223
100
AcDbEntity
  8
ASSI
100
AcDbLine
 62
250
  6
CONTINUOUS
 10
-16.3978390255
 20
28.4966418745
 11
-19.5681899431
 21
26.2715261254
  0
LINE
  5
224
100
AcDbEntity
  8
ASSI
100
AcDbLine
 62
7
  6
CONTINUOUS
 10
-19.8274884404
 20
26.2899667184
 11
-19.8276899955
 21
26.2898255056
  0
LINE
  5
225
100
AcDbEntity
  8
0
100
AcDbLine
 62
250
  6
CONTINUOUS
 10
17.9372635204
 20
-24.4177239605
 11
17.4089963487
 21
-24.3720810175
  0
LINE
  5
226
100
AcDbEntity
  8
0
100
AcDbLine
 62
250
  6
CONTINUOUS
 10
17.8478497251
 20
-24.088445523
 11
17.4532060771
 21
-24.0543478193
  0
LWPOLYLINE
  5
227
100
AcDbEntity
  8
0
100
AcDbPolyline
 62
7
  6
CONTINUOUS
 90
46
 70
0
 10
16.518936166
 20
-24.762883793
 10
16.5131974827
 20
-24.76231825
 10
16.507271763
 20
-24.7616398424
 10
16.5011602814
 20
-24.7608517487
 10
16.4948617051
 20
-24.7599611703
 10
16.4883806498
 20
-24.7589678297
 10
16.4817276222
 20
-24.7578639391
 10
16.4749047376
 20
-24.7566535912
 10
16.4679145353
 20
-24.755340677
 10
16.4607684186
 20
-24.753917328
 10
16.4534692343
 20
-24.7523881527
 10
16.4460202165
 20
-24.7507575891
 10
16.438433608
 20
-24.7490177327
 10
16.4307130126
 20
-24.7471737072
 10
16.4228623771
 20
-24.7452304934
 10
16.4148947173
 20
-24.7431801953
 10
16.4068143929
 20
-24.7410284416
 10
16.398626106
 20
-24.7387807594
 10
16.3903436519
 20
-24.7364293288
 10
16.3819721739
 20
-24.7339802772
 10
16.3735171508
 20
-24.7314396776
 10
16.364993164
 20
-24.7287998712
 10
16.356406164
 20
-24.7260674699
 10
16.3477624345
 20
-24.7232490953
 10
16.3390773663
 20
-24.720337361
 10
16.3303577439
 20
-24.7173393417
 10
16.3216106796
 20
-24.7142622079
 10
16.3128523979
 20
-24.7110989897
 10
16.3040905465
 20
-24.707857191
 10
16.2953330795
 20
-24.7045445247
 10
16.2865970569
 20
-24.7011546161
 10
16.2778910182
 20
-24.6976953499
 10
16.2692237532
 20
-24.6941749601
 10
16.2606131034
 20
-24.6905878755
 10
16.2520685494
 20
-24.6869423112
 10
16.2435996545
 20
-24.6832469617
 10
16.2352248091
 20
-24.6794972379
 10
16.2269544057
 20
-24.6757015967
 10
16.2187987498
 20
-24.6718691298
 10
16.2107765291
 20
-24.6679964331
 10
16.2029093151
 20
-24.6640988164
 10
16.1951975424
 20
-24.6601785248
 10
16.1876296502
 20
-24.6562146944
 10
16.1802111149
 20
-24.6522088373
 10
16.1729632349
 20
-24.6481825689
 10
16.1658999779
 20
-24.6441474698
  0
LWPOLYLINE
  5
228
100
AcDbEntity
  8
ASSI
100
AcDbPolyline
 62
7
  6
CONTINUOUS
 90
5
 70
0
 10
-18.9426673017
 20
-8.0528934891
 10
-18.9379387116
 20
-8.0972077276
 10
-18.9244727921
 20
-8.1770123315
 10
-18.9049953103
 20
-8.2534418145
 10
-18.8795839358
 20
-8.3263466329
  0
LINE
  5
229
100
AcDbEntity
  8
ASSI
100
AcDbLine
 62
7
  6
CONTINUOUS
 10
-18.9426673017
 20
-8.0528934891
 11
-18.9426831136
 21
-8.0527093168
  0
LWPOLYLINE
  5
22A
100
AcDbEntity
  8
ASSI
100
AcDbPolyline
 62
7
  6
CONTINUOUS
 90
10
 70
0
 10
-20.484642614
 20
25.0289985906
 10
-20.4339752587
 20
21.3260364137
 10
-20.3525041667
 20
17.5764932487
 10
-20.2408577451
 20
13.8462892175
 10
-20.099034903
 20
10.1358076401
 10
-19.9270462012
 20
6.4453605838
 10
-19.7249043059
 20
2.7752336262
 10
-19.4926262459
 20
-0.8742655417
 10
-19.230246438
 20
-4.502777403
 10
-18.9426917142
 20
-8.0527100572
  0
LWPOLYLINE
  5
22B
100
AcDbEntity
  8
ASSI
100
AcDbPolyline
 62
250
  6
CONTINUOUS
 90
10
 70
0
 10
-20.3501910106
 20
24.8327751098
 10
-20.2999079179
 20
21.0796962446
 10
-20.2193564359
 20
17.3452594282
 10
-20.1085322584
 20
13.6298016196
 10
-19.9674339889
 20
9.9336126734
 10
-19.7960723793
 20
6.2570663327
 10
-19.5944687945
 20
2.6006209374
 10
-19.3626469404
 20
-1.0353580328
 10
-19.1006343759
 20
-4.6505991946
 10
-18.8084656656
 20
-8.244790385
  0
LWPOLYLINE
  5
22C
100
AcDbEntity
  8
0
100
AcDbPolyline
 62
250
  6
CONTINUOUS
 90
17
 70
0
 10
3.6448770648
 20
23.2472748765
 10
3.6506302044
 20
23.2499902319
 10
3.6571128852
 20
23.2524248248
 10
3.6638398155
 20
23.2543510324
 10
3.6707957972
 20
23.2557645034
 10
3.677965139
 20
23.2566620368
 10
3.6853315348
 20
23.257041579
 10
3.6928781318
 20
23.2569022741
 10
3.7005877178
 20
23.2562444789
 10
3.7084429171
 20
23.2550697139
 10
3.7164260758
 20
23.2533806332
 10
3.7245203233
 20
23.2511806968
 10
3.7327061341
 20
23.2484751041
 10
3.7409614003
 20
23.2452714677
 10
3.749266156
 20
23.2415782429
 10
3.7576027375
 20
23.2374039869
 10
3.765952273
 20
23.232758748
  0
LWPOLYLINE
  5
22D
100
AcDbEntity
  8
0
100
AcDbPolyline
 62
7
  6
CONTINUOUS
 90
16
 70
0
 10
3.1157399008
 20
22.948298664
 10
3.1222278333
 20
22.9507379949
 10
3.1289633222
 20
22.9526709357
 10
3.1359310614
 20
22.9540930824
 10
3.1431153184
 20
22.9550012437
 10
3.1504998341
 20
22.9553933723
 10
3.1580677884
 20
22.9552685313
 10
3.16580211
 20
22.9546270463
 10
3.1736853159
 20
22.9534703934
 10
3.1816994154
 20
22.9518011215
 10
3.1898263457
 20
22.9496230662
 10
3.1980477568
 20
22.9469411968
 10
3.2063448535
 20
22.9437614953
 10
3.2146988469
 20
22.9400911707
 10
3.223090996
 20
22.935938642
 10
3.2315023943
 20
22.9313133763
  0
LWPOLYLINE
  5
22E
100
AcDbEntity
  8
ASSI
100
AcDbPolyline
 62
7
  6
CONTINUOUS
 90
8
 70
0
 10
-18.8795839358
 20
-8.3263466329
 10
-18.8484167308
 20
-8.3953675161
 10
-18.8119144884
 20
-8.4598100677
 10
-18.7704801663
 20
-8.5193033968
 10
-18.7245258301
 20
-8.5736189553
 10
-18.6748040578
 20
-8.622268216
 10
-18.6220303959
 20
-8.6650196822
 10
-18.5737036812
 20
-8.6976461182
  0
LWPOLYLINE
  5
22F
100
AcDbEntity
  8
ASSI
100
AcDbPolyline
 62
250
  6
CONTINUOUS
 90
9
 70
0
 10
-18.808465704
 20
-8.2447904077
 10
-18.8005595609
 20
-8.3097299093
 10
-18.7883699688
 20
-8.3713601061
 10
-18.7719625562
 20
-8.4293658672
 10
-18.7514305288
 20
-8.4834445897
 10
-18.7268787475
 20
-8.533325477
 10
-18.6984205179
 20
-8.5787682187
 10
-18.6662044852
 20
-8.619538269
 10
-18.6303997189
 20
-8.6554206057
  0
LINE
  5
230
100
AcDbEntity
  8
0
100
AcDbLine
 62
7
  6
CONTINUOUS
 10
1.4012629591
 20
20.8549671121
 11
1.7827550784
 21
21.106557577
  0
LINE
  5
231
100
AcDbEntity
  8
0
100
AcDbLine
 62
250
  6
CONTINUOUS
 10
1.6593770255
 20
20.8354434085
 11
1.9361634933
 21
21.017981481
  0
LINE
  5
232
100
AcDbEntity
  8
0
100
AcDbLine
 62
7
  6
CONTINUOUS
 10
1.5225930318
 20
22.0077713087
 11
3.1057731008
 21
22.9432755956
  0
LINE
  5
233
100
AcDbEntity
  8
0
100
AcDbLine
 62
250
  6
CONTINUOUS
 10
1.6487457911
 20
21.9960593162
 11
3.2315023943
 21
22.9313133763
  0
LINE
  5
234
100
AcDbEntity
  8
0
100
AcDbLine
 62
7
  6
CONTINUOUS
 10
3.1057731149
 20
22.9432756036
 11
3.107227358
 21
22.9441152653
  0
LINE
  5
235
100
AcDbEntity
  8
0
100
AcDbLine
 62
250
  6
CONTINUOUS
 10
3.3272838615
 20
21.0268924714
 11
5.4568318241
 21
22.2564660868
  0
LINE
  5
236
100
AcDbEntity
  8
0
100
AcDbLine
 62
250
  6
CONTINUOUS
 10
3.5040575652
 20
20.7207114355
 11
5.6336055278
 21
21.9502850509
  0
LINE
  5
237
100
AcDbEntity
  8
0
100
AcDbLine
 62
7
  6
CONTINUOUS
 10
3.1072273439
 20
22.9441152573
 11
3.6421056453
 21
23.245802272
  0
LINE
  5
238
100
AcDbEntity
  8
0
100
AcDbLine
 62
250
  6
CONTINUOUS
 10
3.2315023943
 20
22.9313133763
 11
3.765952273
 21
23.232758748
  0
LWPOLYLINE
  5
239
100
AcDbEntity
  8
0
100
AcDbPolyline
 62
250
  6
CONTINUOUS
 90
18
 70
0
 10
1.5225930318
 20
22.0077713087
 10
1.5263488591
 20
22.0098619055
 10
1.5325792203
 20
22.0128031951
 10
1.539075079
 20
22.0152453967
 10
1.545821731
 20
22.0171829914
 10
1.5528039338
 20
22.0186116021
 10
1.5600059371
 20
22.0195279939
 10
1.5674113604
 20
22.0199300701
 10
1.5750032617
 20
22.0198169234
 10
1.5827643252
 20
22.0191888505
 10
1.5906770584
 20
22.018047305
 10
1.5987236782
 20
22.0163948659
 10
1.6068871812
 20
22.0142349167
 10
1.6151478755
 20
22.0115725608
 10
1.6234834481
 20
22.0084152924
 10
1.6318737317
 20
22.0047714503
 10
1.6403008737
 20
22.0006494828
 10
1.6487457911
 20
21.9960593162
  0
LWPOLYLINE
  5
23A
100
AcDbEntity
  8
0
100
AcDbPolyline
 62
7
  6
CONTINUOUS
 90
3
 70
0
 10
3.107227358
 20
22.9441152653
 10
3.109514229
 20
22.9453584724
 10
3.1157399008
 20
22.948298664
  0
LWPOLYLINE
  5
23B
100
AcDbEntity
  8
0
100
AcDbPolyline
 62
7
  6
CONTINUOUS
 90
19
 70
0
 10
11.0280965764
 20
22.5205002728
 10
11.041097421
 20
22.5261113565
 10
11.0547206988
 20
22.5309015213
 10
11.0689604253
 20
22.534849926
 10
11.0838174186
 20
22.5379509402
 10
11.0992733353
 20
22.5401672624
 10
11.1152881009
 20
22.541432081
 10
11.1318479911
 20
22.5417173001
 10
11.1489318819
 20
22.5410116311
 10
11.1664809077
 20
22.5392781867
 10
11.1844288014
 20
22.5365051726
 10
11.2027893173
 20
22.5326741055
 10
11.2216226336
 20
22.5277350193
 10
11.2408955999
 20
22.5216747154
 10
11.2605853627
 20
22.5144640053
 10
11.2807707826
 20
22.5060147436
 10
11.3014313055
 20
22.4962949907
 10
11.3225180871
 20
22.4852785873
 10
11.3339749363
 20
22.4788270777
  0
LINE
  5
23C
100
AcDbEntity
  8
RACCORDO
100
AcDbLine
 62
250
  6
CONTINUOUS
 10
21.8389601251
 20
-13.7043261553
 11
19.5182835788
 21
-14.1496067659
  0
LINE
  5
23D
100
AcDbEntity
  8
0
100
AcDbLine
 62
250
  6
CONTINUOUS
 10
21.8389601251
 20
-13.7043261553
 11
19.5182835788
 21
-14.1496067659
  0
LINE
  5
23E
100
AcDbEntity
  8
RACCORDO
100
AcDbLine
 62
7
  6
CONTINUOUS
 10
21.3849243929
 20
-13.0710686824
 11
19.5182835788
 21
-13.3577818043
  0
LINE
  5
23F
100
AcDbEntity
  8
0
100
AcDbLine
 62
7
  6
CONTINUOUS
 10
21.3849243929
 20
-13.0710686824
 11
19.5182835788
 21
-13.3577818043
  0
LWPOLYLINE
  5
240
100
AcDbEntity
  8
ASSI
100
AcDbPolyline
 62
250
  6
CONTINUOUS
 90
16
 70
0
 10
11.6376575991
 20
-25.8240003999
 10
11.676106656
 20
-25.8423641322
 10
11.7176050651
 20
-25.8580234366
 10
11.7617325754
 20
-25.8708197327
 10
11.8080423114
 20
-25.8806234334
 10
11.8560652984
 20
-25.8873352576
 10
11.9053152116
 20
-25.890887235
 10
11.9552933012
 20
-25.8912433952
 10
12.0054934434
 20
-25.8884001313
 10
12.0554072656
 20
-25.8823862369
 10
12.1045292947
 20
-25.8732626141
 10
12.1523620761
 20
-25.8611216571
 10
12.1984212113
 20
-25.8460863164
 10
12.2422402632
 20
-25.8283088535
 10
12.28337548
 20
-25.8079692993
 10
12.3214102889
 20
-25.7852736309
  0
LWPOLYLINE
  5
241
100
AcDbEntity
  8
ASSI
100
AcDbPolyline
 62
7
  6
CONTINUOUS
 90
14
 70
0
 10
11.8925812213
 20
-26.2884864512
 10
11.9090857487
 20
-26.297106869
 10
11.9742062246
 20
-26.3262826254
 10
12.0428421046
 20
-26.3494663588
 10
12.1144407304
 20
-26.3662330251
 10
12.1885048939
 20
-26.376282109
 10
12.2644712303
 20
-26.3793942586
 10
12.3417758725
 20
-26.375421436
 10
12.4200257272
 20
-26.3642602878
 10
12.4987637455
 20
-26.3458807487
 10
12.5775576369
 20
-26.3202921784
 10
12.6561381102
 20
-26.2874648154
 10
12.7342209017
 20
-26.2474106566
 10
12.7462333532
 20
-26.2405707199
  0
LWPOLYLINE
  5
242
100
AcDbEntity
  8
ASSI
100
AcDbPolyline
 62
250
  6
CONTINUOUS
 90
11
 70
0
 10
11.8926209612
 20
-26.2885139104
 10
11.8549164298
 20
-26.2654302725
 10
11.8156703795
 20
-26.2345997525
 10
11.7798352254
 20
-26.1986998701
 10
11.7476071454
 20
-26.1579228635
 10
11.7191486041
 20
-26.1124799414
 10
11.6945947462
 20
-26.0625978544
 10
11.6740749165
 20
-26.0085261741
 10
11.6576952242
 20
-25.9505364178
 10
11.6455355414
 20
-25.88892349
 10
11.6376576799
 20
-25.8240003178
  0
LWPOLYLINE
  5
243
100
AcDbEntity
  8
ASSI
100
AcDbPolyline
 62
7
  6
CONTINUOUS
 90
10
 70
0
 10
-18.5745323193
 20
-8.6971364518
 10
-15.3546271905
 20
-10.677677414
 10
-12.0313708291
 20
-12.6900013158
 10
-8.6813669792
 20
-14.6866111903
 10
-5.3048109388
 20
-16.6673863619
 10
-1.9019013969
 20
-18.6322077523
 10
1.527157788
 20
-20.5809590641
 10
4.9821603442
 20
-22.5135261715
 10
8.4628970367
 20
-24.4297972866
 10
11.8928980909
 20
-26.288663073
  0
LWPOLYLINE
  5
244
100
AcDbEntity
  8
ASSI
100
AcDbPolyline
 62
250
  6
CONTINUOUS
 90
19
 70
0
 10
-18.8084656656
 20
-8.244790385
 10
-17.2756173334
 20
-9.1931426647
 10
-15.738834661
 20
-10.1367479316
 10
-14.1981581836
 20
-11.0756082444
 10
-12.6558525895
 20
-12.0083856868
 10
-11.1097505208
 20
-12.9364328544
 10
-9.5531699244
 20
-13.8637417274
 10
-7.9889696589
 20
-14.7885654568
 10
-6.4142445409
 20
-15.7125763974
 10
-4.813423053
 20
-16.6447421092
 10
-3.1884118108
 20
-17.5836954588
 10
-1.5369106447
 20
-18.5305038061
 10
0.1633780801
 20
-19.4975183075
 10
1.9139014628
 20
-20.4849704758
 10
3.7141463475
 20
-21.4919631871
 10
5.5839532934
 20
-22.5288341503
 10
7.5305246787
 20
-23.5986132378
 10
9.5481729402
 20
-24.6971871341
 10
11.6376575966
 20
-25.8240003836
  0
LWPOLYLINE
  5
245
100
AcDbEntity
  8
ASSI
100
AcDbPolyline
 62
250
  6
CONTINUOUS
 90
8
 70
0
 10
-18.8084561493
 20
-8.244784262
 10
-18.8409087894
 20
-8.2222104218
 10
-18.8693470869
 20
-8.1974894595
 10
-18.8934830556
 20
-8.1708717169
 10
-18.9130722778
 20
-8.142626744
 10
-18.9279163795
 20
-8.1130405689
 10
-18.9378650388
 20
-8.0824128017
 10
-18.9426673017
 20
-8.0528934891
  0
LWPOLYLINE
  5
246
100
AcDbEntity
  8
ASSI
100
AcDbPolyline
 62
250
  6
CONTINUOUS
 90
3
 70
0
 10
-18.6303997189
 20
-8.6554206057
 10
-18.5911778913
 20
-8.6862371396
 10
-18.5745307276
 20
-8.6971374384
  0
LINE
  5
247
100
AcDbEntity
  8
0
100
AcDbLine
 62
7
  6
CONTINUOUS
 10
5.105338356
 20
20.1347963954
 11
4.2152781733
 21
19.5732829136
  0
LINE
  5
248
100
AcDbEntity
  8
0
100
AcDbLine
 62
7
  6
CONTINUOUS
 10
7.0852373434
 20
20.2979799769
 11
6.0307479119
 21
19.6748800511
  0
LINE
  5
249
100
AcDbEntity
  8
0
100
AcDbLine
 62
7
  6
CONTINUOUS
 10
6.6963286137
 20
19.2905820956
 11
7.5440339997
 21
19.7857311364
  0
LINE
  5
24A
100
AcDbEntity
  8
0
100
AcDbLine
 62
7
  6
CONTINUOUS
 10
12.8423506772
 20
24.6020553947
 11
5.8083313103
 21
20.5406961757
  0
LINE
  5
24B
100
AcDbEntity
  8
0
100
AcDbLine
 62
7
  6
CONTINUOUS
 10
12.8423506772
 20
24.6020553947
 11
13.1311489416
 21
24.7688270063
  0
LINE
  5
24C
100
AcDbEntity
  8
0
100
AcDbLine
 62
7
  6
CONTINUOUS
 10
11.6481329607
 20
22.130677707
 11
8.4640955667
 21
20.3136436215
  0
LINE
  5
24D
100
AcDbEntity
  8
0
100
AcDbLine
 62
7
  6
CONTINUOUS
 10
10.9990195331
 20
22.5054676648
 11
7.0852373434
 21
20.2979799769
  0
LWPOLYLINE
  5
24E
100
AcDbEntity
  8
0
100
AcDbPolyline
 62
7
  6
CONTINUOUS
 90
6
 70
0
 10
11.6706668145
 20
22.1427070026
 10
11.6661730294
 20
22.1404408906
 10
11.6616727515
 20
22.138104905
 10
11.6571659807
 20
22.1356990458
 10
11.6526527171
 20
22.1332233132
 10
11.6481329607
 20
22.130677707
  0
LINE
  5
24F
100
AcDbEntity
  8
0
100
AcDbLine
 62
7
  6
CONTINUOUS
 10
11.6876561299
 20
22.1509572906
 11
11.6706668145
 21
22.1427070026
  0
LINE
  5
250
100
AcDbEntity
  8
0
100
AcDbLine
 62
7
  6
CONTINUOUS
 10
11.7333821981
 20
22.1728041682
 11
11.6876561299
 21
22.1509572906
  0
LWPOLYLINE
  5
251
100
AcDbEntity
  8
0
100
AcDbPolyline
 62
250
  6
CONTINUOUS
 90
34
 70
0
 10
15.4551935982
 20
-25.9601005405
 10
15.4637738011
 20
-25.9648250696
 10
15.4727323244
 20
-25.9693094064
 10
15.4820490202
 20
-25.9735434634
 10
15.491702941
 20
-25.9775177188
 10
15.5016723688
 20
-25.9812232296
 10
15.5119348615
 20
-25.9846516539
 10
15.5224673304
 20
-25.987795279
 10
15.5332460908
 20
-25.9906470367
 10
15.5442468952
 20
-25.9932005122
 10
15.5554450019
 20
-25.9954499634
 10
15.5668152216
 20
-25.9973903309
 10
15.5783319711
 20
-25.9990172501
 10
15.5899693445
 20
-26.0003270628
 10
15.6017011683
 20
-26.0013168248
 10
15.6135010515
 20
-26.0019843113
 10
15.6253424596
 20
-26.0023280228
 10
15.6371987533
 20
-26.0023471876
 10
15.6490432438
 20
-26.0020417652
 10
15.6608492585
 20
-26.0014124484
 10
15.672590278
 20
-26.0004606557
 10
15.6842399721
 20
-25.999188522
 10
15.6957722459
 20
-25.9975988894
 10
15.7071610505
 20
-25.9956953409
 10
15.7183805293
 20
-25.9934822063
 10
15.7294053117
 20
-25.9909645163
 10
15.7402107673
 20
-25.9881479223
 10
15.7507728052
 20
-25.9850387139
 10
15.761069199
 20
-25.9816433516
 10
15.7710751798
 20
-25.9779699191
 10
15.7807641206
 20
-25.9740284408
 10
15.7901133408
 20
-25.9698287432
 10
15.7991037175
 20
-25.9653800374
 10
15.8077155579
 20
-25.9606926211
  0
LWPOLYLINE
  5
252
100
AcDbEntity
  8
0
100
AcDbPolyline
 62
250
  6
CONTINUOUS
 90
34
 70
0
 10
15.4551935982
 20
-25.6395803676
 10
15.4637702509
 20
-25.6443030327
 10
15.4727255588
 20
-25.6487860058
 10
15.4820394711
 20
-25.6530191586
 10
15.4916913552
 20
-25.6569930115
 10
15.501659363
 20
-25.6606984705
 10
15.511920408
 20
-25.6641269128
 10
15.5224511564
 20
-25.6672705556
 10
15.5332281742
 20
-25.6701224169
 10
15.5442272523
 20
-25.672676089
 10
15.5554236777
 20
-25.6749258311
 10
15.5667922564
 20
-25.6768665779
 10
15.5783073922
 20
-25.6784939591
 10
15.589943178
 20
-25.6798043143
 10
15.6016734612
 20
-25.6807946998
 10
15.6134718713
 20
-25.6814628894
 10
15.6253118791
 20
-25.6818073806
 10
15.6371668588
 20
-25.6818273988
 10
15.6490101543
 20
-25.6815228989
 10
15.6608151346
 20
-25.6808945655
 10
15.6725552535
 20
-25.6799438114
 10
15.6842041117
 20
-25.6786727745
 10
15.6957355129
 20
-25.6770843129
 10
15.7071235284
 20
-25.6751819985
 10
15.7183425551
 20
-25.6729701077
 10
15.7293673749
 20
-25.6704536113
 10
15.7401731856
 20
-25.6676381697
 10
15.7507356635
 20
-25.664530121
 10
15.7610310443
 20
-25.6611364607
 10
15.7710361935
 20
-25.6574648174
 10
15.780728632
 20
-25.6535234414
 10
15.7900865705
 20
-25.6493211929
 10
15.7990889602
 20
-25.6448675236
 10
15.8077155579
 20
-25.6401724483
  0
LINE
  5
253
100
AcDbEntity
  8
0
100
AcDbLine
 62
7
  6
CONTINUOUS
 10
14.2703920681
 20
-25.3605534738
 11
15.5069642535
 21
-26.0745347557
  0
LINE
  5
254
100
AcDbEntity
  8
0
100
AcDbLine
 62
250
  6
CONTINUOUS
 10
14.3436034739
 20
-25.3182823342
 11
15.4551935982
 21
-25.9601005405
  0
LINE
  5
255
100
AcDbEntity
  8
0
100
AcDbLine
 62
250
  6
CONTINUOUS
 10
15.4551935982
 20
-25.6395803676
 11
14.6211648876
 21
-25.158022643
  0
LINE
  5
256
100
AcDbEntity
  8
0
100
AcDbLine
 62
250
  6
CONTINUOUS
 10
15.5435819459
 20
-25.4117750432
 11
14.862632145
 21
-25.0186031625
  0
LINE
  5
257
100
AcDbEntity
  8
0
100
AcDbLine
 62
7
  6
CONTINUOUS
 10
16.1664142063
 20
-24.6444443788
 11
15.8385357184
 21
-24.4551314491
  0
LINE
  5
258
100
AcDbEntity
  8
0
100
AcDbLine
 62
7
  6
CONTINUOUS
 10
7.4034353949
 20
18.3782346767
 11
6.6963286137
 21
17.9271706893
  0
LINE
  5
259
100
AcDbEntity
  8
0
100
AcDbLine
 62
250
  6
CONTINUOUS
 10
9.1703795964
 20
18.8466995717
 11
9.3833343822
 21
18.9710875486
  0
LINE
  5
25A
100
AcDbEntity
  8
0
100
AcDbLine
 62
250
  6
CONTINUOUS
 10
9.3126237041
 20
18.6022284075
 11
9.5247557385
 21
18.7261358111
  0
LINE
  5
25B
100
AcDbEntity
  8
0
100
AcDbLine
 62
7
  6
CONTINUOUS
 10
14.8473396273
 20
21.7178425964
 11
10.2318625196
 21
19.0529239599
  0
LINE
  5
25C
100
AcDbEntity
  8
0
100
AcDbLine
 62
7
  6
CONTINUOUS
 10
9.5247557385
 20
17.5830801871
 11
10.2318625196
 21
17.9870797129
  0
LINE
  5
25D
100
AcDbEntity
  8
0
100
AcDbLine
 62
7
  6
CONTINUOUS
 10
9.6019764404
 20
19.6566454659
 11
11.6751541067
 21
20.839745417
  0
LINE
  5
25E
100
AcDbEntity
  8
0
100
AcDbLine
 62
7
  6
CONTINUOUS
 10
9.955529831
 20
19.4525081693
 11
15.8928305264
 21
22.8407465612
  0
LINE
  5
25F
100
AcDbEntity
  8
0
100
AcDbLine
 62
250
  6
CONTINUOUS
 10
9.3833343822
 20
18.9710875486
 11
10.0904411634
 21
19.3746120568
  0
LINE
  5
260
100
AcDbEntity
  8
0
100
AcDbLine
 62
250
  6
CONTINUOUS
 10
9.5247557385
 20
18.7261358111
 11
10.2318625196
 21
19.1296603193
  0
LWPOLYLINE
  5
261
100
AcDbEntity
  8
0
100
AcDbPolyline
 62
7
  6
CONTINUOUS
 90
19
 70
0
 10
16.624901575
 20
19.2869810879
 10
16.6378922269
 20
19.2927405154
 10
16.6515135899
 20
19.2976739175
 10
16.6657598124
 20
19.3017601244
 10
16.6806323828
 20
19.3049936166
 10
16.6961124815
 20
19.3073362565
 10
16.7121582037
 20
19.3087195995
 10
16.7287561064
 20
19.3091148817
 10
16.7458843828
 20
19.3085110021
 10
16.7634804069
 20
19.3068711213
 10
16.7814775051
 20
19.3041827515
 10
16.7998888238
 20
19.3004282431
 10
16.8187701209
 20
19.2955605214
 10
16.8380836385
 20
19.2895682972
 10
16.857810018
 20
19.2824215013
 10
16.8780361272
 20
19.2740303507
 10
16.8987434089
 20
19.2643623968
 10
16.9198807689
 20
19.253391489
 10
16.9326731302
 20
19.2462088978
  0
LWPOLYLINE
  5
262
100
AcDbEntity
  8
0
100
AcDbPolyline
 62
250
  6
CONTINUOUS
 90
7
 70
0
 10
17.8844175143
 20
-24.0997191934
 10
17.8788747551
 20
-24.0967956933
 10
17.8730740691
 20
-24.0942725326
 10
17.8670591439
 20
-24.0921727706
 10
17.860842379
 20
-24.09050013
 10
17.8544351165
 20
-24.0892570765
 10
17.8478497251
 20
-24.088445523
  0
LINE
  5
263
100
AcDbEntity
  8
0
100
AcDbLine
 62
250
  6
CONTINUOUS
 10
17.8844674175
 20
-24.0997479838
 11
17.8844175143
 21
-24.0997191934
  0
LINE
  5
264
100
AcDbEntity
  8
0
100
AcDbLine
 62
7
  6
CONTINUOUS
 10
16.1870026008
 20
-24.0021257429
 11
16.6830276702
 21
-24.2885244014
  0
LINE
  5
265
100
AcDbEntity
  8
0
100
AcDbLine
 62
250
  6
CONTINUOUS
 10
17.6333702786
 20
-23.9646077787
 11
17.8478497251
 21
-24.088445523
  0
LINE
  5
266
100
AcDbEntity
  8
0
100
AcDbLine
 62
7
  6
CONTINUOUS
 10
17.6425197326
 20
-23.9600504229
 11
17.8844674175
 21
-24.0997479838
  0
LWPOLYLINE
  5
267
100
AcDbEntity
  8
0
100
AcDbPolyline
 62
7
  6
CONTINUOUS
 90
21
 70
0
 10
17.8844175143
 20
-24.0997191934
 10
17.8878914784
 20
-24.1017614537
 10
17.8990976399
 20
-24.1088823145
 10
17.9099178033
 20
-24.116593982
 10
17.9203025663
 20
-24.1248609023
 10
17.9302285474
 20
-24.133662311
 10
17.9396930772
 20
-24.1429980426
 10
17.9486662862
 20
-24.1528449044
 10
17.9571132026
 20
-24.1631699669
 10
17.965019717
 20
-24.1739632197
 10
17.9723587045
 20
-24.1851984609
 10
17.9790997951
 20
-24.1968399374
 10
17.9852225011
 20
-24.2088640931
 10
17.9907015211
 20
-24.2212350809
 10
17.9955149616
 20
-24.233917954
 10
17.9996468284
 20
-24.2468898414
 10
18.0030779312
 20
-24.260117304
 10
18.0057885832
 20
-24.2735553249
 10
18.0077633115
 20
-24.2871621979
 10
18.0089890267
 20
-24.3008901101
 10
18.0094565653
 20
-24.3146997549
  0
LINE
  5
268
100
AcDbEntity
  8
0
100
AcDbLine
 62
250
  6
CONTINUOUS
 10
5.105338356
 20
20.959827484
 11
5.6336055278
 21
21.6226397504
  0
LINE
  5
269
100
AcDbEntity
  8
0
100
AcDbLine
 62
7
  6
CONTINUOUS
 10
5.105338356
 20
20.8832756412
 11
5.6513055283
 21
21.5682959457
  0
LWPOLYLINE
  5
26A
100
AcDbEntity
  8
0
100
AcDbPolyline
 62
7
  6
CONTINUOUS
 90
37
 70
0
 10
4.2152781733
 20
20.3347012498
 10
4.20953949
 20
20.3277901225
 10
4.2036137704
 20
20.3209646661
 10
4.1975022888
 20
20.3142333151
 10
4.1912037124
 20
20.3076050663
 10
4.1847226572
 20
20.3010878825
 10
4.1780696296
 20
20.2946887325
 10
4.1712467449
 20
20.2884162577
 10
4.1642565427
 20
20.28227895
 10
4.157110426
 20
20.2762836648
 10
4.1498112416
 20
20.2704390721
 10
4.1423622239
 20
20.2647536679
 10
4.1347756154
 20
20.2592341574
 10
4.12705502
 20
20.2538891726
 10
4.1192043845
 20
20.2487271414
 10
4.1112367246
 20
20.2437545808
 10
4.1031564002
 20
20.2389799992
 10
4.0949681134
 20
20.2344117005
 10
4.0866856593
 20
20.2300560205
 10
4.0783141812
 20
20.2259212669
 10
4.0698591581
 20
20.2220155346
 10
4.0613351714
 20
20.218344966
 10
4.0527481713
 20
20.2149175755
 10
4.0441044419
 20
20.2117411549
 10
4.0354193736
 20
20.2088216252
 10
4.0266997512
 20
20.2061665993
 10
4.017952687
 20
20.2037834517
 10
4.0091944052
 20
20.2016778225
 10
4.0004325538
 20
20.1998567949
 10
3.9916750869
 20
20.1983271849
 10
3.9829390642
 20
20.1970942472
 10
3.9742330256
 20
20.1961643809
 10
3.9655657606
 20
20.1955436736
 10
3.9569551107
 20
20.1952368336
 10
3.9484105568
 20
20.195249393
 10
3.9399416619
 20
20.1955865107
 10
3.9331473959
 20
20.1961004492
  0
LINE
  5
26B
100
AcDbEntity
  8
0
100
AcDbLine
 62
7
  6
CONTINUOUS
 10
9.3126237041
 20
17.4477609908
 11
9.5247557385
 21
17.5830801871
  0
LINE
  5
26C
100
AcDbEntity
  8
0
100
AcDbLine
 62
7
  6
CONTINUOUS
 10
10.9800970848
 20
18.0009682644
 11
10.7673849902
 21
17.8767220447
  0
LINE
  5
26D
100
AcDbEntity
  8
0
100
AcDbLine
 62
250
  6
CONTINUOUS
 10
11.0803906571
 20
17.9912285246
 11
10.8674358713
 21
17.8668405477
  0
LINE
  5
26E
100
AcDbEntity
  8
0
100
AcDbLine
 62
7
  6
CONTINUOUS
 10
12.493781468
 20
16.9278089831
 11
11.646076082
 21
16.4326599423
  0
LINE
  5
26F
100
AcDbEntity
  8
0
100
AcDbLine
 62
7
  6
CONTINUOUS
 10
10.9806787912
 20
18.001304123
 11
10.9800970893
 21
18.000968267
  0
LINE
  5
270
100
AcDbEntity
  8
0
100
AcDbLine
 62
7
  6
CONTINUOUS
 10
11.6877855769
 20
18.4048286338
 11
10.9806787957
 21
18.0013041256
  0
LINE
  5
271
100
AcDbEntity
  8
0
100
AcDbLine
 62
250
  6
CONTINUOUS
 10
11.7874974383
 20
18.3947530328
 11
11.0803906571
 21
17.9912285246
  0
LINE
  5
272
100
AcDbEntity
  8
0
100
AcDbLine
 62
7
  6
CONTINUOUS
 10
16.597880429
 20
19.2727555537
 11
13.413843035
 21
17.4557214682
  0
LWPOLYLINE
  5
273
100
AcDbEntity
  8
0
100
AcDbPolyline
 62
7
  6
CONTINUOUS
 90
24
 70
0
 10
20.1354712135
 20
20.3910990013
 10
20.1600989895
 20
20.4046555011
 10
20.1846359909
 20
20.4171783308
 10
20.2090822178
 20
20.4286674903
 10
20.2334701001
 20
20.4391353784
 10
20.2577672079
 20
20.4485695963
 10
20.2818762507
 20
20.4569329477
 10
20.3057887081
 20
20.4642194293
 10
20.3295131004
 20
20.4704350444
 10
20.3529776987
 20
20.475560606
 10
20.3761921126
 20
20.479593889
 10
20.3991467323
 20
20.4825371184
 10
20.4217409993
 20
20.4843777823
 10
20.4439611929
 20
20.4851114798
 10
20.4658210338
 20
20.4847426117
 10
20.4872611256
 20
20.483271868
 10
20.5082934681
 20
20.4806937252
 10
20.5289060616
 20
20.4770137067
 10
20.5490035112
 20
20.4722490728
 10
20.5685701667
 20
20.4663997451
 10
20.5876216783
 20
20.4594658018
 10
20.6061096012
 20
20.4514647387
 10
20.6240451338
 20
20.4423864167
 10
20.6313785423
 20
20.4382734403
  0
LWPOLYLINE
  5
274
100
AcDbEntity
  8
0
100
AcDbPolyline
 62
7
  6
CONTINUOUS
 90
7
 70
0
 10
16.624901575
 20
19.2869810879
 10
16.6204142828
 20
19.2847848493
 10
16.6159204977
 20
19.2825187373
 10
16.6114202198
 20
19.2801827517
 10
16.606913449
 20
19.2777768925
 10
16.6024001854
 20
19.2753011599
 10
16.597880429
 20
19.2727555537
  0
LINE
  5
275
100
AcDbEntity
  8
0
100
AcDbLine
 62
7
  6
CONTINUOUS
 10
17.3000796953
 20
18.9249322027
 11
17.2757345262
 21
18.9131924219
  0
LINE
  5
276
100
AcDbEntity
  8
0
100
AcDbLine
 62
7
  6
CONTINUOUS
 10
17.3333023665
 20
18.940764569
 11
17.3000796953
 21
18.9249322027
  0
LWPOLYLINE
  5
277
100
AcDbEntity
  8
0
100
AcDbPolyline
 62
7
  6
CONTINUOUS
 90
16
 70
0
 10
15.4193978935
 20
15.8443207401
 10
15.425885826
 20
15.846760071
 10
15.4326213148
 20
15.8486930118
 10
15.4395890541
 20
15.8501151585
 10
15.4467733111
 20
15.8510233198
 10
15.4541578267
 20
15.8514154484
 10
15.4617257811
 20
15.8512906074
 10
15.4694601026
 20
15.8506491224
 10
15.4773433085
 20
15.8494924695
 10
15.485357408
 20
15.8478231976
 10
15.4934843384
 20
15.8456451423
 10
15.5017057494
 20
15.8429632729
 10
15.5100028462
 20
15.8397835714
 10
15.5183568395
 20
15.8361132468
 10
15.5267489887
 20
15.8319607181
 10
15.5351603869
 20
15.8273354524
  0
LINE
  5
278
100
AcDbEntity
  8
RACCORDO
100
AcDbLine
 62
7
  6
CONTINUOUS
 10
17.0363119362
 20
-19.8211627945
 11
15.9632526131
 21
-19.2015917899
  0
LINE
  5
279
100
AcDbEntity
  8
0
100
AcDbLine
 62
7
  6
CONTINUOUS
 10
17.0363119362
 20
-19.8211627945
 11
15.9632526131
 21
-19.2015917899
  0
LINE
  5
27A
100
AcDbEntity
  8
0
100
AcDbLine
 62
7
  6
CONTINUOUS
 10
13.3784876959
 20
15.3579836534
 11
12.3116567838
 21
14.6849505805
  0
LWPOLYLINE
  5
27B
100
AcDbEntity
  8
0
100
AcDbPolyline
 62
7
  6
CONTINUOUS
 90
19
 70
0
 10
13.8262510245
 20
14.9037933848
 10
13.814354538
 20
14.8963046651
 10
13.8028203149
 20
14.888100684
 10
13.7917025819
 20
14.8792008587
 10
13.7810494404
 20
14.8696250966
 10
13.7709174515
 20
14.8594070921
 10
13.7613673096
 20
14.8485956723
 10
13.7524481741
 20
14.8372399742
 10
13.7441907921
 20
14.825374913
 10
13.736620799
 20
14.8130311878
 10
13.7297760909
 20
14.8002657606
 10
13.7236786645
 20
14.7871171715
 10
13.7183334326
 20
14.7735820163
 10
13.7137581489
 20
14.759669017
 10
13.7099943116
 20
14.7454643646
 10
13.7070732489
 20
14.7310729172
 10
13.7050021468
 20
14.7165342325
 10
13.7037882757
 20
14.7018989843
 10
13.7034322231
 20
14.6885628418
  0
LINE
  5
27C
100
AcDbEntity
  8
0
100
AcDbLine
 62
7
  6
CONTINUOUS
 10
13.8262510245
 20
14.9037933848
 11
15.4094310934
 21
15.8392976717
  0
LINE
  5
27D
100
AcDbEntity
  8
0
100
AcDbLine
 62
250
  6
CONTINUOUS
 10
13.9524037838
 20
14.8920813923
 11
15.5351603869
 21
15.8273354524
  0
LINE
  5
27E
100
AcDbEntity
  8
0
100
AcDbLine
 62
7
  6
CONTINUOUS
 10
12.3116567838
 20
16.0483619868
 11
17.2469938565
 21
18.8979655959
  0
LINE
  5
27F
100
AcDbEntity
  8
0
100
AcDbLine
 62
7
  6
CONTINUOUS
 10
13.3784876959
 20
15.3579836534
 11
17.2757345262
 21
17.6082076743
  0
LINE
  5
280
100
AcDbEntity
  8
0
100
AcDbLine
 62
7
  6
CONTINUOUS
 10
15.4094311076
 20
15.8392976797
 11
15.4108853506
 21
15.8401373414
  0
LINE
  5
281
100
AcDbEntity
  8
0
100
AcDbLine
 62
7
  6
CONTINUOUS
 10
20.1354712135
 20
20.3910990013
 11
17.4082544041
 21
18.8347586421
  0
LINE
  5
282
100
AcDbEntity
  8
0
100
AcDbLine
 62
7
  6
CONTINUOUS
 10
15.4108853365
 20
15.8401373334
 11
15.945763638
 21
16.1418243481
  0
LINE
  5
283
100
AcDbEntity
  8
0
100
AcDbLine
 62
250
  6
CONTINUOUS
 10
15.5351603869
 20
15.8273354524
 11
16.0696102656
 21
16.1287808241
  0
LWPOLYLINE
  5
284
100
AcDbEntity
  8
0
100
AcDbPolyline
 62
250
  6
CONTINUOUS
 90
18
 70
0
 10
13.8262510245
 20
14.9037933848
 10
13.8299925035
 20
14.9058764706
 10
13.8362214183
 20
14.9088185878
 10
13.8427158419
 20
14.9112617723
 10
13.8494610629
 20
14.9132004899
 10
13.8564418018
 20
14.9146303489
 10
13.8636422458
 20
14.9155481104
 10
13.8710460842
 20
14.9159516954
 10
13.8786365456
 20
14.9158401898
 10
13.8863964361
 20
14.915213846
 10
13.8943081776
 20
14.914074083
 10
13.9023538483
 20
14.9124234825
 10
13.9105152229
 20
14.9102657836
 10
13.9187738142
 20
14.9076058738
 10
13.9271109146
 20
14.9044497785
 10
13.9355076386
 20
14.9008046469
 10
13.9439449658
 20
14.8966787362
 10
13.9524037838
 20
14.8920813923
  0
LINE
  5
285
100
AcDbEntity
  8
0
100
AcDbLine
 62
250
  6
CONTINUOUS
 10
15.945763638
 20
16.1418243481
 11
15.9480500994
 21
16.143067325
  0
LWPOLYLINE
  5
286
100
AcDbEntity
  8
0
100
AcDbPolyline
 62
7
  6
CONTINUOUS
 90
3
 70
0
 10
15.4108853506
 20
15.8401373414
 10
15.4131722217
 20
15.8413805485
 10
15.4193978935
 20
15.8443207401
  0
LWPOLYLINE
  5
287
100
AcDbEntity
  8
0
100
AcDbPolyline
 62
7
  6
CONTINUOUS
 90
19
 70
0
 10
15.945763638
 20
16.1418243481
 10
15.9581974124
 20
16.1483835754
 10
15.9710695228
 20
16.1542714003
 10
15.9843360346
 20
16.1594505692
 10
15.9979556394
 20
16.1638893761
 10
16.0118708837
 20
16.1675556909
 10
16.0260091673
 20
16.1704213713
 10
16.0403033571
 20
16.1724684086
 10
16.0547078315
 20
16.1736876286
 10
16.0691832014
 20
16.1740721779
 10
16.0836611781
 20
16.1736177129
 10
16.0980973816
 20
16.1723244506
 10
16.1124923224
 20
16.1701864285
 10
16.1268295663
 20
16.1671926259
 10
16.1410137015
 20
16.1633501952
 10
16.1549382471
 20
16.1586844282
 10
16.1685653332
 20
16.1532088829
 10
16.1818474306
 20
16.1469426005
 10
16.1935863578
 20
16.1405766358
  0
LWPOLYLINE
  5
288
100
AcDbEntity
  8
0
100
AcDbPolyline
 62
250
  6
CONTINUOUS
 90
17
 70
0
 10
15.9480500994
 20
16.143067325
 10
15.9542724269
 20
16.1460056387
 10
15.9607536909
 20
16.1484412251
 10
15.9674792098
 20
16.1503685669
 10
15.9744337487
 20
16.1517832984
 10
15.9816015542
 20
16.1526822148
 10
15.9889663894
 20
16.1530632799
 10
15.9965115714
 20
16.1529256304
 10
16.0042200087
 20
16.1522695783
 10
16.01207424
 20
16.1510966096
 10
16.0200564736
 20
16.1494093813
 10
16.0281486279
 20
16.1472117154
 10
16.0363323726
 20
16.1445085901
 10
16.0445891694
 20
16.1413061286
 10
16.052900315
 20
16.1376115851
 10
16.0612469828
 20
16.1334333287
 10
16.0696102656
 20
16.1287808241
  0
LWPOLYLINE
  5
289
100
AcDbEntity
  8
0
100
AcDbPolyline
 62
250
  6
CONTINUOUS
 90
27
 70
0
 10
3.5040575652
 20
20.4001912626
 10
3.4996410778
 20
20.3895111374
 10
3.4948374755
 20
20.3790840761
 10
3.4896573313
 20
20.3689337599
 10
3.4841116547
 20
20.3590825522
 10
3.4782130906
 20
20.3495536543
 10
3.471976149
 20
20.3403708043
 10
3.4654154524
 20
20.3315554289
 10
3.4585453173
 20
20.3231266669
 10
3.4513811023
 20
20.3151033846
 10
3.4439388589
 20
20.307503617
 10
3.4362354638
 20
20.3003446549
 10
3.4282884526
 20
20.2936428151
 10
3.4201158256
 20
20.28741327
 10
3.4117359725
 20
20.2816700302
 10
3.4031677904
 20
20.2764260487
 10
3.394430606
 20
20.2716931596
 10
3.3855441532
 20
20.2674820578
 10
3.3765285101
 20
20.2638022598
 10
3.3674040347
 20
20.2606620742
 10
3.3581913171
 20
20.2580685865
 10
3.3489111529
 20
20.2560276508
 10
3.3395844903
 20
20.2545438743
 10
3.3302323824
 20
20.2536206064
 10
3.3208759404
 20
20.2532599313
 10
3.3115362737
 20
20.2534626637
 10
3.3053889904
 20
20.2539051663
  0
LINE
  5
28A
100
AcDbEntity
  8
0
100
AcDbLine
 62
7
  6
CONTINUOUS
 10
24.0736868564
 20
17.913445994
 11
17.467364432
 21
13.8279971099
  0
LINE
  5
28B
100
AcDbEntity
  8
0
100
AcDbLine
 62
7
  6
CONTINUOUS
 10
24.0736868564
 20
17.355445306
 11
17.8106041849
 21
13.6107342417
  0
LINE
  5
28C
100
AcDbEntity
  8
RACCORDO
100
AcDbLine
 62
7
  6
CONTINUOUS
 10
23.672180453
 20
16.9237351499
 11
17.9727809308
 21
13.5170954212
  0
LINE
  5
28D
100
AcDbEntity
  8
0
100
AcDbLine
 62
7
  6
CONTINUOUS
 10
23.672180453
 20
16.9237351499
 11
17.9727809308
 21
13.5170954212
  0
LINE
  5
28E
100
AcDbEntity
  8
0
100
AcDbLine
 62
250
  6
CONTINUOUS
 10
15.6309418542
 20
13.9229145475
 11
17.7604898168
 21
15.1524881629
  0
LINE
  5
28F
100
AcDbEntity
  8
0
100
AcDbLine
 62
250
  6
CONTINUOUS
 10
15.8077155579
 20
13.6167335116
 11
17.9372635204
 21
14.846307127
  0
LINE
  5
290
100
AcDbEntity
  8
0
100
AcDbLine
 62
7
  6
CONTINUOUS
 10
23.1859510628
 20
18.6297901678
 11
17.4680418187
 21
15.4047220254
  0
LINE
  5
291
100
AcDbEntity
  8
ASSI
100
AcDbLine
 62
250
  6
CONTINUOUS
 10
10.8787927481
 20
8.6918197672
 11
14.2201269077
 21
10.8182120779
  0
LINE
  5
292
100
AcDbEntity
  8
ASSI
100
AcDbLine
 62
250
  6
CONTINUOUS
 10
11.2507221877
 20
8.0908965097
 11
14.5920563585
 21
10.2172888275
  0
LINE
  5
293
100
AcDbEntity
  8
0
100
AcDbLine
 62
7
  6
CONTINUOUS
 10
17.4089963487
 20
13.0308184715
 11
16.518936166
 21
12.4693049897
  0
LWPOLYLINE
  5
294
100
AcDbEntity
  8
0
100
AcDbPolyline
 62
7
  6
CONTINUOUS
 90
21
 70
0
 10
24.0736868564
 20
17.355445306
 10
24.0872644355
 20
17.3638973152
 10
24.1002105831
 20
17.3726255936
 10
24.1125252994
 20
17.381630141
 10
24.1242260957
 20
17.3909261007
 10
24.1352954607
 20
17.4004983295
 10
24.1456808597
 20
17.4103013981
 10
24.1553790415
 20
17.420336404
 10
24.1643932574
 20
17.4306022497
 10
24.1726807263
 20
17.4410502141
 10
24.1802379938
 20
17.451681163
 10
24.1870685144
 20
17.4624942307
 10
24.1931398708
 20
17.473438099
 10
24.1984484544
 20
17.4845133896
 10
24.2029978738
 20
17.4957194807
 10
24.2067665377
 20
17.507003189
 10
24.209750735
 20
17.5183648834
 10
24.2119541768
 20
17.5298041949
 10
24.2133664057
 20
17.5412668331
 10
24.2139836608
 20
17.5527529091
 10
24.2140146708
 20
17.5559888244
  0
LINE
  5
295
100
AcDbEntity
  8
0
100
AcDbLine
 62
250
  6
CONTINUOUS
 10
17.7622017342
 20
12.8268821086
 11
16.6830276702
 21
12.1609758168
  0
LINE
  5
296
100
AcDbEntity
  8
0
100
AcDbLine
 62
250
  6
CONTINUOUS
 10
18.1154860001
 20
12.2144782118
 11
17.0363119362
 21
11.54857192
  0
LINE
  5
297
100
AcDbEntity
  8
0
100
AcDbLine
 62
250
  6
CONTINUOUS
 10
18.4637987218
 20
13.2335879025
 11
17.762862768
 21
12.8265004359
  0
LINE
  5
298
100
AcDbEntity
  8
0
100
AcDbLine
 62
250
  6
CONTINUOUS
 10
18.817347625
 20
12.6212318756
 11
18.1164116712
 21
12.214144409
  0
LINE
  5
299
100
AcDbEntity
  8
RACCORDO
100
AcDbLine
 62
250
  6
CONTINUOUS
 10
14.9202548383
 20
8.3282514061
 11
14.6863967451
 21
8.1932251217
  0
LINE
  5
29A
100
AcDbEntity
  8
0
100
AcDbLine
 62
250
  6
CONTINUOUS
 10
14.9202548383
 20
8.3282514061
 11
14.6863967451
 21
8.1932251217
  0
LWPOLYLINE
  5
29B
100
AcDbEntity
  8
RACCORDO
100
AcDbPolyline
 62
7
  6
CONTINUOUS
 90
18
 70
0
 10
23.3799990207
 20
-15.1641907975
 10
23.371554843
 20
-15.1595208446
 10
23.3634995237
 20
-15.1554513144
 10
23.3553582732
 20
-15.1517233044
 10
23.3471341309
 20
-15.1483528678
 10
23.3388499526
 20
-15.1453724452
 10
23.3305044811
 20
-15.1427975631
 10
23.3221037992
 20
-15.1406473493
 10
23.3136809478
 20
-15.1389649218
 10
23.3052352992
 20
-15.1377677125
 10
23.2967771371
 20
-15.1370771955
 10
23.2883560607
 20
-15.1369473997
 10
23.2799738443
 20
-15.1373979253
 10
23.2716461639
 20
-15.1384498915
 10
23.2634451868
 20
-15.140161852
 10
23.255404426
 20
-15.1425656759
 10
23.2475190096
 20
-15.1456653092
 10
23.2398064397
 20
-15.1494762191
  0
LWPOLYLINE
  5
29C
100
AcDbEntity
  8
0
100
AcDbPolyline
 62
7
  6
CONTINUOUS
 90
18
 70
0
 10
23.3799990207
 20
-15.1641907975
 10
23.371554843
 20
-15.1595208446
 10
23.3634995237
 20
-15.1554513144
 10
23.3553582732
 20
-15.1517233044
 10
23.3471341309
 20
-15.1483528678
 10
23.3388499526
 20
-15.1453724452
 10
23.3305044811
 20
-15.1427975631
 10
23.3221037992
 20
-15.1406473493
 10
23.3136809478
 20
-15.1389649218
 10
23.3052352992
 20
-15.1377677125
 10
23.2967771371
 20
-15.1370771955
 10
23.2883560607
 20
-15.1369473997
 10
23.2799738443
 20
-15.1373979253
 10
23.2716461639
 20
-15.1384498915
 10
23.2634451868
 20
-15.140161852
 10
23.255404426
 20
-15.1425656759
 10
23.2475190096
 20
-15.1456653092
 10
23.2398064397
 20
-15.1494762191
  0
LINE
  5
29D
100
AcDbEntity
  8
RACCORDO
100
AcDbLine
 62
7
  6
CONTINUOUS
 10
23.7295303631
 20
-16.1731513989
 11
24.0675703468
 21
-16.3683314488
  0
LINE
  5
29E
100
AcDbEntity
  8
0
100
AcDbLine
 62
7
  6
CONTINUOUS
 10
23.7295303631
 20
-16.1731513989
 11
24.0675703468
 21
-16.3683314488
  0
LINE
  5
29F
100
AcDbEntity
  8
RACCORDO
100
AcDbLine
 62
250
  6
CONTINUOUS
 10
19.5182835788
 20
-13.2456566439
 11
19.6716725278
 21
-13.3342215006
  0
LINE
  5
2A0
100
AcDbEntity
  8
0
100
AcDbLine
 62
250
  6
CONTINUOUS
 10
19.5182835788
 20
-13.2456566439
 11
19.6716725278
 21
-13.3342215006
  0
LINE
  5
2A1
100
AcDbEntity
  8
RACCORDO
100
AcDbLine
 62
250
  6
CONTINUOUS
 10
21.8377476406
 20
-14.5848861235
 11
23.0239603579
 21
-15.2697904797
  0
LINE
  5
2A2
100
AcDbEntity
  8
0
100
AcDbLine
 62
250
  6
CONTINUOUS
 10
21.8377476406
 20
-14.5848861235
 11
23.0239603579
 21
-15.2697904797
  0
LINE
  5
2A3
100
AcDbEntity
  8
RACCORDO
100
AcDbLine
 62
7
  6
CONTINUOUS
 10
19.5182835788
 20
-13.1794257831
 11
19.7622773671
 21
-13.3203047384
  0
LINE
  5
2A4
100
AcDbEntity
  8
0
100
AcDbLine
 62
7
  6
CONTINUOUS
 10
19.5182835788
 20
-13.1794257831
 11
19.7622773671
 21
-13.3203047384
  0
LINE
  5
2A5
100
AcDbEntity
  8
RACCORDO
100
AcDbLine
 62
7
  6
CONTINUOUS
 10
21.8950921648
 20
-14.5517652722
 11
23.0823240739
 21
-15.237258097
  0
LINE
  5
2A6
100
AcDbEntity
  8
0
100
AcDbLine
 62
7
  6
CONTINUOUS
 10
21.8950921648
 20
-14.5517652722
 11
23.0823240739
 21
-15.237258097
  0
LINE
  5
2A7
100
AcDbEntity
  8
RACCORDO
100
AcDbLine
 62
250
  6
CONTINUOUS
 10
23.2398064397
 20
-15.1494762191
 11
23.672180453
 21
-15.3991235554
  0
LINE
  5
2A8
100
AcDbEntity
  8
0
100
AcDbLine
 62
250
  6
CONTINUOUS
 10
23.2398064397
 20
-15.1494762191
 11
23.672180453
 21
-15.3991235554
  0
LINE
  5
2A9
100
AcDbEntity
  8
RACCORDO
100
AcDbLine
 62
7
  6
CONTINUOUS
 10
23.3799979568
 20
-15.1641901832
 11
23.7295303629
 21
-15.3660058138
  0
LINE
  5
2AA
100
AcDbEntity
  8
0
100
AcDbLine
 62
7
  6
CONTINUOUS
 10
23.3799979568
 20
-15.1641901832
 11
23.7295303629
 21
-15.3660058138
  0
LWPOLYLINE
  5
2AB
100
AcDbEntity
  8
0
100
AcDbPolyline
 62
250
  6
CONTINUOUS
 90
34
 70
0
 10
15.8077155579
 20
-25.6401724483
 10
15.8032949454
 20
-25.6340705523
 10
15.7984876488
 20
-25.6277507206
 10
15.7933045182
 20
-25.621227217
 10
15.7877572552
 20
-25.6145147692
 10
15.7818583774
 20
-25.6076285238
 10
15.775621188
 20
-25.6005840111
 10
15.7690597543
 20
-25.5933971209
 10
15.7621888918
 20
-25.5860840826
 10
15.7550241231
 20
-25.578661418
 10
15.7475816265
 20
-25.5711458871
 10
15.7398781944
 20
-25.5635544465
 10
15.7319312108
 20
-25.5559042274
 10
15.7237586114
 20
-25.5482124957
 10
15.7153788432
 20
-25.540496613
 10
15.7068108196
 20
-25.5327739941
 10
15.6980738793
 20
-25.5250620695
 10
15.6891877417
 20
-25.5173782452
 10
15.6801724621
 20
-25.5097398627
 10
15.6710483897
 20
-25.5021641635
 10
15.6618361164
 20
-25.494668245
 10
15.6525564288
 20
-25.487269021
 10
15.6432302599
 20
-25.4799831832
 10
15.6338786706
 20
-25.4728271854
 10
15.6245227966
 20
-25.4658172008
 10
15.6151837718
 20
-25.4589690625
 10
15.605882657
 20
-25.4522982127
 10
15.5966404221
 20
-25.4458196905
 10
15.5874776958
 20
-25.4395479617
 10
15.5784153947
 20
-25.4334973493
 10
15.569474627
 20
-25.4276819296
 10
15.5606757554
 20
-25.4221149069
 10
15.5520383789
 20
-25.4168086407
 10
15.5435819459
 20
-25.4117750432
  0
LWPOLYLINE
  5
2AC
100
AcDbEntity
  8
0
100
AcDbPolyline
 62
250
  6
CONTINUOUS
 90
19
 70
0
 10
1.4729975351
 20
21.3699501881
 10
1.473165831
 20
21.3611427228
 10
1.4736703982
 20
21.3525463711
 10
1.4745102761
 20
21.3441775007
 10
1.4756838618
 20
21.336052068
 10
1.4771889227
 20
21.3281855213
 10
1.4790226091
 20
21.3205927792
 10
1.4811814532
 20
21.3132882571
 10
1.4836613406
 20
21.3062859233
 10
1.4864575203
 20
21.2995991997
 10
1.4895646428
 20
21.2932408547
 10
1.4929768049
 20
21.2872229463
 10
1.4966875329
 20
21.28155689
 10
1.5006897937
 20
21.2762534402
 10
1.5049759428
 20
21.2713227406
 10
1.5095377523
 20
21.2667742471
 10
1.5143664819
 20
21.262616642
 10
1.5194529676
 20
21.2588577848
 10
1.5247681904
 20
21.2555159728
  0
LINE
  5
2AD
100
AcDbEntity
  8
DRAFT
100
AcDbLine
 62
7
  6
CONTINUOUS
 10
1.3060927595
 20
18.2746135442
 11
1.3060927595
 21
20.6310033267
  0
LINE
  5
2AE
100
AcDbEntity
  8
0
100
AcDbLine
 62
7
  6
CONTINUOUS
 10
1.3060927595
 20
18.2746135442
 11
1.3060927595
 21
20.6310033267
  0
LINE
  5
2AF
100
AcDbEntity
  8
0
100
AcDbLine
 62
7
  6
CONTINUOUS
 10
1.3997742304
 20
21.7925390093
 11
1.3997790426
 21
21.4704677439
  0
LINE
  5
2B0
100
AcDbEntity
  8
0
100
AcDbLine
 62
250
  6
CONTINUOUS
 10
1.4729975351
 20
21.690470361
 11
1.4729975351
 21
21.3699501881
  0
LINE
  5
2B1
100
AcDbEntity
  8
0
100
AcDbLine
 62
7
  6
CONTINUOUS
 10
2.1027671847
 20
20.9217865976
 11
2.1027671847
 21
20.6423590983
  0
LINE
  5
2B2
100
AcDbEntity
  8
0
100
AcDbLine
 62
250
  6
CONTINUOUS
 10
2.1759904894
 20
20.8795083791
 11
2.1759904894
 21
20.5371572691
  0
LWPOLYLINE
  5
2B3
100
AcDbEntity
  8
0
100
AcDbPolyline
 62
250
  6
CONTINUOUS
 90
34
 70
0
 10
1.4729975351
 20
21.690470361
 10
1.473196283
 20
21.700261476
 10
1.4737920798
 20
21.7102600841
 10
1.4747835858
 20
21.7204437026
 10
1.4761685714
 20
21.7307894328
 10
1.4779439226
 20
21.7412740116
 10
1.4801056471
 20
21.7518738636
 10
1.4826488844
 20
21.7625651543
 10
1.4855679156
 20
21.7733238435
 10
1.4888561771
 20
21.7841257395
 10
1.4925062751
 20
21.7949465533
 10
1.496510002
 20
21.8057619535
 10
1.5008583551
 20
21.816547621
 10
1.5055415568
 20
21.8272793033
 10
1.5105490766
 20
21.8379328694
 10
1.5158696546
 20
21.848484364
 10
1.5214913273
 20
21.8589100612
 10
1.5274014538
 20
21.8691865181
 10
1.5335867447
 20
21.8792906273
 10
1.540033292
 20
21.8891996689
 10
1.5467266001
 20
21.8988913616
 10
1.5536516186
 20
21.9083439131
 10
1.560792776
 20
21.9175360685
 10
1.568134015
 20
21.9264471585
 10
1.5756588282
 20
21.9350571459
 10
1.5833502955
 20
21.9433466705
 10
1.591191122
 20
21.9512970926
 10
1.5991636771
 20
21.9588905352
 10
1.6072500338
 20
21.9661099238
 10
1.6154320094
 20
21.9729390251
 10
1.6236912061
 20
21.9793624832
 10
1.6320090525
 20
21.9853658547
 10
1.6403668452
 20
21.9909356404
 10
1.6487457911
 20
21.9960593162
  0
LWPOLYLINE
  5
2B4
100
AcDbEntity
  8
0
100
AcDbPolyline
 62
250
  6
CONTINUOUS
 90
34
 70
0
 10
3.1515356056
 20
20.7213035161
 10
3.1517343534
 20
20.7310946312
 10
3.1523301502
 20
20.7410932393
 10
3.1533216562
 20
20.7512768577
 10
3.1547066418
 20
20.7616225879
 10
3.156481993
 20
20.7721071668
 10
3.1586437175
 20
20.7827070188
 10
3.1611869548
 20
20.7933983095
 10
3.164105986
 20
20.8041569987
 10
3.1673942475
 20
20.8149588946
 10
3.1710443455
 20
20.8257797084
 10
3.1750480724
 20
20.8365951087
 10
3.1793964255
 20
20.8473807762
 10
3.1840796272
 20
20.8581124585
 10
3.189087147
 20
20.8687660246
 10
3.1944077251
 20
20.8793175192
 10
3.2000293977
 20
20.8897432164
 10
3.2059395242
 20
20.9000196733
 10
3.2121248151
 20
20.9101237824
 10
3.2185713624
 20
20.920032824
 10
3.2252646705
 20
20.9297245168
 10
3.232189689
 20
20.9391770683
 10
3.2393308464
 20
20.9483692236
 10
3.2466720854
 20
20.9572803136
 10
3.2541968986
 20
20.9658903011
 10
3.2618883659
 20
20.9741798257
 10
3.2697291924
 20
20.9821302478
 10
3.2777017475
 20
20.9897236904
 10
3.2857881042
 20
20.996943079
 10
3.2939700799
 20
21.0037721802
 10
3.3022292766
 20
21.0101956384
 10
3.3105471229
 20
21.0161990098
 10
3.3189049156
 20
21.0217687955
 10
3.3272838615
 20
21.0268924714
  0
LWPOLYLINE
  5
2B5
100
AcDbEntity
  8
0
100
AcDbPolyline
 62
7
  6
CONTINUOUS
 90
21
 70
0
 10
1.3997742304
 20
21.7925389824
 10
1.4000468674
 20
21.8042113751
 10
1.4009751092
 20
21.8170134301
 10
1.4025611378
 20
21.8297638239
 10
1.4048045731
 20
21.8424375764
 10
1.4077032842
 20
21.8550022542
 10
1.411252623
 20
21.8674218696
 10
1.415447697
 20
21.879665789
 10
1.4202814488
 20
21.8917008124
 10
1.4257442965
 20
21.9034921016
 10
1.4318254741
 20
21.9150067177
 10
1.4385121229
 20
21.9262114519
 10
1.4457896089
 20
21.9370736909
 10
1.4536419933
 20
21.9475620577
 10
1.4620524974
 20
21.9576467043
 10
1.4710000415
 20
21.9672953807
 10
1.4804590953
 20
21.976474827
 10
1.4904054787
 20
21.985156768
 10
1.500814029
 20
21.9933146512
 10
1.5116543651
 20
22.0009206371
 10
1.5225930181
 20
22.0077713006
  0
LWPOLYLINE
  5
2B6
100
AcDbEntity
  8
0
100
AcDbPolyline
 62
7
  6
CONTINUOUS
 90
28
 70
0
 10
17.2449489444
 20
18.0049023896
 10
17.2530365438
 20
18.0151570463
 10
17.2605376644
 20
18.026082814
 10
17.2674523061
 20
18.0376796927
 10
17.2737916367
 20
18.0499722515
 10
17.2795444884
 20
18.0629359214
 10
17.2846773588
 20
18.0764969946
 10
17.2891862612
 20
18.090658138
 10
17.2930751823
 20
18.1054166849
 10
17.29632258
 20
18.1206909271
 10
17.2989248957
 20
18.1364837287
 10
17.3008856879
 20
18.1527922256
 10
17.3021940902
 20
18.1695261177
 10
17.3028464802
 20
18.1866877804
 10
17.3028464802
 20
18.2042748383
 10
17.3021940902
 20
18.2221898646
 10
17.3008856879
 20
18.2404346668
 10
17.2989248957
 20
18.2590074375
 10
17.29632258
 20
18.2778053281
 10
17.2930751823
 20
18.2968295837
 10
17.2891862612
 20
18.3160789591
 10
17.2846773588
 20
18.33544687
 10
17.2795444884
 20
18.3549352534
 10
17.2737916367
 20
18.3745421722
 10
17.2674523061
 20
18.394155231
 10
17.2605376644
 20
18.4137369647
 10
17.2530365438
 20
18.4333248384
 10
17.2449489444
 20
18.4529188521
  0
LINE
  5
2B7
100
AcDbEntity
  8
0
100
AcDbLine
 62
7
  6
CONTINUOUS
 10
18.817347625
 20
9.8567381692
 11
19.5182835788
 21
10.2757009491
  0
LINE
  5
2B8
100
AcDbEntity
  8
DRAFT
100
AcDbLine
 62
7
  6
CONTINUOUS
 10
15.3765814314
 20
-6.6146193578
 11
15.8863453486
 21
-6.9089506548
  0
LINE
  5
2B9
100
AcDbEntity
  8
0
100
AcDbLine
 62
7
  6
CONTINUOUS
 10
15.3765814314
 20
-6.6146193578
 11
15.8863453486
 21
-6.9089506548
  0
LWPOLYLINE
  5
2BA
100
AcDbEntity
  8
0
100
AcDbPolyline
 62
250
  6
CONTINUOUS
 90
19
 70
0
 10
3.1515356056
 20
20.4007833433
 10
3.1517034378
 20
20.3919878785
 10
3.1522068445
 20
20.3834000343
 10
3.1530452115
 20
20.375036352
 10
3.1542174382
 20
20.3669120661
 10
3.1557215567
 20
20.3590438581
 10
3.1575543598
 20
20.3514495225
 10
3.1597120847
 20
20.3441443619
 10
3.1621908188
 20
20.3371413773
 10
3.1649858762
 20
20.3304538274
 10
3.1680919731
 20
20.324094404
 10
3.1715031833
 20
20.3180752849
 10
3.1752129677
 20
20.3124080199
 10
3.179214231
 20
20.3071034328
 10
3.1834993768
 20
20.3021715801
 10
3.1880602769
 20
20.2976218185
 10
3.1928882829
 20
20.2934627901
 10
3.1979741761
 20
20.2897024504
 10
3.203306238
 20
20.2863491412
  0
LINE
  5
2BB
100
AcDbEntity
  8
0
100
AcDbLine
 62
250
  6
CONTINUOUS
 10
3.1515356056
 20
20.4007833433
 11
3.1515356056
 21
20.7213035161
  0
LINE
  5
2BC
100
AcDbEntity
  8
0
100
AcDbLine
 62
250
  6
CONTINUOUS
 10
3.5040575652
 20
20.4001912626
 11
3.5040575652
 21
20.7207114355
  0
LINE
  5
2BD
100
AcDbEntity
  8
0
100
AcDbLine
 62
250
  6
CONTINUOUS
 10
3.8627562137
 20
19.5632398801
 11
3.8627562137
 21
20.2025821503
  0
LINE
  5
2BE
100
AcDbEntity
  8
0
100
AcDbLine
 62
250
  6
CONTINUOUS
 10
4.2152781733
 20
19.5732829136
 11
4.2152781733
 21
20.3347012498
  0
LINE
  5
2BF
100
AcDbEntity
  8
0
100
AcDbLine
 62
7
  6
CONTINUOUS
 10
5.105338356
 20
20.1347963954
 11
5.105338356
 21
21.6452698617
  0
LINE
  5
2C0
100
AcDbEntity
  8
0
100
AcDbLine
 62
250
  6
CONTINUOUS
 10
5.6336055278
 20
21.9502850509
 11
5.6336055278
 21
21.6226397504
  0
LINE
  5
2C1
100
AcDbEntity
  8
0
100
AcDbLine
 62
7
  6
CONTINUOUS
 10
5.7058033848
 20
22.051758164
 11
5.7058033848
 21
21.7241128635
  0
LWPOLYLINE
  5
2C2
100
AcDbEntity
  8
0
100
AcDbPolyline
 62
250
  6
CONTINUOUS
 90
18
 70
0
 10
5.7058033848
 20
22.051758164
 10
5.7057487052
 20
22.0487393168
 10
5.7052197322
 20
22.0419004564
 10
5.7041297937
 20
22.0350838115
 10
5.7024813466
 20
22.028304694
 10
5.7002780884
 20
22.0215783066
 10
5.6975249413
 20
22.0149197163
 10
5.694228111
 20
22.0083439632
 10
5.6903950964
 20
22.0018659768
 10
5.6860346103
 20
21.9955004056
 10
5.6811564407
 20
21.989261471
 10
5.6757714807
 20
21.9831630827
 10
5.6698909197
 20
21.9772180739
 10
5.6635287578
 20
21.971440746
 10
5.656702357
 20
21.965846473
 10
5.6494287359
 20
21.9604483505
 10
5.6417238478
 20
21.9552574196
 10
5.6336055278
 20
21.9502850509
  0
LWPOLYLINE
  5
2C3
100
AcDbEntity
  8
0
100
AcDbPolyline
 62
7
  6
CONTINUOUS
 90
14
 70
0
 10
5.7058033848
 20
21.7241128635
 10
5.7054814402
 20
21.7114295147
 10
5.7045101927
 20
21.6987175322
 10
5.7028838959
 20
21.6860179685
 10
5.7006006749
 20
21.6733754342
 10
5.6976611454
 20
21.6608291883
 10
5.6940668001
 20
21.6484125008
 10
5.6898238226
 20
21.6361672291
 10
5.6849417642
 20
21.6241348509
 10
5.6794287081
 20
21.6123465234
 10
5.6732977328
 20
21.6008399609
 10
5.6665667614
 20
21.589655439
 10
5.6592518126
 20
21.5788244013
 10
5.6513043516
 20
21.5682944695
  0
LWPOLYLINE
  5
2C4
100
AcDbEntity
  8
0
100
AcDbPolyline
 62
250
  6
CONTINUOUS
 90
17
 70
0
 10
5.7057163203
 20
21.7206828661
 10
5.7052217534
 20
21.7142722195
 10
5.7041333792
 20
21.707456322
 10
5.7024866162
 20
21.7006778779
 10
5.7002851672
 20
21.6939521292
 10
5.6975339825
 20
21.6872941991
 10
5.6942392482
 20
21.6807190586
 10
5.6904083728
 20
21.6742414924
 10
5.6860499704
 20
21.6678760657
 10
5.6811738411
 20
21.6616370917
 10
5.6757909492
 20
21.6555385993
 10
5.6699133987
 20
21.6495943012
 10
5.6635544056
 20
21.6438175638
 10
5.6567282686
 20
21.6382213764
 10
5.6494503368
 20
21.6328183225
 10
5.6417369752
 20
21.6276205513
 10
5.6336055278
 20
21.6226397504
  0
LWPOLYLINE
  5
2C5
100
AcDbEntity
  8
0
100
AcDbPolyline
 62
7
  6
CONTINUOUS
 90
25
 70
0
 10
13.3784876959
 20
15.7923907897
 10
13.3840656861
 20
15.8031382084
 10
13.3891727822
 20
15.8143481679
 10
13.3938089839
 20
15.8260206683
 10
13.3979794443
 20
15.8381734767
 10
13.4016790104
 20
15.850788826
 10
13.4048922239
 20
15.8638134145
 10
13.407617049
 20
15.8772489467
 10
13.4098555215
 20
15.8910937183
 10
13.4115982913
 20
15.905289314
 10
13.412843285
 20
15.9198371972
 10
13.4135925759
 20
15.9347359046
 10
13.413843035
 20
15.9499226313
 10
13.4135925759
 20
15.9653985819
 10
13.412843285
 20
15.9811625517
 10
13.4115982913
 20
15.9971481224
 10
13.4098555215
 20
16.0133562251
 10
13.407617049
 20
16.0297859285
 10
13.4048922239
 20
16.0463680204
 10
13.4016790104
 20
16.0631031475
 10
13.3979794443
 20
16.0799906629
 10
13.3938089839
 20
16.0969594143
 10
13.3891727822
 20
16.1139856843
 10
13.3840656861
 20
16.1310931903
 10
13.3784876959
 20
16.1482819324
  0
LINE
  5
2C6
100
AcDbEntity
  8
0
100
AcDbLine
 62
250
  6
CONTINUOUS
 10
17.4089963487
 20
13.8558495601
 11
17.9372635204
 21
14.5186618265
  0
LINE
  5
2C7
100
AcDbEntity
  8
0
100
AcDbLine
 62
7
  6
CONTINUOUS
 10
17.4089963487
 20
13.7792977173
 11
17.954963521
 21
14.4643180218
  0
LINE
  5
2C8
100
AcDbEntity
  8
RACCORDO
100
AcDbLine
 62
7
  6
CONTINUOUS
 10
18.1073425836
 20
13.4394012093
 11
18.4896645777
 21
13.8260466291
  0
LINE
  5
2C9
100
AcDbEntity
  8
0
100
AcDbLine
 62
7
  6
CONTINUOUS
 10
18.1073425836
 20
13.4394012093
 11
18.4896645777
 21
13.8260466291
  0
LINE
  5
2CA
100
AcDbEntity
  8
RACCORDO
100
AcDbLine
 62
250
  6
CONTINUOUS
 10
18.004223445
 20
13.4989409075
 11
18.0951820614
 21
13.59025691
  0
LINE
  5
2CB
100
AcDbEntity
  8
0
100
AcDbLine
 62
250
  6
CONTINUOUS
 10
18.004223445
 20
13.4989409075
 11
18.0951820614
 21
13.59025691
  0
LINE
  5
2CC
100
AcDbEntity
  8
0
100
AcDbLine
 62
7
  6
CONTINUOUS
 10
6.0307479119
 20
19.6748800511
 11
6.0307479119
 21
18.3114686448
  0
LINE
  5
2CD
100
AcDbEntity
  8
0
100
AcDbLine
 62
7
  6
CONTINUOUS
 10
6.6963286137
 20
17.9271706893
 11
6.6963286137
 21
19.2905820956
  0
LINE
  5
2CE
100
AcDbEntity
  8
0
100
AcDbLine
 62
7
  6
CONTINUOUS
 10
7.4034353949
 20
19.5412599722
 11
7.4034353949
 21
18.3782346767
  0
LWPOLYLINE
  5
2CF
100
AcDbEntity
  8
0
100
AcDbPolyline
 62
7
  6
CONTINUOUS
 90
31
 70
0
 10
7.4034353949
 20
19.5412599722
 10
7.4036321248
 20
19.5499263264
 10
7.4042082146
 20
19.5587425779
 10
7.4051636644
 20
19.5677087267
 10
7.4065031226
 20
19.5768499091
 10
7.4082219408
 20
19.5861409889
 10
7.4103061733
 20
19.5955065569
 10
7.412758818
 20
19.6049472913
 10
7.4155768771
 20
19.6144625139
 10
7.4187374115
 20
19.6239747821
 10
7.4222431612
 20
19.6334839503
 10
7.4260913863
 20
19.6429901639
 10
7.4302509273
 20
19.6524164165
 10
7.4347243765
 20
19.6617621901
 10
7.4395091416
 20
19.6710280027
 10
7.4445662864
 20
19.6801384013
 10
7.4498980486
 20
19.6890921094
 10
7.4555021907
 20
19.6978904037
 10
7.4613330636
 20
19.7064616615
 10
7.4673924272
 20
19.7148039175
 10
7.4736785218
 20
19.722919137
 10
7.4801404188
 20
19.7307415933
 10
7.4867796304
 20
19.7382690055
 10
7.4935946443
 20
19.7455036545
 10
7.5005299962
 20
19.7523866558
 10
7.5075866152
 20
19.7589150906
 10
7.5147635722
 20
19.7650918777
 10
7.5220026143
 20
19.7708668886
 10
7.5292843242
 20
19.776223414
 10
7.5366281193
 20
19.7811781632
 10
7.5440339997
 20
19.7857311364
  0
LWPOLYLINE
  5
2D0
100
AcDbEntity
  8
ASSI
100
AcDbPolyline
 62
250
  6
CONTINUOUS
 90
10
 70
0
 10
12.3214102889
 20
-25.7852736309
 10
12.0243331952
 20
-22.1912891831
 10
11.7587300831
 20
-18.5776320843
 10
11.5246009528
 20
-14.9443023345
 10
11.3219284998
 20
-11.2909286232
 10
11.1507300284
 20
-7.6178822609
 10
11.0110574522
 20
-3.9262771791
 10
10.9029280757
 20
-0.2164846884
 10
10.8263245944
 20
3.5118665218
 10
10.7812470082
 20
7.2587764515
  0
LWPOLYLINE
  5
2D1
100
AcDbEntity
  8
ASSI
100
AcDbPolyline
 62
250
  6
CONTINUOUS
 90
10
 70
0
 10
11.6376575966
 20
-25.8240003836
 10
11.3417135576
 20
-22.227629367
 10
11.0768694962
 20
-18.6107533354
 10
10.8431599773
 20
-14.9736844518
 10
10.6406125598
 20
-11.3166940998
 10
10.4692509499
 20
-7.6401477591
 10
10.3290965126
 20
-3.9445037695
 10
10.2201599999
 20
-0.2301358744
 10
10.1424400148
 20
3.5026660721
 10
10.095932251
 20
7.2535651109
  0
LINE
  5
2D2
100
AcDbEntity
  8
0
100
AcDbLine
 62
250
  6
CONTINUOUS
 10
9.0297809916
 20
17.439203112
 11
9.0297809916
 21
18.6022284075
  0
LINE
  5
2D3
100
AcDbEntity
  8
0
100
AcDbLine
 62
250
  6
CONTINUOUS
 10
9.3126237041
 20
17.4477609908
 11
9.3126237041
 21
18.6022284075
  0
LINE
  5
2D4
100
AcDbEntity
  8
0
100
AcDbLine
 62
7
  6
CONTINUOUS
 10
10.2318625196
 20
17.9870797129
 11
10.2318625196
 21
19.1296603193
  0
LINE
  5
2D5
100
AcDbEntity
  8
0
100
AcDbLine
 62
7
  6
CONTINUOUS
 10
10.6682586227
 20
17.7040243022
 11
10.6682586227
 21
16.5435055514
  0
LINE
  5
2D6
100
AcDbEntity
  8
0
100
AcDbLine
 62
250
  6
CONTINUOUS
 10
10.7268372665
 20
17.6223693836
 11
10.7268372665
 21
16.459344088
  0
LWPOLYLINE
  5
2D7
100
AcDbEntity
  8
ASSI
100
AcDbPolyline
 62
250
  6
CONTINUOUS
 90
22
 70
0
 10
10.0959322179
 20
7.253565088
 10
10.0974762842
 20
7.324532886
 10
10.1033544851
 20
7.3976885427
 10
10.1135371169
 20
7.4726561148
 10
10.12797635
 20
7.5490430327
 10
10.1465967138
 20
7.6264634662
 10
10.1692980437
 20
7.7045409323
 10
10.1959742694
 20
7.7828784018
 10
10.2264917913
 20
7.8610677798
 10
10.2606818153
 20
7.9387137932
 10
10.2983782411
 20
8.0154135713
 10
10.3393949034
 20
8.0907725261
 10
10.3835067901
 20
8.1644143626
 10
10.430499979
 20
8.2359577631
 10
10.4801412503
 20
8.3050308304
 10
10.5321550602
 20
8.3712871884
 10
10.5862828297
 20
8.4343780041
 10
10.6422603796
 20
8.493979371
 10
10.6997884569
 20
8.5498049919
 10
10.7585763638
 20
8.6015694369
 10
10.8183426158
 20
8.648991365
 10
10.8787927369
 20
8.6918197601
  0
LWPOLYLINE
  5
2D8
100
AcDbEntity
  8
0
100
AcDbPolyline
 62
250
  6
CONTINUOUS
 90
31
 70
0
 10
9.0297809916
 20
18.6022284075
 10
9.0299734519
 20
18.6108558244
 10
9.0305503105
 20
18.6196820274
 10
9.0315099999
 20
18.6286829945
 10
9.0328499122
 20
18.6378342372
 10
9.0345664021
 20
18.647110839
 10
9.0366547931
 20
18.6564875225
 10
9.0391093981
 20
18.6659387581
 10
9.0419235364
 20
18.6754388282
 10
9.0450895451
 20
18.6849618678
 10
9.0485988054
 20
18.6944819571
 10
9.052441764
 20
18.7039731839
 10
9.0566079556
 20
18.7134097067
 10
9.0610860416
 20
18.7227658482
 10
9.0658638287
 20
18.7320161371
 10
9.0709282949
 20
18.7411353702
 10
9.0762656305
 20
18.7500986951
 10
9.0818613236
 20
18.7588817548
 10
9.087700192
 20
18.7674607212
 10
9.0937664279
 20
18.7758123517
 10
9.1000434471
 20
18.7839137981
 10
9.106513964
 20
18.7917427699
 10
9.113160221
 20
18.7992778384
 10
9.1199642423
 20
18.8064986792
 10
9.1269076961
 20
18.8133858574
 10
9.1339731552
 20
18.8199219406
 10
9.1411399673
 20
18.8260876803
 10
9.1483843226
 20
18.8318629968
 10
9.155684952
 20
18.8372318674
 10
9.163023362
 20
18.8421816167
 10
9.1703795964
 20
18.8466995717
  0
LWPOLYLINE
  5
2D9
100
AcDbEntity
  8
0
100
AcDbPolyline
 62
250
  6
CONTINUOUS
 90
31
 70
0
 10
10.7268372665
 20
17.6223693836
 10
10.7270287831
 20
17.6309753673
 10
10.7276032669
 20
17.6397844626
 10
10.7285598375
 20
17.6487731122
 10
10.7298968727
 20
17.6579190143
 10
10.7316112552
 20
17.6671957891
 10
10.7336976398
 20
17.6765728216
 10
10.7361498034
 20
17.6860226302
 10
10.7389614648
 20
17.6955214228
 10
10.7421250657
 20
17.7050436174
 10
10.7456320978
 20
17.7145634879
 10
10.7494729857
 20
17.7240549367
 10
10.7536371689
 20
17.7334918361
 10
10.7581132495
 20
17.742848379
 10
10.7628890949
 20
17.7520992256
 10
10.7679517489
 20
17.7612192776
 10
10.7732874585
 20
17.7701837453
 10
10.7788816863
 20
17.7789681912
 10
10.7847191927
 20
17.7875486778
 10
10.7907840865
 20
17.7959018433
 10
10.7970598659
 20
17.8040049565
 10
10.8035294452
 20
17.8118359536
 10
10.810175216
 20
17.8193735183
 10
10.8169790906
 20
17.8265971335
 10
10.8239225454
 20
17.8334871312
 10
10.8309866872
 20
17.8400247618
 10
10.8381522835
 20
17.8461922246
 10
10.8453998085
 20
17.8519727148
 10
10.8527095277
 20
17.857350496
 10
10.8600615523
 20
17.8623109399
 10
10.8674358713
 20
17.8668405477
  0
LWPOLYLINE
  5
2DA
100
AcDbEntity
  8
ASSI
100
AcDbPolyline
 62
250
  6
CONTINUOUS
 90
22
 70
0
 10
10.7812470082
 20
7.2587764515
 10
10.7822509887
 20
7.3002677717
 10
10.7857980745
 20
7.3426253416
 10
10.7918882658
 20
7.3858491614
 10
10.800577736
 20
7.430187447
 10
10.8118103116
 20
7.4753919824
 10
10.8254174721
 20
7.5207181195
 10
10.8414353941
 20
7.5661491868
 10
10.859827901
 20
7.6117018558
 10
10.8803179428
 20
7.6566814921
 10
10.9029397855
 20
7.7010819101
 10
10.9276591631
 20
7.7449092954
 10
10.9540962274
 20
7.7874875712
 10
10.9822771915
 20
7.8287955994
 10
11.0121758423
 20
7.868854518
 10
11.0433336919
 20
7.9070516647
 10
11.0757862371
 20
7.9433685776
 10
11.1094979811
 20
7.9778237186
 10
11.143903946
 20
8.0098598101
 10
11.1788158057
 20
8.0392910928
 10
11.2144218863
 20
8.066303326
 10
11.2507221877
 20
8.0908965097
  0
LWPOLYLINE
  5
2DB
100
AcDbEntity
  8
0
100
AcDbPolyline
 62
7
  6
CONTINUOUS
 90
19
 70
0
 10
10.6682586227
 20
17.7040243022
 10
10.6685775939
 20
17.7153152289
 10
10.6695421208
 20
17.7266462117
 10
10.6711606982
 20
17.7379714399
 10
10.6734388017
 20
17.7492486018
 10
10.6763759778
 20
17.7604251046
 10
10.6799634504
 20
17.7714403839
 10
10.6841872317
 20
17.7822401761
 10
10.6890354841
 20
17.7927884081
 10
10.6944977566
 20
17.8030554155
 10
10.7005498772
 20
17.8129911625
 10
10.7071740193
 20
17.8225643816
 10
10.7143752776
 20
17.8317737292
 10
10.7221551959
 20
17.8406031751
 10
10.7304703384
 20
17.8489877068
 10
10.739260088
 20
17.8568620529
 10
10.748499148
 20
17.8642044135
 10
10.7581551612
 20
17.8709890523
 10
10.7673839069
 20
17.8767214119
  0
LWPOLYLINE
  5
2DC
100
AcDbEntity
  8
0
100
AcDbPolyline
 62
250
  6
CONTINUOUS
 90
27
 70
0
 10
15.8077155579
 20
13.2962133387
 10
15.8032950324
 20
13.2855239696
 10
15.798487837
 20
13.2750904248
 10
15.7933048215
 20
13.2649362525
 10
15.7877576834
 20
13.2550843699
 10
15.7818589424
 20
13.2455570122
 10
15.7756219116
 20
13.236375682
 10
15.7690606675
 20
13.227561101
 10
15.7621900186
 20
13.2191331633
 10
15.7550254714
 20
13.2111108902
 10
15.747583196
 20
13.2035123875
 10
15.7398799891
 20
13.1963548046
 10
15.7319332363
 20
13.1896542957
 10
15.7237608731
 20
13.1834259834
 10
15.715381344
 20
13.1776839248
 10
15.7068135611
 20
13.1724410793
 10
15.6980768614
 20
13.1677092796
 10
15.689190963
 20
13.1634992052
 10
15.6801759209
 20
13.159820358
 10
15.6710520816
 20
13.1566810408
 10
15.6618400371
 20
13.1540883391
 10
15.6525605782
 20
13.1520481042
 10
15.6432346483
 20
13.150564941
 10
15.6338832955
 20
13.1496421968
 10
15.6245276251
 20
13.1492819542
 10
15.6151887523
 20
13.1494850263
 10
15.6090469831
 20
13.1499272424
  0
LWPOLYLINE
  5
2DD
100
AcDbEntity
  8
ASSI
100
AcDbPolyline
 62
250
  6
CONTINUOUS
 90
16
 70
0
 10
10.0959411721
 20
7.2535707496
 10
10.1344071615
 20
7.2348328298
 10
10.1759380598
 20
7.2184636481
 10
10.220113296
 20
7.2046289705
 10
10.2664855209
 20
7.1934688965
 10
10.3145851369
 20
7.1850964409
 10
10.3639250535
 20
7.1795963886
 10
10.4140056203
 20
7.177024437
 10
10.4643196865
 20
7.1774066316
 10
10.5143577366
 20
7.1807391019
 10
10.5636130503
 20
7.1869881011
 10
10.6115868339
 20
7.1960903474
 10
10.6577932714
 20
7.207953665
 10
10.701764444
 20
7.2224579178
 10
10.7430550688
 20
7.2394562256
 10
10.7812470082
 20
7.2587764515
  0
LWPOLYLINE
  5
2DE
100
AcDbEntity
  8
ASSI
100
AcDbPolyline
 62
250
  6
CONTINUOUS
 90
14
 70
0
 10
10.095932251
 20
7.2535651109
 10
8.4593890113
 20
8.1358217596
 10
6.8304271567
 20
9.0206498235
 10
5.2090451374
 20
9.9080245066
 10
3.5975651744
 20
10.7966349277
 10
1.9936453422
 20
11.6877319784
 10
0.3903597128
 20
12.5851810468
 10
-1.2092806362
 20
13.4873407434
 10
-2.8081665749
 20
14.3958842001
 10
-4.4218371047
 20
15.3198036323
 10
-6.0479474523
 20
16.2580138482
 10
-7.6883693934
 20
17.211853044
 10
-9.3645470024
 20
18.1942134613
 10
-11.0769139825
 20
19.2059515271
  0
LWPOLYLINE
  5
2DF
100
AcDbEntity
  8
ASSI
100
AcDbPolyline
 62
250
  6
CONTINUOUS
 90
6
 70
0
 10
-11.0769139825
 20
19.2059515271
 10
-12.8239898082
 20
20.2468087413
 10
-14.623844232
 20
21.3283136044
 10
-16.4818456536
 20
22.454686265
 10
-18.3909197275
 20
23.6226776152
 10
-20.3501910106
 20
24.8327751098
  0
LWPOLYLINE
  5
2E0
100
AcDbEntity
  8
ASSI
100
AcDbPolyline
 62
250
  6
CONTINUOUS
 90
9
 70
0
 10
-20.3501910095
 20
24.8327751288
 10
-20.3826264351
 20
24.8549749615
 10
-20.4110317515
 20
24.8789863604
 10
-20.4351193006
 20
24.904566164
 10
-20.4546451498
 20
24.9314553279
 10
-20.4694115624
 20
24.9593815478
 10
-20.4792690002
 20
24.9880620171
 10
-20.4841176378
 20
25.0172062913
 10
-20.4846411793
 20
25.0288571371
  0
LINE
  5
2E1
100
AcDbEntity
  8
0
100
AcDbLine
 62
7
  6
CONTINUOUS
 10
11.646076082
 20
16.4326599423
 11
11.646076082
 21
15.069248536
  0
LINE
  5
2E2
100
AcDbEntity
  8
0
100
AcDbLine
 62
250
  6
CONTINUOUS
 10
11.6751541067
 20
20.839745417
 11
11.6751541067
 21
22.1449032412
  0
LINE
  5
2E3
100
AcDbEntity
  8
0
100
AcDbLine
 62
7
  6
CONTINUOUS
 10
11.8095562039
 20
21.025552141
 11
11.8095562039
 21
22.2038839603
  0
LINE
  5
2E4
100
AcDbEntity
  8
0
100
AcDbLine
 62
7
  6
CONTINUOUS
 10
12.3116567838
 20
14.6849505805
 11
12.3116567838
 21
16.0483619868
  0
LINE
  5
2E5
100
AcDbEntity
  8
0
100
AcDbLine
 62
7
  6
CONTINUOUS
 10
13.3784876959
 20
15.3579836534
 11
13.3784876959
 21
16.6643360963
  0
LINE
  5
2E6
100
AcDbEntity
  8
0
100
AcDbLine
 62
7
  6
CONTINUOUS
 10
13.7034322231
 20
14.6885610854
 11
13.7034370352
 21
14.36648982
  0
LINE
  5
2E7
100
AcDbEntity
  8
0
100
AcDbLine
 62
250
  6
CONTINUOUS
 10
13.7766555278
 20
14.5864924371
 11
13.7766555278
 21
14.2659722642
  0
LWPOLYLINE
  5
2E8
100
AcDbEntity
  8
0
100
AcDbPolyline
 62
250
  6
CONTINUOUS
 90
34
 70
0
 10
13.7766555278
 20
14.5864924371
 10
13.7768543306
 20
14.5962849188
 10
13.7774502929
 20
14.6062849625
 10
13.778442076
 20
14.6164700771
 10
13.7798274521
 20
14.6268173614
 10
13.7816033062
 20
14.6373035364
 10
13.7837656413
 20
14.6479049966
 10
13.7863095919
 20
14.658597891
 10
13.7892294367
 20
14.6693581746
 10
13.7925186066
 20
14.6801616417
 10
13.7961697036
 20
14.6909839947
 10
13.8001745142
 20
14.7018008901
 10
13.8045240264
 20
14.71258799
 10
13.8092084551
 20
14.7233210308
 10
13.8142172631
 20
14.7339758736
 10
13.8195391817
 20
14.7445285509
 10
13.8251622421
 20
14.7549553337
 10
13.8310737928
 20
14.7652327657
 10
13.8372605245
 20
14.7753377137
 10
13.8437085011
 20
14.7852474248
 10
13.8504032344
 20
14.7949396415
 10
13.8573297106
 20
14.8043926287
 10
13.864472421
 20
14.813585208
 10
13.8718152385
 20
14.8224966119
 10
13.8793414852
 20
14.8311066121
 10
13.8870341194
 20
14.839395752
 10
13.894875932
 20
14.8473455262
 10
13.902849431
 20
14.8549382156
 10
13.9109379084
 20
14.8621578012
 10
13.9191219797
 20
14.8689868735
 10
13.9273796505
 20
14.8754073841
 10
13.9356910712
 20
14.8814046033
 10
13.9440387036
 20
14.8869665749
 10
13.9524037838
 20
14.8920813923
  0
LWPOLYLINE
  5
2E9
100
AcDbEntity
  8
ASSI
100
AcDbPolyline
 62
250
  6
CONTINUOUS
 90
13
 70
0
 10
10.8787927481
 20
8.6918197672
 10
9.2422124757
 20
9.5721205122
 10
7.6132346244
 20
10.4551497738
 10
5.9918591942
 20
11.3409075519
 10
4.3803714426
 20
12.2281068163
 10
2.7764861122
 20
13.1180345972
 10
1.1733474304
 20
14.0145519857
 10
-0.4262574586
 20
14.9158942075
 10
-2.025115699
 20
15.8238260369
 10
-3.6384444957
 20
16.7475028867
 10
-5.264376164
 20
17.6854919852
 10
-6.9047783885
 20
18.6392261042
 10
-8.5804714287
 20
19.6221589722
  0
LINE
  5
2EA
100
AcDbEntity
  8
ASSI
100
AcDbLine
 62
250
  6
CONTINUOUS
 10
-8.5804714287
 20
19.6221589722
 11
-10.2928097182
 21
20.6346385444
  0
LWPOLYLINE
  5
2EB
100
AcDbEntity
  8
ASSI
100
AcDbPolyline
 62
250
  6
CONTINUOUS
 90
6
 70
0
 10
-10.2928097182
 20
20.6346385444
 10
-12.0404388234
 20
21.6763168655
 10
-13.8401157026
 20
22.759603798
 10
-15.6974260087
 20
23.8886359625
 10
-17.6067840888
 20
25.0592767383
 10
-19.5681899431
 20
26.2715261254
  0
LWPOLYLINE
  5
2EC
100
AcDbEntity
  8
ASSI
100
AcDbPolyline
 62
250
  6
CONTINUOUS
 90
16
 70
0
 10
10.8787927369
 20
8.6918197601
 10
10.9149085713
 20
8.66771434
 10
10.9509327122
 20
8.6395930842
 10
10.9864708157
 20
8.6077638264
 10
11.021133858
 20
8.5725749907
 10
11.0545423947
 20
8.5344117775
 10
11.0863307142
 20
8.4936919467
 10
11.1161508404
 20
8.4508612445
 10
11.1436763427
 20
8.406388524
 10
11.1686059085
 20
8.3607606132
 10
11.1906666425
 20
8.3144769852
 10
11.2096170532
 20
8.2680442913
 10
11.225249697
 20
8.2219708143
 10
11.2373934485
 20
8.1767609052
 10
11.2459153743
 20
8.1329094613
 10
11.2507221877
 20
8.0908965097
  0
LINE
  5
2ED
100
AcDbEntity
  8
DRAFT
100
AcDbLine
 62
7
  6
CONTINUOUS
 10
15.8863453486
 20
-6.9089506548
 11
17.0363119362
 21
-19.8211627945
  0
LINE
  5
2EE
100
AcDbEntity
  8
0
100
AcDbLine
 62
7
  6
CONTINUOUS
 10
15.8863453486
 20
-6.9089506548
 11
17.0363119362
 21
-19.8211627945
  0
LINE
  5
2EF
100
AcDbEntity
  8
ASSI
100
AcDbLine
 62
7
  6
CONTINUOUS
 10
16.1907761728
 20
-24.0830873595
 11
14.5920563585
 21
10.2172888275
  0
LWPOLYLINE
  5
2F0
100
AcDbEntity
  8
0
100
AcDbPolyline
 62
250
  6
CONTINUOUS
 90
18
 70
0
 10
15.4551935982
 20
-25.9601005405
 10
15.455392401
 20
-25.9696634497
 10
15.4559883633
 20
-25.9789752911
 10
15.4569801464
 20
-25.9880151194
 10
15.4583655225
 20
-25.9967626062
 10
15.4601413766
 20
-26.0051980693
 10
15.4623037117
 20
-26.0133025191
 10
15.4648476623
 20
-26.0210577232
 10
15.4677675071
 20
-26.0284462432
 10
15.471056677
 20
-26.0354514593
 10
15.474707774
 20
-26.042057617
 10
15.4787125846
 20
-26.0482498575
 10
15.4830620968
 20
-26.0540142498
 10
15.4877465255
 20
-26.0593378298
 10
15.4927553335
 20
-26.0642086266
 10
15.4980772521
 20
-26.0686156857
 10
15.5037003125
 20
-26.0725490993
 10
15.5069642535
 20
-26.0745347557
  0
LWPOLYLINE
  5
2F1
100
AcDbEntity
  8
0
100
AcDbPolyline
 62
250
  6
CONTINUOUS
 90
19
 70
0
 10
13.7766555278
 20
14.2659722642
 10
13.7768238237
 20
14.2571647989
 10
13.7773283909
 20
14.2485684472
 10
13.7781682687
 20
14.2401995768
 10
13.7793418545
 20
14.232074144
 10
13.7808469154
 20
14.2242075974
 10
13.7826806018
 20
14.2166148553
 10
13.7848394458
 20
14.2093103332
 10
13.7873193332
 20
14.2023079994
 10
13.790115513
 20
14.1956212758
 10
13.7932226355
 20
14.1892629308
 10
13.7966347976
 20
14.1832450224
 10
13.8003455256
 20
14.1775789661
 10
13.8043477863
 20
14.1722755163
 10
13.8086339355
 20
14.1673448167
 10
13.813195745
 20
14.1627963232
 10
13.8180244745
 20
14.1586387181
 10
13.8231109603
 20
14.1548798609
 10
13.8284261831
 20
14.1515380489
  0
LWPOLYLINE
  5
2F2
100
AcDbEntity
  8
0
100
AcDbPolyline
 62
250
  6
CONTINUOUS
 90
19
 70
0
 10
15.4551935982
 20
13.2968054194
 10
15.4553618941
 20
13.2879979541
 10
15.4558664613
 20
13.2794016023
 10
15.4567063391
 20
13.271032732
 10
15.4578799249
 20
13.2629072992
 10
15.4593849858
 20
13.2550407525
 10
15.4612186722
 20
13.2474480105
 10
15.4633775162
 20
13.2401434884
 10
15.4658574036
 20
13.2331411546
 10
15.4686535834
 20
13.226454431
 10
15.4717607059
 20
13.2200960859
 10
15.475172868
 20
13.2140781776
 10
15.478883596
 20
13.2084121213
 10
15.4828858567
 20
13.2031086714
 10
15.4871720059
 20
13.1981779719
 10
15.4917338154
 20
13.1936294784
 10
15.4965625449
 20
13.1894718733
 10
15.5016490307
 20
13.1857130161
 10
15.5069010074
 20
13.1824077586
  0
LINE
  5
2F3
100
AcDbEntity
  8
0
100
AcDbLine
 62
7
  6
CONTINUOUS
 10
14.4064251774
 20
13.8178086737
 11
14.4064251774
 21
13.5383811744
  0
LINE
  5
2F4
100
AcDbEntity
  8
0
100
AcDbLine
 62
250
  6
CONTINUOUS
 10
14.4796484821
 20
13.7755304552
 11
14.4796484821
 21
13.4331793452
  0
LINE
  5
2F5
100
AcDbEntity
  8
0
100
AcDbLine
 62
250
  6
CONTINUOUS
 10
15.4551935982
 20
-25.9601005405
 11
15.4551935982
 21
-25.6395803676
  0
LINE
  5
2F6
100
AcDbEntity
  8
0
100
AcDbLine
 62
250
  6
CONTINUOUS
 10
15.4551935982
 20
13.2968054194
 11
15.4551935982
 21
13.6173255922
  0
LINE
  5
2F7
100
AcDbEntity
  8
0
100
AcDbLine
 62
250
  6
CONTINUOUS
 10
15.8077155579
 20
-25.9606926211
 11
15.8077155579
 21
-25.6401724483
  0
LINE
  5
2F8
100
AcDbEntity
  8
0
100
AcDbLine
 62
250
  6
CONTINUOUS
 10
15.8077155579
 20
13.2962133387
 11
15.8077155579
 21
13.6167335116
  0
LINE
  5
2F9
100
AcDbEntity
  8
0
100
AcDbLine
 62
250
  6
CONTINUOUS
 10
16.1664142063
 20
-24.6444443788
 11
16.1664142063
 21
-24.2293317154
  0
LINE
  5
2FA
100
AcDbEntity
  8
0
100
AcDbLine
 62
250
  6
CONTINUOUS
 10
16.1664142063
 20
12.4592619562
 11
16.1664142063
 21
13.0986042264
  0
LINE
  5
2FB
100
AcDbEntity
  8
0
100
AcDbLine
 62
250
  6
CONTINUOUS
 10
16.518936166
 20
-24.762883793
 11
16.518936166
 21
-24.1937800233
  0
LINE
  5
2FC
100
AcDbEntity
  8
0
100
AcDbLine
 62
250
  6
CONTINUOUS
 10
16.518936166
 20
12.4693049897
 11
16.518936166
 21
13.2307233259
  0
LINE
  5
2FD
100
AcDbEntity
  8
0
100
AcDbLine
 62
7
  6
CONTINUOUS
 10
16.5958235503
 20
22.4301894631
 11
16.5958235503
 21
21.9925720508
  0
LWPOLYLINE
  5
2FE
100
AcDbEntity
  8
0
100
AcDbPolyline
 62
250
  6
CONTINUOUS
 90
25
 70
0
 10
15.4551935982
 20
-25.6395803676
 10
15.4553618504
 20
-25.6305797376
 10
15.4558662869
 20
-25.6214019473
 10
15.4567059473
 20
-25.6120644671
 10
15.4578792334
 20
-25.6025850716
 10
15.4593839117
 20
-25.5929818052
 10
15.461217118
 20
-25.5832729484
 10
15.4633753627
 20
-25.5734769825
 10
15.4658545374
 20
-25.5636125547
 10
15.4686499229
 20
-25.5536984424
 10
15.471756198
 20
-25.5437535178
 10
15.4751674497
 20
-25.5337967116
 10
15.4788771846
 20
-25.5238469771
 10
15.4828783409
 20
-25.5139232542
 10
15.4871633022
 20
-25.5040444333
 10
15.4917239118
 20
-25.4942293193
 10
15.4965514884
 20
-25.4844965958
 10
15.5016368424
 20
-25.4748647896
 10
15.5069702935
 20
-25.4653522353
 10
15.5125416892
 20
-25.4559770408
 10
15.5183404241
 20
-25.4467570522
 10
15.5243554599
 20
-25.4377098202
 10
15.5305753466
 20
-25.4288525668
 10
15.5369882444
 20
-25.4202021523
 10
15.5435819459
 20
-25.4117750432
  0
LWPOLYLINE
  5
2FF
100
AcDbEntity
  8
0
100
AcDbPolyline
 62
250
  6
CONTINUOUS
 90
34
 70
0
 10
15.4551935982
 20
13.6173255922
 10
15.455392401
 20
13.6271180739
 10
15.4559883633
 20
13.6371181177
 10
15.4569801464
 20
13.6473032323
 10
15.4583655225
 20
13.6576505166
 10
15.4601413766
 20
13.6681366916
 10
15.4623037117
 20
13.6787381517
 10
15.4648476623
 20
13.6894310462
 10
15.4677675071
 20
13.7001913297
 10
15.471056677
 20
13.7109947968
 10
15.474707774
 20
13.7218171498
 10
15.4787125846
 20
13.7326340452
 10
15.4830620968
 20
13.7434211452
 10
15.4877465255
 20
13.754154186
 10
15.4927553335
 20
13.7648090288
 10
15.4980772521
 20
13.7753617061
 10
15.5037003125
 20
13.7857884889
 10
15.5096118632
 20
13.7960659209
 10
15.5157985949
 20
13.8061708689
 10
15.5222465715
 20
13.8160805799
 10
15.5289413048
 20
13.8257727967
 10
15.535867781
 20
13.8352257838
 10
15.5430104914
 20
13.8444183632
 10
15.5503533089
 20
13.853329767
 10
15.5578795556
 20
13.8619397672
 10
15.5655721898
 20
13.8702289072
 10
15.5734140024
 20
13.8781786814
 10
15.5813875014
 20
13.8857713708
 10
15.5894759788
 20
13.8929909564
 10
15.5976600501
 20
13.8998200287
 10
15.6059177209
 20
13.9062405392
 10
15.6142291416
 20
13.9122377585
 10
15.622576774
 20
13.9177997301
 10
15.6309418542
 20
13.9229145475
  0
LWPOLYLINE
  5
300
100
AcDbEntity
  8
0
100
AcDbPolyline
 62
250
  6
CONTINUOUS
 90
18
 70
0
 10
15.8077155579
 20
-25.9606926211
 10
15.8074672896
 20
-25.9703163665
 10
15.8068214813
 20
-25.9796857623
 10
15.8057795959
 20
-25.9887795849
 10
15.8043439935
 20
-25.9975772346
 10
15.802517926
 20
-26.0060587829
 10
15.8003055299
 20
-26.0142050172
 10
15.7977118169
 20
-26.0219974843
 10
15.7947426621
 20
-26.0294185326
 10
15.7914047914
 20
-26.0364513518
 10
15.7877057659
 20
-26.0430800109
 10
15.7836539647
 20
-26.0492894946
 10
15.779258566
 20
-26.055065737
 10
15.7745295263
 20
-26.0603956535
 10
15.769477558
 20
-26.0652671708
 10
15.764114105
 20
-26.0696692538
 10
15.7584513166
 20
-26.0735919308
 10
15.7547884818
 20
-26.075783339
  0
LINE
  5
301
100
AcDbEntity
  8
RACCORDO
100
AcDbLine
 62
7
  6
CONTINUOUS
 10
14.9202548383
 20
8.3282514061
 11
14.7678088663
 21
6.4465360784
  0
LINE
  5
302
100
AcDbEntity
  8
0
100
AcDbLine
 62
7
  6
CONTINUOUS
 10
14.9202548383
 20
8.3282514061
 11
14.7678088663
 21
6.4465360784
  0
LINE
  5
303
100
AcDbEntity
  8
DRAFT
100
AcDbLine
 62
7
  6
CONTINUOUS
 10
17.0363119362
 20
7.285650395
 11
15.8863453486
 21
-6.9089506548
  0
LINE
  5
304
100
AcDbEntity
  8
0
100
AcDbLine
 62
7
  6
CONTINUOUS
 10
17.0363119362
 20
7.285650395
 11
15.8863453486
 21
-6.9089506548
  0
LWPOLYLINE
  5
305
100
AcDbEntity
  8
0
100
AcDbPolyline
 62
7
  6
CONTINUOUS
 90
37
 70
0
 10
16.2368061394
 20
13.0921214864
 10
16.2437342981
 20
13.0915991662
 10
16.2522004533
 20
13.0912705269
 10
16.2607434747
 20
13.0912611931
 10
16.2693501518
 20
13.0915708828
 10
16.2780076047
 20
13.0921987603
 10
16.2867056819
 20
13.0931298218
 10
16.2954319606
 20
13.0943630032
 10
16.3041743595
 20
13.0958968941
 10
16.3129237444
 20
13.0977159008
 10
16.3216685522
 20
13.0998183104
 10
16.330397514
 20
13.1022022168
 10
16.3391024126
 20
13.1048517248
 10
16.3477725623
 20
13.1077645892
 10
16.3563975182
 20
13.110938474
 10
16.3649698569
 20
13.114357375
 10
16.3734797645
 20
13.1180186099
 10
16.3819176197
 20
13.1219194702
 10
16.3902766735
 20
13.1260439599
 10
16.3985479664
 20
13.1303890346
 10
16.4067226941
 20
13.1349516628
 10
16.4147946843
 20
13.1397159237
 10
16.4227558094
 20
13.1446784671
 10
16.430598075
 20
13.1498359845
 10
16.4383158195
 20
13.1551726695
 10
16.4459017265
 20
13.1606849099
 10
16.453348605
 20
13.1663691624
 10
16.4606512717
 20
13.1722097674
 10
16.4678032012
 20
13.1782028828
 10
16.4747980048
 20
13.1843447739
 10
16.4816309826
 20
13.1906199743
 10
16.4882963866
 20
13.1970244419
 10
16.4947886271
 20
13.2035542914
 10
16.5011035164
 20
13.2101943169
 10
16.5072363651
 20
13.2169367374
 10
16.513182069
 20
13.2237811362
 10
16.518936166
 20
13.2307233259
  0
LINE
  5
306
100
AcDbEntity
  8
0
100
AcDbLine
 62
7
  6
CONTINUOUS
 10
15.6090469831
 20
13.1499272424
 11
16.2368059344
 21
13.092122475
  0
LINE
  5
307
100
AcDbEntity
  8
0
100
AcDbLine
 62
250
  6
CONTINUOUS
 10
15.8077155579
 20
13.2962133387
 11
16.518936166
 21
13.2307233259
  0
LWPOLYLINE
  5
308
100
AcDbEntity
  8
0
100
AcDbPolyline
 62
7
  6
CONTINUOUS
 90
5
 70
0
 10
15.6090469831
 20
13.1499272424
 10
15.5956453584
 20
13.1515271699
 10
15.5822946493
 20
13.153859123
 10
15.5690486108
 20
13.1569218786
 10
15.555944385
 20
13.1607143298
  0
LWPOLYLINE
  5
309
100
AcDbEntity
  8
ASSI
100
AcDbPolyline
 62
250
  6
CONTINUOUS
 90
9
 70
0
 10
-19.5681899431
 20
26.2715261254
 10
-19.6059299793
 20
26.2900640842
 10
-19.6429531641
 20
26.3041192674
 10
-19.6788542113
 20
26.3135378324
 10
-19.7132401322
 20
26.3182166951
 10
-19.7457345033
 20
26.3181046522
 10
-19.7759815933
 20
26.313202957
 10
-19.803650305
 20
26.3035653034
 10
-19.8274884404
 20
26.2899667184
  0
LINE
  5
30A
100
AcDbEntity
  8
RACCORDO
100
AcDbLine
 62
7
  6
CONTINUOUS
 10
14.9198594609
 20
8.5076635288
 11
17.0363119362
 21
7.285650395
  0
LINE
  5
30B
100
AcDbEntity
  8
0
100
AcDbLine
 62
7
  6
CONTINUOUS
 10
14.9198594609
 20
8.5076635288
 11
17.0363119362
 21
7.285650395
  0
LINE
  5
30C
100
AcDbEntity
  8
ASSI
100
AcDbLine
 62
7
  6
CONTINUOUS
 10
-16.3978390255
 20
28.4966418745
 11
14.2201269077
 21
10.8182120779
  0
LWPOLYLINE
  5
30D
100
AcDbEntity
  8
0
100
AcDbPolyline
 62
7
  6
CONTINUOUS
 90
29
 70
0
 10
18.1164116712
 20
12.214144409
 10
18.11616854
 20
12.229506303
 10
18.115432464
 20
12.2451163902
 10
18.1142034433
 20
12.2609746705
 10
18.1124774897
 20
12.2771166832
 10
18.1102585913
 20
12.2935068891
 10
18.1075587122
 20
12.3100386703
 10
18.1043746105
 20
12.3267038929
 10
18.100709528
 20
12.3435106909
 10
18.0965851543
 20
12.3603768477
 10
18.092007542
 20
12.3772804525
 10
18.0869706383
 20
12.3942434161
 10
18.0814779751
 20
12.4112492549
 10
18.0755200699
 20
12.4283251086
 10
18.069106405
 20
12.4454438376
 10
18.0622689598
 20
12.4625075385
 10
18.0550014115
 20
12.4795191023
 10
18.0473100829
 20
12.4964756381
 10
18.0392459211
 20
12.5132705701
 10
18.0308177753
 20
12.5298813967
 10
18.0220167964
 20
12.5463306195
 10
18.0128673842
 20
12.5625791673
 10
18.0033703714
 20
12.5786277696
 10
17.9935249253
 20
12.594475697
 10
17.9833529487
 20
12.6100816899
 10
17.9728392641
 20
12.6254647106
 10
17.9619990489
 20
12.6406057969
 10
17.950899738
 20
12.6554068029
 10
17.9395410384
 20
12.6698603242
  0
LWPOLYLINE
  5
30E
100
AcDbEntity
  8
0
100
AcDbPolyline
 62
7
  6
CONTINUOUS
 90
24
 70
0
 10
16.5958235503
 20
22.4301894631
 10
16.5953924112
 20
22.4583806963
 10
16.5941109366
 20
22.4859818529
 10
16.5919791265
 20
22.5129929327
 10
16.588991691
 20
22.5394483636
 10
16.58515392
 20
22.5653137178
 10
16.580481683
 20
22.5904857121
 10
16.5749739921
 20
22.6149539442
 10
16.5686318352
 20
22.6387288163
 10
16.5614740459
 20
22.6617382518
 10
16.5534939478
 20
22.6839895368
 10
16.5446982172
 20
22.7054753851
 10
16.5351257164
 20
22.726101861
 10
16.5247794154
 20
22.7458548162
 10
16.5136563443
 20
22.7647483991
 10
16.5017864555
 20
22.7827311187
 10
16.4891590351
 20
22.7998107166
 10
16.4757847971
 20
22.8159794512
 10
16.4617258356
 20
22.831162607
 10
16.4469898175
 20
22.8453464881
 10
16.4315690761
 20
22.8585447905
 10
16.4155027056
 20
22.8707238855
 10
16.3987763907
 20
22.8818885347
 10
16.3887378552
 20
22.8879210003
  0
LINE
  5
30F
100
AcDbEntity
  8
DRAFT
100
AcDbLine
 62
7
  6
CONTINUOUS
 10
17.0363119362
 20
-24.0840843195
 11
17.0363119362
 21
-19.8211627945
  0
LINE
  5
310
100
AcDbEntity
  8
0
100
AcDbLine
 62
7
  6
CONTINUOUS
 10
17.0363119362
 20
-24.0840843195
 11
17.0363119362
 21
-19.8211627945
  0
LINE
  5
311
100
AcDbEntity
  8
DRAFT
100
AcDbLine
 62
7
  6
CONTINUOUS
 10
17.0363119362
 20
7.285650395
 11
17.0363119362
 21
11.54857192
  0
LINE
  5
312
100
AcDbEntity
  8
0
100
AcDbLine
 62
7
  6
CONTINUOUS
 10
17.0363119362
 20
7.285650395
 11
17.0363119362
 21
11.54857192
  0
LINE
  5
313
100
AcDbEntity
  8
0
100
AcDbLine
 62
250
  6
CONTINUOUS
 10
17.2757345262
 20
17.6082076743
 11
17.2757345262
 21
18.0543504243
  0
LINE
  5
314
100
AcDbEntity
  8
0
100
AcDbLine
 62
250
  6
CONTINUOUS
 10
17.2757345262
 20
18.3679203992
 11
17.2757345262
 21
18.9131924219
  0
LINE
  5
315
100
AcDbEntity
  8
0
100
AcDbLine
 62
7
  6
CONTINUOUS
 10
17.4082544041
 20
17.7929339684
 11
17.4082544041
 21
18.9712657877
  0
LINE
  5
316
100
AcDbEntity
  8
0
100
AcDbLine
 62
7
  6
CONTINUOUS
 10
17.4089963487
 20
-24.0763687468
 11
17.4089963487
 21
-25.0575233952
  0
LINE
  5
317
100
AcDbEntity
  8
0
100
AcDbLine
 62
7
  6
CONTINUOUS
 10
17.4089963487
 20
13.0308184715
 11
17.4089963487
 21
14.5412919378
  0
LINE
  5
318
100
AcDbEntity
  8
0
100
AcDbLine
 62
250
  6
CONTINUOUS
 10
17.9372635204
 20
14.846307127
 11
17.9372635204
 21
14.5186618265
  0
LINE
  5
319
100
AcDbEntity
  8
0
100
AcDbLine
 62
250
  6
CONTINUOUS
 10
17.9372635204
 20
-24.4177239605
 11
17.9372635204
 21
-24.745369261
  0
LINE
  5
31A
100
AcDbEntity
  8
0
100
AcDbLine
 62
7
  6
CONTINUOUS
 10
18.0094613774
 20
14.9477802401
 11
18.0094613774
 21
14.6201349396
  0
LINE
  5
31B
100
AcDbEntity
  8
0
100
AcDbLine
 62
7
  6
CONTINUOUS
 10
18.0094565653
 20
-24.3146997549
 11
18.0094613774
 21
-24.643896148
  0
LINE
  5
31C
100
AcDbEntity
  8
0
100
AcDbLine
 62
7
  6
CONTINUOUS
 10
18.1154860001
 20
-23.5465462099
 11
18.1154860001
 21
12.2144782118
  0
LINE
  5
31D
100
AcDbEntity
  8
0
100
AcDbLine
 62
7
  6
CONTINUOUS
 10
18.1164116712
 20
-23.5472813489
 11
18.1164116712
 21
12.214144409
  0
LINE
  5
31E
100
AcDbEntity
  8
0
100
AcDbLine
 62
7
  6
CONTINUOUS
 10
18.817347625
 20
-23.130693712
 11
18.817347625
 21
-20.3662000056
  0
LINE
  5
31F
100
AcDbEntity
  8
0
100
AcDbLine
 62
7
  6
CONTINUOUS
 10
18.817347625
 20
9.8567381692
 11
18.817347625
 21
12.6212318756
  0
LWPOLYLINE
  5
320
100
AcDbEntity
  8
0
100
AcDbPolyline
 62
250
  6
CONTINUOUS
 90
17
 70
0
 10
17.9372635204
 20
-24.745369261
 10
17.9371107385
 20
-24.7549391469
 10
17.9365554292
 20
-24.764257438
 10
17.9355988491
 20
-24.7733030196
 10
17.9342431633
 20
-24.7820553994
 10
17.9324914425
 20
-24.7904947392
 10
17.9303476584
 20
-24.7986019016
 10
17.9278166702
 20
-24.8063585137
 10
17.9249042126
 20
-24.8137470044
 10
17.9216168862
 20
-24.8207506308
 10
17.91796214
 20
-24.8273535253
 10
17.9139482564
 20
-24.8335407267
 10
17.9095843345
 20
-24.8392982123
 10
17.9048802646
 20
-24.8446129378
 10
17.8998467064
 20
-24.8494728637
 10
17.8944950681
 20
-24.853866979
 10
17.8893126544
 20
-24.8574562303
  0
LWPOLYLINE
  5
321
100
AcDbEntity
  8
0
100
AcDbPolyline
 62
7
  6
CONTINUOUS
 90
20
 70
0
 10
18.1154860001
 20
-23.5465462099
 10
18.1152424433
 20
-23.5616549795
 10
18.1145056534
 20
-23.5764409754
 10
18.1132756305
 20
-23.5909041978
 10
18.1115482923
 20
-23.6050755594
 10
18.1093277211
 20
-23.6189241474
 10
18.1066261641
 20
-23.6323572232
 10
18.1034404025
 20
-23.6453628395
 10
18.0997736553
 20
-23.6579529436
 10
18.095647826
 20
-23.670070639
 10
18.0910689581
 20
-23.6817010361
 10
18.0860310081
 20
-23.6928590245
 10
18.0805377495
 20
-23.703532377
 10
18.0745796814
 20
-23.7137372911
 10
18.0681663046
 20
-23.7234575692
 10
18.0613298943
 20
-23.732632392
 10
18.0540641717
 20
-23.7412572799
 10
18.0463754157
 20
-23.7493367123
 10
18.0383147378
 20
-23.7568233078
 10
18.0298910989
 20
-23.7637047434
  0
LWPOLYLINE
  5
322
100
AcDbEntity
  8
0
100
AcDbPolyline
 62
250
  6
CONTINUOUS
 90
18
 70
0
 10
18.0094613774
 20
14.9477802401
 10
18.0094078159
 20
14.9447924122
 10
18.0088813885
 20
14.9379534839
 10
18.0077939762
 20
14.9311366479
 10
18.0061480215
 20
14.9243572336
 10
18.0039472243
 20
14.9176304912
 10
18.0011965314
 20
14.9109715498
 10
17.9979021276
 20
14.9043953878
 10
17.9940714231
 20
14.8979168015
 10
17.9897130335
 20
14.8915503636
 10
17.9848367598
 20
14.8853103928
 10
17.9794535704
 20
14.8792109262
 10
17.9735755692
 20
14.8732656798
 10
17.9672159791
 20
14.8674880291
 10
17.9603891163
 20
14.8618909795
 10
17.9531103422
 20
14.8564871224
 10
17.945396026
 20
14.8512886077
 10
17.9372635204
 20
14.846307127
  0
LWPOLYLINE
  5
323
100
AcDbEntity
  8
0
100
AcDbPolyline
 62
7
  6
CONTINUOUS
 90
15
 70
0
 10
18.0094613773
 20
14.6201300602
 10
18.0093022394
 20
14.6112162176
 10
18.0085286583
 20
14.5985597319
 10
18.0071121885
 20
14.5859431893
 10
18.0050543933
 20
14.5734008991
 10
18.002358896
 20
14.5609674194
 10
17.9990285107
 20
14.5486675438
 10
17.9950686358
 20
14.5365333859
 10
17.9904878867
 20
14.5246009037
 10
17.9852949711
 20
14.5129006729
 10
17.9795017084
 20
14.5014662717
 10
17.973121478
 20
14.4903298496
 10
17.9661672109
 20
14.4795195123
 10
17.9586548605
 20
14.4690655639
 10
17.9549630401
 20
14.4643174185
  0
LWPOLYLINE
  5
324
100
AcDbEntity
  8
0
100
AcDbPolyline
 62
250
  6
CONTINUOUS
 90
18
 70
0
 10
18.0094613768
 20
-24.316260661
 10
18.0094069545
 20
-24.3192626015
 10
18.0088786015
 20
-24.3261011578
 10
18.0077893295
 20
-24.3329175368
 10
18.0061415915
 20
-24.339696419
 10
18.0039390913
 20
-24.3464225744
 10
18.0011867596
 20
-24.3530809254
 10
17.9978908007
 20
-24.3596564476
 10
17.9940587092
 20
-24.3661342239
 10
17.9896991972
 20
-24.3724996083
 10
17.9848220515
 20
-24.3787383819
 10
17.9794381562
 20
-24.3848366454
 10
17.9735591212
 20
-24.3907811617
 10
17.9671985844
 20
-24.3965580611
 10
17.9603724247
 20
-24.4021531241
 10
17.9530968522
 20
-24.4075535037
 10
17.9453880186
 20
-24.4127476235
 10
17.9372635204
 20
-24.4177239605
  0
LWPOLYLINE
  5
325
100
AcDbEntity
  8
0
100
AcDbPolyline
 62
7
  6
CONTINUOUS
 90
18
 70
0
 10
17.4089963487
 20
-25.0575233952
 10
17.4087959698
 20
-25.0671200322
 10
17.4081958008
 20
-25.0764636091
 10
17.4071970972
 20
-25.08553302
 10
17.4058019389
 20
-25.0943078265
 10
17.404013478
 20
-25.1027681535
 10
17.4018359321
 20
-25.1108947343
 10
17.3992741735
 20
-25.1186691939
 10
17.3963339126
 20
-25.126073973
 10
17.3930219383
 20
-25.133092218
 10
17.3893457144
 20
-25.1397080518
 10
17.3853134954
 20
-25.1459065287
 10
17.3809345036
 20
-25.1516735519
 10
17.3762186425
 20
-25.1569960658
 10
17.3711765428
 20
-25.1618620427
 10
17.3658196724
 20
-25.1662604307
 10
17.360160173
 20
-25.1701812616
 10
17.3579519524
 20
-25.1715328002
  0
LWPOLYLINE
  5
326
100
AcDbEntity
  8
0
100
AcDbPolyline
 62
7
  6
CONTINUOUS
 90
21
 70
0
 10
18.0094613774
 20
-24.643896121
 10
18.0091887405
 20
-24.6555685138
 10
18.0082604987
 20
-24.6683705687
 10
18.0066744701
 20
-24.6811209626
 10
18.0044310347
 20
-24.6937947151
 10
18.0015323237
 20
-24.7063593929
 10
17.9979829849
 20
-24.7187790083
 10
17.9937879108
 20
-24.7310229277
 10
17.988954159
 20
-24.7430579511
 10
17.9834913114
 20
-24.7548492403
 10
17.9774101338
 20
-24.7663638564
 10
17.970723485
 20
-24.7775685906
 10
17.9634459989
 20
-24.7884308296
 10
17.9555936146
 20
-24.7989191964
 10
17.9471831105
 20
-24.8090038429
 10
17.9382355664
 20
-24.8186525194
 10
17.9287765125
 20
-24.8278319657
 10
17.9188301292
 20
-24.8365139066
 10
17.9084215789
 20
-24.8446717899
 10
17.8975812427
 20
-24.8522777758
 10
17.8866425898
 20
-24.8591284393
  0
LWPOLYLINE
  5
327
100
AcDbEntity
  8
0
100
AcDbPolyline
 62
250
  6
CONTINUOUS
 90
17
 70
0
 10
18.009407363
 20
14.6171345079
 10
18.0088799877
 20
14.6102963375
 10
18.0077917524
 20
14.6034802898
 10
18.0061451041
 20
14.5967016923
 10
18.0039437454
 20
14.5899757876
 10
18.0011926265
 20
14.5833177011
 10
17.9978979335
 20
14.5767424036
 10
17.9940670731
 20
14.5702646782
 10
17.9897086544
 20
14.5638990854
 10
17.9848324806
 20
14.5576599457
 10
17.9794495291
 20
14.5515613034
 10
17.9735719157
 20
14.5456168796
 10
17.9672128527
 20
14.5398400318
 10
17.960386629
 20
14.5342437393
 10
17.95310859
 20
14.5288405829
 10
17.9453951055
 20
14.5236427159
 10
17.9372635204
 20
14.5186618265
  0
LINE
  5
328
100
AcDbEntity
  8
0
100
AcDbLine
 62
7
  6
CONTINUOUS
 10
14.8473396273
 20
21.7178425964
 11
16.5958235503
 21
21.9925720508
  0
LWPOLYLINE
  5
329
100
AcDbEntity
  8
0
100
AcDbPolyline
 62
7
  6
CONTINUOUS
 90
3
 70
0
 10
15.555944385
 20
13.1607143298
 10
15.5430586628
 20
13.1652189341
 10
15.5304941445
 20
13.170395204
  0
LWPOLYLINE
  5
32A
100
AcDbEntity
  8
0
100
AcDbPolyline
 62
7
  6
CONTINUOUS
 90
3
 70
0
 10
15.5304941445
 20
13.170395204
 10
15.5183077201
 20
13.1762065745
 10
15.5069010074
 20
13.1824077586
  0
LWPOLYLINE
  5
32B
100
AcDbEntity
  8
0
100
AcDbPolyline
 62
7
  6
CONTINUOUS
 90
3
 70
0
 10
3.203306238
 20
20.2863491412
 10
3.2135571612
 20
20.2807455804
 10
3.2251081849
 20
20.2751484333
  0
LWPOLYLINE
  5
32C
100
AcDbEntity
  8
0
100
AcDbPolyline
 62
250
  6
CONTINUOUS
 90
34
 70
0
 10
15.4551935982
 20
13.2968054194
 10
15.4637732186
 20
13.2920811961
 10
15.4727310971
 20
13.287597139
 10
15.4820470883
 20
13.2833633324
 10
15.49170023
 20
13.2793893021
 10
15.501668824
 20
13.2756839802
 10
15.5119304884
 20
13.2722556881
 10
15.5224621737
 20
13.2691121316
 10
15.5332401738
 20
13.2662603917
 10
15.544240213
 20
13.2637068934
 10
15.5554375397
 20
13.2614573819
 10
15.5668069844
 20
13.2595169129
 10
15.5783229774
 20
13.2578898506
 10
15.5899596196
 20
13.2565798541
 10
15.601690741
 20
13.2555898695
 10
15.6134899594
 20
13.2549221231
 10
15.6253307479
 20
13.2545781165
 10
15.6371864684
 20
13.2545586241
 10
15.6490304323
 20
13.2548636885
 10
15.6608359864
 20
13.2554926205
 10
15.6725765985
 20
13.2564440038
 10
15.6842258907
 20
13.2577156998
 10
15.69575775
 20
13.2593048616
 10
15.7071461548
 20
13.261207907
 10
15.7183652697
 20
13.2634205085
 10
15.7293897286
 20
13.2659376361
 10
15.7401949052
 20
13.2687536389
 10
15.750756727
 20
13.2718622326
 10
15.7610522679
 20
13.2752567137
 10
15.7710575066
 20
13.278929208
 10
15.7807478156
 20
13.2828705471
 10
15.7901009449
 20
13.2870713714
 10
15.7990968446
 20
13.2915223553
 10
15.8077155579
 20
13.2962133387
  0
LWPOLYLINE
  5
32D
100
AcDbEntity
  8
0
100
AcDbPolyline
 62
250
  6
CONTINUOUS
 90
34
 70
0
 10
15.4551935982
 20
13.6173255922
 10
15.4637738011
 20
13.6126010631
 10
15.4727323244
 20
13.6081167263
 10
15.4820490202
 20
13.6038826693
 10
15.491702941
 20
13.5999084139
 10
15.5016723688
 20
13.5962029031
 10
15.5119348615
 20
13.5927744788
 10
15.5224673304
 20
13.5896308537
 10
15.5332460908
 20
13.586779096
 10
15.5442468952
 20
13.5842256204
 10
15.5554450019
 20
13.5819761693
 10
15.5668152216
 20
13.5800358018
 10
15.5783319711
 20
13.5784088826
 10
15.5899693445
 20
13.5770990699
 10
15.6017011683
 20
13.5761093078
 10
15.6135010515
 20
13.5754418214
 10
15.6253424596
 20
13.5750981099
 10
15.6371987533
 20
13.5750789451
 10
15.6490432438
 20
13.5753843675
 10
15.6608492585
 20
13.5760136843
 10
15.672590278
 20
13.576965477
 10
15.6842399721
 20
13.5782376107
 10
15.6957722459
 20
13.5798272433
 10
15.7071610505
 20
13.5817307918
 10
15.7183805293
 20
13.5839439264
 10
15.7294053117
 20
13.5864616164
 10
15.7402107673
 20
13.5892782104
 10
15.7507728052
 20
13.5923874188
 10
15.761069199
 20
13.5957827811
 10
15.7710751798
 20
13.5994562136
 10
15.7807641206
 20
13.6033976919
 10
15.7901133408
 20
13.6075973895
 10
15.7991037175
 20
13.6120460953
 10
15.8077155579
 20
13.6167335116
  0
LWPOLYLINE
  5
32E
100
AcDbEntity
  8
0
100
AcDbPolyline
 62
250
  6
CONTINUOUS
 90
34
 70
0
 10
3.1515356056
 20
20.4007833433
 10
3.1601145974
 20
20.39605945
 10
3.1690717946
 20
20.3915756878
 10
3.1783870561
 20
20.3873421388
 10
3.1880394358
 20
20.3833683224
 10
3.1980072297
 20
20.3796631741
 10
3.2082680245
 20
20.3762350252
 10
3.2187987478
 20
20.3730915841
 10
3.2295757207
 20
20.3702399191
 10
3.2405747102
 20
20.3676864424
 10
3.2517709844
 20
20.3654368957
 10
3.2631393675
 20
20.3634963372
 10
3.2746542969
 20
20.3618691305
 10
3.2862898803
 20
20.3605589343
 10
3.2980199544
 20
20.3595686949
 10
3.3098181431
 20
20.3589006389
 10
3.3216579172
 20
20.3585562683
 10
3.3335126543
 20
20.3585363576
 10
3.345355698
 20
20.3588409515
 10
3.3571604184
 20
20.3594693652
 10
3.3689002715
 20
20.3604201855
 10
3.3805488595
 20
20.3616912745
 10
3.3920799897
 20
20.3632797741
 10
3.4034677334
 20
20.3651821124
 10
3.4146864844
 20
20.3673940118
 10
3.4257110165
 20
20.3699104988
 10
3.4365165403
 20
20.3727259147
 10
3.4470787586
 20
20.375833929
 10
3.4573739216
 20
20.379227553
 10
3.4673788797
 20
20.3828991559
 10
3.4770711361
 20
20.3868404819
 10
3.486428897
 20
20.3910426685
 10
3.4954311208
 20
20.3954962668
 10
3.5040575652
 20
20.4001912626
  0
LINE
  5
32F
100
AcDbEntity
  8
0
100
AcDbLine
 62
250
  6
CONTINUOUS
 10
13.8284261831
 20
14.1515380489
 11
13.8284760862
 21
14.1515092585
  0
LINE
  5
330
100
AcDbEntity
  8
0
100
AcDbLine
 62
250
  6
CONTINUOUS
 10
1.5247681904
 20
21.2555159728
 11
1.5248180936
 21
21.2554871824
  0
LINE
  5
331
100
AcDbEntity
  8
0
100
AcDbLine
 62
7
  6
CONTINUOUS
 10
1.6593770255
 20
20.8354434085
 11
2.1759904894
 21
20.5371572691
  0
LINE
  5
332
100
AcDbEntity
  8
0
100
AcDbLine
 62
7
  6
CONTINUOUS
 10
3.8627562137
 20
19.5632398801
 11
6.0307479119
 21
18.3114686448
  0
LINE
  5
333
100
AcDbEntity
  8
0
100
AcDbLine
 62
7
  6
CONTINUOUS
 10
6.6963286137
 20
17.9271706893
 11
11.646076082
 21
15.069248536
  0
LINE
  5
334
100
AcDbEntity
  8
0
100
AcDbLine
 62
7
  6
CONTINUOUS
 10
12.3116567838
 20
14.6849505805
 11
14.4796484821
 21
13.4331793452
  0
LINE
  5
335
100
AcDbEntity
  8
0
100
AcDbLine
 62
7
  6
CONTINUOUS
 10
16.1664142063
 20
12.4592619562
 11
16.6830276702
 21
12.1609758168
  0
LINE
  5
336
100
AcDbEntity
  8
0
100
AcDbLine
 62
7
  6
CONTINUOUS
 10
1.5247681904
 20
21.2555159728
 11
3.2033062608
 21
20.286349128
  0
LINE
  5
337
100
AcDbEntity
  8
0
100
AcDbLine
 62
7
  6
CONTINUOUS
 10
13.8284261831
 20
14.1515380489
 11
15.5069642535
 21
13.1823712041
  0
LINE
  5
338
100
AcDbEntity
  8
0
100
AcDbLine
 62
250
  6
CONTINUOUS
 10
1.4729975351
 20
21.3699501881
 11
3.1515356056
 21
20.4007833433
  0
LINE
  5
339
100
AcDbEntity
  8
0
100
AcDbLine
 62
250
  6
CONTINUOUS
 10
13.7766555278
 20
14.2659722642
 11
15.4551935982
 21
13.2968054194
  0
LINE
  5
33A
100
AcDbEntity
  8
0
100
AcDbLine
 62
250
  6
CONTINUOUS
 10
15.5069010074
 20
13.1824077586
 11
15.5069642535
 21
13.1823712041
  0
LWPOLYLINE
  5
33B
100
AcDbEntity
  8
0
100
AcDbPolyline
 62
7
  6
CONTINUOUS
 90
21
 70
0
 10
1.5248180936
 20
21.2554871824
 10
1.5213441294
 20
21.2575294427
 10
1.5101379679
 20
21.2646503035
 10
1.4993178046
 20
21.272361971
 10
1.4889330415
 20
21.2806288913
 10
1.4790070605
 20
21.2894303
 10
1.4695425307
 20
21.2987660316
 10
1.4605693217
 20
21.3086128934
 10
1.4521224052
 20
21.3189379559
 10
1.4442158908
 20
21.3297312087
 10
1.4368769034
 20
21.3409664499
 10
1.4301358127
 20
21.3526079264
 10
1.4240131067
 20
21.3646320821
 10
1.4185340868
 20
21.3770030699
 10
1.4137206462
 20
21.389685943
 10
1.4095887795
 20
21.4026578304
 10
1.4061576767
 20
21.415885293
 10
1.4034470247
 20
21.4293233139
 10
1.4014722964
 20
21.4429301869
 10
1.4002465812
 20
21.4566580991
 10
1.3997790426
 20
21.4704677439
  0
LWPOLYLINE
  5
33C
100
AcDbEntity
  8
0
100
AcDbPolyline
 62
7
  6
CONTINUOUS
 90
21
 70
0
 10
13.8284760862
 20
14.1515092585
 10
13.8250021221
 20
14.1535515188
 10
13.8137959606
 20
14.1606723796
 10
13.8029757972
 20
14.1683840471
 10
13.7925910342
 20
14.1766509674
 10
13.7826650531
 20
14.1854523761
 10
13.7732005233
 20
14.1947881077
 10
13.7642273144
 20
14.2046349695
 10
13.7557803979
 20
14.214960032
 10
13.7478738835
 20
14.2257532848
 10
13.740534896
 20
14.236988526
 10
13.7337938054
 20
14.2486300025
 10
13.7276710994
 20
14.2606541582
 10
13.7221920794
 20
14.273025146
 10
13.7173786389
 20
14.2857080191
 10
13.7132467722
 20
14.2986799065
 10
13.7098156693
 20
14.3119073691
 10
13.7071050174
 20
14.32534539
 10
13.705130289
 20
14.338952263
 10
13.7039045739
 20
14.3526801752
 10
13.7034370352
 20
14.36648982
  0
LWPOLYLINE
  5
33D
100
AcDbEntity
  8
0
100
AcDbPolyline
 62
250
  6
CONTINUOUS
 90
18
 70
0
 10
1.4729975351
 20
21.3699501881
 10
1.4648154675
 20
21.3749039534
 10
1.4570493531
 20
21.3800761202
 10
1.4497166574
 20
21.3854550568
 10
1.4428338785
 20
21.3910286598
 10
1.4364164862
 20
21.396784401
 10
1.4304788926
 20
21.4027093575
 10
1.4250344438
 20
21.4087902206
 10
1.4200954037
 20
21.4150133027
 10
1.4156728999
 20
21.4213645875
 10
1.4117768826
 20
21.4278297836
 10
1.4084161082
 20
21.4343943585
 10
1.4055981352
 20
21.4410435485
 10
1.4033293009
 20
21.4477623999
 10
1.4016147078
 20
21.4545358023
 10
1.4004582116
 20
21.4613485232
 10
1.3998624131
 20
21.468185246
 10
1.3997742304
 20
21.4720188365
  0
LWPOLYLINE
  5
33E
100
AcDbEntity
  8
0
100
AcDbPolyline
 62
250
  6
CONTINUOUS
 90
18
 70
0
 10
1.4729975351
 20
21.690470361
 10
1.4648288261
 20
21.6954156452
 10
1.4570714865
 20
21.7005808284
 10
1.4497434505
 20
21.7059545902
 10
1.4428607957
 20
21.7115259088
 10
1.4364406204
 20
21.7172817615
 10
1.4305003453
 20
21.7232069068
 10
1.4250540882
 20
21.729287121
 10
1.4201131983
 20
21.7355095799
 10
1.4156887141
 20
21.7418604018
 10
1.4117905677
 20
21.748325392
 10
1.4084276126
 20
21.7548899369
 10
1.4056074924
 20
21.7615391412
 10
1.4033365627
 20
21.7682579892
 10
1.4016198989
 20
21.7750314277
 10
1.4004613514
 20
21.7818442664
 10
1.399863531
 20
21.7886812013
 10
1.3997742304
 20
21.7925389824
  0
LWPOLYLINE
  5
33F
100
AcDbEntity
  8
0
100
AcDbPolyline
 62
250
  6
CONTINUOUS
 90
18
 70
0
 10
13.7766555278
 20
14.2659722642
 10
13.7684734601
 20
14.2709260295
 10
13.7607073458
 20
14.2760981963
 10
13.75337465
 20
14.2814771328
 10
13.7464918711
 20
14.2870507359
 10
13.7400744788
 20
14.2928064771
 10
13.7341368852
 20
14.2987314336
 10
13.7286924364
 20
14.3048122967
 10
13.7237533963
 20
14.3110353788
 10
13.7193308925
 20
14.3173866636
 10
13.7154348752
 20
14.3238518597
 10
13.7120741009
 20
14.3304164346
 10
13.7092561279
 20
14.3370656246
 10
13.7069872936
 20
14.3437844759
 10
13.7052727004
 20
14.3505578784
 10
13.7041162042
 20
14.3573705993
 10
13.7035204058
 20
14.3642073221
 10
13.7034322231
 20
14.3680409126
  0
LWPOLYLINE
  5
340
100
AcDbEntity
  8
0
100
AcDbPolyline
 62
250
  6
CONTINUOUS
 90
14
 70
0
 10
5.6336055278
 20
21.6226397504
 10
5.6375749438
 20
21.6168015407
 10
5.6411355765
 20
21.6112038838
 10
5.6442791237
 20
21.6058595627
 10
5.6469984012
 20
21.600780436
 10
5.6492867385
 20
21.5959785524
 10
5.6511383169
 20
21.5914659124
 10
5.6525488605
 20
21.5872530312
 10
5.6535153536
 20
21.5833490401
 10
5.6540356207
 20
21.5797626814
 10
5.6541084586
 20
21.5765020277
 10
5.6537336662
 20
21.5735745089
 10
5.6529120834
 20
21.5709868022
 10
5.6516496367
 20
21.5687519526
  0
LINE
  5
341
100
AcDbEntity
  8
0
100
AcDbLine
 62
250
  6
CONTINUOUS
 10
21.8950921651
 20
-13.6241087462
 11
21.8950837111
 21
-13.6230892181
  0
LWPOLYLINE
  5
342
100
AcDbEntity
  8
RACCORDO
100
AcDbPolyline
 62
7
  6
CONTINUOUS
 90
42
 70
0
 10
21.8950919423
 20
-13.6241382554
 10
21.8950327409
 20
-13.6165932466
 10
21.894175062
 20
-13.5942767109
 10
21.8923331377
 20
-13.5720128911
 10
21.889548358
 20
-13.5498240819
 10
21.8858573723
 20
-13.5277256874
 10
21.8812934397
 20
-13.5057435191
 10
21.875885728
 20
-13.4838975902
 10
21.8696585485
 20
-13.4622068961
 10
21.8626398381
 20
-13.4407121666
 10
21.854851374
 20
-13.4194366962
 10
21.846310229
 20
-13.3984022943
 10
21.8370443164
 20
-13.3776584528
 10
21.8270694382
 20
-13.3572300459
 10
21.8164002038
 20
-13.3371448931
 10
21.8050662994
 20
-13.3174588422
 10
21.7930802186
 20
-13.2981998459
 10
21.7804554087
 20
-13.2793984197
 10
21.7672182199
 20
-13.2611079185
 10
21.7533758718
 20
-13.2433548308
 10
21.738941489
 20
-13.2261760922
 10
21.7239436835
 20
-13.2096301827
 10
21.7083637622
 20
-13.1937223151
 10
21.6922320103
 20
-13.1785169061
 10
21.6756541403
 20
-13.1641360297
 10
21.6586264117
 20
-13.1505925094
 10
21.6411710442
 20
-13.137927645
 10
21.6234460731
 20
-13.1262632437
 10
21.6054835457
 20
-13.1156173429
 10
21.5872867121
 20
-13.1059923323
 10
21.5689871466
 20
-13.0974488431
 10
21.5506213414
 20
-13.0899888218
 10
21.5322060734
 20
-13.083604648
 10
21.5138637297
 20
-13.0783162954
 10
21.4956653441
 20
-13.074113729
 10
21.4776136346
 20
-13.0709671776
 10
21.4597466833
 20
-13.0688535402
 10
21.4421521608
 20
-13.0677503724
 10
21.4248247044
 20
-13.0676249875
 10
21.4076754411
 20
-13.0684568775
 10
21.3907519421
 20
-13.0702327213
 10
21.3848923222
 20
-13.071074039
  0
LWPOLYLINE
  5
343
100
AcDbEntity
  8
0
100
AcDbPolyline
 62
7
  6
CONTINUOUS
 90
42
 70
0
 10
21.8950837111
 20
-13.6230892181
 10
21.8950327409
 20
-13.6165932466
 10
21.894175062
 20
-13.5942767109
 10
21.8923331377
 20
-13.5720128911
 10
21.889548358
 20
-13.5498240819
 10
21.8858573723
 20
-13.5277256874
 10
21.8812934397
 20
-13.5057435191
 10
21.875885728
 20
-13.4838975902
 10
21.8696585485
 20
-13.4622068961
 10
21.8626398381
 20
-13.4407121666
 10
21.854851374
 20
-13.4194366962
 10
21.846310229
 20
-13.3984022943
 10
21.8370443164
 20
-13.3776584528
 10
21.8270694382
 20
-13.3572300459
 10
21.8164002038
 20
-13.3371448931
 10
21.8050662994
 20
-13.3174588422
 10
21.7930802186
 20
-13.2981998459
 10
21.7804554087
 20
-13.2793984197
 10
21.7672182199
 20
-13.2611079185
 10
21.7533758718
 20
-13.2433548308
 10
21.738941489
 20
-13.2261760922
 10
21.7239436835
 20
-13.2096301827
 10
21.7083637622
 20
-13.1937223151
 10
21.6922320103
 20
-13.1785169061
 10
21.6756541403
 20
-13.1641360297
 10
21.6586264117
 20
-13.1505925094
 10
21.6411710442
 20
-13.137927645
 10
21.6234460731
 20
-13.1262632437
 10
21.6054835457
 20
-13.1156173429
 10
21.5872867121
 20
-13.1059923323
 10
21.5689871466
 20
-13.0974488431
 10
21.5506213414
 20
-13.0899888218
 10
21.5322060734
 20
-13.083604648
 10
21.5138637297
 20
-13.0783162954
 10
21.4956653441
 20
-13.074113729
 10
21.4776136346
 20
-13.0709671776
 10
21.4597466833
 20
-13.0688535402
 10
21.4421521608
 20
-13.0677503724
 10
21.4248247044
 20
-13.0676249875
 10
21.4076754411
 20
-13.0684568775
 10
21.3907519421
 20
-13.0702327213
 10
21.3848923222
 20
-13.071074039
  0
LINE
  5
344
100
AcDbEntity
  8
0
100
AcDbLine
 62
7
  6
CONTINUOUS
 10
19.5182835788
 20
10.2757009491
 11
19.5182835788
 21
-19.9614876821
  0
LINE
  5
345
100
AcDbEntity
  8
RACCORDO
100
AcDbLine
 62
250
  6
CONTINUOUS
 10
21.8389601251
 20
-14.584179829
 11
21.8389601251
 21
-13.7043261553
  0
LINE
  5
346
100
AcDbEntity
  8
0
100
AcDbLine
 62
250
  6
CONTINUOUS
 10
21.8389601251
 20
-14.584179829
 11
21.8389601251
 21
-13.7043261553
  0
LINE
  5
347
100
AcDbEntity
  8
RACCORDO
100
AcDbLine
 62
7
  6
CONTINUOUS
 10
21.8950921651
 20
-14.5517652726
 11
21.8950921651
 21
-13.6241087462
  0
LINE
  5
348
100
AcDbEntity
  8
0
100
AcDbLine
 62
7
  6
CONTINUOUS
 10
21.8950921651
 20
-14.5517652726
 11
21.8950921651
 21
-13.6241087462
  0
LWPOLYLINE
  5
349
100
AcDbEntity
  8
0
100
AcDbPolyline
 62
250
  6
CONTINUOUS
 90
17
 70
0
 10
18.0093845199
 20
-24.6471866189
 10
18.0088813885
 20
-24.6537229042
 10
18.0077939762
 20
-24.6605397401
 10
18.0061480215
 20
-24.6673191545
 10
18.0039472243
 20
-24.6740458968
 10
18.0011965314
 20
-24.6807048382
 10
17.9979021276
 20
-24.6872810003
 10
17.9940714231
 20
-24.6937595866
 10
17.9897130335
 20
-24.7001260244
 10
17.9848367598
 20
-24.7063659952
 10
17.9794535704
 20
-24.7124654618
 10
17.9735755692
 20
-24.7184107082
 10
17.9672159791
 20
-24.7241883589
 10
17.9603891163
 20
-24.7297854085
 10
17.9531103422
 20
-24.7351892656
 10
17.945396026
 20
-24.7403877803
 10
17.9372635204
 20
-24.745369261
  0
LINE
  5
34A
100
AcDbEntity
  8
0
100
AcDbLine
 62
7
  6
CONTINUOUS
 10
3.3053889904
 20
20.2539051663
 11
3.9331479418
 21
20.1961003989
  0
LINE
  5
34B
100
AcDbEntity
  8
0
100
AcDbLine
 62
250
  6
CONTINUOUS
 10
3.5040575652
 20
20.4001912626
 11
4.2152781733
 21
20.3347012498
  0
LWPOLYLINE
  5
34C
100
AcDbEntity
  8
0
100
AcDbPolyline
 62
7
  6
CONTINUOUS
 90
6
 70
0
 10
3.2490408695
 20
20.2657527715
 10
3.2613715533
 20
20.2619807889
 10
3.2739019232
 20
20.2588447975
 10
3.2866030036
 20
20.256355877
 10
3.2994425136
 20
20.2545245155
 10
3.3053889734
 20
20.2539051679
  0
LWPOLYLINE
  5
34D
100
AcDbEntity
  8
0
100
AcDbPolyline
 62
7
  6
CONTINUOUS
 90
3
 70
0
 10
3.2251081849
 20
20.2751484333
 10
3.2369433622
 20
20.2701467767
 10
3.2490408695
 20
20.2657527715
  0
LWPOLYLINE
  5
34E
100
AcDbEntity
  8
0
100
AcDbPolyline
 62
250
  6
CONTINUOUS
 90
17
 70
0
 10
16.1904786339
 20
16.1422619398
 10
16.1847535249
 20
16.1450016951
 10
16.1783055483
 20
16.1474654444
 10
16.171610815
 20
16.149426751
 10
16.1646843388
 20
16.150881217
 10
16.1575416283
 20
16.1518255734
 10
16.1501988109
 20
16.1522576757
 10
16.1426725642
 20
16.1521765548
 10
16.13497993
 20
16.1515824336
 10
16.1271381174
 20
16.1504766792
 10
16.1191646184
 20
16.1488617718
 10
16.1110761409
 20
16.1467409865
 10
16.1028920696
 20
16.1441192983
 10
16.0946343988
 20
16.1410040576
 10
16.0863229782
 20
16.1374034566
 10
16.0779753458
 20
16.1333257916
 10
16.0696102656
 20
16.1287808241
  0
LWPOLYLINE
  5
34F
100
AcDbEntity
  8
0
100
AcDbPolyline
 62
250
  6
CONTINUOUS
 90
18
 70
0
 10
10.8674358713
 20
17.8668405477
 10
10.8607067245
 20
17.8705419417
 10
10.8539946799
 20
17.8738660144
 10
10.847314947
 20
17.876805232
 10
10.840682658
 20
17.8793529339
 10
10.8341128462
 20
17.8815033431
 10
10.8276204121
 20
17.8832515819
 10
10.8212200712
 20
17.8845936885
 10
10.8149263228
 20
17.8855266236
 10
10.80875343
 20
17.8860482735
 10
10.802715379
 20
17.8861574571
 10
10.7968258531
 20
17.8858539276
 10
10.7910982025
 20
17.8851383746
 10
10.7855454065
 20
17.8840124218
 10
10.7801800454
 20
17.8824786224
 10
10.7750142764
 20
17.8805404541
 10
10.7700598003
 20
17.8782023089
 10
10.7673849902
 20
17.8767220447
  0
LWPOLYLINE
  5
350
100
AcDbEntity
  8
0
100
AcDbPolyline
 62
250
  6
CONTINUOUS
 90
34
 70
0
 10
3.1515356056
 20
20.7213035161
 10
3.1601005373
 20
20.7165870059
 10
3.1690463206
 20
20.7121080152
 10
3.1783533496
 20
20.7078768991
 10
3.1880025346
 20
20.7039029405
 10
3.1979713217
 20
20.7001960117
 10
3.2082333132
 20
20.6967661713
 10
3.2187638747
 20
20.6936215707
 10
3.2295407954
 20
20.6907687628
 10
3.2405400328
 20
20.6882141211
 10
3.251737003
 20
20.6859633802
 10
3.2631063957
 20
20.6840216521
 10
3.2746224134
 20
20.68239335
 10
3.2862590498
 20
20.6810821437
 10
3.2979902337
 20
20.6800909636
 10
3.3097896562
 20
20.6794220328
 10
3.3216308119
 20
20.6790768587
 10
3.3334870371
 20
20.6790562235
 10
3.3453316454
 20
20.679360176
 10
3.3571379909
 20
20.6799880343
 10
3.3688795245
 20
20.6809383879
 10
3.3805298334
 20
20.6822091006
 10
3.3920627152
 20
20.6837973162
 10
3.4034522281
 20
20.6856994637
 10
3.4146727459
 20
20.6879112644
 10
3.4256990293
 20
20.690427744
 10
3.4365062794
 20
20.6932432433
 10
3.4470701849
 20
20.6963514294
 10
3.4573669903
 20
20.6997453136
 10
3.4673735301
 20
20.7034172612
 10
3.4770672798
 20
20.7073590063
 10
3.4864264319
 20
20.7115616792
 10
3.4954299434
 20
20.7160158287
 10
3.5040575652
 20
20.7207114355
  0
LWPOLYLINE
  5
351
100
AcDbEntity
  8
0
100
AcDbPolyline
 62
250
  6
CONTINUOUS
 90
34
 70
0
 10
9.0297809916
 20
18.6022284075
 10
9.0366712997
 20
18.5984350586
 10
9.0438664639
 20
18.5948353285
 10
9.0513501815
 20
18.5914373751
 10
9.0591055008
 20
18.5882488971
 10
9.0671148448
 20
18.5852771228
 10
9.0753600485
 20
18.5825287927
 10
9.0838224229
 20
18.5800101354
 10
9.0924827968
 20
18.5777268564
 10
9.1013215431
 20
18.5756841298
 10
9.1103186347
 20
18.5738865834
 10
9.119453682
 20
18.5723382905
 10
9.1287059768
 20
18.5710427599
 10
9.1380545503
 20
18.5700029264
 10
9.147478221
 20
18.5692211445
 10
9.156955634
 20
18.5686991846
 10
9.1664653205
 20
18.5684382279
 10
9.1759857249
 20
18.5684388651
 10
9.1854952525
 20
18.5687010923
 10
9.1949723275
 20
18.5692243104
 10
9.2043955045
 20
18.570007331
 10
9.2137434935
 20
18.5710483846
 10
9.2229951962
 20
18.572345127
 10
9.2321295622
 20
18.5738946137
 10
9.241125707
 20
18.5756932954
 10
9.2499631396
 20
18.5777370548
 10
9.258621965
 20
18.5800212699
 10
9.2670827303
 20
18.5825408013
 10
9.2753275643
 20
18.5852903977
 10
9.2833364134
 20
18.5882634442
 10
9.291087616
 20
18.591451685
 10
9.2985628568
 20
18.5948470696
 10
9.3057468271
 20
18.5984421088
 10
9.3126237041
 20
18.6022284075
  0
LWPOLYLINE
  5
352
100
AcDbEntity
  8
0
100
AcDbPolyline
 62
7
  6
CONTINUOUS
 90
19
 70
0
 10
11.0803906571
 20
17.9912285246
 10
11.0742218622
 20
17.9946348692
 10
11.0680648279
 20
17.9977238839
 10
11.0619312703
 20
18.0004896865
 10
11.0558328445
 20
18.0029270005
 10
11.0497811621
 20
18.0050311887
 10
11.0437877694
 20
18.0067982616
 10
11.0378640504
 20
18.0082248416
 10
11.0320212708
 20
18.0093082077
 10
11.0262705964
 20
18.0100463236
 10
11.020622941
 20
18.0104377658
 10
11.0150890358
 20
18.0104817784
 10
11.0096794752
 20
18.0101783136
 10
11.0044045159
 20
18.0095279259
 10
10.9992741712
 20
18.008531838
 10
10.9942982826
 20
18.0071919908
 10
10.9894862741
 20
18.0055109077
 10
10.9848472699
 20
18.0034917688
 10
10.9806787912
 20
18.001304123
  0
LWPOLYLINE
  5
353
100
AcDbEntity
  8
0
100
AcDbPolyline
 62
250
  6
CONTINUOUS
 90
18
 70
0
 10
17.8844674175
 20
15.1642831037
 10
17.8818341541
 20
15.165740764
 10
17.8756488632
 20
15.1687022542
 10
17.8692023159
 20
15.1711669846
 10
17.8625090078
 20
15.173129413
 10
17.8555839893
 20
15.1745851267
 10
17.8484428319
 20
15.1755308524
 10
17.8411015929
 20
15.1759644637
 10
17.8335767797
 20
15.1758849854
 10
17.8258853124
 20
15.1752925964
 10
17.8180444859
 20
15.1741886286
 10
17.8100719308
 20
15.1725755644
 10
17.801985574
 20
15.1704570309
 10
17.7938035984
 20
15.1678377918
 10
17.7855444017
 20
15.1647237367
 10
17.7772265554
 20
15.1611218676
 10
17.7688687627
 20
15.1570402838
 10
17.7604898168
 20
15.1524881629
  0
LINE
  5
354
100
AcDbEntity
  8
0
100
AcDbLine
 62
250
  6
CONTINUOUS
 10
15.4551935982
 20
13.6173255922
 11
13.7766555278
 21
14.5864924371
  0
LINE
  5
355
100
AcDbEntity
  8
0
100
AcDbLine
 62
250
  6
CONTINUOUS
 10
3.1515356056
 20
20.7213035161
 11
1.4729975351
 21
21.690470361
  0
LINE
  5
356
100
AcDbEntity
  8
0
100
AcDbLine
 62
7
  6
CONTINUOUS
 10
7.4034353949
 20
18.3782346767
 11
9.0297809916
 21
17.439203112
  0
LINE
  5
357
100
AcDbEntity
  8
0
100
AcDbLine
 62
7
  6
CONTINUOUS
 10
10.7268372665
 20
16.459344088
 11
11.646076082
 21
15.9285871167
  0
LINE
  5
358
100
AcDbEntity
  8
0
100
AcDbLine
 62
250
  6
CONTINUOUS
 10
15.6309418542
 20
13.9229145475
 11
13.9524037838
 21
14.8920813923
  0
LINE
  5
359
100
AcDbEntity
  8
0
100
AcDbLine
 62
250
  6
CONTINUOUS
 10
3.3272838615
 20
21.0268924714
 11
1.6487457911
 21
21.9960593162
  0
LINE
  5
35A
100
AcDbEntity
  8
0
100
AcDbLine
 62
7
  6
CONTINUOUS
 10
5.105338356
 20
20.1347963954
 11
6.0307479119
 21
19.6004765159
  0
LINE
  5
35B
100
AcDbEntity
  8
0
100
AcDbLine
 62
7
  6
CONTINUOUS
 10
13.3784876959
 20
15.3579836534
 11
13.9937243589
 21
15.002753715
  0
LINE
  5
35C
100
AcDbEntity
  8
0
100
AcDbLine
 62
7
  6
CONTINUOUS
 10
17.4089963487
 20
13.0308184715
 11
17.7622017342
 21
12.8268821086
  0
LINE
  5
35D
100
AcDbEntity
  8
0
100
AcDbLine
 62
7
  6
CONTINUOUS
 10
10.6682586227
 20
16.9228359531
 11
9.5247557385
 21
17.5830801871
  0
LINE
  5
35E
100
AcDbEntity
  8
0
100
AcDbLine
 62
7
  6
CONTINUOUS
 10
6.0307479119
 20
19.6748800511
 11
6.6963286137
 21
19.2905820956
  0
LINE
  5
35F
100
AcDbEntity
  8
0
100
AcDbLine
 62
7
  6
CONTINUOUS
 10
11.646076082
 20
16.4326599423
 11
12.3116567838
 21
16.0483619868
  0
LINE
  5
360
100
AcDbEntity
  8
0
100
AcDbLine
 62
250
  6
CONTINUOUS
 10
12.2134085709
 20
16.7640417435
 11
10.7268372665
 21
17.6223693836
  0
LINE
  5
361
100
AcDbEntity
  8
0
100
AcDbLine
 62
250
  6
CONTINUOUS
 10
9.0297809916
 20
18.6022284075
 11
7.4034353949
 21
19.5412599722
  0
LINE
  5
362
100
AcDbEntity
  8
0
100
AcDbLine
 62
7
  6
CONTINUOUS
 10
5.1399001086
 20
20.9266399741
 11
5.8083313103
 21
20.5406961757
  0
LINE
  5
363
100
AcDbEntity
  8
0
100
AcDbLine
 62
7
  6
CONTINUOUS
 10
17.4435581012
 20
13.8226620502
 11
18.4637987218
 21
13.2335879025
  0
LINE
  5
364
100
AcDbEntity
  8
0
100
AcDbLine
 62
7
  6
CONTINUOUS
 10
10.2318625196
 20
17.9870797129
 11
10.6705617093
 21
17.733780299
  0
LINE
  5
365
100
AcDbEntity
  8
0
100
AcDbLine
 62
250
  6
CONTINUOUS
 10
12.493781468
 20
16.9278089831
 11
10.8674358713
 21
17.8668405477
  0
LINE
  5
366
100
AcDbEntity
  8
0
100
AcDbLine
 62
250
  6
CONTINUOUS
 10
9.1703795964
 20
18.8466995717
 11
7.5440339997
 21
19.7857311364
  0
LINE
  5
367
100
AcDbEntity
  8
0
100
AcDbLine
 62
7
  6
CONTINUOUS
 10
7.0852373434
 20
20.2979799769
 11
9.3833343822
 21
18.9710875486
  0
LINE
  5
368
100
AcDbEntity
  8
0
100
AcDbLine
 62
7
  6
CONTINUOUS
 10
11.0803906571
 20
17.9912285246
 11
13.3784876959
 21
16.6643360963
  0
LINE
  5
369
100
AcDbEntity
  8
0
100
AcDbLine
 62
7
  6
CONTINUOUS
 10
17.232222645
 20
14.8474729737
 11
15.5351603869
 21
15.8273354524
  0
LINE
  5
36A
100
AcDbEntity
  8
0
100
AcDbLine
 62
7
  6
CONTINUOUS
 10
4.9285646524
 20
21.9514508976
 11
3.2315023943
 21
22.9313133763
  0
LINE
  5
36B
100
AcDbEntity
  8
0
100
AcDbLine
 62
7
  6
CONTINUOUS
 10
8.4640955667
 20
20.3136436215
 11
10.0904411634
 21
19.3746120568
  0
LINE
  5
36C
100
AcDbEntity
  8
0
100
AcDbLine
 62
7
  6
CONTINUOUS
 10
11.7874974383
 20
18.3947530328
 11
13.413843035
 21
17.4557214682
  0
LINE
  5
36D
100
AcDbEntity
  8
0
100
AcDbLine
 62
250
  6
CONTINUOUS
 10
3.765952273
 20
23.232758748
 11
5.4568318241
 21
22.2564660868
  0
LINE
  5
36E
100
AcDbEntity
  8
0
100
AcDbLine
 62
250
  6
CONTINUOUS
 10
16.0696102656
 20
16.1287808241
 11
17.7604898168
 21
15.1524881629
  0
LINE
  5
36F
100
AcDbEntity
  8
0
100
AcDbLine
 62
7
  6
CONTINUOUS
 10
3.8899298737
 20
23.2445536887
 11
5.5808094248
 21
22.2682610276
  0
LINE
  5
370
100
AcDbEntity
  8
0
100
AcDbLine
 62
7
  6
CONTINUOUS
 10
16.1935878663
 20
16.1405757648
 11
17.8844674175
 21
15.1642831037
  0
LWPOLYLINE
  5
371
100
AcDbEntity
  8
0
100
AcDbPolyline
 62
250
  6
CONTINUOUS
 90
34
 70
0
 10
5.4568318241
 20
22.2564660868
 10
5.4652906421
 20
22.2514057213
 10
5.4737279693
 20
22.2458931094
 10
5.4821246933
 20
22.2399407383
 10
5.4904617937
 20
22.2335620916
 10
5.4987203849
 20
22.2267716182
 10
5.5068817596
 20
22.2195847001
 10
5.5149274303
 20
22.2120176173
 10
5.5228391718
 20
22.204087511
 10
5.5305990622
 20
22.1958123445
 10
5.5381895237
 20
22.1872108631
 10
5.5455933621
 20
22.178302551
 10
5.5527938061
 20
22.1691075874
 10
5.559774545
 20
22.1596468012
 10
5.566519766
 20
22.149941623
 10
5.5730141896
 20
22.1400140373
 10
5.5792431044
 20
22.1298865322
 10
5.5851924006
 20
22.1195820489
 10
5.5908486017
 20
22.1091239293
 10
5.5961988952
 20
22.0985358634
 10
5.6012311613
 20
22.0878418355
 10
5.605934001
 20
22.07706607
 10
5.6102967612
 20
22.0662329765
 10
5.6143095592
 20
22.0553670942
 10
5.6179633053
 20
22.0444930369
 10
5.6212497228
 20
22.0336354368
 10
5.6241613674
 20
22.0228188887
 10
5.6266916433
 20
22.0120678945
 10
5.6288348191
 20
22.0014068077
 10
5.6305860399
 20
21.990859778
 10
5.6319413388
 20
21.9804506967
 10
5.6328976458
 20
21.9702031429
 10
5.6334527947
 20
21.9601403295
 10
5.6336055278
 20
21.9502850509
  0
LWPOLYLINE
  5
372
100
AcDbEntity
  8
0
100
AcDbPolyline
 62
250
  6
CONTINUOUS
 90
34
 70
0
 10
17.7604898168
 20
15.1524881629
 10
17.7689347342
 20
15.1474364952
 10
17.7773618762
 20
15.1419315874
 10
17.7857521598
 20
15.1359853058
 10
17.7940877324
 20
15.1296095997
 10
17.8023484267
 20
15.1228191866
 10
17.8105119296
 20
15.1156321015
 10
17.8185585495
 20
15.108065789
 10
17.8264712827
 20
15.1001363474
 10
17.8342323461
 20
15.0918615835
 10
17.8418242475
 20
15.0832601092
 10
17.8492296708
 20
15.0743515038
 10
17.8564316741
 20
15.0651561358
 10
17.8634138768
 20
15.0556949318
 10
17.8701605289
 20
15.0459892467
 10
17.8766563875
 20
15.0360610077
 10
17.8828867487
 20
15.0259326794
 10
17.8888374744
 20
15.0156272356
 10
17.8944950681
 20
15.005168044
 10
17.8998467064
 20
14.9945788079
 10
17.9048802646
 20
14.9838835148
 10
17.9095843345
 20
14.9731064012
 10
17.9139482564
 20
14.9622718846
 10
17.91796214
 20
14.9514045157
 10
17.9216168862
 20
14.9405289266
 10
17.9249042126
 20
14.9296697615
 10
17.9278166702
 20
14.9188516242
 10
17.9303476584
 20
14.9080990306
 10
17.9324914425
 20
14.8974363399
 10
17.9342431633
 20
14.8868877173
 10
17.9355988491
 20
14.876477083
 10
17.9365554292
 20
14.8662280311
 10
17.9371107385
 20
14.856163778
 10
17.9372635204
 20
14.846307127
  0
LINE
  5
373
100
AcDbEntity
  8
0
100
AcDbLine
 62
7
  6
CONTINUOUS
 10
17.7758624885
 20
12.8187139072
 11
17.7625322514
 21
12.8266912721
  0
LWPOLYLINE
  5
374
100
AcDbEntity
  8
0
100
AcDbPolyline
 62
7
  6
CONTINUOUS
 90
37
 70
0
 10
9.3833343822
 20
18.9710875486
 10
9.3895031523
 20
18.9673703377
 10
9.3956601896
 20
18.9633493619
 10
9.4017937689
 20
18.9590322734
 10
9.4078921939
 20
18.9544272786
 10
9.4139438586
 20
18.9495431458
 10
9.4199372699
 20
18.9443891884
 10
9.4258609941
 20
18.9389752032
 10
9.4317037445
 20
18.9333114906
 10
9.4374544429
 20
18.9274088581
 10
9.4431021095
 20
18.9212785229
 10
9.4486359745
 20
18.9149321437
 10
9.4540455641
 20
18.9083818372
 10
9.4593205403
 20
18.901640049
 10
9.4644508346
 20
18.8947195967
 10
9.4694267567
 20
18.8876336987
 10
9.4742387876
 20
18.8803958159
 10
9.478877732
 20
18.8730197057
 10
9.4833348494
 20
18.8655194618
 10
9.4876016022
 20
18.8579093304
 10
9.4916698259
 20
18.8502037727
 10
9.4955318791
 20
18.8424175169
 10
9.4991803519
 20
18.8345653503
 10
9.5026082503
 20
18.8266621911
 10
9.5058091626
 20
18.8187231494
 10
9.5087769336
 20
18.8107633008
 10
9.511505859
 20
18.802797765
 10
9.5139908668
 20
18.7948417757
 10
9.5162271615
 20
18.7869104388
 10
9.5182104264
 20
18.7790188167
 10
9.5199370158
 20
18.7711820062
 10
9.5214035758
 20
18.763414885
 10
9.5226072511
 20
18.7557322006
 10
9.5235458846
 20
18.7481486543
 10
9.5242176895
 20
18.740678681
 10
9.5246212528
 20
18.7333364212
 10
9.5247557385
 20
18.7261358111
  0
LWPOLYLINE
  5
375
100
AcDbEntity
  8
0
100
AcDbPolyline
 62
250
  6
CONTINUOUS
 90
34
 70
0
 10
9.1703795964
 20
18.8466995717
 10
9.1771096274
 20
18.8426298587
 10
9.1838262764
 20
18.8382005337
 10
9.1905143283
 20
18.8334216306
 10
9.1971586322
 20
18.8283039751
 10
9.2037441369
 20
18.8228591604
 10
9.2102559239
 20
18.8170995208
 10
9.216679242
 20
18.8110381036
 10
9.2229995403
 20
18.8046886399
 10
9.2292025014
 20
18.7980655134
 10
9.2352740734
 20
18.7911837275
 10
9.2412005023
 20
18.7840588716
 10
9.2469683629
 20
18.776707086
 10
9.2525645892
 20
18.7691450246
 10
9.2579765037
 20
18.7613898181
 10
9.2631918469
 20
18.7534590345
 10
9.2681988043
 20
18.7453706395
 10
9.2729860336
 20
18.737142956
 10
9.27754269
 20
18.7287946222
 10
9.2818584514
 20
18.72034455
 10
9.2859235411
 20
18.7118118813
 10
9.2897287504
 20
18.7032159455
 10
9.2932654593
 20
18.6945762151
 10
9.2965256559
 20
18.6859122618
 10
9.299501955
 20
18.6772437124
 10
9.3021876142
 20
18.6685902038
 10
9.3045765496
 20
18.659971339
 10
9.3066633496
 20
18.6514066426
 10
9.3084432869
 20
18.6429155164
 10
9.3099123292
 20
18.6345171954
 10
9.3110671489
 20
18.6262307045
 10
9.3119051298
 20
18.6180748154
 10
9.3124243736
 20
18.6100680038
 10
9.3126237041
 20
18.6022284075
  0
LWPOLYLINE
  5
376
100
AcDbEntity
  8
0
100
AcDbPolyline
 62
7
  6
CONTINUOUS
 90
34
 70
0
 10
4.9285646524
 20
21.9514508976
 10
4.9369757278
 20
21.9463630779
 10
4.9453679454
 20
21.9408245235
 10
4.9537221931
 20
21.9348477192
 10
4.9620193671
 20
21.9284460967
 10
4.9702406655
 20
21.9216341519
 10
4.9783676313
 20
21.9144274112
 10
4.9863817966
 20
21.9068421638
 10
4.994264916
 20
21.8988955381
 10
5.0019992582
 20
21.8906056105
 10
5.0095672657
 20
21.8819911368
 10
5.0169517227
 20
21.8730715886
 10
5.0241359852
 20
21.8638672241
 10
5.0311037639
 20
21.8543988841
 10
5.0378392231
 20
21.8446879867
 10
5.0443271458
 20
21.8347565596
 10
5.0505528424
 20
21.8246271039
 10
5.0565021804
 20
21.8143225483
 10
5.0621616798
 20
21.8038662407
 10
5.0675185502
 20
21.7932818843
 10
5.0725606498
 20
21.7825934514
 10
5.077276511
 20
21.7718251337
 10
5.0816555028
 20
21.7610013541
 10
5.0856877217
 20
21.7501466397
 10
5.0893639457
 20
21.7392855332
 10
5.09267592
 20
21.7284426794
 10
5.0956161808
 20
21.7176426607
 10
5.0981779394
 20
21.7069098704
 10
5.1003554853
 20
21.6962686733
 10
5.1021439462
 20
21.6857432065
 10
5.1035391046
 20
21.675357217
 10
5.1045378082
 20
21.6651342345
 10
5.1051379772
 20
21.6550975184
 10
5.105338356
 20
21.6452698617
  0
LWPOLYLINE
  5
377
100
AcDbEntity
  8
0
100
AcDbPolyline
 62
7
  6
CONTINUOUS
 90
34
 70
0
 10
17.232222645
 20
14.8474729737
 10
17.2406337204
 20
14.842385154
 10
17.249025938
 20
14.8368465996
 10
17.2573801858
 20
14.8308697953
 10
17.2656773597
 20
14.8244681728
 10
17.2738986581
 20
14.8176562279
 10
17.2820256239
 20
14.8104494873
 10
17.2900397893
 20
14.8028642399
 10
17.2979229086
 20
14.7949176142
 10
17.3056572508
 20
14.7866276866
 10
17.3132252584
 20
14.7780132129
 10
17.3206097153
 20
14.7690936647
 10
17.3277939779
 20
14.7598893002
 10
17.3347617565
 20
14.7504209602
 10
17.3414972157
 20
14.7407100628
 10
17.3479851385
 20
14.7307786357
 10
17.3542108351
 20
14.72064918
 10
17.360160173
 20
14.7103446244
 10
17.3658196724
 20
14.6998883168
 10
17.3711765428
 20
14.6893039604
 10
17.3762186425
 20
14.6786155275
 10
17.3809345036
 20
14.6678472098
 10
17.3853134954
 20
14.6570234302
 10
17.3893457144
 20
14.6461687158
 10
17.3930219383
 20
14.6353076093
 10
17.3963339126
 20
14.6244647555
 10
17.3992741735
 20
14.6136647368
 10
17.4018359321
 20
14.6029319465
 10
17.404013478
 20
14.5922907494
 10
17.4058019389
 20
14.5817652826
 10
17.4071970972
 20
14.5713792931
 10
17.4081958008
 20
14.5611563106
 10
17.4087959698
 20
14.5511195945
 10
17.4089963487
 20
14.5412919378
  0
LWPOLYLINE
  5
378
100
AcDbEntity
  8
0
100
AcDbPolyline
 62
250
  6
CONTINUOUS
 90
18
 70
0
 10
13.7766555278
 20
14.5864924371
 10
13.7684729304
 20
14.5914465387
 10
13.7607063317
 20
14.5966190778
 10
13.7533732023
 20
14.6019984211
 10
13.7464900335
 20
14.607572474
 10
13.740072314
 20
14.6133286967
 10
13.7341344916
 20
14.6192541313
 10
13.7286899238
 20
14.6253354469
 10
13.7237508529
 20
14.6315589681
 10
13.7193283884
 20
14.6379106947
 10
13.7154324757
 20
14.6443763411
 10
13.7120718771
 20
14.6509413635
 10
13.7092541521
 20
14.6575909903
 10
13.706985636
 20
14.6643102638
 10
13.7052714283
 20
14.6710840719
 10
13.7041153823
 20
14.6778971765
 10
13.7035200949
 20
14.6847342572
 10
13.7034322231
 20
14.6885610854
  0
LWPOLYLINE
  5
379
100
AcDbEntity
  8
0
100
AcDbPolyline
 62
250
  6
CONTINUOUS
 90
18
 70
0
 10
10.7268372665
 20
17.6223693836
 10
10.7202683498
 20
17.6263471683
 10
10.7140346788
 20
17.6305009168
 10
10.7081503745
 20
17.6348212194
 10
10.702628767
 20
17.6392982893
 10
10.6974823643
 20
17.6439219844
 10
10.6927228248
 20
17.6486818305
 10
10.6883609303
 20
17.6535670452
 10
10.684406562
 20
17.6585665617
 10
10.6808686777
 20
17.6636690547
 10
10.6777552919
 20
17.6688629653
 10
10.6750734575
 20
17.6741365276
 10
10.6728292495
 20
17.6794777954
 10
10.671027752
 20
17.6848746689
 10
10.6696730458
 20
17.6903149224
 10
10.6687681998
 20
17.6957862322
 10
10.6683152638
 20
17.7012762038
 10
10.6682586227
 20
17.7040243022
  0
LWPOLYLINE
  5
37A
100
AcDbEntity
  8
0
100
AcDbPolyline
 62
250
  6
CONTINUOUS
 90
34
 70
0
 10
3.3272838615
 20
21.0268924714
 10
3.335633397
 20
21.0217857313
 10
3.3439699785
 20
21.016228535
 10
3.3522747342
 20
21.0102328706
 10
3.3605300004
 20
21.0038107967
 10
3.3687158111
 20
20.9969771467
 10
3.3768100587
 20
20.9897500745
 10
3.3847932174
 20
20.9821471203
 10
3.3926484166
 20
20.9741844592
 10
3.4003580027
 20
20.965879973
 10
3.4079045997
 20
20.9572523405
 10
3.4152709954
 20
20.9483212011
 10
3.4224403373
 20
20.9391069748
 10
3.4293963189
 20
20.9296306311
 10
3.4361232493
 20
20.9199135588
 10
3.4426059301
 20
20.9099777111
 10
3.4488296873
 20
20.8998455697
 10
3.4547803978
 20
20.8895401172
 10
3.4604445654
 20
20.8790847213
 10
3.4658093517
 20
20.8685030767
 10
3.4708626024
 20
20.8578191538
 10
3.4755928645
 20
20.8470571633
 10
3.4799894191
 20
20.8362414884
 10
3.4840423019
 20
20.8253966371
 10
3.4877423255
 20
20.8145471907
 10
3.4910811049
 20
20.8037177339
 10
3.4940510747
 20
20.7929328033
 10
3.4966455036
 20
20.7822168397
 10
3.4988585135
 20
20.771594119
 10
3.5006850882
 20
20.7610887162
 10
3.5021210863
 20
20.7507244531
 10
3.5031632549
 20
20.740524819
 10
3.5038092353
 20
20.7305129183
 10
3.5040575652
 20
20.7207114355
  0
LWPOLYLINE
  5
37B
100
AcDbEntity
  8
0
100
AcDbPolyline
 62
250
  6
CONTINUOUS
 90
34
 70
0
 10
15.6309418542
 20
13.9229145475
 10
15.639305137
 20
13.9177990212
 10
15.6476518047
 20
13.9122340636
 10
15.6559629504
 20
13.9062322806
 10
15.6642197472
 20
13.8998072676
 10
15.6724034919
 20
13.8929735787
 10
15.6804956462
 20
13.8857466937
 10
15.6884778798
 20
13.8781429832
 10
15.6963321111
 20
13.8701796711
 10
15.7040405484
 20
13.8618747963
 10
15.7115857304
 20
13.8532471711
 10
15.7189505656
 20
13.844316339
 10
15.7261183711
 20
13.8351025304
 10
15.73307291
 20
13.8256266166
 10
15.7397984289
 20
13.8159100626
 10
15.7462796928
 20
13.8059748787
 10
15.7525020204
 20
13.7958435703
 10
15.7584513166
 20
13.7855390869
 10
15.764114105
 20
13.7750847707
 10
15.769477558
 20
13.764504303
 10
15.7745295263
 20
13.7538216509
 10
15.779258566
 20
13.743061013
 10
15.7836539647
 20
13.7322467645
 10
15.7877057659
 20
13.7214034022
 10
15.7914047914
 20
13.7105554887
 10
15.7947426621
 20
13.6997275969
 10
15.7977118169
 20
13.6889442545
 10
15.8003055299
 20
13.6782298881
 10
15.802517926
 20
13.6676087682
 10
15.8043439935
 20
13.657104954
 10
15.8057795959
 20
13.646742239
 10
15.8068214813
 20
13.6365440971
 10
15.8074672896
 20
13.6265336293
 10
15.8077155579
 20
13.6167335116
  0
LINE
  5
37C
100
AcDbEntity
  8
0
100
AcDbLine
 62
7
  6
CONTINUOUS
 10
17.7755565847
 20
12.8188906993
 11
17.7891248694
 21
12.8102063643
  0
LINE
  5
37D
100
AcDbEntity
  8
0
100
AcDbLine
 62
7
  6
CONTINUOUS
 10
17.7885861001
 20
12.8105181946
 11
17.802319394
 21
12.8011686433
  0
LINE
  5
37E
100
AcDbEntity
  8
0
100
AcDbLine
 62
7
  6
CONTINUOUS
 10
17.8016207976
 20
12.8015737579
 11
17.815462692
 21
12.7915865635
  0
LINE
  5
37F
100
AcDbEntity
  8
0
100
AcDbLine
 62
7
  6
CONTINUOUS
 10
17.8285381338
 20
12.7814743056
 11
17.8147016918
 21
12.7920291344
  0
LINE
  5
380
100
AcDbEntity
  8
0
100
AcDbLine
 62
7
  6
CONTINUOUS
 10
17.8414958303
 20
12.7708744119
 11
17.8277877682
 21
12.7819125789
  0
LINE
  5
381
100
AcDbEntity
  8
0
100
AcDbLine
 62
7
  6
CONTINUOUS
 10
17.840755983
 20
12.7713088557
 11
17.8543397039
 21
12.7597806404
  0
LINE
  5
382
100
AcDbEntity
  8
0
100
AcDbLine
 62
7
  6
CONTINUOUS
 10
17.8535858006
 20
12.760225859
 11
17.8670658322
 21
12.7481992331
  0
LINE
  5
383
100
AcDbEntity
  8
0
100
AcDbLine
 62
7
  6
CONTINUOUS
 10
17.8662977568
 20
12.7486556946
 11
17.8796125583
 21
12.7361914578
  0
LINE
  5
384
100
AcDbEntity
  8
0
100
AcDbLine
 62
7
  6
CONTINUOUS
 10
17.8788304144
 20
12.7366594444
 11
17.8919631229
 21
12.7237742859
  0
LINE
  5
385
100
AcDbEntity
  8
0
100
AcDbLine
 62
7
  6
CONTINUOUS
 10
17.8911669911
 20
12.7242541321
 11
17.9041342853
 21
12.7109307461
  0
LINE
  5
386
100
AcDbEntity
  8
0
100
AcDbLine
 62
7
  6
CONTINUOUS
 10
17.9033242692
 20
12.711422734
 11
17.916114666
 21
12.6976711925
  0
LINE
  5
387
100
AcDbEntity
  8
0
100
AcDbLine
 62
7
  6
CONTINUOUS
 10
17.9279232431
 20
12.6839737653
 11
17.9152911598
 21
12.6981752609
  0
LINE
  5
388
100
AcDbEntity
  8
0
100
AcDbLine
 62
7
  6
CONTINUOUS
 10
17.9270866182
 20
12.6844899253
 11
17.9395410384
 21
12.6698603242
  0
LWPOLYLINE
  5
389
100
AcDbEntity
  8
0
100
AcDbPolyline
 62
7
  6
CONTINUOUS
 90
29
 70
0
 10
17.938691689
 20
12.6703885147
 10
17.9500384173
 20
12.6559464029
 10
17.9611265735
 20
12.6411561559
 10
17.9719563871
 20
12.6260252077
 10
17.9824605916
 20
12.6106512338
 10
17.9926241262
 20
12.5950530315
 10
18.0024620517
 20
12.5792118035
 10
18.011952284
 20
12.5631688329
 10
18.021095538
 20
12.5469250836
 10
18.0298910988
 20
12.5304795919
 10
18.0383147377
 20
12.5138707492
 10
18.0463754157
 20
12.4970758849
 10
18.0540641717
 20
12.4801176697
 10
18.0613298943
 20
12.4631025075
 10
18.0681663046
 20
12.4460331695
 10
18.0745796814
 20
12.4289068845
 10
18.0805377494
 20
12.4118217428
 10
18.0860310081
 20
12.3948049129
 10
18.0910689581
 20
12.3778292261
 10
18.0956478259
 20
12.3609112672
 10
18.0997736553
 20
12.3440291675
 10
18.1034404025
 20
12.3272047956
 10
18.1066261641
 20
12.3105203417
 10
18.1093277211
 20
12.2939675756
 10
18.1115482923
 20
12.2775547276
 10
18.1132756305
 20
12.2613886791
 10
18.1145056534
 20
12.2455050572
 10
18.1152424433
 20
12.2298682347
 10
18.1154860001
 20
12.2144782118
  0
LINE
  5
38A
100
AcDbEntity
  8
0
100
AcDbLine
 62
7
  6
CONTINUOUS
 10
17.467364432
 20
13.8279971099
 11
17.4838891939
 21
13.7993753828
  0
LINE
  5
38B
100
AcDbEntity
  8
0
100
AcDbLine
 62
7
  6
CONTINUOUS
 10
18.817347625
 20
11.4897576326
 11
19.5182835788
 21
10.2757009491
  0
LWPOLYLINE
  5
38C
100
AcDbEntity
  8
0
100
AcDbPolyline
 62
7
  6
CONTINUOUS
 90
21
 70
0
 10
24.2140146708
 20
-16.5724687455
 10
24.213809703
 20
-16.5641952581
 10
24.212845358
 20
-16.5527171514
 10
24.2110868686
 20
-16.5412704897
 10
24.208537992
 20
-16.5298551242
 10
24.2052108249
 20
-16.5185252314
 10
24.2011016679
 20
-16.5072812178
 10
24.1962142204
 20
-16.496122677
 10
24.1905716779
 20
-16.4851025667
 10
24.1841704513
 20
-16.4742215451
 10
24.1770141298
 20
-16.4634789541
 10
24.1691366769
 20
-16.4529257774
 10
24.1605346647
 20
-16.4425629154
 10
24.1512115211
 20
-16.4323894677
 10
24.1412114931
 20
-16.4224537169
 10
24.1305313634
 20
-16.4127567929
 10
24.1191743493
 20
-16.4032975658
 10
24.1071943506
 20
-16.3941209285
 10
24.0946093339
 20
-16.3852418454
 10
24.0814013327
 20
-16.3766453522
 10
24.0675703468
 20
-16.3683314488
  0
LINE
  5
38D
100
AcDbEntity
  8
RACCORDO
100
AcDbLine
 62
250
  6
CONTINUOUS
 10
23.672180453
 20
17.115383734
 11
23.672180453
 21
16.9237351499
  0
LINE
  5
38E
100
AcDbEntity
  8
0
100
AcDbLine
 62
250
  6
CONTINUOUS
 10
23.672180453
 20
17.115383734
 11
23.672180453
 21
16.9237351499
  0
LINE
  5
38F
100
AcDbEntity
  8
RACCORDO
100
AcDbLine
 62
250
  6
CONTINUOUS
 10
23.672180453
 20
-15.3991235554
 11
23.672180453
 21
-16.3019229877
  0
LINE
  5
390
100
AcDbEntity
  8
0
100
AcDbLine
 62
250
  6
CONTINUOUS
 10
23.672180453
 20
-15.3991235554
 11
23.672180453
 21
-16.3019229877
  0
LINE
  5
391
100
AcDbEntity
  8
RACCORDO
100
AcDbLine
 62
7
  6
CONTINUOUS
 10
23.7295303631
 20
17.1496733729
 11
23.7295303631
 21
17.0524958986
  0
LINE
  5
392
100
AcDbEntity
  8
0
100
AcDbLine
 62
7
  6
CONTINUOUS
 10
23.7295303631
 20
17.1496733729
 11
23.7295303631
 21
17.0524958986
  0
LINE
  5
393
100
AcDbEntity
  8
RACCORDO
100
AcDbLine
 62
7
  6
CONTINUOUS
 10
23.7295303631
 20
-15.3660058142
 11
23.7295303631
 21
-16.2209837428
  0
LINE
  5
394
100
AcDbEntity
  8
0
100
AcDbLine
 62
7
  6
CONTINUOUS
 10
23.7295303631
 20
-15.3660058142
 11
23.7295303631
 21
-16.2209837428
  0
LINE
  5
395
100
AcDbEntity
  8
0
100
AcDbLine
 62
250
  6
CONTINUOUS
 10
24.0736868564
 20
-17.331012952
 11
24.0736868564
 21
-16.773012264
  0
LINE
  5
396
100
AcDbEntity
  8
0
100
AcDbLine
 62
250
  6
CONTINUOUS
 10
24.0736868564
 20
17.355445306
 11
24.0736868564
 21
17.913445994
  0
LINE
  5
397
100
AcDbEntity
  8
0
100
AcDbLine
 62
7
  6
CONTINUOUS
 10
24.2140169562
 20
-17.249976561
 11
24.2140169562
 21
-16.5724687455
  0
LINE
  5
398
100
AcDbEntity
  8
0
100
AcDbLine
 62
7
  6
CONTINUOUS
 10
24.2140169562
 20
17.5559888245
 11
24.2140169562
 21
18.23349664
  0
LWPOLYLINE
  5
399
100
AcDbEntity
  8
RACCORDO
100
AcDbPolyline
 62
7
  6
CONTINUOUS
 90
18
 70
0
 10
23.7295271723
 20
17.052495282
 10
23.7293582596
 20
17.0428634012
 10
23.7288495055
 20
17.0338490824
 10
23.7280043705
 20
17.0249324461
 10
23.7268212745
 20
17.016130388
 10
23.7252537316
 20
17.007461705
 10
23.7233071541
 20
16.9989443228
 10
23.7209809552
 20
16.9906005425
 10
23.718218826
 20
16.9824600474
 10
23.7150279157
 20
16.9745440348
 10
23.7114107312
 20
16.966881364
 10
23.7073041916
 20
16.9595182797
 10
23.7027162418
 20
16.9524799939
 10
23.6976563873
 20
16.9458021652
 10
23.692065604
 20
16.9395509362
 10
23.6859336741
 20
16.933771626
 10
23.6792994564
 20
16.9284878046
 10
23.672180453
 20
16.9237351499
  0
LWPOLYLINE
  5
39A
100
AcDbEntity
  8
0
100
AcDbPolyline
 62
7
  6
CONTINUOUS
 90
18
 70
0
 10
23.7295271723
 20
17.052495282
 10
23.7293582596
 20
17.0428634012
 10
23.7288495055
 20
17.0338490824
 10
23.7280043705
 20
17.0249324461
 10
23.7268212745
 20
17.016130388
 10
23.7252537316
 20
17.007461705
 10
23.7233071541
 20
16.9989443228
 10
23.7209809552
 20
16.9906005425
 10
23.718218826
 20
16.9824600474
 10
23.7150279157
 20
16.9745440348
 10
23.7114107312
 20
16.966881364
 10
23.7073041916
 20
16.9595182797
 10
23.7027162418
 20
16.9524799939
 10
23.6976563873
 20
16.9458021652
 10
23.692065604
 20
16.9395509362
 10
23.6859336741
 20
16.933771626
 10
23.6792994564
 20
16.9284878046
 10
23.672180453
 20
16.9237351499
  0
LWPOLYLINE
  5
39B
100
AcDbEntity
  8
RACCORDO
100
AcDbPolyline
 62
7
  6
CONTINUOUS
 90
16
 70
0
 10
23.7295302873
 20
-16.2209837428
 10
23.7292931167
 20
-16.2265346353
 10
23.7285081446
 20
-16.232596259
 10
23.727193427
 20
-16.238585191
 10
23.7253516913
 20
-16.244481006
 10
23.7229802102
 20
-16.2503041294
 10
23.7200907278
 20
-16.2560418967
 10
23.716677971
 20
-16.2617064686
 10
23.7127472129
 20
-16.2672856844
 10
23.7083260177
 20
-16.2727303979
 10
23.703400401
 20
-16.2780447027
 10
23.6979843472
 20
-16.2832245052
 10
23.6921473738
 20
-16.2882083778
 10
23.6859126532
 20
-16.2929758444
 10
23.6792570129
 20
-16.2975473811
 10
23.672180453
 20
-16.3019229877
  0
LWPOLYLINE
  5
39C
100
AcDbEntity
  8
0
100
AcDbPolyline
 62
7
  6
CONTINUOUS
 90
16
 70
0
 10
23.7295302873
 20
-16.2209837428
 10
23.7292931167
 20
-16.2265346353
 10
23.7285081446
 20
-16.232596259
 10
23.727193427
 20
-16.238585191
 10
23.7253516913
 20
-16.244481006
 10
23.7229802102
 20
-16.2503041294
 10
23.7200907278
 20
-16.2560418967
 10
23.716677971
 20
-16.2617064686
 10
23.7127472129
 20
-16.2672856844
 10
23.7083260177
 20
-16.2727303979
 10
23.703400401
 20
-16.2780447027
 10
23.6979843472
 20
-16.2832245052
 10
23.6921473738
 20
-16.2882083778
 10
23.6859126532
 20
-16.2929758444
 10
23.6792570129
 20
-16.2975473811
 10
23.672180453
 20
-16.3019229877
  0
LWPOLYLINE
  5
39D
100
AcDbEntity
  8
RACCORDO
100
AcDbPolyline
 62
250
  6
CONTINUOUS
 90
46
 70
0
 10
21.8389599008
 20
-13.7043260302
 10
21.8407688464
 20
-13.6845334198
 10
21.8418104286
 20
-13.6643664975
 10
21.8420874322
 20
-13.6438716411
 10
21.8416078535
 20
-13.6230852704
 10
21.8403731941
 20
-13.6020560508
 10
21.8383799261
 20
-13.5808475427
 10
21.8356377692
 20
-13.5595039129
 10
21.8321578169
 20
-13.5380692632
 10
21.8279435569
 20
-13.5166078017
 10
21.8230100321
 20
-13.4951656596
 10
21.8173734858
 20
-13.4737865667
 10
21.811042995
 20
-13.4525298013
 10
21.8040382051
 20
-13.4314408273
 10
21.7963803555
 20
-13.410563301
 10
21.7880831888
 20
-13.3899514001
 10
21.7791707165
 20
-13.3696498009
 10
21.7696685395
 20
-13.3497004047
 10
21.7595934174
 20
-13.3301501845
 10
21.748972867
 20
-13.3110417247
 10
21.737836394
 20
-13.2924146943
 10
21.7262027715
 20
-13.2743087971
 10
21.7141023827
 20
-13.2567639569
 10
21.7015678653
 20
-13.2398166387
 10
21.6886191885
 20
-13.2234994418
 10
21.6752887912
 20
-13.2078489282
 10
21.6616117232
 20
-13.1928977535
 10
21.6476091229
 20
-13.1786724337
 10
21.6333150329
 20
-13.1652058611
 10
21.6187658721
 20
-13.1525260047
 10
21.6039838172
 20
-13.1406538774
 10
21.5890037837
 20
-13.1296181035
 10
21.5738628007
 20
-13.1194416594
 10
21.5585846494
 20
-13.1101410093
 10
21.5432046165
 20
-13.1017400437
 10
21.5277594778
 20
-13.0942563851
 10
21.5122751262
 20
-13.0877024211
 10
21.4967866223
 20
-13.0820967447
 10
21.4813298213
 20
-13.0774514736
 10
21.4659331914
 20
-13.0737749878
 10
21.4506308641
 20
-13.0710800372
 10
21.4354573034
 20
-13.0693731624
 10
21.4204439825
 20
-13.0686583386
 10
21.4056235796
 20
-13.0689420253
 10
21.3910285435
 20
-13.0702250261
 10
21.3849223691
 20
-13.0710694231
  0
LWPOLYLINE
  5
39E
100
AcDbEntity
  8
0
100
AcDbPolyline
 62
250
  6
CONTINUOUS
 90
46
 70
0
 10
21.8389599008
 20
-13.7043260302
 10
21.8407688464
 20
-13.6845334198
 10
21.8418104286
 20
-13.6643664975
 10
21.8420874322
 20
-13.6438716411
 10
21.8416078535
 20
-13.6230852704
 10
21.8403731941
 20
-13.6020560508
 10
21.8383799261
 20
-13.5808475427
 10
21.8356377692
 20
-13.5595039129
 10
21.8321578169
 20
-13.5380692632
 10
21.8279435569
 20
-13.5166078017
 10
21.8230100321
 20
-13.4951656596
 10
21.8173734858
 20
-13.4737865667
 10
21.811042995
 20
-13.4525298013
 10
21.8040382051
 20
-13.4314408273
 10
21.7963803555
 20
-13.410563301
 10
21.7880831888
 20
-13.3899514001
 10
21.7791707165
 20
-13.3696498009
 10
21.7696685395
 20
-13.3497004047
 10
21.7595934174
 20
-13.3301501845
 10
21.748972867
 20
-13.3110417247
 10
21.737836394
 20
-13.2924146943
 10
21.7262027715
 20
-13.2743087971
 10
21.7141023827
 20
-13.2567639569
 10
21.7015678653
 20
-13.2398166387
 10
21.6886191885
 20
-13.2234994418
 10
21.6752887912
 20
-13.2078489282
 10
21.6616117232
 20
-13.1928977535
 10
21.6476091229
 20
-13.1786724337
 10
21.6333150329
 20
-13.1652058611
 10
21.6187658721
 20
-13.1525260047
 10
21.6039838172
 20
-13.1406538774
 10
21.5890037837
 20
-13.1296181035
 10
21.5738628007
 20
-13.1194416594
 10
21.5585846494
 20
-13.1101410093
 10
21.5432046165
 20
-13.1017400437
 10
21.5277594778
 20
-13.0942563851
 10
21.5122751262
 20
-13.0877024211
 10
21.4967866223
 20
-13.0820967447
 10
21.4813298213
 20
-13.0774514736
 10
21.4659331914
 20
-13.0737749878
 10
21.4506308641
 20
-13.0710800372
 10
21.4354573034
 20
-13.0693731624
 10
21.4204439825
 20
-13.0686583386
 10
21.4056235796
 20
-13.0689420253
 10
21.3910285435
 20
-13.0702250261
 10
21.3849223691
 20
-13.0710694231
  0
LWPOLYLINE
  5
39F
100
AcDbEntity
  8
RACCORDO
100
AcDbPolyline
 62
250
  6
CONTINUOUS
 90
13
 70
0
 10
21.8389601251
 20
-13.7043261553
 10
21.8476446492
 20
-13.6987855962
 10
21.8556903501
 20
-13.6929323234
 10
21.8630635361
 20
-13.6867908479
 10
21.8697333315
 20
-13.6803868873
 10
21.8756718063
 20
-13.6737472588
 10
21.8808540925
 20
-13.6668997663
 10
21.8852584893
 20
-13.6598730842
 10
21.888866553
 20
-13.6526966371
 10
21.8916631747
 20
-13.6454004771
 10
21.8936366436
 20
-13.6380151571
 10
21.8947786958
 20
-13.6305716038
 10
21.8950921585
 20
-13.6241382554
  0
LWPOLYLINE
  5
3A0
100
AcDbEntity
  8
0
100
AcDbPolyline
 62
250
  6
CONTINUOUS
 90
13
 70
0
 10
21.8389601251
 20
-13.7043261553
 10
21.8476446492
 20
-13.6987855962
 10
21.8556903501
 20
-13.6929323234
 10
21.8630635361
 20
-13.6867908479
 10
21.8697333315
 20
-13.6803868873
 10
21.8756718063
 20
-13.6737472588
 10
21.8808540925
 20
-13.6668997663
 10
21.8852584893
 20
-13.6598730842
 10
21.888866553
 20
-13.6526966371
 10
21.8916631747
 20
-13.6454004771
 10
21.8936366436
 20
-13.6380151571
 10
21.8947786958
 20
-13.6305716038
 10
21.8950921585
 20
-13.6241382554
  0
LINE
  5
3A1
100
AcDbEntity
  8
RACCORDO
100
AcDbLine
 62
7
  6
CONTINUOUS
 10
21.8377476406
 20
-14.5848861235
 11
19.5182835788
 21
-15.9479113358
  0
LINE
  5
3A2
100
AcDbEntity
  8
0
100
AcDbLine
 62
7
  6
CONTINUOUS
 10
21.8377476406
 20
-14.5848861235
 11
19.5182835788
 21
-15.9479113358
  0
LWPOLYLINE
  5
3A3
100
AcDbEntity
  8
RACCORDO
100
AcDbPolyline
 62
7
  6
CONTINUOUS
 90
3
 70
0
 10
21.8640028256
 20
-14.5697109756
 10
21.8689835905
 20
-14.5668518558
 10
21.8774922653
 20
-14.5619210028
  0
LWPOLYLINE
  5
3A4
100
AcDbEntity
  8
0
100
AcDbPolyline
 62
7
  6
CONTINUOUS
 90
3
 70
0
 10
21.8640028256
 20
-14.5697109756
 10
21.8689835905
 20
-14.5668518558
 10
21.8774922653
 20
-14.5619210028
  0
LWPOLYLINE
  5
3A5
100
AcDbEntity
  8
RACCORDO
100
AcDbPolyline
 62
7
  6
CONTINUOUS
 90
3
 70
0
 10
21.8774922653
 20
-14.5619210028
 10
21.8810467554
 20
-14.5598839849
 10
21.8868510421
 20
-14.5565173201
  0
LWPOLYLINE
  5
3A6
100
AcDbEntity
  8
0
100
AcDbPolyline
 62
7
  6
CONTINUOUS
 90
3
 70
0
 10
21.8774922653
 20
-14.5619210028
 10
21.8810467554
 20
-14.5598839849
 10
21.8868510421
 20
-14.5565173201
  0
LWPOLYLINE
  5
3A7
100
AcDbEntity
  8
RACCORDO
100
AcDbPolyline
 62
7
  6
CONTINUOUS
 90
3
 70
0
 10
21.8868510421
 20
-14.5565173201
 10
21.8891294699
 20
-14.5552148698
 10
21.8925290098
 20
-14.5532392075
  0
LWPOLYLINE
  5
3A8
100
AcDbEntity
  8
0
100
AcDbPolyline
 62
7
  6
CONTINUOUS
 90
3
 70
0
 10
21.8868510421
 20
-14.5565173201
 10
21.8891294699
 20
-14.5552148698
 10
21.8925290098
 20
-14.5532392075
  0
LWPOLYLINE
  5
3A9
100
AcDbEntity
  8
RACCORDO
100
AcDbPolyline
 62
7
  6
CONTINUOUS
 90
3
 70
0
 10
21.8389601251
 20
-14.584179829
 10
21.846003369
 20
-14.5801559466
 10
21.8640028256
 20
-14.5697109756
  0
LWPOLYLINE
  5
3AA
100
AcDbEntity
  8
0
100
AcDbPolyline
 62
7
  6
CONTINUOUS
 90
3
 70
0
 10
21.8389601251
 20
-14.584179829
 10
21.846003369
 20
-14.5801559466
 10
21.8640028256
 20
-14.5697109756
  0
LWPOLYLINE
  5
3AB
100
AcDbEntity
  8
RACCORDO
100
AcDbPolyline
 62
7
  6
CONTINUOUS
 90
5
 70
0
 10
21.8925290098
 20
-14.5532392075
 10
21.893677391
 20
-14.5525870298
 10
21.8944791589
 20
-14.5521200536
 10
21.8949465291
 20
-14.5518434869
 10
21.8950921651
 20
-14.5517681438
  0
LWPOLYLINE
  5
3AC
100
AcDbEntity
  8
0
100
AcDbPolyline
 62
7
  6
CONTINUOUS
 90
5
 70
0
 10
21.8925290098
 20
-14.5532392075
 10
21.893677391
 20
-14.5525870298
 10
21.8944791589
 20
-14.5521200536
 10
21.8949465291
 20
-14.5518434869
 10
21.8950921651
 20
-14.5517681438
  0
LINE
  5
3AD
100
AcDbEntity
  8
RACCORDO
100
AcDbLine
 62
7
  6
CONTINUOUS
 10
23.2398064397
 20
-15.1494762191
 11
19.5182835788
 21
-17.2238815897
  0
LINE
  5
3AE
100
AcDbEntity
  8
0
100
AcDbLine
 62
7
  6
CONTINUOUS
 10
23.2398064397
 20
-15.1494762191
 11
19.5182835788
 21
-17.2238815897
  0
LWPOLYLINE
  5
3AF
100
AcDbEntity
  8
RACCORDO
100
AcDbPolyline
 62
7
  6
CONTINUOUS
 90
5
 70
0
 10
23.7295303631
 20
-15.3660094986
 10
23.7293527105
 20
-15.3661024416
 10
23.7288495055
 20
-15.3663998149
 10
23.7280075765
 20
-15.3668900435
 10
23.7268145402
 20
-15.3675678018
  0
LWPOLYLINE
  5
3B0
100
AcDbEntity
  8
0
100
AcDbPolyline
 62
7
  6
CONTINUOUS
 90
5
 70
0
 10
23.7295303631
 20
-15.3660094986
 10
23.7293527105
 20
-15.3661024416
 10
23.7288495055
 20
-15.3663998149
 10
23.7280075765
 20
-15.3668900435
 10
23.7268145402
 20
-15.3675678018
  0
LWPOLYLINE
  5
3B1
100
AcDbEntity
  8
0
100
AcDbPolyline
 62
7
  6
CONTINUOUS
 90
13
 70
0
 10
11.8092520818
 20
22.2044080099
 10
11.8086142556
 20
22.2045761639
 10
11.8067668333
 20
22.2044155075
 10
11.8039954537
 20
22.2037341754
 10
11.8003530293
 20
22.2025576154
 10
11.7958882101
 20
22.2009005574
 10
11.7906164168
 20
22.1987925091
 10
11.784569083
 20
22.1962560368
 10
11.7777854441
 20
22.1933017158
 10
11.7702672122
 20
22.1899431385
 10
11.7620221289
 20
22.1861861024
 10
11.7530943002
 20
22.1820558539
 10
11.7333821981
 20
22.1728041682
  0
LWPOLYLINE
  5
3B2
100
AcDbEntity
  8
0
100
AcDbPolyline
 62
7
  6
CONTINUOUS
 90
13
 70
0
 10
17.4079502821
 20
18.9717898419
 10
17.40739596
 20
18.9719493388
 10
17.4056160027
 20
18.9718241825
 10
17.4029158291
 20
18.9711802799
 10
17.3993475333
 20
18.9700422451
 10
17.3949597069
 20
18.9684254972
 10
17.3897702818
 20
18.966361112
 10
17.3838128446
 20
18.9638715489
 10
17.3771262768
 20
18.9609668436
 10
17.3697116605
 20
18.9576613457
 10
17.3615770612
 20
18.9539611709
 10
17.352766538
 20
18.9498906502
 10
17.3333023665
 20
18.940764569
  0
LWPOLYLINE
  5
3B3
100
AcDbEntity
  8
0
100
AcDbPolyline
 62
250
  6
CONTINUOUS
 90
17
 70
0
 10
3.8872966103
 20
23.246011349
 10
3.8811113194
 20
23.2489728393
 10
3.8746647721
 20
23.2514375696
 10
3.867971464
 20
23.253399998
 10
3.8610464455
 20
23.2548557117
 10
3.8539052881
 20
23.2558014374
 10
3.8465640491
 20
23.2562350487
 10
3.8390392359
 20
23.2561555704
 10
3.8313477686
 20
23.2555631814
 10
3.8235069421
 20
23.2544592136
 10
3.815534387
 20
23.2528461494
 10
3.8074480302
 20
23.250727616
 10
3.7992660546
 20
23.2481083769
 10
3.7910068579
 20
23.2449943217
 10
3.7826890116
 20
23.2413924527
 10
3.7743312189
 20
23.2373108688
 10
3.765952273
 20
23.232758748
  0
LWPOLYLINE
  5
3B4
100
AcDbEntity
  8
0
100
AcDbPolyline
 62
7
  6
CONTINUOUS
 90
19
 70
0
 10
3.8899298737
 20
23.2445536887
 10
3.8775219667
 20
23.2512584813
 10
3.8646671012
 20
23.2572914822
 10
3.8514093352
 20
23.2626147994
 10
3.8377904745
 20
23.2671960792
 10
3.823867896
 20
23.2710026668
 10
3.8097135628
 20
23.274005862
 10
3.7953949427
 20
23.2761868995
 10
3.7809581542
 20
23.2775360961
 10
3.7664422691
 20
23.2780462138
 10
3.7519162373
 20
23.2777122005
 10
3.7374249124
 20
23.2765338409
 10
3.7229671756
 20
23.2745049564
 10
3.7085593155
 20
23.2716140425
 10
3.6942982494
 20
23.2678674776
 10
3.6802922733
 20
23.2632900629
 10
3.6665802236
 20
23.257895412
 10
3.6532099765
 20
23.2517023713
 10
3.6421079894
 20
23.2458035941
  0
LWPOLYLINE
  5
3B5
100
AcDbEntity
  8
0
100
AcDbPolyline
 62
250
  6
CONTINUOUS
 90
18
 70
0
 10
5.5808064049
 20
22.2682627712
 10
5.5781618151
 20
22.2697262926
 10
5.5719750834
 20
22.2726869579
 10
5.5655271068
 20
22.2751507072
 10
5.5588323735
 20
22.2771120137
 10
5.5519058973
 20
22.2785664798
 10
5.5447631868
 20
22.2795108362
 10
5.5374203694
 20
22.2799429384
 10
5.5298941227
 20
22.2798618176
 10
5.5222014885
 20
22.2792676964
 10
5.5143596759
 20
22.278161942
 10
5.5063861769
 20
22.2765470346
 10
5.4982976994
 20
22.2744262492
 10
5.4901136281
 20
22.2718045611
 10
5.4818559573
 20
22.2686893204
 10
5.4735445367
 20
22.2650887194
 10
5.4651969043
 20
22.2610110544
 10
5.4568318241
 20
22.2564660868
  0
LINE
  5
3B6
100
AcDbEntity
  8
0
100
AcDbLine
 62
250
  6
CONTINUOUS
 10
3.8899298737
 20
23.2445536887
 11
3.8872966103
 21
23.246011349
  0
LWPOLYLINE
  5
3B7
100
AcDbEntity
  8
0
100
AcDbPolyline
 62
7
  6
CONTINUOUS
 90
19
 70
0
 10
17.8844674175
 20
15.1642831037
 10
17.8965038066
 20
15.1568720141
 10
17.9081782467
 20
15.1487361832
 10
17.9194357874
 20
15.1398952789
 10
17.9302268949
 20
15.1303703218
 10
17.9404952572
 20
15.1201946659
 10
17.9501815913
 20
15.1094150137
 10
17.9592358994
 20
15.0980804073
 10
17.9676263069
 20
15.0862264823
 10
17.9753274406
 20
15.073882749
 10
17.9823000612
 20
15.0611068517
 10
17.9885213453
 20
15.0479377704
 10
17.9939867467
 20
15.0343703733
 10
17.9986777247
 20
15.0204131455
 10
18.0025508456
 20
15.0061541249
 10
18.005573309
 20
14.9916996795
 10
18.007737159
 20
14.9770912633
 10
18.0090346882
 20
14.9623803279
 10
18.0094613774
 20
14.9477804047
  0
LWPOLYLINE
  5
3B8
100
AcDbEntity
  8
0
100
AcDbPolyline
 62
250
  6
CONTINUOUS
 90
15
 70
0
 10
17.9372635204
 20
14.5186618265
 10
17.9412363052
 20
14.5128185007
 10
17.9447988192
 20
14.5072173908
 10
17.9479430218
 20
14.5018711387
 10
17.950661815
 20
14.4967918139
 10
17.9529490644
 20
14.4919908774
 10
17.9547996103
 20
14.4874791578
 10
17.9562092752
 20
14.4832668344
 10
17.9571748726
 20
14.4793634221
 10
17.9576942203
 20
14.4757777402
 10
17.9577661469
 20
14.4725178841
 10
17.9573904914
 20
14.4695912074
 10
17.9565681019
 20
14.4670043144
 10
17.9553008347
 20
14.4647630434
 10
17.954963521
 20
14.4643180218
  0
LWPOLYLINE
  5
3B9
100
AcDbEntity
  8
0
100
AcDbPolyline
 62
250
  6
CONTINUOUS
 90
34
 70
0
 10
17.9372635204
 20
-24.4177239605
 10
17.9412362342
 20
-24.4067760304
 10
17.9447986928
 20
-24.3956237904
 10
17.9479428561
 20
-24.3842924102
 10
17.9506616278
 20
-24.3728074643
 10
17.9529488718
 20
-24.3611948735
 10
17.954799426
 20
-24.3494808466
 10
17.9562091137
 20
-24.3376918216
 10
17.9571747534
 20
-24.3258544056
 10
17.9576941657
 20
-24.3139953149
 10
17.9577661783
 20
-24.3021413149
 10
17.9573906287
 20
-24.2903191592
 10
17.9565683645
 20
-24.2785555298
 10
17.9553012414
 20
-24.2668769765
 10
17.9535921193
 20
-24.2553098571
 10
17.9514448557
 20
-24.2438802779
 10
17.9488642966
 20
-24.2326140348
 10
17.9458562663
 20
-24.2215365551
 10
17.9424275538
 20
-24.21067284
 10
17.9385858974
 20
-24.2000474081
 10
17.9343399676
 20
-24.1896842406
 10
17.9296993471
 20
-24.1796067264
 10
17.9246745096
 20
-24.1698376099
 10
17.9192767958
 20
-24.1603989395
 10
17.913518388
 20
-24.1513120176
 10
17.9074122827
 20
-24.1425973529
 10
17.9009722609
 20
-24.1342746139
 10
17.8942128574
 20
-24.1263625845
 10
17.8871493278
 20
-24.1188791217
 10
17.879797614
 20
-24.1118411152
 10
17.8721743084
 20
-24.1052644494
 10
17.8642966164
 20
-24.0991639675
 10
17.8561823175
 20
-24.0935534378
 10
17.8478497251
 20
-24.088445523
  0
LWPOLYLINE
  5
3BA
100
AcDbEntity
  8
0
100
AcDbPolyline
 62
7
  6
CONTINUOUS
 90
21
 70
0
 10
24.0736868564
 20
-16.773012264
 10
24.0872644355
 20
-16.7645602547
 10
24.1002105831
 20
-16.7558319764
 10
24.1125252994
 20
-16.7468274289
 10
24.1242260957
 20
-16.7375314692
 10
24.1352954607
 20
-16.7279592405
 10
24.1456808597
 20
-16.7181561718
 10
24.1553790415
 20
-16.708121166
 10
24.1643932574
 20
-16.6978553203
 10
24.1726807263
 20
-16.6874073558
 10
24.1802379938
 20
-16.6767764069
 10
24.1870685144
 20
-16.6659633392
 10
24.1931398708
 20
-16.655019471
 10
24.1984484544
 20
-16.6439441804
 10
24.2029978738
 20
-16.6327380892
 10
24.2067665377
 20
-16.6214543809
 10
24.209750735
 20
-16.6100926866
 10
24.2119541768
 20
-16.5986533751
 10
24.2133664057
 20
-16.5871907368
 10
24.2139836608
 20
-16.5757046608
 10
24.2140146708
 20
-16.5724687455
  0
LINE
  5
3BB
100
AcDbEntity
  8
0
100
AcDbLine
 62
7
  6
CONTINUOUS
 10
24.0736868564
 20
-16.773012264
 11
19.5182835788
 21
-19.4966980191
  0
LINE
  5
3BC
100
AcDbEntity
  8
RACCORDO
100
AcDbLine
 62
7
  6
CONTINUOUS
 10
23.672180453
 20
-16.3019229877
 11
19.5182835788
 21
-18.7425606944
  0
LINE
  5
3BD
100
AcDbEntity
  8
0
100
AcDbLine
 62
7
  6
CONTINUOUS
 10
23.672180453
 20
-16.3019229877
 11
19.5182835788
 21
-18.7425606944
  0
LWPOLYLINE
  5
3BE
100
AcDbEntity
  8
RACCORDO
100
AcDbPolyline
 62
7
  6
CONTINUOUS
 90
3
 70
0
 10
23.7268145402
 20
-15.3675678018
 10
23.7233110751
 20
-15.3696036949
 10
23.7209730464
 20
-15.3709403216
  0
LWPOLYLINE
  5
3BF
100
AcDbEntity
  8
0
100
AcDbPolyline
 62
7
  6
CONTINUOUS
 90
3
 70
0
 10
23.7268145402
 20
-15.3675678018
 10
23.7233110751
 20
-15.3696036949
 10
23.7209730464
 20
-15.3709403216
  0
LWPOLYLINE
  5
3C0
100
AcDbEntity
  8
RACCORDO
100
AcDbPolyline
 62
7
  6
CONTINUOUS
 90
3
 70
0
 10
23.7114021213
 20
-15.3764665233
 10
23.7027231259
 20
-15.381496011
 10
23.6976484714
 20
-15.3844091446
  0
LWPOLYLINE
  5
3C1
100
AcDbEntity
  8
0
100
AcDbPolyline
 62
7
  6
CONTINUOUS
 90
3
 70
0
 10
23.7114021213
 20
-15.3764665233
 10
23.7027231259
 20
-15.381496011
 10
23.6976484714
 20
-15.3844091446
  0
LWPOLYLINE
  5
3C2
100
AcDbEntity
  8
RACCORDO
100
AcDbPolyline
 62
7
  6
CONTINUOUS
 90
3
 70
0
 10
23.7209730464
 20
-15.3709403216
 10
23.715033003
 20
-15.3743856448
 10
23.7114021213
 20
-15.3764665233
  0
LWPOLYLINE
  5
3C3
100
AcDbEntity
  8
0
100
AcDbPolyline
 62
7
  6
CONTINUOUS
 90
3
 70
0
 10
23.7209730464
 20
-15.3709403216
 10
23.715033003
 20
-15.3743856448
 10
23.7114021213
 20
-15.3764665233
  0
LWPOLYLINE
  5
3C4
100
AcDbEntity
  8
RACCORDO
100
AcDbPolyline
 62
7
  6
CONTINUOUS
 90
3
 70
0
 10
23.6976484714
 20
-15.3844091446
 10
23.6793368449
 20
-15.3950346866
 10
23.672180453
 20
-15.3991235554
  0
LWPOLYLINE
  5
3C5
100
AcDbEntity
  8
0
100
AcDbPolyline
 62
7
  6
CONTINUOUS
 90
3
 70
0
 10
23.6976484714
 20
-15.3844091446
 10
23.6793368449
 20
-15.3950346866
 10
23.672180453
 20
-15.3991235554
  0
LINE
  5
3C6
100
AcDbEntity
  8
RACCORDO
100
AcDbLine
 62
7
  6
CONTINUOUS
 10
23.672180453
 20
-15.3991235554
 11
19.5182835788
 21
-17.797535631
  0
LINE
  5
3C7
100
AcDbEntity
  8
0
100
AcDbLine
 62
7
  6
CONTINUOUS
 10
23.672180453
 20
-15.3991235554
 11
19.5182835788
 21
-17.797535631
  0
LINE
  5
3C8
100
AcDbEntity
  8
0
100
AcDbLine
 62
7
  6
CONTINUOUS
 10
18.817347625
 20
-20.3662000056
 11
24.2140290501
 21
-17.2499695787
  0
LINE
  5
3C9
100
AcDbEntity
  8
0
100
AcDbLine
 62
250
  6
CONTINUOUS
 10
10.9990195331
 20
22.5054676648
 11
11.6481329607
 21
22.130677707
  0
LINE
  5
3CA
100
AcDbEntity
  8
0
100
AcDbLine
 62
250
  6
CONTINUOUS
 10
16.597880429
 20
19.2727555537
 11
17.2469938565
 21
18.8979655959
  0
LINE
  5
3CB
100
AcDbEntity
  8
0
100
AcDbLine
 62
7
  6
CONTINUOUS
 10
11.3339735606
 20
22.4788255144
 11
11.8092520317
 21
22.2044056819
  0
LINE
  5
3CC
100
AcDbEntity
  8
0
100
AcDbLine
 62
7
  6
CONTINUOUS
 10
16.9326717608
 20
19.2462073418
 11
17.4079502319
 21
18.9717875093
  0
LINE
  5
3CD
100
AcDbEntity
  8
0
100
AcDbLine
 62
7
  6
CONTINUOUS
 10
14.8473396273
 20
21.7178425964
 11
18.6315764969
 21
19.5328716555
  0
LINE
  5
3CE
100
AcDbEntity
  8
0
100
AcDbLine
 62
7
  6
CONTINUOUS
 10
16.5958235503
 20
21.9925720508
 11
19.7502333432
 21
20.1712553704
  0
LINE
  5
3CF
100
AcDbEntity
  8
0
100
AcDbLine
 62
250
  6
CONTINUOUS
 10
16.1658999779
 20
-24.6441474698
 11
15.5435819459
 21
-25.4117750432
  0
LINE
  5
3D0
100
AcDbEntity
  8
0
100
AcDbLine
 62
250
  6
CONTINUOUS
 10
16.518936166
 20
-24.762883793
 11
15.8077155579
 21
-25.6401724483
  0
LWPOLYLINE
  5
3D1
100
AcDbEntity
  8
0
100
AcDbPolyline
 62
7
  6
CONTINUOUS
 90
3
 70
0
 10
18.0298910989
 20
-23.7637047434
 10
18.0210955381
 20
-23.769993342
 10
18.0119522841
 20
-23.7756786907
  0
LWPOLYLINE
  5
3D2
100
AcDbEntity
  8
ASSI
100
AcDbPolyline
 62
250
  6
CONTINUOUS
 90
9
 70
0
 10
12.7463147373
 20
-26.2405322834
 10
12.7581945598
 20
-26.2329042568
 10
12.7801151616
 20
-26.2139797411
 10
12.7989289339
 20
-26.1906060023
 10
12.8144299615
 20
-26.1630389338
 10
12.8264485929
 20
-26.1315803217
 10
12.834853293
 20
-26.0965745496
 10
12.8395520859
 20
-26.0584048318
 10
12.8404935638
 20
-26.0174890086
  0
LWPOLYLINE
  5
3D3
100
AcDbEntity
  8
0
100
AcDbPolyline
 62
7
  6
CONTINUOUS
 90
22
 70
0
 10
18.0146892304
 20
-23.7750785703
 10
18.0220167964
 20
-23.770462724
 10
18.0308177753
 20
-23.7641766511
 10
18.0392459211
 20
-23.757298436
 10
18.0473100829
 20
-23.7498157959
 10
18.0550014115
 20
-23.7417410135
 10
18.0622689598
 20
-23.7331218323
 10
18.069106405
 20
-23.7239538417
 10
18.0755200699
 20
-23.7142414523
 10
18.0814779751
 20
-23.7040456382
 10
18.0869706383
 20
-23.6933825892
 10
18.092007542
 20
-23.6822361156
 10
18.0965851543
 20
-23.6706186229
 10
18.100709528
 20
-23.6585151894
 10
18.1043746105
 20
-23.6459407368
 10
18.1075587122
 20
-23.6329524349
 10
18.1102585913
 20
-23.6195384065
 10
18.1124774897
 20
-23.6057105289
 10
18.1142034433
 20
-23.5915616041
 10
18.115432464
 20
-23.5771225662
 10
18.11616854
 20
-23.5623624811
 10
18.1164116712
 20
-23.5472813489
  0
LINE
  5
3D4
100
AcDbEntity
  8
0
100
AcDbLine
 62
250
  6
CONTINUOUS
 10
18.1164116712
 20
-23.5472813489
 11
18.817347625
 21
-23.130693712
  0
LINE
  5
3D5
100
AcDbEntity
  8
0
100
AcDbLine
 62
7
  6
CONTINUOUS
 10
18.0146892171
 20
-23.7750785475
 11
18.7156251709
 21
-23.3584909106
  0
LINE
  5
3D6
100
AcDbEntity
  8
0
100
AcDbLine
 62
7
  6
CONTINUOUS
 10
18.0128673842
 20
-23.77614576
 11
18.0146892304
 21
-23.7750785703
  0
LINE
  5
3D7
100
AcDbEntity
  8
ASSI
100
AcDbLine
 62
250
  6
CONTINUOUS
 10
16.1907761728
 20
-24.0830873595
 11
12.8404935638
 21
-26.0174890086
  0
LINE
  5
3D8
100
AcDbEntity
  8
ASSI
100
AcDbLine
 62
7
  6
CONTINUOUS
 10
16.1005266635
 20
-24.303861907
 11
12.7463147373
 21
-26.2405322834
  0
LINE
  5
3D9
100
AcDbEntity
  8
0
100
AcDbLine
 62
7
  6
CONTINUOUS
 10
18.0119522841
 20
-23.7756786907
 11
18.0028577943
 21
-23.7805660624
  0
LWPOLYLINE
  5
3DA
100
AcDbEntity
  8
ASSI
100
AcDbPolyline
 62
250
  6
CONTINUOUS
 90
22
 70
0
 10
12.8404935638
 20
-26.0174890086
 10
12.8039607862
 20
-26.0370944301
 10
12.7678647397
 20
-26.0535944861
 10
12.7322054244
 20
-26.0669891766
 10
12.6967880349
 20
-26.0773252452
 10
12.6618073765
 20
-26.0845559483
 10
12.6278478657
 20
-26.0885410558
 10
12.5949413726
 20
-26.0892212247
 10
12.5630560271
 20
-26.0866557979
 10
12.5326806345
 20
-26.0808825752
 10
12.5038380497
 20
-26.0718506415
 10
12.4765054178
 20
-26.0596109118
 10
12.4511029799
 20
-26.0443539304
 10
12.427662556
 20
-26.0260334074
 10
12.4061523259
 20
-26.0046956328
 10
12.3868970702
 20
-25.9806700212
 10
12.369929466
 20
-25.9538981174
 10
12.3552168361
 20
-25.9244383767
 10
12.3429859287
 20
-25.8927955797
 10
12.3333123263
 20
-25.8591379864
 10
12.3261204464
 20
-25.8232973368
 10
12.3214102889
 20
-25.7852736309
  0
LINE
  5
3DB
100
AcDbEntity
  8
0
100
AcDbLine
 62
250
  6
CONTINUOUS
 10
17.0363119362
 20
-24.0840843195
 11
18.1154860001
 21
-23.5465462099
  0
LINE
  5
3DC
100
AcDbEntity
  8
0
100
AcDbLine
 62
7
  6
CONTINUOUS
 10
16.9236835007
 20
-24.3181037547
 11
18.0028575647
 21
-23.7805656451
  0
LWPOLYLINE
  5
3DD
100
AcDbEntity
  8
0
100
AcDbPolyline
 62
7
  6
CONTINUOUS
 90
4
 70
0
 10
17.9893798965
 20
-23.7872788904
 10
17.9935249253
 20
-23.785706103
 10
18.0033703714
 20
-23.7812274499
 10
18.0128673842
 20
-23.77614576
  0
LWPOLYLINE
  5
3DE
100
AcDbEntity
  8
0
100
AcDbPolyline
 62
7
  6
CONTINUOUS
 90
24
 70
0
 10
16.3887378552
 20
22.8879210003
 10
16.3814044467
 20
22.8920339766
 10
16.363468914
 20
22.9011122987
 10
16.3449809912
 20
22.9091133618
 10
16.3259294796
 20
22.916047305
 10
16.3063628241
 20
22.9218966328
 10
16.2862653745
 20
22.9266612667
 10
16.265652781
 20
22.9303412851
 10
16.2446204385
 20
22.9329194279
 10
16.2231803466
 20
22.9343901717
 10
16.2013205058
 20
22.9347590398
 10
16.1791003122
 20
22.9340253422
 10
16.1565060452
 20
22.9321846784
 10
16.1335514255
 20
22.9292414489
 10
16.1103370116
 20
22.9252081659
 10
16.0868724133
 20
22.9200826044
 10
16.0631480209
 20
22.9138669893
 10
16.0392355635
 20
22.9065805076
 10
16.0151265208
 20
22.8982171563
 10
15.990829413
 20
22.8887829384
 10
15.9664415306
 20
22.8783150503
 10
15.9419953038
 20
22.8668258908
 10
15.9174583024
 20
22.8543030611
 10
15.8928305264
 20
22.8407465612
  0
LINE
  5
3DF
100
AcDbEntity
  8
0
100
AcDbLine
 62
250
  6
CONTINUOUS
 10
12.8423506772
 20
24.6020553947
 11
15.8928305264
 21
22.8407465612
  0
LINE
  5
3E0
100
AcDbEntity
  8
0
100
AcDbLine
 62
250
  6
CONTINUOUS
 10
20.1354712135
 20
20.3910990013
 11
23.1859510628
 21
18.6297901678
  0
LINE
  5
3E1
100
AcDbEntity
  8
0
100
AcDbLine
 62
7
  6
CONTINUOUS
 10
13.131142104
 20
24.7688230586
 11
16.3887409293
 21
22.8879263242
  0
LINE
  5
3E2
100
AcDbEntity
  8
0
100
AcDbLine
 62
7
  6
CONTINUOUS
 10
20.6313816164
 20
20.4382787643
 11
23.8889804416
 21
18.5573820299
  0
LINE
  5
3E3
100
AcDbEntity
  8
0
100
AcDbLine
 62
250
  6
CONTINUOUS
 10
17.4089963487
 20
-25.0575233952
 11
17.9372635204
 21
-24.745369261
  0
LINE
  5
3E4
100
AcDbEntity
  8
0
100
AcDbLine
 62
7
  6
CONTINUOUS
 10
17.3579519385
 20
-25.1715328084
 11
17.886642576
 21
-24.8591284474
  0
LINE
  5
3E5
100
AcDbEntity
  8
0
100
AcDbLine
 62
7
  6
CONTINUOUS
 10
17.3579519524
 20
-25.1715328002
 11
17.3564977094
 21
-25.1723724619
  0
LINE
  5
3E6
100
AcDbEntity
  8
0
100
AcDbLine
 62
250
  6
CONTINUOUS
 10
15.8077155579
 20
-25.9606926211
 11
17.4089963487
 21
-25.0575233952
  0
LINE
  5
3E7
100
AcDbEntity
  8
0
100
AcDbLine
 62
7
  6
CONTINUOUS
 10
15.7547884818
 20
-26.075783339
 11
17.3564976954
 21
-25.1723724702
  0
LWPOLYLINE
  5
3E8
100
AcDbEntity
  8
0
100
AcDbPolyline
 62
7
  6
CONTINUOUS
 90
19
 70
0
 10
15.7547884818
 20
-26.075783339
 10
15.7423547074
 20
-26.0823425664
 10
15.7294825969
 20
-26.0882303912
 10
15.7162160852
 20
-26.0934095601
 10
15.7025964804
 20
-26.097848367
 10
15.6886812361
 20
-26.1015146818
 10
15.6745429525
 20
-26.1043803622
 10
15.6602487627
 20
-26.1064273995
 10
15.6458442883
 20
-26.1076466195
 10
15.6313689184
 20
-26.1080311688
 10
15.6168909416
 20
-26.1075767039
 10
15.6024547382
 20
-26.1062834416
 10
15.5880597974
 20
-26.1041454195
 10
15.5737225535
 20
-26.1011516168
 10
15.5595384183
 20
-26.0973091861
 10
15.5456138727
 20
-26.0926434191
 10
15.5319867866
 20
-26.0871678739
 10
15.5187046892
 20
-26.0809015915
 10
15.506965762
 20
-26.0745356267
  0
ARC
  5
3E9
100
AcDbEntity
  8
0
100
AcDbCircle
 62
7
  6
CONTINUOUS
 10
5.4558033848
 20
22.051758164
 40
0.25
100
AcDbArc
 50
0.0007993011
 51
59.999200789
  0
ELLIPSE
  5
3EA
100
AcDbEntity
  8
0
100
AcDbEllipse
 62
7
  6
CONTINUOUS
 10
10.9969506879
 20
22.0960587284
 30
0.0
 11
0.2522054935
 21
0.4317367776
 31
0.0
 40
0.580680601
 41
0.7006927189
 42
0.7825716451
  0
ELLIPSE
  5
3EB
100
AcDbEntity
  8
0
100
AcDbEllipse
 62
7
  6
CONTINUOUS
 10
10.0904411634
 20
19.2113152379
 30
0.0
 11
-0.1000031398
 21
0.1732052219
 31
0.0
 40
0.5773316701
 41
-2.3562258892
 42
-0.7854295624
  0
ELLIPSE
  5
3EC
100
AcDbEntity
  8
0
100
AcDbEllipse
 62
7
  6
CONTINUOUS
 10
18.4637807717
 20
-22.9265279163
 30
0.0
 11
-0.2500332324
 21
0.4330240487
 31
0.0
 40
0.5773023583
 41
-3.1343210679
 42
-2.3562893423
  0
ELLIPSE
  5
3ED
100
AcDbEntity
  8
0
100
AcDbEllipse
 62
7
  6
CONTINUOUS
 10
18.4637807717
 20
12.8253562196
 30
0.0
 11
-0.2500205442
 21
0.4330020622
 31
0.0
 40
0.577360979
 41
-2.3562385877
 42
-0.7854930296
  0
ELLIPSE
  5
3EE
100
AcDbEntity
  8
0
100
AcDbEllipse
 62
7
  6
CONTINUOUS
 10
11.7874974383
 20
18.231456214
 30
0.0
 11
-0.1000031398
 21
0.1732052219
 31
0.0
 40
0.5773316701
 41
-0.7854295624
 42
-0.0029086502
  0
ELLIPSE
  5
3EF
100
AcDbEntity
  8
RACCORDO
100
AcDbEllipse
 62
7
  6
CONTINUOUS
 10
21.8365350637
 20
-14.7488989635
 30
0.0
 11
0.0974277822
 21
0.1746820465
 31
0.0
 40
0.5671693725
 41
0.7595658966
 42
0.7682925428
  0
ELLIPSE
  5
3F0
100
AcDbEntity
  8
0
100
AcDbEllipse
 62
7
  6
CONTINUOUS
 10
23.7140169562
 20
18.5221624747
 30
0.0
 11
-0.3535448484
 21
0.612377367
 31
0.0
 40
0.5773595689
 41
-3.1241152003
 42
-2.2255673615
  0
ELLIPSE
  5
3F1
100
AcDbEntity
  8
0
100
AcDbEllipse
 62
7
  6
CONTINUOUS
 10
2.3527671847
 20
20.649923266
 30
0.0
 11
0.249894357
 21
0.0119767658
 31
0.0
 40
0.6067642562
 41
3.1125202636
 42
3.8979184282
  0
ELLIPSE
  5
3F2
100
AcDbEntity
  8
0
100
AcDbEllipse
 62
7
  6
CONTINUOUS
 10
23.8889321202
 20
17.4026907923
 30
0.0
 11
-0.7070896968
 21
1.224754734
 31
0.0
 40
0.5773595689
 41
5.1712092008
 42
6.2773917037
  0
ELLIPSE
  5
3F3
100
AcDbEntity
  8
0
100
AcDbEllipse
 62
7
  6
CONTINUOUS
 10
4.039532909
 20
19.6760058769
 30
0.0
 11
0.249894357
 21
0.0119767658
 31
0.0
 40
0.6067642562
 41
-2.385266879
 42
-0.8202883164
  0
ELLIPSE
  5
3F4
100
AcDbEntity
  8
0
100
AcDbEllipse
 62
7
  6
CONTINUOUS
 10
14.6564251774
 20
13.5459453421
 30
0.0
 11
0.249894357
 21
0.0119767658
 31
0.0
 40
0.6067642562
 41
3.1125202636
 42
3.8979184282
  0
ELLIPSE
  5
3F5
100
AcDbEntity
  8
0
100
AcDbEllipse
 62
7
  6
CONTINUOUS
 10
16.3431909016
 20
12.572027953
 30
0.0
 11
0.249894357
 21
0.0119767658
 31
0.0
 40
0.6067642562
 41
-2.385266879
 42
-0.8202883164
  0
ELLIPSE
  5
3F6
100
AcDbEntity
  8
0
100
AcDbEllipse
 62
7
  6
CONTINUOUS
 10
9.1712023479
 20
17.5294159095
 30
0.0
 11
0.1999154856
 21
0.0095814127
 31
0.0
 40
0.6067642562
 41
-2.385266879
 42
-0.8144705522
  0
ELLIPSE
  5
3F7
100
AcDbEntity
  8
0
100
AcDbEllipse
 62
7
  6
CONTINUOUS
 10
1.6597000062
 20
20.4264615452
 30
0.0
 11
-0.2498600223
 21
0.43379745
 31
0.0
 40
0.5768037941
 41
-0.7837728968
 42
0.7861100406
  0
ELLIPSE
  5
3F8
100
AcDbEntity
  8
0
100
AcDbEllipse
 62
7
  6
CONTINUOUS
 10
10.8682586227
 20
16.5495568855
 30
0.0
 11
0.1999154856
 21
0.0095814127
 31
0.0
 40
0.6067642562
 41
3.1125202648
 42
3.8979184282
  0
ELLIPSE
  5
3F9
100
AcDbEntity
  8
0
100
AcDbEllipse
 62
7
  6
CONTINUOUS
 10
11.3506787407
 20
21.0270934267
 30
0.0
 11
0.458875566
 21
-0.0022987128
 31
0.0
 40
0.5740189913
 41
-0.7825226537
 42
0.0028755098
  0
ELLIPSE
  5
3FA
100
AcDbEntity
  8
0
100
AcDbEllipse
 62
7
  6
CONTINUOUS
 10
16.9493769409
 20
17.794475254
 30
0.0
 11
0.458875566
 21
-0.0022987128
 31
0.0
 40
0.5740189913
 41
-0.7767048895
 42
0.0028755094
  0
ELLIPSE
  5
3FB
100
AcDbEntity
  8
0
100
AcDbEllipse
 62
7
  6
CONTINUOUS
 10
16.6827046895
 20
11.7523669236
 30
0.0
 11
-0.2496303025
 21
0.4334023309
 31
0.0
 40
0.5778584463
 41
-2.3545649475
 42
-0.7846820101
  0
ELLIPSE
  5
3FC
100
AcDbEntity
  8
0
100
AcDbEllipse
 62
7
  6
CONTINUOUS
 10
16.6827046895
 20
-23.8795425381
 30
0.0
 11
-0.2498600223
 21
0.43379745
 31
0.0
 40
0.5768037941
 41
2.3578197568
 42
3.9277026942
  0
ELLIPSE
  5
3FD
100
AcDbEntity
  8
0
100
AcDbEllipse
 62
7
  6
CONTINUOUS
 10
17.2449489444
 20
18.4885428409
 30
0.0
 11
0.247841934
 21
0.4342563559
 31
0.0
 40
0.5739631936
 41
0.6948745611
 42
0.7767534872
  0
ELLIPSE
  5
3FE
100
AcDbEntity
  8
0
100
AcDbEllipse
 62
7
  6
CONTINUOUS
 10
67.7538887825
 20
47.7334585985
 30
0.0
 11
60.4168506882
 21
35.2934066151
 31
0.0
 40
0.0050378458
 41
-2.6935087662
 42
-2.5636989628
  0
ELLIPSE
  5
3FF
100
AcDbEntity
  8
0
100
AcDbEllipse
 62
7
  6
CONTINUOUS
 10
67.7538887825
 20
47.7334585985
 30
0.0
 11
60.4168506882
 21
35.2934066151
 31
0.0
 40
0.0050378458
 41
2.5578131139
 42
2.6876229173
  0
ELLIPSE
  5
400
100
AcDbEntity
  8
RACCORDO
100
AcDbEllipse
 62
7
  6
CONTINUOUS
 10
14.2269081212
 20
8.744346521
 30
0.0
 11
-0.5000241822
 21
0.8660114417
 31
0.0
 40
0.5775075436
 41
-2.1549128556
 42
-1.4109598326
  0
ELLIPSE
  5
401
100
AcDbEntity
  8
RACCORDO
100
AcDbEllipse
 62
7
  6
CONTINUOUS
 10
14.2130192059
 20
8.7363272621
 30
0.0
 11
-0.4175020606
 21
0.9116151601
 31
0.0
 40
0.6308115175
 41
-2.2965901434
 42
-2.0954124511
  0
ELLIPSE
  5
402
100
AcDbEntity
  8
ASSI
100
AcDbEllipse
 62
7
  6
CONTINUOUS
 10
15.8370889032
 20
-23.878607961
 30
0.0
 11
-0.2690718118
 21
0.4218329042
 31
0.0
 40
0.5459485643
 41
-3.1657190363
 42
-2.3813958426
  0
ELLIPSE
  5
403
100
AcDbEntity
  8
ASSI
100
AcDbEllipse
 62
7
  6
CONTINUOUS
 10
14.238394456
 20
10.4212239759
 30
0.0
 11
-0.2689101129
 21
0.421530027
 31
0.0
 40
0.5466963527
 41
-2.3807737205
 42
-0.8106626264
  0
ELLIPSE
  5
404
100
AcDbEntity
  8
ASSI
100
AcDbEllipse
 62
7
  6
CONTINUOUS
 10
-16.3790867785
 20
28.0993739135
 30
0.0
 11
-0.2690718118
 21
0.4218329042
 31
0.0
 40
0.5459485643
 41
-0.8099142831
 42
0.0241263312
  0
ELLIPSE
  5
405
100
AcDbEntity
  8
0
100
AcDbEllipse
 62
7
  6
CONTINUOUS
 10
21.8365350637
 20
-14.7488989635
 30
0.0
 11
0.0974277822
 21
0.1746820465
 31
0.0
 40
0.5671693725
 41
0.7595658966
 42
0.7682925428
  0
ELLIPSE
  5
406
100
AcDbEntity
  8
0
100
AcDbEllipse
 62
7
  6
CONTINUOUS
 10
14.2130192059
 20
8.7363272621
 30
0.0
 11
-0.4175020606
 21
0.9116151601
 31
0.0
 40
0.6308115175
 41
-2.2965901434
 42
-2.0954124511
  0
ELLIPSE
  5
407
100
AcDbEntity
  8
0
100
AcDbEllipse
 62
7
  6
CONTINUOUS
 10
14.2269081212
 20
8.744346521
 30
0.0
 11
-0.5000241822
 21
0.8660114417
 31
0.0
 40
0.5775075436
 41
-2.1549128556
 42
-1.4109598326
  0
ENDSEC
  0
SECTION
  2
OBJECTS
  0
DICTIONARY
  5
C
100
AcDbDictionary
280
0
281
1
  3
ACAD_GROUP
350
D
  3
ACAD_MLINESTYLE
350
17
  3
ACAD_LAYOUT
350
1A
  3
ACAD_PLOTSETTINGS
350
19
  3
ACAD_PLOTSTYLENAME
350
E
  0
DICTIONARY
  5
D
102
{ACAD_REACTORS
330
C
102
}
100
AcDbDictionary
280
0
281
1
  0
ACDBDICTIONARYWDFLT
  5
E
102
{ACAD_REACTORS
330
C
102
}
100
AcDbDictionary
281
1
  3
Normal
350
F
100
AcDbDictionaryWithDefault
340
F
  0
DICTIONARY
  5
17
102
{ACAD_REACTORS
330
C
102
}
100
AcDbDictionary
280
0
281
1
  3
Standard
350
18
  0
DICTIONARY
  5
19
102
{ACAD_REACTORS
330
C
102
}
100
AcDbDictionary
281
1
  0
DICTIONARY
  5
1A
102
{ACAD_REACTORS
330
C
102
}
100
AcDbDictionary
281
1
  3
Model
350
408
  3
Layout1
350
409
  0
ACDBPLACEHOLDER
  5
F
102
{ACAD_REACTORS
330
E
102
}
  0
MLINESTYLE
  5
18
102
{ACAD_REACTORS
330
17
102
}
100
AcDbMlineStyle
  2
STANDARD
 70
0
  3

 62
256
 51
90.0
 52
90.0
 71
2
 49
0.5
 62
256
  6
BYLAYER
 49
-0.5
 62
256
  6
BYLAYER
  0
LAYOUT
  5
408
102
{ACAD_REACTORS
330
1A
102
}
100
AcDbPlotSettings
  1

  2
none_device
  4
ISO_A4_(297.00_x_210.00_MM)
  6

 40
0.0
 41
0.0
 42
0.0
 43
0.0
 44
297.0
 45
210.0
 46
0.0
 47
0.0
 48
0.0
 49
0.0
140
0.0
141
0.0
142
1.0
143
1.0
 70
1024
 72
1
 73
0
 74
0
  7

 75
0
147
1.0
148
0.0
149
0.0
100
AcDbLayout
  1
Model
 70
0
 71
0
 10
0.0
 20
0.0
 11
297.0
 21
210.0
 12
0.0
 22
0.0
 32
0.0
 14
0.0
 24
0.0
 34
0.0
 15
0.0
 25
0.0
 35
0.0
146
0.0
 13
0.0
 23
0.0
 33
0.0
 16
1.0
 26
0.0
 36
0.0
 17
0.0
 27
1.0
 37
0.0
 76
0
330
219
345
0
346
0
  0
LAYOUT
  5
409
102
{ACAD_REACTORS
330
1A
102
}
100
AcDbPlotSettings
  1

  2
none_device
  4
ISO_A4_(297.00_x_210.00_MM)
  6

 40
0.0
 41
0.0
 42
0.0
 43
0.0
 44
297.0
 45
210.0
 46
0.0
 47
0.0
 48
0.0
 49
0.0
140
0.0
141
0.0
142
1.0
143
1.0
 70
0
 72
1
 73
0
 74
0
  7

 75
0
147
1.0
148
0.0
149
0.0
100
AcDbLayout
  1
Layout1
 70
0
 71
1
 10
0.0
 20
0.0
 11
297.0
 21
210.0
 12
0.0
 22
0.0
 32
0.0
 14
0.0
 24
0.0
 34
0.0
 15
0.0
 25
0.0
 35
0.0
146
0.0
 13
0.0
 23
0.0
 33
0.0
 16
1.0
 26
0.0
 36
0.0
 17
0.0
 27
1.0
 37
0.0
 76
0
330
21A
345
0
346
0
  0
ENDSEC
  0
EOF
