  0
SECTION
  2
HEADER
  9
$ACADVER
  1
AC1015
  9
$DWGCODEPAGE
  3
ANSI_1252
  9
$EXTMAX
 10
297.0
 20
210.0
 30
0.0
  9
$EXTMIN
 10
0.0
 20
0.0
 30
0.0
  9
$LIMMIN
 10
0.0
 20
0.0
  9
$LIMMAX
 10
297.0
 20
210.0
  9
$VIEWCTR
 10
148.5
 20
105.0
  9
$VIEWSIZE
 40
210.0
  9
$CLAYER
  8
0
  9
$LTSCALE
 40
16.335
  9
$CELTYPE
  6
BYLAYER
  9
$DIMSCALE
 40
1.0
  9
$DIMASZ
 40
3.0
  9
$DIMEXO
 40
1.85625
  9
$DIMDLI
 40
11.286
  9
$DIMEXE
 40
5.346
  9
$DIMCEN
 40
2.673
  9
$DIMLFAC
 40
1.0
  9
$DIMBLK
  1
_FILLED
  9
$DIMTXT
 40
3.0
  9
$DIMTOL
 70
1
  9
$DIMLIM
 70
0
  9
$DIMTFAC
 40
1.0
  9
$DIMTP
 40
0.01
  9
$DIMTM
 40
0.01
  9
$PDMODE
 70
3
  9
$PDSIZE
 40
3.0
  9
$HANDSEED
  5
472
  9
$TILEMODE
 70
1
  9
$MEASUREMENT
 70
1
  9
$INSUNITS
 70
4
  0
ENDSEC
  0
SECTION
  2
CLASSES
  0
CLASS
  1
ACDBDICTIONARYWDFLT
  2
AcDbDictionaryWithDefault
  3
AutoCAD 2000
 90
0
280
0
281
0
  0
CLASS
  1
ACDBPLACEHOLDER
  2
AcDbPlaceHolder
  3
AutoCAD 2000
 90
0
280
0
281
0
  0
CLASS
  1
LAYOUT
  2
AcDbLayout
  3
AutoCAD 2000
 90
0
280
0
281
0
  0
ENDSEC
  0
SECTION
  2
TABLES
  0
TABLE
  2
VPORT
  5
8
100
AcDbSymbolTable
 70
2
  0
VPORT
  5
1F4
100
AcDbSymbolTableRecord
100
AcDbViewportTableRecord
  2
*ACTIVE
 70
0
 10
0.0
 20
0.0
 11
1.0
 21
1.0
 12
148.5
 22
105.0
 13
0.0
 23
0.0
 14
1.0
 24
1.0
 15
0.0
 25
0.0
 16
0.0
 26
0.0
 36
1.0
 17
0.0
 27
0.0
 37
0.0
 40
210.0
 41
1.4142857143
 42
50.0
 43
0.0
 44
0.0
 50
0.0
 51
0.0
 71
0
 72
100
 73
1
 74
1
 75
0
 76
0
 77
0
 78
0
  0
ENDTAB
  0
TABLE
  2
LTYPE
  5
5
100
AcDbSymbolTable
 70
6
  0
LTYPE
  5
14
100
AcDbSymbolTableRecord
100
AcDbLinetypeTableRecord
  2
BYBLOCK
 70
0
  3

 72
65
 73
0
 40
0.0
  0
LTYPE
  5
15
100
AcDbSymbolTableRecord
100
AcDbLinetypeTableRecord
  2
BYLAYER
 70
0
  3

 72
65
 73
0
 40
0.0
  0
LTYPE
  5
16
100
AcDbSymbolTableRecord
100
AcDbLinetypeTableRecord
  2
CONTINUOUS
 70
64
  3
Solid line
 72
65
 73
0
 40
0.0
  0
LTYPE
  5
1F5
100
AcDbSymbolTableRecord
100
AcDbLinetypeTableRecord
  2
CENTER
 70
64
  3
____ _ ____ _ ____ _ ____ _ ____ _ ____ _ ____
 72
65
 73
4
 40
0.6
 49
0.375
 74
0
 49
-0.075
 74
0
 49
0.075
 74
0
 49
-0.075
 74
0
  0
LTYPE
  5
1F6
100
AcDbSymbolTableRecord
100
AcDbLinetypeTableRecord
  2
HIDDEN
 70
64
  3
- - - - - - - - - - - - - - - - - - - -
 72
65
 73
2
 40
0.2
 49
0.1
 74
0
 49
-0.1
 74
0
  0
LTYPE
  5
1F7
100
AcDbSymbolTableRecord
100
AcDbLinetypeTableRecord
  2
PHANTOM
 70
64
  3
_____ _ _ _____ _ _ _____ _ _ _____
 72
65
 73
6
 40
0.8
 49
0.45
 74
0
 49
-0.05
 74
0
 49
0.1
 74
0
 49
-0.05
 74
0
 49
0.1
 74
0
 49
-0.05
 74
0
  0
LTYPE
  5
1F8
100
AcDbSymbolTableRecord
100
AcDbLinetypeTableRecord
  2
DOT
 70
64
  3
. . . . . . . . . . . . . . . . . . . .
 72
65
 73
2
 40
0.2
 49
0.1
 74
0
 49
-0.1
 74
0
  0
LTYPE
  5
1F9
100
AcDbSymbolTableRecord
100
AcDbLinetypeTableRecord
  2
DASHED
 70
64
  3
- - - - - - - - - - - - - - - - - - - -
 72
65
 73
2
 40
0.2
 49
0.1
 74
0
 49
-0.1
 74
0
  0
ENDTAB
  0
TABLE
  2
LAYER
  5
2
100
AcDbSymbolTable
 70
36
  0
LAYER
  5
10
100
AcDbSymbolTableRecord
100
AcDbLayerTableRecord
  2
0
 70
0
 62
7
  6
CONTINUOUS
370
-3
390
F
  0
LAYER
  5
1FA
100
AcDbSymbolTableRecord
100
AcDbLayerTableRecord
  2
DEFAULT_1
 70
0
 62
7
  6
CENTER
370
-3
390
F
  0
LAYER
  5
1FB
100
AcDbSymbolTableRecord
100
AcDbLayerTableRecord
  2
DEFAULT_2
 70
0
 62
7
  6
HIDDEN
370
-3
390
F
  0
LAYER
  5
1FC
100
AcDbSymbolTableRecord
100
AcDbLayerTableRecord
  2
DEFAULT_3
 70
0
 62
7
  6
PHANTOM
370
-3
390
F
  0
LAYER
  5
1FD
100
AcDbSymbolTableRecord
100
AcDbLayerTableRecord
  2
ASSI
 70
0
 62
7
  6
CONTINUOUS
370
-3
390
F
  0
LAYER
  5
1FE
100
AcDbSymbolTableRecord
100
AcDbLayerTableRecord
  2
COLOR5
 70
0
 62
7
  6
CONTINUOUS
370
-3
390
F
  0
LAYER
  5
1FF
100
AcDbSymbolTableRecord
100
AcDbLayerTableRecord
  2
COORDINATE
 70
0
 62
7
  6
CONTINUOUS
370
-3
390
F
  0
LAYER
  5
200
100
AcDbSymbolTableRecord
100
AcDbLayerTableRecord
  2
COORD_ORIGINE
 70
0
 62
7
  6
CONTINUOUS
370
-3
390
F
  0
LAYER
  5
201
100
AcDbSymbolTableRecord
100
AcDbLayerTableRecord
  2
COPY_PUBLISH
 70
0
 62
7
  6
CONTINUOUS
370
-3
390
F
  0
LAYER
  5
202
100
AcDbSymbolTableRecord
100
AcDbLayerTableRecord
  2
COSMETIC
 70
0
 62
7
  6
CONTINUOUS
370
-3
390
F
  0
LAYER
  5
203
100
AcDbSymbolTableRecord
100
AcDbLayerTableRecord
  2
CURVE
 70
0
 62
7
  6
CONTINUOUS
370
-3
390
F
  0
LAYER
  5
204
100
AcDbSymbolTableRecord
100
AcDbLayerTableRecord
  2
DRAFT
 70
0
 62
7
  6
CONTINUOUS
370
-3
390
F
  0
LAYER
  5
205
100
AcDbSymbolTableRecord
100
AcDbLayerTableRecord
  2
IMPORT_IGES
 70
0
 62
7
  6
CONTINUOUS
370
-3
390
F
  0
LAYER
  5
206
100
AcDbSymbolTableRecord
100
AcDbLayerTableRecord
  2
INTFCLR_1
 70
0
 62
7
  6
CONTINUOUS
370
-3
390
F
  0
LAYER
  5
207
100
AcDbSymbolTableRecord
100
AcDbLayerTableRecord
  2
INTFCLR_3
 70
0
 62
7
  6
CONTINUOUS
370
-3
390
F
  0
LAYER
  5
208
100
AcDbSymbolTableRecord
100
AcDbLayerTableRecord
  2
INTF_1
 70
0
 62
7
  6
CONTINUOUS
370
-3
390
F
  0
LAYER
  5
209
100
AcDbSymbolTableRecord
100
AcDbLayerTableRecord
  2
INTF_15
 70
0
 62
7
  6
CONTINUOUS
370
-3
390
F
  0
LAYER
  5
20A
100
AcDbSymbolTableRecord
100
AcDbLayerTableRecord
  2
INTF_16
 70
0
 62
7
  6
CONTINUOUS
370
-3
390
F
  0
LAYER
  5
20B
100
AcDbSymbolTableRecord
100
AcDbLayerTableRecord
  2
NOTE
 70
0
 62
7
  6
CONTINUOUS
370
-3
390
F
  0
LAYER
  5
20C
100
AcDbSymbolTableRecord
100
AcDbLayerTableRecord
  2
PIANI
 70
0
 62
7
  6
CONTINUOUS
370
-3
390
F
  0
LAYER
  5
20D
100
AcDbSymbolTableRecord
100
AcDbLayerTableRecord
  2
PIANI_DI_RIFERIMENTO
 70
0
 62
7
  6
CONTINUOUS
370
-3
390
F
  0
LAYER
  5
20E
100
AcDbSymbolTableRecord
100
AcDbLayerTableRecord
  2
PIANI_ORIGINE
 70
0
 62
7
  6
CONTINUOUS
370
-3
390
F
  0
LAYER
  5
20F
100
AcDbSymbolTableRecord
100
AcDbLayerTableRecord
  2
PIANI_RIFERIMENTO
 70
0
 62
7
  6
CONTINUOUS
370
-3
390
F
  0
LAYER
  5
210
100
AcDbSymbolTableRecord
100
AcDbLayerTableRecord
  2
PUNTI
 70
0
 62
7
  6
CONTINUOUS
370
-3
390
F
  0
LAYER
  5
211
100
AcDbSymbolTableRecord
100
AcDbLayerTableRecord
  2
RACCORDO
 70
0
 62
7
  6
CONTINUOUS
370
-3
390
F
  0
LAYER
  5
212
100
AcDbSymbolTableRecord
100
AcDbLayerTableRecord
  2
SMUSSO
 70
0
 62
7
  6
CONTINUOUS
370
-3
390
F
  0
LAYER
  5
213
100
AcDbSymbolTableRecord
100
AcDbLayerTableRecord
  2
SNAPLINE
 70
0
 62
7
  6
CONTINUOUS
370
-3
390
F
  0
LAYER
  5
214
100
AcDbSymbolTableRecord
100
AcDbLayerTableRecord
  2
SUPERFICI
 70
0
 62
7
  6
CONTINUOUS
370
-3
390
F
  0
LAYER
  5
215
100
AcDbSymbolTableRecord
100
AcDbLayerTableRecord
  2
SUPERFICI_SKEL
 70
0
 62
7
  6
CONTINUOUS
370
-3
390
F
  0
LAYER
  5
216
100
AcDbSymbolTableRecord
100
AcDbLayerTableRecord
  2
TRASH
 70
0
 62
7
  6
CONTINUOUS
370
-3
390
F
  0
LAYER
  5
217
100
AcDbSymbolTableRecord
100
AcDbLayerTableRecord
  2
XSEC_DATUMS
 70
0
 62
7
  6
CONTINUOUS
370
-3
390
F
  0
ENDTAB
  0
TABLE
  2
STYLE
  5
3
100
AcDbSymbolTable
 70
1
  0
STYLE
  5
11
100
AcDbSymbolTableRecord
100
AcDbTextStyleTableRecord
  2
STANDARD
 70
0
 40
0.0
 41
0.8
 50
0.0
 71
0
 42
0.2
  3
txt
  4

  0
STYLE
  5
218
100
AcDbSymbolTableRecord
100
AcDbTextStyleTableRecord
  2
TEXTSTYLE_1
 70
0
 40
0.0
 41
0.8
 50
0.0
 71
0
 42
0.2
  3
gdt
  4

  0
ENDTAB
  0
TABLE
  2
VIEW
  5
6
100
AcDbSymbolTable
 70
0
  0
ENDTAB
  0
TABLE
  2
UCS
  5
7
100
AcDbSymbolTable
 70
0
  0
ENDTAB
  0
TABLE
  2
APPID
  5
9
100
AcDbSymbolTable
 70
1
  0
APPID
  5
219
100
AcDbSymbolTableRecord
100
AcDbRegAppTableRecord
  2
ACAD
 70
0
  0
ENDTAB
  0
TABLE
  2
BLOCK_RECORD
  5
1
100
AcDbSymbolTable
 70
0
  0
BLOCK_RECORD
  5
21A
100
AcDbSymbolTableRecord
100
AcDbBlockTableRecord
  2
*Model_Space
  0
BLOCK_RECORD
  5
21B
100
AcDbSymbolTableRecord
100
AcDbBlockTableRecord
  2
*Paper_Space
  0
ENDTAB
  0
TABLE
  2
DIMSTYLE
  5
A
100
AcDbSymbolTable
 70
1
100
AcDbDimStyleTable
 71
0
  0
DIMSTYLE
105
21C
100
AcDbSymbolTableRecord
100
AcDbDimStyleTableRecord
  2
STANDARD
 70
0
  3

  4

 40
1.0
 41
3.0
 42
0.0625
 43
0.38
 44
0.18
 45
0.0
 46
0.0
 47
0.01
 48
0.01
140
3.0
141
0.09
142
0.0
143
25.4
144
1.0
145
0.0
146
1.0
147
0.09
 71
1.0
 72
0.0
 73
0
 74
0
 75
0
 76
0
 77
1
 78
8
170
0
171
2
172
0
173
0
174
0
175
0
176
0
177
0
178
0
270
2
271
2
272
2
273
2
274
2
275
0
280
0
281
0
282
0
283
1
284
8
285
0
286
0
287
3
288
0
340
11
  0
ENDTAB
  0
ENDSEC
  0
SECTION
  2
BLOCKS
  0
BLOCK
  5
20
100
AcDbEntity
  8
0
100
AcDbBlockBegin
  2
*Model_Space
 70
0
 10
0.0
 20
0.0
 30
0.0
  3
*Model_Space
  1

  0
ENDBLK
  5
21
100
AcDbEntity
  8
0
100
AcDbBlockEnd
  0
BLOCK
  5
1C
100
AcDbEntity
  8
0
100
AcDbBlockBegin
  2
*Paper_Space
 70
0
 10
0.0
 20
0.0
 30
0.0
  3
*Paper_Space
  1

  0
ENDBLK
  5
1D
100
AcDbEntity
  8
0
100
AcDbBlockEnd
  0
ENDSEC
  0
SECTION
  2
ENTITIES
  0
LWPOLYLINE
  5
21D
100
AcDbEntity
  8
ASSI
100
AcDbPolyline
 62
7
  6
CONTINUOUS
 90
12
 70
0
 10
-8.1820149652
 20
26.5218830614
 10
-8.2005247879
 20
26.5108257215
 10
-8.2217404154
 20
26.4951814704
 10
-8.2415582447
 20
26.477102986
 10
-8.2597245721
 20
26.4567591908
 10
-8.2755793703
 20
26.4349914519
 10
-8.2893922423
 20
26.4115526478
 10
-8.301112501
 20
26.386339662
 10
-8.3101573271
 20
26.3605496896
 10
-8.3165259693
 20
26.3344907773
 10
-8.320320145
 20
26.3074850197
 10
-8.3213232327
 20
26.2847961385
  0
LINE
  5
21E
100
AcDbEntity
  8
ASSI
100
AcDbLine
 62
7
  6
CONTINUOUS
 10
-8.1821561545
 20
26.5218077164
 11
-6.6149556641
 21
27.3673483352
  0
LINE
  5
21F
100
AcDbEntity
  8
ASSI
100
AcDbLine
 62
253
  6
CONTINUOUS
 10
-8.0896595334
 20
26.5177361714
 11
-6.5234087873
 21
27.3627643814
  0
LINE
  5
220
100
AcDbEntity
  8
ASSI
100
AcDbLine
 62
7
  6
CONTINUOUS
 10
-6.6107478272
 20
27.3694542129
 11
-6.6149133307
 21
27.367371175
  0
LINE
  5
221
100
AcDbEntity
  8
ASSI
100
AcDbLine
 62
7
  6
CONTINUOUS
 10
-6.6106899874
 20
27.3694810028
 11
-6.0670066097
 21
27.6205720037
  0
LINE
  5
222
100
AcDbEntity
  8
ASSI
100
AcDbLine
 62
253
  6
CONTINUOUS
 10
-6.5234087873
 20
27.3627643814
 11
-5.9806827246
 21
27.6134132625
  0
LINE
  5
223
100
AcDbEntity
  8
ASSI
100
AcDbLine
 62
7
  6
CONTINUOUS
 10
-6.0436582273
 20
27.6298922526
 11
-6.0667895913
 21
27.6206716805
  0
LWPOLYLINE
  5
224
100
AcDbEntity
  8
ASSI
100
AcDbPolyline
 62
7
  6
CONTINUOUS
 90
19
 70
0
 10
-11.8366633251
 20
22.696423107
 10
-11.8486200239
 20
22.6892345829
 10
-11.9208186462
 20
22.6413777089
 10
-11.9899056944
 20
22.5879688742
 10
-12.0558859288
 20
22.5292902132
 10
-12.1186530696
 20
22.4656765833
 10
-12.1778859365
 20
22.3976423556
 10
-12.2335047139
 20
22.325474209
 10
-12.2853632652
 20
22.2494469754
 10
-12.3330224004
 20
22.1702766791
 10
-12.3763565415
 20
22.0882786509
 10
-12.4151868926
 20
22.0037389128
 10
-12.4491313657
 20
21.9174889638
 10
-12.4780454114
 20
21.8298544076
 10
-12.5017560883
 20
21.7411108229
 10
-12.5199965465
 20
21.6519706328
 10
-12.5325830147
 20
21.5627975575
 10
-12.539361013
 20
21.4737480959
 10
-12.5398148283
 20
21.4618774513
  0
LINE
  5
225
100
AcDbEntity
  8
ASSI
100
AcDbLine
 62
7
  6
CONTINUOUS
 10
-11.8368172991
 20
22.6963452271
 11
-7.606460214
 21
25.2041101774
  0
LINE
  5
226
100
AcDbEntity
  8
ASSI
100
AcDbLine
 62
253
  6
CONTINUOUS
 10
-7.606460214
 20
25.05699486
 11
-11.6003529427
 21
22.6894064983
  0
LINE
  5
227
100
AcDbEntity
  8
ASSI
100
AcDbLine
 62
253
  6
CONTINUOUS
 10
-6.023945492
 20
25.4848791508
 11
-4.4020453654
 21
26.3020826705
  0
LINE
  5
228
100
AcDbEntity
  8
ASSI
100
AcDbLine
 62
253
  6
CONTINUOUS
 10
-5.882545675
 20
25.2410005414
 11
-4.2606455483
 21
26.0582040612
  0
LINE
  5
229
100
AcDbEntity
  8
ASSI
100
AcDbLine
 62
253
  6
CONTINUOUS
 10
-4.4020453654
 20
26.3020826705
 11
-3.8779389042
 21
26.562043339
  0
LINE
  5
22A
100
AcDbEntity
  8
ASSI
100
AcDbLine
 62
253
  6
CONTINUOUS
 10
-4.2606455483
 20
26.0582040612
 11
-3.7365410818
 21
26.3181637403
  0
LWPOLYLINE
  5
22B
100
AcDbEntity
  8
ASSI
100
AcDbPolyline
 62
7
  6
CONTINUOUS
 90
12
 70
0
 10
-2.4655677867
 20
24.6291919231
 10
-2.473726651
 20
24.6245621657
 10
-2.4929122839
 20
24.6117059577
 10
-2.5106999761
 20
24.5968493581
 10
-2.5268505399
 20
24.5801800302
 10
-2.5413009016
 20
24.5617249582
 10
-2.5538434464
 20
24.5416744619
 10
-2.5642806356
 20
24.5202886772
 10
-2.5725478784
 20
24.4976199456
 10
-2.5785191081
 20
24.473799594
 10
-2.5820541365
 20
24.4491377881
 10
-2.5830877419
 20
24.4264454133
  0
LINE
  5
22C
100
AcDbEntity
  8
ASSI
100
AcDbLine
 62
7
  6
CONTINUOUS
 10
-6.2405445356
 20
24.2739390336
 11
-6.7832705983
 21
23.9776489234
  0
LINE
  5
22D
100
AcDbEntity
  8
ASSI
100
AcDbLine
 62
7
  6
CONTINUOUS
 10
-5.163096299
 20
23.9200550231
 11
-4.2606455483
 21
24.412729414
  0
LINE
  5
22E
100
AcDbEntity
  8
ASSI
100
AcDbLine
 62
7
  6
CONTINUOUS
 10
-2.2537694162
 20
24.7434620913
 11
-2.4655817797
 21
24.6291844618
  0
LINE
  5
22F
100
AcDbEntity
  8
ASSI
100
AcDbLine
 62
253
  6
CONTINUOUS
 10
-2.1393521287
 20
24.7377233503
 11
-2.350206446
 21
24.6239626087
  0
LINE
  5
230
100
AcDbEntity
  8
ASSI
100
AcDbLine
 62
7
  6
CONTINUOUS
 10
-2.2537757087
 20
24.7434587154
 11
-2.2485615054
 21
24.7460692966
  0
LINE
  5
231
100
AcDbEntity
  8
ASSI
100
AcDbLine
 62
253
  6
CONTINUOUS
 10
-1.1139934481
 20
24.9170342615
 11
2.0965539463
 21
26.5094894376
  0
LINE
  5
232
100
AcDbEntity
  8
ASSI
100
AcDbLine
 62
253
  6
CONTINUOUS
 10
-0.7199025385
 20
24.7199888067
 11
2.2733748468
 21
26.2046764565
  0
LINE
  5
233
100
AcDbEntity
  8
ASSI
100
AcDbLine
 62
7
  6
CONTINUOUS
 10
2.7511872664
 20
27.8387924171
 11
-3.5925098332
 21
24.770651808
  0
LINE
  5
234
100
AcDbEntity
  8
ASSI
100
AcDbLine
 62
7
  6
CONTINUOUS
 10
1.7968115434
 20
26.614356639
 11
-2.2485032342
 21
24.7460962177
  0
LINE
  5
235
100
AcDbEntity
  8
ASSI
100
AcDbLine
 62
253
  6
CONTINUOUS
 10
1.904716398
 20
26.6054082117
 11
-2.1393521287
 21
24.7377233503
  0
LINE
  5
236
100
AcDbEntity
  8
ASSI
100
AcDbLine
 62
7
  6
CONTINUOUS
 10
1.8334792813
 20
26.629134329
 11
1.7967112542
 21
26.6142989432
  0
LINE
  5
237
100
AcDbEntity
  8
ASSI
100
AcDbLine
 62
253
  6
CONTINUOUS
 10
-0.1302579574
 20
23.5139883644
 11
0.0880880799
 21
23.624003246
  0
LINE
  5
238
100
AcDbEntity
  8
ASSI
100
AcDbLine
 62
253
  6
CONTINUOUS
 10
0.0464918139
 20
23.2091401028
 11
0.2648378513
 21
23.3191549843
  0
LINE
  5
239
100
AcDbEntity
  8
ASSI
100
AcDbLine
 62
7
  6
CONTINUOUS
 10
4.7867016903
 20
25.3849963748
 11
0.9596020377
 21
23.4790187929
  0
LINE
  5
23A
100
AcDbEntity
  8
ASSI
100
AcDbLine
 62
7
  6
CONTINUOUS
 10
0.453951494
 20
24.1330617905
 11
2.2733037176
 21
25.0354739058
  0
LINE
  5
23B
100
AcDbEntity
  8
ASSI
100
AcDbLine
 62
253
  6
CONTINUOUS
 10
0.0880880799
 20
23.624003246
 11
0.7828522663
 21
23.9686114043
  0
LINE
  5
23C
100
AcDbEntity
  8
ASSI
100
AcDbLine
 62
253
  6
CONTINUOUS
 10
0.2648378513
 20
23.3191549843
 11
0.9596020377
 21
23.6637631426
  0
LINE
  5
23D
100
AcDbEntity
  8
ASSI
100
AcDbLine
 62
253
  6
CONTINUOUS
 10
0.6077513841
 20
24.0561618454
 11
5.5248544754
 21
26.4519588126
  0
LINE
  5
23E
100
AcDbEntity
  8
ASSI
100
AcDbLine
 62
253
  6
CONTINUOUS
 10
0.9209349625
 20
23.8177496277
 11
5.7000819089
 21
26.1463291893
  0
LINE
  5
23F
100
AcDbEntity
  8
ASSI
100
AcDbLine
 62
7
  6
CONTINUOUS
 10
2.1832580574
 20
23.2222070876
 11
1.463807367
 21
22.889940917
  0
LINE
  5
240
100
AcDbEntity
  8
ASSI
100
AcDbLine
 62
253
  6
CONTINUOUS
 10
2.2924078485
 20
23.2138336132
 11
1.5729584725
 21
22.8815680497
  0
LWPOLYLINE
  5
241
100
AcDbEntity
  8
ASSI
100
AcDbPolyline
 62
7
  6
CONTINUOUS
 90
6
 70
0
 10
-3.7081159609
 20
25.8498314965
 10
-3.6986419724
 20
25.8622596282
 10
-3.6850290562
 20
25.8831141627
 10
-3.6731757232
 20
25.9053808009
 10
-3.6632326253
 20
25.9289417732
 10
-3.6555789142
 20
25.9529187515
  0
LINE
  5
242
100
AcDbEntity
  8
ASSI
100
AcDbLine
 62
253
  6
CONTINUOUS
 10
-3.7197782424
 20
25.9061046844
 11
-4.2606455483
 21
25.2368171983
  0
LINE
  5
243
100
AcDbEntity
  8
ASSI
100
AcDbLine
 62
7
  6
CONTINUOUS
 10
-3.7080907992
 20
25.8498624608
 11
-4.2606455483
 21
25.1661125374
  0
LWPOLYLINE
  5
244
100
AcDbEntity
  8
ASSI
100
AcDbPolyline
 62
7
  6
CONTINUOUS
 90
12
 70
0
 10
1.2467428146
 20
22.7730366225
 10
1.2385839502
 20
22.7684068651
 10
1.2193983173
 20
22.7555506571
 10
1.2016106252
 20
22.7406940575
 10
1.1854600614
 20
22.7240247296
 10
1.1710096996
 20
22.7055696576
 10
1.1584671548
 20
22.6855191613
 10
1.1480299656
 20
22.6641333766
 10
1.1397627229
 20
22.641464645
 10
1.1337914932
 20
22.6176442934
 10
1.1302564648
 20
22.5929824875
 10
1.1292228594
 20
22.5702901127
  0
LINE
  5
245
100
AcDbEntity
  8
ASSI
100
AcDbLine
 62
7
  6
CONTINUOUS
 10
0.0464918139
 20
22.0307861945
 11
0.2648378513
 21
22.1499877142
  0
LINE
  5
246
100
AcDbEntity
  8
ASSI
100
AcDbLine
 62
7
  6
CONTINUOUS
 10
1.458541185
 20
22.8873067907
 11
1.2467288215
 21
22.7730291612
  0
LINE
  5
247
100
AcDbEntity
  8
ASSI
100
AcDbLine
 62
253
  6
CONTINUOUS
 10
1.5729584725
 20
22.8815680497
 11
1.3621041552
 21
22.7678073081
  0
LINE
  5
248
100
AcDbEntity
  8
ASSI
100
AcDbLine
 62
7
  6
CONTINUOUS
 10
0.2648378513
 20
22.1499877142
 11
0.9596020377
 21
22.5082009012
  0
LINE
  5
249
100
AcDbEntity
  8
ASSI
100
AcDbLine
 62
253
  6
CONTINUOUS
 10
3.5820526438
 20
21.6578330638
 11
3.8003986812
 21
21.7678479453
  0
LINE
  5
24A
100
AcDbEntity
  8
ASSI
100
AcDbLine
 62
7
  6
CONTINUOUS
 10
1.4585348925
 20
22.8873034148
 11
1.4637490959
 21
22.889913996
  0
LINE
  5
24B
100
AcDbEntity
  8
ASSI
100
AcDbLine
 62
253
  6
CONTINUOUS
 10
3.8003986812
 20
21.7678479453
 11
7.7057102619
 21
23.7049112797
  0
LINE
  5
24C
100
AcDbEntity
  8
ASSI
100
AcDbLine
 62
7
  6
CONTINUOUS
 10
7.405967859
 20
23.8097784812
 11
4.1281385289
 21
22.295968273
  0
LINE
  5
24D
100
AcDbEntity
  8
ASSI
100
AcDbLine
 62
253
  6
CONTINUOUS
 10
7.5138727136
 20
23.8008300539
 11
4.1892535629
 21
22.265410756
  0
LINE
  5
24E
100
AcDbEntity
  8
ASSI
100
AcDbLine
 62
7
  6
CONTINUOUS
 10
7.4426355969
 20
23.8245561712
 11
7.4058675699
 21
23.8097207854
  0
LINE
  5
24F
100
AcDbEntity
  8
ASSI
100
AcDbLine
 62
253
  6
CONTINUOUS
 10
8.8667224627
 20
-21.6117498075
 11
8.3258551568
 21
-21.5025468124
  0
LINE
  5
250
100
AcDbEntity
  8
ASSI
100
AcDbLine
 62
253
  6
CONTINUOUS
 10
8.7936160355
 20
-21.3569388992
 11
8.3258551568
 21
-21.2624963466
  0
LWPOLYLINE
  5
251
100
AcDbEntity
  8
ASSI
100
AcDbPolyline
 62
7
  6
CONTINUOUS
 90
12
 70
0
 10
2.657168248
 20
-22.8462745596
 10
2.6673598667
 20
-22.8506943025
 10
2.7330984625
 20
-22.8752180459
 10
2.8019918516
 20
-22.8940612428
 10
2.8735192336
 20
-22.9068266284
 10
2.9470079382
 20
-22.9131905841
 10
3.0220209634
 20
-22.9129579785
 10
3.0980458842
 20
-22.906008896
 10
3.1744044399
 20
-22.8923200045
 10
3.2506709357
 20
-22.8719111103
 10
3.326542879
 20
-22.8448356836
 10
3.3343495229
 20
-22.8416597184
  0
LWPOLYLINE
  5
252
100
AcDbEntity
  8
ASSI
100
AcDbPolyline
 62
7
  6
CONTINUOUS
 90
10
 70
0
 10
6.4531782252
 20
-23.1807199506
 10
6.4656367546
 20
-23.1864907368
 10
6.486971586
 20
-23.1942976361
 10
6.5091506446
 20
-23.1998921018
 10
6.5319377286
 20
-23.2031769756
 10
6.5551706445
 20
-23.2040851283
 10
6.5786000379
 20
-23.2025547932
 10
6.601890476
 20
-23.1985787397
 10
6.624813037
 20
-23.1921804179
 10
6.6486477037
 20
-23.1827246908
  0
LINE
  5
253
100
AcDbEntity
  8
ASSI
100
AcDbLine
 62
7
  6
CONTINUOUS
 10
6.4534579841
 20
-23.1808610219
 11
4.6725676775
 21
-22.2904158686
  0
LINE
  5
254
100
AcDbEntity
  8
ASSI
100
AcDbLine
 62
253
  6
CONTINUOUS
 10
6.3882573372
 20
-23.0455288965
 11
4.7852203485
 21
-22.2440104022
  0
LWPOLYLINE
  5
255
100
AcDbEntity
  8
ASSI
100
AcDbPolyline
 62
7
  6
CONTINUOUS
 90
10
 70
0
 10
-12.1218354008
 20
-15.4565798267
 10
-10.6423851036
 20
-16.285141064
 10
-9.0568847822
 20
-17.14863669
 10
-7.4456289372
 20
-18.0014481688
 10
-5.8089797164
 20
-18.8433834975
 10
-4.147301322
 20
-19.6742563929
 10
-2.4609697068
 20
-20.4938890607
 10
-0.750379066
 20
-21.3021079882
 10
0.9840659379
 20
-22.0987412828
 10
2.6580102529
 20
-22.8466468758
  0
LINE
  5
256
100
AcDbEntity
  8
ASSI
100
AcDbLine
 62
7
  6
CONTINUOUS
 10
-12.1214850018
 20
-15.4567785566
 11
-12.121838962
 21
-15.4565778049
  0
LINE
  5
257
100
AcDbEntity
  8
ASSI
100
AcDbLine
 62
7
  6
CONTINUOUS
 10
3.9771484525
 20
20.2938324136
 11
3.7588024151
 21
20.1746308939
  0
LINE
  5
258
100
AcDbEntity
  8
ASSI
100
AcDbLine
 62
7
  6
CONTINUOUS
 10
5.971545041
 20
21.0740979826
 11
4.4043445507
 21
20.2285573639
  0
LINE
  5
259
100
AcDbEntity
  8
ASSI
100
AcDbLine
 62
253
  6
CONTINUOUS
 10
6.0630919179
 20
21.0695140289
 11
4.4968411717
 21
20.2244858189
  0
LINE
  5
25A
100
AcDbEntity
  8
ASSI
100
AcDbLine
 62
253
  6
CONTINUOUS
 10
3.7588024151
 20
21.3529848022
 11
3.9771484525
 21
21.4629996837
  0
LINE
  5
25B
100
AcDbEntity
  8
ASSI
100
AcDbLine
 62
7
  6
CONTINUOUS
 10
5.9715884754
 20
21.0741213729
 11
5.975754912
 21
21.0762048774
  0
LINE
  5
25C
100
AcDbEntity
  8
ASSI
100
AcDbLine
 62
253
  6
CONTINUOUS
 10
3.9771484525
 20
21.4629996837
 11
7.8825311624
 21
23.4000982987
  0
LINE
  5
25D
100
AcDbEntity
  8
ASSI
100
AcDbLine
 62
7
  6
CONTINUOUS
 10
3.9771484525
 20
20.2938324136
 11
7.8824600333
 21
22.230895748
  0
LINE
  5
25E
100
AcDbEntity
  8
ASSI
100
AcDbLine
 62
7
  6
CONTINUOUS
 10
10.193554836
 20
24.0711078922
 11
7.9907023351
 21
23.0354244987
  0
LINE
  5
25F
100
AcDbEntity
  8
ASSI
100
AcDbLine
 62
253
  6
CONTINUOUS
 10
10.3030091307
 20
24.062881485
 11
7.9907023351
 21
22.975737544
  0
LINE
  5
260
100
AcDbEntity
  8
ASSI
100
AcDbLine
 62
7
  6
CONTINUOUS
 10
6.5194940955
 20
21.3273216512
 11
5.9758107177
 21
21.0762306503
  0
LINE
  5
261
100
AcDbEntity
  8
ASSI
100
AcDbLine
 62
253
  6
CONTINUOUS
 10
6.6058179806
 20
21.32016291
 11
6.0630919179
 21
21.0695140289
  0
LINE
  5
262
100
AcDbEntity
  8
RACCORDO
100
AcDbLine
 62
253
  6
CONTINUOUS
 10
9.4050315713
 20
-14.3336192056
 11
13.1843702981
 21
-13.2947039321
  0
LINE
  5
263
100
AcDbEntity
  8
RACCORDO
100
AcDbLine
 62
7
  6
CONTINUOUS
 10
9.4050315713
 20
-14.2866464618
 11
13.0676206917
 21
-13.2798248846
  0
LINE
  5
264
100
AcDbEntity
  8
ASSI
100
AcDbLine
 62
253
  6
CONTINUOUS
 10
6.3882573372
 20
-22.7282586673
 11
5.4527888189
 21
-22.260525837
  0
LINE
  5
265
100
AcDbEntity
  8
ASSI
100
AcDbLine
 62
253
  6
CONTINUOUS
 10
5.2592245328
 20
-22.163743694
 11
5.1331282442
 21
-22.1006953081
  0
LINE
  5
266
100
AcDbEntity
  8
ASSI
100
AcDbLine
 62
253
  6
CONTINUOUS
 10
6.4769542497
 20
-22.4967202048
 11
5.6942702754
 21
-22.1053782176
  0
LINE
  5
267
100
AcDbEntity
  8
ASSI
100
AcDbLine
 62
7
  6
CONTINUOUS
 10
6.5938770779
 20
-21.4989631853
 11
7.0729631182
 21
-21.7385062055
  0
LINE
  5
268
100
AcDbEntity
  8
ASSI
100
AcDbLine
 62
7
  6
CONTINUOUS
 10
-12.539810008
 20
21.4620237051
 11
-12.5398148283
 21
21.4618774513
  0
LWPOLYLINE
  5
269
100
AcDbEntity
  8
ASSI
100
AcDbPolyline
 62
7
  6
CONTINUOUS
 90
12
 70
0
 10
4.4044381108
 20
20.228607558
 10
4.3931180878
 20
20.2221069078
 10
4.3708332876
 20
20.2067659807
 10
4.3499427046
 20
20.1887751004
 10
4.3307569965
 20
20.1683328104
 10
4.3139869574
 20
20.1463110642
 10
4.2993271111
 20
20.1224359665
 10
4.2868523787
 20
20.0966240064
 10
4.2772133461
 20
20.0701752942
 10
4.2704043159
 20
20.0434197726
 10
4.2663059118
 20
20.015609776
 10
4.2651774446
 20
19.991543866
  0
LINE
  5
26A
100
AcDbEntity
  8
ASSI
100
AcDbLine
 62
253
  6
CONTINUOUS
 10
8.1844553397
 20
20.0088323179
 11
6.5625552131
 21
19.1916287982
  0
LINE
  5
26B
100
AcDbEntity
  8
ASSI
100
AcDbLine
 62
253
  6
CONTINUOUS
 10
8.3258551568
 20
19.7649537086
 11
6.7039550302
 21
18.9477501889
  0
LINE
  5
26C
100
AcDbEntity
  8
ASSI
100
AcDbLine
 62
253
  6
CONTINUOUS
 10
8.7085598063
 20
20.2687919971
 11
8.1844553397
 21
20.0088323179
  0
LINE
  5
26D
100
AcDbEntity
  8
ASSI
100
AcDbLine
 62
253
  6
CONTINUOUS
 10
8.8499596234
 20
20.0249133878
 11
8.3258551568
 21
19.7649537086
  0
LINE
  5
26E
100
AcDbEntity
  8
ASSI
100
AcDbLine
 62
7
  6
CONTINUOUS
 10
13.0766763396
 20
22.6760478805
 11
8.4226475756
 21
20.4716980549
  0
LINE
  5
26F
100
AcDbEntity
  8
ASSI
100
AcDbLine
 62
253
  6
CONTINUOUS
 10
8.3258551568
 20
-21.1230673099
 11
8.7936160355
 21
-21.3569388992
  0
LINE
  5
270
100
AcDbEntity
  8
ASSI
100
AcDbLine
 62
7
  6
CONTINUOUS
 10
8.8168914418
 20
-21.3649716127
 11
8.3258551568
 21
-21.1194534699
  0
LWPOLYLINE
  5
271
100
AcDbEntity
  8
ASSI
100
AcDbPolyline
 62
7
  6
CONTINUOUS
 90
14
 70
0
 10
-12.5397861254
 20
-14.6956488457
 10
-12.5389047503
 20
-14.7159251967
 10
-12.5310303405
 20
-14.8037952484
 10
-12.5167711087
 20
-14.8883506937
 10
-12.4962353932
 20
-14.9693661717
 10
-12.4695669336
 20
-15.0465900907
 10
-12.4369870917
 20
-15.1195622993
 10
-12.3987519139
 20
-15.1879050093
 10
-12.3551405387
 20
-15.2513331609
 10
-12.3066060567
 20
-15.3093776038
 10
-12.2536285081
 20
-15.3616740654
 10
-12.1967354943
 20
-15.4079581309
 10
-12.1366609607
 20
-15.4479315643
 10
-12.1214217461
 20
-15.4568103301
  0
LWPOLYLINE
  5
272
100
AcDbEntity
  8
ASSI
100
AcDbPolyline
 62
7
  6
CONTINUOUS
 90
13
 70
0
 10
-12.5398176991
 20
21.4620239614
 10
-12.6329031049
 20
18.4542111243
 10
-12.710879697
 20
15.3895618834
 10
-12.7715379048
 20
12.333391272
 10
-12.8148658775
 20
9.2858802033
 10
-12.8408583932
 20
6.2471862028
 10
-12.8495117643
 20
3.2174578583
 10
-12.840823429
 20
0.1968497731
 10
-12.8147956767
 20
-2.8144861297
 10
-12.7714318606
 20
-5.8164051595
 10
-12.7107369461
 20
-8.8087550261
 10
-12.6327225373
 20
-11.7913668976
 10
-12.5397965284
 20
-14.6955828342
  0
LINE
  5
273
100
AcDbEntity
  8
ASSI
100
AcDbLine
 62
7
  6
CONTINUOUS
 10
6.3459561695
 20
17.980688681
 11
5.8032301068
 21
17.6843985708
  0
LINE
  5
274
100
AcDbEntity
  8
ASSI
100
AcDbLine
 62
253
  6
CONTINUOUS
 10
3.12562287
 20
15.3264186228
 11
7.3627723174
 21
17.601897355
  0
LINE
  5
275
100
AcDbEntity
  8
ASSI
100
AcDbLine
 62
253
  6
CONTINUOUS
 10
8.6794085474
 20
17.5096894606
 11
3.4883036997
 21
14.7219075275
  0
LINE
  5
276
100
AcDbEntity
  8
ASSI
100
AcDbLine
 62
7
  6
CONTINUOUS
 10
14.3065602715
 20
21.6838398835
 11
8.6070883755
 21
18.6708527037
  0
LINE
  5
277
100
AcDbEntity
  8
ASSI
100
AcDbLine
 62
7
  6
CONTINUOUS
 10
14.2878004345
 20
22.0801547044
 11
8.4413814045
 21
19.0158182687
  0
LINE
  5
278
100
AcDbEntity
  8
ASSI
100
AcDbLine
 62
253
  6
CONTINUOUS
 10
9.0206731911
 20
18.4640602958
 11
8.3258578185
 21
18.1194802907
  0
LINE
  5
279
100
AcDbEntity
  8
ASSI
100
AcDbLine
 62
253
  6
CONTINUOUS
 10
9.3741727338
 20
17.8543637725
 11
8.6794085474
 21
17.5097556142
  0
LWPOLYLINE
  5
27A
100
AcDbEntity
  8
ASSI
100
AcDbPolyline
 62
7
  6
CONTINUOUS
 90
3
 70
0
 10
-3.6555789142
 20
25.9529187515
 10
-3.650214624
 20
25.9770758042
 10
-3.6470714278
 20
26.0019058888
  0
LINE
  5
27B
100
AcDbEntity
  8
RACCORDO
100
AcDbLine
 62
253
  6
CONTINUOUS
 10
13.3848403999
 20
20.9707151765
 11
9.3485283141
 21
18.0279605589
  0
LINE
  5
27C
100
AcDbEntity
  8
RACCORDO
100
AcDbLine
 62
7
  6
CONTINUOUS
 10
13.3476016351
 20
20.8334381682
 11
9.3687360278
 21
17.9325660626
  0
LWPOLYLINE
  5
27D
100
AcDbEntity
  8
RACCORDO
100
AcDbPolyline
 62
7
  6
CONTINUOUS
 90
7
 70
0
 10
13.2731992082
 20
-13.2775381058
 10
13.2380091197
 20
-13.2700896352
 10
13.2018555069
 20
-13.2659447722
 10
13.1650203605
 20
-13.2652066777
 10
13.1278605695
 20
-13.2679433749
 10
13.0907244731
 20
-13.2741723739
 10
13.0677326892
 20
-13.2798050481
  0
LWPOLYLINE
  5
27E
100
AcDbEntity
  8
ASSI
100
AcDbPolyline
 62
7
  6
CONTINUOUS
 90
9
 70
0
 10
-8.3213237264
 20
25.9674874262
 10
-8.3211901068
 20
25.9593606815
 10
-8.3190073338
 20
25.9335928622
 10
-8.3141597023
 20
25.9084154139
 10
-8.3066969518
 20
25.8841465205
 10
-8.2967926292
 20
25.8611798577
 10
-8.2845818474
 20
25.8396654793
 10
-8.2701647422
 20
25.8197310822
 10
-8.2537824011
 20
25.8016767344
  0
LINE
  5
27F
100
AcDbEntity
  8
ASSI
100
AcDbLine
 62
7
  6
CONTINUOUS
 10
-8.3213232877
 20
25.9674874265
 11
-8.3213233344
 21
26.2848245355
  0
LINE
  5
280
100
AcDbEntity
  8
ASSI
100
AcDbLine
 62
253
  6
CONTINUOUS
 10
-8.2627446906
 20
25.8968624077
 11
-8.2627446906
 21
26.2141138575
  0
LINE
  5
281
100
AcDbEntity
  8
ASSI
100
AcDbLine
 62
7
  6
CONTINUOUS
 10
-7.606460214
 20
25.012023865
 11
-7.606460214
 21
25.4659710169
  0
LINE
  5
282
100
AcDbEntity
  8
ASSI
100
AcDbLine
 62
253
  6
CONTINUOUS
 10
-7.5332369093
 20
24.9202852204
 11
-7.5332369093
 21
25.4293593646
  0
LINE
  5
283
100
AcDbEntity
  8
ASSI
100
AcDbLine
 62
7
  6
CONTINUOUS
 10
-7.400499477
 20
24.1566201481
 11
-7.400499477
 21
25.3669142318
  0
LINE
  5
284
100
AcDbEntity
  8
ASSI
100
AcDbLine
 62
253
  6
CONTINUOUS
 10
-7.3272761723
 20
24.0648116025
 11
-7.3272761723
 21
25.429110798
  0
LINE
  5
285
100
AcDbEntity
  8
ASSI
100
AcDbLine
 62
253
  6
CONTINUOUS
 10
-7.1337118862
 20
23.9680294595
 11
-7.1337118862
 21
25.3323286549
  0
LINE
  5
286
100
AcDbEntity
  8
ASSI
100
AcDbLine
 62
253
  6
CONTINUOUS
 10
-6.7832705983
 20
23.9776489234
 11
-6.7832705983
 21
25.0543762091
  0
LWPOLYLINE
  5
287
100
AcDbEntity
  8
RACCORDO
100
AcDbPolyline
 62
7
  6
CONTINUOUS
 90
3
 70
0
 10
13.3475550249
 20
20.8334168971
 10
13.3813451788
 20
20.8602797965
 10
13.4113319764
 20
20.8882683756
  0
LINE
  5
288
100
AcDbEntity
  8
RACCORDO
100
AcDbLine
 62
7
  6
CONTINUOUS
 10
13.3071308901
 20
-13.2881447286
 11
13.2731992082
 21
-13.2775381058
  0
LINE
  5
289
100
AcDbEntity
  8
RACCORDO
100
AcDbLine
 62
7
  6
CONTINUOUS
 10
13.3395200202
 20
-13.3017076757
 11
13.3071308901
 21
-13.2881447286
  0
LINE
  5
28A
100
AcDbEntity
  8
RACCORDO
100
AcDbLine
 62
7
  6
CONTINUOUS
 10
13.5864481999
 20
-14.3071197429
 11
14.3065602715
 21
-14.6671757787
  0
LWPOLYLINE
  5
28B
100
AcDbEntity
  8
ASSI
100
AcDbPolyline
 62
7
  6
CONTINUOUS
 90
5
 70
0
 10
8.890585101
 20
-21.4248612601
 10
8.874072155
 20
-21.4062945269
 10
8.855757142
 20
-21.3898599028
 10
8.8357790649
 20
-21.3756223698
 10
8.8166278273
 20
-21.3648408933
  0
LINE
  5
28C
100
AcDbEntity
  8
ASSI
100
AcDbLine
 62
7
  6
CONTINUOUS
 10
-6.2405445356
 20
24.7830131777
 11
-6.2405445356
 21
24.2739390336
  0
LINE
  5
28D
100
AcDbEntity
  8
ASSI
100
AcDbLine
 62
253
  6
CONTINUOUS
 10
-6.1982433679
 20
24.8645943958
 11
-6.1982433679
 21
25.1818656958
  0
LINE
  5
28E
100
AcDbEntity
  8
ASSI
100
AcDbLine
 62
253
  6
CONTINUOUS
 10
-5.9178903376
 20
24.8633710939
 11
-5.9178903376
 21
25.1806398942
  0
LINE
  5
28F
100
AcDbEntity
  8
ASSI
100
AcDbLine
 62
253
  6
CONTINUOUS
 10
-5.5135375869
 20
23.9104355592
 11
-5.5135375869
 21
24.5906068475
  0
LINE
  5
290
100
AcDbEntity
  8
ASSI
100
AcDbLine
 62
253
  6
CONTINUOUS
 10
-5.163096299
 20
24.6782554692
 11
-5.163096299
 21
23.9200550231
  0
LINE
  5
291
100
AcDbEntity
  8
ASSI
100
AcDbLine
 62
7
  6
CONTINUOUS
 10
-4.2606455483
 20
24.412729414
 11
-4.2606455483
 21
26.0582040612
  0
LINE
  5
292
100
AcDbEntity
  8
ASSI
100
AcDbLine
 62
7
  6
CONTINUOUS
 10
-3.6470714278
 20
26.0019058888
 11
-3.6462771121
 21
26.0220811234
  0
LWPOLYLINE
  5
293
100
AcDbEntity
  8
ASSI
100
AcDbPolyline
 62
7
  6
CONTINUOUS
 90
6
 70
0
 10
8.8783833524
 20
19.5565787199
 10
8.8862680085
 20
19.5668190492
 10
8.9002405374
 20
19.5878010206
 10
8.9124192808
 20
19.610256897
 10
8.9226554347
 20
19.6340655591
 10
8.9305495083
 20
19.658301379
  0
LINE
  5
294
100
AcDbEntity
  8
ASSI
100
AcDbLine
 62
253
  6
CONTINUOUS
 10
8.3258551568
 20
18.9435668457
 11
8.8667224627
 21
19.6128543319
  0
LINE
  5
295
100
AcDbEntity
  8
ASSI
100
AcDbLine
 62
7
  6
CONTINUOUS
 10
8.3258551607
 20
18.8728621897
 11
8.8784099573
 21
19.5566121719
  0
LWPOLYLINE
  5
296
100
AcDbEntity
  8
RACCORDO
100
AcDbPolyline
 62
7
  6
CONTINUOUS
 90
11
 70
0
 10
13.4113319764
 20
20.8882683756
 10
13.4395050112
 20
20.9187650003
 10
13.4655576014
 20
20.9513542327
 10
13.4895267918
 20
20.9860411845
 10
13.5113400965
 20
21.0227472228
 10
13.5306054007
 20
21.0608566823
 10
13.54729269
 20
21.10034109
 10
13.5613131948
 20
21.1411574102
 10
13.5723467441
 20
21.1826364517
 10
13.5802931498
 20
21.2245669294
 10
13.5850583655
 20
21.2671419573
  0
LINE
  5
297
100
AcDbEntity
  8
0
100
AcDbLine
 62
7
  6
CONTINUOUS
 10
14.0060229442
 20
15.5958187621
 11
13.9749862565
 21
15.5757444945
  0
LINE
  5
298
100
AcDbEntity
  8
DRAFT
100
AcDbLine
 62
7
  6
CONTINUOUS
 10
9.4050315713
 20
12.1815014938
 11
12.9462561587
 21
14.0509477401
  0
LINE
  5
299
100
AcDbEntity
  8
RACCORDO
100
AcDbLine
 62
7
  6
CONTINUOUS
 10
-6.47506703
 20
3.5777579981
 11
-6.4724947864
 21
3.578972084
  0
LWPOLYLINE
  5
29A
100
AcDbEntity
  8
RACCORDO
100
AcDbPolyline
 62
7
  6
CONTINUOUS
 90
8
 70
0
 10
-6.4750621394
 20
3.5777601422
 10
-6.4404970892
 20
3.5936600794
 10
-6.3640204351
 20
3.6257865696
 10
-6.2863963025
 20
3.6542674007
 10
-6.2076178612
 20
3.6791110448
 10
-6.1277445963
 20
3.7002901161
 10
-6.0469079704
 20
3.7177602546
 10
-6.0055257321
 20
3.725201345
  0
LINE
  5
29B
100
AcDbEntity
  8
RACCORDO
100
AcDbLine
 62
7
  6
CONTINUOUS
 10
13.3467983469
 20
-13.3052582347
 11
13.3395200202
 21
-13.3017076757
  0
LINE
  5
29C
100
AcDbEntity
  8
ASSI
100
AcDbLine
 62
7
  6
CONTINUOUS
 10
12.2329378618
 20
-12.8509417105
 11
9.4050315713
 21
-11.4369885652
  0
LINE
  5
29D
100
AcDbEntity
  8
RACCORDO
100
AcDbLine
 62
253
  6
CONTINUOUS
 10
13.1843702981
 20
-13.2947039321
 11
13.2080965617
 21
-13.3065670639
  0
LINE
  5
29E
100
AcDbEntity
  8
RACCORDO
100
AcDbLine
 62
7
  6
CONTINUOUS
 10
13.3464848687
 20
-13.3050877093
 11
13.3690912645
 21
-13.3163909072
  0
LWPOLYLINE
  5
29F
100
AcDbEntity
  8
ASSI
100
AcDbPolyline
 62
7
  6
CONTINUOUS
 90
13
 70
0
 10
-3.6462772331
 20
26.3620414383
 10
-3.6463428882
 20
26.3677777928
 10
-3.6481951724
 20
26.3929503916
 10
-3.652606834
 20
26.4176850327
 10
-3.6595301462
 20
26.4416006907
 10
-3.66880869
 20
26.4642926729
 10
-3.6803452835
 20
26.4856523403
 10
-3.6940687351
 20
26.5055801754
 10
-3.7097779927
 20
26.523794745
 10
-3.7272480419
 20
26.5400803168
 10
-3.7463686873
 20
26.554358424
 10
-3.7668660414
 20
26.5664301247
 10
-3.7696445262
 20
26.5678434256
  0
LINE
  5
2A0
100
AcDbEntity
  8
ASSI
100
AcDbLine
 62
253
  6
CONTINUOUS
 10
-3.7024091378
 20
26.2925413965
 11
-3.7024091378
 21
25.9525978016
  0
LINE
  5
2A1
100
AcDbEntity
  8
ASSI
100
AcDbLine
 62
7
  6
CONTINUOUS
 10
-3.6462771096
 20
26.3620414384
 11
-3.6462770979
 21
26.0220636387
  0
LINE
  5
2A2
100
AcDbEntity
  8
ASSI
100
AcDbLine
 62
7
  6
CONTINUOUS
 10
-2.5830882573
 20
24.4263982814
 11
-2.5830882573
 21
23.2417937756
  0
LINE
  5
2A3
100
AcDbEntity
  8
ASSI
100
AcDbLine
 62
253
  6
CONTINUOUS
 10
-2.5245096135
 20
24.3556876033
 11
-2.5245096135
 21
23.1684148219
  0
LINE
  5
2A4
100
AcDbEntity
  8
RACCORDO
100
AcDbLine
 62
7
  6
CONTINUOUS
 10
-2.1197831388
 20
-2.1903305457
 11
-2.1197831405
 21
-2.1902304341
  0
LWPOLYLINE
  5
2A5
100
AcDbEntity
  8
RACCORDO
100
AcDbPolyline
 62
7
  6
CONTINUOUS
 90
19
 70
0
 10
-2.1197831388
 20
-2.1903305457
 10
-2.1213368958
 20
-2.3332399777
 10
-2.1288459331
 20
-2.5296781883
 10
-2.1418276494
 20
-2.7102427242
 10
-2.1592703156
 20
-2.8736359666
 10
-2.1804914611
 20
-3.0220083918
 10
-2.2055667279
 20
-3.1599952648
 10
-2.2341660207
 20
-3.2876744498
 10
-2.2658460084
 20
-3.404752243
 10
-2.301072348
 20
-3.5137824081
 10
-2.3397920182
 20
-3.6146237185
 10
-2.3814754831
 20
-3.706076067
 10
-2.425840511
 20
-3.7878853302
 10
-2.4721606649
 20
-3.8592442516
 10
-2.5199245834
 20
-3.9200826376
 10
-2.5692424915
 20
-3.9711352751
 10
-2.6203962167
 20
-4.0130744368
 10
-2.6738716642
 20
-4.0466295018
 10
-2.6822829668
 20
-4.0510694265
  0
LINE
  5
2A6
100
AcDbEntity
  8
0
100
AcDbLine
 62
7
  6
CONTINUOUS
 10
-2.7018740782
 20
0.8791824165
 11
-3.0691915532
 21
0.6955236791
  0
LINE
  5
2A7
100
AcDbEntity
  8
ASSI
100
AcDbLine
 62
253
  6
CONTINUOUS
 10
-0.2338612164
 20
22.0230906234
 11
-0.2338612164
 21
23.2103634047
  0
LINE
  5
2A8
100
AcDbEntity
  8
ASSI
100
AcDbLine
 62
253
  6
CONTINUOUS
 10
0.0464918139
 20
22.0307861945
 11
0.0464918139
 21
23.2091401028
  0
LINE
  5
2A9
100
AcDbEntity
  8
ASSI
100
AcDbLine
 62
7
  6
CONTINUOUS
 10
0.2648378513
 20
22.1499877142
 11
0.2648378513
 21
23.3191549843
  0
LINE
  5
2AA
100
AcDbEntity
  8
0
100
AcDbLine
 62
7
  6
CONTINUOUS
 10
-2.3295251308
 20
-0.3693868238
 11
-2.4242889702
 21
-0.4167687435
  0
LINE
  5
2AB
100
AcDbEntity
  8
RACCORDO
100
AcDbLine
 62
7
  6
CONTINUOUS
 10
-3.5141705487
 20
2.4060172417
 11
-3.5141179682
 21
2.4059457843
  0
LWPOLYLINE
  5
2AC
100
AcDbEntity
  8
RACCORDO
100
AcDbPolyline
 62
7
  6
CONTINUOUS
 90
22
 70
0
 10
-3.5141179682
 20
2.4059457843
 10
-3.4280173363
 20
2.2853138296
 10
-3.3032969599
 20
2.0969671657
 10
-3.1832094484
 20
1.8987874489
 10
-3.0680096435
 20
1.6911169939
 10
-2.9581941538
 20
1.4748248896
 10
-2.8544050273
 20
1.2513237064
 10
-2.7568804688
 20
1.0214231461
 10
-2.6658138393
 20
0.7859344387
 10
-2.5815924867
 20
0.546349821
 10
-2.5043169522
 20
0.3035965678
 10
-2.4340585838
 20
0.0586056832
 10
-2.3710040765
 20
-0.1871176031
 10
-2.3151425282
 20
-0.4325877013
 10
-2.2664443182
 20
-0.676820787
 10
-2.2249403318
 20
-0.918336602
 10
-2.1905271867
 20
-1.1561673042
 10
-2.1630846118
 20
-1.3893625865
 10
-2.1425167537
 20
-1.6165292406
 10
-2.128640222
 20
-1.8366478822
 10
-2.1212347467
 20
-2.0490936901
 10
-2.1197831374
 20
-2.1902304341
  0
LINE
  5
2AD
100
AcDbEntity
  8
ASSI
100
AcDbLine
 62
7
  6
CONTINUOUS
 10
0.9596020377
 20
23.6637631426
 11
0.9596020377
 21
22.5082009012
  0
LINE
  5
2AE
100
AcDbEntity
  8
ASSI
100
AcDbLine
 62
7
  6
CONTINUOUS
 10
1.1292223439
 20
22.5702429807
 11
1.1292223439
 21
21.385638475
  0
LINE
  5
2AF
100
AcDbEntity
  8
ASSI
100
AcDbLine
 62
253
  6
CONTINUOUS
 10
1.1878009877
 20
22.4995323026
 11
1.1878009877
 21
21.3122595213
  0
LINE
  5
2B0
100
AcDbEntity
  8
ASSI
100
AcDbLine
 62
7
  6
CONTINUOUS
 10
2.3815460195
 20
26.33719844
 11
2.3815460195
 21
25.165457537
  0
LINE
  5
2B1
100
AcDbEntity
  8
ASSI
100
AcDbLine
 62
253
  6
CONTINUOUS
 10
2.2733748468
 20
26.2046764565
 11
2.2733037176
 21
25.0354739058
  0
LWPOLYLINE
  5
2B2
100
AcDbEntity
  8
RACCORDO
100
AcDbPolyline
 62
7
  6
CONTINUOUS
 90
10
 70
0
 10
-4.7656508276
 20
3.5114405826
 10
-4.6578190236
 20
3.4544018343
 10
-4.4999774678
 20
3.3594581363
 10
-4.3434902174
 20
3.251427752
 10
-4.1890440249
 20
3.1305465773
 10
-4.037431848
 20
2.9972227873
 10
-3.8894796589
 20
2.8520206874
 10
-3.7458923191
 20
2.6955140547
 10
-3.6072938984
 20
2.5282882644
 10
-3.5141705674
 20
2.4060172279
  0
LWPOLYLINE
  5
2B3
100
AcDbEntity
  8
ASSI
100
AcDbPolyline
 62
7
  6
CONTINUOUS
 90
16
 70
0
 10
2.3815414506
 20
26.3370711945
 10
2.3797719261
 20
26.3687139231
 10
2.3740758782
 20
26.4017192591
 10
2.364387358
 20
26.4342790395
 10
2.3506890189
 20
26.465951063
 10
2.3331150393
 20
26.4961396039
 10
2.3117793775
 20
26.5245072541
 10
2.2867277254
 20
26.5508222642
 10
2.2583260754
 20
26.5745735534
 10
2.2270612887
 20
26.5953743891
 10
2.1927081474
 20
26.6133933256
 10
2.1556021366
 20
26.6283799563
 10
2.1170484804
 20
26.6399266486
 10
2.0767729803
 20
26.6482707274
 10
2.0347850227
 20
26.6533620065
 10
1.9930655681
 20
26.6550315609
  0
LWPOLYLINE
  5
2B4
100
AcDbEntity
  8
ASSI
100
AcDbPolyline
 62
7
  6
CONTINUOUS
 90
9
 70
0
 10
4.2651774508
 20
19.6742783196
 10
4.2652081364
 20
19.6703574351
 10
4.2670277899
 20
19.643903583
 10
4.2716646123
 20
19.617956998
 10
4.2790673743
 20
19.5929050414
 10
4.2890702357
 20
19.569191871
 10
4.3015496618
 20
19.5469736858
 10
4.3163936624
 20
19.5264080274
 10
4.3333357147
 20
19.5078205107
  0
LINE
  5
2B5
100
AcDbEntity
  8
ASSI
100
AcDbLine
 62
253
  6
CONTINUOUS
 10
3.4784493848
 20
20.1669353228
 11
3.4784493848
 21
21.3542081041
  0
LINE
  5
2B6
100
AcDbEntity
  8
ASSI
100
AcDbLine
 62
253
  6
CONTINUOUS
 10
3.7588024151
 20
20.1746308939
 11
3.7588024151
 21
21.3529848022
  0
LINE
  5
2B7
100
AcDbEntity
  8
ASSI
100
AcDbLine
 62
7
  6
CONTINUOUS
 10
3.9771484525
 20
20.2938324136
 11
3.9771484525
 21
21.4629996837
  0
LINE
  5
2B8
100
AcDbEntity
  8
ASSI
100
AcDbLine
 62
7
  6
CONTINUOUS
 10
4.2651773707
 20
19.9915741831
 11
4.2651773707
 21
19.6743053828
  0
LINE
  5
2B9
100
AcDbEntity
  8
ASSI
100
AcDbLine
 62
253
  6
CONTINUOUS
 10
4.3237560145
 20
19.920863505
 11
4.3237560145
 21
19.6035947046
  0
LWPOLYLINE
  5
2BA
100
AcDbEntity
  8
ASSI
100
AcDbPolyline
 62
7
  6
CONTINUOUS
 90
3
 70
0
 10
8.9305495083
 20
19.658301379
 10
8.9360904139
 20
19.6827249451
 10
8.9393669911
 20
19.7078671515
  0
LINE
  5
2BB
100
AcDbEntity
  8
DRAFT
100
AcDbLine
 62
7
  6
CONTINUOUS
 10
9.7182713524
 20
-0.2529007469
 11
13.7453511564
 21
1.8730331038
  0
LINE
  5
2BC
100
AcDbEntity
  8
RACCORDO
100
AcDbLine
 62
7
  6
CONTINUOUS
 10
-6.0057796623
 20
3.7251587156
 11
-6.0055257171
 21
3.7252012545
  0
LWPOLYLINE
  5
2BD
100
AcDbEntity
  8
RACCORDO
100
AcDbPolyline
 62
7
  6
CONTINUOUS
 90
10
 70
0
 10
-6.0057796623
 20
3.7251587156
 10
-5.9005635846
 20
3.7395685182
 10
-5.7501685807
 20
3.749117374
 10
-5.5997384776
 20
3.7460594877
 10
-5.449467603
 20
3.7307664654
 10
-5.2997944495
 20
3.7036316093
 10
-5.1514386545
 20
3.6651726224
 10
-5.0049677806
 20
3.6159698753
 10
-4.8607296993
 20
3.5565799781
 10
-4.7657046375
 20
3.5114677675
  0
LWPOLYLINE
  5
2BE
100
AcDbEntity
  8
ASSI
100
AcDbPolyline
 62
7
  6
CONTINUOUS
 90
5
 70
0
 10
8.9340632297
 20
-21.5158427069
 10
8.9268961034
 20
-21.49100059
 10
8.9171785599
 20
-21.4674571833
 10
8.9050372006
 20
-21.4453559261
 10
8.890585101
 20
-21.4248612601
  0
LINE
  5
2BF
100
AcDbEntity
  8
ASSI
100
AcDbLine
 62
7
  6
CONTINUOUS
 10
4.9800404911
 20
19.1727206644
 11
4.9800404911
 21
18.7188434131
  0
LINE
  5
2C0
100
AcDbEntity
  8
ASSI
100
AcDbLine
 62
253
  6
CONTINUOUS
 10
5.0532637958
 20
19.136109012
 11
5.0532637958
 21
18.6270348679
  0
LINE
  5
2C1
100
AcDbEntity
  8
ASSI
100
AcDbLine
 62
7
  6
CONTINUOUS
 10
5.1860012281
 20
17.8633697955
 11
5.1860012281
 21
19.0736638793
  0
LINE
  5
2C2
100
AcDbEntity
  8
ASSI
100
AcDbLine
 62
253
  6
CONTINUOUS
 10
5.2592245328
 20
-22.163743694
 11
5.2592245328
 21
-22.0487519585
  0
LINE
  5
2C3
100
AcDbEntity
  8
ASSI
100
AcDbLine
 62
253
  6
CONTINUOUS
 10
5.2592245328
 20
17.77156125
 11
5.2592245328
 21
19.1358604454
  0
LINE
  5
2C4
100
AcDbEntity
  8
ASSI
100
AcDbLine
 62
253
  6
CONTINUOUS
 10
5.4527888189
 20
-22.260525837
 11
5.4527888189
 21
-21.9690162462
  0
LINE
  5
2C5
100
AcDbEntity
  8
ASSI
100
AcDbLine
 62
253
  6
CONTINUOUS
 10
5.4527888189
 20
17.6747791069
 11
5.4527888189
 21
19.0390783024
  0
LINE
  5
2C6
100
AcDbEntity
  8
ASSI
100
AcDbLine
 62
253
  6
CONTINUOUS
 10
5.8032301068
 20
-22.0142365152
 11
5.8032301068
 21
-21.8246575616
  0
LINE
  5
2C7
100
AcDbEntity
  8
ASSI
100
AcDbLine
 62
253
  6
CONTINUOUS
 10
5.8032301068
 20
17.6843985708
 11
5.8032301068
 21
18.7611258565
  0
LINE
  5
2C8
100
AcDbEntity
  8
ASSI
100
AcDbLine
 62
253
  6
CONTINUOUS
 10
6.2166091099
 20
25.7597200105
 11
6.2166091099
 21
25.4695161847
  0
LINE
  5
2C9
100
AcDbEntity
  8
ASSI
100
AcDbLine
 62
7
  6
CONTINUOUS
 10
6.2882964976
 20
25.8473336668
 11
6.2882964976
 21
25.5027702858
  0
LINE
  5
2CA
100
AcDbEntity
  8
ASSI
100
AcDbLine
 62
7
  6
CONTINUOUS
 10
6.3459561695
 20
18.4897628252
 11
6.3459561695
 21
17.980688681
  0
LINE
  5
2CB
100
AcDbEntity
  8
ASSI
100
AcDbLine
 62
253
  6
CONTINUOUS
 10
6.3882573372
 20
18.8886128436
 11
6.3882573372
 21
18.5713613872
  0
LINE
  5
2CC
100
AcDbEntity
  8
ASSI
100
AcDbLine
 62
253
  6
CONTINUOUS
 10
6.3882573372
 20
-23.0455288965
 11
6.3882573372
 21
-22.7282586673
  0
LINE
  5
2CD
100
AcDbEntity
  8
ASSI
100
AcDbLine
 62
253
  6
CONTINUOUS
 10
6.6686103675
 20
18.8873895417
 11
6.6686103675
 21
18.5701207413
  0
LINE
  5
2CE
100
AcDbEntity
  8
ASSI
100
AcDbLine
 62
253
  6
CONTINUOUS
 10
6.6686103675
 20
-23.0467521984
 11
6.6686103675
 21
-22.7294833981
  0
LWPOLYLINE
  5
2CF
100
AcDbEntity
  8
ASSI
100
AcDbPolyline
 62
7
  6
CONTINUOUS
 90
16
 70
0
 10
7.9906977662
 20
23.5324930366
 10
7.9889282418
 20
23.5641357653
 10
7.9832321938
 20
23.5971411013
 10
7.9735436737
 20
23.6297008817
 10
7.9598453346
 20
23.6613729052
 10
7.942271355
 20
23.6915614461
 10
7.9209356932
 20
23.7199290963
 10
7.8958840411
 20
23.7462441063
 10
7.867482391
 20
23.7699953956
 10
7.8362176044
 20
23.7907962313
 10
7.801864463
 20
23.8088151677
 10
7.7647584523
 20
23.8238017985
 10
7.726204796
 20
23.8353484907
 10
7.6859292959
 20
23.8436925696
 10
7.6439413383
 20
23.8487838487
 10
7.6022218837
 20
23.8504534031
  0
LWPOLYLINE
  5
2D0
100
AcDbEntity
  8
ASSI
100
AcDbPolyline
 62
7
  6
CONTINUOUS
 90
14
 70
0
 10
6.288286052
 20
25.8472810526
 10
6.2859691485
 20
25.9162039023
 10
6.2792265129
 20
25.9816325961
 10
6.2680482822
 20
26.0447587738
 10
6.2524791855
 20
26.1052768262
 10
6.2326595256
 20
26.162700715
 10
6.2087054209
 20
26.2167766476
 10
6.1807141355
 20
26.2673689002
 10
6.1489117641
 20
26.3141499391
 10
6.1135507802
 20
26.3568336683
 10
6.074841606
 20
26.3952452159
 10
6.0330730187
 20
26.4291984568
 10
5.9885868745
 20
26.4585068623
 10
5.9569460649
 20
26.4757128752
  0
LWPOLYLINE
  5
2D1
100
AcDbEntity
  8
ASSI
100
AcDbPolyline
 62
7
  6
CONTINUOUS
 90
4
 70
0
 10
8.9402240385
 20
-21.5707625666
 10
8.9402055289
 20
-21.5677536404
 10
8.9385127044
 20
-21.5415580593
 10
8.9340632297
 20
-21.5158427069
  0
LINE
  5
2D2
100
AcDbEntity
  8
ASSI
100
AcDbLine
 62
253
  6
CONTINUOUS
 10
7.0729631182
 20
18.297356495
 11
7.0729631182
 21
17.6171852067
  0
LINE
  5
2D3
100
AcDbEntity
  8
ASSI
100
AcDbLine
 62
253
  6
CONTINUOUS
 10
7.0729631182
 20
-21.3016113523
 11
7.0729631182
 21
-21.7385062055
  0
LINE
  5
2D4
100
AcDbEntity
  8
ASSI
100
AcDbLine
 62
253
  6
CONTINUOUS
 10
7.4234044061
 20
18.3850051167
 11
7.4234044061
 21
17.6267102407
  0
LINE
  5
2D5
100
AcDbEntity
  8
ASSI
100
AcDbLine
 62
253
  6
CONTINUOUS
 10
7.4234044061
 20
-21.1572526677
 11
7.4234044061
 21
-21.815471643
  0
LINE
  5
2D6
100
AcDbEntity
  8
ASSI
100
AcDbLine
 62
7
  6
CONTINUOUS
 10
7.9907023351
 20
23.5326202822
 11
7.9907023351
 21
22.3608793791
  0
LINE
  5
2D7
100
AcDbEntity
  8
ASSI
100
AcDbLine
 62
7
  6
CONTINUOUS
 10
8.3258551568
 20
-22.3239336752
 11
8.3258551568
 21
-20.7855025124
  0
LINE
  5
2D8
100
AcDbEntity
  8
ASSI
100
AcDbLine
 62
7
  6
CONTINUOUS
 10
8.3258552025
 20
18.1194789777
 11
8.3258551568
 21
19.7649537086
  0
LINE
  5
2D9
100
AcDbEntity
  8
ASSI
100
AcDbLine
 62
7
  6
CONTINUOUS
 10
8.6794085474
 20
17.5097556142
 11
8.6794085474
 21
16.7302668009
  0
LINE
  5
2DA
100
AcDbEntity
  8
ASSI
100
AcDbLine
 62
7
  6
CONTINUOUS
 10
8.6794085474
 20
-20.4222889714
 11
8.6794085474
 21
-19.6428001581
  0
LINE
  5
2DB
100
AcDbEntity
  8
ASSI
100
AcDbLine
 62
253
  6
CONTINUOUS
 10
8.8840915673
 20
-21.9802002852
 11
8.8840915673
 21
-21.6402566903
  0
LINE
  5
2DC
100
AcDbEntity
  8
ASSI
100
AcDbLine
 62
253
  6
CONTINUOUS
 10
8.8840915673
 20
19.6593474491
 11
8.8840915673
 21
19.9992910439
  0
LINE
  5
2DD
100
AcDbEntity
  8
ASSI
100
AcDbLine
 62
7
  6
CONTINUOUS
 10
8.9402236073
 20
-21.9107344481
 11
8.9402236073
 21
-21.5707907844
  0
LINE
  5
2DE
100
AcDbEntity
  8
ASSI
100
AcDbLine
 62
7
  6
CONTINUOUS
 10
8.9402236073
 20
19.7288132861
 11
8.9402236073
 21
20.0687568811
  0
LINE
  5
2DF
100
AcDbEntity
  8
ASSI
100
AcDbLine
 62
253
  6
CONTINUOUS
 10
7.8825311624
 20
23.4000982987
 11
7.8825089055
 21
23.034244807
  0
LINE
  5
2E0
100
AcDbEntity
  8
ASSI
100
AcDbLine
 62
253
  6
CONTINUOUS
 10
7.8824953747
 20
22.8118291134
 11
7.8824600333
 21
22.230895748
  0
LINE
  5
2E1
100
AcDbEntity
  8
ASSI
100
AcDbLine
 62
7
  6
CONTINUOUS
 10
8.9393669911
 20
19.7078671515
 11
8.9402196764
 21
19.7288531242
  0
LINE
  5
2E2
100
AcDbEntity
  8
0
100
AcDbLine
 62
7
  6
CONTINUOUS
 10
9.4050315713
 20
-0.6567171455
 11
10.069606408
 21
0.2000265804
  0
LWPOLYLINE
  5
2E3
100
AcDbEntity
  8
ASSI
100
AcDbPolyline
 62
7
  6
CONTINUOUS
 90
11
 70
0
 10
8.9402231786
 20
20.0689172942
 10
8.9397495523
 20
20.0842153453
 10
8.9361017553
 20
20.1138874811
 10
8.9288791084
 20
20.1426303129
 10
8.918193903
 20
20.169973293
 10
8.9043695008
 20
20.195272953
 10
8.8876561349
 20
20.2183013237
 10
8.8681869287
 20
20.2389454388
 10
8.8463685999
 20
20.2568032984
 10
8.8226394843
 20
20.2715940893
 10
8.81699991
 20
20.2745211634
  0
LINE
  5
2E4
100
AcDbEntity
  8
ASSI
100
AcDbLine
 62
7
  6
CONTINUOUS
 10
9.3741727338
 20
-20.0474477538
 11
9.3741727338
 21
-18.8344105446
  0
LINE
  5
2E5
100
AcDbEntity
  8
ASSI
100
AcDbLine
 62
7
  6
CONTINUOUS
 10
9.3741727338
 20
16.5899914888
 11
9.3741727338
 21
17.8543637725
  0
LINE
  5
2E6
100
AcDbEntity
  8
ASSI
100
AcDbLine
 62
7
  6
CONTINUOUS
 10
9.4050315713
 20
-18.7985048888
 11
9.4050315713
 21
16.5745620701
  0
LINE
  5
2E7
100
AcDbEntity
  8
ASSI
100
AcDbLine
 62
7
  6
CONTINUOUS
 10
8.9390952996
 20
-21.9347681759
 11
8.9402235219
 21
-21.9107032267
  0
LINE
  5
2E8
100
AcDbEntity
  8
0
100
AcDbLine
 62
7
  6
CONTINUOUS
 10
14.0060229442
 20
-3.8897528231
 11
13.9750708092
 21
-3.9097724026
  0
LINE
  5
2E9
100
AcDbEntity
  8
DRAFT
100
AcDbLine
 62
7
  6
CONTINUOUS
 10
9.4050315713
 20
-7.3040700913
 11
12.9462561727
 21
-5.4346238376
  0
LINE
  5
2EA
100
AcDbEntity
  8
RACCORDO
100
AcDbLine
 62
253
  6
CONTINUOUS
 10
12.9463184291
 20
-5.4345909699
 11
12.9462561711
 21
-5.4346238385
  0
LWPOLYLINE
  5
2EB
100
AcDbEntity
  8
RACCORDO
100
AcDbPolyline
 62
7
  6
CONTINUOUS
 90
12
 70
0
 10
13.586436431
 20
-13.6925294139
 10
13.5860987078
 20
-13.6740629761
 10
13.5821415626
 20
-13.6271671724
 10
13.5737718132
 20
-13.5818636343
 10
13.5610595174
 20
-13.5383622003
 10
13.5441283664
 20
-13.4970716109
 10
13.5231745665
 20
-13.4584214155
 10
13.4984364041
 20
-13.4227311115
 10
13.4702917343
 20
-13.3904252706
 10
13.4392417895
 20
-13.3619107747
 10
13.405713589
 20
-13.3373752318
 10
13.36905673
 20
-13.3163870454
  0
LINE
  5
2EC
100
AcDbEntity
  8
RACCORDO
100
AcDbLine
 62
7
  6
CONTINUOUS
 10
11.9320997409
 20
13.5155648911
 11
11.9320997409
 21
12.4995629445
  0
LINE
  5
2ED
100
AcDbEntity
  8
ASSI
100
AcDbLine
 62
7
  6
CONTINUOUS
 10
12.2329378618
 20
-12.8509417105
 11
12.2329378618
 21
-13.5092736858
  0
LINE
  5
2EE
100
AcDbEntity
  8
RACCORDO
100
AcDbLine
 62
253
  6
CONTINUOUS
 10
13.5004233346
 20
21.2576810568
 11
13.5004233346
 21
21.2000407311
  0
LINE
  5
2EF
100
AcDbEntity
  8
RACCORDO
100
AcDbLine
 62
253
  6
CONTINUOUS
 10
13.5004233346
 20
-14.4721406459
 11
13.5004233346
 21
-13.7978014027
  0
LINE
  5
2F0
100
AcDbEntity
  8
RACCORDO
100
AcDbLine
 62
7
  6
CONTINUOUS
 10
13.5864481999
 20
-14.3685681369
 11
13.5864481999
 21
-13.6926650574
  0
LINE
  5
2F1
100
AcDbEntity
  8
RACCORDO
100
AcDbLine
 62
7
  6
CONTINUOUS
 10
13.5850583655
 20
21.2671419573
 11
13.5864382956
 21
21.3051963312
  0
LINE
  5
2F2
100
AcDbEntity
  8
ASSI
100
AcDbLine
 62
7
  6
CONTINUOUS
 10
14.3065602715
 20
-14.8733143721
 11
14.3065602715
 21
-14.6671757787
  0
LINE
  5
2F3
100
AcDbEntity
  8
ASSI
100
AcDbLine
 62
7
  6
CONTINUOUS
 10
14.3065602715
 20
21.6838398835
 11
14.3065602715
 21
21.8899784769
  0
LWPOLYLINE
  5
2F4
100
AcDbEntity
  8
ASSI
100
AcDbPolyline
 62
7
  6
CONTINUOUS
 90
4
 70
0
 10
-8.2537824011
 20
25.8016767344
 10
-8.2356838371
 20
25.7856920069
 10
-8.2159750539
 20
25.7718198516
 10
-8.1977439576
 20
25.7616139227
  0
LINE
  5
2F5
100
AcDbEntity
  8
0
100
AcDbLine
 62
7
  6
CONTINUOUS
 10
9.4050315713
 20
-14.2843709094
 11
12.2329378618
 21
-12.8509417105
  0
LINE
  5
2F6
100
AcDbEntity
  8
RACCORDO
100
AcDbLine
 62
253
  6
CONTINUOUS
 10
13.2080965617
 20
-13.3065670639
 11
9.4050315713
 21
-14.4038929889
  0
LINE
  5
2F7
100
AcDbEntity
  8
RACCORDO
100
AcDbLine
 62
253
  6
CONTINUOUS
 10
13.3848403999
 20
-13.686093897
 11
9.4050315713
 21
-14.8344170036
  0
LINE
  5
2F8
100
AcDbEntity
  8
ASSI
100
AcDbLine
 62
7
  6
CONTINUOUS
 10
9.3741727338
 20
16.5899914888
 11
8.6794085474
 21
16.7302668009
  0
LINE
  5
2F9
100
AcDbEntity
  8
ASSI
100
AcDbLine
 62
7
  6
CONTINUOUS
 10
9.4050315713
 20
16.5745620701
 11
8.6794085474
 21
16.7302668009
  0
LINE
  5
2FA
100
AcDbEntity
  8
ASSI
100
AcDbLine
 62
7
  6
CONTINUOUS
 10
5.4527888189
 20
17.6747791069
 11
5.2592245328
 21
17.77156125
  0
LINE
  5
2FB
100
AcDbEntity
  8
ASSI
100
AcDbLine
 62
7
  6
CONTINUOUS
 10
-7.1337118862
 20
23.9680294595
 11
-7.3272761723
 21
24.0648116025
  0
LINE
  5
2FC
100
AcDbEntity
  8
RACCORDO
100
AcDbLine
 62
7
  6
CONTINUOUS
 10
12.0885576773
 20
12.3336180373
 11
12.0855150151
 21
12.3360020188
  0
LINE
  5
2FD
100
AcDbEntity
  8
RACCORDO
100
AcDbLine
 62
7
  6
CONTINUOUS
 10
12.0855126826
 20
12.3360038642
 11
12.061338682
 21
12.3560743394
  0
LWPOLYLINE
  5
2FE
100
AcDbEntity
  8
ASSI
100
AcDbPolyline
 62
7
  6
CONTINUOUS
 90
4
 70
0
 10
4.3333357147
 20
19.5078205107
 10
4.3521088131
 20
19.4914273189
 10
4.372584812
 20
19.4772966012
 10
4.3887060217
 20
19.4683887361
  0
LINE
  5
2FF
100
AcDbEntity
  8
RACCORDO
100
AcDbLine
 62
7
  6
CONTINUOUS
 10
12.061338682
 20
12.3560743394
 11
12.0350700889
 21
12.380160154
  0
LWPOLYLINE
  5
300
100
AcDbEntity
  8
RACCORDO
100
AcDbPolyline
 62
7
  6
CONTINUOUS
 90
8
 70
0
 10
12.0350700889
 20
12.380160154
 10
12.0080402137
 20
12.4074717456
 10
11.9805309322
 20
12.4380247348
 10
11.9529696297
 20
12.4716322749
 10
11.9258846926
 20
12.5078806916
 10
11.8996102222
 20
12.5465004353
 10
11.8744366082
 20
12.5872214143
 10
11.8591189935
 20
12.614086588
  0
LINE
  5
301
100
AcDbEntity
  8
ASSI
100
AcDbLine
 62
7
  6
CONTINUOUS
 10
6.0507589516
 20
-21.7226920123
 11
5.8032301068
 21
-22.0142365152
  0
LINE
  5
302
100
AcDbEntity
  8
ASSI
100
AcDbLine
 62
253
  6
CONTINUOUS
 10
6.4769542497
 20
-22.4967202048
 11
7.1097444591
 21
-21.7514070387
  0
LINE
  5
303
100
AcDbEntity
  8
ASSI
100
AcDbLine
 62
253
  6
CONTINUOUS
 10
6.6865966019
 20
-22.6832988457
 11
7.4234044061
 21
-21.815471643
  0
LINE
  5
304
100
AcDbEntity
  8
ASSI
100
AcDbLine
 62
7
  6
CONTINUOUS
 10
8.6794085474
 20
-19.6428001581
 11
9.4050315713
 21
-18.7985048888
  0
LINE
  5
305
100
AcDbEntity
  8
ASSI
100
AcDbLine
 62
7
  6
CONTINUOUS
 10
13.0766763396
 20
-15.8190319763
 11
9.4050315713
 21
-17.7142683533
  0
LINE
  5
306
100
AcDbEntity
  8
ASSI
100
AcDbLine
 62
7
  6
CONTINUOUS
 10
14.2878004345
 20
-15.0829169795
 11
9.4050315713
 21
-17.5799223866
  0
LINE
  5
307
100
AcDbEntity
  8
ASSI
100
AcDbLine
 62
7
  6
CONTINUOUS
 10
14.3065602715
 20
-14.6671757787
 11
9.4050315713
 21
-17.1516974129
  0
LINE
  5
308
100
AcDbEntity
  8
RACCORDO
100
AcDbLine
 62
7
  6
CONTINUOUS
 10
13.5004233346
 20
-14.4721406459
 11
9.4050315713
 21
-16.5117334442
  0
LINE
  5
309
100
AcDbEntity
  8
ASSI
100
AcDbLine
 62
7
  6
CONTINUOUS
 10
6.5061621499
 20
18.4175928594
 11
7.1465494383
 21
18.2817465153
  0
LINE
  5
30A
100
AcDbEntity
  8
ASSI
100
AcDbLine
 62
253
  6
CONTINUOUS
 10
6.6865966019
 20
18.5413052936
 11
7.4234044061
 21
18.3850051167
  0
LWPOLYLINE
  5
30B
100
AcDbEntity
  8
ASSI
100
AcDbPolyline
 62
7
  6
CONTINUOUS
 90
4
 70
0
 10
6.453464599
 20
18.4360093482
 10
6.4624528684
 20
18.431765916
 10
6.4842067268
 20
18.423446439
 10
6.5061053604
 20
18.4176121363
  0
LWPOLYLINE
  5
30C
100
AcDbEntity
  8
ASSI
100
AcDbPolyline
 62
7
  6
CONTINUOUS
 90
4
 70
0
 10
-6.1330801032
 20
24.7292809856
 10
-6.1270297728
 20
24.7263692994
 10
-6.1039291363
 20
24.7172330616
 10
-6.0804202924
 20
24.7108606019
  0
LINE
  5
30D
100
AcDbEntity
  8
ASSI
100
AcDbLine
 62
7
  6
CONTINUOUS
 10
-7.5332369093
 20
24.9202852204
 11
-7.400499477
 21
24.8539165043
  0
LINE
  5
30E
100
AcDbEntity
  8
ASSI
100
AcDbLine
 62
7
  6
CONTINUOUS
 10
-6.2405445356
 20
24.2739390336
 11
-5.5135375869
 21
23.9104355592
  0
LINE
  5
30F
100
AcDbEntity
  8
ASSI
100
AcDbLine
 62
7
  6
CONTINUOUS
 10
5.0532637958
 20
18.6270348679
 11
5.1860012281
 21
18.5606661517
  0
LINE
  5
310
100
AcDbEntity
  8
ASSI
100
AcDbLine
 62
7
  6
CONTINUOUS
 10
6.3459561695
 20
17.980688681
 11
7.0729631182
 21
17.6171852067
  0
LINE
  5
311
100
AcDbEntity
  8
ASSI
100
AcDbLine
 62
7
  6
CONTINUOUS
 10
9.4050315713
 20
16.5745620701
 11
9.3741727338
 21
16.5899914888
  0
LINE
  5
312
100
AcDbEntity
  8
ASSI
100
AcDbLine
 62
7
  6
CONTINUOUS
 10
6.4534633395
 20
18.4360092402
 11
5.6523053813
 21
18.8365882193
  0
LINE
  5
313
100
AcDbEntity
  8
ASSI
100
AcDbLine
 62
7
  6
CONTINUOUS
 10
5.1844317947
 20
19.0705250126
 11
4.3885025298
 21
19.468489645
  0
LINE
  5
314
100
AcDbEntity
  8
ASSI
100
AcDbLine
 62
7
  6
CONTINUOUS
 10
-6.13292614
 20
24.7292040813
 11
-6.9341953238
 21
25.1298385718
  0
LINE
  5
315
100
AcDbEntity
  8
ASSI
100
AcDbLine
 62
7
  6
CONTINUOUS
 10
-7.4020689104
 20
25.3637753651
 11
-8.1980041001
 21
25.76174296
  0
LINE
  5
316
100
AcDbEntity
  8
ASSI
100
AcDbLine
 62
253
  6
CONTINUOUS
 10
-7.3272761723
 20
25.429110798
 11
-8.2627446906
 21
25.8968624077
  0
LINE
  5
317
100
AcDbEntity
  8
ASSI
100
AcDbLine
 62
253
  6
CONTINUOUS
 10
5.2592245328
 20
19.1358604454
 11
4.3237560145
 21
19.6035947046
  0
LINE
  5
318
100
AcDbEntity
  8
ASSI
100
AcDbLine
 62
253
  6
CONTINUOUS
 10
-6.1982433679
 20
24.8645943958
 11
-7.1337118862
 21
25.3323286549
  0
LINE
  5
319
100
AcDbEntity
  8
ASSI
100
AcDbLine
 62
253
  6
CONTINUOUS
 10
6.3882573372
 20
18.5713613872
 11
5.4527888189
 21
19.0390783024
  0
LINE
  5
31A
100
AcDbEntity
  8
ASSI
100
AcDbLine
 62
7
  6
CONTINUOUS
 10
3.4784493848
 20
20.1669353228
 11
1.1878009877
 21
21.3122595213
  0
LINE
  5
31B
100
AcDbEntity
  8
ASSI
100
AcDbLine
 62
7
  6
CONTINUOUS
 10
-0.2338612164
 20
22.0230906234
 11
-2.5245096135
 21
23.1684148219
  0
LINE
  5
31C
100
AcDbEntity
  8
ASSI
100
AcDbLine
 62
253
  6
CONTINUOUS
 10
6.3882573372
 20
18.8886128436
 11
4.3237560145
 21
19.920863505
  0
LINE
  5
31D
100
AcDbEntity
  8
ASSI
100
AcDbLine
 62
253
  6
CONTINUOUS
 10
-6.1982433679
 20
25.1818656958
 11
-8.2627446906
 21
26.2141138575
  0
LINE
  5
31E
100
AcDbEntity
  8
ASSI
100
AcDbLine
 62
7
  6
CONTINUOUS
 10
-4.2606455483
 20
24.412729414
 11
-2.5830882573
 21
23.5739507685
  0
LINE
  5
31F
100
AcDbEntity
  8
ASSI
100
AcDbLine
 62
7
  6
CONTINUOUS
 10
0.2648378513
 20
22.1499877142
 11
1.1292223439
 21
21.7177954679
  0
LINE
  5
320
100
AcDbEntity
  8
ASSI
100
AcDbLine
 62
7
  6
CONTINUOUS
 10
3.9771484525
 20
20.2938324136
 11
4.304169305
 21
20.1303219874
  0
LINE
  5
321
100
AcDbEntity
  8
ASSI
100
AcDbLine
 62
253
  6
CONTINUOUS
 10
6.5625552131
 20
19.1916287982
 11
4.4968411717
 21
20.2244858189
  0
LINE
  5
322
100
AcDbEntity
  8
ASSI
100
AcDbLine
 62
253
  6
CONTINUOUS
 10
-6.023945492
 20
25.4848791508
 11
-8.0896595334
 21
26.5177361714
  0
LINE
  5
323
100
AcDbEntity
  8
ASSI
100
AcDbLine
 62
7
  6
CONTINUOUS
 10
-4.2606455483
 20
25.1047196656
 11
-3.5925098332
 21
24.770651808
  0
LINE
  5
324
100
AcDbEntity
  8
ASSI
100
AcDbLine
 62
7
  6
CONTINUOUS
 10
8.3258551641
 20
18.8114693093
 11
9.0206731911
 21
18.4640602958
  0
LINE
  5
325
100
AcDbEntity
  8
ASSI
100
AcDbLine
 62
7
  6
CONTINUOUS
 10
0.9596020377
 20
22.5082009012
 11
1.1292223439
 21
22.4233907481
  0
LINE
  5
326
100
AcDbEntity
  8
ASSI
100
AcDbLine
 62
253
  6
CONTINUOUS
 10
8.6794085474
 20
-20.4222889714
 11
9.3741727338
 21
-20.0474477538
  0
LINE
  5
327
100
AcDbEntity
  8
ASSI
100
AcDbLine
 62
7
  6
CONTINUOUS
 10
8.553668565
 20
-20.6905434291
 11
9.249495834
 21
-20.3151286541
  0
LINE
  5
328
100
AcDbEntity
  8
ASSI
100
AcDbLine
 62
7
  6
CONTINUOUS
 10
8.5358947872
 20
-20.6989800429
 11
8.5536441237
 21
-20.6905568322
  0
LINE
  5
329
100
AcDbEntity
  8
ASSI
100
AcDbLine
 62
253
  6
CONTINUOUS
 10
3.4883036827
 20
-22.5606154542
 11
8.6794085474
 21
-20.4222228179
  0
LINE
  5
32A
100
AcDbEntity
  8
ASSI
100
AcDbLine
 62
7
  6
CONTINUOUS
 10
3.3345682204
 20
-22.8415833485
 11
8.5358446556
 21
-20.6990006964
  0
LWPOLYLINE
  5
32B
100
AcDbEntity
  8
ASSI
100
AcDbPolyline
 62
7
  6
CONTINUOUS
 90
4
 70
0
 10
10.3687600849
 20
24.1293976396
 10
10.3100187832
 20
24.1151779829
 10
10.251156738
 20
24.0955444759
 10
10.1935891077
 20
24.0711119677
  0
LWPOLYLINE
  5
32C
100
AcDbEntity
  8
ASSI
100
AcDbPolyline
 62
7
  6
CONTINUOUS
 90
10
 70
0
 10
6.7032505071
 20
21.3309750281
 10
6.682203874
 20
21.338751478
 10
6.6603247906
 20
21.344374083
 10
6.637840555
 20
21.3477476248
 10
6.6149071543
 20
21.3488035068
 10
6.5917670429
 20
21.3474840122
 10
6.5687412501
 20
21.3437765226
 10
6.5460502535
 20
21.33770214
 10
6.5238972437
 20
21.3293012892
 10
6.5197346082
 20
21.327432122
  0
LINE
  5
32D
100
AcDbEntity
  8
ASSI
100
AcDbLine
 62
7
  6
CONTINUOUS
 10
-5.8713087211
 20
27.6186752677
 11
-5.8855969404
 21
27.6252148435
  0
LINE
  5
32E
100
AcDbEntity
  8
ASSI
100
AcDbLine
 62
7
  6
CONTINUOUS
 10
6.715176651
 20
21.3254323764
 11
6.7032505071
 21
21.3309750281
  0
LINE
  5
32F
100
AcDbEntity
  8
ASSI
100
AcDbLine
 62
253
  6
CONTINUOUS
 10
3.4430994305
 20
21.4151777564
 11
1.223150942
 21
22.5251520007
  0
LINE
  5
330
100
AcDbEntity
  8
ASSI
100
AcDbLine
 62
253
  6
CONTINUOUS
 10
-0.2692111707
 20
23.271333057
 11
-2.4891596593
 21
24.3813073013
  0
LINE
  5
331
100
AcDbEntity
  8
ASSI
100
AcDbLine
 62
253
  6
CONTINUOUS
 10
3.5820526438
 20
21.6578330638
 11
1.3621041552
 21
22.7678073081
  0
LINE
  5
332
100
AcDbEntity
  8
ASSI
100
AcDbLine
 62
253
  6
CONTINUOUS
 10
-0.1302579574
 20
23.5139883644
 11
-2.350206446
 21
24.6239626087
  0
LINE
  5
333
100
AcDbEntity
  8
ASSI
100
AcDbLine
 62
7
  6
CONTINUOUS
 10
-2.1393521287
 20
24.7377233503
 11
0.0880880799
 21
23.624003246
  0
LINE
  5
334
100
AcDbEntity
  8
ASSI
100
AcDbLine
 62
7
  6
CONTINUOUS
 10
1.5729584725
 20
22.8815680497
 11
3.8003986812
 21
21.7678479453
  0
LINE
  5
335
100
AcDbEntity
  8
ASSI
100
AcDbLine
 62
7
  6
CONTINUOUS
 10
-6.5234087873
 20
27.3627643814
 11
-4.4020453654
 21
26.3020826705
  0
LINE
  5
336
100
AcDbEntity
  8
ASSI
100
AcDbLine
 62
7
  6
CONTINUOUS
 10
6.0630919179
 20
21.0695140289
 11
8.1844553397
 21
20.0088323179
  0
LINE
  5
337
100
AcDbEntity
  8
ASSI
100
AcDbLine
 62
7
  6
CONTINUOUS
 10
4.1892535629
 20
22.265410756
 11
2.2924078485
 21
23.2138336132
  0
LINE
  5
338
100
AcDbEntity
  8
ASSI
100
AcDbLine
 62
7
  6
CONTINUOUS
 10
0.7828522663
 20
23.9686114043
 11
-1.1139934481
 21
24.9170342615
  0
LINE
  5
339
100
AcDbEntity
  8
ASSI
100
AcDbLine
 62
253
  6
CONTINUOUS
 10
8.7085598063
 20
20.2687919971
 11
6.6058179806
 21
21.32016291
  0
LINE
  5
33A
100
AcDbEntity
  8
ASSI
100
AcDbLine
 62
253
  6
CONTINUOUS
 10
-3.8779389042
 20
26.562043339
 11
-5.9806827246
 21
27.6134132625
  0
LINE
  5
33B
100
AcDbEntity
  8
ASSI
100
AcDbLine
 62
7
  6
CONTINUOUS
 10
8.8168995604
 20
20.2745720625
 11
6.714914397
 21
21.3255646442
  0
LINE
  5
33C
100
AcDbEntity
  8
ASSI
100
AcDbLine
 62
7
  6
CONTINUOUS
 10
-3.7696206393
 20
26.5678321598
 11
-5.8715855156
 21
27.6188146005
  0
LINE
  5
33D
100
AcDbEntity
  8
ASSI
100
AcDbLine
 62
7
  6
CONTINUOUS
 10
-5.8716062907
 20
27.6188249847
 11
-5.8713150482
 21
27.6186788267
  0
LWPOLYLINE
  5
33E
100
AcDbEntity
  8
ASSI
100
AcDbPolyline
 62
7
  6
CONTINUOUS
 90
10
 70
0
 10
8.8126649804
 20
-22.1410334179
 10
8.8348913604
 20
-22.1256761016
 10
8.8557233225
 20
-22.1076809152
 10
8.8748484169
 20
-22.0872507775
 10
8.8915623119
 20
-22.0652547756
 10
8.9061659864
 20
-22.041427933
 10
8.9185919125
 20
-22.015681699
 10
8.9282024834
 20
-21.9892873861
 10
8.935000248
 20
-21.9625623024
 10
8.9390952996
 20
-21.9347681759
  0
LINE
  5
33F
100
AcDbEntity
  8
ASSI
100
AcDbLine
 62
7
  6
CONTINUOUS
 10
8.8009561897
 20
-22.1477713846
 11
8.8126649804
 21
-22.1410334179
  0
LINE
  5
340
100
AcDbEntity
  8
ASSI
100
AcDbLine
 62
253
  6
CONTINUOUS
 10
8.3258551568
 20
-22.3239336752
 11
8.8499596234
 21
-22.0411672917
  0
LINE
  5
341
100
AcDbEntity
  8
ASSI
100
AcDbLine
 62
7
  6
CONTINUOUS
 10
8.2760022166
 20
-22.4309964212
 11
8.8010564274
 21
-22.1477176288
  0
LINE
  5
342
100
AcDbEntity
  8
ASSI
100
AcDbLine
 62
7
  6
CONTINUOUS
 10
8.2717923456
 20
-22.433103316
 11
8.2759587822
 21
-22.4310198115
  0
LINE
  5
343
100
AcDbEntity
  8
ASSI
100
AcDbLine
 62
253
  6
CONTINUOUS
 10
8.3258551568
 20
-22.3239336752
 11
6.7039550302
 21
-23.0729809017
  0
LINE
  5
344
100
AcDbEntity
  8
ASSI
100
AcDbLine
 62
7
  6
CONTINUOUS
 10
8.2717365399
 20
-22.4331290889
 11
6.6488790982
 21
-23.1826184351
  0
LINE
  5
345
100
AcDbEntity
  8
ASSI
100
AcDbLine
 62
7
  6
CONTINUOUS
 10
4.7867016903
 20
25.3849963748
 11
6.2166091099
 21
25.4695161847
  0
LWPOLYLINE
  5
346
100
AcDbEntity
  8
ASSI
100
AcDbPolyline
 62
7
  6
CONTINUOUS
 90
5
 70
0
 10
7.6022218837
 20
23.8504534031
 10
7.5607369388
 20
23.8488190408
 10
7.5193340719
 20
23.8438273507
 10
7.4798335687
 20
23.8356646106
 10
7.4426355969
 20
23.8245561712
  0
LINE
  5
347
100
AcDbEntity
  8
ASSI
100
AcDbLine
 62
7
  6
CONTINUOUS
 10
-5.4395222431
 20
24.5749058584
 11
-6.0803385533
 21
24.7108432115
  0
LINE
  5
348
100
AcDbEntity
  8
ASSI
100
AcDbLine
 62
253
  6
CONTINUOUS
 10
-5.163096299
 20
24.6782554692
 11
-5.8999041032
 21
24.8345556462
  0
LWPOLYLINE
  5
349
100
AcDbEntity
  8
ASSI
100
AcDbPolyline
 62
7
  6
CONTINUOUS
 90
8
 70
0
 10
-5.8855969404
 20
27.6252148435
 10
-5.9068264257
 20
27.6327759192
 10
-5.9288685683
 20
27.6381541921
 10
-5.9514945234
 20
27.6412566911
 10
-5.9745527051
 20
27.6420188927
 10
-5.9978142381
 20
27.6403777871
 10
-6.0209358495
 20
27.6363243727
 10
-6.0436582273
 20
27.6298922526
  0
LINE
  5
34A
100
AcDbEntity
  8
ASSI
100
AcDbLine
 62
7
  6
CONTINUOUS
 10
8.7612710662
 20
23.3977116868
 11
4.7867016903
 21
25.3849963748
  0
LWPOLYLINE
  5
34B
100
AcDbEntity
  8
ASSI
100
AcDbPolyline
 62
7
  6
CONTINUOUS
 90
5
 70
0
 10
1.9930655681
 20
26.6550315609
 10
1.9515806231
 20
26.6533971986
 10
1.9101777562
 20
26.6484055085
 10
1.8706772531
 20
26.6402427685
 10
1.8334792813
 20
26.629134329
  0
LWPOLYLINE
  5
34C
100
AcDbEntity
  8
ASSI
100
AcDbPolyline
 62
7
  6
CONTINUOUS
 90
8
 70
0
 10
10.7416021333
 20
24.0833833888
 10
10.6992477746
 20
24.1024043106
 10
10.6488493776
 20
24.1196414035
 10
10.5959654679
 20
24.1320918976
 10
10.5410187146
 20
24.1394556738
 10
10.4846108551
 20
24.1415102036
 10
10.4270962831
 20
24.1381735787
 10
10.3687600849
 20
24.1293976396
  0
LINE
  5
34D
100
AcDbEntity
  8
ASSI
100
AcDbLine
 62
7
  6
CONTINUOUS
 10
6.2882964976
 20
25.5307923381
 11
9.6854458956
 21
23.832217639
  0
LINE
  5
34E
100
AcDbEntity
  8
ASSI
100
AcDbLine
 62
253
  6
CONTINUOUS
 10
2.7511872664
 20
27.8387924171
 11
5.5248544754
 21
26.4519588126
  0
LINE
  5
34F
100
AcDbEntity
  8
ASSI
100
AcDbLine
 62
253
  6
CONTINUOUS
 10
10.3030091307
 20
24.062881485
 11
13.0766763396
 21
22.6760478805
  0
LINE
  5
350
100
AcDbEntity
  8
ASSI
100
AcDbLine
 62
7
  6
CONTINUOUS
 10
3.0306687841
 20
27.9388514282
 11
5.9568815875
 21
26.4757450265
  0
LINE
  5
351
100
AcDbEntity
  8
ASSI
100
AcDbLine
 62
7
  6
CONTINUOUS
 10
10.7407277797
 20
24.0838219303
 11
13.6669405831
 21
22.6207155287
  0
ARC
  5
352
100
AcDbEntity
  8
RACCORDO
100
AcDbCircle
 62
253
  6
CONTINUOUS
 10
759.8667364652
 20
1.0426667368
 40
769.1879021379
100
AcDbArc
 50
179.7000115871
 51
179.99097264
  0
ARC
  5
353
100
AcDbEntity
  8
RACCORDO
100
AcDbCircle
 62
253
  6
CONTINUOUS
 10
748.7603433513
 20
1.2735195739
 40
758.0815074084
100
AcDbArc
 50
180.0082882344
 51
180.3021547872
  0
ARC
  5
354
100
AcDbEntity
  8
RACCORDO
100
AcDbCircle
 62
253
  6
CONTINUOUS
 10
531.254893888
 20
-2.4115853896
 40
532.8200996594
100
AcDbArc
 50
179.6612339998
 51
180.0359465561
  0
ARC
  5
355
100
AcDbEntity
  8
ASSI
100
AcDbCircle
 62
253
  6
CONTINUOUS
 10
522.9599136387
 20
-4.2575688702
 40
520.9448496305
100
AcDbArc
 50
177.9997901058
 51
181.183455845
  0
ARC
  5
356
100
AcDbEntity
  8
RACCORDO
100
AcDbCircle
 62
253
  6
CONTINUOUS
 10
516.0877245221
 20
-3.1032337275
 40
517.6529487855
100
AcDbArc
 50
179.960445534
 51
180.3907099152
  0
ARC
  5
357
100
AcDbEntity
  8
ASSI
100
AcDbCircle
 62
253
  6
CONTINUOUS
 10
500.4775768605
 20
3.2191523754
 40
513.2123688906
100
AcDbArc
 50
177.9810773514
 51
182.0189226461
  0
ARC
  5
358
100
AcDbEntity
  8
ASSI
100
AcDbCircle
 62
253
  6
CONTINUOUS
 10
507.3873599363
 20
-4.1484797554
 40
504.7052387031
100
AcDbArc
 50
177.9491420601
 51
182.0508579099
  0
ARC
  5
359
100
AcDbEntity
  8
ASSI
100
AcDbCircle
 62
253
  6
CONTINUOUS
 10
493.2648234355
 20
-4.5940536923
 40
491.2492117115
100
AcDbArc
 50
181.2893686958
 51
182.0580066741
  0
ARC
  5
35A
100
AcDbEntity
  8
RACCORDO
100
AcDbCircle
 62
253
  6
CONTINUOUS
 10
384.6827927025
 20
1.5108837675
 40
394.2804329246
100
AcDbArc
 50
180.0349517119
 51
180.6005580405
  0
ARC
  5
35B
100
AcDbEntity
  8
RACCORDO
100
AcDbCircle
 62
253
  6
CONTINUOUS
 10
384.6015534768
 20
1.0397198525
 40
394.1991878119
100
AcDbArc
 50
179.4605871523
 51
179.9664765182
  0
ARC
  5
35C
100
AcDbEntity
  8
RACCORDO
100
AcDbCircle
 62
253
  6
CONTINUOUS
 10
385.1562610063
 20
-2.4370502863
 40
386.9344116727
100
AcDbArc
 50
179.447405447
 51
180.0252637943
  0
ARC
  5
35D
100
AcDbEntity
  8
RACCORDO
100
AcDbCircle
 62
253
  6
CONTINUOUS
 10
382.1704380944
 20
-2.781968773
 40
383.9485907115
100
AcDbArc
 50
179.973988854
 51
180.5547691322
  0
ARC
  5
35E
100
AcDbEntity
  8
RACCORDO
100
AcDbCircle
 62
253
  6
CONTINUOUS
 10
-16.28058012
 20
-25.4964631445
 40
27.5536983875
100
AcDbArc
 50
74.4117176297
 51
75.3699556056
  0
ARC
  5
35F
100
AcDbEntity
  8
RACCORDO
100
AcDbCircle
 62
253
  6
CONTINUOUS
 10
-8.6241207493
 20
-9.7601991491
 40
9.9008375464
100
AcDbArc
 50
46.2544118056
 51
48.1491531968
  0
ARC
  5
360
100
AcDbEntity
  8
0
100
AcDbCircle
 62
7
  6
CONTINUOUS
 10
3.6826438351
 20
3.8387045099
 40
7.4433648909
100
AcDbArc
 50
214.8698099019
 51
216.7883492646
  0
ARC
  5
361
100
AcDbEntity
  8
RACCORDO
100
AcDbCircle
 62
253
  6
CONTINUOUS
 10
-9.2201234631
 20
1.6077810311
 40
7.2415450988
100
AcDbArc
 50
43.0043616258
 51
43.4588600137
  0
ARC
  5
362
100
AcDbEntity
  8
RACCORDO
100
AcDbCircle
 62
253
  6
CONTINUOUS
 10
7.6199614228
 20
6.869574211
 40
6.9131587619
100
AcDbArc
 50
51.6305448078
 51
52.1068736952
  0
ARC
  5
363
100
AcDbEntity
  8
0
100
AcDbCircle
 62
7
  6
CONTINUOUS
 10
8.1975985801
 20
-0.4681537172
 40
4.4452123686
100
AcDbArc
 50
17.9034904792
 51
21.1178019085
  0
ARC
  5
364
100
AcDbEntity
  8
0
100
AcDbCircle
 62
253
  6
CONTINUOUS
 10
11.1546156731
 20
-1.6394683027
 40
3.1155511744
100
AcDbArc
 50
51.351047961
 51
52.7012364549
  0
ARC
  5
365
100
AcDbEntity
  8
0
100
AcDbCircle
 62
253
  6
CONTINUOUS
 10
11.1546156731
 20
17.8461032825
 40
3.1155511743
100
AcDbArc
 50
51.351047961
 51
52.7012364549
  0
ARC
  5
366
100
AcDbEntity
  8
0
100
AcDbCircle
 62
7
  6
CONTINUOUS
 10
10.8879518063
 20
17.7911280312
 40
3.0159972355
100
AcDbArc
 50
52.8358587688
 51
55.6532695116
  0
ARC
  5
367
100
AcDbEntity
  8
RACCORDO
100
AcDbCircle
 62
253
  6
CONTINUOUS
 10
-5.4623648671
 20
1.4386574784
 40
2.3667099182
100
AcDbArc
 50
115.3337505405
 51
124.2798534558
  0
ARC
  5
368
100
AcDbEntity
  8
DRAFT
100
AcDbCircle
 62
7
  6
CONTINUOUS
 10
-5.3378033426
 20
2.2637447167
 40
1.6753418567
100
AcDbArc
 50
128.5908536632
 51
130.8533722945
  0
ARC
  5
369
100
AcDbEntity
  8
DRAFT
100
AcDbCircle
 62
7
  6
CONTINUOUS
 10
-3.0323212342
 20
-2.3515624468
 40
1.6674270061
100
AcDbArc
 50
281.6751283104
 51
287.0006233382
  0
ARC
  5
36A
100
AcDbEntity
  8
DRAFT
100
AcDbCircle
 62
7
  6
CONTINUOUS
 10
-5.3609818073
 20
2.2931623702
 40
1.6378907659
100
AcDbArc
 50
123.2548172129
 51
128.5989921185
  0
ARC
  5
36B
100
AcDbEntity
  8
RACCORDO
100
AcDbCircle
 62
253
  6
CONTINUOUS
 10
12.2825944603
 20
-4.1779112005
 40
1.4211863937
100
AcDbArc
 50
297.8410795774
 51
302.3899504564
  0
ARC
  5
36C
100
AcDbEntity
  8
RACCORDO
100
AcDbCircle
 62
253
  6
CONTINUOUS
 10
12.2878349167
 20
15.2981977079
 40
1.4103734586
100
AcDbArc
 50
297.8342619901
 51
300.0775648822
  0
ARC
  5
36D
100
AcDbEntity
  8
0
100
AcDbCircle
 62
253
  6
CONTINUOUS
 10
13.4137868822
 20
-2.9742208914
 40
1.0903847484
100
AcDbArc
 50
302.8981242458
 51
303.6283498193
  0
ARC
  5
36E
100
AcDbEntity
  8
0
100
AcDbCircle
 62
253
  6
CONTINUOUS
 10
13.4137868821
 20
16.5113506939
 40
1.0903847486
100
AcDbArc
 50
302.8981242458
 51
303.628349819
  0
ARC
  5
36F
100
AcDbEntity
  8
RACCORDO
100
AcDbCircle
 62
253
  6
CONTINUOUS
 10
12.2116952785
 20
12.759227784
 40
0.5549415944
100
AcDbArc
 50
231.0978932638
 51
231.4633226856
  0
ARC
  5
370
100
AcDbEntity
  8
ASSI
100
AcDbCircle
 62
253
  6
CONTINUOUS
 10
-11.8906371532
 20
-15.049735226
 40
0.4679501358
100
AcDbArc
 50
236.6435688028
 51
237.3495177374
  0
ARC
  5
371
100
AcDbEntity
  8
ASSI
100
AcDbCircle
 62
253
  6
CONTINUOUS
 10
-11.892076807
 20
-15.0520086929
 40
0.4652592166
100
AcDbArc
 50
237.347743328
 51
240.4077048459
  0
ARC
  5
372
100
AcDbEntity
  8
ASSI
100
AcDbCircle
 62
7
  6
CONTINUOUS
 10
8.4633675668
 20
-20.5236933254
 40
0.1897068997
100
AcDbArc
 50
298.4131232313
 51
301.183179147
  0
ARC
  5
373
100
AcDbEntity
  8
ASSI
100
AcDbCircle
 62
253
  6
CONTINUOUS
 10
8.7345098442
 20
-21.4755421251
 40
0.1325016742
100
AcDbArc
 50
54.4471051637
 51
63.5321853897
  0
ARC
  5
374
100
AcDbEntity
  8
ASSI
100
AcDbCircle
 62
253
  6
CONTINUOUS
 10
8.774490911
 20
-21.4499034135
 40
0.0949111581
100
AcDbArc
 50
63.6308652201
 51
78.3745314914
  0
ARC
  5
375
100
AcDbEntity
  8
ASSI
100
AcDbCircle
 62
253
  6
CONTINUOUS
 10
-5.9137614105
 20
27.5344733217
 40
0.0942986567
100
AcDbArc
 50
63.4461754458
 51
66.0333017028
  0
SPLINE
  5
376
100
AcDbEntity
  8
0
100
AcDbSpline
 62
7
  6
CONTINUOUS
 70
0
 71
3
 72
10
 73
6
 74
4
 42
0.0000001
 43
0.0000001
 44
0.0000000001
 12
-0.0731404821
 22
0.0561109205
 32
0.0
 13
-0.0858715249
 23
-0.0335268062
 33
0.0
 40
0.0
 40
0.0
 40
0.0
 40
0.0
 40
0.2346813736
 40
0.4733241071
 40
1.0
 40
1.0
 40
1.0
 40
1.0
 10
13.1307666591
 20
0.8311095131
 30
0.0
 10
13.1250450895
 20
0.835498909
 30
0.0
 10
13.1121705449
 20
0.8427744902
 30
0.0
 10
13.081838333
 20
0.8496139919
 30
0.0
 10
13.057625549
 20
0.8447966976
 30
0.0
 10
13.0425500617
 20
0.8389107774
 30
0.0
 11
13.1307666591
 21
0.8311095131
 31
0.0
 11
13.1119138667
 21
0.8417208571
 31
0.0
 11
13.0904778827
 21
0.8466666365
 31
0.0
 11
13.0425500617
 21
0.8389107774
 31
0.0
  0
SPLINE
  5
377
100
AcDbEntity
  8
0
100
AcDbSpline
 62
7
  6
CONTINUOUS
 70
0
 71
3
 72
18
 73
14
 74
12
 42
0.0000001
 43
0.0000001
 44
0.0000000001
 12
4.2923026325
 22
-3.2940588285
 32
0.0
 13
-4.5450788161
 23
-2.935463168
 33
0.0
 40
0.0
 40
0.0
 40
0.0
 40
0.0
 40
0.13042793
 40
0.268917258
 40
0.4101133318
 40
0.5480603715
 40
0.6141868035
 40
0.6776652104
 40
0.7953385159
 40
0.8497693503
 40
0.9016005411
 40
0.9514271283
 40
1.0
 40
1.0
 40
1.0
 40
1.0
 10
13.1307667267
 20
0.8311095314
 30
0.0
 10
13.3173787758
 20
0.6878971066
 30
0.0
 10
13.6692840423
 20
0.3485734308
 30
0.0
 10
14.1023105611
 20
-0.2552107349
 30
0.0
 10
14.4354764873
 20
-0.9345105758
 30
0.0
 10
14.6139011139
 20
-1.5347395148
 30
0.0
 10
14.6853276739
 20
-2.0127688941
 30
0.0
 10
14.706457662
 20
-2.4586144121
 30
0.0
 10
14.6572984854
 20
-2.8861616112
 30
0.0
 10
14.5248688555
 20
-3.2692230726
 30
0.0
 10
14.3899954094
 20
-3.5180099276
 30
0.0
 10
14.2180558158
 20
-3.7295218558
 30
0.0
 10
14.0791583873
 20
-3.8425084059
 30
0.0
 10
14.0055692106
 20
-3.8900363645
 30
0.0
 11
13.1307667267
 21
0.8311095314
 31
0.0
 11
13.6427474283
 21
0.3454342689
 31
0.0
 11
14.0817520475
 21
-0.2618076453
 31
0.0
 11
14.4180008754
 21
-0.9477861819
 31
0.0
 11
14.6277219736
 21
-1.6640936185
 31
0.0
 11
14.6799105744
 21
-2.018051121
 31
0.0
 11
14.6952843146
 21
-2.3611636849
 31
0.0
 11
14.6133103869
 21
-2.9925487055
 31
0.0
 11
14.5157280557
 21
-3.2704160477
 31
0.0
 11
14.3808526704
 21
-3.5162905344
 31
0.0
 11
14.209882745
 21
-3.7247352948
 31
0.0
 11
14.0055692106
 21
-3.8900363645
 31
0.0
  0
LINE
  5
378
100
AcDbEntity
  8
0
100
AcDbLine
 62
7
  6
CONTINUOUS
 10
13.0425500617
 20
0.8389107774
 11
12.7099172002
 21
0.7090292309
  0
SPLINE
  5
379
100
AcDbEntity
  8
0
100
AcDbSpline
 62
7
  6
CONTINUOUS
 70
0
 71
3
 72
9
 73
5
 74
3
 42
0.0000001
 43
0.0000001
 44
0.0000000001
 12
-0.512316925
 22
0.3882529764
 32
0.0
 13
-0.5919910922
 23
0.2505105826
 33
0.0
 40
0.0
 40
0.0
 40
0.0
 40
0.0
 40
0.2618317366
 40
1.0
 40
1.0
 40
1.0
 40
1.0
 10
12.7099172002
 20
0.7090292309
 30
0.0
 10
12.6652035901
 20
0.7429148813
 30
0.0
 10
12.4910089005
 20
0.8676492024
 30
0.0
 10
12.3024399621
 20
0.9731194815
 30
0.0
 10
12.15677695
 20
1.0347591354
 30
0.0
 11
12.7099172002
 21
0.7090292309
 31
0.0
 11
12.572998755
 21
0.8069130262
 31
0.0
 11
12.15677695
 21
1.0347591354
 31
0.0
  0
SPLINE
  5
37A
100
AcDbEntity
  8
0
100
AcDbSpline
 62
253
  6
CONTINUOUS
 70
0
 71
3
 72
12
 73
8
 74
6
 42
0.0000001
 43
0.0000001
 44
0.0000000001
 12
0.0
 22
-1.6775316791
 32
0.0
 13
-1.3967953645
 23
-0.9290184304
 33
0.0
 40
0.0
 40
0.0
 40
0.0
 40
0.0
 40
0.2869561317
 40
0.5469185439
 40
0.7819250162
 40
0.8924710733
 40
1.0
 40
1.0
 40
1.0
 40
1.0
 10
14.6486409048
 20
-2.3959059331
 30
0.0
 10
14.6486409048
 20
-2.5563652669
 30
0.0
 10
14.6246262523
 20
-2.8631711464
 30
0.0
 10
14.505512199
 20
-3.2871414019
 30
0.0
 10
14.3357804356
 20
-3.5854892021
 30
0.0
 10
14.1638082816
 20
-3.772726033
 30
0.0
 10
14.0677111932
 20
-3.8488280471
 30
0.0
 10
14.017645891
 20
-3.882126832
 30
0.0
 11
14.6486409048
 21
-2.3959059331
 31
0.0
 11
14.6071165095
 21
-2.8754896118
 31
0.0
 11
14.4842374593
 21
-3.2939149296
 31
0.0
 11
14.2850300702
 21
-3.6341124332
 31
0.0
 11
14.1592392157
 21
-3.7703707476
 31
0.0
 11
14.017645891
 21
-3.882126832
 31
0.0
  0
SPLINE
  5
37B
100
AcDbEntity
  8
0
100
AcDbSpline
 62
253
  6
CONTINUOUS
 70
0
 71
3
 72
15
 73
11
 74
9
 42
0.0000001
 43
0.0000001
 44
0.0000000001
 12
2.8522278437
 22
-2.2803671879
 32
0.0
 13
0.0000000001
 23
-3.6517500166
 33
0.0
 40
0.0
 40
0.0
 40
0.0
 40
0.0
 40
0.1184869915
 40
0.242907374
 40
0.3714339113
 40
0.5019383488
 40
0.6321828085
 40
0.7599419854
 40
0.8831422759
 40
1.0
 40
1.0
 40
1.0
 40
1.0
 10
13.1004240613
 20
0.7937371626
 30
0.0
 10
13.2130746934
 20
0.7036725468
 30
0.0
 10
13.4317565054
 20
0.5033226883
 30
0.0
 10
13.727873599
 20
0.1605079773
 30
0.0
 10
13.9938627266
 20
-0.2240993832
 30
0.0
 10
14.222469435
 20
-0.6400772715
 30
0.0
 10
14.4075348923
 20
-1.0761588871
 30
0.0
 10
14.5440376613
 20
-1.5205739519
 30
0.0
 10
14.6282679867
 20
-1.9612140548
 30
0.0
 10
14.6486409048
 20
-2.2536608679
 30
0.0
 10
14.6486409048
 20
-2.3959059331
 30
0.0
 11
13.1004240613
 21
0.7937371626
 31
0.0
 11
13.4204594388
 21
0.5025438305
 31
0.0
 11
13.7182624167
 21
0.1593977277
 31
0.0
 11
13.9857047385
 21
-0.2262977596
 31
0.0
 11
14.2153775726
 21
-0.6438728492
 31
0.0
 11
14.4009428369
 21
-1.0817999148
 31
0.0
 11
14.5372745747
 21
-1.5279809308
 31
0.0
 11
14.6206071874
 21
-1.9700925491
 31
0.0
 11
14.6486409048
 21
-2.3959059331
 31
0.0
  0
SPLINE
  5
37C
100
AcDbEntity
  8
0
100
AcDbSpline
 62
7
  6
CONTINUOUS
 70
0
 71
3
 72
10
 73
6
 74
4
 42
0.0000001
 43
0.0000001
 44
0.0000000001
 12
-0.0731404821
 22
0.0561109205
 32
0.0
 13
-0.0858715249
 23
-0.0335268062
 33
0.0
 40
0.0
 40
0.0
 40
0.0
 40
0.0
 40
0.2346813736
 40
0.4733241071
 40
1.0
 40
1.0
 40
1.0
 40
1.0
 10
13.1307666591
 20
20.3166810982
 30
0.0
 10
13.1250450895
 20
20.3210704942
 30
0.0
 10
13.1121705449
 20
20.3283460754
 30
0.0
 10
13.081838333
 20
20.3351855771
 30
0.0
 10
13.057625549
 20
20.3303682827
 30
0.0
 10
13.0425500617
 20
20.3244823625
 30
0.0
 11
13.1307666591
 21
20.3166810982
 31
0.0
 11
13.1119138667
 21
20.3272924422
 31
0.0
 11
13.0904778827
 21
20.3322382217
 31
0.0
 11
13.0425500617
 21
20.3244823625
 31
0.0
  0
SPLINE
  5
37D
100
AcDbEntity
  8
0
100
AcDbSpline
 62
7
  6
CONTINUOUS
 70
0
 71
3
 72
18
 73
14
 74
12
 42
0.0000001
 43
0.0000001
 44
0.0000000001
 12
4.2923026325
 22
-3.2940588285
 32
0.0
 13
-4.5450788161
 23
-2.935463168
 33
0.0
 40
0.0
 40
0.0
 40
0.0
 40
0.0
 40
0.13042793
 40
0.268917258
 40
0.4101133318
 40
0.5480603715
 40
0.6141868035
 40
0.6776652104
 40
0.7953385159
 40
0.8497693503
 40
0.9016005411
 40
0.9514271283
 40
1.0
 40
1.0
 40
1.0
 40
1.0
 10
13.1307667267
 20
20.3166811165
 30
0.0
 10
13.3173787758
 20
20.1734686917
 30
0.0
 10
13.6692840423
 20
19.834145016
 30
0.0
 10
14.1023105611
 20
19.2303608503
 30
0.0
 10
14.4354764873
 20
18.5510610093
 30
0.0
 10
14.6139011139
 20
17.9508320703
 30
0.0
 10
14.6853276739
 20
17.4728026911
 30
0.0
 10
14.706457662
 20
17.026957173
 30
0.0
 10
14.6572984854
 20
16.599409974
 30
0.0
 10
14.5248688555
 20
16.2163485125
 30
0.0
 10
14.3899954094
 20
15.9675616575
 30
0.0
 10
14.2180558158
 20
15.7560497293
 30
0.0
 10
14.0791583873
 20
15.6430631792
 30
0.0
 10
14.0055692106
 20
15.5955352206
 30
0.0
 11
13.1307667267
 21
20.3166811165
 31
0.0
 11
13.6427474283
 21
19.831005854
 31
0.0
 11
14.0817520475
 21
19.2237639399
 31
0.0
 11
14.4180008754
 21
18.5377854032
 31
0.0
 11
14.6277219736
 21
17.8214779667
 31
0.0
 11
14.6799105744
 21
17.4675204641
 31
0.0
 11
14.6952843146
 21
17.1244079002
 31
0.0
 11
14.6133103869
 21
16.4930228797
 31
0.0
 11
14.5157280557
 21
16.2151555375
 31
0.0
 11
14.3808526704
 21
15.9692810508
 31
0.0
 11
14.209882745
 21
15.7608362903
 31
0.0
 11
14.0055692106
 21
15.5955352206
 31
0.0
  0
LINE
  5
37E
100
AcDbEntity
  8
0
100
AcDbLine
 62
7
  6
CONTINUOUS
 10
13.0425500617
 20
20.3244823625
 11
12.7099172002
 21
20.1946008161
  0
SPLINE
  5
37F
100
AcDbEntity
  8
0
100
AcDbSpline
 62
253
  6
CONTINUOUS
 70
0
 71
3
 72
12
 73
8
 74
6
 42
0.0000001
 43
0.0000001
 44
0.0000000001
 12
0.0
 22
-1.6775316791
 32
0.0
 13
-1.3967953645
 23
-0.9290184304
 33
0.0
 40
0.0
 40
0.0
 40
0.0
 40
0.0
 40
0.2869561317
 40
0.5469185439
 40
0.7819250162
 40
0.8924710733
 40
1.0
 40
1.0
 40
1.0
 40
1.0
 10
14.6486409048
 20
17.089665652
 30
0.0
 10
14.6486409048
 20
16.9292063182
 30
0.0
 10
14.6246262523
 20
16.6224004388
 30
0.0
 10
14.505512199
 20
16.1984301833
 30
0.0
 10
14.3357804356
 20
15.900082383
 30
0.0
 10
14.1638082816
 20
15.7128455522
 30
0.0
 10
14.0677111932
 20
15.636743538
 30
0.0
 10
14.017645891
 20
15.6034447531
 30
0.0
 11
14.6486409048
 21
17.089665652
 31
0.0
 11
14.6071165095
 21
16.6100819734
 31
0.0
 11
14.4842374593
 21
16.1916566555
 31
0.0
 11
14.2850300702
 21
15.851459152
 31
0.0
 11
14.1592392157
 21
15.7152008375
 31
0.0
 11
14.017645891
 21
15.6034447531
 31
0.0
  0
SPLINE
  5
380
100
AcDbEntity
  8
0
100
AcDbSpline
 62
253
  6
CONTINUOUS
 70
0
 71
3
 72
15
 73
11
 74
9
 42
0.0000001
 43
0.0000001
 44
0.0000000001
 12
2.8522278437
 22
-2.2803671879
 32
0.0
 13
0.0000000001
 23
-3.6517500166
 33
0.0
 40
0.0
 40
0.0
 40
0.0
 40
0.0
 40
0.1184869915
 40
0.242907374
 40
0.3714339113
 40
0.5019383488
 40
0.6321828085
 40
0.7599419854
 40
0.8831422759
 40
1.0
 40
1.0
 40
1.0
 40
1.0
 10
13.1004240613
 20
20.2793087478
 30
0.0
 10
13.2130746934
 20
20.1892441319
 30
0.0
 10
13.4317565054
 20
19.9888942734
 30
0.0
 10
13.727873599
 20
19.6460795625
 30
0.0
 10
13.9938627266
 20
19.261472202
 30
0.0
 10
14.222469435
 20
18.8454943136
 30
0.0
 10
14.4075348923
 20
18.409412698
 30
0.0
 10
14.5440376613
 20
17.9649976333
 30
0.0
 10
14.6282679867
 20
17.5243575304
 30
0.0
 10
14.6486409048
 20
17.2319107173
 30
0.0
 10
14.6486409048
 20
17.089665652
 30
0.0
 11
13.1004240613
 21
20.2793087478
 31
0.0
 11
13.4204594388
 21
19.9881154157
 31
0.0
 11
13.7182624167
 21
19.6449693129
 31
0.0
 11
13.9857047385
 21
19.2592738255
 31
0.0
 11
14.2153775726
 21
18.8416987359
 31
0.0
 11
14.4009428369
 21
18.4037716704
 31
0.0
 11
14.5372745747
 21
17.9575906544
 31
0.0
 11
14.6206071874
 21
17.5154790361
 31
0.0
 11
14.6486409048
 21
17.089665652
 31
0.0
  0
SPLINE
  5
381
100
AcDbEntity
  8
0
100
AcDbSpline
 62
7
  6
CONTINUOUS
 70
0
 71
3
 72
9
 73
5
 74
3
 42
0.0000001
 43
0.0000001
 44
0.0000000001
 12
0.3391459645
 22
-2.0028864351
 32
0.0
 13
0.8719132587
 23
-1.8347592013
 33
0.0
 40
0.0
 40
0.0
 40
0.0
 40
0.0
 40
0.4917414568
 40
1.0
 40
1.0
 40
1.0
 40
1.0
 10
-3.6879462687
 20
2.6254000975
 30
0.0
 10
-3.6323555585
 20
2.297099333
 30
0.0
 10
-3.4681740559
 20
1.6374906411
 30
0.0
 10
-3.216910674
 20
1.0063676919
 30
0.0
 10
-3.0691915532
 20
0.6955236791
 30
0.0
 11
-3.6879462687
 21
2.6254000975
 31
0.0
 11
-3.4498286163
 21
1.6552735826
 31
0.0
 11
-3.0691915532
 21
0.6955236791
 31
0.0
  0
LINE
  5
382
100
AcDbEntity
  8
RACCORDO
100
AcDbLine
 62
7
  6
CONTINUOUS
 10
-2.9283910604
 20
1.4106453204
 11
-3.2978427411
 21
1.2274002594
  0
SPLINE
  5
383
100
AcDbEntity
  8
RACCORDO
100
AcDbSpline
 62
7
  6
CONTINUOUS
 70
0
 71
3
 72
22
 73
18
 74
16
 42
0.0000001
 43
0.0000001
 44
0.0000000001
 12
9.535859078
 22
-7.4214919154
 32
0.0
 13
-10.6858884143
 23
-5.6411824472
 33
0.0
 40
0.0
 40
0.0
 40
0.0
 40
0.0
 40
0.0644545779
 40
0.1314652612
 40
0.2004619267
 40
0.2707870419
 40
0.412246943
 40
0.4819627858
 40
0.5499879307
 40
0.6157092401
 40
0.678661699
 40
0.7385747498
 40
0.7954142123
 40
0.8494048695
 40
0.9010301022
 40
0.9509631742
 40
1.0
 40
1.0
 40
1.0
 40
1.0
 10
12.0885578078
 20
12.3336179307
 30
0.0
 10
12.2934343983
 20
12.1741682211
 30
0.0
 10
12.6930647019
 20
11.8249565693
 30
0.0
 10
13.2453502631
 20
11.2343744889
 30
0.0
 10
13.7546415795
 20
10.576070745
 30
0.0
 10
14.3653644362
 20
9.6229624395
 30
0.0
 10
14.8527669043
 20
8.5917587097
 30
0.0
 10
15.1974952812
 20
7.5201441775
 30
0.0
 10
15.3768944502
 20
6.7192124145
 30
0.0
 10
15.4745953845
 20
5.9316505599
 30
0.0
 10
15.4880361246
 20
5.1706018166
 30
0.0
 10
15.4155056016
 20
4.4485313474
 30
0.0
 10
15.255800618
 20
3.7772151539
 30
0.0
 10
15.008222498
 20
3.1683895933
 30
0.0
 10
14.6727902632
 20
2.6348749866
 30
0.0
 10
14.252832068
 20
2.1914963671
 30
0.0
 10
13.9200185059
 20
1.965241664
 30
0.0
 10
13.7453511564
 20
1.8730331037
 30
0.0
 11
12.0885578078
 21
12.3336179307
 31
0.0
 11
12.6762962465
 21
11.8225884084
 31
0.0
 11
13.2304110492
 21
11.2321564634
 31
0.0
 11
13.7413432939
 21
10.5733392343
 31
0.0
 11
14.2002806388
 21
9.8581522325
 31
0.0
 11
14.9299162359
 21
8.3123686262
 31
0.0
 11
15.1871281403
 21
7.510184204
 31
0.0
 11
15.3656044149
 21
6.7078119784
 31
0.0
 11
15.4616898758
 21
5.9195022925
 31
0.0
 11
15.4729355582
 21
5.1588989209
 31
0.0
 11
15.3979165485
 21
4.4388364743
 31
0.0
 11
15.2359774435
 21
3.7713804627
 31
0.0
 11
14.9871616547
 21
3.1682951428
 31
0.0
 11
14.6525501673
 21
2.6418173095
 31
0.0
 11
14.2358691927
 21
2.2054364283
 31
0.0
 11
13.7453511564
 21
1.8730331037
 31
0.0
  0
SPLINE
  5
384
100
AcDbEntity
  8
RACCORDO
100
AcDbSpline
 62
7
  6
CONTINUOUS
 70
0
 71
3
 72
15
 73
11
 74
9
 42
0.0000001
 43
0.0000001
 44
0.0000000001
 12
4.3908590407
 22
-3.2075141805
 32
0.0
 13
-1.0046084876
 23
-5.3440202208
 33
0.0
 40
0.0
 40
0.0
 40
0.0
 40
0.0
 40
0.1204803933
 40
0.2468600051
 40
0.3771687326
 40
0.5088693353
 40
0.6392331658
 40
0.765715164
 40
0.8863271883
 40
1.0
 40
1.0
 40
1.0
 40
1.0
 10
11.9483033112
 20
0.8977138072
 30
0.0
 10
12.124640786
 20
0.7688996172
 30
0.0
 10
12.4642721424
 20
0.4744465861
 30
0.0
 10
12.9139781892
 20
-0.0429442092
 30
0.0
 10
13.3050723786
 20
-0.6305254169
 30
0.0
 10
13.624707387
 20
-1.2678005709
 30
0.0
 10
13.8619347084
 20
-1.9328210873
 30
0.0
 10
14.0079872026
 20
-2.6033430967
 30
0.0
 10
14.0564930804
 20
-3.2576854384
 30
0.0
 10
14.0192115395
 20
-3.6833543806
 30
0.0
 10
13.9811459824
 20
-3.8858443153
 30
0.0
 11
11.9483033112
 21
0.8977138072
 31
0.0
 11
12.4453669351
 21
0.4709588907
 31
0.0
 11
12.8977601425
 21
-0.0463334878
 31
0.0
 11
13.2912052446
 21
-0.6356320609
 31
0.0
 11
13.6122897841
 21
-1.2757566452
 31
0.0
 11
13.8495089179
 21
-1.9437563799
 31
0.0
 11
13.9939117836
 21
-2.6161880341
 31
0.0
 11
14.0391969657
 21
-3.2704659551
 31
0.0
 11
13.9811459824
 21
-3.8858443153
 31
0.0
  0
SPLINE
  5
385
100
AcDbEntity
  8
RACCORDO
100
AcDbSpline
 62
7
  6
CONTINUOUS
 70
0
 71
3
 72
11
 73
7
 74
5
 42
0.0000001
 43
0.0000001
 44
0.0000000001
 12
-0.3554976573
 22
-1.8910716887
 32
0.0
 13
-1.7016371499
 23
-0.8983104842
 33
0.0
 40
0.0
 40
0.0
 40
0.0
 40
0.0
 40
0.2644102779
 40
0.5165815212
 40
0.7603805269
 40
1.0
 40
1.0
 40
1.0
 40
1.0
 10
13.9811459824
 20
-3.8858443153
 30
0.0
 10
13.9498135709
 20
-4.0525172456
 30
0.0
 10
13.8618735089
 20
-4.3741329976
 30
0.0
 10
13.6421109496
 20
-4.8135741968
 30
0.0
 10
13.3379566755
 20
-5.1801244465
 30
0.0
 10
13.0821712894
 20
-5.362872951
 30
0.0
 10
12.9462561569
 20
-5.434623846
 30
0.0
 11
13.9811459824
 21
-3.8858443153
 31
0.0
 11
13.8437143653
 21
-4.3757084003
 31
0.0
 11
13.623732817
 21
-4.8082049789
 31
0.0
 11
13.3220108687
 21
-5.1674190107
 31
0.0
 11
12.9462561569
 21
-5.434623846
 31
0.0
  0
SPLINE
  5
386
100
AcDbEntity
  8
RACCORDO
100
AcDbSpline
 62
7
  6
CONTINUOUS
 70
0
 71
3
 72
14
 73
10
 74
8
 42
0.0000001
 43
0.0000001
 44
0.0000000001
 12
3.6489026939
 22
-3.359251107
 32
0.0
 13
-0.9160602444
 23
-4.8744120157
 33
0.0
 40
0.0
 40
0.0
 40
0.0
 40
0.0
 40
0.1242413007
 40
0.2527802338
 40
0.38365838
 40
0.5146714346
 40
0.6435927298
 40
0.7684368692
 40
1.0
 40
1.0
 40
1.0
 40
1.0
 10
12.3152841833
 20
20.0810977073
 30
0.0
 10
12.4663989889
 20
19.9419784651
 30
0.0
 10
12.7548720585
 20
19.6377623532
 30
0.0
 10
13.1337812778
 20
19.1274467322
 30
0.0
 10
13.4582997592
 20
18.5678773662
 30
0.0
 10
13.7192741884
 20
17.9754628032
 30
0.0
 10
13.9091243339
 20
17.3665129127
 30
0.0
 10
14.0555507961
 20
16.5770160279
 30
0.0
 10
14.0518852763
 20
15.9761345337
 30
0.0
 10
13.9811766836
 20
15.5998898313
 30
0.0
 11
12.3152841833
 21
20.0810977073
 31
0.0
 11
12.7405893284
 21
19.6352006724
 31
0.0
 11
13.1215074038
 21
19.123992886
 31
0.0
 11
13.44749987
 21
18.5626655449
 31
0.0
 11
13.7091565293
 21
17.9678845914
 31
0.0
 11
13.8985806718
 21
17.3571701894
 31
0.0
 11
14.0097093865
 21
16.7480291587
 31
0.0
 11
13.9811766836
 21
15.5998898313
 31
0.0
  0
SPLINE
  5
387
100
AcDbEntity
  8
RACCORDO
100
AcDbSpline
 62
7
  6
CONTINUOUS
 70
0
 71
3
 72
11
 73
7
 74
5
 42
0.0000001
 43
0.0000001
 44
0.0000000001
 12
-0.3555198209
 22
-1.8917424892
 32
0.0
 13
-1.702476325
 23
-0.8981416097
 33
0.0
 40
0.0
 40
0.0
 40
0.0
 40
0.0
 40
0.2644229007
 40
0.5165995987
 40
0.7604164132
 40
1.0
 40
1.0
 40
1.0
 40
1.0
 10
13.9811766836
 20
15.5998898313
 30
0.0
 10
13.9498408229
 20
15.4331498192
 30
0.0
 10
13.8618722036
 20
15.1114098646
 30
0.0
 10
13.642010964
 20
14.6717982802
 30
0.0
 10
13.3376822359
 20
14.3051831823
 30
0.0
 10
13.081773427
 20
14.1224399251
 30
0.0
 10
12.9458116322
 20
14.0507132623
 30
0.0
 11
13.9811766836
 21
15.5998898313
 31
0.0
 11
13.843701221
 21
15.1098306436
 31
0.0
 11
13.6236190612
 21
14.6771857876
 31
0.0
 11
13.3217067905
 21
14.3178756551
 31
0.0
 11
12.9458116322
 21
14.0507132623
 31
0.0
  0
SPLINE
  5
388
100
AcDbEntity
  8
RACCORDO
100
AcDbSpline
 62
7
  6
CONTINUOUS
 70
0
 71
3
 72
9
 73
5
 74
3
 42
0.0000001
 43
0.0000001
 44
0.0000000001
 12
0.0866905776
 22
-0.4595300984
 32
0.0
 13
0.3374932346
 23
-0.3236996822
 33
0.0
 40
0.0
 40
0.0
 40
0.0
 40
0.0
 40
0.5034643933
 40
1.0
 40
1.0
 40
1.0
 40
1.0
 10
11.943071238
 20
0.9216109267
 30
0.0
 10
11.9576197777
 20
0.8444919126
 30
0.0
 10
12.0121502141
 20
0.6957565042
 30
0.0
 10
12.1056536973
 20
0.5676011286
 30
0.0
 10
12.1615128333
 20
0.5140249892
 30
0.0
 11
11.943071238
 21
0.9216109267
 31
0.0
 11
12.0224067913
 21
0.6999425008
 31
0.0
 11
12.1615128333
 21
0.5140249892
 31
0.0
  0
LINE
  5
389
100
AcDbEntity
  8
RACCORDO
100
AcDbLine
 62
253
  6
CONTINUOUS
 10
11.8659580692
 20
12.3251471916
 11
9.4050315691
 21
11.0967258748
  0
LINE
  5
38A
100
AcDbEntity
  8
RACCORDO
100
AcDbLine
 62
253
  6
CONTINUOUS
 10
11.5907802851
 20
12.8849225661
 11
9.4050315882
 21
11.7910573271
  0
LINE
  5
38B
100
AcDbEntity
  8
RACCORDO
100
AcDbLine
 62
253
  6
CONTINUOUS
 10
12.1615128333
 20
0.5140249892
 11
9.405030243
 21
-0.8664941072
  0
SPLINE
  5
38C
100
AcDbEntity
  8
RACCORDO
100
AcDbSpline
 62
253
  6
CONTINUOUS
 70
0
 71
3
 72
18
 73
14
 74
12
 42
0.0000001
 43
0.0000001
 44
0.0000000001
 12
4.7852417727
 22
-4.63567849
 32
0.0
 13
-5.7653795623
 23
-3.3389298269
 33
0.0
 40
0.0
 40
0.0
 40
0.0
 40
0.0
 40
0.1382144032
 40
0.2823782453
 40
0.4267054792
 40
0.5653893691
 40
0.6310800487
 40
0.6936259938
 40
0.8079500057
 40
0.8599194852
 40
0.9087489865
 40
0.9551342482
 40
1.0
 40
1.0
 40
1.0
 40
1.0
 10
12.1846431673
 20
19.9861861866
 30
0.0
 10
12.4051062792
 20
19.7726136746
 30
0.0
 10
12.8146335563
 20
19.2927926336
 30
0.0
 10
13.3079169228
 20
18.479421219
 30
0.0
 10
13.670653572
 20
17.5987449098
 30
0.0
 10
13.848360135
 20
16.8407737787
 30
0.0
 10
13.9025520806
 20
16.2494933623
 30
0.0
 10
13.8977628356
 20
15.7104192002
 30
0.0
 10
13.8109476043
 20
15.2029907879
 30
0.0
 10
13.6289542128
 20
14.7594194441
 30
0.0
 10
13.4563897565
 20
14.4798095694
 30
0.0
 10
13.2459297268
 20
14.2482086034
 30
0.0
 10
13.0808972072
 20
14.1276687706
 30
0.0
 10
12.994674511
 20
14.0777342382
 30
0.0
 11
12.1846431673
 21
19.9861861866
 31
0.0
 11
12.7860987547
 21
19.2889014596
 31
0.0
 11
13.2856204026
 21
18.4685329334
 31
0.0
 11
13.650455411
 21
17.5788621325
 31
0.0
 11
13.8567060579
 21
16.6782035204
 31
0.0
 11
13.8956941203
 21
16.2422836154
 31
0.0
 11
13.8908309622
 21
15.8256036359
 31
0.0
 11
13.7506172506
 21
15.0769441151
 31
0.0
 11
13.6175510672
 21
14.7572914343
 31
0.0
 11
13.4452607557
 21
14.4813360357
 31
0.0
 11
13.2364285087
 21
14.2535332778
 31
0.0
 11
12.994674511
 21
14.0777342382
 31
0.0
  0
SPLINE
  5
38D
100
AcDbEntity
  8
RACCORDO
100
AcDbSpline
 62
253
  6
CONTINUOUS
 70
0
 71
3
 72
18
 73
14
 74
12
 42
0.0000001
 43
0.0000001
 44
0.0000000001
 12
4.9282646049
 22
-4.5589037128
 32
0.0
 13
-5.6692676413
 23
-3.5959420866
 33
0.0
 40
0.0
 40
0.0
 40
0.0
 40
0.0
 40
0.1365273538
 40
0.2796462622
 40
0.4236160555
 40
0.5625792461
 40
0.6286033611
 40
0.6915779455
 40
0.8068989811
 40
0.8593322994
 40
0.9085368707
 40
0.9551245307
 40
1.0
 40
1.0
 40
1.0
 40
1.0
 10
12.1057812431
 20
0.5752802826
 30
0.0
 10
12.3300622182
 20
0.3678085959
 30
0.0
 10
12.7485813953
 20
-0.1026323224
 30
0.0
 10
13.2569451611
 20
-0.9071405912
 30
0.0
 10
13.6371680177
 20
-1.78562778
 30
0.0
 10
13.8305250343
 20
-2.5464241896
 30
0.0
 10
13.8976468819
 20
-3.1432700676
 30
0.0
 10
13.9050261063
 20
-3.6903816778
 30
0.0
 10
13.8300795928
 20
-4.2077090452
 30
0.0
 10
13.6592355662
 20
-4.6639416021
 30
0.0
 10
13.494075968
 20
-4.9535138924
 30
0.0
 10
13.2903110221
 20
-5.195826079
 30
0.0
 10
13.1286974132
 20
-5.3242022457
 30
0.0
 10
13.0438937311
 20
-5.3779921087
 30
0.0
 11
12.1057812431
 21
0.5752802826
 31
0.0
 11
12.7189504139
 21
-0.1059991588
 31
0.0
 11
13.233975844
 21
-0.9171385925
 31
0.0
 11
13.6168502033
 21
-1.8046156989
 31
0.0
 11
13.8423391188
 21
-2.7098880433
 31
0.0
 11
13.890966715
 21
-3.1504670384
 31
0.0
 11
13.8955482513
 21
-3.5732235526
 31
0.0
 11
13.7729770016
 21
-4.3376698385
 31
0.0
 11
13.6478534177
 21
-4.666693775
 31
0.0
 11
13.4827106025
 21
-4.9527877239
 31
0.0
 11
13.2802746135
 21
-5.1912055911
 31
0.0
 11
13.0438937311
 21
-5.3779921087
 31
0.0
  0
SPLINE
  5
38E
100
AcDbEntity
  8
RACCORDO
100
AcDbSpline
 62
7
  6
CONTINUOUS
 70
0
 71
3
 72
15
 73
11
 74
9
 42
0.0000001
 43
0.0000001
 44
0.0000000001
 12
4.896225774
 22
6.311807898
 32
0.0
 13
-4.1720997484
 23
6.8121604107
 33
0.0
 40
0.0
 40
0.0
 40
0.0
 40
0.0
 40
0.09682914
 40
0.2025965571
 40
0.3181683414
 40
0.4431250132
 40
0.5760718974
 40
0.7149270751
 40
0.8571593562
 40
1.0
 40
1.0
 40
1.0
 40
1.0
 10
10.0696399421
 20
0.2000828639
 30
0.0
 10
10.2276723857
 20
0.403805174
 30
0.0
 10
10.5017673403
 20
0.8755343233
 30
0.0
 10
10.7604971753
 20
1.6875833188
 30
0.0
 10
10.8792193545
 20
2.6063252144
 30
0.0
 10
10.8555916701
 20
3.60378183
 30
0.0
 10
10.6912464981
 20
4.6501656502
 30
0.0
 10
10.3914134971
 20
5.7136154083
 30
0.0
 10
9.9655193116
 20
6.7613090159
 30
0.0
 10
9.6044917491
 20
7.4310546699
 30
0.0
 10
9.4058432777
 20
7.7554057962
 30
0.0
 11
10.0696399421
 21
0.2000828639
 31
0.0
 11
10.4646969491
 21
0.8650815534
 31
0.0
 11
10.7287523169
 21
1.6676541829
 31
0.0
 11
10.8534507262
 21
2.5824088418
 31
0.0
 11
10.8348494107
 21
3.5804191371
 31
0.0
 11
10.6735379389
 21
4.6301080012
 31
0.0
 11
10.3746211443
 21
5.6982800779
 31
0.0
 11
9.9475519127
 21
6.7511470796
 31
0.0
 11
9.4058432777
 21
7.7554057962
 31
0.0
  0
SPLINE
  5
38F
100
AcDbEntity
  8
RACCORDO
100
AcDbSpline
 62
253
  6
CONTINUOUS
 70
0
 71
3
 72
11
 73
7
 74
5
 42
0.0000001
 43
0.0000001
 44
0.0000000001
 12
0.0071637563
 22
-0.6373728276
 32
0.0
 13
0.4960511018
 23
-0.4002858293
 33
0.0
 40
0.0
 40
0.0
 40
0.0
 40
0.0
 40
0.23983016
 40
0.4984281216
 40
0.7578623975
 40
1.0
 40
1.0
 40
1.0
 40
1.0
 10
11.5907803369
 20
12.8849225375
 30
0.0
 10
11.5913530319
 20
12.8339687951
 30
0.0
 10
11.607302786
 20
12.7280818129
 30
0.0
 10
11.6640966518
 20
12.5763731198
 30
0.0
 10
11.7491719621
 20
12.437946983
 30
0.0
 10
11.8231590383
 20
12.3596691942
 30
0.0
 10
11.8631965798
 20
12.3273611105
 30
0.0
 11
11.5907803369
 21
12.8849225375
 31
0.0
 11
11.611657417
 21
12.7334839224
 31
0.0
 11
11.668807302
 21
12.5788745845
 31
0.0
 11
11.7558841444
 21
12.4382907919
 31
0.0
 11
11.8631965798
 21
12.3273611105
 31
0.0
  0
SPLINE
  5
390
100
AcDbEntity
  8
RACCORDO
100
AcDbSpline
 62
7
  6
CONTINUOUS
 70
0
 71
3
 72
10
 73
6
 74
4
 42
0.0000001
 43
0.0000001
 44
0.0000000001
 12
0.3105229534
 22
-0.2264660389
 32
0.0
 13
0.1857984537
 23
-0.3364376703
 33
0.0
 40
0.0
 40
0.0
 40
0.0
 40
0.0
 40
0.487328401
 40
0.7379283885
 40
1.0
 40
1.0
 40
1.0
 40
1.0
 10
11.5907802851
 20
12.8849225661
 30
0.0
 10
11.6412225032
 20
12.8481347886
 30
0.0
 10
11.7175154001
 20
12.7915764884
 30
0.0
 10
11.8057981937
 20
12.6981713693
 30
0.0
 10
11.8428894159
 20
12.6434793881
 30
0.0
 10
11.8591202493
 20
12.6140891339
 30
0.0
 11
11.5907802851
 21
12.8849225661
 31
0.0
 11
11.7371289435
 21
12.7680384709
 31
0.0
 11
11.8028336034
 21
12.6976167126
 31
0.0
 11
11.8591202493
 21
12.6140891339
 31
0.0
  0
SPLINE
  5
391
100
AcDbEntity
  8
RACCORDO
100
AcDbSpline
 62
253
  6
CONTINUOUS
 70
0
 71
3
 72
22
 73
18
 74
16
 42
0.0000001
 43
0.0000001
 44
0.0000000001
 12
9.3958754659
 22
-7.4387927448
 32
0.0
 13
-10.5979662276
 23
-5.5947497808
 33
0.0
 40
0.0
 40
0.0
 40
0.0
 40
0.0
 40
0.0653924601
 40
0.1336925707
 40
0.204226518
 40
0.2762197279
 40
0.4210826886
 40
0.4923683567
 40
0.5617559467
 40
0.6285214999
 40
0.6920644829
 40
0.7519533973
 40
0.8079778571
 40
0.8602065636
 40
0.9090442651
 40
0.9552672818
 40
1.0
 40
1.0
 40
1.0
 40
1.0
 10
11.9111657642
 20
12.2896599454
 30
0.0
 10
12.1159722347
 20
12.1275129595
 30
0.0
 10
12.5163343615
 20
11.7723050015
 30
0.0
 10
13.0708301225
 20
11.1723547294
 30
0.0
 10
13.5840913572
 20
10.5031067892
 30
0.0
 10
14.2012922387
 20
9.5338766028
 30
0.0
 10
14.695222865
 20
8.4868534878
 30
0.0
 10
15.0461904126
 20
7.400401
 30
0.0
 10
15.2296904221
 20
6.5910473525
 30
0.0
 10
15.3312825335
 20
5.7985095481
 30
0.0
 10
15.3489963277
 20
5.0374070028
 30
0.0
 10
15.2822999648
 20
4.3218170892
 30
0.0
 10
15.1320133684
 20
3.6648788345
 30
0.0
 10
14.9002029311
 20
3.078767647
 30
0.0
 10
14.589957989
 20
2.5747310477
 30
0.0
 10
14.2062388032
 20
2.1636445995
 30
0.0
 10
13.903376404
 20
1.9564559537
 30
0.0
 10
13.745351125
 20
1.8730331652
 30
0.0
 11
11.9111657642
 21
12.2896599454
 31
0.0
 11
12.4986856634
 21
11.7710498931
 31
0.0
 11
13.055337008
 21
11.1709631071
 31
0.0
 11
13.5705241197
 21
10.5008229943
 31
0.0
 11
14.0344377796
 21
9.7733891509
 31
0.0
 11
14.7742572981
 21
8.2028691659
 31
0.0
 11
15.0360768474
 21
7.3896859132
 31
0.0
 11
15.2187185695
 21
6.5784453957
 31
0.0
 11
15.3187049824
 21
5.7845937514
 31
0.0
 11
15.334132359
 21
5.0232460076
 31
0.0
 11
15.2647069583
 21
4.3088983156
 31
0.0
 11
15.1117506184
 21
3.6551519667
 31
0.0
 11
14.8781756089
 21
3.0744544283
 31
0.0
 11
14.5684292595
 21
2.5778622522
 31
0.0
 11
14.1884092192
 21
2.1748305791
 31
0.0
 11
13.745351125
 21
1.8730331652
 31
0.0
  0
SPLINE
  5
392
100
AcDbEntity
  8
RACCORDO
100
AcDbSpline
 62
253
  6
CONTINUOUS
 70
0
 71
3
 72
9
 73
5
 74
3
 42
0.0000001
 43
0.0000001
 44
0.0000000001
 12
0.0680209159
 22
0.0328509727
 32
0.0
 13
0.0729938065
 23
0.0194405665
 33
0.0
 40
0.0
 40
0.0
 40
0.0
 40
0.0
 40
0.2630091839
 40
1.0
 40
1.0
 40
1.0
 40
1.0
 10
11.8659580692
 20
12.3251471916
 30
0.0
 10
11.8719214444
 20
12.3280272274
 30
0.0
 10
11.8948137969
 20
12.3385076924
 30
0.0
 10
11.9186235653
 20
12.3470704407
 30
0.0
 10
11.936555487
 20
12.3518462803
 30
0.0
 11
11.8659580692
 21
12.3251471916
 31
0.0
 11
11.8840267035
 21
12.3334074887
 31
0.0
 11
11.936555487
 21
12.3518462803
 31
0.0
  0
SPLINE
  5
393
100
AcDbEntity
  8
RACCORDO
100
AcDbSpline
 62
253
  6
CONTINUOUS
 70
0
 71
3
 72
9
 73
5
 74
3
 42
0.0000001
 43
0.0000001
 44
0.0000000001
 12
0.0625450426
 22
0.0166577292
 32
0.0
 13
0.0647252598
 23
0.0000552056
 33
0.0
 40
0.0
 40
0.0
 40
0.0
 40
0.0
 40
0.2657784243
 40
1.0
 40
1.0
 40
1.0
 40
1.0
 10
11.936555487
 20
12.3518462803
 30
0.0
 10
11.9420965279
 20
12.3533220354
 30
0.0
 10
11.963080315
 20
12.3583170961
 30
0.0
 10
11.9846991419
 20
12.3609292848
 30
0.0
 10
12.000540036
 20
12.3609427959
 30
0.0
 11
11.936555487
 21
12.3518462803
 31
0.0
 11
11.9532954617
 21
12.3558088724
 31
0.0
 11
12.000540036
 21
12.3609427959
 31
0.0
  0
SPLINE
  5
394
100
AcDbEntity
  8
RACCORDO
100
AcDbSpline
 62
253
  6
CONTINUOUS
 70
0
 71
3
 72
9
 73
5
 74
3
 42
0.0000001
 43
0.0000001
 44
0.0000000001
 12
0.0934690575
 22
0.0000797218
 32
0.0
 13
0.0737625009
 23
-0.0574070076
 33
0.0
 40
0.0
 40
0.0
 40
0.0
 40
0.0
 40
0.5228579681
 40
1.0
 40
1.0
 40
1.0
 40
1.0
 10
12.000540036
 20
12.3609427959
 30
0.0
 10
12.0168303831
 20
12.3609566903
 30
0.0
 10
12.0482937899
 20
12.357164082
 30
0.0
 10
12.0768122894
 20
12.3427309206
 30
0.0
 10
12.0885440193
 20
12.3336004885
 30
0.0
 11
12.000540036
 21
12.3609427959
 31
0.0
 11
12.0489270889
 21
12.3540817801
 31
0.0
 11
12.0885440193
 21
12.3336004885
 31
0.0
  0
SPLINE
  5
395
100
AcDbEntity
  8
DRAFT
100
AcDbSpline
 62
7
  6
CONTINUOUS
 70
0
 71
3
 72
19
 73
15
 74
13
 42
0.0000001
 43
0.0000001
 44
0.0000000001
 12
-6.4507860863
 22
-5.5780954139
 32
0.0
 13
7.6277278178
 23
-3.8138639089
 33
0.0
 40
0.0
 40
0.0
 40
0.0
 40
0.0
 40
0.0456820038
 40
0.0941121463
 40
0.1460874699
 40
0.2019937032
 40
0.2618493778
 40
0.3253748062
 40
0.4610480921
 40
0.6033114359
 40
0.744993254
 40
0.8134481349
 40
0.8791945226
 40
1.0
 40
1.0
 40
1.0
 40
1.0
 10
-6.4336871357
 20
3.5309499285
 30
0.0
 10
-6.5319154138
 20
3.4460104033
 30
0.0
 10
-6.7143479351
 20
3.2469009177
 30
0.0
 10
-6.927352972
 20
2.8875991383
 30
0.0
 10
-7.0828093178
 20
2.4690969782
 30
0.0
 10
-7.1782661233
 20
2.0002732848
 30
0.0
 10
-7.2124473379
 20
1.4903984962
 30
0.0
 10
-7.1748323629
 20
0.7535729112
 30
0.0
 10
-6.969734185
 20
-0.202258942
 30
0.0
 10
-6.5128375942
 20
-1.3101155883
 30
0.0
 10
-5.9745916926
 20
-2.1618889694
 30
0.0
 10
-5.4664239469
 20
-2.7608975032
 30
0.0
 10
-4.9445408187
 20
-3.2646651005
 30
0.0
 10
-4.5041630381
 20
-3.5726180662
 30
0.0
 10
-4.197005938
 20
-3.7261966162
 30
0.0
 11
-6.4336871357
 21
3.5309499285
 31
0.0
 11
-6.6983685161
 21
3.2450908284
 31
0.0
 11
-6.9113556065
 21
2.891229301
 31
0.0
 11
-7.0682465218
 21
2.4766758264
 31
0.0
 11
-7.1658010227
 21
2.0099914258
 31
0.0
 11
-7.2019953459
 21
1.500823524
 31
0.0
 11
-7.1760816273
 21
0.9596950519
 31
0.0
 11
-6.9413604673
 21
-0.1732762147
 31
0.0
 11
-6.4809468898
 21
-1.2957497402
 31
0.0
 11
-5.8326945147
 21
-2.3154003766
 31
0.0
 11
-5.4542914666
 21
-2.7599436237
 31
0.0
 11
-5.0499444428
 21
-3.1483708609
 31
0.0
 11
-4.197005938
 21
-3.7261966162
 31
0.0
  0
SPLINE
  5
396
100
AcDbEntity
  8
ASSI
100
AcDbSpline
 62
7
  6
CONTINUOUS
 70
0
 71
3
 72
13
 73
9
 74
7
 42
0.0000001
 43
0.0000001
 44
0.0000000001
 12
0.3092727818
 22
-0.5497306504
 32
0.0
 13
-0.4979572077
 23
-0.3871589608
 33
0.0
 40
0.0
 40
0.0
 40
0.0
 40
0.0
 40
0.2942061298
 40
0.5679729652
 40
0.6912605556
 40
0.8036201313
 40
0.9057779327
 40
1.0
 40
1.0
 40
1.0
 40
1.0
 10
7.7983514778
 20
23.2590503047
 30
0.0
 10
7.8286814605
 20
23.205138929
 30
0.0
 10
7.8754839288
 20
23.0940208163
 30
0.0
 10
7.899005725
 20
22.9486225338
 30
0.0
 10
7.8911392316
 20
22.8413361128
 30
0.0
 10
7.8729537938
 20
22.7721624436
 30
0.0
 10
7.8426479556
 20
22.7140663024
 30
0.0
 10
7.8139909969
 20
22.6833863756
 30
0.0
 10
7.7983514778
 20
22.6712267364
 30
0.0
 11
7.7983514778
 21
23.2590503047
 31
0.0
 11
7.8697959503
 21
23.0877821352
 31
0.0
 11
7.8947882176
 21
22.9169201506
 31
0.0
 11
7.8884941057
 21
22.8394108685
 31
0.0
 11
7.8697959503
 21
22.7710504334
 31
0.0
 11
7.8393305433
 21
22.7142706519
 31
0.0
 11
7.7983514778
 21
22.6712267364
 31
0.0
  0
SPLINE
  5
397
100
AcDbEntity
  8
DRAFT
100
AcDbSpline
 62
7
  6
CONTINUOUS
 70
0
 71
3
 72
11
 73
7
 74
5
 42
0.0000001
 43
0.0000001
 44
0.0000000001
 12
1.3872006783
 22
-0.6936003391
 32
0.0
 13
1.5188061627
 23
0.3140620836
 33
0.0
 40
0.0
 40
0.0
 40
0.0
 40
0.0
 40
0.2741538701
 40
0.5307581605
 40
0.7715195092
 40
1.0
 40
1.0
 40
1.0
 40
1.0
 10
-4.197005938
 20
-3.7261966162
 30
0.0
 10
-4.0702371265
 20
-3.789581022
 30
0.0
 10
-3.8168096562
 20
-3.8973021033
 30
0.0
 10
-3.429439208
 20
-3.9988200561
 30
0.0
 10
-3.053840958
 20
-4.0325786372
 30
0.0
 10
-2.8105695584
 20
-4.0084106532
 30
0.0
 10
-2.6948970326
 20
-3.9844916335
 30
0.0
 11
-4.197005938
 21
-3.7261966162
 31
0.0
 11
-3.8049456514
 21
-3.8907565197
 31
0.0
 11
-3.4194491879
 21
-3.9896420252
 31
0.0
 11
-3.0473659536
 21
-4.0210420688
 31
0.0
 11
-2.6948970326
 21
-3.9844916335
 31
0.0
  0
SPLINE
  5
398
100
AcDbEntity
  8
ASSI
100
AcDbSpline
 62
253
  6
CONTINUOUS
 70
0
 71
3
 72
11
 73
7
 74
5
 42
0.0000001
 43
0.0000001
 44
0.0000000001
 12
0.0075213618
 22
-0.2148850632
 32
0.0
 13
0.1862299081
 23
-0.1074736367
 33
0.0
 40
0.0
 40
0.0
 40
0.0
 40
0.0
 40
0.2161856707
 40
0.448327406
 40
0.708093892
 40
1.0
 40
1.0
 40
1.0
 40
1.0
 10
-12.5397778835
 20
-14.6956485637
 30
0.0
 10
-12.53923588
 20
-14.7111335875
 30
0.0
 10
-12.5325106576
 20
-14.7432569715
 30
0.0
 10
-12.5068742225
 20
-14.7878193751
 30
0.0
 10
-12.4671997249
 20
-14.8282390744
 30
0.0
 10
-12.434334205
 20
-14.8506342337
 30
0.0
 10
-12.4162136558
 20
-14.8610916374
 30
0.0
 11
-12.5397778835
 21
-14.6956485637
 31
0.0
 11
-12.5305395654
 21
-14.7412048043
 31
0.0
 11
-12.506295462
 21
-14.7848358104
 31
0.0
 11
-12.4677309416
 21
-14.8252395299
 31
0.0
 11
-12.4162136558
 21
-14.8610916374
 31
0.0
  0
SPLINE
  5
399
100
AcDbEntity
  8
ASSI
100
AcDbSpline
 62
253
  6
CONTINUOUS
 70
0
 71
3
 72
11
 73
7
 74
5
 42
0.0000001
 43
0.0000001
 44
0.0000000001
 12
-0.0069088798
 22
-0.2135331846
 32
0.0
 13
0.1858848867
 23
-0.1053136384
 33
0.0
 40
0.0
 40
0.0
 40
0.0
 40
0.0
 40
0.2056069763
 40
0.4328959395
 40
0.6962131395
 40
1.0
 40
1.0
 40
1.0
 40
1.0
 10
-12.5397965954
 20
21.461876843
 30
0.0
 10
-12.5402701
 20
21.4472422055
 30
0.0
 10
-12.5348979848
 20
21.4159899317
 30
0.0
 10
-12.5095024301
 20
21.3725207153
 30
0.0
 10
-12.4688752608
 20
21.3324909625
 30
0.0
 10
-12.4350272413
 20
21.3100644243
 30
0.0
 10
-12.4162041126
 20
21.2994001244
 30
0.0
 11
-12.5397965954
 21
21.461876843
 31
0.0
 11
-12.5328168035
 21
21.4185080305
 31
0.0
 11
-12.5092723386
 21
21.3760386581
 31
0.0
 11
-12.4699004424
 21
21.335856144
 31
0.0
 11
-12.4162041126
 21
21.2994001244
 31
0.0
  0
SPLINE
  5
39A
100
AcDbEntity
  8
ASSI
100
AcDbSpline
 62
253
  6
CONTINUOUS
 70
0
 71
3
 72
11
 73
7
 74
5
 42
0.0000001
 43
0.0000001
 44
0.0000000001
 12
0.2112905372
 22
0.1251305382
 32
0.0
 13
0.2219907159
 23
-0.1049831642
 33
0.0
 40
0.0
 40
0.0
 40
0.0
 40
0.0
 40
0.223697647
 40
0.4596515511
 40
0.7172199347
 40
1.0
 40
1.0
 40
1.0
 40
1.0
 10
-11.8366597968
 20
22.6964171718
 30
0.0
 10
-11.8209047315
 20
22.7057476408
 30
0.0
 10
-11.785340228
 20
22.7199492295
 30
0.0
 10
-11.7261777478
 20
22.7252028392
 30
0.0
 10
-11.6629242472
 20
22.7150227509
 30
0.0
 10
-11.6212777925
 20
22.6993022136
 30
0.0
 10
-11.6003529428
 20
22.6894064983
 30
0.0
 11
-11.8366597968
 21
22.6964171718
 31
0.0
 11
-11.7857315818
 21
22.7170044136
 31
0.0
 11
-11.7280744224
 21
22.7227388442
 31
0.0
 11
-11.6655195988
 21
22.7133914437
 31
0.0
 11
-11.6003529428
 21
22.6894064983
 31
0.0
  0
SPLINE
  5
39B
100
AcDbEntity
  8
ASSI
100
AcDbSpline
 62
253
  6
CONTINUOUS
 70
0
 71
3
 72
11
 73
7
 74
5
 42
0.0000001
 43
0.0000001
 44
0.0000000001
 12
-0.55262749
 22
0.3637860026
 32
0.0
 13
-0.0246839061
 23
0.6611566404
 33
0.0
 40
0.0
 40
0.0
 40
0.0
 40
0.0
 40
0.2207351984
 40
0.456964294
 40
0.7158815231
 40
1.0
 40
1.0
 40
1.0
 40
1.0
 10
-12.1479375451
 20
-15.4405981661
 30
0.0
 10
-12.1885989913
 20
-15.4138313742
 30
0.0
 10
-12.2643112767
 20
-15.3446488914
 30
0.0
 10
-12.3472075232
 20
-15.2082976616
 30
0.0
 10
-12.4000307199
 20
-15.0433958152
 30
0.0
 10
-12.4138759398
 20
-14.9237071543
 30
0.0
 10
-12.4162136578
 20
-14.8610915484
 30
0.0
 11
-12.1479375451
 21
-15.4405981661
 31
0.0
 11
-12.2564246954
 21
-15.3428287057
 31
0.0
 11
-12.3391694728
 21
-15.2102357917
 31
0.0
 11
-12.3931017033
 21
-15.0476430126
 31
0.0
 11
-12.4162136578
 21
-14.8610915484
 31
0.0
  0
SPLINE
  5
39C
100
AcDbEntity
  8
ASSI
100
AcDbSpline
 62
253
  6
CONTINUOUS
 70
0
 71
3
 72
15
 73
11
 74
9
 42
0.0000001
 43
0.0000001
 44
0.0000000001
 12
0.7243265149
 22
0.3527323816
 32
0.0
 13
0.0001228057
 23
-0.8056481975
 33
0.0
 40
0.0
 40
0.0
 40
0.0
 40
0.0
 40
0.1338353339
 40
0.2551617679
 40
0.3675969175
 40
0.4771736623
 40
0.5907586865
 40
0.7140078628
 40
0.8501922091
 40
1.0
 40
1.0
 40
1.0
 40
1.0
 10
5.7000819089
 20
26.1463291893
 30
0.0
 10
5.7323954026
 20
26.162065208
 30
0.0
 10
5.7970193674
 20
26.186580031
 30
0.0
 10
5.8960286637
 20
26.1991976185
 30
0.0
 10
5.9885080523
 20
26.1842405684
 30
0.0
 10
6.0696823081
 20
26.141491352
 30
0.0
 10
6.1351026368
 20
26.0733685911
 30
0.0
 10
6.1824781292
 20
25.9839026513
 30
0.0
 10
6.2108767455
 20
25.8769650057
 30
0.0
 10
6.2166029775
 20
25.7999508027
 30
0.0
 10
6.2166091099
 20
25.7597200105
 30
0.0
 11
5.7000819089
 21
26.1463291893
 31
0.0
 11
5.8013159169
 21
26.1834470157
 31
0.0
 11
5.8984241846
 21
26.1945981478
 31
0.0
 11
5.9877136059
 21
26.1793432748
 31
0.0
 11
6.0658596273
 21
26.1382748916
 31
0.0
 11
6.129908476
 21
26.0729162917
 31
0.0
 11
6.1774619654
 21
25.9857483069
 31
0.0
 11
6.2067297323
 21
25.8800073666
 31
0.0
 11
6.2166091099
 21
25.7597200105
 31
0.0
  0
SPLINE
  5
39D
100
AcDbEntity
  8
ASSI
100
AcDbSpline
 62
253
  6
CONTINUOUS
 70
0
 71
3
 72
9
 73
5
 74
3
 42
0.0000001
 43
0.0000001
 44
0.0000000001
 12
-0.000000754
 22
0.2513982113
 32
0.0
 13
0.1608506199
 23
0.1932049138
 33
0.0
 40
0.0
 40
0.0
 40
0.0
 40
0.0
 40
0.4867531172
 40
1.0
 40
1.0
 40
1.0
 40
1.0
 10
6.3882573374
 20
-22.7282586674
 30
0.0
 10
6.3882572151
 20
-22.6874690464
 30
0.0
 10
6.4068038898
 20
-22.6036349472
 30
0.0
 10
6.4494355566
 20
-22.5297741447
 30
0.0
 10
6.4769542497
 20
-22.4967202048
 30
0.0
 11
6.3882573374
 21
-22.7282586674
 31
0.0
 11
6.4120189419
 21
-22.6082189874
 31
0.0
 11
6.4769542497
 21
-22.4967202048
 31
0.0
  0
SPLINE
  5
39E
100
AcDbEntity
  8
ASSI
100
AcDbSpline
 62
7
  6
CONTINUOUS
 70
0
 71
3
 72
9
 73
5
 74
3
 42
0.0000001
 43
0.0000001
 44
0.0000000001
 12
0.2324688511
 22
0.1684806076
 32
0.0
 13
0.2481081076
 23
0.1444640054
 33
0.0
 40
0.0
 40
0.0
 40
0.0
 40
0.0
 40
0.4392426407
 40
1.0
 40
1.0
 40
1.0
 40
1.0
 10
5.4527888189
 20
-22.260525837
 30
0.0
 10
5.4868255629
 20
-22.2358578813
 30
0.0
 10
5.5663629799
 20
-22.1825482948
 30
0.0
 10
5.6478941264
 20
-22.1323813024
 30
0.0
 10
5.6942702754
 20
-22.1053782176
 30
0.0
 11
5.4527888189
 21
-22.260525837
 31
0.0
 11
5.5570826715
 21
-22.1896325077
 31
0.0
 11
5.6942702754
 21
-22.1053782176
 31
0.0
  0
SPLINE
  5
39F
100
AcDbEntity
  8
ASSI
100
AcDbSpline
 62
253
  6
CONTINUOUS
 70
0
 71
3
 72
11
 73
7
 74
5
 42
0.0000001
 43
0.0000001
 44
0.0000000001
 12
0.0000057678
 22
-0.1576423069
 32
0.0
 13
0.1409405807
 23
-0.0706176301
 33
0.0
 40
0.0
 40
0.0
 40
0.0
 40
0.0
 40
0.2890071824
 40
0.5489866381
 40
0.7822674779
 40
1.0
 40
1.0
 40
1.0
 40
1.0
 10
6.3882573293
 20
18.5713613918
 30
0.0
 10
6.3882578849
 20
18.5561748055
 30
0.0
 10
6.3907512873
 20
18.5272223909
 30
0.0
 10
6.4031062683
 20
18.4875974823
 30
0.0
 10
6.423855901
 20
18.4558338313
 30
0.0
 10
6.4432176678
 20
18.4411613175
 30
0.0
 10
6.4534467838
 20
18.4360360659
 30
0.0
 11
6.3882573293
 21
18.5713613918
 31
0.0
 11
6.3925950499
 21
18.5260085989
 31
0.0
 11
6.4053627447
 21
18.4870643484
 31
0.0
 11
6.4259682101
 21
18.4566043704
 31
0.0
 11
6.4534467838
 21
18.4360360659
 31
0.0
  0
SPLINE
  5
3A0
100
AcDbEntity
  8
ASSI
100
AcDbSpline
 62
253
  6
CONTINUOUS
 70
0
 71
3
 72
15
 73
11
 74
9
 42
0.0000001
 43
0.0000001
 44
0.0000000001
 12
0.0267333508
 22
-0.7242687755
 32
0.0
 13
0.6701640539
 23
0.2759711436
 33
0.0
 40
0.0
 40
0.0
 40
0.0
 40
0.0
 40
0.1457269165
 40
0.2792753725
 40
0.4018041859
 40
0.5165831376
 40
0.628599918
 40
0.743537831
 40
0.8663203531
 40
1.0
 40
1.0
 40
1.0
 40
1.0
 10
3.0054075525
 20
-22.2101542024
 30
0.0
 10
3.0067061421
 20
-22.2453360208
 30
0.0
 10
3.0143646474
 20
-22.3127618711
 30
0.0
 10
3.0434006283
 20
-22.4060868186
 30
0.0
 10
3.0889826908
 20
-22.4842758442
 30
0.0
 10
3.1500226088
 20
-22.5441895196
 30
0.0
 10
3.224356484
 20
-22.5828668091
 30
0.0
 10
3.3085093762
 20
-22.5986338218
 30
0.0
 10
3.3988147207
 20
-22.5914901278
 30
0.0
 10
3.4584412513
 20
-22.5729126959
 30
0.0
 10
3.4883036827
 20
-22.5606154542
 30
0.0
 11
3.0054075525
 21
-22.2101542024
 31
0.0
 11
3.0181083798
 21
-22.3150050925
 31
0.0
 11
3.0477243515
 21
-22.4071536771
 31
0.0
 11
3.0932140494
 21
-22.4834221364
 31
0.0
 11
3.1529904557
 21
-22.5412747784
 31
0.0
 11
3.2249980867
 21
-22.5787712731
 31
0.0
 11
3.3067624762
 21
-22.5947059123
 31
0.0
 11
3.3955389468
 21
-22.5885723212
 31
0.0
 11
3.4883036827
 21
-22.5606154542
 31
0.0
  0
SPLINE
  5
3A1
100
AcDbEntity
  8
ASSI
100
AcDbSpline
 62
253
  6
CONTINUOUS
 70
0
 71
3
 72
11
 73
7
 74
5
 42
0.0000001
 43
0.0000001
 44
0.0000000001
 12
-0.8610578597
 22
-0.4625328674
 32
0.0
 13
-0.034834436
 23
-0.9768028733
 33
0.0
 40
0.0
 40
0.0
 40
0.0
 40
0.0
 40
0.2334199064
 40
0.4910057105
 40
0.7535333017
 40
1.0
 40
1.0
 40
1.0
 40
1.0
 10
3.4883036997
 20
14.7219075275
 30
0.0
 10
3.4213076847
 20
14.6859194012
 30
0.0
 10
3.2936866549
 20
14.5849630017
 30
0.0
 10
3.143970683
 20
14.3878579796
 30
0.0
 10
3.0399634872
 20
14.1585916965
 30
0.0
 10
3.0082694047
 20
13.9934447488
 30
0.0
 10
3.0054075619
 20
13.9131949558
 30
0.0
 11
3.4883036997
 21
14.7219075275
 31
0.0
 11
3.3067624934
 21
14.583721813
 31
0.0
 11
3.1529904735
 21
14.3843664801
 31
0.0
 11
3.0477243705
 21
14.1503515761
 31
0.0
 11
3.0054075619
 21
13.9131949558
 31
0.0
  0
SPLINE
  5
3A2
100
AcDbEntity
  8
ASSI
100
AcDbSpline
 62
253
  6
CONTINUOUS
 70
0
 71
3
 72
11
 73
7
 74
5
 42
0.0000001
 43
0.0000001
 44
0.0000000001
 12
-0.4050136794
 22
0.2024841855
 32
0.0
 13
-0.4094659413
 23
-0.1933224478
 33
0.0
 40
0.0
 40
0.0
 40
0.0
 40
0.0
 40
0.2282020407
 40
0.4663331274
 40
0.7222036235
 40
1.0
 40
1.0
 40
1.0
 40
1.0
 10
10.7407283467
 20
24.0838217
 30
0.0
 10
10.7099200307
 20
24.0992241348
 30
0.0
 10
10.642281202
 20
24.1220715519
 30
0.0
 10
10.5324302365
 20
24.1290383955
 30
0.0
 10
10.41671054
 20
24.1095035086
 30
0.0
 10
10.3409251823
 20
24.0807829101
 30
0.0
 10
10.3030091307
 20
24.062881485
 30
0.0
 11
10.7407283467
 21
24.0838217
 31
0.0
 11
10.6429328106
 21
24.1171911342
 31
0.0
 11
10.535377592
 21
24.1248544968
 31
0.0
 11
10.4209704148
 21
24.1065613132
 31
0.0
 11
10.3030091307
 21
24.062881485
 31
0.0
  0
SPLINE
  5
3A3
100
AcDbEntity
  8
ASSI
100
AcDbSpline
 62
7
  6
CONTINUOUS
 70
0
 71
3
 72
9
 73
5
 74
3
 42
0.0000001
 43
0.0000001
 44
0.0000000001
 12
-0.0575564483
 22
-0.0314343965
 32
0.0
 13
-0.0627838176
 23
-0.0189488328
 33
0.0
 40
0.0
 40
0.0
 40
0.0
 40
0.0
 40
0.2377321415
 40
1.0
 40
1.0
 40
1.0
 40
1.0
 10
7.4234044061
 20
17.6267102407
 30
0.0
 10
7.4188434002
 20
17.6242192519
 30
0.0
 10
7.3993336758
 20
17.6143356235
 30
0.0
 10
7.3787250128
 20
17.6067120504
 30
0.0
 10
7.3627723174
 20
17.601897355
 30
0.0
 11
7.4234044061
 21
17.6267102407
 31
0.0
 11
7.4095051148
 21
17.6196476702
 31
0.0
 11
7.3627723174
 21
17.601897355
 31
0.0
  0
SPLINE
  5
3A4
100
AcDbEntity
  8
RACCORDO
100
AcDbSpline
 62
253
  6
CONTINUOUS
 70
0
 71
3
 72
11
 73
7
 74
5
 42
0.0000001
 43
0.0000001
 44
0.0000000001
 12
-0.0000103845
 22
-0.1423272737
 32
0.0
 13
-0.1268515169
 23
-0.0645425876
 33
0.0
 40
0.0
 40
0.0
 40
0.0
 40
0.0
 40
0.2070710481
 40
0.4353506486
 40
0.6987014337
 40
1.0
 40
1.0
 40
1.0
 40
1.0
 10
13.5864481758
 20
21.3051771527
 30
0.0
 10
13.5864474591
 20
21.2953532002
 30
0.0
 10
13.5821521283
 20
21.2745478315
 30
0.0
 10
13.5642404873
 20
21.2460418202
 30
0.0
 10
13.5362074774
 20
21.2204731849
 30
0.0
 10
13.5131633947
 20
21.2065229274
 30
0.0
 10
13.5004233346
 20
21.2000407311
 30
0.0
 11
13.5864481758
 21
21.3051771527
 31
0.0
 11
13.5808082403
 21
21.2762499764
 31
0.0
 11
13.5641094613
 21
21.2483792438
 31
0.0
 11
13.5368787423
 21
21.2226229199
 31
0.0
 11
13.5004233346
 21
21.2000407311
 31
0.0
  0
SPLINE
  5
3A5
100
AcDbEntity
  8
ASSI
100
AcDbSpline
 62
253
  6
CONTINUOUS
 70
0
 71
3
 72
10
 73
6
 74
4
 42
0.0000001
 43
0.0000001
 44
0.0000000001
 12
0.0000004625
 22
0.052268429
 32
0.0
 13
-0.0468245066
 23
-0.0232261546
 33
0.0
 40
0.0
 40
0.0
 40
0.0
 40
0.0
 40
0.5182866506
 40
0.7415358719
 40
1.0
 40
1.0
 40
1.0
 40
1.0
 10
8.8840915673
 20
19.9992910439
 30
0.0
 10
8.8840916472
 20
20.0083210536
 30
0.0
 10
8.8802516932
 20
20.0238036751
 30
0.0
 10
8.862393458
 20
20.029553685
 30
0.0
 10
8.8539937751
 20
20.0269144304
 30
0.0
 10
8.8499596234
 20
20.0249133878
 30
0.0
 11
8.8840915673
 21
19.9992910439
 31
0.0
 11
8.8741306051
 21
20.0244832829
 31
0.0
 11
8.8630659068
 21
20.0281894068
 31
0.0
 11
8.8499596234
 21
20.0249133878
 31
0.0
  0
SPLINE
  5
3A6
100
AcDbEntity
  8
ASSI
100
AcDbSpline
 62
253
  6
CONTINUOUS
 70
0
 71
3
 72
9
 73
5
 74
3
 42
0.0000001
 43
0.0000001
 44
0.0000000001
 12
0.0314967225
 22
0.0389820757
 32
0.0
 13
-0.0000321995
 23
0.0501163118
 33
0.0
 40
0.0
 40
0.0
 40
0.0
 40
0.0
 40
0.2555971139
 40
1.0
 40
1.0
 40
1.0
 40
1.0
 10
8.8667224627
 20
19.6128543319
 30
0.0
 10
8.8694059531
 20
19.6161755672
 30
0.0
 10
8.878722425
 20
19.6300325558
 30
0.0
 10
8.8840995571
 20
19.6469118733
 30
0.0
 10
8.8840915673
 20
19.6593474491
 30
0.0
 11
8.8667224627
 21
19.6128543319
 31
0.0
 11
8.8739111232
 21
19.6234566282
 31
0.0
 11
8.8840915673
 21
19.6593474491
 31
0.0
  0
SPLINE
  5
3A7
100
AcDbEntity
  8
ASSI
100
AcDbSpline
 62
7
  6
CONTINUOUS
 70
0
 71
3
 72
9
 73
5
 74
3
 42
0.0000001
 43
0.0000001
 44
0.0000000001
 12
-0.0534480206
 22
0.0921841994
 32
0.0
 13
-0.0363432192
 23
0.1001687972
 33
0.0
 40
0.0
 40
0.0
 40
0.0
 40
0.0
 40
0.2514970587
 40
1.0
 40
1.0
 40
1.0
 40
1.0
 10
5.2592245328
 20
-22.163743694
 30
0.0
 10
5.2547438595
 20
-22.1560156756
 30
0.0
 10
5.237584987
 20
-22.1249132867
 30
0.0
 10
5.2230883738
 20
-22.0923262254
 30
0.0
 10
5.214020705
 20
-22.0673340123
 30
0.0
 11
5.2592245328
 21
-22.163743694
 31
0.0
 11
5.2462814375
 21
-22.1402774503
 31
0.0
 11
5.214020705
 21
-22.0673340123
 31
0.0
  0
SPLINE
  5
3A8
100
AcDbEntity
  8
ASSI
100
AcDbSpline
 62
253
  6
CONTINUOUS
 70
0
 71
3
 72
11
 73
7
 74
5
 42
0.0000001
 43
0.0000001
 44
0.0000000001
 12
-0.0000010333
 22
-0.1572110393
 32
0.0
 13
0.1406188274
 23
-0.070296915
 33
0.0
 40
0.0
 40
0.0
 40
0.0
 40
0.0
 40
0.2900356228
 40
0.5500138918
 40
0.7831798501
 40
1.0
 40
1.0
 40
1.0
 40
1.0
 10
4.3237560145
 20
19.6035947046
 30
0.0
 10
4.3237559146
 20
19.5883957707
 30
0.0
 10
4.3261983724
 20
19.5594641927
 30
0.0
 10
4.3385197094
 20
19.5198973956
 30
0.0
 10
4.3591069038
 20
19.4882283035
 30
0.0
 10
4.3783390341
 20
19.4735705048
 30
0.0
 10
4.3885020325
 20
19.4684899089
 30
0.0
 11
4.3237560145
 21
19.6035947046
 31
0.0
 11
4.3280588372
 21
19.5582013786
 31
0.0
 11
4.3407595967
 21
19.519353387
 31
0.0
 11
4.3612411566
 21
19.4889529381
 31
0.0
 11
4.3885020325
 21
19.4684899089
 31
0.0
  0
SPLINE
  5
3A9
100
AcDbEntity
  8
ASSI
100
AcDbSpline
 62
253
  6
CONTINUOUS
 70
0
 71
3
 72
11
 73
7
 74
5
 42
0.0000001
 43
0.0000001
 44
0.0000000001
 12
-0.3230275233
 22
-0.167266237
 32
0.0
 13
0.0000028942
 23
-0.3637647246
 33
0.0
 40
0.0
 40
0.0
 40
0.0
 40
0.0
 40
0.2309135441
 40
0.4895532553
 40
0.753895527
 40
1.0
 40
1.0
 40
1.0
 40
1.0
 10
6.5625552131
 20
19.1916287982
 30
0.0
 10
6.537691403
 20
19.1787541183
 30
0.0
 10
6.4903175377
 20
19.1410577736
 30
0.0
 10
6.4356115821
 20
19.0668482831
 30
0.0
 10
6.3984815599
 20
18.9804560617
 30
0.0
 10
6.3882570998
 20
18.9184542189
 30
0.0
 10
6.3882573372
 20
18.8886128436
 30
0.0
 11
6.5625552131
 21
19.1916287982
 31
0.0
 11
6.495636966
 21
19.1408582742
 31
0.0
 11
6.4391318378
 21
19.0656321473
 31
0.0
 11
6.4014679962
 21
18.9771568869
 31
0.0
 11
6.3882573372
 21
18.8886128436
 31
0.0
  0
SPLINE
  5
3AA
100
AcDbEntity
  8
ASSI
100
AcDbSpline
 62
253
  6
CONTINUOUS
 70
0
 71
3
 72
9
 73
5
 74
3
 42
0.0000001
 43
0.0000001
 44
0.0000000001
 12
-0.1162774439
 22
-0.0610413491
 32
0.0
 13
-0.0780154687
 23
-0.1056412651
 33
0.0
 40
0.0
 40
0.0
 40
0.0
 40
0.0
 40
0.2303291093
 40
1.0
 40
1.0
 40
1.0
 40
1.0
 10
4.4968411717
 20
20.2244858189
 30
0.0
 10
4.4879138117
 20
20.2197992857
 30
0.0
 10
4.4506517752
 20
20.1966129656
 30
0.0
 10
4.4196760264
 20
20.1642084695
 30
0.0
 10
4.3996606147
 20
20.1371054673
 30
0.0
 11
4.4968411717
 21
20.2244858189
 31
0.0
 11
4.4710822453
 21
20.2086292787
 31
0.0
 11
4.3996606147
 21
20.1371054673
 31
0.0
  0
SPLINE
  5
3AB
100
AcDbEntity
  8
ASSI
100
AcDbSpline
 62
253
  6
CONTINUOUS
 70
0
 71
3
 72
9
 73
5
 74
3
 42
0.0000001
 43
0.0000001
 44
0.0000000001
 12
-0.137751897
 22
-0.1865307599
 32
0.0
 13
0.0000021084
 23
-0.2318821026
 33
0.0
 40
0.0
 40
0.0
 40
0.0
 40
0.0
 40
0.515081084
 40
1.0
 40
1.0
 40
1.0
 40
1.0
 10
4.3996606147
 20
20.1371054673
 30
0.0
 10
4.3760094825
 20
20.105079312
 30
0.0
 10
4.3394497003
 20
20.0357005131
 30
0.0
 10
4.3237556737
 20
19.9583448442
 30
0.0
 10
4.3237560145
 20
19.920863505
 30
0.0
 11
4.3996606147
 21
20.1371054673
 31
0.0
 11
4.3438828408
 21
20.0314915665
 31
0.0
 11
4.3237560145
 21
19.920863505
 31
0.0
  0
SPLINE
  5
3AC
100
AcDbEntity
  8
ASSI
100
AcDbSpline
 62
253
  6
CONTINUOUS
 70
0
 71
3
 72
11
 73
7
 74
5
 42
0.0000001
 43
0.0000001
 44
0.0000000001
 12
-0.0000019047
 22
0.3637622627
 32
0.0
 13
0.3230249779
 23
0.1672657987
 33
0.0
 40
0.0
 40
0.0
 40
0.0
 40
0.0
 40
0.2460275742
 40
0.5103566058
 40
0.7690195998
 40
1.0
 40
1.0
 40
1.0
 40
1.0
 10
-6.1982433674
 20
25.1818656956
 30
0.0
 10
-6.1982435236
 20
25.2116975446
 30
0.0
 10
-6.1880230269
 20
25.2736878303
 30
0.0
 10
-6.1509029343
 20
25.3600747011
 30
0.0
 10
-6.0961973881
 20
25.4342953853
 30
0.0
 10
-6.0488163049
 20
25.472000777
 30
0.0
 10
-6.023945492
 20
25.4848791508
 30
0.0
 11
-6.1982433674
 21
25.1818656956
 31
0.0
 11
-6.1850398231
 21
25.2703819052
 31
0.0
 11
-6.1473847756
 21
25.3588549672
 31
0.0
 11
-6.0908806895
 21
25.4340916727
 31
0.0
 11
-6.023945492
 21
25.4848791508
 31
0.0
  0
SPLINE
  5
3AD
100
AcDbEntity
  8
ASSI
100
AcDbSpline
 62
253
  6
CONTINUOUS
 70
0
 71
3
 72
9
 73
5
 74
3
 42
0.0000001
 43
0.0000001
 44
0.0000000001
 12
-0.0000017219
 22
0.2280050728
 32
0.0
 13
0.133548538
 23
0.1848001656
 33
0.0
 40
0.0
 40
0.0
 40
0.0
 40
0.0
 40
0.4844999455
 40
1.0
 40
1.0
 40
1.0
 40
1.0
 10
-8.2627446906
 20
26.2141138575
 30
0.0
 10
-8.2627449687
 20
26.2509366726
 30
0.0
 10
-8.2475680777
 20
26.3270046552
 30
0.0
 10
-8.2121025455
 20
26.3954330194
 30
0.0
 10
-8.1891544527
 20
26.4271878512
 30
0.0
 11
-8.2627446906
 21
26.2141138575
 31
0.0
 11
-8.2432760033
 21
26.3228532139
 31
0.0
 11
-8.1891544527
 21
26.4271878512
 31
0.0
  0
SPLINE
  5
3AE
100
AcDbEntity
  8
ASSI
100
AcDbSpline
 62
253
  6
CONTINUOUS
 70
0
 71
3
 72
9
 73
5
 74
3
 42
0.0000001
 43
0.0000001
 44
0.0000000001
 12
0.0791590502
 22
0.1095377441
 32
0.0
 13
0.119659222
 23
0.0628199268
 33
0.0
 40
0.0
 40
0.0
 40
0.0
 40
0.0
 40
0.2690660329
 40
1.0
 40
1.0
 40
1.0
 40
1.0
 10
-8.1891544527
 20
26.4271878512
 30
0.0
 10
-8.1820547821
 20
26.4370121466
 30
0.0
 10
-8.1539993606
 20
26.4721900695
 30
0.0
 10
-8.1188138634
 20
26.502430432
 30
0.0
 10
-8.0896595334
 20
26.5177361714
 30
0.0
 11
-8.1891544527
 21
26.4271878512
 31
0.0
 11
-8.1664410674
 21
26.4555850527
 31
0.0
 11
-8.0896595334
 21
26.5177361714
 31
0.0
  0
SPLINE
  5
3AF
100
AcDbEntity
  8
ASSI
100
AcDbSpline
 62
253
  6
CONTINUOUS
 70
0
 71
3
 72
9
 73
5
 74
3
 42
0.0000001
 43
0.0000001
 44
0.0000000001
 12
0.1003362716
 22
0.0483682212
 32
0.0
 13
0.0996520263
 23
-0.0497626956
 33
0.0
 40
0.0
 40
0.0
 40
0.0
 40
0.0
 40
0.5350743832
 40
1.0
 40
1.0
 40
1.0
 40
1.0
 10
-3.8779388758
 20
26.5620433248
 30
0.0
 10
-3.8600430863
 20
26.5706701902
 30
0.0
 10
-3.8236264042
 20
26.5822331492
 30
0.0
 10
-3.7850932306
 20
26.5755585259
 30
0.0
 10
-3.7696496373
 20
26.567846542
 30
0.0
 11
-3.8779388758
 21
26.5620433248
 31
0.0
 11
-3.8204658576
 21
26.5778227729
 31
0.0
 11
-3.7696496373
 21
26.567846542
 31
0.0
  0
SPLINE
  5
3B0
100
AcDbEntity
  8
ASSI
100
AcDbSpline
 62
253
  6
CONTINUOUS
 70
0
 71
3
 72
9
 73
5
 74
3
 42
0.0000001
 43
0.0000001
 44
0.0000000001
 12
0.0975513207
 22
0.0463587883
 32
0.0
 13
0.0986942575
 23
-0.0438730096
 33
0.0
 40
0.0
 40
0.0
 40
0.0
 40
0.0
 40
0.5340871274
 40
1.0
 40
1.0
 40
1.0
 40
1.0
 10
-5.9806827246
 20
27.6134132625
 30
0.0
 10
-5.9633157563
 20
27.6216664732
 30
0.0
 10
-5.9281063844
 20
27.6327949173
 30
0.0
 10
-5.8907844098
 20
27.6274553759
 30
0.0
 10
-5.8754567682
 20
27.6206417093
 30
0.0
 11
-5.9806827246
 21
27.6134132625
 31
0.0
 11
-5.9251033938
 21
27.6288561133
 31
0.0
 11
-5.8754567682
 21
27.6206417093
 31
0.0
  0
SPLINE
  5
3B1
100
AcDbEntity
  8
ASSI
100
AcDbSpline
 62
253
  6
CONTINUOUS
 70
0
 71
3
 72
11
 73
7
 74
5
 42
0.0000001
 43
0.0000001
 44
0.0000000001
 12
-0.0857674306
 22
-0.2202857061
 32
0.0
 13
-0.2312514524
 23
0.0490368253
 33
0.0
 40
0.0
 40
0.0
 40
0.0
 40
0.0
 40
0.2783621613
 40
0.5385359768
 40
0.776655476
 40
1.0
 40
1.0
 40
1.0
 40
1.0
 10
6.6865966019
 20
18.5413052936
 30
0.0
 10
6.6786384661
 20
18.5208655586
 30
0.0
 10
6.6579929774
 20
18.4830758068
 30
0.0
 10
6.6138196878
 20
18.4393194287
 30
0.0
 10
6.5611128993
 20
18.4146309602
 30
0.0
 10
6.5233839015
 20
18.4139681091
 30
0.0
 10
6.506167653
 20
18.4176188113
 30
0.0
 11
6.6865966019
 21
18.5413052936
 31
0.0
 11
6.6546281389
 21
18.4837896468
 31
0.0
 11
6.6103698784
 21
18.4410828373
 31
0.0
 11
6.5589621279
 21
18.4181526425
 31
0.0
 11
6.506167653
 21
18.4176188113
 31
0.0
  0
SPLINE
  5
3B2
100
AcDbEntity
  8
ASSI
100
AcDbSpline
 62
7
  6
CONTINUOUS
 70
0
 71
3
 72
10
 73
6
 74
4
 42
0.0000001
 43
0.0000001
 44
0.0000000001
 12
-0.2127160259
 22
-0.219357282
 32
0.0
 13
-0.2988271656
 23
0.0637812663
 33
0.0
 40
0.0
 40
0.0
 40
0.0
 40
0.0
 40
0.2482934291
 40
0.5043635743
 40
1.0
 40
1.0
 40
1.0
 40
1.0
 10
7.4234044061
 20
18.3850051167
 30
0.0
 10
7.4057990756
 20
18.3668501261
 30
0.0
 10
7.3659214706
 20
18.3336309276
 30
0.0
 10
7.2764522196
 20
18.2851158049
 30
0.0
 10
7.1951953613
 20
18.2713770936
 30
0.0
 10
7.1458254852
 20
18.2819145332
 30
0.0
 11
7.4234044061
 21
18.3850051167
 31
0.0
 11
7.3652646244
 21
18.3362636775
 31
0.0
 11
7.2962611655
 21
18.2993761128
 31
0.0
 11
7.1458254852
 21
18.2819145332
 31
0.0
  0
SPLINE
  5
3B3
100
AcDbEntity
  8
ASSI
100
AcDbSpline
 62
253
  6
CONTINUOUS
 70
0
 71
3
 72
11
 73
7
 74
5
 42
0.0000001
 43
0.0000001
 44
0.0000000001
 12
-0.2592592138
 22
-0.1251821714
 32
0.0
 13
-0.2575046934
 23
0.1287526653
 33
0.0
 40
0.0
 40
0.0
 40
0.0
 40
0.0
 40
0.2366131959
 40
0.5012536678
 40
0.765220306
 40
1.0
 40
1.0
 40
1.0
 40
1.0
 10
6.6686103675
 20
18.5701207413
 30
0.0
 10
6.6481623171
 20
18.5602474901
 30
0.0
 10
6.6015233009
 20
18.5462112611
 30
0.0
 10
6.5279879257
 20
18.5397027117
 30
0.0
 10
6.4546875848
 20
18.5468163462
 30
0.0
 10
6.4084096282
 20
18.5612678727
 30
0.0
 10
6.3882573372
 20
18.5713440431
 30
0.0
 11
6.6686103675
 21
18.5701207413
 31
0.0
 11
6.6037901796
 21
18.5491737146
 31
0.0
 11
6.5279333843
 21
18.5420584598
 31
0.0
 11
6.4523365
 21
18.549834573
 31
0.0
 11
6.3882573372
 21
18.5713440431
 31
0.0
  0
SPLINE
  5
3B4
100
AcDbEntity
  8
ASSI
100
AcDbSpline
 62
253
  6
CONTINUOUS
 70
0
 71
3
 72
11
 73
7
 74
5
 42
0.0000001
 43
0.0000001
 44
0.0000000001
 12
-0.2592593051
 22
-0.1251819003
 32
0.0
 13
-0.257504789
 23
0.1287523945
 33
0.0
 40
0.0
 40
0.0
 40
0.0
 40
0.0
 40
0.236613166
 40
0.5012536621
 40
0.7652203297
 40
1.0
 40
1.0
 40
1.0
 40
1.0
 10
6.6686103675
 20
18.8873895417
 30
0.0
 10
6.6481623125
 20
18.8775163131
 30
0.0
 10
6.6015232952
 20
18.8634801191
 30
0.0
 10
6.5279879273
 20
18.8569715874
 30
0.0
 10
6.4546875928
 20
18.8640852039
 30
0.0
 10
6.4084096337
 20
18.8785366954
 30
0.0
 10
6.3882573372
 20
18.8886128436
 30
0.0
 11
6.6686103675
 21
18.8873895417
 31
0.0
 11
6.6037901809
 21
18.8664425664
 31
0.0
 11
6.5279333863
 21
18.8593273294
 31
0.0
 11
6.4523365011
 21
18.8671034246
 31
0.0
 11
6.3882573372
 21
18.8886128436
 31
0.0
  0
SPLINE
  5
3B5
100
AcDbEntity
  8
ASSI
100
AcDbSpline
 62
253
  6
CONTINUOUS
 70
0
 71
3
 72
11
 73
7
 74
5
 42
0.0000001
 43
0.0000001
 44
0.0000000001
 12
-0.0042751977
 22
0.2928511099
 32
0.0
 13
-0.260047887
 23
0.1347410344
 33
0.0
 40
0.0
 40
0.0
 40
0.0
 40
0.0
 40
0.2465056875
 40
0.5120768718
 40
0.771055458
 40
1.0
 40
1.0
 40
1.0
 40
1.0
 10
6.7039550302
 20
18.9477501889
 30
0.0
 10
6.7036037433
 20
18.9718133436
 30
0.0
 10
6.6947069988
 20
19.0217540434
 30
0.0
 10
6.6643174727
 20
19.0912709601
 30
0.0
 10
6.6203034014
 20
19.1509456966
 30
0.0
 10
6.5824007279
 20
19.1813460567
 30
0.0
 10
6.5625552131
 20
19.1916287982
 30
0.0
 11
6.7039550302
 21
18.9477501889
 31
0.0
 11
6.6924229998
 21
19.0190203905
 31
0.0
 11
6.6615029532
 21
19.090391608
 31
0.0
 11
6.615900384
 21
19.1510023806
 31
0.0
 11
6.5625552131
 21
19.1916287982
 31
0.0
  0
SPLINE
  5
3B6
100
AcDbEntity
  8
ASSI
100
AcDbSpline
 62
253
  6
CONTINUOUS
 70
0
 71
3
 72
10
 73
6
 74
4
 42
0.0000001
 43
0.0000001
 44
0.0000000001
 12
0.0310656641
 22
-0.0510064764
 32
0.0
 13
-0.0374985269
 23
-0.0464822181
 33
0.0
 40
0.0
 40
0.0
 40
0.0
 40
0.0
 40
0.345266641
 40
0.6241284716
 40
1.0
 40
1.0
 40
1.0
 40
1.0
 10
8.8667224627
 20
19.6128543319
 30
0.0
 10
8.8702977752
 20
19.6069840536
 30
0.0
 10
8.8762185541
 20
19.5958943262
 30
0.0
 10
8.8831367024
 20
19.5776526211
 30
0.0
 10
8.8831047553
 20
19.56243871
 30
0.0
 10
8.8784065457
 20
19.5566149292
 30
0.0
 11
8.8667224627
 21
19.6128543319
 31
0.0
 11
8.8763579492
 21
19.59462401
 31
0.0
 11
8.881638098
 21
19.578828966
 31
0.0
 11
8.8784065457
 21
19.5566149292
 31
0.0
  0
SPLINE
  5
3B7
100
AcDbEntity
  8
ASSI
100
AcDbSpline
 62
253
  6
CONTINUOUS
 70
0
 71
3
 72
11
 73
7
 74
5
 42
0.0000001
 43
0.0000001
 44
0.0000000001
 12
0.0830519927
 22
0.043001428
 32
0.0
 13
0.0000129856
 23
0.0935240939
 33
0.0
 40
0.0
 40
0.0
 40
0.0
 40
0.0
 40
0.300708284
 40
0.5638120708
 40
0.7923304554
 40
1.0
 40
1.0
 40
1.0
 40
1.0
 10
8.8840915673
 20
19.6593474491
 30
0.0
 10
8.8924163747
 20
19.6636577443
 30
0.0
 10
8.9074712017
 20
19.6729175512
 30
0.0
 10
8.9257614396
 20
19.6898316666
 30
0.0
 10
8.9374312225
 20
19.7086425655
 30
0.0
 10
8.9402226461
 20
19.7223392508
 30
0.0
 10
8.940223545
 20
19.7288132861
 30
0.0
 11
8.8840915673
 21
19.6593474491
 31
0.0
 11
8.9078950885
 21
19.6743248303
 31
0.0
 11
8.9256592002
 21
19.6913518182
 31
0.0
 11
8.9365474135
 21
19.709742254
 31
0.0
 11
8.940223545
 21
19.7288132861
 31
0.0
  0
SPLINE
  5
3B8
100
AcDbEntity
  8
ASSI
100
AcDbSpline
 62
253
  6
CONTINUOUS
 70
0
 71
3
 72
11
 73
7
 74
5
 42
0.0000001
 43
0.0000001
 44
0.0000000001
 12
0.0830519925
 22
0.0430014281
 32
0.0
 13
0.0000129856
 23
0.0935240938
 33
0.0
 40
0.0
 40
0.0
 40
0.0
 40
0.0
 40
0.3007082848
 40
0.5638120704
 40
0.7923304547
 40
1.0
 40
1.0
 40
1.0
 40
1.0
 10
8.8840915673
 20
19.9992910439
 30
0.0
 10
8.8924163747
 20
20.0036013391
 30
0.0
 10
8.9074712017
 20
20.012861146
 30
0.0
 10
8.9257614396
 20
20.0297752614
 30
0.0
 10
8.9374312223
 20
20.0485861603
 30
0.0
 10
8.9402226461
 20
20.0622828455
 30
0.0
 10
8.940223545
 20
20.0687568809
 30
0.0
 11
8.8840915673
 21
19.9992910439
 31
0.0
 11
8.9078950885
 21
20.0142684252
 31
0.0
 11
8.9256592001
 21
20.031295413
 31
0.0
 11
8.9365474134
 21
20.0496858488
 31
0.0
 11
8.940223545
 21
20.0687568809
 31
0.0
  0
SPLINE
  5
3B9
100
AcDbEntity
  8
ASSI
100
AcDbSpline
 62
253
  6
CONTINUOUS
 70
0
 71
3
 72
11
 73
7
 74
5
 42
0.0000001
 43
0.0000001
 44
0.0000000001
 12
0.0040900125
 22
0.2942829918
 32
0.0
 13
-0.2649951358
 23
0.1280499335
 33
0.0
 40
0.0
 40
0.0
 40
0.0
 40
0.0
 40
0.2470852825
 40
0.5114851658
 40
0.7695777888
 40
1.0
 40
1.0
 40
1.0
 40
1.0
 10
8.8499596234
 20
20.0249133878
 30
0.0
 10
8.850296484
 20
20.0491510532
 30
0.0
 10
8.842509277
 20
20.0995433803
 30
0.0
 10
8.8125282551
 20
20.1695756283
 30
0.0
 10
8.7678259828
 20
20.2292398312
 30
0.0
 10
8.7289133947
 20
20.2589568142
 30
0.0
 10
8.7085598063
 20
20.2687919971
 30
0.0
 11
8.8499596234
 21
20.0249133878
 31
0.0
 11
8.8399400966
 21
20.0969398424
 31
0.0
 11
8.8095511591
 21
20.1685766155
 31
0.0
 11
8.7634174804
 21
20.2289218323
 31
0.0
 11
8.7085598063
 21
20.2687919971
 31
0.0
  0
SPLINE
  5
3BA
100
AcDbEntity
  8
ASSI
100
AcDbSpline
 62
7
  6
CONTINUOUS
 70
0
 71
3
 72
11
 73
7
 74
5
 42
0.0000001
 43
0.0000001
 44
0.0000000001
 12
0.2626045656
 22
-0.1313022828
 32
0.0
 13
0.0
 23
-0.2936008299
 33
0.0
 40
0.0
 40
0.0
 40
0.0
 40
0.0
 40
0.2296740836
 40
0.4882138821
 40
0.7532075651
 40
1.0
 40
1.0
 40
1.0
 40
1.0
 10
8.1844553397
 20
20.0088323179
 30
0.0
 10
8.2045598274
 20
19.9987800741
 30
0.0
 10
8.2429778896
 20
19.9687273
 30
0.0
 10
8.2873402497
 20
19.9090586142
 30
0.0
 10
8.3175222449
 20
19.8392797513
 30
0.0
 10
8.3258551568
 20
19.7891065299
 30
0.0
 10
8.3258551568
 20
19.7649537086
 30
0.0
 11
8.1844553397
 21
20.0088323179
 31
0.0
 11
8.2385678226
 21
19.9685957492
 31
0.0
 11
8.2844427214
 21
19.9081189592
 31
0.0
 11
8.3150934646
 21
19.8366085406
 31
0.0
 11
8.3258551568
 21
19.7649537086
 31
0.0
  0
SPLINE
  5
3BB
100
AcDbEntity
  8
ASSI
100
AcDbSpline
 62
253
  6
CONTINUOUS
 70
0
 71
3
 72
11
 73
7
 74
5
 42
0.0000001
 43
0.0000001
 44
0.0000000001
 12
-0.0860674549
 22
0.0430337276
 32
0.0
 13
-0.0000391052
 23
0.096226332
 33
0.0
 40
0.0
 40
0.0
 40
0.0
 40
0.0
 40
0.301896701
 40
0.5654819851
 40
0.7935260419
 40
1.0
 40
1.0
 40
1.0
 40
1.0
 10
4.3237560145
 20
19.6035947046
 30
0.0
 10
4.3150948542
 20
19.6079252847
 30
0.0
 10
4.2994254566
 20
19.6172601567
 30
0.0
 10
4.2803393654
 20
19.6344299802
 30
0.0
 10
4.2681238182
 20
19.6536169418
 30
0.0
 10
4.265180128
 20
19.6676555757
 30
0.0
 10
4.2651774366
 20
19.6742783196
 30
0.0
 11
4.3237560145
 21
19.6035947046
 31
0.0
 11
4.2989533611
 21
19.6187193525
 31
0.0
 11
4.2804107406
 21
19.6360253042
 31
0.0
 11
4.269029803
 21
19.6547871429
 31
0.0
 11
4.2651774366
 21
19.6742783196
 31
0.0
  0
SPLINE
  5
3BC
100
AcDbEntity
  8
ASSI
100
AcDbSpline
 62
253
  6
CONTINUOUS
 70
0
 71
3
 72
11
 73
7
 74
5
 42
0.0000001
 43
0.0000001
 44
0.0000000001
 12
-0.0860645865
 22
0.0430322933
 32
0.0
 13
-0.0000454116
 23
0.0962231223
 33
0.0
 40
0.0
 40
0.0
 40
0.0
 40
0.0
 40
0.3018950576
 40
0.5654806419
 40
0.7935260005
 40
1.0
 40
1.0
 40
1.0
 40
1.0
 10
4.3237560145
 20
19.920863505
 30
0.0
 10
4.31509519
 20
19.9251939172
 30
0.0
 10
4.2994263348
 20
19.9345284099
 30
0.0
 10
4.2803406818
 20
19.9516974011
 30
0.0
 10
4.2681249495
 20
19.9708833465
 30
0.0
 10
4.2651805634
 20
19.9849213417
 30
0.0
 10
4.265177438
 20
19.991543866
 30
0.0
 11
4.3237560145
 21
19.920863505
 31
0.0
 11
4.2989542671
 21
19.9359874753
 31
0.0
 11
4.2804119902
 21
19.9532925986
 31
0.0
 11
4.2690307558
 21
19.9720535484
 31
0.0
 11
4.265177438
 21
19.991543866
 31
0.0
  0
SPLINE
  5
3BD
100
AcDbEntity
  8
ASSI
100
AcDbSpline
 62
253
  6
CONTINUOUS
 70
0
 71
3
 72
9
 73
5
 74
3
 42
0.0000001
 43
0.0000001
 44
0.0000000001
 12
-0.0857124956
 22
0.041354812
 32
0.0
 13
-0.0838393409
 23
-0.0450312924
 33
0.0
 40
0.0
 40
0.0
 40
0.0
 40
0.0
 40
0.5373176054
 40
1.0
 40
1.0
 40
1.0
 40
1.0
 10
4.4968411717
 20
20.2244858189
 30
0.0
 10
4.4814895607
 20
20.2318927084
 30
0.0
 10
4.4503353674
 20
20.2417803224
 30
0.0
 10
4.4173699887
 20
20.2355497444
 30
0.0
 10
4.4044396597
 20
20.2286046823
 30
0.0
 11
4.4968411717
 21
20.2244858189
 31
0.0
 11
4.4474872599
 21
20.2378648
 31
0.0
 11
4.4044396597
 21
20.2286046823
 31
0.0
  0
SPLINE
  5
3BE
100
AcDbEntity
  8
ASSI
100
AcDbSpline
 62
253
  6
CONTINUOUS
 70
0
 71
3
 72
9
 73
5
 74
3
 42
0.0000001
 43
0.0000001
 44
0.0000000001
 12
-0.0787764132
 22
0.0407573394
 32
0.0
 13
-0.0806659325
 23
-0.0368767044
 33
0.0
 40
0.0
 40
0.0
 40
0.0
 40
0.0
 40
0.5348396885
 40
1.0
 40
1.0
 40
1.0
 40
1.0
 10
6.6058179806
 20
21.32016291
 30
0.0
 10
6.5917737298
 20
21.3274291242
 30
0.0
 10
6.5630621215
 20
21.3374540123
 30
0.0
 10
6.5322443467
 20
21.3331451822
 30
0.0
 10
6.5197368166
 20
21.3274273225
 30
0.0
 11
6.6058179806
 21
21.32016291
 31
0.0
 11
6.5604590382
 21
21.3340523301
 31
0.0
 11
6.5197368166
 21
21.3274273225
 31
0.0
  0
SPLINE
  5
3BF
100
AcDbEntity
  8
ASSI
100
AcDbSpline
 62
7
  6
CONTINUOUS
 70
0
 71
3
 72
10
 73
6
 74
4
 42
0.0000001
 43
0.0000001
 44
0.0000000001
 12
-0.2127740416
 22
-0.2194171091
 32
0.0
 13
-0.2989126536
 23
0.0637799818
 33
0.0
 40
0.0
 40
0.0
 40
0.0
 40
0.0
 40
0.2480868159
 40
0.5042334556
 40
1.0
 40
1.0
 40
1.0
 40
1.0
 10
-5.163096299
 20
24.6782554692
 30
0.0
 10
-5.1806917772
 20
24.6601106386
 30
0.0
 10
-5.2205715897
 20
24.6268970653
 30
0.0
 10
-5.3100536142
 20
24.5783322821
 30
0.0
 10
-5.3913660325
 20
24.5646683555
 30
0.0
 10
-5.440762997
 20
24.5752083492
 30
0.0
 11
-5.163096299
 21
24.6782554692
 31
0.0
 11
-5.2212025985
 21
24.6295401787
 31
0.0
 11
-5.2902400751
 21
24.5926213924
 31
0.0
 11
-5.440762997
 21
24.5752083492
 31
0.0
  0
SPLINE
  5
3C0
100
AcDbEntity
  8
ASSI
100
AcDbSpline
 62
253
  6
CONTINUOUS
 70
0
 71
3
 72
11
 73
7
 74
5
 42
0.0000001
 43
0.0000001
 44
0.0000000001
 12
0.257504789
 22
-0.1287523945
 32
0.0
 13
0.2592593051
 23
0.1251819003
 33
0.0
 40
0.0
 40
0.0
 40
0.0
 40
0.0
 40
0.2347796703
 40
0.4987463379
 40
0.763386834
 40
1.0
 40
1.0
 40
1.0
 40
1.0
 10
-6.1982433679
 20
24.8645943958
 30
0.0
 10
-6.1780910714
 20
24.8545182475
 30
0.0
 10
-6.1318131123
 20
24.8400667561
 30
0.0
 10
-6.0585127779
 20
24.8329531396
 30
0.0
 10
-5.9849774099
 20
24.8394616713
 30
0.0
 10
-5.9383383926
 20
24.8534978653
 30
0.0
 10
-5.9178903376
 20
24.8633710939
 30
0.0
 11
-6.1982433679
 21
24.8645943958
 31
0.0
 11
-6.134164204
 21
24.8430849767
 31
0.0
 11
-6.0585673188
 21
24.8353088816
 31
0.0
 11
-5.9827105242
 21
24.8424241186
 31
0.0
 11
-5.9178903376
 21
24.8633710939
 31
0.0
  0
SPLINE
  5
3C1
100
AcDbEntity
  8
ASSI
100
AcDbSpline
 62
253
  6
CONTINUOUS
 70
0
 71
3
 72
11
 73
7
 74
5
 42
0.0000001
 43
0.0000001
 44
0.0000000001
 12
0.2575047889
 22
-0.1287523949
 32
0.0
 13
0.259259305
 23
0.1251819007
 33
0.0
 40
0.0
 40
0.0
 40
0.0
 40
0.0
 40
0.2347796713
 40
0.4987463397
 40
0.763386835
 40
1.0
 40
1.0
 40
1.0
 40
1.0
 10
-6.1982433679
 20
25.1818631962
 30
0.0
 10
-6.1780910714
 20
25.1717870478
 30
0.0
 10
-6.131813112
 20
25.1573355563
 30
0.0
 10
-6.0585127775
 20
25.1502219398
 30
0.0
 10
-5.9849774096
 20
25.1567304716
 30
0.0
 10
-5.9383383925
 20
25.1707666657
 30
0.0
 10
-5.9178903376
 20
25.1806398942
 30
0.0
 11
-6.1982433679
 21
25.1818631962
 31
0.0
 11
-6.1341642037
 21
25.160353777
 31
0.0
 11
-6.0585673183
 21
25.1525776819
 31
0.0
 11
-5.9827105239
 21
25.159692919
 31
0.0
 11
-5.9178903376
 21
25.1806398942
 31
0.0
  0
SPLINE
  5
3C2
100
AcDbEntity
  8
ASSI
100
AcDbSpline
 62
253
  6
CONTINUOUS
 70
0
 71
3
 72
11
 73
7
 74
5
 42
0.0000001
 43
0.0000001
 44
0.0000000001
 12
0.2600478871
 22
-0.1347410343
 32
0.0
 13
0.0042751974
 23
-0.2928511099
 33
0.0
 40
0.0
 40
0.0
 40
0.0
 40
0.0
 40
0.2289445384
 40
0.4879231217
 40
0.7534943086
 40
1.0
 40
1.0
 40
1.0
 40
1.0
 10
-6.023945492
 20
25.4848791508
 30
0.0
 10
-6.0040999775
 20
25.4745964095
 30
0.0
 10
-5.9661973045
 20
25.44419605
 30
0.0
 10
-5.922183233
 20
25.3845213139
 30
0.0
 10
-5.8917937066
 20
25.315004397
 30
0.0
 10
-5.8828969618
 20
25.2650636965
 30
0.0
 10
-5.882545675
 20
25.2410005414
 30
0.0
 11
-6.023945492
 21
25.4848791508
 31
0.0
 11
-5.9706003218
 21
25.444252734
 31
0.0
 11
-5.9249977529
 21
25.3836419623
 31
0.0
 11
-5.8940777056
 21
25.3122707442
 31
0.0
 11
-5.882545675
 21
25.2410005414
 31
0.0
  0
SPLINE
  5
3C3
100
AcDbEntity
  8
ASSI
100
AcDbSpline
 62
7
  6
CONTINUOUS
 70
0
 71
3
 72
11
 73
7
 74
5
 42
0.0000001
 43
0.0000001
 44
0.0000000001
 12
-0.0
 22
0.2936008299
 32
0.0
 13
-0.2626045656
 23
0.1313022828
 33
0.0
 40
0.0
 40
0.0
 40
0.0
 40
0.0
 40
0.2467924349
 40
0.5117861179
 40
0.7703259164
 40
1.0
 40
1.0
 40
1.0
 40
1.0
 10
-4.2606455483
 20
26.0582040612
 30
0.0
 10
-4.2606455483
 20
26.0823568824
 30
0.0
 10
-4.2689784602
 20
26.1325301038
 30
0.0
 10
-4.2991604554
 20
26.2023089668
 30
0.0
 10
-4.3435228156
 20
26.2619776525
 30
0.0
 10
-4.3819408777
 20
26.2920304267
 30
0.0
 10
-4.4020453654
 20
26.3020826705
 30
0.0
 11
-4.2606455483
 21
26.0582040612
 31
0.0
 11
-4.2714072405
 21
26.1298588932
 31
0.0
 11
-4.3020579837
 21
26.2013693118
 31
0.0
 11
-4.3479328825
 21
26.2618461018
 31
0.0
 11
-4.4020453654
 21
26.3020826705
 31
0.0
  0
SPLINE
  5
3C4
100
AcDbEntity
  8
ASSI
100
AcDbSpline
 62
253
  6
CONTINUOUS
 70
0
 71
3
 72
11
 73
7
 74
5
 42
0.0000001
 43
0.0000001
 44
0.0000000001
 12
0.2649951355
 22
-0.1280499339
 32
0.0
 13
-0.0040900118
 23
-0.2942829917
 33
0.0
 40
0.0
 40
0.0
 40
0.0
 40
0.0
 40
0.2304222131
 40
0.4885148378
 40
0.7529147197
 40
1.0
 40
1.0
 40
1.0
 40
1.0
 10
-3.8779408988
 20
26.5620423497
 30
0.0
 10
-3.8575873103
 20
26.5522071666
 30
0.0
 10
-3.818674722
 20
26.5224901833
 30
0.0
 10
-3.7739724498
 20
26.4628259801
 30
0.0
 10
-3.7439914281
 20
26.3927937323
 30
0.0
 10
-3.7362042212
 20
26.3424014055
 30
0.0
 10
-3.7365410818
 20
26.3181637403
 30
0.0
 11
-3.8779408988
 21
26.5620423497
 31
0.0
 11
-3.8230832244
 21
26.5221721843
 31
0.0
 11
-3.7769495456
 21
26.461826967
 31
0.0
 11
-3.7465606085
 21
26.3901901943
 31
0.0
 11
-3.7365410818
 21
26.3181637403
 31
0.0
  0
SPLINE
  5
3C5
100
AcDbEntity
  8
ASSI
100
AcDbSpline
 62
7
  6
CONTINUOUS
 70
0
 71
3
 72
9
 73
5
 74
3
 42
0.0000001
 43
0.0000001
 44
0.0000000001
 12
-0.0803798402
 22
0.0401899201
 32
0.0
 13
-0.0815990614
 23
-0.0376529093
 33
0.0
 40
0.0
 40
0.0
 40
0.0
 40
0.0
 40
0.5356764828
 40
1.0
 40
1.0
 40
1.0
 40
1.0
 10
-6.5234087873
 20
27.3627643814
 30
0.0
 10
-6.5377613173
 20
27.3699406465
 30
0.0
 10
-6.5669334232
 20
27.3797483256
 30
0.0
 10
-6.5981150512
 20
27.375277684
 30
0.0
 10
-6.6107445056
 20
27.3694499736
 30
0.0
 11
-6.5234087873
 21
27.3627643814
 31
0.0
 11
-6.5695915704
 21
27.3763509785
 31
0.0
 11
-6.6107445056
 21
27.3694499736
 31
0.0
  0
SPLINE
  5
3C6
100
AcDbEntity
  8
ASSI
100
AcDbSpline
 62
253
  6
CONTINUOUS
 70
0
 71
3
 72
9
 73
5
 74
3
 42
0.0000001
 43
0.0000001
 44
0.0000000001
 12
0.0533980009
 22
0.1429693515
 32
0.0
 13
-0.0421136761
 23
0.1466902187
 33
0.0
 40
0.0
 40
0.0
 40
0.0
 40
0.0
 40
0.2544748176
 40
1.0
 40
1.0
 40
1.0
 40
1.0
 10
8.8667224627
 20
-21.6117498075
 30
0.0
 10
8.8712519449
 20
-21.599622441
 30
0.0
 10
8.8852894681
 20
-21.5506853405
 30
0.0
 10
8.8843924045
 20
-21.4971466857
 30
0.0
 10
8.8739268025
 20
-21.460692935
 30
0.0
 11
8.8667224627
 21
-21.6117498075
 31
0.0
 11
8.8774292117
 21
-21.5744179367
 31
0.0
 11
8.8739268025
 21
-21.460692935
 31
0.0
  0
SPLINE
  5
3C7
100
AcDbEntity
  8
ASSI
100
AcDbSpline
 62
253
  6
CONTINUOUS
 70
0
 71
3
 72
9
 73
5
 74
3
 42
0.0000001
 43
0.0000001
 44
0.0000000001
 12
-0.0313295235
 22
0.1091268938
 32
0.0
 13
-0.0924413689
 23
0.0659151827
 33
0.0
 40
0.0
 40
0.0
 40
0.0
 40
0.0
 40
0.518651304
 40
1.0
 40
1.0
 40
1.0
 40
1.0
 10
8.8739268025
 20
-21.460692935
 30
0.0
 10
8.8685104364
 20
-21.4418266664
 30
0.0
 10
8.8529579719
 20
-21.4065974987
 30
0.0
 10
8.8263856886
 20
-21.3783175983
 30
0.0
 10
8.8115535112
 20
-21.3677415359
 30
0.0
 11
8.8739268025
 21
-21.460692935
 31
0.0
 11
8.8494135023
 21
-21.407152706
 31
0.0
 11
8.8115535112
 21
-21.3677415359
 31
0.0
  0
SPLINE
  5
3C8
100
AcDbEntity
  8
ASSI
100
AcDbSpline
 62
253
  6
CONTINUOUS
 70
0
 71
3
 72
11
 73
7
 74
5
 42
0.0000001
 43
0.0000001
 44
0.0000000001
 12
0.0830519921
 22
0.0430015322
 32
0.0
 13
0.0000129856
 23
0.0935241412
 33
0.0
 40
0.0
 40
0.0
 40
0.0
 40
0.0
 40
0.3007082987
 40
0.5638121155
 40
0.79233051
 40
1.0
 40
1.0
 40
1.0
 40
1.0
 10
8.8840915673
 20
-21.6402566903
 30
0.0
 10
8.8924163751
 20
-21.6359463845
 30
0.0
 10
8.9074712022
 20
-21.6266865585
 30
0.0
 10
8.9257614393
 20
-21.6097724219
 30
0.0
 10
8.9374312215
 20
-21.5909615109
 30
0.0
 10
8.9402226461
 20
-21.5772648205
 30
0.0
 10
8.940223545
 20
-21.5707907835
 30
0.0
 11
8.8840915673
 21
-21.6402566903
 31
0.0
 11
8.9078950884
 21
-21.6252792796
 31
0.0
 11
8.9256592004
 21
-21.6082522699
 31
0.0
 11
8.9365474138
 21
-21.5898618205
 31
0.0
 11
8.940223545
 21
-21.5707907835
 31
0.0
  0
SPLINE
  5
3C9
100
AcDbEntity
  8
ASSI
100
AcDbSpline
 62
253
  6
CONTINUOUS
 70
0
 71
3
 72
11
 73
7
 74
5
 42
0.0000001
 43
0.0000001
 44
0.0000000001
 12
0.0830519927
 22
0.043001428
 32
0.0
 13
0.0000129856
 23
0.0935240939
 33
0.0
 40
0.0
 40
0.0
 40
0.0
 40
0.0
 40
0.300708284
 40
0.5638120708
 40
0.7923304554
 40
1.0
 40
1.0
 40
1.0
 40
1.0
 10
8.8840915673
 20
-21.9802002852
 30
0.0
 10
8.8924163747
 20
-21.97588999
 30
0.0
 10
8.9074712017
 20
-21.966630183
 30
0.0
 10
8.9257614396
 20
-21.9497160676
 30
0.0
 10
8.9374312225
 20
-21.9309051687
 30
0.0
 10
8.9402226461
 20
-21.9172084835
 30
0.0
 10
8.940223545
 20
-21.9107344481
 30
0.0
 11
8.8840915673
 21
-21.9802002852
 31
0.0
 11
8.9078950885
 21
-21.9652229039
 31
0.0
 11
8.9256592002
 21
-21.948195916
 31
0.0
 11
8.9365474135
 21
-21.9298054802
 31
0.0
 11
8.940223545
 21
-21.9107344481
 31
0.0
  0
SPLINE
  5
3CA
100
AcDbEntity
  8
ASSI
100
AcDbSpline
 62
253
  6
CONTINUOUS
 70
0
 71
3
 72
11
 73
7
 74
5
 42
0.0000001
 43
0.0000001
 44
0.0000000001
 12
0.0017322571
 22
-0.1228448832
 32
0.0
 13
-0.1081510858
 23
-0.0582855788
 33
0.0
 40
0.0
 40
0.0
 40
0.0
 40
0.0
 40
0.2880667099
 40
0.5480551474
 40
0.7818193646
 40
1.0
 40
1.0
 40
1.0
 40
1.0
 10
8.8499596234
 20
-22.0411672917
 30
0.0
 10
8.8501259586
 20
-22.0529631321
 30
0.0
 10
8.8485031322
 20
-22.0755091844
 30
0.0
 10
8.8394057115
 20
-22.1065300342
 30
0.0
 10
8.8236910256
 20
-22.1315995479
 30
0.0
 10
8.8089203115
 20
-22.143475713
 30
0.0
 10
8.8010548206
 20
-22.1477146412
 30
0.0
 11
8.8499596234
 21
-22.0411672917
 31
0.0
 11
8.8471064634
 21
-22.0764431354
 31
0.0
 11
8.8376717461
 21
-22.1069593722
 31
0.0
 11
8.8220642497
 21
-22.1310678991
 31
0.0
 11
8.8010548206
 21
-22.1477146412
 31
0.0
  0
SPLINE
  5
3CB
100
AcDbEntity
  8
ASSI
100
AcDbSpline
 62
7
  6
CONTINUOUS
 70
0
 71
3
 72
11
 73
7
 74
5
 42
0.0000001
 43
0.0000001
 44
0.0000000001
 12
0.3127343168
 22
-0.0698517
 32
0.0
 13
0.3197544845
 23
-0.0209542967
 33
0.0
 40
0.0
 40
0.0
 40
0.0
 40
0.0
 40
0.2600258425
 40
0.5362385583
 40
0.7904459356
 40
1.0
 40
1.0
 40
1.0
 40
1.0
 10
7.1097444591
 20
-21.7514070387
 30
0.0
 10
7.1368507939
 20
-21.7574614544
 30
0.0
 10
7.1923682954
 20
-21.771581874
 30
0.0
 10
7.2744451002
 20
-21.791420693
 30
0.0
 10
7.3519028202
 20
-21.8071897418
 30
0.0
 10
7.4010691222
 20
-21.814007957
 30
0.0
 10
7.4234044061
 20
-21.815471643
 30
0.0
 11
7.1097444591
 21
-21.7514070387
 31
0.0
 11
7.1907308691
 21
-21.7710000319
 31
0.0
 11
7.2768508954
 21
-21.7914281394
 31
0.0
 11
7.3567636956
 21
-21.8072205056
 31
0.0
 11
7.4234044061
 21
-21.815471643
 31
0.0
  0
SPLINE
  5
3CC
100
AcDbEntity
  8
ASSI
100
AcDbSpline
 62
253
  6
CONTINUOUS
 70
0
 71
3
 72
11
 73
7
 74
5
 42
0.0000001
 43
0.0000001
 44
0.0000000001
 12
0.250781152
 22
-0.1310694383
 32
0.0
 13
0.1497892018
 23
-0.2400699458
 33
0.0
 40
0.0
 40
0.0
 40
0.0
 40
0.0
 40
0.2433257346
 40
0.5160727117
 40
0.7803776914
 40
1.0
 40
1.0
 40
1.0
 40
1.0
 10
6.4769542497
 20
-22.4967202048
 30
0.0
 10
6.4972947524
 20
-22.5073510605
 30
0.0
 10
6.5384364145
 20
-22.5336961789
 30
0.0
 10
6.5959591862
 20
-22.5798058812
 30
0.0
 10
6.6468942248
 20
-22.6299235143
 30
0.0
 10
6.6756309185
 20
-22.6657239405
 30
0.0
 10
6.6865966019
 20
-22.6832988457
 30
0.0
 11
6.4769542497
 21
-22.4967202048
 31
0.0
 11
6.5354015144
 21
-22.5331163246
 31
0.0
 11
6.5956953503
 21
-22.5812947675
 31
0.0
 11
6.6487569752
 21
-22.6340010343
 31
0.0
 11
6.6865966019
 21
-22.6832988457
 31
0.0
  0
SPLINE
  5
3CD
100
AcDbEntity
  8
ASSI
100
AcDbSpline
 62
253
  6
CONTINUOUS
 70
0
 71
3
 72
11
 73
7
 74
5
 42
0.0000001
 43
0.0000001
 44
0.0000000001
 12
0.257504789
 22
-0.1287523946
 32
0.0
 13
0.2592593051
 23
0.1251819004
 33
0.0
 40
0.0
 40
0.0
 40
0.0
 40
0.0
 40
0.2347796704
 40
0.4987463381
 40
0.7633868342
 40
1.0
 40
1.0
 40
1.0
 40
1.0
 10
6.3882573372
 20
-22.7282600962
 30
0.0
 10
6.4084096337
 20
-22.7383362444
 30
0.0
 10
6.4546875929
 20
-22.7527877359
 30
0.0
 10
6.5279879273
 20
-22.7599013524
 30
0.0
 10
6.6015232953
 20
-22.7533928207
 30
0.0
 10
6.6481623125
 20
-22.7393566267
 30
0.0
 10
6.6686103675
 20
-22.7294833981
 30
0.0
 11
6.3882573372
 21
-22.7282600962
 31
0.0
 11
6.4523365011
 21
-22.7497695152
 31
0.0
 11
6.5279333864
 21
-22.7575456104
 31
0.0
 11
6.603790181
 21
-22.7504303733
 31
0.0
 11
6.6686103675
 21
-22.7294833981
 31
0.0
  0
SPLINE
  5
3CE
100
AcDbEntity
  8
ASSI
100
AcDbSpline
 62
253
  6
CONTINUOUS
 70
0
 71
3
 72
11
 73
7
 74
5
 42
0.0000001
 43
0.0000001
 44
0.0000000001
 12
0.257504789
 22
-0.1287523945
 32
0.0
 13
0.2592593051
 23
0.1251819003
 33
0.0
 40
0.0
 40
0.0
 40
0.0
 40
0.0
 40
0.2347796703
 40
0.4987463379
 40
0.763386834
 40
1.0
 40
1.0
 40
1.0
 40
1.0
 10
6.3882573372
 20
-23.0455288965
 30
0.0
 10
6.4084096337
 20
-23.0556050448
 30
0.0
 10
6.4546875928
 20
-23.0700565363
 30
0.0
 10
6.5279879273
 20
-23.0771701527
 30
0.0
 10
6.6015232952
 20
-23.0706616211
 30
0.0
 10
6.6481623125
 20
-23.056625427
 30
0.0
 10
6.6686103675
 20
-23.0467521984
 30
0.0
 11
6.3882573372
 21
-23.0455288965
 31
0.0
 11
6.4523365011
 21
-23.0670383156
 31
0.0
 11
6.5279333863
 21
-23.0748144107
 31
0.0
 11
6.6037901809
 21
-23.0676991737
 31
0.0
 11
6.6686103675
 21
-23.0467521984
 31
0.0
  0
SPLINE
  5
3CF
100
AcDbEntity
  8
ASSI
100
AcDbSpline
 62
253
  6
CONTINUOUS
 70
0
 71
3
 72
9
 73
5
 74
3
 42
0.0000001
 43
0.0000001
 44
0.0000000001
 12
-15.1178162097
 22
6.5379559518
 32
0.0
 13
-14.2642882008
 23
8.2354913091
 33
0.0
 40
0.0
 40
0.0
 40
0.0
 40
0.0
 40
0.5097138088
 40
1.0
 40
1.0
 40
1.0
 40
1.0
 10
3.12562287
 20
15.3264186228
 30
0.0
 10
0.5570363095
 20
16.4372474328
 30
0.0
 10
-4.4263486881
 20
18.7488016287
 30
0.0
 10
-9.2691584322
 20
21.3434906096
 30
0.0
 10
-11.6003529427
 20
22.6894064983
 30
0.0
 11
3.12562287
 21
15.3264186228
 31
0.0
 11
-4.4866413877
 21
18.8672703493
 31
0.0
 11
-11.6003529427
 21
22.6894064983
 31
0.0
  0
SPLINE
  5
3D0
100
AcDbEntity
  8
ASSI
100
AcDbSpline
 62
253
  6
CONTINUOUS
 70
0
 71
3
 72
9
 73
5
 74
3
 42
0.0000001
 43
0.0000001
 44
0.0000000001
 12
-0.0000037956
 22
0.0355290971
 32
0.0
 13
-0.0348352978
 23
0.006987044
 33
0.0
 40
0.0
 40
0.0
 40
0.0
 40
0.0
 40
0.5571938031
 40
1.0
 40
1.0
 40
1.0
 40
1.0
 10
8.8840915673
 20
-21.6402566903
 30
0.0
 10
8.8840908624
 20
-21.6336578261
 30
0.0
 10
8.8823529716
 20
-21.6211717424
 30
0.0
 10
8.8718642246
 20
-21.6127811097
 30
0.0
 10
8.8667224627
 20
-21.6117498075
 30
0.0
 11
8.8840915673
 21
-21.6402566903
 31
0.0
 11
8.8794373444
 21
-21.6210149831
 31
0.0
 11
8.8667224627
 21
-21.6117498075
 31
0.0
  0
SPLINE
  5
3D1
100
AcDbEntity
  8
ASSI
100
AcDbSpline
 62
253
  6
CONTINUOUS
 70
0
 71
3
 72
11
 73
7
 74
5
 42
0.0000001
 43
0.0000001
 44
0.0000000001
 12
0.4026003488
 22
0.1952390652
 32
0.0
 13
0.4002143527
 23
-0.2000844956
 33
0.0
 40
0.0
 40
0.0
 40
0.0
 40
0.0
 40
0.27852181
 40
0.5344491108
 40
0.7722103202
 40
1.0
 40
1.0
 40
1.0
 40
1.0
 10
5.5248544754
 20
26.4519588126
 30
0.0
 10
5.5622321347
 20
26.4700849252
 30
0.0
 10
5.6369365717
 20
26.4992804118
 30
0.0
 10
5.7511890113
 20
26.519603759
 30
0.0
 10
5.8596987955
 20
26.5133643011
 30
0.0
 10
5.9264928419
 20
26.4909377303
 30
0.0
 10
5.956881075
 20
26.4757453359
 30
0.0
 11
5.5248544754
 21
26.4519588126
 31
0.0
 11
5.6412816285
 21
26.4964057063
 31
0.0
 11
5.7542010514
 21
26.5154427671
 31
0.0
 11
5.8603574889
 21
26.508478795
 31
0.0
 11
5.956881075
 21
26.4757453359
 31
0.0
  0
SPLINE
  5
3D2
100
AcDbEntity
  8
ASSI
100
AcDbSpline
 62
253
  6
CONTINUOUS
 70
0
 71
3
 72
11
 73
7
 74
5
 42
0.0000001
 43
0.0000001
 44
0.0000000001
 12
0.1595996113
 22
0.0813941417
 32
0.0
 13
0.0001015022
 23
0.1791564454
 33
0.0
 40
0.0
 40
0.0
 40
0.0
 40
0.0
 40
0.3017267301
 40
0.5645973623
 40
0.7926900064
 40
1.0
 40
1.0
 40
1.0
 40
1.0
 10
7.8825311527
 20
23.4000993166
 30
0.0
 10
7.8985829756
 20
23.4082855793
 30
0.0
 10
7.9275935105
 20
23.4258441892
 30
0.0
 10
7.9627864706
 20
23.4581037983
 30
0.0
 10
7.9853205577
 20
23.4939642122
 30
0.0
 10
7.9906823459
 20
23.5201642744
 30
0.0
 10
7.9906893601
 20
23.5325445816
 30
0.0
 11
7.8825311527
 21
23.4000993166
 31
0.0
 11
7.9284636066
 21
23.4286000698
 31
0.0
 11
7.9626238619
 21
23.461019411
 31
0.0
 11
7.9836066233
 21
23.4960852435
 31
0.0
 11
7.9906893601
 21
23.5325445816
 31
0.0
  0
SPLINE
  5
3D3
100
AcDbEntity
  8
ASSI
100
AcDbSpline
 62
253
  6
CONTINUOUS
 70
0
 71
3
 72
9
 73
5
 74
3
 42
0.0000001
 43
0.0000001
 44
0.0000000001
 12
0.0633521294
 22
0.0341790561
 32
0.0
 13
-0.0000008454
 23
0.0719840272
 33
0.0
 40
0.0
 40
0.0
 40
0.0
 40
0.0
 40
0.4876248425
 40
1.0
 40
1.0
 40
1.0
 40
1.0
 10
8.8499596234
 20
-22.0411672917
 30
0.0
 10
8.8602569807
 20
-22.0356117728
 30
0.0
 10
8.8766745395
 20
-22.0163047803
 30
0.0
 10
8.8840917117
 20
-21.9924945609
 30
0.0
 10
8.8840915673
 20
-21.9802002852
 30
0.0
 11
8.8499596234
 21
-22.0411672917
 31
0.0
 11
8.8741281059
 21
-22.0157118662
 31
0.0
 11
8.8840915673
 21
-21.9802002852
 31
0.0
  0
SPLINE
  5
3D4
100
AcDbEntity
  8
ASSI
100
AcDbSpline
 62
253
  6
CONTINUOUS
 70
0
 71
3
 72
11
 73
7
 74
5
 42
0.0000001
 43
0.0000001
 44
0.0000000001
 12
0.1595996113
 22
0.0813941417
 32
0.0
 13
0.0001015022
 23
0.1791564454
 33
0.0
 40
0.0
 40
0.0
 40
0.0
 40
0.0
 40
0.3017267301
 40
0.5645973623
 40
0.7926900064
 40
1.0
 40
1.0
 40
1.0
 40
1.0
 10
2.273374837
 20
26.2046774744
 30
0.0
 10
2.28942666
 20
26.2128637371
 30
0.0
 10
2.3184371949
 20
26.2304223471
 30
0.0
 10
2.3536301549
 20
26.2626819561
 30
0.0
 10
2.376164242
 20
26.2985423701
 30
0.0
 10
2.3815260303
 20
26.3247424322
 30
0.0
 10
2.3815330444
 20
26.3371227394
 30
0.0
 11
2.273374837
 21
26.2046774744
 31
0.0
 11
2.3193072909
 21
26.2331782276
 31
0.0
 11
2.3534675463
 21
26.2655975688
 31
0.0
 11
2.3744503076
 21
26.3006634013
 31
0.0
 11
2.3815330444
 21
26.3371227394
 31
0.0
  0
SPLINE
  5
3D5
100
AcDbEntity
  8
RACCORDO
100
AcDbSpline
 62
253
  6
CONTINUOUS
 70
0
 71
3
 72
9
 73
5
 74
3
 42
0.0000001
 43
0.0000001
 44
0.0000000001
 12
0.1153758895
 22
0.0316643712
 32
0.0
 13
0.1067249915
 23
-0.0540740646
 33
0.0
 40
0.0
 40
0.0
 40
0.0
 40
0.0
 40
0.4819502444
 40
1.0
 40
1.0
 40
1.0
 40
1.0
 10
13.0677317044
 20
-13.279801366
 30
0.0
 10
13.0862668504
 20
-13.2747144822
 30
0.0
 10
13.1273135358
 20
-13.2723941778
 30
0.0
 10
13.1659406828
 20
-13.2853662459
 30
0.0
 10
13.1843703014
 20
-13.2947039312
 30
0.0
 11
13.0677317044
 21
-13.279801366
 31
0.0
 11
13.1252697697
 21
-13.2760299913
 31
0.0
 11
13.1843703014
 21
-13.2947039312
 31
0.0
  0
SPLINE
  5
3D6
100
AcDbEntity
  8
ASSI
100
AcDbSpline
 62
253
  6
CONTINUOUS
 70
0
 71
3
 72
11
 73
7
 74
5
 42
0.0000001
 43
0.0000001
 44
0.0000000001
 12
0.3312438285
 22
-0.1600625469
 32
0.0
 13
-0.0051123801
 23
-0.3678537161
 33
0.0
 40
0.0
 40
0.0
 40
0.0
 40
0.0
 40
0.2304221291
 40
0.4885147234
 40
0.7529146663
 40
1.0
 40
1.0
 40
1.0
 40
1.0
 10
2.0965539463
 20
26.5094894376
 30
0.0
 10
2.1219959157
 20
26.4971954533
 30
0.0
 10
2.1706366247
 20
26.4600492239
 30
0.0
 10
2.2265144551
 20
26.3854689812
 30
0.0
 10
2.263990753
 20
26.2979286776
 30
0.0
 10
2.273724785
 20
26.2349382633
 30
0.0
 10
2.2733037203
 20
26.2046411772
 30
0.0
 11
2.0965539463
 21
26.5094894376
 31
0.0
 11
2.165125996
 21
26.4596517339
 31
0.0
 11
2.2227930833
 21
26.384220226
 31
0.0
 11
2.26077928
 21
26.2946742538
 31
0.0
 11
2.2733037203
 21
26.2046411772
 31
0.0
  0
SPLINE
  5
3D7
100
AcDbEntity
  8
ASSI
100
AcDbSpline
 62
253
  6
CONTINUOUS
 70
0
 71
3
 72
9
 73
5
 74
3
 42
0.0000001
 43
0.0000001
 44
0.0000000001
 12
-0.0987551695
 22
0.051093948
 32
0.0
 13
-0.1009595448
 23
-0.0465869654
 33
0.0
 40
0.0
 40
0.0
 40
0.0
 40
0.0
 40
0.5348831908
 40
1.0
 40
1.0
 40
1.0
 40
1.0
 10
1.904716398
 20
26.6054082117
 30
0.0
 10
1.8871089046
 20
26.6145179763
 30
0.0
 10
1.8511021548
 20
26.6270766481
 30
0.0
 10
1.8124669698
 20
26.6215734412
 30
0.0
 10
1.7968143094
 20
26.6143506476
 30
0.0
 11
1.904716398
 21
26.6054082117
 31
0.0
 11
1.8478380988
 21
26.6227853172
 31
0.0
 11
1.7968143094
 21
26.6143506476
 31
0.0
  0
SPLINE
  5
3D8
100
AcDbEntity
  8
ASSI
100
AcDbSpline
 62
253
  6
CONTINUOUS
 70
0
 71
3
 72
9
 73
5
 74
3
 42
0.0000001
 43
0.0000001
 44
0.0000000001
 12
-0.1068732818
 22
0.0519357288
 32
0.0
 13
-0.1045970371
 23
-0.056379767
 33
0.0
 40
0.0
 40
0.0
 40
0.0
 40
0.0
 40
0.5372366612
 40
1.0
 40
1.0
 40
1.0
 40
1.0
 10
-2.350206446
 20
24.6239626087
 30
0.0
 10
-2.3693451944
 20
24.6332632012
 30
0.0
 10
-2.4082277268
 20
24.6457046324
 30
0.0
 10
-2.449405171
 20
24.637903438
 30
0.0
 10
-2.465539729
 20
24.6292066082
 30
0.0
 11
-2.350206446
 21
24.6239626087
 31
0.0
 11
-2.411785803
 21
24.6407886951
 31
0.0
 11
-2.465539729
 21
24.6292066082
 31
0.0
  0
SPLINE
  5
3D9
100
AcDbEntity
  8
ASSI
100
AcDbSpline
 62
253
  6
CONTINUOUS
 70
0
 71
3
 72
9
 73
5
 74
3
 42
0.0000001
 43
0.0000001
 44
0.0000000001
 12
-0.1068732818
 22
0.0519357288
 32
0.0
 13
-0.1045970371
 23
-0.056379767
 33
0.0
 40
0.0
 40
0.0
 40
0.0
 40
0.0
 40
0.5372366612
 40
1.0
 40
1.0
 40
1.0
 40
1.0
 10
1.3621041552
 20
22.7678073081
 30
0.0
 10
1.3429654069
 20
22.7771079006
 30
0.0
 10
1.3040828744
 20
22.7895493318
 30
0.0
 10
1.2629054303
 20
22.7817481374
 30
0.0
 10
1.2467708722
 20
22.7730513076
 30
0.0
 11
1.3621041552
 21
22.7678073081
 31
0.0
 11
1.3005247982
 21
22.7846333945
 31
0.0
 11
1.2467708722
 21
22.7730513076
 31
0.0
  0
SPLINE
  5
3DA
100
AcDbEntity
  8
ASSI
100
AcDbSpline
 62
253
  6
CONTINUOUS
 70
0
 71
3
 72
11
 73
7
 74
5
 42
0.0000001
 43
0.0000001
 44
0.0000000001
 12
-0.0042666542
 22
0.3662553148
 32
0.0
 13
-0.3257077762
 23
0.1675577645
 33
0.0
 40
0.0
 40
0.0
 40
0.0
 40
0.0
 40
0.2465204346
 40
0.5119835308
 40
0.7708932999
 40
1.0
 40
1.0
 40
1.0
 40
1.0
 10
0.0464918139
 20
23.2091401028
 30
0.0
 10
0.0461412081
 20
23.2392365759
 30
0.0
 10
0.0351620723
 20
23.3017163832
 30
0.0
 10
-0.0027686946
 20
23.3886770115
 30
0.0
 10
-0.0578741827
 20
23.4632738956
 30
0.0
 10
-0.1053840128
 20
23.5011921623
 30
0.0
 10
-0.1302579574
 20
23.5139883644
 30
0.0
 11
0.0464918139
 21
23.2091401028
 31
0.0
 11
0.0322732577
 21
23.2983091458
 31
0.0
 11
-0.0063072416
 21
23.3875614284
 31
0.0
 11
-0.0633804546
 21
23.463298101
 31
0.0
 11
-0.1302579574
 21
23.5139883644
 31
0.0
  0
SPLINE
  5
3DB
100
AcDbEntity
  8
ASSI
100
AcDbSpline
 62
7
  6
CONTINUOUS
 70
0
 71
3
 72
11
 73
7
 74
5
 42
0.0000001
 43
0.0000001
 44
0.0000000001
 12
-0.0
 22
0.3669998579
 32
0.0
 13
-0.328254652
 23
0.164127326
 33
0.0
 40
0.0
 40
0.0
 40
0.0
 40
0.0
 40
0.2468214196
 40
0.5117844928
 40
0.770298635
 40
1.0
 40
1.0
 40
1.0
 40
1.0
 10
0.2648378513
 20
23.3191549843
 30
0.0
 10
0.2648378513
 20
23.3493494596
 30
0.0
 10
0.2544243358
 20
23.4120671485
 30
0.0
 10
0.2166838604
 20
23.4992800726
 30
0.0
 10
0.1612465747
 20
23.5738717469
 30
0.0
 10
0.1132215938
 20
23.611436489
 30
0.0
 10
0.0880880799
 20
23.624003246
 30
0.0
 11
0.2648378513
 21
23.3191549843
 31
0.0
 11
0.2513834295
 21
23.4087336402
 31
0.0
 11
0.2130673833
 21
23.4981079791
 31
0.0
 11
0.1557360015
 21
23.5737010511
 31
0.0
 11
0.0880880799
 21
23.624003246
 31
0.0
  0
SPLINE
  5
3DC
100
AcDbEntity
  8
ASSI
100
AcDbSpline
 62
253
  6
CONTINUOUS
 70
0
 71
3
 72
11
 73
7
 74
5
 42
0.0000001
 43
0.0000001
 44
0.0000000001
 12
-0.0042666542
 22
0.3662553148
 32
0.0
 13
-0.3257077762
 23
0.1675577645
 33
0.0
 40
0.0
 40
0.0
 40
0.0
 40
0.0
 40
0.2465204346
 40
0.5119835308
 40
0.7708932999
 40
1.0
 40
1.0
 40
1.0
 40
1.0
 10
3.7588024151
 20
21.3529848022
 30
0.0
 10
3.7584518093
 20
21.3830812753
 30
0.0
 10
3.7474726735
 20
21.4455610826
 30
0.0
 10
3.7095419067
 20
21.5325217109
 30
0.0
 10
3.6544364185
 20
21.607118595
 30
0.0
 10
3.6069265884
 20
21.6450368617
 30
0.0
 10
3.5820526438
 20
21.6578330638
 30
0.0
 11
3.7588024151
 21
21.3529848022
 31
0.0
 11
3.7445838589
 21
21.4421538452
 31
0.0
 11
3.7060033597
 21
21.5314061278
 31
0.0
 11
3.6489301466
 21
21.6071428004
 31
0.0
 11
3.5820526438
 21
21.6578330638
 31
0.0
  0
SPLINE
  5
3DD
100
AcDbEntity
  8
ASSI
100
AcDbSpline
 62
7
  6
CONTINUOUS
 70
0
 71
3
 72
11
 73
7
 74
5
 42
0.0000001
 43
0.0000001
 44
0.0000000001
 12
-0.0
 22
0.3669998579
 32
0.0
 13
-0.328254652
 23
0.164127326
 33
0.0
 40
0.0
 40
0.0
 40
0.0
 40
0.0
 40
0.2468214196
 40
0.5117844928
 40
0.770298635
 40
1.0
 40
1.0
 40
1.0
 40
1.0
 10
3.9771484525
 20
21.4629996837
 30
0.0
 10
3.9771484525
 20
21.493194159
 30
0.0
 10
3.966734937
 20
21.5559118478
 30
0.0
 10
3.9289944617
 20
21.6431247719
 30
0.0
 10
3.8735571759
 20
21.7177164463
 30
0.0
 10
3.825532195
 20
21.7552811884
 30
0.0
 10
3.8003986812
 20
21.7678479453
 30
0.0
 11
3.9771484525
 21
21.4629996837
 31
0.0
 11
3.9636940307
 21
21.5525783396
 31
0.0
 11
3.9253779845
 21
21.6419526785
 31
0.0
 11
3.8680466027
 21
21.7175457505
 31
0.0
 11
3.8003986812
 21
21.7678479453
 31
0.0
  0
SPLINE
  5
3DE
100
AcDbEntity
  8
ASSI
100
AcDbSpline
 62
253
  6
CONTINUOUS
 70
0
 71
3
 72
9
 73
5
 74
3
 42
0.0000001
 43
0.0000001
 44
0.0000000001
 12
-0.0987551695
 22
0.051093948
 32
0.0
 13
-0.1009595448
 23
-0.0465869654
 33
0.0
 40
0.0
 40
0.0
 40
0.0
 40
0.0
 40
0.5348831908
 40
1.0
 40
1.0
 40
1.0
 40
1.0
 10
7.5138727136
 20
23.8008300539
 30
0.0
 10
7.4962652202
 20
23.8099398185
 30
0.0
 10
7.4602584704
 20
23.8224984903
 30
0.0
 10
7.4216232855
 20
23.8169952833
 30
0.0
 10
7.405970625
 20
23.8097724898
 30
0.0
 11
7.5138727136
 21
23.8008300539
 31
0.0
 11
7.4569944144
 21
23.8182071594
 31
0.0
 11
7.405970625
 21
23.8097724898
 31
0.0
  0
SPLINE
  5
3DF
100
AcDbEntity
  8
ASSI
100
AcDbSpline
 62
253
  6
CONTINUOUS
 70
0
 71
3
 72
11
 73
7
 74
5
 42
0.0000001
 43
0.0000001
 44
0.0000000001
 12
0.3312438285
 22
-0.1600625469
 32
0.0
 13
-0.0051123801
 23
-0.3678537161
 33
0.0
 40
0.0
 40
0.0
 40
0.0
 40
0.0
 40
0.2304221291
 40
0.4885147234
 40
0.7529146663
 40
1.0
 40
1.0
 40
1.0
 40
1.0
 10
7.7057102619
 20
23.7049112797
 30
0.0
 10
7.7311522313
 20
23.6926172955
 30
0.0
 10
7.7797929404
 20
23.6554710661
 30
0.0
 10
7.8356707707
 20
23.5808908233
 30
0.0
 10
7.8731470687
 20
23.4933505198
 30
0.0
 10
7.8828811007
 20
23.4303601055
 30
0.0
 10
7.882460036
 20
23.4000630194
 30
0.0
 11
7.7057102619
 21
23.7049112797
 31
0.0
 11
7.7742823117
 21
23.6550735761
 31
0.0
 11
7.831949399
 21
23.5796420682
 31
0.0
 11
7.8699355957
 21
23.490096096
 31
0.0
 11
7.882460036
 21
23.4000630194
 31
0.0
  0
SPLINE
  5
3E0
100
AcDbEntity
  8
ASSI
100
AcDbSpline
 62
253
  6
CONTINUOUS
 70
0
 71
3
 72
11
 73
7
 74
5
 42
0.0000001
 43
0.0000001
 44
0.0000000001
 12
-0.086091312
 22
0.043045656
 32
0.0
 13
0.0000133645
 23
0.0962530121
 33
0.0
 40
0.0
 40
0.0
 40
0.0
 40
0.0
 40
0.3019103668
 40
0.5654931424
 40
0.7935263697
 40
1.0
 40
1.0
 40
1.0
 40
1.0
 10
1.1878009877
 20
22.4995323026
 30
0.0
 10
1.1791370345
 20
22.5038642792
 30
0.0
 10
1.1634631262
 20
22.5132023048
 30
0.0
 10
1.1443733915
 20
22.5303790517
 30
0.0
 10
1.1321593856
 20
22.5495744663
 30
0.0
 10
1.1292214864
 20
22.5636184111
 30
0.0
 10
1.1292224062
 20
22.5702429807
 30
0.0
 11
1.1878009877
 21
22.4995323026
 31
0.0
 11
1.1629907985
 21
22.5146625859
 31
0.0
 11
1.1444453223
 21
22.5319754278
 31
0.0
 11
1.1330668564
 21
22.55074466
 31
0.0
 11
1.1292224062
 21
22.5702429807
 31
0.0
  0
SPLINE
  5
3E1
100
AcDbEntity
  8
ASSI
100
AcDbSpline
 62
253
  6
CONTINUOUS
 70
0
 71
3
 72
11
 73
7
 74
5
 42
0.0000001
 43
0.0000001
 44
0.0000000001
 12
-0.0000000004
 22
0.2909088214
 32
0.0
 13
0.2579535455
 23
0.1344913035
 33
0.0
 40
0.0
 40
0.0
 40
0.0
 40
0.0
 40
0.2462187672
 40
0.5106608001
 40
0.7692790838
 40
1.0
 40
1.0
 40
1.0
 40
1.0
 10
1.223150942
 20
22.5251520007
 30
0.0
 10
1.2231509419
 20
22.5490277378
 30
0.0
 10
1.2313002322
 20
22.5986314783
 30
0.0
 10
1.2608891228
 20
22.6677811456
 30
0.0
 10
1.3044865666
 20
22.7272195779
 30
0.0
 10
1.3422657291
 20
22.7574639892
 30
0.0
 10
1.3621041552
 20
22.7678073081
 30
0.0
 11
1.223150942
 21
22.5251520007
 31
0.0
 11
1.2336811047
 21
22.5960009462
 31
0.0
 11
1.263703452
 21
22.6668293012
 31
0.0
 11
1.3087470864
 21
22.7270893786
 31
0.0
 11
1.3621041552
 21
22.7678073081
 31
0.0
  0
SPLINE
  5
3E2
100
AcDbEntity
  8
ASSI
100
AcDbSpline
 62
253
  6
CONTINUOUS
 70
0
 71
3
 72
11
 73
7
 74
5
 42
0.0000001
 43
0.0000001
 44
0.0000000001
 12
0.0
 22
0.2909088213
 32
0.0
 13
0.2579535453
 23
0.1344913038
 33
0.0
 40
0.0
 40
0.0
 40
0.0
 40
0.0
 40
0.2462187683
 40
0.5106608019
 40
0.7692790849
 40
1.0
 40
1.0
 40
1.0
 40
1.0
 10
3.4430994305
 20
21.4151777564
 30
0.0
 10
3.4430994305
 20
21.4390534936
 30
0.0
 10
3.4512487209
 20
21.4886572343
 30
0.0
 10
3.4808376117
 20
21.5578069016
 30
0.0
 10
3.5244350554
 20
21.6172453338
 30
0.0
 10
3.5622142178
 20
21.6474897449
 30
0.0
 10
3.5820526438
 20
21.6578330638
 30
0.0
 11
3.4430994305
 21
21.4151777564
 31
0.0
 11
3.4536295934
 21
21.4860267022
 31
0.0
 11
3.4836519409
 21
21.5568550573
 31
0.0
 11
3.5286955752
 21
21.6171151345
 31
0.0
 11
3.5820526438
 21
21.6578330638
 31
0.0
  0
SPLINE
  5
3E3
100
AcDbEntity
  8
ASSI
100
AcDbSpline
 62
253
  6
CONTINUOUS
 70
0
 71
3
 72
11
 73
7
 74
5
 42
0.0000001
 43
0.0000001
 44
0.0000000001
 12
0.2575047899
 22
-0.1287523919
 32
0.0
 13
0.2592593058
 23
0.1251818983
 33
0.0
 40
0.0
 40
0.0
 40
0.0
 40
0.0
 40
0.2347796661
 40
0.498746331
 40
0.7633868303
 40
1.0
 40
1.0
 40
1.0
 40
1.0
 10
3.4784493848
 20
21.3542081041
 30
0.0
 10
3.498601681
 20
21.3441319562
 30
0.0
 10
3.5448796395
 20
21.3296804651
 30
0.0
 10
3.6181799735
 20
21.3225668485
 30
0.0
 10
3.6917153418
 20
21.3290753798
 30
0.0
 10
3.7383543598
 20
21.3431115736
 30
0.0
 10
3.7588024151
 20
21.3529848022
 30
0.0
 11
3.4784493848
 21
21.3542081041
 31
0.0
 11
3.5425285476
 21
21.3326986857
 31
0.0
 11
3.618125432
 21
21.3249225905
 31
0.0
 11
3.6939822274
 21
21.3320378271
 31
0.0
 11
3.7588024151
 21
21.3529848022
 31
0.0
  0
SPLINE
  5
3E4
100
AcDbEntity
  8
ASSI
100
AcDbSpline
 62
253
  6
CONTINUOUS
 70
0
 71
3
 72
11
 73
7
 74
5
 42
0.0000001
 43
0.0000001
 44
0.0000000001
 12
-0.086091312
 22
0.043045656
 32
0.0
 13
0.0000133645
 23
0.0962530121
 33
0.0
 40
0.0
 40
0.0
 40
0.0
 40
0.0
 40
0.3019103668
 40
0.5654931424
 40
0.7935263697
 40
1.0
 40
1.0
 40
1.0
 40
1.0
 10
-2.5245096135
 20
24.3556876033
 30
0.0
 10
-2.5331735667
 20
24.3600195799
 30
0.0
 10
-2.5488474751
 20
24.3693576054
 30
0.0
 10
-2.5679372097
 20
24.3865343523
 30
0.0
 10
-2.5801512156
 20
24.4057297669
 30
0.0
 10
-2.5830891149
 20
24.4197737118
 30
0.0
 10
-2.5830881951
 20
24.4263982814
 30
0.0
 11
-2.5245096135
 21
24.3556876033
 31
0.0
 11
-2.5493198027
 21
24.3708178865
 31
0.0
 11
-2.567865279
 21
24.3881307284
 31
0.0
 11
-2.5792437448
 21
24.4068999606
 31
0.0
 11
-2.5830881951
 21
24.4263982814
 31
0.0
  0
SPLINE
  5
3E5
100
AcDbEntity
  8
ASSI
100
AcDbSpline
 62
253
  6
CONTINUOUS
 70
0
 71
3
 72
11
 73
7
 74
5
 42
0.0000001
 43
0.0000001
 44
0.0000000001
 12
-0.0000000004
 22
0.2909088214
 32
0.0
 13
0.2579535455
 23
0.1344913035
 33
0.0
 40
0.0
 40
0.0
 40
0.0
 40
0.0
 40
0.2462187672
 40
0.5106608001
 40
0.7692790838
 40
1.0
 40
1.0
 40
1.0
 40
1.0
 10
-2.4891596593
 20
24.3813073013
 30
0.0
 10
-2.4891596593
 20
24.4051830384
 30
0.0
 10
-2.481010369
 20
24.4547867789
 30
0.0
 10
-2.4514214784
 20
24.5239364462
 30
0.0
 10
-2.4078240346
 20
24.5833748785
 30
0.0
 10
-2.3700448721
 20
24.6136192898
 30
0.0
 10
-2.350206446
 20
24.6239626087
 30
0.0
 11
-2.4891596593
 21
24.3813073013
 31
0.0
 11
-2.4786294965
 21
24.4521562468
 31
0.0
 11
-2.4486071492
 21
24.5229846018
 31
0.0
 11
-2.4035635148
 21
24.5832446792
 31
0.0
 11
-2.350206446
 21
24.6239626087
 31
0.0
  0
SPLINE
  5
3E6
100
AcDbEntity
  8
ASSI
100
AcDbSpline
 62
253
  6
CONTINUOUS
 70
0
 71
3
 72
11
 73
7
 74
5
 42
0.0000001
 43
0.0000001
 44
0.0000000001
 12
0.0
 22
0.2909088213
 32
0.0
 13
0.2579535453
 23
0.1344913038
 33
0.0
 40
0.0
 40
0.0
 40
0.0
 40
0.0
 40
0.2462187683
 40
0.5106608019
 40
0.7692790849
 40
1.0
 40
1.0
 40
1.0
 40
1.0
 10
-0.2692111707
 20
23.271333057
 30
0.0
 10
-0.2692111707
 20
23.2952087943
 30
0.0
 10
-0.2610618803
 20
23.3448125349
 30
0.0
 10
-0.2314729896
 20
23.4139622022
 30
0.0
 10
-0.1878755458
 20
23.4734006344
 30
0.0
 10
-0.1500963834
 20
23.5036450455
 30
0.0
 10
-0.1302579574
 20
23.5139883644
 30
0.0
 11
-0.2692111707
 21
23.271333057
 31
0.0
 11
-0.2586810078
 21
23.3421820028
 31
0.0
 11
-0.2286586603
 21
23.4130103579
 31
0.0
 11
-0.183615026
 21
23.4732704351
 31
0.0
 11
-0.1302579574
 21
23.5139883644
 31
0.0
  0
SPLINE
  5
3E7
100
AcDbEntity
  8
ASSI
100
AcDbSpline
 62
253
  6
CONTINUOUS
 70
0
 71
3
 72
11
 73
7
 74
5
 42
0.0000001
 43
0.0000001
 44
0.0000000001
 12
0.2575047899
 22
-0.1287523919
 32
0.0
 13
0.2592593058
 23
0.1251818983
 33
0.0
 40
0.0
 40
0.0
 40
0.0
 40
0.0
 40
0.2347796661
 40
0.498746331
 40
0.7633868303
 40
1.0
 40
1.0
 40
1.0
 40
1.0
 10
-0.2338612164
 20
23.2103634047
 30
0.0
 10
-0.2137089202
 20
23.2002872568
 30
0.0
 10
-0.1674309617
 20
23.1858357657
 30
0.0
 10
-0.0941306278
 20
23.1787221491
 30
0.0
 10
-0.0205952595
 20
23.1852306804
 30
0.0
 10
0.0260437585
 20
23.1992668742
 30
0.0
 10
0.0464918139
 20
23.2091401028
 30
0.0
 11
-0.2338612164
 21
23.2103634047
 31
0.0
 11
-0.1697820536
 21
23.1888539863
 31
0.0
 11
-0.0941851693
 21
23.1810778911
 31
0.0
 11
-0.0183283738
 21
23.1881931277
 31
0.0
 11
0.0464918139
 21
23.2091401028
 31
0.0
  0
SPLINE
  5
3E8
100
AcDbEntity
  8
ASSI
100
AcDbSpline
 62
253
  6
CONTINUOUS
 70
0
 71
3
 72
11
 73
7
 74
5
 42
0.0000001
 43
0.0000001
 44
0.0000000001
 12
-0.0001092739
 22
-0.1185541213
 32
0.0
 13
-0.1056633721
 23
-0.0537619142
 33
0.0
 40
0.0
 40
0.0
 40
0.0
 40
0.0
 40
0.2070713867
 40
0.435367768
 40
0.6987225536
 40
1.0
 40
1.0
 40
1.0
 40
1.0
 10
6.2882964512
 20
25.8472810516
 30
0.0
 10
6.2882889087
 20
25.8390979962
 30
0.0
 10
6.2846983906
 20
25.8217704577
 30
0.0
 10
6.2697689774
 20
25.7980318455
 30
0.0
 10
6.2464151451
 20
25.7767381288
 30
0.0
 10
6.2272204402
 20
25.7651190946
 30
0.0
 10
6.2166091099
 20
25.7597200105
 30
0.0
 11
6.2882964512
 21
25.8472810516
 31
0.0
 11
6.2835813069
 21
25.8231889473
 31
0.0
 11
6.2696608857
 21
25.7999776885
 31
0.0
 11
6.2469741049
 21
25.7785274833
 31
0.0
 11
6.2166091099
 21
25.7597200105
 31
0.0
  0
SPLINE
  5
3E9
100
AcDbEntity
  8
RACCORDO
100
AcDbSpline
 62
253
  6
CONTINUOUS
 70
0
 71
3
 72
11
 73
7
 74
5
 42
0.0000001
 43
0.0000001
 44
0.0000000001
 12
0.120410351
 22
0.0877697712
 32
0.0
 13
-0.0229255183
 23
0.1472297727
 33
0.0
 40
0.0
 40
0.0
 40
0.0
 40
0.0
 40
0.2093349415
 40
0.4387039962
 40
0.7013569644
 40
1.0
 40
1.0
 40
1.0
 40
1.0
 10
13.3476016079
 20
20.8334382056
 30
0.0
 10
13.3560036391
 20
20.8395626323
 30
0.0
 10
13.3711348714
 20
20.8560630809
 30
0.0
 10
13.3846017263
 20
20.8887708653
 30
0.0
 10
13.3893256811
 20
20.9281047599
 30
0.0
 10
13.387122582
 20
20.9560587945
 30
0.0
 10
13.3848403999
 20
20.9707151765
 30
0.0
 11
13.3476016079
 21
20.8334382056
 31
0.0
 11
13.368916636
 21
20.8562108681
 31
0.0
 11
13.3825483765
 21
20.8875515165
 31
0.0
 11
13.3878939236
 21
20.9263210664
 31
0.0
 11
13.3848403999
 21
20.9707151765
 31
0.0
  0
SPLINE
  5
3EA
100
AcDbEntity
  8
ASSI
100
AcDbSpline
 62
253
  6
CONTINUOUS
 70
0
 71
3
 72
11
 73
7
 74
5
 42
0.0000001
 43
0.0000001
 44
0.0000000001
 12
0.1170568738
 22
0.0540149533
 32
0.0
 13
0.0018556626
 23
0.1289049394
 33
0.0
 40
0.0
 40
0.0
 40
0.0
 40
0.0
 40
0.2158499043
 40
0.4486494297
 40
0.7095450212
 40
1.0
 40
1.0
 40
1.0
 40
1.0
 10
6.6488768878
 20
-23.1826136408
 30
0.0
 10
6.6572991261
 20
-23.1787272667
 30
0.0
 10
6.6733525091
 20
-23.167155737
 30
0.0
 10
6.6907743221
 20
-23.1415447825
 30
0.0
 10
6.7013766155
 20
-23.1092059607
 30
0.0
 10
6.703775368
 20
-23.0854612621
 30
0.0
 10
6.7039550302
 20
-23.0729809017
 30
0.0
 11
6.6488768878
 21
-23.1826136408
 31
0.0
 11
6.6715800159
 21
-23.1665229604
 31
0.0
 11
6.6888733395
 21
-23.1419940349
 31
0.0
 11
6.6998448687
 21
-23.110199602
 31
0.0
 11
6.7039550302
 21
-23.0729809017
 31
0.0
  0
SPLINE
  5
3EB
100
AcDbEntity
  8
RACCORDO
100
AcDbSpline
 62
253
  6
CONTINUOUS
 70
0
 71
3
 72
9
 73
5
 74
3
 42
0.0000001
 43
0.0000001
 44
0.0000000001
 12
-0.4203720445
 22
-0.2193775873
 32
0.0
 13
-0.4733192568
 23
-0.0284264454
 33
0.0
 40
0.0
 40
0.0
 40
0.0
 40
0.0
 40
0.4860440582
 40
1.0
 40
1.0
 40
1.0
 40
1.0
 10
-2.6822797405
 20
-4.0510676803
 30
0.0
 10
-2.7503861853
 20
-4.0866100713
 30
0.0
 10
-2.8995132913
 20
-4.1434409101
 30
0.0
 10
-3.0569950684
 20
-4.1668620375
 30
0.0
 10
-3.1380834832
 20
-4.1717320176
 30
0.0
 11
-2.6822797405
 21
-4.0510676803
 31
0.0
 11
-2.8973245706
 21
-4.1339619833
 31
0.0
 11
-3.1380834832
 21
-4.1717320176
 31
0.0
  0
SPLINE
  5
3EC
100
AcDbEntity
  8
ASSI
100
AcDbSpline
 62
253
  6
CONTINUOUS
 70
0
 71
3
 72
11
 73
7
 74
5
 42
0.0000001
 43
0.0000001
 44
0.0000000001
 12
-0.1405017971
 22
0.0708328134
 32
0.0
 13
0.000000552
 23
0.1573468857
 33
0.0
 40
0.0
 40
0.0
 40
0.0
 40
0.0
 40
0.2175095698
 40
0.4509435265
 40
0.710649105
 40
1.0
 40
1.0
 40
1.0
 40
1.0
 10
6.4531838434
 20
-23.1807232688
 30
0.0
 10
6.4429970149
 20
-23.1755876639
 30
0.0
 10
6.4237325467
 20
-23.1608698475
 30
0.0
 10
6.4030816801
 20
-23.1291639109
 30
0.0
 10
6.3907113421
 20
-23.089612245
 30
0.0
 10
6.3882572839
 20
-23.0607050506
 30
0.0
 10
6.3882573372
 20
-23.0455288965
 30
0.0
 11
6.4531838434
 21
-23.1807232688
 31
0.0
 11
6.4258460966
 21
-23.1601329601
 31
0.0
 11
6.4053092481
 21
-23.1296807263
 31
0.0
 11
6.3925729459
 21
-23.0908523605
 31
0.0
 11
6.3882573372
 21
-23.0455288965
 31
0.0
  0
SPLINE
  5
3ED
100
AcDbEntity
  8
ASSI
100
AcDbSpline
 62
7
  6
CONTINUOUS
 70
0
 71
3
 72
9
 73
5
 74
3
 42
0.0000001
 43
0.0000001
 44
0.0000000001
 12
0.0541105048
 22
0.0291612789
 32
0.0
 13
0.0231339744
 23
0.0569486273
 33
0.0
 40
0.0
 40
0.0
 40
0.0
 40
0.0
 40
0.4784340984
 40
1.0
 40
1.0
 40
1.0
 40
1.0
 10
8.2759577807
 20
-22.4310165195
 30
0.0
 10
8.2845872176
 20
-22.4263659361
 30
0.0
 10
8.3007412132
 20
-22.4128631024
 30
0.0
 10
8.3110714364
 20
-22.3947277936
 30
0.0
 10
8.3150934005
 20
-22.3848269729
 30
0.0
 11
8.2759577807
 21
-22.4310165195
 31
0.0
 11
8.2987114055
 21
-22.4123851342
 31
0.0
 11
8.3150934005
 21
-22.3848269729
 31
0.0
  0
SPLINE
  5
3EE
100
AcDbEntity
  8
ASSI
100
AcDbSpline
 62
7
  6
CONTINUOUS
 70
0
 71
3
 72
9
 73
5
 74
3
 42
0.0000001
 43
0.0000001
 44
0.0000000001
 12
0.0233562658
 22
0.0574958395
 32
0.0
 13
0.0
 23
0.062058736
 33
0.0
 40
0.0
 40
0.0
 40
0.0
 40
0.0
 40
0.2332872417
 40
1.0
 40
1.0
 40
1.0
 40
1.0
 10
8.3150934005
 20
-22.3848269729
 30
0.0
 10
8.3169096401
 20
-22.3803559577
 30
0.0
 10
8.323525961
 20
-22.3607177705
 30
0.0
 10
8.3258551568
 20
-22.3397940835
 30
0.0
 10
8.3258551568
 20
-22.3239336752
 30
0.0
 11
8.3150934005
 21
-22.3848269729
 31
0.0
 11
8.3197633287
 21
-22.3711233199
 31
0.0
 11
8.3258551568
 21
-22.3239336752
 31
0.0
  0
SPLINE
  5
3EF
100
AcDbEntity
  8
ASSI
100
AcDbSpline
 62
253
  6
CONTINUOUS
 70
0
 71
3
 72
11
 73
7
 74
5
 42
0.0000001
 43
0.0000001
 44
0.0000000001
 12
0.329880605
 22
-0.1621482398
 32
0.0
 13
-0.0051550514
 23
-0.3675414135
 33
0.0
 40
0.0
 40
0.0
 40
0.0
 40
0.0
 40
0.2298231387
 40
0.4878750929
 40
0.7525806787
 40
1.0
 40
1.0
 40
1.0
 40
1.0
 10
5.5248544754
 20
26.4519588126
 30
0.0
 10
5.5501258741
 20
26.4395370068
 30
0.0
 10
5.5983897547
 20
26.4021210027
 30
0.0
 10
5.6537469712
 20
26.327322179
 30
0.0
 10
5.6908672065
 20
26.2396535925
 30
0.0
 10
5.700507062
 20
26.1766414716
 30
0.0
 10
5.7000819089
 20
26.1463291893
 30
0.0
 11
5.5248544754
 21
26.4519588126
 31
0.0
 11
5.5928505249
 21
26.4018285732
 31
0.0
 11
5.650027166
 21
26.3261441387
 31
0.0
 11
5.6876814262
 21
26.2364256097
 31
0.0
 11
5.7000819089
 21
26.1463291893
 31
0.0
  0
SPLINE
  5
3F0
100
AcDbEntity
  8
ASSI
100
AcDbSpline
 62
253
  6
CONTINUOUS
 70
0
 71
3
 72
9
 73
5
 74
3
 42
0.0000001
 43
0.0000001
 44
0.0000000001
 12
-0.1004409607
 22
0.0510855561
 32
0.0
 13
-0.1020102299
 23
-0.0478751879
 33
0.0
 40
0.0
 40
0.0
 40
0.0
 40
0.0
 40
0.5343970039
 40
1.0
 40
1.0
 40
1.0
 40
1.0
 10
10.3030091307
 20
24.062881485
 30
0.0
 10
10.2851173479
 20
24.0719814744
 30
0.0
 10
10.2485220318
 20
24.0844216078
 30
0.0
 10
10.2094192894
 20
24.0785463039
 30
0.0
 10
10.1935871998
 20
24.0711160269
 30
0.0
 11
10.3030091307
 21
24.062881485
 31
0.0
 11
10.2452884221
 21
24.0800468889
 31
0.0
 11
10.1935871998
 21
24.0711160269
 31
0.0
  0
SPLINE
  5
3F1
100
AcDbEntity
  8
RACCORDO
100
AcDbSpline
 62
253
  6
CONTINUOUS
 70
0
 71
3
 72
9
 73
5
 74
3
 42
0.0000001
 43
0.0000001
 44
0.0000000001
 12
-0.0633255235
 22
0.0316493585
 32
0.0
 13
-0.0704570439
 23
0.0068999118
 33
0.0
 40
0.0
 40
0.0
 40
0.0
 40
0.0
 40
0.2471514674
 40
1.0
 40
1.0
 40
1.0
 40
1.0
 10
13.3690666665
 20
-13.3163773129
 30
0.0
 10
13.3638496678
 20
-13.3137699178
 30
0.0
 10
13.3422544725
 20
-13.3042090037
 30
0.0
 10
13.3188677372
 20
-13.2988172275
 30
0.0
 10
13.3011865765
 20
-13.297085698
 30
0.0
 11
13.3690666665
 21
-13.3163773129
 31
0.0
 11
13.3530656653
 21
-13.3092985969
 31
0.0
 11
13.3011865765
 21
-13.297085698
 31
0.0
  0
SPLINE
  5
3F2
100
AcDbEntity
  8
RACCORDO
100
AcDbSpline
 62
253
  6
CONTINUOUS
 70
0
 71
3
 72
8
 73
4
 74
2
 42
0.0000001
 43
0.0000001
 44
0.0000000001
 12
-0.0299137476
 22
0.002929476
 32
0.0
 13
-0.0300353418
 23
-0.0011368256
 33
0.0
 40
0.0
 40
0.0
 40
0.0
 40
0.0
 40
1.0
 40
1.0
 40
1.0
 40
1.0
 10
13.3011865765
 20
-13.297085698
 30
0.0
 10
13.2912153273
 20
-13.296109206
 30
0.0
 10
13.2811537383
 20
-13.2958494309
 30
0.0
 10
13.2711419577
 20
-13.2962283728
 30
0.0
 11
13.3011865765
 21
-13.297085698
 31
0.0
 11
13.2711419577
 21
-13.2962283728
 31
0.0
  0
SPLINE
  5
3F3
100
AcDbEntity
  8
RACCORDO
100
AcDbSpline
 62
253
  6
CONTINUOUS
 70
0
 71
3
 72
9
 73
5
 74
3
 42
0.0000001
 43
0.0000001
 44
0.0000000001
 12
-0.0639292459
 22
-0.0024196962
 32
0.0
 13
-0.0615311752
 23
-0.0175133634
 33
0.0
 40
0.0
 40
0.0
 40
0.0
 40
0.0
 40
0.2423081825
 40
1.0
 40
1.0
 40
1.0
 40
1.0
 10
13.2711419577
 20
-13.2962283728
 30
0.0
 10
13.2659784312
 20
-13.2964238102
 30
0.0
 10
13.244697325
 20
-13.2979288832
 30
0.0
 10
13.2236371177
 20
-13.3021438199
 30
0.0
 10
13.2080965617
 20
-13.3065670639
 30
0.0
 11
13.2711419577
 21
-13.2962283728
 31
0.0
 11
13.2556782286
 21
-13.2973122981
 31
0.0
 11
13.2080965617
 21
-13.3065670639
 31
0.0
  0
SPLINE
  5
3F4
100
AcDbEntity
  8
ASSI
100
AcDbSpline
 62
253
  6
CONTINUOUS
 70
0
 71
3
 72
9
 73
5
 74
3
 42
0.0000001
 43
0.0000001
 44
0.0000000001
 12
-0.0353602901
 22
0.0075002769
 32
0.0
 13
0.0000004791
 23
0.0361469815
 33
0.0
 40
0.0
 40
0.0
 40
0.0
 40
0.0
 40
0.4489754688
 40
1.0
 40
1.0
 40
1.0
 40
1.0
 10
-5.8999041032
 20
24.8345556462
 30
0.0
 10
-5.9051960708
 20
24.8356781263
 30
0.0
 10
-5.9159369774
 20
24.8440115595
 30
0.0
 10
-5.9178904256
 20
24.8567318027
 30
0.0
 10
-5.9178903376
 20
24.8633710939
 30
0.0
 11
-5.8999041032
 21
24.8345556462
 31
0.0
 11
-5.9130695111
 21
24.8440454291
 31
0.0
 11
-5.9178903376
 21
24.8633710939
 31
0.0
  0
SPLINE
  5
3F5
100
AcDbEntity
  8
ASSI
100
AcDbSpline
 62
253
  6
CONTINUOUS
 70
0
 71
3
 72
9
 73
5
 74
3
 42
0.0000001
 43
0.0000001
 44
0.0000000001
 12
-0.0000013918
 22
0.0722030778
 32
0.0
 13
0.0644807939
 23
0.0324886391
 33
0.0
 40
0.0
 40
0.0
 40
0.0
 40
0.0
 40
0.5097236387
 40
1.0
 40
1.0
 40
1.0
 40
1.0
 10
-5.9178903376
 20
25.1806398942
 30
0.0
 10
-5.9178905741
 20
25.1929077661
 30
0.0
 10
-5.9101496682
 20
25.2168069451
 30
0.0
 10
-5.893083478
 20
25.2356910708
 30
0.0
 10
-5.882545675
 20
25.2410005414
 30
0.0
 11
-5.9178903376
 21
25.1806398942
 31
0.0
 11
-5.9075762502
 21
25.215968717
 31
0.0
 11
-5.882545675
 21
25.2410005414
 31
0.0
  0
SPLINE
  5
3F6
100
AcDbEntity
  8
ASSI
100
AcDbSpline
 62
253
  6
CONTINUOUS
 70
0
 71
3
 72
9
 73
5
 74
3
 42
0.0000001
 43
0.0000001
 44
0.0000000001
 12
0.0806759489
 22
0.0369150306
 32
0.0
 13
0.0787986616
 23
-0.0407688501
 33
0.0
 40
0.0
 40
0.0
 40
0.0
 40
0.0
 40
0.4651560211
 40
1.0
 40
1.0
 40
1.0
 40
1.0
 10
-6.0667874007
 20
27.6206669214
 30
0.0
 10
-6.0542784329
 20
27.626390671
 30
0.0
 10
-6.023451821
 20
27.63070863
 30
0.0
 10
-5.9947310545
 20
27.6206815872
 30
0.0
 10
-5.9806827246
 20
27.6134132625
 30
0.0
 11
-6.0667874007
 21
27.6206669214
 31
0.0
 11
-6.0260557067
 21
27.6273038905
 31
0.0
 11
-5.9806827246
 21
27.6134132625
 31
0.0
  0
SPLINE
  5
3F7
100
AcDbEntity
  8
ASSI
100
AcDbSpline
 62
253
  6
CONTINUOUS
 70
0
 71
3
 72
11
 73
7
 74
5
 42
0.0000001
 43
0.0000001
 44
0.0000000001
 12
0.0000416906
 22
-0.0962250162
 32
0.0
 13
0.0860662791
 23
-0.0430331394
 33
0.0
 40
0.0
 40
0.0
 40
0.0
 40
0.0
 40
0.2064739749
 40
0.4345185654
 40
0.698103973
 40
1.0
 40
1.0
 40
1.0
 40
1.0
 10
-8.321323268
 20
26.2847961385
 30
0.0
 10
-8.3213203987
 20
26.2781734846
 30
0.0
 10
-8.3183764232
 20
26.2641351125
 30
0.0
 10
-8.3061608001
 20
26.2449485675
 30
0.0
 10
-8.2870748885
 20
26.2277790853
 30
0.0
 10
-8.2714057132
 20
26.2184443688
 30
0.0
 10
-8.2627446906
 20
26.2141138575
 30
0.0
 11
-8.321323268
 21
26.2847961385
 31
0.0
 11
-8.3174705116
 21
26.265305314
 31
0.0
 11
-8.3060894523
 21
26.2465438397
 31
0.0
 11
-8.2875469726
 21
26.2292382276
 31
0.0
 11
-8.2627446906
 21
26.2141138575
 31
0.0
  0
SPLINE
  5
3F8
100
AcDbEntity
  8
ASSI
100
AcDbSpline
 62
253
  6
CONTINUOUS
 70
0
 71
3
 72
9
 73
5
 74
3
 42
0.0000001
 43
0.0000001
 44
0.0000000001
 12
0.0838255924
 22
0.0449468966
 32
0.0
 13
0.0856656421
 23
-0.0413322058
 33
0.0
 40
0.0
 40
0.0
 40
0.0
 40
0.0
 40
0.4626917864
 40
1.0
 40
1.0
 40
1.0
 40
1.0
 10
-8.1820135878
 20
26.5218805033
 30
0.0
 10
-8.1690851168
 20
26.5288126899
 30
0.0
 10
-8.1361373917
 20
26.535022464
 30
0.0
 10
-8.1050024845
 20
26.5251388827
 30
0.0
 10
-8.0896595334
 20
26.5177361714
 30
0.0
 11
-8.1820135878
 21
26.5218805033
 31
0.0
 11
-8.1389839279
 21
26.5311137879
 31
0.0
 11
-8.0896595334
 21
26.5177361714
 31
0.0
  0
SPLINE
  5
3F9
100
AcDbEntity
  8
ASSI
100
AcDbSpline
 62
253
  6
CONTINUOUS
 70
0
 71
3
 72
11
 73
7
 74
5
 42
0.0000001
 43
0.0000001
 44
0.0000000001
 12
0.0001190189
 22
-0.0961856147
 32
0.0
 13
0.086031095
 23
-0.0430155475
 33
0.0
 40
0.0
 40
0.0
 40
0.0
 40
0.0
 40
0.2064745034
 40
0.4345350635
 40
0.6981241475
 40
1.0
 40
1.0
 40
1.0
 40
1.0
 10
-8.3213232347
 20
25.9674874265
 30
0.0
 10
-8.3213150432
 20
25.9608674675
 30
0.0
 10
-8.3183625391
 20
25.9468369301
 30
0.0
 10
-8.3061446507
 20
25.9276628478
 30
0.0
 10
-8.2870641161
 20
25.9105035742
 30
0.0
 10
-8.271401594
 20
25.9011735088
 30
0.0
 10
-8.2627446906
 20
25.8968450571
 30
0.0
 11
-8.3213232347
 21
25.9674874265
 31
0.0
 11
-8.3174588164
 21
25.9480071393
 31
0.0
 11
-8.3060741207
 21
25.9292565685
 31
0.0
 11
-8.2875358578
 21
25.9119611169
 31
0.0
 11
-8.2627446906
 21
25.8968450571
 31
0.0
  0
SPLINE
  5
3FA
100
AcDbEntity
  8
ASSI
100
AcDbSpline
 62
253
  6
CONTINUOUS
 70
0
 71
3
 72
18
 73
14
 74
12
 42
0.0000001
 43
0.0000001
 44
0.0000000001
 12
0.2884012388
 22
0.1428740244
 32
0.0
 13
-0.2921659193
 23
-0.1350086552
 33
0.0
 40
0.0
 40
0.0
 40
0.0
 40
0.0
 40
0.0593413286
 40
0.1107776894
 40
0.1552071775
 40
0.1956008089
 40
0.2804952052
 40
0.3331353194
 40
0.3938218159
 40
0.5364451684
 40
0.6967673704
 40
0.8571446997
 40
1.0
 40
1.0
 40
1.0
 40
1.0
 10
2.0965539463
 20
26.5094894376
 30
0.0
 10
2.1022586505
 20
26.512315549
 30
0.0
 10
2.1125528119
 20
26.518391928
 30
0.0
 10
2.1250283219
 20
26.5296451946
 30
0.0
 10
2.1329251449
 20
26.5422345549
 30
0.0
 10
2.1365116487
 20
26.5606359554
 30
0.0
 10
2.127260295
 20
26.5794103345
 30
0.0
 10
2.1112420721
 20
26.5933874638
 30
0.0
 10
2.0874767396
 20
26.6074843004
 30
0.0
 10
2.0498390499
 20
26.6192949166
 30
0.0
 10
2.0001525766
 20
26.6245813006
 30
0.0
 10
1.9503164954
 20
26.6208019792
 30
0.0
 10
1.9186288814
 20
26.6118371124
 30
0.0
 10
1.904716398
 20
26.6054082117
 30
0.0
 11
2.0965539463
 21
26.5094894376
 31
0.0
 11
2.1128885615
 21
26.5193866773
 31
0.0
 11
2.1249726371
 21
26.530702087
 31
0.0
 11
2.1323021266
 21
26.5429805103
 31
0.0
 11
2.1346189044
 21
26.5557731589
 31
0.0
 11
2.1240732773
 21
26.5809794361
 31
0.0
 11
2.1115978679
 21
26.5924426524
 31
0.0
 11
2.0948917172
 21
26.6025621705
 31
0.0
 11
2.0514202099
 21
26.6173053198
 31
0.0
 11
2.0001369223
 21
26.6230127792
 31
0.0
 11
1.9486879705
 21
26.6188429587
 31
0.0
 11
1.904716398
 21
26.6054082117
 31
0.0
  0
SPLINE
  5
3FB
100
AcDbEntity
  8
ASSI
100
AcDbSpline
 62
253
  6
CONTINUOUS
 70
0
 71
3
 72
18
 73
14
 74
12
 42
0.0000001
 43
0.0000001
 44
0.0000000001
 12
0.2884012388
 22
0.1428740244
 32
0.0
 13
-0.2921659193
 23
-0.1350086552
 33
0.0
 40
0.0
 40
0.0
 40
0.0
 40
0.0
 40
0.0593413286
 40
0.1107776894
 40
0.1552071775
 40
0.1956008089
 40
0.2804952052
 40
0.3331353194
 40
0.3938218159
 40
0.5364451684
 40
0.6967673704
 40
0.8571446997
 40
1.0
 40
1.0
 40
1.0
 40
1.0
 10
7.7057102619
 20
23.7049112797
 30
0.0
 10
7.7114149662
 20
23.7077373912
 30
0.0
 10
7.7217091275
 20
23.7138137702
 30
0.0
 10
7.7341846375
 20
23.7250670368
 30
0.0
 10
7.7420814605
 20
23.737656397
 30
0.0
 10
7.7456679643
 20
23.7560577976
 30
0.0
 10
7.7364166106
 20
23.7748321767
 30
0.0
 10
7.7203983878
 20
23.7888093059
 30
0.0
 10
7.6966330553
 20
23.8029061425
 30
0.0
 10
7.6589953655
 20
23.8147167587
 30
0.0
 10
7.6093088923
 20
23.8200031428
 30
0.0
 10
7.5594728111
 20
23.8162238214
 30
0.0
 10
7.527785197
 20
23.8072589545
 30
0.0
 10
7.5138727136
 20
23.8008300539
 30
0.0
 11
7.7057102619
 21
23.7049112797
 31
0.0
 11
7.7220448771
 21
23.7148085194
 31
0.0
 11
7.7341289527
 21
23.7261239292
 31
0.0
 11
7.7414584423
 21
23.7384023525
 31
0.0
 11
7.7437752201
 21
23.7511950011
 31
0.0
 11
7.733229593
 21
23.7764012783
 31
0.0
 11
7.7207541836
 21
23.7878644946
 31
0.0
 11
7.7040480329
 21
23.7979840127
 31
0.0
 11
7.6605765255
 21
23.8127271619
 31
0.0
 11
7.609293238
 21
23.8184346214
 31
0.0
 11
7.5578442862
 21
23.8142648009
 31
0.0
 11
7.5138727136
 21
23.8008300539
 31
0.0
  0
SPLINE
  5
3FC
100
AcDbEntity
  8
ASSI
100
AcDbSpline
 62
253
  6
CONTINUOUS
 70
0
 71
3
 72
11
 73
7
 74
5
 42
0.0000001
 43
0.0000001
 44
0.0000000001
 12
-0.0000129856
 22
-0.0935240939
 32
0.0
 13
-0.0830519927
 23
-0.0430014281
 33
0.0
 40
0.0
 40
0.0
 40
0.0
 40
0.0
 40
0.2076695446
 40
0.4361879292
 40
0.699291716
 40
1.0
 40
1.0
 40
1.0
 40
1.0
 10
-3.6462771601
 20
26.0220636387
 30
0.0
 10
-3.646278059
 20
26.0155896033
 30
0.0
 10
-3.6490694827
 20
26.0018929181
 30
0.0
 10
-3.6607392655
 20
25.9830820192
 30
0.0
 10
-3.6790295034
 20
25.9661679038
 30
0.0
 10
-3.6940843304
 20
25.9569080968
 30
0.0
 10
-3.7024091378
 20
25.9525978016
 30
0.0
 11
-3.6462771601
 21
26.0220636387
 31
0.0
 11
-3.6499532916
 21
26.0029926066
 31
0.0
 11
-3.6608415049
 21
25.9846021708
 31
0.0
 11
-3.6786056167
 21
25.9675751829
 31
0.0
 11
-3.7024091378
 21
25.9525978016
 31
0.0
  0
SPLINE
  5
3FD
100
AcDbEntity
  8
ASSI
100
AcDbSpline
 62
253
  6
CONTINUOUS
 70
0
 71
3
 72
11
 73
7
 74
5
 42
0.0000001
 43
0.0000001
 44
0.0000000001
 12
-0.0000129856
 22
-0.0935240939
 32
0.0
 13
-0.0830519927
 23
-0.043001428
 33
0.0
 40
0.0
 40
0.0
 40
0.0
 40
0.0
 40
0.2076695446
 40
0.4361879292
 40
0.699291716
 40
1.0
 40
1.0
 40
1.0
 40
1.0
 10
-3.6462771601
 20
26.3620072335
 30
0.0
 10
-3.646278059
 20
26.3555331982
 30
0.0
 10
-3.6490694826
 20
26.3418365129
 30
0.0
 10
-3.6607392655
 20
26.323025614
 30
0.0
 10
-3.6790295034
 20
26.3061114986
 30
0.0
 10
-3.6940843304
 20
26.2968516917
 30
0.0
 10
-3.7024091378
 20
26.2925413965
 30
0.0
 11
-3.6462771601
 21
26.3620072335
 31
0.0
 11
-3.6499532916
 21
26.3429362014
 31
0.0
 11
-3.6608415049
 21
26.3245457656
 31
0.0
 11
-3.6786056167
 21
26.3075187777
 31
0.0
 11
-3.7024091378
 21
26.2925413965
 31
0.0
  0
SPLINE
  5
3FE
100
AcDbEntity
  8
ASSI
100
AcDbSpline
 62
253
  6
CONTINUOUS
 70
0
 71
3
 72
10
 73
6
 74
4
 42
0.0000001
 43
0.0000001
 44
0.0000000001
 12
-0.0478202807
 22
0.0239112512
 32
0.0
 13
-0.0000014259
 23
-0.0534651959
 33
0.0
 40
0.0
 40
0.0
 40
0.0
 40
0.0
 40
0.2611523551
 40
0.4862749319
 40
1.0
 40
1.0
 40
1.0
 40
1.0
 10
1.223150942
 20
22.5251520007
 30
0.0
 10
1.218988149
 20
22.5272334939
 30
0.0
 10
1.2103508926
 20
22.529984503
 30
0.0
 10
1.1919841521
 20
22.5244650662
 30
0.0
 10
1.1878012319
 20
22.5086877731
 30
0.0
 10
1.1878009877
 20
22.4995323026
 30
0.0
 11
1.223150942
 21
22.5251520007
 31
0.0
 11
1.209626125
 21
22.5286207843
 31
0.0
 11
1.1981563427
 21
22.5249718462
 31
0.0
 11
1.1878009877
 21
22.4995323026
 31
0.0
  0
SPLINE
  5
3FF
100
AcDbEntity
  8
ASSI
100
AcDbSpline
 62
253
  6
CONTINUOUS
 70
0
 71
3
 72
9
 73
5
 74
3
 42
0.0000001
 43
0.0000001
 44
0.0000000001
 12
0.0000004879
 22
0.0727379768
 32
0.0
 13
-0.0650592676
 23
0.0325285253
 33
0.0
 40
0.0
 40
0.0
 40
0.0
 40
0.0
 40
0.5121953554
 40
1.0
 40
1.0
 40
1.0
 40
1.0
 10
3.4784493848
 20
21.3542081041
 30
0.0
 10
3.4784494681
 20
21.3666267887
 30
0.0
 10
3.4707380268
 20
21.390682737
 30
0.0
 10
3.4536781682
 20
21.4098885678
 30
0.0
 10
3.4430994305
 20
21.4151777564
 30
0.0
 11
3.4784493848
 21
21.3542081041
 31
0.0
 11
3.4680974373
 21
21.3899970791
 31
0.0
 11
3.4430994305
 21
21.4151777564
 31
0.0
  0
SPLINE
  5
400
100
AcDbEntity
  8
ASSI
100
AcDbSpline
 62
253
  6
CONTINUOUS
 70
0
 71
3
 72
10
 73
6
 74
4
 42
0.0000001
 43
0.0000001
 44
0.0000000001
 12
-0.0478202807
 22
0.0239112512
 32
0.0
 13
-0.0000014259
 23
-0.0534651959
 33
0.0
 40
0.0
 40
0.0
 40
0.0
 40
0.0
 40
0.2611523551
 40
0.4862749319
 40
1.0
 40
1.0
 40
1.0
 40
1.0
 10
-2.4891596593
 20
24.3813073013
 30
0.0
 10
-2.4933224522
 20
24.3833887945
 30
0.0
 10
-2.5019597086
 20
24.3861398037
 30
0.0
 10
-2.5203264491
 20
24.3806203669
 30
0.0
 10
-2.5245093694
 20
24.3648430737
 30
0.0
 10
-2.5245096135
 20
24.3556876033
 30
0.0
 11
-2.4891596593
 21
24.3813073013
 31
0.0
 11
-2.5026844762
 21
24.384776085
 31
0.0
 11
-2.5141542585
 21
24.3811271469
 31
0.0
 11
-2.5245096135
 21
24.3556876033
 31
0.0
  0
SPLINE
  5
401
100
AcDbEntity
  8
ASSI
100
AcDbSpline
 62
253
  6
CONTINUOUS
 70
0
 71
3
 72
9
 73
5
 74
3
 42
0.0000001
 43
0.0000001
 44
0.0000000001
 12
0.0000004879
 22
0.0727379768
 32
0.0
 13
-0.0650592676
 23
0.0325285253
 33
0.0
 40
0.0
 40
0.0
 40
0.0
 40
0.0
 40
0.5121953554
 40
1.0
 40
1.0
 40
1.0
 40
1.0
 10
-0.2338612164
 20
23.2103634047
 30
0.0
 10
-0.2338611331
 20
23.2227820893
 30
0.0
 10
-0.2415725744
 20
23.2468380377
 30
0.0
 10
-0.258632433
 20
23.2660438685
 30
0.0
 10
-0.2692111707
 20
23.271333057
 30
0.0
 11
-0.2338612164
 21
23.2103634047
 31
0.0
 11
-0.2442131639
 21
23.2461523797
 31
0.0
 11
-0.2692111707
 21
23.271333057
 31
0.0
  0
SPLINE
  5
402
100
AcDbEntity
  8
ASSI
100
AcDbSpline
 62
7
  6
CONTINUOUS
 70
0
 71
3
 72
10
 73
6
 74
4
 42
0.0000001
 43
0.0000001
 44
0.0000000001
 12
0.170111722
 22
0.345119547
 32
0.0
 13
-0.1206318574
 23
0.3653675611
 33
0.0
 40
0.0
 40
0.0
 40
0.0
 40
0.0
 40
0.4539933938
 40
0.7184177455
 40
1.0
 40
1.0
 40
1.0
 40
1.0
 10
3.9771484525
 20
20.7979068758
 30
0.0
 10
4.0028916518
 20
20.8501342072
 30
0.0
 10
4.0180905002
 20
20.9452601178
 30
0.0
 10
4.0058175579
 20
21.0728279658
 30
0.0
 10
3.9884710493
 20
21.1411049237
 30
0.0
 10
3.9771484525
 20
21.1753985975
 30
0.0
 11
3.9771484525
 21
20.7979068758
 31
0.0
 11
4.0125104474
 21
20.9689717392
 31
0.0
 11
4.00353142
 21
21.0703164658
 31
0.0
 11
3.9771484525
 21
21.1753985975
 31
0.0
  0
SPLINE
  5
403
100
AcDbEntity
  8
ASSI
100
AcDbSpline
 62
253
  6
CONTINUOUS
 70
0
 71
3
 72
10
 73
6
 74
4
 42
0.0000001
 43
0.0000001
 44
0.0000000001
 12
0.0468239032
 22
0.0232263555
 32
0.0
 13
-0.0000002012
 23
-0.0522679778
 33
0.0
 40
0.0
 40
0.0
 40
0.0
 40
0.0
 40
0.2583967523
 40
0.4816423278
 40
1.0
 40
1.0
 40
1.0
 40
1.0
 10
-3.7365410818
 20
26.3181637403
 30
0.0
 10
-3.7325080336
 20
26.3201642786
 30
0.0
 10
-3.7241101623
 20
26.3228032511
 30
0.0
 10
-3.7062507145
 20
26.3170575959
 30
0.0
 10
-3.702409103
 20
26.3015725656
 30
0.0
 10
-3.7024091378
 20
26.2925413965
 30
0.0
 11
-3.7365410818
 21
26.3181637403
 31
0.0
 11
-3.7234385553
 21
26.3214397866
 31
0.0
 11
-3.7123733515
 21
26.31773609
 31
0.0
 11
-3.7024091378
 21
26.2925413965
 31
0.0
  0
SPLINE
  5
404
100
AcDbEntity
  8
ASSI
100
AcDbSpline
 62
253
  6
CONTINUOUS
 70
0
 71
3
 72
10
 73
6
 74
4
 42
0.0000001
 43
0.0000001
 44
0.0000000001
 12
0.0374985431
 22
0.0464822637
 32
0.0
 13
-0.031065602
 23
0.0510065677
 33
0.0
 40
0.0
 40
0.0
 40
0.0
 40
0.0
 40
0.3758715799
 40
0.6547334137
 40
1.0
 40
1.0
 40
1.0
 40
1.0
 10
-3.7080942111
 20
25.8498652177
 30
0.0
 10
-3.7033959989
 20
25.855689005
 30
0.0
 10
-3.7033640456
 20
25.8709029231
 30
0.0
 10
-3.7102821719
 20
25.8891446526
 30
0.0
 10
-3.7162029377
 20
25.9002343966
 30
0.0
 10
-3.7197782424
 20
25.9061046844
 30
0.0
 11
-3.7080942111
 21
25.8498652177
 31
0.0
 11
-3.7048626467
 21
25.8720792731
 31
0.0
 11
-3.7101427789
 21
25.8878743362
 31
0.0
 11
-3.7197782424
 21
25.9061046844
 31
0.0
  0
SPLINE
  5
405
100
AcDbEntity
  8
ASSI
100
AcDbSpline
 62
253
  6
CONTINUOUS
 70
0
 71
3
 72
11
 73
7
 74
5
 42
0.0000001
 43
0.0000001
 44
0.0000000001
 12
-0.1409343633
 22
0.0705506125
 32
0.0
 13
0.000001312
 23
0.1576067374
 33
0.0
 40
0.0
 40
0.0
 40
0.0
 40
0.0
 40
0.2174842744
 40
0.4508667617
 40
0.7105769087
 40
1.0
 40
1.0
 40
1.0
 40
1.0
 10
-6.1330819399
 20
24.7292818952
 30
0.0
 10
-6.1432989425
 20
24.7343964447
 30
0.0
 10
-6.1626301472
 20
24.7490907092
 30
0.0
 10
-6.1833626753
 20
24.780817559
 30
0.0
 10
-6.195779856
 20
24.820430037
 30
0.0
 10
-6.1982434945
 20
24.8493893861
 30
0.0
 10
-6.1982433679
 20
24.8645943958
 30
0.0
 11
-6.1330819399
 21
24.7292818952
 31
0.0
 11
-6.1605114106
 21
24.7498375748
 31
0.0
 11
-6.1811244172
 21
24.7803017747
 31
0.0
 11
-6.1939103416
 21
24.8191856327
 31
0.0
 11
-6.1982433679
 21
24.8645943958
 31
0.0
  0
SPLINE
  5
406
100
AcDbEntity
  8
ASSI
100
AcDbSpline
 62
253
  6
CONTINUOUS
 70
0
 71
3
 72
9
 73
5
 74
3
 42
0.0000001
 43
0.0000001
 44
0.0000000001
 12
0.0000005359
 22
-0.0501438427
 32
0.0
 13
-0.0315178344
 23
-0.0390003983
 33
0.0
 40
0.0
 40
0.0
 40
0.0
 40
0.0
 40
0.2368631391
 40
1.0
 40
1.0
 40
1.0
 40
1.0
 10
-3.7024091378
 20
25.9525978016
 30
0.0
 10
-3.7024090955
 20
25.9486387256
 30
0.0
 10
-3.7042311489
 20
25.9319609282
 30
0.0
 10
-3.7117607687
 20
25.9160255649
 30
0.0
 10
-3.7197782424
 20
25.9061046844
 30
0.0
 11
-3.7024091378
 21
25.9525978016
 31
0.0
 11
-3.7035924682
 21
25.9407796684
 31
0.0
 11
-3.7197782424
 21
25.9061046844
 31
0.0
  0
SPLINE
  5
407
100
AcDbEntity
  8
ASSI
100
AcDbSpline
 62
253
  6
CONTINUOUS
 70
0
 71
3
 72
11
 73
7
 74
5
 42
0.0000001
 43
0.0000001
 44
0.0000000001
 12
0.2312514505
 22
-0.0490368242
 32
0.0
 13
0.0857674302
 23
0.220285704
 33
0.0
 40
0.0
 40
0.0
 40
0.0
 40
0.0
 40
0.2233445289
 40
0.4614640225
 40
0.7216378373
 40
1.0
 40
1.0
 40
1.0
 40
1.0
 10
-6.080333049
 20
24.7108691632
 30
0.0
 10
-6.0631168003
 20
24.707218461
 30
0.0
 10
-6.0253878028
 20
24.7078813114
 30
0.0
 10
-5.9726810156
 20
24.7325697817
 30
0.0
 10
-5.9285077273
 20
24.7763261596
 30
0.0
 10
-5.907862239
 20
24.8141159112
 30
0.0
 10
-5.8999041032
 20
24.8345556462
 30
0.0
 11
-6.080333049
 21
24.7108691632
 31
0.0
 11
-6.0275385734
 21
24.7114029944
 31
0.0
 11
-5.9761308252
 21
24.7343331897
 31
0.0
 11
-5.9318725658
 21
24.7770399994
 31
0.0
 11
-5.8999041032
 21
24.8345556462
 31
0.0
  0
SPLINE
  5
408
100
AcDbEntity
  8
ASSI
100
AcDbSpline
 62
7
  6
CONTINUOUS
 70
0
 71
3
 72
9
 73
5
 74
3
 42
0.0000001
 43
0.0000001
 44
0.0000000001
 12
0.0309994455
 22
0.0143043227
 32
0.0
 13
0.0341398669
 23
0.0002208143
 33
0.0
 40
0.0
 40
0.0
 40
0.0
 40
0.0
 40
0.2452208379
 40
1.0
 40
1.0
 40
1.0
 40
1.0
 10
5.9757561995
 20
21.076199621
 30
0.0
 10
5.9782901028
 20
21.0773688604
 30
0.0
 10
5.9888831359
 20
21.0815664844
 30
0.0
 10
6.0003899265
 20
21.0833343866
 30
0.0
 10
6.0089792799
 20
21.083389942
 30
0.0
 11
5.9757561995
 21
21.076199621
 31
0.0
 11
5.983540315
 21
21.0792814431
 31
0.0
 11
6.0089792799
 21
21.083389942
 31
0.0
  0
SPLINE
  5
409
100
AcDbEntity
  8
ASSI
100
AcDbSpline
 62
7
  6
CONTINUOUS
 70
0
 71
3
 72
9
 73
5
 74
3
 42
0.0000001
 43
0.0000001
 44
0.0000000001
 12
0.0561628735
 22
0.0003632576
 32
0.0
 13
0.0502346519
 23
-0.0251173259
 33
0.0
 40
0.0
 40
0.0
 40
0.0
 40
0.0
 40
0.2336306509
 40
1.0
 40
1.0
 40
1.0
 40
1.0
 10
6.0089792799
 20
21.083389942
 30
0.0
 10
6.0133530694
 20
21.0834182314
 30
0.0
 10
6.0320833959
 20
21.082167593
 30
0.0
 10
6.050259152
 20
21.0759304118
 30
0.0
 10
6.0630919179
 20
21.0695140289
 30
0.0
 11
6.0089792799
 21
21.083389942
 31
0.0
 11
6.0220747559
 21
21.0825616746
 31
0.0
 11
6.0630919179
 21
21.0695140289
 31
0.0
  0
SPLINE
  5
40A
100
AcDbEntity
  8
ASSI
100
AcDbSpline
 62
7
  6
CONTINUOUS
 70
0
 71
3
 72
9
 73
5
 74
3
 42
0.0000001
 43
0.0000001
 44
0.0000000001
 12
0.0349373875
 22
0.016177147
 32
0.0
 13
0.0384614131
 23
0.0017438006
 33
0.0
 40
0.0
 40
0.0
 40
0.0
 40
0.0
 40
0.7434564307
 40
1.0
 40
1.0
 40
1.0
 40
1.0
 10
1.4637503463
 20
22.8899118808
 30
0.0
 10
1.4724084881
 20
22.8939208822
 30
0.0
 10
1.4849970137
 20
22.8975068227
 30
0.0
 10
1.4977828451
 20
22.8986532109
 30
0.0
 10
1.5010718545
 20
22.8988023312
 30
0.0
 11
1.4637503463
 21
22.8899118808
 31
0.0
 11
1.491235585
 21
22.8979044557
 31
0.0
 11
1.5010718545
 21
22.8988023312
 31
0.0
  0
SPLINE
  5
40B
100
AcDbEntity
  8
ASSI
100
AcDbSpline
 62
7
  6
CONTINUOUS
 70
0
 71
3
 72
9
 73
5
 74
3
 42
0.0000001
 43
0.0000001
 44
0.0000000001
 12
0.0743191444
 22
0.003369553
 32
0.0
 13
0.0665413503
 23
-0.0332706751
 33
0.0
 40
0.0
 40
0.0
 40
0.0
 40
0.0
 40
0.2323604911
 40
1.0
 40
1.0
 40
1.0
 40
1.0
 10
1.5010718545
 20
22.8988023312
 30
0.0
 10
1.5068281321
 20
22.8990633148
 30
0.0
 10
1.5316960452
 20
22.898237392
 30
0.0
 10
1.5559318827
 20
22.8900813446
 30
0.0
 10
1.5729584725
 20
22.8815680497
 30
0.0
 11
1.5010718545
 21
22.8988023312
 31
0.0
 11
1.5183506464
 21
22.8982837275
 31
0.0
 11
1.5729584725
 21
22.8815680497
 31
0.0
  0
SPLINE
  5
40C
100
AcDbEntity
  8
ASSI
100
AcDbSpline
 62
7
  6
CONTINUOUS
 70
0
 71
3
 72
9
 73
5
 74
3
 42
0.0000001
 43
0.0000001
 44
0.0000000001
 12
0.0349373875
 22
0.016177147
 32
0.0
 13
0.0384614131
 23
0.0017438006
 33
0.0
 40
0.0
 40
0.0
 40
0.0
 40
0.0
 40
0.7434564307
 40
1.0
 40
1.0
 40
1.0
 40
1.0
 10
-2.248560255
 20
24.7460671814
 30
0.0
 10
-2.2399021131
 20
24.7500761828
 30
0.0
 10
-2.2273135876
 20
24.7536621233
 30
0.0
 10
-2.2145277562
 20
24.7548085115
 30
0.0
 10
-2.2112387468
 20
24.7549576318
 30
0.0
 11
-2.248560255
 21
24.7460671814
 31
0.0
 11
-2.2210750162
 21
24.7540597563
 31
0.0
 11
-2.2112387468
 21
24.7549576318
 31
0.0
  0
SPLINE
  5
40D
100
AcDbEntity
  8
ASSI
100
AcDbSpline
 62
7
  6
CONTINUOUS
 70
0
 71
3
 72
9
 73
5
 74
3
 42
0.0000001
 43
0.0000001
 44
0.0000000001
 12
0.0743191444
 22
0.003369553
 32
0.0
 13
0.0665413503
 23
-0.0332706751
 33
0.0
 40
0.0
 40
0.0
 40
0.0
 40
0.0
 40
0.2323604911
 40
1.0
 40
1.0
 40
1.0
 40
1.0
 10
-2.2112387468
 20
24.7549576318
 30
0.0
 10
-2.2054824691
 20
24.7552186155
 30
0.0
 10
-2.1806145561
 20
24.7543926927
 30
0.0
 10
-2.1563787185
 20
24.7462366452
 30
0.0
 10
-2.1393521287
 20
24.7377233503
 30
0.0
 11
-2.2112387468
 21
24.7549576318
 31
0.0
 11
-2.1939599548
 21
24.7544390281
 31
0.0
 11
-2.1393521287
 21
24.7377233503
 31
0.0
  0
SPLINE
  5
40E
100
AcDbEntity
  8
ASSI
100
AcDbSpline
 62
253
  6
CONTINUOUS
 70
0
 71
3
 72
11
 73
7
 74
5
 42
0.0000001
 43
0.0000001
 44
0.0000000001
 12
0.0247849598
 22
-0.7266480306
 32
0.0
 13
0.6647499586
 23
-0.2945151052
 33
0.0
 40
0.0
 40
0.0
 40
0.0
 40
0.0
 40
0.2898984922
 40
0.549128838
 40
0.7820011107
 40
1.0
 40
1.0
 40
1.0
 40
1.0
 10
2.3324761388
 20
-22.2354364641
 30
0.0
 10
2.3348711797
 20
-22.3056545203
 30
0.0
 10
2.3507821035
 20
-22.4387996277
 30
0.0
 10
2.4147938635
 20
-22.619229808
 30
0.0
 10
2.5165595619
 20
-22.7613854955
 30
0.0
 10
2.6088930784
 20
-22.8248839718
 30
0.0
 10
2.657197996
 20
-22.8462852937
 30
0.0
 11
2.3324761388
 21
-22.2354364641
 31
0.0
 11
2.359763931
 21
-22.4444392896
 31
0.0
 11
2.4253436063
 21
-22.6211411575
 31
0.0
 11
2.5260854455
 21
-22.7572238887
 31
0.0
 11
2.657197996
 21
-22.8462852937
 31
0.0
  0
SPLINE
  5
40F
100
AcDbEntity
  8
ASSI
100
AcDbSpline
 62
253
  6
CONTINUOUS
 70
0
 71
3
 72
11
 73
7
 74
5
 42
0.0000001
 43
0.0000001
 44
0.0000000001
 12
0.0602916195
 22
1.669898392
 32
0.0
 13
1.4636706792
 23
0.8061413412
 33
0.0
 40
0.0
 40
0.0
 40
0.0
 40
0.0
 40
0.246820322
 40
0.5097239768
 40
0.767335803
 40
1.0
 40
1.0
 40
1.0
 40
1.0
 10
-12.4162136761
 20
21.2993963305
 30
0.0
 10
-12.4112532771
 20
21.4367846167
 30
0.0
 10
-12.357626537
 20
21.7194970185
 30
0.0
 10
-12.1822512916
 20
22.112887229
 30
0.0
 10
-11.9297311612
 20
22.452066986
 30
0.0
 10
-11.7138675305
 20
22.6268864223
 30
0.0
 10
-11.6003529428
 20
22.6894064983
 30
0.0
 11
-12.4162136761
 21
21.2993963305
 31
0.0
 11
-12.3445770848
 21
21.7055607302
 31
0.0
 11
-12.1668705129
 21
22.1073222071
 31
0.0
 11
-11.9071516744
 21
22.4506107027
 31
0.0
 11
-11.6003529428
 21
22.6894064983
 31
0.0
  0
SPLINE
  5
410
100
AcDbEntity
  8
ASSI
100
AcDbSpline
 62
253
  6
CONTINUOUS
 70
0
 71
3
 72
11
 73
7
 74
5
 42
0.0000001
 43
0.0000001
 44
0.0000000001
 12
-1.4432343864
 22
-0.8343278229
 32
0.0
 13
-0.0547811855
 23
-1.6661414801
 33
0.0
 40
0.0
 40
0.0
 40
0.0
 40
0.0
 40
0.23096881
 40
0.4883736669
 40
0.7520846433
 40
1.0
 40
1.0
 40
1.0
 40
1.0
 10
3.1256228571
 20
15.3264186159
 30
0.0
 10
3.0145088142
 20
15.2621840477
 30
0.0
 10
2.8038686869
 20
15.0838183818
 30
0.0
 10
2.558622168
 20
14.7415220611
 30
0.0
 10
2.3886330342
 20
14.3460134483
 30
0.0
 10
2.3370031894
 20
14.0627387862
 30
0.0
 10
2.332476157
 20
13.9250514331
 30
0.0
 11
3.1256228571
 21
15.3264186159
 31
0.0
 11
2.8267643518
 21
15.0836527073
 31
0.0
 11
2.5740345651
 21
14.7368696861
 31
0.0
 11
2.4014703518
 21
14.3325370305
 31
0.0
 11
2.332476157
 21
13.9250514331
 31
0.0
  0
SPLINE
  5
411
100
AcDbEntity
  8
ASSI
100
AcDbSpline
 62
253
  6
CONTINUOUS
 70
0
 71
3
 72
9
 73
5
 74
3
 42
0.0000001
 43
0.0000001
 44
0.0000000001
 12
-0.1003296083
 22
0.0501915989
 32
0.0
 13
-0.1013241881
 23
-0.0481522151
 33
0.0
 40
0.0
 40
0.0
 40
0.0
 40
0.0
 40
0.4652843023
 40
1.0
 40
1.0
 40
1.0
 40
1.0
 10
6.7149380369
 20
21.3255523015
 30
0.0
 10
6.6993774397
 20
21.3333367558
 30
0.0
 10
6.6606162618
 20
21.3401734848
 30
0.0
 10
6.6238778585
 20
21.3287454917
 30
0.0
 10
6.6058179806
 20
21.32016291
 30
0.0
 11
6.7149380369
 21
21.3255523015
 31
0.0
 11
6.6637454139
 21
21.335744681
 31
0.0
 11
6.6058179806
 21
21.32016291
 31
0.0
  0
SPLINE
  5
412
100
AcDbEntity
  8
ASSI
100
AcDbSpline
 62
253
  6
CONTINUOUS
 70
0
 71
3
 72
9
 73
5
 74
3
 42
0.0000001
 43
0.0000001
 44
0.0000000001
 12
-0.0996795919
 22
0.049839114
 32
0.0
 13
-0.1003890457
 23
-0.048394192
 33
0.0
 40
0.0
 40
0.0
 40
0.0
 40
0.0
 40
0.4648519224
 40
1.0
 40
1.0
 40
1.0
 40
1.0
 10
8.8169031592
 20
20.2745699385
 30
0.0
 10
8.8014577425
 20
20.2822925411
 30
0.0
 10
8.7629067725
 20
20.2889938835
 30
0.0
 10
8.7264674746
 20
20.2774246834
 30
0.0
 10
8.7085598063
 20
20.2687919971
 30
0.0
 11
8.8169031592
 21
20.2745699385
 31
0.0
 11
8.766073063
 21
20.2845747725
 31
0.0
 11
8.7085598063
 21
20.2687919971
 31
0.0
  0
SPLINE
  5
413
100
AcDbEntity
  8
ASSI
100
AcDbSpline
 62
7
  6
CONTINUOUS
 70
0
 71
3
 72
11
 73
7
 74
5
 42
0.0000001
 43
0.0000001
 44
0.0000000001
 12
0.6527085383
 22
-0.3343495956
 32
0.0
 13
0.0
 23
-0.7333608171
 33
0.0
 40
0.0
 40
0.0
 40
0.0
 40
0.0
 40
0.2291665379
 40
0.4879399238
 40
0.7531104567
 40
1.0
 40
1.0
 40
1.0
 40
1.0
 10
8.3258578185
 20
18.1194802857
 30
0.0
 10
8.3757174705
 20
18.0939397059
 30
0.0
 10
8.4711006038
 20
18.0184180122
 30
0.0
 10
8.5818818755
 20
17.8694879398
 30
0.0
 10
8.6582252348
 20
17.6955061782
 30
0.0
 10
8.6794085474
 20
17.5701086533
 30
0.0
 10
8.6794085474
 20
17.5097556142
 30
0.0
 11
8.3258578185
 21
18.1194802857
 31
0.0
 11
8.4601055236
 21
18.0183748523
 31
0.0
 11
8.5747986837
 21
17.8671804428
 31
0.0
 11
8.6521164496
 21
17.688745964
 31
0.0
 11
8.6794085474
 21
17.5097556142
 31
0.0
  0
SPLINE
  5
414
100
AcDbEntity
  8
ASSI
100
AcDbSpline
 62
253
  6
CONTINUOUS
 70
0
 71
3
 72
11
 73
7
 74
5
 42
0.0000001
 43
0.0000001
 44
0.0000000001
 12
-0.1405921882
 22
0.0703942378
 32
0.0
 13
-0.0000045769
 23
0.1572307606
 33
0.0
 40
0.0
 40
0.0
 40
0.0
 40
0.0
 40
0.2169986407
 40
0.4500358587
 40
0.7102954796
 40
1.0
 40
1.0
 40
1.0
 40
1.0
 10
-8.1979850121
 20
25.7617519421
 30
0.0
 10
-8.2081544501
 20
25.76684376
 30
0.0
 10
-8.2274104951
 20
25.7814747011
 30
0.0
 10
-8.2480092236
 20
25.813174422
 30
0.0
 10
-8.2602714487
 20
25.8527517588
 30
0.0
 10
-8.2627442396
 20
25.8816789163
 30
0.0
 10
-8.2627446816
 20
25.8968624037
 30
0.0
 11
-8.1979850121
 21
25.7617519421
 31
0.0
 11
-8.22528161
 21
25.782221247
 31
0.0
 11
-8.2457512211
 21
25.8126108832
 31
0.0
 11
-8.2584353046
 21
25.8515162477
 31
0.0
 11
-8.2627446816
 21
25.8968624037
 31
0.0
  0
SPLINE
  5
415
100
AcDbEntity
  8
ASSI
100
AcDbSpline
 62
7
  6
CONTINUOUS
 70
0
 71
3
 72
11
 73
7
 74
5
 42
0.0000001
 43
0.0000001
 44
0.0000000001
 12
0.0027510263
 22
0.0562046123
 32
0.0
 13
0.0442103812
 23
0.034813342
 33
0.0
 40
0.0
 40
0.0
 40
0.0
 40
0.0
 40
0.1190601151
 40
0.3300678012
 40
0.6269737554
 40
1.0
 40
1.0
 40
1.0
 40
1.0
 10
-7.4004760837
 20
25.3645813203
 30
0.0
 10
-7.4003669045
 20
25.3668118961
 30
0.0
 10
-7.3964324933
 20
25.3722240343
 30
0.0
 10
-7.3885995155
 20
25.3805969531
 30
0.0
 10
-7.376088163
 20
25.3916315553
 30
0.0
 10
-7.3663637118
 20
25.3995247378
 30
0.0
 10
-7.360866501
 20
25.4038535012
 30
0.0
 11
-7.4004760837
 21
25.3645813203
 31
0.0
 11
-7.3975038878
 21
25.3705856979
 31
0.0
 11
-7.3895228594
 21
25.3793771931
 31
0.0
 11
-7.3771280191
 21
25.3905801932
 31
0.0
 11
-7.360866501
 21
25.4038535012
 31
0.0
  0
SPLINE
  5
416
100
AcDbEntity
  8
ASSI
100
AcDbSpline
 62
7
  6
CONTINUOUS
 70
0
 71
3
 72
9
 73
5
 74
3
 42
0.0000001
 43
0.0000001
 44
0.0000000001
 12
0.0330198025
 22
0.0260013518
 32
0.0
 13
0.0340306727
 23
0.0246635555
 33
0.0
 40
0.0
 40
0.0
 40
0.0
 40
0.0
 40
0.2288015321
 40
1.0
 40
1.0
 40
1.0
 40
1.0
 10
-7.360866501
 20
25.4038535012
 30
0.0
 10
-7.3583481739
 20
25.4058365509
 30
0.0
 10
-7.34728398
 20
25.414430525
 30
0.0
 10
-7.3360243065
 20
25.4227706326
 30
0.0
 10
-7.3272761723
 20
25.429110798
 30
0.0
 11
-7.360866501
 21
25.4038535012
 31
0.0
 11
-7.3532749315
 21
25.4097558898
 31
0.0
 11
-7.3272761723
 21
25.429110798
 31
0.0
  0
SPLINE
  5
417
100
AcDbEntity
  8
ASSI
100
AcDbSpline
 62
253
  6
CONTINUOUS
 70
0
 71
3
 72
11
 73
7
 74
5
 42
0.0000001
 43
0.0000001
 44
0.0000000001
 12
-0.0144699929
 22
-0.3366195737
 32
0.0
 13
-0.3114700468
 23
-0.128485517
 33
0.0
 40
0.0
 40
0.0
 40
0.0
 40
0.0
 40
0.2901782888
 40
0.5506982161
 40
0.7836829758
 40
1.0
 40
1.0
 40
1.0
 40
1.0
 10
3.4883036827
 20
-22.5606154542
 30
0.0
 10
3.4869040568
 20
-22.5931753515
 30
0.0
 10
3.4788240631
 20
-22.6549720292
 30
0.0
 10
3.4482052803
 20
-22.7384454182
 30
0.0
 10
3.4002484412
 20
-22.8037324269
 30
0.0
 10
3.3570263934
 20
-22.8323173945
 30
0.0
 10
3.3345676355
 20
-22.8415819294
 30
0.0
 11
3.4883036827
 21
-22.5606154542
 31
0.0
 11
3.474658364
 21
-22.6574284598
 31
0.0
 11
3.4432111049
 21
-22.7393789806
 31
0.0
 11
3.3956626582
 21
-22.8018396985
 31
0.0
 11
3.3345676355
 21
-22.8415819294
 31
0.0
  0
SPLINE
  5
418
100
AcDbEntity
  8
ASSI
100
AcDbSpline
 62
253
  6
CONTINUOUS
 70
0
 71
3
 72
11
 73
7
 74
5
 42
0.0000001
 43
0.0000001
 44
0.0000000001
 12
-0.6117604196
 22
-0.3217466587
 32
0.0
 13
-0.6343967757
 23
0.2744311467
 33
0.0
 40
0.0
 40
0.0
 40
0.0
 40
0.0
 40
0.237445402
 40
0.4997939078
 40
0.7622524585
 40
1.0
 40
1.0
 40
1.0
 40
1.0
 10
3.0054075524
 20
-22.2101542023
 30
0.0
 10
2.9569876528
 20
-22.2356199573
 30
0.0
 10
2.8469301084
 20
-22.2738826266
 30
0.0
 10
2.6718495276
 20
-22.2968247488
 30
0.0
 10
2.4954716893
 20
-22.2870700536
 30
0.0
 10
2.3827599235
 20
-22.257179737
 30
0.0
 10
2.3324844989
 20
-22.2354312936
 30
0.0
 11
3.0054075524
 21
-22.2101542023
 31
0.0
 11
2.8513442139
 21
-22.2667352051
 31
0.0
 11
2.6716636321
 21
-22.2911965623
 31
0.0
 11
2.4905779306
 21
-22.2802864477
 31
0.0
 11
2.3324844989
 21
-22.2354312936
 31
0.0
  0
SPLINE
  5
419
100
AcDbEntity
  8
ASSI
100
AcDbSpline
 62
253
  6
CONTINUOUS
 70
0
 71
3
 72
11
 73
7
 74
5
 42
0.0000001
 43
0.0000001
 44
0.0000000001
 12
-0.633294201
 22
-0.2678909028
 32
0.0
 13
-0.6289738261
 23
0.2778830812
 33
0.0
 40
0.0
 40
0.0
 40
0.0
 40
0.0
 40
0.2326601324
 40
0.4946330439
 40
0.7594589108
 40
1.0
 40
1.0
 40
1.0
 40
1.0
 10
3.0054075619
 20
13.9131949558
 30
0.0
 10
2.9562934577
 20
13.8924191115
 30
0.0
 10
2.8453648339
 20
13.8636663384
 30
0.0
 10
2.6709166549
 20
13.8522102728
 30
0.0
 10
2.4951837902
 20
13.8701610885
 30
0.0
 10
2.3829075062
 20
13.9027707592
 30
0.0
 10
2.3324761565
 20
13.9250515256
 30
0.0
 11
3.0054075619
 21
13.9131949558
 31
0.0
 11
2.8513437397
 21
13.8700809541
 31
0.0
 11
2.6716612113
 21
13.8572661196
 31
0.0
 11
2.4905725111
 21
13.876437485
 31
0.0
 11
2.3324761565
 21
13.9250515256
 31
0.0
  0
SPLINE
  5
41A
100
AcDbEntity
  8
ASSI
100
AcDbSpline
 62
7
  6
CONTINUOUS
 70
0
 71
3
 72
11
 73
7
 74
5
 42
0.0000001
 43
0.0000001
 44
0.0000000001
 12
0.0027510263
 22
0.0562046123
 32
0.0
 13
0.0442103812
 23
0.034813342
 33
0.0
 40
0.0
 40
0.0
 40
0.0
 40
0.0
 40
0.1190601151
 40
0.3300678012
 40
0.6269737554
 40
1.0
 40
1.0
 40
1.0
 40
1.0
 10
5.1860246214
 20
19.0713309677
 30
0.0
 10
5.1861338006
 20
19.0735615436
 30
0.0
 10
5.1900682118
 20
19.0789736818
 30
0.0
 10
5.1979011896
 20
19.0873466006
 30
0.0
 10
5.2104125422
 20
19.0983812027
 30
0.0
 10
5.2201369933
 20
19.1062743852
 30
0.0
 10
5.2256342041
 20
19.1106031487
 30
0.0
 11
5.1860246214
 21
19.0713309677
 31
0.0
 11
5.1889968173
 21
19.0773353453
 31
0.0
 11
5.1969778457
 21
19.0861268405
 31
0.0
 11
5.209372686
 21
19.0973298407
 31
0.0
 11
5.2256342041
 21
19.1106031487
 31
0.0
  0
SPLINE
  5
41B
100
AcDbEntity
  8
ASSI
100
AcDbSpline
 62
7
  6
CONTINUOUS
 70
0
 71
3
 72
9
 73
5
 74
3
 42
0.0000001
 43
0.0000001
 44
0.0000000001
 12
0.0330198025
 22
0.0260013518
 32
0.0
 13
0.0340306727
 23
0.0246635555
 33
0.0
 40
0.0
 40
0.0
 40
0.0
 40
0.0
 40
0.2288015321
 40
1.0
 40
1.0
 40
1.0
 40
1.0
 10
5.2256342041
 20
19.1106031487
 30
0.0
 10
5.2281525313
 20
19.1125861984
 30
0.0
 10
5.2392167251
 20
19.1211801724
 30
0.0
 10
5.2504763986
 20
19.12952028
 30
0.0
 10
5.2592245328
 20
19.1358604454
 30
0.0
 11
5.2256342041
 21
19.1106031487
 31
0.0
 11
5.2332257736
 21
19.1165055373
 31
0.0
 11
5.2592245328
 21
19.1358604454
 31
0.0
  0
SPLINE
  5
41C
100
AcDbEntity
  8
ASSI
100
AcDbSpline
 62
253
  6
CONTINUOUS
 70
0
 71
3
 72
11
 73
7
 74
5
 42
0.0000001
 43
0.0000001
 44
0.0000000001
 12
-0.0326907254
 22
0.7294715688
 32
0.0
 13
-0.6455789781
 23
0.3412114246
 33
0.0
 40
0.0
 40
0.0
 40
0.0
 40
0.0
 40
0.2449319447
 40
0.5106975777
 40
0.7706500547
 40
1.0
 40
1.0
 40
1.0
 40
1.0
 10
3.4883036997
 20
14.7219075275
 30
0.0
 10
3.4856346988
 20
14.7814644908
 30
0.0
 10
3.4600182572
 20
14.9048839024
 30
0.0
 10
3.3808633801
 20
15.0764282963
 30
0.0
 10
3.2694649366
 20
15.2242674424
 30
0.0
 10
3.1749773596
 20
15.3003330094
 30
0.0
 10
3.1256228585
 20
15.3264186166
 30
0.0
 11
3.4883036997
 21
14.7219075275
 31
0.0
 11
3.4548899699
 21
14.8976087559
 31
0.0
 11
3.3742443026
 21
15.0741214859
 31
0.0
 11
3.2586562212
 21
15.2246883086
 31
0.0
 11
3.1256228585
 21
15.3264186166
 31
0.0
  0
SPLINE
  5
41D
100
AcDbEntity
  8
ASSI
100
AcDbSpline
 62
253
  6
CONTINUOUS
 70
0
 71
3
 72
9
 73
5
 74
3
 42
0.0000001
 43
0.0000001
 44
0.0000000001
 12
-15.1242429686
 22
6.585471729
 32
0.0
 13
-14.3071872328
 23
8.2106977019
 33
0.0
 40
0.0
 40
0.0
 40
0.0
 40
0.0
 40
0.5099039798
 40
1.0
 40
1.0
 40
1.0
 40
1.0
 10
2.3324761408
 20
13.9250514293
 30
0.0
 10
-0.2381610862
 20
15.0443708438
 30
0.0
 10
-5.2257737493
 20
17.3658141912
 30
0.0
 10
-10.0789151584
 20
19.9580529085
 30
0.0
 10
-12.4162136661
 20
21.2993963308
 30
0.0
 11
2.3324761408
 21
13.9250514293
 31
0.0
 11
-5.2896053752
 21
17.4822046036
 31
0.0
 11
-12.4162136661
 21
21.2993963308
 31
0.0
  0
LINE
  5
41E
100
AcDbEntity
  8
ASSI
100
AcDbLine
 62
253
  6
CONTINUOUS
 10
2.1261873173
 20
-15.0170243717
 11
2.139995152
 21
-15.6480597846
  0
SPLINE
  5
41F
100
AcDbEntity
  8
ASSI
100
AcDbSpline
 62
253
  6
CONTINUOUS
 70
0
 71
3
 72
9
 73
5
 74
3
 42
0.0000001
 43
0.0000001
 44
0.0000000001
 12
14.3287805632
 22
-8.1717632373
 32
0.0
 13
15.1063384393
 23
-6.6249683615
 33
0.0
 40
0.0
 40
0.0
 40
0.0
 40
0.0
 40
0.4897616058
 40
1.0
 40
1.0
 40
1.0
 40
1.0
 10
-12.4162136669
 20
-14.8610915573
 30
0.0
 10
-10.0769848076
 20
-16.1951635191
 30
0.0
 10
-5.2208632878
 20
-18.7807221536
 30
0.0
 10
-0.236801816
 20
-21.1086653862
 30
0.0
 10
2.3324761398
 20
-22.235436459
 30
0.0
 11
-12.4162136669
 21
-14.8610915573
 31
0.0
 11
-5.2896125609
 21
-18.6659849297
 31
0.0
 11
2.3324761398
 21
-22.235436459
 31
0.0
  0
LINE
  5
420
100
AcDbEntity
  8
RACCORDO
100
AcDbLine
 62
253
  6
CONTINUOUS
 10
-1.5531885837
 20
1.1630194374
 11
-1.5555239102
 21
0.7994085193
  0
LINE
  5
421
100
AcDbEntity
  8
RACCORDO
100
AcDbLine
 62
253
  6
CONTINUOUS
 10
-1.5555239102
 20
0.7994085193
 11
-1.555892469
 21
0.7387388372
  0
SPLINE
  5
422
100
AcDbEntity
  8
RACCORDO
100
AcDbSpline
 62
253
  6
CONTINUOUS
 70
0
 71
3
 72
11
 73
7
 74
5
 42
0.0000001
 43
0.0000001
 44
0.0000000001
 12
0.537296612
 22
0.9546934202
 32
0.0
 13
0.9016310287
 23
0.6222448585
 33
0.0
 40
0.0
 40
0.0
 40
0.0
 40
0.0
 40
0.2274263877
 40
0.4927755355
 40
0.7618944439
 40
1.0
 40
1.0
 40
1.0
 40
1.0
 10
-6.629313227
 20
-3.5947329051
 30
0.0
 10
-6.5885814178
 20
-3.5223587465
 30
0.0
 10
-6.4860650268
 20
-3.3736740246
 30
0.0
 10
-6.305955552
 20
-3.1612345561
 30
0.0
 10
-6.1049351687
 20
-2.9628250585
 30
0.0
 10
-5.9609120652
 20
-2.8454848987
 30
0.0
 10
-5.8893509461
 20
-2.796098246
 30
0.0
 11
-6.629313227
 21
-3.5947329051
 31
0.0
 11
-6.4909778959
 21
-3.387519903
 31
0.0
 11
-6.3037114763
 21
-3.1651858147
 31
0.0
 11
-6.0934747576
 21
-2.9584983282
 31
0.0
 11
-5.8893509461
 21
-2.796098246
 31
0.0
  0
SPLINE
  5
423
100
AcDbEntity
  8
RACCORDO
100
AcDbSpline
 62
253
  6
CONTINUOUS
 70
0
 71
3
 72
11
 73
7
 74
5
 42
0.0000001
 43
0.0000001
 44
0.0000000001
 12
-0.3188193512
 22
1.0866727026
 32
0.0
 13
1.0165540093
 23
0.4991205141
 33
0.0
 40
0.0
 40
0.0
 40
0.0
 40
0.0
 40
0.2628959928
 40
0.5222199519
 40
0.768947297
 40
1.0
 40
1.0
 40
1.0
 40
1.0
 10
-3.5010657882
 20
-5.1588566017
 30
0.0
 10
-3.5290045648
 20
-5.063629302
 30
0.0
 10
-3.5544686929
 20
-4.8643206301
 30
0.0
 10
-3.5006078305
 20
-4.5742857807
 30
0.0
 10
-3.3615702841
 20
-4.326898497
 30
0.0
 10
-3.2163760462
 20
-4.2101729392
 30
0.0
 10
-3.138083529
 20
-4.1717318913
 30
0.0
 11
-3.5010657882
 21
-5.1588566017
 31
0.0
 11
-3.5389192068
 21
-4.8635492308
 31
0.0
 11
-3.4839672183
 21
-4.5750579171
 31
0.0
 11
-3.3439273932
 21
-4.3332719647
 31
0.0
 11
-3.138083529
 21
-4.1717318913
 31
0.0
  0
SPLINE
  5
424
100
AcDbEntity
  8
RACCORDO
100
AcDbSpline
 62
253
  6
CONTINUOUS
 70
0
 71
3
 72
10
 73
6
 74
4
 42
0.0000001
 43
0.0000001
 44
0.0000000001
 12
-0.1679765927
 22
0.1504809885
 32
0.0
 13
-0.0000055676
 23
0.2255230888
 33
0.0
 40
0.0
 40
0.0
 40
0.0
 40
0.0
 40
0.5357218028
 40
0.7731626668
 40
1.0
 40
1.0
 40
1.0
 40
1.0
 10
-2.0183434669
 20
-2.3852217085
 30
0.0
 10
-2.048339708
 20
-2.3583497263
 30
0.0
 10
-2.0873259396
 20
-2.3128809743
 30
0.0
 10
-2.1151956013
 20
-2.2424372644
 30
0.0
 10
-2.1197829059
 20
-2.2073828977
 30
0.0
 10
-2.1197833269
 20
-2.1903305457
 30
0.0
 11
-2.0183434669
 21
-2.3852217085
 31
0.0
 11
-2.093994265
 21
-2.2910205521
 31
0.0
 11
-2.1133066618
 21
-2.2410759612
 31
0.0
 11
-2.1197833269
 21
-2.1903305457
 31
0.0
  0
SPLINE
  5
425
100
AcDbEntity
  8
RACCORDO
100
AcDbSpline
 62
253
  6
CONTINUOUS
 70
0
 71
3
 72
11
 73
7
 74
5
 42
0.0000001
 43
0.0000001
 44
0.0000000001
 12
-0.1019335068
 22
-0.2172239323
 32
0.0
 13
0.1422864035
 23
-0.1932129808
 33
0.0
 40
0.0
 40
0.0
 40
0.0
 40
0.0
 40
0.3113445468
 40
0.5762409785
 40
0.8003857164
 40
1.0
 40
1.0
 40
1.0
 40
1.0
 10
-3.5010658569
 20
2.6353720502
 30
0.0
 10
-3.5116446707
 20
2.6128282213
 30
0.0
 10
-3.5286600485
 20
2.5697739096
 30
0.0
 10
-3.5412921011
 20
2.5065339545
 30
0.0
 10
-3.5379482663
 20
2.450724479
 30
0.0
 10
-3.5236355241
 20
2.4188750983
 30
0.0
 10
-3.5141680579
 20
2.4060190747
 30
0.0
 11
-3.5010658569
 21
2.6353720502
 31
0.0
 11
-3.5277192607
 21
2.5655808202
 31
0.0
 11
-3.5389740096
 21
2.5030229039
 31
0.0
 11
-3.5344003938
 21
2.4494338752
 31
0.0
 11
-3.5141680579
 21
2.4060190747
 31
0.0
  0
SPLINE
  5
426
100
AcDbEntity
  8
RACCORDO
100
AcDbSpline
 62
253
  6
CONTINUOUS
 70
0
 71
3
 72
12
 73
8
 74
6
 42
0.0000001
 43
0.0000001
 44
0.0000000001
 12
0.3066602761
 22
-0.7849554622
 32
0.0
 13
0.8311175691
 23
0.1394244921
 33
0.0
 40
0.0
 40
0.0
 40
0.0
 40
0.0
 40
0.2875022916
 40
0.5499080107
 40
0.7840239386
 40
0.8933268892
 40
1.0
 40
1.0
 40
1.0
 40
1.0
 10
-6.6293131511
 20
4.1994957204
 30
0.0
 10
-6.5999246404
 20
4.1242702224
 30
0.0
 10
-6.527193696
 20
3.9859299707
 30
0.0
 10
-6.3757931614
 20
3.8220758465
 30
0.0
 10
-6.2219708599
 20
3.7392602637
 30
0.0
 10
-6.0965606111
 20
3.7171417445
 30
0.0
 10
-6.0353370948
 20
3.7202297181
 30
0.0
 10
-6.0057844627
 20
3.7251873329
 30
0.0
 11
-6.6293131511
 21
4.1994957204
 31
0.0
 11
-6.5147284324
 21
3.9860164864
 31
0.0
 11
-6.3618987536
 21
3.8261888967
 31
0.0
 11
-6.1863336936
 21
3.7361726715
 31
0.0
 11
-6.0955600554
 21
3.7205218139
 31
0.0
 11
-6.0057844627
 21
3.7251873329
 31
0.0
  0
SPLINE
  5
427
100
AcDbEntity
  8
RACCORDO
100
AcDbSpline
 62
253
  6
CONTINUOUS
 70
0
 71
3
 72
11
 73
7
 74
5
 42
0.0000001
 43
0.0000001
 44
0.0000000001
 12
0.9290498716
 22
-0.2592663672
 32
0.0
 13
0.8685960931
 23
0.4193966381
 33
0.0
 40
0.0
 40
0.0
 40
0.0
 40
0.0
 40
0.2518301299
 40
0.5153838771
 40
0.7708721398
 40
1.0
 40
1.0
 40
1.0
 40
1.0
 10
-8.8762720521
 20
1.0437425877
 30
0.0
 10
-8.7982844688
 20
1.0219788934
 30
0.0
 10
-8.6340720946
 20
0.9932654446
 30
0.0
 10
-8.3852998079
 20
0.9896919196
 30
0.0
 10
-8.1462319527
 20
1.0238076639
 30
0.0
 10
-7.996996282
 20
1.0732549612
 30
0.0
 10
-7.9306564272
 20
1.1052867793
 30
0.0
 11
-8.8762720521
 21
1.0437425877
 31
0.0
 11
-8.6373037346
 21
1.000203673
 31
0.0
 11
-8.3831223139
 21
0.9963771572
 31
0.0
 11
-8.1393700167
 21
1.0326110553
 31
0.0
 11
-7.9306564272
 21
1.1052867793
 31
0.0
  0
SPLINE
  5
428
100
AcDbEntity
  8
RACCORDO
100
AcDbSpline
 62
253
  6
CONTINUOUS
 70
0
 71
3
 72
11
 73
7
 74
5
 42
0.0000001
 43
0.0000001
 44
0.0000000001
 12
0.1268515204
 22
0.0645424518
 32
0.0
 13
0.0000103805
 23
0.1423272153
 33
0.0
 40
0.0
 40
0.0
 40
0.0
 40
0.0
 40
0.3012985533
 40
0.5646492984
 40
0.79292889
 40
1.0
 40
1.0
 40
1.0
 40
1.0
 10
13.5004233346
 20
-13.7978014027
 30
0.0
 10
13.5131633945
 20
-13.7913192202
 30
0.0
 10
13.5362074773
 20
-13.7773689885
 30
0.0
 10
13.5642404878
 20
-13.7518003799
 30
0.0
 10
13.5821521286
 20
-13.7232943832
 30
0.0
 10
13.5864474594
 20
-13.7024890202
 30
0.0
 10
13.5864481759
 20
-13.6926650687
 30
0.0
 11
13.5004233346
 21
-13.7978014027
 31
0.0
 11
13.5368787434
 21
-13.7752192525
 31
0.0
 11
13.5641094605
 21
-13.7494629573
 31
0.0
 11
13.580808239
 21
-13.7215922415
 31
0.0
 11
13.5864481759
 21
-13.6926650687
 31
0.0
  0
SPLINE
  5
429
100
AcDbEntity
  8
RACCORDO
100
AcDbSpline
 62
253
  6
CONTINUOUS
 70
0
 71
3
 72
10
 73
6
 74
4
 42
0.0000001
 43
0.0000001
 44
0.0000000001
 12
0.0584545739
 22
0.4348844221
 32
0.0
 13
-0.3934969959
 23
0.1941687719
 33
0.0
 40
0.0
 40
0.0
 40
0.0
 40
0.0
 40
0.2574715498
 40
0.5239357336
 40
1.0
 40
1.0
 40
1.0
 40
1.0
 10
13.3848403999
 20
-13.686093897
 30
0.0
 10
13.3898571965
 20
-13.6487704416
 30
0.0
 10
13.3874381235
 20
-13.5706402821
 30
0.0
 10
13.3449913365
 20
-13.4306526691
 30
0.0
 10
13.270539848
 20
-13.3373793352
 30
0.0
 10
13.2080965617
 20
-13.3065670639
 30
0.0
 11
13.3848403999
 21
-13.686093897
 31
0.0
 11
13.3826931991
 21
-13.5731369732
 31
0.0
 11
13.348359166
 21
-13.4613683636
 31
0.0
 11
13.2080965617
 21
-13.3065670639
 31
0.0
  0
SPLINE
  5
42A
100
AcDbEntity
  8
RACCORDO
100
AcDbSpline
 62
253
  6
CONTINUOUS
 70
0
 71
3
 72
9
 73
5
 74
3
 42
0.0000001
 43
0.0000001
 44
0.0000000001
 12
0.1592164566
 22
0.0444453183
 32
0.0
 13
0.1478551419
 23
-0.073919709
 33
0.0
 40
0.0
 40
0.0
 40
0.0
 40
0.0
 40
0.5224589898
 40
1.0
 40
1.0
 40
1.0
 40
1.0
 10
13.1843702981
 20
-13.2947039321
 30
0.0
 10
13.2120983211
 20
-13.2869636467
 30
0.0
 10
13.2678473835
 20
-13.2793453693
 30
0.0
 10
13.3229538488
 20
-13.2933221527
 30
0.0
 10
13.34648948
 20
-13.3050887169
 30
0.0
 11
13.1843702981
 21
-13.2947039321
 31
0.0
 11
13.2701761133
 21
-13.2848978328
 31
0.0
 11
13.34648948
 21
-13.3050887169
 31
0.0
  0
SPLINE
  5
42B
100
AcDbEntity
  8
RACCORDO
100
AcDbSpline
 62
253
  6
CONTINUOUS
 70
0
 71
3
 72
9
 73
5
 74
3
 42
0.0000001
 43
0.0000001
 44
0.0000000001
 12
0.2501754695
 22
-0.1376884449
 32
0.0
 13
0.2754254331
 23
-0.0754102393
 33
0.0
 40
0.0
 40
0.0
 40
0.0
 40
0.0
 40
0.2336526896
 40
1.0
 40
1.0
 40
1.0
 40
1.0
 10
-9.5759818125
 20
5.1744156095
 30
0.0
 10
-9.5564970887
 20
5.163691851
 30
0.0
 10
-9.4714401663
 20
5.1208297494
 30
0.0
 10
-9.3809799718
 20
5.089214567
 30
0.0
 10
-9.3106227919
 20
5.0699510889
 30
0.0
 11
-9.5759818125
 21
5.1744156095
 31
0.0
 11
-9.5164545473
 21
5.1442761699
 31
0.0
 11
-9.3106227919
 21
5.0699510889
 31
0.0
  0
SPLINE
  5
42C
100
AcDbEntity
  8
RACCORDO
100
AcDbSpline
 62
253
  6
CONTINUOUS
 70
0
 71
3
 72
9
 73
5
 74
3
 42
0.0000001
 43
0.0000001
 44
0.0000000001
 12
0.2600561533
 22
-0.1427373324
 32
0.0
 13
0.2870329643
 23
-0.0749348139
 33
0.0
 40
0.0
 40
0.0
 40
0.0
 40
0.0
 40
0.2332232274
 40
1.0
 40
1.0
 40
1.0
 40
1.0
 10
-9.5975668611
 20
1.2703638658
 30
0.0
 10
-9.577349816
 20
1.259267312
 30
0.0
 10
-9.4888490526
 20
1.2150049652
 30
0.0
 10
-9.3945195262
 20
1.1830105539
 30
0.0
 10
-9.3211561228
 20
1.1638577956
 30
0.0
 11
-9.5975668611
 21
1.2703638658
 31
0.0
 11
-9.5357519043
 21
1.239288588
 31
0.0
 11
-9.3211561228
 21
1.1638577956
 31
0.0
  0
SPLINE
  5
42D
100
AcDbEntity
  8
RACCORDO
100
AcDbSpline
 62
253
  6
CONTINUOUS
 70
0
 71
3
 72
9
 73
5
 74
3
 42
0.0000001
 43
0.0000001
 44
0.0000000001
 12
0.2499994092
 22
-0.1365652827
 32
0.0
 13
0.2754395125
 23
-0.0726832582
 33
0.0
 40
0.0
 40
0.0
 40
0.0
 40
0.0
 40
0.2337488205
 40
1.0
 40
1.0
 40
1.0
 40
1.0
 10
-9.5759813434
 20
-2.6217757471
 30
0.0
 10
-9.556502321
 20
-2.632416405
 30
0.0
 10
-9.4714777501
 20
-2.6748329063
 30
0.0
 10
-9.3809745964
 20
-2.7057128676
 30
0.0
 10
-9.310622646
 20
-2.7242774117
 30
0.0
 11
-9.5759813434
 21
-2.6217757471
 31
0.0
 11
-9.5164541931
 21
-2.6516156799
 31
0.0
 11
-9.310622646
 21
-2.7242774117
 31
0.0
  0
SPLINE
  5
42E
100
AcDbEntity
  8
RACCORDO
100
AcDbSpline
 62
253
  6
CONTINUOUS
 70
0
 71
3
 72
9
 73
5
 74
3
 42
0.0000001
 43
0.0000001
 44
0.0000000001
 12
-0.2245266137
 22
0.1027915828
 32
0.0
 13
-0.1800024154
 23
0.1690486328
 33
0.0
 40
0.0
 40
0.0
 40
0.0
 40
0.0
 40
0.2714240869
 40
1.0
 40
1.0
 40
1.0
 40
1.0
 10
-1.5531887886
 20
-6.6331722424
 30
0.0
 10
-1.5735027656
 20
-6.6238722052
 30
0.0
 10
-1.647168065
 20
-6.5872707596
 30
0.0
 10
-1.7164398848
 20
-6.5405662971
 30
0.0
 10
-1.7601550262
 20
-6.4995113764
 30
0.0
 11
-1.5531887886
 21
-6.6331722424
 31
0.0
 11
-1.6131681667
 21
-6.6032588776
 31
0.0
 11
-1.7601550262
 21
-6.4995113764
 31
0.0
  0
SPLINE
  5
42F
100
AcDbEntity
  8
RACCORDO
100
AcDbSpline
 62
253
  6
CONTINUOUS
 70
0
 71
3
 72
9
 73
5
 74
3
 42
0.0000001
 43
0.0000001
 44
0.0000000001
 12
-0.2316418431
 22
0.1055082863
 32
0.0
 13
-0.1838404502
 23
0.1760472402
 33
0.0
 40
0.0
 40
0.0
 40
0.0
 40
0.0
 40
0.2726954979
 40
1.0
 40
1.0
 40
1.0
 40
1.0
 10
-1.5651009091
 20
-2.74586911
 30
0.0
 10
-1.586156805
 20
-2.7362785651
 30
0.0
 10
-1.6621265175
 20
-2.6986484179
 30
0.0
 10
-1.7335437203
 20
-2.6503437268
 30
0.0
 10
-1.7781130493
 20
-2.6076637433
 30
0.0
 11
-1.5651009091
 21
-2.74586911
 31
0.0
 11
-1.6272514646
 21
-2.7149616323
 31
0.0
 11
-1.7781130493
 21
-2.6076637433
 31
0.0
  0
SPLINE
  5
430
100
AcDbEntity
  8
RACCORDO
100
AcDbSpline
 62
253
  6
CONTINUOUS
 70
0
 71
3
 72
9
 73
5
 74
3
 42
0.0000001
 43
0.0000001
 44
0.0000000001
 12
-0.223854336
 22
0.1016453663
 32
0.0
 13
-0.1808653993
 23
0.166524027
 33
0.0
 40
0.0
 40
0.0
 40
0.0
 40
0.0
 40
0.2720828316
 40
1.0
 40
1.0
 40
1.0
 40
1.0
 10
-1.5531885836
 20
1.1630194375
 30
0.0
 10
-1.5734908908
 20
1.1722380906
 30
0.0
 10
-1.6469742065
 20
1.2083881073
 30
0.0
 10
-1.7162698218
 20
1.2543120791
 30
0.0
 10
-1.7601548315
 20
1.2947173118
 30
0.0
 11
-1.5531885836
 21
1.1630194375
 31
0.0
 11
-1.6131679764
 21
1.1926332451
 31
0.0
 11
-1.7601548315
 21
1.2947173118
 31
0.0
  0
SPLINE
  5
431
100
AcDbEntity
  8
RACCORDO
100
AcDbSpline
 62
253
  6
CONTINUOUS
 70
0
 71
3
 72
30
 73
26
 74
24
 42
0.0000001
 43
0.0000001
 44
0.0000000001
 12
0.151688448
 22
14.5230855854
 32
0.0
 13
-0.0975403507
 23
-14.5235501922
 33
0.0
 40
0.0
 40
0.0
 40
0.0
 40
0.0
 40
0.0636633916
 40
0.0933025168
 40
0.1214409787
 40
0.1734650739
 40
0.1978565988
 40
0.2214951139
 40
0.2447337086
 40
0.2679665154
 40
0.2915746252
 40
0.3159061096
 40
0.3677374947
 40
0.3956831276
 40
0.4251122689
 40
0.4561689324
 40
0.4886772356
 40
0.5224948057
 40
0.5575041223
 40
0.6304311453
 40
0.7059739306
 40
0.7824209729
 40
0.8579921503
 40
0.9309806965
 40
1.0
 40
1.0
 40
1.0
 40
1.0
 10
-9.5759813437
 20
5.1744158174
 30
0.0
 10
-9.5727623433
 20
5.4826121122
 30
0.0
 10
-9.5342962951
 20
5.9355652701
 30
0.0
 10
-9.4027037851
 20
6.5094927209
 30
0.0
 10
-9.2308343624
 20
7.013167511
 30
0.0
 10
-8.9849979828
 20
7.4631661758
 30
0.0
 10
-8.6674880356
 20
7.8309755027
 30
0.0
 10
-8.4040754007
 20
8.056090824
 30
0.0
 10
-8.1125508472
 20
8.2328426596
 30
0.0
 10
-7.796550676
 20
8.3602457071
 30
0.0
 10
-7.4593639226
 20
8.4376620895
 30
0.0
 10
-6.9761443783
 20
8.4740946743
 30
0.0
 10
-6.4706237258
 20
8.4024217504
 30
0.0
 10
-5.9660720007
 20
8.2430129502
 30
0.0
 10
-5.572498887
 20
8.072071418
 30
0.0
 10
-5.1811955109
 20
7.8479991169
 30
0.0
 10
-4.7925136383
 20
7.5803703734
 30
0.0
 10
-4.4104783257
 20
7.2718421759
 30
0.0
 10
-3.9085137095
 20
6.8031341935
 30
0.0
 10
-3.3237540259
 20
6.1308615549
 30
0.0
 10
-2.713306822
 20
5.2260404054
 30
0.0
 10
-2.2118586147
 20
4.2420881149
 30
0.0
 10
-1.8358504407
 20
3.216621112
 30
0.0
 10
-1.6053343589
 20
2.1857252353
 30
0.0
 10
-1.550944528
 20
1.4971545434
 30
0.0
 10
-1.5531885837
 20
1.1630194374
 30
0.0
 11
-9.5759813437
 21
5.1744158174
 31
0.0
 11
-9.4911071361
 21
6.0951515187
 31
0.0
 11
-9.3937540025
 21
6.5144737338
 31
0.0
 11
-9.2604583347
 21
6.9008042441
 31
0.0
 11
-8.8909087199
 21
7.5598579179
 31
0.0
 11
-8.6586241377
 21
7.8273344291
 31
0.0
 11
-8.3970895419
 21
8.0497535643
 31
0.0
 11
-8.1084472131
 21
8.2246868335
 31
0.0
 11
-7.7956106009
 21
8.351148524
 31
0.0
 11
-7.4615623311
 21
8.4284747182
 31
0.0
 11
-7.1092377487
 21
8.4558629684
 31
0.0
 11
-6.3625730318
 21
8.3600055172
 31
0.0
 11
-5.9752342423
 21
8.2387356212
 31
0.0
 11
-5.5832185047
 21
8.0683947682
 31
0.0
 11
-5.1905894863
 21
7.8463577227
 31
0.0
 11
-4.8012649097
 21
7.5792457519
 31
0.0
 11
-4.4187749217
 21
7.2711195309
 31
0.0
 11
-4.0468042418
 21
6.9244487846
 31
0.0
 11
-3.3490326479
 21
6.1275900896
 31
0.0
 11
-2.7349295694
 21
5.2183769229
 31
0.0
 11
-2.230399101
 21
4.2293209392
 31
0.0
 11
-1.8550474922
 21
3.1979105532
 31
0.0
 11
-1.6265057939
 21
2.1627625696
 31
0.0
 11
-1.5531885837
 21
1.1630194374
 31
0.0
  0
LINE
  5
432
100
AcDbEntity
  8
RACCORDO
100
AcDbLine
 62
253
  6
CONTINUOUS
 10
-9.5801648611
 20
4.7508651965
 11
-9.5796426806
 21
4.8065633836
  0
LINE
  5
433
100
AcDbEntity
  8
RACCORDO
100
AcDbLine
 62
253
  6
CONTINUOUS
 10
-9.5796426806
 20
4.8065633836
 11
-9.5759813437
 21
5.1744158174
  0
SPLINE
  5
434
100
AcDbEntity
  8
ASSI
100
AcDbSpline
 62
253
  6
CONTINUOUS
 70
0
 71
3
 72
9
 73
5
 74
3
 42
0.0000001
 43
0.0000001
 44
0.0000000001
 12
0.0000039989
 22
-0.0361471944
 32
0.0
 13
0.0353695387
 23
-0.0074575741
 33
0.0
 40
0.0
 40
0.0
 40
0.0
 40
0.0
 40
0.5509787862
 40
1.0
 40
1.0
 40
1.0
 40
1.0
 10
6.6686103675
 20
18.5701207413
 30
0.0
 10
6.6686111019
 20
18.5634819622
 30
0.0
 10
6.670563328
 20
18.5507655203
 30
0.0
 10
6.6813027109
 20
18.5424214966
 30
0.0
 10
6.6865966019
 20
18.5413052936
 30
0.0
 11
6.6686103675
 21
18.5701207413
 31
0.0
 11
6.6734299564
 21
18.5507963511
 31
0.0
 11
6.6865966019
 21
18.5413052936
 31
0.0
  0
SPLINE
  5
435
100
AcDbEntity
  8
RACCORDO
100
AcDbSpline
 62
253
  6
CONTINUOUS
 70
0
 71
3
 72
11
 73
7
 74
5
 42
0.0000001
 43
0.0000001
 44
0.0000000001
 12
0.0000043689
 22
0.1898940197
 32
0.0
 13
-0.1824261653
 23
-0.0527298108
 33
0.0
 40
0.0
 40
0.0
 40
0.0
 40
0.0
 40
0.2923741246
 40
0.5373631141
 40
0.7591423867
 40
1.0
 40
1.0
 40
1.0
 40
1.0
 10
13.5004233346
 20
-13.7978014027
 30
0.0
 10
13.5004237604
 20
-13.7792947034
 30
0.0
 10
13.4961962809
 20
-13.7449377799
 30
0.0
 10
13.4719285551
 20
-13.7012564772
 30
0.0
 10
13.4301459433
 20
-13.6788334878
 30
0.0
 10
13.3994866435
 20
-13.6818604382
 30
0.0
 10
13.3848403999
 20
-13.686093897
 30
0.0
 11
13.5004233346
 21
-13.7978014027
 31
0.0
 11
13.4919896859
 21
-13.7429255899
 31
0.0
 11
13.4677046511
 21
-13.7032452629
 31
0.0
 11
13.4305043535
 21
-13.6835025726
 31
0.0
 11
13.3848403999
 21
-13.686093897
 31
0.0
  0
SPLINE
  5
436
100
AcDbEntity
  8
ASSI
100
AcDbSpline
 62
253
  6
CONTINUOUS
 70
0
 71
3
 72
9
 73
5
 74
3
 42
0.0000001
 43
0.0000001
 44
0.0000000001
 12
-0.0644809999
 22
-0.0324882589
 32
0.0
 13
0.0000008781
 23
-0.0722030907
 33
0.0
 40
0.0
 40
0.0
 40
0.0
 40
0.0
 40
0.490186815
 40
1.0
 40
1.0
 40
1.0
 40
1.0
 10
6.7039550302
 20
18.9477501889
 30
0.0
 10
6.6934191182
 20
18.9424417501
 30
0.0
 10
6.6763522948
 20
18.9235588873
 30
0.0
 10
6.6686102183
 20
18.8996595709
 30
0.0
 10
6.6686103675
 20
18.8873895417
 30
0.0
 11
6.7039550302
 21
18.9477501889
 31
0.0
 11
6.6789278338
 21
18.9227241203
 31
0.0
 11
6.6686103675
 21
18.8873895417
 31
0.0
  0
SPLINE
  5
437
100
AcDbEntity
  8
RACCORDO
100
AcDbSpline
 62
253
  6
CONTINUOUS
 70
0
 71
3
 72
9
 73
5
 74
3
 42
0.0000001
 43
0.0000001
 44
0.0000000001
 12
0.0000230774
 22
-0.2629809869
 32
0.0
 13
-0.2125033163
 23
-0.1549236604
 33
0.0
 40
0.0
 40
0.0
 40
0.0
 40
0.0
 40
0.5018289716
 40
1.0
 40
1.0
 40
1.0
 40
1.0
 10
13.5004233346
 20
21.2000407311
 30
0.0
 10
13.5004271949
 20
21.1560502383
 30
0.0
 10
13.4754253625
 20
21.0687168448
 30
0.0
 10
13.4201280651
 20
20.9964413363
 30
0.0
 10
13.3848403999
 20
20.9707151765
 30
0.0
 11
13.5004233346
 21
21.2000407311
 31
0.0
 11
13.4677045301
 21
21.0721894463
 31
0.0
 11
13.3848403999
 21
20.9707151765
 31
0.0
  0
SPLINE
  5
438
100
AcDbEntity
  8
ASSI
100
AcDbSpline
 62
7
  6
CONTINUOUS
 70
0
 71
3
 72
9
 73
5
 74
3
 42
0.0000001
 43
0.0000001
 44
0.0000000001
 12
-0.256502206
 22
0.1303360411
 32
0.0
 13
-0.1443146273
 23
0.2489059132
 33
0.0
 40
0.0
 40
0.0
 40
0.0
 40
0.0
 40
0.4939555319
 40
1.0
 40
1.0
 40
1.0
 40
1.0
 10
-6.9334947096
 20
25.1295087866
 30
0.0
 10
-6.9757282708
 20
25.1509688561
 30
0.0
 10
-7.0518967836
 20
25.212638277
 30
0.0
 10
-7.10936868
 20
25.2903428348
 30
0.0
 10
-7.1337118862
 20
25.3323286549
 30
0.0
 11
-6.9334947096
 21
25.1295087866
 31
0.0
 11
-7.0464141612
 21
25.2158052055
 31
0.0
 11
-7.1337118862
 21
25.3323286549
 31
0.0
  0
SPLINE
  5
439
100
AcDbEntity
  8
ASSI
100
AcDbSpline
 62
7
  6
CONTINUOUS
 70
0
 71
3
 72
9
 73
5
 74
3
 42
0.0000001
 43
0.0000001
 44
0.0000000001
 12
-0.256502206
 22
0.1303360411
 32
0.0
 13
-0.1443146273
 23
0.2489059132
 33
0.0
 40
0.0
 40
0.0
 40
0.0
 40
0.0
 40
0.4939555319
 40
1.0
 40
1.0
 40
1.0
 40
1.0
 10
5.6530059955
 20
18.8362584341
 30
0.0
 10
5.6107724343
 20
18.8577185035
 30
0.0
 10
5.5346039215
 20
18.9193879244
 30
0.0
 10
5.4771320251
 20
18.9970924822
 30
0.0
 10
5.4527888189
 20
19.0390783024
 30
0.0
 11
5.6530059955
 21
18.8362584341
 31
0.0
 11
5.5400865439
 21
18.9225548529
 31
0.0
 11
5.4527888189
 21
19.0390783024
 31
0.0
  0
SPLINE
  5
43A
100
AcDbEntity
  8
ASSI
100
AcDbSpline
 62
253
  6
CONTINUOUS
 70
0
 71
3
 72
10
 73
6
 74
4
 42
0.0000001
 43
0.0000001
 44
0.0000000001
 12
-0.0484779294
 22
-0.0223900683
 32
0.0
 13
0.0000002129
 23
0.0533987341
 33
0.0
 40
0.0
 40
0.0
 40
0.0
 40
0.0
 40
0.2604027024
 40
0.4870741077
 40
1.0
 40
1.0
 40
1.0
 40
1.0
 10
6.7039550302
 20
-23.0729809017
 30
0.0
 10
6.6997471022
 20
-23.0749243798
 30
0.0
 10
6.6910256639
 20
-23.07737061
 30
0.0
 10
6.6728705551
 20
-23.0715046791
 30
0.0
 10
6.6686103311
 20
-23.0558820629
 30
0.0
 10
6.6686103675
 20
-23.0467521984
 30
0.0
 11
6.7039550302
 21
-23.0729809017
 31
0.0
 11
6.6903869668
 21
-23.0760241795
 31
0.0
 11
6.6789286129
 21
-23.0721239078
 31
0.0
 11
6.6686103675
 21
-23.0467521984
 31
0.0
  0
SPLINE
  5
43B
100
AcDbEntity
  8
ASSI
100
AcDbSpline
 62
253
  6
CONTINUOUS
 70
0
 71
3
 72
9
 73
5
 74
3
 42
0.0000001
 43
0.0000001
 44
0.0000000001
 12
-0.0000005547
 22
0.0501152867
 32
0.0
 13
0.032435887
 23
0.0382028166
 33
0.0
 40
0.0
 40
0.0
 40
0.0
 40
0.0
 40
0.2366659259
 40
1.0
 40
1.0
 40
1.0
 40
1.0
 10
6.6686103675
 20
-22.7294833981
 30
0.0
 10
6.6686103238
 20
-22.7255298712
 30
0.0
 10
6.6704930758
 20
-22.7088609726
 30
0.0
 10
6.6783434627
 20
-22.6930193496
 30
0.0
 10
6.6865966019
 20
-22.6832988457
 30
0.0
 11
6.6686103675
 21
-22.7294833981
 31
0.0
 11
6.669835742
 21
-22.7176862869
 31
0.0
 11
6.6865966019
 21
-22.6832988457
 31
0.0
  0
SPLINE
  5
43C
100
AcDbEntity
  8
ASSI
100
AcDbSpline
 62
7
  6
CONTINUOUS
 70
0
 71
3
 72
11
 73
7
 74
5
 42
0.0000001
 43
0.0000001
 44
0.0000000001
 12
0.2575099286
 22
0.1558388673
 32
0.0
 13
-0.0
 23
0.300993548
 33
0.0
 40
0.0
 40
0.0
 40
0.0
 40
0.0
 40
0.2175208227
 40
0.4525013529
 40
0.7128527964
 40
1.0
 40
1.0
 40
1.0
 40
1.0
 10
8.5615932218
 20
-20.6859906713
 30
0.0
 10
8.580264479
 20
-20.6746912717
 30
0.0
 10
8.6151670521
 20
-20.6441667188
 30
0.0
 10
8.6524618064
 20
-20.5820803221
 30
0.0
 10
8.6748899899
 20
-20.5061464822
 30
0.0
 10
8.6794085474
 20
-20.4510326364
 30
0.0
 10
8.6794085474
 20
-20.4222228179
 30
0.0
 11
8.5615932218
 21
-20.6859906713
 31
0.0
 11
8.611225596
 21
-20.6432910472
 31
0.0
 11
8.6484976221
 21
-20.5831812077
 31
0.0
 11
8.6715951051
 21
-20.5082983714
 31
0.0
 11
8.6794085474
 21
-20.4222228179
 31
0.0
  0
SPLINE
  5
43D
100
AcDbEntity
  8
RACCORDO
100
AcDbSpline
 62
253
  6
CONTINUOUS
 70
0
 71
3
 72
29
 73
25
 74
23
 42
0.0000001
 43
0.0000001
 44
0.0000000001
 12
0.0987633854
 22
-14.5524287908
 32
0.0
 13
-0.1532372177
 23
14.5519571286
 33
0.0
 40
0.0
 40
0.0
 40
0.0
 40
0.0
 40
0.0630733142
 40
0.1205523065
 40
0.1728443889
 40
0.1975400671
 40
0.22156696
 40
0.2452431502
 40
0.2689182021
 40
0.2929315458
 40
0.3175997817
 40
0.3698285446
 40
0.3978290168
 40
0.4272300905
 40
0.4581987239
 40
0.4905687123
 40
0.5242135205
 40
0.5590343431
 40
0.6315996311
 40
0.7068726236
 40
0.7831667219
 40
0.8586417862
 40
0.9314490416
 40
1.0
 40
1.0
 40
1.0
 40
1.0
 10
-1.5531885838
 20
-6.6331721273
 30
0.0
 10
-1.5511121392
 20
-6.9391287652
 30
0.0
 10
-1.5940117268
 20
-7.5259363627
 30
0.0
 10
-1.8153429665
 20
-8.3408959247
 30
0.0
 10
-2.1356220795
 20
-8.9186487657
 30
0.0
 10
-2.4591896443
 20
-9.2886843938
 30
0.0
 10
-2.7283383059
 20
-9.5165432533
 30
0.0
 10
-3.0260098648
 20
-9.696264689
 30
0.0
 10
-3.3481461081
 20
-9.8268273567
 30
0.0
 10
-3.6912005252
 20
-9.9073338187
 30
0.0
 10
-4.1806073308
 20
-9.9475610056
 30
0.0
 10
-4.6915948962
 20
-9.8790713584
 30
0.0
 10
-5.1997987317
 20
-9.7206979949
 30
0.0
 10
-5.5941225231
 20
-9.5500009568
 30
0.0
 10
-5.9849133562
 20
-9.3256360737
 30
0.0
 10
-6.3716895666
 20
-9.0569424045
 30
0.0
 10
-6.7504620182
 20
-8.7466475328
 30
0.0
 10
-7.2464735067
 20
-8.2747005734
 30
0.0
 10
-7.8216553242
 20
-7.596965806
 30
0.0
 10
-8.4189726397
 20
-6.6854209933
 30
0.0
 10
-8.9090017769
 20
-5.6962579523
 30
0.0
 10
-9.2782467397
 20
-4.668571784
 30
0.0
 10
-9.5101195154
 20
-3.639960345
 30
0.0
 10
-9.5724798245
 20
-2.9542926164
 30
0.0
 10
-9.5759813438
 20
-2.6217757473
 30
0.0
 11
-1.5531885838
 21
-6.6331721273
 31
0.0
 11
-1.6265165706
 21
-7.5481294976
 31
0.0
 11
-1.8551319893
 21
-8.3527603314
 31
0.0
 11
-2.2305245229
 21
-9.0147216713
 31
0.0
 11
-2.4677709456
 21
-9.2846764393
 31
0.0
 11
-2.7351212697
 21
-9.510030188
 31
0.0
 11
-3.0300823314
 21
-9.6881184669
 31
0.0
 11
-3.3492895968
 21
-9.8177825354
 31
0.0
 11
-3.6893838137
 21
-9.898147828
 31
0.0
 11
-4.0471103076
 21
-9.9282526913
 31
0.0
 11
-4.8016046633
 21
-9.8363341716
 31
0.0
 11
-5.1909372295
 21
-9.716069561
 31
0.0
 11
-5.5835719195
 21
-9.5460458212
 31
0.0
 11
-5.9755895384
 21
-9.3237083818
 31
0.0
 11
-6.3629273965
 21
-9.0556058531
 31
0.0
 11
-6.7420881394
 21
-8.7458160467
 31
0.0
 11
-7.1095684364
 21
-8.3968993521
 31
0.0
 11
-7.7958927683
 21
-7.5943105537
 31
0.0
 11
-8.3973093493
 21
-6.6787423266
 31
0.0
 11
-8.8910509834
 21
-5.6842760951
 31
0.0
 11
-9.2605503795
 21
-4.6499219032
 31
0.0
 11
-9.4911133611
 21
-3.6157651765
 31
0.0
 11
-9.5759813438
 21
-2.6217757473
 31
0.0
  0
SPLINE
  5
43E
100
AcDbEntity
  8
RACCORDO
100
AcDbSpline
 62
253
  6
CONTINUOUS
 70
0
 71
3
 72
13
 73
9
 74
7
 42
0.0000001
 43
0.0000001
 44
0.0000000001
 12
-3.3357482831
 22
3.052061651
 32
0.0
 13
-0.0000228639
 23
4.5213158404
 33
0.0
 40
0.0
 40
0.0
 40
0.0
 40
0.0
 40
0.2578753947
 40
0.5165510413
 40
0.6429547256
 40
0.7660193647
 40
0.8851311698
 40
1.0
 40
1.0
 40
1.0
 40
1.0
 10
-5.8893509625
 20
-2.7960982779
 30
0.0
 10
-6.1760867642
 20
-2.5337477437
 30
0.0
 10
-6.7129185406
 20
-1.9656739049
 30
0.0
 10
-7.2635960334
 20
-1.161781086
 30
0.0
 10
-7.5997449285
 20
-0.4722452833
 30
0.0
 10
-7.7867954292
 20
0.0522191935
 30
0.0
 10
-7.9032033105
 20
0.5790905107
 30
0.0
 10
-7.9306556498
 20
0.9321674095
 30
0.0
 10
-7.9306565252
 20
1.10528683
 30
0.0
 11
-5.8893509625
 21
-2.7960982779
 31
0.0
 11
-6.6885558391
 21
-1.9471703833
 31
0.0
 11
-7.3430077461
 21
-0.9778665305
 31
0.0
 11
-7.5920882761
 21
-0.4634895386
 31
0.0
 11
-7.7774536593
 21
0.0611401672
 31
0.0
 11
-7.8919317165
 21
0.5873742959
 31
0.0
 11
-7.9306565252
 21
1.10528683
 31
0.0
  0
SPLINE
  5
43F
100
AcDbEntity
  8
RACCORDO
100
AcDbSpline
 62
253
  6
CONTINUOUS
 70
0
 71
3
 72
9
 73
5
 74
3
 42
0.0000001
 43
0.0000001
 44
0.0000000001
 12
-1.6181680441
 22
0.8090879913
 32
0.0
 13
-1.3347737032
 23
1.2212576951
 33
0.0
 40
0.0
 40
0.0
 40
0.0
 40
0.0
 40
0.4743050138
 40
1.0
 40
1.0
 40
1.0
 40
1.0
 10
-4.4177863261
 20
-3.8413066537
 30
0.0
 10
-4.6736213983
 20
-3.7133884901
 30
0.0
 10
-5.1882716416
 20
-3.3937086376
 30
0.0
 10
-5.655456348
 20
-3.0101012937
 30
0.0
 10
-5.8893509625
 20
-2.7960982779
 30
0.0
 11
-4.4177863261
 21
-3.8413066537
 31
0.0
 11
-5.1511456836
 21
-3.3957555126
 31
0.0
 11
-5.8893509625
 21
-2.7960982779
 31
0.0
  0
SPLINE
  5
440
100
AcDbEntity
  8
RACCORDO
100
AcDbSpline
 62
253
  6
CONTINUOUS
 70
0
 71
3
 72
11
 73
7
 74
5
 42
0.0000001
 43
0.0000001
 44
0.0000000001
 12
0.0000176269
 22
2.653190157
 32
0.0
 13
2.1926002182
 23
1.4939619449
 33
0.0
 40
0.0
 40
0.0
 40
0.0
 40
0.0
 40
0.2667532518
 40
0.5206727492
 40
0.764193433
 40
1.0
 40
1.0
 40
1.0
 40
1.0
 10
-7.9306565252
 20
1.10528683
 30
0.0
 10
-7.9306549579
 20
1.3412025308
 30
0.0
 10
-7.8814775393
 20
1.8037554801
 30
0.0
 10
-7.6519414919
 20
2.4463376301
 30
0.0
 10
-7.2880316377
 20
2.990890438
 30
0.0
 10
-6.9677231791
 20
3.2768326667
 30
0.0
 10
-6.7953800024
 20
3.3942613458
 30
0.0
 11
-7.9306565252
 21
1.10528683
 31
0.0
 11
-7.8521243274
 21
1.8086634393
 31
0.0
 11
-7.6234221199
 21
2.4423530784
 31
0.0
 11
-7.2629299133
 21
2.9785426091
 31
0.0
 11
-6.7953800024
 21
3.3942613458
 31
0.0
  0
SPLINE
  5
441
100
AcDbEntity
  8
RACCORDO
100
AcDbSpline
 62
253
  6
CONTINUOUS
 70
0
 71
3
 72
11
 73
7
 74
5
 42
0.0000001
 43
0.0000001
 44
0.0000000001
 12
-1.3328113138
 22
-0.0800434813
 32
0.0
 13
-1.1942518866
 23
0.5971225909
 33
0.0
 40
0.0
 40
0.0
 40
0.0
 40
0.0
 40
0.2127966763
 40
0.4498275481
 40
0.7123493503
 40
1.0
 40
1.0
 40
1.0
 40
1.0
 10
-3.1380834832
 20
-4.1717320176
 30
0.0
 10
-3.2326227558
 20
-4.1774096799
 30
0.0
 10
-3.4338568327
 20
-4.1695460285
 30
0.0
 10
-3.7459254239
 20
-4.1086363125
 30
0.0
 10
-4.0794632985
 20
-3.9989301916
 30
0.0
 10
-4.3032772158
 20
-3.8985608875
 30
0.0
 10
-4.4177863261
 20
-3.8413066537
 30
0.0
 11
-3.1380834832
 21
-4.1717320176
 31
0.0
 11
-3.4220818217
 21
-4.1631219693
 31
0.0
 11
-3.7331405429
 21
-4.1047588021
 31
0.0
 11
-4.0667001068
 21
-3.9970369313
 31
0.0
 11
-4.4177863261
 21
-3.8413066537
 31
0.0
  0
SPLINE
  5
442
100
AcDbEntity
  8
RACCORDO
100
AcDbSpline
 62
253
  6
CONTINUOUS
 70
0
 71
3
 72
26
 73
22
 74
20
 42
0.0000001
 43
0.0000001
 44
0.0000000001
 12
0.1241181747
 22
-13.7315309078
 32
0.0
 13
-0.0890907585
 23
13.7318028397
 33
0.0
 40
0.0
 40
0.0
 40
0.0
 40
0.0
 40
0.0632057218
 40
0.1208269767
 40
0.1732523091
 40
0.1980017291
 40
0.2220577341
 40
0.2457399714
 40
0.2694051219
 40
0.2933981656
 40
0.3180468678
 40
0.3702963198
 40
0.427729676
 40
0.4908745742
 40
0.5591943503
 40
0.631755378
 40
0.7070470225
 40
0.7833382494
 40
0.8587774041
 40
0.9315219154
 40
1.0
 40
1.0
 40
1.0
 40
1.0
 10
-1.7601548345
 20
-6.4995113231
 30
0.0
 10
-1.7575398415
 20
-6.7888150971
 30
0.0
 10
-1.7968296169
 20
-7.3438479935
 30
0.0
 10
-2.0032910937
 20
-8.115370737
 30
0.0
 10
-2.303439678
 20
-8.663299834
 30
0.0
 10
-2.6070654687
 20
-9.0152451941
 30
0.0
 10
-2.8600982536
 20
-9.2320235994
 30
0.0
 10
-3.1403402164
 20
-9.4029337998
 30
0.0
 10
-3.4438305257
 20
-9.527091764
 30
0.0
 10
-3.7672800287
 20
-9.6033498944
 30
0.0
 10
-4.2292604741
 20
-9.6399782106
 30
0.0
 10
-4.8458858906
 20
-9.5511445934
 30
0.0
 10
-5.585677461
 20
-9.2568127975
 30
0.0
 10
-6.3227828475
 20
-8.7969786278
 30
0.0
 10
-7.0267864266
 20
-8.1775553143
 30
0.0
 10
-7.669242678
 20
-7.4211227175
 30
0.0
 10
-8.2317678998
 20
-6.5599884386
 30
0.0
 10
-8.6911676598
 20
-5.6252231957
 30
0.0
 10
-9.0364256754
 20
-4.6548507894
 30
0.0
 10
-9.2518753045
 20
-3.684311828
 30
0.0
 10
-9.3085890617
 20
-3.0377199344
 30
0.0
 10
-9.3106226498
 20
-2.7242774154
 30
0.0
 11
-1.7601548345
 21
-6.4995113231
 31
0.0
 11
-1.8272953004
 21
-7.3648573604
 31
0.0
 11
-2.0407100964
 21
-8.1267937685
 31
0.0
 11
-2.3925817859
 21
-8.7548510683
 31
0.0
 11
-2.6153120623
 21
-9.0115550492
 31
0.0
 11
-2.866664832
 21
-9.2259048047
 31
0.0
 11
-3.1443084727
 21
-9.3952369628
 31
0.0
 11
-3.4450111732
 21
-9.5184631768
 31
0.0
 11
-3.765598132
 21
-9.5944734759
 31
0.0
 11
-4.1029662479
 21
-9.6218646237
 31
0.0
 11
-4.814378883
 21
-9.5286439428
 31
0.0
 11
-5.5508779653
 21
-9.2465350299
 31
0.0
 11
-6.2888938017
 21
-8.7913262318
 31
0.0
 11
-6.9962949386
 21
-8.1750851785
 31
0.0
 11
-7.6446646459
 21
-7.4184749955
 31
0.0
 11
-8.2110814494
 21
-6.5535209112
 31
0.0
 11
-8.6742673844
 21
-5.6138377454
 31
0.0
 11
-9.0196905367
 21
-4.6371857386
 31
0.0
 11
-9.2339044701
 21
-3.6614900137
 31
0.0
 11
-9.3106226498
 21
-2.7242774154
 31
0.0
  0
SPLINE
  5
443
100
AcDbEntity
  8
RACCORDO
100
AcDbSpline
 62
253
  6
CONTINUOUS
 70
0
 71
3
 72
10
 73
6
 74
4
 42
0.0000001
 43
0.0000001
 44
0.0000000001
 12
-1.5279338201
 22
-0.1073984948
 32
0.0
 13
-1.3700033422
 23
0.6849868887
 33
0.0
 40
0.0
 40
0.0
 40
0.0
 40
0.0
 40
0.4528220102
 40
0.7146302791
 40
1.0
 40
1.0
 40
1.0
 40
1.0
 10
-3.5010658036
 20
-5.1588566077
 30
0.0
 10
-3.7316931582
 20
-5.1750674084
 30
0.0
 10
-4.1012449149
 20
-5.1268543289
 30
0.0
 10
-4.5871590213
 20
-4.9703054013
 30
0.0
 10
-4.8430274576
 20
-4.8562590423
 30
0.0
 10
-4.9733466147
 20
-4.7911008698
 30
0.0
 11
-3.5010658036
 21
-5.1588566077
 31
0.0
 11
-4.1910677933
 21
-5.0884069453
 31
0.0
 11
-4.5734178521
 21
-4.9674953601
 31
0.0
 11
-4.9733466147
 21
-4.7911008698
 31
0.0
  0
SPLINE
  5
444
100
AcDbEntity
  8
RACCORDO
100
AcDbSpline
 62
253
  6
CONTINUOUS
 70
0
 71
3
 72
9
 73
5
 74
3
 42
0.0000001
 43
0.0000001
 44
0.0000000001
 12
-1.831959859
 22
0.9159967937
 32
0.0
 13
-1.4899315448
 23
1.4054291312
 33
0.0
 40
0.0
 40
0.0
 40
0.0
 40
0.0
 40
0.4746959037
 40
1.0
 40
1.0
 40
1.0
 40
1.0
 10
-4.9733466147
 20
-4.7911008698
 30
0.0
 10
-5.2632212283
 20
-4.6461608946
 30
0.0
 10
-5.8445712521
 20
-4.281533792
 30
0.0
 10
-6.3684241711
 20
-3.8408254598
 30
0.0
 10
-6.629313219
 20
-3.5947328999
 30
0.0
 11
-4.9733466147
 21
-4.7911008698
 31
0.0
 11
-5.802193999
 21
-4.2828430554
 31
0.0
 11
-6.629313219
 21
-3.5947328999
 31
0.0
  0
SPLINE
  5
445
100
AcDbEntity
  8
RACCORDO
100
AcDbSpline
 62
253
  6
CONTINUOUS
 70
0
 71
3
 72
9
 73
5
 74
3
 42
0.0000001
 43
0.0000001
 44
0.0000000001
 12
-0.0000023286
 22
-1.5592993172
 32
0.0
 13
-0.4626743505
 23
-1.4890758228
 33
0.0
 40
0.0
 40
0.0
 40
0.0
 40
0.0
 40
0.5342172144
 40
1.0
 40
1.0
 40
1.0
 40
1.0
 10
-2.0183435612
 20
-2.3852217348
 30
0.0
 10
-2.0183439759
 20
-2.662889914
 30
0.0
 10
-2.0449220387
 20
-3.1831447176
 30
0.0
 10
-2.1445234394
 20
-3.6964678325
 30
0.0
 10
-2.2163586886
 20
-3.9276631274
 30
0.0
 11
-2.0183435612
 21
-2.3852217348
 31
0.0
 11
-2.0675808799
 21
-3.2167698369
 31
0.0
 11
-2.2163586886
 21
-3.9276631274
 31
0.0
  0
SPLINE
  5
446
100
AcDbEntity
  8
RACCORDO
100
AcDbSpline
 62
253
  6
CONTINUOUS
 70
0
 71
3
 72
13
 73
9
 74
7
 42
0.0000001
 43
0.0000001
 44
0.0000000001
 12
-0.5618103681
 22
-1.8081361877
 32
0.0
 13
-1.883347799
 23
-0.1949062105
 33
0.0
 40
0.0
 40
0.0
 40
0.0
 40
0.0
 40
0.2819272105
 40
0.5298961471
 40
0.6464695513
 40
0.7616007918
 40
0.8784309914
 40
1.0
 40
1.0
 40
1.0
 40
1.0
 10
-2.2163586886
 20
-3.9276631274
 30
0.0
 10
-2.2691552319
 20
-4.0975840579
 30
0.0
 10
-2.3945726459
 20
-4.4103688884
 30
0.0
 10
-2.6386749065
 20
-4.7450694553
 30
0.0
 10
-2.8728200355
 20
-4.9391593255
 30
0.0
 10
-3.0648113565
 20
-5.0488543308
 30
0.0
 10
-3.275891596
 20
-5.124393686
 30
0.0
 10
-3.4247468953
 20
-5.1509584228
 30
0.0
 10
-3.5010658036
 20
-5.1588566077
 30
0.0
 11
-2.2163586886
 21
-3.9276631274
 31
0.0
 11
-2.4237460731
 21
-4.4195328777
 31
0.0
 11
-2.7069343231
 21
-4.7940195209
 31
0.0
 11
-2.8772024002
 21
-4.9344704397
 31
0.0
 11
-3.0665161747
 21
-5.0425446202
 31
0.0
 11
-3.2746270488
 21
-5.1175273919
 31
0.0
 11
-3.5010658036
 21
-5.1588566077
 31
0.0
  0
SPLINE
  5
447
100
AcDbEntity
  8
RACCORDO
100
AcDbSpline
 62
253
  6
CONTINUOUS
 70
0
 71
3
 72
9
 73
5
 74
3
 42
0.0000001
 43
0.0000001
 44
0.0000000001
 12
1.8501195774
 22
-1.1883725861
 32
0.0
 13
1.6101666807
 23
-1.4975096375
 33
0.0
 40
0.0
 40
0.0
 40
0.0
 40
0.0
 40
0.2584480555
 40
1.0
 40
1.0
 40
1.0
 40
1.0
 10
-3.5010658036
 20
-5.1588566077
 30
0.0
 10
-3.3416792012
 20
-5.2612341357
 30
0.0
 10
-2.7330337333
 20
-5.6696428991
 30
0.0
 10
-2.1581622455
 20
-6.1293509285
 30
0.0
 10
-1.7601548345
 20
-6.4995113231
 30
0.0
 11
-3.5010658036
 21
-5.1588566077
 31
0.0
 11
-3.0293286723
 21
-5.475765592
 31
0.0
 11
-1.7601548345
 21
-6.4995113231
 31
0.0
  0
SPLINE
  5
448
100
AcDbEntity
  8
RACCORDO
100
AcDbSpline
 62
253
  6
CONTINUOUS
 70
0
 71
3
 72
11
 73
7
 74
5
 42
0.0000001
 43
0.0000001
 44
0.0000000001
 12
-3.7905719263
 22
3.6732843911
 32
0.0
 13
-0.0000325293
 23
5.2783949971
 33
0.0
 40
0.0
 40
0.0
 40
0.0
 40
0.0
 40
0.2581462938
 40
0.5170079313
 40
0.7662262146
 40
1.0
 40
1.0
 40
1.0
 40
1.0
 10
-6.629313219
 20
-3.5947328999
 30
0.0
 10
-6.9554872504
 20
-3.278651316
 30
0.0
 10
-7.5592185688
 20
-2.5923315411
 30
0.0
 10
-8.278302543
 20
-1.4441477579
 30
0.0
 10
-8.7549803823
 20
-0.2196733523
 30
0.0
 10
-8.8762695724
 20
0.6324257452
 30
0.0
 10
-8.8762721073
 20
1.0437425383
 30
0.0
 11
-6.629313219
 21
-3.5947328999
 31
0.0
 11
-7.528832074
 21
-2.5712391639
 31
0.0
 11
-8.2483237878
 21
-1.4096413398
 31
0.0
 11
-8.7145688985
 21
-0.1795667484
 31
0.0
 11
-8.8762721073
 21
1.0437425383
 31
0.0
  0
SPLINE
  5
449
100
AcDbEntity
  8
RACCORDO
100
AcDbSpline
 62
253
  6
CONTINUOUS
 70
0
 71
3
 72
9
 73
5
 74
3
 42
0.0000001
 43
0.0000001
 44
0.0000000001
 12
2.7231494606
 22
-0.7320027228
 32
0.0
 13
2.6277954366
 23
-1.0227717803
 33
0.0
 40
0.0
 40
0.0
 40
0.0
 40
0.0
 40
0.260446948
 40
1.0
 40
1.0
 40
1.0
 40
1.0
 10
-9.3106226498
 20
-2.7242774154
 30
0.0
 10
-9.0742106612
 20
-2.7878267071
 30
0.0
 10
-8.1694939638
 20
-3.0426832743
 30
0.0
 10
-7.277111264
 20
-3.3426015694
 30
0.0
 10
-6.629313219
 20
-3.5947328999
 30
0.0
 11
-9.3106226498
 21
-2.7242774154
 31
0.0
 11
-8.6037859031
 21
-2.923636592
 31
0.0
 11
-6.629313219
 21
-3.5947328999
 31
0.0
  0
SPLINE
  5
44A
100
AcDbEntity
  8
RACCORDO
100
AcDbSpline
 62
253
  6
CONTINUOUS
 70
0
 71
3
 72
12
 73
8
 74
6
 42
0.0000001
 43
0.0000001
 44
0.0000000001
 12
3.0993134502
 22
-4.3083206915
 32
0.0
 13
0.0000056909
 23
-5.3072941357
 33
0.0
 40
0.0
 40
0.0
 40
0.0
 40
0.0
 40
0.2486662687
 40
0.506859516
 40
0.7620223968
 40
0.8840707097
 40
1.0
 40
1.0
 40
1.0
 40
1.0
 10
-3.5010658468
 20
2.6353720542
 30
0.0
 10
-3.2441676098
 20
2.2782607106
 30
0.0
 10
-2.8043553398
 20
1.4887382699
 30
0.0
 10
-2.3539833514
 20
0.2135778863
 30
0.0
 10
-2.1266594832
 20
-0.8910093005
 30
0.0
 10
-2.034555256
 20
-1.7589959922
 30
0.0
 10
-2.0183437811
 20
-2.1801314539
 30
0.0
 10
-2.0183435612
 20
-2.3852217348
 30
0.0
 11
-3.5010658468
 21
2.6353720542
 31
0.0
 11
-2.8463782184
 21
1.4894614765
 31
0.0
 11
-2.3824831113
 21
0.2000647206
 31
0.0
 11
-2.1085499091
 21
-1.1261647061
 31
0.0
 11
-2.0408390224
 21
-1.7703622679
 31
0.0
 11
-2.0183435612
 21
-2.3852217348
 31
0.0
  0
SPLINE
  5
44B
100
AcDbEntity
  8
RACCORDO
100
AcDbSpline
 62
253
  6
CONTINUOUS
 70
0
 71
3
 72
15
 73
11
 74
9
 42
0.0000001
 43
0.0000001
 44
0.0000000001
 12
0.0000342572
 22
4.1984006085
 32
0.0
 13
4.1232328829
 23
0.7908971262
 33
0.0
 40
0.0
 40
0.0
 40
0.0
 40
0.0
 40
0.1392629854
 40
0.2733628186
 40
0.4026422114
 40
0.5275968206
 40
0.6488764592
 40
0.7673040493
 40
0.8839143335
 40
1.0
 40
1.0
 40
1.0
 40
1.0
 10
-8.8762721073
 20
1.0437425383
 30
0.0
 10
-8.876270517
 20
1.2386364725
 30
0.0
 10
-8.8505162774
 20
1.6218418866
 30
0.0
 10
-8.7303537075
 20
2.1744928288
 30
0.0
 10
-8.5328463985
 20
2.6833246586
 30
0.0
 10
-8.2635376691
 20
3.1375100066
 30
0.0
 10
-7.929664098
 20
3.5270104355
 30
0.0
 10
-7.5396500699
 20
3.8424061636
 30
0.0
 10
-7.103342564
 20
4.0748110973
 30
0.0
 10
-6.7888625759
 20
4.1688917725
 30
0.0
 10
-6.6293131635
 20
4.1994957125
 30
0.0
 11
-8.8762721073
 21
1.0437425383
 31
0.0
 11
-8.835540943
 21
1.6270038714
 31
0.0
 11
-8.7145655461
 21
2.1768578356
 31
0.0
 11
-8.5169354028
 21
2.6823654981
 31
0.0
 11
-8.2483218276
 21
3.1329893794
 31
0.0
 11
-7.9160692683
 21
3.5188300551
 31
0.0
 11
-7.5288274022
 21
3.8306922163
 31
0.0
 11
-7.0963293162
 21
4.0601061196
 31
0.0
 11
-6.6293131635
 21
4.1994957125
 31
0.0
  0
SPLINE
  5
44C
100
AcDbEntity
  8
RACCORDO
100
AcDbSpline
 62
253
  6
CONTINUOUS
 70
0
 71
3
 72
11
 73
7
 74
5
 42
0.0000001
 43
0.0000001
 44
0.0000000001
 12
1.6823490504
 22
0.2792511941
 32
0.0
 13
1.5253332712
 23
-0.7626519315
 33
0.0
 40
0.0
 40
0.0
 40
0.0
 40
0.0
 40
0.2414204656
 40
0.4866693439
 40
0.738737378
 40
1.0
 40
1.0
 40
1.0
 40
1.0
 10
-6.6293131635
 20
4.1994957125
 30
0.0
 10
-6.4939286665
 20
4.2219680303
 30
0.0
 10
-6.2166528619
 20
4.2443069219
 30
0.0
 10
-5.7964727775
 20
4.2081200545
 30
0.0
 10
-5.3765396559
 20
4.1029236726
 30
0.0
 10
-5.1061841468
 20
3.9900003513
 30
0.0
 10
-4.9733466235
 20
3.9235828702
 30
0.0
 11
-6.6293131635
 21
4.1994957125
 31
0.0
 11
-6.21894907
 21
4.2327675421
 31
0.0
 11
-5.8021901037
 21
4.197606621
 31
0.0
 11
-5.3849602721
 21
4.0941349408
 31
0.0
 11
-4.9733466235
 21
3.9235828702
 31
0.0
  0
SPLINE
  5
44D
100
AcDbEntity
  8
RACCORDO
100
AcDbSpline
 62
253
  6
CONTINUOUS
 70
0
 71
3
 72
9
 73
5
 74
3
 42
0.0000001
 43
0.0000001
 44
0.0000000001
 12
1.7618509073
 22
-0.8809399731
 32
0.0
 13
1.1686822713
 23
-1.5856719725
 33
0.0
 40
0.0
 40
0.0
 40
0.0
 40
0.0
 40
0.480137184
 40
1.0
 40
1.0
 40
1.0
 40
1.0
 10
-4.9733466235
 20
3.9235828702
 30
0.0
 10
-4.6913699125
 20
3.7825921909
 30
0.0
 10
-4.1453270585
 20
3.4031438321
 30
0.0
 10
-3.703583999
 20
2.9101493531
 30
0.0
 10
-3.5010658468
 20
2.6353720542
 30
0.0
 11
-4.9733466235
 21
3.9235828702
 31
0.0
 11
-4.1910633665
 21
3.3920416761
 31
0.0
 11
-3.5010658468
 21
2.6353720542
 31
0.0
  0
SPLINE
  5
44E
100
AcDbEntity
  8
RACCORDO
100
AcDbSpline
 62
253
  6
CONTINUOUS
 70
0
 71
3
 72
9
 73
5
 74
3
 42
0.0000001
 43
0.0000001
 44
0.0000000001
 12
1.8501196248
 22
-1.1883726071
 32
0.0
 13
1.6101667183
 23
-1.4975096724
 33
0.0
 40
0.0
 40
0.0
 40
0.0
 40
0.0
 40
0.2584480557
 40
1.0
 40
1.0
 40
1.0
 40
1.0
 10
-3.5010658468
 20
2.6353720542
 30
0.0
 10
-3.3416792402
 20
2.5329945242
 30
0.0
 10
-2.7330337568
 20
2.1245857533
 30
0.0
 10
-2.1581622547
 20
1.6648777141
 30
0.0
 10
-1.7601548345
 20
1.294717311
 30
0.0
 11
-3.5010658468
 21
2.6353720542
 31
0.0
 11
-3.0293287031
 21
2.3184630637
 31
0.0
 11
-1.7601548345
 21
1.294717311
 31
0.0
  0
SPLINE
  5
44F
100
AcDbEntity
  8
RACCORDO
100
AcDbSpline
 62
253
  6
CONTINUOUS
 70
0
 71
3
 72
23
 73
19
 74
17
 42
0.0000001
 43
0.0000001
 44
0.0000000001
 12
0.0503631148
 22
7.8449361488
 32
0.0
 13
5.396166882
 23
-5.694465963
 33
0.0
 40
0.0
 40
0.0
 40
0.0
 40
0.0
 40
0.0722153801
 40
0.1403061875
 40
0.2041105769
 40
0.2637875988
 40
0.3198995693
 40
0.3733172965
 40
0.4252065062
 40
0.4769905946
 40
0.5300907532
 40
0.5857993019
 40
0.6450316797
 40
0.7082614606
 40
0.7413858284
 40
0.7754918281
 40
0.8466291975
 40
1.0
 40
1.0
 40
1.0
 40
1.0
 10
-9.3106226498
 20
5.0699512186
 30
0.0
 10
-9.3094103193
 20
5.2587929007
 30
0.0
 10
-9.2889272579
 20
5.6259050312
 30
0.0
 10
-9.2014987421
 20
6.1535978009
 30
0.0
 10
-9.0584540537
 20
6.6353075709
 30
0.0
 10
-8.8601039977
 20
7.0630690245
 30
0.0
 10
-8.6101289021
 20
7.430779215
 30
0.0
 10
-8.3115558854
 20
7.7329780285
 30
0.0
 10
-7.9664458365
 20
7.9613771575
 30
0.0
 10
-7.5823092153
 20
8.1126963261
 30
0.0
 10
-7.1658809767
 20
8.1853581262
 30
0.0
 10
-6.7241000909
 20
8.1765465183
 30
0.0
 10
-6.2646305217
 20
8.088668694
 30
0.0
 10
-5.8790636011
 20
7.9547633367
 30
0.0
 10
-5.5682995983
 20
7.8135962069
 30
0.0
 10
-5.2489382796
 20
7.6429847773
 30
0.0
 10
-4.6807849897
 20
7.2741339309
 30
0.0
 10
-4.2395858865
 20
6.8798803742
 30
0.0
 10
-3.9637144047
 20
6.5887587693
 30
0.0
 11
-9.3106226498
 21
5.0699512186
 31
0.0
 11
-9.2778303849
 21
5.6355381023
 31
0.0
 11
-9.1884721482
 21
6.1621901277
 31
0.0
 11
-9.0435776543
 21
6.6413117883
 31
0.0
 11
-8.844697376
 21
7.0651416191
 31
0.0
 11
-8.5954451985
 21
7.4279815597
 31
0.0
 11
-8.2993206642
 21
7.7245075413
 31
0.0
 11
-7.9596342264
 21
7.9488375067
 31
0.0
 11
-7.5818828565
 21
8.0983165045
 31
0.0
 11
-7.1717134825
 21
8.1710942251
 31
0.0
 11
-6.7347193654
 21
8.1648299488
 31
0.0
 11
-6.2778231019
 21
8.0801137426
 31
0.0
 11
-5.8084448968
 21
7.9196657222
 31
0.0
 11
-5.5718455915
 21
7.8121947121
 31
0.0
 11
-5.3356374506
 21
7.6865098211
 31
0.0
 11
-4.8666682352
 21
7.3839858751
 31
0.0
 11
-3.9637144047
 21
6.5887587693
 31
0.0
  0
SPLINE
  5
450
100
AcDbEntity
  8
RACCORDO
100
AcDbSpline
 62
253
  6
CONTINUOUS
 70
0
 71
3
 72
13
 73
9
 74
7
 42
0.0000001
 43
0.0000001
 44
0.0000000001
 12
3.9582939423
 22
-4.2440353072
 32
0.0
 13
-0.0521207237
 23
-5.8032068766
 33
0.0
 40
0.0
 40
0.0
 40
0.0
 40
0.0
 40
0.1242859921
 40
0.2518463196
 40
0.5103641437
 40
0.7633330813
 40
0.8843038735
 40
1.0
 40
1.0
 40
1.0
 40
1.0
 10
-3.9243686239
 20
6.546906065
 30
0.0
 10
-3.760381794
 20
6.3710813521
 30
0.0
 10
-3.4454620091
 20
5.9982351269
 30
0.0
 10
-2.877463169
 20
5.1894113028
 30
0.0
 10
-2.3038472608
 20
4.0870215674
 30
0.0
 10
-1.9313014811
 20
2.913681398
 30
0.0
 10
-1.7823958219
 20
1.9768787971
 30
0.0
 10
-1.7581447792
 20
1.5185201633
 30
0.0
 10
-1.7601548345
 20
1.294717311
 30
0.0
 11
-3.9243686239
 21
6.546906065
 31
0.0
 11
-3.457990915
 21
5.996682544
 31
0.0
 11
-3.0322842629
 21
5.3910412379
 31
0.0
 11
-2.3391841965
 21
4.0604431967
 31
0.0
 11
-1.9023094203
 21
2.6588621182
 31
0.0
 11
-1.7932601858
 21
1.9653363153
 31
0.0
 11
-1.7601548345
 21
1.294717311
 31
0.0
  0
SPLINE
  5
451
100
AcDbEntity
  8
RACCORDO
100
AcDbSpline
 62
253
  6
CONTINUOUS
 70
0
 71
3
 72
9
 73
5
 74
3
 42
0.0000001
 43
0.0000001
 44
0.0000000001
 12
2.7231495181
 22
-0.7320027382
 32
0.0
 13
2.6277954892
 23
-1.022771809
 33
0.0
 40
0.0
 40
0.0
 40
0.0
 40
0.0
 40
0.2604469483
 40
1.0
 40
1.0
 40
1.0
 40
1.0
 10
-9.3106226498
 20
5.0699512186
 30
0.0
 10
-9.0742106559
 20
5.0064019255
 30
0.0
 10
-8.1694939395
 20
4.7515453528
 30
0.0
 10
-7.2771112213
 20
4.45162705
 30
0.0
 10
-6.6293131635
 20
4.1994957125
 30
0.0
 11
-9.3106226498
 21
5.0699512186
 31
0.0
 11
-8.6037858876
 21
4.8705920374
 31
0.0
 11
-6.6293131635
 21
4.1994957125
 31
0.0
  0
ELLIPSE
  5
452
100
AcDbEntity
  8
ASSI
100
AcDbEllipse
 62
7
  6
CONTINUOUS
 10
9.0205654871
 20
-19.8705122205
 30
0.0
 11
-0.2237009107
 21
0.4473351135
 31
0.0
 40
0.6121897086
 41
-3.1223332426
 42
-2.2557347926
  0
ELLIPSE
  5
453
100
AcDbEntity
  8
ASSI
100
AcDbEllipse
 62
7
  6
CONTINUOUS
 10
9.0205654871
 20
18.031035486
 30
0.0
 11
-0.2235807756
 21
0.4472283268
 31
0.0
 40
0.6125552124
 41
-2.255296188
 42
-0.6848044477
  0
ELLIPSE
  5
454
100
AcDbEntity
  8
ASSI
100
AcDbEllipse
 62
7
  6
CONTINUOUS
 10
2.2924617005
 20
22.9972673563
 30
0.0
 11
-0.1118504554
 21
0.2236675568
 31
0.0
 40
0.6121897086
 41
-0.6846338794
 42
-0.0194291938
  0
ELLIPSE
  5
455
100
AcDbEntity
  8
ASSI
100
AcDbEllipse
 62
7
  6
CONTINUOUS
 10
0.7827984144
 20
23.7520989993
 30
0.0
 11
-0.1117903878
 21
0.2236141634
 31
0.0
 40
0.6125552124
 41
-2.255296188
 42
-0.6848044477
  0
ELLIPSE
  5
456
100
AcDbEntity
  8
ASSI
100
AcDbEllipse
 62
7
  6
CONTINUOUS
 10
13.6117960851
 20
21.5302537889
 30
0.0
 11
0.4349639225
 21
0.9005141702
 31
0.0
 40
0.6016116119
 41
-0.8943064336
 42
-0.6613938699
  0
ELLIPSE
  5
457
100
AcDbEntity
  8
ASSI
100
AcDbEllipse
 62
7
  6
CONTINUOUS
 10
13.6117960851
 20
-15.2330390601
 30
0.0
 11
0.4349639225
 21
0.9005141702
 31
0.0
 40
0.6016116119
 41
-1.1272189973
 42
-0.8943064336
  0
ELLIPSE
  5
458
100
AcDbEntity
  8
ASSI
100
AcDbEllipse
 62
7
  6
CONTINUOUS
 10
13.7714870149
 20
-15.312884525
 30
0.0
 11
0.9927147821
 21
0.620457446
 31
0.0
 40
0.0764819879
 41
-2.3927159682
 42
-1.0722854976
  0
ELLIPSE
  5
459
100
AcDbEntity
  8
ASSI
100
AcDbEllipse
 62
7
  6
CONTINUOUS
 10
2.0316951613
 20
27.3203042508
 30
0.0
 11
1.004787277
 21
0.6140102217
 31
0.0
 40
0.0864918533
 41
0.0545281916
 42
0.7212730538
  0
ELLIPSE
  5
45A
100
AcDbEntity
  8
ASSI
100
AcDbEllipse
 62
7
  6
CONTINUOUS
 10
5.6295655142
 20
-21.9221374894
 30
0.0
 11
0.220014872
 21
0.1791173313
 31
0.0
 40
0.6627826692
 41
-1.8038058062
 42
-1.2976603231
  0
ELLIPSE
  5
45B
100
AcDbEntity
  8
ASSI
100
AcDbEllipse
 62
7
  6
CONTINUOUS
 10
1.995875725
 20
25.1695302025
 30
0.0
 11
0.3856611795
 21
-0.0054197667
 31
0.0
 40
0.4892375088
 41
-0.7610696355
 42
0.0068059907
  0
ELLIPSE
  5
45C
100
AcDbEntity
  8
ASSI
100
AcDbEllipse
 62
7
  6
CONTINUOUS
 10
5.6295655142
 20
17.7745140716
 30
0.0
 11
0.249929385
 21
0.0111824824
 31
0.0
 40
0.5313301283
 41
-2.3799630874
 42
-0.8266200532
  0
ELLIPSE
  5
45D
100
AcDbEntity
  8
ASSI
100
AcDbEllipse
 62
7
  6
CONTINUOUS
 10
7.6050320406
 20
22.3649520446
 30
0.0
 11
0.3856611795
 21
-0.0054197667
 31
0.0
 40
0.4892375088
 41
-0.7610696355
 42
0.0068059907
  0
ELLIPSE
  5
45E
100
AcDbEntity
  8
ASSI
100
AcDbEllipse
 62
7
  6
CONTINUOUS
 10
13.7714870149
 20
21.450408324
 30
0.0
 11
-0.7356038977
 21
1.2035991204
 31
0.0
 40
0.5552491559
 41
4.9036048137
 42
6.2240352843
  0
ELLIPSE
  5
45F
100
AcDbEntity
  8
ASSI
100
AcDbEllipse
 62
7
  6
CONTINUOUS
 10
-6.9569351909
 20
24.0677644242
 30
0.0
 11
0.249929385
 21
0.0111824824
 31
0.0
 40
0.5313301283
 41
-2.3799630874
 42
-0.8266200532
  0
ELLIPSE
  5
460
100
AcDbEntity
  8
ASSI
100
AcDbEllipse
 62
7
  6
CONTINUOUS
 10
7.2497398135
 20
17.7169201714
 30
0.0
 11
0.249929385
 21
0.0111824824
 31
0.0
 40
0.5313301283
 41
-2.3799630874
 42
-1.125412988
  0
ELLIPSE
  5
461
100
AcDbEntity
  8
ASSI
100
AcDbEllipse
 62
7
  6
CONTINUOUS
 10
5.2300404911
 20
18.7267698326
 30
0.0
 11
0.249929385
 21
0.0111824824
 31
0.0
 40
0.5313301283
 41
3.117765999
 42
3.9032222197
  0
ELLIPSE
  5
462
100
AcDbEntity
  8
ASSI
100
AcDbEllipse
 62
7
  6
CONTINUOUS
 10
-7.356460214
 20
25.0200201851
 30
0.0
 11
0.249929385
 21
0.0111824824
 31
0.0
 40
0.5313301283
 41
3.118062645
 42
3.9032222197
  0
ELLIPSE
  5
463
100
AcDbEntity
  8
ASSI
100
AcDbEllipse
 62
7
  6
CONTINUOUS
 10
-5.3367608916
 20
24.0101705239
 30
0.0
 11
0.249929385
 21
0.0111824824
 31
0.0
 40
0.5313301283
 41
-2.3799630874
 42
-0.8266200532
  0
ELLIPSE
  5
464
100
AcDbEntity
  8
ASSI
100
AcDbEllipse
 62
7
  6
CONTINUOUS
 10
7.2497398135
 20
-21.5251178578
 30
0.0
 11
0.220014872
 21
0.1791173313
 31
0.0
 40
0.6627826692
 41
-2.8510033574
 42
-2.6599685648
  0
ELLIPSE
  5
465
100
AcDbEntity
  8
ASSI
100
AcDbEllipse
 62
7
  6
CONTINUOUS
 10
5.4360012281
 20
17.8712962147
 30
0.0
 11
0.249929385
 21
0.0111824824
 31
0.0
 40
0.5313301283
 41
3.1177659981
 42
3.9032222197
  0
ELLIPSE
  5
466
100
AcDbEntity
  8
ASSI
100
AcDbEllipse
 62
7
  6
CONTINUOUS
 10
-7.150499477
 20
24.1645465672
 30
0.0
 11
0.249929385
 21
0.0111824824
 31
0.0
 40
0.5313301283
 41
3.1177659981
 42
3.9032222197
  0
ELLIPSE
  5
467
100
AcDbEntity
  8
ASSI
100
AcDbEllipse
 62
7
  6
CONTINUOUS
 10
1.3292223439
 20
21.3920474931
 30
0.0
 11
0.199943508
 21
0.008945986
 31
0.0
 40
0.5313301283
 41
3.1180383302
 42
3.9032222197
  0
ELLIPSE
  5
468
100
AcDbEntity
  8
ASSI
100
AcDbEllipse
 62
7
  6
CONTINUOUS
 10
3.619870741
 20
20.2467232945
 30
0.0
 11
0.199943508
 21
0.008945986
 31
0.0
 40
0.5313301283
 41
-2.3799630874
 42
-0.8266200532
  0
ELLIPSE
  5
469
100
AcDbEntity
  8
ASSI
100
AcDbEllipse
 62
7
  6
CONTINUOUS
 10
-2.3830882573
 20
23.2482027937
 30
0.0
 11
0.199943508
 21
0.008945986
 31
0.0
 40
0.5313301283
 41
3.1180383302
 42
3.9032222197
  0
ELLIPSE
  5
46A
100
AcDbEntity
  8
ASSI
100
AcDbEllipse
 62
7
  6
CONTINUOUS
 10
-0.0924398602
 20
22.1028785951
 30
0.0
 11
0.199943508
 21
0.008945986
 31
0.0
 40
0.5313301283
 41
-2.3799630874
 42
-0.8266200532
  0
ELLIPSE
  5
46B
100
AcDbEntity
  8
ASSI
100
AcDbEllipse
 62
7
  6
CONTINUOUS
 10
6.0382964976
 20
25.55781751
 30
0.0
 11
0.2495017023
 21
-0.0599821937
 31
0.0
 40
0.2630210944
 41
-0.7135232271
 42
0.0636829494
  0
ELLIPSE
  5
46C
100
AcDbEntity
  8
RACCORDO
100
AcDbEllipse
 62
7
  6
CONTINUOUS
 10
13.2864481999
 20
-14.3669844705
 30
0.0
 11
0.2999981629
 21
-0.0021225547
 31
0.0
 40
0.4946372042
 41
-0.7731718616
 42
0.0034641964
  0
ELLIPSE
  5
46D
100
AcDbEntity
  8
ASSI
100
AcDbEllipse
 62
7
  6
CONTINUOUS
 10
20.0593435662
 20
29.3134530129
 30
0.0
 11
18.2927339069
 21
9.4748417608
 31
0.0
 40
0.0170707209
 41
-2.6536573066
 42
-2.3141694431
  0
ELLIPSE
  5
46E
100
AcDbEntity
  8
ASSI
100
AcDbEllipse
 62
7
  6
CONTINUOUS
 10
20.0593435662
 20
29.3134530129
 30
0.0
 11
18.2927339069
 21
9.4748417608
 31
0.0
 40
0.0170707209
 41
2.2964861198
 42
2.6359739833
  0
ELLIPSE
  5
46F
100
AcDbEntity
  8
ASSI
100
AcDbEllipse
 62
7
  6
CONTINUOUS
 10
8.3399787333
 20
17.6935825919
 30
0.0
 11
41.2152542262
 21
22.501943358
 31
0.0
 40
0.0081048063
 41
1.5667140536
 42
1.5886117747
  0
ENDSEC
  0
SECTION
  2
OBJECTS
  0
DICTIONARY
  5
C
100
AcDbDictionary
280
0
281
1
  3
ACAD_GROUP
350
D
  3
ACAD_MLINESTYLE
350
17
  3
ACAD_LAYOUT
350
1A
  3
ACAD_PLOTSETTINGS
350
19
  3
ACAD_PLOTSTYLENAME
350
E
  0
DICTIONARY
  5
D
102
{ACAD_REACTORS
330
C
102
}
100
AcDbDictionary
280
0
281
1
  0
ACDBDICTIONARYWDFLT
  5
E
102
{ACAD_REACTORS
330
C
102
}
100
AcDbDictionary
281
1
  3
Normal
350
F
100
AcDbDictionaryWithDefault
340
F
  0
DICTIONARY
  5
17
102
{ACAD_REACTORS
330
C
102
}
100
AcDbDictionary
280
0
281
1
  3
Standard
350
18
  0
DICTIONARY
  5
19
102
{ACAD_REACTORS
330
C
102
}
100
AcDbDictionary
281
1
  0
DICTIONARY
  5
1A
102
{ACAD_REACTORS
330
C
102
}
100
AcDbDictionary
281
1
  3
Model
350
470
  3
Layout1
350
471
  0
ACDBPLACEHOLDER
  5
F
102
{ACAD_REACTORS
330
E
102
}
  0
MLINESTYLE
  5
18
102
{ACAD_REACTORS
330
17
102
}
100
AcDbMlineStyle
  2
STANDARD
 70
0
  3

 62
256
 51
90.0
 52
90.0
 71
2
 49
0.5
 62
256
  6
BYLAYER
 49
-0.5
 62
256
  6
BYLAYER
  0
LAYOUT
  5
470
102
{ACAD_REACTORS
330
1A
102
}
100
AcDbPlotSettings
  1

  2
none_device
  4
ISO_A4_(297.00_x_210.00_MM)
  6

 40
0.0
 41
0.0
 42
0.0
 43
0.0
 44
297.0
 45
210.0
 46
0.0
 47
0.0
 48
0.0
 49
0.0
140
0.0
141
0.0
142
1.0
143
1.0
 70
1024
 72
1
 73
0
 74
0
  7

 75
0
147
1.0
148
0.0
149
0.0
100
AcDbLayout
  1
Model
 70
0
 71
0
 10
0.0
 20
0.0
 11
297.0
 21
210.0
 12
0.0
 22
0.0
 32
0.0
 14
0.0
 24
0.0
 34
0.0
 15
0.0
 25
0.0
 35
0.0
146
0.0
 13
0.0
 23
0.0
 33
0.0
 16
1.0
 26
0.0
 36
0.0
 17
0.0
 27
1.0
 37
0.0
 76
0
330
21A
345
0
346
0
  0
LAYOUT
  5
471
102
{ACAD_REACTORS
330
1A
102
}
100
AcDbPlotSettings
  1

  2
none_device
  4
ISO_A4_(297.00_x_210.00_MM)
  6

 40
0.0
 41
0.0
 42
0.0
 43
0.0
 44
297.0
 45
210.0
 46
0.0
 47
0.0
 48
0.0
 49
0.0
140
0.0
141
0.0
142
1.0
143
1.0
 70
0
 72
1
 73
0
 74
0
  7

 75
0
147
1.0
148
0.0
149
0.0
100
AcDbLayout
  1
Layout1
 70
0
 71
1
 10
0.0
 20
0.0
 11
297.0
 21
210.0
 12
0.0
 22
0.0
 32
0.0
 14
0.0
 24
0.0
 34
0.0
 15
0.0
 25
0.0
 35
0.0
146
0.0
 13
0.0
 23
0.0
 33
0.0
 16
1.0
 26
0.0
 36
0.0
 17
0.0
 27
1.0
 37
0.0
 76
0
330
21B
345
0
346
0
  0
ENDSEC
  0
EOF
